  0
SECTION
  2
HEADER
  9
$ACADVER
  1
AC1012
  9
$DWGCODEPAGE
  3
ANSI_1252
  9
$INSBASE
 10
0.0
 20
0.0
 30
0.0
  9
$EXTMIN
 10
0.713745145958086
 20
3.360168481897758
 30
-0.0000000349181948
  9
$EXTMAX
 10
5.976196309989546
 20
7.419616718333699
 30
0.0000000814935746
  9
$LIMMIN
 10
0.0
 20
0.0
  9
$LIMMAX
 10
12.0
 20
9.0
  9
$ORTHOMODE
 70
     0
  9
$REGENMODE
 70
     1
  9
$FILLMODE
 70
     1
  9
$QTEXTMODE
 70
     0
  9
$MIRRTEXT
 70
     1
  9
$DRAGMODE
 70
     2
  9
$LTSCALE
 40
1.0
  9
$OSMODE
 70
    33
  9
$ATTMODE
 70
     1
  9
$TEXTSIZE
 40
0.2
  9
$TRACEWID
 40
0.05
  9
$TEXTSTYLE
  7
STANDARD
  9
$CLAYER
  8
0
  9
$CELTYPE
  6
BYLAYER
  9
$CECOLOR
 62
   256
  9
$CELTSCALE
 40
1.0
  9
$DELOBJ
 70
     1
  9
$DISPSILH
 70
     0
  9
$DIMSCALE
 40
1.0
  9
$DIMASZ
 40
0.18
  9
$DIMEXO
 40
0.0625
  9
$DIMDLI
 40
0.38
  9
$DIMRND
 40
0.0
  9
$DIMDLE
 40
0.0
  9
$DIMEXE
 40
0.18
  9
$DIMTP
 40
0.0
  9
$DIMTM
 40
0.0
  9
$DIMTXT
 40
0.18
  9
$DIMCEN
 40
0.09
  9
$DIMTSZ
 40
0.0
  9
$DIMTOL
 70
     0
  9
$DIMLIM
 70
     0
  9
$DIMTIH
 70
     1
  9
$DIMTOH
 70
     1
  9
$DIMSE1
 70
     0
  9
$DIMSE2
 70
     0
  9
$DIMTAD
 70
     0
  9
$DIMZIN
 70
     0
  9
$DIMBLK
  1

  9
$DIMASO
 70
     1
  9
$DIMSHO
 70
     1
  9
$DIMPOST
  1

  9
$DIMAPOST
  1

  9
$DIMALT
 70
     0
  9
$DIMALTD
 70
     2
  9
$DIMALTF
 40
25.4
  9
$DIMLFAC
 40
1.0
  9
$DIMTOFL
 70
     0
  9
$DIMTVP
 40
0.0
  9
$DIMTIX
 70
     0
  9
$DIMSOXD
 70
     0
  9
$DIMSAH
 70
     0
  9
$DIMBLK1
  1

  9
$DIMBLK2
  1

  9
$DIMSTYLE
  2
STANDARD
  9
$DIMCLRD
 70
     0
  9
$DIMCLRE
 70
     0
  9
$DIMCLRT
 70
     0
  9
$DIMTFAC
 40
1.0
  9
$DIMGAP
 40
0.09
  9
$DIMJUST
 70
     0
  9
$DIMSD1
 70
     0
  9
$DIMSD2
 70
     0
  9
$DIMTOLJ
 70
     1
  9
$DIMTZIN
 70
     0
  9
$DIMALTZ
 70
     0
  9
$DIMALTTZ
 70
     0
  9
$DIMFIT
 70
     5
  9
$DIMUPT
 70
     0
  9
$DIMUNIT
 70
     2
  9
$DIMDEC
 70
     4
  9
$DIMTDEC
 70
     4
  9
$DIMALTU
 70
     2
  9
$DIMALTTD
 70
     2
  9
$DIMTXSTY
  7
STANDARD
  9
$DIMAUNIT
 70
     0
  9
$LUNITS
 70
     2
  9
$LUPREC
 70
     4
  9
$SKETCHINC
 40
0.1
  9
$FILLETRAD
 40
0.0
  9
$AUNITS
 70
     0
  9
$AUPREC
 70
     0
  9
$MENU
  1
acad
  9
$ELEVATION
 40
0.0
  9
$PELEVATION
 40
0.0
  9
$THICKNESS
 40
0.0
  9
$LIMCHECK
 70
     0
  9
$BLIPMODE
 70
     0
  9
$CHAMFERA
 40
0.0
  9
$CHAMFERB
 40
0.0
  9
$CHAMFERC
 40
0.0
  9
$CHAMFERD
 40
0.0
  9
$SKPOLY
 70
     0
  9
$TDCREATE
 40
2452221.588634259
  9
$TDUPDATE
 40
2452338.609310671
  9
$TDINDWG
 40
0.0017976042
  9
$TDUSRTIMER
 40
0.0017976042
  9
$USRTIMER
 70
     1
  9
$ANGBASE
 50
0.0
  9
$ANGDIR
 70
     0
  9
$PDMODE
 70
     0
  9
$PDSIZE
 40
0.0
  9
$PLINEWID
 40
0.0
  9
$COORDS
 70
     2
  9
$SPLFRAME
 70
     0
  9
$SPLINETYPE
 70
     6
  9
$SPLINESEGS
 70
     8
  9
$ATTDIA
 70
     0
  9
$ATTREQ
 70
     1
  9
$HANDLING
 70
  4097
  9
$HANDSEED
  5
4AF8
  9
$SURFTAB1
 70
     6
  9
$SURFTAB2
 70
     6
  9
$SURFTYPE
 70
     6
  9
$SURFU
 70
     6
  9
$SURFV
 70
     6
  9
$UCSNAME
  2

  9
$UCSORG
 10
0.0
 20
0.0
 30
0.0
  9
$UCSXDIR
 10
1.0
 20
0.0
 30
0.0
  9
$UCSYDIR
 10
0.0
 20
1.0
 30
0.0
  9
$PUCSNAME
  2

  9
$PUCSORG
 10
0.0
 20
0.0
 30
0.0
  9
$PUCSXDIR
 10
1.0
 20
0.0
 30
0.0
  9
$PUCSYDIR
 10
0.0
 20
1.0
 30
0.0
  9
$USERI1
 70
     0
  9
$USERI2
 70
     0
  9
$USERI3
 70
     0
  9
$USERI4
 70
     0
  9
$USERI5
 70
     0
  9
$USERR1
 40
0.0
  9
$USERR2
 40
0.0
  9
$USERR3
 40
0.0
  9
$USERR4
 40
0.0
  9
$USERR5
 40
0.0
  9
$WORLDVIEW
 70
     1
  9
$SHADEDGE
 70
     3
  9
$SHADEDIF
 70
    70
  9
$TILEMODE
 70
     1
  9
$MAXACTVP
 70
    16
  9
$PINSBASE
 10
0.0
 20
0.0
 30
0.0
  9
$PLIMCHECK
 70
     0
  9
$PEXTMIN
 10
1.000000000000000E+20
 20
1.000000000000000E+20
 30
1.000000000000000E+20
  9
$PEXTMAX
 10
-1.000000000000000E+20
 20
-1.000000000000000E+20
 30
-1.000000000000000E+20
  9
$PLIMMIN
 10
0.0
 20
0.0
  9
$PLIMMAX
 10
12.0
 20
9.0
  9
$UNITMODE
 70
     0
  9
$VISRETAIN
 70
     0
  9
$PLINEGEN
 70
     0
  9
$PSLTSCALE
 70
     1
  9
$TREEDEPTH
 70
  3020
  9
$PICKSTYLE
 70
     1
  9
$CMLSTYLE
  2
STANDARD
  9
$CMLJUST
 70
     0
  9
$CMLSCALE
 40
1.0
  9
$SAVEIMAGES
 70
     1
  0
ENDSEC
  0
SECTION
  2
CLASSES
  0
CLASS
  1
ACDBDICTIONARYWDFLT
  2
AcDbDictionaryWithDefault
  3
AutoCAD 2000
 90
    32768
280
     0
281
     0
  0
CLASS
  1
ACDBPLACEHOLDER
  2
AcDbPlaceHolder
  3
AutoCAD 2000
 90
    32768
280
     0
281
     0
  0
CLASS
  1
LAYOUT
  2
AcDbLayout
  3
AutoCAD 2000
 90
    32768
280
     0
281
     0
  0
CLASS
  1
LONG_TRANSACTION
  2
AcDbLongTransaction
  3
AutoCAD 2000
 90
    32768
280
     0
281
     0
  0
CLASS
  1
LWPOLYLINE
  2
AcDbPolyline
  3
AutoCAD 2000
 90
    32768
280
     0
281
     1
  0
CLASS
  1
HATCH
  2
AcDbHatch
  3
AutoCAD 2000
 90
    32768
280
     0
281
     1
  0
CLASS
  1
XRECORD
  2
AcDbXrecord
  3
AutoCAD 2000
 90
    32768
280
     0
281
     0
  0
CLASS
  1
LONG_TRANSACTION
  2
AcDbLongTransaction
  3
AutoCAD 2000
 90
    32768
280
     0
281
     0
  0
CLASS
  1
LWPOLYLINE
  2
AcDbPolyline
  3
AutoCAD 2000
 90
    32768
280
     0
281
     1
  0
CLASS
  1
HATCH
  2
AcDbHatch
  3
AutoCAD 2000
 90
    32768
280
     0
281
     1
  0
CLASS
  1
XRECORD
  2
AcDbXrecord
  3
AutoCAD 2000
 90
    32768
280
     0
281
     0
  0
ENDSEC
  0
SECTION
  2
TABLES
  0
TABLE
  2
VPORT
  5
8
330
0
100
AcDbSymbolTable
 70
     3
  0
VPORT
  5
4AF5
330
8
100
AcDbSymbolTableRecord
100
AcDbViewportTableRecord
  2
*ACTIVE
 70
     0
 10
0.0
 20
0.0
 11
1.0
 21
1.0
 12
3.344970727973816
 22
5.389892600115729
 13
0.0
 23
0.0
 14
1.0
 24
1.0
 15
0.0
 25
0.0
 16
0.0
 26
0.0
 36
1.0
 17
0.0
 27
0.0
 37
0.0
 40
4.091412395777956
 41
1.601839684625492
 42
50.0
 43
0.0
 44
0.0
 50
0.0
 51
0.0
 71
     0
 72
   100
 73
     1
 74
     1
 75
     0
 76
     0
 77
     0
 78
     0
  0
ENDTAB
  0
TABLE
  2
LTYPE
  5
5
330
0
100
AcDbSymbolTable
 70
    25
  0
LTYPE
  5
13
330
5
100
AcDbSymbolTableRecord
100
AcDbLinetypeTableRecord
  2
BYBLOCK
 70
     0
  3

 72
    65
 73
     0
 40
0.0
  0
LTYPE
  5
14
330
5
100
AcDbSymbolTableRecord
100
AcDbLinetypeTableRecord
  2
BYLAYER
 70
     0
  3

 72
    65
 73
     0
 40
0.0
  0
LTYPE
  5
15
330
5
100
AcDbSymbolTableRecord
100
AcDbLinetypeTableRecord
  2
CONTINUOUS
 70
     0
  3
Solid line
 72
    65
 73
     0
 40
0.0
  0
LTYPE
  5
22
330
5
100
AcDbSymbolTableRecord
100
AcDbLinetypeTableRecord
  2
BORDER
 70
     0
  3
__ __ . __ __ . __ __ . __ __ . __ __ . __ __ .
 72
    65
 73
     6
 40
1.75
 49
0.5
 74
     0
 49
-0.25
 74
     0
 49
0.5
 74
     0
 49
-0.25
 74
     0
 49
0.5
 74
     0
 49
-0.25
 74
     0
  0
LTYPE
  5
23
330
5
100
AcDbSymbolTableRecord
100
AcDbLinetypeTableRecord
  2
BORDER2
 70
     0
  3
__.__.__.__.__.__.__.__.__.__.__.__.__.__.__.__
 72
    65
 73
     6
 40
0.875
 49
0.25
 74
     0
 49
-0.125
 74
     0
 49
0.25
 74
     0
 49
-0.125
 74
     0
 49
0.25
 74
     0
 49
-0.125
 74
     0
  0
LTYPE
  5
24
330
5
100
AcDbSymbolTableRecord
100
AcDbLinetypeTableRecord
  2
BORDERX2
 70
     0
  3
____  ____  .  ____  ____  .  
 72
    65
 73
     6
 40
3.5
 49
1.0
 74
     0
 49
-0.5
 74
     0
 49
1.0
 74
     0
 49
-0.5
 74
     0
 49
1.0
 74
     0
 49
-0.5
 74
     0
  0
LTYPE
  5
25
330
5
100
AcDbSymbolTableRecord
100
AcDbLinetypeTableRecord
  2
CENTER
 70
     0
  3
____ _ ____ _ ____ _ ____ _ ____ _ ____ _ ____
 72
    65
 73
     4
 40
2.0
 49
1.25
 74
     0
 49
-0.25
 74
     0
 49
0.25
 74
     0
 49
-0.25
 74
     0
  0
LTYPE
  5
26
330
5
100
AcDbSymbolTableRecord
100
AcDbLinetypeTableRecord
  2
CENTER2
 70
     0
  3
____ _ ____ _ ____ _ ____ _ ____ _ ____ _ ____
 72
    65
 73
     4
 40
1.125
 49
0.75
 74
     0
 49
-0.125
 74
     0
 49
0.125
 74
     0
 49
-0.125
 74
     0
  0
LTYPE
  5
27
330
5
100
AcDbSymbolTableRecord
100
AcDbLinetypeTableRecord
  2
CENTERX2
 70
     0
  3
________  __  ________  __  ________  __  
 72
    65
 73
     4
 40
4.0
 49
2.5
 74
     0
 49
-0.5
 74
     0
 49
0.5
 74
     0
 49
-0.5
 74
     0
  0
LTYPE
  5
28
330
5
100
AcDbSymbolTableRecord
100
AcDbLinetypeTableRecord
  2
DASHDOT
 70
     0
  3
__ . __ . __ . __ . __ . __ . __ . 
 72
    65
 73
     4
 40
1.0
 49
0.5
 74
     0
 49
-0.25
 74
     0
 49
0.0
 74
     0
 49
-0.25
 74
     0
  0
LTYPE
  5
29
330
5
100
AcDbSymbolTableRecord
100
AcDbLinetypeTableRecord
  2
DASHDOT2
 70
     0
  3
_._._._._._._._._._._._._._._._.
 72
    65
 73
     4
 40
0.5
 49
0.25
 74
     0
 49
-0.125
 74
     0
 49
0.0
 74
     0
 49
-0.125
 74
     0
  0
LTYPE
  5
2A
330
5
100
AcDbSymbolTableRecord
100
AcDbLinetypeTableRecord
  2
DASHDOTX2
 70
     0
  3
____  .  ____  .  ____  .  ____  .  
 72
    65
 73
     4
 40
2.0
 49
1.0
 74
     0
 49
-0.5
 74
     0
 49
0.0
 74
     0
 49
-0.5
 74
     0
  0
LTYPE
  5
2B
330
5
100
AcDbSymbolTableRecord
100
AcDbLinetypeTableRecord
  2
DASHED
 70
     0
  3
__ __ __ __ __ __ __ __ __ __ __ __ 
 72
    65
 73
     2
 40
0.75
 49
0.5
 74
     0
 49
-0.25
 74
     0
  0
LTYPE
  5
2C
330
5
100
AcDbSymbolTableRecord
100
AcDbLinetypeTableRecord
  2
DASHED2
 70
     0
  3
_ _ _ _ _ _ _ _ _ _ _ _ _ _ _ _ _ _ 
 72
    65
 73
     2
 40
0.375
 49
0.25
 74
     0
 49
-0.125
 74
     0
  0
LTYPE
  5
2D
330
5
100
AcDbSymbolTableRecord
100
AcDbLinetypeTableRecord
  2
DASHEDX2
 70
     0
  3
____  ____  ____  ____  ____  ____  
 72
    65
 73
     2
 40
1.5
 49
1.0
 74
     0
 49
-0.5
 74
     0
  0
LTYPE
  5
2E
330
5
100
AcDbSymbolTableRecord
100
AcDbLinetypeTableRecord
  2
DIVIDE
 70
     0
  3
____ . . ____ . . ____ . . ____ . . 
 72
    65
 73
     6
 40
1.25
 49
0.5
 74
     0
 49
-0.25
 74
     0
 49
0.0
 74
     0
 49
-0.25
 74
     0
 49
0.0
 74
     0
 49
-0.25
 74
     0
  0
LTYPE
  5
2F
330
5
100
AcDbSymbolTableRecord
100
AcDbLinetypeTableRecord
  2
DIVIDE2
 70
     0
  3
__..__..__..__..__..__..__..__..__..
 72
    65
 73
     6
 40
0.625
 49
0.25
 74
     0
 49
-0.125
 74
     0
 49
0.0
 74
     0
 49
-0.125
 74
     0
 49
0.0
 74
     0
 49
-0.125
 74
     0
  0
LTYPE
  5
30
330
5
100
AcDbSymbolTableRecord
100
AcDbLinetypeTableRecord
  2
DIVIDEX2
 70
     0
  3
________  .  .  ________  .  .  ________  .  . 
 72
    65
 73
     6
 40
2.5
 49
1.0
 74
     0
 49
-0.5
 74
     0
 49
0.0
 74
     0
 49
-0.5
 74
     0
 49
0.0
 74
     0
 49
-0.5
 74
     0
  0
LTYPE
  5
31
330
5
100
AcDbSymbolTableRecord
100
AcDbLinetypeTableRecord
  2
DOT
 70
     0
  3
. . . . . . . . . . . . . . . . . . 
 72
    65
 73
     2
 40
0.25
 49
0.0
 74
     0
 49
-0.25
 74
     0
  0
LTYPE
  5
32
330
5
100
AcDbSymbolTableRecord
100
AcDbLinetypeTableRecord
  2
DOT2
 70
     0
  3
....................................
 72
    65
 73
     2
 40
0.125
 49
0.0
 74
     0
 49
-0.125
 74
     0
  0
LTYPE
  5
33
330
5
100
AcDbSymbolTableRecord
100
AcDbLinetypeTableRecord
  2
DOTX2
 70
     0
  3
.  .  .  .  .  .  .  .  .  .  .  .  .  
 72
    65
 73
     2
 40
0.5
 49
0.0
 74
     0
 49
-0.5
 74
     0
  0
LTYPE
  5
34
330
5
100
AcDbSymbolTableRecord
100
AcDbLinetypeTableRecord
  2
HIDDEN
 70
     0
  3
__ __ __ __ __ __ __ __ __ __ __ __ 
 72
    65
 73
     2
 40
0.375
 49
0.25
 74
     0
 49
-0.125
 74
     0
  0
LTYPE
  5
35
330
5
100
AcDbSymbolTableRecord
100
AcDbLinetypeTableRecord
  2
HIDDEN2
 70
     0
  3
_ _ _ _ _ _ _ _ _ _ _ _ _ _ _ _ _ _ 
 72
    65
 73
     2
 40
0.1875
 49
0.125
 74
     0
 49
-0.0625
 74
     0
  0
LTYPE
  5
36
330
5
100
AcDbSymbolTableRecord
100
AcDbLinetypeTableRecord
  2
HIDDENX2
 70
     0
  3
____ ____ ____ ____ ____ ____ ____ 
 72
    65
 73
     2
 40
0.75
 49
0.5
 74
     0
 49
-0.25
 74
     0
  0
LTYPE
  5
37
330
5
100
AcDbSymbolTableRecord
100
AcDbLinetypeTableRecord
  2
PHANTOM
 70
     0
  3
______  __  __  ______  __  __  
 72
    65
 73
     6
 40
2.5
 49
1.25
 74
     0
 49
-0.25
 74
     0
 49
0.25
 74
     0
 49
-0.25
 74
     0
 49
0.25
 74
     0
 49
-0.25
 74
     0
  0
LTYPE
  5
38
330
5
100
AcDbSymbolTableRecord
100
AcDbLinetypeTableRecord
  2
PHANTOM2
 70
     0
  3
___ _ _ ___ _ _ ___ _ _ ___ _ _ 
 72
    65
 73
     6
 40
1.25
 49
0.625
 74
     0
 49
-0.125
 74
     0
 49
0.125
 74
     0
 49
-0.125
 74
     0
 49
0.125
 74
     0
 49
-0.125
 74
     0
  0
LTYPE
  5
39
330
5
100
AcDbSymbolTableRecord
100
AcDbLinetypeTableRecord
  2
PHANTOMX2
 70
     0
  3
___ _ _ ___ _ _ ___ _ _ ___ _ _ 
 72
    65
 73
     6
 40
5.0
 49
2.5
 74
     0
 49
-0.5
 74
     0
 49
0.5
 74
     0
 49
-0.5
 74
     0
 49
0.5
 74
     0
 49
-0.5
 74
     0
  0
ENDTAB
  0
TABLE
  2
LAYER
  5
2
330
0
100
AcDbSymbolTable
 70
   257
  0
LAYER
  5
10
330
2
100
AcDbSymbolTableRecord
100
AcDbLayerTableRecord
  2
0
 70
     0
 62
     7
  6
CONTINUOUS
  0
LAYER
  5
3A
330
2
100
AcDbSymbolTableRecord
100
AcDbLayerTableRecord
  2
1
 70
     0
 62
     1
  6
CONTINUOUS
  0
LAYER
  5
3B
330
2
100
AcDbSymbolTableRecord
100
AcDbLayerTableRecord
  2
2
 70
     0
 62
     2
  6
CONTINUOUS
  0
LAYER
  5
3C
330
2
100
AcDbSymbolTableRecord
100
AcDbLayerTableRecord
  2
3
 70
     0
 62
     3
  6
CONTINUOUS
  0
LAYER
  5
3D
330
2
100
AcDbSymbolTableRecord
100
AcDbLayerTableRecord
  2
4
 70
     0
 62
     4
  6
CONTINUOUS
  0
LAYER
  5
3E
330
2
100
AcDbSymbolTableRecord
100
AcDbLayerTableRecord
  2
5
 70
     0
 62
     5
  6
CONTINUOUS
  0
LAYER
  5
3F
330
2
100
AcDbSymbolTableRecord
100
AcDbLayerTableRecord
  2
6
 70
     0
 62
     6
  6
CONTINUOUS
  0
LAYER
  5
40
330
2
100
AcDbSymbolTableRecord
100
AcDbLayerTableRecord
  2
7
 70
     0
 62
     7
  6
CONTINUOUS
  0
LAYER
  5
41
330
2
100
AcDbSymbolTableRecord
100
AcDbLayerTableRecord
  2
8
 70
     0
 62
     8
  6
CONTINUOUS
  0
LAYER
  5
42
330
2
100
AcDbSymbolTableRecord
100
AcDbLayerTableRecord
  2
9
 70
     0
 62
     9
  6
CONTINUOUS
  0
LAYER
  5
43
330
2
100
AcDbSymbolTableRecord
100
AcDbLayerTableRecord
  2
10
 70
     0
 62
    10
  6
CONTINUOUS
  0
LAYER
  5
44
330
2
100
AcDbSymbolTableRecord
100
AcDbLayerTableRecord
  2
11
 70
     0
 62
    11
  6
CONTINUOUS
  0
LAYER
  5
45
330
2
100
AcDbSymbolTableRecord
100
AcDbLayerTableRecord
  2
12
 70
     0
 62
    12
  6
CONTINUOUS
  0
LAYER
  5
46
330
2
100
AcDbSymbolTableRecord
100
AcDbLayerTableRecord
  2
13
 70
     0
 62
    13
  6
CONTINUOUS
  0
LAYER
  5
47
330
2
100
AcDbSymbolTableRecord
100
AcDbLayerTableRecord
  2
14
 70
     0
 62
    14
  6
CONTINUOUS
  0
LAYER
  5
48
330
2
100
AcDbSymbolTableRecord
100
AcDbLayerTableRecord
  2
15
 70
     0
 62
    15
  6
CONTINUOUS
  0
LAYER
  5
49
330
2
100
AcDbSymbolTableRecord
100
AcDbLayerTableRecord
  2
16
 70
     0
 62
    16
  6
CONTINUOUS
  0
LAYER
  5
4A
330
2
100
AcDbSymbolTableRecord
100
AcDbLayerTableRecord
  2
17
 70
     0
 62
    17
  6
CONTINUOUS
  0
LAYER
  5
4B
330
2
100
AcDbSymbolTableRecord
100
AcDbLayerTableRecord
  2
18
 70
     0
 62
    18
  6
CONTINUOUS
  0
LAYER
  5
4C
330
2
100
AcDbSymbolTableRecord
100
AcDbLayerTableRecord
  2
19
 70
     0
 62
    19
  6
CONTINUOUS
  0
LAYER
  5
4D
330
2
100
AcDbSymbolTableRecord
100
AcDbLayerTableRecord
  2
20
 70
     0
 62
    20
  6
CONTINUOUS
  0
LAYER
  5
4E
330
2
100
AcDbSymbolTableRecord
100
AcDbLayerTableRecord
  2
21
 70
     0
 62
    21
  6
CONTINUOUS
  0
LAYER
  5
4F
330
2
100
AcDbSymbolTableRecord
100
AcDbLayerTableRecord
  2
22
 70
     0
 62
    22
  6
CONTINUOUS
  0
LAYER
  5
50
330
2
100
AcDbSymbolTableRecord
100
AcDbLayerTableRecord
  2
23
 70
     0
 62
    23
  6
CONTINUOUS
  0
LAYER
  5
51
330
2
100
AcDbSymbolTableRecord
100
AcDbLayerTableRecord
  2
24
 70
     0
 62
    24
  6
CONTINUOUS
  0
LAYER
  5
52
330
2
100
AcDbSymbolTableRecord
100
AcDbLayerTableRecord
  2
25
 70
     0
 62
    25
  6
CONTINUOUS
  0
LAYER
  5
53
330
2
100
AcDbSymbolTableRecord
100
AcDbLayerTableRecord
  2
26
 70
     0
 62
    26
  6
CONTINUOUS
  0
LAYER
  5
54
330
2
100
AcDbSymbolTableRecord
100
AcDbLayerTableRecord
  2
27
 70
     0
 62
    27
  6
CONTINUOUS
  0
LAYER
  5
55
330
2
100
AcDbSymbolTableRecord
100
AcDbLayerTableRecord
  2
28
 70
     0
 62
    28
  6
CONTINUOUS
  0
LAYER
  5
56
330
2
100
AcDbSymbolTableRecord
100
AcDbLayerTableRecord
  2
29
 70
     0
 62
    29
  6
CONTINUOUS
  0
LAYER
  5
57
330
2
100
AcDbSymbolTableRecord
100
AcDbLayerTableRecord
  2
30
 70
     0
 62
    30
  6
CONTINUOUS
  0
LAYER
  5
58
330
2
100
AcDbSymbolTableRecord
100
AcDbLayerTableRecord
  2
31
 70
     0
 62
    31
  6
CONTINUOUS
  0
LAYER
  5
59
330
2
100
AcDbSymbolTableRecord
100
AcDbLayerTableRecord
  2
32
 70
     0
 62
    32
  6
CONTINUOUS
  0
LAYER
  5
5A
330
2
100
AcDbSymbolTableRecord
100
AcDbLayerTableRecord
  2
33
 70
     0
 62
    33
  6
CONTINUOUS
  0
LAYER
  5
5B
330
2
100
AcDbSymbolTableRecord
100
AcDbLayerTableRecord
  2
34
 70
     0
 62
    34
  6
CONTINUOUS
  0
LAYER
  5
5C
330
2
100
AcDbSymbolTableRecord
100
AcDbLayerTableRecord
  2
35
 70
     0
 62
    35
  6
CONTINUOUS
  0
LAYER
  5
5D
330
2
100
AcDbSymbolTableRecord
100
AcDbLayerTableRecord
  2
36
 70
     0
 62
    36
  6
CONTINUOUS
  0
LAYER
  5
5E
330
2
100
AcDbSymbolTableRecord
100
AcDbLayerTableRecord
  2
37
 70
     0
 62
    37
  6
CONTINUOUS
  0
LAYER
  5
5F
330
2
100
AcDbSymbolTableRecord
100
AcDbLayerTableRecord
  2
38
 70
     0
 62
    38
  6
CONTINUOUS
  0
LAYER
  5
60
330
2
100
AcDbSymbolTableRecord
100
AcDbLayerTableRecord
  2
39
 70
     0
 62
    39
  6
CONTINUOUS
  0
LAYER
  5
61
330
2
100
AcDbSymbolTableRecord
100
AcDbLayerTableRecord
  2
40
 70
     0
 62
    40
  6
CONTINUOUS
  0
LAYER
  5
62
330
2
100
AcDbSymbolTableRecord
100
AcDbLayerTableRecord
  2
41
 70
     0
 62
    41
  6
CONTINUOUS
  0
LAYER
  5
63
330
2
100
AcDbSymbolTableRecord
100
AcDbLayerTableRecord
  2
42
 70
     0
 62
    42
  6
CONTINUOUS
  0
LAYER
  5
64
330
2
100
AcDbSymbolTableRecord
100
AcDbLayerTableRecord
  2
43
 70
     0
 62
    43
  6
CONTINUOUS
  0
LAYER
  5
65
330
2
100
AcDbSymbolTableRecord
100
AcDbLayerTableRecord
  2
44
 70
     0
 62
    44
  6
CONTINUOUS
  0
LAYER
  5
66
330
2
100
AcDbSymbolTableRecord
100
AcDbLayerTableRecord
  2
45
 70
     0
 62
    45
  6
CONTINUOUS
  0
LAYER
  5
67
330
2
100
AcDbSymbolTableRecord
100
AcDbLayerTableRecord
  2
46
 70
     0
 62
    46
  6
CONTINUOUS
  0
LAYER
  5
68
330
2
100
AcDbSymbolTableRecord
100
AcDbLayerTableRecord
  2
47
 70
     0
 62
    47
  6
CONTINUOUS
  0
LAYER
  5
69
330
2
100
AcDbSymbolTableRecord
100
AcDbLayerTableRecord
  2
48
 70
     0
 62
    48
  6
CONTINUOUS
  0
LAYER
  5
6A
330
2
100
AcDbSymbolTableRecord
100
AcDbLayerTableRecord
  2
49
 70
     0
 62
    49
  6
CONTINUOUS
  0
LAYER
  5
6B
330
2
100
AcDbSymbolTableRecord
100
AcDbLayerTableRecord
  2
50
 70
     0
 62
    50
  6
CONTINUOUS
  0
LAYER
  5
6C
330
2
100
AcDbSymbolTableRecord
100
AcDbLayerTableRecord
  2
51
 70
     0
 62
    51
  6
CONTINUOUS
  0
LAYER
  5
6D
330
2
100
AcDbSymbolTableRecord
100
AcDbLayerTableRecord
  2
52
 70
     0
 62
    52
  6
CONTINUOUS
  0
LAYER
  5
6E
330
2
100
AcDbSymbolTableRecord
100
AcDbLayerTableRecord
  2
53
 70
     0
 62
    53
  6
CONTINUOUS
  0
LAYER
  5
6F
330
2
100
AcDbSymbolTableRecord
100
AcDbLayerTableRecord
  2
54
 70
     0
 62
    54
  6
CONTINUOUS
  0
LAYER
  5
70
330
2
100
AcDbSymbolTableRecord
100
AcDbLayerTableRecord
  2
55
 70
     0
 62
    55
  6
CONTINUOUS
  0
LAYER
  5
71
330
2
100
AcDbSymbolTableRecord
100
AcDbLayerTableRecord
  2
56
 70
     0
 62
    56
  6
CONTINUOUS
  0
LAYER
  5
72
330
2
100
AcDbSymbolTableRecord
100
AcDbLayerTableRecord
  2
57
 70
     0
 62
    57
  6
CONTINUOUS
  0
LAYER
  5
73
330
2
100
AcDbSymbolTableRecord
100
AcDbLayerTableRecord
  2
58
 70
     0
 62
    58
  6
CONTINUOUS
  0
LAYER
  5
74
330
2
100
AcDbSymbolTableRecord
100
AcDbLayerTableRecord
  2
59
 70
     0
 62
    59
  6
CONTINUOUS
  0
LAYER
  5
75
330
2
100
AcDbSymbolTableRecord
100
AcDbLayerTableRecord
  2
60
 70
     0
 62
    60
  6
CONTINUOUS
  0
LAYER
  5
76
330
2
100
AcDbSymbolTableRecord
100
AcDbLayerTableRecord
  2
61
 70
     0
 62
    61
  6
CONTINUOUS
  0
LAYER
  5
77
330
2
100
AcDbSymbolTableRecord
100
AcDbLayerTableRecord
  2
62
 70
     0
 62
    62
  6
CONTINUOUS
  0
LAYER
  5
78
330
2
100
AcDbSymbolTableRecord
100
AcDbLayerTableRecord
  2
63
 70
     0
 62
    63
  6
CONTINUOUS
  0
LAYER
  5
79
330
2
100
AcDbSymbolTableRecord
100
AcDbLayerTableRecord
  2
64
 70
     0
 62
    64
  6
CONTINUOUS
  0
LAYER
  5
7A
330
2
100
AcDbSymbolTableRecord
100
AcDbLayerTableRecord
  2
65
 70
     0
 62
    65
  6
CONTINUOUS
  0
LAYER
  5
7B
330
2
100
AcDbSymbolTableRecord
100
AcDbLayerTableRecord
  2
66
 70
     0
 62
    66
  6
CONTINUOUS
  0
LAYER
  5
7C
330
2
100
AcDbSymbolTableRecord
100
AcDbLayerTableRecord
  2
67
 70
     0
 62
    67
  6
CONTINUOUS
  0
LAYER
  5
7D
330
2
100
AcDbSymbolTableRecord
100
AcDbLayerTableRecord
  2
68
 70
     0
 62
    68
  6
CONTINUOUS
  0
LAYER
  5
7E
330
2
100
AcDbSymbolTableRecord
100
AcDbLayerTableRecord
  2
69
 70
     0
 62
    69
  6
CONTINUOUS
  0
LAYER
  5
7F
330
2
100
AcDbSymbolTableRecord
100
AcDbLayerTableRecord
  2
70
 70
     0
 62
    70
  6
CONTINUOUS
  0
LAYER
  5
80
330
2
100
AcDbSymbolTableRecord
100
AcDbLayerTableRecord
  2
71
 70
     0
 62
    71
  6
CONTINUOUS
  0
LAYER
  5
81
330
2
100
AcDbSymbolTableRecord
100
AcDbLayerTableRecord
  2
72
 70
     0
 62
    72
  6
CONTINUOUS
  0
LAYER
  5
82
330
2
100
AcDbSymbolTableRecord
100
AcDbLayerTableRecord
  2
73
 70
     0
 62
    73
  6
CONTINUOUS
  0
LAYER
  5
83
330
2
100
AcDbSymbolTableRecord
100
AcDbLayerTableRecord
  2
74
 70
     0
 62
    74
  6
CONTINUOUS
  0
LAYER
  5
84
330
2
100
AcDbSymbolTableRecord
100
AcDbLayerTableRecord
  2
75
 70
     0
 62
    75
  6
CONTINUOUS
  0
LAYER
  5
85
330
2
100
AcDbSymbolTableRecord
100
AcDbLayerTableRecord
  2
76
 70
     0
 62
    76
  6
CONTINUOUS
  0
LAYER
  5
86
330
2
100
AcDbSymbolTableRecord
100
AcDbLayerTableRecord
  2
77
 70
     0
 62
    77
  6
CONTINUOUS
  0
LAYER
  5
87
330
2
100
AcDbSymbolTableRecord
100
AcDbLayerTableRecord
  2
78
 70
     0
 62
    78
  6
CONTINUOUS
  0
LAYER
  5
88
330
2
100
AcDbSymbolTableRecord
100
AcDbLayerTableRecord
  2
79
 70
     0
 62
    79
  6
CONTINUOUS
  0
LAYER
  5
89
330
2
100
AcDbSymbolTableRecord
100
AcDbLayerTableRecord
  2
80
 70
     0
 62
    80
  6
CONTINUOUS
  0
LAYER
  5
8A
330
2
100
AcDbSymbolTableRecord
100
AcDbLayerTableRecord
  2
81
 70
     0
 62
    81
  6
CONTINUOUS
  0
LAYER
  5
8B
330
2
100
AcDbSymbolTableRecord
100
AcDbLayerTableRecord
  2
82
 70
     0
 62
    82
  6
CONTINUOUS
  0
LAYER
  5
8C
330
2
100
AcDbSymbolTableRecord
100
AcDbLayerTableRecord
  2
83
 70
     0
 62
    83
  6
CONTINUOUS
  0
LAYER
  5
8D
330
2
100
AcDbSymbolTableRecord
100
AcDbLayerTableRecord
  2
84
 70
     0
 62
    84
  6
CONTINUOUS
  0
LAYER
  5
8E
330
2
100
AcDbSymbolTableRecord
100
AcDbLayerTableRecord
  2
85
 70
     0
 62
    85
  6
CONTINUOUS
  0
LAYER
  5
8F
330
2
100
AcDbSymbolTableRecord
100
AcDbLayerTableRecord
  2
86
 70
     0
 62
    86
  6
CONTINUOUS
  0
LAYER
  5
90
330
2
100
AcDbSymbolTableRecord
100
AcDbLayerTableRecord
  2
87
 70
     0
 62
    87
  6
CONTINUOUS
  0
LAYER
  5
91
330
2
100
AcDbSymbolTableRecord
100
AcDbLayerTableRecord
  2
88
 70
     0
 62
    88
  6
CONTINUOUS
  0
LAYER
  5
92
330
2
100
AcDbSymbolTableRecord
100
AcDbLayerTableRecord
  2
89
 70
     0
 62
    89
  6
CONTINUOUS
  0
LAYER
  5
93
330
2
100
AcDbSymbolTableRecord
100
AcDbLayerTableRecord
  2
90
 70
     0
 62
    90
  6
CONTINUOUS
  0
LAYER
  5
94
330
2
100
AcDbSymbolTableRecord
100
AcDbLayerTableRecord
  2
91
 70
     0
 62
    91
  6
CONTINUOUS
  0
LAYER
  5
95
330
2
100
AcDbSymbolTableRecord
100
AcDbLayerTableRecord
  2
92
 70
     0
 62
    92
  6
CONTINUOUS
  0
LAYER
  5
96
330
2
100
AcDbSymbolTableRecord
100
AcDbLayerTableRecord
  2
93
 70
     0
 62
    93
  6
CONTINUOUS
  0
LAYER
  5
97
330
2
100
AcDbSymbolTableRecord
100
AcDbLayerTableRecord
  2
94
 70
     0
 62
    94
  6
CONTINUOUS
  0
LAYER
  5
98
330
2
100
AcDbSymbolTableRecord
100
AcDbLayerTableRecord
  2
95
 70
     0
 62
    95
  6
CONTINUOUS
  0
LAYER
  5
99
330
2
100
AcDbSymbolTableRecord
100
AcDbLayerTableRecord
  2
96
 70
     0
 62
    96
  6
CONTINUOUS
  0
LAYER
  5
9A
330
2
100
AcDbSymbolTableRecord
100
AcDbLayerTableRecord
  2
97
 70
     0
 62
    97
  6
CONTINUOUS
  0
LAYER
  5
9B
330
2
100
AcDbSymbolTableRecord
100
AcDbLayerTableRecord
  2
98
 70
     0
 62
    98
  6
CONTINUOUS
  0
LAYER
  5
9C
330
2
100
AcDbSymbolTableRecord
100
AcDbLayerTableRecord
  2
99
 70
     0
 62
    99
  6
CONTINUOUS
  0
LAYER
  5
9D
330
2
100
AcDbSymbolTableRecord
100
AcDbLayerTableRecord
  2
100
 70
     0
 62
   100
  6
CONTINUOUS
  0
LAYER
  5
9E
330
2
100
AcDbSymbolTableRecord
100
AcDbLayerTableRecord
  2
101
 70
     0
 62
   101
  6
CONTINUOUS
  0
LAYER
  5
9F
330
2
100
AcDbSymbolTableRecord
100
AcDbLayerTableRecord
  2
102
 70
     0
 62
   102
  6
CONTINUOUS
  0
LAYER
  5
A0
330
2
100
AcDbSymbolTableRecord
100
AcDbLayerTableRecord
  2
103
 70
     0
 62
   103
  6
CONTINUOUS
  0
LAYER
  5
A1
330
2
100
AcDbSymbolTableRecord
100
AcDbLayerTableRecord
  2
104
 70
     0
 62
   104
  6
CONTINUOUS
  0
LAYER
  5
A2
330
2
100
AcDbSymbolTableRecord
100
AcDbLayerTableRecord
  2
105
 70
     0
 62
   105
  6
CONTINUOUS
  0
LAYER
  5
A3
330
2
100
AcDbSymbolTableRecord
100
AcDbLayerTableRecord
  2
106
 70
     0
 62
   106
  6
CONTINUOUS
  0
LAYER
  5
A4
330
2
100
AcDbSymbolTableRecord
100
AcDbLayerTableRecord
  2
107
 70
     0
 62
   107
  6
CONTINUOUS
  0
LAYER
  5
A5
330
2
100
AcDbSymbolTableRecord
100
AcDbLayerTableRecord
  2
108
 70
     0
 62
   108
  6
CONTINUOUS
  0
LAYER
  5
A6
330
2
100
AcDbSymbolTableRecord
100
AcDbLayerTableRecord
  2
109
 70
     0
 62
   109
  6
CONTINUOUS
  0
LAYER
  5
A7
330
2
100
AcDbSymbolTableRecord
100
AcDbLayerTableRecord
  2
110
 70
     0
 62
   110
  6
CONTINUOUS
  0
LAYER
  5
A8
330
2
100
AcDbSymbolTableRecord
100
AcDbLayerTableRecord
  2
111
 70
     0
 62
   111
  6
CONTINUOUS
  0
LAYER
  5
A9
330
2
100
AcDbSymbolTableRecord
100
AcDbLayerTableRecord
  2
112
 70
     0
 62
   112
  6
CONTINUOUS
  0
LAYER
  5
AA
330
2
100
AcDbSymbolTableRecord
100
AcDbLayerTableRecord
  2
113
 70
     0
 62
   113
  6
CONTINUOUS
  0
LAYER
  5
AB
330
2
100
AcDbSymbolTableRecord
100
AcDbLayerTableRecord
  2
114
 70
     0
 62
   114
  6
CONTINUOUS
  0
LAYER
  5
AC
330
2
100
AcDbSymbolTableRecord
100
AcDbLayerTableRecord
  2
115
 70
     0
 62
   115
  6
CONTINUOUS
  0
LAYER
  5
AD
330
2
100
AcDbSymbolTableRecord
100
AcDbLayerTableRecord
  2
116
 70
     0
 62
   116
  6
CONTINUOUS
  0
LAYER
  5
AE
330
2
100
AcDbSymbolTableRecord
100
AcDbLayerTableRecord
  2
117
 70
     0
 62
   117
  6
CONTINUOUS
  0
LAYER
  5
AF
330
2
100
AcDbSymbolTableRecord
100
AcDbLayerTableRecord
  2
118
 70
     0
 62
   118
  6
CONTINUOUS
  0
LAYER
  5
B0
330
2
100
AcDbSymbolTableRecord
100
AcDbLayerTableRecord
  2
119
 70
     0
 62
   119
  6
CONTINUOUS
  0
LAYER
  5
B1
330
2
100
AcDbSymbolTableRecord
100
AcDbLayerTableRecord
  2
120
 70
     0
 62
   120
  6
CONTINUOUS
  0
LAYER
  5
B2
330
2
100
AcDbSymbolTableRecord
100
AcDbLayerTableRecord
  2
121
 70
     0
 62
   121
  6
CONTINUOUS
  0
LAYER
  5
B3
330
2
100
AcDbSymbolTableRecord
100
AcDbLayerTableRecord
  2
122
 70
     0
 62
   122
  6
CONTINUOUS
  0
LAYER
  5
B4
330
2
100
AcDbSymbolTableRecord
100
AcDbLayerTableRecord
  2
123
 70
     0
 62
   123
  6
CONTINUOUS
  0
LAYER
  5
B5
330
2
100
AcDbSymbolTableRecord
100
AcDbLayerTableRecord
  2
124
 70
     0
 62
   124
  6
CONTINUOUS
  0
LAYER
  5
B6
330
2
100
AcDbSymbolTableRecord
100
AcDbLayerTableRecord
  2
125
 70
     0
 62
   125
  6
CONTINUOUS
  0
LAYER
  5
B7
330
2
100
AcDbSymbolTableRecord
100
AcDbLayerTableRecord
  2
126
 70
     0
 62
   126
  6
CONTINUOUS
  0
LAYER
  5
B8
330
2
100
AcDbSymbolTableRecord
100
AcDbLayerTableRecord
  2
127
 70
     0
 62
   127
  6
CONTINUOUS
  0
LAYER
  5
B9
330
2
100
AcDbSymbolTableRecord
100
AcDbLayerTableRecord
  2
128
 70
     0
 62
   128
  6
CONTINUOUS
  0
LAYER
  5
BA
330
2
100
AcDbSymbolTableRecord
100
AcDbLayerTableRecord
  2
129
 70
     0
 62
   129
  6
CONTINUOUS
  0
LAYER
  5
BB
330
2
100
AcDbSymbolTableRecord
100
AcDbLayerTableRecord
  2
130
 70
     0
 62
   130
  6
CONTINUOUS
  0
LAYER
  5
BC
330
2
100
AcDbSymbolTableRecord
100
AcDbLayerTableRecord
  2
131
 70
     0
 62
   131
  6
CONTINUOUS
  0
LAYER
  5
BD
330
2
100
AcDbSymbolTableRecord
100
AcDbLayerTableRecord
  2
132
 70
     0
 62
   132
  6
CONTINUOUS
  0
LAYER
  5
BE
330
2
100
AcDbSymbolTableRecord
100
AcDbLayerTableRecord
  2
133
 70
     0
 62
   133
  6
CONTINUOUS
  0
LAYER
  5
BF
330
2
100
AcDbSymbolTableRecord
100
AcDbLayerTableRecord
  2
134
 70
     0
 62
   134
  6
CONTINUOUS
  0
LAYER
  5
C0
330
2
100
AcDbSymbolTableRecord
100
AcDbLayerTableRecord
  2
135
 70
     0
 62
   135
  6
CONTINUOUS
  0
LAYER
  5
C1
330
2
100
AcDbSymbolTableRecord
100
AcDbLayerTableRecord
  2
136
 70
     0
 62
   136
  6
CONTINUOUS
  0
LAYER
  5
C2
330
2
100
AcDbSymbolTableRecord
100
AcDbLayerTableRecord
  2
137
 70
     0
 62
   137
  6
CONTINUOUS
  0
LAYER
  5
C3
330
2
100
AcDbSymbolTableRecord
100
AcDbLayerTableRecord
  2
138
 70
     0
 62
   138
  6
CONTINUOUS
  0
LAYER
  5
C4
330
2
100
AcDbSymbolTableRecord
100
AcDbLayerTableRecord
  2
139
 70
     0
 62
   139
  6
CONTINUOUS
  0
LAYER
  5
C5
330
2
100
AcDbSymbolTableRecord
100
AcDbLayerTableRecord
  2
140
 70
     0
 62
   140
  6
CONTINUOUS
  0
LAYER
  5
C6
330
2
100
AcDbSymbolTableRecord
100
AcDbLayerTableRecord
  2
141
 70
     0
 62
   141
  6
CONTINUOUS
  0
LAYER
  5
C7
330
2
100
AcDbSymbolTableRecord
100
AcDbLayerTableRecord
  2
142
 70
     0
 62
   142
  6
CONTINUOUS
  0
LAYER
  5
C8
330
2
100
AcDbSymbolTableRecord
100
AcDbLayerTableRecord
  2
143
 70
     0
 62
   143
  6
CONTINUOUS
  0
LAYER
  5
C9
330
2
100
AcDbSymbolTableRecord
100
AcDbLayerTableRecord
  2
144
 70
     0
 62
   144
  6
CONTINUOUS
  0
LAYER
  5
CA
330
2
100
AcDbSymbolTableRecord
100
AcDbLayerTableRecord
  2
145
 70
     0
 62
   145
  6
CONTINUOUS
  0
LAYER
  5
CB
330
2
100
AcDbSymbolTableRecord
100
AcDbLayerTableRecord
  2
146
 70
     0
 62
   146
  6
CONTINUOUS
  0
LAYER
  5
CC
330
2
100
AcDbSymbolTableRecord
100
AcDbLayerTableRecord
  2
147
 70
     0
 62
   147
  6
CONTINUOUS
  0
LAYER
  5
CD
330
2
100
AcDbSymbolTableRecord
100
AcDbLayerTableRecord
  2
148
 70
     0
 62
   148
  6
CONTINUOUS
  0
LAYER
  5
CE
330
2
100
AcDbSymbolTableRecord
100
AcDbLayerTableRecord
  2
149
 70
     0
 62
   149
  6
CONTINUOUS
  0
LAYER
  5
CF
330
2
100
AcDbSymbolTableRecord
100
AcDbLayerTableRecord
  2
150
 70
     0
 62
   150
  6
CONTINUOUS
  0
LAYER
  5
D0
330
2
100
AcDbSymbolTableRecord
100
AcDbLayerTableRecord
  2
151
 70
     0
 62
   151
  6
CONTINUOUS
  0
LAYER
  5
D1
330
2
100
AcDbSymbolTableRecord
100
AcDbLayerTableRecord
  2
152
 70
     0
 62
   152
  6
CONTINUOUS
  0
LAYER
  5
D2
330
2
100
AcDbSymbolTableRecord
100
AcDbLayerTableRecord
  2
153
 70
     0
 62
   153
  6
CONTINUOUS
  0
LAYER
  5
D3
330
2
100
AcDbSymbolTableRecord
100
AcDbLayerTableRecord
  2
154
 70
     0
 62
   154
  6
CONTINUOUS
  0
LAYER
  5
D4
330
2
100
AcDbSymbolTableRecord
100
AcDbLayerTableRecord
  2
155
 70
     0
 62
   155
  6
CONTINUOUS
  0
LAYER
  5
D5
330
2
100
AcDbSymbolTableRecord
100
AcDbLayerTableRecord
  2
156
 70
     0
 62
   156
  6
CONTINUOUS
  0
LAYER
  5
D6
330
2
100
AcDbSymbolTableRecord
100
AcDbLayerTableRecord
  2
157
 70
     0
 62
   157
  6
CONTINUOUS
  0
LAYER
  5
D7
330
2
100
AcDbSymbolTableRecord
100
AcDbLayerTableRecord
  2
158
 70
     0
 62
   158
  6
CONTINUOUS
  0
LAYER
  5
D8
330
2
100
AcDbSymbolTableRecord
100
AcDbLayerTableRecord
  2
159
 70
     0
 62
   159
  6
CONTINUOUS
  0
LAYER
  5
D9
330
2
100
AcDbSymbolTableRecord
100
AcDbLayerTableRecord
  2
160
 70
     0
 62
   160
  6
CONTINUOUS
  0
LAYER
  5
DA
330
2
100
AcDbSymbolTableRecord
100
AcDbLayerTableRecord
  2
161
 70
     0
 62
   161
  6
CONTINUOUS
  0
LAYER
  5
DB
330
2
100
AcDbSymbolTableRecord
100
AcDbLayerTableRecord
  2
162
 70
     0
 62
   162
  6
CONTINUOUS
  0
LAYER
  5
DC
330
2
100
AcDbSymbolTableRecord
100
AcDbLayerTableRecord
  2
163
 70
     0
 62
   163
  6
CONTINUOUS
  0
LAYER
  5
DD
330
2
100
AcDbSymbolTableRecord
100
AcDbLayerTableRecord
  2
164
 70
     0
 62
   164
  6
CONTINUOUS
  0
LAYER
  5
DE
330
2
100
AcDbSymbolTableRecord
100
AcDbLayerTableRecord
  2
165
 70
     0
 62
   165
  6
CONTINUOUS
  0
LAYER
  5
DF
330
2
100
AcDbSymbolTableRecord
100
AcDbLayerTableRecord
  2
166
 70
     0
 62
   166
  6
CONTINUOUS
  0
LAYER
  5
E0
330
2
100
AcDbSymbolTableRecord
100
AcDbLayerTableRecord
  2
167
 70
     0
 62
   167
  6
CONTINUOUS
  0
LAYER
  5
E1
330
2
100
AcDbSymbolTableRecord
100
AcDbLayerTableRecord
  2
168
 70
     0
 62
   168
  6
CONTINUOUS
  0
LAYER
  5
E2
330
2
100
AcDbSymbolTableRecord
100
AcDbLayerTableRecord
  2
169
 70
     0
 62
   169
  6
CONTINUOUS
  0
LAYER
  5
E3
330
2
100
AcDbSymbolTableRecord
100
AcDbLayerTableRecord
  2
170
 70
     0
 62
   170
  6
CONTINUOUS
  0
LAYER
  5
E4
330
2
100
AcDbSymbolTableRecord
100
AcDbLayerTableRecord
  2
171
 70
     0
 62
   171
  6
CONTINUOUS
  0
LAYER
  5
E5
330
2
100
AcDbSymbolTableRecord
100
AcDbLayerTableRecord
  2
172
 70
     0
 62
   172
  6
CONTINUOUS
  0
LAYER
  5
E6
330
2
100
AcDbSymbolTableRecord
100
AcDbLayerTableRecord
  2
173
 70
     0
 62
   173
  6
CONTINUOUS
  0
LAYER
  5
E7
330
2
100
AcDbSymbolTableRecord
100
AcDbLayerTableRecord
  2
174
 70
     0
 62
   174
  6
CONTINUOUS
  0
LAYER
  5
E8
330
2
100
AcDbSymbolTableRecord
100
AcDbLayerTableRecord
  2
175
 70
     0
 62
   175
  6
CONTINUOUS
  0
LAYER
  5
E9
330
2
100
AcDbSymbolTableRecord
100
AcDbLayerTableRecord
  2
176
 70
     0
 62
   176
  6
CONTINUOUS
  0
LAYER
  5
EA
330
2
100
AcDbSymbolTableRecord
100
AcDbLayerTableRecord
  2
177
 70
     0
 62
   177
  6
CONTINUOUS
  0
LAYER
  5
EB
330
2
100
AcDbSymbolTableRecord
100
AcDbLayerTableRecord
  2
178
 70
     0
 62
   178
  6
CONTINUOUS
  0
LAYER
  5
EC
330
2
100
AcDbSymbolTableRecord
100
AcDbLayerTableRecord
  2
179
 70
     0
 62
   179
  6
CONTINUOUS
  0
LAYER
  5
ED
330
2
100
AcDbSymbolTableRecord
100
AcDbLayerTableRecord
  2
180
 70
     0
 62
   180
  6
CONTINUOUS
  0
LAYER
  5
EE
330
2
100
AcDbSymbolTableRecord
100
AcDbLayerTableRecord
  2
181
 70
     0
 62
   181
  6
CONTINUOUS
  0
LAYER
  5
EF
330
2
100
AcDbSymbolTableRecord
100
AcDbLayerTableRecord
  2
182
 70
     0
 62
   182
  6
CONTINUOUS
  0
LAYER
  5
F0
330
2
100
AcDbSymbolTableRecord
100
AcDbLayerTableRecord
  2
183
 70
     0
 62
   183
  6
CONTINUOUS
  0
LAYER
  5
F1
330
2
100
AcDbSymbolTableRecord
100
AcDbLayerTableRecord
  2
184
 70
     0
 62
   184
  6
CONTINUOUS
  0
LAYER
  5
F2
330
2
100
AcDbSymbolTableRecord
100
AcDbLayerTableRecord
  2
185
 70
     0
 62
   185
  6
CONTINUOUS
  0
LAYER
  5
F3
330
2
100
AcDbSymbolTableRecord
100
AcDbLayerTableRecord
  2
186
 70
     0
 62
   186
  6
CONTINUOUS
  0
LAYER
  5
F4
330
2
100
AcDbSymbolTableRecord
100
AcDbLayerTableRecord
  2
187
 70
     0
 62
   187
  6
CONTINUOUS
  0
LAYER
  5
F5
330
2
100
AcDbSymbolTableRecord
100
AcDbLayerTableRecord
  2
188
 70
     0
 62
   188
  6
CONTINUOUS
  0
LAYER
  5
F6
330
2
100
AcDbSymbolTableRecord
100
AcDbLayerTableRecord
  2
189
 70
     0
 62
   189
  6
CONTINUOUS
  0
LAYER
  5
F7
330
2
100
AcDbSymbolTableRecord
100
AcDbLayerTableRecord
  2
190
 70
     0
 62
   190
  6
CONTINUOUS
  0
LAYER
  5
F8
330
2
100
AcDbSymbolTableRecord
100
AcDbLayerTableRecord
  2
191
 70
     0
 62
   191
  6
CONTINUOUS
  0
LAYER
  5
F9
330
2
100
AcDbSymbolTableRecord
100
AcDbLayerTableRecord
  2
192
 70
     0
 62
   192
  6
CONTINUOUS
  0
LAYER
  5
FA
330
2
100
AcDbSymbolTableRecord
100
AcDbLayerTableRecord
  2
193
 70
     0
 62
   193
  6
CONTINUOUS
  0
LAYER
  5
FB
330
2
100
AcDbSymbolTableRecord
100
AcDbLayerTableRecord
  2
194
 70
     0
 62
   194
  6
CONTINUOUS
  0
LAYER
  5
FC
330
2
100
AcDbSymbolTableRecord
100
AcDbLayerTableRecord
  2
195
 70
     0
 62
   195
  6
CONTINUOUS
  0
LAYER
  5
FD
330
2
100
AcDbSymbolTableRecord
100
AcDbLayerTableRecord
  2
196
 70
     0
 62
   196
  6
CONTINUOUS
  0
LAYER
  5
FE
330
2
100
AcDbSymbolTableRecord
100
AcDbLayerTableRecord
  2
197
 70
     0
 62
   197
  6
CONTINUOUS
  0
LAYER
  5
FF
330
2
100
AcDbSymbolTableRecord
100
AcDbLayerTableRecord
  2
198
 70
     0
 62
   198
  6
CONTINUOUS
  0
LAYER
  5
100
330
2
100
AcDbSymbolTableRecord
100
AcDbLayerTableRecord
  2
199
 70
     0
 62
   199
  6
CONTINUOUS
  0
LAYER
  5
101
330
2
100
AcDbSymbolTableRecord
100
AcDbLayerTableRecord
  2
200
 70
     0
 62
   200
  6
CONTINUOUS
  0
LAYER
  5
102
330
2
100
AcDbSymbolTableRecord
100
AcDbLayerTableRecord
  2
201
 70
     0
 62
   201
  6
CONTINUOUS
  0
LAYER
  5
103
330
2
100
AcDbSymbolTableRecord
100
AcDbLayerTableRecord
  2
202
 70
     0
 62
   202
  6
CONTINUOUS
  0
LAYER
  5
104
330
2
100
AcDbSymbolTableRecord
100
AcDbLayerTableRecord
  2
203
 70
     0
 62
   203
  6
CONTINUOUS
  0
LAYER
  5
105
330
2
100
AcDbSymbolTableRecord
100
AcDbLayerTableRecord
  2
204
 70
     0
 62
   204
  6
CONTINUOUS
  0
LAYER
  5
106
330
2
100
AcDbSymbolTableRecord
100
AcDbLayerTableRecord
  2
205
 70
     0
 62
   205
  6
CONTINUOUS
  0
LAYER
  5
107
330
2
100
AcDbSymbolTableRecord
100
AcDbLayerTableRecord
  2
206
 70
     0
 62
   206
  6
CONTINUOUS
  0
LAYER
  5
108
330
2
100
AcDbSymbolTableRecord
100
AcDbLayerTableRecord
  2
207
 70
     0
 62
   207
  6
CONTINUOUS
  0
LAYER
  5
109
330
2
100
AcDbSymbolTableRecord
100
AcDbLayerTableRecord
  2
208
 70
     0
 62
   208
  6
CONTINUOUS
  0
LAYER
  5
10A
330
2
100
AcDbSymbolTableRecord
100
AcDbLayerTableRecord
  2
209
 70
     0
 62
   209
  6
CONTINUOUS
  0
LAYER
  5
10B
330
2
100
AcDbSymbolTableRecord
100
AcDbLayerTableRecord
  2
210
 70
     0
 62
   210
  6
CONTINUOUS
  0
LAYER
  5
10C
330
2
100
AcDbSymbolTableRecord
100
AcDbLayerTableRecord
  2
211
 70
     0
 62
   211
  6
CONTINUOUS
  0
LAYER
  5
10D
330
2
100
AcDbSymbolTableRecord
100
AcDbLayerTableRecord
  2
212
 70
     0
 62
   212
  6
CONTINUOUS
  0
LAYER
  5
10E
330
2
100
AcDbSymbolTableRecord
100
AcDbLayerTableRecord
  2
213
 70
     0
 62
   213
  6
CONTINUOUS
  0
LAYER
  5
10F
330
2
100
AcDbSymbolTableRecord
100
AcDbLayerTableRecord
  2
214
 70
     0
 62
   214
  6
CONTINUOUS
  0
LAYER
  5
110
330
2
100
AcDbSymbolTableRecord
100
AcDbLayerTableRecord
  2
215
 70
     0
 62
   215
  6
CONTINUOUS
  0
LAYER
  5
111
330
2
100
AcDbSymbolTableRecord
100
AcDbLayerTableRecord
  2
216
 70
     0
 62
   216
  6
CONTINUOUS
  0
LAYER
  5
112
330
2
100
AcDbSymbolTableRecord
100
AcDbLayerTableRecord
  2
217
 70
     0
 62
   217
  6
CONTINUOUS
  0
LAYER
  5
113
330
2
100
AcDbSymbolTableRecord
100
AcDbLayerTableRecord
  2
218
 70
     0
 62
   218
  6
CONTINUOUS
  0
LAYER
  5
114
330
2
100
AcDbSymbolTableRecord
100
AcDbLayerTableRecord
  2
219
 70
     0
 62
   219
  6
CONTINUOUS
  0
LAYER
  5
115
330
2
100
AcDbSymbolTableRecord
100
AcDbLayerTableRecord
  2
220
 70
     0
 62
   220
  6
CONTINUOUS
  0
LAYER
  5
116
330
2
100
AcDbSymbolTableRecord
100
AcDbLayerTableRecord
  2
221
 70
     0
 62
   221
  6
CONTINUOUS
  0
LAYER
  5
117
330
2
100
AcDbSymbolTableRecord
100
AcDbLayerTableRecord
  2
222
 70
     0
 62
   222
  6
CONTINUOUS
  0
LAYER
  5
118
330
2
100
AcDbSymbolTableRecord
100
AcDbLayerTableRecord
  2
223
 70
     0
 62
   223
  6
CONTINUOUS
  0
LAYER
  5
119
330
2
100
AcDbSymbolTableRecord
100
AcDbLayerTableRecord
  2
224
 70
     0
 62
   224
  6
CONTINUOUS
  0
LAYER
  5
11A
330
2
100
AcDbSymbolTableRecord
100
AcDbLayerTableRecord
  2
225
 70
     0
 62
   225
  6
CONTINUOUS
  0
LAYER
  5
11B
330
2
100
AcDbSymbolTableRecord
100
AcDbLayerTableRecord
  2
226
 70
     0
 62
   226
  6
CONTINUOUS
  0
LAYER
  5
11C
330
2
100
AcDbSymbolTableRecord
100
AcDbLayerTableRecord
  2
227
 70
     0
 62
   227
  6
CONTINUOUS
  0
LAYER
  5
11D
330
2
100
AcDbSymbolTableRecord
100
AcDbLayerTableRecord
  2
228
 70
     0
 62
   228
  6
CONTINUOUS
  0
LAYER
  5
11E
330
2
100
AcDbSymbolTableRecord
100
AcDbLayerTableRecord
  2
229
 70
     0
 62
   229
  6
CONTINUOUS
  0
LAYER
  5
11F
330
2
100
AcDbSymbolTableRecord
100
AcDbLayerTableRecord
  2
230
 70
     0
 62
   230
  6
CONTINUOUS
  0
LAYER
  5
120
330
2
100
AcDbSymbolTableRecord
100
AcDbLayerTableRecord
  2
231
 70
     0
 62
   231
  6
CONTINUOUS
  0
LAYER
  5
121
330
2
100
AcDbSymbolTableRecord
100
AcDbLayerTableRecord
  2
232
 70
     0
 62
   232
  6
CONTINUOUS
  0
LAYER
  5
122
330
2
100
AcDbSymbolTableRecord
100
AcDbLayerTableRecord
  2
233
 70
     0
 62
   233
  6
CONTINUOUS
  0
LAYER
  5
123
330
2
100
AcDbSymbolTableRecord
100
AcDbLayerTableRecord
  2
234
 70
     0
 62
   234
  6
CONTINUOUS
  0
LAYER
  5
124
330
2
100
AcDbSymbolTableRecord
100
AcDbLayerTableRecord
  2
235
 70
     0
 62
   235
  6
CONTINUOUS
  0
LAYER
  5
125
330
2
100
AcDbSymbolTableRecord
100
AcDbLayerTableRecord
  2
236
 70
     0
 62
   236
  6
CONTINUOUS
  0
LAYER
  5
126
330
2
100
AcDbSymbolTableRecord
100
AcDbLayerTableRecord
  2
237
 70
     0
 62
   237
  6
CONTINUOUS
  0
LAYER
  5
127
330
2
100
AcDbSymbolTableRecord
100
AcDbLayerTableRecord
  2
238
 70
     0
 62
   238
  6
CONTINUOUS
  0
LAYER
  5
128
330
2
100
AcDbSymbolTableRecord
100
AcDbLayerTableRecord
  2
239
 70
     0
 62
   239
  6
CONTINUOUS
  0
LAYER
  5
129
330
2
100
AcDbSymbolTableRecord
100
AcDbLayerTableRecord
  2
240
 70
     0
 62
   240
  6
CONTINUOUS
  0
LAYER
  5
12A
330
2
100
AcDbSymbolTableRecord
100
AcDbLayerTableRecord
  2
241
 70
     0
 62
   241
  6
CONTINUOUS
  0
LAYER
  5
12B
330
2
100
AcDbSymbolTableRecord
100
AcDbLayerTableRecord
  2
242
 70
     0
 62
   242
  6
CONTINUOUS
  0
LAYER
  5
12C
330
2
100
AcDbSymbolTableRecord
100
AcDbLayerTableRecord
  2
243
 70
     0
 62
   243
  6
CONTINUOUS
  0
LAYER
  5
12D
330
2
100
AcDbSymbolTableRecord
100
AcDbLayerTableRecord
  2
244
 70
     0
 62
   244
  6
CONTINUOUS
  0
LAYER
  5
12E
330
2
100
AcDbSymbolTableRecord
100
AcDbLayerTableRecord
  2
245
 70
     0
 62
   245
  6
CONTINUOUS
  0
LAYER
  5
12F
330
2
100
AcDbSymbolTableRecord
100
AcDbLayerTableRecord
  2
246
 70
     0
 62
   246
  6
CONTINUOUS
  0
LAYER
  5
130
330
2
100
AcDbSymbolTableRecord
100
AcDbLayerTableRecord
  2
247
 70
     0
 62
   247
  6
CONTINUOUS
  0
LAYER
  5
131
330
2
100
AcDbSymbolTableRecord
100
AcDbLayerTableRecord
  2
248
 70
     0
 62
   248
  6
CONTINUOUS
  0
LAYER
  5
132
330
2
100
AcDbSymbolTableRecord
100
AcDbLayerTableRecord
  2
249
 70
     0
 62
   249
  6
CONTINUOUS
  0
LAYER
  5
133
330
2
100
AcDbSymbolTableRecord
100
AcDbLayerTableRecord
  2
250
 70
     0
 62
   250
  6
CONTINUOUS
  0
LAYER
  5
134
330
2
100
AcDbSymbolTableRecord
100
AcDbLayerTableRecord
  2
251
 70
     0
 62
   251
  6
CONTINUOUS
  0
LAYER
  5
135
330
2
100
AcDbSymbolTableRecord
100
AcDbLayerTableRecord
  2
252
 70
     0
 62
   252
  6
CONTINUOUS
  0
LAYER
  5
136
330
2
100
AcDbSymbolTableRecord
100
AcDbLayerTableRecord
  2
253
 70
     0
 62
   253
  6
CONTINUOUS
  0
LAYER
  5
137
330
2
100
AcDbSymbolTableRecord
100
AcDbLayerTableRecord
  2
254
 70
     0
 62
   254
  6
CONTINUOUS
  0
LAYER
  5
138
330
2
100
AcDbSymbolTableRecord
100
AcDbLayerTableRecord
  2
255
 70
     0
 62
   255
  6
CONTINUOUS
  0
LAYER
  5
4AA9
330
2
100
AcDbSymbolTableRecord
100
AcDbLayerTableRecord
  2
DEFPOINTS
 70
     0
 62
     7
  6
CONTINUOUS
  0
ENDTAB
  0
TABLE
  2
STYLE
  5
3
330
0
100
AcDbSymbolTable
 70
     1
  0
STYLE
  5
11
330
3
100
AcDbSymbolTableRecord
100
AcDbTextStyleTableRecord
  2
STANDARD
 70
     0
 40
0.0
 41
1.0
 50
0.0
 71
     0
 42
0.2
  3
monotxt
  4

  0
ENDTAB
  0
TABLE
  2
VIEW
  5
6
330
0
100
AcDbSymbolTable
 70
     0
  0
ENDTAB
  0
TABLE
  2
UCS
  5
7
330
0
100
AcDbSymbolTable
 70
     0
  0
ENDTAB
  0
TABLE
  2
APPID
  5
9
330
0
100
AcDbSymbolTable
 70
     1
  0
APPID
  5
12
330
9
100
AcDbSymbolTableRecord
100
AcDbRegAppTableRecord
  2
ACAD
 70
     0
  0
ENDTAB
  0
TABLE
  2
DIMSTYLE
  5
A
330
0
100
AcDbSymbolTable
 70
     1
  0
DIMSTYLE
105
31B4
102
{ACAD_REACTORS
330
4AA8
102
}
330
A
100
AcDbSymbolTableRecord
100
AcDbDimStyleTableRecord
  2
STANDARD
 70
     0
  3

  4

  5

  6

  7

 40
1.0
 41
0.18
 42
0.0625
 43
0.38
 44
0.18
 45
0.0
 46
0.0
 47
0.0
 48
0.0
140
0.18
141
0.09
142
0.0
143
25.4
144
1.0
145
0.0
146
1.0
147
0.09
 71
     0
 72
     0
 73
     1
 74
     1
 75
     0
 76
     0
 77
     0
 78
     0
170
     0
171
     2
172
     0
173
     0
174
     0
175
     0
176
     0
177
     0
178
     0
270
     2
271
     4
272
     4
273
     2
274
     2
340
11
275
     0
280
     0
281
     0
282
     0
283
     1
284
     0
285
     0
286
     0
287
     3
288
     0
  0
ENDTAB
  0
TABLE
  2
BLOCK_RECORD
  5
1
330
0
100
AcDbSymbolTable
 70
     1
  0
BLOCK_RECORD
  5
1E
102
{ACAD_XDICTIONARY
360
4A72
102
}
330
1
100
AcDbSymbolTableRecord
100
AcDbBlockTableRecord
  2
*MODEL_SPACE
  0
BLOCK_RECORD
  5
1A
102
{ACAD_XDICTIONARY
360
4A74
102
}
330
1
100
AcDbSymbolTableRecord
100
AcDbBlockTableRecord
  2
*PAPER_SPACE
  0
BLOCK_RECORD
  5
4AAA
330
1
100
AcDbSymbolTableRecord
100
AcDbBlockTableRecord
  2
*D0
  0
ENDTAB
  0
ENDSEC
  0
SECTION
  2
BLOCKS
  0
BLOCK
  5
13B
330
1E
100
AcDbEntity
  8
0
100
AcDbBlockBegin
  2
*MODEL_SPACE
 70
     0
 10
0.0
 20
0.0
 30
0.0
  3
*MODEL_SPACE
  1

  0
ENDBLK
  5
13C
330
1E
100
AcDbEntity
  8
0
100
AcDbBlockEnd
  0
BLOCK
  5
139
330
1A
100
AcDbEntity
 67
     1
  8
0
100
AcDbBlockBegin
  2
*PAPER_SPACE
 70
     0
 10
0.0
 20
0.0
 30
0.0
  3
*PAPER_SPACE
  1

  0
ENDBLK
  5
13A
330
1A
100
AcDbEntity
 67
     1
  8
0
100
AcDbBlockEnd
  0
BLOCK
  5
4AB5
330
4AAA
100
AcDbEntity
  8
0
100
AcDbBlockBegin
  2
*D0
 70
     1
 10
0.0
 20
0.0
 30
0.0
  3
*D0
  1

  0
LINE
  5
4AB7
330
4AAA
100
AcDbEntity
  8
0
 62
     0
100
AcDbLine
 10
0.048785332378515
 20
7.294714592827972
 30
0.0
 11
7.371225980306943
 21
7.294714592827969
 31
0.0
  0
LINE
  5
4AB8
330
4AAA
100
AcDbEntity
  8
0
 62
     0
100
AcDbLine
 10
0.048785332378515
 20
3.484778614678366
 30
0.0
 11
7.371225980306942
 21
3.484778614678364
 31
0.0
  0
LINE
  5
4AB9
330
4AAA
100
AcDbEntity
  8
0
 62
     0
100
AcDbLine
 10
7.191225980306943
 20
7.11471459282797
 30
0.0
 11
7.191225980306942
 21
5.569746603753166
 31
0.0
  0
LINE
  5
4ABA
330
4AAA
100
AcDbEntity
  8
0
 62
     0
100
AcDbLine
 10
7.191225980306942
 20
3.664778614678364
 30
0.0
 11
7.191225980306942
 21
5.209746603753167
 31
0.0
  0
SOLID
  5
4ABB
330
4AAA
100
AcDbEntity
  8
0
 62
     0
100
AcDbTrace
 10
7.161225980306943
 20
7.11471459282797
 30
0.0
 11
7.221225980306943
 21
7.11471459282797
 31
0.0
 12
7.191225980306943
 22
7.29471459282797
 32
0.0
 13
7.191225980306943
 23
7.29471459282797
 33
0.0
  0
SOLID
  5
4ABC
330
4AAA
100
AcDbEntity
  8
0
 62
     0
100
AcDbTrace
 10
7.161225980306942
 20
3.664778614678364
 30
0.0
 11
7.221225980306942
 21
3.664778614678364
 31
0.0
 12
7.191225980306942
 22
3.484778614678364
 32
0.0
 13
7.191225980306942
 23
3.484778614678364
 33
0.0
  0
MTEXT
  5
4ABD
330
4AAA
100
AcDbEntity
  8
0
 62
     0
100
AcDbMText
 10
7.191225980306941
 20
5.389746603753168
 30
0.0
 40
0.18
 41
0.0
 71
     5
 72
     1
  1
\A1;3.8099
1001
ACAD
1000
MTEXTBEGIN
1070
    73
1070
     1
1070
    44
1040
1.0
1070
    74
1070
     0
1000
MTEXTEND
  0
POINT
  5
4ABE
330
4AAA
100
AcDbEntity
  8
DEFPOINTS
 62
     0
100
AcDbPoint
 10
-0.013714667621485
 20
7.294714592827972
 30
0.0
  0
POINT
  5
4ABF
330
4AAA
100
AcDbEntity
  8
DEFPOINTS
 62
     0
100
AcDbPoint
 10
-0.013714667621485
 20
3.484778614678366
 30
0.0
  0
POINT
  5
4AC0
330
4AAA
100
AcDbEntity
  8
DEFPOINTS
 62
     0
100
AcDbPoint
 10
7.191225980306942
 20
3.484778614678364
 30
0.0
  0
ENDBLK
  5
4AB6
330
4AAA
100
AcDbEntity
  8
0
100
AcDbBlockEnd
  0
ENDSEC
  0
SECTION
  2
ENTITIES
  0
LINE
  5
2B56
330
1E
100
AcDbEntity
  8
7
100
AcDbLine
 10
1.363370625685602
 20
3.450679359796477
 30
0.0
 11
1.359436096276152
 21
3.457236908812224
 31
0.0
  0
LINE
  5
2B57
330
1E
100
AcDbEntity
  8
7
100
AcDbLine
 10
1.359436096276152
 20
3.457236908812224
 30
0.0
 11
1.352878547260404
 21
3.484778614678366
 31
0.0
  0
LINE
  5
2B58
330
1E
100
AcDbEntity
  8
7
100
AcDbLine
 10
1.528620860882452
 20
5.685492064363406
 30
0.0
 11
1.528620860882452
 21
5.714345280032696
 31
0.0
  0
LINE
  5
2B5E
330
1E
100
AcDbEntity
  8
7
100
AcDbLine
 10
1.528620860882452
 20
5.633031672237422
 30
0.0
 11
1.528620860882452
 21
5.648769789875217
 31
0.0
  0
LINE
  5
2B64
330
1E
100
AcDbEntity
  8
7
100
AcDbLine
 10
1.553539547142294
 20
5.60548996637128
 30
0.0
 11
1.528620860882452
 21
5.617293554599626
 31
0.0
  0
LINE
  5
2B6F
330
1E
100
AcDbEntity
  8
7
100
AcDbLine
 10
1.322713821787964
 20
5.685492064363406
 30
0.0
 11
1.528620860882452
 21
5.685492064363406
 31
0.0
  0
LINE
  5
2B70
330
1E
100
AcDbEntity
  8
7
100
AcDbLine
 10
1.528620860882452
 20
5.714345280032696
 30
0.0
 11
1.322713821787964
 21
5.714345280032696
 31
0.0
  0
LINE
  5
2B71
330
1E
100
AcDbEntity
  8
7
100
AcDbLine
 10
1.299106645331271
 20
5.60548996637128
 30
0.0
 11
1.181070763047806
 21
5.60548996637128
 31
0.0
  0
LINE
  5
2B72
330
1E
100
AcDbEntity
  8
7
100
AcDbLine
 10
1.181070763047806
 20
5.60548996637128
 30
0.0
 11
1.179759253244657
 21
5.60417845656813
 31
0.0
  0
LINE
  5
2B73
330
1E
100
AcDbEntity
  8
7
100
AcDbLine
 10
1.671575429425759
 20
5.60417845656813
 30
0.0
 11
1.179759253244657
 21
5.60417845656813
 31
0.0
  0
LINE
  5
2B79
330
1E
100
AcDbEntity
  8
7
100
AcDbLine
 10
1.528620860882452
 20
5.617293554599626
 30
0.0
 11
1.322713821787964
 21
5.617293554599626
 31
0.0
  0
LINE
  5
2B7A
330
1E
100
AcDbEntity
  8
7
100
AcDbLine
 10
1.324025331591113
 20
5.633031672237422
 30
0.0
 11
1.528620860882452
 21
5.633031672237422
 31
0.0
  0
LINE
  5
2B7B
330
1E
100
AcDbEntity
  8
7
100
AcDbLine
 10
1.528620860882452
 20
5.648769789875217
 30
0.0
 11
1.324025331591113
 21
5.648769789875217
 31
0.0
  0
LINE
  5
2B7C
330
1E
100
AcDbEntity
  8
7
100
AcDbLine
 10
1.338451939425759
 20
6.330754887513012
 30
0.0
 11
1.338451939425759
 21
6.291409593418523
 31
0.0
  0
LINE
  5
2B7D
330
1E
100
AcDbEntity
  8
7
100
AcDbLine
 10
1.338451939425759
 20
6.330754887513012
 30
0.0
 11
1.512882743244656
 21
6.330754887513012
 31
0.0
  0
LINE
  5
2B7E
330
1E
100
AcDbEntity
  8
7
100
AcDbLine
 10
1.338451939425759
 20
6.291409593418523
 30
0.0
 11
1.512882743244656
 21
6.291409593418523
 31
0.0
  0
LINE
  5
2B7F
330
1E
100
AcDbEntity
  8
7
100
AcDbLine
 10
1.512882743244656
 20
6.330754887513012
 30
0.0
 11
1.512882743244656
 21
6.291409593418523
 31
0.0
  0
LINE
  5
2B80
330
1E
100
AcDbEntity
  8
7
100
AcDbLine
 10
1.322713821787964
 20
5.680246025150807
 30
0.0
 11
1.528620860882452
 21
5.680246025150807
 31
0.0
  0
LINE
  5
2B81
330
1E
100
AcDbEntity
  8
7
100
AcDbLine
 10
1.738462429386389
 20
6.330754887513012
 30
0.0
 11
1.738462429386389
 21
5.67106545652876
 31
0.0
  0
LINE
  5
2B87
330
1E
100
AcDbEntity
  8
7
100
AcDbLine
 10
1.738462429386389
 20
6.330754887513012
 30
0.0
 11
1.512882743244656
 21
6.330754887513012
 31
0.0
  0
LINE
  5
2B88
330
1E
100
AcDbEntity
  8
7
100
AcDbLine
 10
1.739773939189538
 20
6.332066397316161
 30
0.0
 11
1.738462429386389
 21
6.330754887513012
 31
0.0
  0
LINE
  5
2B89
330
1E
100
AcDbEntity
  8
7
100
AcDbLine
 10
1.112872253284026
 20
6.332066397316161
 30
0.0
 11
1.739773939189538
 21
6.332066397316161
 31
0.0
  0
LINE
  5
2B8A
330
1E
100
AcDbEntity
  8
7
100
AcDbLine
 10
1.112872253284026
 20
6.332066397316161
 30
0.0
 11
1.114183763087176
 21
6.330754887513012
 31
0.0
  0
LINE
  5
2B8B
330
1E
100
AcDbEntity
  8
7
100
AcDbLine
 10
1.738462429386389
 20
5.67106545652876
 30
0.0
 11
1.739773939189538
 21
5.66975394672561
 31
0.0
  0
LINE
  5
2B8C
330
1E
100
AcDbEntity
  8
7
100
AcDbLine
 10
1.739773939189538
 20
6.332066397316161
 30
0.0
 11
1.739773939189538
 21
5.66975394672561
 31
0.0
  0
LINE
  5
2B8D
330
1E
100
AcDbEntity
  8
7
100
AcDbLine
 10
1.738462429386389
 20
5.67106545652876
 30
0.0
 11
1.670263919622609
 21
5.67106545652876
 31
0.0
  0
LINE
  5
2B8E
330
1E
100
AcDbEntity
  8
7
100
AcDbLine
 10
1.181070763047806
 20
5.67106545652876
 30
0.0
 11
1.114183763087176
 21
5.67106545652876
 31
0.0
  0
LINE
  5
2B8F
330
1E
100
AcDbEntity
  8
7
100
AcDbLine
 10
1.670263919622609
 20
5.67106545652876
 30
0.0
 11
1.670263919622609
 21
5.60548996637128
 31
0.0
  0
LINE
  5
2B90
330
1E
100
AcDbEntity
  8
7
100
AcDbLine
 10
1.181070763047806
 20
5.60548996637128
 30
0.0
 11
1.181070763047806
 21
5.67106545652876
 31
0.0
  0
LINE
  5
2B91
330
1E
100
AcDbEntity
  8
7
100
AcDbLine
 10
1.670263919622609
 20
5.67106545652876
 30
0.0
 11
1.671575429425759
 21
5.66975394672561
 31
0.0
  0
LINE
  5
2B92
330
1E
100
AcDbEntity
  8
7
100
AcDbLine
 10
1.739773939189538
 20
5.66975394672561
 30
0.0
 11
1.671575429425759
 21
5.66975394672561
 31
0.0
  0
LINE
  5
2B93
330
1E
100
AcDbEntity
  8
7
100
AcDbLine
 10
1.179759253244657
 20
5.66975394672561
 30
0.0
 11
1.112872253284026
 21
5.66975394672561
 31
0.0
  0
LINE
  5
2B94
330
1E
100
AcDbEntity
  8
7
100
AcDbLine
 10
1.179759253244657
 20
5.66975394672561
 30
0.0
 11
1.181070763047806
 21
5.67106545652876
 31
0.0
  0
LINE
  5
2B95
330
1E
100
AcDbEntity
  8
7
100
AcDbLine
 10
1.114183763087176
 20
5.67106545652876
 30
0.0
 11
1.112872253284026
 21
5.66975394672561
 31
0.0
  0
LINE
  5
2B96
330
1E
100
AcDbEntity
  8
7
100
AcDbLine
 10
1.671575429425759
 20
5.66975394672561
 30
0.0
 11
1.671575429425759
 21
5.60417845656813
 31
0.0
  0
LINE
  5
2B97
330
1E
100
AcDbEntity
  8
7
100
AcDbLine
 10
1.179759253244657
 20
5.60417845656813
 30
0.0
 11
1.179759253244657
 21
5.66975394672561
 31
0.0
  0
LINE
  5
2B98
330
1E
100
AcDbEntity
  8
7
100
AcDbLine
 10
1.112872253284026
 20
5.66975394672561
 30
0.0
 11
1.112872253284026
 21
6.332066397316161
 31
0.0
  0
LINE
  5
2B99
330
1E
100
AcDbEntity
  8
7
100
AcDbLine
 10
1.528620860882452
 20
4.5352979670012
 30
0.0
 11
1.528620860882452
 21
4.565462692473642
 31
0.0
  0
LINE
  5
2B9F
330
1E
100
AcDbEntity
  8
7
100
AcDbLine
 10
1.528620860882452
 20
4.484149084678366
 30
0.0
 11
1.528620860882452
 21
4.499887202316161
 31
0.0
  0
LINE
  5
2BA5
330
1E
100
AcDbEntity
  8
7
100
AcDbLine
 10
1.553539547142294
 20
4.456607378812225
 30
0.0
 11
1.528620860882452
 21
4.46841096704057
 31
0.0
  0
LINE
  5
2BB0
330
1E
100
AcDbEntity
  8
7
100
AcDbLine
 10
1.322713821787964
 20
4.5352979670012
 30
0.0
 11
1.528620860882452
 21
4.5352979670012
 31
0.0
  0
LINE
  5
2BB1
330
1E
100
AcDbEntity
  8
7
100
AcDbLine
 10
1.528620860882452
 20
4.565462692473642
 30
0.0
 11
1.322713821787964
 21
4.565462692473642
 31
0.0
  0
LINE
  5
2BB7
330
1E
100
AcDbEntity
  8
7
100
AcDbLine
 10
1.671575429425759
 20
4.455295869009075
 30
0.0
 11
1.179759253244657
 21
4.455295869009075
 31
0.0
  0
LINE
  5
2BBD
330
1E
100
AcDbEntity
  8
7
100
AcDbLine
 10
1.528620860882452
 20
4.46841096704057
 30
0.0
 11
1.322713821787964
 21
4.46841096704057
 31
0.0
  0
LINE
  5
2BBE
330
1E
100
AcDbEntity
  8
7
100
AcDbLine
 10
1.324025331591113
 20
4.484149084678366
 30
0.0
 11
1.528620860882452
 21
4.484149084678366
 31
0.0
  0
LINE
  5
2BBF
330
1E
100
AcDbEntity
  8
7
100
AcDbLine
 10
1.528620860882452
 20
4.499887202316161
 30
0.0
 11
1.324025331591113
 21
4.499887202316161
 31
0.0
  0
LINE
  5
2BC0
330
1E
100
AcDbEntity
  8
7
100
AcDbLine
 10
1.338451939425759
 20
5.181872299953957
 30
0.0
 11
1.338451939425759
 21
5.142527005859468
 31
0.0
  0
LINE
  5
2BC1
330
1E
100
AcDbEntity
  8
7
100
AcDbLine
 10
1.338451939425759
 20
5.181872299953957
 30
0.0
 11
1.512882743244656
 21
5.181872299953957
 31
0.0
  0
LINE
  5
2BC2
330
1E
100
AcDbEntity
  8
7
100
AcDbLine
 10
1.338451939425759
 20
5.142527005859468
 30
0.0
 11
1.512882743244656
 21
5.142527005859468
 31
0.0
  0
LINE
  5
2BC3
330
1E
100
AcDbEntity
  8
7
100
AcDbLine
 10
1.512882743244656
 20
5.181872299953957
 30
0.0
 11
1.512882743244656
 21
5.142527005859468
 31
0.0
  0
LINE
  5
2BC4
330
1E
100
AcDbEntity
  8
7
100
AcDbLine
 10
1.322713821787964
 20
4.531363437591751
 30
0.0
 11
1.528620860882452
 21
4.531363437591751
 31
0.0
  0
LINE
  5
2BC5
330
1E
100
AcDbEntity
  8
7
100
AcDbLine
 10
1.738462429386389
 20
5.181872299953957
 30
0.0
 11
1.738462429386389
 21
4.522182868969704
 31
0.0
  0
LINE
  5
2BCB
330
1E
100
AcDbEntity
  8
7
100
AcDbLine
 10
1.738462429386389
 20
5.181872299953957
 30
0.0
 11
1.512882743244656
 21
5.181872299953957
 31
0.0
  0
LINE
  5
2BCC
330
1E
100
AcDbEntity
  8
7
100
AcDbLine
 10
1.739773939189538
 20
5.181872299953957
 30
0.0
 11
1.738462429386389
 21
5.181872299953957
 31
0.0
  0
LINE
  5
2BCD
330
1E
100
AcDbEntity
  8
7
100
AcDbLine
 10
1.112872253284026
 20
5.181872299953957
 30
0.0
 11
1.739773939189538
 21
5.181872299953957
 31
0.0
  0
LINE
  5
2BCE
330
1E
100
AcDbEntity
  8
7
100
AcDbLine
 10
1.112872253284026
 20
5.181872299953957
 30
0.0
 11
1.114183763087176
 21
5.181872299953957
 31
0.0
  0
LINE
  5
2BCF
330
1E
100
AcDbEntity
  8
7
100
AcDbLine
 10
1.738462429386389
 20
4.522182868969704
 30
0.0
 11
1.739773939189538
 21
4.520871359166554
 31
0.0
  0
LINE
  5
2BD0
330
1E
100
AcDbEntity
  8
7
100
AcDbLine
 10
1.739773939189538
 20
5.181872299953957
 30
0.0
 11
1.739773939189538
 21
4.520871359166554
 31
0.0
  0
LINE
  5
2BD1
330
1E
100
AcDbEntity
  8
7
100
AcDbLine
 10
1.738462429386389
 20
4.522182868969704
 30
0.0
 11
1.670263919622609
 21
4.522182868969704
 31
0.0
  0
LINE
  5
2BD2
330
1E
100
AcDbEntity
  8
7
100
AcDbLine
 10
1.181070763047806
 20
4.522182868969704
 30
0.0
 11
1.114183763087176
 21
4.522182868969704
 31
0.0
  0
LINE
  5
2BD3
330
1E
100
AcDbEntity
  8
7
100
AcDbLine
 10
1.670263919622609
 20
4.522182868969704
 30
0.0
 11
1.670263919622609
 21
4.456607378812225
 31
0.0
  0
LINE
  5
2BD4
330
1E
100
AcDbEntity
  8
7
100
AcDbLine
 10
1.181070763047806
 20
4.456607378812225
 30
0.0
 11
1.181070763047806
 21
4.522182868969704
 31
0.0
  0
LINE
  5
2BD5
330
1E
100
AcDbEntity
  8
7
100
AcDbLine
 10
1.670263919622609
 20
4.522182868969704
 30
0.0
 11
1.671575429425759
 21
4.520871359166554
 31
0.0
  0
LINE
  5
2BD6
330
1E
100
AcDbEntity
  8
7
100
AcDbLine
 10
1.739773939189538
 20
4.520871359166554
 30
0.0
 11
1.671575429425759
 21
4.520871359166554
 31
0.0
  0
LINE
  5
2BD7
330
1E
100
AcDbEntity
  8
7
100
AcDbLine
 10
1.179759253244657
 20
4.520871359166554
 30
0.0
 11
1.112872253284026
 21
4.520871359166554
 31
0.0
  0
LINE
  5
2BD8
330
1E
100
AcDbEntity
  8
7
100
AcDbLine
 10
1.179759253244657
 20
4.520871359166554
 30
0.0
 11
1.181070763047806
 21
4.522182868969704
 31
0.0
  0
LINE
  5
2BD9
330
1E
100
AcDbEntity
  8
7
100
AcDbLine
 10
1.114183763087176
 20
4.522182868969704
 30
0.0
 11
1.112872253284026
 21
4.520871359166554
 31
0.0
  0
LINE
  5
2BDA
330
1E
100
AcDbEntity
  8
7
100
AcDbLine
 10
1.671575429425759
 20
4.520871359166554
 30
0.0
 11
1.671575429425759
 21
4.455295869009075
 31
0.0
  0
LINE
  5
2BDB
330
1E
100
AcDbEntity
  8
7
100
AcDbLine
 10
1.179759253244657
 20
4.455295869009075
 30
0.0
 11
1.179759253244657
 21
4.520871359166554
 31
0.0
  0
LINE
  5
2BDC
330
1E
100
AcDbEntity
  8
7
100
AcDbLine
 10
1.112872253284026
 20
4.520871359166554
 30
0.0
 11
1.112872253284026
 21
5.181872299953957
 31
0.0
  0
LINE
  5
2BFA
330
1E
100
AcDbEntity
  8
7
100
AcDbLine
 10
0.714173273126546
 20
4.000201967316161
 30
0.0
 11
0.714173273126546
 21
3.920199869324036
 31
0.0
  0
LINE
  5
2BFB
330
1E
100
AcDbEntity
  8
7
100
AcDbLine
 10
0.714173273126546
 20
4.000201967316161
 30
0.0
 11
0.714173273126546
 21
6.779291240190177
 31
0.0
  0
LINE
  5
2BFC
330
1E
100
AcDbEntity
  8
7
100
AcDbLine
 10
0.714173273126546
 20
6.859293338182302
 30
0.0
 11
0.714173273126546
 21
6.779291240190177
 31
0.0
  0
LINE
  5
2BFD
330
1E
100
AcDbEntity
  8
7
100
AcDbLine
 10
2.13322688013442
 20
6.749126514717736
 30
0.0
 11
2.13453838993757
 21
6.749126514717736
 31
0.0
  0
LINE
  5
2C0E
330
1E
100
AcDbEntity
  8
7
100
AcDbLine
 10
2.075520448795837
 20
6.614041004993326
 30
0.0
 11
2.075520448795837
 21
4.165452202513011
 31
0.0
  0
LINE
  5
2C0F
330
1E
100
AcDbEntity
  8
7
100
AcDbLine
 10
2.075520448795837
 20
6.614041004993326
 30
0.0
 11
2.074208938992688
 21
6.612729495190177
 31
0.0
  0
LINE
  5
2C10
330
1E
100
AcDbEntity
  8
7
100
AcDbLine
 10
2.074208938992688
 20
4.166763712316161
 30
0.0
 11
2.075520448795837
 21
4.165452202513011
 31
0.0
  0
LINE
  5
2C11
330
1E
100
AcDbEntity
  8
7
100
AcDbLine
 10
0.7784372534808775
 20
6.612729495190177
 30
0.0
 11
0.7758142338745775
 21
6.614041004993326
 31
0.0
  0
LINE
  5
2C12
330
1E
100
AcDbEntity
  8
7
100
AcDbLine
 10
0.7758142338745775
 20
4.165452202513011
 30
0.0
 11
0.7758142338745775
 21
6.614041004993326
 31
0.0
  0
LINE
  5
2C13
330
1E
100
AcDbEntity
  8
7
100
AcDbLine
 10
0.7758142338745775
 20
4.165452202513011
 30
0.0
 11
0.7784372534808775
 21
4.166763712316161
 31
0.0
  0
LINE
  5
2C14
330
1E
100
AcDbEntity
  8
7
100
AcDbLine
 10
0.8636853906856014
 20
4.082827084914586
 30
0.0
 11
0.8610623710793024
 21
4.080204065308286
 31
0.0
  0
LINE
  5
2C15
330
1E
100
AcDbEntity
  8
7
100
AcDbLine
 10
1.990272311591113
 20
4.080204065308286
 30
0.0
 11
0.8610623710793024
 21
4.080204065308286
 31
0.0
  0
LINE
  5
2C16
330
1E
100
AcDbEntity
  8
7
100
AcDbLine
 10
1.990272311591113
 20
4.080204065308286
 30
0.0
 11
1.988960801787964
 21
4.082827084914586
 31
0.0
  0
LINE
  5
2C17
330
1E
100
AcDbEntity
  8
7
100
AcDbLine
 10
1.988960801787964
 20
6.696666122591752
 30
0.0
 11
1.990272311591113
 21
6.699289142198051
 31
0.0
  0
LINE
  5
2C18
330
1E
100
AcDbEntity
  8
7
100
AcDbLine
 10
0.8610623710793024
 20
6.699289142198051
 30
0.0
 11
1.990272311591113
 21
6.699289142198051
 31
0.0
  0
LINE
  5
2C19
330
1E
100
AcDbEntity
  8
7
100
AcDbLine
 10
0.8610623710793024
 20
6.699289142198051
 30
0.0
 11
0.8636853906856014
 21
6.696666122591752
 31
0.0
  0
LINE
  5
2C1A
330
1E
100
AcDbEntity
  8
7
100
AcDbLine
 10
1.317467782575365
 20
3.798229457631121
 30
0.0
 11
1.536489919701349
 21
3.798229457631121
 31
0.0
  0
LINE
  5
2C1B
330
1E
100
AcDbEntity
  8
7
100
AcDbLine
 10
1.536489919701349
 20
3.702489242001201
 30
0.0
 11
1.317467782575365
 21
3.702489242001201
 31
0.0
  0
LINE
  5
2C28
330
1E
100
AcDbEntity
  8
7
100
AcDbLine
 10
1.472225939347018
 20
3.593633928339783
 30
0.0
 11
1.381731762929696
 21
3.593633928339783
 31
0.0
  0
LINE
  5
2C3B
330
1E
100
AcDbEntity
  8
7
100
AcDbLine
 10
1.472225939347018
 20
3.907084771292539
 30
0.0
 11
1.381731762929696
 21
3.907084771292539
 31
0.0
  0
LINE
  5
2C4E
330
1E
100
AcDbEntity
  8
7
100
AcDbLine
 10
0.9882788219848141
 20
3.731342457670491
 30
0.0
 11
0.9764752337564681
 21
3.733965477276791
 31
0.0
  0
LINE
  5
2C5B
330
1E
100
AcDbEntity
  8
7
100
AcDbLine
 10
0.9895903317879636
 20
3.731342457670491
 30
0.0
 11
0.9882788219848141
 21
3.731342457670491
 31
0.0
  0
LINE
  5
2C67
330
1E
100
AcDbEntity
  8
7
100
AcDbLine
 10
1.725347331354893
 20
3.47035200684372
 30
0.0
 11
1.865678880291901
 21
3.731342457670491
 31
0.0
  0
LINE
  5
2C68
330
1E
100
AcDbEntity
  8
7
100
AcDbLine
 10
1.863055860685601
 20
3.731342457670491
 30
0.0
 11
1.863055860685601
 21
3.733965477276791
 31
0.0
  0
LINE
  5
2C69
330
1E
100
AcDbEntity
  8
7
100
AcDbLine
 10
1.722724311748593
 20
3.47035200684372
 30
0.0
 11
1.863055860685601
 21
3.733965477276791
 31
0.0
  0
LINE
  5
2C6A
330
1E
100
AcDbEntity
  8
7
100
AcDbLine
 10
1.722724311748593
 20
3.47035200684372
 30
0.0
 11
1.725347331354893
 21
3.47166351664687
 31
0.0
  0
LINE
  5
2C70
330
1E
100
AcDbEntity
  8
7
100
AcDbLine
 10
1.865678880291901
 20
3.731342457670491
 30
0.0
 11
1.864367370488751
 21
3.731342457670491
 31
0.0
  0
LINE
  5
2C83
330
1E
100
AcDbEntity
  8
7
100
AcDbLine
 10
1.472225939347018
 20
3.907084771292539
 30
0.0
 11
1.381731762929696
 21
3.907084771292539
 31
0.0
  0
LINE
  5
2C96
330
1E
100
AcDbEntity
  8
7
100
AcDbLine
 10
1.381731762929696
 20
3.593633928339783
 30
0.0
 11
1.472225939347018
 21
3.593633928339783
 31
0.0
  0
LINE
  5
2C9C
330
1E
100
AcDbEntity
  8
7
100
AcDbLine
 10
1.699117135291901
 20
3.445433320583878
 30
0.0
 11
1.722724311748593
 21
3.47035200684372
 31
0.0
  0
LINE
  5
2CA8
330
1E
100
AcDbEntity
  8
7
100
AcDbLine
 10
0.9764752337564681
 20
3.732653967473642
 30
0.0
 11
0.9318839004493808
 21
3.732653967473642
 31
0.0
  0
LINE
  5
2CC8
330
1E
100
AcDbEntity
  8
7
100
AcDbLine
 10
1.73190488037064
 20
3.459859928418523
 30
0.0
 11
1.756823566630483
 21
3.423137653930334
 31
0.0
  0
LINE
  5
2D04
330
1E
100
AcDbEntity
  8
7
100
AcDbLine
 10
2.13322688013442
 20
6.738634436292539
 30
0.0
 11
0.7154847829296958
 21
6.738634436292539
 31
0.0
  0
LINE
  5
2D05
330
1E
100
AcDbEntity
  8
7
100
AcDbLine
 10
0.7154847829296958
 20
4.040858771213799
 30
0.0
 11
0.7154847829296958
 21
6.738634436292539
 31
0.0
  0
LINE
  5
2D06
330
1E
100
AcDbEntity
  8
7
100
AcDbLine
 10
0.7154847829296958
 20
4.040858771213799
 30
0.0
 11
2.13322688013442
 21
4.040858771213799
 31
0.0
  0
LINE
  5
2D07
330
1E
100
AcDbEntity
  8
7
100
AcDbLine
 10
0.7154847829296958
 20
6.749126514717736
 30
0.0
 11
2.13322688013442
 21
6.749126514717736
 31
0.0
  0
LINE
  5
2D08
330
1E
100
AcDbEntity
  8
7
100
AcDbLine
 10
1.317467782575365
 20
7.077003965505137
 30
0.0
 11
1.536489919701349
 21
7.077003965505137
 31
0.0
  0
LINE
  5
2D09
330
1E
100
AcDbEntity
  8
7
100
AcDbLine
 10
1.536489919701349
 20
6.981263749875217
 30
0.0
 11
1.317467782575365
 21
6.981263749875217
 31
0.0
  0
LINE
  5
2D10
330
1E
100
AcDbEntity
  8
7
100
AcDbLine
 10
1.865678880291901
 20
7.048150749835847
 30
0.0
 11
1.725347331354893
 21
7.309141200662618
 31
0.0
  0
LINE
  5
2D11
330
1E
100
AcDbEntity
  8
7
100
AcDbLine
 10
1.725347331354893
 20
7.307829690859469
 30
0.0
 11
1.722724311748593
 21
7.309141200662618
 31
0.0
  0
LINE
  5
2D12
330
1E
100
AcDbEntity
  8
7
100
AcDbLine
 10
1.863055860685601
 20
7.045527730229547
 30
0.0
 11
1.722724311748593
 21
7.309141200662618
 31
0.0
  0
LINE
  5
2D13
330
1E
100
AcDbEntity
  8
7
100
AcDbLine
 10
1.863055860685601
 20
7.045527730229547
 30
0.0
 11
1.863055860685601
 21
7.048150749835847
 31
0.0
  0
LINE
  5
2D14
330
1E
100
AcDbEntity
  8
7
100
AcDbLine
 10
1.864367370488751
 20
7.048150749835847
 30
0.0
 11
1.865678880291901
 21
7.048150749835847
 31
0.0
  0
LINE
  5
2D15
330
1E
100
AcDbEntity
  8
7
100
AcDbLine
 10
1.726658841158042
 20
7.309141200662618
 30
0.0
 11
1.726658841158042
 21
7.307829690859469
 31
0.0
  0
LINE
  5
2D16
330
1E
100
AcDbEntity
  8
7
100
AcDbLine
 10
1.726658841158042
 20
7.307829690859469
 30
0.0
 11
1.725347331354893
 21
7.307829690859469
 31
0.0
  0
LINE
  5
2D29
330
1E
100
AcDbEntity
  8
7
100
AcDbLine
 10
0.9882788219848141
 20
7.048150749835847
 30
0.0
 11
0.9895903317879636
 21
7.048150749835847
 31
0.0
  0
LINE
  5
2D36
330
1E
100
AcDbEntity
  8
7
100
AcDbLine
 10
1.472225939347018
 20
6.872408436213799
 30
0.0
 11
1.381731762929696
 21
6.872408436213799
 31
0.0
  0
LINE
  5
2D49
330
1E
100
AcDbEntity
  8
7
100
AcDbLine
 10
1.472225939347018
 20
7.185859279166555
 30
0.0
 11
1.381731762929696
 21
7.185859279166555
 31
0.0
  0
LINE
  5
2D65
330
1E
100
AcDbEntity
  8
7
100
AcDbLine
 10
1.472225939347018
 20
6.873719946016948
 30
0.0
 11
1.512882743244656
 21
6.878965985229547
 31
0.0
  0
LINE
  5
2D74
330
1E
100
AcDbEntity
  8
7
100
AcDbLine
 10
1.472225939347018
 20
7.185859279166555
 30
0.0
 11
1.381731762929696
 21
7.185859279166555
 31
0.0
  0
LINE
  5
2D83
330
1E
100
AcDbEntity
  8
7
100
AcDbLine
 10
1.341074959032058
 20
6.878965985229547
 30
0.0
 11
1.381731762929696
 21
6.873719946016948
 31
0.0
  0
LINE
  5
2D84
330
1E
100
AcDbEntity
  8
7
100
AcDbLine
 10
1.381731762929696
 20
6.872408436213799
 30
0.0
 11
1.472225939347018
 21
6.872408436213799
 31
0.0
  0
LINE
  5
2DCA
330
1E
100
AcDbEntity
  8
7
100
AcDbLine
 10
2.13322688013442
 20
4.030366692788602
 30
0.0
 11
0.7154847829296958
 21
4.030366692788602
 31
0.0
  0
LINE
  5
2DCB
330
1E
100
AcDbEntity
  8
7
100
AcDbLine
 10
1.369928174701349
 20
7.294714592827972
 30
0.0
 11
1.375174213913948
 21
7.26979590656813
 31
0.0
  0
LINE
  5
2E01
330
1E
100
AcDbEntity
  8
7
100
AcDbLine
 10
0.7154847829296958
 20
6.763553122552382
 30
0.0
 11
0.714173273126546
 21
6.779291240190177
 31
0.0
  0
LINE
  5
30B9
330
1E
100
AcDbEntity
  8
7
100
AcDbLine
 10
5.453969701709223
 20
3.416580104914586
 30
0.0
 11
5.455281211512373
 21
3.416580104914586
 31
0.0
  0
LINE
  5
30BA
330
1E
100
AcDbEntity
  8
7
100
AcDbLine
 10
5.457904231118672
 20
3.416580104914586
 30
0.0
 11
5.459215740921822
 21
3.416580104914586
 31
0.0
  0
LINE
  5
30BB
330
1E
100
AcDbEntity
  8
7
100
AcDbLine
 10
5.459215740921822
 20
3.554288634245295
 30
0.0
 11
5.457904231118672
 21
3.554288634245295
 31
0.0
  0
LINE
  5
30BC
330
1E
100
AcDbEntity
  8
7
100
AcDbLine
 10
5.455281211512373
 20
3.554288634245295
 30
0.0
 11
5.453969701709223
 21
3.554288634245295
 31
0.0
  0
LINE
  5
30BD
330
1E
100
AcDbEntity
  8
7
100
AcDbLine
 10
5.547086897732846
 20
3.732653967473642
 30
0.0
 11
5.459215740921822
 21
3.73527698707994
 31
0.0
  0
LINE
  5
30BE
330
1E
100
AcDbEntity
  8
7
100
AcDbLine
 10
5.459215740921822
 20
3.360185183379153
 30
0.0
 11
5.547086897732846
 21
3.361496693182302
 31
0.0
  0
LINE
  5
30BF
330
1E
100
AcDbEntity
  8
7
100
AcDbLine
 10
5.547086897732846
 20
7.417996514324036
 30
0.0
 11
5.459215740921822
 21
7.419308024127185
 31
0.0
  0
LINE
  5
30C0
330
1E
100
AcDbEntity
  8
7
100
AcDbLine
 10
5.459215740921822
 20
7.044216220426397
 30
0.0
 11
5.547086897732846
 21
7.046839240032696
 31
0.0
  0
LINE
  5
30C1
330
1E
100
AcDbEntity
  8
7
100
AcDbLine
 10
5.453969701709223
 20
7.225204573261043
 30
0.0
 11
5.455281211512373
 21
7.225204573261043
 31
0.0
  0
LINE
  5
30C2
330
1E
100
AcDbEntity
  8
7
100
AcDbLine
 10
5.457904231118672
 20
7.225204573261043
 30
0.0
 11
5.459215740921822
 21
7.225204573261043
 31
0.0
  0
LINE
  5
30C3
330
1E
100
AcDbEntity
  8
7
100
AcDbLine
 10
5.459215740921822
 20
7.362913102591752
 30
0.0
 11
5.457904231118672
 21
7.362913102591752
 31
0.0
  0
LINE
  5
30E3
330
1E
100
AcDbEntity
  8
7
100
AcDbLine
 10
5.804142819150168
 20
5.714345280032696
 30
0.0
 11
5.812011877969066
 21
5.714345280032696
 31
0.0
  0
LINE
  5
30E4
330
1E
100
AcDbEntity
  8
7
100
AcDbLine
 10
5.804142819150168
 20
5.685492064363406
 30
0.0
 11
5.804142819150168
 21
5.714345280032696
 31
0.0
  0
LINE
  5
30EA
330
1E
100
AcDbEntity
  8
7
100
AcDbLine
 10
5.815946407378516
 20
5.633031672237422
 30
0.0
 11
5.815946407378516
 21
5.648769789875217
 31
0.0
  0
LINE
  5
30F0
330
1E
100
AcDbEntity
  8
7
100
AcDbLine
 10
5.634958054543869
 20
5.613359025190177
 30
0.0
 11
5.80151979954387
 21
5.617293554599626
 31
0.0
  0
LINE
  5
30FC
330
1E
100
AcDbEntity
  8
7
100
AcDbLine
 10
5.881521897535995
 20
5.509749750741358
 30
0.0
 11
5.634958054543869
 21
5.50056918211931
 31
0.0
  0
LINE
  5
3102
330
1E
100
AcDbEntity
  8
7
100
AcDbLine
 10
5.901194544583239
 20
5.547783535032696
 30
0.0
 11
5.901194544583239
 21
5.529422397788602
 31
0.0
  0
LINE
  5
3108
330
1E
100
AcDbEntity
  8
7
100
AcDbLine
 10
5.850045662260404
 20
4.557593633654743
 30
0.0
 11
5.812011877969066
 21
4.565462692473642
 31
0.0
  0
LINE
  5
3109
330
1E
100
AcDbEntity
  8
7
100
AcDbLine
 10
5.804142819150168
 20
4.565462692473642
 30
0.0
 11
5.812011877969066
 21
4.565462692473642
 31
0.0
  0
LINE
  5
310A
330
1E
100
AcDbEntity
  8
7
100
AcDbLine
 10
5.804142819150168
 20
4.5352979670012
 30
0.0
 11
5.804142819150168
 21
4.565462692473642
 31
0.0
  0
LINE
  5
3110
330
1E
100
AcDbEntity
  8
7
100
AcDbLine
 10
5.815946407378516
 20
4.484149084678366
 30
0.0
 11
5.815946407378516
 21
4.499887202316161
 31
0.0
  0
LINE
  5
3116
330
1E
100
AcDbEntity
  8
7
100
AcDbLine
 10
5.634958054543869
 20
4.464476437631121
 30
0.0
 11
5.80151979954387
 21
4.46841096704057
 31
0.0
  0
LINE
  5
311F
330
1E
100
AcDbEntity
  8
7
100
AcDbLine
 10
5.881521897535995
 20
4.360867163182303
 30
0.0
 11
5.634958054543869
 21
4.351686594560256
 31
0.0
  0
LINE
  5
3125
330
1E
100
AcDbEntity
  8
7
100
AcDbLine
 10
5.901194544583239
 20
4.398900947473642
 30
0.0
 11
5.901194544583239
 21
4.380539810229547
 31
0.0
  0
LINE
  5
3135
330
1E
100
AcDbEntity
  8
7
100
AcDbLine
 10
5.406755348795837
 20
6.749126514717736
 30
0.0
 11
5.429051015449381
 21
6.749126514717736
 31
0.0
  0
LINE
  5
3156
330
1E
100
AcDbEntity
  8
7
100
AcDbLine
 10
5.547086897732846
 20
6.856670318576004
 30
0.0
 11
5.547086897732846
 21
7.046839240032696
 31
0.0
  0
LINE
  5
3157
330
1E
100
AcDbEntity
  8
7
100
AcDbLine
 10
5.547086897732846
 20
3.732653967473642
 30
0.0
 11
5.547086897732846
 21
3.922822888930334
 31
0.0
  0
LINE
  5
3168
330
1E
100
AcDbEntity
  8
7
100
AcDbLine
 10
5.39757478017379
 20
6.614041004993326
 30
0.0
 11
5.292653995921822
 21
6.612729495190177
 31
0.0
  0
LINE
  5
3169
330
1E
100
AcDbEntity
  8
7
100
AcDbLine
 10
5.292653995921822
 20
4.166763712316161
 30
0.0
 11
5.39757478017379
 21
4.165452202513011
 31
0.0
  0
LINE
  5
316A
330
1E
100
AcDbEntity
  8
7
100
AcDbLine
 10
5.39757478017379
 20
4.080204065308286
 30
0.0
 11
5.292653995921822
 21
4.082827084914586
 31
0.0
  0
LINE
  5
316B
330
1E
100
AcDbEntity
  8
7
100
AcDbLine
 10
5.292653995921822
 20
6.696666122591752
 30
0.0
 11
5.39757478017379
 21
6.699289142198051
 31
0.0
  0
LINE
  5
31A3
330
1E
100
AcDbEntity
  8
7
100
AcDbLine
 10
5.459215740921822
 20
6.779291240190177
 30
0.0
 11
5.459215740921822
 21
6.859293338182302
 31
0.0
  0
LINE
  5
31A4
330
1E
100
AcDbEntity
  8
7
100
AcDbLine
 10
5.459215740921822
 20
3.920199869324036
 30
0.0
 11
5.459215740921822
 21
4.000201967316161
 31
0.0
  0
LINE
  5
31AC
330
1E
100
AcDbEntity
  8
7
100
AcDbLine
 10
5.583809172221035
 20
6.850112769560256
 30
0.0
 11
5.551021427142295
 21
6.856670318576004
 31
0.0
  0
LINE
  5
31B7
330
1E
100
AcDbEntity
  8
7
100
AcDbLine
 10
5.551021427142295
 20
3.922822888930334
 30
0.0
 11
5.583809172221035
 21
3.929380437946083
 31
0.0
  0
LINE
  5
31B8
330
1E
100
AcDbEntity
  8
7
100
AcDbLine
 10
5.583809172221035
 20
3.929380437946083
 30
0.0
 11
5.611350878087176
 21
3.947741575190177
 31
0.0
  0
LINE
  5
31B9
330
1E
100
AcDbEntity
  8
7
100
AcDbLine
 10
5.611350878087176
 20
3.947741575190177
 30
0.0
 11
5.628400505528121
 21
3.975283281056318
 31
0.0
  0
LINE
  5
31BA
330
1E
100
AcDbEntity
  8
7
100
AcDbLine
 10
5.628400505528121
 20
3.975283281056318
 30
0.0
 11
5.634958054543869
 21
4.006759516331909
 31
0.0
  0
LINE
  5
31BB
330
1E
100
AcDbEntity
  8
7
100
AcDbLine
 10
5.634958054543869
 20
4.006759516331909
 30
0.0
 11
5.634958054543869
 21
6.772733691174429
 31
0.0
  0
LINE
  5
31BC
330
1E
100
AcDbEntity
  8
7
100
AcDbLine
 10
5.634958054543869
 20
6.772733691174429
 30
0.0
 11
5.628400505528121
 21
6.804209926450019
 31
0.0
  0
LINE
  5
31BD
330
1E
100
AcDbEntity
  8
7
100
AcDbLine
 10
5.628400505528121
 20
6.804209926450019
 30
0.0
 11
5.611350878087176
 21
6.831751632316161
 31
0.0
  0
LINE
  5
31BE
330
1E
100
AcDbEntity
  8
7
100
AcDbLine
 10
5.611350878087176
 20
6.831751632316161
 30
0.0
 11
5.583809172221035
 21
6.850112769560256
 31
0.0
  0
LINE
  5
31BF
330
1E
100
AcDbEntity
  8
7
100
AcDbLine
 10
5.459215740921822
 20
7.298649122237422
 30
0.0
 11
5.459215740921822
 21
7.337994416331909
 31
0.0
  0
LINE
  5
31C0
330
1E
100
AcDbEntity
  8
7
100
AcDbLine
 10
5.459215740921822
 20
7.337994416331909
 30
0.0
 11
5.459215740921822
 21
7.372093671213799
 31
0.0
  0
LINE
  5
31C1
330
1E
100
AcDbEntity
  8
7
100
AcDbLine
 10
5.459215740921822
 20
7.372093671213799
 30
0.0
 11
5.459215740921822
 21
7.398323867276792
 31
0.0
  0
LINE
  5
31C2
330
1E
100
AcDbEntity
  8
7
100
AcDbLine
 10
5.459215740921822
 20
7.398323867276792
 30
0.0
 11
5.459215740921822
 21
7.414061984914587
 31
0.0
  0
LINE
  5
31C3
330
1E
100
AcDbEntity
  8
7
100
AcDbLine
 10
5.459215740921822
 20
7.414061984914587
 30
0.0
 11
5.459215740921822
 21
7.419308024127185
 31
0.0
  0
LINE
  5
31C4
330
1E
100
AcDbEntity
  8
7
100
AcDbLine
 10
5.459215740921822
 20
7.044216220426397
 30
0.0
 11
5.459215740921822
 21
7.050773769442145
 31
0.0
  0
LINE
  5
31C5
330
1E
100
AcDbEntity
  8
7
100
AcDbLine
 10
5.459215740921822
 20
7.050773769442145
 30
0.0
 11
5.459215740921822
 21
7.066511887079941
 31
0.0
  0
LINE
  5
31C6
330
1E
100
AcDbEntity
  8
7
100
AcDbLine
 10
5.459215740921822
 20
7.066511887079941
 30
0.0
 11
5.459215740921822
 21
7.091430573339783
 31
0.0
  0
LINE
  5
31C7
330
1E
100
AcDbEntity
  8
7
100
AcDbLine
 10
5.459215740921822
 20
7.091430573339783
 30
0.0
 11
5.459215740921822
 21
7.125529828221674
 31
0.0
  0
LINE
  5
31C8
330
1E
100
AcDbEntity
  8
7
100
AcDbLine
 10
5.459215740921822
 20
7.125529828221674
 30
0.0
 11
5.459215740921822
 21
7.166186632119311
 31
0.0
  0
LINE
  5
31C9
330
1E
100
AcDbEntity
  8
7
100
AcDbLine
 10
5.459215740921822
 20
7.166186632119311
 30
0.0
 11
5.459215740921822
 21
7.209466455623248
 31
0.0
  0
LINE
  5
31CA
330
1E
100
AcDbEntity
  8
7
100
AcDbLine
 10
5.459215740921822
 20
7.209466455623248
 30
0.0
 11
5.459215740921822
 21
7.254057788930334
 31
0.0
  0
LINE
  5
31CB
330
1E
100
AcDbEntity
  8
7
100
AcDbLine
 10
5.459215740921822
 20
7.254057788930334
 30
0.0
 11
5.459215740921822
 21
7.298649122237422
 31
0.0
  0
LINE
  5
31CC
330
1E
100
AcDbEntity
  8
7
100
AcDbLine
 10
5.551021427142295
 20
6.856670318576004
 30
0.0
 11
5.459215740921822
 21
6.859293338182302
 31
0.0
  0
LINE
  5
31CD
330
1E
100
AcDbEntity
  8
7
100
AcDbLine
 10
5.459215740921822
 20
6.859293338182302
 30
0.0
 11
5.459215740921822
 21
7.024543573379153
 31
0.0
  0
LINE
  5
31CE
330
1E
100
AcDbEntity
  8
7
100
AcDbLine
 10
5.459215740921822
 20
7.044216220426397
 30
0.0
 11
5.459215740921822
 21
7.024543573379153
 31
0.0
  0
LINE
  5
31CF
330
1E
100
AcDbEntity
  8
7
100
AcDbLine
 10
5.459215740921822
 20
7.024543573379153
 30
0.0
 11
5.484134427181665
 21
7.045527730229547
 31
0.0
  0
LINE
  5
31D0
330
1E
100
AcDbEntity
  8
7
100
AcDbLine
 10
5.459215740921822
 20
3.754949634127185
 30
0.0
 11
5.459215740921822
 21
3.920199869324036
 31
0.0
  0
LINE
  5
31D1
330
1E
100
AcDbEntity
  8
7
100
AcDbLine
 10
5.459215740921822
 20
3.920199869324036
 30
0.0
 11
5.551021427142295
 21
3.922822888930334
 31
0.0
  0
LINE
  5
31D2
330
1E
100
AcDbEntity
  8
7
100
AcDbLine
 10
5.459215740921822
 20
3.360185183379153
 30
0.0
 11
5.459215740921822
 21
3.365431222591751
 31
0.0
  0
LINE
  5
31D3
330
1E
100
AcDbEntity
  8
7
100
AcDbLine
 10
5.459215740921822
 20
3.365431222591751
 30
0.0
 11
5.459215740921822
 21
3.381169340229547
 31
0.0
  0
LINE
  5
31D4
330
1E
100
AcDbEntity
  8
7
100
AcDbLine
 10
5.459215740921822
 20
3.381169340229547
 30
0.0
 11
5.459215740921822
 21
3.407399536292539
 31
0.0
  0
LINE
  5
31D5
330
1E
100
AcDbEntity
  8
7
100
AcDbLine
 10
5.459215740921822
 20
3.407399536292539
 30
0.0
 11
5.459215740921822
 21
3.441498791174429
 31
0.0
  0
LINE
  5
31D6
330
1E
100
AcDbEntity
  8
7
100
AcDbLine
 10
5.459215740921822
 20
3.441498791174429
 30
0.0
 11
5.459215740921822
 21
3.480844085268917
 31
0.0
  0
LINE
  5
31D7
330
1E
100
AcDbEntity
  8
7
100
AcDbLine
 10
5.459215740921822
 20
3.480844085268917
 30
0.0
 11
5.459215740921822
 21
3.525435418576003
 31
0.0
  0
LINE
  5
31D8
330
1E
100
AcDbEntity
  8
7
100
AcDbLine
 10
5.459215740921822
 20
3.525435418576003
 30
0.0
 11
5.459215740921822
 21
3.570026751883089
 31
0.0
  0
LINE
  5
31D9
330
1E
100
AcDbEntity
  8
7
100
AcDbLine
 10
5.459215740921822
 20
3.570026751883089
 30
0.0
 11
5.459215740921822
 21
3.613306575387027
 31
0.0
  0
LINE
  5
31DA
330
1E
100
AcDbEntity
  8
7
100
AcDbLine
 10
5.459215740921822
 20
3.613306575387027
 30
0.0
 11
5.459215740921822
 21
3.653963379284665
 31
0.0
  0
LINE
  5
31DB
330
1E
100
AcDbEntity
  8
7
100
AcDbLine
 10
5.459215740921822
 20
3.653963379284665
 30
0.0
 11
5.459215740921822
 21
3.688062634166555
 31
0.0
  0
LINE
  5
31DC
330
1E
100
AcDbEntity
  8
7
100
AcDbLine
 10
5.459215740921822
 20
3.688062634166555
 30
0.0
 11
5.459215740921822
 21
3.712981320426397
 31
0.0
  0
LINE
  5
31DD
330
1E
100
AcDbEntity
  8
7
100
AcDbLine
 10
5.459215740921822
 20
3.712981320426397
 30
0.0
 11
5.459215740921822
 21
3.728719438064193
 31
0.0
  0
LINE
  5
31DE
330
1E
100
AcDbEntity
  8
7
100
AcDbLine
 10
5.459215740921822
 20
3.728719438064193
 30
0.0
 11
5.459215740921822
 21
3.73527698707994
 31
0.0
  0
LINE
  5
31DF
330
1E
100
AcDbEntity
  8
7
100
AcDbLine
 10
5.484134427181665
 20
3.733965477276791
 30
0.0
 11
5.459215740921822
 21
3.754949634127185
 31
0.0
  0
LINE
  5
31E0
330
1E
100
AcDbEntity
  8
7
100
AcDbLine
 10
5.459215740921822
 20
3.754949634127185
 30
0.0
 11
5.459215740921822
 21
3.73527698707994
 31
0.0
  0
LINE
  5
31E1
330
1E
100
AcDbEntity
  8
7
100
AcDbLine
 10
5.547086897732846
 20
3.361496693182302
 30
0.0
 11
5.547086897732846
 21
3.366742732394901
 31
0.0
  0
LINE
  5
31E2
330
1E
100
AcDbEntity
  8
7
100
AcDbLine
 10
5.547086897732846
 20
3.366742732394901
 30
0.0
 11
5.547086897732846
 21
3.382480850032696
 31
0.0
  0
LINE
  5
31E3
330
1E
100
AcDbEntity
  8
7
100
AcDbLine
 10
5.547086897732846
 20
3.382480850032696
 30
0.0
 11
5.547086897732846
 21
3.408711046095688
 31
0.0
  0
LINE
  5
31E4
330
1E
100
AcDbEntity
  8
7
100
AcDbLine
 10
5.547086897732846
 20
3.408711046095688
 30
0.0
 11
5.547086897732846
 21
3.441498791174429
 31
0.0
  0
LINE
  5
31E5
330
1E
100
AcDbEntity
  8
7
100
AcDbLine
 10
5.547086897732846
 20
3.441498791174429
 30
0.0
 11
5.547086897732846
 21
3.482155595072067
 31
0.0
  0
LINE
  5
31E6
330
1E
100
AcDbEntity
  8
7
100
AcDbLine
 10
5.547086897732846
 20
3.482155595072067
 30
0.0
 11
5.547086897732846
 21
3.525435418576003
 31
0.0
  0
LINE
  5
31E7
330
1E
100
AcDbEntity
  8
7
100
AcDbLine
 10
5.547086897732846
 20
3.525435418576003
 30
0.0
 11
5.547086897732846
 21
3.570026751883089
 31
0.0
  0
LINE
  5
31E8
330
1E
100
AcDbEntity
  8
7
100
AcDbLine
 10
5.547086897732846
 20
3.570026751883089
 30
0.0
 11
5.547086897732846
 21
3.613306575387027
 31
0.0
  0
LINE
  5
31E9
330
1E
100
AcDbEntity
  8
7
100
AcDbLine
 10
5.547086897732846
 20
3.613306575387027
 30
0.0
 11
5.547086897732846
 21
3.652651869481515
 31
0.0
  0
LINE
  5
31EA
330
1E
100
AcDbEntity
  8
7
100
AcDbLine
 10
5.547086897732846
 20
3.652651869481515
 30
0.0
 11
5.547086897732846
 21
3.686751124363405
 31
0.0
  0
LINE
  5
31EB
330
1E
100
AcDbEntity
  8
7
100
AcDbLine
 10
5.547086897732846
 20
3.686751124363405
 30
0.0
 11
5.547086897732846
 21
3.711669810623248
 31
0.0
  0
LINE
  5
31EC
330
1E
100
AcDbEntity
  8
7
100
AcDbLine
 10
5.547086897732846
 20
3.711669810623248
 30
0.0
 11
5.547086897732846
 21
3.727407928261043
 31
0.0
  0
LINE
  5
31ED
330
1E
100
AcDbEntity
  8
7
100
AcDbLine
 10
5.547086897732846
 20
3.727407928261043
 30
0.0
 11
5.547086897732846
 21
3.732653967473642
 31
0.0
  0
LINE
  5
31EE
330
1E
100
AcDbEntity
  8
7
100
AcDbLine
 10
5.547086897732846
 20
7.046839240032696
 30
0.0
 11
5.547086897732846
 21
7.052085279245295
 31
0.0
  0
LINE
  5
31EF
330
1E
100
AcDbEntity
  8
7
100
AcDbLine
 10
5.547086897732846
 20
7.052085279245295
 30
0.0
 11
5.547086897732846
 21
7.06782339688309
 31
0.0
  0
LINE
  5
31F0
330
1E
100
AcDbEntity
  8
7
100
AcDbLine
 10
5.547086897732846
 20
7.06782339688309
 30
0.0
 11
5.547086897732846
 21
7.092742083142932
 31
0.0
  0
LINE
  5
31F1
330
1E
100
AcDbEntity
  8
7
100
AcDbLine
 10
5.547086897732846
 20
7.092742083142932
 30
0.0
 11
5.547086897732846
 21
7.126841338024823
 31
0.0
  0
LINE
  5
31F2
330
1E
100
AcDbEntity
  8
7
100
AcDbLine
 10
5.547086897732846
 20
7.126841338024823
 30
0.0
 11
5.547086897732846
 21
7.166186632119311
 31
0.0
  0
LINE
  5
31F3
330
1E
100
AcDbEntity
  8
7
100
AcDbLine
 10
5.547086897732846
 20
7.166186632119311
 30
0.0
 11
5.547086897732846
 21
7.209466455623248
 31
0.0
  0
LINE
  5
31F4
330
1E
100
AcDbEntity
  8
7
100
AcDbLine
 10
5.547086897732846
 20
7.209466455623248
 30
0.0
 11
5.547086897732846
 21
7.254057788930334
 31
0.0
  0
LINE
  5
31F5
330
1E
100
AcDbEntity
  8
7
100
AcDbLine
 10
5.547086897732846
 20
7.254057788930334
 30
0.0
 11
5.547086897732846
 21
7.297337612434272
 31
0.0
  0
LINE
  5
31F6
330
1E
100
AcDbEntity
  8
7
100
AcDbLine
 10
5.547086897732846
 20
7.297337612434272
 30
0.0
 11
5.547086897732846
 21
7.337994416331909
 31
0.0
  0
LINE
  5
31F7
330
1E
100
AcDbEntity
  8
7
100
AcDbLine
 10
5.547086897732846
 20
7.337994416331909
 30
0.0
 11
5.547086897732846
 21
7.37078216141065
 31
0.0
  0
LINE
  5
31F8
330
1E
100
AcDbEntity
  8
7
100
AcDbLine
 10
5.547086897732846
 20
7.37078216141065
 30
0.0
 11
5.547086897732846
 21
7.397012357473641
 31
0.0
  0
LINE
  5
31F9
330
1E
100
AcDbEntity
  8
7
100
AcDbLine
 10
5.547086897732846
 20
7.397012357473641
 30
0.0
 11
5.547086897732846
 21
7.412750475111437
 31
0.0
  0
LINE
  5
31FA
330
1E
100
AcDbEntity
  8
7
100
AcDbLine
 10
5.547086897732846
 20
7.412750475111437
 30
0.0
 11
5.547086897732846
 21
7.417996514324036
 31
0.0
  0
LINE
  5
31FB
330
1E
100
AcDbEntity
  8
7
100
AcDbLine
 10
5.406755348795837
 20
6.749126514717736
 30
0.0
 11
5.40019779978009
 21
6.746503495111437
 31
0.0
  0
LINE
  5
31FC
330
1E
100
AcDbEntity
  8
7
100
AcDbLine
 10
5.40019779978009
 20
6.746503495111437
 30
0.0
 11
5.39757478017379
 21
6.738634436292539
 31
0.0
  0
LINE
  5
31FD
330
1E
100
AcDbEntity
  8
7
100
AcDbLine
 10
5.39757478017379
 20
6.738634436292539
 30
0.0
 11
5.39757478017379
 21
4.040858771213799
 31
0.0
  0
LINE
  5
31FE
330
1E
100
AcDbEntity
  8
7
100
AcDbLine
 10
5.39757478017379
 20
4.040858771213799
 30
0.0
 11
5.40019779978009
 21
4.032989712394901
 31
0.0
  0
LINE
  5
31FF
330
1E
100
AcDbEntity
  8
7
100
AcDbLine
 10
5.40019779978009
 20
4.032989712394901
 30
0.0
 11
5.406755348795837
 21
4.030366692788602
 31
0.0
  0
LINE
  5
3200
330
1E
100
AcDbEntity
  8
7
100
AcDbLine
 10
5.406755348795837
 20
4.030366692788602
 30
0.0
 11
5.429051015449381
 21
4.030366692788602
 31
0.0
  0
LINE
  5
3201
330
1E
100
AcDbEntity
  8
7
100
AcDbLine
 10
5.429051015449381
 20
4.030366692788602
 30
0.0
 11
5.444789133087176
 21
4.026432163379153
 31
0.0
  0
LINE
  5
3202
330
1E
100
AcDbEntity
  8
7
100
AcDbLine
 10
5.444789133087176
 20
4.026432163379153
 30
0.0
 11
5.455281211512373
 21
4.015940084953957
 31
0.0
  0
LINE
  5
3203
330
1E
100
AcDbEntity
  8
7
100
AcDbLine
 10
5.455281211512373
 20
4.015940084953957
 30
0.0
 11
5.459215740921822
 21
4.000201967316161
 31
0.0
  0
LINE
  5
3204
330
1E
100
AcDbEntity
  8
7
100
AcDbLine
 10
5.459215740921822
 20
4.000201967316161
 30
0.0
 11
5.459215740921822
 21
6.779291240190177
 31
0.0
  0
LINE
  5
3205
330
1E
100
AcDbEntity
  8
7
100
AcDbLine
 10
5.459215740921822
 20
6.779291240190177
 30
0.0
 11
5.455281211512373
 21
6.763553122552382
 31
0.0
  0
LINE
  5
3206
330
1E
100
AcDbEntity
  8
7
100
AcDbLine
 10
5.455281211512373
 20
6.763553122552382
 30
0.0
 11
5.444789133087176
 21
6.753061044127185
 31
0.0
  0
LINE
  5
3207
330
1E
100
AcDbEntity
  8
7
100
AcDbLine
 10
5.444789133087176
 20
6.753061044127185
 30
0.0
 11
5.429051015449381
 21
6.749126514717736
 31
0.0
  0
LINE
  5
3208
330
1E
100
AcDbEntity
  8
7
100
AcDbLine
 10
5.292653995921822
 20
4.082827084914586
 30
0.0
 11
5.292653995921822
 21
4.089384633930334
 31
0.0
  0
LINE
  5
3209
330
1E
100
AcDbEntity
  8
7
100
AcDbLine
 10
5.292653995921822
 20
4.089384633930334
 30
0.0
 11
5.292653995921822
 21
4.107745771174429
 31
0.0
  0
LINE
  5
320A
330
1E
100
AcDbEntity
  8
7
100
AcDbLine
 10
5.292653995921822
 20
4.107745771174429
 30
0.0
 11
5.292653995921822
 21
4.13528747704057
 31
0.0
  0
LINE
  5
320B
330
1E
100
AcDbEntity
  8
7
100
AcDbLine
 10
5.292653995921822
 20
4.13528747704057
 30
0.0
 11
5.292653995921822
 21
4.166763712316161
 31
0.0
  0
LINE
  5
320C
330
1E
100
AcDbEntity
  8
7
100
AcDbLine
 10
5.292653995921822
 20
4.166763712316161
 30
0.0
 11
5.292653995921822
 21
6.612729495190177
 31
0.0
  0
LINE
  5
320D
330
1E
100
AcDbEntity
  8
7
100
AcDbLine
 10
5.292653995921822
 20
6.612729495190177
 30
0.0
 11
5.292653995921822
 21
6.644205730465768
 31
0.0
  0
LINE
  5
320E
330
1E
100
AcDbEntity
  8
7
100
AcDbLine
 10
5.292653995921822
 20
6.644205730465768
 30
0.0
 11
5.292653995921822
 21
6.671747436331909
 31
0.0
  0
LINE
  5
320F
330
1E
100
AcDbEntity
  8
7
100
AcDbLine
 10
5.292653995921822
 20
6.671747436331909
 30
0.0
 11
5.292653995921822
 21
6.690108573576004
 31
0.0
  0
LINE
  5
3210
330
1E
100
AcDbEntity
  8
7
100
AcDbLine
 10
5.292653995921822
 20
6.690108573576004
 30
0.0
 11
5.292653995921822
 21
6.696666122591752
 31
0.0
  0
LINE
  5
3211
330
1E
100
AcDbEntity
  8
7
100
AcDbLine
 10
5.881521897535995
 20
4.360867163182303
 30
0.0
 11
5.895948505370641
 21
4.366113202394901
 31
0.0
  0
LINE
  5
3212
330
1E
100
AcDbEntity
  8
7
100
AcDbLine
 10
5.895948505370641
 20
4.366113202394901
 30
0.0
 11
5.901194544583239
 21
4.380539810229547
 31
0.0
  0
LINE
  5
3213
330
1E
100
AcDbEntity
  8
7
100
AcDbLine
 10
5.634958054543869
 20
4.380539810229547
 30
0.0
 11
5.937916819071428
 21
4.40152396707994
 31
0.0
  0
LINE
  5
3214
330
1E
100
AcDbEntity
  8
7
100
AcDbLine
 10
5.937916819071428
 20
4.40152396707994
 30
0.0
 11
5.96808154454387
 21
4.413327555308287
 31
0.0
  0
LINE
  5
3215
330
1E
100
AcDbEntity
  8
7
100
AcDbLine
 10
5.96808154454387
 20
4.413327555308287
 30
0.0
 11
5.974639093559617
 21
4.425131143536634
 31
0.0
  0
LINE
  5
3216
330
1E
100
AcDbEntity
  8
7
100
AcDbLine
 10
5.974639093559617
 20
4.425131143536634
 30
0.0
 11
5.975950603362766
 21
4.43824624156813
 31
0.0
  0
LINE
  5
3217
330
1E
100
AcDbEntity
  8
7
100
AcDbLine
 10
5.975950603362766
 20
4.43824624156813
 30
0.0
 11
5.969393054347019
 21
4.450049829796476
 31
0.0
  0
LINE
  5
3218
330
1E
100
AcDbEntity
  8
7
100
AcDbLine
 10
5.815946407378516
 20
4.484149084678366
 30
0.0
 11
5.812011877969066
 21
4.473657006253169
 31
0.0
  0
LINE
  5
3219
330
1E
100
AcDbEntity
  8
7
100
AcDbLine
 10
5.812011877969066
 20
4.473657006253169
 30
0.0
 11
5.80151979954387
 21
4.46841096704057
 31
0.0
  0
LINE
  5
321A
330
1E
100
AcDbEntity
  8
7
100
AcDbLine
 10
5.804142819150168
 20
4.5352979670012
 30
0.0
 11
5.805454328953318
 21
4.531363437591751
 31
0.0
  0
LINE
  5
321B
330
1E
100
AcDbEntity
  8
7
100
AcDbLine
 10
5.805454328953318
 20
4.531363437591751
 30
0.0
 11
5.815946407378516
 21
4.499887202316161
 31
0.0
  0
LINE
  5
321C
330
1E
100
AcDbEntity
  8
7
100
AcDbLine
 10
5.969393054347019
 20
4.450049829796476
 30
0.0
 11
5.882833407339144
 21
4.53660947680435
 31
0.0
  0
LINE
  5
321D
330
1E
100
AcDbEntity
  8
7
100
AcDbLine
 10
5.882833407339144
 20
4.53660947680435
 30
0.0
 11
5.850045662260404
 21
4.557593633654743
 31
0.0
  0
LINE
  5
321E
330
1E
100
AcDbEntity
  8
7
100
AcDbLine
 10
5.881521897535995
 20
5.509749750741358
 30
0.0
 11
5.895948505370641
 21
5.514995789953957
 31
0.0
  0
LINE
  5
321F
330
1E
100
AcDbEntity
  8
7
100
AcDbLine
 10
5.895948505370641
 20
5.514995789953957
 30
0.0
 11
5.901194544583239
 21
5.529422397788602
 31
0.0
  0
LINE
  5
3220
330
1E
100
AcDbEntity
  8
7
100
AcDbLine
 10
5.974639093559617
 20
5.574013731095688
 30
0.0
 11
5.975950603362766
 21
5.587128829127185
 31
0.0
  0
LINE
  5
3221
330
1E
100
AcDbEntity
  8
7
100
AcDbLine
 10
5.975950603362766
 20
5.587128829127185
 30
0.0
 11
5.969393054347019
 21
5.598932417355531
 31
0.0
  0
LINE
  5
3222
330
1E
100
AcDbEntity
  8
7
100
AcDbLine
 10
5.634958054543869
 20
5.529422397788602
 30
0.0
 11
5.937916819071428
 21
5.550406554638996
 31
0.0
  0
LINE
  5
3223
330
1E
100
AcDbEntity
  8
7
100
AcDbLine
 10
5.937916819071428
 20
5.550406554638996
 30
0.0
 11
5.96808154454387
 21
5.562210142867342
 31
0.0
  0
LINE
  5
3224
330
1E
100
AcDbEntity
  8
7
100
AcDbLine
 10
5.96808154454387
 20
5.562210142867342
 30
0.0
 11
5.974639093559617
 21
5.574013731095688
 31
0.0
  0
LINE
  5
3225
330
1E
100
AcDbEntity
  8
7
100
AcDbLine
 10
5.815946407378516
 20
5.633031672237422
 30
0.0
 11
5.812011877969066
 21
5.622539593812224
 31
0.0
  0
LINE
  5
3226
330
1E
100
AcDbEntity
  8
7
100
AcDbLine
 10
5.812011877969066
 20
5.622539593812224
 30
0.0
 11
5.80151979954387
 21
5.617293554599626
 31
0.0
  0
LINE
  5
3227
330
1E
100
AcDbEntity
  8
7
100
AcDbLine
 10
5.804142819150168
 20
5.685492064363406
 30
0.0
 11
5.805454328953318
 21
5.680246025150807
 31
0.0
  0
LINE
  5
3228
330
1E
100
AcDbEntity
  8
7
100
AcDbLine
 10
5.805454328953318
 20
5.680246025150807
 30
0.0
 11
5.815946407378516
 21
5.648769789875217
 31
0.0
  0
LINE
  5
3229
330
1E
100
AcDbEntity
  8
7
100
AcDbLine
 10
5.969393054347019
 20
5.598932417355531
 30
0.0
 11
5.882833407339144
 21
5.685492064363406
 31
0.0
  0
LINE
  5
322A
330
1E
100
AcDbEntity
  8
7
100
AcDbLine
 10
5.882833407339144
 20
5.685492064363406
 30
0.0
 11
5.850045662260404
 21
5.706476221213799
 31
0.0
  0
LINE
  5
322B
330
1E
100
AcDbEntity
  8
7
100
AcDbLine
 10
5.850045662260404
 20
5.706476221213799
 30
0.0
 11
5.812011877969066
 21
5.714345280032696
 31
0.0
  0
LINE
  5
322C
330
1E
100
AcDbEntity
  8
7
100
AcDbLine
 10
5.453969701709223
 20
3.450679359796477
 30
0.0
 11
5.453969701709223
 21
3.441498791174429
 31
0.0
  0
LINE
  5
322D
330
1E
100
AcDbEntity
  8
7
100
AcDbLine
 10
5.453969701709223
 20
3.441498791174429
 30
0.0
 11
5.453969701709223
 21
3.423137653930334
 31
0.0
  0
LINE
  5
322E
330
1E
100
AcDbEntity
  8
7
100
AcDbLine
 10
5.453969701709223
 20
3.423137653930334
 30
0.0
 11
5.453969701709223
 21
3.416580104914586
 31
0.0
  0
LINE
  5
322F
330
1E
100
AcDbEntity
  8
7
100
AcDbLine
 10
5.453969701709223
 20
3.554288634245295
 30
0.0
 11
5.453969701709223
 21
3.546419575426397
 31
0.0
  0
LINE
  5
3230
330
1E
100
AcDbEntity
  8
7
100
AcDbLine
 10
5.453969701709223
 20
3.546419575426397
 30
0.0
 11
5.453969701709223
 21
3.528058438182302
 31
0.0
  0
LINE
  5
3231
330
1E
100
AcDbEntity
  8
7
100
AcDbLine
 10
5.453969701709223
 20
3.528058438182302
 30
0.0
 11
5.453969701709223
 21
3.518877869560256
 31
0.0
  0
LINE
  5
3232
330
1E
100
AcDbEntity
  8
7
100
AcDbLine
 10
5.453969701709223
 20
7.260615337946082
 30
0.0
 11
5.453969701709223
 21
7.251434769324036
 31
0.0
  0
LINE
  5
3233
330
1E
100
AcDbEntity
  8
7
100
AcDbLine
 10
5.453969701709223
 20
7.251434769324036
 30
0.0
 11
5.453969701709223
 21
7.233073632079941
 31
0.0
  0
LINE
  5
3234
330
1E
100
AcDbEntity
  8
7
100
AcDbLine
 10
5.453969701709223
 20
7.233073632079941
 30
0.0
 11
5.453969701709223
 21
7.225204573261043
 31
0.0
  0
LINE
  5
3235
330
1E
100
AcDbEntity
  8
7
100
AcDbLine
 10
5.455281211512373
 20
7.362913102591752
 30
0.0
 11
5.453969701709223
 21
7.362913102591752
 31
0.0
  0
LINE
  5
3236
330
1E
100
AcDbEntity
  8
7
100
AcDbLine
 10
5.453969701709223
 20
7.362913102591752
 30
0.0
 11
5.453969701709223
 21
7.356355553576004
 31
0.0
  0
LINE
  5
3237
330
1E
100
AcDbEntity
  8
7
100
AcDbLine
 10
5.453969701709223
 20
7.356355553576004
 30
0.0
 11
5.453969701709223
 21
7.337994416331909
 31
0.0
  0
LINE
  5
3238
330
1E
100
AcDbEntity
  8
7
100
AcDbLine
 10
5.453969701709223
 20
7.337994416331909
 30
0.0
 11
5.453969701709223
 21
7.328813847709863
 31
0.0
  0
LINE
  5
3385
330
1E
100
AcDbEntity
  8
7
100
AcDbLine
 10
0.714173273126546
 20
4.000201967316161
 30
0.0
 11
0.7154847829296958
 21
4.015940084953957
 31
0.0
  0
LINE
  5
3386
330
1E
100
AcDbEntity
  8
7
100
AcDbLine
 10
0.7154847829296958
 20
4.015940084953957
 30
0.0
 11
0.7154847829296958
 21
4.026432163379153
 31
0.0
  0
LINE
  5
3387
330
1E
100
AcDbEntity
  8
7
100
AcDbLine
 10
0.7154847829296958
 20
4.026432163379153
 30
0.0
 11
0.7154847829296958
 21
4.030366692788602
 31
0.0
  0
LINE
  5
3388
330
1E
100
AcDbEntity
  8
7
100
AcDbLine
 10
0.7154847829296958
 20
4.030366692788602
 30
0.0
 11
0.7154847829296958
 21
4.032989712394901
 31
0.0
  0
LINE
  5
3389
330
1E
100
AcDbEntity
  8
7
100
AcDbLine
 10
0.7154847829296958
 20
4.032989712394901
 30
0.0
 11
0.7154847829296958
 21
4.040858771213799
 31
0.0
  0
LINE
  5
338A
330
1E
100
AcDbEntity
  8
7
100
AcDbLine
 10
0.7154847829296958
 20
6.738634436292539
 30
0.0
 11
0.7154847829296958
 21
6.746503495111437
 31
0.0
  0
LINE
  5
338B
330
1E
100
AcDbEntity
  8
7
100
AcDbLine
 10
0.7154847829296958
 20
6.746503495111437
 30
0.0
 11
0.7154847829296958
 21
6.749126514717736
 31
0.0
  0
LINE
  5
338C
330
1E
100
AcDbEntity
  8
7
100
AcDbLine
 10
0.7154847829296958
 20
6.749126514717736
 30
0.0
 11
0.7154847829296958
 21
6.753061044127185
 31
0.0
  0
LINE
  5
338D
330
1E
100
AcDbEntity
  8
7
100
AcDbLine
 10
0.7154847829296958
 20
6.753061044127185
 30
0.0
 11
0.7154847829296958
 21
6.763553122552382
 31
0.0
  0
LINE
  5
338E
330
1E
100
AcDbEntity
  8
7
100
AcDbLine
 10
2.13453838993757
 20
3.920199869324036
 30
0.0
 11
2.13453838993757
 21
4.000201967316161
 31
0.0
  0
LINE
  5
338F
330
1E
100
AcDbEntity
  8
7
100
AcDbLine
 10
2.13453838993757
 20
4.000201967316161
 30
0.0
 11
0.714173273126546
 21
4.000201967316161
 31
0.0
  0
LINE
  5
3390
330
1E
100
AcDbEntity
  8
7
100
AcDbLine
 10
1.461733860921822
 20
3.529369947985453
 30
0.0
 11
1.439438194268279
 21
3.539862026410649
 31
0.0
  0
LINE
  5
3391
330
1E
100
AcDbEntity
  8
7
100
AcDbLine
 10
1.439438194268279
 20
3.539862026410649
 30
0.0
 11
1.413207998205287
 21
3.539862026410649
 31
0.0
  0
LINE
  5
3392
330
1E
100
AcDbEntity
  8
7
100
AcDbLine
 10
1.413207998205287
 20
3.539862026410649
 30
0.0
 11
1.390912331551743
 21
3.529369947985453
 31
0.0
  0
LINE
  5
3393
330
1E
100
AcDbEntity
  8
7
100
AcDbLine
 10
1.390912331551743
 20
3.529369947985453
 30
0.0
 11
1.375174213913948
 21
3.509697300938209
 31
0.0
  0
LINE
  5
3394
330
1E
100
AcDbEntity
  8
7
100
AcDbLine
 10
1.375174213913948
 20
3.509697300938209
 30
0.0
 11
1.369928174701349
 21
3.484778614678366
 31
0.0
  0
LINE
  5
3395
330
1E
100
AcDbEntity
  8
7
100
AcDbLine
 10
1.369928174701349
 20
3.484778614678366
 30
0.0
 11
1.375174213913948
 21
3.459859928418523
 31
0.0
  0
LINE
  5
3396
330
1E
100
AcDbEntity
  8
7
100
AcDbLine
 10
1.375174213913948
 20
3.459859928418523
 30
0.0
 11
1.390912331551743
 21
3.44018728137128
 31
0.0
  0
LINE
  5
3397
330
1E
100
AcDbEntity
  8
7
100
AcDbLine
 10
1.390912331551743
 20
3.44018728137128
 30
0.0
 11
1.413207998205287
 21
3.429695202946083
 31
0.0
  0
LINE
  5
3398
330
1E
100
AcDbEntity
  8
7
100
AcDbLine
 10
1.413207998205287
 20
3.429695202946083
 30
0.0
 11
1.439438194268279
 21
3.429695202946083
 31
0.0
  0
LINE
  5
3399
330
1E
100
AcDbEntity
  8
7
100
AcDbLine
 10
1.439438194268279
 20
3.429695202946083
 30
0.0
 11
1.461733860921822
 21
3.44018728137128
 31
0.0
  0
LINE
  5
339A
330
1E
100
AcDbEntity
  8
7
100
AcDbLine
 10
1.461733860921822
 20
3.44018728137128
 30
0.0
 11
1.477471978559617
 21
3.459859928418523
 31
0.0
  0
LINE
  5
339B
330
1E
100
AcDbEntity
  8
7
100
AcDbLine
 10
1.477471978559617
 20
3.459859928418523
 30
0.0
 11
1.482718017772215
 21
3.484778614678366
 31
0.0
  0
LINE
  5
339C
330
1E
100
AcDbEntity
  8
7
100
AcDbLine
 10
1.482718017772215
 20
3.484778614678366
 30
0.0
 11
1.477471978559617
 21
3.509697300938209
 31
0.0
  0
LINE
  5
339D
330
1E
100
AcDbEntity
  8
7
100
AcDbLine
 10
1.477471978559617
 20
3.509697300938209
 30
0.0
 11
1.461733860921822
 21
3.529369947985453
 31
0.0
  0
LINE
  5
339E
330
1E
100
AcDbEntity
  8
7
100
AcDbLine
 10
0.714173273126546
 20
6.779291240190177
 30
0.0
 11
2.13453838993757
 21
6.779291240190177
 31
0.0
  0
LINE
  5
339F
330
1E
100
AcDbEntity
  8
7
100
AcDbLine
 10
2.13453838993757
 20
6.779291240190177
 30
0.0
 11
2.13453838993757
 21
6.859293338182302
 31
0.0
  0
LINE
  5
33A0
330
1E
100
AcDbEntity
  8
7
100
AcDbLine
 10
1.375174213913948
 20
7.26979590656813
 30
0.0
 11
1.390912331551743
 21
7.250123259520885
 31
0.0
  0
LINE
  5
33A1
330
1E
100
AcDbEntity
  8
7
100
AcDbLine
 10
1.390912331551743
 20
7.250123259520885
 30
0.0
 11
1.413207998205287
 21
7.239631181095688
 31
0.0
  0
LINE
  5
33A2
330
1E
100
AcDbEntity
  8
7
100
AcDbLine
 10
1.413207998205287
 20
7.239631181095688
 30
0.0
 11
1.439438194268279
 21
7.239631181095688
 31
0.0
  0
LINE
  5
33A3
330
1E
100
AcDbEntity
  8
7
100
AcDbLine
 10
1.439438194268279
 20
7.239631181095688
 30
0.0
 11
1.461733860921822
 21
7.250123259520885
 31
0.0
  0
LINE
  5
33A4
330
1E
100
AcDbEntity
  8
7
100
AcDbLine
 10
1.461733860921822
 20
7.250123259520885
 30
0.0
 11
1.477471978559617
 21
7.26979590656813
 31
0.0
  0
LINE
  5
33A5
330
1E
100
AcDbEntity
  8
7
100
AcDbLine
 10
1.477471978559617
 20
7.26979590656813
 30
0.0
 11
1.482718017772215
 21
7.294714592827972
 31
0.0
  0
LINE
  5
33A6
330
1E
100
AcDbEntity
  8
7
100
AcDbLine
 10
1.482718017772215
 20
7.294714592827972
 30
0.0
 11
1.477471978559617
 21
7.319633279087815
 31
0.0
  0
LINE
  5
33A7
330
1E
100
AcDbEntity
  8
7
100
AcDbLine
 10
1.477471978559617
 20
7.319633279087815
 30
0.0
 11
1.461733860921822
 21
7.339305926135059
 31
0.0
  0
LINE
  5
33A8
330
1E
100
AcDbEntity
  8
7
100
AcDbLine
 10
1.461733860921822
 20
7.339305926135059
 30
0.0
 11
1.439438194268279
 21
7.349798004560256
 31
0.0
  0
LINE
  5
33A9
330
1E
100
AcDbEntity
  8
7
100
AcDbLine
 10
1.439438194268279
 20
7.349798004560256
 30
0.0
 11
1.413207998205287
 21
7.349798004560256
 31
0.0
  0
LINE
  5
33AA
330
1E
100
AcDbEntity
  8
7
100
AcDbLine
 10
1.413207998205287
 20
7.349798004560256
 30
0.0
 11
1.390912331551743
 21
7.339305926135059
 31
0.0
  0
LINE
  5
33AB
330
1E
100
AcDbEntity
  8
7
100
AcDbLine
 10
1.390912331551743
 20
7.339305926135059
 30
0.0
 11
1.375174213913948
 21
7.319633279087815
 31
0.0
  0
LINE
  5
33AC
330
1E
100
AcDbEntity
  8
7
100
AcDbLine
 10
1.375174213913948
 20
7.319633279087815
 30
0.0
 11
1.369928174701349
 21
7.294714592827972
 31
0.0
  0
LINE
  5
33AD
330
1E
100
AcDbEntity
  8
7
100
AcDbLine
 10
0.9895903317879636
 20
7.024543573379153
 30
0.0
 11
0.9895903317879636
 21
6.859293338182302
 31
0.0
  0
LINE
  5
33AE
330
1E
100
AcDbEntity
  8
7
100
AcDbLine
 10
0.9895903317879636
 20
6.859293338182302
 30
0.0
 11
0.714173273126546
 21
6.859293338182302
 31
0.0
  0
LINE
  5
33AF
330
1E
100
AcDbEntity
  8
7
100
AcDbLine
 10
0.8886040769454442
 20
7.058642828261044
 30
0.0
 11
0.9318839004493808
 21
7.046839240032696
 31
0.0
  0
LINE
  5
33B0
330
1E
100
AcDbEntity
  8
7
100
AcDbLine
 10
0.9318839004493808
 20
7.046839240032696
 30
0.0
 11
0.9764752337564681
 21
7.046839240032696
 31
0.0
  0
LINE
  5
33B1
330
1E
100
AcDbEntity
  8
7
100
AcDbLine
 10
1.023689586669853
 20
7.406192926095688
 30
0.0
 11
0.9804097631659164
 21
7.416685004520886
 31
0.0
  0
LINE
  5
33B2
330
1E
100
AcDbEntity
  8
7
100
AcDbLine
 10
0.9804097631659164
 20
7.416685004520886
 30
0.0
 11
0.9358184298588302
 21
7.416685004520886
 31
0.0
  0
LINE
  5
33B3
330
1E
100
AcDbEntity
  8
7
100
AcDbLine
 10
0.9358184298588302
 20
7.416685004520886
 30
0.0
 11
0.8925386063548925
 21
7.406192926095688
 31
0.0
  0
LINE
  5
33B4
330
1E
100
AcDbEntity
  8
7
100
AcDbLine
 10
0.8925386063548925
 20
7.406192926095688
 30
0.0
 11
0.8531933122604048
 21
7.385208769245295
 31
0.0
  0
LINE
  5
33B5
330
1E
100
AcDbEntity
  8
7
100
AcDbLine
 10
0.8531933122604048
 20
7.385208769245295
 30
0.0
 11
0.819094057378515
 21
7.356355553576004
 31
0.0
  0
LINE
  5
33B6
330
1E
100
AcDbEntity
  8
7
100
AcDbLine
 10
0.819094057378515
 20
7.356355553576004
 30
0.0
 11
0.7941753711186728
 21
7.319633279087815
 31
0.0
  0
LINE
  5
33B7
330
1E
100
AcDbEntity
  8
7
100
AcDbLine
 10
0.7941753711186728
 20
7.319633279087815
 30
0.0
 11
0.7771257436777277
 21
7.277664965387028
 31
0.0
  0
LINE
  5
33B8
330
1E
100
AcDbEntity
  8
7
100
AcDbLine
 10
0.7771257436777277
 20
7.277664965387028
 30
0.0
 11
0.7718797044651287
 21
7.233073632079941
 31
0.0
  0
LINE
  5
33B9
330
1E
100
AcDbEntity
  8
7
100
AcDbLine
 10
0.7718797044651287
 20
7.233073632079941
 30
0.0
 11
0.7771257436777277
 21
7.189793808576004
 31
0.0
  0
LINE
  5
33BA
330
1E
100
AcDbEntity
  8
7
100
AcDbLine
 10
0.7771257436777277
 20
7.189793808576004
 30
0.0
 11
0.7915523515123728
 21
7.147825494875217
 31
0.0
  0
LINE
  5
33BB
330
1E
100
AcDbEntity
  8
7
100
AcDbLine
 10
0.7915523515123728
 20
7.147825494875217
 30
0.0
 11
0.8164710377722155
 21
7.109791710583879
 31
0.0
  0
LINE
  5
33BC
330
1E
100
AcDbEntity
  8
7
100
AcDbLine
 10
0.8164710377722155
 20
7.109791710583879
 30
0.0
 11
0.8492587828509554
 21
7.079626985111437
 31
0.0
  0
LINE
  5
33BD
330
1E
100
AcDbEntity
  8
7
100
AcDbLine
 10
0.8492587828509554
 20
7.079626985111437
 30
0.0
 11
0.8886040769454442
 21
7.058642828261044
 31
0.0
  0
LINE
  5
33BE
330
1E
100
AcDbEntity
  8
7
100
AcDbLine
 10
1.122052821906074
 20
7.319633279087815
 30
0.0
 11
1.097134135646231
 21
7.356355553576004
 31
0.0
  0
LINE
  5
33BF
330
1E
100
AcDbEntity
  8
7
100
AcDbLine
 10
1.097134135646231
 20
7.356355553576004
 30
0.0
 11
1.063034880764341
 21
7.385208769245295
 31
0.0
  0
LINE
  5
33C0
330
1E
100
AcDbEntity
  8
7
100
AcDbLine
 10
1.063034880764341
 20
7.385208769245295
 30
0.0
 11
1.023689586669853
 21
7.406192926095688
 31
0.0
  0
LINE
  5
33C1
330
1E
100
AcDbEntity
  8
7
100
AcDbLine
 10
1.699117135291901
 20
7.334059886922461
 30
0.0
 11
1.623049566709223
 21
7.410127455505137
 31
0.0
  0
LINE
  5
33C2
330
1E
100
AcDbEntity
  8
7
100
AcDbLine
 10
1.623049566709223
 20
7.410127455505137
 30
0.0
 11
1.60206540985883
 21
7.419308024127185
 31
0.0
  0
LINE
  5
33C3
330
1E
100
AcDbEntity
  8
7
100
AcDbLine
 10
1.60206540985883
 20
7.419308024127185
 30
0.0
 11
1.251892292417884
 21
7.419308024127185
 31
0.0
  0
LINE
  5
33C4
330
1E
100
AcDbEntity
  8
7
100
AcDbLine
 10
1.251892292417884
 20
7.419308024127185
 30
0.0
 11
1.230908135567491
 21
7.410127455505137
 31
0.0
  0
LINE
  5
33C5
330
1E
100
AcDbEntity
  8
7
100
AcDbLine
 10
1.230908135567491
 20
7.410127455505137
 30
0.0
 11
1.154840566984814
 21
7.334059886922461
 31
0.0
  0
LINE
  5
33C6
330
1E
100
AcDbEntity
  8
7
100
AcDbLine
 10
2.037486664504499
 20
7.109791710583879
 30
0.0
 11
2.062405350764342
 21
7.147825494875217
 31
0.0
  0
LINE
  5
33C7
330
1E
100
AcDbEntity
  8
7
100
AcDbLine
 10
2.062405350764342
 20
7.147825494875217
 30
0.0
 11
2.076831958598987
 21
7.189793808576004
 31
0.0
  0
LINE
  5
33C8
330
1E
100
AcDbEntity
  8
7
100
AcDbLine
 10
2.076831958598987
 20
7.189793808576004
 30
0.0
 11
2.082077997811586
 21
7.233073632079941
 31
0.0
  0
LINE
  5
33C9
330
1E
100
AcDbEntity
  8
7
100
AcDbLine
 10
2.082077997811586
 20
7.233073632079941
 30
0.0
 11
2.076831958598987
 21
7.277664965387028
 31
0.0
  0
LINE
  5
33CA
330
1E
100
AcDbEntity
  8
7
100
AcDbLine
 10
2.076831958598987
 20
7.277664965387028
 30
0.0
 11
2.059782331158042
 21
7.319633279087815
 31
0.0
  0
LINE
  5
33CB
330
1E
100
AcDbEntity
  8
7
100
AcDbLine
 10
2.059782331158042
 20
7.319633279087815
 30
0.0
 11
2.0348636448982
 21
7.356355553576004
 31
0.0
  0
LINE
  5
33CC
330
1E
100
AcDbEntity
  8
7
100
AcDbLine
 10
2.0348636448982
 20
7.356355553576004
 30
0.0
 11
2.00076439001631
 21
7.385208769245295
 31
0.0
  0
LINE
  5
33CD
330
1E
100
AcDbEntity
  8
7
100
AcDbLine
 10
2.00076439001631
 20
7.385208769245295
 30
0.0
 11
1.961419095921822
 21
7.406192926095688
 31
0.0
  0
LINE
  5
33CE
330
1E
100
AcDbEntity
  8
7
100
AcDbLine
 10
1.961419095921822
 20
7.406192926095688
 30
0.0
 11
1.918139272417885
 21
7.416685004520886
 31
0.0
  0
LINE
  5
33CF
330
1E
100
AcDbEntity
  8
7
100
AcDbLine
 10
1.918139272417885
 20
7.416685004520886
 30
0.0
 11
1.873547939110798
 21
7.416685004520886
 31
0.0
  0
LINE
  5
33D0
330
1E
100
AcDbEntity
  8
7
100
AcDbLine
 10
1.873547939110798
 20
7.416685004520886
 30
0.0
 11
1.830268115606861
 21
7.406192926095688
 31
0.0
  0
LINE
  5
33D1
330
1E
100
AcDbEntity
  8
7
100
AcDbLine
 10
1.830268115606861
 20
7.406192926095688
 30
0.0
 11
1.790922821512373
 21
7.385208769245295
 31
0.0
  0
LINE
  5
33D2
330
1E
100
AcDbEntity
  8
7
100
AcDbLine
 10
1.790922821512373
 20
7.385208769245295
 30
0.0
 11
1.756823566630483
 21
7.356355553576004
 31
0.0
  0
LINE
  5
33D3
330
1E
100
AcDbEntity
  8
7
100
AcDbLine
 10
1.756823566630483
 20
7.356355553576004
 30
0.0
 11
1.73190488037064
 21
7.319633279087815
 31
0.0
  0
LINE
  5
33D4
330
1E
100
AcDbEntity
  8
7
100
AcDbLine
 10
1.877482468520247
 20
7.046839240032696
 30
0.0
 11
1.922073801827334
 21
7.046839240032696
 31
0.0
  0
LINE
  5
33D5
330
1E
100
AcDbEntity
  8
7
100
AcDbLine
 10
1.922073801827334
 20
7.046839240032696
 30
0.0
 11
1.965353625331271
 21
7.058642828261044
 31
0.0
  0
LINE
  5
33D6
330
1E
100
AcDbEntity
  8
7
100
AcDbLine
 10
1.965353625331271
 20
7.058642828261044
 30
0.0
 11
2.004698919425759
 21
7.079626985111437
 31
0.0
  0
LINE
  5
33D7
330
1E
100
AcDbEntity
  8
7
100
AcDbLine
 10
2.004698919425759
 20
7.079626985111437
 30
0.0
 11
2.037486664504499
 21
7.109791710583879
 31
0.0
  0
LINE
  5
33D8
330
1E
100
AcDbEntity
  8
7
100
AcDbLine
 10
2.13453838993757
 20
6.859293338182302
 30
0.0
 11
1.864367370488751
 21
6.859293338182302
 31
0.0
  0
LINE
  5
33D9
330
1E
100
AcDbEntity
  8
7
100
AcDbLine
 10
1.864367370488751
 20
6.859293338182302
 30
0.0
 11
1.864367370488751
 21
7.024543573379153
 31
0.0
  0
LINE
  5
33DA
330
1E
100
AcDbEntity
  8
7
100
AcDbLine
 10
1.381731762929696
 20
7.185859279166555
 30
0.0
 11
1.341074959032058
 21
7.180613239953956
 31
0.0
  0
LINE
  5
33DB
330
1E
100
AcDbEntity
  8
7
100
AcDbLine
 10
1.341074959032058
 20
7.180613239953956
 30
0.0
 11
1.304352684543869
 21
7.164875122316161
 31
0.0
  0
LINE
  5
33DC
330
1E
100
AcDbEntity
  8
7
100
AcDbLine
 10
1.304352684543869
 20
7.164875122316161
 30
0.0
 11
1.271564939465128
 21
7.139956436056318
 31
0.0
  0
LINE
  5
33DD
330
1E
100
AcDbEntity
  8
7
100
AcDbLine
 10
1.271564939465128
 20
7.139956436056318
 30
0.0
 11
1.246646253205286
 21
7.108480200780728
 31
0.0
  0
LINE
  5
33DE
330
1E
100
AcDbEntity
  8
7
100
AcDbLine
 10
1.246646253205286
 20
7.108480200780728
 30
0.0
 11
1.230908135567491
 21
7.07044641648939
 31
0.0
  0
LINE
  5
33DF
330
1E
100
AcDbEntity
  8
7
100
AcDbLine
 10
1.230908135567491
 20
7.07044641648939
 30
0.0
 11
1.225662096354892
 21
7.029789612591752
 31
0.0
  0
LINE
  5
33E0
330
1E
100
AcDbEntity
  8
7
100
AcDbLine
 10
1.225662096354892
 20
7.029789612591752
 30
0.0
 11
1.230908135567491
 21
6.989132808694114
 31
0.0
  0
LINE
  5
33E1
330
1E
100
AcDbEntity
  8
7
100
AcDbLine
 10
1.230908135567491
 20
6.989132808694114
 30
0.0
 11
1.246646253205286
 21
6.952410534205925
 31
0.0
  0
LINE
  5
33E2
330
1E
100
AcDbEntity
  8
7
100
AcDbLine
 10
1.246646253205286
 20
6.952410534205925
 30
0.0
 11
1.271564939465128
 21
6.919622789127185
 31
0.0
  0
LINE
  5
33E3
330
1E
100
AcDbEntity
  8
7
100
AcDbLine
 10
1.271564939465128
 20
6.919622789127185
 30
0.0
 11
1.303041174740719
 21
6.894704102867342
 31
0.0
  0
LINE
  5
33E4
330
1E
100
AcDbEntity
  8
7
100
AcDbLine
 10
1.303041174740719
 20
6.894704102867342
 30
0.0
 11
1.341074959032058
 21
6.878965985229547
 31
0.0
  0
LINE
  5
33E5
330
1E
100
AcDbEntity
  8
7
100
AcDbLine
 10
1.512882743244656
 20
6.878965985229547
 30
0.0
 11
1.549605017732845
 21
6.894704102867342
 31
0.0
  0
LINE
  5
33E6
330
1E
100
AcDbEntity
  8
7
100
AcDbLine
 10
1.549605017732845
 20
6.894704102867342
 30
0.0
 11
1.582392762811586
 21
6.919622789127185
 31
0.0
  0
LINE
  5
33E7
330
1E
100
AcDbEntity
  8
7
100
AcDbLine
 10
1.582392762811586
 20
6.919622789127185
 30
0.0
 11
1.607311449071428
 21
6.951099024402775
 31
0.0
  0
LINE
  5
33E8
330
1E
100
AcDbEntity
  8
7
100
AcDbLine
 10
1.607311449071428
 20
6.951099024402775
 30
0.0
 11
1.623049566709223
 21
6.989132808694114
 31
0.0
  0
LINE
  5
33E9
330
1E
100
AcDbEntity
  8
7
100
AcDbLine
 10
1.623049566709223
 20
6.989132808694114
 30
0.0
 11
1.628295605921822
 21
7.029789612591752
 31
0.0
  0
LINE
  5
33EA
330
1E
100
AcDbEntity
  8
7
100
AcDbLine
 10
1.628295605921822
 20
7.029789612591752
 30
0.0
 11
1.623049566709223
 21
7.07044641648939
 31
0.0
  0
LINE
  5
33EB
330
1E
100
AcDbEntity
  8
7
100
AcDbLine
 10
1.623049566709223
 20
7.07044641648939
 30
0.0
 11
1.607311449071428
 21
7.107168690977578
 31
0.0
  0
LINE
  5
33EC
330
1E
100
AcDbEntity
  8
7
100
AcDbLine
 10
1.607311449071428
 20
7.107168690977578
 30
0.0
 11
1.582392762811586
 21
7.139956436056318
 31
0.0
  0
LINE
  5
33ED
330
1E
100
AcDbEntity
  8
7
100
AcDbLine
 10
1.582392762811586
 20
7.139956436056318
 30
0.0
 11
1.550916527535995
 21
7.164875122316161
 31
0.0
  0
LINE
  5
33EE
330
1E
100
AcDbEntity
  8
7
100
AcDbLine
 10
1.550916527535995
 20
7.164875122316161
 30
0.0
 11
1.512882743244656
 21
7.180613239953956
 31
0.0
  0
LINE
  5
33EF
330
1E
100
AcDbEntity
  8
7
100
AcDbLine
 10
1.512882743244656
 20
7.180613239953956
 30
0.0
 11
1.472225939347018
 21
7.185859279166555
 31
0.0
  0
LINE
  5
33F0
330
1E
100
AcDbEntity
  8
7
100
AcDbLine
 10
1.722724311748593
 20
7.309141200662618
 30
0.0
 11
1.699117135291901
 21
7.334059886922461
 31
0.0
  0
LINE
  5
33F1
330
1E
100
AcDbEntity
  8
7
100
AcDbLine
 10
1.699117135291901
 20
7.334059886922461
 30
0.0
 11
1.864367370488751
 21
7.024543573379153
 31
0.0
  0
LINE
  5
33F2
330
1E
100
AcDbEntity
  8
7
100
AcDbLine
 10
1.864367370488751
 20
7.024543573379153
 30
0.0
 11
1.863055860685601
 21
7.045527730229547
 31
0.0
  0
LINE
  5
33F3
330
1E
100
AcDbEntity
  8
7
100
AcDbLine
 10
0.9909018415911132
 20
7.045527730229547
 30
0.0
 11
0.9895903317879636
 21
7.024543573379153
 31
0.0
  0
LINE
  5
33F4
330
1E
100
AcDbEntity
  8
7
100
AcDbLine
 10
0.9895903317879636
 20
7.024543573379153
 30
0.0
 11
1.154840566984814
 21
7.334059886922461
 31
0.0
  0
LINE
  5
33F5
330
1E
100
AcDbEntity
  8
7
100
AcDbLine
 10
1.154840566984814
 20
7.334059886922461
 30
0.0
 11
1.131233390528121
 21
7.309141200662618
 31
0.0
  0
LINE
  5
33F6
330
1E
100
AcDbEntity
  8
7
100
AcDbLine
 10
1.381731762929696
 20
7.185859279166555
 30
0.0
 11
1.341074959032058
 21
7.180613239953956
 31
0.0
  0
LINE
  5
33F7
330
1E
100
AcDbEntity
  8
7
100
AcDbLine
 10
1.341074959032058
 20
7.180613239953956
 30
0.0
 11
1.304352684543869
 21
7.164875122316161
 31
0.0
  0
LINE
  5
33F8
330
1E
100
AcDbEntity
  8
7
100
AcDbLine
 10
1.304352684543869
 20
7.164875122316161
 30
0.0
 11
1.271564939465128
 21
7.139956436056318
 31
0.0
  0
LINE
  5
33F9
330
1E
100
AcDbEntity
  8
7
100
AcDbLine
 10
1.271564939465128
 20
7.139956436056318
 30
0.0
 11
1.246646253205286
 21
7.108480200780728
 31
0.0
  0
LINE
  5
33FA
330
1E
100
AcDbEntity
  8
7
100
AcDbLine
 10
1.246646253205286
 20
7.108480200780728
 30
0.0
 11
1.230908135567491
 21
7.07044641648939
 31
0.0
  0
LINE
  5
33FB
330
1E
100
AcDbEntity
  8
7
100
AcDbLine
 10
1.230908135567491
 20
7.07044641648939
 30
0.0
 11
1.225662096354892
 21
7.029789612591752
 31
0.0
  0
LINE
  5
33FC
330
1E
100
AcDbEntity
  8
7
100
AcDbLine
 10
1.225662096354892
 20
7.029789612591752
 30
0.0
 11
1.230908135567491
 21
6.989132808694114
 31
0.0
  0
LINE
  5
33FD
330
1E
100
AcDbEntity
  8
7
100
AcDbLine
 10
1.230908135567491
 20
6.989132808694114
 30
0.0
 11
1.246646253205286
 21
6.952410534205925
 31
0.0
  0
LINE
  5
33FE
330
1E
100
AcDbEntity
  8
7
100
AcDbLine
 10
1.246646253205286
 20
6.952410534205925
 30
0.0
 11
1.271564939465128
 21
6.919622789127185
 31
0.0
  0
LINE
  5
33FF
330
1E
100
AcDbEntity
  8
7
100
AcDbLine
 10
1.271564939465128
 20
6.919622789127185
 30
0.0
 11
1.303041174740719
 21
6.894704102867342
 31
0.0
  0
LINE
  5
3400
330
1E
100
AcDbEntity
  8
7
100
AcDbLine
 10
1.303041174740719
 20
6.894704102867342
 30
0.0
 11
1.341074959032058
 21
6.878965985229547
 31
0.0
  0
LINE
  5
3401
330
1E
100
AcDbEntity
  8
7
100
AcDbLine
 10
1.341074959032058
 20
6.878965985229547
 30
0.0
 11
1.381731762929696
 21
6.873719946016948
 31
0.0
  0
LINE
  5
3402
330
1E
100
AcDbEntity
  8
7
100
AcDbLine
 10
1.582392762811586
 20
6.919622789127185
 30
0.0
 11
1.607311449071428
 21
6.951099024402775
 31
0.0
  0
LINE
  5
3403
330
1E
100
AcDbEntity
  8
7
100
AcDbLine
 10
1.607311449071428
 20
6.951099024402775
 30
0.0
 11
1.623049566709223
 21
6.989132808694114
 31
0.0
  0
LINE
  5
3404
330
1E
100
AcDbEntity
  8
7
100
AcDbLine
 10
1.623049566709223
 20
6.989132808694114
 30
0.0
 11
1.628295605921822
 21
7.029789612591752
 31
0.0
  0
LINE
  5
3405
330
1E
100
AcDbEntity
  8
7
100
AcDbLine
 10
1.628295605921822
 20
7.029789612591752
 30
0.0
 11
1.623049566709223
 21
7.07044641648939
 31
0.0
  0
LINE
  5
3406
330
1E
100
AcDbEntity
  8
7
100
AcDbLine
 10
1.623049566709223
 20
7.07044641648939
 30
0.0
 11
1.607311449071428
 21
7.107168690977578
 31
0.0
  0
LINE
  5
3407
330
1E
100
AcDbEntity
  8
7
100
AcDbLine
 10
1.607311449071428
 20
7.107168690977578
 30
0.0
 11
1.582392762811586
 21
7.139956436056318
 31
0.0
  0
LINE
  5
3408
330
1E
100
AcDbEntity
  8
7
100
AcDbLine
 10
1.582392762811586
 20
7.139956436056318
 30
0.0
 11
1.550916527535995
 21
7.164875122316161
 31
0.0
  0
LINE
  5
3409
330
1E
100
AcDbEntity
  8
7
100
AcDbLine
 10
1.550916527535995
 20
7.164875122316161
 30
0.0
 11
1.512882743244656
 21
7.180613239953956
 31
0.0
  0
LINE
  5
340A
330
1E
100
AcDbEntity
  8
7
100
AcDbLine
 10
1.512882743244656
 20
7.180613239953956
 30
0.0
 11
1.472225939347018
 21
7.185859279166555
 31
0.0
  0
LINE
  5
340B
330
1E
100
AcDbEntity
  8
7
100
AcDbLine
 10
1.472225939347018
 20
6.873719946016948
 30
0.0
 11
1.512882743244656
 21
6.878965985229547
 31
0.0
  0
LINE
  5
340C
330
1E
100
AcDbEntity
  8
7
100
AcDbLine
 10
1.512882743244656
 20
6.878965985229547
 30
0.0
 11
1.549605017732845
 21
6.894704102867342
 31
0.0
  0
LINE
  5
340D
330
1E
100
AcDbEntity
  8
7
100
AcDbLine
 10
1.549605017732845
 20
6.894704102867342
 30
0.0
 11
1.582392762811586
 21
6.919622789127185
 31
0.0
  0
LINE
  5
340E
330
1E
100
AcDbEntity
  8
7
100
AcDbLine
 10
1.5351784098982
 20
6.982575259678366
 30
0.0
 11
1.549605017732845
 21
7.012739985150807
 31
0.0
  0
LINE
  5
340F
330
1E
100
AcDbEntity
  8
7
100
AcDbLine
 10
1.549605017732845
 20
7.012739985150807
 30
0.0
 11
1.549605017732845
 21
7.046839240032696
 31
0.0
  0
LINE
  5
3410
330
1E
100
AcDbEntity
  8
7
100
AcDbLine
 10
1.549605017732845
 20
7.046839240032696
 30
0.0
 11
1.5351784098982
 21
7.077003965505137
 31
0.0
  0
LINE
  5
3411
330
1E
100
AcDbEntity
  8
7
100
AcDbLine
 10
1.318779292378514
 20
7.077003965505137
 30
0.0
 11
1.304352684543869
 21
7.046839240032696
 31
0.0
  0
LINE
  5
3412
330
1E
100
AcDbEntity
  8
7
100
AcDbLine
 10
1.304352684543869
 20
7.046839240032696
 30
0.0
 11
1.304352684543869
 21
7.012739985150807
 31
0.0
  0
LINE
  5
3413
330
1E
100
AcDbEntity
  8
7
100
AcDbLine
 10
1.304352684543869
 20
7.012739985150807
 30
0.0
 11
1.318779292378514
 21
6.982575259678366
 31
0.0
  0
LINE
  5
3414
330
1E
100
AcDbEntity
  8
7
100
AcDbLine
 10
1.128610370921821
 20
7.307829690859469
 30
0.0
 11
1.127298861118672
 21
7.307829690859469
 31
0.0
  0
LINE
  5
3415
330
1E
100
AcDbEntity
  8
7
100
AcDbLine
 10
1.127298861118672
 20
7.307829690859469
 30
0.0
 11
1.127298861118672
 21
7.309141200662618
 31
0.0
  0
LINE
  5
3416
330
1E
100
AcDbEntity
  8
7
100
AcDbLine
 10
0.9909018415911132
 20
7.048150749835847
 30
0.0
 11
0.9909018415911132
 21
7.045527730229547
 31
0.0
  0
LINE
  5
3417
330
1E
100
AcDbEntity
  8
7
100
AcDbLine
 10
0.9909018415911132
 20
7.045527730229547
 30
0.0
 11
1.131233390528121
 21
7.309141200662618
 31
0.0
  0
LINE
  5
3418
330
1E
100
AcDbEntity
  8
7
100
AcDbLine
 10
1.131233390528121
 20
7.309141200662618
 30
0.0
 11
1.128610370921821
 21
7.307829690859469
 31
0.0
  0
LINE
  5
3419
330
1E
100
AcDbEntity
  8
7
100
AcDbLine
 10
1.128610370921821
 20
7.309141200662618
 30
0.0
 11
1.123364331709223
 21
7.320944788890964
 31
0.0
  0
LINE
  5
341A
330
1E
100
AcDbEntity
  8
7
100
AcDbLine
 10
1.123364331709223
 20
7.320944788890964
 30
0.0
 11
0.9764752337564681
 21
7.045527730229547
 31
0.0
  0
LINE
  5
341B
330
1E
100
AcDbEntity
  8
7
100
AcDbLine
 10
0.9764752337564681
 20
7.045527730229547
 30
0.0
 11
0.9882788219848141
 21
7.048150749835847
 31
0.0
  0
LINE
  5
341C
330
1E
100
AcDbEntity
  8
7
100
AcDbLine
 10
0.9882788219848141
 20
7.048150749835847
 30
0.0
 11
1.128610370921821
 21
7.309141200662618
 31
0.0
  0
LINE
  5
341D
330
1E
100
AcDbEntity
  8
7
100
AcDbLine
 10
1.865678880291901
 20
7.048150749835847
 30
0.0
 11
1.877482468520247
 21
7.045527730229547
 31
0.0
  0
LINE
  5
341E
330
1E
100
AcDbEntity
  8
7
100
AcDbLine
 10
1.877482468520247
 20
7.045527730229547
 30
0.0
 11
1.730593370567491
 21
7.320944788890964
 31
0.0
  0
LINE
  5
341F
330
1E
100
AcDbEntity
  8
7
100
AcDbLine
 10
1.730593370567491
 20
7.320944788890964
 30
0.0
 11
1.725347331354893
 21
7.309141200662618
 31
0.0
  0
LINE
  5
3420
330
1E
100
AcDbEntity
  8
7
100
AcDbLine
 10
0.8007329201344202
 20
4.10512275156813
 30
0.0
 11
0.7823717828903259
 21
4.132664457434271
 31
0.0
  0
LINE
  5
3421
330
1E
100
AcDbEntity
  8
7
100
AcDbLine
 10
0.7823717828903259
 20
4.132664457434271
 30
0.0
 11
0.7758142338745775
 21
4.165452202513011
 31
0.0
  0
LINE
  5
3422
330
1E
100
AcDbEntity
  8
7
100
AcDbLine
 10
0.8610623710793024
 20
4.080204065308286
 30
0.0
 11
0.828274626000562
 21
4.086761614324036
 31
0.0
  0
LINE
  5
3423
330
1E
100
AcDbEntity
  8
7
100
AcDbLine
 10
0.828274626000562
 20
4.086761614324036
 30
0.0
 11
0.8007329201344202
 21
4.10512275156813
 31
0.0
  0
LINE
  5
3424
330
1E
100
AcDbEntity
  8
7
100
AcDbLine
 10
2.075520448795837
 20
4.165452202513011
 30
0.0
 11
2.06896289978009
 21
4.132664457434271
 31
0.0
  0
LINE
  5
3425
330
1E
100
AcDbEntity
  8
7
100
AcDbLine
 10
2.06896289978009
 20
4.132664457434271
 30
0.0
 11
2.050601762535995
 21
4.10512275156813
 31
0.0
  0
LINE
  5
3426
330
1E
100
AcDbEntity
  8
7
100
AcDbLine
 10
2.050601762535995
 20
4.10512275156813
 30
0.0
 11
2.023060056669853
 21
4.086761614324036
 31
0.0
  0
LINE
  5
3427
330
1E
100
AcDbEntity
  8
7
100
AcDbLine
 10
2.023060056669853
 20
4.086761614324036
 30
0.0
 11
1.990272311591113
 21
4.080204065308286
 31
0.0
  0
LINE
  5
3428
330
1E
100
AcDbEntity
  8
7
100
AcDbLine
 10
1.990272311591113
 20
6.699289142198051
 30
0.0
 11
2.023060056669853
 21
6.692731593182303
 31
0.0
  0
LINE
  5
3429
330
1E
100
AcDbEntity
  8
7
100
AcDbLine
 10
2.023060056669853
 20
6.692731593182303
 30
0.0
 11
2.050601762535995
 21
6.674370455938209
 31
0.0
  0
LINE
  5
342A
330
1E
100
AcDbEntity
  8
7
100
AcDbLine
 10
2.050601762535995
 20
6.674370455938209
 30
0.0
 11
2.06896289978009
 21
6.646828750072067
 31
0.0
  0
LINE
  5
342B
330
1E
100
AcDbEntity
  8
7
100
AcDbLine
 10
2.06896289978009
 20
6.646828750072067
 30
0.0
 11
2.075520448795837
 21
6.614041004993326
 31
0.0
  0
LINE
  5
342C
330
1E
100
AcDbEntity
  8
7
100
AcDbLine
 10
0.7758142338745775
 20
6.614041004993326
 30
0.0
 11
0.7823717828903259
 21
6.646828750072067
 31
0.0
  0
LINE
  5
342D
330
1E
100
AcDbEntity
  8
7
100
AcDbLine
 10
0.7823717828903259
 20
6.646828750072067
 30
0.0
 11
0.8007329201344202
 21
6.674370455938209
 31
0.0
  0
LINE
  5
342E
330
1E
100
AcDbEntity
  8
7
100
AcDbLine
 10
0.8007329201344202
 20
6.674370455938209
 30
0.0
 11
0.828274626000562
 21
6.692731593182303
 31
0.0
  0
LINE
  5
342F
330
1E
100
AcDbEntity
  8
7
100
AcDbLine
 10
0.828274626000562
 20
6.692731593182303
 30
0.0
 11
0.8610623710793024
 21
6.699289142198051
 31
0.0
  0
LINE
  5
3430
330
1E
100
AcDbEntity
  8
7
100
AcDbLine
 10
1.864367370488751
 20
3.754949634127185
 30
0.0
 11
1.864367370488751
 21
3.920199869324036
 31
0.0
  0
LINE
  5
3431
330
1E
100
AcDbEntity
  8
7
100
AcDbLine
 10
1.864367370488751
 20
3.920199869324036
 30
0.0
 11
2.13453838993757
 21
3.920199869324036
 31
0.0
  0
LINE
  5
3432
330
1E
100
AcDbEntity
  8
7
100
AcDbLine
 10
1.965353625331271
 20
3.720850379245294
 30
0.0
 11
1.922073801827334
 21
3.732653967473642
 31
0.0
  0
LINE
  5
3433
330
1E
100
AcDbEntity
  8
7
100
AcDbLine
 10
1.922073801827334
 20
3.732653967473642
 30
0.0
 11
1.877482468520247
 21
3.732653967473642
 31
0.0
  0
LINE
  5
3434
330
1E
100
AcDbEntity
  8
7
100
AcDbLine
 10
1.756823566630483
 20
3.423137653930334
 30
0.0
 11
1.790922821512373
 21
3.394284438261043
 31
0.0
  0
LINE
  5
3435
330
1E
100
AcDbEntity
  8
7
100
AcDbLine
 10
1.790922821512373
 20
3.394284438261043
 30
0.0
 11
1.830268115606861
 21
3.373300281410648
 31
0.0
  0
LINE
  5
3436
330
1E
100
AcDbEntity
  8
7
100
AcDbLine
 10
1.830268115606861
 20
3.373300281410648
 30
0.0
 11
1.873547939110798
 21
3.362808202985452
 31
0.0
  0
LINE
  5
3437
330
1E
100
AcDbEntity
  8
7
100
AcDbLine
 10
1.873547939110798
 20
3.362808202985452
 30
0.0
 11
1.918139272417885
 21
3.362808202985452
 31
0.0
  0
LINE
  5
3438
330
1E
100
AcDbEntity
  8
7
100
AcDbLine
 10
1.918139272417885
 20
3.362808202985452
 30
0.0
 11
1.961419095921822
 21
3.373300281410648
 31
0.0
  0
LINE
  5
3439
330
1E
100
AcDbEntity
  8
7
100
AcDbLine
 10
1.961419095921822
 20
3.373300281410648
 30
0.0
 11
2.00076439001631
 21
3.394284438261043
 31
0.0
  0
LINE
  5
343A
330
1E
100
AcDbEntity
  8
7
100
AcDbLine
 10
2.00076439001631
 20
3.394284438261043
 30
0.0
 11
2.0348636448982
 21
3.423137653930334
 31
0.0
  0
LINE
  5
343B
330
1E
100
AcDbEntity
  8
7
100
AcDbLine
 10
2.0348636448982
 20
3.423137653930334
 30
0.0
 11
2.059782331158042
 21
3.459859928418523
 31
0.0
  0
LINE
  5
343C
330
1E
100
AcDbEntity
  8
7
100
AcDbLine
 10
2.059782331158042
 20
3.459859928418523
 30
0.0
 11
2.076831958598987
 21
3.50182824211931
 31
0.0
  0
LINE
  5
343D
330
1E
100
AcDbEntity
  8
7
100
AcDbLine
 10
2.076831958598987
 20
3.50182824211931
 30
0.0
 11
2.082077997811586
 21
3.546419575426397
 31
0.0
  0
LINE
  5
343E
330
1E
100
AcDbEntity
  8
7
100
AcDbLine
 10
2.082077997811586
 20
3.546419575426397
 30
0.0
 11
2.076831958598987
 21
3.589699398930334
 31
0.0
  0
LINE
  5
343F
330
1E
100
AcDbEntity
  8
7
100
AcDbLine
 10
2.076831958598987
 20
3.589699398930334
 30
0.0
 11
2.062405350764342
 21
3.631667712631121
 31
0.0
  0
LINE
  5
3440
330
1E
100
AcDbEntity
  8
7
100
AcDbLine
 10
2.062405350764342
 20
3.631667712631121
 30
0.0
 11
2.037486664504499
 21
3.669701496922461
 31
0.0
  0
LINE
  5
3441
330
1E
100
AcDbEntity
  8
7
100
AcDbLine
 10
2.037486664504499
 20
3.669701496922461
 30
0.0
 11
2.004698919425759
 21
3.699866222394901
 31
0.0
  0
LINE
  5
3442
330
1E
100
AcDbEntity
  8
7
100
AcDbLine
 10
2.004698919425759
 20
3.699866222394901
 30
0.0
 11
1.965353625331271
 21
3.720850379245294
 31
0.0
  0
LINE
  5
3443
330
1E
100
AcDbEntity
  8
7
100
AcDbLine
 10
1.154840566984814
 20
3.445433320583878
 30
0.0
 11
1.230908135567491
 21
3.369365752001201
 31
0.0
  0
LINE
  5
3444
330
1E
100
AcDbEntity
  8
7
100
AcDbLine
 10
1.230908135567491
 20
3.369365752001201
 30
0.0
 11
1.251892292417884
 21
3.360185183379153
 31
0.0
  0
LINE
  5
3445
330
1E
100
AcDbEntity
  8
7
100
AcDbLine
 10
1.251892292417884
 20
3.360185183379153
 30
0.0
 11
1.60206540985883
 21
3.360185183379153
 31
0.0
  0
LINE
  5
3446
330
1E
100
AcDbEntity
  8
7
100
AcDbLine
 10
1.60206540985883
 20
3.360185183379153
 30
0.0
 11
1.623049566709223
 21
3.369365752001201
 31
0.0
  0
LINE
  5
3447
330
1E
100
AcDbEntity
  8
7
100
AcDbLine
 10
1.623049566709223
 20
3.369365752001201
 30
0.0
 11
1.699117135291901
 21
3.445433320583878
 31
0.0
  0
LINE
  5
3448
330
1E
100
AcDbEntity
  8
7
100
AcDbLine
 10
1.023689586669853
 20
3.373300281410648
 30
0.0
 11
1.063034880764341
 21
3.394284438261043
 31
0.0
  0
LINE
  5
3449
330
1E
100
AcDbEntity
  8
7
100
AcDbLine
 10
1.063034880764341
 20
3.394284438261043
 30
0.0
 11
1.097134135646231
 21
3.423137653930334
 31
0.0
  0
LINE
  5
344A
330
1E
100
AcDbEntity
  8
7
100
AcDbLine
 10
1.097134135646231
 20
3.423137653930334
 30
0.0
 11
1.122052821906074
 21
3.459859928418523
 31
0.0
  0
LINE
  5
344B
330
1E
100
AcDbEntity
  8
7
100
AcDbLine
 10
0.9318839004493808
 20
3.732653967473642
 30
0.0
 11
0.8886040769454442
 21
3.720850379245294
 31
0.0
  0
LINE
  5
344C
330
1E
100
AcDbEntity
  8
7
100
AcDbLine
 10
0.8886040769454442
 20
3.720850379245294
 30
0.0
 11
0.8492587828509554
 21
3.699866222394901
 31
0.0
  0
LINE
  5
344D
330
1E
100
AcDbEntity
  8
7
100
AcDbLine
 10
0.8492587828509554
 20
3.699866222394901
 30
0.0
 11
0.8164710377722155
 21
3.669701496922461
 31
0.0
  0
LINE
  5
344E
330
1E
100
AcDbEntity
  8
7
100
AcDbLine
 10
0.8164710377722155
 20
3.669701496922461
 30
0.0
 11
0.7915523515123728
 21
3.631667712631121
 31
0.0
  0
LINE
  5
344F
330
1E
100
AcDbEntity
  8
7
100
AcDbLine
 10
0.7915523515123728
 20
3.631667712631121
 30
0.0
 11
0.7771257436777277
 21
3.589699398930334
 31
0.0
  0
LINE
  5
3450
330
1E
100
AcDbEntity
  8
7
100
AcDbLine
 10
0.7771257436777277
 20
3.589699398930334
 30
0.0
 11
0.7718797044651287
 21
3.546419575426397
 31
0.0
  0
LINE
  5
3451
330
1E
100
AcDbEntity
  8
7
100
AcDbLine
 10
0.7718797044651287
 20
3.546419575426397
 30
0.0
 11
0.7771257436777277
 21
3.50182824211931
 31
0.0
  0
LINE
  5
3452
330
1E
100
AcDbEntity
  8
7
100
AcDbLine
 10
0.7771257436777277
 20
3.50182824211931
 30
0.0
 11
0.7941753711186728
 21
3.459859928418523
 31
0.0
  0
LINE
  5
3453
330
1E
100
AcDbEntity
  8
7
100
AcDbLine
 10
0.7941753711186728
 20
3.459859928418523
 30
0.0
 11
0.819094057378515
 21
3.423137653930334
 31
0.0
  0
LINE
  5
3454
330
1E
100
AcDbEntity
  8
7
100
AcDbLine
 10
0.819094057378515
 20
3.423137653930334
 30
0.0
 11
0.8531933122604048
 21
3.394284438261043
 31
0.0
  0
LINE
  5
3455
330
1E
100
AcDbEntity
  8
7
100
AcDbLine
 10
0.8531933122604048
 20
3.394284438261043
 30
0.0
 11
0.8925386063548925
 21
3.373300281410648
 31
0.0
  0
LINE
  5
3456
330
1E
100
AcDbEntity
  8
7
100
AcDbLine
 10
0.8925386063548925
 20
3.373300281410648
 30
0.0
 11
0.9358184298588302
 21
3.362808202985452
 31
0.0
  0
LINE
  5
3457
330
1E
100
AcDbEntity
  8
7
100
AcDbLine
 10
0.9358184298588302
 20
3.362808202985452
 30
0.0
 11
0.9804097631659164
 21
3.362808202985452
 31
0.0
  0
LINE
  5
3458
330
1E
100
AcDbEntity
  8
7
100
AcDbLine
 10
0.9804097631659164
 20
3.362808202985452
 30
0.0
 11
1.023689586669853
 21
3.373300281410648
 31
0.0
  0
LINE
  5
3459
330
1E
100
AcDbEntity
  8
7
100
AcDbLine
 10
0.714173273126546
 20
3.920199869324036
 30
0.0
 11
0.9895903317879636
 21
3.920199869324036
 31
0.0
  0
LINE
  5
345A
330
1E
100
AcDbEntity
  8
7
100
AcDbLine
 10
0.9895903317879636
 20
3.920199869324036
 30
0.0
 11
0.9895903317879636
 21
3.754949634127185
 31
0.0
  0
LINE
  5
345B
330
1E
100
AcDbEntity
  8
7
100
AcDbLine
 10
1.131233390528121
 20
3.47035200684372
 30
0.0
 11
1.154840566984814
 21
3.445433320583878
 31
0.0
  0
LINE
  5
345C
330
1E
100
AcDbEntity
  8
7
100
AcDbLine
 10
1.154840566984814
 20
3.445433320583878
 30
0.0
 11
0.9895903317879636
 21
3.754949634127185
 31
0.0
  0
LINE
  5
345D
330
1E
100
AcDbEntity
  8
7
100
AcDbLine
 10
0.9895903317879636
 20
3.754949634127185
 30
0.0
 11
0.9909018415911132
 21
3.733965477276791
 31
0.0
  0
LINE
  5
345E
330
1E
100
AcDbEntity
  8
7
100
AcDbLine
 10
1.863055860685601
 20
3.733965477276791
 30
0.0
 11
1.864367370488751
 21
3.754949634127185
 31
0.0
  0
LINE
  5
345F
330
1E
100
AcDbEntity
  8
7
100
AcDbLine
 10
1.864367370488751
 20
3.754949634127185
 30
0.0
 11
1.699117135291901
 21
3.445433320583878
 31
0.0
  0
LINE
  5
3460
330
1E
100
AcDbEntity
  8
7
100
AcDbLine
 10
1.230908135567491
 20
3.790360398812224
 30
0.0
 11
1.225662096354892
 21
3.749703594914586
 31
0.0
  0
LINE
  5
3461
330
1E
100
AcDbEntity
  8
7
100
AcDbLine
 10
1.225662096354892
 20
3.749703594914586
 30
0.0
 11
1.230908135567491
 21
3.709046791016948
 31
0.0
  0
LINE
  5
3462
330
1E
100
AcDbEntity
  8
7
100
AcDbLine
 10
1.230908135567491
 20
3.709046791016948
 30
0.0
 11
1.246646253205286
 21
3.672324516528759
 31
0.0
  0
LINE
  5
3463
330
1E
100
AcDbEntity
  8
7
100
AcDbLine
 10
1.246646253205286
 20
3.672324516528759
 30
0.0
 11
1.271564939465128
 21
3.639536771450019
 31
0.0
  0
LINE
  5
3464
330
1E
100
AcDbEntity
  8
7
100
AcDbLine
 10
1.271564939465128
 20
3.639536771450019
 30
0.0
 11
1.303041174740719
 21
3.614618085190177
 31
0.0
  0
LINE
  5
3465
330
1E
100
AcDbEntity
  8
7
100
AcDbLine
 10
1.303041174740719
 20
3.614618085190177
 30
0.0
 11
1.341074959032058
 21
3.598879967552381
 31
0.0
  0
LINE
  5
3466
330
1E
100
AcDbEntity
  8
7
100
AcDbLine
 10
1.341074959032058
 20
3.598879967552381
 30
0.0
 11
1.381731762929696
 21
3.593633928339783
 31
0.0
  0
LINE
  5
3467
330
1E
100
AcDbEntity
  8
7
100
AcDbLine
 10
1.381731762929696
 20
3.90577326148939
 30
0.0
 11
1.341074959032058
 21
3.900527222276791
 31
0.0
  0
LINE
  5
3468
330
1E
100
AcDbEntity
  8
7
100
AcDbLine
 10
1.341074959032058
 20
3.900527222276791
 30
0.0
 11
1.304352684543869
 21
3.884789104638996
 31
0.0
  0
LINE
  5
3469
330
1E
100
AcDbEntity
  8
7
100
AcDbLine
 10
1.304352684543869
 20
3.884789104638996
 30
0.0
 11
1.271564939465128
 21
3.859870418379153
 31
0.0
  0
LINE
  5
346A
330
1E
100
AcDbEntity
  8
7
100
AcDbLine
 10
1.271564939465128
 20
3.859870418379153
 30
0.0
 11
1.246646253205286
 21
3.828394183103562
 31
0.0
  0
LINE
  5
346B
330
1E
100
AcDbEntity
  8
7
100
AcDbLine
 10
1.246646253205286
 20
3.828394183103562
 30
0.0
 11
1.230908135567491
 21
3.790360398812224
 31
0.0
  0
LINE
  5
346C
330
1E
100
AcDbEntity
  8
7
100
AcDbLine
 10
1.550916527535995
 20
3.884789104638996
 30
0.0
 11
1.512882743244656
 21
3.900527222276791
 31
0.0
  0
LINE
  5
346D
330
1E
100
AcDbEntity
  8
7
100
AcDbLine
 10
1.512882743244656
 20
3.900527222276791
 30
0.0
 11
1.472225939347018
 21
3.90577326148939
 31
0.0
  0
LINE
  5
346E
330
1E
100
AcDbEntity
  8
7
100
AcDbLine
 10
1.472225939347018
 20
3.593633928339783
 30
0.0
 11
1.512882743244656
 21
3.598879967552381
 31
0.0
  0
LINE
  5
346F
330
1E
100
AcDbEntity
  8
7
100
AcDbLine
 10
1.512882743244656
 20
3.598879967552381
 30
0.0
 11
1.549605017732845
 21
3.614618085190177
 31
0.0
  0
LINE
  5
3470
330
1E
100
AcDbEntity
  8
7
100
AcDbLine
 10
1.549605017732845
 20
3.614618085190177
 30
0.0
 11
1.582392762811586
 21
3.639536771450019
 31
0.0
  0
LINE
  5
3471
330
1E
100
AcDbEntity
  8
7
100
AcDbLine
 10
1.582392762811586
 20
3.639536771450019
 30
0.0
 11
1.607311449071428
 21
3.67101300672561
 31
0.0
  0
LINE
  5
3472
330
1E
100
AcDbEntity
  8
7
100
AcDbLine
 10
1.607311449071428
 20
3.67101300672561
 30
0.0
 11
1.623049566709223
 21
3.709046791016948
 31
0.0
  0
LINE
  5
3473
330
1E
100
AcDbEntity
  8
7
100
AcDbLine
 10
1.623049566709223
 20
3.709046791016948
 30
0.0
 11
1.628295605921822
 21
3.749703594914586
 31
0.0
  0
LINE
  5
3474
330
1E
100
AcDbEntity
  8
7
100
AcDbLine
 10
1.628295605921822
 20
3.749703594914586
 30
0.0
 11
1.623049566709223
 21
3.790360398812224
 31
0.0
  0
LINE
  5
3475
330
1E
100
AcDbEntity
  8
7
100
AcDbLine
 10
1.623049566709223
 20
3.790360398812224
 30
0.0
 11
1.607311449071428
 21
3.827082673300413
 31
0.0
  0
LINE
  5
3476
330
1E
100
AcDbEntity
  8
7
100
AcDbLine
 10
1.607311449071428
 20
3.827082673300413
 30
0.0
 11
1.582392762811586
 21
3.859870418379153
 31
0.0
  0
LINE
  5
3477
330
1E
100
AcDbEntity
  8
7
100
AcDbLine
 10
1.582392762811586
 20
3.859870418379153
 30
0.0
 11
1.550916527535995
 21
3.884789104638996
 31
0.0
  0
LINE
  5
3478
330
1E
100
AcDbEntity
  8
7
100
AcDbLine
 10
1.725347331354893
 20
3.47166351664687
 30
0.0
 11
1.726658841158042
 21
3.47166351664687
 31
0.0
  0
LINE
  5
3479
330
1E
100
AcDbEntity
  8
7
100
AcDbLine
 10
1.726658841158042
 20
3.47166351664687
 30
0.0
 11
1.726658841158042
 21
3.47035200684372
 31
0.0
  0
LINE
  5
347A
330
1E
100
AcDbEntity
  8
7
100
AcDbLine
 10
1.725347331354893
 20
3.47035200684372
 30
0.0
 11
1.730593370567491
 21
3.458548418615373
 31
0.0
  0
LINE
  5
347B
330
1E
100
AcDbEntity
  8
7
100
AcDbLine
 10
1.730593370567491
 20
3.458548418615373
 30
0.0
 11
1.877482468520247
 21
3.733965477276791
 31
0.0
  0
LINE
  5
347C
330
1E
100
AcDbEntity
  8
7
100
AcDbLine
 10
1.877482468520247
 20
3.733965477276791
 30
0.0
 11
1.865678880291901
 21
3.731342457670491
 31
0.0
  0
LINE
  5
347D
330
1E
100
AcDbEntity
  8
7
100
AcDbLine
 10
1.127298861118672
 20
3.47035200684372
 30
0.0
 11
1.127298861118672
 21
3.47166351664687
 31
0.0
  0
LINE
  5
347E
330
1E
100
AcDbEntity
  8
7
100
AcDbLine
 10
1.127298861118672
 20
3.47166351664687
 30
0.0
 11
1.128610370921821
 21
3.47166351664687
 31
0.0
  0
LINE
  5
347F
330
1E
100
AcDbEntity
  8
7
100
AcDbLine
 10
1.128610370921821
 20
3.47166351664687
 30
0.0
 11
1.131233390528121
 21
3.47035200684372
 31
0.0
  0
LINE
  5
3480
330
1E
100
AcDbEntity
  8
7
100
AcDbLine
 10
1.131233390528121
 20
3.47035200684372
 30
0.0
 11
0.9909018415911132
 21
3.733965477276791
 31
0.0
  0
LINE
  5
3481
330
1E
100
AcDbEntity
  8
7
100
AcDbLine
 10
0.9909018415911132
 20
3.733965477276791
 30
0.0
 11
0.9909018415911132
 21
3.731342457670491
 31
0.0
  0
LINE
  5
3482
330
1E
100
AcDbEntity
  8
7
100
AcDbLine
 10
0.9764752337564681
 20
3.733965477276791
 30
0.0
 11
1.123364331709223
 21
3.458548418615373
 31
0.0
  0
LINE
  5
3483
330
1E
100
AcDbEntity
  8
7
100
AcDbLine
 10
1.123364331709223
 20
3.458548418615373
 30
0.0
 11
1.128610370921821
 21
3.47035200684372
 31
0.0
  0
LINE
  5
3484
330
1E
100
AcDbEntity
  8
7
100
AcDbLine
 10
1.128610370921821
 20
3.47035200684372
 30
0.0
 11
0.9882788219848141
 21
3.731342457670491
 31
0.0
  0
LINE
  5
3485
330
1E
100
AcDbEntity
  8
7
100
AcDbLine
 10
1.304352684543869
 20
3.884789104638996
 30
0.0
 11
1.271564939465128
 21
3.859870418379153
 31
0.0
  0
LINE
  5
3486
330
1E
100
AcDbEntity
  8
7
100
AcDbLine
 10
1.271564939465128
 20
3.859870418379153
 30
0.0
 11
1.246646253205286
 21
3.828394183103562
 31
0.0
  0
LINE
  5
3487
330
1E
100
AcDbEntity
  8
7
100
AcDbLine
 10
1.246646253205286
 20
3.828394183103562
 30
0.0
 11
1.230908135567491
 21
3.790360398812224
 31
0.0
  0
LINE
  5
3488
330
1E
100
AcDbEntity
  8
7
100
AcDbLine
 10
1.230908135567491
 20
3.790360398812224
 30
0.0
 11
1.225662096354892
 21
3.749703594914586
 31
0.0
  0
LINE
  5
3489
330
1E
100
AcDbEntity
  8
7
100
AcDbLine
 10
1.225662096354892
 20
3.749703594914586
 30
0.0
 11
1.230908135567491
 21
3.709046791016948
 31
0.0
  0
LINE
  5
348A
330
1E
100
AcDbEntity
  8
7
100
AcDbLine
 10
1.230908135567491
 20
3.709046791016948
 30
0.0
 11
1.246646253205286
 21
3.672324516528759
 31
0.0
  0
LINE
  5
348B
330
1E
100
AcDbEntity
  8
7
100
AcDbLine
 10
1.246646253205286
 20
3.672324516528759
 30
0.0
 11
1.271564939465128
 21
3.639536771450019
 31
0.0
  0
LINE
  5
348C
330
1E
100
AcDbEntity
  8
7
100
AcDbLine
 10
1.271564939465128
 20
3.639536771450019
 30
0.0
 11
1.303041174740719
 21
3.614618085190177
 31
0.0
  0
LINE
  5
348D
330
1E
100
AcDbEntity
  8
7
100
AcDbLine
 10
1.303041174740719
 20
3.614618085190177
 30
0.0
 11
1.341074959032058
 21
3.598879967552381
 31
0.0
  0
LINE
  5
348E
330
1E
100
AcDbEntity
  8
7
100
AcDbLine
 10
1.341074959032058
 20
3.598879967552381
 30
0.0
 11
1.381731762929696
 21
3.593633928339783
 31
0.0
  0
LINE
  5
348F
330
1E
100
AcDbEntity
  8
7
100
AcDbLine
 10
1.381731762929696
 20
3.90577326148939
 30
0.0
 11
1.341074959032058
 21
3.900527222276791
 31
0.0
  0
LINE
  5
3490
330
1E
100
AcDbEntity
  8
7
100
AcDbLine
 10
1.341074959032058
 20
3.900527222276791
 30
0.0
 11
1.304352684543869
 21
3.884789104638996
 31
0.0
  0
LINE
  5
3491
330
1E
100
AcDbEntity
  8
7
100
AcDbLine
 10
1.628295605921822
 20
3.749703594914586
 30
0.0
 11
1.623049566709223
 21
3.790360398812224
 31
0.0
  0
LINE
  5
3492
330
1E
100
AcDbEntity
  8
7
100
AcDbLine
 10
1.623049566709223
 20
3.790360398812224
 30
0.0
 11
1.607311449071428
 21
3.827082673300413
 31
0.0
  0
LINE
  5
3493
330
1E
100
AcDbEntity
  8
7
100
AcDbLine
 10
1.607311449071428
 20
3.827082673300413
 30
0.0
 11
1.582392762811586
 21
3.859870418379153
 31
0.0
  0
LINE
  5
3494
330
1E
100
AcDbEntity
  8
7
100
AcDbLine
 10
1.582392762811586
 20
3.859870418379153
 30
0.0
 11
1.550916527535995
 21
3.884789104638996
 31
0.0
  0
LINE
  5
3495
330
1E
100
AcDbEntity
  8
7
100
AcDbLine
 10
1.550916527535995
 20
3.884789104638996
 30
0.0
 11
1.512882743244656
 21
3.900527222276791
 31
0.0
  0
LINE
  5
3496
330
1E
100
AcDbEntity
  8
7
100
AcDbLine
 10
1.512882743244656
 20
3.900527222276791
 30
0.0
 11
1.472225939347018
 21
3.90577326148939
 31
0.0
  0
LINE
  5
3497
330
1E
100
AcDbEntity
  8
7
100
AcDbLine
 10
1.472225939347018
 20
3.593633928339783
 30
0.0
 11
1.512882743244656
 21
3.598879967552381
 31
0.0
  0
LINE
  5
3498
330
1E
100
AcDbEntity
  8
7
100
AcDbLine
 10
1.512882743244656
 20
3.598879967552381
 30
0.0
 11
1.549605017732845
 21
3.614618085190177
 31
0.0
  0
LINE
  5
3499
330
1E
100
AcDbEntity
  8
7
100
AcDbLine
 10
1.549605017732845
 20
3.614618085190177
 30
0.0
 11
1.582392762811586
 21
3.639536771450019
 31
0.0
  0
LINE
  5
349A
330
1E
100
AcDbEntity
  8
7
100
AcDbLine
 10
1.582392762811586
 20
3.639536771450019
 30
0.0
 11
1.607311449071428
 21
3.67101300672561
 31
0.0
  0
LINE
  5
349B
330
1E
100
AcDbEntity
  8
7
100
AcDbLine
 10
1.607311449071428
 20
3.67101300672561
 30
0.0
 11
1.623049566709223
 21
3.709046791016948
 31
0.0
  0
LINE
  5
349C
330
1E
100
AcDbEntity
  8
7
100
AcDbLine
 10
1.623049566709223
 20
3.709046791016948
 30
0.0
 11
1.628295605921822
 21
3.749703594914586
 31
0.0
  0
LINE
  5
349D
330
1E
100
AcDbEntity
  8
7
100
AcDbLine
 10
1.5351784098982
 20
3.702489242001201
 30
0.0
 11
1.549605017732845
 21
3.732653967473642
 31
0.0
  0
LINE
  5
349E
330
1E
100
AcDbEntity
  8
7
100
AcDbLine
 10
1.549605017732845
 20
3.732653967473642
 30
0.0
 11
1.549605017732845
 21
3.766753222355531
 31
0.0
  0
LINE
  5
349F
330
1E
100
AcDbEntity
  8
7
100
AcDbLine
 10
1.549605017732845
 20
3.766753222355531
 30
0.0
 11
1.5351784098982
 21
3.796917947827972
 31
0.0
  0
LINE
  5
34A0
330
1E
100
AcDbEntity
  8
7
100
AcDbLine
 10
1.318779292378514
 20
3.796917947827972
 30
0.0
 11
1.304352684543869
 21
3.766753222355531
 31
0.0
  0
LINE
  5
34A1
330
1E
100
AcDbEntity
  8
7
100
AcDbLine
 10
1.304352684543869
 20
3.766753222355531
 30
0.0
 11
1.304352684543869
 21
3.732653967473642
 31
0.0
  0
LINE
  5
34A2
330
1E
100
AcDbEntity
  8
7
100
AcDbLine
 10
1.304352684543869
 20
3.732653967473642
 30
0.0
 11
1.318779292378514
 21
3.702489242001201
 31
0.0
  0
LINE
  5
34A3
330
1E
100
AcDbEntity
  8
7
100
AcDbLine
 10
2.13322688013442
 20
6.749126514717736
 30
0.0
 11
2.13322688013442
 21
6.746503495111437
 31
0.0
  0
LINE
  5
34A4
330
1E
100
AcDbEntity
  8
7
100
AcDbLine
 10
2.13322688013442
 20
6.746503495111437
 30
0.0
 11
2.13322688013442
 21
6.738634436292539
 31
0.0
  0
LINE
  5
34A5
330
1E
100
AcDbEntity
  8
7
100
AcDbLine
 10
2.13322688013442
 20
6.738634436292539
 30
0.0
 11
2.13322688013442
 21
4.040858771213799
 31
0.0
  0
LINE
  5
34A6
330
1E
100
AcDbEntity
  8
7
100
AcDbLine
 10
2.13322688013442
 20
4.040858771213799
 30
0.0
 11
2.13322688013442
 21
4.032989712394901
 31
0.0
  0
LINE
  5
34A7
330
1E
100
AcDbEntity
  8
7
100
AcDbLine
 10
2.13322688013442
 20
4.032989712394901
 30
0.0
 11
2.13322688013442
 21
4.030366692788602
 31
0.0
  0
LINE
  5
34A8
330
1E
100
AcDbEntity
  8
7
100
AcDbLine
 10
2.13322688013442
 20
4.030366692788602
 30
0.0
 11
2.13453838993757
 21
4.030366692788602
 31
0.0
  0
LINE
  5
34A9
330
1E
100
AcDbEntity
  8
7
100
AcDbLine
 10
2.13453838993757
 20
4.030366692788602
 30
0.0
 11
2.13453838993757
 21
4.026432163379153
 31
0.0
  0
LINE
  5
34AA
330
1E
100
AcDbEntity
  8
7
100
AcDbLine
 10
2.13453838993757
 20
4.026432163379153
 30
0.0
 11
2.13453838993757
 21
4.015940084953957
 31
0.0
  0
LINE
  5
34AB
330
1E
100
AcDbEntity
  8
7
100
AcDbLine
 10
2.13453838993757
 20
4.015940084953957
 30
0.0
 11
2.13453838993757
 21
4.000201967316161
 31
0.0
  0
LINE
  5
34AC
330
1E
100
AcDbEntity
  8
7
100
AcDbLine
 10
2.13453838993757
 20
4.000201967316161
 30
0.0
 11
2.13453838993757
 21
6.779291240190177
 31
0.0
  0
LINE
  5
34AD
330
1E
100
AcDbEntity
  8
7
100
AcDbLine
 10
2.13453838993757
 20
6.779291240190177
 30
0.0
 11
2.13453838993757
 21
6.763553122552382
 31
0.0
  0
LINE
  5
34AE
330
1E
100
AcDbEntity
  8
7
100
AcDbLine
 10
2.13453838993757
 20
6.763553122552382
 30
0.0
 11
2.13453838993757
 21
6.753061044127185
 31
0.0
  0
LINE
  5
34AF
330
1E
100
AcDbEntity
  8
7
100
AcDbLine
 10
2.13453838993757
 20
6.753061044127185
 30
0.0
 11
2.13453838993757
 21
6.749126514717736
 31
0.0
  0
LINE
  5
34B0
330
1E
100
AcDbEntity
  8
7
100
AcDbLine
 10
2.021748546866704
 20
4.089384633930334
 30
0.0
 11
2.049290252732845
 21
4.107745771174429
 31
0.0
  0
LINE
  5
34B1
330
1E
100
AcDbEntity
  8
7
100
AcDbLine
 10
2.049290252732845
 20
4.107745771174429
 30
0.0
 11
2.06765138997694
 21
4.13528747704057
 31
0.0
  0
LINE
  5
34B2
330
1E
100
AcDbEntity
  8
7
100
AcDbLine
 10
2.06765138997694
 20
4.13528747704057
 30
0.0
 11
2.074208938992688
 21
4.166763712316161
 31
0.0
  0
LINE
  5
34B3
330
1E
100
AcDbEntity
  8
7
100
AcDbLine
 10
2.049290252732845
 20
6.671747436331909
 30
0.0
 11
2.021748546866704
 21
6.690108573576004
 31
0.0
  0
LINE
  5
34B4
330
1E
100
AcDbEntity
  8
7
100
AcDbLine
 10
2.021748546866704
 20
6.690108573576004
 30
0.0
 11
1.988960801787964
 21
6.696666122591752
 31
0.0
  0
LINE
  5
34B5
330
1E
100
AcDbEntity
  8
7
100
AcDbLine
 10
1.988960801787964
 20
6.696666122591752
 30
0.0
 11
0.8636853906856014
 21
6.696666122591752
 31
0.0
  0
LINE
  5
34B6
330
1E
100
AcDbEntity
  8
7
100
AcDbLine
 10
0.8636853906856014
 20
6.696666122591752
 30
0.0
 11
0.8308976456068615
 21
6.690108573576004
 31
0.0
  0
LINE
  5
34B7
330
1E
100
AcDbEntity
  8
7
100
AcDbLine
 10
0.8308976456068615
 20
6.690108573576004
 30
0.0
 11
0.8033559397407197
 21
6.671747436331909
 31
0.0
  0
LINE
  5
34B8
330
1E
100
AcDbEntity
  8
7
100
AcDbLine
 10
0.8033559397407197
 20
6.671747436331909
 30
0.0
 11
0.7849948024966254
 21
6.644205730465768
 31
0.0
  0
LINE
  5
34B9
330
1E
100
AcDbEntity
  8
7
100
AcDbLine
 10
0.7849948024966254
 20
6.644205730465768
 30
0.0
 11
0.7784372534808775
 21
6.612729495190177
 31
0.0
  0
LINE
  5
34BA
330
1E
100
AcDbEntity
  8
7
100
AcDbLine
 10
0.7784372534808775
 20
6.612729495190177
 30
0.0
 11
0.7784372534808775
 21
4.166763712316161
 31
0.0
  0
LINE
  5
34BB
330
1E
100
AcDbEntity
  8
7
100
AcDbLine
 10
0.7784372534808775
 20
4.166763712316161
 30
0.0
 11
0.7849948024966254
 21
4.13528747704057
 31
0.0
  0
LINE
  5
34BC
330
1E
100
AcDbEntity
  8
7
100
AcDbLine
 10
0.7849948024966254
 20
4.13528747704057
 30
0.0
 11
0.8033559397407197
 21
4.107745771174429
 31
0.0
  0
LINE
  5
34BD
330
1E
100
AcDbEntity
  8
7
100
AcDbLine
 10
0.8033559397407197
 20
4.107745771174429
 30
0.0
 11
0.8308976456068615
 21
4.089384633930334
 31
0.0
  0
LINE
  5
34BE
330
1E
100
AcDbEntity
  8
7
100
AcDbLine
 10
0.8308976456068615
 20
4.089384633930334
 30
0.0
 11
0.8636853906856014
 21
4.082827084914586
 31
0.0
  0
LINE
  5
34BF
330
1E
100
AcDbEntity
  8
7
100
AcDbLine
 10
0.8636853906856014
 20
4.082827084914586
 30
0.0
 11
1.988960801787964
 21
4.082827084914586
 31
0.0
  0
LINE
  5
34C0
330
1E
100
AcDbEntity
  8
7
100
AcDbLine
 10
1.988960801787964
 20
4.082827084914586
 30
0.0
 11
2.021748546866704
 21
4.089384633930334
 31
0.0
  0
LINE
  5
34C1
330
1E
100
AcDbEntity
  8
7
100
AcDbLine
 10
2.074208938992688
 20
4.166763712316161
 30
0.0
 11
2.074208938992688
 21
6.612729495190177
 31
0.0
  0
LINE
  5
34C2
330
1E
100
AcDbEntity
  8
7
100
AcDbLine
 10
2.074208938992688
 20
6.612729495190177
 30
0.0
 11
2.06765138997694
 21
6.644205730465768
 31
0.0
  0
LINE
  5
34C3
330
1E
100
AcDbEntity
  8
7
100
AcDbLine
 10
2.06765138997694
 20
6.644205730465768
 30
0.0
 11
2.049290252732845
 21
6.671747436331909
 31
0.0
  0
LINE
  5
34C4
330
1E
100
AcDbEntity
  8
7
100
AcDbLine
 10
1.114183763087176
 20
4.522182868969704
 30
0.0
 11
1.114183763087176
 21
5.181872299953957
 31
0.0
  0
LINE
  5
34C5
330
1E
100
AcDbEntity
  8
7
100
AcDbLine
 10
1.114183763087176
 20
5.181872299953957
 30
0.0
 11
1.338451939425759
 21
5.181872299953957
 31
0.0
  0
LINE
  5
34C6
330
1E
100
AcDbEntity
  8
7
100
AcDbLine
 10
1.671575429425759
 20
4.455295869009075
 30
0.0
 11
1.670263919622609
 21
4.456607378812225
 31
0.0
  0
LINE
  5
34C7
330
1E
100
AcDbEntity
  8
7
100
AcDbLine
 10
1.670263919622609
 20
4.456607378812225
 30
0.0
 11
1.553539547142294
 21
4.456607378812225
 31
0.0
  0
LINE
  5
34C8
330
1E
100
AcDbEntity
  8
7
100
AcDbLine
 10
1.299106645331271
 20
4.456607378812225
 30
0.0
 11
1.181070763047806
 21
4.456607378812225
 31
0.0
  0
LINE
  5
34C9
330
1E
100
AcDbEntity
  8
7
100
AcDbLine
 10
1.181070763047806
 20
4.456607378812225
 30
0.0
 11
1.179759253244657
 21
4.455295869009075
 31
0.0
  0
LINE
  5
34CA
330
1E
100
AcDbEntity
  8
7
100
AcDbLine
 10
1.299106645331271
 20
4.456607378812225
 30
0.0
 11
1.322713821787964
 21
4.46841096704057
 31
0.0
  0
LINE
  5
34CB
330
1E
100
AcDbEntity
  8
7
100
AcDbLine
 10
1.322713821787964
 20
4.46841096704057
 30
0.0
 11
1.324025331591113
 21
4.473657006253169
 31
0.0
  0
LINE
  5
34CC
330
1E
100
AcDbEntity
  8
7
100
AcDbLine
 10
1.324025331591113
 20
4.473657006253169
 30
0.0
 11
1.324025331591113
 21
4.484149084678366
 31
0.0
  0
LINE
  5
34CD
330
1E
100
AcDbEntity
  8
7
100
AcDbLine
 10
1.324025331591113
 20
4.484149084678366
 30
0.0
 11
1.324025331591113
 21
4.499887202316161
 31
0.0
  0
LINE
  5
34CE
330
1E
100
AcDbEntity
  8
7
100
AcDbLine
 10
1.324025331591113
 20
4.499887202316161
 30
0.0
 11
1.322713821787964
 21
4.531363437591751
 31
0.0
  0
LINE
  5
34CF
330
1E
100
AcDbEntity
  8
7
100
AcDbLine
 10
1.322713821787964
 20
4.531363437591751
 30
0.0
 11
1.322713821787964
 21
4.5352979670012
 31
0.0
  0
LINE
  5
34D0
330
1E
100
AcDbEntity
  8
7
100
AcDbLine
 10
1.322713821787964
 20
4.5352979670012
 30
0.0
 11
1.322713821787964
 21
4.565462692473642
 31
0.0
  0
LINE
  5
34D1
330
1E
100
AcDbEntity
  8
7
100
AcDbLine
 10
1.528620860882452
 20
4.484149084678366
 30
0.0
 11
1.528620860882452
 21
4.473657006253169
 31
0.0
  0
LINE
  5
34D2
330
1E
100
AcDbEntity
  8
7
100
AcDbLine
 10
1.528620860882452
 20
4.473657006253169
 30
0.0
 11
1.528620860882452
 21
4.46841096704057
 31
0.0
  0
LINE
  5
34D3
330
1E
100
AcDbEntity
  8
7
100
AcDbLine
 10
1.528620860882452
 20
4.5352979670012
 30
0.0
 11
1.528620860882452
 21
4.531363437591751
 31
0.0
  0
LINE
  5
34D4
330
1E
100
AcDbEntity
  8
7
100
AcDbLine
 10
1.528620860882452
 20
4.531363437591751
 30
0.0
 11
1.528620860882452
 21
4.499887202316161
 31
0.0
  0
LINE
  5
34D5
330
1E
100
AcDbEntity
  8
7
100
AcDbLine
 10
1.114183763087176
 20
5.67106545652876
 30
0.0
 11
1.114183763087176
 21
6.330754887513012
 31
0.0
  0
LINE
  5
34D6
330
1E
100
AcDbEntity
  8
7
100
AcDbLine
 10
1.114183763087176
 20
6.330754887513012
 30
0.0
 11
1.338451939425759
 21
6.330754887513012
 31
0.0
  0
LINE
  5
34D7
330
1E
100
AcDbEntity
  8
7
100
AcDbLine
 10
1.671575429425759
 20
5.60417845656813
 30
0.0
 11
1.670263919622609
 21
5.60548996637128
 31
0.0
  0
LINE
  5
34D8
330
1E
100
AcDbEntity
  8
7
100
AcDbLine
 10
1.670263919622609
 20
5.60548996637128
 30
0.0
 11
1.553539547142294
 21
5.60548996637128
 31
0.0
  0
LINE
  5
34D9
330
1E
100
AcDbEntity
  8
7
100
AcDbLine
 10
1.299106645331271
 20
5.60548996637128
 30
0.0
 11
1.322713821787964
 21
5.617293554599626
 31
0.0
  0
LINE
  5
34DA
330
1E
100
AcDbEntity
  8
7
100
AcDbLine
 10
1.322713821787964
 20
5.617293554599626
 30
0.0
 11
1.324025331591113
 21
5.622539593812224
 31
0.0
  0
LINE
  5
34DB
330
1E
100
AcDbEntity
  8
7
100
AcDbLine
 10
1.324025331591113
 20
5.622539593812224
 30
0.0
 11
1.324025331591113
 21
5.633031672237422
 31
0.0
  0
LINE
  5
34DC
330
1E
100
AcDbEntity
  8
7
100
AcDbLine
 10
1.324025331591113
 20
5.633031672237422
 30
0.0
 11
1.324025331591113
 21
5.648769789875217
 31
0.0
  0
LINE
  5
34DD
330
1E
100
AcDbEntity
  8
7
100
AcDbLine
 10
1.324025331591113
 20
5.648769789875217
 30
0.0
 11
1.322713821787964
 21
5.680246025150807
 31
0.0
  0
LINE
  5
34DE
330
1E
100
AcDbEntity
  8
7
100
AcDbLine
 10
1.322713821787964
 20
5.680246025150807
 30
0.0
 11
1.322713821787964
 21
5.685492064363406
 31
0.0
  0
LINE
  5
34DF
330
1E
100
AcDbEntity
  8
7
100
AcDbLine
 10
1.322713821787964
 20
5.685492064363406
 30
0.0
 11
1.322713821787964
 21
5.714345280032696
 31
0.0
  0
LINE
  5
34E0
330
1E
100
AcDbEntity
  8
7
100
AcDbLine
 10
1.528620860882452
 20
5.633031672237422
 30
0.0
 11
1.528620860882452
 21
5.622539593812224
 31
0.0
  0
LINE
  5
34E1
330
1E
100
AcDbEntity
  8
7
100
AcDbLine
 10
1.528620860882452
 20
5.622539593812224
 30
0.0
 11
1.528620860882452
 21
5.617293554599626
 31
0.0
  0
LINE
  5
34E2
330
1E
100
AcDbEntity
  8
7
100
AcDbLine
 10
1.528620860882452
 20
5.685492064363406
 30
0.0
 11
1.528620860882452
 21
5.680246025150807
 31
0.0
  0
LINE
  5
34E3
330
1E
100
AcDbEntity
  8
7
100
AcDbLine
 10
1.528620860882452
 20
5.680246025150807
 30
0.0
 11
1.528620860882452
 21
5.648769789875217
 31
0.0
  0
LINE
  5
34E4
330
1E
100
AcDbEntity
  8
7
100
AcDbLine
 10
1.480094998165916
 20
3.450679359796477
 30
0.0
 11
1.477471978559617
 21
3.444121810780728
 31
0.0
  0
LINE
  5
34E5
330
1E
100
AcDbEntity
  8
7
100
AcDbLine
 10
1.477471978559617
 20
3.444121810780728
 30
0.0
 11
1.456487821709223
 21
3.425760673536634
 31
0.0
  0
LINE
  5
34E6
330
1E
100
AcDbEntity
  8
7
100
AcDbLine
 10
1.456487821709223
 20
3.425760673536634
 30
0.0
 11
1.428946115843082
 21
3.416580104914586
 31
0.0
  0
LINE
  5
34E7
330
1E
100
AcDbEntity
  8
7
100
AcDbLine
 10
1.428946115843082
 20
3.416580104914586
 30
0.0
 11
1.422388566827333
 21
3.416580104914586
 31
0.0
  0
LINE
  5
34E8
330
1E
100
AcDbEntity
  8
7
100
AcDbLine
 10
1.422388566827333
 20
3.552977124442145
 30
0.0
 11
1.428946115843082
 21
3.552977124442145
 31
0.0
  0
LINE
  5
34E9
330
1E
100
AcDbEntity
  8
7
100
AcDbLine
 10
1.428946115843082
 20
3.552977124442145
 30
0.0
 11
1.456487821709223
 21
3.545108065623248
 31
0.0
  0
LINE
  5
34EA
330
1E
100
AcDbEntity
  8
7
100
AcDbLine
 10
1.456487821709223
 20
3.545108065623248
 30
0.0
 11
1.477471978559617
 21
3.525435418576003
 31
0.0
  0
LINE
  5
34EB
330
1E
100
AcDbEntity
  8
7
100
AcDbLine
 10
1.477471978559617
 20
3.525435418576003
 30
0.0
 11
1.480094998165916
 21
3.518877869560256
 31
0.0
  0
LINE
  5
34EC
330
1E
100
AcDbEntity
  8
7
100
AcDbLine
 10
1.352878547260404
 20
3.484778614678366
 30
0.0
 11
1.359436096276152
 21
3.512320320544507
 31
0.0
  0
LINE
  5
34ED
330
1E
100
AcDbEntity
  8
7
100
AcDbLine
 10
1.359436096276152
 20
3.512320320544507
 30
0.0
 11
1.363370625685602
 21
3.518877869560256
 31
0.0
  0
LINE
  5
34EE
330
1E
100
AcDbEntity
  8
7
100
AcDbLine
 10
1.3686166648982
 20
7.260615337946082
 30
0.0
 11
1.363370625685602
 21
7.267172886961831
 31
0.0
  0
LINE
  5
34EF
330
1E
100
AcDbEntity
  8
7
100
AcDbLine
 10
1.363370625685602
 20
7.267172886961831
 30
0.0
 11
1.358124586473003
 21
7.294714592827972
 31
0.0
  0
LINE
  5
34F0
330
1E
100
AcDbEntity
  8
7
100
AcDbLine
 10
1.485341037378514
 20
7.260615337946082
 30
0.0
 11
1.482718017772215
 21
7.254057788930334
 31
0.0
  0
LINE
  5
34F1
330
1E
100
AcDbEntity
  8
7
100
AcDbLine
 10
1.482718017772215
 20
7.254057788930334
 30
0.0
 11
1.461733860921822
 21
7.23438514188309
 31
0.0
  0
LINE
  5
34F2
330
1E
100
AcDbEntity
  8
7
100
AcDbLine
 10
1.461733860921822
 20
7.23438514188309
 30
0.0
 11
1.43419215505568
 21
7.226516083064193
 31
0.0
  0
LINE
  5
34F3
330
1E
100
AcDbEntity
  8
7
100
AcDbLine
 10
1.43419215505568
 20
7.226516083064193
 30
0.0
 11
1.427634606039932
 21
7.226516083064193
 31
0.0
  0
LINE
  5
34F4
330
1E
100
AcDbEntity
  8
7
100
AcDbLine
 10
1.427634606039932
 20
7.362913102591752
 30
0.0
 11
1.43419215505568
 21
7.362913102591752
 31
0.0
  0
LINE
  5
34F5
330
1E
100
AcDbEntity
  8
7
100
AcDbLine
 10
1.43419215505568
 20
7.362913102591752
 30
0.0
 11
1.461733860921822
 21
7.353732533969704
 31
0.0
  0
LINE
  5
34F6
330
1E
100
AcDbEntity
  8
7
100
AcDbLine
 10
1.461733860921822
 20
7.353732533969704
 30
0.0
 11
1.482718017772215
 21
7.33537139672561
 31
0.0
  0
LINE
  5
34F7
330
1E
100
AcDbEntity
  8
7
100
AcDbLine
 10
1.482718017772215
 20
7.33537139672561
 30
0.0
 11
1.485341037378514
 21
7.328813847709863
 31
0.0
  0
LINE
  5
34F8
330
1E
100
AcDbEntity
  8
7
100
AcDbLine
 10
1.358124586473003
 20
7.294714592827972
 30
0.0
 11
1.363370625685602
 21
7.322256298694114
 31
0.0
  0
LINE
  5
34F9
330
1E
100
AcDbEntity
  8
7
100
AcDbLine
 10
1.363370625685602
 20
7.322256298694114
 30
0.0
 11
1.3686166648982
 21
7.328813847709863
 31
0.0
  0
LINE
  5
34FA
330
1E
100
AcDbEntity
  8
7
100
AcDbLine
 10
1.363370625685602
 20
7.260615337946082
 30
0.0
 11
1.359436096276152
 21
7.267172886961831
 31
0.0
  0
LINE
  5
34FB
330
1E
100
AcDbEntity
  8
7
100
AcDbLine
 10
1.359436096276152
 20
7.267172886961831
 30
0.0
 11
1.352878547260404
 21
7.294714592827972
 31
0.0
  0
LINE
  5
34FC
330
1E
100
AcDbEntity
  8
7
100
AcDbLine
 10
1.480094998165916
 20
7.260615337946082
 30
0.0
 11
1.477471978559617
 21
7.254057788930334
 31
0.0
  0
LINE
  5
34FD
330
1E
100
AcDbEntity
  8
7
100
AcDbLine
 10
1.477471978559617
 20
7.254057788930334
 30
0.0
 11
1.456487821709223
 21
7.23438514188309
 31
0.0
  0
LINE
  5
34FE
330
1E
100
AcDbEntity
  8
7
100
AcDbLine
 10
1.456487821709223
 20
7.23438514188309
 30
0.0
 11
1.428946115843082
 21
7.226516083064193
 31
0.0
  0
LINE
  5
34FF
330
1E
100
AcDbEntity
  8
7
100
AcDbLine
 10
1.428946115843082
 20
7.226516083064193
 30
0.0
 11
1.422388566827333
 21
7.226516083064193
 31
0.0
  0
LINE
  5
3500
330
1E
100
AcDbEntity
  8
7
100
AcDbLine
 10
1.456487821709223
 20
7.353732533969704
 30
0.0
 11
1.477471978559617
 21
7.33537139672561
 31
0.0
  0
LINE
  5
3501
330
1E
100
AcDbEntity
  8
7
100
AcDbLine
 10
1.477471978559617
 20
7.33537139672561
 30
0.0
 11
1.480094998165916
 21
7.328813847709863
 31
0.0
  0
LINE
  5
3502
330
1E
100
AcDbEntity
  8
7
100
AcDbLine
 10
1.422388566827333
 20
7.362913102591752
 30
0.0
 11
1.428946115843082
 21
7.362913102591752
 31
0.0
  0
LINE
  5
3503
330
1E
100
AcDbEntity
  8
7
100
AcDbLine
 10
1.428946115843082
 20
7.362913102591752
 30
0.0
 11
1.456487821709223
 21
7.353732533969704
 31
0.0
  0
LINE
  5
3504
330
1E
100
AcDbEntity
  8
7
100
AcDbLine
 10
1.352878547260404
 20
7.294714592827972
 30
0.0
 11
1.359436096276152
 21
7.322256298694114
 31
0.0
  0
LINE
  5
3505
330
1E
100
AcDbEntity
  8
7
100
AcDbLine
 10
1.359436096276152
 20
7.322256298694114
 30
0.0
 11
1.363370625685602
 21
7.328813847709863
 31
0.0
  0
LINE
  5
3506
330
1E
100
AcDbEntity
  8
7
100
AcDbLine
 10
1.3686166648982
 20
3.450679359796477
 30
0.0
 11
1.363370625685602
 21
3.457236908812224
 31
0.0
  0
LINE
  5
3507
330
1E
100
AcDbEntity
  8
7
100
AcDbLine
 10
1.363370625685602
 20
3.457236908812224
 30
0.0
 11
1.358124586473003
 21
3.484778614678366
 31
0.0
  0
LINE
  5
3508
330
1E
100
AcDbEntity
  8
7
100
AcDbLine
 10
1.485341037378514
 20
3.450679359796477
 30
0.0
 11
1.482718017772215
 21
3.444121810780728
 31
0.0
  0
LINE
  5
3509
330
1E
100
AcDbEntity
  8
7
100
AcDbLine
 10
1.482718017772215
 20
3.444121810780728
 30
0.0
 11
1.461733860921822
 21
3.425760673536634
 31
0.0
  0
LINE
  5
350A
330
1E
100
AcDbEntity
  8
7
100
AcDbLine
 10
1.461733860921822
 20
3.425760673536634
 30
0.0
 11
1.43419215505568
 21
3.416580104914586
 31
0.0
  0
LINE
  5
350B
330
1E
100
AcDbEntity
  8
7
100
AcDbLine
 10
1.43419215505568
 20
3.416580104914586
 30
0.0
 11
1.427634606039932
 21
3.416580104914586
 31
0.0
  0
LINE
  5
350C
330
1E
100
AcDbEntity
  8
7
100
AcDbLine
 10
1.427634606039932
 20
3.552977124442145
 30
0.0
 11
1.43419215505568
 21
3.552977124442145
 31
0.0
  0
LINE
  5
350D
330
1E
100
AcDbEntity
  8
7
100
AcDbLine
 10
1.43419215505568
 20
3.552977124442145
 30
0.0
 11
1.461733860921822
 21
3.545108065623248
 31
0.0
  0
LINE
  5
350E
330
1E
100
AcDbEntity
  8
7
100
AcDbLine
 10
1.461733860921822
 20
3.545108065623248
 30
0.0
 11
1.482718017772215
 21
3.525435418576003
 31
0.0
  0
LINE
  5
350F
330
1E
100
AcDbEntity
  8
7
100
AcDbLine
 10
1.482718017772215
 20
3.525435418576003
 30
0.0
 11
1.485341037378514
 21
3.518877869560256
 31
0.0
  0
LINE
  5
3510
330
1E
100
AcDbEntity
  8
7
100
AcDbLine
 10
1.358124586473003
 20
3.484778614678366
 30
0.0
 11
1.363370625685602
 21
3.512320320544507
 31
0.0
  0
LINE
  5
3511
330
1E
100
AcDbEntity
  8
7
100
AcDbLine
 10
1.363370625685602
 20
3.512320320544507
 30
0.0
 11
1.3686166648982
 21
3.518877869560256
 31
0.0
  0
ENDSEC
  0
SECTION
  2
OBJECTS
  0
DICTIONARY
  5
C
330
0
100
AcDbDictionary
  3
ACAD_GROUP
350
D
  3
ACAD_LAYOUT
350
19
  3
ACAD_MLINESTYLE
350
16
  3
ACAD_PLOTSETTINGS
350
18
1001
ACAD
1000
TREAT_AS_HARD
1070
     0
  0
DICTIONARY
  5
4A72
330
1E
100
AcDbDictionary
  3
ACAD_LAYOUTSELFREF
350
4AF7
1001
ACAD
1000
TREAT_AS_HARD
1070
     1
  0
DICTIONARY
  5
4A74
330
1A
100
AcDbDictionary
  3
ACAD_LAYOUTSELFREF
350
4AF6
1001
ACAD
1000
TREAT_AS_HARD
1070
     1
  0
DICTIONARY
  5
D
102
{ACAD_REACTORS
330
C
102
}
330
C
100
AcDbDictionary
1001
ACAD
1000
TREAT_AS_HARD
1070
     0
  0
DICTIONARY
  5
19
102
{ACAD_REACTORS
330
C
102
}
330
C
100
AcDbDictionary
1001
ACAD
1000
TREAT_AS_HARD
1070
     0
  0
DICTIONARY
  5
16
102
{ACAD_REACTORS
330
C
102
}
330
C
100
AcDbDictionary
  3
STANDARD
350
17
1001
ACAD
1000
TREAT_AS_HARD
1070
     0
  0
DICTIONARY
  5
18
102
{ACAD_REACTORS
330
C
102
}
330
C
100
AcDbDictionary
1001
ACAD
1000
TREAT_AS_HARD
1070
     0
  0
XRECORD
  5
4AF7
102
{ACAD_REACTORS
330
4A72
102
}
330
4A72
100
AcDbXrecord
340
1E
  0
XRECORD
  5
4AF6
102
{ACAD_REACTORS
330
4A74
102
}
330
4A74
100
AcDbXrecord
340
1A
  0
MLINESTYLE
  5
17
102
{ACAD_REACTORS
330
16
102
}
330
16
100
AcDbMlineStyle
  2
STANDARD
 70
     0
  3

 62
   256
 51
90.0
 52
90.0
 71
     2
 49
0.5
 62
   256
  6
BYLAYER
 49
-0.5
 62
   256
  6
BYLAYER
  0
ENDSEC
  0
EOF
