  0
SECTION
  2
HEADER
  9
$ACADVER
  1
AC1014
  9
$ACADMAINTVER
 70
     9
  9
$DWGCODEPAGE
  3
ANSI_1252
  9
$INSBASE
 10
0.0
 20
0.0
 30
0.0
  9
$EXTMIN
 10
30.78601480978488
 20
-131.9317951199068
 30
-0.0015258207003583
  9
$EXTMAX
 10
72.5674657123518
 20
-30.33295333632308
 30
0.0000000349246037
  9
$LIMMIN
 10
0.0
 20
0.0
  9
$LIMMAX
 10
12.0
 20
9.0
  9
$ORTHOMODE
 70
     0
  9
$REGENMODE
 70
     1
  9
$FILLMODE
 70
     1
  9
$QTEXTMODE
 70
     0
  9
$MIRRTEXT
 70
     1
  9
$DRAGMODE
 70
     2
  9
$LTSCALE
 40
1.0
  9
$OSMODE
 70
    37
  9
$ATTMODE
 70
     1
  9
$TEXTSIZE
 40
0.2
  9
$TRACEWID
 40
0.05
  9
$TEXTSTYLE
  7
STANDARD
  9
$CLAYER
  8
0
  9
$CELTYPE
  6
BYLAYER
  9
$CECOLOR
 62
   256
  9
$CELTSCALE
 40
1.0
  9
$DELOBJ
 70
     1
  9
$DISPSILH
 70
     0
  9
$DIMSCALE
 40
1.0
  9
$DIMASZ
 40
0.18
  9
$DIMEXO
 40
0.0625
  9
$DIMDLI
 40
0.38
  9
$DIMRND
 40
0.0
  9
$DIMDLE
 40
0.0
  9
$DIMEXE
 40
0.18
  9
$DIMTP
 40
0.0
  9
$DIMTM
 40
0.0
  9
$DIMTXT
 40
0.18
  9
$DIMCEN
 40
0.09
  9
$DIMTSZ
 40
0.0
  9
$DIMTOL
 70
     0
  9
$DIMLIM
 70
     0
  9
$DIMTIH
 70
     1
  9
$DIMTOH
 70
     1
  9
$DIMSE1
 70
     0
  9
$DIMSE2
 70
     0
  9
$DIMTAD
 70
     0
  9
$DIMZIN
 70
     0
  9
$DIMBLK
  1

  9
$DIMASO
 70
     1
  9
$DIMSHO
 70
     1
  9
$DIMPOST
  1

  9
$DIMAPOST
  1

  9
$DIMALT
 70
     0
  9
$DIMALTD
 70
     2
  9
$DIMALTF
 40
25.4
  9
$DIMLFAC
 40
1.0
  9
$DIMTOFL
 70
     0
  9
$DIMTVP
 40
0.0
  9
$DIMTIX
 70
     0
  9
$DIMSOXD
 70
     0
  9
$DIMSAH
 70
     0
  9
$DIMBLK1
  1

  9
$DIMBLK2
  1

  9
$DIMSTYLE
  2
STANDARD
  9
$DIMCLRD
 70
     0
  9
$DIMCLRE
 70
     0
  9
$DIMCLRT
 70
     0
  9
$DIMTFAC
 40
1.0
  9
$DIMGAP
 40
0.09
  9
$DIMJUST
 70
     0
  9
$DIMSD1
 70
     0
  9
$DIMSD2
 70
     0
  9
$DIMTOLJ
 70
     1
  9
$DIMTZIN
 70
     0
  9
$DIMALTZ
 70
     0
  9
$DIMALTTZ
 70
     0
  9
$DIMFIT
 70
     5
  9
$DIMUPT
 70
     0
  9
$DIMUNIT
 70
     2
  9
$DIMDEC
 70
     4
  9
$DIMTDEC
 70
     4
  9
$DIMALTU
 70
     2
  9
$DIMALTTD
 70
     2
  9
$DIMTXSTY
  7
STANDARD
  9
$DIMAUNIT
 70
     0
  9
$LUNITS
 70
     2
  9
$LUPREC
 70
     4
  9
$SKETCHINC
 40
0.1
  9
$FILLETRAD
 40
0.0
  9
$AUNITS
 70
     0
  9
$AUPREC
 70
     0
  9
$MENU
  1
acad
  9
$ELEVATION
 40
0.0
  9
$PELEVATION
 40
0.0
  9
$THICKNESS
 40
0.0
  9
$LIMCHECK
 70
     0
  9
$BLIPMODE
 70
     0
  9
$CHAMFERA
 40
0.0
  9
$CHAMFERB
 40
0.0
  9
$CHAMFERC
 40
0.0
  9
$CHAMFERD
 40
0.0
  9
$SKPOLY
 70
     0
  9
$TDCREATE
 40
2454231.508530092
  9
$TDUPDATE
 40
2454256.703177315
  9
$TDINDWG
 40
0.0013189583
  9
$TDUSRTIMER
 40
0.0013189583
  9
$USRTIMER
 70
     1
  9
$ANGBASE
 50
0.0
  9
$ANGDIR
 70
     0
  9
$PDMODE
 70
     0
  9
$PDSIZE
 40
0.0
  9
$PLINEWID
 40
0.0
  9
$COORDS
 70
     1
  9
$SPLFRAME
 70
     0
  9
$SPLINETYPE
 70
     6
  9
$SPLINESEGS
 70
     8
  9
$ATTDIA
 70
     0
  9
$ATTREQ
 70
     1
  9
$HANDLING
 70
-16383
  9
$HANDSEED
  5
D88
  9
$SURFTAB1
 70
     6
  9
$SURFTAB2
 70
     6
  9
$SURFTYPE
 70
     6
  9
$SURFU
 70
     6
  9
$SURFV
 70
     6
  9
$UCSNAME
  2

  9
$UCSORG
 10
0.0
 20
0.0
 30
0.0
  9
$UCSXDIR
 10
1.0
 20
0.0
 30
0.0
  9
$UCSYDIR
 10
0.0
 20
1.0
 30
0.0
  9
$PUCSNAME
  2

  9
$PUCSORG
 10
0.0
 20
0.0
 30
0.0
  9
$PUCSXDIR
 10
1.0
 20
0.0
 30
0.0
  9
$PUCSYDIR
 10
0.0
 20
1.0
 30
0.0
  9
$USERI1
 70
     0
  9
$USERI2
 70
     0
  9
$USERI3
 70
     0
  9
$USERI4
 70
     0
  9
$USERI5
 70
     0
  9
$USERR1
 40
0.0
  9
$USERR2
 40
0.0
  9
$USERR3
 40
0.0
  9
$USERR4
 40
0.0
  9
$USERR5
 40
0.0
  9
$WORLDVIEW
 70
     1
  9
$SHADEDGE
 70
     3
  9
$SHADEDIF
 70
    70
  9
$TILEMODE
 70
     1
  9
$MAXACTVP
 70
    16
  9
$PINSBASE
 10
0.0
 20
0.0
 30
0.0
  9
$PLIMCHECK
 70
     0
  9
$PEXTMIN
 10
1.000000000000000E+20
 20
1.000000000000000E+20
 30
1.000000000000000E+20
  9
$PEXTMAX
 10
-1.000000000000000E+20
 20
-1.000000000000000E+20
 30
-1.000000000000000E+20
  9
$PLIMMIN
 10
0.0
 20
0.0
  9
$PLIMMAX
 10
12.0
 20
9.0
  9
$UNITMODE
 70
     0
  9
$VISRETAIN
 70
     0
  9
$PLINEGEN
 70
     0
  9
$PSLTSCALE
 70
     1
  9
$TREEDEPTH
 70
  3020
  9
$PICKSTYLE
 70
     1
  9
$CMLSTYLE
  2
STANDARD
  9
$CMLJUST
 70
     0
  9
$CMLSCALE
 40
1.0
  9
$PROXYGRAPHICS
 70
     1
  9
$MEASUREMENT
 70
     0
  0
ENDSEC
  0
SECTION
  2
CLASSES
  0
CLASS
  1
ACDBDICTIONARYWDFLT
  2
AcDbDictionaryWithDefault
  3
AutoCAD 2000
 90
        0
280
     0
281
     0
  0
CLASS
  1
ACDBPLACEHOLDER
  2
AcDbPlaceHolder
  3
AutoCAD 2000
 90
        0
280
     0
281
     0
  0
CLASS
  1
LAYOUT
  2
AcDbLayout
  3
AutoCAD 2000
 90
        0
280
     0
281
     0
  0
CLASS
  1
LONG_TRANSACTION
  2
AcDbLongTransaction
  3
AutoCAD 2000
 90
        0
280
     0
281
     0
  0
CLASS
  1
LWPOLYLINE
  2
AcDbPolyline
  3
AutoCAD 2000
 90
        0
280
     0
281
     1
  0
CLASS
  1
HATCH
  2
AcDbHatch
  3
AutoCAD 2000
 90
        0
280
     0
281
     1
  0
CLASS
  1
XRECORD
  2
AcDbXrecord
  3
AutoCAD 2000
 90
        0
280
     0
281
     0
  0
ENDSEC
  0
SECTION
  2
TABLES
  0
TABLE
  2
VPORT
  5
8
330
0
100
AcDbSymbolTable
 70
     3
  0
VPORT
  5
D62
330
8
100
AcDbSymbolTableRecord
100
AcDbViewportTableRecord
  2
*ACTIVE
 70
     0
 10
0.0
 20
0.0
 11
1.0
 21
1.0
 12
51.67674026106833
 22
-81.13237422811497
 13
0.0
 23
0.0
 14
1.0
 24
1.0
 15
0.0
 25
0.0
 16
0.0
 26
0.0
 36
1.0
 17
0.0
 27
0.0
 37
0.0
 40
102.3695030360509
 41
1.524050632911392
 42
50.0
 43
0.0
 44
0.0
 50
0.0
 51
0.0
 71
     0
 72
   100
 73
     1
 74
     1
 75
     0
 76
     0
 77
     0
 78
     0
  0
ENDTAB
  0
TABLE
  2
LTYPE
  5
5
330
0
100
AcDbSymbolTable
 70
    25
  0
LTYPE
  5
13
330
5
100
AcDbSymbolTableRecord
100
AcDbLinetypeTableRecord
  2
BYBLOCK
 70
     0
  3

 72
    65
 73
     0
 40
0.0
  0
LTYPE
  5
14
330
5
100
AcDbSymbolTableRecord
100
AcDbLinetypeTableRecord
  2
BYLAYER
 70
     0
  3

 72
    65
 73
     0
 40
0.0
  0
LTYPE
  5
15
330
5
100
AcDbSymbolTableRecord
100
AcDbLinetypeTableRecord
  2
CONTINUOUS
 70
     0
  3
Solid line
 72
    65
 73
     0
 40
0.0
  0
LTYPE
  5
22
330
5
100
AcDbSymbolTableRecord
100
AcDbLinetypeTableRecord
  2
BORDER
 70
     0
  3
__ __ . __ __ . __ __ . __ __ . __ __ . __ __ .
 72
    65
 73
     6
 40
1.75
 49
0.5
 74
     0
 49
-0.25
 74
     0
 49
0.5
 74
     0
 49
-0.25
 74
     0
 49
0.5
 74
     0
 49
-0.25
 74
     0
  0
LTYPE
  5
23
330
5
100
AcDbSymbolTableRecord
100
AcDbLinetypeTableRecord
  2
BORDER2
 70
     0
  3
__.__.__.__.__.__.__.__.
 72
    65
 73
     6
 40
0.875
 49
0.25
 74
     0
 49
-0.125
 74
     0
 49
0.25
 74
     0
 49
-0.125
 74
     0
 49
0.25
 74
     0
 49
-0.125
 74
     0
  0
LTYPE
  5
24
330
5
100
AcDbSymbolTableRecord
100
AcDbLinetypeTableRecord
  2
BORDERX2
 70
     0
  3
____  ____  .  
 72
    65
 73
     6
 40
3.5
 49
1.0
 74
     0
 49
-0.5
 74
     0
 49
1.0
 74
     0
 49
-0.5
 74
     0
 49
1.0
 74
     0
 49
-0.5
 74
     0
  0
LTYPE
  5
25
330
5
100
AcDbSymbolTableRecord
100
AcDbLinetypeTableRecord
  2
CENTER
 70
     0
  3
____ _ ____ _ ____ _ 
 72
    65
 73
     4
 40
2.0
 49
1.25
 74
     0
 49
-0.25
 74
     0
 49
0.25
 74
     0
 49
-0.25
 74
     0
  0
LTYPE
  5
26
330
5
100
AcDbSymbolTableRecord
100
AcDbLinetypeTableRecord
  2
CENTER2
 70
     0
  3
____ _ ____ _ ____ _ 
 72
    65
 73
     4
 40
1.125
 49
0.75
 74
     0
 49
-0.125
 74
     0
 49
0.125
 74
     0
 49
-0.125
 74
     0
  0
LTYPE
  5
27
330
5
100
AcDbSymbolTableRecord
100
AcDbLinetypeTableRecord
  2
CENTERX2
 70
     0
  3
________  __  
 72
    65
 73
     4
 40
4.0
 49
2.5
 74
     0
 49
-0.5
 74
     0
 49
0.5
 74
     0
 49
-0.5
 74
     0
  0
LTYPE
  5
28
330
5
100
AcDbSymbolTableRecord
100
AcDbLinetypeTableRecord
  2
DASHDOT
 70
     0
  3
__ . __ . __ . __ . 
 72
    65
 73
     4
 40
1.0
 49
0.5
 74
     0
 49
-0.25
 74
     0
 49
0.0
 74
     0
 49
-0.25
 74
     0
  0
LTYPE
  5
29
330
5
100
AcDbSymbolTableRecord
100
AcDbLinetypeTableRecord
  2
DASHDOT2
 70
     0
  3
_._._._._._._._._.
 72
    65
 73
     4
 40
0.5
 49
0.25
 74
     0
 49
-0.125
 74
     0
 49
0.0
 74
     0
 49
-0.125
 74
     0
  0
LTYPE
  5
2A
330
5
100
AcDbSymbolTableRecord
100
AcDbLinetypeTableRecord
  2
DASHDOTX2
 70
     0
  3
____  .  ____  .  
 72
    65
 73
     4
 40
2.0
 49
1.0
 74
     0
 49
-0.5
 74
     0
 49
0.0
 74
     0
 49
-0.5
 74
     0
  0
LTYPE
  5
2B
330
5
100
AcDbSymbolTableRecord
100
AcDbLinetypeTableRecord
  2
DASHED
 70
     0
  3
__ __ __ __ __ __ __ 
 72
    65
 73
     2
 40
0.75
 49
0.5
 74
     0
 49
-0.25
 74
     0
  0
LTYPE
  5
2C
330
5
100
AcDbSymbolTableRecord
100
AcDbLinetypeTableRecord
  2
DASHED2
 70
     0
  3
_ _ _ _ _ _ _ _ _ _ 
 72
    65
 73
     2
 40
0.375
 49
0.25
 74
     0
 49
-0.125
 74
     0
  0
LTYPE
  5
2D
330
5
100
AcDbSymbolTableRecord
100
AcDbLinetypeTableRecord
  2
DASHEDX2
 70
     0
  3
____  ____  ____  
 72
    65
 73
     2
 40
1.5
 49
1.0
 74
     0
 49
-0.5
 74
     0
  0
LTYPE
  5
2E
330
5
100
AcDbSymbolTableRecord
100
AcDbLinetypeTableRecord
  2
DIVIDE
 70
     0
  3
____ . . ____ . . 
 72
    65
 73
     6
 40
1.25
 49
0.5
 74
     0
 49
-0.25
 74
     0
 49
0.0
 74
     0
 49
-0.25
 74
     0
 49
0.0
 74
     0
 49
-0.25
 74
     0
  0
LTYPE
  5
2F
330
5
100
AcDbSymbolTableRecord
100
AcDbLinetypeTableRecord
  2
DIVIDE2
 70
     0
  3
__..__..__..__..__..
 72
    65
 73
     6
 40
0.625
 49
0.25
 74
     0
 49
-0.125
 74
     0
 49
0.0
 74
     0
 49
-0.125
 74
     0
 49
0.0
 74
     0
 49
-0.125
 74
     0
  0
LTYPE
  5
30
330
5
100
AcDbSymbolTableRecord
100
AcDbLinetypeTableRecord
  2
DIVIDEX2
 70
     0
  3
________  .  .  
 72
    65
 73
     6
 40
2.5
 49
1.0
 74
     0
 49
-0.5
 74
     0
 49
0.0
 74
     0
 49
-0.5
 74
     0
 49
0.0
 74
     0
 49
-0.5
 74
     0
  0
LTYPE
  5
31
330
5
100
AcDbSymbolTableRecord
100
AcDbLinetypeTableRecord
  2
DOT
 70
     0
  3
. . . . . . . . . 
 72
    65
 73
     2
 40
0.25
 49
0.0
 74
     0
 49
-0.25
 74
     0
  0
LTYPE
  5
32
330
5
100
AcDbSymbolTableRecord
100
AcDbLinetypeTableRecord
  2
DOT2
 70
     0
  3
..................
 72
    65
 73
     2
 40
0.125
 49
0.0
 74
     0
 49
-0.125
 74
     0
  0
LTYPE
  5
33
330
5
100
AcDbSymbolTableRecord
100
AcDbLinetypeTableRecord
  2
DOTX2
 70
     0
  3
.  .  .  .  .  .  
 72
    65
 73
     2
 40
0.5
 49
0.0
 74
     0
 49
-0.5
 74
     0
  0
LTYPE
  5
34
330
5
100
AcDbSymbolTableRecord
100
AcDbLinetypeTableRecord
  2
HIDDEN
 70
     0
  3
__ __ __ __ __ __ 
 72
    65
 73
     2
 40
0.375
 49
0.25
 74
     0
 49
-0.125
 74
     0
  0
LTYPE
  5
35
330
5
100
AcDbSymbolTableRecord
100
AcDbLinetypeTableRecord
  2
HIDDEN2
 70
     0
  3
_ _ _ _ _ _ _ _ _ 
 72
    65
 73
     2
 40
0.1875
 49
0.125
 74
     0
 49
-0.0625
 74
     0
  0
LTYPE
  5
36
330
5
100
AcDbSymbolTableRecord
100
AcDbLinetypeTableRecord
  2
HIDDENX2
 70
     0
  3
____ ____ ____ ____ 
 72
    65
 73
     2
 40
0.75
 49
0.5
 74
     0
 49
-0.25
 74
     0
  0
LTYPE
  5
37
330
5
100
AcDbSymbolTableRecord
100
AcDbLinetypeTableRecord
  2
PHANTOM
 70
     0
  3
______  __  __  
 72
    65
 73
     6
 40
2.5
 49
1.25
 74
     0
 49
-0.25
 74
     0
 49
0.25
 74
     0
 49
-0.25
 74
     0
 49
0.25
 74
     0
 49
-0.25
 74
     0
  0
LTYPE
  5
38
330
5
100
AcDbSymbolTableRecord
100
AcDbLinetypeTableRecord
  2
PHANTOM2
 70
     0
  3
___ _ _ ___ _ _ 
 72
    65
 73
     6
 40
1.25
 49
0.625
 74
     0
 49
-0.125
 74
     0
 49
0.125
 74
     0
 49
-0.125
 74
     0
 49
0.125
 74
     0
 49
-0.125
 74
     0
  0
LTYPE
  5
39
330
5
100
AcDbSymbolTableRecord
100
AcDbLinetypeTableRecord
  2
PHANTOMX2
 70
     0
  3
___ _ _ ___ _ _ 
 72
    65
 73
     6
 40
5.0
 49
2.5
 74
     0
 49
-0.5
 74
     0
 49
0.5
 74
     0
 49
-0.5
 74
     0
 49
0.5
 74
     0
 49
-0.5
 74
     0
  0
ENDTAB
  0
TABLE
  2
LAYER
  5
2
330
0
100
AcDbSymbolTable
 70
   256
  0
LAYER
  5
10
330
2
100
AcDbSymbolTableRecord
100
AcDbLayerTableRecord
  2
0
 70
     0
 62
     7
  6
CONTINUOUS
  0
LAYER
  5
3A
330
2
100
AcDbSymbolTableRecord
100
AcDbLayerTableRecord
  2
1
 70
     0
 62
     1
  6
CONTINUOUS
  0
LAYER
  5
3B
330
2
100
AcDbSymbolTableRecord
100
AcDbLayerTableRecord
  2
2
 70
     0
 62
     2
  6
CONTINUOUS
  0
LAYER
  5
3C
330
2
100
AcDbSymbolTableRecord
100
AcDbLayerTableRecord
  2
3
 70
     0
 62
     3
  6
CONTINUOUS
  0
LAYER
  5
3D
330
2
100
AcDbSymbolTableRecord
100
AcDbLayerTableRecord
  2
4
 70
     0
 62
     4
  6
CONTINUOUS
  0
LAYER
  5
3E
330
2
100
AcDbSymbolTableRecord
100
AcDbLayerTableRecord
  2
5
 70
     0
 62
     5
  6
CONTINUOUS
  0
LAYER
  5
3F
330
2
100
AcDbSymbolTableRecord
100
AcDbLayerTableRecord
  2
6
 70
     0
 62
     6
  6
CONTINUOUS
  0
LAYER
  5
40
330
2
100
AcDbSymbolTableRecord
100
AcDbLayerTableRecord
  2
7
 70
     0
 62
     7
  6
CONTINUOUS
  0
LAYER
  5
41
330
2
100
AcDbSymbolTableRecord
100
AcDbLayerTableRecord
  2
8
 70
     0
 62
     8
  6
CONTINUOUS
  0
LAYER
  5
42
330
2
100
AcDbSymbolTableRecord
100
AcDbLayerTableRecord
  2
9
 70
     0
 62
     9
  6
CONTINUOUS
  0
LAYER
  5
43
330
2
100
AcDbSymbolTableRecord
100
AcDbLayerTableRecord
  2
10
 70
     0
 62
    10
  6
CONTINUOUS
  0
LAYER
  5
44
330
2
100
AcDbSymbolTableRecord
100
AcDbLayerTableRecord
  2
11
 70
     0
 62
    11
  6
CONTINUOUS
  0
LAYER
  5
45
330
2
100
AcDbSymbolTableRecord
100
AcDbLayerTableRecord
  2
12
 70
     0
 62
    12
  6
CONTINUOUS
  0
LAYER
  5
46
330
2
100
AcDbSymbolTableRecord
100
AcDbLayerTableRecord
  2
13
 70
     0
 62
    13
  6
CONTINUOUS
  0
LAYER
  5
47
330
2
100
AcDbSymbolTableRecord
100
AcDbLayerTableRecord
  2
14
 70
     0
 62
    14
  6
CONTINUOUS
  0
LAYER
  5
48
330
2
100
AcDbSymbolTableRecord
100
AcDbLayerTableRecord
  2
15
 70
     0
 62
    15
  6
CONTINUOUS
  0
LAYER
  5
49
330
2
100
AcDbSymbolTableRecord
100
AcDbLayerTableRecord
  2
16
 70
     0
 62
    16
  6
CONTINUOUS
  0
LAYER
  5
4A
330
2
100
AcDbSymbolTableRecord
100
AcDbLayerTableRecord
  2
17
 70
     0
 62
    17
  6
CONTINUOUS
  0
LAYER
  5
4B
330
2
100
AcDbSymbolTableRecord
100
AcDbLayerTableRecord
  2
18
 70
     0
 62
    18
  6
CONTINUOUS
  0
LAYER
  5
4C
330
2
100
AcDbSymbolTableRecord
100
AcDbLayerTableRecord
  2
19
 70
     0
 62
    19
  6
CONTINUOUS
  0
LAYER
  5
4D
330
2
100
AcDbSymbolTableRecord
100
AcDbLayerTableRecord
  2
20
 70
     0
 62
    20
  6
CONTINUOUS
  0
LAYER
  5
4E
330
2
100
AcDbSymbolTableRecord
100
AcDbLayerTableRecord
  2
21
 70
     0
 62
    21
  6
CONTINUOUS
  0
LAYER
  5
4F
330
2
100
AcDbSymbolTableRecord
100
AcDbLayerTableRecord
  2
22
 70
     0
 62
    22
  6
CONTINUOUS
  0
LAYER
  5
50
330
2
100
AcDbSymbolTableRecord
100
AcDbLayerTableRecord
  2
23
 70
     0
 62
    23
  6
CONTINUOUS
  0
LAYER
  5
51
330
2
100
AcDbSymbolTableRecord
100
AcDbLayerTableRecord
  2
24
 70
     0
 62
    24
  6
CONTINUOUS
  0
LAYER
  5
52
330
2
100
AcDbSymbolTableRecord
100
AcDbLayerTableRecord
  2
25
 70
     0
 62
    25
  6
CONTINUOUS
  0
LAYER
  5
53
330
2
100
AcDbSymbolTableRecord
100
AcDbLayerTableRecord
  2
26
 70
     0
 62
    26
  6
CONTINUOUS
  0
LAYER
  5
54
330
2
100
AcDbSymbolTableRecord
100
AcDbLayerTableRecord
  2
27
 70
     0
 62
    27
  6
CONTINUOUS
  0
LAYER
  5
55
330
2
100
AcDbSymbolTableRecord
100
AcDbLayerTableRecord
  2
28
 70
     0
 62
    28
  6
CONTINUOUS
  0
LAYER
  5
56
330
2
100
AcDbSymbolTableRecord
100
AcDbLayerTableRecord
  2
29
 70
     0
 62
    29
  6
CONTINUOUS
  0
LAYER
  5
57
330
2
100
AcDbSymbolTableRecord
100
AcDbLayerTableRecord
  2
30
 70
     0
 62
    30
  6
CONTINUOUS
  0
LAYER
  5
58
330
2
100
AcDbSymbolTableRecord
100
AcDbLayerTableRecord
  2
31
 70
     0
 62
    31
  6
CONTINUOUS
  0
LAYER
  5
59
330
2
100
AcDbSymbolTableRecord
100
AcDbLayerTableRecord
  2
32
 70
     0
 62
    32
  6
CONTINUOUS
  0
LAYER
  5
5A
330
2
100
AcDbSymbolTableRecord
100
AcDbLayerTableRecord
  2
33
 70
     0
 62
    33
  6
CONTINUOUS
  0
LAYER
  5
5B
330
2
100
AcDbSymbolTableRecord
100
AcDbLayerTableRecord
  2
34
 70
     0
 62
    34
  6
CONTINUOUS
  0
LAYER
  5
5C
330
2
100
AcDbSymbolTableRecord
100
AcDbLayerTableRecord
  2
35
 70
     0
 62
    35
  6
CONTINUOUS
  0
LAYER
  5
5D
330
2
100
AcDbSymbolTableRecord
100
AcDbLayerTableRecord
  2
36
 70
     0
 62
    36
  6
CONTINUOUS
  0
LAYER
  5
5E
330
2
100
AcDbSymbolTableRecord
100
AcDbLayerTableRecord
  2
37
 70
     0
 62
    37
  6
CONTINUOUS
  0
LAYER
  5
5F
330
2
100
AcDbSymbolTableRecord
100
AcDbLayerTableRecord
  2
38
 70
     0
 62
    38
  6
CONTINUOUS
  0
LAYER
  5
60
330
2
100
AcDbSymbolTableRecord
100
AcDbLayerTableRecord
  2
39
 70
     0
 62
    39
  6
CONTINUOUS
  0
LAYER
  5
61
330
2
100
AcDbSymbolTableRecord
100
AcDbLayerTableRecord
  2
40
 70
     0
 62
    40
  6
CONTINUOUS
  0
LAYER
  5
62
330
2
100
AcDbSymbolTableRecord
100
AcDbLayerTableRecord
  2
41
 70
     0
 62
    41
  6
CONTINUOUS
  0
LAYER
  5
63
330
2
100
AcDbSymbolTableRecord
100
AcDbLayerTableRecord
  2
42
 70
     0
 62
    42
  6
CONTINUOUS
  0
LAYER
  5
64
330
2
100
AcDbSymbolTableRecord
100
AcDbLayerTableRecord
  2
43
 70
     0
 62
    43
  6
CONTINUOUS
  0
LAYER
  5
65
330
2
100
AcDbSymbolTableRecord
100
AcDbLayerTableRecord
  2
44
 70
     0
 62
    44
  6
CONTINUOUS
  0
LAYER
  5
66
330
2
100
AcDbSymbolTableRecord
100
AcDbLayerTableRecord
  2
45
 70
     0
 62
    45
  6
CONTINUOUS
  0
LAYER
  5
67
330
2
100
AcDbSymbolTableRecord
100
AcDbLayerTableRecord
  2
46
 70
     0
 62
    46
  6
CONTINUOUS
  0
LAYER
  5
68
330
2
100
AcDbSymbolTableRecord
100
AcDbLayerTableRecord
  2
47
 70
     0
 62
    47
  6
CONTINUOUS
  0
LAYER
  5
69
330
2
100
AcDbSymbolTableRecord
100
AcDbLayerTableRecord
  2
48
 70
     0
 62
    48
  6
CONTINUOUS
  0
LAYER
  5
6A
330
2
100
AcDbSymbolTableRecord
100
AcDbLayerTableRecord
  2
49
 70
     0
 62
    49
  6
CONTINUOUS
  0
LAYER
  5
6B
330
2
100
AcDbSymbolTableRecord
100
AcDbLayerTableRecord
  2
50
 70
     0
 62
    50
  6
CONTINUOUS
  0
LAYER
  5
6C
330
2
100
AcDbSymbolTableRecord
100
AcDbLayerTableRecord
  2
51
 70
     0
 62
    51
  6
CONTINUOUS
  0
LAYER
  5
6D
330
2
100
AcDbSymbolTableRecord
100
AcDbLayerTableRecord
  2
52
 70
     0
 62
    52
  6
CONTINUOUS
  0
LAYER
  5
6E
330
2
100
AcDbSymbolTableRecord
100
AcDbLayerTableRecord
  2
53
 70
     0
 62
    53
  6
CONTINUOUS
  0
LAYER
  5
6F
330
2
100
AcDbSymbolTableRecord
100
AcDbLayerTableRecord
  2
54
 70
     0
 62
    54
  6
CONTINUOUS
  0
LAYER
  5
70
330
2
100
AcDbSymbolTableRecord
100
AcDbLayerTableRecord
  2
55
 70
     0
 62
    55
  6
CONTINUOUS
  0
LAYER
  5
71
330
2
100
AcDbSymbolTableRecord
100
AcDbLayerTableRecord
  2
56
 70
     0
 62
    56
  6
CONTINUOUS
  0
LAYER
  5
72
330
2
100
AcDbSymbolTableRecord
100
AcDbLayerTableRecord
  2
57
 70
     0
 62
    57
  6
CONTINUOUS
  0
LAYER
  5
73
330
2
100
AcDbSymbolTableRecord
100
AcDbLayerTableRecord
  2
58
 70
     0
 62
    58
  6
CONTINUOUS
  0
LAYER
  5
74
330
2
100
AcDbSymbolTableRecord
100
AcDbLayerTableRecord
  2
59
 70
     0
 62
    59
  6
CONTINUOUS
  0
LAYER
  5
75
330
2
100
AcDbSymbolTableRecord
100
AcDbLayerTableRecord
  2
60
 70
     0
 62
    60
  6
CONTINUOUS
  0
LAYER
  5
76
330
2
100
AcDbSymbolTableRecord
100
AcDbLayerTableRecord
  2
61
 70
     0
 62
    61
  6
CONTINUOUS
  0
LAYER
  5
77
330
2
100
AcDbSymbolTableRecord
100
AcDbLayerTableRecord
  2
62
 70
     0
 62
    62
  6
CONTINUOUS
  0
LAYER
  5
78
330
2
100
AcDbSymbolTableRecord
100
AcDbLayerTableRecord
  2
63
 70
     0
 62
    63
  6
CONTINUOUS
  0
LAYER
  5
79
330
2
100
AcDbSymbolTableRecord
100
AcDbLayerTableRecord
  2
64
 70
     0
 62
    64
  6
CONTINUOUS
  0
LAYER
  5
7A
330
2
100
AcDbSymbolTableRecord
100
AcDbLayerTableRecord
  2
65
 70
     0
 62
    65
  6
CONTINUOUS
  0
LAYER
  5
7B
330
2
100
AcDbSymbolTableRecord
100
AcDbLayerTableRecord
  2
66
 70
     0
 62
    66
  6
CONTINUOUS
  0
LAYER
  5
7C
330
2
100
AcDbSymbolTableRecord
100
AcDbLayerTableRecord
  2
67
 70
     0
 62
    67
  6
CONTINUOUS
  0
LAYER
  5
7D
330
2
100
AcDbSymbolTableRecord
100
AcDbLayerTableRecord
  2
68
 70
     0
 62
    68
  6
CONTINUOUS
  0
LAYER
  5
7E
330
2
100
AcDbSymbolTableRecord
100
AcDbLayerTableRecord
  2
69
 70
     0
 62
    69
  6
CONTINUOUS
  0
LAYER
  5
7F
330
2
100
AcDbSymbolTableRecord
100
AcDbLayerTableRecord
  2
70
 70
     0
 62
    70
  6
CONTINUOUS
  0
LAYER
  5
80
330
2
100
AcDbSymbolTableRecord
100
AcDbLayerTableRecord
  2
71
 70
     0
 62
    71
  6
CONTINUOUS
  0
LAYER
  5
81
330
2
100
AcDbSymbolTableRecord
100
AcDbLayerTableRecord
  2
72
 70
     0
 62
    72
  6
CONTINUOUS
  0
LAYER
  5
82
330
2
100
AcDbSymbolTableRecord
100
AcDbLayerTableRecord
  2
73
 70
     0
 62
    73
  6
CONTINUOUS
  0
LAYER
  5
83
330
2
100
AcDbSymbolTableRecord
100
AcDbLayerTableRecord
  2
74
 70
     0
 62
    74
  6
CONTINUOUS
  0
LAYER
  5
84
330
2
100
AcDbSymbolTableRecord
100
AcDbLayerTableRecord
  2
75
 70
     0
 62
    75
  6
CONTINUOUS
  0
LAYER
  5
85
330
2
100
AcDbSymbolTableRecord
100
AcDbLayerTableRecord
  2
76
 70
     0
 62
    76
  6
CONTINUOUS
  0
LAYER
  5
86
330
2
100
AcDbSymbolTableRecord
100
AcDbLayerTableRecord
  2
77
 70
     0
 62
    77
  6
CONTINUOUS
  0
LAYER
  5
87
330
2
100
AcDbSymbolTableRecord
100
AcDbLayerTableRecord
  2
78
 70
     0
 62
    78
  6
CONTINUOUS
  0
LAYER
  5
88
330
2
100
AcDbSymbolTableRecord
100
AcDbLayerTableRecord
  2
79
 70
     0
 62
    79
  6
CONTINUOUS
  0
LAYER
  5
89
330
2
100
AcDbSymbolTableRecord
100
AcDbLayerTableRecord
  2
80
 70
     0
 62
    80
  6
CONTINUOUS
  0
LAYER
  5
8A
330
2
100
AcDbSymbolTableRecord
100
AcDbLayerTableRecord
  2
81
 70
     0
 62
    81
  6
CONTINUOUS
  0
LAYER
  5
8B
330
2
100
AcDbSymbolTableRecord
100
AcDbLayerTableRecord
  2
82
 70
     0
 62
    82
  6
CONTINUOUS
  0
LAYER
  5
8C
330
2
100
AcDbSymbolTableRecord
100
AcDbLayerTableRecord
  2
83
 70
     0
 62
    83
  6
CONTINUOUS
  0
LAYER
  5
8D
330
2
100
AcDbSymbolTableRecord
100
AcDbLayerTableRecord
  2
84
 70
     0
 62
    84
  6
CONTINUOUS
  0
LAYER
  5
8E
330
2
100
AcDbSymbolTableRecord
100
AcDbLayerTableRecord
  2
85
 70
     0
 62
    85
  6
CONTINUOUS
  0
LAYER
  5
8F
330
2
100
AcDbSymbolTableRecord
100
AcDbLayerTableRecord
  2
86
 70
     0
 62
    86
  6
CONTINUOUS
  0
LAYER
  5
90
330
2
100
AcDbSymbolTableRecord
100
AcDbLayerTableRecord
  2
87
 70
     0
 62
    87
  6
CONTINUOUS
  0
LAYER
  5
91
330
2
100
AcDbSymbolTableRecord
100
AcDbLayerTableRecord
  2
88
 70
     0
 62
    88
  6
CONTINUOUS
  0
LAYER
  5
92
330
2
100
AcDbSymbolTableRecord
100
AcDbLayerTableRecord
  2
89
 70
     0
 62
    89
  6
CONTINUOUS
  0
LAYER
  5
93
330
2
100
AcDbSymbolTableRecord
100
AcDbLayerTableRecord
  2
90
 70
     0
 62
    90
  6
CONTINUOUS
  0
LAYER
  5
94
330
2
100
AcDbSymbolTableRecord
100
AcDbLayerTableRecord
  2
91
 70
     0
 62
    91
  6
CONTINUOUS
  0
LAYER
  5
95
330
2
100
AcDbSymbolTableRecord
100
AcDbLayerTableRecord
  2
92
 70
     0
 62
    92
  6
CONTINUOUS
  0
LAYER
  5
96
330
2
100
AcDbSymbolTableRecord
100
AcDbLayerTableRecord
  2
93
 70
     0
 62
    93
  6
CONTINUOUS
  0
LAYER
  5
97
330
2
100
AcDbSymbolTableRecord
100
AcDbLayerTableRecord
  2
94
 70
     0
 62
    94
  6
CONTINUOUS
  0
LAYER
  5
98
330
2
100
AcDbSymbolTableRecord
100
AcDbLayerTableRecord
  2
95
 70
     0
 62
    95
  6
CONTINUOUS
  0
LAYER
  5
99
330
2
100
AcDbSymbolTableRecord
100
AcDbLayerTableRecord
  2
96
 70
     0
 62
    96
  6
CONTINUOUS
  0
LAYER
  5
9A
330
2
100
AcDbSymbolTableRecord
100
AcDbLayerTableRecord
  2
97
 70
     0
 62
    97
  6
CONTINUOUS
  0
LAYER
  5
9B
330
2
100
AcDbSymbolTableRecord
100
AcDbLayerTableRecord
  2
98
 70
     0
 62
    98
  6
CONTINUOUS
  0
LAYER
  5
9C
330
2
100
AcDbSymbolTableRecord
100
AcDbLayerTableRecord
  2
99
 70
     0
 62
    99
  6
CONTINUOUS
  0
LAYER
  5
9D
330
2
100
AcDbSymbolTableRecord
100
AcDbLayerTableRecord
  2
100
 70
     0
 62
   100
  6
CONTINUOUS
  0
LAYER
  5
9E
330
2
100
AcDbSymbolTableRecord
100
AcDbLayerTableRecord
  2
101
 70
     0
 62
   101
  6
CONTINUOUS
  0
LAYER
  5
9F
330
2
100
AcDbSymbolTableRecord
100
AcDbLayerTableRecord
  2
102
 70
     0
 62
   102
  6
CONTINUOUS
  0
LAYER
  5
A0
330
2
100
AcDbSymbolTableRecord
100
AcDbLayerTableRecord
  2
103
 70
     0
 62
   103
  6
CONTINUOUS
  0
LAYER
  5
A1
330
2
100
AcDbSymbolTableRecord
100
AcDbLayerTableRecord
  2
104
 70
     0
 62
   104
  6
CONTINUOUS
  0
LAYER
  5
A2
330
2
100
AcDbSymbolTableRecord
100
AcDbLayerTableRecord
  2
105
 70
     0
 62
   105
  6
CONTINUOUS
  0
LAYER
  5
A3
330
2
100
AcDbSymbolTableRecord
100
AcDbLayerTableRecord
  2
106
 70
     0
 62
   106
  6
CONTINUOUS
  0
LAYER
  5
A4
330
2
100
AcDbSymbolTableRecord
100
AcDbLayerTableRecord
  2
107
 70
     0
 62
   107
  6
CONTINUOUS
  0
LAYER
  5
A5
330
2
100
AcDbSymbolTableRecord
100
AcDbLayerTableRecord
  2
108
 70
     0
 62
   108
  6
CONTINUOUS
  0
LAYER
  5
A6
330
2
100
AcDbSymbolTableRecord
100
AcDbLayerTableRecord
  2
109
 70
     0
 62
   109
  6
CONTINUOUS
  0
LAYER
  5
A7
330
2
100
AcDbSymbolTableRecord
100
AcDbLayerTableRecord
  2
110
 70
     0
 62
   110
  6
CONTINUOUS
  0
LAYER
  5
A8
330
2
100
AcDbSymbolTableRecord
100
AcDbLayerTableRecord
  2
111
 70
     0
 62
   111
  6
CONTINUOUS
  0
LAYER
  5
A9
330
2
100
AcDbSymbolTableRecord
100
AcDbLayerTableRecord
  2
112
 70
     0
 62
   112
  6
CONTINUOUS
  0
LAYER
  5
AA
330
2
100
AcDbSymbolTableRecord
100
AcDbLayerTableRecord
  2
113
 70
     0
 62
   113
  6
CONTINUOUS
  0
LAYER
  5
AB
330
2
100
AcDbSymbolTableRecord
100
AcDbLayerTableRecord
  2
114
 70
     0
 62
   114
  6
CONTINUOUS
  0
LAYER
  5
AC
330
2
100
AcDbSymbolTableRecord
100
AcDbLayerTableRecord
  2
115
 70
     0
 62
   115
  6
CONTINUOUS
  0
LAYER
  5
AD
330
2
100
AcDbSymbolTableRecord
100
AcDbLayerTableRecord
  2
116
 70
     0
 62
   116
  6
CONTINUOUS
  0
LAYER
  5
AE
330
2
100
AcDbSymbolTableRecord
100
AcDbLayerTableRecord
  2
117
 70
     0
 62
   117
  6
CONTINUOUS
  0
LAYER
  5
AF
330
2
100
AcDbSymbolTableRecord
100
AcDbLayerTableRecord
  2
118
 70
     0
 62
   118
  6
CONTINUOUS
  0
LAYER
  5
B0
330
2
100
AcDbSymbolTableRecord
100
AcDbLayerTableRecord
  2
119
 70
     0
 62
   119
  6
CONTINUOUS
  0
LAYER
  5
B1
330
2
100
AcDbSymbolTableRecord
100
AcDbLayerTableRecord
  2
120
 70
     0
 62
   120
  6
CONTINUOUS
  0
LAYER
  5
B2
330
2
100
AcDbSymbolTableRecord
100
AcDbLayerTableRecord
  2
121
 70
     0
 62
   121
  6
CONTINUOUS
  0
LAYER
  5
B3
330
2
100
AcDbSymbolTableRecord
100
AcDbLayerTableRecord
  2
122
 70
     0
 62
   122
  6
CONTINUOUS
  0
LAYER
  5
B4
330
2
100
AcDbSymbolTableRecord
100
AcDbLayerTableRecord
  2
123
 70
     0
 62
   123
  6
CONTINUOUS
  0
LAYER
  5
B5
330
2
100
AcDbSymbolTableRecord
100
AcDbLayerTableRecord
  2
124
 70
     0
 62
   124
  6
CONTINUOUS
  0
LAYER
  5
B6
330
2
100
AcDbSymbolTableRecord
100
AcDbLayerTableRecord
  2
125
 70
     0
 62
   125
  6
CONTINUOUS
  0
LAYER
  5
B7
330
2
100
AcDbSymbolTableRecord
100
AcDbLayerTableRecord
  2
126
 70
     0
 62
   126
  6
CONTINUOUS
  0
LAYER
  5
B8
330
2
100
AcDbSymbolTableRecord
100
AcDbLayerTableRecord
  2
127
 70
     0
 62
   127
  6
CONTINUOUS
  0
LAYER
  5
B9
330
2
100
AcDbSymbolTableRecord
100
AcDbLayerTableRecord
  2
128
 70
     0
 62
   128
  6
CONTINUOUS
  0
LAYER
  5
BA
330
2
100
AcDbSymbolTableRecord
100
AcDbLayerTableRecord
  2
129
 70
     0
 62
   129
  6
CONTINUOUS
  0
LAYER
  5
BB
330
2
100
AcDbSymbolTableRecord
100
AcDbLayerTableRecord
  2
130
 70
     0
 62
   130
  6
CONTINUOUS
  0
LAYER
  5
BC
330
2
100
AcDbSymbolTableRecord
100
AcDbLayerTableRecord
  2
131
 70
     0
 62
   131
  6
CONTINUOUS
  0
LAYER
  5
BD
330
2
100
AcDbSymbolTableRecord
100
AcDbLayerTableRecord
  2
132
 70
     0
 62
   132
  6
CONTINUOUS
  0
LAYER
  5
BE
330
2
100
AcDbSymbolTableRecord
100
AcDbLayerTableRecord
  2
133
 70
     0
 62
   133
  6
CONTINUOUS
  0
LAYER
  5
BF
330
2
100
AcDbSymbolTableRecord
100
AcDbLayerTableRecord
  2
134
 70
     0
 62
   134
  6
CONTINUOUS
  0
LAYER
  5
C0
330
2
100
AcDbSymbolTableRecord
100
AcDbLayerTableRecord
  2
135
 70
     0
 62
   135
  6
CONTINUOUS
  0
LAYER
  5
C1
330
2
100
AcDbSymbolTableRecord
100
AcDbLayerTableRecord
  2
136
 70
     0
 62
   136
  6
CONTINUOUS
  0
LAYER
  5
C2
330
2
100
AcDbSymbolTableRecord
100
AcDbLayerTableRecord
  2
137
 70
     0
 62
   137
  6
CONTINUOUS
  0
LAYER
  5
C3
330
2
100
AcDbSymbolTableRecord
100
AcDbLayerTableRecord
  2
138
 70
     0
 62
   138
  6
CONTINUOUS
  0
LAYER
  5
C4
330
2
100
AcDbSymbolTableRecord
100
AcDbLayerTableRecord
  2
139
 70
     0
 62
   139
  6
CONTINUOUS
  0
LAYER
  5
C5
330
2
100
AcDbSymbolTableRecord
100
AcDbLayerTableRecord
  2
140
 70
     0
 62
   140
  6
CONTINUOUS
  0
LAYER
  5
C6
330
2
100
AcDbSymbolTableRecord
100
AcDbLayerTableRecord
  2
141
 70
     0
 62
   141
  6
CONTINUOUS
  0
LAYER
  5
C7
330
2
100
AcDbSymbolTableRecord
100
AcDbLayerTableRecord
  2
142
 70
     0
 62
   142
  6
CONTINUOUS
  0
LAYER
  5
C8
330
2
100
AcDbSymbolTableRecord
100
AcDbLayerTableRecord
  2
143
 70
     0
 62
   143
  6
CONTINUOUS
  0
LAYER
  5
C9
330
2
100
AcDbSymbolTableRecord
100
AcDbLayerTableRecord
  2
144
 70
     0
 62
   144
  6
CONTINUOUS
  0
LAYER
  5
CA
330
2
100
AcDbSymbolTableRecord
100
AcDbLayerTableRecord
  2
145
 70
     0
 62
   145
  6
CONTINUOUS
  0
LAYER
  5
CB
330
2
100
AcDbSymbolTableRecord
100
AcDbLayerTableRecord
  2
146
 70
     0
 62
   146
  6
CONTINUOUS
  0
LAYER
  5
CC
330
2
100
AcDbSymbolTableRecord
100
AcDbLayerTableRecord
  2
147
 70
     0
 62
   147
  6
CONTINUOUS
  0
LAYER
  5
CD
330
2
100
AcDbSymbolTableRecord
100
AcDbLayerTableRecord
  2
148
 70
     0
 62
   148
  6
CONTINUOUS
  0
LAYER
  5
CE
330
2
100
AcDbSymbolTableRecord
100
AcDbLayerTableRecord
  2
149
 70
     0
 62
   149
  6
CONTINUOUS
  0
LAYER
  5
CF
330
2
100
AcDbSymbolTableRecord
100
AcDbLayerTableRecord
  2
150
 70
     0
 62
   150
  6
CONTINUOUS
  0
LAYER
  5
D0
330
2
100
AcDbSymbolTableRecord
100
AcDbLayerTableRecord
  2
151
 70
     0
 62
   151
  6
CONTINUOUS
  0
LAYER
  5
D1
330
2
100
AcDbSymbolTableRecord
100
AcDbLayerTableRecord
  2
152
 70
     0
 62
   152
  6
CONTINUOUS
  0
LAYER
  5
D2
330
2
100
AcDbSymbolTableRecord
100
AcDbLayerTableRecord
  2
153
 70
     0
 62
   153
  6
CONTINUOUS
  0
LAYER
  5
D3
330
2
100
AcDbSymbolTableRecord
100
AcDbLayerTableRecord
  2
154
 70
     0
 62
   154
  6
CONTINUOUS
  0
LAYER
  5
D4
330
2
100
AcDbSymbolTableRecord
100
AcDbLayerTableRecord
  2
155
 70
     0
 62
   155
  6
CONTINUOUS
  0
LAYER
  5
D5
330
2
100
AcDbSymbolTableRecord
100
AcDbLayerTableRecord
  2
156
 70
     0
 62
   156
  6
CONTINUOUS
  0
LAYER
  5
D6
330
2
100
AcDbSymbolTableRecord
100
AcDbLayerTableRecord
  2
157
 70
     0
 62
   157
  6
CONTINUOUS
  0
LAYER
  5
D7
330
2
100
AcDbSymbolTableRecord
100
AcDbLayerTableRecord
  2
158
 70
     0
 62
   158
  6
CONTINUOUS
  0
LAYER
  5
D8
330
2
100
AcDbSymbolTableRecord
100
AcDbLayerTableRecord
  2
159
 70
     0
 62
   159
  6
CONTINUOUS
  0
LAYER
  5
D9
330
2
100
AcDbSymbolTableRecord
100
AcDbLayerTableRecord
  2
160
 70
     0
 62
   160
  6
CONTINUOUS
  0
LAYER
  5
DA
330
2
100
AcDbSymbolTableRecord
100
AcDbLayerTableRecord
  2
161
 70
     0
 62
   161
  6
CONTINUOUS
  0
LAYER
  5
DB
330
2
100
AcDbSymbolTableRecord
100
AcDbLayerTableRecord
  2
162
 70
     0
 62
   162
  6
CONTINUOUS
  0
LAYER
  5
DC
330
2
100
AcDbSymbolTableRecord
100
AcDbLayerTableRecord
  2
163
 70
     0
 62
   163
  6
CONTINUOUS
  0
LAYER
  5
DD
330
2
100
AcDbSymbolTableRecord
100
AcDbLayerTableRecord
  2
164
 70
     0
 62
   164
  6
CONTINUOUS
  0
LAYER
  5
DE
330
2
100
AcDbSymbolTableRecord
100
AcDbLayerTableRecord
  2
165
 70
     0
 62
   165
  6
CONTINUOUS
  0
LAYER
  5
DF
330
2
100
AcDbSymbolTableRecord
100
AcDbLayerTableRecord
  2
166
 70
     0
 62
   166
  6
CONTINUOUS
  0
LAYER
  5
E0
330
2
100
AcDbSymbolTableRecord
100
AcDbLayerTableRecord
  2
167
 70
     0
 62
   167
  6
CONTINUOUS
  0
LAYER
  5
E1
330
2
100
AcDbSymbolTableRecord
100
AcDbLayerTableRecord
  2
168
 70
     0
 62
   168
  6
CONTINUOUS
  0
LAYER
  5
E2
330
2
100
AcDbSymbolTableRecord
100
AcDbLayerTableRecord
  2
169
 70
     0
 62
   169
  6
CONTINUOUS
  0
LAYER
  5
E3
330
2
100
AcDbSymbolTableRecord
100
AcDbLayerTableRecord
  2
170
 70
     0
 62
   170
  6
CONTINUOUS
  0
LAYER
  5
E4
330
2
100
AcDbSymbolTableRecord
100
AcDbLayerTableRecord
  2
171
 70
     0
 62
   171
  6
CONTINUOUS
  0
LAYER
  5
E5
330
2
100
AcDbSymbolTableRecord
100
AcDbLayerTableRecord
  2
172
 70
     0
 62
   172
  6
CONTINUOUS
  0
LAYER
  5
E6
330
2
100
AcDbSymbolTableRecord
100
AcDbLayerTableRecord
  2
173
 70
     0
 62
   173
  6
CONTINUOUS
  0
LAYER
  5
E7
330
2
100
AcDbSymbolTableRecord
100
AcDbLayerTableRecord
  2
174
 70
     0
 62
   174
  6
CONTINUOUS
  0
LAYER
  5
E8
330
2
100
AcDbSymbolTableRecord
100
AcDbLayerTableRecord
  2
175
 70
     0
 62
   175
  6
CONTINUOUS
  0
LAYER
  5
E9
330
2
100
AcDbSymbolTableRecord
100
AcDbLayerTableRecord
  2
176
 70
     0
 62
   176
  6
CONTINUOUS
  0
LAYER
  5
EA
330
2
100
AcDbSymbolTableRecord
100
AcDbLayerTableRecord
  2
177
 70
     0
 62
   177
  6
CONTINUOUS
  0
LAYER
  5
EB
330
2
100
AcDbSymbolTableRecord
100
AcDbLayerTableRecord
  2
178
 70
     0
 62
   178
  6
CONTINUOUS
  0
LAYER
  5
EC
330
2
100
AcDbSymbolTableRecord
100
AcDbLayerTableRecord
  2
179
 70
     0
 62
   179
  6
CONTINUOUS
  0
LAYER
  5
ED
330
2
100
AcDbSymbolTableRecord
100
AcDbLayerTableRecord
  2
180
 70
     0
 62
   180
  6
CONTINUOUS
  0
LAYER
  5
EE
330
2
100
AcDbSymbolTableRecord
100
AcDbLayerTableRecord
  2
181
 70
     0
 62
   181
  6
CONTINUOUS
  0
LAYER
  5
EF
330
2
100
AcDbSymbolTableRecord
100
AcDbLayerTableRecord
  2
182
 70
     0
 62
   182
  6
CONTINUOUS
  0
LAYER
  5
F0
330
2
100
AcDbSymbolTableRecord
100
AcDbLayerTableRecord
  2
183
 70
     0
 62
   183
  6
CONTINUOUS
  0
LAYER
  5
F1
330
2
100
AcDbSymbolTableRecord
100
AcDbLayerTableRecord
  2
184
 70
     0
 62
   184
  6
CONTINUOUS
  0
LAYER
  5
F2
330
2
100
AcDbSymbolTableRecord
100
AcDbLayerTableRecord
  2
185
 70
     0
 62
   185
  6
CONTINUOUS
  0
LAYER
  5
F3
330
2
100
AcDbSymbolTableRecord
100
AcDbLayerTableRecord
  2
186
 70
     0
 62
   186
  6
CONTINUOUS
  0
LAYER
  5
F4
330
2
100
AcDbSymbolTableRecord
100
AcDbLayerTableRecord
  2
187
 70
     0
 62
   187
  6
CONTINUOUS
  0
LAYER
  5
F5
330
2
100
AcDbSymbolTableRecord
100
AcDbLayerTableRecord
  2
188
 70
     0
 62
   188
  6
CONTINUOUS
  0
LAYER
  5
F6
330
2
100
AcDbSymbolTableRecord
100
AcDbLayerTableRecord
  2
189
 70
     0
 62
   189
  6
CONTINUOUS
  0
LAYER
  5
F7
330
2
100
AcDbSymbolTableRecord
100
AcDbLayerTableRecord
  2
190
 70
     0
 62
   190
  6
CONTINUOUS
  0
LAYER
  5
F8
330
2
100
AcDbSymbolTableRecord
100
AcDbLayerTableRecord
  2
191
 70
     0
 62
   191
  6
CONTINUOUS
  0
LAYER
  5
F9
330
2
100
AcDbSymbolTableRecord
100
AcDbLayerTableRecord
  2
192
 70
     0
 62
   192
  6
CONTINUOUS
  0
LAYER
  5
FA
330
2
100
AcDbSymbolTableRecord
100
AcDbLayerTableRecord
  2
193
 70
     0
 62
   193
  6
CONTINUOUS
  0
LAYER
  5
FB
330
2
100
AcDbSymbolTableRecord
100
AcDbLayerTableRecord
  2
194
 70
     0
 62
   194
  6
CONTINUOUS
  0
LAYER
  5
FC
330
2
100
AcDbSymbolTableRecord
100
AcDbLayerTableRecord
  2
195
 70
     0
 62
   195
  6
CONTINUOUS
  0
LAYER
  5
FD
330
2
100
AcDbSymbolTableRecord
100
AcDbLayerTableRecord
  2
196
 70
     0
 62
   196
  6
CONTINUOUS
  0
LAYER
  5
FE
330
2
100
AcDbSymbolTableRecord
100
AcDbLayerTableRecord
  2
197
 70
     0
 62
   197
  6
CONTINUOUS
  0
LAYER
  5
FF
330
2
100
AcDbSymbolTableRecord
100
AcDbLayerTableRecord
  2
198
 70
     0
 62
   198
  6
CONTINUOUS
  0
LAYER
  5
100
330
2
100
AcDbSymbolTableRecord
100
AcDbLayerTableRecord
  2
199
 70
     0
 62
   199
  6
CONTINUOUS
  0
LAYER
  5
101
330
2
100
AcDbSymbolTableRecord
100
AcDbLayerTableRecord
  2
200
 70
     0
 62
   200
  6
CONTINUOUS
  0
LAYER
  5
102
330
2
100
AcDbSymbolTableRecord
100
AcDbLayerTableRecord
  2
201
 70
     0
 62
   201
  6
CONTINUOUS
  0
LAYER
  5
103
330
2
100
AcDbSymbolTableRecord
100
AcDbLayerTableRecord
  2
202
 70
     0
 62
   202
  6
CONTINUOUS
  0
LAYER
  5
104
330
2
100
AcDbSymbolTableRecord
100
AcDbLayerTableRecord
  2
203
 70
     0
 62
   203
  6
CONTINUOUS
  0
LAYER
  5
105
330
2
100
AcDbSymbolTableRecord
100
AcDbLayerTableRecord
  2
204
 70
     0
 62
   204
  6
CONTINUOUS
  0
LAYER
  5
106
330
2
100
AcDbSymbolTableRecord
100
AcDbLayerTableRecord
  2
205
 70
     0
 62
   205
  6
CONTINUOUS
  0
LAYER
  5
107
330
2
100
AcDbSymbolTableRecord
100
AcDbLayerTableRecord
  2
206
 70
     0
 62
   206
  6
CONTINUOUS
  0
LAYER
  5
108
330
2
100
AcDbSymbolTableRecord
100
AcDbLayerTableRecord
  2
207
 70
     0
 62
   207
  6
CONTINUOUS
  0
LAYER
  5
109
330
2
100
AcDbSymbolTableRecord
100
AcDbLayerTableRecord
  2
208
 70
     0
 62
   208
  6
CONTINUOUS
  0
LAYER
  5
10A
330
2
100
AcDbSymbolTableRecord
100
AcDbLayerTableRecord
  2
209
 70
     0
 62
   209
  6
CONTINUOUS
  0
LAYER
  5
10B
330
2
100
AcDbSymbolTableRecord
100
AcDbLayerTableRecord
  2
210
 70
     0
 62
   210
  6
CONTINUOUS
  0
LAYER
  5
10C
330
2
100
AcDbSymbolTableRecord
100
AcDbLayerTableRecord
  2
211
 70
     0
 62
   211
  6
CONTINUOUS
  0
LAYER
  5
10D
330
2
100
AcDbSymbolTableRecord
100
AcDbLayerTableRecord
  2
212
 70
     0
 62
   212
  6
CONTINUOUS
  0
LAYER
  5
10E
330
2
100
AcDbSymbolTableRecord
100
AcDbLayerTableRecord
  2
213
 70
     0
 62
   213
  6
CONTINUOUS
  0
LAYER
  5
10F
330
2
100
AcDbSymbolTableRecord
100
AcDbLayerTableRecord
  2
214
 70
     0
 62
   214
  6
CONTINUOUS
  0
LAYER
  5
110
330
2
100
AcDbSymbolTableRecord
100
AcDbLayerTableRecord
  2
215
 70
     0
 62
   215
  6
CONTINUOUS
  0
LAYER
  5
111
330
2
100
AcDbSymbolTableRecord
100
AcDbLayerTableRecord
  2
216
 70
     0
 62
   216
  6
CONTINUOUS
  0
LAYER
  5
112
330
2
100
AcDbSymbolTableRecord
100
AcDbLayerTableRecord
  2
217
 70
     0
 62
   217
  6
CONTINUOUS
  0
LAYER
  5
113
330
2
100
AcDbSymbolTableRecord
100
AcDbLayerTableRecord
  2
218
 70
     0
 62
   218
  6
CONTINUOUS
  0
LAYER
  5
114
330
2
100
AcDbSymbolTableRecord
100
AcDbLayerTableRecord
  2
219
 70
     0
 62
   219
  6
CONTINUOUS
  0
LAYER
  5
115
330
2
100
AcDbSymbolTableRecord
100
AcDbLayerTableRecord
  2
220
 70
     0
 62
   220
  6
CONTINUOUS
  0
LAYER
  5
116
330
2
100
AcDbSymbolTableRecord
100
AcDbLayerTableRecord
  2
221
 70
     0
 62
   221
  6
CONTINUOUS
  0
LAYER
  5
117
330
2
100
AcDbSymbolTableRecord
100
AcDbLayerTableRecord
  2
222
 70
     0
 62
   222
  6
CONTINUOUS
  0
LAYER
  5
118
330
2
100
AcDbSymbolTableRecord
100
AcDbLayerTableRecord
  2
223
 70
     0
 62
   223
  6
CONTINUOUS
  0
LAYER
  5
119
330
2
100
AcDbSymbolTableRecord
100
AcDbLayerTableRecord
  2
224
 70
     0
 62
   224
  6
CONTINUOUS
  0
LAYER
  5
11A
330
2
100
AcDbSymbolTableRecord
100
AcDbLayerTableRecord
  2
225
 70
     0
 62
   225
  6
CONTINUOUS
  0
LAYER
  5
11B
330
2
100
AcDbSymbolTableRecord
100
AcDbLayerTableRecord
  2
226
 70
     0
 62
   226
  6
CONTINUOUS
  0
LAYER
  5
11C
330
2
100
AcDbSymbolTableRecord
100
AcDbLayerTableRecord
  2
227
 70
     0
 62
   227
  6
CONTINUOUS
  0
LAYER
  5
11D
330
2
100
AcDbSymbolTableRecord
100
AcDbLayerTableRecord
  2
228
 70
     0
 62
   228
  6
CONTINUOUS
  0
LAYER
  5
11E
330
2
100
AcDbSymbolTableRecord
100
AcDbLayerTableRecord
  2
229
 70
     0
 62
   229
  6
CONTINUOUS
  0
LAYER
  5
11F
330
2
100
AcDbSymbolTableRecord
100
AcDbLayerTableRecord
  2
230
 70
     0
 62
   230
  6
CONTINUOUS
  0
LAYER
  5
120
330
2
100
AcDbSymbolTableRecord
100
AcDbLayerTableRecord
  2
231
 70
     0
 62
   231
  6
CONTINUOUS
  0
LAYER
  5
121
330
2
100
AcDbSymbolTableRecord
100
AcDbLayerTableRecord
  2
232
 70
     0
 62
   232
  6
CONTINUOUS
  0
LAYER
  5
122
330
2
100
AcDbSymbolTableRecord
100
AcDbLayerTableRecord
  2
233
 70
     0
 62
   233
  6
CONTINUOUS
  0
LAYER
  5
123
330
2
100
AcDbSymbolTableRecord
100
AcDbLayerTableRecord
  2
234
 70
     0
 62
   234
  6
CONTINUOUS
  0
LAYER
  5
124
330
2
100
AcDbSymbolTableRecord
100
AcDbLayerTableRecord
  2
235
 70
     0
 62
   235
  6
CONTINUOUS
  0
LAYER
  5
125
330
2
100
AcDbSymbolTableRecord
100
AcDbLayerTableRecord
  2
236
 70
     0
 62
   236
  6
CONTINUOUS
  0
LAYER
  5
126
330
2
100
AcDbSymbolTableRecord
100
AcDbLayerTableRecord
  2
237
 70
     0
 62
   237
  6
CONTINUOUS
  0
LAYER
  5
127
330
2
100
AcDbSymbolTableRecord
100
AcDbLayerTableRecord
  2
238
 70
     0
 62
   238
  6
CONTINUOUS
  0
LAYER
  5
128
330
2
100
AcDbSymbolTableRecord
100
AcDbLayerTableRecord
  2
239
 70
     0
 62
   239
  6
CONTINUOUS
  0
LAYER
  5
129
330
2
100
AcDbSymbolTableRecord
100
AcDbLayerTableRecord
  2
240
 70
     0
 62
   240
  6
CONTINUOUS
  0
LAYER
  5
12A
330
2
100
AcDbSymbolTableRecord
100
AcDbLayerTableRecord
  2
241
 70
     0
 62
   241
  6
CONTINUOUS
  0
LAYER
  5
12B
330
2
100
AcDbSymbolTableRecord
100
AcDbLayerTableRecord
  2
242
 70
     0
 62
   242
  6
CONTINUOUS
  0
LAYER
  5
12C
330
2
100
AcDbSymbolTableRecord
100
AcDbLayerTableRecord
  2
243
 70
     0
 62
   243
  6
CONTINUOUS
  0
LAYER
  5
12D
330
2
100
AcDbSymbolTableRecord
100
AcDbLayerTableRecord
  2
244
 70
     0
 62
   244
  6
CONTINUOUS
  0
LAYER
  5
12E
330
2
100
AcDbSymbolTableRecord
100
AcDbLayerTableRecord
  2
245
 70
     0
 62
   245
  6
CONTINUOUS
  0
LAYER
  5
12F
330
2
100
AcDbSymbolTableRecord
100
AcDbLayerTableRecord
  2
246
 70
     0
 62
   246
  6
CONTINUOUS
  0
LAYER
  5
130
330
2
100
AcDbSymbolTableRecord
100
AcDbLayerTableRecord
  2
247
 70
     0
 62
   247
  6
CONTINUOUS
  0
LAYER
  5
131
330
2
100
AcDbSymbolTableRecord
100
AcDbLayerTableRecord
  2
248
 70
     0
 62
   248
  6
CONTINUOUS
  0
LAYER
  5
132
330
2
100
AcDbSymbolTableRecord
100
AcDbLayerTableRecord
  2
249
 70
     0
 62
   249
  6
CONTINUOUS
  0
LAYER
  5
133
330
2
100
AcDbSymbolTableRecord
100
AcDbLayerTableRecord
  2
250
 70
     0
 62
   250
  6
CONTINUOUS
  0
LAYER
  5
134
330
2
100
AcDbSymbolTableRecord
100
AcDbLayerTableRecord
  2
251
 70
     0
 62
   251
  6
CONTINUOUS
  0
LAYER
  5
135
330
2
100
AcDbSymbolTableRecord
100
AcDbLayerTableRecord
  2
252
 70
     0
 62
   252
  6
CONTINUOUS
  0
LAYER
  5
136
330
2
100
AcDbSymbolTableRecord
100
AcDbLayerTableRecord
  2
253
 70
     0
 62
   253
  6
CONTINUOUS
  0
LAYER
  5
137
330
2
100
AcDbSymbolTableRecord
100
AcDbLayerTableRecord
  2
254
 70
     0
 62
   254
  6
CONTINUOUS
  0
LAYER
  5
138
330
2
100
AcDbSymbolTableRecord
100
AcDbLayerTableRecord
  2
255
 70
     0
 62
   255
  6
CONTINUOUS
  0
ENDTAB
  0
TABLE
  2
STYLE
  5
3
330
0
100
AcDbSymbolTable
 70
     1
  0
STYLE
  5
11
330
3
100
AcDbSymbolTableRecord
100
AcDbTextStyleTableRecord
  2
STANDARD
 70
     0
 40
0.0
 41
1.0
 50
0.0
 71
     0
 42
0.2
  3
txt
  4

  0
ENDTAB
  0
TABLE
  2
VIEW
  5
6
330
0
100
AcDbSymbolTable
 70
     0
  0
ENDTAB
  0
TABLE
  2
UCS
  5
7
330
0
100
AcDbSymbolTable
 70
     0
  0
ENDTAB
  0
TABLE
  2
APPID
  5
9
330
0
100
AcDbSymbolTable
 70
     1
  0
APPID
  5
12
330
9
100
AcDbSymbolTableRecord
100
AcDbRegAppTableRecord
  2
ACAD
 70
     0
  0
ENDTAB
  0
TABLE
  2
DIMSTYLE
  5
A
330
0
100
AcDbSymbolTable
 70
     1
  0
DIMSTYLE
105
D2B
330
A
100
AcDbSymbolTableRecord
100
AcDbDimStyleTableRecord
  2
STANDARD
 70
     0
  3

  4

  5

  6

  7

 40
1.0
 41
0.18
 42
0.0625
 43
0.38
 44
0.18
 45
0.0
 46
0.0
 47
0.0
 48
0.0
140
0.18
141
0.09
142
0.0
143
25.4
144
1.0
145
0.0
146
1.0
147
0.09
 71
     0
 72
     0
 73
     1
 74
     1
 75
     0
 76
     0
 77
     0
 78
     0
170
     0
171
     2
172
     0
173
     0
174
     0
175
     0
176
     0
177
     0
178
     0
270
     2
271
     4
272
     4
273
     2
274
     2
340
11
275
     0
280
     0
281
     0
282
     0
283
     1
284
     0
285
     0
286
     0
287
     3
288
     0
  0
ENDTAB
  0
TABLE
  2
BLOCK_RECORD
  5
1
330
0
100
AcDbSymbolTable
 70
     0
  0
BLOCK_RECORD
  5
1E
102
{ACAD_XDICTIONARY
360
D86
102
}
330
1
100
AcDbSymbolTableRecord
100
AcDbBlockTableRecord
  2
*MODEL_SPACE
  0
BLOCK_RECORD
  5
1A
102
{ACAD_XDICTIONARY
360
D84
102
}
330
1
100
AcDbSymbolTableRecord
100
AcDbBlockTableRecord
  2
*PAPER_SPACE
  0
ENDTAB
  0
ENDSEC
  0
SECTION
  2
BLOCKS
  0
BLOCK
  5
13B
330
1E
100
AcDbEntity
  8
0
100
AcDbBlockBegin
  2
*MODEL_SPACE
 70
     0
 10
0.0
 20
0.0
 30
0.0
  3
*MODEL_SPACE
  1

  0
ENDBLK
  5
13C
330
1E
100
AcDbEntity
  8
0
100
AcDbBlockEnd
  0
BLOCK
  5
139
330
1A
100
AcDbEntity
 67
     1
  8
0
100
AcDbBlockBegin
  2
*PAPER_SPACE
 70
     0
 10
0.0
 20
0.0
 30
0.0
  3
*PAPER_SPACE
  1

  0
ENDBLK
  5
13A
330
1A
100
AcDbEntity
 67
     1
  8
0
100
AcDbBlockEnd
  0
ENDSEC
  0
SECTION
  2
ENTITIES
  0
LINE
  5
148
330
1E
100
AcDbEntity
  8
0
100
AcDbLine
 10
39.33070866141731
 20
-33.26771653543307
 30
0.0
 11
39.33070866141731
 21
-33.24803149606299
 31
0.0
  0
LINE
  5
149
330
1E
100
AcDbEntity
  8
0
100
AcDbLine
 10
39.251968503937
 20
-33.24803149606299
 30
0.0
 11
39.251968503937
 21
-33.26771653543307
 31
0.0
  0
LINE
  5
14A
330
1E
100
AcDbEntity
  8
0
100
AcDbLine
 10
37.93307086614172
 20
-33.26771653543307
 30
0.0
 11
37.93307086614172
 21
-33.24803149606299
 31
0.0
  0
LWPOLYLINE
  5
14B
330
1E
100
AcDbEntity
  8
0
100
AcDbPolyline
 90
       12
 70
     0
 43
0.0
 10
31.31889763779526
 20
-30.78740157480315
 10
31.33858267716534
 20
-30.72834645669292
 10
31.3779527559055
 20
-30.68897637795276
 10
31.43700787401574
 20
-30.66929133858268
 10
31.49606299212597
 20
-30.70866141732284
 10
31.51574803149606
 20
-30.74803149606299
 10
31.51574803149606
 20
-30.80708661417323
 10
31.49606299212597
 20
-30.86614173228347
 10
31.43700787401574
 20
-30.88582677165355
 10
31.3779527559055
 20
-30.88582677165355
 10
31.33858267716534
 20
-30.84645669291339
 10
31.31889763779526
 20
-30.78740157480315
  0
LINE
  5
159
330
1E
100
AcDbEntity
  8
0
100
AcDbLine
 10
31.751968503937
 20
-32.28346456692914
 30
0.0
 11
31.71259842519684
 21
-32.28346456692914
 31
0.0
  0
LINE
  5
15A
330
1E
100
AcDbEntity
  8
0
100
AcDbLine
 10
45.15748031496062
 20
-32.28346456692914
 30
0.0
 11
45.11811023622047
 21
-32.28346456692914
 31
0.0
  0
LINE
  5
15B
330
1E
100
AcDbEntity
  8
0
100
AcDbLine
 10
45.92519685039369
 20
-31.73228346456693
 30
0.0
 11
45.92519685039369
 21
-32.28346456692914
 31
0.0
  0
LWPOLYLINE
  5
15C
330
1E
100
AcDbEntity
  8
0
100
AcDbPolyline
 90
        6
 70
     0
 43
0.0
 10
31.31889763779526
 20
-30.88582677165355
 10
31.25984251968503
 20
-30.86614173228347
 10
31.22047244094487
 20
-30.80708661417323
 10
31.22047244094487
 20
-30.74803149606299
 10
31.25984251968503
 20
-30.68897637795276
 10
31.31889763779526
 20
-30.66929133858268
  0
LINE
  5
164
330
1E
100
AcDbEntity
  8
0
100
AcDbLine
 10
31.31889763779526
 20
-30.66929133858268
 30
0.0
 11
31.51574803149606
 21
-30.66929133858268
 31
0.0
  0
LWPOLYLINE
  5
165
330
1E
100
AcDbEntity
  8
0
100
AcDbPolyline
 90
        6
 70
     0
 43
0.0
 10
31.51574803149606
 20
-30.66929133858268
 10
31.57480314960629
 20
-30.68897637795276
 10
31.61417322834645
 20
-30.74803149606299
 10
31.61417322834645
 20
-30.80708661417323
 10
31.57480314960629
 20
-30.86614173228347
 10
31.51574803149606
 20
-30.88582677165355
  0
LINE
  5
16D
330
1E
100
AcDbEntity
  8
0
100
AcDbLine
 10
31.51574803149606
 20
-30.88582677165355
 30
0.0
 11
31.31889763779526
 21
-30.88582677165355
 31
0.0
  0
LWPOLYLINE
  5
16E
330
1E
100
AcDbEntity
  8
0
100
AcDbPolyline
 90
       15
 70
     0
 43
0.0
 10
31.51574803149606
 20
-31.98818897637796
 10
31.49606299212597
 20
-31.90944881889764
 10
31.43700787401574
 20
-31.85039370078741
 10
31.3779527559055
 20
-31.81102362204725
 10
31.29921259842518
 20
-31.81102362204725
 10
31.22047244094487
 20
-31.85039370078741
 10
31.18110236220471
 20
-31.90944881889764
 10
31.16141732283463
 20
-31.98818897637796
 10
31.18110236220471
 20
-32.0472440944882
 10
31.22047244094487
 20
-32.12598425196851
 10
31.29921259842518
 20
-32.14566929133859
 10
31.3779527559055
 20
-32.14566929133859
 10
31.43700787401574
 20
-32.12598425196851
 10
31.49606299212597
 20
-32.0472440944882
 10
31.51574803149606
 20
-31.98818897637796
  0
LWPOLYLINE
  5
17F
330
1E
100
AcDbEntity
  8
0
100
AcDbPolyline
 90
        5
 70
     0
 43
0.0
 10
31.751968503937
 20
-32.28346456692914
 10
31.85039370078739
 20
-32.26377952755905
 10
31.92913385826771
 20
-32.20472440944883
 10
31.98818897637794
 20
-32.12598425196851
 10
32.00787401574802
 20
-32.02755905511811
  0
LINE
  5
186
330
1E
100
AcDbEntity
  8
0
100
AcDbLine
 10
32.00787401574802
 20
-31.6732283464567
 30
0.0
 11
32.00787401574802
 21
-32.02755905511811
 31
0.0
  0
LWPOLYLINE
  5
187
330
1E
100
AcDbEntity
  8
0
100
AcDbPolyline
 90
        5
 70
     0
 43
0.0
 10
32.00787401574802
 20
-31.6732283464567
 10
32.0275590551181
 20
-31.5748031496063
 10
32.08661417322834
 20
-31.49606299212599
 10
32.16535433070865
 20
-31.45669291338583
 10
32.26377952755904
 20
-31.43700787401575
  0
LINE
  5
18E
330
1E
100
AcDbEntity
  8
0
100
AcDbLine
 10
37.18503937007873
 20
-31.43700787401575
 30
0.0
 11
32.26377952755904
 21
-31.43700787401575
 31
0.0
  0
LWPOLYLINE
  5
18F
330
1E
100
AcDbEntity
  8
0
100
AcDbPolyline
 90
        5
 70
     0
 43
0.0
 10
37.18503937007873
 20
-31.43700787401575
 10
37.28346456692912
 20
-31.45669291338583
 10
37.36220472440944
 20
-31.49606299212599
 10
37.42125984251968
 20
-31.5748031496063
 10
37.44094488188975
 20
-31.6732283464567
  0
LINE
  5
196
330
1E
100
AcDbEntity
  8
0
100
AcDbLine
 10
37.44094488188975
 20
-32.48031496062992
 30
0.0
 11
37.44094488188975
 21
-31.6732283464567
 31
0.0
  0
LINE
  5
197
330
1E
100
AcDbEntity
  8
0
100
AcDbLine
 10
39.44881889763778
 20
-32.48031496062992
 30
0.0
 11
37.44094488188975
 21
-32.48031496062992
 31
0.0
  0
LINE
  5
198
330
1E
100
AcDbEntity
  8
0
100
AcDbLine
 10
39.44881889763778
 20
-31.6732283464567
 30
0.0
 11
39.44881889763778
 21
-32.48031496062992
 31
0.0
  0
LWPOLYLINE
  5
199
330
1E
100
AcDbEntity
  8
0
100
AcDbPolyline
 90
        5
 70
     0
 43
0.0
 10
39.44881889763778
 20
-31.6732283464567
 10
39.46850393700787
 20
-31.5748031496063
 10
39.50787401574802
 20
-31.49606299212599
 10
39.58661417322834
 20
-31.45669291338583
 10
39.68503937007873
 20
-31.43700787401575
  0
LINE
  5
1A0
330
1E
100
AcDbEntity
  8
0
100
AcDbLine
 10
44.6259842519685
 20
-31.43700787401575
 30
0.0
 11
39.68503937007873
 21
-31.43700787401575
 31
0.0
  0
LWPOLYLINE
  5
1A1
330
1E
100
AcDbEntity
  8
0
100
AcDbPolyline
 90
        5
 70
     0
 43
0.0
 10
44.6259842519685
 20
-31.43700787401575
 10
44.72440944881888
 20
-31.45669291338583
 10
44.80314960629921
 20
-31.49606299212599
 10
44.84251968503936
 20
-31.5748031496063
 10
44.86220472440943
 20
-31.6732283464567
  0
LINE
  5
1A8
330
1E
100
AcDbEntity
  8
0
100
AcDbLine
 10
44.86220472440943
 20
-32.02755905511811
 30
0.0
 11
44.86220472440943
 21
-31.6732283464567
 31
0.0
  0
LWPOLYLINE
  5
1A9
330
1E
100
AcDbEntity
  8
0
100
AcDbPolyline
 90
        5
 70
     0
 43
0.0
 10
44.86220472440943
 20
-32.02755905511811
 10
44.88188976377951
 20
-32.12598425196851
 10
44.94094488188975
 20
-32.20472440944883
 10
45.01968503937006
 20
-32.26377952755905
 10
45.11811023622047
 20
-32.28346456692914
  0
LINE
  5
1B0
330
1E
100
AcDbEntity
  8
0
100
AcDbLine
 10
45.92519685039369
 20
-32.28346456692914
 30
0.0
 11
45.15748031496062
 21
-32.28346456692914
 31
0.0
  0
LWPOLYLINE
  5
1B1
330
1E
100
AcDbEntity
  8
0
100
AcDbPolyline
 90
        5
 70
     0
 43
0.0
 10
45.66929133858266
 20
-31.47637795275591
 10
45.76771653543306
 20
-31.49606299212599
 10
45.84645669291338
 20
-31.55511811023623
 10
45.90551181102362
 20
-31.63385826771654
 10
45.92519685039369
 20
-31.73228346456693
  0
LINE
  5
1B8
330
1E
100
AcDbEntity
  8
0
100
AcDbLine
 10
45.53149606299212
 20
-31.47637795275591
 30
0.0
 11
45.66929133858266
 21
-31.47637795275591
 31
0.0
  0
LWPOLYLINE
  5
1B9
330
1E
100
AcDbEntity
  8
0
100
AcDbPolyline
 90
        5
 70
     0
 43
0.0
 10
45.4527559055118
 20
-31.25984251968504
 10
45.41338582677165
 20
-31.31889763779528
 10
45.41338582677165
 20
-31.39763779527559
 10
45.47244094488188
 20
-31.45669291338583
 10
45.53149606299212
 20
-31.47637795275591
  0
LINE
  5
1C0
330
1E
100
AcDbEntity
  8
0
100
AcDbLine
 10
45.74803149606299
 20
-30.96456692913386
 30
0.0
 11
45.4527559055118
 21
-31.25984251968504
 31
0.0
  0
LWPOLYLINE
  5
1C1
330
1E
100
AcDbEntity
  8
0
100
AcDbPolyline
 90
        3
 70
     0
 43
0.0
 10
45.78740157480313
 20
-30.86614173228347
 10
45.76771653543306
 20
-30.9251968503937
 10
45.74803149606299
 20
-30.96456692913386
  0
LINE
  5
1C6
330
1E
100
AcDbEntity
  8
0
100
AcDbLine
 10
45.78740157480313
 20
-30.45275590551181
 30
0.0
 11
45.78740157480313
 21
-30.86614173228347
 31
0.0
  0
LINE
  5
1C7
330
1E
100
AcDbEntity
  8
0
100
AcDbLine
 10
31.1023622047244
 20
-30.45275590551181
 30
0.0
 11
45.78740157480313
 21
-30.45275590551181
 31
0.0
  0
LINE
  5
1C8
330
1E
100
AcDbEntity
  8
0
100
AcDbLine
 10
31.1023622047244
 20
-30.86614173228347
 30
0.0
 11
31.1023622047244
 21
-30.45275590551181
 31
0.0
  0
LWPOLYLINE
  5
1C9
330
1E
100
AcDbEntity
  8
0
100
AcDbPolyline
 90
        3
 70
     0
 43
0.0
 10
31.14173228346455
 20
-30.96456692913386
 10
31.1023622047244
 20
-30.9251968503937
 10
31.1023622047244
 20
-30.86614173228347
  0
LINE
  5
1CE
330
1E
100
AcDbEntity
  8
0
100
AcDbLine
 10
31.43700787401574
 20
-31.25984251968504
 30
0.0
 11
31.14173228346455
 21
-30.96456692913386
 31
0.0
  0
LWPOLYLINE
  5
1CF
330
1E
100
AcDbEntity
  8
0
100
AcDbPolyline
 90
        5
 70
     0
 43
0.0
 10
31.33858267716534
 20
-31.47637795275591
 10
31.41732283464566
 20
-31.45669291338583
 10
31.45669291338581
 20
-31.39763779527559
 10
31.47637795275589
 20
-31.31889763779528
 10
31.43700787401574
 20
-31.25984251968504
  0
LINE
  5
1D6
330
1E
100
AcDbEntity
  8
0
100
AcDbLine
 10
31.22047244094487
 20
-31.47637795275591
 30
0.0
 11
31.33858267716534
 21
-31.47637795275591
 31
0.0
  0
LWPOLYLINE
  5
1D7
330
1E
100
AcDbEntity
  8
0
100
AcDbPolyline
 90
        5
 70
     0
 43
0.0
 10
30.96456692913385
 20
-31.73228346456693
 10
30.98425196850392
 20
-31.63385826771654
 10
31.04330708661416
 20
-31.55511811023623
 10
31.12204724409448
 20
-31.49606299212599
 10
31.22047244094487
 20
-31.47637795275591
  0
LINE
  5
1DE
330
1E
100
AcDbEntity
  8
0
100
AcDbLine
 10
30.96456692913385
 20
-32.28346456692914
 30
0.0
 11
30.96456692913385
 21
-31.73228346456693
 31
0.0
  0
LINE
  5
1DF
330
1E
100
AcDbEntity
  8
0
100
AcDbLine
 10
31.71259842519684
 20
-32.28346456692914
 30
0.0
 11
30.96456692913385
 21
-32.28346456692914
 31
0.0
  0
LWPOLYLINE
  5
1E0
330
1E
100
AcDbEntity
  8
0
100
AcDbPolyline
 90
       15
 70
     0
 43
0.0
 10
45.70866141732282
 20
-31.98818897637796
 10
45.68897637795275
 20
-31.90944881889764
 10
45.64960629921259
 20
-31.85039370078741
 10
45.57086614173228
 20
-31.81102362204725
 10
45.51181102362203
 20
-31.81102362204725
 10
45.43307086614173
 20
-31.85039370078741
 10
45.39370078740156
 20
-31.90944881889764
 10
45.37401574803149
 20
-31.98818897637796
 10
45.39370078740156
 20
-32.0472440944882
 10
45.43307086614173
 20
-32.12598425196851
 10
45.51181102362203
 20
-32.14566929133859
 10
45.57086614173228
 20
-32.14566929133859
 10
45.64960629921259
 20
-32.12598425196851
 10
45.68897637795275
 20
-32.0472440944882
 10
45.70866141732282
 20
-31.98818897637796
  0
LWPOLYLINE
  5
1F1
330
1E
100
AcDbEntity
  8
0
100
AcDbPolyline
 90
       12
 70
     0
 43
0.0
 10
45.3543307086614
 20
-30.78740157480315
 10
45.37401574803149
 20
-30.72834645669292
 10
45.41338582677165
 20
-30.68897637795276
 10
45.47244094488188
 20
-30.66929133858268
 10
45.53149606299212
 20
-30.70866141732284
 10
45.5511811023622
 20
-30.74803149606299
 10
45.5511811023622
 20
-30.80708661417323
 10
45.53149606299212
 20
-30.86614173228347
 10
45.47244094488188
 20
-30.88582677165355
 10
45.41338582677165
 20
-30.88582677165355
 10
45.37401574803149
 20
-30.84645669291339
 10
45.3543307086614
 20
-30.78740157480315
  0
LWPOLYLINE
  5
1FF
330
1E
100
AcDbEntity
  8
0
100
AcDbPolyline
 90
        3
 70
     0
 43
0.0
 10
45.92519685039369
 20
-32.28346456692914
 10
45.92519685039369
 20
-32.30314960629922
 10
45.92519685039369
 20
-32.34251968503937
  0
LWPOLYLINE
  5
204
330
1E
100
AcDbEntity
  8
0
100
AcDbPolyline
 90
        3
 70
     0
 43
0.0
 10
45.15748031496062
 20
-32.28346456692914
 10
45.15748031496062
 20
-32.30314960629922
 10
45.15748031496062
 20
-32.34251968503937
  0
LINE
  5
209
330
1E
100
AcDbEntity
  8
0
100
AcDbLine
 10
45.15748031496062
 20
-32.34251968503937
 30
0.0
 11
45.92519685039369
 21
-32.34251968503937
 31
0.0
  0
LINE
  5
20A
330
1E
100
AcDbEntity
  8
0
100
AcDbLine
 10
45.92519685039369
 20
-32.34251968503937
 30
0.0
 11
45.92519685039369
 21
-32.34251968503937
 31
0.0
  0
LINE
  5
20B
330
1E
100
AcDbEntity
  8
0
100
AcDbLine
 10
45.92519685039369
 20
-32.34251968503937
 30
0.0
 11
45.92519685039369
 21
-32.40157480314961
 31
0.0
  0
LINE
  5
20C
330
1E
100
AcDbEntity
  8
0
100
AcDbLine
 10
45.15748031496062
 20
-32.40157480314961
 30
0.0
 11
45.15748031496062
 21
-32.34251968503937
 31
0.0
  0
LINE
  5
20D
330
1E
100
AcDbEntity
  8
0
100
AcDbLine
 10
45.15748031496062
 20
-32.34251968503937
 30
0.0
 11
45.15748031496062
 21
-32.34251968503937
 31
0.0
  0
LWPOLYLINE
  5
20E
330
1E
100
AcDbEntity
  8
0
100
AcDbPolyline
 90
        5
 70
     0
 43
0.0
 10
45.92519685039369
 20
-32.40157480314961
 10
45.90551181102362
 20
-32.48031496062992
 10
45.84645669291338
 20
-32.53937007874016
 10
45.76771653543306
 20
-32.5984251968504
 10
45.66929133858266
 20
-32.5984251968504
  0
LINE
  5
215
330
1E
100
AcDbEntity
  8
0
100
AcDbLine
 10
45.66929133858266
 20
-32.5984251968504
 30
0.0
 11
45.41338582677165
 21
-32.5984251968504
 31
0.0
  0
LWPOLYLINE
  5
216
330
1E
100
AcDbEntity
  8
0
100
AcDbPolyline
 90
        5
 70
     0
 43
0.0
 10
45.41338582677165
 20
-32.5984251968504
 10
45.31496062992125
 20
-32.5984251968504
 10
45.23622047244094
 20
-32.53937007874016
 10
45.17716535433069
 20
-32.48031496062992
 10
45.15748031496062
 20
-32.40157480314961
  0
LINE
  5
21D
330
1E
100
AcDbEntity
  8
0
100
AcDbLine
 10
45.41338582677165
 20
-32.53937007874016
 30
0.0
 11
45.66929133858266
 21
-32.53937007874016
 31
0.0
  0
LWPOLYLINE
  5
21E
330
1E
100
AcDbEntity
  8
0
100
AcDbPolyline
 90
        5
 70
     0
 43
0.0
 10
45.66929133858266
 20
-32.53937007874016
 10
45.76771653543306
 20
-32.53937007874016
 10
45.84645669291338
 20
-32.48031496062992
 10
45.90551181102362
 20
-32.42125984251969
 10
45.92519685039369
 20
-32.34251968503937
  0
LWPOLYLINE
  5
225
330
1E
100
AcDbEntity
  8
0
100
AcDbPolyline
 90
        5
 70
     0
 43
0.0
 10
45.15748031496062
 20
-32.34251968503937
 10
45.17716535433069
 20
-32.42125984251969
 10
45.23622047244094
 20
-32.48031496062992
 10
45.31496062992125
 20
-32.53937007874016
 10
45.41338582677165
 20
-32.53937007874016
  0
LINE
  5
22C
330
1E
100
AcDbEntity
  8
0
100
AcDbLine
 10
45.66929133858266
 20
-32.5984251968504
 30
0.0
 11
45.66929133858266
 21
-32.53937007874016
 31
0.0
  0
LINE
  5
22D
330
1E
100
AcDbEntity
  8
0
100
AcDbLine
 10
45.41338582677165
 20
-32.53937007874016
 30
0.0
 11
45.41338582677165
 21
-32.5984251968504
 31
0.0
  0
LWPOLYLINE
  5
22E
330
1E
100
AcDbEntity
  8
0
100
AcDbPolyline
 90
        3
 70
     0
 43
0.0
 10
30.96456692913385
 20
-32.28346456692914
 10
30.96456692913385
 20
-32.30314960629922
 10
30.96456692913385
 20
-32.34251968503937
  0
LWPOLYLINE
  5
233
330
1E
100
AcDbEntity
  8
0
100
AcDbPolyline
 90
        3
 70
     0
 43
0.0
 10
31.71259842519684
 20
-32.28346456692914
 10
31.71259842519684
 20
-32.30314960629922
 10
31.71259842519684
 20
-32.34251968503937
  0
LINE
  5
238
330
1E
100
AcDbEntity
  8
0
100
AcDbLine
 10
31.71259842519684
 20
-32.34251968503937
 30
0.0
 11
30.96456692913385
 21
-32.34251968503937
 31
0.0
  0
LINE
  5
239
330
1E
100
AcDbEntity
  8
0
100
AcDbLine
 10
30.96456692913385
 20
-32.40157480314961
 30
0.0
 11
30.96456692913385
 21
-32.34251968503937
 31
0.0
  0
LINE
  5
23A
330
1E
100
AcDbEntity
  8
0
100
AcDbLine
 10
30.96456692913385
 20
-32.34251968503937
 30
0.0
 11
30.96456692913385
 21
-32.34251968503937
 31
0.0
  0
LINE
  5
23B
330
1E
100
AcDbEntity
  8
0
100
AcDbLine
 10
31.71259842519684
 20
-32.34251968503937
 30
0.0
 11
31.71259842519684
 21
-32.34251968503937
 31
0.0
  0
LINE
  5
23C
330
1E
100
AcDbEntity
  8
0
100
AcDbLine
 10
31.71259842519684
 20
-32.34251968503937
 30
0.0
 11
31.71259842519684
 21
-32.40157480314961
 31
0.0
  0
LINE
  5
23D
330
1E
100
AcDbEntity
  8
0
100
AcDbLine
 10
31.22047244094487
 20
-32.5984251968504
 30
0.0
 11
31.45669291338581
 21
-32.5984251968504
 31
0.0
  0
LWPOLYLINE
  5
23E
330
1E
100
AcDbEntity
  8
0
100
AcDbPolyline
 90
        5
 70
     0
 43
0.0
 10
31.22047244094487
 20
-32.5984251968504
 10
31.12204724409448
 20
-32.5984251968504
 10
31.04330708661416
 20
-32.53937007874016
 10
30.98425196850392
 20
-32.48031496062992
 10
30.96456692913385
 20
-32.40157480314961
  0
LWPOLYLINE
  5
245
330
1E
100
AcDbEntity
  8
0
100
AcDbPolyline
 90
        5
 70
     0
 43
0.0
 10
31.71259842519684
 20
-32.40157480314961
 10
31.69291338582676
 20
-32.48031496062992
 10
31.63385826771653
 20
-32.53937007874016
 10
31.55511811023621
 20
-32.5984251968504
 10
31.45669291338581
 20
-32.5984251968504
  0
LWPOLYLINE
  5
24C
330
1E
100
AcDbEntity
  8
0
100
AcDbPolyline
 90
        5
 70
     0
 43
0.0
 10
30.96456692913385
 20
-32.34251968503937
 10
30.98425196850392
 20
-32.42125984251969
 10
31.04330708661416
 20
-32.48031496062992
 10
31.12204724409448
 20
-32.53937007874016
 10
31.22047244094487
 20
-32.53937007874016
  0
LINE
  5
253
330
1E
100
AcDbEntity
  8
0
100
AcDbLine
 10
31.45669291338581
 20
-32.53937007874016
 30
0.0
 11
31.22047244094487
 21
-32.53937007874016
 31
0.0
  0
LWPOLYLINE
  5
254
330
1E
100
AcDbEntity
  8
0
100
AcDbPolyline
 90
        5
 70
     0
 43
0.0
 10
31.45669291338581
 20
-32.53937007874016
 10
31.55511811023621
 20
-32.53937007874016
 10
31.63385826771653
 20
-32.48031496062992
 10
31.69291338582676
 20
-32.42125984251969
 10
31.71259842519684
 20
-32.34251968503937
  0
LINE
  5
25B
330
1E
100
AcDbEntity
  8
0
100
AcDbLine
 10
31.22047244094487
 20
-32.53937007874016
 30
0.0
 11
31.22047244094487
 21
-32.5984251968504
 31
0.0
  0
LINE
  5
25C
330
1E
100
AcDbEntity
  8
0
100
AcDbLine
 10
31.45669291338581
 20
-32.5984251968504
 30
0.0
 11
31.45669291338581
 21
-32.53937007874016
 31
0.0
  0
LWPOLYLINE
  5
25D
330
1E
100
AcDbEntity
  8
0
100
AcDbPolyline
 90
        4
 70
     0
 43
0.0
 10
45.78740157480313
 20
-30.45275590551181
 10
45.78740157480313
 20
-30.39370078740158
 10
45.78740157480313
 20
-30.35433070866142
 10
45.78740157480313
 20
-30.33464566929134
  0
LWPOLYLINE
  5
263
330
1E
100
AcDbEntity
  8
0
100
AcDbPolyline
 90
        4
 70
     0
 43
0.0
 10
31.1023622047244
 20
-30.45275590551181
 10
31.1023622047244
 20
-30.39370078740158
 10
31.1023622047244
 20
-30.35433070866142
 10
31.1023622047244
 20
-30.33464566929134
  0
LINE
  5
269
330
1E
100
AcDbEntity
  8
0
100
AcDbLine
 10
45.78740157480313
 20
-30.33464566929134
 30
0.0
 11
31.1023622047244
 21
-30.33464566929134
 31
0.0
  0
LWPOLYLINE
  5
26A
330
1E
100
AcDbEntity
  8
0
100
AcDbPolyline
 90
        3
 70
     0
 43
0.0
 10
39.44881889763778
 20
-32.48031496062992
 10
39.44881889763778
 20
-32.55905511811024
 10
39.44881889763778
 20
-32.65748031496063
  0
LWPOLYLINE
  5
26F
330
1E
100
AcDbEntity
  8
0
100
AcDbPolyline
 90
        3
 70
     0
 43
0.0
 10
37.44094488188975
 20
-32.48031496062992
 10
37.44094488188975
 20
-32.55905511811024
 10
37.44094488188975
 20
-32.65748031496063
  0
LINE
  5
274
330
1E
100
AcDbEntity
  8
0
100
AcDbLine
 10
37.44094488188975
 20
-32.65748031496063
 30
0.0
 11
39.44881889763778
 21
-32.65748031496063
 31
0.0
  0
LINE
  5
275
330
1E
100
AcDbEntity
  8
0
100
AcDbLine
 10
39.44881889763778
 20
-32.65748031496063
 30
0.0
 11
39.44881889763778
 21
-32.81496062992126
 31
0.0
  0
LINE
  5
276
330
1E
100
AcDbEntity
  8
0
100
AcDbLine
 10
39.44881889763778
 20
-32.81496062992126
 30
0.0
 11
39.44881889763778
 21
-32.83464566929135
 31
0.0
  0
LINE
  5
277
330
1E
100
AcDbEntity
  8
0
100
AcDbLine
 10
37.44094488188975
 20
-32.83464566929135
 30
0.0
 11
37.44094488188975
 21
-32.81496062992126
 31
0.0
  0
LINE
  5
278
330
1E
100
AcDbEntity
  8
0
100
AcDbLine
 10
37.44094488188975
 20
-32.65748031496063
 30
0.0
 11
37.44094488188975
 21
-32.81496062992126
 31
0.0
  0
LWPOLYLINE
  5
279
330
1E
100
AcDbEntity
  8
0
100
AcDbPolyline
 90
        5
 70
     0
 43
0.0
 10
39.44881889763778
 20
-32.83464566929135
 10
39.42913385826771
 20
-32.93307086614174
 10
39.37007874015747
 20
-33.01181102362205
 10
39.29133858267716
 20
-33.07086614173229
 10
39.19291338582676
 20
-33.09055118110237
  0
LINE
  5
280
330
1E
100
AcDbEntity
  8
0
100
AcDbLine
 10
39.19291338582676
 20
-33.09055118110237
 30
0.0
 11
37.69685039370077
 21
-33.09055118110237
 31
0.0
  0
LWPOLYLINE
  5
281
330
1E
100
AcDbEntity
  8
0
100
AcDbPolyline
 90
        5
 70
     0
 43
0.0
 10
37.69685039370077
 20
-33.09055118110237
 10
37.59842519685038
 20
-33.07086614173229
 10
37.51968503937007
 20
-33.01181102362205
 10
37.46062992125983
 20
-32.93307086614174
 10
37.44094488188975
 20
-32.83464566929135
  0
LINE
  5
288
330
1E
100
AcDbEntity
  8
0
100
AcDbLine
 10
37.69685039370077
 20
-33.07086614173229
 30
0.0
 11
39.19291338582676
 21
-33.07086614173229
 31
0.0
  0
LWPOLYLINE
  5
289
330
1E
100
AcDbEntity
  8
0
100
AcDbPolyline
 90
        5
 70
     0
 43
0.0
 10
39.19291338582676
 20
-33.07086614173229
 10
39.29133858267716
 20
-33.05118110236221
 10
39.37007874015747
 20
-32.99212598425198
 10
39.42913385826771
 20
-32.91338582677166
 10
39.44881889763778
 20
-32.81496062992126
  0
LWPOLYLINE
  5
290
330
1E
100
AcDbEntity
  8
0
100
AcDbPolyline
 90
        5
 70
     0
 43
0.0
 10
37.44094488188975
 20
-32.81496062992126
 10
37.46062992125983
 20
-32.91338582677166
 10
37.51968503937007
 20
-32.99212598425198
 10
37.59842519685038
 20
-33.05118110236221
 10
37.69685039370077
 20
-33.07086614173229
  0
LINE
  5
297
330
1E
100
AcDbEntity
  8
0
100
AcDbLine
 10
39.19291338582676
 20
-33.09055118110237
 30
0.0
 11
39.19291338582676
 21
-33.07086614173229
 31
0.0
  0
LINE
  5
298
330
1E
100
AcDbEntity
  8
0
100
AcDbLine
 10
37.69685039370077
 20
-33.07086614173229
 30
0.0
 11
37.69685039370077
 21
-33.09055118110237
 31
0.0
  0
LWPOLYLINE
  5
299
330
1E
100
AcDbEntity
  8
0
100
AcDbPolyline
 90
        7
 70
     0
 43
0.0
 10
31.3779527559055
 20
-31.98818897637796
 10
31.35826771653542
 20
-31.9488188976378
 10
31.31889763779526
 20
-31.9488188976378
 10
31.29921259842518
 20
-31.98818897637796
 10
31.31889763779526
 20
-32.00787401574803
 10
31.35826771653542
 20
-32.00787401574803
 10
31.3779527559055
 20
-31.98818897637796
  0
LWPOLYLINE
  5
2A2
330
1E
100
AcDbEntity
  8
0
100
AcDbPolyline
 90
       14
 70
     0
 43
0.0
 10
31.18110236220471
 20
-31.98818897637796
 10
31.20078740157479
 20
-31.90944881889764
 10
31.24015748031495
 20
-31.85039370078741
 10
31.31889763779526
 20
-31.83070866141733
 10
31.39763779527558
 20
-31.83070866141733
 10
31.45669291338581
 20
-31.87007874015749
 10
31.49606299212597
 20
-31.9488188976378
 10
31.49606299212597
 20
-32.02755905511811
 10
31.45669291338581
 20
-32.08661417322835
 10
31.39763779527558
 20
-32.12598425196851
 10
31.31889763779526
 20
-32.14566929133859
 10
31.24015748031495
 20
-32.10629921259843
 10
31.20078740157479
 20
-32.0472440944882
 10
31.18110236220471
 20
-31.98818897637796
  0
LWPOLYLINE
  5
2B2
330
1E
100
AcDbEntity
  8
0
100
AcDbPolyline
 90
       10
 70
     0
 43
0.0
 10
31.25984251968503
 20
-31.98818897637796
 10
31.27952755905511
 20
-31.92913385826772
 10
31.31889763779526
 20
-31.90944881889764
 10
31.3779527559055
 20
-31.92913385826772
 10
31.39763779527558
 20
-31.9488188976378
 10
31.39763779527558
 20
-32.00787401574803
 10
31.3779527559055
 20
-32.0472440944882
 10
31.31889763779526
 20
-32.0472440944882
 10
31.27952755905511
 20
-32.02755905511811
 10
31.25984251968503
 20
-31.98818897637796
  0
LWPOLYLINE
  5
2BE
330
1E
100
AcDbEntity
  8
0
100
AcDbPolyline
 90
       14
 70
     0
 43
0.0
 10
31.47637795275589
 20
-31.98818897637796
 10
31.45669291338581
 20
-31.90944881889764
 10
31.41732283464566
 20
-31.87007874015749
 10
31.35826771653542
 20
-31.85039370078741
 10
31.27952755905511
 20
-31.85039370078741
 10
31.24015748031495
 20
-31.88976377952756
 10
31.20078740157479
 20
-31.9488188976378
 10
31.20078740157479
 20
-32.00787401574803
 10
31.24015748031495
 20
-32.06692913385827
 10
31.27952755905511
 20
-32.10629921259843
 10
31.35826771653542
 20
-32.12598425196851
 10
31.41732283464566
 20
-32.10629921259843
 10
31.45669291338581
 20
-32.0472440944882
 10
31.47637795275589
 20
-31.98818897637796
  0
LWPOLYLINE
  5
2CE
330
1E
100
AcDbEntity
  8
0
100
AcDbPolyline
 90
        7
 70
     0
 43
0.0
 10
45.57086614173228
 20
-31.98818897637796
 10
45.5511811023622
 20
-31.9488188976378
 10
45.53149606299212
 20
-31.9488188976378
 10
45.51181102362203
 20
-31.98818897637796
 10
45.53149606299212
 20
-32.00787401574803
 10
45.5511811023622
 20
-32.00787401574803
 10
45.57086614173228
 20
-31.98818897637796
  0
LWPOLYLINE
  5
2D7
330
1E
100
AcDbEntity
  8
0
100
AcDbPolyline
 90
       14
 70
     0
 43
0.0
 10
45.39370078740156
 20
-31.98818897637796
 10
45.41338582677165
 20
-31.90944881889764
 10
45.4527559055118
 20
-31.85039370078741
 10
45.53149606299212
 20
-31.83070866141733
 10
45.59055118110236
 20
-31.83070866141733
 10
45.64960629921259
 20
-31.87007874015749
 10
45.68897637795275
 20
-31.9488188976378
 10
45.68897637795275
 20
-32.02755905511811
 10
45.64960629921259
 20
-32.08661417322835
 10
45.59055118110236
 20
-32.12598425196851
 10
45.53149606299212
 20
-32.14566929133859
 10
45.4527559055118
 20
-32.10629921259843
 10
45.41338582677165
 20
-32.0472440944882
 10
45.39370078740156
 20
-31.98818897637796
  0
LWPOLYLINE
  5
2E7
330
1E
100
AcDbEntity
  8
0
100
AcDbPolyline
 90
       10
 70
     0
 43
0.0
 10
45.47244094488188
 20
-31.98818897637796
 10
45.49212598425196
 20
-31.92913385826772
 10
45.53149606299212
 20
-31.90944881889764
 10
45.57086614173228
 20
-31.92913385826772
 10
45.61023622047243
 20
-31.9488188976378
 10
45.61023622047243
 20
-32.00787401574803
 10
45.57086614173228
 20
-32.0472440944882
 10
45.53149606299212
 20
-32.0472440944882
 10
45.49212598425196
 20
-32.02755905511811
 10
45.47244094488188
 20
-31.98818897637796
  0
LWPOLYLINE
  5
2F3
330
1E
100
AcDbEntity
  8
0
100
AcDbPolyline
 90
       14
 70
     0
 43
0.0
 10
45.68897637795275
 20
-31.98818897637796
 10
45.66929133858266
 20
-31.90944881889764
 10
45.6299212598425
 20
-31.87007874015749
 10
45.5511811023622
 20
-31.85039370078741
 10
45.49212598425196
 20
-31.85039370078741
 10
45.43307086614173
 20
-31.88976377952756
 10
45.41338582677165
 20
-31.9488188976378
 10
45.41338582677165
 20
-32.00787401574803
 10
45.43307086614173
 20
-32.06692913385827
 10
45.49212598425196
 20
-32.10629921259843
 10
45.5511811023622
 20
-32.12598425196851
 10
45.6299212598425
 20
-32.10629921259843
 10
45.66929133858266
 20
-32.0472440944882
 10
45.68897637795275
 20
-31.98818897637796
  0
LINE
  5
303
330
1E
100
AcDbEntity
  8
0
100
AcDbLine
 10
30.96456692913385
 20
-31.65354330708662
 30
0.0
 11
30.96456692913385
 21
-31.65354330708662
 31
0.0
  0
LINE
  5
304
330
1E
100
AcDbEntity
  8
0
100
AcDbLine
 10
30.96456692913385
 20
-31.71259842519686
 30
0.0
 11
30.96456692913385
 21
-31.71259842519686
 31
0.0
  0
LINE
  5
305
330
1E
100
AcDbEntity
  8
0
100
AcDbLine
 10
45.92519685039369
 20
-31.65354330708662
 30
0.0
 11
45.90551181102362
 21
-31.65354330708662
 31
0.0
  0
LINE
  5
306
330
1E
100
AcDbEntity
  8
0
100
AcDbLine
 10
45.92519685039369
 20
-31.71259842519686
 30
0.0
 11
45.92519685039369
 21
-31.71259842519686
 31
0.0
  0
LINE
  5
307
330
1E
100
AcDbEntity
  8
0
100
AcDbLine
 10
30.88582677165353
 20
-32.42125984251969
 30
0.0
 11
30.92519685039369
 21
-32.42125984251969
 31
0.0
  0
LINE
  5
308
330
1E
100
AcDbEntity
  8
0
100
AcDbLine
 10
45.94488188976376
 20
-32.42125984251969
 30
0.0
 11
46.003937007874
 21
-32.42125984251969
 31
0.0
  0
LINE
  5
309
330
1E
100
AcDbEntity
  8
0
100
AcDbLine
 10
43.99606299212598
 20
-33.22834645669292
 30
0.0
 11
32.89370078740156
 21
-33.22834645669292
 31
0.0
  0
LINE
  5
30A
330
1E
100
AcDbEntity
  8
0
100
AcDbLine
 10
30.88582677165353
 20
-32.5984251968504
 30
0.0
 11
30.88582677165353
 21
-32.53937007874016
 31
0.0
  0
LWPOLYLINE
  5
30B
330
1E
100
AcDbEntity
  8
0
100
AcDbPolyline
 90
        3
 70
     0
 43
0.0
 10
30.88582677165353
 20
-32.53937007874016
 10
30.88582677165353
 20
-32.48031496062992
 10
30.88582677165353
 20
-32.42125984251969
  0
LINE
  5
310
330
1E
100
AcDbEntity
  8
0
100
AcDbLine
 10
30.88582677165353
 20
-31.75196850393701
 30
0.0
 11
30.88582677165353
 21
-32.42125984251969
 31
0.0
  0
LINE
  5
311
330
1E
100
AcDbEntity
  8
0
100
AcDbLine
 10
46.003937007874
 20
-32.42125984251969
 30
0.0
 11
46.003937007874
 21
-31.75196850393701
 31
0.0
  0
LWPOLYLINE
  5
312
330
1E
100
AcDbEntity
  8
0
100
AcDbPolyline
 90
        3
 70
     0
 43
0.0
 10
46.003937007874
 20
-32.42125984251969
 10
46.003937007874
 20
-32.48031496062992
 10
46.003937007874
 20
-32.53937007874016
  0
LINE
  5
317
330
1E
100
AcDbEntity
  8
0
100
AcDbLine
 10
46.003937007874
 20
-32.53937007874016
 30
0.0
 11
46.003937007874
 21
-32.5984251968504
 31
0.0
  0
LINE
  5
318
330
1E
100
AcDbEntity
  8
0
100
AcDbLine
 10
44.01574803149606
 20
-33.22834645669292
 30
0.0
 11
45.94488188976376
 21
-32.65748031496063
 31
0.0
  0
LINE
  5
319
330
1E
100
AcDbEntity
  8
0
100
AcDbLine
 10
30.94488188976377
 20
-32.65748031496063
 30
0.0
 11
32.87401574803149
 21
-33.22834645669292
 31
0.0
  0
LWPOLYLINE
  5
31A
330
1E
100
AcDbEntity
  8
0
100
AcDbPolyline
 90
        3
 70
     0
 43
0.0
 10
45.94488188976376
 20
-32.65748031496063
 10
45.98425196850392
 20
-32.63779527559055
 10
46.003937007874
 20
-32.5984251968504
  0
LWPOLYLINE
  5
31F
330
1E
100
AcDbEntity
  8
0
100
AcDbPolyline
 90
        3
 70
     0
 43
0.0
 10
30.88582677165353
 20
-32.5984251968504
 10
30.90551181102361
 20
-32.63779527559055
 10
30.94488188976377
 20
-32.65748031496063
  0
LINE
  5
324
330
1E
100
AcDbEntity
  8
0
100
AcDbLine
 10
43.99606299212598
 20
-33.22834645669292
 30
0.0
 11
44.01574803149606
 21
-33.22834645669292
 31
0.0
  0
LINE
  5
325
330
1E
100
AcDbEntity
  8
0
100
AcDbLine
 10
32.87401574803149
 20
-33.22834645669292
 30
0.0
 11
32.89370078740156
 21
-33.22834645669292
 31
0.0
  0
LINE
  5
326
330
1E
100
AcDbEntity
  8
0
100
AcDbLine
 10
43.99606299212598
 20
-33.16929133858268
 30
0.0
 11
32.89370078740156
 21
-33.16929133858268
 31
0.0
  0
LINE
  5
327
330
1E
100
AcDbEntity
  8
0
100
AcDbLine
 10
30.92519685039369
 20
-31.75196850393701
 30
0.0
 11
30.92519685039369
 21
-32.42125984251969
 31
0.0
  0
LWPOLYLINE
  5
328
330
1E
100
AcDbEntity
  8
0
100
AcDbPolyline
 90
        3
 70
     0
 43
0.0
 10
30.92519685039369
 20
-32.42125984251969
 10
30.92519685039369
 20
-32.48031496062992
 10
30.92519685039369
 20
-32.53937007874016
  0
LINE
  5
32D
330
1E
100
AcDbEntity
  8
0
100
AcDbLine
 10
30.92519685039369
 20
-32.5984251968504
 30
0.0
 11
30.92519685039369
 21
-32.53937007874016
 31
0.0
  0
LINE
  5
32E
330
1E
100
AcDbEntity
  8
0
100
AcDbLine
 10
45.94488188976376
 20
-32.53937007874016
 30
0.0
 11
45.94488188976376
 21
-32.5984251968504
 31
0.0
  0
LWPOLYLINE
  5
32F
330
1E
100
AcDbEntity
  8
0
100
AcDbPolyline
 90
        3
 70
     0
 43
0.0
 10
45.94488188976376
 20
-32.53937007874016
 10
45.94488188976376
 20
-32.48031496062992
 10
45.94488188976376
 20
-32.42125984251969
  0
LINE
  5
334
330
1E
100
AcDbEntity
  8
0
100
AcDbLine
 10
45.94488188976376
 20
-32.42125984251969
 30
0.0
 11
45.94488188976376
 21
-31.75196850393701
 31
0.0
  0
LINE
  5
335
330
1E
100
AcDbEntity
  8
0
100
AcDbLine
 10
43.99606299212598
 20
-33.16929133858268
 30
0.0
 11
45.92519685039369
 21
-32.61811023622048
 31
0.0
  0
LINE
  5
336
330
1E
100
AcDbEntity
  8
0
100
AcDbLine
 10
30.94488188976377
 20
-32.61811023622048
 30
0.0
 11
32.87401574803149
 21
-33.16929133858268
 31
0.0
  0
LINE
  5
337
330
1E
100
AcDbEntity
  8
0
100
AcDbLine
 10
45.92519685039369
 20
-32.61811023622048
 30
0.0
 11
45.94488188976376
 21
-32.5984251968504
 31
0.0
  0
LWPOLYLINE
  5
338
330
1E
100
AcDbEntity
  8
0
100
AcDbPolyline
 90
        3
 70
     0
 43
0.0
 10
30.92519685039369
 20
-32.5984251968504
 10
30.94488188976377
 20
-32.5984251968504
 10
30.94488188976377
 20
-32.61811023622048
  0
LINE
  5
33D
330
1E
100
AcDbEntity
  8
0
100
AcDbLine
 10
32.87401574803149
 20
-33.16929133858268
 30
0.0
 11
32.89370078740156
 21
-33.16929133858268
 31
0.0
  0
LWPOLYLINE
  5
33E
330
1E
100
AcDbEntity
  8
0
100
AcDbPolyline
 90
        3
 70
     0
 43
0.0
 10
30.96456692913385
 20
-31.65354330708662
 10
30.90551181102361
 20
-31.69291338582678
 10
30.88582677165353
 20
-31.75196850393701
  0
LWPOLYLINE
  5
343
330
1E
100
AcDbEntity
  8
0
100
AcDbPolyline
 90
        3
 70
     0
 43
0.0
 10
30.96456692913385
 20
-31.71259842519686
 10
30.94488188976377
 20
-31.71259842519686
 10
30.92519685039369
 20
-31.75196850393701
  0
LWPOLYLINE
  5
348
330
1E
100
AcDbEntity
  8
0
100
AcDbPolyline
 90
        3
 70
     0
 43
0.0
 10
46.003937007874
 20
-31.75196850393701
 10
45.98425196850392
 20
-31.69291338582678
 10
45.92519685039369
 20
-31.65354330708662
  0
LWPOLYLINE
  5
34D
330
1E
100
AcDbEntity
  8
0
100
AcDbPolyline
 90
        3
 70
     0
 43
0.0
 10
45.94488188976376
 20
-31.75196850393701
 10
45.94488188976376
 20
-31.71259842519686
 10
45.92519685039369
 20
-31.71259842519686
  0
LINE
  5
352
330
1E
100
AcDbEntity
  8
0
100
AcDbLine
 10
46.003937007874
 20
-32.53937007874016
 30
0.0
 11
45.94488188976376
 21
-32.53937007874016
 31
0.0
  0
LINE
  5
353
330
1E
100
AcDbEntity
  8
0
100
AcDbLine
 10
30.92519685039369
 20
-32.53937007874016
 30
0.0
 11
30.88582677165353
 21
-32.53937007874016
 31
0.0
  0
LINE
  5
354
330
1E
100
AcDbEntity
  8
0
100
AcDbLine
 10
45.37401574803149
 20
-31.90944881889764
 30
0.0
 11
45.39370078740156
 21
-31.90944881889764
 31
0.0
  0
LINE
  5
355
330
1E
100
AcDbEntity
  8
0
100
AcDbLine
 10
45.64960629921259
 20
-31.83070866141733
 30
0.0
 11
45.64960629921259
 21
-31.85039370078741
 31
0.0
  0
LINE
  5
356
330
1E
100
AcDbEntity
  8
0
100
AcDbLine
 10
45.39370078740156
 20
-31.92913385826772
 30
0.0
 11
45.37401574803149
 21
-31.92913385826772
 31
0.0
  0
LINE
  5
357
330
1E
100
AcDbEntity
  8
0
100
AcDbLine
 10
31.24015748031495
 20
-31.83070866141733
 30
0.0
 11
31.24015748031495
 21
-31.85039370078741
 31
0.0
  0
LINE
  5
358
330
1E
100
AcDbEntity
  8
0
100
AcDbLine
 10
31.47637795275589
 20
-31.90944881889764
 30
0.0
 11
31.49606299212597
 21
-31.90944881889764
 31
0.0
  0
LINE
  5
359
330
1E
100
AcDbEntity
  8
0
100
AcDbLine
 10
31.49606299212597
 20
-31.92913385826772
 30
0.0
 11
31.47637795275589
 21
-31.92913385826772
 31
0.0
  0
LINE
  5
35A
330
1E
100
AcDbEntity
  8
0
100
AcDbLine
 10
44.99999999999999
 20
-32.71653543307087
 30
0.0
 11
45.41338582677165
 21
-32.71653543307087
 31
0.0
  0
LINE
  5
35B
330
1E
100
AcDbEntity
  8
0
100
AcDbLine
 10
31.47637795275589
 20
-32.71653543307087
 30
0.0
 11
31.87007874015747
 21
-32.71653543307087
 31
0.0
  0
LINE
  5
35C
330
1E
100
AcDbEntity
  8
0
100
AcDbLine
 10
34.19291338582676
 20
-33.14960629921261
 30
0.0
 11
34.19291338582676
 21
-32.5984251968504
 31
0.0
  0
LINE
  5
35D
330
1E
100
AcDbEntity
  8
0
100
AcDbLine
 10
34.19291338582676
 20
-33.14960629921261
 30
0.0
 11
37.18503937007873
 21
-33.14960629921261
 31
0.0
  0
LINE
  5
35E
330
1E
100
AcDbEntity
  8
0
100
AcDbLine
 10
39.68503937007873
 20
-33.14960629921261
 30
0.0
 11
42.69685039370077
 21
-33.14960629921261
 31
0.0
  0
LINE
  5
35F
330
1E
100
AcDbEntity
  8
0
100
AcDbLine
 10
42.69685039370077
 20
-32.5984251968504
 30
0.0
 11
42.69685039370077
 21
-33.14960629921261
 31
0.0
  0
LINE
  5
360
330
1E
100
AcDbEntity
  8
0
100
AcDbLine
 10
42.93307086614173
 20
-32.5984251968504
 30
0.0
 11
42.69685039370077
 21
-32.5984251968504
 31
0.0
  0
LINE
  5
361
330
1E
100
AcDbEntity
  8
0
100
AcDbLine
 10
42.93307086614173
 20
-32.71653543307087
 30
0.0
 11
42.93307086614173
 21
-32.5984251968504
 31
0.0
  0
LINE
  5
362
330
1E
100
AcDbEntity
  8
0
100
AcDbLine
 10
42.93307086614173
 20
-32.71653543307087
 30
0.0
 11
44.99999999999999
 21
-32.71653543307087
 31
0.0
  0
LINE
  5
363
330
1E
100
AcDbEntity
  8
0
100
AcDbLine
 10
45.41338582677165
 20
-32.71653543307087
 30
0.0
 11
45.90551181102362
 21
-32.57874015748031
 31
0.0
  0
LINE
  5
364
330
1E
100
AcDbEntity
  8
0
100
AcDbLine
 10
45.90551181102362
 20
-32.57874015748031
 30
0.0
 11
45.90551181102362
 21
-32.46062992125985
 31
0.0
  0
LINE
  5
365
330
1E
100
AcDbEntity
  8
0
100
AcDbLine
 10
30.96456692913385
 20
-32.57874015748031
 30
0.0
 11
30.96456692913385
 21
-32.46062992125985
 31
0.0
  0
LINE
  5
366
330
1E
100
AcDbEntity
  8
0
100
AcDbLine
 10
30.96456692913385
 20
-32.57874015748031
 30
0.0
 11
31.47637795275589
 21
-32.71653543307087
 31
0.0
  0
LINE
  5
367
330
1E
100
AcDbEntity
  8
0
100
AcDbLine
 10
33.93700787401574
 20
-32.71653543307087
 30
0.0
 11
31.87007874015747
 21
-32.71653543307087
 31
0.0
  0
LINE
  5
368
330
1E
100
AcDbEntity
  8
0
100
AcDbLine
 10
33.93700787401574
 20
-32.5984251968504
 30
0.0
 11
33.93700787401574
 21
-32.71653543307087
 31
0.0
  0
LINE
  5
369
330
1E
100
AcDbEntity
  8
0
100
AcDbLine
 10
34.19291338582676
 20
-32.5984251968504
 30
0.0
 11
33.93700787401574
 21
-32.5984251968504
 31
0.0
  0
LWPOLYLINE
  5
36A
330
1E
100
AcDbEntity
  8
0
100
AcDbPolyline
 90
        3
 70
     0
 43
0.0
 10
42.93307086614173
 20
-32.71653543307087
 10
42.93307086614173
 20
-32.77559055118111
 10
42.93307086614173
 20
-32.79527559055118
  0
LWPOLYLINE
  5
36F
330
1E
100
AcDbEntity
  8
0
100
AcDbPolyline
 90
        3
 70
     0
 43
0.0
 10
44.99999999999999
 20
-32.71653543307087
 10
44.99999999999999
 20
-32.77559055118111
 10
44.99999999999999
 20
-32.79527559055118
  0
LINE
  5
374
330
1E
100
AcDbEntity
  8
0
100
AcDbLine
 10
42.93307086614173
 20
-32.79527559055118
 30
0.0
 11
44.99999999999999
 21
-32.79527559055118
 31
0.0
  0
LINE
  5
375
330
1E
100
AcDbEntity
  8
0
100
AcDbLine
 10
44.99999999999999
 20
-32.79527559055118
 30
0.0
 11
45.09842519685038
 21
-32.79527559055118
 31
0.0
  0
LINE
  5
376
330
1E
100
AcDbEntity
  8
0
100
AcDbLine
 10
44.99999999999999
 20
-32.73622047244095
 30
0.0
 11
45.09842519685038
 21
-32.73622047244095
 31
0.0
  0
LINE
  5
377
330
1E
100
AcDbEntity
  8
0
100
AcDbLine
 10
45.09842519685038
 20
-32.73622047244095
 30
0.0
 11
45.09842519685038
 21
-32.79527559055118
 31
0.0
  0
LWPOLYLINE
  5
378
330
1E
100
AcDbEntity
  8
0
100
AcDbPolyline
 90
        3
 70
     0
 43
0.0
 10
45.09842519685038
 20
-32.79527559055118
 10
45.15748031496062
 20
-32.77559055118111
 10
45.17716535433069
 20
-32.71653543307087
  0
LWPOLYLINE
  5
37D
330
1E
100
AcDbEntity
  8
0
100
AcDbPolyline
 90
        3
 70
     0
 43
0.0
 10
45.09842519685038
 20
-32.73622047244095
 10
45.11811023622047
 20
-32.73622047244095
 10
45.11811023622047
 20
-32.71653543307087
  0
LWPOLYLINE
  5
382
330
1E
100
AcDbEntity
  8
0
100
AcDbPolyline
 90
        3
 70
     0
 43
0.0
 10
33.93700787401574
 20
-32.71653543307087
 10
33.93700787401574
 20
-32.77559055118111
 10
33.93700787401574
 20
-32.79527559055118
  0
LWPOLYLINE
  5
387
330
1E
100
AcDbEntity
  8
0
100
AcDbPolyline
 90
        3
 70
     0
 43
0.0
 10
31.87007874015747
 20
-32.71653543307087
 10
31.87007874015747
 20
-32.77559055118111
 10
31.87007874015747
 20
-32.79527559055118
  0
LINE
  5
38C
330
1E
100
AcDbEntity
  8
0
100
AcDbLine
 10
33.93700787401574
 20
-32.79527559055118
 30
0.0
 11
31.87007874015747
 21
-32.79527559055118
 31
0.0
  0
LINE
  5
38D
330
1E
100
AcDbEntity
  8
0
100
AcDbLine
 10
31.87007874015747
 20
-32.79527559055118
 30
0.0
 11
31.79133858267716
 21
-32.79527559055118
 31
0.0
  0
LINE
  5
38E
330
1E
100
AcDbEntity
  8
0
100
AcDbLine
 10
31.87007874015747
 20
-32.73622047244095
 30
0.0
 11
31.79133858267716
 21
-32.73622047244095
 31
0.0
  0
LINE
  5
38F
330
1E
100
AcDbEntity
  8
0
100
AcDbLine
 10
31.79133858267716
 20
-32.73622047244095
 30
0.0
 11
31.79133858267716
 21
-32.79527559055118
 31
0.0
  0
LWPOLYLINE
  5
390
330
1E
100
AcDbEntity
  8
0
100
AcDbPolyline
 90
        3
 70
     0
 43
0.0
 10
31.79133858267716
 20
-32.73622047244095
 10
31.77165354330708
 20
-32.73622047244095
 10
31.751968503937
 20
-32.71653543307087
  0
LWPOLYLINE
  5
395
330
1E
100
AcDbEntity
  8
0
100
AcDbPolyline
 90
        3
 70
     0
 43
0.0
 10
31.79133858267716
 20
-32.79527559055118
 10
31.73228346456692
 20
-32.77559055118111
 10
31.71259842519684
 20
-32.71653543307087
  0
LINE
  5
39A
330
1E
100
AcDbEntity
  8
0
100
AcDbLine
 10
31.65354330708661
 20
-32.53937007874016
 30
0.0
 11
37.18503937007873
 21
-32.53937007874016
 31
0.0
  0
LINE
  5
39B
330
1E
100
AcDbEntity
  8
0
100
AcDbLine
 10
32.00787401574802
 20
-31.71259842519686
 30
0.0
 11
37.44094488188975
 21
-31.71259842519686
 31
0.0
  0
LINE
  5
39C
330
1E
100
AcDbEntity
  8
0
100
AcDbLine
 10
39.44881889763778
 20
-31.71259842519686
 30
0.0
 11
44.86220472440943
 21
-31.71259842519686
 31
0.0
  0
LWPOLYLINE
  5
39D
330
1E
100
AcDbEntity
  8
0
100
AcDbPolyline
 90
       15
 70
     0
 43
0.0
 10
45.70866141732282
 20
-31.98818897637796
 10
45.68897637795275
 20
-31.90944881889764
 10
45.64960629921259
 20
-31.85039370078741
 10
45.57086614173228
 20
-31.81102362204725
 10
45.51181102362203
 20
-31.81102362204725
 10
45.43307086614173
 20
-31.85039370078741
 10
45.39370078740156
 20
-31.90944881889764
 10
45.37401574803149
 20
-31.98818897637796
 10
45.39370078740156
 20
-32.0472440944882
 10
45.43307086614173
 20
-32.10629921259843
 10
45.51181102362203
 20
-32.14566929133859
 10
45.57086614173228
 20
-32.14566929133859
 10
45.64960629921259
 20
-32.10629921259843
 10
45.68897637795275
 20
-32.0472440944882
 10
45.70866141732282
 20
-31.98818897637796
  0
LWPOLYLINE
  5
3AE
330
1E
100
AcDbEntity
  8
0
100
AcDbPolyline
 90
       15
 70
     0
 43
0.0
 10
31.16141732283463
 20
-31.98818897637796
 10
31.18110236220471
 20
-31.90944881889764
 10
31.22047244094487
 20
-31.85039370078741
 10
31.29921259842518
 20
-31.81102362204725
 10
31.3779527559055
 20
-31.81102362204725
 10
31.43700787401574
 20
-31.85039370078741
 10
31.49606299212597
 20
-31.90944881889764
 10
31.51574803149606
 20
-31.98818897637796
 10
31.49606299212597
 20
-32.0472440944882
 10
31.43700787401574
 20
-32.10629921259843
 10
31.3779527559055
 20
-32.14566929133859
 10
31.29921259842518
 20
-32.14566929133859
 10
31.22047244094487
 20
-32.10629921259843
 10
31.18110236220471
 20
-32.0472440944882
 10
31.16141732283463
 20
-31.98818897637796
  0
LINE
  5
3BF
330
1E
100
AcDbEntity
  8
0
100
AcDbLine
 10
32.00787401574802
 20
-31.79133858267717
 30
0.0
 11
37.44094488188975
 21
-31.79133858267717
 31
0.0
  0
LINE
  5
3C0
330
1E
100
AcDbEntity
  8
0
100
AcDbLine
 10
39.44881889763778
 20
-31.79133858267717
 30
0.0
 11
44.86220472440943
 21
-31.79133858267717
 31
0.0
  0
LINE
  5
3C1
330
1E
100
AcDbEntity
  8
0
100
AcDbLine
 10
39.68503937007873
 20
-32.53937007874016
 30
0.0
 11
45.23622047244094
 21
-32.53937007874016
 31
0.0
  0
LINE
  5
3C2
330
1E
100
AcDbEntity
  8
0
100
AcDbLine
 10
37.18503937007873
 20
-32.53937007874016
 30
0.0
 11
37.18503937007873
 21
-33.09055118110237
 31
0.0
  0
LINE
  5
3C3
330
1E
100
AcDbEntity
  8
0
100
AcDbLine
 10
39.68503937007873
 20
-33.09055118110237
 30
0.0
 11
37.18503937007873
 21
-33.09055118110237
 31
0.0
  0
LINE
  5
3C4
330
1E
100
AcDbEntity
  8
0
100
AcDbLine
 10
39.68503937007873
 20
-32.53937007874016
 30
0.0
 11
39.68503937007873
 21
-33.09055118110237
 31
0.0
  0
LWPOLYLINE
  5
3C5
330
1E
100
AcDbEntity
  8
0
100
AcDbPolyline
 90
        3
 70
     0
 43
0.0
 10
39.68503937007873
 20
-33.09055118110237
 10
39.68503937007873
 20
-33.11023622047244
 10
39.68503937007873
 20
-33.12992125984252
  0
LWPOLYLINE
  5
3CA
330
1E
100
AcDbEntity
  8
0
100
AcDbPolyline
 90
        3
 70
     0
 43
0.0
 10
37.18503937007873
 20
-33.09055118110237
 10
37.18503937007873
 20
-33.11023622047244
 10
37.18503937007873
 20
-33.12992125984252
  0
LINE
  5
3CF
330
1E
100
AcDbEntity
  8
0
100
AcDbLine
 10
39.68503937007873
 20
-33.12992125984252
 30
0.0
 11
39.68503937007873
 21
-33.16929133858268
 31
0.0
  0
LINE
  5
3D0
330
1E
100
AcDbEntity
  8
0
100
AcDbLine
 10
37.18503937007873
 20
-33.16929133858268
 30
0.0
 11
37.18503937007873
 21
-33.12992125984252
 31
0.0
  0
LINE
  5
3D1
330
1E
100
AcDbEntity
  8
0
100
AcDbLine
 10
37.18503937007873
 20
-33.12992125984252
 30
0.0
 11
39.68503937007873
 21
-33.12992125984252
 31
0.0
  0
LINE
  5
3D2
330
1E
100
AcDbEntity
  8
0
100
AcDbLine
 10
39.29133858267716
 20
-33.26771653543307
 30
0.0
 11
39.251968503937
 21
-33.26771653543307
 31
0.0
  0
LWPOLYLINE
  5
3D3
330
1E
100
AcDbEntity
  8
0
100
AcDbPolyline
 90
        3
 70
     0
 43
0.0
 10
39.33070866141731
 20
-33.26771653543307
 10
39.31102362204724
 20
-33.26771653543307
 10
39.29133858267716
 20
-33.26771653543307
  0
LINE
  5
3D8
330
1E
100
AcDbEntity
  8
0
100
AcDbLine
 10
38.95669291338581
 20
-33.26771653543307
 30
0.0
 11
38.95669291338581
 21
-33.24803149606299
 31
0.0
  0
LINE
  5
3D9
330
1E
100
AcDbEntity
  8
0
100
AcDbLine
 10
39.01574803149605
 20
-33.26771653543307
 30
0.0
 11
39.01574803149605
 21
-33.24803149606299
 31
0.0
  0
LINE
  5
3DA
330
1E
100
AcDbEntity
  8
0
100
AcDbLine
 10
39.01574803149605
 20
-33.26771653543307
 30
0.0
 11
38.95669291338581
 21
-33.26771653543307
 31
0.0
  0
LWPOLYLINE
  5
3DB
330
1E
100
AcDbEntity
  8
0
100
AcDbPolyline
 90
        4
 70
     0
 43
0.0
 10
37.93307086614172
 20
-33.26771653543307
 10
37.91338582677164
 20
-33.26771653543307
 10
37.87401574803149
 20
-33.26771653543307
 10
37.81496062992125
 20
-33.26771653543307
  0
LINE
  5
3E1
330
1E
100
AcDbEntity
  8
0
100
AcDbLine
 10
37.55905511811023
 20
-33.26771653543307
 30
0.0
 11
37.81496062992125
 21
-33.26771653543307
 31
0.0
  0
LINE
  5
3E2
330
1E
100
AcDbEntity
  8
0
100
AcDbLine
 10
37.55905511811023
 20
-33.26771653543307
 30
0.0
 11
37.55905511811023
 21
-33.24803149606299
 31
0.0
  0
LINE
  5
3E3
330
1E
100
AcDbEntity
  8
0
100
AcDbLine
 10
37.81496062992125
 20
-33.26771653543307
 30
0.0
 11
37.81496062992125
 21
-33.24803149606299
 31
0.0
  0
LINE
  5
3E4
330
1E
100
AcDbEntity
  8
0
100
AcDbLine
 10
39.05511811023621
 20
-33.26771653543307
 30
0.0
 11
39.05511811023621
 21
-33.24803149606299
 31
0.0
  0
LINE
  5
3E5
330
1E
100
AcDbEntity
  8
0
100
AcDbLine
 10
39.21259842519684
 20
-33.26771653543307
 30
0.0
 11
39.21259842519684
 21
-33.24803149606299
 31
0.0
  0
LINE
  5
3E6
330
1E
100
AcDbEntity
  8
0
100
AcDbLine
 10
39.21259842519684
 20
-33.26771653543307
 30
0.0
 11
39.05511811023621
 21
-33.26771653543307
 31
0.0
  0
LINE
  5
3E7
330
1E
100
AcDbEntity
  8
0
100
AcDbLine
 10
37.49999999999999
 20
-33.22834645669292
 30
0.0
 11
37.49999999999999
 21
-33.24803149606299
 31
0.0
  0
LINE
  5
3E8
330
1E
100
AcDbEntity
  8
0
100
AcDbLine
 10
39.37007874015747
 20
-33.22834645669292
 30
0.0
 11
39.37007874015747
 21
-33.24803149606299
 31
0.0
  0
LINE
  5
3E9
330
1E
100
AcDbEntity
  8
0
100
AcDbLine
 10
37.49999999999999
 20
-33.24803149606299
 30
0.0
 11
39.37007874015747
 21
-33.24803149606299
 31
0.0
  0
LINE
  5
3EA
330
1E
100
AcDbEntity
  8
0
100
AcDbLine
 10
39.35039370078739
 20
-33.24803149606299
 30
0.0
 11
37.51968503937007
 21
-33.24803149606299
 31
0.0
  0
LINE
  5
3EB
330
1E
100
AcDbEntity
  8
0
100
AcDbLine
 10
37.49999999999999
 20
-33.24803149606299
 30
0.0
 11
37.51968503937007
 21
-33.24803149606299
 31
0.0
  0
LINE
  5
3EC
330
1E
100
AcDbEntity
  8
0
100
AcDbLine
 10
39.37007874015747
 20
-33.24803149606299
 30
0.0
 11
39.35039370078739
 21
-33.24803149606299
 31
0.0
  0
LINE
  5
3ED
330
1E
100
AcDbEntity
  8
0
100
AcDbLine
 10
38.56299212598424
 20
-33.26771653543307
 30
0.0
 11
38.503937007874
 21
-33.26771653543307
 31
0.0
  0
LINE
  5
3EE
330
1E
100
AcDbEntity
  8
0
100
AcDbLine
 10
38.503937007874
 20
-33.26771653543307
 30
0.0
 11
38.46456692913385
 21
-33.26771653543307
 31
0.0
  0
LINE
  5
3EF
330
1E
100
AcDbEntity
  8
0
100
AcDbLine
 10
38.46456692913385
 20
-33.26771653543307
 30
0.0
 11
38.38582677165353
 21
-33.26771653543307
 31
0.0
  0
LINE
  5
3F0
330
1E
100
AcDbEntity
  8
0
100
AcDbLine
 10
38.32677165354329
 20
-33.26771653543307
 30
0.0
 11
38.38582677165353
 21
-33.26771653543307
 31
0.0
  0
LINE
  5
3F1
330
1E
100
AcDbEntity
  8
0
100
AcDbLine
 10
38.32677165354329
 20
-33.26771653543307
 30
0.0
 11
38.26771653543305
 21
-33.26771653543307
 31
0.0
  0
LWPOLYLINE
  5
3F2
330
1E
100
AcDbEntity
  8
0
100
AcDbPolyline
 90
        3
 70
     0
 43
0.0
 10
38.26771653543305
 20
-33.26771653543307
 10
38.24803149606298
 20
-33.26771653543307
 10
38.18897637795275
 20
-33.26771653543307
  0
LINE
  5
3F7
330
1E
100
AcDbEntity
  8
0
100
AcDbLine
 10
37.99212598425196
 20
-33.26771653543307
 30
0.0
 11
38.18897637795275
 21
-33.26771653543307
 31
0.0
  0
LINE
  5
3F8
330
1E
100
AcDbEntity
  8
0
100
AcDbLine
 10
37.99212598425196
 20
-33.26771653543307
 30
0.0
 11
37.99212598425196
 21
-33.24803149606299
 31
0.0
  0
LINE
  5
3F9
330
1E
100
AcDbEntity
  8
0
100
AcDbLine
 10
38.56299212598424
 20
-33.26771653543307
 30
0.0
 11
38.56299212598424
 21
-33.24803149606299
 31
0.0
  0
LINE
  5
3FA
330
1E
100
AcDbEntity
  8
0
100
AcDbLine
 10
38.503937007874
 20
-33.26771653543307
 30
0.0
 11
38.503937007874
 21
-33.24803149606299
 31
0.0
  0
LINE
  5
3FB
330
1E
100
AcDbEntity
  8
0
100
AcDbLine
 10
38.46456692913385
 20
-33.26771653543307
 30
0.0
 11
38.46456692913385
 21
-33.24803149606299
 31
0.0
  0
LINE
  5
3FC
330
1E
100
AcDbEntity
  8
0
100
AcDbLine
 10
38.38582677165353
 20
-33.26771653543307
 30
0.0
 11
38.38582677165353
 21
-33.24803149606299
 31
0.0
  0
LINE
  5
3FD
330
1E
100
AcDbEntity
  8
0
100
AcDbLine
 10
38.32677165354329
 20
-33.26771653543307
 30
0.0
 11
38.32677165354329
 21
-33.24803149606299
 31
0.0
  0
LINE
  5
3FE
330
1E
100
AcDbEntity
  8
0
100
AcDbLine
 10
38.26771653543305
 20
-33.26771653543307
 30
0.0
 11
38.26771653543305
 21
-33.24803149606299
 31
0.0
  0
LINE
  5
3FF
330
1E
100
AcDbEntity
  8
0
100
AcDbLine
 10
38.18897637795275
 20
-33.26771653543307
 30
0.0
 11
38.18897637795275
 21
-33.24803149606299
 31
0.0
  0
LINE
  5
400
330
1E
100
AcDbEntity
  8
0
100
AcDbLine
 10
38.74015748031494
 20
-33.26771653543307
 30
0.0
 11
38.70078740157479
 21
-33.26771653543307
 31
0.0
  0
LINE
  5
401
330
1E
100
AcDbEntity
  8
0
100
AcDbLine
 10
38.70078740157479
 20
-33.26771653543307
 30
0.0
 11
38.58267716535431
 21
-33.26771653543307
 31
0.0
  0
LINE
  5
402
330
1E
100
AcDbEntity
  8
0
100
AcDbLine
 10
38.58267716535431
 20
-33.26771653543307
 30
0.0
 11
38.58267716535431
 21
-33.24803149606299
 31
0.0
  0
LINE
  5
403
330
1E
100
AcDbEntity
  8
0
100
AcDbLine
 10
38.74015748031494
 20
-33.26771653543307
 30
0.0
 11
38.74015748031494
 21
-33.24803149606299
 31
0.0
  0
LINE
  5
404
330
1E
100
AcDbEntity
  8
0
100
AcDbLine
 10
38.70078740157479
 20
-33.26771653543307
 30
0.0
 11
38.70078740157479
 21
-33.24803149606299
 31
0.0
  0
LINE
  5
405
330
1E
100
AcDbEntity
  8
0
100
AcDbLine
 10
38.85826771653542
 20
-33.26771653543307
 30
0.0
 11
38.85826771653542
 21
-33.24803149606299
 31
0.0
  0
LINE
  5
406
330
1E
100
AcDbEntity
  8
0
100
AcDbLine
 10
38.77952755905511
 20
-33.26771653543307
 30
0.0
 11
38.77952755905511
 21
-33.24803149606299
 31
0.0
  0
LINE
  5
407
330
1E
100
AcDbEntity
  8
0
100
AcDbLine
 10
38.85826771653542
 20
-33.26771653543307
 30
0.0
 11
38.77952755905511
 21
-33.26771653543307
 31
0.0
  0
LINE
  5
408
330
1E
100
AcDbEntity
  8
0
100
AcDbLine
 10
38.93700787401574
 20
-33.26771653543307
 30
0.0
 11
38.93700787401574
 21
-33.24803149606299
 31
0.0
  0
LINE
  5
409
330
1E
100
AcDbEntity
  8
0
100
AcDbLine
 10
38.8779527559055
 20
-33.26771653543307
 30
0.0
 11
38.8779527559055
 21
-33.24803149606299
 31
0.0
  0
LINE
  5
40A
330
1E
100
AcDbEntity
  8
0
100
AcDbLine
 10
38.93700787401574
 20
-33.26771653543307
 30
0.0
 11
38.8779527559055
 21
-33.26771653543307
 31
0.0
  0
LINE
  5
40B
330
1E
100
AcDbEntity
  8
0
100
AcDbLine
 10
38.8779527559055
 20
-33.26771653543307
 30
0.0
 11
38.8779527559055
 21
-33.24803149606299
 31
0.0
  0
LINE
  5
40C
330
1E
100
AcDbEntity
  8
0
100
AcDbLine
 10
38.85826771653542
 20
-33.26771653543307
 30
0.0
 11
38.85826771653542
 21
-33.24803149606299
 31
0.0
  0
LINE
  5
40D
330
1E
100
AcDbEntity
  8
0
100
AcDbLine
 10
38.8779527559055
 20
-33.26771653543307
 30
0.0
 11
38.85826771653542
 21
-33.26771653543307
 31
0.0
  0
LINE
  5
40E
330
1E
100
AcDbEntity
  8
0
100
AcDbLine
 10
37.9527559055118
 20
-33.26771653543307
 30
0.0
 11
37.9527559055118
 21
-33.26771653543307
 31
0.0
  0
LINE
  5
40F
330
1E
100
AcDbEntity
  8
0
100
AcDbLine
 10
37.9527559055118
 20
-33.24803149606299
 30
0.0
 11
37.9527559055118
 21
-33.26771653543307
 31
0.0
  0
LINE
  5
410
330
1E
100
AcDbEntity
  8
0
100
AcDbLine
 10
37.9527559055118
 20
-33.24803149606299
 30
0.0
 11
37.9527559055118
 21
-33.24803149606299
 31
0.0
  0
LWPOLYLINE
  5
411
330
1E
100
AcDbEntity
  8
0
100
AcDbPolyline
 90
        3
 70
     0
 43
0.0
 10
30.96456692913385
 20
-31.79133858267717
 10
30.96456692913385
 20
-31.81102362204725
 10
30.94488188976377
 20
-31.83070866141733
  0
LINE
  5
416
330
1E
100
AcDbEntity
  8
0
100
AcDbLine
 10
30.94488188976377
 20
-31.83070866141733
 30
0.0
 11
30.94488188976377
 21
-31.83070866141733
 31
0.0
  0
LWPOLYLINE
  5
417
330
1E
100
AcDbEntity
  8
0
100
AcDbPolyline
 90
        3
 70
     0
 43
0.0
 10
30.96456692913385
 20
-31.79133858267717
 10
30.96456692913385
 20
-31.81102362204725
 10
30.94488188976377
 20
-31.83070866141733
  0
LINE
  5
41C
330
1E
100
AcDbEntity
  8
0
100
AcDbLine
 10
30.94488188976377
 20
-31.83070866141733
 30
0.0
 11
30.94488188976377
 21
-32.61811023622048
 31
0.0
  0
LINE
  5
41D
330
1E
100
AcDbEntity
  8
0
100
AcDbLine
 10
30.94488188976377
 20
-32.67716535433072
 30
0.0
 11
30.94488188976377
 21
-32.67716535433072
 31
0.0
  0
LINE
  5
41E
330
1E
100
AcDbEntity
  8
0
100
AcDbLine
 10
30.94488188976377
 20
-32.67716535433072
 30
0.0
 11
30.94488188976377
 21
-32.67716535433072
 31
0.0
  0
LINE
  5
41F
330
1E
100
AcDbEntity
  8
0
100
AcDbLine
 10
30.94488188976377
 20
-32.67716535433072
 30
0.0
 11
30.94488188976377
 21
-32.67716535433072
 31
0.0
  0
LINE
  5
420
330
1E
100
AcDbEntity
  8
0
100
AcDbLine
 10
30.94488188976377
 20
-32.61811023622048
 30
0.0
 11
30.94488188976377
 21
-31.83070866141733
 31
0.0
  0
LWPOLYLINE
  5
421
330
1E
100
AcDbEntity
  8
0
100
AcDbPolyline
 90
        3
 70
     0
 43
0.0
 10
31.67322834645668
 20
-32.89370078740157
 10
31.69291338582676
 20
-32.89370078740157
 10
31.69291338582676
 20
-32.91338582677166
  0
LINE
  5
426
330
1E
100
AcDbEntity
  8
0
100
AcDbLine
 10
31.69291338582676
 20
-32.91338582677166
 30
0.0
 11
31.71259842519684
 21
-32.89370078740157
 31
0.0
  0
LINE
  5
427
330
1E
100
AcDbEntity
  8
0
100
AcDbLine
 10
31.71259842519684
 20
-32.89370078740157
 30
0.0
 11
31.65354330708661
 21
-32.89370078740157
 31
0.0
  0
LINE
  5
428
330
1E
100
AcDbEntity
  8
0
100
AcDbLine
 10
31.65354330708661
 20
-32.89370078740157
 30
0.0
 11
31.65354330708661
 21
-32.89370078740157
 31
0.0
  0
LINE
  5
429
330
1E
100
AcDbEntity
  8
0
100
AcDbLine
 10
31.65354330708661
 20
-32.89370078740157
 30
0.0
 11
30.94488188976377
 21
-32.67716535433072
 31
0.0
  0
LINE
  5
42A
330
1E
100
AcDbEntity
  8
0
100
AcDbLine
 10
30.94488188976377
 20
-32.67716535433072
 30
0.0
 11
30.92519685039369
 21
-32.67716535433072
 31
0.0
  0
LINE
  5
42B
330
1E
100
AcDbEntity
  8
0
100
AcDbLine
 10
30.92519685039369
 20
-32.67716535433072
 30
0.0
 11
30.92519685039369
 21
-32.67716535433072
 31
0.0
  0
LINE
  5
42C
330
1E
100
AcDbEntity
  8
0
100
AcDbLine
 10
30.92519685039369
 20
-32.67716535433072
 30
0.0
 11
31.67322834645668
 21
-32.89370078740157
 31
0.0
  0
LINE
  5
42D
330
1E
100
AcDbEntity
  8
0
100
AcDbLine
 10
30.86614173228345
 20
-32.5984251968504
 30
0.0
 11
30.86614173228345
 21
-32.5984251968504
 31
0.0
  0
LWPOLYLINE
  5
42E
330
1E
100
AcDbEntity
  8
0
100
AcDbPolyline
 90
        3
 70
     0
 43
0.0
 10
30.86614173228345
 20
-32.5984251968504
 10
30.88582677165353
 20
-32.65748031496063
 10
30.92519685039369
 20
-32.67716535433072
  0
LWPOLYLINE
  5
433
330
1E
100
AcDbEntity
  8
0
100
AcDbPolyline
 90
        3
 70
     0
 43
0.0
 10
30.86614173228345
 20
-32.5984251968504
 10
30.88582677165353
 20
-32.63779527559055
 10
30.92519685039369
 20
-32.67716535433072
  0
LINE
  5
438
330
1E
100
AcDbEntity
  8
0
100
AcDbLine
 10
30.86614173228345
 20
-32.53937007874016
 30
0.0
 11
30.86614173228345
 21
-32.55905511811024
 31
0.0
  0
LINE
  5
439
330
1E
100
AcDbEntity
  8
0
100
AcDbLine
 10
30.86614173228345
 20
-32.55905511811024
 30
0.0
 11
30.86614173228345
 21
-32.5984251968504
 31
0.0
  0
LINE
  5
43A
330
1E
100
AcDbEntity
  8
0
100
AcDbLine
 10
30.86614173228345
 20
-32.5984251968504
 30
0.0
 11
30.86614173228345
 21
-32.51968503937009
 31
0.0
  0
LINE
  5
43B
330
1E
100
AcDbEntity
  8
0
100
AcDbLine
 10
30.86614173228345
 20
-32.51968503937009
 30
0.0
 11
30.86614173228345
 21
-32.53937007874016
 31
0.0
  0
LINE
  5
43C
330
1E
100
AcDbEntity
  8
0
100
AcDbLine
 10
30.82677165354329
 20
-32.51968503937009
 30
0.0
 11
30.84645669291337
 21
-32.51968503937009
 31
0.0
  0
LINE
  5
43D
330
1E
100
AcDbEntity
  8
0
100
AcDbLine
 10
30.84645669291337
 20
-32.51968503937009
 30
0.0
 11
30.84645669291337
 21
-32.5
 31
0.0
  0
LINE
  5
43E
330
1E
100
AcDbEntity
  8
0
100
AcDbLine
 10
30.84645669291337
 20
-32.5
 30
0.0
 11
30.80708661417322
 21
-32.5
 31
0.0
  0
LINE
  5
43F
330
1E
100
AcDbEntity
  8
0
100
AcDbLine
 10
30.80708661417322
 20
-32.5
 30
0.0
 11
30.82677165354329
 21
-32.51968503937009
 31
0.0
  0
LINE
  5
440
330
1E
100
AcDbEntity
  8
0
100
AcDbLine
 10
30.80708661417322
 20
-32.5984251968504
 30
0.0
 11
30.78740157480314
 21
-32.5984251968504
 31
0.0
  0
LINE
  5
441
330
1E
100
AcDbEntity
  8
0
100
AcDbLine
 10
30.80708661417322
 20
-32.5984251968504
 30
0.0
 11
30.80708661417322
 21
-32.55905511811024
 31
0.0
  0
LINE
  5
442
330
1E
100
AcDbEntity
  8
0
100
AcDbLine
 10
30.80708661417322
 20
-32.55905511811024
 30
0.0
 11
30.80708661417322
 21
-32.53937007874016
 31
0.0
  0
LINE
  5
443
330
1E
100
AcDbEntity
  8
0
100
AcDbLine
 10
30.80708661417322
 20
-32.53937007874016
 30
0.0
 11
30.78740157480314
 21
-32.51968503937009
 31
0.0
  0
LINE
  5
444
330
1E
100
AcDbEntity
  8
0
100
AcDbLine
 10
30.78740157480314
 20
-32.5984251968504
 30
0.0
 11
30.78740157480314
 21
-32.51968503937009
 31
0.0
  0
LINE
  5
445
330
1E
100
AcDbEntity
  8
0
100
AcDbLine
 10
30.92519685039369
 20
-32.73622047244095
 30
0.0
 11
30.90551181102361
 21
-32.75590551181103
 31
0.0
  0
LWPOLYLINE
  5
446
330
1E
100
AcDbEntity
  8
0
100
AcDbPolyline
 90
        3
 70
     0
 43
0.0
 10
30.92519685039369
 20
-32.73622047244095
 10
30.84645669291337
 20
-32.67716535433072
 10
30.80708661417322
 20
-32.5984251968504
  0
LWPOLYLINE
  5
44B
330
1E
100
AcDbEntity
  8
0
100
AcDbPolyline
 90
        3
 70
     0
 43
0.0
 10
30.78740157480314
 20
-32.5984251968504
 10
30.82677165354329
 20
-32.69685039370079
 10
30.90551181102361
 20
-32.75590551181103
  0
LINE
  5
450
330
1E
100
AcDbEntity
  8
0
100
AcDbLine
 10
30.90551181102361
 20
-32.75590551181103
 30
0.0
 11
30.90551181102361
 21
-32.75590551181103
 31
0.0
  0
LINE
  5
451
330
1E
100
AcDbEntity
  8
0
100
AcDbLine
 10
30.90551181102361
 20
-33.11023622047244
 30
0.0
 11
30.90551181102361
 21
-33.11023622047244
 31
0.0
  0
LINE
  5
452
330
1E
100
AcDbEntity
  8
0
100
AcDbLine
 10
30.90551181102361
 20
-33.11023622047244
 30
0.0
 11
30.90551181102361
 21
-33.01181102362205
 31
0.0
  0
LINE
  5
453
330
1E
100
AcDbEntity
  8
0
100
AcDbLine
 10
30.90551181102361
 20
-33.01181102362205
 30
0.0
 11
30.90551181102361
 21
-32.99212598425198
 31
0.0
  0
LINE
  5
454
330
1E
100
AcDbEntity
  8
0
100
AcDbLine
 10
30.90551181102361
 20
-32.99212598425198
 30
0.0
 11
30.90551181102361
 21
-32.77559055118111
 31
0.0
  0
LINE
  5
455
330
1E
100
AcDbEntity
  8
0
100
AcDbLine
 10
30.90551181102361
 20
-32.77559055118111
 30
0.0
 11
30.90551181102361
 21
-32.75590551181103
 31
0.0
  0
LINE
  5
456
330
1E
100
AcDbEntity
  8
0
100
AcDbLine
 10
30.90551181102361
 20
-32.75590551181103
 30
0.0
 11
30.90551181102361
 21
-33.11023622047244
 31
0.0
  0
LINE
  5
457
330
1E
100
AcDbEntity
  8
0
100
AcDbLine
 10
31.003937007874
 20
-33.20866141732283
 30
0.0
 11
31.003937007874
 21
-33.22834645669292
 31
0.0
  0
LWPOLYLINE
  5
458
330
1E
100
AcDbEntity
  8
0
100
AcDbPolyline
 90
        5
 70
     0
 43
0.0
 10
31.003937007874
 20
-33.20866141732283
 10
30.96456692913385
 20
-33.20866141732283
 10
30.94488188976377
 20
-33.18897637795276
 10
30.92519685039369
 20
-33.14960629921261
 10
30.90551181102361
 20
-33.11023622047244
  0
LWPOLYLINE
  5
45F
330
1E
100
AcDbEntity
  8
0
100
AcDbPolyline
 90
        5
 70
     0
 43
0.0
 10
30.90551181102361
 20
-33.11023622047244
 10
30.92519685039369
 20
-33.14960629921261
 10
30.94488188976377
 20
-33.18897637795276
 10
30.96456692913385
 20
-33.20866141732283
 10
31.003937007874
 20
-33.22834645669292
  0
LINE
  5
466
330
1E
100
AcDbEntity
  8
0
100
AcDbLine
 10
31.65354330708661
 20
-33.11023622047244
 30
0.0
 11
31.65354330708661
 21
-33.11023622047244
 31
0.0
  0
LWPOLYLINE
  5
467
330
1E
100
AcDbEntity
  8
0
100
AcDbPolyline
 90
        6
 70
     0
 43
0.0
 10
31.65354330708661
 20
-33.11023622047244
 10
31.65354330708661
 20
-33.14960629921261
 10
31.63385826771653
 20
-33.16929133858268
 10
31.61417322834645
 20
-33.18897637795276
 10
31.59448818897637
 20
-33.20866141732283
 10
31.55511811023621
 20
-33.20866141732283
  0
LINE
  5
46F
330
1E
100
AcDbEntity
  8
0
100
AcDbLine
 10
31.55511811023621
 20
-33.22834645669292
 30
0.0
 11
31.55511811023621
 21
-33.20866141732283
 31
0.0
  0
LWPOLYLINE
  5
470
330
1E
100
AcDbEntity
  8
0
100
AcDbPolyline
 90
        5
 70
     0
 43
0.0
 10
31.55511811023621
 20
-33.22834645669292
 10
31.59448818897637
 20
-33.20866141732283
 10
31.63385826771653
 20
-33.18897637795276
 10
31.65354330708661
 20
-33.14960629921261
 10
31.65354330708661
 20
-33.11023622047244
  0
LINE
  5
477
330
1E
100
AcDbEntity
  8
0
100
AcDbLine
 10
31.65354330708661
 20
-33.03149606299213
 30
0.0
 11
31.65354330708661
 21
-33.03149606299213
 31
0.0
  0
LINE
  5
478
330
1E
100
AcDbEntity
  8
0
100
AcDbLine
 10
31.65354330708661
 20
-33.03149606299213
 30
0.0
 11
31.65354330708661
 21
-33.11023622047244
 31
0.0
  0
LINE
  5
479
330
1E
100
AcDbEntity
  8
0
100
AcDbLine
 10
31.65354330708661
 20
-33.11023622047244
 30
0.0
 11
31.65354330708661
 21
-33.03149606299213
 31
0.0
  0
LINE
  5
47A
330
1E
100
AcDbEntity
  8
0
100
AcDbLine
 10
31.65354330708661
 20
-32.99212598425198
 30
0.0
 11
31.65354330708661
 21
-32.99212598425198
 31
0.0
  0
LINE
  5
47B
330
1E
100
AcDbEntity
  8
0
100
AcDbLine
 10
31.65354330708661
 20
-32.99212598425198
 30
0.0
 11
31.65354330708661
 21
-33.01181102362205
 31
0.0
  0
LINE
  5
47C
330
1E
100
AcDbEntity
  8
0
100
AcDbLine
 10
31.65354330708661
 20
-33.01181102362205
 30
0.0
 11
31.65354330708661
 21
-33.03149606299213
 31
0.0
  0
LINE
  5
47D
330
1E
100
AcDbEntity
  8
0
100
AcDbLine
 10
31.65354330708661
 20
-33.03149606299213
 30
0.0
 11
31.65354330708661
 21
-32.99212598425198
 31
0.0
  0
LINE
  5
47E
330
1E
100
AcDbEntity
  8
0
100
AcDbLine
 10
31.65354330708661
 20
-32.97244094488189
 30
0.0
 11
31.65354330708661
 21
-32.97244094488189
 31
0.0
  0
LINE
  5
47F
330
1E
100
AcDbEntity
  8
0
100
AcDbLine
 10
31.65354330708661
 20
-32.97244094488189
 30
0.0
 11
31.65354330708661
 21
-32.99212598425198
 31
0.0
  0
LINE
  5
480
330
1E
100
AcDbEntity
  8
0
100
AcDbLine
 10
31.65354330708661
 20
-32.99212598425198
 30
0.0
 11
31.65354330708661
 21
-32.97244094488189
 31
0.0
  0
LINE
  5
481
330
1E
100
AcDbEntity
  8
0
100
AcDbLine
 10
31.65354330708661
 20
-32.97244094488189
 30
0.0
 11
31.71259842519684
 21
-32.97244094488189
 31
0.0
  0
LINE
  5
482
330
1E
100
AcDbEntity
  8
0
100
AcDbLine
 10
31.71259842519684
 20
-32.97244094488189
 30
0.0
 11
31.69291338582676
 21
-32.97244094488189
 31
0.0
  0
LINE
  5
483
330
1E
100
AcDbEntity
  8
0
100
AcDbLine
 10
31.69291338582676
 20
-32.97244094488189
 30
0.0
 11
31.67322834645668
 21
-32.97244094488189
 31
0.0
  0
LINE
  5
484
330
1E
100
AcDbEntity
  8
0
100
AcDbLine
 10
31.67322834645668
 20
-32.97244094488189
 30
0.0
 11
31.65354330708661
 21
-32.97244094488189
 31
0.0
  0
LINE
  5
485
330
1E
100
AcDbEntity
  8
0
100
AcDbLine
 10
31.65354330708661
 20
-32.97244094488189
 30
0.0
 11
31.65354330708661
 21
-32.97244094488189
 31
0.0
  0
LINE
  5
486
330
1E
100
AcDbEntity
  8
0
100
AcDbLine
 10
31.65354330708661
 20
-32.97244094488189
 30
0.0
 11
31.65354330708661
 21
-32.97244094488189
 31
0.0
  0
LINE
  5
487
330
1E
100
AcDbEntity
  8
0
100
AcDbLine
 10
31.73228346456692
 20
-32.97244094488189
 30
0.0
 11
31.73228346456692
 21
-32.91338582677166
 31
0.0
  0
LINE
  5
488
330
1E
100
AcDbEntity
  8
0
100
AcDbLine
 10
31.73228346456692
 20
-32.91338582677166
 30
0.0
 11
31.71259842519684
 21
-32.91338582677166
 31
0.0
  0
LINE
  5
489
330
1E
100
AcDbEntity
  8
0
100
AcDbLine
 10
31.71259842519684
 20
-32.91338582677166
 30
0.0
 11
31.71259842519684
 21
-32.95275590551181
 31
0.0
  0
LINE
  5
48A
330
1E
100
AcDbEntity
  8
0
100
AcDbLine
 10
31.71259842519684
 20
-32.95275590551181
 30
0.0
 11
31.73228346456692
 21
-32.97244094488189
 31
0.0
  0
LINE
  5
48B
330
1E
100
AcDbEntity
  8
0
100
AcDbLine
 10
31.65354330708661
 20
-32.89370078740157
 30
0.0
 11
31.65354330708661
 21
-32.8740157480315
 31
0.0
  0
LINE
  5
48C
330
1E
100
AcDbEntity
  8
0
100
AcDbLine
 10
31.65354330708661
 20
-32.81496062992126
 30
0.0
 11
31.65354330708661
 21
-32.71653543307087
 31
0.0
  0
LINE
  5
48D
330
1E
100
AcDbEntity
  8
0
100
AcDbLine
 10
31.65354330708661
 20
-32.71653543307087
 30
0.0
 11
31.65354330708661
 21
-32.81496062992126
 31
0.0
  0
LINE
  5
48E
330
1E
100
AcDbEntity
  8
0
100
AcDbLine
 10
31.65354330708661
 20
-32.8740157480315
 30
0.0
 11
31.65354330708661
 21
-32.89370078740157
 31
0.0
  0
LINE
  5
48F
330
1E
100
AcDbEntity
  8
0
100
AcDbLine
 10
31.3779527559055
 20
-32.69685039370079
 30
0.0
 11
31.3779527559055
 21
-32.69685039370079
 31
0.0
  0
LINE
  5
490
330
1E
100
AcDbEntity
  8
0
100
AcDbLine
 10
31.3779527559055
 20
-32.69685039370079
 30
0.0
 11
31.3779527559055
 21
-32.69685039370079
 31
0.0
  0
LINE
  5
491
330
1E
100
AcDbEntity
  8
0
100
AcDbLine
 10
31.3779527559055
 20
-32.69685039370079
 30
0.0
 11
31.3779527559055
 21
-32.69685039370079
 31
0.0
  0
LINE
  5
492
330
1E
100
AcDbEntity
  8
0
100
AcDbLine
 10
31.29921259842518
 20
-32.65748031496063
 30
0.0
 11
31.29921259842518
 21
-32.69685039370079
 31
0.0
  0
LINE
  5
493
330
1E
100
AcDbEntity
  8
0
100
AcDbLine
 10
31.29921259842518
 20
-32.69685039370079
 30
0.0
 11
31.29921259842518
 21
-32.69685039370079
 31
0.0
  0
LINE
  5
494
330
1E
100
AcDbEntity
  8
0
100
AcDbLine
 10
31.29921259842518
 20
-32.69685039370079
 30
0.0
 11
31.29921259842518
 21
-32.65748031496063
 31
0.0
  0
LINE
  5
495
330
1E
100
AcDbEntity
  8
0
100
AcDbLine
 10
31.39763779527558
 20
-32.71653543307087
 30
0.0
 11
31.29921259842518
 21
-32.71653543307087
 31
0.0
  0
LINE
  5
496
330
1E
100
AcDbEntity
  8
0
100
AcDbLine
 10
31.27952755905511
 20
-32.71653543307087
 30
0.0
 11
31.27952755905511
 21
-32.65748031496063
 31
0.0
  0
LINE
  5
497
330
1E
100
AcDbEntity
  8
0
100
AcDbLine
 10
31.39763779527558
 20
-32.69685039370079
 30
0.0
 11
31.39763779527558
 21
-32.71653543307087
 31
0.0
  0
LINE
  5
498
330
1E
100
AcDbEntity
  8
0
100
AcDbLine
 10
31.22047244094487
 20
-31.87007874015749
 30
0.0
 11
31.22047244094487
 21
-31.85039370078741
 31
0.0
  0
LINE
  5
499
330
1E
100
AcDbEntity
  8
0
100
AcDbLine
 10
31.63385826771653
 20
-32.95275590551181
 30
0.0
 11
31.65354330708661
 21
-32.95275590551181
 31
0.0
  0
LINE
  5
49A
330
1E
100
AcDbEntity
  8
0
100
AcDbLine
 10
31.65354330708661
 20
-32.95275590551181
 30
0.0
 11
30.92519685039369
 21
-32.73622047244095
 31
0.0
  0
LINE
  5
49B
330
1E
100
AcDbEntity
  8
0
100
AcDbLine
 10
30.90551181102361
 20
-32.75590551181103
 30
0.0
 11
31.63385826771653
 21
-32.95275590551181
 31
0.0
  0
LINE
  5
49C
330
1E
100
AcDbEntity
  8
0
100
AcDbLine
 10
31.65354330708661
 20
-32.99212598425198
 30
0.0
 11
30.92519685039369
 21
-32.99212598425198
 31
0.0
  0
LINE
  5
49D
330
1E
100
AcDbEntity
  8
0
100
AcDbLine
 10
31.65354330708661
 20
-32.99212598425198
 30
0.0
 11
31.65354330708661
 21
-32.97244094488189
 31
0.0
  0
LINE
  5
49E
330
1E
100
AcDbEntity
  8
0
100
AcDbLine
 10
31.65354330708661
 20
-32.97244094488189
 30
0.0
 11
30.92519685039369
 21
-32.77559055118111
 31
0.0
  0
LINE
  5
49F
330
1E
100
AcDbEntity
  8
0
100
AcDbLine
 10
30.92519685039369
 20
-32.77559055118111
 30
0.0
 11
30.92519685039369
 21
-32.99212598425198
 31
0.0
  0
LINE
  5
4A0
330
1E
100
AcDbEntity
  8
0
100
AcDbLine
 10
30.92519685039369
 20
-33.01181102362205
 30
0.0
 11
31.65354330708661
 21
-33.01181102362205
 31
0.0
  0
LINE
  5
4A1
330
1E
100
AcDbEntity
  8
0
100
AcDbLine
 10
31.65354330708661
 20
-33.01181102362205
 30
0.0
 11
31.65354330708661
 21
-32.99212598425198
 31
0.0
  0
LINE
  5
4A2
330
1E
100
AcDbEntity
  8
0
100
AcDbLine
 10
30.92519685039369
 20
-32.99212598425198
 30
0.0
 11
30.92519685039369
 21
-33.01181102362205
 31
0.0
  0
LINE
  5
4A3
330
1E
100
AcDbEntity
  8
0
100
AcDbLine
 10
31.55511811023621
 20
-33.22834645669292
 30
0.0
 11
31.003937007874
 21
-33.22834645669292
 31
0.0
  0
LINE
  5
4A4
330
1E
100
AcDbEntity
  8
0
100
AcDbLine
 10
31.65354330708661
 20
-33.11023622047244
 30
0.0
 11
31.65354330708661
 21
-33.01181102362205
 31
0.0
  0
LINE
  5
4A5
330
1E
100
AcDbEntity
  8
0
100
AcDbLine
 10
30.92519685039369
 20
-33.01181102362205
 30
0.0
 11
30.92519685039369
 21
-33.11023622047244
 31
0.0
  0
LWPOLYLINE
  5
4A6
330
1E
100
AcDbEntity
  8
0
100
AcDbPolyline
 90
        5
 70
     0
 43
0.0
 10
30.92519685039369
 20
-33.11023622047244
 10
30.92519685039369
 20
-33.14960629921261
 10
30.94488188976377
 20
-33.16929133858268
 10
30.96456692913385
 20
-33.18897637795276
 10
31.003937007874
 20
-33.18897637795276
  0
LINE
  5
4AD
330
1E
100
AcDbEntity
  8
0
100
AcDbLine
 10
31.003937007874
 20
-33.18897637795276
 30
0.0
 11
31.55511811023621
 21
-33.18897637795276
 31
0.0
  0
LWPOLYLINE
  5
4AE
330
1E
100
AcDbEntity
  8
0
100
AcDbPolyline
 90
        6
 70
     0
 43
0.0
 10
31.55511811023621
 20
-33.18897637795276
 10
31.59448818897637
 20
-33.18897637795276
 10
31.61417322834645
 20
-33.18897637795276
 10
31.63385826771653
 20
-33.16929133858268
 10
31.63385826771653
 20
-33.12992125984252
 10
31.65354330708661
 20
-33.11023622047244
  0
LINE
  5
4B6
330
1E
100
AcDbEntity
  8
0
100
AcDbLine
 10
31.55511811023621
 20
-33.20866141732283
 30
0.0
 11
31.003937007874
 21
-33.20866141732283
 31
0.0
  0
LINE
  5
4B7
330
1E
100
AcDbEntity
  8
0
100
AcDbLine
 10
31.67322834645668
 20
-32.93307086614174
 30
0.0
 11
31.67322834645668
 21
-32.91338582677166
 31
0.0
  0
LINE
  5
4B8
330
1E
100
AcDbEntity
  8
0
100
AcDbLine
 10
31.67322834645668
 20
-32.91338582677166
 30
0.0
 11
30.92519685039369
 21
-32.69685039370079
 31
0.0
  0
LWPOLYLINE
  5
4B9
330
1E
100
AcDbEntity
  8
0
100
AcDbPolyline
 90
        3
 70
     0
 43
0.0
 10
30.92519685039369
 20
-32.69685039370079
 10
30.86614173228345
 20
-32.65748031496063
 10
30.84645669291337
 20
-32.5984251968504
  0
LINE
  5
4BE
330
1E
100
AcDbEntity
  8
0
100
AcDbLine
 10
30.84645669291337
 20
-32.5984251968504
 30
0.0
 11
30.84645669291337
 21
-32.55905511811024
 31
0.0
  0
LINE
  5
4BF
330
1E
100
AcDbEntity
  8
0
100
AcDbLine
 10
30.84645669291337
 20
-32.55905511811024
 30
0.0
 11
30.82677165354329
 21
-32.55905511811024
 31
0.0
  0
LINE
  5
4C0
330
1E
100
AcDbEntity
  8
0
100
AcDbLine
 10
30.82677165354329
 20
-32.55905511811024
 30
0.0
 11
30.82677165354329
 21
-32.5984251968504
 31
0.0
  0
LWPOLYLINE
  5
4C1
330
1E
100
AcDbEntity
  8
0
100
AcDbPolyline
 90
        3
 70
     0
 43
0.0
 10
30.82677165354329
 20
-32.5984251968504
 10
30.84645669291337
 20
-32.67716535433072
 10
30.92519685039369
 20
-32.71653543307087
  0
LINE
  5
4C6
330
1E
100
AcDbEntity
  8
0
100
AcDbLine
 10
30.92519685039369
 20
-32.71653543307087
 30
0.0
 11
31.65354330708661
 21
-32.93307086614174
 31
0.0
  0
LINE
  5
4C7
330
1E
100
AcDbEntity
  8
0
100
AcDbLine
 10
31.65354330708661
 20
-32.93307086614174
 30
0.0
 11
31.67322834645668
 21
-32.93307086614174
 31
0.0
  0
LWPOLYLINE
  5
4C8
330
1E
100
AcDbEntity
  8
0
100
AcDbPolyline
 90
       10
 70
     0
 43
0.0
 10
31.20078740157479
 20
-31.88976377952756
 10
31.18110236220471
 20
-31.9488188976378
 10
31.18110236220471
 20
-32.02755905511811
 10
31.22047244094487
 20
-32.08661417322835
 10
31.27952755905511
 20
-32.12598425196851
 10
31.35826771653542
 20
-32.14566929133859
 10
31.41732283464566
 20
-32.10629921259843
 10
31.47637795275589
 20
-32.06692913385827
 10
31.49606299212597
 20
-31.98818897637796
 10
31.47637795275589
 20
-31.92913385826772
  0
LWPOLYLINE
  5
4D4
330
1E
100
AcDbEntity
  8
0
100
AcDbPolyline
 90
        3
 70
     0
 43
0.0
 10
31.20078740157479
 20
-31.88976377952756
 10
31.22047244094487
 20
-31.87007874015749
 10
31.22047244094487
 20
-31.85039370078741
  0
LINE
  5
4D9
330
1E
100
AcDbEntity
  8
0
100
AcDbLine
 10
31.29921259842518
 20
-32.69685039370079
 30
0.0
 11
31.3779527559055
 21
-32.69685039370079
 31
0.0
  0
LINE
  5
4DA
330
1E
100
AcDbEntity
  8
0
100
AcDbLine
 10
31.29921259842518
 20
-32.69685039370079
 30
0.0
 11
31.27952755905511
 21
-32.71653543307087
 31
0.0
  0
LINE
  5
4DB
330
1E
100
AcDbEntity
  8
0
100
AcDbLine
 10
31.39763779527558
 20
-32.71653543307087
 30
0.0
 11
31.3779527559055
 21
-32.69685039370079
 31
0.0
  0
LWPOLYLINE
  5
4DC
330
1E
100
AcDbEntity
  8
0
100
AcDbPolyline
 90
        3
 70
     0
 43
0.0
 10
31.20078740157479
 20
-31.88976377952756
 10
31.22047244094487
 20
-31.87007874015749
 10
31.22047244094487
 20
-31.85039370078741
  0
LINE
  5
4E1
330
1E
100
AcDbEntity
  8
0
100
AcDbLine
 10
31.20078740157479
 20
-31.88976377952756
 30
0.0
 11
31.20078740157479
 21
-31.88976377952756
 31
0.0
  0
LWPOLYLINE
  5
4E2
330
1E
100
AcDbEntity
  8
0
100
AcDbPolyline
 90
       10
 70
     0
 43
0.0
 10
31.20078740157479
 20
-31.88976377952756
 10
31.18110236220471
 20
-31.9488188976378
 10
31.18110236220471
 20
-32.02755905511811
 10
31.22047244094487
 20
-32.08661417322835
 10
31.27952755905511
 20
-32.12598425196851
 10
31.35826771653542
 20
-32.14566929133859
 10
31.41732283464566
 20
-32.10629921259843
 10
31.47637795275589
 20
-32.06692913385827
 10
31.49606299212597
 20
-31.98818897637796
 10
31.47637795275589
 20
-31.92913385826772
  0
LWPOLYLINE
  5
4EE
330
1E
100
AcDbEntity
  8
0
100
AcDbPolyline
 90
        3
 70
     0
 43
0.0
 10
30.84645669291337
 20
-32.55905511811024
 10
30.84645669291337
 20
-32.53937007874016
 10
30.84645669291337
 20
-32.51968503937009
  0
LWPOLYLINE
  5
4F3
330
1E
100
AcDbEntity
  8
0
100
AcDbPolyline
 90
        3
 70
     0
 43
0.0
 10
30.82677165354329
 20
-32.51968503937009
 10
30.82677165354329
 20
-32.53937007874016
 10
30.82677165354329
 20
-32.55905511811024
  0
LWPOLYLINE
  5
4F8
330
1E
100
AcDbEntity
  8
0
100
AcDbPolyline
 90
        3
 70
     0
 43
0.0
 10
31.71259842519684
 20
-32.91338582677166
 10
31.69291338582676
 20
-32.91338582677166
 10
31.67322834645668
 20
-32.91338582677166
  0
LINE
  5
4FD
330
1E
100
AcDbEntity
  8
0
100
AcDbLine
 10
31.67322834645668
 20
-32.93307086614174
 30
0.0
 11
31.67322834645668
 21
-32.95275590551181
 31
0.0
  0
LINE
  5
4FE
330
1E
100
AcDbEntity
  8
0
100
AcDbLine
 10
31.67322834645668
 20
-32.95275590551181
 30
0.0
 11
31.71259842519684
 21
-32.95275590551181
 31
0.0
  0
LINE
  5
4FF
330
1E
100
AcDbEntity
  8
0
100
AcDbLine
 10
31.65354330708661
 20
-32.97244094488189
 30
0.0
 11
31.63385826771653
 21
-32.95275590551181
 31
0.0
  0
LINE
  5
500
330
1E
100
AcDbEntity
  8
0
100
AcDbLine
 10
30.90551181102361
 20
-32.75590551181103
 30
0.0
 11
30.92519685039369
 21
-32.75590551181103
 31
0.0
  0
LINE
  5
501
330
1E
100
AcDbEntity
  8
0
100
AcDbLine
 10
30.92519685039369
 20
-32.75590551181103
 30
0.0
 11
30.92519685039369
 21
-32.77559055118111
 31
0.0
  0
LINE
  5
502
330
1E
100
AcDbEntity
  8
0
100
AcDbLine
 10
30.92519685039369
 20
-32.75590551181103
 30
0.0
 11
30.90551181102361
 21
-32.75590551181103
 31
0.0
  0
LINE
  5
503
330
1E
100
AcDbEntity
  8
0
100
AcDbLine
 10
30.92519685039369
 20
-32.77559055118111
 30
0.0
 11
30.90551181102361
 21
-32.77559055118111
 31
0.0
  0
LINE
  5
504
330
1E
100
AcDbEntity
  8
0
100
AcDbLine
 10
30.92519685039369
 20
-32.99212598425198
 30
0.0
 11
30.90551181102361
 21
-32.99212598425198
 31
0.0
  0
LINE
  5
505
330
1E
100
AcDbEntity
  8
0
100
AcDbLine
 10
30.92519685039369
 20
-33.01181102362205
 30
0.0
 11
30.90551181102361
 21
-33.01181102362205
 31
0.0
  0
LINE
  5
506
330
1E
100
AcDbEntity
  8
0
100
AcDbLine
 10
30.92519685039369
 20
-33.11023622047244
 30
0.0
 11
30.90551181102361
 21
-33.11023622047244
 31
0.0
  0
LINE
  5
507
330
1E
100
AcDbEntity
  8
0
100
AcDbLine
 10
31.003937007874
 20
-33.18897637795276
 30
0.0
 11
31.003937007874
 21
-33.20866141732283
 31
0.0
  0
LINE
  5
508
330
1E
100
AcDbEntity
  8
0
100
AcDbLine
 10
31.55511811023621
 20
-33.18897637795276
 30
0.0
 11
31.55511811023621
 21
-33.20866141732283
 31
0.0
  0
LINE
  5
509
330
1E
100
AcDbEntity
  8
0
100
AcDbLine
 10
31.65354330708661
 20
-32.97244094488189
 30
0.0
 11
31.65354330708661
 21
-32.95275590551181
 31
0.0
  0
LINE
  5
50A
330
1E
100
AcDbEntity
  8
0
100
AcDbLine
 10
31.65354330708661
 20
-32.95275590551181
 30
0.0
 11
31.65354330708661
 21
-32.95275590551181
 31
0.0
  0
LWPOLYLINE
  5
50B
330
1E
100
AcDbEntity
  8
0
100
AcDbPolyline
 90
        3
 70
     0
 43
0.0
 10
31.67322834645668
 20
-32.97244094488189
 10
31.67322834645668
 20
-32.95275590551181
 10
31.65354330708661
 20
-32.95275590551181
  0
LINE
  5
510
330
1E
100
AcDbEntity
  8
0
100
AcDbLine
 10
30.86614173228345
 20
-32.51968503937009
 30
0.0
 11
30.84645669291337
 21
-32.5
 31
0.0
  0
LINE
  5
511
330
1E
100
AcDbEntity
  8
0
100
AcDbLine
 10
30.86614173228345
 20
-32.53937007874016
 30
0.0
 11
30.84645669291337
 21
-32.51968503937009
 31
0.0
  0
LINE
  5
512
330
1E
100
AcDbEntity
  8
0
100
AcDbLine
 10
30.86614173228345
 20
-32.55905511811024
 30
0.0
 11
30.84645669291337
 21
-32.55905511811024
 31
0.0
  0
LINE
  5
513
330
1E
100
AcDbEntity
  8
0
100
AcDbLine
 10
30.86614173228345
 20
-32.5984251968504
 30
0.0
 11
30.84645669291337
 21
-32.5984251968504
 31
0.0
  0
LINE
  5
514
330
1E
100
AcDbEntity
  8
0
100
AcDbLine
 10
30.92519685039369
 20
-32.67716535433072
 30
0.0
 11
30.92519685039369
 21
-32.69685039370079
 31
0.0
  0
LINE
  5
515
330
1E
100
AcDbEntity
  8
0
100
AcDbLine
 10
31.67322834645668
 20
-32.89370078740157
 30
0.0
 11
31.67322834645668
 21
-32.91338582677166
 31
0.0
  0
LINE
  5
516
330
1E
100
AcDbEntity
  8
0
100
AcDbLine
 10
31.69291338582676
 20
-32.91338582677166
 30
0.0
 11
31.71259842519684
 21
-32.91338582677166
 31
0.0
  0
LINE
  5
517
330
1E
100
AcDbEntity
  8
0
100
AcDbLine
 10
31.73228346456692
 20
-32.91338582677166
 30
0.0
 11
31.71259842519684
 21
-32.89370078740157
 31
0.0
  0
LINE
  5
518
330
1E
100
AcDbEntity
  8
0
100
AcDbLine
 10
30.80708661417322
 20
-32.5
 30
0.0
 11
30.78740157480314
 21
-32.51968503937009
 31
0.0
  0
LWPOLYLINE
  5
519
330
1E
100
AcDbEntity
  8
0
100
AcDbPolyline
 90
        3
 70
     0
 43
0.0
 10
30.82677165354329
 20
-32.51968503937009
 10
30.80708661417322
 20
-32.51968503937009
 10
30.80708661417322
 20
-32.53937007874016
  0
LINE
  5
51E
330
1E
100
AcDbEntity
  8
0
100
AcDbLine
 10
30.82677165354329
 20
-32.55905511811024
 30
0.0
 11
30.80708661417322
 21
-32.55905511811024
 31
0.0
  0
LINE
  5
51F
330
1E
100
AcDbEntity
  8
0
100
AcDbLine
 10
30.82677165354329
 20
-32.5984251968504
 30
0.0
 11
30.80708661417322
 21
-32.5984251968504
 31
0.0
  0
LINE
  5
520
330
1E
100
AcDbEntity
  8
0
100
AcDbLine
 10
30.92519685039369
 20
-32.71653543307087
 30
0.0
 11
30.92519685039369
 21
-32.73622047244095
 31
0.0
  0
LINE
  5
521
330
1E
100
AcDbEntity
  8
0
100
AcDbLine
 10
31.65354330708661
 20
-32.93307086614174
 30
0.0
 11
31.65354330708661
 21
-32.95275590551181
 31
0.0
  0
LINE
  5
522
330
1E
100
AcDbEntity
  8
0
100
AcDbLine
 10
31.67322834645668
 20
-32.93307086614174
 30
0.0
 11
31.65354330708661
 21
-32.95275590551181
 31
0.0
  0
LINE
  5
523
330
1E
100
AcDbEntity
  8
0
100
AcDbLine
 10
31.67322834645668
 20
-32.95275590551181
 30
0.0
 11
31.65354330708661
 21
-32.95275590551181
 31
0.0
  0
LINE
  5
524
330
1E
100
AcDbEntity
  8
0
100
AcDbLine
 10
31.67322834645668
 20
-32.95275590551181
 30
0.0
 11
31.67322834645668
 21
-32.97244094488189
 31
0.0
  0
LINE
  5
525
330
1E
100
AcDbEntity
  8
0
100
AcDbLine
 10
31.71259842519684
 20
-32.95275590551181
 30
0.0
 11
31.69291338582676
 21
-32.97244094488189
 31
0.0
  0
LINE
  5
526
330
1E
100
AcDbEntity
  8
0
100
AcDbLine
 10
31.71259842519684
 20
-32.97244094488189
 30
0.0
 11
31.73228346456692
 21
-32.97244094488189
 31
0.0
  0
LWPOLYLINE
  5
527
330
1E
100
AcDbEntity
  8
0
100
AcDbPolyline
 90
        3
 70
     0
 43
0.0
 10
45.92519685039369
 20
-31.79133858267717
 10
45.92519685039369
 20
-31.81102362204725
 10
45.92519685039369
 20
-31.83070866141733
  0
LINE
  5
52C
330
1E
100
AcDbEntity
  8
0
100
AcDbLine
 10
45.92519685039369
 20
-31.83070866141733
 30
0.0
 11
45.92519685039369
 21
-31.83070866141733
 31
0.0
  0
LWPOLYLINE
  5
52D
330
1E
100
AcDbEntity
  8
0
100
AcDbPolyline
 90
        3
 70
     0
 43
0.0
 10
45.92519685039369
 20
-31.79133858267717
 10
45.92519685039369
 20
-31.81102362204725
 10
45.92519685039369
 20
-31.83070866141733
  0
LINE
  5
532
330
1E
100
AcDbEntity
  8
0
100
AcDbLine
 10
45.92519685039369
 20
-32.61811023622048
 30
0.0
 11
45.92519685039369
 21
-31.83070866141733
 31
0.0
  0
LINE
  5
533
330
1E
100
AcDbEntity
  8
0
100
AcDbLine
 10
45.92519685039369
 20
-32.67716535433072
 30
0.0
 11
45.92519685039369
 21
-32.67716535433072
 31
0.0
  0
LINE
  5
534
330
1E
100
AcDbEntity
  8
0
100
AcDbLine
 10
45.92519685039369
 20
-32.67716535433072
 30
0.0
 11
45.92519685039369
 21
-32.67716535433072
 31
0.0
  0
LINE
  5
535
330
1E
100
AcDbEntity
  8
0
100
AcDbLine
 10
45.92519685039369
 20
-31.83070866141733
 30
0.0
 11
45.92519685039369
 21
-32.61811023622048
 31
0.0
  0
LINE
  5
536
330
1E
100
AcDbEntity
  8
0
100
AcDbLine
 10
45.92519685039369
 20
-32.67716535433072
 30
0.0
 11
45.92519685039369
 21
-32.67716535433072
 31
0.0
  0
LWPOLYLINE
  5
537
330
1E
100
AcDbEntity
  8
0
100
AcDbPolyline
 90
        3
 70
     0
 43
0.0
 10
45.21653543307085
 20
-32.89370078740157
 10
45.19685039370077
 20
-32.89370078740157
 10
45.17716535433069
 20
-32.91338582677166
  0
LINE
  5
53C
330
1E
100
AcDbEntity
  8
0
100
AcDbLine
 10
45.94488188976376
 20
-32.67716535433072
 30
0.0
 11
45.21653543307085
 21
-32.89370078740157
 31
0.0
  0
LINE
  5
53D
330
1E
100
AcDbEntity
  8
0
100
AcDbLine
 10
45.94488188976376
 20
-32.67716535433072
 30
0.0
 11
45.94488188976376
 21
-32.67716535433072
 31
0.0
  0
LINE
  5
53E
330
1E
100
AcDbEntity
  8
0
100
AcDbLine
 10
45.92519685039369
 20
-32.67716535433072
 30
0.0
 11
45.94488188976376
 21
-32.67716535433072
 31
0.0
  0
LINE
  5
53F
330
1E
100
AcDbEntity
  8
0
100
AcDbLine
 10
45.21653543307085
 20
-32.89370078740157
 30
0.0
 11
45.92519685039369
 21
-32.67716535433072
 31
0.0
  0
LINE
  5
540
330
1E
100
AcDbEntity
  8
0
100
AcDbLine
 10
45.21653543307085
 20
-32.89370078740157
 30
0.0
 11
45.21653543307085
 21
-32.89370078740157
 31
0.0
  0
LINE
  5
541
330
1E
100
AcDbEntity
  8
0
100
AcDbLine
 10
45.15748031496062
 20
-32.89370078740157
 30
0.0
 11
45.21653543307085
 21
-32.89370078740157
 31
0.0
  0
LINE
  5
542
330
1E
100
AcDbEntity
  8
0
100
AcDbLine
 10
45.17716535433069
 20
-32.91338582677166
 30
0.0
 11
45.15748031496062
 21
-32.89370078740157
 31
0.0
  0
LINE
  5
543
330
1E
100
AcDbEntity
  8
0
100
AcDbLine
 10
46.02362204724408
 20
-32.5984251968504
 30
0.0
 11
46.003937007874
 21
-32.5984251968504
 31
0.0
  0
LWPOLYLINE
  5
544
330
1E
100
AcDbEntity
  8
0
100
AcDbPolyline
 90
        3
 70
     0
 43
0.0
 10
46.003937007874
 20
-32.5984251968504
 10
45.98425196850392
 20
-32.63779527559055
 10
45.94488188976376
 20
-32.67716535433072
  0
LWPOLYLINE
  5
549
330
1E
100
AcDbEntity
  8
0
100
AcDbPolyline
 90
        3
 70
     0
 43
0.0
 10
46.02362204724408
 20
-32.5984251968504
 10
46.003937007874
 20
-32.65748031496063
 10
45.94488188976376
 20
-32.67716535433072
  0
LINE
  5
54E
330
1E
100
AcDbEntity
  8
0
100
AcDbLine
 10
46.02362204724408
 20
-32.53937007874016
 30
0.0
 11
46.02362204724408
 21
-32.55905511811024
 31
0.0
  0
LINE
  5
54F
330
1E
100
AcDbEntity
  8
0
100
AcDbLine
 10
46.003937007874
 20
-32.51968503937009
 30
0.0
 11
46.02362204724408
 21
-32.53937007874016
 31
0.0
  0
LINE
  5
550
330
1E
100
AcDbEntity
  8
0
100
AcDbLine
 10
46.003937007874
 20
-32.5984251968504
 30
0.0
 11
46.003937007874
 21
-32.51968503937009
 31
0.0
  0
LINE
  5
551
330
1E
100
AcDbEntity
  8
0
100
AcDbLine
 10
46.02362204724408
 20
-32.55905511811024
 30
0.0
 11
46.02362204724408
 21
-32.5984251968504
 31
0.0
  0
LINE
  5
552
330
1E
100
AcDbEntity
  8
0
100
AcDbLine
 10
46.06299212598425
 20
-32.51968503937009
 30
0.0
 11
46.04330708661417
 21
-32.51968503937009
 31
0.0
  0
LINE
  5
553
330
1E
100
AcDbEntity
  8
0
100
AcDbLine
 10
46.06299212598425
 20
-32.5
 30
0.0
 11
46.06299212598425
 21
-32.51968503937009
 31
0.0
  0
LINE
  5
554
330
1E
100
AcDbEntity
  8
0
100
AcDbLine
 10
46.02362204724408
 20
-32.5
 30
0.0
 11
46.06299212598425
 21
-32.5
 31
0.0
  0
LINE
  5
555
330
1E
100
AcDbEntity
  8
0
100
AcDbLine
 10
46.04330708661417
 20
-32.51968503937009
 30
0.0
 11
46.02362204724408
 21
-32.5
 31
0.0
  0
LINE
  5
556
330
1E
100
AcDbEntity
  8
0
100
AcDbLine
 10
46.06299212598425
 20
-32.5984251968504
 30
0.0
 11
46.08267716535432
 21
-32.5984251968504
 31
0.0
  0
LINE
  5
557
330
1E
100
AcDbEntity
  8
0
100
AcDbLine
 10
46.08267716535432
 20
-32.5984251968504
 30
0.0
 11
46.08267716535432
 21
-32.51968503937009
 31
0.0
  0
LINE
  5
558
330
1E
100
AcDbEntity
  8
0
100
AcDbLine
 10
46.06299212598425
 20
-32.53937007874016
 30
0.0
 11
46.08267716535432
 21
-32.51968503937009
 31
0.0
  0
LINE
  5
559
330
1E
100
AcDbEntity
  8
0
100
AcDbLine
 10
46.06299212598425
 20
-32.55905511811024
 30
0.0
 11
46.06299212598425
 21
-32.53937007874016
 31
0.0
  0
LINE
  5
55A
330
1E
100
AcDbEntity
  8
0
100
AcDbLine
 10
46.06299212598425
 20
-32.5984251968504
 30
0.0
 11
46.06299212598425
 21
-32.55905511811024
 31
0.0
  0
LINE
  5
55B
330
1E
100
AcDbEntity
  8
0
100
AcDbLine
 10
45.96456692913385
 20
-32.73622047244095
 30
0.0
 11
45.96456692913385
 21
-32.75590551181103
 31
0.0
  0
LINE
  5
55C
330
1E
100
AcDbEntity
  8
0
100
AcDbLine
 10
45.96456692913385
 20
-32.75590551181103
 30
0.0
 11
45.96456692913385
 21
-32.75590551181103
 31
0.0
  0
LWPOLYLINE
  5
55D
330
1E
100
AcDbEntity
  8
0
100
AcDbPolyline
 90
        3
 70
     0
 43
0.0
 10
46.08267716535432
 20
-32.5984251968504
 10
46.06299212598425
 20
-32.69685039370079
 10
45.96456692913385
 20
-32.75590551181103
  0
LWPOLYLINE
  5
562
330
1E
100
AcDbEntity
  8
0
100
AcDbPolyline
 90
        3
 70
     0
 43
0.0
 10
45.96456692913385
 20
-32.73622047244095
 10
46.04330708661417
 20
-32.67716535433072
 10
46.06299212598425
 20
-32.5984251968504
  0
LINE
  5
567
330
1E
100
AcDbEntity
  8
0
100
AcDbLine
 10
45.96456692913385
 20
-33.11023622047244
 30
0.0
 11
45.96456692913385
 21
-33.11023622047244
 31
0.0
  0
LINE
  5
568
330
1E
100
AcDbEntity
  8
0
100
AcDbLine
 10
45.96456692913385
 20
-32.75590551181103
 30
0.0
 11
45.96456692913385
 21
-33.11023622047244
 31
0.0
  0
LINE
  5
569
330
1E
100
AcDbEntity
  8
0
100
AcDbLine
 10
45.96456692913385
 20
-32.77559055118111
 30
0.0
 11
45.96456692913385
 21
-32.75590551181103
 31
0.0
  0
LINE
  5
56A
330
1E
100
AcDbEntity
  8
0
100
AcDbLine
 10
45.96456692913385
 20
-32.99212598425198
 30
0.0
 11
45.96456692913385
 21
-32.77559055118111
 31
0.0
  0
LINE
  5
56B
330
1E
100
AcDbEntity
  8
0
100
AcDbLine
 10
45.96456692913385
 20
-33.01181102362205
 30
0.0
 11
45.96456692913385
 21
-32.99212598425198
 31
0.0
  0
LINE
  5
56C
330
1E
100
AcDbEntity
  8
0
100
AcDbLine
 10
45.96456692913385
 20
-33.11023622047244
 30
0.0
 11
45.96456692913385
 21
-33.01181102362205
 31
0.0
  0
LINE
  5
56D
330
1E
100
AcDbEntity
  8
0
100
AcDbLine
 10
45.86614173228346
 20
-33.20866141732283
 30
0.0
 11
45.86614173228346
 21
-33.22834645669292
 31
0.0
  0
LWPOLYLINE
  5
56E
330
1E
100
AcDbEntity
  8
0
100
AcDbPolyline
 90
        5
 70
     0
 43
0.0
 10
45.96456692913385
 20
-33.11023622047244
 10
45.96456692913385
 20
-33.14960629921261
 10
45.94488188976376
 20
-33.18897637795276
 10
45.90551181102362
 20
-33.20866141732283
 10
45.86614173228346
 20
-33.22834645669292
  0
LWPOLYLINE
  5
575
330
1E
100
AcDbEntity
  8
0
100
AcDbPolyline
 90
        6
 70
     0
 43
0.0
 10
45.86614173228346
 20
-33.20866141732283
 10
45.88582677165354
 20
-33.20866141732283
 10
45.90551181102362
 20
-33.20866141732283
 10
45.94488188976376
 20
-33.18897637795276
 10
45.96456692913385
 20
-33.14960629921261
 10
45.96456692913385
 20
-33.11023622047244
  0
LINE
  5
57D
330
1E
100
AcDbEntity
  8
0
100
AcDbLine
 10
45.21653543307085
 20
-33.11023622047244
 30
0.0
 11
45.21653543307085
 21
-33.11023622047244
 31
0.0
  0
LWPOLYLINE
  5
57E
330
1E
100
AcDbEntity
  8
0
100
AcDbPolyline
 90
        5
 70
     0
 43
0.0
 10
45.31496062992125
 20
-33.22834645669292
 10
45.2755905511811
 20
-33.20866141732283
 10
45.25590551181101
 20
-33.18897637795276
 10
45.21653543307085
 20
-33.14960629921261
 10
45.21653543307085
 20
-33.11023622047244
  0
LINE
  5
585
330
1E
100
AcDbEntity
  8
0
100
AcDbLine
 10
45.31496062992125
 20
-33.22834645669292
 30
0.0
 11
45.31496062992125
 21
-33.20866141732283
 31
0.0
  0
LWPOLYLINE
  5
586
330
1E
100
AcDbEntity
  8
0
100
AcDbPolyline
 90
        6
 70
     0
 43
0.0
 10
45.21653543307085
 20
-33.11023622047244
 10
45.21653543307085
 20
-33.14960629921261
 10
45.23622047244094
 20
-33.16929133858268
 10
45.25590551181101
 20
-33.18897637795276
 10
45.29527559055117
 20
-33.20866141732283
 10
45.31496062992125
 20
-33.20866141732283
  0
LINE
  5
58E
330
1E
100
AcDbEntity
  8
0
100
AcDbLine
 10
45.21653543307085
 20
-33.03149606299213
 30
0.0
 11
45.21653543307085
 21
-33.03149606299213
 31
0.0
  0
LINE
  5
58F
330
1E
100
AcDbEntity
  8
0
100
AcDbLine
 10
45.21653543307085
 20
-33.11023622047244
 30
0.0
 11
45.21653543307085
 21
-33.03149606299213
 31
0.0
  0
LINE
  5
590
330
1E
100
AcDbEntity
  8
0
100
AcDbLine
 10
45.21653543307085
 20
-33.03149606299213
 30
0.0
 11
45.21653543307085
 21
-33.11023622047244
 31
0.0
  0
LINE
  5
591
330
1E
100
AcDbEntity
  8
0
100
AcDbLine
 10
45.21653543307085
 20
-32.99212598425198
 30
0.0
 11
45.21653543307085
 21
-32.99212598425198
 31
0.0
  0
LINE
  5
592
330
1E
100
AcDbEntity
  8
0
100
AcDbLine
 10
45.21653543307085
 20
-33.03149606299213
 30
0.0
 11
45.21653543307085
 21
-32.99212598425198
 31
0.0
  0
LINE
  5
593
330
1E
100
AcDbEntity
  8
0
100
AcDbLine
 10
45.21653543307085
 20
-33.01181102362205
 30
0.0
 11
45.21653543307085
 21
-33.03149606299213
 31
0.0
  0
LINE
  5
594
330
1E
100
AcDbEntity
  8
0
100
AcDbLine
 10
45.21653543307085
 20
-32.99212598425198
 30
0.0
 11
45.21653543307085
 21
-33.01181102362205
 31
0.0
  0
LINE
  5
595
330
1E
100
AcDbEntity
  8
0
100
AcDbLine
 10
45.21653543307085
 20
-32.97244094488189
 30
0.0
 11
45.21653543307085
 21
-32.97244094488189
 31
0.0
  0
LINE
  5
596
330
1E
100
AcDbEntity
  8
0
100
AcDbLine
 10
45.21653543307085
 20
-32.99212598425198
 30
0.0
 11
45.21653543307085
 21
-32.97244094488189
 31
0.0
  0
LINE
  5
597
330
1E
100
AcDbEntity
  8
0
100
AcDbLine
 10
45.21653543307085
 20
-32.97244094488189
 30
0.0
 11
45.21653543307085
 21
-32.99212598425198
 31
0.0
  0
LINE
  5
598
330
1E
100
AcDbEntity
  8
0
100
AcDbLine
 10
45.21653543307085
 20
-32.97244094488189
 30
0.0
 11
45.15748031496062
 21
-32.97244094488189
 31
0.0
  0
LINE
  5
599
330
1E
100
AcDbEntity
  8
0
100
AcDbLine
 10
45.23622047244094
 20
-32.97244094488189
 30
0.0
 11
45.21653543307085
 21
-32.97244094488189
 31
0.0
  0
LINE
  5
59A
330
1E
100
AcDbEntity
  8
0
100
AcDbLine
 10
45.23622047244094
 20
-32.97244094488189
 30
0.0
 11
45.21653543307085
 21
-32.97244094488189
 31
0.0
  0
LINE
  5
59B
330
1E
100
AcDbEntity
  8
0
100
AcDbLine
 10
45.19685039370077
 20
-32.97244094488189
 30
0.0
 11
45.21653543307085
 21
-32.97244094488189
 31
0.0
  0
LINE
  5
59C
330
1E
100
AcDbEntity
  8
0
100
AcDbLine
 10
45.17716535433069
 20
-32.97244094488189
 30
0.0
 11
45.19685039370077
 21
-32.97244094488189
 31
0.0
  0
LINE
  5
59D
330
1E
100
AcDbEntity
  8
0
100
AcDbLine
 10
45.15748031496062
 20
-32.97244094488189
 30
0.0
 11
45.17716535433069
 21
-32.97244094488189
 31
0.0
  0
LINE
  5
59E
330
1E
100
AcDbEntity
  8
0
100
AcDbLine
 10
45.15748031496062
 20
-32.97244094488189
 30
0.0
 11
45.15748031496062
 21
-32.91338582677166
 31
0.0
  0
LINE
  5
59F
330
1E
100
AcDbEntity
  8
0
100
AcDbLine
 10
45.15748031496062
 20
-32.95275590551181
 30
0.0
 11
45.15748031496062
 21
-32.97244094488189
 31
0.0
  0
LINE
  5
5A0
330
1E
100
AcDbEntity
  8
0
100
AcDbLine
 10
45.15748031496062
 20
-32.91338582677166
 30
0.0
 11
45.15748031496062
 21
-32.95275590551181
 31
0.0
  0
LINE
  5
5A1
330
1E
100
AcDbEntity
  8
0
100
AcDbLine
 10
45.15748031496062
 20
-32.91338582677166
 30
0.0
 11
45.15748031496062
 21
-32.91338582677166
 31
0.0
  0
LINE
  5
5A2
330
1E
100
AcDbEntity
  8
0
100
AcDbLine
 10
45.21653543307085
 20
-32.8740157480315
 30
0.0
 11
45.21653543307085
 21
-32.89370078740157
 31
0.0
  0
LINE
  5
5A3
330
1E
100
AcDbEntity
  8
0
100
AcDbLine
 10
45.21653543307085
 20
-32.71653543307087
 30
0.0
 11
45.21653543307085
 21
-32.81496062992126
 31
0.0
  0
LINE
  5
5A4
330
1E
100
AcDbEntity
  8
0
100
AcDbLine
 10
45.21653543307085
 20
-32.89370078740157
 30
0.0
 11
45.21653543307085
 21
-32.8740157480315
 31
0.0
  0
LINE
  5
5A5
330
1E
100
AcDbEntity
  8
0
100
AcDbLine
 10
45.21653543307085
 20
-32.81496062992126
 30
0.0
 11
45.21653543307085
 21
-32.71653543307087
 31
0.0
  0
LINE
  5
5A6
330
1E
100
AcDbEntity
  8
0
100
AcDbLine
 10
45.49212598425196
 20
-32.69685039370079
 30
0.0
 11
45.49212598425196
 21
-32.69685039370079
 31
0.0
  0
LINE
  5
5A7
330
1E
100
AcDbEntity
  8
0
100
AcDbLine
 10
45.49212598425196
 20
-32.69685039370079
 30
0.0
 11
45.49212598425196
 21
-32.69685039370079
 31
0.0
  0
LINE
  5
5A8
330
1E
100
AcDbEntity
  8
0
100
AcDbLine
 10
45.49212598425196
 20
-32.69685039370079
 30
0.0
 11
45.49212598425196
 21
-32.69685039370079
 31
0.0
  0
LINE
  5
5A9
330
1E
100
AcDbEntity
  8
0
100
AcDbLine
 10
45.59055118110236
 20
-32.69685039370079
 30
0.0
 11
45.59055118110236
 21
-32.65748031496063
 31
0.0
  0
LINE
  5
5AA
330
1E
100
AcDbEntity
  8
0
100
AcDbLine
 10
45.59055118110236
 20
-32.69685039370079
 30
0.0
 11
45.59055118110236
 21
-32.69685039370079
 31
0.0
  0
LINE
  5
5AB
330
1E
100
AcDbEntity
  8
0
100
AcDbLine
 10
45.59055118110236
 20
-32.65748031496063
 30
0.0
 11
45.59055118110236
 21
-32.69685039370079
 31
0.0
  0
LINE
  5
5AC
330
1E
100
AcDbEntity
  8
0
100
AcDbLine
 10
45.49212598425196
 20
-32.71653543307087
 30
0.0
 11
45.59055118110236
 21
-32.71653543307087
 31
0.0
  0
LINE
  5
5AD
330
1E
100
AcDbEntity
  8
0
100
AcDbLine
 10
45.49212598425196
 20
-32.69685039370079
 30
0.0
 11
45.49212598425196
 21
-32.71653543307087
 31
0.0
  0
LINE
  5
5AE
330
1E
100
AcDbEntity
  8
0
100
AcDbLine
 10
45.59055118110236
 20
-32.71653543307087
 30
0.0
 11
45.59055118110236
 21
-32.65748031496063
 31
0.0
  0
LINE
  5
5AF
330
1E
100
AcDbEntity
  8
0
100
AcDbLine
 10
45.64960629921259
 20
-31.87007874015749
 30
0.0
 11
45.64960629921259
 21
-31.85039370078741
 31
0.0
  0
LINE
  5
5B0
330
1E
100
AcDbEntity
  8
0
100
AcDbLine
 10
45.23622047244094
 20
-32.95275590551181
 30
0.0
 11
45.23622047244094
 21
-32.95275590551181
 31
0.0
  0
LINE
  5
5B1
330
1E
100
AcDbEntity
  8
0
100
AcDbLine
 10
45.96456692913385
 20
-32.75590551181103
 30
0.0
 11
45.23622047244094
 21
-32.95275590551181
 31
0.0
  0
LINE
  5
5B2
330
1E
100
AcDbEntity
  8
0
100
AcDbLine
 10
45.23622047244094
 20
-32.95275590551181
 30
0.0
 11
45.96456692913385
 21
-32.73622047244095
 31
0.0
  0
LINE
  5
5B3
330
1E
100
AcDbEntity
  8
0
100
AcDbLine
 10
45.23622047244094
 20
-32.99212598425198
 30
0.0
 11
45.94488188976376
 21
-32.99212598425198
 31
0.0
  0
LINE
  5
5B4
330
1E
100
AcDbEntity
  8
0
100
AcDbLine
 10
45.94488188976376
 20
-32.77559055118111
 30
0.0
 11
45.94488188976376
 21
-32.99212598425198
 31
0.0
  0
LINE
  5
5B5
330
1E
100
AcDbEntity
  8
0
100
AcDbLine
 10
45.23622047244094
 20
-32.97244094488189
 30
0.0
 11
45.94488188976376
 21
-32.77559055118111
 31
0.0
  0
LINE
  5
5B6
330
1E
100
AcDbEntity
  8
0
100
AcDbLine
 10
45.21653543307085
 20
-32.97244094488189
 30
0.0
 11
45.23622047244094
 21
-32.97244094488189
 31
0.0
  0
LINE
  5
5B7
330
1E
100
AcDbEntity
  8
0
100
AcDbLine
 10
45.23622047244094
 20
-32.99212598425198
 30
0.0
 11
45.23622047244094
 21
-32.97244094488189
 31
0.0
  0
LINE
  5
5B8
330
1E
100
AcDbEntity
  8
0
100
AcDbLine
 10
45.94488188976376
 20
-33.01181102362205
 30
0.0
 11
45.23622047244094
 21
-33.01181102362205
 31
0.0
  0
LINE
  5
5B9
330
1E
100
AcDbEntity
  8
0
100
AcDbLine
 10
45.94488188976376
 20
-32.99212598425198
 30
0.0
 11
45.94488188976376
 21
-33.01181102362205
 31
0.0
  0
LINE
  5
5BA
330
1E
100
AcDbEntity
  8
0
100
AcDbLine
 10
45.23622047244094
 20
-33.01181102362205
 30
0.0
 11
45.23622047244094
 21
-32.99212598425198
 31
0.0
  0
LINE
  5
5BB
330
1E
100
AcDbEntity
  8
0
100
AcDbLine
 10
45.31496062992125
 20
-33.22834645669292
 30
0.0
 11
45.86614173228346
 21
-33.22834645669292
 31
0.0
  0
LINE
  5
5BC
330
1E
100
AcDbEntity
  8
0
100
AcDbLine
 10
45.23622047244094
 20
-33.11023622047244
 30
0.0
 11
45.23622047244094
 21
-33.01181102362205
 31
0.0
  0
LWPOLYLINE
  5
5BD
330
1E
100
AcDbEntity
  8
0
100
AcDbPolyline
 90
        6
 70
     0
 43
0.0
 10
45.31496062992125
 20
-33.18897637795276
 10
45.29527559055117
 20
-33.18897637795276
 10
45.2755905511811
 20
-33.18897637795276
 10
45.25590551181101
 20
-33.16929133858268
 10
45.23622047244094
 20
-33.12992125984252
 10
45.23622047244094
 20
-33.11023622047244
  0
LINE
  5
5C5
330
1E
100
AcDbEntity
  8
0
100
AcDbLine
 10
45.86614173228346
 20
-33.18897637795276
 30
0.0
 11
45.31496062992125
 21
-33.18897637795276
 31
0.0
  0
LWPOLYLINE
  5
5C6
330
1E
100
AcDbEntity
  8
0
100
AcDbPolyline
 90
        6
 70
     0
 43
0.0
 10
45.94488188976376
 20
-33.11023622047244
 10
45.94488188976376
 20
-33.14960629921261
 10
45.92519685039369
 20
-33.16929133858268
 10
45.90551181102362
 20
-33.18897637795276
 10
45.88582677165354
 20
-33.18897637795276
 10
45.86614173228346
 20
-33.18897637795276
  0
LINE
  5
5CE
330
1E
100
AcDbEntity
  8
0
100
AcDbLine
 10
45.94488188976376
 20
-33.01181102362205
 30
0.0
 11
45.94488188976376
 21
-33.11023622047244
 31
0.0
  0
LINE
  5
5CF
330
1E
100
AcDbEntity
  8
0
100
AcDbLine
 10
45.31496062992125
 20
-33.20866141732283
 30
0.0
 11
45.86614173228346
 21
-33.20866141732283
 31
0.0
  0
LINE
  5
5D0
330
1E
100
AcDbEntity
  8
0
100
AcDbLine
 10
45.21653543307085
 20
-32.93307086614174
 30
0.0
 11
45.21653543307085
 21
-32.91338582677166
 31
0.0
  0
LINE
  5
5D1
330
1E
100
AcDbEntity
  8
0
100
AcDbLine
 10
45.21653543307085
 20
-32.93307086614174
 30
0.0
 11
45.21653543307085
 21
-32.93307086614174
 31
0.0
  0
LINE
  5
5D2
330
1E
100
AcDbEntity
  8
0
100
AcDbLine
 10
45.96456692913385
 20
-32.71653543307087
 30
0.0
 11
45.21653543307085
 21
-32.93307086614174
 31
0.0
  0
LWPOLYLINE
  5
5D3
330
1E
100
AcDbEntity
  8
0
100
AcDbPolyline
 90
        3
 70
     0
 43
0.0
 10
46.06299212598425
 20
-32.5984251968504
 10
46.02362204724408
 20
-32.67716535433072
 10
45.96456692913385
 20
-32.71653543307087
  0
LINE
  5
5D8
330
1E
100
AcDbEntity
  8
0
100
AcDbLine
 10
46.06299212598425
 20
-32.55905511811024
 30
0.0
 11
46.06299212598425
 21
-32.5984251968504
 31
0.0
  0
LINE
  5
5D9
330
1E
100
AcDbEntity
  8
0
100
AcDbLine
 10
46.04330708661417
 20
-32.55905511811024
 30
0.0
 11
46.06299212598425
 21
-32.55905511811024
 31
0.0
  0
LINE
  5
5DA
330
1E
100
AcDbEntity
  8
0
100
AcDbLine
 10
46.04330708661417
 20
-32.5984251968504
 30
0.0
 11
46.04330708661417
 21
-32.55905511811024
 31
0.0
  0
LWPOLYLINE
  5
5DB
330
1E
100
AcDbEntity
  8
0
100
AcDbPolyline
 90
        3
 70
     0
 43
0.0
 10
45.94488188976376
 20
-32.69685039370079
 10
46.003937007874
 20
-32.65748031496063
 10
46.04330708661417
 20
-32.5984251968504
  0
LINE
  5
5E0
330
1E
100
AcDbEntity
  8
0
100
AcDbLine
 10
45.21653543307085
 20
-32.91338582677166
 30
0.0
 11
45.94488188976376
 21
-32.69685039370079
 31
0.0
  0
LWPOLYLINE
  5
5E1
330
1E
100
AcDbEntity
  8
0
100
AcDbPolyline
 90
        3
 70
     0
 43
0.0
 10
45.66929133858266
 20
-31.88976377952756
 10
45.66929133858266
 20
-31.87007874015749
 10
45.66929133858266
 20
-31.85039370078741
  0
LWPOLYLINE
  5
5E6
330
1E
100
AcDbEntity
  8
0
100
AcDbPolyline
 90
       10
 70
     0
 43
0.0
 10
45.66929133858266
 20
-31.88976377952756
 10
45.70866141732282
 20
-31.9488188976378
 10
45.68897637795275
 20
-32.02755905511811
 10
45.64960629921259
 20
-32.08661417322835
 10
45.59055118110236
 20
-32.12598425196851
 10
45.53149606299212
 20
-32.14566929133859
 10
45.4527559055118
 20
-32.10629921259843
 10
45.41338582677165
 20
-32.06692913385827
 10
45.37401574803149
 20
-31.98818897637796
 10
45.39370078740156
 20
-31.92913385826772
  0
LINE
  5
5F2
330
1E
100
AcDbEntity
  8
0
100
AcDbLine
 10
45.59055118110236
 20
-32.69685039370079
 30
0.0
 11
45.49212598425196
 21
-32.69685039370079
 31
0.0
  0
LINE
  5
5F3
330
1E
100
AcDbEntity
  8
0
100
AcDbLine
 10
45.49212598425196
 20
-32.71653543307087
 30
0.0
 11
45.49212598425196
 21
-32.69685039370079
 31
0.0
  0
LINE
  5
5F4
330
1E
100
AcDbEntity
  8
0
100
AcDbLine
 10
45.59055118110236
 20
-32.69685039370079
 30
0.0
 11
45.59055118110236
 21
-32.71653543307087
 31
0.0
  0
LWPOLYLINE
  5
5F5
330
1E
100
AcDbEntity
  8
0
100
AcDbPolyline
 90
        3
 70
     0
 43
0.0
 10
45.66929133858266
 20
-31.88976377952756
 10
45.66929133858266
 20
-31.87007874015749
 10
45.66929133858266
 20
-31.85039370078741
  0
LINE
  5
5FA
330
1E
100
AcDbEntity
  8
0
100
AcDbLine
 10
45.66929133858266
 20
-31.88976377952756
 30
0.0
 11
45.66929133858266
 21
-31.88976377952756
 31
0.0
  0
LWPOLYLINE
  5
5FB
330
1E
100
AcDbEntity
  8
0
100
AcDbPolyline
 90
       10
 70
     0
 43
0.0
 10
45.66929133858266
 20
-31.88976377952756
 10
45.68897637795275
 20
-31.9488188976378
 10
45.68897637795275
 20
-32.02755905511811
 10
45.64960629921259
 20
-32.08661417322835
 10
45.59055118110236
 20
-32.12598425196851
 10
45.53149606299212
 20
-32.14566929133859
 10
45.4527559055118
 20
-32.10629921259843
 10
45.41338582677165
 20
-32.06692913385827
 10
45.39370078740156
 20
-31.98818897637796
 10
45.39370078740156
 20
-31.92913385826772
  0
LWPOLYLINE
  5
607
330
1E
100
AcDbEntity
  8
0
100
AcDbPolyline
 90
        3
 70
     0
 43
0.0
 10
46.06299212598425
 20
-32.51968503937009
 10
46.06299212598425
 20
-32.53937007874016
 10
46.06299212598425
 20
-32.55905511811024
  0
LWPOLYLINE
  5
60C
330
1E
100
AcDbEntity
  8
0
100
AcDbPolyline
 90
        3
 70
     0
 43
0.0
 10
46.04330708661417
 20
-32.55905511811024
 10
46.04330708661417
 20
-32.53937007874016
 10
46.04330708661417
 20
-32.51968503937009
  0
LWPOLYLINE
  5
611
330
1E
100
AcDbEntity
  8
0
100
AcDbPolyline
 90
        3
 70
     0
 43
0.0
 10
45.19685039370077
 20
-32.95275590551181
 10
45.17716535433069
 20
-32.95275590551181
 10
45.15748031496062
 20
-32.95275590551181
  0
LWPOLYLINE
  5
616
330
1E
100
AcDbEntity
  8
0
100
AcDbPolyline
 90
        3
 70
     0
 43
0.0
 10
45.21653543307085
 20
-32.93307086614174
 10
45.19685039370077
 20
-32.93307086614174
 10
45.19685039370077
 20
-32.95275590551181
  0
LWPOLYLINE
  5
61B
330
1E
100
AcDbEntity
  8
0
100
AcDbPolyline
 90
        3
 70
     0
 43
0.0
 10
45.15748031496062
 20
-32.91338582677166
 10
45.17716535433069
 20
-32.91338582677166
 10
45.21653543307085
 20
-32.91338582677166
  0
LINE
  5
620
330
1E
100
AcDbEntity
  8
0
100
AcDbLine
 10
45.94488188976376
 20
-32.75590551181103
 30
0.0
 11
45.94488188976376
 21
-32.77559055118111
 31
0.0
  0
LINE
  5
621
330
1E
100
AcDbEntity
  8
0
100
AcDbLine
 10
45.96456692913385
 20
-32.75590551181103
 30
0.0
 11
45.94488188976376
 21
-32.75590551181103
 31
0.0
  0
LINE
  5
622
330
1E
100
AcDbEntity
  8
0
100
AcDbLine
 10
45.23622047244094
 20
-32.97244094488189
 30
0.0
 11
45.23622047244094
 21
-32.95275590551181
 31
0.0
  0
LINE
  5
623
330
1E
100
AcDbEntity
  8
0
100
AcDbLine
 10
45.94488188976376
 20
-32.75590551181103
 30
0.0
 11
45.96456692913385
 21
-32.75590551181103
 31
0.0
  0
LINE
  5
624
330
1E
100
AcDbEntity
  8
0
100
AcDbLine
 10
45.94488188976376
 20
-32.77559055118111
 30
0.0
 11
45.96456692913385
 21
-32.77559055118111
 31
0.0
  0
LINE
  5
625
330
1E
100
AcDbEntity
  8
0
100
AcDbLine
 10
45.94488188976376
 20
-32.99212598425198
 30
0.0
 11
45.96456692913385
 21
-32.99212598425198
 31
0.0
  0
LINE
  5
626
330
1E
100
AcDbEntity
  8
0
100
AcDbLine
 10
45.94488188976376
 20
-33.01181102362205
 30
0.0
 11
45.96456692913385
 21
-33.01181102362205
 31
0.0
  0
LINE
  5
627
330
1E
100
AcDbEntity
  8
0
100
AcDbLine
 10
45.94488188976376
 20
-33.11023622047244
 30
0.0
 11
45.96456692913385
 21
-33.11023622047244
 31
0.0
  0
LINE
  5
628
330
1E
100
AcDbEntity
  8
0
100
AcDbLine
 10
45.86614173228346
 20
-33.18897637795276
 30
0.0
 11
45.86614173228346
 21
-33.20866141732283
 31
0.0
  0
LINE
  5
629
330
1E
100
AcDbEntity
  8
0
100
AcDbLine
 10
45.31496062992125
 20
-33.18897637795276
 30
0.0
 11
45.31496062992125
 21
-33.20866141732283
 31
0.0
  0
LINE
  5
62A
330
1E
100
AcDbEntity
  8
0
100
AcDbLine
 10
45.23622047244094
 20
-33.11023622047244
 30
0.0
 11
45.21653543307085
 21
-33.11023622047244
 31
0.0
  0
LINE
  5
62B
330
1E
100
AcDbEntity
  8
0
100
AcDbLine
 10
45.23622047244094
 20
-33.01181102362205
 30
0.0
 11
45.21653543307085
 21
-33.01181102362205
 31
0.0
  0
LINE
  5
62C
330
1E
100
AcDbEntity
  8
0
100
AcDbLine
 10
45.23622047244094
 20
-32.99212598425198
 30
0.0
 11
45.21653543307085
 21
-32.99212598425198
 31
0.0
  0
LINE
  5
62D
330
1E
100
AcDbEntity
  8
0
100
AcDbLine
 10
45.23622047244094
 20
-32.97244094488189
 30
0.0
 11
45.21653543307085
 21
-32.95275590551181
 31
0.0
  0
LINE
  5
62E
330
1E
100
AcDbEntity
  8
0
100
AcDbLine
 10
45.21653543307085
 20
-32.95275590551181
 30
0.0
 11
45.23622047244094
 21
-32.95275590551181
 31
0.0
  0
LINE
  5
62F
330
1E
100
AcDbEntity
  8
0
100
AcDbLine
 10
45.19685039370077
 20
-32.97244094488189
 30
0.0
 11
45.21653543307085
 21
-32.95275590551181
 31
0.0
  0
LINE
  5
630
330
1E
100
AcDbEntity
  8
0
100
AcDbLine
 10
46.003937007874
 20
-32.51968503937009
 30
0.0
 11
46.02362204724408
 21
-32.5
 31
0.0
  0
LWPOLYLINE
  5
631
330
1E
100
AcDbEntity
  8
0
100
AcDbPolyline
 90
        3
 70
     0
 43
0.0
 10
46.02362204724408
 20
-32.53937007874016
 10
46.02362204724408
 20
-32.51968503937009
 10
46.04330708661417
 20
-32.51968503937009
  0
LINE
  5
636
330
1E
100
AcDbEntity
  8
0
100
AcDbLine
 10
46.02362204724408
 20
-32.55905511811024
 30
0.0
 11
46.04330708661417
 21
-32.55905511811024
 31
0.0
  0
LINE
  5
637
330
1E
100
AcDbEntity
  8
0
100
AcDbLine
 10
46.02362204724408
 20
-32.5984251968504
 30
0.0
 11
46.04330708661417
 21
-32.5984251968504
 31
0.0
  0
LINE
  5
638
330
1E
100
AcDbEntity
  8
0
100
AcDbLine
 10
45.94488188976376
 20
-32.67716535433072
 30
0.0
 11
45.94488188976376
 21
-32.69685039370079
 31
0.0
  0
LINE
  5
639
330
1E
100
AcDbEntity
  8
0
100
AcDbLine
 10
45.21653543307085
 20
-32.89370078740157
 30
0.0
 11
45.21653543307085
 21
-32.91338582677166
 31
0.0
  0
LINE
  5
63A
330
1E
100
AcDbEntity
  8
0
100
AcDbLine
 10
45.17716535433069
 20
-32.91338582677166
 30
0.0
 11
45.15748031496062
 21
-32.91338582677166
 31
0.0
  0
LINE
  5
63B
330
1E
100
AcDbEntity
  8
0
100
AcDbLine
 10
45.15748031496062
 20
-32.91338582677166
 30
0.0
 11
45.15748031496062
 21
-32.89370078740157
 31
0.0
  0
LINE
  5
63C
330
1E
100
AcDbEntity
  8
0
100
AcDbLine
 10
46.06299212598425
 20
-32.5
 30
0.0
 11
46.08267716535432
 21
-32.51968503937009
 31
0.0
  0
LINE
  5
63D
330
1E
100
AcDbEntity
  8
0
100
AcDbLine
 10
46.06299212598425
 20
-32.51968503937009
 30
0.0
 11
46.06299212598425
 21
-32.53937007874016
 31
0.0
  0
LINE
  5
63E
330
1E
100
AcDbEntity
  8
0
100
AcDbLine
 10
45.96456692913385
 20
-32.71653543307087
 30
0.0
 11
45.96456692913385
 21
-32.73622047244095
 31
0.0
  0
LWPOLYLINE
  5
63F
330
1E
100
AcDbEntity
  8
0
100
AcDbPolyline
 90
        3
 70
     0
 43
0.0
 10
45.21653543307085
 20
-32.93307086614174
 10
45.23622047244094
 20
-32.93307086614174
 10
45.23622047244094
 20
-32.95275590551181
  0
LINE
  5
644
330
1E
100
AcDbEntity
  8
0
100
AcDbLine
 10
45.21653543307085
 20
-32.93307086614174
 30
0.0
 11
45.21653543307085
 21
-32.95275590551181
 31
0.0
  0
LINE
  5
645
330
1E
100
AcDbEntity
  8
0
100
AcDbLine
 10
45.19685039370077
 20
-32.95275590551181
 30
0.0
 11
45.21653543307085
 21
-32.95275590551181
 31
0.0
  0
LINE
  5
646
330
1E
100
AcDbEntity
  8
0
100
AcDbLine
 10
45.19685039370077
 20
-32.95275590551181
 30
0.0
 11
45.19685039370077
 21
-32.97244094488189
 31
0.0
  0
LWPOLYLINE
  5
647
330
1E
100
AcDbEntity
  8
0
100
AcDbPolyline
 90
        3
 70
     0
 43
0.0
 10
45.15748031496062
 20
-32.95275590551181
 10
45.17716535433069
 20
-32.95275590551181
 10
45.17716535433069
 20
-32.97244094488189
  0
LINE
  5
64C
330
1E
100
AcDbEntity
  8
0
100
AcDbLine
 10
45.15748031496062
 20
-32.97244094488189
 30
0.0
 11
45.15748031496062
 21
-32.97244094488189
 31
0.0
  0
LINE
  5
64D
330
1E
100
AcDbEntity
  8
0
100
AcDbLine
 10
31.5551181102362
 20
-88.66141732283464
 30
0.0
 11
31.003937007874
 21
-88.66141732283464
 31
0.0
  0
LINE
  5
64E
330
1E
100
AcDbEntity
  8
0
100
AcDbLine
 10
31.003937007874
 20
-92.36220472440946
 30
0.0
 11
31.5551181102362
 21
-92.36220472440946
 31
0.0
  0
LINE
  5
64F
330
1E
100
AcDbEntity
  8
0
100
AcDbLine
 10
45.86614173228345
 20
-88.66141732283466
 30
0.0
 11
45.31496062992125
 21
-88.66141732283466
 31
0.0
  0
LINE
  5
650
330
1E
100
AcDbEntity
  8
0
100
AcDbLine
 10
45.31496062992125
 20
-92.36220472440946
 30
0.0
 11
45.86614173228345
 21
-92.36220472440946
 31
0.0
  0
LWPOLYLINE
  5
651
330
1E
100
AcDbEntity
  8
0
100
AcDbPolyline
 90
        8
 70
     0
 43
0.0
 10
31.65354330708659
 20
-88.72047244094488
 10
31.65354330708659
 20
-88.70078740157479
 10
31.63385826771651
 20
-88.68110236220472
 10
31.61417322834644
 20
-88.68110236220472
 10
31.59448818897636
 20
-88.68110236220472
 10
31.59448818897636
 20
-88.66141732283464
 10
31.57480314960628
 20
-88.66141732283464
 10
31.5551181102362
 20
-88.66141732283464
  0
LWPOLYLINE
  5
65B
330
1E
100
AcDbEntity
  8
0
100
AcDbPolyline
 90
        3
 70
     0
 43
0.0
 10
30.92519685039368
 20
-88.68110236220472
 10
30.92519685039368
 20
-88.70078740157479
 10
30.9055118110236
 20
-88.72047244094488
  0
LWPOLYLINE
  5
660
330
1E
100
AcDbEntity
  8
0
100
AcDbPolyline
 90
        7
 70
     0
 43
0.0
 10
31.5551181102362
 20
-92.36220472440946
 10
31.57480314960628
 20
-92.36220472440946
 10
31.59448818897636
 20
-92.36220472440946
 10
31.61417322834644
 20
-92.36220472440946
 10
31.63385826771651
 20
-92.36220472440946
 10
31.65354330708659
 20
-92.34251968503938
 10
31.65354330708659
 20
-92.32283464566931
  0
LWPOLYLINE
  5
669
330
1E
100
AcDbEntity
  8
0
100
AcDbPolyline
 90
        7
 70
     0
 43
0.0
 10
30.9055118110236
 20
-92.32283464566931
 10
30.9055118110236
 20
-92.34251968503938
 10
30.92519685039368
 20
-92.34251968503938
 10
30.94488188976376
 20
-92.36220472440946
 10
30.96456692913383
 20
-92.36220472440946
 10
30.98425196850391
 20
-92.36220472440946
 10
31.003937007874
 20
-92.36220472440946
  0
LWPOLYLINE
  5
672
330
1E
100
AcDbEntity
  8
0
100
AcDbPolyline
 90
        7
 70
     0
 43
0.0
 10
45.31496062992125
 20
-88.66141732283466
 10
45.29527559055116
 20
-88.66141732283466
 10
45.27559055118109
 20
-88.66141732283466
 10
45.255905511811
 20
-88.66141732283466
 10
45.255905511811
 20
-88.68110236220474
 10
45.23622047244093
 20
-88.68110236220474
 10
45.21653543307084
 20
-88.70078740157481
  0
LWPOLYLINE
  5
67B
330
1E
100
AcDbEntity
  8
0
100
AcDbPolyline
 90
        7
 70
     0
 43
0.0
 10
45.96456692913384
 20
-88.70078740157481
 10
45.96456692913384
 20
-88.68110236220474
 10
45.94488188976376
 20
-88.68110236220474
 10
45.92519685039369
 20
-88.66141732283466
 10
45.90551181102361
 20
-88.66141732283466
 10
45.88582677165353
 20
-88.66141732283466
 10
45.86614173228345
 20
-88.66141732283466
  0
LWPOLYLINE
  5
684
330
1E
100
AcDbEntity
  8
0
100
AcDbPolyline
 90
        7
 70
     0
 43
0.0
 10
45.21653543307084
 20
-92.32283464566931
 10
45.21653543307084
 20
-92.34251968503938
 10
45.23622047244093
 20
-92.34251968503938
 10
45.255905511811
 20
-92.36220472440946
 10
45.27559055118109
 20
-92.36220472440946
 10
45.29527559055116
 20
-92.36220472440946
 10
45.31496062992125
 20
-92.36220472440946
  0
LWPOLYLINE
  5
68D
330
1E
100
AcDbEntity
  8
0
100
AcDbPolyline
 90
        3
 70
     0
 43
0.0
 10
45.94488188976376
 20
-92.34251968503938
 10
45.96456692913384
 20
-92.34251968503938
 10
45.96456692913384
 20
-92.32283464566931
  0
LINE
  5
692
330
1E
100
AcDbEntity
  8
0
100
AcDbLine
 10
30.94488188976376
 20
-89.66535433070866
 30
0.0
 11
30.94488188976376
 21
-91.37795275590551
 31
0.0
  0
LINE
  5
693
330
1E
100
AcDbEntity
  8
0
100
AcDbLine
 10
30.88582677165352
 20
-91.37795275590551
 30
0.0
 11
30.88582677165352
 21
-89.66535433070866
 31
0.0
  0
LINE
  5
694
330
1E
100
AcDbEntity
  8
0
100
AcDbLine
 10
30.88582677165351
 20
-131.9291338582677
 30
0.0
 11
30.88582677165352
 21
-93.12992125984251
 31
0.0
  0
LWPOLYLINE
  5
695
330
1E
100
AcDbEntity
  8
0
100
AcDbPolyline
 90
        3
 70
     0
 43
0.0
 10
30.94488188976375
 20
-131.9291338582677
 10
30.90551181102359
 20
-131.9291338582677
 10
30.88582677165351
 20
-131.9291338582677
  0
LINE
  5
69A
330
1E
100
AcDbEntity
  8
0
100
AcDbLine
 10
30.94488188976376
 20
-93.12992125984251
 30
0.0
 11
30.94488188976375
 21
-131.9291338582677
 31
0.0
  0
LINE
  5
69B
330
1E
100
AcDbEntity
  8
0
100
AcDbLine
 10
46.003937007874
 20
-89.64566929133859
 30
0.0
 11
46.003937007874
 21
-91.37795275590553
 31
0.0
  0
LINE
  5
69C
330
1E
100
AcDbEntity
  8
0
100
AcDbLine
 10
45.94488188976376
 20
-91.37795275590553
 30
0.0
 11
45.94488188976376
 21
-89.64566929133859
 31
0.0
  0
LINE
  5
69D
330
1E
100
AcDbEntity
  8
0
100
AcDbLine
 10
45.94488188976376
 20
-131.9291338582677
 30
0.0
 11
45.94488188976376
 21
-93.12992125984253
 31
0.0
  0
LWPOLYLINE
  5
69E
330
1E
100
AcDbEntity
  8
0
100
AcDbPolyline
 90
        3
 70
     0
 43
0.0
 10
46.00393700787399
 20
-131.9291338582677
 10
45.98425196850391
 20
-131.9291338582677
 10
45.94488188976376
 20
-131.9291338582677
  0
LINE
  5
6A3
330
1E
100
AcDbEntity
  8
0
100
AcDbLine
 10
46.003937007874
 20
-93.12992125984253
 30
0.0
 11
46.00393700787399
 21
-131.9291338582677
 31
0.0
  0
LINE
  5
6A4
330
1E
100
AcDbEntity
  8
0
100
AcDbLine
 10
32.89370078740156
 20
-49.09448818897638
 30
0.0
 11
32.89370078740155
 21
-131.9291338582677
 31
0.0
  0
LINE
  5
6A5
330
1E
100
AcDbEntity
  8
0
100
AcDbLine
 10
32.89370078740155
 20
-131.9291338582677
 30
0.0
 11
43.99606299212596
 21
-131.9291338582677
 31
0.0
  0
LINE
  5
6A6
330
1E
100
AcDbEntity
  8
0
100
AcDbLine
 10
43.99606299212596
 20
-131.9291338582677
 30
0.0
 11
43.99606299212598
 21
-49.09448818897638
 31
0.0
  0
LINE
  5
6A7
330
1E
100
AcDbEntity
  8
0
100
AcDbLine
 10
43.99606299212598
 20
-49.09448818897638
 30
0.0
 11
32.89370078740156
 21
-49.09448818897638
 31
0.0
  0
LINE
  5
6A8
330
1E
100
AcDbEntity
  8
0
100
AcDbLine
 10
30.88582677165352
 20
-87.91338582677164
 30
0.0
 11
30.88582677165353
 21
-49.09448818897638
 31
0.0
  0
LINE
  5
6A9
330
1E
100
AcDbEntity
  8
0
100
AcDbLine
 10
46.003937007874
 20
-49.09448818897638
 30
0.0
 11
46.003937007874
 21
-87.91338582677166
 31
0.0
  0
LINE
  5
6AA
330
1E
100
AcDbEntity
  8
0
100
AcDbLine
 10
45.94488188976376
 20
-87.91338582677166
 30
0.0
 11
45.94488188976376
 21
-49.09448818897638
 31
0.0
  0
LINE
  5
6AB
330
1E
100
AcDbEntity
  8
0
100
AcDbLine
 10
44.01574803149606
 20
-49.09448818897638
 30
0.0
 11
45.94488188976376
 21
-49.09448818897638
 31
0.0
  0
LINE
  5
6AC
330
1E
100
AcDbEntity
  8
0
100
AcDbLine
 10
44.01574803149606
 20
-49.09448818897638
 30
0.0
 11
44.01574803149604
 21
-131.9291338582677
 31
0.0
  0
LINE
  5
6AD
330
1E
100
AcDbEntity
  8
0
100
AcDbLine
 10
45.94488188976376
 20
-131.9291338582677
 30
0.0
 11
44.01574803149604
 21
-131.9291338582677
 31
0.0
  0
LINE
  5
6AE
330
1E
100
AcDbEntity
  8
0
100
AcDbLine
 10
32.87401574803147
 20
-131.9291338582677
 30
0.0
 11
30.94488188976375
 21
-131.9291338582677
 31
0.0
  0
LINE
  5
6AF
330
1E
100
AcDbEntity
  8
0
100
AcDbLine
 10
32.87401574803147
 20
-131.9291338582677
 30
0.0
 11
32.87401574803149
 21
-49.09448818897638
 31
0.0
  0
LINE
  5
6B0
330
1E
100
AcDbEntity
  8
0
100
AcDbLine
 10
30.94488188976376
 20
-49.09448818897638
 30
0.0
 11
32.87401574803149
 21
-49.09448818897638
 31
0.0
  0
LINE
  5
6B1
330
1E
100
AcDbEntity
  8
0
100
AcDbLine
 10
30.94488188976376
 20
-49.09448818897638
 30
0.0
 11
30.94488188976376
 21
-87.91338582677164
 31
0.0
  0
LWPOLYLINE
  5
6B2
330
1E
100
AcDbEntity
  8
0
100
AcDbPolyline
 90
        3
 70
     0
 43
0.0
 10
45.94488188976376
 20
-49.09448818897638
 10
45.98425196850392
 20
-49.09448818897638
 10
46.003937007874
 20
-49.09448818897638
  0
LWPOLYLINE
  5
6B7
330
1E
100
AcDbEntity
  8
0
100
AcDbPolyline
 90
        3
 70
     0
 43
0.0
 10
30.88582677165353
 20
-49.09448818897638
 10
30.90551181102361
 20
-49.09448818897638
 10
30.94488188976376
 20
-49.09448818897638
  0
LINE
  5
6BC
330
1E
100
AcDbEntity
  8
0
100
AcDbLine
 10
44.01574803149604
 20
-131.9291338582677
 30
0.0
 11
43.99606299212596
 21
-131.9291338582677
 31
0.0
  0
LINE
  5
6BD
330
1E
100
AcDbEntity
  8
0
100
AcDbLine
 10
43.99606299212598
 20
-49.09448818897638
 30
0.0
 11
44.01574803149606
 21
-49.09448818897638
 31
0.0
  0
LINE
  5
6BE
330
1E
100
AcDbEntity
  8
0
100
AcDbLine
 10
32.87401574803149
 20
-49.09448818897638
 30
0.0
 11
32.89370078740156
 21
-49.09448818897638
 31
0.0
  0
LINE
  5
6BF
330
1E
100
AcDbEntity
  8
0
100
AcDbLine
 10
32.89370078740155
 20
-131.9291338582677
 30
0.0
 11
32.87401574803147
 21
-131.9291338582677
 31
0.0
  0
LWPOLYLINE
  5
6C0
330
1E
100
AcDbEntity
  8
0
100
AcDbPolyline
 90
        7
 70
     0
 43
0.0
 10
39.29133858267716
 20
-50.15748031496063
 10
39.251968503937
 20
-50.17716535433071
 10
39.251968503937
 20
-50.21653543307087
 10
39.29133858267716
 20
-50.23622047244096
 10
39.31102362204724
 20
-50.21653543307087
 10
39.31102362204724
 20
-50.17716535433071
 10
39.29133858267716
 20
-50.15748031496063
  0
LINE
  5
6C9
330
1E
100
AcDbEntity
  8
0
100
AcDbLine
 10
38.95669291338581
 20
-50.17716535433071
 30
0.0
 11
38.95669291338581
 21
-50.39370078740158
 31
0.0
  0
LINE
  5
6CA
330
1E
100
AcDbEntity
  8
0
100
AcDbLine
 10
38.95669291338581
 20
-50.39370078740158
 30
0.0
 11
39.01574803149605
 21
-50.39370078740158
 31
0.0
  0
LINE
  5
6CB
330
1E
100
AcDbEntity
  8
0
100
AcDbLine
 10
39.01574803149605
 20
-50.17716535433071
 30
0.0
 11
39.01574803149605
 21
-50.39370078740158
 31
0.0
  0
LINE
  5
6CC
330
1E
100
AcDbEntity
  8
0
100
AcDbLine
 10
39.01574803149605
 20
-50.17716535433071
 30
0.0
 11
38.95669291338581
 21
-50.17716535433071
 31
0.0
  0
LINE
  5
6CD
330
1E
100
AcDbEntity
  8
0
100
AcDbLine
 10
39.27165354330708
 20
-50.17716535433071
 30
0.0
 11
39.29133858267716
 21
-50.17716535433071
 31
0.0
  0
LINE
  5
6CE
330
1E
100
AcDbEntity
  8
0
100
AcDbLine
 10
39.27165354330708
 20
-50.17716535433071
 30
0.0
 11
39.27165354330708
 21
-50.17716535433071
 31
0.0
  0
LWPOLYLINE
  5
6CF
330
1E
100
AcDbEntity
  8
0
100
AcDbPolyline
 90
        3
 70
     0
 43
0.0
 10
39.29133858267716
 20
-50.19685039370079
 10
39.31102362204724
 20
-50.19685039370079
 10
39.29133858267716
 20
-50.17716535433071
  0
LINE
  5
6D4
330
1E
100
AcDbEntity
  8
0
100
AcDbLine
 10
39.29133858267716
 20
-50.19685039370079
 30
0.0
 11
39.29133858267716
 21
-50.19685039370079
 31
0.0
  0
LWPOLYLINE
  5
6D5
330
1E
100
AcDbEntity
  8
0
100
AcDbPolyline
 90
        5
 70
     0
 43
0.0
 10
37.75590551181101
 20
-50.19685039370079
 10
37.73622047244094
 20
-50.21653543307087
 10
37.75590551181101
 20
-50.23622047244096
 10
37.77559055118109
 20
-50.21653543307087
 10
37.75590551181101
 20
-50.19685039370079
  0
LWPOLYLINE
  5
6DC
330
1E
100
AcDbEntity
  8
0
100
AcDbPolyline
 90
        5
 70
     0
 43
0.0
 10
37.75590551181101
 20
-50.13779527559055
 10
37.73622047244094
 20
-50.15748031496063
 10
37.75590551181101
 20
-50.17716535433071
 10
37.77559055118109
 20
-50.15748031496063
 10
37.75590551181101
 20
-50.13779527559055
  0
LWPOLYLINE
  5
6E3
330
1E
100
AcDbEntity
  8
0
100
AcDbPolyline
 90
        5
 70
     0
 43
0.0
 10
37.75590551181101
 20
-50.07874015748032
 10
37.73622047244094
 20
-50.09842519685039
 10
37.75590551181101
 20
-50.11811023622048
 10
37.77559055118109
 20
-50.09842519685039
 10
37.75590551181101
 20
-50.07874015748032
  0
LINE
  5
6EA
330
1E
100
AcDbEntity
  8
0
100
AcDbLine
 10
37.55905511811023
 20
-50.03937007874016
 30
0.0
 11
37.55905511811023
 21
-50.39370078740158
 31
0.0
  0
LINE
  5
6EB
330
1E
100
AcDbEntity
  8
0
100
AcDbLine
 10
37.71653543307086
 20
-50.39370078740158
 30
0.0
 11
37.55905511811023
 21
-50.39370078740158
 31
0.0
  0
LINE
  5
6EC
330
1E
100
AcDbEntity
  8
0
100
AcDbLine
 10
37.71653543307086
 20
-50.27559055118111
 30
0.0
 11
37.71653543307086
 21
-50.39370078740158
 31
0.0
  0
LINE
  5
6ED
330
1E
100
AcDbEntity
  8
0
100
AcDbLine
 10
37.71653543307086
 20
-50.27559055118111
 30
0.0
 11
37.81496062992125
 21
-50.27559055118111
 31
0.0
  0
LWPOLYLINE
  5
6EE
330
1E
100
AcDbEntity
  8
0
100
AcDbPolyline
 90
        7
 70
     0
 43
0.0
 10
37.81496062992125
 20
-50.27559055118111
 10
37.87401574803149
 20
-50.25590551181103
 10
37.91338582677164
 20
-50.21653543307087
 10
37.93307086614172
 20
-50.15748031496063
 10
37.91338582677164
 20
-50.09842519685039
 10
37.87401574803149
 20
-50.03937007874016
 10
37.81496062992125
 20
-50.03937007874016
  0
LINE
  5
6F7
330
1E
100
AcDbEntity
  8
0
100
AcDbLine
 10
37.55905511811023
 20
-50.03937007874016
 30
0.0
 11
37.81496062992125
 21
-50.03937007874016
 31
0.0
  0
LWPOLYLINE
  5
6F8
330
1E
100
AcDbEntity
  8
0
100
AcDbPolyline
 90
        5
 70
     0
 43
0.0
 10
37.71653543307086
 20
-50.09842519685039
 10
37.69685039370077
 20
-50.11811023622048
 10
37.71653543307086
 20
-50.13779527559055
 10
37.71653543307086
 20
-50.11811023622048
 10
37.71653543307086
 20
-50.09842519685039
  0
LWPOLYLINE
  5
6FF
330
1E
100
AcDbEntity
  8
0
100
AcDbPolyline
 90
        4
 70
     0
 43
0.0
 10
37.79527559055117
 20
-50.11811023622048
 10
37.79527559055117
 20
-50.13779527559055
 10
37.81496062992125
 20
-50.13779527559055
 10
37.79527559055117
 20
-50.11811023622048
  0
LWPOLYLINE
  5
705
330
1E
100
AcDbEntity
  8
0
100
AcDbPolyline
 90
        4
 70
     0
 43
0.0
 10
37.79527559055117
 20
-50.17716535433071
 10
37.79527559055117
 20
-50.19685039370079
 10
37.81496062992125
 20
-50.17716535433071
 10
37.79527559055117
 20
-50.17716535433071
  0
LWPOLYLINE
  5
70B
330
1E
100
AcDbEntity
  8
0
100
AcDbPolyline
 90
        5
 70
     0
 43
0.0
 10
37.69685039370077
 20
-50.15748031496063
 10
37.6771653543307
 20
-50.17716535433071
 10
37.69685039370077
 20
-50.19685039370079
 10
37.71653543307086
 20
-50.17716535433071
 10
37.69685039370077
 20
-50.15748031496063
  0
LINE
  5
712
330
1E
100
AcDbEntity
  8
0
100
AcDbLine
 10
39.05511811023621
 20
-50.21653543307087
 30
0.0
 11
39.05511811023621
 21
-50.17716535433071
 31
0.0
  0
LINE
  5
713
330
1E
100
AcDbEntity
  8
0
100
AcDbLine
 10
39.21259842519684
 20
-50.17716535433071
 30
0.0
 11
39.05511811023621
 21
-50.17716535433071
 31
0.0
  0
LINE
  5
714
330
1E
100
AcDbEntity
  8
0
100
AcDbLine
 10
39.21259842519684
 20
-50.21653543307087
 30
0.0
 11
39.21259842519684
 21
-50.17716535433071
 31
0.0
  0
LINE
  5
715
330
1E
100
AcDbEntity
  8
0
100
AcDbLine
 10
39.17322834645668
 20
-50.21653543307087
 30
0.0
 11
39.21259842519684
 21
-50.21653543307087
 31
0.0
  0
LINE
  5
716
330
1E
100
AcDbEntity
  8
0
100
AcDbLine
 10
39.17322834645668
 20
-50.21653543307087
 30
0.0
 11
39.17322834645668
 21
-50.39370078740158
 31
0.0
  0
LINE
  5
717
330
1E
100
AcDbEntity
  8
0
100
AcDbLine
 10
39.09448818897637
 20
-50.39370078740158
 30
0.0
 11
39.17322834645668
 21
-50.39370078740158
 31
0.0
  0
LINE
  5
718
330
1E
100
AcDbEntity
  8
0
100
AcDbLine
 10
39.09448818897637
 20
-50.21653543307087
 30
0.0
 11
39.09448818897637
 21
-50.39370078740158
 31
0.0
  0
LINE
  5
719
330
1E
100
AcDbEntity
  8
0
100
AcDbLine
 10
39.09448818897637
 20
-50.21653543307087
 30
0.0
 11
39.05511811023621
 21
-50.21653543307087
 31
0.0
  0
LINE
  5
71A
330
1E
100
AcDbEntity
  8
0
100
AcDbLine
 10
37.49999999999999
 20
-50.49212598425198
 30
0.0
 11
37.49999999999999
 21
-50.0
 31
0.0
  0
LINE
  5
71B
330
1E
100
AcDbEntity
  8
0
100
AcDbLine
 10
39.37007874015747
 20
-50.49212598425198
 30
0.0
 11
37.49999999999999
 21
-50.49212598425198
 31
0.0
  0
LINE
  5
71C
330
1E
100
AcDbEntity
  8
0
100
AcDbLine
 10
39.37007874015747
 20
-50.0
 30
0.0
 11
39.37007874015747
 21
-50.49212598425198
 31
0.0
  0
LINE
  5
71D
330
1E
100
AcDbEntity
  8
0
100
AcDbLine
 10
37.49999999999999
 20
-50.0
 30
0.0
 11
39.37007874015747
 21
-50.0
 31
0.0
  0
LINE
  5
71E
330
1E
100
AcDbEntity
  8
0
100
AcDbLine
 10
37.51968503937007
 20
-50.47244094488189
 30
0.0
 11
39.35039370078739
 21
-50.47244094488189
 31
0.0
  0
LINE
  5
71F
330
1E
100
AcDbEntity
  8
0
100
AcDbLine
 10
39.35039370078739
 20
-50.47244094488189
 30
0.0
 11
39.35039370078739
 21
-50.0
 31
0.0
  0
LINE
  5
720
330
1E
100
AcDbEntity
  8
0
100
AcDbLine
 10
39.35039370078739
 20
-50.0
 30
0.0
 11
37.51968503937007
 21
-50.0
 31
0.0
  0
LINE
  5
721
330
1E
100
AcDbEntity
  8
0
100
AcDbLine
 10
37.51968503937007
 20
-50.0
 30
0.0
 11
37.51968503937007
 21
-50.47244094488189
 31
0.0
  0
LINE
  5
722
330
1E
100
AcDbEntity
  8
0
100
AcDbLine
 10
37.51968503937007
 20
-50.47244094488189
 30
0.0
 11
37.49999999999999
 21
-50.49212598425198
 31
0.0
  0
LINE
  5
723
330
1E
100
AcDbEntity
  8
0
100
AcDbLine
 10
37.49999999999999
 20
-50.0
 30
0.0
 11
37.51968503937007
 21
-50.0
 31
0.0
  0
LINE
  5
724
330
1E
100
AcDbEntity
  8
0
100
AcDbLine
 10
39.37007874015747
 20
-50.0
 30
0.0
 11
39.35039370078739
 21
-50.0
 31
0.0
  0
LINE
  5
725
330
1E
100
AcDbEntity
  8
0
100
AcDbLine
 10
39.35039370078739
 20
-50.47244094488189
 30
0.0
 11
39.37007874015747
 21
-50.49212598425198
 31
0.0
  0
LINE
  5
726
330
1E
100
AcDbEntity
  8
0
100
AcDbLine
 10
38.26771653543305
 20
-50.31496062992126
 30
0.0
 11
38.30708661417322
 21
-50.25590551181103
 31
0.0
  0
LINE
  5
727
330
1E
100
AcDbEntity
  8
0
100
AcDbLine
 10
38.30708661417322
 20
-50.25590551181103
 30
0.0
 11
38.32677165354329
 21
-50.31496062992126
 31
0.0
  0
LINE
  5
728
330
1E
100
AcDbEntity
  8
0
100
AcDbLine
 10
38.32677165354329
 20
-50.31496062992126
 30
0.0
 11
38.26771653543305
 21
-50.31496062992126
 31
0.0
  0
LINE
  5
729
330
1E
100
AcDbEntity
  8
0
100
AcDbLine
 10
37.99212598425196
 20
-50.11811023622048
 30
0.0
 11
37.99212598425196
 21
-50.39370078740158
 31
0.0
  0
LINE
  5
72A
330
1E
100
AcDbEntity
  8
0
100
AcDbLine
 10
38.11023622047243
 20
-50.39370078740158
 30
0.0
 11
37.99212598425196
 21
-50.39370078740158
 31
0.0
  0
LINE
  5
72B
330
1E
100
AcDbEntity
  8
0
100
AcDbLine
 10
38.11023622047243
 20
-50.29527559055118
 30
0.0
 11
38.11023622047243
 21
-50.39370078740158
 31
0.0
  0
LINE
  5
72C
330
1E
100
AcDbEntity
  8
0
100
AcDbLine
 10
38.11023622047243
 20
-50.29527559055118
 30
0.0
 11
38.18897637795275
 21
-50.29527559055118
 31
0.0
  0
LWPOLYLINE
  5
72D
330
1E
100
AcDbEntity
  8
0
100
AcDbPolyline
 90
        3
 70
     0
 43
0.0
 10
38.18897637795275
 20
-50.29527559055118
 10
38.20866141732282
 20
-50.29527559055118
 10
38.2283464566929
 20
-50.29527559055118
  0
LINE
  5
732
330
1E
100
AcDbEntity
  8
0
100
AcDbLine
 10
38.18897637795275
 20
-50.39370078740158
 30
0.0
 11
38.2283464566929
 21
-50.29527559055118
 31
0.0
  0
LINE
  5
733
330
1E
100
AcDbEntity
  8
0
100
AcDbLine
 10
38.24803149606298
 20
-50.39370078740158
 30
0.0
 11
38.18897637795275
 21
-50.39370078740158
 31
0.0
  0
LINE
  5
734
330
1E
100
AcDbEntity
  8
0
100
AcDbLine
 10
38.24803149606298
 20
-50.39370078740158
 30
0.0
 11
38.26771653543305
 21
-50.35433070866142
 31
0.0
  0
LINE
  5
735
330
1E
100
AcDbEntity
  8
0
100
AcDbLine
 10
38.34645669291337
 20
-50.35433070866142
 30
0.0
 11
38.26771653543305
 21
-50.35433070866142
 31
0.0
  0
LINE
  5
736
330
1E
100
AcDbEntity
  8
0
100
AcDbLine
 10
38.36614173228346
 20
-50.39370078740158
 30
0.0
 11
38.34645669291337
 21
-50.35433070866142
 31
0.0
  0
LINE
  5
737
330
1E
100
AcDbEntity
  8
0
100
AcDbLine
 10
38.36614173228346
 20
-50.39370078740158
 30
0.0
 11
38.44488188976377
 21
-50.39370078740158
 31
0.0
  0
LINE
  5
738
330
1E
100
AcDbEntity
  8
0
100
AcDbLine
 10
38.44488188976377
 20
-50.29527559055118
 30
0.0
 11
38.44488188976377
 21
-50.39370078740158
 31
0.0
  0
LINE
  5
739
330
1E
100
AcDbEntity
  8
0
100
AcDbLine
 10
38.48425196850392
 20
-50.39370078740158
 30
0.0
 11
38.44488188976377
 21
-50.29527559055118
 31
0.0
  0
LINE
  5
73A
330
1E
100
AcDbEntity
  8
0
100
AcDbLine
 10
38.48425196850392
 20
-50.39370078740158
 30
0.0
 11
38.56299212598424
 21
-50.39370078740158
 31
0.0
  0
LINE
  5
73B
330
1E
100
AcDbEntity
  8
0
100
AcDbLine
 10
38.56299212598424
 20
-50.39370078740158
 30
0.0
 11
38.56299212598424
 21
-50.17716535433071
 31
0.0
  0
LINE
  5
73C
330
1E
100
AcDbEntity
  8
0
100
AcDbLine
 10
38.56299212598424
 20
-50.17716535433071
 30
0.0
 11
38.503937007874
 21
-50.17716535433071
 31
0.0
  0
LINE
  5
73D
330
1E
100
AcDbEntity
  8
0
100
AcDbLine
 10
38.503937007874
 20
-50.17716535433071
 30
0.0
 11
38.503937007874
 21
-50.25590551181103
 31
0.0
  0
LINE
  5
73E
330
1E
100
AcDbEntity
  8
0
100
AcDbLine
 10
38.503937007874
 20
-50.25590551181103
 30
0.0
 11
38.46456692913385
 21
-50.17716535433071
 31
0.0
  0
LINE
  5
73F
330
1E
100
AcDbEntity
  8
0
100
AcDbLine
 10
38.46456692913385
 20
-50.17716535433071
 30
0.0
 11
38.38582677165353
 21
-50.17716535433071
 31
0.0
  0
LINE
  5
740
330
1E
100
AcDbEntity
  8
0
100
AcDbLine
 10
38.38582677165353
 20
-50.17716535433071
 30
0.0
 11
38.38582677165353
 21
-50.31496062992126
 31
0.0
  0
LINE
  5
741
330
1E
100
AcDbEntity
  8
0
100
AcDbLine
 10
38.32677165354329
 20
-50.17716535433071
 30
0.0
 11
38.38582677165353
 21
-50.31496062992126
 31
0.0
  0
LINE
  5
742
330
1E
100
AcDbEntity
  8
0
100
AcDbLine
 10
38.32677165354329
 20
-50.17716535433071
 30
0.0
 11
38.26771653543305
 21
-50.17716535433071
 31
0.0
  0
LWPOLYLINE
  5
743
330
1E
100
AcDbEntity
  8
0
100
AcDbPolyline
 90
        3
 70
     0
 43
0.0
 10
38.26771653543305
 20
-50.17716535433071
 10
38.24803149606298
 20
-50.13779527559055
 10
38.18897637795275
 20
-50.11811023622048
  0
LINE
  5
748
330
1E
100
AcDbEntity
  8
0
100
AcDbLine
 10
37.99212598425196
 20
-50.11811023622048
 30
0.0
 11
38.18897637795275
 21
-50.11811023622048
 31
0.0
  0
LINE
  5
749
330
1E
100
AcDbEntity
  8
0
100
AcDbLine
 10
38.11023622047243
 20
-50.15748031496063
 30
0.0
 11
38.11023622047243
 21
-50.25590551181103
 31
0.0
  0
LINE
  5
74A
330
1E
100
AcDbEntity
  8
0
100
AcDbLine
 10
38.14960629921259
 20
-50.15748031496063
 30
0.0
 11
38.11023622047243
 21
-50.15748031496063
 31
0.0
  0
LINE
  5
74B
330
1E
100
AcDbEntity
  8
0
100
AcDbLine
 10
38.14960629921259
 20
-50.17716535433071
 30
0.0
 11
38.14960629921259
 21
-50.15748031496063
 31
0.0
  0
LINE
  5
74C
330
1E
100
AcDbEntity
  8
0
100
AcDbLine
 10
38.14960629921259
 20
-50.17716535433071
 30
0.0
 11
38.14960629921259
 21
-50.25590551181103
 31
0.0
  0
LINE
  5
74D
330
1E
100
AcDbEntity
  8
0
100
AcDbLine
 10
38.14960629921259
 20
-50.25590551181103
 30
0.0
 11
38.11023622047243
 21
-50.25590551181103
 31
0.0
  0
LINE
  5
74E
330
1E
100
AcDbEntity
  8
0
100
AcDbLine
 10
38.58267716535431
 20
-50.17716535433071
 30
0.0
 11
38.58267716535431
 21
-50.39370078740158
 31
0.0
  0
LINE
  5
74F
330
1E
100
AcDbEntity
  8
0
100
AcDbLine
 10
38.58267716535431
 20
-50.39370078740158
 30
0.0
 11
38.70078740157479
 21
-50.39370078740158
 31
0.0
  0
LWPOLYLINE
  5
750
330
1E
100
AcDbEntity
  8
0
100
AcDbPolyline
 90
        3
 70
     0
 43
0.0
 10
38.70078740157479
 20
-50.39370078740158
 10
38.74015748031494
 20
-50.37401574803149
 10
38.74015748031494
 20
-50.35433070866142
  0
LINE
  5
755
330
1E
100
AcDbEntity
  8
0
100
AcDbLine
 10
38.74015748031494
 20
-50.35433070866142
 30
0.0
 11
38.74015748031494
 21
-50.21653543307087
 31
0.0
  0
LWPOLYLINE
  5
756
330
1E
100
AcDbEntity
  8
0
100
AcDbPolyline
 90
        3
 70
     0
 43
0.0
 10
38.74015748031494
 20
-50.21653543307087
 10
38.74015748031494
 20
-50.19685039370079
 10
38.70078740157479
 20
-50.17716535433071
  0
LINE
  5
75B
330
1E
100
AcDbEntity
  8
0
100
AcDbLine
 10
38.70078740157479
 20
-50.17716535433071
 30
0.0
 11
38.58267716535431
 21
-50.17716535433071
 31
0.0
  0
LINE
  5
75C
330
1E
100
AcDbEntity
  8
0
100
AcDbLine
 10
38.66141732283463
 20
-50.21653543307087
 30
0.0
 11
38.66141732283463
 21
-50.33464566929134
 31
0.0
  0
LINE
  5
75D
330
1E
100
AcDbEntity
  8
0
100
AcDbLine
 10
38.68110236220472
 20
-50.21653543307087
 30
0.0
 11
38.66141732283463
 21
-50.21653543307087
 31
0.0
  0
LINE
  5
75E
330
1E
100
AcDbEntity
  8
0
100
AcDbLine
 10
38.68110236220472
 20
-50.23622047244096
 30
0.0
 11
38.68110236220472
 21
-50.21653543307087
 31
0.0
  0
LINE
  5
75F
330
1E
100
AcDbEntity
  8
0
100
AcDbLine
 10
38.68110236220472
 20
-50.33464566929134
 30
0.0
 11
38.68110236220472
 21
-50.23622047244096
 31
0.0
  0
LINE
  5
760
330
1E
100
AcDbEntity
  8
0
100
AcDbLine
 10
38.68110236220472
 20
-50.33464566929134
 30
0.0
 11
38.66141732283463
 21
-50.33464566929134
 31
0.0
  0
LINE
  5
761
330
1E
100
AcDbEntity
  8
0
100
AcDbLine
 10
39.31102362204724
 20
-50.21653543307087
 30
0.0
 11
39.29133858267716
 21
-50.19685039370079
 31
0.0
  0
LINE
  5
762
330
1E
100
AcDbEntity
  8
0
100
AcDbLine
 10
39.31102362204724
 20
-50.21653543307087
 30
0.0
 11
39.31102362204724
 21
-50.21653543307087
 31
0.0
  0
LINE
  5
763
330
1E
100
AcDbEntity
  8
0
100
AcDbLine
 10
39.29133858267716
 20
-50.19685039370079
 30
0.0
 11
39.29133858267716
 21
-50.19685039370079
 31
0.0
  0
LINE
  5
764
330
1E
100
AcDbEntity
  8
0
100
AcDbLine
 10
38.85826771653542
 20
-50.33464566929134
 30
0.0
 11
38.85826771653542
 21
-50.17716535433071
 31
0.0
  0
LINE
  5
765
330
1E
100
AcDbEntity
  8
0
100
AcDbLine
 10
38.85826771653542
 20
-50.17716535433071
 30
0.0
 11
38.77952755905511
 21
-50.17716535433071
 31
0.0
  0
LINE
  5
766
330
1E
100
AcDbEntity
  8
0
100
AcDbLine
 10
38.77952755905511
 20
-50.17716535433071
 30
0.0
 11
38.77952755905511
 21
-50.35433070866142
 31
0.0
  0
LWPOLYLINE
  5
767
330
1E
100
AcDbEntity
  8
0
100
AcDbPolyline
 90
        3
 70
     0
 43
0.0
 10
38.77952755905511
 20
-50.35433070866142
 10
38.79921259842518
 20
-50.37401574803149
 10
38.81889763779526
 20
-50.39370078740158
  0
LINE
  5
76C
330
1E
100
AcDbEntity
  8
0
100
AcDbLine
 10
38.89763779527557
 20
-50.39370078740158
 30
0.0
 11
38.81889763779526
 21
-50.39370078740158
 31
0.0
  0
LWPOLYLINE
  5
76D
330
1E
100
AcDbEntity
  8
0
100
AcDbPolyline
 90
        3
 70
     0
 43
0.0
 10
38.89763779527557
 20
-50.39370078740158
 10
38.91732283464566
 20
-50.37401574803149
 10
38.93700787401574
 20
-50.35433070866142
  0
LINE
  5
772
330
1E
100
AcDbEntity
  8
0
100
AcDbLine
 10
38.93700787401574
 20
-50.35433070866142
 30
0.0
 11
38.93700787401574
 21
-50.17716535433071
 31
0.0
  0
LINE
  5
773
330
1E
100
AcDbEntity
  8
0
100
AcDbLine
 10
38.93700787401574
 20
-50.17716535433071
 30
0.0
 11
38.8779527559055
 21
-50.17716535433071
 31
0.0
  0
LINE
  5
774
330
1E
100
AcDbEntity
  8
0
100
AcDbLine
 10
38.8779527559055
 20
-50.17716535433071
 30
0.0
 11
38.8779527559055
 21
-50.33464566929134
 31
0.0
  0
LINE
  5
775
330
1E
100
AcDbEntity
  8
0
100
AcDbLine
 10
38.8779527559055
 20
-50.33464566929134
 30
0.0
 11
38.85826771653542
 21
-50.33464566929134
 31
0.0
  0
LINE
  5
776
330
1E
100
AcDbEntity
  8
0
100
AcDbLine
 10
39.29133858267716
 20
-50.19685039370079
 30
0.0
 11
39.27165354330708
 21
-50.19685039370079
 31
0.0
  0
LINE
  5
777
330
1E
100
AcDbEntity
  8
0
100
AcDbLine
 10
39.29133858267716
 20
-50.19685039370079
 30
0.0
 11
39.29133858267716
 21
-50.19685039370079
 31
0.0
  0
LINE
  5
778
330
1E
100
AcDbEntity
  8
0
100
AcDbLine
 10
39.27165354330708
 20
-50.19685039370079
 30
0.0
 11
39.27165354330708
 21
-50.19685039370079
 31
0.0
  0
LINE
  5
779
330
1E
100
AcDbEntity
  8
0
100
AcDbLine
 10
37.9527559055118
 20
-50.0
 30
0.0
 11
37.9527559055118
 21
-50.47244094488189
 31
0.0
  0
LINE
  5
77A
330
1E
100
AcDbEntity
  8
0
100
AcDbLine
 10
37.9527559055118
 20
-50.0
 30
0.0
 11
37.9527559055118
 21
-50.0
 31
0.0
  0
LINE
  5
77B
330
1E
100
AcDbEntity
  8
0
100
AcDbLine
 10
37.9527559055118
 20
-50.47244094488189
 30
0.0
 11
37.9527559055118
 21
-50.47244094488189
 31
0.0
  0
LINE
  5
77C
330
1E
100
AcDbEntity
  8
0
100
AcDbLine
 10
39.27165354330708
 20
-50.21653543307087
 30
0.0
 11
39.27165354330708
 21
-50.17716535433071
 31
0.0
  0
LINE
  5
77D
330
1E
100
AcDbEntity
  8
0
100
AcDbLine
 10
39.27165354330708
 20
-50.21653543307087
 30
0.0
 11
39.27165354330708
 21
-50.21653543307087
 31
0.0
  0
LINE
  5
77E
330
1E
100
AcDbEntity
  8
0
100
AcDbLine
 10
39.27165354330708
 20
-50.17716535433071
 30
0.0
 11
39.27165354330708
 21
-50.17716535433071
 31
0.0
  0
LINE
  5
77F
330
1E
100
AcDbEntity
  8
0
100
AcDbLine
 10
30.8070866141732
 20
-87.93307086614172
 30
0.0
 11
30.78740157480313
 21
-88.77952755905511
 31
0.0
  0
LINE
  5
780
330
1E
100
AcDbEntity
  8
0
100
AcDbLine
 10
30.92519685039368
 20
-87.93307086614172
 30
0.0
 11
30.9055118110236
 21
-88.74015748031496
 31
0.0
  0
LWPOLYLINE
  5
781
330
1E
100
AcDbEntity
  8
0
100
AcDbPolyline
 90
        3
 70
     0
 43
0.0
 10
30.92519685039368
 20
-87.93307086614172
 10
30.84645669291337
 20
-87.93307086614172
 10
30.8070866141732
 20
-87.93307086614172
  0
LWPOLYLINE
  5
786
330
1E
100
AcDbEntity
  8
0
100
AcDbPolyline
 90
        3
 70
     0
 43
0.0
 10
30.78740157480313
 20
-88.77952755905511
 10
30.82677165354328
 20
-88.77952755905511
 10
30.9055118110236
 20
-88.77952755905511
  0
LINE
  5
78B
330
1E
100
AcDbEntity
  8
0
100
AcDbLine
 10
30.9055118110236
 20
-88.77952755905511
 30
0.0
 11
30.9055118110236
 21
-88.72047244094488
 31
0.0
  0
LINE
  5
78C
330
1E
100
AcDbEntity
  8
0
100
AcDbLine
 10
31.003937007874
 20
-88.68110236220472
 30
0.0
 11
31.003937007874
 21
-88.77952755905511
 31
0.0
  0
LWPOLYLINE
  5
78D
330
1E
100
AcDbEntity
  8
0
100
AcDbPolyline
 90
        5
 70
     0
 43
0.0
 10
31.003937007874
 20
-88.68110236220472
 10
30.96456692913383
 20
-88.68110236220472
 10
30.94488188976376
 20
-88.70078740157479
 10
30.92519685039368
 20
-88.70078740157479
 10
30.9055118110236
 20
-88.72047244094488
  0
LWPOLYLINE
  5
794
330
1E
100
AcDbEntity
  8
0
100
AcDbPolyline
 90
        5
 70
     0
 43
0.0
 10
30.9055118110236
 20
-88.77952755905511
 10
30.92519685039368
 20
-88.77952755905511
 10
30.94488188976376
 20
-88.77952755905511
 10
30.96456692913383
 20
-88.77952755905511
 10
31.003937007874
 20
-88.77952755905511
  0
LINE
  5
79B
330
1E
100
AcDbEntity
  8
0
100
AcDbLine
 10
31.65354330708659
 20
-88.72047244094488
 30
0.0
 11
31.65354330708659
 21
-88.77952755905511
 31
0.0
  0
LWPOLYLINE
  5
79C
330
1E
100
AcDbEntity
  8
0
100
AcDbPolyline
 90
        6
 70
     0
 43
0.0
 10
31.65354330708659
 20
-88.72047244094488
 10
31.65354330708659
 20
-88.70078740157479
 10
31.63385826771651
 20
-88.70078740157479
 10
31.61417322834644
 20
-88.68110236220472
 10
31.59448818897636
 20
-88.68110236220472
 10
31.5551181102362
 20
-88.68110236220472
  0
LINE
  5
7A4
330
1E
100
AcDbEntity
  8
0
100
AcDbLine
 10
31.5551181102362
 20
-88.77952755905511
 30
0.0
 11
31.5551181102362
 21
-88.68110236220472
 31
0.0
  0
LWPOLYLINE
  5
7A5
330
1E
100
AcDbEntity
  8
0
100
AcDbPolyline
 90
        4
 70
     0
 43
0.0
 10
31.5551181102362
 20
-88.77952755905511
 10
31.59448818897636
 20
-88.77952755905511
 10
31.63385826771651
 20
-88.77952755905511
 10
31.65354330708659
 20
-88.77952755905511
  0
LINE
  5
7AB
330
1E
100
AcDbEntity
  8
0
100
AcDbLine
 10
31.65354330708659
 20
-88.77952755905511
 30
0.0
 11
31.71259842519683
 21
-88.77952755905511
 31
0.0
  0
LINE
  5
7AC
330
1E
100
AcDbEntity
  8
0
100
AcDbLine
 10
31.71259842519683
 20
-88.77952755905511
 30
0.0
 11
31.69291338582675
 21
-87.95275590551183
 31
0.0
  0
LINE
  5
7AD
330
1E
100
AcDbEntity
  8
0
100
AcDbLine
 10
31.69291338582675
 20
-87.95275590551183
 30
0.0
 11
31.67322834645668
 21
-87.93307086614172
 31
0.0
  0
LINE
  5
7AE
330
1E
100
AcDbEntity
  8
0
100
AcDbLine
 10
31.67322834645668
 20
-87.93307086614172
 30
0.0
 11
31.65354330708659
 21
-88.74015748031496
 31
0.0
  0
LINE
  5
7AF
330
1E
100
AcDbEntity
  8
0
100
AcDbLine
 10
31.65354330708659
 20
-88.74015748031496
 30
0.0
 11
31.65354330708659
 21
-88.74015748031496
 31
0.0
  0
LINE
  5
7B0
330
1E
100
AcDbEntity
  8
0
100
AcDbLine
 10
31.71259842519683
 20
-87.95275590551183
 30
0.0
 11
31.73228346456691
 21
-88.77952755905511
 31
0.0
  0
LINE
  5
7B1
330
1E
100
AcDbEntity
  8
0
100
AcDbLine
 10
31.63385826771651
 20
-88.68110236220472
 30
0.0
 11
31.65354330708659
 21
-87.93307086614172
 31
0.0
  0
LINE
  5
7B2
330
1E
100
AcDbEntity
  8
0
100
AcDbLine
 10
31.65354330708659
 20
-87.93307086614172
 30
0.0
 11
30.92519685039368
 21
-87.93307086614172
 31
0.0
  0
LINE
  5
7B3
330
1E
100
AcDbEntity
  8
0
100
AcDbLine
 10
30.9055118110236
 20
-88.85826771653542
 30
0.0
 11
31.65354330708659
 21
-88.85826771653542
 31
0.0
  0
LINE
  5
7B4
330
1E
100
AcDbEntity
  8
0
100
AcDbLine
 10
31.65354330708659
 20
-88.85826771653542
 30
0.0
 11
31.65354330708659
 21
-88.85826771653542
 31
0.0
  0
LINE
  5
7B5
330
1E
100
AcDbEntity
  8
0
100
AcDbLine
 10
31.65354330708659
 20
-88.85826771653542
 30
0.0
 11
31.65354330708659
 21
-88.85826771653542
 31
0.0
  0
LINE
  5
7B6
330
1E
100
AcDbEntity
  8
0
100
AcDbLine
 10
31.65354330708659
 20
-88.85826771653542
 30
0.0
 11
30.9055118110236
 21
-88.85826771653542
 31
0.0
  0
LINE
  5
7B7
330
1E
100
AcDbEntity
  8
0
100
AcDbLine
 10
30.9055118110236
 20
-88.85826771653542
 30
0.0
 11
30.9055118110236
 21
-88.85826771653542
 31
0.0
  0
LINE
  5
7B8
330
1E
100
AcDbEntity
  8
0
100
AcDbLine
 10
31.65354330708659
 20
-88.77952755905511
 30
0.0
 11
31.65354330708659
 21
-88.81889763779527
 31
0.0
  0
LINE
  5
7B9
330
1E
100
AcDbEntity
  8
0
100
AcDbLine
 10
31.65354330708659
 20
-88.85826771653542
 30
0.0
 11
31.65354330708659
 21
-88.81889763779527
 31
0.0
  0
LWPOLYLINE
  5
7BA
330
1E
100
AcDbEntity
  8
0
100
AcDbPolyline
 90
        5
 70
     0
 43
0.0
 10
31.65354330708659
 20
-88.81889763779527
 10
31.63385826771651
 20
-88.7992125984252
 10
31.61417322834644
 20
-88.7992125984252
 10
31.57480314960628
 20
-88.7992125984252
 10
31.5551181102362
 20
-88.77952755905511
  0
LINE
  5
7C1
330
1E
100
AcDbEntity
  8
0
100
AcDbLine
 10
31.5551181102362
 20
-88.77952755905511
 30
0.0
 11
31.003937007874
 21
-88.77952755905511
 31
0.0
  0
LWPOLYLINE
  5
7C2
330
1E
100
AcDbEntity
  8
0
100
AcDbPolyline
 90
        5
 70
     0
 43
0.0
 10
31.003937007874
 20
-88.77952755905511
 10
30.98425196850391
 20
-88.7992125984252
 10
30.94488188976376
 20
-88.7992125984252
 10
30.92519685039368
 20
-88.7992125984252
 10
30.9055118110236
 20
-88.81889763779527
  0
LINE
  5
7C9
330
1E
100
AcDbEntity
  8
0
100
AcDbLine
 10
30.9055118110236
 20
-88.85826771653542
 30
0.0
 11
30.9055118110236
 21
-88.81889763779527
 31
0.0
  0
LWPOLYLINE
  5
7CA
330
1E
100
AcDbEntity
  8
0
100
AcDbPolyline
 90
        3
 70
     0
 43
0.0
 10
30.94488188976376
 20
-88.68110236220472
 10
30.96456692913383
 20
-88.68110236220472
 10
31.003937007874
 20
-88.66141732283464
  0
LINE
  5
7CF
330
1E
100
AcDbEntity
  8
0
100
AcDbLine
 10
31.5551181102362
 20
-88.68110236220472
 30
0.0
 11
31.003937007874
 21
-88.68110236220472
 31
0.0
  0
LINE
  5
7D0
330
1E
100
AcDbEntity
  8
0
100
AcDbLine
 10
31.67322834645668
 20
-89.66535433070866
 30
0.0
 11
31.65354330708659
 21
-89.66535433070866
 31
0.0
  0
LINE
  5
7D1
330
1E
100
AcDbEntity
  8
0
100
AcDbLine
 10
31.65354330708659
 20
-89.66535433070866
 30
0.0
 11
30.92519685039368
 21
-89.66535433070866
 31
0.0
  0
LWPOLYLINE
  5
7D2
330
1E
100
AcDbEntity
  8
0
100
AcDbPolyline
 90
        3
 70
     0
 43
0.0
 10
30.92519685039368
 20
-89.66535433070866
 10
30.84645669291337
 20
-89.66535433070866
 10
30.82677165354328
 20
-89.66535433070866
  0
LWPOLYLINE
  5
7D7
330
1E
100
AcDbEntity
  8
0
100
AcDbPolyline
 90
        3
 70
     0
 43
0.0
 10
30.82677165354328
 20
-87.91338582677164
 10
30.84645669291337
 20
-87.91338582677164
 10
30.92519685039368
 20
-87.91338582677164
  0
LINE
  5
7DC
330
1E
100
AcDbEntity
  8
0
100
AcDbLine
 10
30.92519685039368
 20
-87.91338582677164
 30
0.0
 11
31.65354330708659
 21
-87.91338582677164
 31
0.0
  0
LINE
  5
7DD
330
1E
100
AcDbEntity
  8
0
100
AcDbLine
 10
31.65354330708659
 20
-87.91338582677164
 30
0.0
 11
31.67322834645668
 21
-87.91338582677164
 31
0.0
  0
LINE
  5
7DE
330
1E
100
AcDbEntity
  8
0
100
AcDbLine
 10
31.73228346456691
 20
-88.77952755905511
 30
0.0
 11
31.71259842519683
 21
-89.60629921259842
 31
0.0
  0
LINE
  5
7DF
330
1E
100
AcDbEntity
  8
0
100
AcDbLine
 10
31.65354330708659
 20
-88.81889763779527
 30
0.0
 11
31.67322834645668
 21
-89.64566929133857
 31
0.0
  0
LINE
  5
7E0
330
1E
100
AcDbEntity
  8
0
100
AcDbLine
 10
31.67322834645668
 20
-89.64566929133857
 30
0.0
 11
31.69291338582675
 21
-89.60629921259842
 31
0.0
  0
LINE
  5
7E1
330
1E
100
AcDbEntity
  8
0
100
AcDbLine
 10
31.69291338582675
 20
-89.60629921259842
 30
0.0
 11
31.71259842519683
 21
-88.77952755905511
 31
0.0
  0
LINE
  5
7E2
330
1E
100
AcDbEntity
  8
0
100
AcDbLine
 10
30.9055118110236
 20
-88.85826771653542
 30
0.0
 11
30.92519685039368
 21
-89.64566929133857
 31
0.0
  0
LINE
  5
7E3
330
1E
100
AcDbEntity
  8
0
100
AcDbLine
 10
30.92519685039368
 20
-89.64566929133857
 30
0.0
 11
31.65354330708659
 21
-89.64566929133857
 31
0.0
  0
LINE
  5
7E4
330
1E
100
AcDbEntity
  8
0
100
AcDbLine
 10
31.65354330708659
 20
-89.64566929133857
 30
0.0
 11
31.63385826771651
 21
-88.87795275590551
 31
0.0
  0
LINE
  5
7E5
330
1E
100
AcDbEntity
  8
0
100
AcDbLine
 10
31.63385826771651
 20
-88.87795275590551
 30
0.0
 11
30.9055118110236
 21
-88.87795275590551
 31
0.0
  0
LINE
  5
7E6
330
1E
100
AcDbEntity
  8
0
100
AcDbLine
 10
30.78740157480313
 20
-88.77952755905511
 30
0.0
 11
30.8070866141732
 21
-89.64566929133857
 31
0.0
  0
LWPOLYLINE
  5
7E7
330
1E
100
AcDbEntity
  8
0
100
AcDbPolyline
 90
        3
 70
     0
 43
0.0
 10
30.8070866141732
 20
-89.64566929133857
 10
30.84645669291337
 20
-89.64566929133857
 10
30.92519685039368
 20
-89.64566929133857
  0
LINE
  5
7EC
330
1E
100
AcDbEntity
  8
0
100
AcDbLine
 10
30.9055118110236
 20
-88.87795275590551
 30
0.0
 11
30.9055118110236
 21
-88.85826771653542
 31
0.0
  0
LINE
  5
7ED
330
1E
100
AcDbEntity
  8
0
100
AcDbLine
 10
30.9055118110236
 20
-88.81889763779527
 30
0.0
 11
30.9055118110236
 21
-88.77952755905511
 31
0.0
  0
LWPOLYLINE
  5
7EE
330
1E
100
AcDbEntity
  8
0
100
AcDbPolyline
 90
        3
 70
     0
 43
0.0
 10
31.67322834645668
 20
-87.91338582677164
 10
31.71259842519683
 20
-87.93307086614172
 10
31.71259842519683
 20
-87.95275590551183
  0
LWPOLYLINE
  5
7F3
330
1E
100
AcDbEntity
  8
0
100
AcDbPolyline
 90
        3
 70
     0
 43
0.0
 10
31.71259842519683
 20
-89.60629921259842
 10
31.71259842519683
 20
-89.64566929133857
 10
31.67322834645668
 20
-89.66535433070866
  0
LINE
  5
7F8
330
1E
100
AcDbEntity
  8
0
100
AcDbLine
 10
31.63385826771651
 20
-88.87795275590551
 30
0.0
 11
31.65354330708659
 21
-88.85826771653542
 31
0.0
  0
LINE
  5
7F9
330
1E
100
AcDbEntity
  8
0
100
AcDbLine
 10
31.003937007874
 20
-88.66141732283464
 30
0.0
 11
31.003937007874
 21
-88.68110236220472
 31
0.0
  0
LINE
  5
7FA
330
1E
100
AcDbEntity
  8
0
100
AcDbLine
 10
31.5551181102362
 20
-88.66141732283464
 30
0.0
 11
31.5551181102362
 21
-88.68110236220472
 31
0.0
  0
LINE
  5
7FB
330
1E
100
AcDbEntity
  8
0
100
AcDbLine
 10
31.65354330708659
 20
-88.68110236220472
 30
0.0
 11
31.65354330708659
 21
-87.93307086614172
 31
0.0
  0
LINE
  5
7FC
330
1E
100
AcDbEntity
  8
0
100
AcDbLine
 10
31.65354330708659
 20
-87.93307086614172
 30
0.0
 11
31.65354330708659
 21
-87.93307086614172
 31
0.0
  0
LINE
  5
7FD
330
1E
100
AcDbEntity
  8
0
100
AcDbLine
 10
31.65354330708659
 20
-89.64566929133857
 30
0.0
 11
31.65354330708659
 21
-89.64566929133857
 31
0.0
  0
LINE
  5
7FE
330
1E
100
AcDbEntity
  8
0
100
AcDbLine
 10
31.65354330708659
 20
-89.64566929133857
 30
0.0
 11
31.65354330708659
 21
-88.85826771653542
 31
0.0
  0
LINE
  5
7FF
330
1E
100
AcDbEntity
  8
0
100
AcDbLine
 10
31.67322834645668
 20
-87.93307086614172
 30
0.0
 11
31.65354330708659
 21
-87.93307086614172
 31
0.0
  0
LINE
  5
800
330
1E
100
AcDbEntity
  8
0
100
AcDbLine
 10
31.65354330708659
 20
-89.64566929133857
 30
0.0
 11
31.67322834645668
 21
-89.64566929133857
 31
0.0
  0
LINE
  5
801
330
1E
100
AcDbEntity
  8
0
100
AcDbLine
 10
30.8070866141732
 20
-89.64566929133857
 30
0.0
 11
30.82677165354328
 21
-89.66535433070866
 31
0.0
  0
LWPOLYLINE
  5
802
330
1E
100
AcDbEntity
  8
0
100
AcDbPolyline
 90
        3
 70
     0
 43
0.0
 10
30.82677165354328
 20
-87.91338582677164
 10
30.8070866141732
 20
-87.91338582677164
 10
30.8070866141732
 20
-87.93307086614172
  0
LINE
  5
807
330
1E
100
AcDbEntity
  8
0
100
AcDbLine
 10
30.92519685039368
 20
-89.64566929133857
 30
0.0
 11
30.92519685039368
 21
-89.66535433070866
 31
0.0
  0
LINE
  5
808
330
1E
100
AcDbEntity
  8
0
100
AcDbLine
 10
30.92519685039368
 20
-87.91338582677164
 30
0.0
 11
30.92519685039368
 21
-87.93307086614172
 31
0.0
  0
LINE
  5
809
330
1E
100
AcDbEntity
  8
0
100
AcDbLine
 10
31.65354330708659
 20
-89.64566929133857
 30
0.0
 11
31.65354330708659
 21
-89.66535433070866
 31
0.0
  0
LINE
  5
80A
330
1E
100
AcDbEntity
  8
0
100
AcDbLine
 10
31.65354330708659
 20
-87.91338582677164
 30
0.0
 11
31.65354330708659
 21
-87.93307086614172
 31
0.0
  0
LINE
  5
80B
330
1E
100
AcDbEntity
  8
0
100
AcDbLine
 10
31.65354330708659
 20
-89.64566929133857
 30
0.0
 11
31.67322834645668
 21
-89.66535433070866
 31
0.0
  0
LWPOLYLINE
  5
80C
330
1E
100
AcDbEntity
  8
0
100
AcDbPolyline
 90
        3
 70
     0
 43
0.0
 10
31.67322834645668
 20
-87.91338582677164
 10
31.65354330708659
 20
-87.91338582677164
 10
31.65354330708659
 20
-87.93307086614172
  0
LWPOLYLINE
  5
811
330
1E
100
AcDbEntity
  8
0
100
AcDbPolyline
 90
        3
 70
     0
 43
0.0
 10
31.65354330708659
 20
-89.64566929133857
 10
31.67322834645668
 20
-89.64566929133857
 10
31.67322834645668
 20
-89.66535433070866
  0
LINE
  5
816
330
1E
100
AcDbEntity
  8
0
100
AcDbLine
 10
31.67322834645668
 20
-87.91338582677164
 30
0.0
 11
31.65354330708659
 21
-87.93307086614172
 31
0.0
  0
LINE
  5
817
330
1E
100
AcDbEntity
  8
0
100
AcDbLine
 10
31.67322834645668
 20
-89.64566929133857
 30
0.0
 11
31.67322834645668
 21
-89.66535433070866
 31
0.0
  0
LINE
  5
818
330
1E
100
AcDbEntity
  8
0
100
AcDbLine
 10
31.67322834645668
 20
-87.91338582677164
 30
0.0
 11
31.67322834645668
 21
-87.93307086614172
 31
0.0
  0
LINE
  5
819
330
1E
100
AcDbEntity
  8
0
100
AcDbLine
 10
31.69291338582675
 20
-89.60629921259842
 30
0.0
 11
31.71259842519683
 21
-89.60629921259842
 31
0.0
  0
LINE
  5
81A
330
1E
100
AcDbEntity
  8
0
100
AcDbLine
 10
31.71259842519683
 20
-87.95275590551183
 30
0.0
 11
31.69291338582675
 21
-87.95275590551183
 31
0.0
  0
LINE
  5
81B
330
1E
100
AcDbEntity
  8
0
100
AcDbLine
 10
31.71259842519683
 20
-88.77952755905511
 30
0.0
 11
31.73228346456691
 21
-88.77952755905511
 31
0.0
  0
LINE
  5
81C
330
1E
100
AcDbEntity
  8
0
100
AcDbLine
 10
46.06299212598424
 20
-93.11023622047246
 30
0.0
 11
46.08267716535432
 21
-92.24409448818899
 31
0.0
  0
LINE
  5
81D
330
1E
100
AcDbEntity
  8
0
100
AcDbLine
 10
45.96456692913384
 20
-93.11023622047246
 30
0.0
 11
45.96456692913384
 21
-92.30314960629922
 31
0.0
  0
LWPOLYLINE
  5
81E
330
1E
100
AcDbEntity
  8
0
100
AcDbPolyline
 90
        3
 70
     0
 43
0.0
 10
45.96456692913384
 20
-93.11023622047246
 10
46.04330708661416
 20
-93.11023622047246
 10
46.06299212598424
 20
-93.11023622047246
  0
LWPOLYLINE
  5
823
330
1E
100
AcDbEntity
  8
0
100
AcDbPolyline
 90
        3
 70
     0
 43
0.0
 10
46.08267716535432
 20
-92.24409448818899
 10
46.06299212598424
 20
-92.24409448818899
 10
45.96456692913384
 20
-92.24409448818899
  0
LINE
  5
828
330
1E
100
AcDbEntity
  8
0
100
AcDbLine
 10
45.96456692913384
 20
-92.24409448818899
 30
0.0
 11
45.96456692913384
 21
-92.32283464566931
 31
0.0
  0
LINE
  5
829
330
1E
100
AcDbEntity
  8
0
100
AcDbLine
 10
45.86614173228345
 20
-92.34251968503938
 30
0.0
 11
45.86614173228345
 21
-92.24409448818899
 31
0.0
  0
LWPOLYLINE
  5
82A
330
1E
100
AcDbEntity
  8
0
100
AcDbPolyline
 90
        5
 70
     0
 43
0.0
 10
45.86614173228345
 20
-92.34251968503938
 10
45.88582677165353
 20
-92.34251968503938
 10
45.90551181102361
 20
-92.34251968503938
 10
45.94488188976376
 20
-92.34251968503938
 10
45.96456692913384
 20
-92.32283464566931
  0
LWPOLYLINE
  5
831
330
1E
100
AcDbEntity
  8
0
100
AcDbPolyline
 90
        4
 70
     0
 43
0.0
 10
45.96456692913384
 20
-92.24409448818899
 10
45.94488188976376
 20
-92.24409448818899
 10
45.90551181102361
 20
-92.24409448818899
 10
45.86614173228345
 20
-92.24409448818899
  0
LINE
  5
837
330
1E
100
AcDbEntity
  8
0
100
AcDbLine
 10
45.21653543307084
 20
-92.32283464566931
 30
0.0
 11
45.21653543307084
 21
-92.24409448818899
 31
0.0
  0
LWPOLYLINE
  5
838
330
1E
100
AcDbEntity
  8
0
100
AcDbPolyline
 90
        5
 70
     0
 43
0.0
 10
45.21653543307084
 20
-92.32283464566931
 10
45.23622047244093
 20
-92.34251968503938
 10
45.255905511811
 20
-92.34251968503938
 10
45.29527559055116
 20
-92.34251968503938
 10
45.31496062992125
 20
-92.34251968503938
  0
LINE
  5
83F
330
1E
100
AcDbEntity
  8
0
100
AcDbLine
 10
45.31496062992125
 20
-92.24409448818899
 30
0.0
 11
45.31496062992125
 21
-92.34251968503938
 31
0.0
  0
LWPOLYLINE
  5
840
330
1E
100
AcDbEntity
  8
0
100
AcDbPolyline
 90
        4
 70
     0
 43
0.0
 10
45.31496062992125
 20
-92.24409448818899
 10
45.27559055118109
 20
-92.24409448818899
 10
45.255905511811
 20
-92.24409448818899
 10
45.21653543307084
 20
-92.24409448818899
  0
LINE
  5
846
330
1E
100
AcDbEntity
  8
0
100
AcDbLine
 10
45.21653543307084
 20
-92.24409448818899
 30
0.0
 11
45.15748031496062
 21
-92.24409448818899
 31
0.0
  0
LINE
  5
847
330
1E
100
AcDbEntity
  8
0
100
AcDbLine
 10
45.15748031496062
 20
-92.24409448818899
 30
0.0
 11
45.17716535433069
 21
-93.07086614173229
 31
0.0
  0
LINE
  5
848
330
1E
100
AcDbEntity
  8
0
100
AcDbLine
 10
45.17716535433069
 20
-93.07086614173229
 30
0.0
 11
45.19685039370076
 21
-93.11023622047246
 31
0.0
  0
LINE
  5
849
330
1E
100
AcDbEntity
  8
0
100
AcDbLine
 10
45.19685039370076
 20
-93.11023622047246
 30
0.0
 11
45.21653543307084
 21
-92.30314960629922
 31
0.0
  0
LINE
  5
84A
330
1E
100
AcDbEntity
  8
0
100
AcDbLine
 10
45.21653543307084
 20
-92.30314960629922
 30
0.0
 11
45.21653543307084
 21
-92.30314960629922
 31
0.0
  0
LINE
  5
84B
330
1E
100
AcDbEntity
  8
0
100
AcDbLine
 10
45.15748031496062
 20
-93.07086614173229
 30
0.0
 11
45.15748031496062
 21
-92.24409448818899
 31
0.0
  0
LINE
  5
84C
330
1E
100
AcDbEntity
  8
0
100
AcDbLine
 10
45.23622047244093
 20
-92.34251968503938
 30
0.0
 11
45.23622047244093
 21
-93.11023622047246
 31
0.0
  0
LINE
  5
84D
330
1E
100
AcDbEntity
  8
0
100
AcDbLine
 10
45.23622047244093
 20
-93.11023622047246
 30
0.0
 11
45.96456692913384
 21
-93.11023622047246
 31
0.0
  0
LINE
  5
84E
330
1E
100
AcDbEntity
  8
0
100
AcDbLine
 10
45.96456692913384
 20
-92.16535433070868
 30
0.0
 11
45.21653543307084
 21
-92.16535433070868
 31
0.0
  0
LINE
  5
84F
330
1E
100
AcDbEntity
  8
0
100
AcDbLine
 10
45.21653543307084
 20
-92.16535433070868
 30
0.0
 11
45.21653543307084
 21
-92.18503937007875
 31
0.0
  0
LINE
  5
850
330
1E
100
AcDbEntity
  8
0
100
AcDbLine
 10
45.21653543307084
 20
-92.18503937007875
 30
0.0
 11
45.21653543307084
 21
-92.18503937007875
 31
0.0
  0
LINE
  5
851
330
1E
100
AcDbEntity
  8
0
100
AcDbLine
 10
45.21653543307084
 20
-92.18503937007875
 30
0.0
 11
45.96456692913384
 21
-92.18503937007875
 31
0.0
  0
LINE
  5
852
330
1E
100
AcDbEntity
  8
0
100
AcDbLine
 10
45.96456692913384
 20
-92.16535433070868
 30
0.0
 11
45.96456692913384
 21
-92.18503937007875
 31
0.0
  0
LINE
  5
853
330
1E
100
AcDbEntity
  8
0
100
AcDbLine
 10
45.21653543307084
 20
-92.24409448818899
 30
0.0
 11
45.21653543307084
 21
-92.20472440944883
 31
0.0
  0
LINE
  5
854
330
1E
100
AcDbEntity
  8
0
100
AcDbLine
 10
45.21653543307084
 20
-92.18503937007875
 30
0.0
 11
45.21653543307084
 21
-92.20472440944883
 31
0.0
  0
LWPOLYLINE
  5
855
330
1E
100
AcDbEntity
  8
0
100
AcDbPolyline
 90
        6
 70
     0
 43
0.0
 10
45.21653543307084
 20
-92.20472440944883
 10
45.21653543307084
 20
-92.2244094488189
 10
45.23622047244093
 20
-92.2244094488189
 10
45.27559055118109
 20
-92.24409448818899
 10
45.29527559055116
 20
-92.24409448818899
 10
45.31496062992125
 20
-92.24409448818899
  0
LINE
  5
85D
330
1E
100
AcDbEntity
  8
0
100
AcDbLine
 10
45.31496062992125
 20
-92.24409448818899
 30
0.0
 11
45.86614173228345
 21
-92.24409448818899
 31
0.0
  0
LWPOLYLINE
  5
85E
330
1E
100
AcDbEntity
  8
0
100
AcDbPolyline
 90
        6
 70
     0
 43
0.0
 10
45.86614173228345
 20
-92.24409448818899
 10
45.90551181102361
 20
-92.24409448818899
 10
45.92519685039369
 20
-92.24409448818899
 10
45.94488188976376
 20
-92.2244094488189
 10
45.96456692913384
 20
-92.2244094488189
 10
45.96456692913384
 20
-92.20472440944883
  0
LINE
  5
866
330
1E
100
AcDbEntity
  8
0
100
AcDbLine
 10
45.96456692913384
 20
-92.18503937007875
 30
0.0
 11
45.96456692913384
 21
-92.20472440944883
 31
0.0
  0
LWPOLYLINE
  5
867
330
1E
100
AcDbEntity
  8
0
100
AcDbPolyline
 90
        5
 70
     0
 43
0.0
 10
45.94488188976376
 20
-92.34251968503938
 10
45.92519685039369
 20
-92.36220472440946
 10
45.90551181102361
 20
-92.36220472440946
 10
45.88582677165353
 20
-92.36220472440946
 10
45.86614173228345
 20
-92.36220472440946
  0
LINE
  5
86E
330
1E
100
AcDbEntity
  8
0
100
AcDbLine
 10
45.31496062992125
 20
-92.34251968503938
 30
0.0
 11
45.86614173228345
 21
-92.34251968503938
 31
0.0
  0
LINE
  5
86F
330
1E
100
AcDbEntity
  8
0
100
AcDbLine
 10
45.21653543307084
 20
-91.37795275590553
 30
0.0
 11
45.21653543307084
 21
-91.37795275590553
 31
0.0
  0
LINE
  5
870
330
1E
100
AcDbEntity
  8
0
100
AcDbLine
 10
45.21653543307084
 20
-91.37795275590553
 30
0.0
 11
45.96456692913384
 21
-91.37795275590553
 31
0.0
  0
LWPOLYLINE
  5
871
330
1E
100
AcDbEntity
  8
0
100
AcDbPolyline
 90
        3
 70
     0
 43
0.0
 10
45.96456692913384
 20
-91.37795275590553
 10
46.02362204724407
 20
-91.37795275590553
 10
46.06299212598424
 20
-91.37795275590553
  0
LWPOLYLINE
  5
876
330
1E
100
AcDbEntity
  8
0
100
AcDbPolyline
 90
        3
 70
     0
 43
0.0
 10
46.06299212598424
 20
-93.12992125984253
 10
46.02362204724407
 20
-93.12992125984253
 10
45.96456692913384
 20
-93.12992125984253
  0
LINE
  5
87B
330
1E
100
AcDbEntity
  8
0
100
AcDbLine
 10
45.96456692913384
 20
-93.12992125984253
 30
0.0
 11
45.21653543307084
 21
-93.12992125984253
 31
0.0
  0
LINE
  5
87C
330
1E
100
AcDbEntity
  8
0
100
AcDbLine
 10
45.21653543307084
 20
-93.12992125984253
 30
0.0
 11
45.21653543307084
 21
-93.12992125984253
 31
0.0
  0
LINE
  5
87D
330
1E
100
AcDbEntity
  8
0
100
AcDbLine
 10
45.15748031496062
 20
-92.24409448818899
 30
0.0
 11
45.15748031496062
 21
-91.41732283464568
 31
0.0
  0
LINE
  5
87E
330
1E
100
AcDbEntity
  8
0
100
AcDbLine
 10
45.21653543307084
 20
-92.20472440944883
 30
0.0
 11
45.19685039370076
 21
-91.39763779527561
 31
0.0
  0
LINE
  5
87F
330
1E
100
AcDbEntity
  8
0
100
AcDbLine
 10
45.19685039370076
 20
-91.39763779527561
 30
0.0
 11
45.17716535433069
 21
-91.41732283464568
 31
0.0
  0
LINE
  5
880
330
1E
100
AcDbEntity
  8
0
100
AcDbLine
 10
45.17716535433069
 20
-91.41732283464568
 30
0.0
 11
45.15748031496062
 21
-92.24409448818899
 31
0.0
  0
LINE
  5
881
330
1E
100
AcDbEntity
  8
0
100
AcDbLine
 10
45.96456692913384
 20
-92.16535433070868
 30
0.0
 11
45.96456692913384
 21
-91.39763779527561
 31
0.0
  0
LINE
  5
882
330
1E
100
AcDbEntity
  8
0
100
AcDbLine
 10
45.96456692913384
 20
-91.39763779527561
 30
0.0
 11
45.23622047244093
 21
-91.39763779527561
 31
0.0
  0
LINE
  5
883
330
1E
100
AcDbEntity
  8
0
100
AcDbLine
 10
45.23622047244093
 20
-91.39763779527561
 30
0.0
 11
45.23622047244093
 21
-92.16535433070868
 31
0.0
  0
LINE
  5
884
330
1E
100
AcDbEntity
  8
0
100
AcDbLine
 10
45.23622047244093
 20
-92.16535433070868
 30
0.0
 11
45.96456692913384
 21
-92.16535433070868
 31
0.0
  0
LINE
  5
885
330
1E
100
AcDbEntity
  8
0
100
AcDbLine
 10
46.08267716535432
 20
-92.24409448818899
 30
0.0
 11
46.06299212598424
 21
-91.39763779527561
 31
0.0
  0
LWPOLYLINE
  5
886
330
1E
100
AcDbEntity
  8
0
100
AcDbPolyline
 90
        3
 70
     0
 43
0.0
 10
46.06299212598424
 20
-91.39763779527561
 10
46.04330708661416
 20
-91.39763779527561
 10
45.96456692913384
 20
-91.39763779527561
  0
LINE
  5
88B
330
1E
100
AcDbEntity
  8
0
100
AcDbLine
 10
45.96456692913384
 20
-92.16535433070868
 30
0.0
 11
45.96456692913384
 21
-92.16535433070868
 31
0.0
  0
LINE
  5
88C
330
1E
100
AcDbEntity
  8
0
100
AcDbLine
 10
45.96456692913384
 20
-92.20472440944883
 30
0.0
 11
45.96456692913384
 21
-92.24409448818899
 31
0.0
  0
LINE
  5
88D
330
1E
100
AcDbEntity
  8
0
100
AcDbLine
 10
45.21653543307084
 20
-93.12992125984253
 30
0.0
 11
45.19685039370076
 21
-93.12992125984253
 31
0.0
  0
LWPOLYLINE
  5
88E
330
1E
100
AcDbEntity
  8
0
100
AcDbPolyline
 90
        3
 70
     0
 43
0.0
 10
45.19685039370076
 20
-93.12992125984253
 10
45.17716535433069
 20
-93.11023622047246
 10
45.15748031496062
 20
-93.07086614173229
  0
LWPOLYLINE
  5
893
330
1E
100
AcDbEntity
  8
0
100
AcDbPolyline
 90
        3
 70
     0
 43
0.0
 10
45.15748031496062
 20
-91.41732283464568
 10
45.17716535433069
 20
-91.39763779527561
 10
45.19685039370076
 20
-91.37795275590553
  0
LINE
  5
898
330
1E
100
AcDbEntity
  8
0
100
AcDbLine
 10
45.19685039370076
 20
-91.37795275590553
 30
0.0
 11
45.21653543307084
 21
-91.37795275590553
 31
0.0
  0
LINE
  5
899
330
1E
100
AcDbEntity
  8
0
100
AcDbLine
 10
45.23622047244093
 20
-92.16535433070868
 30
0.0
 11
45.23622047244093
 21
-92.16535433070868
 31
0.0
  0
LINE
  5
89A
330
1E
100
AcDbEntity
  8
0
100
AcDbLine
 10
45.86614173228345
 20
-92.36220472440946
 30
0.0
 11
45.86614173228345
 21
-92.34251968503938
 31
0.0
  0
LINE
  5
89B
330
1E
100
AcDbEntity
  8
0
100
AcDbLine
 10
45.31496062992125
 20
-92.36220472440946
 30
0.0
 11
45.31496062992125
 21
-92.34251968503938
 31
0.0
  0
LINE
  5
89C
330
1E
100
AcDbEntity
  8
0
100
AcDbLine
 10
45.23622047244093
 20
-92.34251968503938
 30
0.0
 11
45.21653543307084
 21
-93.11023622047246
 31
0.0
  0
LINE
  5
89D
330
1E
100
AcDbEntity
  8
0
100
AcDbLine
 10
45.21653543307084
 20
-93.11023622047246
 30
0.0
 11
45.23622047244093
 21
-93.11023622047246
 31
0.0
  0
LINE
  5
89E
330
1E
100
AcDbEntity
  8
0
100
AcDbLine
 10
45.23622047244093
 20
-91.39763779527561
 30
0.0
 11
45.21653543307084
 21
-91.39763779527561
 31
0.0
  0
LINE
  5
89F
330
1E
100
AcDbEntity
  8
0
100
AcDbLine
 10
45.21653543307084
 20
-91.39763779527561
 30
0.0
 11
45.23622047244093
 21
-92.16535433070868
 31
0.0
  0
LINE
  5
8A0
330
1E
100
AcDbEntity
  8
0
100
AcDbLine
 10
45.19685039370076
 20
-93.11023622047246
 30
0.0
 11
45.21653543307084
 21
-93.11023622047246
 31
0.0
  0
LINE
  5
8A1
330
1E
100
AcDbEntity
  8
0
100
AcDbLine
 10
45.21653543307084
 20
-91.39763779527561
 30
0.0
 11
45.19685039370076
 21
-91.39763779527561
 31
0.0
  0
LINE
  5
8A2
330
1E
100
AcDbEntity
  8
0
100
AcDbLine
 10
46.06299212598424
 20
-91.39763779527561
 30
0.0
 11
46.06299212598424
 21
-91.37795275590553
 31
0.0
  0
LINE
  5
8A3
330
1E
100
AcDbEntity
  8
0
100
AcDbLine
 10
46.06299212598424
 20
-93.12992125984253
 30
0.0
 11
46.06299212598424
 21
-93.11023622047246
 31
0.0
  0
LINE
  5
8A4
330
1E
100
AcDbEntity
  8
0
100
AcDbLine
 10
45.96456692913384
 20
-91.39763779527561
 30
0.0
 11
45.96456692913384
 21
-91.37795275590553
 31
0.0
  0
LINE
  5
8A5
330
1E
100
AcDbEntity
  8
0
100
AcDbLine
 10
45.96456692913384
 20
-93.12992125984253
 30
0.0
 11
45.96456692913384
 21
-93.11023622047246
 31
0.0
  0
LWPOLYLINE
  5
8A6
330
1E
100
AcDbEntity
  8
0
100
AcDbPolyline
 90
        3
 70
     0
 43
0.0
 10
45.23622047244093
 20
-91.39763779527561
 10
45.23622047244093
 20
-91.37795275590553
 10
45.21653543307084
 20
-91.37795275590553
  0
LINE
  5
8AB
330
1E
100
AcDbEntity
  8
0
100
AcDbLine
 10
45.21653543307084
 20
-93.12992125984253
 30
0.0
 11
45.23622047244093
 21
-93.11023622047246
 31
0.0
  0
LINE
  5
8AC
330
1E
100
AcDbEntity
  8
0
100
AcDbLine
 10
45.21653543307084
 20
-91.39763779527561
 30
0.0
 11
45.21653543307084
 21
-91.37795275590553
 31
0.0
  0
LINE
  5
8AD
330
1E
100
AcDbEntity
  8
0
100
AcDbLine
 10
45.21653543307084
 20
-93.12992125984253
 30
0.0
 11
45.21653543307084
 21
-93.11023622047246
 31
0.0
  0
LWPOLYLINE
  5
8AE
330
1E
100
AcDbEntity
  8
0
100
AcDbPolyline
 90
        3
 70
     0
 43
0.0
 10
45.21653543307084
 20
-91.39763779527561
 10
45.21653543307084
 20
-91.37795275590553
 10
45.19685039370076
 20
-91.37795275590553
  0
LINE
  5
8B3
330
1E
100
AcDbEntity
  8
0
100
AcDbLine
 10
45.19685039370076
 20
-93.12992125984253
 30
0.0
 11
45.21653543307084
 21
-93.11023622047246
 31
0.0
  0
LINE
  5
8B4
330
1E
100
AcDbEntity
  8
0
100
AcDbLine
 10
45.19685039370076
 20
-91.39763779527561
 30
0.0
 11
45.19685039370076
 21
-91.37795275590553
 31
0.0
  0
LINE
  5
8B5
330
1E
100
AcDbEntity
  8
0
100
AcDbLine
 10
45.19685039370076
 20
-93.12992125984253
 30
0.0
 11
45.19685039370076
 21
-93.11023622047246
 31
0.0
  0
LINE
  5
8B6
330
1E
100
AcDbEntity
  8
0
100
AcDbLine
 10
45.17716535433069
 20
-91.41732283464568
 30
0.0
 11
45.15748031496062
 21
-91.41732283464568
 31
0.0
  0
LINE
  5
8B7
330
1E
100
AcDbEntity
  8
0
100
AcDbLine
 10
45.15748031496062
 20
-93.07086614173229
 30
0.0
 11
45.17716535433069
 21
-93.07086614173229
 31
0.0
  0
LINE
  5
8B8
330
1E
100
AcDbEntity
  8
0
100
AcDbLine
 10
45.15748031496062
 20
-92.24409448818899
 30
0.0
 11
45.15748031496062
 21
-92.24409448818899
 31
0.0
  0
LINE
  5
8B9
330
1E
100
AcDbEntity
  8
0
100
AcDbLine
 10
46.06299212598424
 20
-87.91338582677166
 30
0.0
 11
46.08267716535432
 21
-88.77952755905512
 31
0.0
  0
LINE
  5
8BA
330
1E
100
AcDbEntity
  8
0
100
AcDbLine
 10
45.96456692913384
 20
-87.91338582677166
 30
0.0
 11
45.96456692913384
 21
-88.70078740157481
 31
0.0
  0
LWPOLYLINE
  5
8BB
330
1E
100
AcDbEntity
  8
0
100
AcDbPolyline
 90
        3
 70
     0
 43
0.0
 10
46.08267716535432
 20
-88.77952755905512
 10
46.06299212598424
 20
-88.77952755905512
 10
45.96456692913384
 20
-88.77952755905512
  0
LWPOLYLINE
  5
8C0
330
1E
100
AcDbEntity
  8
0
100
AcDbPolyline
 90
        3
 70
     0
 43
0.0
 10
45.96456692913384
 20
-87.91338582677166
 10
46.04330708661416
 20
-87.91338582677166
 10
46.06299212598424
 20
-87.91338582677166
  0
LINE
  5
8C5
330
1E
100
AcDbEntity
  8
0
100
AcDbLine
 10
45.96456692913384
 20
-88.77952755905512
 30
0.0
 11
45.96456692913384
 21
-88.70078740157481
 31
0.0
  0
LINE
  5
8C6
330
1E
100
AcDbEntity
  8
0
100
AcDbLine
 10
45.86614173228345
 20
-88.68110236220474
 30
0.0
 11
45.86614173228345
 21
-88.77952755905512
 31
0.0
  0
LWPOLYLINE
  5
8C7
330
1E
100
AcDbEntity
  8
0
100
AcDbPolyline
 90
        4
 70
     0
 43
0.0
 10
45.96456692913384
 20
-88.77952755905512
 10
45.94488188976376
 20
-88.77952755905512
 10
45.90551181102361
 20
-88.77952755905512
 10
45.86614173228345
 20
-88.77952755905512
  0
LWPOLYLINE
  5
8CD
330
1E
100
AcDbEntity
  8
0
100
AcDbPolyline
 90
        5
 70
     0
 43
0.0
 10
45.86614173228345
 20
-88.68110236220474
 10
45.88582677165353
 20
-88.68110236220474
 10
45.90551181102361
 20
-88.68110236220474
 10
45.94488188976376
 20
-88.68110236220474
 10
45.96456692913384
 20
-88.70078740157481
  0
LINE
  5
8D4
330
1E
100
AcDbEntity
  8
0
100
AcDbLine
 10
45.21653543307084
 20
-88.70078740157481
 30
0.0
 11
45.21653543307084
 21
-88.77952755905512
 31
0.0
  0
LWPOLYLINE
  5
8D5
330
1E
100
AcDbEntity
  8
0
100
AcDbPolyline
 90
        4
 70
     0
 43
0.0
 10
45.31496062992125
 20
-88.77952755905512
 10
45.27559055118109
 20
-88.77952755905512
 10
45.255905511811
 20
-88.77952755905512
 10
45.21653543307084
 20
-88.77952755905512
  0
LINE
  5
8DB
330
1E
100
AcDbEntity
  8
0
100
AcDbLine
 10
45.31496062992125
 20
-88.77952755905512
 30
0.0
 11
45.31496062992125
 21
-88.68110236220474
 31
0.0
  0
LWPOLYLINE
  5
8DC
330
1E
100
AcDbEntity
  8
0
100
AcDbPolyline
 90
        5
 70
     0
 43
0.0
 10
45.21653543307084
 20
-88.70078740157481
 10
45.23622047244093
 20
-88.70078740157481
 10
45.255905511811
 20
-88.68110236220474
 10
45.29527559055116
 20
-88.68110236220474
 10
45.31496062992125
 20
-88.68110236220474
  0
LINE
  5
8E3
330
1E
100
AcDbEntity
  8
0
100
AcDbLine
 10
45.21653543307084
 20
-88.77952755905512
 30
0.0
 11
45.15748031496062
 21
-88.77952755905512
 31
0.0
  0
LINE
  5
8E4
330
1E
100
AcDbEntity
  8
0
100
AcDbLine
 10
45.21653543307084
 20
-88.74015748031498
 30
0.0
 11
45.21653543307084
 21
-88.74015748031498
 31
0.0
  0
LINE
  5
8E5
330
1E
100
AcDbEntity
  8
0
100
AcDbLine
 10
45.19685039370076
 20
-87.91338582677166
 30
0.0
 11
45.21653543307084
 21
-88.74015748031498
 31
0.0
  0
LINE
  5
8E6
330
1E
100
AcDbEntity
  8
0
100
AcDbLine
 10
45.17716535433069
 20
-87.95275590551183
 30
0.0
 11
45.19685039370076
 21
-87.91338582677166
 31
0.0
  0
LINE
  5
8E7
330
1E
100
AcDbEntity
  8
0
100
AcDbLine
 10
45.15748031496062
 20
-88.77952755905512
 30
0.0
 11
45.17716535433069
 21
-87.95275590551183
 31
0.0
  0
LINE
  5
8E8
330
1E
100
AcDbEntity
  8
0
100
AcDbLine
 10
45.15748031496062
 20
-87.95275590551183
 30
0.0
 11
45.15748031496062
 21
-88.77952755905512
 31
0.0
  0
LINE
  5
8E9
330
1E
100
AcDbEntity
  8
0
100
AcDbLine
 10
45.23622047244093
 20
-88.68110236220474
 30
0.0
 11
45.23622047244093
 21
-87.91338582677166
 31
0.0
  0
LINE
  5
8EA
330
1E
100
AcDbEntity
  8
0
100
AcDbLine
 10
45.23622047244093
 20
-87.91338582677166
 30
0.0
 11
45.96456692913384
 21
-87.91338582677166
 31
0.0
  0
LINE
  5
8EB
330
1E
100
AcDbEntity
  8
0
100
AcDbLine
 10
45.96456692913384
 20
-88.85826771653544
 30
0.0
 11
45.21653543307084
 21
-88.85826771653544
 31
0.0
  0
LINE
  5
8EC
330
1E
100
AcDbEntity
  8
0
100
AcDbLine
 10
45.21653543307084
 20
-88.85826771653544
 30
0.0
 11
45.21653543307084
 21
-88.85826771653544
 31
0.0
  0
LINE
  5
8ED
330
1E
100
AcDbEntity
  8
0
100
AcDbLine
 10
45.96456692913384
 20
-88.85826771653544
 30
0.0
 11
45.96456692913384
 21
-88.83858267716536
 31
0.0
  0
LINE
  5
8EE
330
1E
100
AcDbEntity
  8
0
100
AcDbLine
 10
45.21653543307084
 20
-88.83858267716536
 30
0.0
 11
45.96456692913384
 21
-88.83858267716536
 31
0.0
  0
LINE
  5
8EF
330
1E
100
AcDbEntity
  8
0
100
AcDbLine
 10
45.21653543307084
 20
-88.85826771653544
 30
0.0
 11
45.21653543307084
 21
-88.83858267716536
 31
0.0
  0
LINE
  5
8F0
330
1E
100
AcDbEntity
  8
0
100
AcDbLine
 10
45.21653543307084
 20
-88.83858267716536
 30
0.0
 11
45.21653543307084
 21
-88.81889763779529
 31
0.0
  0
LINE
  5
8F1
330
1E
100
AcDbEntity
  8
0
100
AcDbLine
 10
45.21653543307084
 20
-88.77952755905512
 30
0.0
 11
45.21653543307084
 21
-88.81889763779529
 31
0.0
  0
LINE
  5
8F2
330
1E
100
AcDbEntity
  8
0
100
AcDbLine
 10
45.96456692913384
 20
-88.83858267716536
 30
0.0
 11
45.96456692913384
 21
-88.81889763779529
 31
0.0
  0
LWPOLYLINE
  5
8F3
330
1E
100
AcDbEntity
  8
0
100
AcDbPolyline
 90
        5
 70
     0
 43
0.0
 10
45.86614173228345
 20
-88.77952755905512
 10
45.90551181102361
 20
-88.77952755905512
 10
45.92519685039369
 20
-88.79921259842522
 10
45.94488188976376
 20
-88.79921259842522
 10
45.96456692913384
 20
-88.81889763779529
  0
LINE
  5
8FA
330
1E
100
AcDbEntity
  8
0
100
AcDbLine
 10
45.31496062992125
 20
-88.77952755905512
 30
0.0
 11
45.86614173228345
 21
-88.77952755905512
 31
0.0
  0
LWPOLYLINE
  5
8FB
330
1E
100
AcDbEntity
  8
0
100
AcDbPolyline
 90
        6
 70
     0
 43
0.0
 10
45.21653543307084
 20
-88.81889763779529
 10
45.21653543307084
 20
-88.79921259842522
 10
45.23622047244093
 20
-88.79921259842522
 10
45.27559055118109
 20
-88.77952755905512
 10
45.29527559055116
 20
-88.77952755905512
 10
45.31496062992125
 20
-88.77952755905512
  0
LINE
  5
903
330
1E
100
AcDbEntity
  8
0
100
AcDbLine
 10
45.31496062992125
 20
-88.68110236220474
 30
0.0
 11
45.86614173228345
 21
-88.68110236220474
 31
0.0
  0
LWPOLYLINE
  5
904
330
1E
100
AcDbEntity
  8
0
100
AcDbPolyline
 90
        3
 70
     0
 43
0.0
 10
45.96456692913384
 20
-89.64566929133859
 10
46.02362204724407
 20
-89.64566929133859
 10
46.06299212598424
 20
-89.64566929133859
  0
LINE
  5
909
330
1E
100
AcDbEntity
  8
0
100
AcDbLine
 10
45.21653543307084
 20
-89.64566929133859
 30
0.0
 11
45.96456692913384
 21
-89.64566929133859
 31
0.0
  0
LINE
  5
90A
330
1E
100
AcDbEntity
  8
0
100
AcDbLine
 10
45.21653543307084
 20
-89.64566929133859
 30
0.0
 11
45.21653543307084
 21
-89.64566929133859
 31
0.0
  0
LINE
  5
90B
330
1E
100
AcDbEntity
  8
0
100
AcDbLine
 10
45.21653543307084
 20
-87.91338582677166
 30
0.0
 11
45.21653543307084
 21
-87.91338582677166
 31
0.0
  0
LINE
  5
90C
330
1E
100
AcDbEntity
  8
0
100
AcDbLine
 10
45.96456692913384
 20
-87.91338582677166
 30
0.0
 11
45.21653543307084
 21
-87.91338582677166
 31
0.0
  0
LWPOLYLINE
  5
90D
330
1E
100
AcDbEntity
  8
0
100
AcDbPolyline
 90
        3
 70
     0
 43
0.0
 10
46.06299212598424
 20
-87.91338582677166
 10
46.02362204724407
 20
-87.91338582677166
 10
45.96456692913384
 20
-87.91338582677166
  0
LINE
  5
912
330
1E
100
AcDbEntity
  8
0
100
AcDbLine
 10
45.15748031496062
 20
-88.77952755905512
 30
0.0
 11
45.15748031496062
 21
-89.60629921259844
 31
0.0
  0
LINE
  5
913
330
1E
100
AcDbEntity
  8
0
100
AcDbLine
 10
45.21653543307084
 20
-88.81889763779529
 30
0.0
 11
45.19685039370076
 21
-89.64566929133859
 31
0.0
  0
LINE
  5
914
330
1E
100
AcDbEntity
  8
0
100
AcDbLine
 10
45.17716535433069
 20
-89.60629921259844
 30
0.0
 11
45.15748031496062
 21
-88.77952755905512
 31
0.0
  0
LINE
  5
915
330
1E
100
AcDbEntity
  8
0
100
AcDbLine
 10
45.19685039370076
 20
-89.64566929133859
 30
0.0
 11
45.17716535433069
 21
-89.60629921259844
 31
0.0
  0
LINE
  5
916
330
1E
100
AcDbEntity
  8
0
100
AcDbLine
 10
45.96456692913384
 20
-88.85826771653544
 30
0.0
 11
45.96456692913384
 21
-89.64566929133859
 31
0.0
  0
LINE
  5
917
330
1E
100
AcDbEntity
  8
0
100
AcDbLine
 10
45.23622047244093
 20
-88.87795275590553
 30
0.0
 11
45.96456692913384
 21
-88.87795275590553
 31
0.0
  0
LINE
  5
918
330
1E
100
AcDbEntity
  8
0
100
AcDbLine
 10
45.23622047244093
 20
-89.64566929133859
 30
0.0
 11
45.23622047244093
 21
-88.87795275590553
 31
0.0
  0
LINE
  5
919
330
1E
100
AcDbEntity
  8
0
100
AcDbLine
 10
45.96456692913384
 20
-89.64566929133859
 30
0.0
 11
45.23622047244093
 21
-89.64566929133859
 31
0.0
  0
LINE
  5
91A
330
1E
100
AcDbEntity
  8
0
100
AcDbLine
 10
46.08267716535432
 20
-88.77952755905512
 30
0.0
 11
46.06299212598424
 21
-89.64566929133859
 31
0.0
  0
LWPOLYLINE
  5
91B
330
1E
100
AcDbEntity
  8
0
100
AcDbPolyline
 90
        3
 70
     0
 43
0.0
 10
46.06299212598424
 20
-89.64566929133859
 10
46.04330708661416
 20
-89.64566929133859
 10
45.96456692913384
 20
-89.64566929133859
  0
LINE
  5
920
330
1E
100
AcDbEntity
  8
0
100
AcDbLine
 10
45.96456692913384
 20
-88.81889763779529
 30
0.0
 11
45.96456692913384
 21
-88.77952755905512
 31
0.0
  0
LINE
  5
921
330
1E
100
AcDbEntity
  8
0
100
AcDbLine
 10
45.96456692913384
 20
-88.87795275590553
 30
0.0
 11
45.96456692913384
 21
-88.85826771653544
 31
0.0
  0
LWPOLYLINE
  5
922
330
1E
100
AcDbEntity
  8
0
100
AcDbPolyline
 90
        3
 70
     0
 43
0.0
 10
45.19685039370076
 20
-87.91338582677166
 10
45.17716535433069
 20
-87.93307086614174
 10
45.15748031496062
 20
-87.95275590551183
  0
LINE
  5
927
330
1E
100
AcDbEntity
  8
0
100
AcDbLine
 10
45.21653543307084
 20
-87.91338582677166
 30
0.0
 11
45.19685039370076
 21
-87.91338582677166
 31
0.0
  0
LINE
  5
928
330
1E
100
AcDbEntity
  8
0
100
AcDbLine
 10
45.19685039370076
 20
-89.64566929133859
 30
0.0
 11
45.21653543307084
 21
-89.64566929133859
 31
0.0
  0
LWPOLYLINE
  5
929
330
1E
100
AcDbEntity
  8
0
100
AcDbPolyline
 90
        3
 70
     0
 43
0.0
 10
45.15748031496062
 20
-89.60629921259844
 10
45.17716535433069
 20
-89.62598425196851
 10
45.19685039370076
 20
-89.64566929133859
  0
LINE
  5
92E
330
1E
100
AcDbEntity
  8
0
100
AcDbLine
 10
45.23622047244093
 20
-88.87795275590553
 30
0.0
 11
45.23622047244093
 21
-88.85826771653544
 31
0.0
  0
LINE
  5
92F
330
1E
100
AcDbEntity
  8
0
100
AcDbLine
 10
45.86614173228345
 20
-88.66141732283466
 30
0.0
 11
45.86614173228345
 21
-88.68110236220474
 31
0.0
  0
LINE
  5
930
330
1E
100
AcDbEntity
  8
0
100
AcDbLine
 10
45.31496062992125
 20
-88.66141732283466
 30
0.0
 11
45.31496062992125
 21
-88.68110236220474
 31
0.0
  0
LINE
  5
931
330
1E
100
AcDbEntity
  8
0
100
AcDbLine
 10
45.23622047244093
 20
-88.68110236220474
 30
0.0
 11
45.21653543307084
 21
-87.91338582677166
 31
0.0
  0
LINE
  5
932
330
1E
100
AcDbEntity
  8
0
100
AcDbLine
 10
45.21653543307084
 20
-87.91338582677166
 30
0.0
 11
45.23622047244093
 21
-87.91338582677166
 31
0.0
  0
LINE
  5
933
330
1E
100
AcDbEntity
  8
0
100
AcDbLine
 10
45.21653543307084
 20
-89.64566929133859
 30
0.0
 11
45.23622047244093
 21
-88.85826771653544
 31
0.0
  0
LINE
  5
934
330
1E
100
AcDbEntity
  8
0
100
AcDbLine
 10
45.23622047244093
 20
-89.64566929133859
 30
0.0
 11
45.21653543307084
 21
-89.64566929133859
 31
0.0
  0
LINE
  5
935
330
1E
100
AcDbEntity
  8
0
100
AcDbLine
 10
45.19685039370076
 20
-87.91338582677166
 30
0.0
 11
45.21653543307084
 21
-87.91338582677166
 31
0.0
  0
LINE
  5
936
330
1E
100
AcDbEntity
  8
0
100
AcDbLine
 10
45.21653543307084
 20
-89.64566929133859
 30
0.0
 11
45.19685039370076
 21
-89.64566929133859
 31
0.0
  0
LINE
  5
937
330
1E
100
AcDbEntity
  8
0
100
AcDbLine
 10
45.23622047244093
 20
-89.64566929133859
 30
0.0
 11
45.21653543307084
 21
-89.64566929133859
 31
0.0
  0
LINE
  5
938
330
1E
100
AcDbEntity
  8
0
100
AcDbLine
 10
45.21653543307084
 20
-87.91338582677166
 30
0.0
 11
45.23622047244093
 21
-87.91338582677166
 31
0.0
  0
LINE
  5
939
330
1E
100
AcDbEntity
  8
0
100
AcDbLine
 10
45.21653543307084
 20
-89.64566929133859
 30
0.0
 11
45.19685039370076
 21
-89.64566929133859
 31
0.0
  0
LINE
  5
93A
330
1E
100
AcDbEntity
  8
0
100
AcDbLine
 10
45.19685039370076
 20
-87.91338582677166
 30
0.0
 11
45.21653543307084
 21
-87.91338582677166
 31
0.0
  0
LINE
  5
93B
330
1E
100
AcDbEntity
  8
0
100
AcDbLine
 10
45.17716535433069
 20
-89.60629921259844
 30
0.0
 11
45.15748031496062
 21
-89.60629921259844
 31
0.0
  0
LINE
  5
93C
330
1E
100
AcDbEntity
  8
0
100
AcDbLine
 10
45.15748031496062
 20
-87.95275590551183
 30
0.0
 11
45.17716535433069
 21
-87.95275590551183
 31
0.0
  0
LINE
  5
93D
330
1E
100
AcDbEntity
  8
0
100
AcDbLine
 10
45.15748031496062
 20
-88.77952755905512
 30
0.0
 11
45.15748031496062
 21
-88.77952755905512
 31
0.0
  0
LINE
  5
93E
330
1E
100
AcDbEntity
  8
0
100
AcDbLine
 10
30.8070866141732
 20
-93.11023622047244
 30
0.0
 11
30.78740157480313
 21
-92.24409448818898
 31
0.0
  0
LINE
  5
93F
330
1E
100
AcDbEntity
  8
0
100
AcDbLine
 10
30.92519685039368
 20
-93.11023622047244
 30
0.0
 11
30.9055118110236
 21
-92.32283464566931
 31
0.0
  0
LWPOLYLINE
  5
940
330
1E
100
AcDbEntity
  8
0
100
AcDbPolyline
 90
        3
 70
     0
 43
0.0
 10
30.78740157480313
 20
-92.24409448818898
 10
30.82677165354328
 20
-92.24409448818898
 10
30.9055118110236
 20
-92.24409448818898
  0
LWPOLYLINE
  5
945
330
1E
100
AcDbEntity
  8
0
100
AcDbPolyline
 90
        3
 70
     0
 43
0.0
 10
30.92519685039368
 20
-93.11023622047244
 10
30.84645669291337
 20
-93.11023622047244
 10
30.8070866141732
 20
-93.11023622047244
  0
LINE
  5
94A
330
1E
100
AcDbEntity
  8
0
100
AcDbLine
 10
30.9055118110236
 20
-92.24409448818898
 30
0.0
 11
30.9055118110236
 21
-92.32283464566931
 31
0.0
  0
LINE
  5
94B
330
1E
100
AcDbEntity
  8
0
100
AcDbLine
 10
31.003937007874
 20
-92.36220472440946
 30
0.0
 11
31.003937007874
 21
-92.24409448818898
 31
0.0
  0
LWPOLYLINE
  5
94C
330
1E
100
AcDbEntity
  8
0
100
AcDbPolyline
 90
        5
 70
     0
 43
0.0
 10
30.9055118110236
 20
-92.24409448818898
 10
30.92519685039368
 20
-92.24409448818898
 10
30.94488188976376
 20
-92.24409448818898
 10
30.96456692913383
 20
-92.24409448818898
 10
31.003937007874
 20
-92.24409448818898
  0
LWPOLYLINE
  5
953
330
1E
100
AcDbEntity
  8
0
100
AcDbPolyline
 90
        5
 70
     0
 43
0.0
 10
31.003937007874
 20
-92.36220472440946
 10
30.96456692913383
 20
-92.34251968503938
 10
30.94488188976376
 20
-92.34251968503938
 10
30.92519685039368
 20
-92.34251968503938
 10
30.9055118110236
 20
-92.32283464566931
  0
LINE
  5
95A
330
1E
100
AcDbEntity
  8
0
100
AcDbLine
 10
31.65354330708659
 20
-92.32283464566931
 30
0.0
 11
31.65354330708659
 21
-92.24409448818898
 31
0.0
  0
LWPOLYLINE
  5
95B
330
1E
100
AcDbEntity
  8
0
100
AcDbPolyline
 90
        4
 70
     0
 43
0.0
 10
31.5551181102362
 20
-92.24409448818898
 10
31.59448818897636
 20
-92.24409448818898
 10
31.63385826771651
 20
-92.24409448818898
 10
31.65354330708659
 20
-92.24409448818898
  0
LINE
  5
961
330
1E
100
AcDbEntity
  8
0
100
AcDbLine
 10
31.5551181102362
 20
-92.24409448818898
 30
0.0
 11
31.5551181102362
 21
-92.36220472440946
 31
0.0
  0
LWPOLYLINE
  5
962
330
1E
100
AcDbEntity
  8
0
100
AcDbPolyline
 90
        6
 70
     0
 43
0.0
 10
31.65354330708659
 20
-92.32283464566931
 10
31.65354330708659
 20
-92.34251968503938
 10
31.63385826771651
 20
-92.34251968503938
 10
31.61417322834644
 20
-92.34251968503938
 10
31.59448818897636
 20
-92.36220472440946
 10
31.5551181102362
 20
-92.36220472440946
  0
LINE
  5
96A
330
1E
100
AcDbEntity
  8
0
100
AcDbLine
 10
31.65354330708659
 20
-92.24409448818898
 30
0.0
 11
31.71259842519683
 21
-92.24409448818898
 31
0.0
  0
LINE
  5
96B
330
1E
100
AcDbEntity
  8
0
100
AcDbLine
 10
31.65354330708659
 20
-92.3031496062992
 30
0.0
 11
31.65354330708659
 21
-92.3031496062992
 31
0.0
  0
LINE
  5
96C
330
1E
100
AcDbEntity
  8
0
100
AcDbLine
 10
31.67322834645668
 20
-93.11023622047244
 30
0.0
 11
31.65354330708659
 21
-92.3031496062992
 31
0.0
  0
LINE
  5
96D
330
1E
100
AcDbEntity
  8
0
100
AcDbLine
 10
31.69291338582675
 20
-93.07086614173227
 30
0.0
 11
31.67322834645668
 21
-93.11023622047244
 31
0.0
  0
LINE
  5
96E
330
1E
100
AcDbEntity
  8
0
100
AcDbLine
 10
31.71259842519683
 20
-92.24409448818898
 30
0.0
 11
31.69291338582675
 21
-93.07086614173227
 31
0.0
  0
LINE
  5
96F
330
1E
100
AcDbEntity
  8
0
100
AcDbLine
 10
31.71259842519683
 20
-93.07086614173227
 30
0.0
 11
31.73228346456691
 21
-92.24409448818898
 31
0.0
  0
LINE
  5
970
330
1E
100
AcDbEntity
  8
0
100
AcDbLine
 10
31.63385826771651
 20
-92.36220472440946
 30
0.0
 11
31.65354330708659
 21
-93.11023622047244
 31
0.0
  0
LINE
  5
971
330
1E
100
AcDbEntity
  8
0
100
AcDbLine
 10
31.65354330708659
 20
-93.11023622047244
 30
0.0
 11
30.92519685039368
 21
-93.11023622047244
 31
0.0
  0
LINE
  5
972
330
1E
100
AcDbEntity
  8
0
100
AcDbLine
 10
30.9055118110236
 20
-92.18503937007874
 30
0.0
 11
31.65354330708659
 21
-92.18503937007874
 31
0.0
  0
LINE
  5
973
330
1E
100
AcDbEntity
  8
0
100
AcDbLine
 10
31.65354330708659
 20
-92.18503937007874
 30
0.0
 11
31.65354330708659
 21
-92.18503937007874
 31
0.0
  0
LINE
  5
974
330
1E
100
AcDbEntity
  8
0
100
AcDbLine
 10
30.9055118110236
 20
-92.18503937007874
 30
0.0
 11
30.9055118110236
 21
-92.18503937007874
 31
0.0
  0
LINE
  5
975
330
1E
100
AcDbEntity
  8
0
100
AcDbLine
 10
31.65354330708659
 20
-92.18503937007874
 30
0.0
 11
30.9055118110236
 21
-92.18503937007874
 31
0.0
  0
LINE
  5
976
330
1E
100
AcDbEntity
  8
0
100
AcDbLine
 10
31.65354330708659
 20
-92.18503937007874
 30
0.0
 11
31.65354330708659
 21
-92.18503937007874
 31
0.0
  0
LINE
  5
977
330
1E
100
AcDbEntity
  8
0
100
AcDbLine
 10
31.65354330708659
 20
-92.18503937007874
 30
0.0
 11
31.65354330708659
 21
-92.20472440944881
 31
0.0
  0
LINE
  5
978
330
1E
100
AcDbEntity
  8
0
100
AcDbLine
 10
31.65354330708659
 20
-92.24409448818898
 30
0.0
 11
31.65354330708659
 21
-92.20472440944881
 31
0.0
  0
LINE
  5
979
330
1E
100
AcDbEntity
  8
0
100
AcDbLine
 10
30.9055118110236
 20
-92.18503937007874
 30
0.0
 11
30.9055118110236
 21
-92.20472440944881
 31
0.0
  0
LWPOLYLINE
  5
97A
330
1E
100
AcDbEntity
  8
0
100
AcDbPolyline
 90
        6
 70
     0
 43
0.0
 10
31.003937007874
 20
-92.24409448818898
 10
30.98425196850391
 20
-92.24409448818898
 10
30.94488188976376
 20
-92.24409448818898
 10
30.92519685039368
 20
-92.22440944881888
 10
30.9055118110236
 20
-92.22440944881888
 10
30.9055118110236
 20
-92.20472440944881
  0
LINE
  5
982
330
1E
100
AcDbEntity
  8
0
100
AcDbLine
 10
31.5551181102362
 20
-92.24409448818898
 30
0.0
 11
31.003937007874
 21
-92.24409448818898
 31
0.0
  0
LWPOLYLINE
  5
983
330
1E
100
AcDbEntity
  8
0
100
AcDbPolyline
 90
        6
 70
     0
 43
0.0
 10
31.65354330708659
 20
-92.20472440944881
 10
31.65354330708659
 20
-92.22440944881888
 10
31.63385826771651
 20
-92.24409448818898
 10
31.61417322834644
 20
-92.24409448818898
 10
31.57480314960628
 20
-92.24409448818898
 10
31.5551181102362
 20
-92.24409448818898
  0
LINE
  5
98B
330
1E
100
AcDbEntity
  8
0
100
AcDbLine
 10
31.5551181102362
 20
-92.36220472440946
 30
0.0
 11
31.003937007874
 21
-92.36220472440946
 31
0.0
  0
LWPOLYLINE
  5
98C
330
1E
100
AcDbEntity
  8
0
100
AcDbPolyline
 90
        3
 70
     0
 43
0.0
 10
30.92519685039368
 20
-91.37795275590551
 10
30.84645669291337
 20
-91.37795275590551
 10
30.82677165354328
 20
-91.37795275590551
  0
LINE
  5
991
330
1E
100
AcDbEntity
  8
0
100
AcDbLine
 10
31.65354330708659
 20
-91.37795275590551
 30
0.0
 11
30.92519685039368
 21
-91.37795275590551
 31
0.0
  0
LINE
  5
992
330
1E
100
AcDbEntity
  8
0
100
AcDbLine
 10
31.67322834645668
 20
-91.37795275590551
 30
0.0
 11
31.65354330708659
 21
-91.37795275590551
 31
0.0
  0
LINE
  5
993
330
1E
100
AcDbEntity
  8
0
100
AcDbLine
 10
31.65354330708659
 20
-93.12992125984251
 30
0.0
 11
31.67322834645668
 21
-93.12992125984251
 31
0.0
  0
LINE
  5
994
330
1E
100
AcDbEntity
  8
0
100
AcDbLine
 10
30.92519685039368
 20
-93.12992125984251
 30
0.0
 11
31.65354330708659
 21
-93.12992125984251
 31
0.0
  0
LWPOLYLINE
  5
995
330
1E
100
AcDbEntity
  8
0
100
AcDbPolyline
 90
        3
 70
     0
 43
0.0
 10
30.82677165354328
 20
-93.12992125984251
 10
30.84645669291337
 20
-93.12992125984251
 10
30.92519685039368
 20
-93.12992125984251
  0
LINE
  5
99A
330
1E
100
AcDbEntity
  8
0
100
AcDbLine
 10
31.73228346456691
 20
-92.24409448818898
 30
0.0
 11
31.71259842519683
 21
-91.43700787401574
 31
0.0
  0
LINE
  5
99B
330
1E
100
AcDbEntity
  8
0
100
AcDbLine
 10
31.65354330708659
 20
-92.20472440944881
 30
0.0
 11
31.67322834645668
 21
-91.39763779527559
 31
0.0
  0
LINE
  5
99C
330
1E
100
AcDbEntity
  8
0
100
AcDbLine
 10
31.69291338582675
 20
-91.43700787401574
 30
0.0
 11
31.71259842519683
 21
-92.24409448818898
 31
0.0
  0
LINE
  5
99D
330
1E
100
AcDbEntity
  8
0
100
AcDbLine
 10
31.67322834645668
 20
-91.39763779527559
 30
0.0
 11
31.69291338582675
 21
-91.43700787401574
 31
0.0
  0
LINE
  5
99E
330
1E
100
AcDbEntity
  8
0
100
AcDbLine
 10
30.9055118110236
 20
-92.18503937007874
 30
0.0
 11
30.92519685039368
 21
-91.39763779527559
 31
0.0
  0
LINE
  5
99F
330
1E
100
AcDbEntity
  8
0
100
AcDbLine
 10
31.63385826771651
 20
-92.16535433070866
 30
0.0
 11
30.9055118110236
 21
-92.16535433070866
 31
0.0
  0
LINE
  5
9A0
330
1E
100
AcDbEntity
  8
0
100
AcDbLine
 10
31.65354330708659
 20
-91.39763779527559
 30
0.0
 11
31.63385826771651
 21
-92.16535433070866
 31
0.0
  0
LINE
  5
9A1
330
1E
100
AcDbEntity
  8
0
100
AcDbLine
 10
30.92519685039368
 20
-91.39763779527559
 30
0.0
 11
31.65354330708659
 21
-91.39763779527559
 31
0.0
  0
LINE
  5
9A2
330
1E
100
AcDbEntity
  8
0
100
AcDbLine
 10
30.78740157480313
 20
-92.24409448818898
 30
0.0
 11
30.8070866141732
 21
-91.39763779527559
 31
0.0
  0
LWPOLYLINE
  5
9A3
330
1E
100
AcDbEntity
  8
0
100
AcDbPolyline
 90
        3
 70
     0
 43
0.0
 10
30.8070866141732
 20
-91.39763779527559
 10
30.84645669291337
 20
-91.39763779527559
 10
30.92519685039368
 20
-91.39763779527559
  0
LINE
  5
9A8
330
1E
100
AcDbEntity
  8
0
100
AcDbLine
 10
30.9055118110236
 20
-92.20472440944881
 30
0.0
 11
30.9055118110236
 21
-92.24409448818898
 31
0.0
  0
LINE
  5
9A9
330
1E
100
AcDbEntity
  8
0
100
AcDbLine
 10
30.9055118110236
 20
-92.16535433070866
 30
0.0
 11
30.9055118110236
 21
-92.18503937007874
 31
0.0
  0
LWPOLYLINE
  5
9AA
330
1E
100
AcDbEntity
  8
0
100
AcDbPolyline
 90
        3
 70
     0
 43
0.0
 10
31.67322834645668
 20
-93.12992125984251
 10
31.71259842519683
 20
-93.11023622047244
 10
31.71259842519683
 20
-93.07086614173227
  0
LWPOLYLINE
  5
9AF
330
1E
100
AcDbEntity
  8
0
100
AcDbPolyline
 90
        3
 70
     0
 43
0.0
 10
31.71259842519683
 20
-91.43700787401574
 10
31.71259842519683
 20
-91.39763779527559
 10
31.67322834645668
 20
-91.37795275590551
  0
LINE
  5
9B4
330
1E
100
AcDbEntity
  8
0
100
AcDbLine
 10
31.63385826771651
 20
-92.16535433070866
 30
0.0
 11
31.65354330708659
 21
-92.18503937007874
 31
0.0
  0
LINE
  5
9B5
330
1E
100
AcDbEntity
  8
0
100
AcDbLine
 10
31.65354330708659
 20
-92.34251968503938
 30
0.0
 11
31.65354330708659
 21
-93.11023622047244
 31
0.0
  0
LINE
  5
9B6
330
1E
100
AcDbEntity
  8
0
100
AcDbLine
 10
31.65354330708659
 20
-93.11023622047244
 30
0.0
 11
31.65354330708659
 21
-93.11023622047244
 31
0.0
  0
LINE
  5
9B7
330
1E
100
AcDbEntity
  8
0
100
AcDbLine
 10
31.65354330708659
 20
-91.39763779527559
 30
0.0
 11
31.65354330708659
 21
-92.18503937007874
 31
0.0
  0
LINE
  5
9B8
330
1E
100
AcDbEntity
  8
0
100
AcDbLine
 10
31.65354330708659
 20
-91.39763779527559
 30
0.0
 11
31.65354330708659
 21
-91.39763779527559
 31
0.0
  0
LINE
  5
9B9
330
1E
100
AcDbEntity
  8
0
100
AcDbLine
 10
31.67322834645668
 20
-93.11023622047244
 30
0.0
 11
31.65354330708659
 21
-93.11023622047244
 31
0.0
  0
LINE
  5
9BA
330
1E
100
AcDbEntity
  8
0
100
AcDbLine
 10
31.65354330708659
 20
-91.39763779527559
 30
0.0
 11
31.67322834645668
 21
-91.39763779527559
 31
0.0
  0
LWPOLYLINE
  5
9BB
330
1E
100
AcDbEntity
  8
0
100
AcDbPolyline
 90
        3
 70
     0
 43
0.0
 10
30.8070866141732
 20
-91.39763779527559
 10
30.8070866141732
 20
-91.37795275590551
 10
30.82677165354328
 20
-91.37795275590551
  0
LWPOLYLINE
  5
9C0
330
1E
100
AcDbEntity
  8
0
100
AcDbPolyline
 90
        3
 70
     0
 43
0.0
 10
30.82677165354328
 20
-93.12992125984251
 10
30.8070866141732
 20
-93.12992125984251
 10
30.8070866141732
 20
-93.11023622047244
  0
LINE
  5
9C5
330
1E
100
AcDbEntity
  8
0
100
AcDbLine
 10
30.92519685039368
 20
-91.39763779527559
 30
0.0
 11
30.92519685039368
 21
-91.37795275590551
 31
0.0
  0
LINE
  5
9C6
330
1E
100
AcDbEntity
  8
0
100
AcDbLine
 10
30.92519685039368
 20
-93.12992125984251
 30
0.0
 11
30.92519685039368
 21
-93.11023622047244
 31
0.0
  0
LINE
  5
9C7
330
1E
100
AcDbEntity
  8
0
100
AcDbLine
 10
31.65354330708659
 20
-91.39763779527559
 30
0.0
 11
31.65354330708659
 21
-91.37795275590551
 31
0.0
  0
LINE
  5
9C8
330
1E
100
AcDbEntity
  8
0
100
AcDbLine
 10
31.65354330708659
 20
-93.12992125984251
 30
0.0
 11
31.65354330708659
 21
-93.11023622047244
 31
0.0
  0
LWPOLYLINE
  5
9C9
330
1E
100
AcDbEntity
  8
0
100
AcDbPolyline
 90
        3
 70
     0
 43
0.0
 10
31.65354330708659
 20
-91.39763779527559
 10
31.65354330708659
 20
-91.37795275590551
 10
31.67322834645668
 20
-91.37795275590551
  0
LWPOLYLINE
  5
9CE
330
1E
100
AcDbEntity
  8
0
100
AcDbPolyline
 90
        3
 70
     0
 43
0.0
 10
31.67322834645668
 20
-93.12992125984251
 10
31.65354330708659
 20
-93.12992125984251
 10
31.65354330708659
 20
-93.11023622047244
  0
LINE
  5
9D3
330
1E
100
AcDbEntity
  8
0
100
AcDbLine
 10
31.65354330708659
 20
-91.39763779527559
 30
0.0
 11
31.67322834645668
 21
-91.37795275590551
 31
0.0
  0
LINE
  5
9D4
330
1E
100
AcDbEntity
  8
0
100
AcDbLine
 10
31.67322834645668
 20
-93.12992125984251
 30
0.0
 11
31.65354330708659
 21
-93.11023622047244
 31
0.0
  0
LINE
  5
9D5
330
1E
100
AcDbEntity
  8
0
100
AcDbLine
 10
31.67322834645668
 20
-91.39763779527559
 30
0.0
 11
31.67322834645668
 21
-91.37795275590551
 31
0.0
  0
LINE
  5
9D6
330
1E
100
AcDbEntity
  8
0
100
AcDbLine
 10
31.67322834645668
 20
-93.12992125984251
 30
0.0
 11
31.67322834645668
 21
-93.11023622047244
 31
0.0
  0
LINE
  5
9D7
330
1E
100
AcDbEntity
  8
0
100
AcDbLine
 10
31.69291338582675
 20
-91.43700787401574
 30
0.0
 11
31.71259842519683
 21
-91.43700787401574
 31
0.0
  0
LINE
  5
9D8
330
1E
100
AcDbEntity
  8
0
100
AcDbLine
 10
31.71259842519683
 20
-93.07086614173227
 30
0.0
 11
31.69291338582675
 21
-93.07086614173227
 31
0.0
  0
LINE
  5
9D9
330
1E
100
AcDbEntity
  8
0
100
AcDbLine
 10
31.71259842519683
 20
-92.24409448818898
 30
0.0
 11
31.73228346456691
 21
-92.24409448818898
 31
0.0
  0
LINE
  5
9DA
330
1E
100
AcDbEntity
  8
0
100
AcDbLine
 10
70.74803149606298
 20
-49.76377952755907
 30
0.0
 11
70.74803149606298
 21
-50.07874015748033
 31
0.0
  0
LINE
  5
9DB
330
1E
100
AcDbEntity
  8
0
100
AcDbLine
 10
71.06299212598424
 20
-50.07874015748033
 30
0.0
 11
71.06299212598424
 21
-49.76377952755907
 31
0.0
  0
LINE
  5
9DC
330
1E
100
AcDbEntity
  8
0
100
AcDbLine
 10
71.04330708661416
 20
-49.72440944881891
 30
0.0
 11
70.96456692913385
 21
-49.6456692913386
 31
0.0
  0
LINE
  5
9DD
330
1E
100
AcDbEntity
  8
0
100
AcDbLine
 10
70.82677165354329
 20
-49.6456692913386
 30
0.0
 11
70.74803149606298
 21
-49.72440944881891
 31
0.0
  0
LINE
  5
9DE
330
1E
100
AcDbEntity
  8
0
100
AcDbLine
 10
71.22047244094486
 20
-87.18503937007875
 30
0.0
 11
71.22047244094486
 21
-87.18503937007875
 31
0.0
  0
LINE
  5
9DF
330
1E
100
AcDbEntity
  8
0
100
AcDbLine
 10
71.22047244094486
 20
-87.44094488188977
 30
0.0
 11
71.22047244094486
 21
-87.44094488188977
 31
0.0
  0
LINE
  5
9E0
330
1E
100
AcDbEntity
  8
0
100
AcDbLine
 10
71.22047244094486
 20
-50.55118110236222
 30
0.0
 11
71.22047244094486
 21
-50.55118110236222
 31
0.0
  0
LINE
  5
9E1
330
1E
100
AcDbEntity
  8
0
100
AcDbLine
 10
71.22047244094486
 20
-50.80708661417324
 30
0.0
 11
71.22047244094486
 21
-50.80708661417324
 31
0.0
  0
LINE
  5
9E2
330
1E
100
AcDbEntity
  8
0
100
AcDbLine
 10
71.22047244094485
 20
-130.2362204724409
 30
0.0
 11
71.22047244094485
 21
-130.2362204724409
 31
0.0
  0
LINE
  5
9E3
330
1E
100
AcDbEntity
  8
0
100
AcDbLine
 10
71.22047244094485
 20
-130.4724409448819
 30
0.0
 11
71.22047244094485
 21
-130.4724409448819
 31
0.0
  0
LINE
  5
9E4
330
1E
100
AcDbEntity
  8
0
100
AcDbLine
 10
69.62598425196849
 20
-50.23622047244096
 30
0.0
 11
69.62598425196849
 21
-50.23622047244096
 31
0.0
  0
LINE
  5
9E5
330
1E
100
AcDbEntity
  8
0
100
AcDbLine
 10
69.62598425196849
 20
-50.15748031496064
 30
0.0
 11
69.62598425196849
 21
-50.15748031496064
 31
0.0
  0
LINE
  5
9E6
330
1E
100
AcDbEntity
  8
0
100
AcDbLine
 10
71.22047244094486
 20
-93.60236220472442
 30
0.0
 11
71.22047244094486
 21
-93.60236220472442
 31
0.0
  0
LINE
  5
9E7
330
1E
100
AcDbEntity
  8
0
100
AcDbLine
 10
71.22047244094486
 20
-93.83858267716536
 30
0.0
 11
71.22047244094486
 21
-93.83858267716536
 31
0.0
  0
LINE
  5
9E8
330
1E
100
AcDbEntity
  8
0
100
AcDbLine
 10
71.06299212598422
 20
-131.2795275590551
 30
0.0
 11
71.06299212598422
 21
-130.9645669291338
 31
0.0
  0
LINE
  5
9E9
330
1E
100
AcDbEntity
  8
0
100
AcDbLine
 10
70.74803149606296
 20
-130.9645669291338
 30
0.0
 11
70.74803149606296
 21
-131.2795275590551
 31
0.0
  0
LINE
  5
9EA
330
1E
100
AcDbEntity
  8
0
100
AcDbLine
 10
70.74803149606296
 20
-131.3188976377952
 30
0.0
 11
70.82677165354327
 21
-131.3779527559055
 31
0.0
  0
LINE
  5
9EB
330
1E
100
AcDbEntity
  8
0
100
AcDbLine
 10
70.96456692913384
 20
-131.3779527559055
 30
0.0
 11
71.04330708661414
 21
-131.3188976377952
 31
0.0
  0
LWPOLYLINE
  5
9EC
330
1E
100
AcDbEntity
  8
0
100
AcDbPolyline
 90
        3
 70
     0
 43
0.0
 10
70.74803149606298
 20
-49.72440944881891
 10
70.74803149606298
 20
-49.74409448818899
 10
70.74803149606298
 20
-49.76377952755907
  0
LWPOLYLINE
  5
9F1
330
1E
100
AcDbEntity
  8
0
100
AcDbPolyline
 90
        3
 70
     0
 43
0.0
 10
71.06299212598424
 20
-49.76377952755907
 10
71.04330708661416
 20
-49.74409448818899
 10
71.04330708661416
 20
-49.72440944881891
  0
LWPOLYLINE
  5
9F6
330
1E
100
AcDbEntity
  8
0
100
AcDbPolyline
 90
        3
 70
     0
 43
0.0
 10
70.86614173228345
 20
-49.62598425196851
 10
70.84645669291337
 20
-49.6456692913386
 10
70.82677165354329
 20
-49.6456692913386
  0
LWPOLYLINE
  5
9FB
330
1E
100
AcDbEntity
  8
0
100
AcDbPolyline
 90
        3
 70
     0
 43
0.0
 10
70.96456692913385
 20
-49.6456692913386
 10
70.94488188976376
 20
-49.6456692913386
 10
70.92519685039369
 20
-49.62598425196851
  0
LWPOLYLINE
  5
A00
330
1E
100
AcDbEntity
  8
0
100
AcDbPolyline
 90
        3
 70
     0
 43
0.0
 10
71.25984251968502
 20
-87.2244094488189
 10
71.24015748031495
 20
-87.20472440944883
 10
71.22047244094486
 20
-87.18503937007875
  0
LWPOLYLINE
  5
A05
330
1E
100
AcDbEntity
  8
0
100
AcDbPolyline
 90
        3
 70
     0
 43
0.0
 10
71.22047244094486
 20
-87.44094488188977
 10
71.24015748031495
 20
-87.4212598425197
 10
71.25984251968502
 20
-87.40157480314962
  0
LWPOLYLINE
  5
A0A
330
1E
100
AcDbEntity
  8
0
100
AcDbPolyline
 90
        3
 70
     0
 43
0.0
 10
71.25984251968502
 20
-50.59055118110237
 10
71.24015748031495
 20
-50.55118110236222
 10
71.22047244094486
 20
-50.55118110236222
  0
LWPOLYLINE
  5
A0F
330
1E
100
AcDbEntity
  8
0
100
AcDbPolyline
 90
        3
 70
     0
 43
0.0
 10
71.22047244094486
 20
-50.80708661417324
 10
71.24015748031495
 20
-50.78740157480316
 10
71.25984251968502
 20
-50.76771653543309
  0
LWPOLYLINE
  5
A14
330
1E
100
AcDbEntity
  8
0
100
AcDbPolyline
 90
        3
 70
     0
 43
0.0
 10
71.25984251968501
 20
-130.255905511811
 10
71.24015748031493
 20
-130.2362204724409
 10
71.22047244094485
 20
-130.2362204724409
  0
LWPOLYLINE
  5
A19
330
1E
100
AcDbEntity
  8
0
100
AcDbPolyline
 90
        3
 70
     0
 43
0.0
 10
71.22047244094485
 20
-130.4724409448819
 10
71.24015748031493
 20
-130.4724409448819
 10
71.25984251968501
 20
-130.4527559055118
  0
LWPOLYLINE
  5
A1E
330
1E
100
AcDbEntity
  8
0
100
AcDbPolyline
 90
        3
 70
     0
 43
0.0
 10
71.25984251968502
 20
-93.62204724409449
 10
71.24015748031495
 20
-93.60236220472442
 10
71.22047244094486
 20
-93.60236220472442
  0
LWPOLYLINE
  5
A23
330
1E
100
AcDbEntity
  8
0
100
AcDbPolyline
 90
        3
 70
     0
 43
0.0
 10
71.22047244094486
 20
-93.83858267716536
 10
71.24015748031495
 20
-93.83858267716536
 10
71.25984251968502
 20
-93.81889763779529
  0
LWPOLYLINE
  5
A28
330
1E
100
AcDbEntity
  8
0
100
AcDbPolyline
 90
        3
 70
     0
 43
0.0
 10
71.04330708661414
 20
-131.3188976377952
 10
71.04330708661414
 20
-131.2992125984252
 10
71.06299212598422
 20
-131.2795275590551
  0
LWPOLYLINE
  5
A2D
330
1E
100
AcDbEntity
  8
0
100
AcDbPolyline
 90
        3
 70
     0
 43
0.0
 10
70.74803149606296
 20
-131.2795275590551
 10
70.74803149606296
 20
-131.2992125984252
 10
70.74803149606296
 20
-131.3188976377952
  0
LWPOLYLINE
  5
A32
330
1E
100
AcDbEntity
  8
0
100
AcDbPolyline
 90
        3
 70
     0
 43
0.0
 10
70.92519685039367
 20
-131.3976377952755
 10
70.94488188976375
 20
-131.3976377952755
 10
70.96456692913384
 20
-131.3779527559055
  0
LWPOLYLINE
  5
A37
330
1E
100
AcDbEntity
  8
0
100
AcDbPolyline
 90
        3
 70
     0
 43
0.0
 10
70.82677165354327
 20
-131.3779527559055
 10
70.84645669291337
 20
-131.3976377952755
 10
70.86614173228344
 20
-131.3976377952755
  0
LINE
  5
A3C
330
1E
100
AcDbEntity
  8
0
100
AcDbLine
 10
69.92125984251967
 20
-91.37795275590553
 30
0.0
 11
69.92125984251967
 21
-91.39763779527561
 31
0.0
  0
LINE
  5
A3D
330
1E
100
AcDbEntity
  8
0
100
AcDbLine
 10
69.92125984251967
 20
-93.11023622047246
 30
0.0
 11
69.92125984251967
 21
-93.12992125984253
 31
0.0
  0
LINE
  5
A3E
330
1E
100
AcDbEntity
  8
0
100
AcDbLine
 10
69.94094488188975
 20
-89.64566929133859
 30
0.0
 11
69.94094488188975
 21
-89.64566929133859
 31
0.0
  0
LINE
  5
A3F
330
1E
100
AcDbEntity
  8
0
100
AcDbLine
 10
69.92125984251967
 20
-89.64566929133859
 30
0.0
 11
69.94094488188975
 21
-89.64566929133859
 31
0.0
  0
LINE
  5
A40
330
1E
100
AcDbEntity
  8
0
100
AcDbLine
 10
69.94094488188975
 20
-87.91338582677166
 30
0.0
 11
69.92125984251967
 21
-87.91338582677166
 31
0.0
  0
LINE
  5
A41
330
1E
100
AcDbEntity
  8
0
100
AcDbLine
 10
69.94094488188975
 20
-91.37795275590553
 30
0.0
 11
69.92125984251967
 21
-91.37795275590553
 31
0.0
  0
LINE
  5
A42
330
1E
100
AcDbEntity
  8
0
100
AcDbLine
 10
69.92125984251967
 20
-93.12992125984253
 30
0.0
 11
69.94094488188975
 21
-93.12992125984253
 31
0.0
  0
LINE
  5
A43
330
1E
100
AcDbEntity
  8
0
100
AcDbLine
 10
71.14173228346453
 20
-130.8661417322834
 30
0.0
 11
70.61023622047241
 21
-130.8661417322834
 31
0.0
  0
LWPOLYLINE
  5
A44
330
1E
100
AcDbEntity
  8
0
100
AcDbPolyline
 90
        5
 70
     0
 43
0.0
 10
71.39763779527555
 20
-130.8661417322834
 10
71.37795275590548
 20
-130.8661417322834
 10
71.31889763779525
 20
-130.8661417322834
 10
71.24015748031493
 20
-130.8661417322834
 10
71.14173228346453
 20
-130.8661417322834
  0
LINE
  5
A4B
330
1E
100
AcDbEntity
  8
0
100
AcDbLine
 10
71.39763779527555
 20
-130.8661417322834
 30
0.0
 11
71.39763779527555
 21
-130.8661417322834
 31
0.0
  0
LWPOLYLINE
  5
A4C
330
1E
100
AcDbEntity
  8
0
100
AcDbPolyline
 90
        5
 70
     0
 43
0.0
 10
71.61417322834643
 20
-130.8661417322834
 10
71.55511811023619
 20
-130.8661417322834
 10
71.47637795275588
 20
-130.8661417322834
 10
71.41732283464563
 20
-130.8661417322834
 10
71.39763779527555
 20
-130.8661417322834
  0
LINE
  5
A53
330
1E
100
AcDbEntity
  8
0
100
AcDbLine
 10
71.92913385826769
 20
-130.8661417322834
 30
0.0
 11
71.61417322834643
 21
-130.8661417322834
 31
0.0
  0
LWPOLYLINE
  5
A54
330
1E
100
AcDbEntity
  8
0
100
AcDbPolyline
 90
        3
 70
     0
 43
0.0
 10
72.007874015748
 20
-130.8661417322834
 10
71.96850393700784
 20
-130.8661417322834
 10
71.92913385826769
 20
-130.8661417322834
  0
LINE
  5
A59
330
1E
100
AcDbEntity
  8
0
100
AcDbLine
 10
72.42125984251966
 20
-130.8661417322834
 30
0.0
 11
72.007874015748
 21
-130.8661417322834
 31
0.0
  0
LINE
  5
A5A
330
1E
100
AcDbEntity
  8
0
100
AcDbLine
 10
72.007874015748
 20
-130.9645669291338
 30
0.0
 11
72.42125984251966
 21
-130.9645669291338
 31
0.0
  0
LWPOLYLINE
  5
A5B
330
1E
100
AcDbEntity
  8
0
100
AcDbPolyline
 90
        3
 70
     0
 43
0.0
 10
71.92913385826769
 20
-130.9645669291338
 10
71.96850393700784
 20
-130.9645669291338
 10
72.007874015748
 20
-130.9645669291338
  0
LINE
  5
A60
330
1E
100
AcDbEntity
  8
0
100
AcDbLine
 10
71.61417322834643
 20
-130.9645669291338
 30
0.0
 11
71.92913385826769
 21
-130.9645669291338
 31
0.0
  0
LWPOLYLINE
  5
A61
330
1E
100
AcDbEntity
  8
0
100
AcDbPolyline
 90
        5
 70
     0
 43
0.0
 10
71.39763779527555
 20
-130.9645669291338
 10
71.41732283464563
 20
-130.9645669291338
 10
71.47637795275588
 20
-130.9645669291338
 10
71.55511811023619
 20
-130.9645669291338
 10
71.61417322834643
 20
-130.9645669291338
  0
LINE
  5
A68
330
1E
100
AcDbEntity
  8
0
100
AcDbLine
 10
71.39763779527555
 20
-130.9645669291338
 30
0.0
 11
71.39763779527555
 21
-130.9645669291338
 31
0.0
  0
LWPOLYLINE
  5
A69
330
1E
100
AcDbEntity
  8
0
100
AcDbPolyline
 90
        5
 70
     0
 43
0.0
 10
71.14173228346453
 20
-130.9645669291338
 10
71.24015748031493
 20
-130.9645669291338
 10
71.31889763779525
 20
-130.9645669291338
 10
71.37795275590548
 20
-130.9645669291338
 10
71.39763779527555
 20
-130.9645669291338
  0
LINE
  5
A70
330
1E
100
AcDbEntity
  8
0
100
AcDbLine
 10
70.61023622047241
 20
-130.9645669291338
 30
0.0
 11
71.14173228346453
 21
-130.9645669291338
 31
0.0
  0
LINE
  5
A71
330
1E
100
AcDbEntity
  8
0
100
AcDbLine
 10
71.14173228346453
 20
-130.9645669291338
 30
0.0
 11
71.14173228346453
 21
-130.8661417322834
 31
0.0
  0
LINE
  5
A72
330
1E
100
AcDbEntity
  8
0
100
AcDbLine
 10
70.61023622047241
 20
-130.9645669291338
 30
0.0
 11
70.61023622047241
 21
-130.8661417322834
 31
0.0
  0
LINE
  5
A73
330
1E
100
AcDbEntity
  8
0
100
AcDbLine
 10
71.39763779527555
 20
-130.8661417322834
 30
0.0
 11
71.39763779527555
 21
-130.9645669291338
 31
0.0
  0
LINE
  5
A74
330
1E
100
AcDbEntity
  8
0
100
AcDbLine
 10
72.42125984251966
 20
-130.8661417322834
 30
0.0
 11
72.42125984251966
 21
-130.9645669291338
 31
0.0
  0
LINE
  5
A75
330
1E
100
AcDbEntity
  8
0
100
AcDbLine
 10
72.007874015748
 20
-130.8661417322834
 30
0.0
 11
72.007874015748
 21
-130.9645669291338
 31
0.0
  0
LINE
  5
A76
330
1E
100
AcDbEntity
  8
0
100
AcDbLine
 10
71.39763779527555
 20
-130.9645669291338
 30
0.0
 11
71.39763779527555
 21
-130.8661417322834
 31
0.0
  0
LINE
  5
A77
330
1E
100
AcDbEntity
  8
0
100
AcDbLine
 10
71.92913385826769
 20
-130.9645669291338
 30
0.0
 11
71.92913385826769
 21
-130.8661417322834
 31
0.0
  0
LINE
  5
A78
330
1E
100
AcDbEntity
  8
0
100
AcDbLine
 10
71.61417322834643
 20
-130.9645669291338
 30
0.0
 11
71.61417322834643
 21
-130.8661417322834
 31
0.0
  0
LWPOLYLINE
  5
A79
330
1E
100
AcDbEntity
  8
0
100
AcDbPolyline
 90
        3
 70
     0
 43
0.0
 10
70.61023622047241
 20
-130.8661417322834
 10
70.55118110236218
 20
-130.8661417322834
 10
70.49212598425194
 20
-130.8858267716535
  0
LINE
  5
A7E
330
1E
100
AcDbEntity
  8
0
100
AcDbLine
 10
70.55118110236218
 20
-130.9842519685039
 30
0.0
 11
70.49212598425194
 21
-130.8858267716535
 31
0.0
  0
LWPOLYLINE
  5
A7F
330
1E
100
AcDbEntity
  8
0
100
AcDbPolyline
 90
        3
 70
     0
 43
0.0
 10
70.61023622047241
 20
-130.9645669291338
 10
70.57086614173226
 20
-130.9645669291338
 10
70.55118110236218
 20
-130.9842519685039
  0
LINE
  5
A84
330
1E
100
AcDbEntity
  8
0
100
AcDbLine
 10
70.49212598425194
 20
-130.8858267716535
 30
0.0
 11
70.47244094488187
 21
-130.9055118110236
 31
0.0
  0
LINE
  5
A85
330
1E
100
AcDbEntity
  8
0
100
AcDbLine
 10
70.47244094488187
 20
-130.9055118110236
 30
0.0
 11
70.53149606299209
 21
-130.9842519685039
 31
0.0
  0
LINE
  5
A86
330
1E
100
AcDbEntity
  8
0
100
AcDbLine
 10
70.55118110236218
 20
-130.9842519685039
 30
0.0
 11
70.53149606299209
 21
-130.9842519685039
 31
0.0
  0
LWPOLYLINE
  5
A87
330
1E
100
AcDbEntity
  8
0
100
AcDbPolyline
 90
        3
 70
     0
 43
0.0
 10
70.53149606299209
 20
-130.9842519685039
 10
70.49212598425194
 20
-131.003937007874
 10
70.47244094488187
 20
-131.0433070866141
  0
LWPOLYLINE
  5
A8C
330
1E
100
AcDbEntity
  8
0
100
AcDbPolyline
 90
        4
 70
     0
 43
0.0
 10
72.42125984251966
 20
-130.9645669291338
 10
72.48031496062989
 20
-130.9448818897637
 10
72.53937007874013
 20
-130.8858267716535
 10
72.55905511811021
 20
-130.8267716535432
  0
LINE
  5
A92
330
1E
100
AcDbEntity
  8
0
100
AcDbLine
 10
72.55905511811021
 20
-130.8267716535432
 30
0.0
 11
72.44094488188974
 21
-130.8267716535432
 31
0.0
  0
LWPOLYLINE
  5
A93
330
1E
100
AcDbEntity
  8
0
100
AcDbPolyline
 90
        3
 70
     0
 43
0.0
 10
72.42125984251966
 20
-130.8661417322834
 10
72.44094488188974
 20
-130.8464566929133
 10
72.44094488188974
 20
-130.8267716535432
  0
LINE
  5
A98
330
1E
100
AcDbEntity
  8
0
100
AcDbLine
 10
72.55905511811021
 20
-130.8267716535432
 30
0.0
 11
72.55905511811021
 21
-130.5511811023621
 31
0.0
  0
LINE
  5
A99
330
1E
100
AcDbEntity
  8
0
100
AcDbLine
 10
72.55905511811021
 20
-130.5511811023621
 30
0.0
 11
72.44094488188974
 21
-130.5511811023621
 31
0.0
  0
LINE
  5
A9A
330
1E
100
AcDbEntity
  8
0
100
AcDbLine
 10
72.44094488188974
 20
-130.8267716535432
 30
0.0
 11
72.44094488188974
 21
-130.5511811023621
 31
0.0
  0
LWPOLYLINE
  5
A9B
330
1E
100
AcDbEntity
  8
0
100
AcDbPolyline
 90
        4
 70
     0
 43
0.0
 10
72.55905511811021
 20
-130.4330708661417
 10
72.55905511811021
 20
-130.4527559055118
 10
72.55905511811021
 20
-130.4921259842519
 10
72.55905511811021
 20
-130.5511811023621
  0
LWPOLYLINE
  5
AA1
330
1E
100
AcDbEntity
  8
0
100
AcDbPolyline
 90
        4
 70
     0
 43
0.0
 10
72.44094488188974
 20
-130.5511811023621
 10
72.44094488188974
 20
-130.4921259842519
 10
72.44094488188974
 20
-130.4527559055118
 10
72.44094488188974
 20
-130.4330708661417
  0
LINE
  5
AA7
330
1E
100
AcDbEntity
  8
0
100
AcDbLine
 10
72.44094488188974
 20
-130.4330708661417
 30
0.0
 11
72.55905511811021
 21
-130.4330708661417
 31
0.0
  0
LINE
  5
AA8
330
1E
100
AcDbEntity
  8
0
100
AcDbLine
 10
70.61023622047243
 20
-50.17716535433072
 30
0.0
 11
71.14173228346455
 21
-50.17716535433072
 31
0.0
  0
LINE
  5
AA9
330
1E
100
AcDbEntity
  8
0
100
AcDbLine
 10
71.14173228346455
 20
-50.07874015748033
 30
0.0
 11
71.14173228346455
 21
-50.17716535433072
 31
0.0
  0
LINE
  5
AAA
330
1E
100
AcDbEntity
  8
0
100
AcDbLine
 10
71.14173228346455
 20
-50.07874015748033
 30
0.0
 11
70.61023622047243
 21
-50.07874015748033
 31
0.0
  0
LINE
  5
AAB
330
1E
100
AcDbEntity
  8
0
100
AcDbLine
 10
70.61023622047243
 20
-50.07874015748033
 30
0.0
 11
70.61023622047243
 21
-50.17716535433072
 31
0.0
  0
LINE
  5
AAC
330
1E
100
AcDbEntity
  8
0
100
AcDbLine
 10
72.00787401574801
 20
-50.17716535433072
 30
0.0
 11
72.42125984251967
 21
-50.17716535433072
 31
0.0
  0
LWPOLYLINE
  5
AAD
330
1E
100
AcDbEntity
  8
0
100
AcDbPolyline
 90
        3
 70
     0
 43
0.0
 10
71.9291338582677
 20
-50.17716535433072
 10
71.96850393700785
 20
-50.17716535433072
 10
72.00787401574801
 20
-50.17716535433072
  0
LINE
  5
AB2
330
1E
100
AcDbEntity
  8
0
100
AcDbLine
 10
71.61417322834644
 20
-50.17716535433072
 30
0.0
 11
71.9291338582677
 21
-50.17716535433072
 31
0.0
  0
LWPOLYLINE
  5
AB3
330
1E
100
AcDbEntity
  8
0
100
AcDbPolyline
 90
        5
 70
     0
 43
0.0
 10
71.39763779527557
 20
-50.17716535433072
 10
71.41732283464564
 20
-50.17716535433072
 10
71.47637795275589
 20
-50.17716535433072
 10
71.55511811023621
 20
-50.17716535433072
 10
71.61417322834644
 20
-50.17716535433072
  0
LINE
  5
ABA
330
1E
100
AcDbEntity
  8
0
100
AcDbLine
 10
71.39763779527557
 20
-50.17716535433072
 30
0.0
 11
71.39763779527557
 21
-50.17716535433072
 31
0.0
  0
LWPOLYLINE
  5
ABB
330
1E
100
AcDbEntity
  8
0
100
AcDbPolyline
 90
        5
 70
     0
 43
0.0
 10
71.14173228346455
 20
-50.17716535433072
 10
71.24015748031495
 20
-50.17716535433072
 10
71.31889763779525
 20
-50.17716535433072
 10
71.3779527559055
 20
-50.17716535433072
 10
71.39763779527557
 20
-50.17716535433072
  0
LWPOLYLINE
  5
AC2
330
1E
100
AcDbEntity
  8
0
100
AcDbPolyline
 90
        5
 70
     0
 43
0.0
 10
71.39763779527557
 20
-50.07874015748033
 10
71.3779527559055
 20
-50.07874015748033
 10
71.31889763779525
 20
-50.07874015748033
 10
71.24015748031495
 20
-50.07874015748033
 10
71.14173228346455
 20
-50.07874015748033
  0
LINE
  5
AC9
330
1E
100
AcDbEntity
  8
0
100
AcDbLine
 10
71.39763779527557
 20
-50.07874015748033
 30
0.0
 11
71.39763779527557
 21
-50.07874015748033
 31
0.0
  0
LWPOLYLINE
  5
ACA
330
1E
100
AcDbEntity
  8
0
100
AcDbPolyline
 90
        5
 70
     0
 43
0.0
 10
71.61417322834644
 20
-50.07874015748033
 10
71.55511811023621
 20
-50.07874015748033
 10
71.47637795275589
 20
-50.07874015748033
 10
71.41732283464564
 20
-50.07874015748033
 10
71.39763779527557
 20
-50.07874015748033
  0
LINE
  5
AD1
330
1E
100
AcDbEntity
  8
0
100
AcDbLine
 10
71.9291338582677
 20
-50.07874015748033
 30
0.0
 11
71.61417322834644
 21
-50.07874015748033
 31
0.0
  0
LWPOLYLINE
  5
AD2
330
1E
100
AcDbEntity
  8
0
100
AcDbPolyline
 90
        3
 70
     0
 43
0.0
 10
72.00787401574801
 20
-50.07874015748033
 10
71.96850393700785
 20
-50.07874015748033
 10
71.9291338582677
 20
-50.07874015748033
  0
LINE
  5
AD7
330
1E
100
AcDbEntity
  8
0
100
AcDbLine
 10
72.42125984251967
 20
-50.07874015748033
 30
0.0
 11
72.00787401574801
 21
-50.07874015748033
 31
0.0
  0
LINE
  5
AD8
330
1E
100
AcDbEntity
  8
0
100
AcDbLine
 10
71.39763779527557
 20
-50.17716535433072
 30
0.0
 11
71.39763779527557
 21
-50.07874015748033
 31
0.0
  0
LINE
  5
AD9
330
1E
100
AcDbEntity
  8
0
100
AcDbLine
 10
72.00787401574801
 20
-50.17716535433072
 30
0.0
 11
72.00787401574801
 21
-50.07874015748033
 31
0.0
  0
LINE
  5
ADA
330
1E
100
AcDbEntity
  8
0
100
AcDbLine
 10
72.42125984251967
 20
-50.17716535433072
 30
0.0
 11
72.42125984251967
 21
-50.07874015748033
 31
0.0
  0
LINE
  5
ADB
330
1E
100
AcDbEntity
  8
0
100
AcDbLine
 10
71.39763779527557
 20
-50.07874015748033
 30
0.0
 11
71.39763779527557
 21
-50.17716535433072
 31
0.0
  0
LINE
  5
ADC
330
1E
100
AcDbEntity
  8
0
100
AcDbLine
 10
71.9291338582677
 20
-50.07874015748033
 30
0.0
 11
71.9291338582677
 21
-50.17716535433072
 31
0.0
  0
LINE
  5
ADD
330
1E
100
AcDbEntity
  8
0
100
AcDbLine
 10
71.61417322834644
 20
-50.07874015748033
 30
0.0
 11
71.61417322834644
 21
-50.17716535433072
 31
0.0
  0
LWPOLYLINE
  5
ADE
330
1E
100
AcDbEntity
  8
0
100
AcDbPolyline
 90
        3
 70
     0
 43
0.0
 10
70.61023622047243
 20
-50.07874015748033
 10
70.57086614173226
 20
-50.05905511811024
 10
70.55118110236219
 20
-50.05905511811024
  0
LINE
  5
AE3
330
1E
100
AcDbEntity
  8
0
100
AcDbLine
 10
70.55118110236219
 20
-50.05905511811024
 30
0.0
 11
70.49212598425196
 21
-50.13779527559056
 31
0.0
  0
LWPOLYLINE
  5
AE4
330
1E
100
AcDbEntity
  8
0
100
AcDbPolyline
 90
        3
 70
     0
 43
0.0
 10
70.61023622047243
 20
-50.17716535433072
 10
70.55118110236219
 20
-50.15748031496064
 10
70.49212598425196
 20
-50.13779527559056
  0
LINE
  5
AE9
330
1E
100
AcDbEntity
  8
0
100
AcDbLine
 10
70.55118110236219
 20
-50.05905511811024
 30
0.0
 11
70.53149606299211
 21
-50.03937007874017
 31
0.0
  0
LINE
  5
AEA
330
1E
100
AcDbEntity
  8
0
100
AcDbLine
 10
70.53149606299211
 20
-50.03937007874017
 30
0.0
 11
70.47244094488188
 21
-50.13779527559056
 31
0.0
  0
LINE
  5
AEB
330
1E
100
AcDbEntity
  8
0
100
AcDbLine
 10
70.49212598425196
 20
-50.13779527559056
 30
0.0
 11
70.47244094488188
 21
-50.13779527559056
 31
0.0
  0
LINE
  5
AEC
330
1E
100
AcDbEntity
  8
0
100
AcDbLine
 10
70.47244094488188
 20
-50.13779527559056
 30
0.0
 11
70.47244094488188
 21
-50.11811023622048
 31
0.0
  0
LWPOLYLINE
  5
AED
330
1E
100
AcDbEntity
  8
0
100
AcDbPolyline
 90
        3
 70
     0
 43
0.0
 10
70.47244094488188
 20
-50.00000000000001
 10
70.49212598425196
 20
-50.01968503937009
 10
70.53149606299211
 20
-50.03937007874017
  0
LWPOLYLINE
  5
AF2
330
1E
100
AcDbEntity
  8
0
100
AcDbPolyline
 90
        3
 70
     0
 43
0.0
 10
72.42125984251967
 20
-50.17716535433072
 10
72.44094488188975
 20
-50.17716535433072
 10
72.44094488188975
 20
-50.1968503937008
  0
LINE
  5
AF7
330
1E
100
AcDbEntity
  8
0
100
AcDbLine
 10
72.44094488188975
 20
-50.1968503937008
 30
0.0
 11
72.55905511811022
 21
-50.1968503937008
 31
0.0
  0
LWPOLYLINE
  5
AF8
330
1E
100
AcDbEntity
  8
0
100
AcDbPolyline
 90
        4
 70
     0
 43
0.0
 10
72.42125984251967
 20
-50.07874015748033
 10
72.48031496062989
 20
-50.0984251968504
 10
72.53937007874014
 20
-50.13779527559056
 10
72.55905511811022
 20
-50.1968503937008
  0
LINE
  5
AFE
330
1E
100
AcDbEntity
  8
0
100
AcDbLine
 10
72.44094488188975
 20
-50.1968503937008
 30
0.0
 11
72.44094488188975
 21
-50.4724409448819
 31
0.0
  0
LINE
  5
AFF
330
1E
100
AcDbEntity
  8
0
100
AcDbLine
 10
72.44094488188975
 20
-50.4724409448819
 30
0.0
 11
72.55905511811022
 21
-50.4724409448819
 31
0.0
  0
LINE
  5
B00
330
1E
100
AcDbEntity
  8
0
100
AcDbLine
 10
72.55905511811022
 20
-50.1968503937008
 30
0.0
 11
72.55905511811022
 21
-50.4724409448819
 31
0.0
  0
LWPOLYLINE
  5
B01
330
1E
100
AcDbEntity
  8
0
100
AcDbPolyline
 90
        4
 70
     0
 43
0.0
 10
72.55905511811022
 20
-50.4724409448819
 10
72.55905511811022
 20
-50.55118110236222
 10
72.55905511811022
 20
-50.59055118110237
 10
72.55905511811022
 20
-50.61023622047246
  0
LWPOLYLINE
  5
B07
330
1E
100
AcDbEntity
  8
0
100
AcDbPolyline
 90
        4
 70
     0
 43
0.0
 10
72.44094488188975
 20
-50.61023622047246
 10
72.44094488188975
 20
-50.59055118110237
 10
72.44094488188975
 20
-50.55118110236222
 10
72.44094488188975
 20
-50.4724409448819
  0
LINE
  5
B0D
330
1E
100
AcDbEntity
  8
0
100
AcDbLine
 10
72.55905511811022
 20
-50.61023622047246
 30
0.0
 11
72.44094488188975
 21
-50.61023622047246
 31
0.0
  0
LINE
  5
B0E
330
1E
100
AcDbEntity
  8
0
100
AcDbLine
 10
70.9055118110236
 20
-49.62598425196851
 30
0.0
 11
70.92519685039369
 21
-49.62598425196851
 31
0.0
  0
LINE
  5
B0F
330
1E
100
AcDbEntity
  8
0
100
AcDbLine
 10
70.86614173228345
 20
-49.62598425196851
 30
0.0
 11
70.9055118110236
 21
-49.62598425196851
 31
0.0
  0
LWPOLYLINE
  5
B10
330
1E
100
AcDbEntity
  8
0
100
AcDbPolyline
 90
        7
 70
     0
 43
0.0
 10
71.06299212598424
 20
-49.76377952755907
 10
71.04330708661416
 20
-49.76377952755907
 10
70.98425196850392
 20
-49.76377952755907
 10
70.9055118110236
 20
-49.76377952755907
 10
70.82677165354329
 20
-49.76377952755907
 10
70.76771653543305
 20
-49.76377952755907
 10
70.74803149606298
 20
-49.76377952755907
  0
LWPOLYLINE
  5
B19
330
1E
100
AcDbEntity
  8
0
100
AcDbPolyline
 90
        5
 70
     0
 43
0.0
 10
70.96456692913385
 20
-49.6456692913386
 10
70.94488188976376
 20
-49.6456692913386
 10
70.9055118110236
 20
-49.6456692913386
 10
70.84645669291337
 20
-49.6456692913386
 10
70.82677165354329
 20
-49.6456692913386
  0
LWPOLYLINE
  5
B20
330
1E
100
AcDbEntity
  8
0
100
AcDbPolyline
 90
        4
 70
     0
 43
0.0
 10
70.9055118110236
 20
-49.72440944881891
 10
70.96456692913385
 20
-49.72440944881891
 10
71.02362204724407
 20
-49.72440944881891
 10
71.04330708661416
 20
-49.72440944881891
  0
LWPOLYLINE
  5
B26
330
1E
100
AcDbEntity
  8
0
100
AcDbPolyline
 90
        4
 70
     0
 43
0.0
 10
70.74803149606298
 20
-49.72440944881891
 10
70.76771653543305
 20
-49.72440944881891
 10
70.82677165354329
 20
-49.72440944881891
 10
70.9055118110236
 20
-49.72440944881891
  0
LWPOLYLINE
  5
B2C
330
1E
100
AcDbEntity
  8
0
100
AcDbPolyline
 90
        3
 70
     0
 43
0.0
 10
70.92519685039367
 20
-131.3976377952755
 10
70.88582677165351
 20
-131.3976377952755
 10
70.86614173228344
 20
-131.3976377952755
  0
LWPOLYLINE
  5
B31
330
1E
100
AcDbEntity
  8
0
100
AcDbPolyline
 90
        4
 70
     0
 43
0.0
 10
70.90551181102359
 20
-131.2795275590551
 10
70.98425196850391
 20
-131.2795275590551
 10
71.04330708661414
 20
-131.2795275590551
 10
71.06299212598422
 20
-131.2795275590551
  0
LWPOLYLINE
  5
B37
330
1E
100
AcDbEntity
  8
0
100
AcDbPolyline
 90
        4
 70
     0
 43
0.0
 10
70.74803149606296
 20
-131.2795275590551
 10
70.76771653543303
 20
-131.2795275590551
 10
70.82677165354327
 20
-131.2795275590551
 10
70.90551181102359
 20
-131.2795275590551
  0
LWPOLYLINE
  5
B3D
330
1E
100
AcDbEntity
  8
0
100
AcDbPolyline
 90
        3
 70
     0
 43
0.0
 10
70.90551181102359
 20
-131.3779527559055
 10
70.94488188976375
 20
-131.3779527559055
 10
70.96456692913384
 20
-131.3779527559055
  0
LWPOLYLINE
  5
B42
330
1E
100
AcDbEntity
  8
0
100
AcDbPolyline
 90
        3
 70
     0
 43
0.0
 10
70.82677165354327
 20
-131.3779527559055
 10
70.84645669291337
 20
-131.3779527559055
 10
70.90551181102359
 20
-131.3779527559055
  0
LWPOLYLINE
  5
B47
330
1E
100
AcDbEntity
  8
0
100
AcDbPolyline
 90
        7
 70
     0
 43
0.0
 10
71.04330708661414
 20
-131.3188976377952
 10
71.02362204724406
 20
-131.3188976377952
 10
70.96456692913384
 20
-131.3188976377952
 10
70.90551181102359
 20
-131.3188976377952
 10
70.82677165354327
 20
-131.3188976377952
 10
70.76771653543303
 20
-131.3188976377952
 10
70.74803149606296
 20
-131.3188976377952
  0
LINE
  5
B50
330
1E
100
AcDbEntity
  8
0
100
AcDbLine
 10
71.22047244094485
 20
-130.8070866141732
 30
0.0
 11
71.22047244094486
 21
-90.01968503937009
 31
0.0
  0
LWPOLYLINE
  5
B51
330
1E
100
AcDbEntity
  8
0
100
AcDbPolyline
 90
        3
 70
     0
 43
0.0
 10
71.14173228346455
 20
-90.01968503937009
 10
71.20078740157478
 20
-90.01968503937009
 10
71.22047244094486
 20
-90.01968503937009
  0
LINE
  5
B56
330
1E
100
AcDbEntity
  8
0
100
AcDbLine
 10
71.14173228346453
 20
-130.8070866141732
 30
0.0
 11
71.14173228346455
 21
-90.01968503937009
 31
0.0
  0
LWPOLYLINE
  5
B57
330
1E
100
AcDbEntity
  8
0
100
AcDbPolyline
 90
        3
 70
     0
 43
0.0
 10
71.22047244094485
 20
-130.8070866141732
 10
71.20078740157477
 20
-130.8070866141732
 10
71.14173228346453
 20
-130.8070866141732
  0
LINE
  5
B5C
330
1E
100
AcDbEntity
  8
0
100
AcDbLine
 10
71.22047244094486
 20
-89.90157480314962
 30
0.0
 11
71.22047244094486
 21
-50.21653543307087
 31
0.0
  0
LINE
  5
B5D
330
1E
100
AcDbEntity
  8
0
100
AcDbLine
 10
70.29527559055115
 20
-89.64566929133859
 30
0.0
 11
70.29527559055115
 21
-91.37795275590553
 31
0.0
  0
LINE
  5
B5E
330
1E
100
AcDbEntity
  8
0
100
AcDbLine
 10
70.21653543307085
 20
-91.37795275590553
 30
0.0
 11
70.21653543307085
 21
-89.64566929133859
 31
0.0
  0
LINE
  5
B5F
330
1E
100
AcDbEntity
  8
0
100
AcDbLine
 10
70.21653543307083
 20
-131.9291338582677
 30
0.0
 11
70.21653543307085
 21
-93.12992125984253
 31
0.0
  0
LWPOLYLINE
  5
B60
330
1E
100
AcDbEntity
  8
0
100
AcDbPolyline
 90
        3
 70
     0
 43
0.0
 10
70.29527559055114
 20
-131.9291338582677
 10
70.23622047244092
 20
-131.9291338582677
 10
70.21653543307083
 20
-131.9291338582677
  0
LINE
  5
B65
330
1E
100
AcDbEntity
  8
0
100
AcDbLine
 10
70.29527559055115
 20
-93.12992125984253
 30
0.0
 11
70.29527559055114
 21
-131.9291338582677
 31
0.0
  0
LINE
  5
B66
330
1E
100
AcDbEntity
  8
0
100
AcDbLine
 10
70.47244094488187
 20
-131.8110236220472
 30
0.0
 11
70.47244094488187
 21
-130.8070866141732
 31
0.0
  0
LINE
  5
B67
330
1E
100
AcDbEntity
  8
0
100
AcDbLine
 10
70.47244094488188
 20
-49.23228346456694
 30
0.0
 11
70.47244094488188
 21
-50.21653543307087
 31
0.0
  0
LINE
  5
B68
330
1E
100
AcDbEntity
  8
0
100
AcDbLine
 10
69.66535433070863
 20
-131.9291338582677
 30
0.0
 11
69.66535433070863
 21
-49.09448818897639
 31
0.0
  0
LINE
  5
B69
330
1E
100
AcDbEntity
  8
0
100
AcDbLine
 10
70.29527559055114
 20
-131.9291338582677
 30
0.0
 11
70.3346456692913
 21
-131.9291338582677
 31
0.0
  0
LWPOLYLINE
  5
B6A
330
1E
100
AcDbEntity
  8
0
100
AcDbPolyline
 90
        4
 70
     0
 43
0.0
 10
70.3346456692913
 20
-131.9291338582677
 10
70.39370078740154
 20
-131.9094488188976
 10
70.45275590551177
 20
-131.8700787401574
 10
70.47244094488187
 20
-131.8110236220472
  0
LINE
  5
B70
330
1E
100
AcDbEntity
  8
0
100
AcDbLine
 10
71.14173228346453
 20
-130.8070866141732
 30
0.0
 11
70.47244094488187
 21
-130.8070866141732
 31
0.0
  0
LINE
  5
B71
330
1E
100
AcDbEntity
  8
0
100
AcDbLine
 10
71.14173228346455
 20
-89.90157480314962
 30
0.0
 11
71.14173228346455
 21
-90.01968503937009
 31
0.0
  0
LINE
  5
B72
330
1E
100
AcDbEntity
  8
0
100
AcDbLine
 10
71.14173228346455
 20
-89.90157480314962
 30
0.0
 11
71.14173228346455
 21
-50.21653543307087
 31
0.0
  0
LINE
  5
B73
330
1E
100
AcDbEntity
  8
0
100
AcDbLine
 10
70.47244094488188
 20
-50.21653543307087
 30
0.0
 11
71.14173228346455
 21
-50.21653543307087
 31
0.0
  0
LWPOLYLINE
  5
B74
330
1E
100
AcDbEntity
  8
0
100
AcDbPolyline
 90
        4
 70
     0
 43
0.0
 10
70.47244094488188
 20
-49.23228346456694
 10
70.45275590551179
 20
-49.15354330708662
 10
70.39370078740155
 20
-49.11417322834647
 10
70.33464566929132
 20
-49.09448818897639
  0
LINE
  5
B7A
330
1E
100
AcDbEntity
  8
0
100
AcDbLine
 10
70.33464566929132
 20
-49.09448818897639
 30
0.0
 11
70.29527559055115
 21
-49.09448818897639
 31
0.0
  0
LINE
  5
B7B
330
1E
100
AcDbEntity
  8
0
100
AcDbLine
 10
70.29527559055115
 20
-49.09448818897639
 30
0.0
 11
70.29527559055115
 21
-87.91338582677166
 31
0.0
  0
LINE
  5
B7C
330
1E
100
AcDbEntity
  8
0
100
AcDbLine
 10
70.21653543307085
 20
-87.91338582677166
 30
0.0
 11
70.21653543307085
 21
-49.09448818897639
 31
0.0
  0
LINE
  5
B7D
330
1E
100
AcDbEntity
  8
0
100
AcDbLine
 10
69.66535433070863
 20
-49.09448818897639
 30
0.0
 11
70.21653543307085
 21
-49.09448818897639
 31
0.0
  0
LINE
  5
B7E
330
1E
100
AcDbEntity
  8
0
100
AcDbLine
 10
69.66535433070863
 20
-49.09448818897639
 30
0.0
 11
69.66535433070863
 21
-131.9291338582677
 31
0.0
  0
LINE
  5
B7F
330
1E
100
AcDbEntity
  8
0
100
AcDbLine
 10
70.21653543307083
 20
-131.9291338582677
 30
0.0
 11
69.66535433070863
 21
-131.9291338582677
 31
0.0
  0
LWPOLYLINE
  5
B80
330
1E
100
AcDbEntity
  8
0
100
AcDbPolyline
 90
        3
 70
     0
 43
0.0
 10
70.21653543307085
 20
-49.09448818897639
 10
70.23622047244093
 20
-49.09448818897639
 10
70.29527559055115
 20
-49.09448818897639
  0
LWPOLYLINE
  5
B85
330
1E
100
AcDbEntity
  8
0
100
AcDbPolyline
 90
        3
 70
     0
 43
0.0
 10
71.22047244094486
 20
-89.90157480314962
 10
71.20078740157478
 20
-89.90157480314962
 10
71.14173228346455
 20
-89.90157480314962
  0
LWPOLYLINE
  5
B8A
330
1E
100
AcDbEntity
  8
0
100
AcDbPolyline
 90
        3
 70
     0
 43
0.0
 10
71.14173228346455
 20
-50.21653543307087
 10
71.20078740157478
 20
-50.21653543307087
 10
71.22047244094486
 20
-50.21653543307087
  0
LWPOLYLINE
  5
B8F
330
1E
100
AcDbEntity
  8
0
100
AcDbPolyline
 90
        5
 70
     0
 43
0.0
 10
71.25984251968502
 20
-50.59055118110237
 10
71.25984251968502
 20
-50.64960629921261
 10
71.25984251968502
 20
-50.70866141732285
 10
71.25984251968502
 20
-50.748031496063
 10
71.25984251968502
 20
-50.76771653543309
  0
LWPOLYLINE
  5
B96
330
1E
100
AcDbEntity
  8
0
100
AcDbPolyline
 90
        7
 70
     0
 43
0.0
 10
71.22047244094486
 20
-50.80708661417324
 10
71.22047244094486
 20
-50.78740157480316
 10
71.22047244094486
 20
-50.748031496063
 10
71.22047244094486
 20
-50.66929133858269
 10
71.22047244094486
 20
-50.61023622047246
 10
71.22047244094486
 20
-50.5708661417323
 10
71.22047244094486
 20
-50.55118110236222
  0
LWPOLYLINE
  5
B9F
330
1E
100
AcDbEntity
  8
0
100
AcDbPolyline
 90
        6
 70
     0
 43
0.0
 10
71.25984251968502
 20
-87.2244094488189
 10
71.25984251968502
 20
-87.24409448818899
 10
71.25984251968502
 20
-87.28346456692914
 10
71.25984251968502
 20
-87.34251968503938
 10
71.25984251968502
 20
-87.38188976377953
 10
71.25984251968502
 20
-87.40157480314962
  0
LWPOLYLINE
  5
BA7
330
1E
100
AcDbEntity
  8
0
100
AcDbPolyline
 90
        7
 70
     0
 43
0.0
 10
71.22047244094486
 20
-87.44094488188977
 10
71.22047244094486
 20
-87.4212598425197
 10
71.22047244094486
 20
-87.38188976377953
 10
71.22047244094486
 20
-87.32283464566931
 10
71.22047244094486
 20
-87.24409448818899
 10
71.22047244094486
 20
-87.20472440944883
 10
71.22047244094486
 20
-87.18503937007875
  0
LWPOLYLINE
  5
BB0
330
1E
100
AcDbEntity
  8
0
100
AcDbPolyline
 90
        6
 70
     0
 43
0.0
 10
71.25984251968502
 20
-93.62204724409449
 10
71.25984251968502
 20
-93.64173228346459
 10
71.25984251968502
 20
-93.68110236220474
 10
71.25984251968502
 20
-93.74015748031498
 10
71.25984251968502
 20
-93.79921259842522
 10
71.25984251968502
 20
-93.81889763779529
  0
LWPOLYLINE
  5
BB8
330
1E
100
AcDbEntity
  8
0
100
AcDbPolyline
 90
        6
 70
     0
 43
0.0
 10
71.22047244094486
 20
-93.83858267716536
 10
71.22047244094486
 20
-93.81889763779529
 10
71.22047244094486
 20
-93.77952755905512
 10
71.22047244094486
 20
-93.7204724409449
 10
71.22047244094486
 20
-93.66141732283466
 10
71.22047244094486
 20
-93.60236220472442
  0
LWPOLYLINE
  5
BC0
330
1E
100
AcDbEntity
  8
0
100
AcDbPolyline
 90
        6
 70
     0
 43
0.0
 10
71.25984251968501
 20
-130.255905511811
 10
71.25984251968501
 20
-130.275590551181
 10
71.25984251968501
 20
-130.3346456692913
 10
71.25984251968501
 20
-130.3937007874015
 10
71.25984251968501
 20
-130.4330708661417
 10
71.25984251968501
 20
-130.4527559055118
  0
LWPOLYLINE
  5
BC8
330
1E
100
AcDbEntity
  8
0
100
AcDbPolyline
 90
        6
 70
     0
 43
0.0
 10
71.22047244094485
 20
-130.4724409448819
 10
71.22047244094485
 20
-130.4133858267716
 10
71.22047244094485
 20
-130.3543307086614
 10
71.22047244094485
 20
-130.2952755905511
 10
71.22047244094485
 20
-130.255905511811
 10
71.22047244094485
 20
-130.2362204724409
  0
LWPOLYLINE
  5
BD0
330
1E
100
AcDbEntity
  8
0
100
AcDbPolyline
 90
        3
 70
     0
 43
0.0
 10
71.16141732283463
 20
-50.21653543307087
 10
71.12204724409448
 20
-50.1968503937008
 10
71.08267716535433
 20
-50.17716535433072
  0
LINE
  5
BD5
330
1E
100
AcDbEntity
  8
0
100
AcDbLine
 10
71.08267716535433
 20
-50.17716535433072
 30
0.0
 11
71.08267716535433
 21
-50.21653543307087
 31
0.0
  0
LINE
  5
BD6
330
1E
100
AcDbEntity
  8
0
100
AcDbLine
 10
70.61023622047243
 20
-50.17716535433072
 30
0.0
 11
70.49212598425196
 21
-50.17716535433072
 31
0.0
  0
LINE
  5
BD7
330
1E
100
AcDbEntity
  8
0
100
AcDbLine
 10
70.49212598425196
 20
-50.17716535433072
 30
0.0
 11
70.49212598425196
 21
-50.21653543307087
 31
0.0
  0
LINE
  5
BD8
330
1E
100
AcDbEntity
  8
0
100
AcDbLine
 10
70.47244094488188
 20
-50.17716535433072
 30
0.0
 11
70.49212598425196
 21
-50.17716535433072
 31
0.0
  0
LINE
  5
BD9
330
1E
100
AcDbEntity
  8
0
100
AcDbLine
 10
71.08267716535431
 20
-130.8070866141732
 30
0.0
 11
71.08267716535431
 21
-130.8661417322834
 31
0.0
  0
LWPOLYLINE
  5
BDA
330
1E
100
AcDbEntity
  8
0
100
AcDbPolyline
 90
        3
 70
     0
 43
0.0
 10
71.16141732283463
 20
-130.8070866141732
 10
71.12204724409446
 20
-130.8464566929133
 10
71.08267716535431
 20
-130.8661417322834
  0
LINE
  5
BDF
330
1E
100
AcDbEntity
  8
0
100
AcDbLine
 10
70.49212598425194
 20
-130.8070866141732
 30
0.0
 11
70.49212598425194
 21
-130.8661417322834
 31
0.0
  0
LINE
  5
BE0
330
1E
100
AcDbEntity
  8
0
100
AcDbLine
 10
70.61023622047241
 20
-130.8661417322834
 30
0.0
 11
70.49212598425194
 21
-130.8661417322834
 31
0.0
  0
LINE
  5
BE1
330
1E
100
AcDbEntity
  8
0
100
AcDbLine
 10
70.49212598425194
 20
-130.8661417322834
 30
0.0
 11
70.47244094488187
 21
-130.8661417322834
 31
0.0
  0
LWPOLYLINE
  5
BE2
330
1E
100
AcDbEntity
  8
0
100
AcDbPolyline
 90
        4
 70
     0
 43
0.0
 10
69.62598425196849
 20
-50.23622047244096
 10
69.62598425196849
 20
-50.21653543307087
 10
69.62598425196849
 20
-50.17716535433072
 10
69.62598425196849
 20
-50.15748031496064
  0
LINE
  5
BE8
330
1E
100
AcDbEntity
  8
0
100
AcDbLine
 10
69.62598425196849
 20
-50.39370078740159
 30
0.0
 11
69.62598425196849
 21
-50.39370078740159
 31
0.0
  0
LINE
  5
BE9
330
1E
100
AcDbEntity
  8
0
100
AcDbLine
 10
69.62598425196849
 20
-50.23622047244096
 30
0.0
 11
69.62598425196849
 21
-50.39370078740159
 31
0.0
  0
LINE
  5
BEA
330
1E
100
AcDbEntity
  8
0
100
AcDbLine
 10
69.66535433070863
 20
-50.49212598425198
 30
0.0
 11
69.64566929133856
 21
-50.49212598425198
 31
0.0
  0
LINE
  5
BEB
330
1E
100
AcDbEntity
  8
0
100
AcDbLine
 10
69.66535433070863
 20
-50.00000000000001
 30
0.0
 11
69.64566929133856
 21
-50.00000000000001
 31
0.0
  0
LINE
  5
BEC
330
1E
100
AcDbEntity
  8
0
100
AcDbLine
 10
69.64566929133856
 20
-50.00000000000001
 30
0.0
 11
69.64566929133856
 21
-50.49212598425198
 31
0.0
  0
LINE
  5
BED
330
1E
100
AcDbEntity
  8
0
100
AcDbLine
 10
69.62598425196849
 20
-50.4724409448819
 30
0.0
 11
69.62598425196849
 21
-50.00000000000001
 31
0.0
  0
LINE
  5
BEE
330
1E
100
AcDbEntity
  8
0
100
AcDbLine
 10
69.64566929133856
 20
-50.00000000000001
 30
0.0
 11
69.62598425196849
 21
-50.00000000000001
 31
0.0
  0
LINE
  5
BEF
330
1E
100
AcDbEntity
  8
0
100
AcDbLine
 10
69.62598425196849
 20
-50.4724409448819
 30
0.0
 11
69.64566929133856
 21
-50.49212598425198
 31
0.0
  0
LINE
  5
BF0
330
1E
100
AcDbEntity
  8
0
100
AcDbLine
 10
69.62598425196849
 20
-50.15748031496064
 30
0.0
 11
69.62598425196849
 21
-50.11811023622048
 31
0.0
  0
LINE
  5
BF1
330
1E
100
AcDbEntity
  8
0
100
AcDbLine
 10
69.62598425196849
 20
-50.11811023622048
 30
0.0
 11
69.62598425196849
 21
-50.11811023622048
 31
0.0
  0
LINE
  5
BF2
330
1E
100
AcDbEntity
  8
0
100
AcDbLine
 10
69.62598425196849
 20
-50.00000000000001
 30
0.0
 11
69.62598425196849
 21
-50.11811023622048
 31
0.0
  0
LINE
  5
BF3
330
1E
100
AcDbEntity
  8
0
100
AcDbLine
 10
69.62598425196849
 20
-50.39370078740159
 30
0.0
 11
69.62598425196849
 21
-50.4724409448819
 31
0.0
  0
LINE
  5
BF4
330
1E
100
AcDbEntity
  8
0
100
AcDbLine
 10
69.62598425196849
 20
-50.00000000000001
 30
0.0
 11
69.62598425196849
 21
-50.00000000000001
 31
0.0
  0
LINE
  5
BF5
330
1E
100
AcDbEntity
  8
0
100
AcDbLine
 10
69.62598425196849
 20
-50.4724409448819
 30
0.0
 11
69.62598425196849
 21
-50.4724409448819
 31
0.0
  0
LINE
  5
BF6
330
1E
100
AcDbEntity
  8
0
100
AcDbLine
 10
70.37401574803148
 20
-92.24409448818899
 30
0.0
 11
70.3543307086614
 21
-93.07086614173229
 31
0.0
  0
LINE
  5
BF7
330
1E
100
AcDbEntity
  8
0
100
AcDbLine
 10
70.29527559055115
 20
-93.11023622047246
 30
0.0
 11
70.29527559055115
 21
-92.24409448818899
 31
0.0
  0
LINE
  5
BF8
330
1E
100
AcDbEntity
  8
0
100
AcDbLine
 10
70.29527559055115
 20
-93.11023622047246
 30
0.0
 11
70.31496062992125
 21
-93.11023622047246
 31
0.0
  0
LWPOLYLINE
  5
BF9
330
1E
100
AcDbEntity
  8
0
100
AcDbPolyline
 90
        3
 70
     0
 43
0.0
 10
70.31496062992125
 20
-93.11023622047246
 10
70.33464566929132
 20
-93.09055118110237
 10
70.3543307086614
 20
-93.07086614173229
  0
LINE
  5
BFE
330
1E
100
AcDbEntity
  8
0
100
AcDbLine
 10
70.3543307086614
 20
-93.07086614173229
 30
0.0
 11
70.3543307086614
 21
-92.24409448818899
 31
0.0
  0
LINE
  5
BFF
330
1E
100
AcDbEntity
  8
0
100
AcDbLine
 10
70.29527559055115
 20
-92.24409448818899
 30
0.0
 11
70.3543307086614
 21
-92.24409448818899
 31
0.0
  0
LINE
  5
C00
330
1E
100
AcDbEntity
  8
0
100
AcDbLine
 10
70.13779527559053
 20
-93.11023622047246
 30
0.0
 11
70.13779527559053
 21
-92.30314960629922
 31
0.0
  0
LWPOLYLINE
  5
C01
330
1E
100
AcDbEntity
  8
0
100
AcDbPolyline
 90
        3
 70
     0
 43
0.0
 10
70.13779527559053
 20
-93.11023622047246
 10
70.19685039370077
 20
-93.11023622047246
 10
70.29527559055115
 20
-93.11023622047246
  0
LWPOLYLINE
  5
C06
330
1E
100
AcDbEntity
  8
0
100
AcDbPolyline
 90
        3
 70
     0
 43
0.0
 10
70.29527559055115
 20
-92.24409448818899
 10
70.19685039370077
 20
-92.24409448818899
 10
70.13779527559053
 20
-92.24409448818899
  0
LWPOLYLINE
  5
C0B
330
1E
100
AcDbEntity
  8
0
100
AcDbPolyline
 90
        3
 70
     0
 43
0.0
 10
70.13779527559053
 20
-92.28346456692914
 10
70.13779527559053
 20
-92.26377952755907
 10
70.13779527559053
 20
-92.24409448818899
  0
LINE
  5
C10
330
1E
100
AcDbEntity
  8
0
100
AcDbLine
 10
70.13779527559053
 20
-92.30314960629922
 30
0.0
 11
70.13779527559053
 21
-92.28346456692914
 31
0.0
  0
LINE
  5
C11
330
1E
100
AcDbEntity
  8
0
100
AcDbLine
 10
69.76377952755903
 20
-92.24409448818899
 30
0.0
 11
69.76377952755903
 21
-92.32283464566931
 31
0.0
  0
LINE
  5
C12
330
1E
100
AcDbEntity
  8
0
100
AcDbLine
 10
69.76377952755903
 20
-92.32283464566931
 30
0.0
 11
69.86220472440944
 21
-92.28346456692914
 31
0.0
  0
LINE
  5
C13
330
1E
100
AcDbEntity
  8
0
100
AcDbLine
 10
69.86220472440944
 20
-92.28346456692914
 30
0.0
 11
69.88188976377951
 21
-92.28346456692914
 31
0.0
  0
LINE
  5
C14
330
1E
100
AcDbEntity
  8
0
100
AcDbLine
 10
69.88188976377951
 20
-92.28346456692914
 30
0.0
 11
70.11811023622046
 21
-92.28346456692914
 31
0.0
  0
LINE
  5
C15
330
1E
100
AcDbEntity
  8
0
100
AcDbLine
 10
70.11811023622046
 20
-92.28346456692914
 30
0.0
 11
70.13779527559053
 21
-92.28346456692914
 31
0.0
  0
LINE
  5
C16
330
1E
100
AcDbEntity
  8
0
100
AcDbLine
 10
70.13779527559053
 20
-92.24409448818899
 30
0.0
 11
69.76377952755903
 21
-92.24409448818899
 31
0.0
  0
LINE
  5
C17
330
1E
100
AcDbEntity
  8
0
100
AcDbLine
 10
69.66535433070863
 20
-92.34251968503938
 30
0.0
 11
69.66535433070863
 21
-92.24409448818899
 31
0.0
  0
LWPOLYLINE
  5
C18
330
1E
100
AcDbEntity
  8
0
100
AcDbPolyline
 90
        4
 70
     0
 43
0.0
 10
69.66535433070863
 20
-92.34251968503938
 10
69.7047244094488
 20
-92.34251968503938
 10
69.72440944881888
 20
-92.32283464566931
 10
69.76377952755903
 20
-92.32283464566931
  0
LWPOLYLINE
  5
C1E
330
1E
100
AcDbEntity
  8
0
100
AcDbPolyline
 90
        4
 70
     0
 43
0.0
 10
69.76377952755903
 20
-92.24409448818899
 10
69.72440944881888
 20
-92.24409448818899
 10
69.68503937007873
 20
-92.24409448818899
 10
69.66535433070863
 20
-92.24409448818899
  0
LINE
  5
C24
330
1E
100
AcDbEntity
  8
0
100
AcDbLine
 10
69.92125984251967
 20
-93.11023622047246
 30
0.0
 11
69.90157480314959
 21
-92.30314960629922
 31
0.0
  0
LINE
  5
C25
330
1E
100
AcDbEntity
  8
0
100
AcDbLine
 10
69.92125984251967
 20
-92.30314960629922
 30
0.0
 11
69.94094488188975
 21
-93.11023622047246
 31
0.0
  0
LINE
  5
C26
330
1E
100
AcDbEntity
  8
0
100
AcDbLine
 10
69.94094488188975
 20
-93.11023622047246
 30
0.0
 11
70.13779527559053
 21
-93.11023622047246
 31
0.0
  0
LINE
  5
C27
330
1E
100
AcDbEntity
  8
0
100
AcDbLine
 10
70.13779527559053
 20
-92.30314960629922
 30
0.0
 11
69.92125984251967
 21
-92.30314960629922
 31
0.0
  0
LINE
  5
C28
330
1E
100
AcDbEntity
  8
0
100
AcDbLine
 10
70.11811023622046
 20
-92.30314960629922
 30
0.0
 11
69.88188976377951
 21
-92.30314960629922
 31
0.0
  0
LINE
  5
C29
330
1E
100
AcDbEntity
  8
0
100
AcDbLine
 10
70.11811023622046
 20
-92.16535433070868
 30
0.0
 11
69.88188976377951
 21
-92.16535433070868
 31
0.0
  0
LINE
  5
C2A
330
1E
100
AcDbEntity
  8
0
100
AcDbLine
 10
69.88188976377951
 20
-92.16535433070868
 30
0.0
 11
69.82283464566927
 21
-92.18503937007875
 31
0.0
  0
LINE
  5
C2B
330
1E
100
AcDbEntity
  8
0
100
AcDbLine
 10
69.88188976377951
 20
-92.30314960629922
 30
0.0
 11
69.86220472440944
 21
-92.30314960629922
 31
0.0
  0
LWPOLYLINE
  5
C2C
330
1E
100
AcDbEntity
  8
0
100
AcDbPolyline
 90
        5
 70
     0
 43
0.0
 10
69.66535433070863
 20
-92.24409448818899
 10
69.68503937007873
 20
-92.24409448818899
 10
69.7047244094488
 20
-92.2244094488189
 10
69.74409448818896
 20
-92.2244094488189
 10
69.76377952755903
 20
-92.20472440944883
  0
LINE
  5
C33
330
1E
100
AcDbEntity
  8
0
100
AcDbLine
 10
69.82283464566927
 20
-92.18503937007875
 30
0.0
 11
69.76377952755903
 21
-92.20472440944883
 31
0.0
  0
LINE
  5
C34
330
1E
100
AcDbEntity
  8
0
100
AcDbLine
 10
69.86220472440944
 20
-92.30314960629922
 30
0.0
 11
69.76377952755903
 21
-92.34251968503938
 31
0.0
  0
LWPOLYLINE
  5
C35
330
1E
100
AcDbEntity
  8
0
100
AcDbPolyline
 90
        4
 70
     0
 43
0.0
 10
69.76377952755903
 20
-92.34251968503938
 10
69.74409448818896
 20
-92.34251968503938
 10
69.7047244094488
 20
-92.36220472440946
 10
69.68503937007873
 20
-92.36220472440946
  0
LINE
  5
C3B
330
1E
100
AcDbEntity
  8
0
100
AcDbLine
 10
69.94094488188975
 20
-91.37795275590553
 30
0.0
 11
69.94094488188975
 21
-91.37795275590553
 31
0.0
  0
LINE
  5
C3C
330
1E
100
AcDbEntity
  8
0
100
AcDbLine
 10
69.94094488188975
 20
-91.37795275590553
 30
0.0
 11
70.15748031496061
 21
-91.37795275590553
 31
0.0
  0
LWPOLYLINE
  5
C3D
330
1E
100
AcDbEntity
  8
0
100
AcDbPolyline
 90
        3
 70
     0
 43
0.0
 10
70.15748031496061
 20
-91.37795275590553
 10
70.21653543307085
 20
-91.37795275590553
 10
70.29527559055115
 20
-91.37795275590553
  0
LINE
  5
C42
330
1E
100
AcDbEntity
  8
0
100
AcDbLine
 10
70.29527559055115
 20
-91.37795275590553
 30
0.0
 11
70.31496062992125
 21
-91.37795275590553
 31
0.0
  0
LINE
  5
C43
330
1E
100
AcDbEntity
  8
0
100
AcDbLine
 10
70.31496062992125
 20
-93.12992125984253
 30
0.0
 11
70.29527559055115
 21
-93.12992125984253
 31
0.0
  0
LWPOLYLINE
  5
C44
330
1E
100
AcDbEntity
  8
0
100
AcDbPolyline
 90
        3
 70
     0
 43
0.0
 10
70.29527559055115
 20
-93.12992125984253
 10
70.21653543307085
 20
-93.12992125984253
 10
70.15748031496061
 20
-93.12992125984253
  0
LINE
  5
C49
330
1E
100
AcDbEntity
  8
0
100
AcDbLine
 10
70.15748031496061
 20
-93.12992125984253
 30
0.0
 11
69.94094488188975
 21
-93.12992125984253
 31
0.0
  0
LINE
  5
C4A
330
1E
100
AcDbEntity
  8
0
100
AcDbLine
 10
69.94094488188975
 20
-93.12992125984253
 30
0.0
 11
69.94094488188975
 21
-93.12992125984253
 31
0.0
  0
LINE
  5
C4B
330
1E
100
AcDbEntity
  8
0
100
AcDbLine
 10
70.3543307086614
 20
-91.41732283464568
 30
0.0
 11
70.37401574803148
 21
-92.24409448818899
 31
0.0
  0
LINE
  5
C4C
330
1E
100
AcDbEntity
  8
0
100
AcDbLine
 10
69.90157480314959
 20
-92.16535433070868
 30
0.0
 11
69.92125984251967
 21
-91.39763779527561
 31
0.0
  0
LINE
  5
C4D
330
1E
100
AcDbEntity
  8
0
100
AcDbLine
 10
70.13779527559053
 20
-92.16535433070868
 30
0.0
 11
70.13779527559053
 21
-91.39763779527561
 31
0.0
  0
LINE
  5
C4E
330
1E
100
AcDbEntity
  8
0
100
AcDbLine
 10
70.13779527559053
 20
-91.39763779527561
 30
0.0
 11
69.94094488188975
 21
-91.39763779527561
 31
0.0
  0
LINE
  5
C4F
330
1E
100
AcDbEntity
  8
0
100
AcDbLine
 10
69.94094488188975
 20
-91.39763779527561
 30
0.0
 11
69.92125984251967
 21
-92.16535433070868
 31
0.0
  0
LINE
  5
C50
330
1E
100
AcDbEntity
  8
0
100
AcDbLine
 10
69.92125984251967
 20
-92.16535433070868
 30
0.0
 11
70.13779527559053
 21
-92.16535433070868
 31
0.0
  0
LINE
  5
C51
330
1E
100
AcDbEntity
  8
0
100
AcDbLine
 10
70.13779527559053
 20
-92.16535433070868
 30
0.0
 11
70.13779527559053
 21
-92.16535433070868
 31
0.0
  0
LINE
  5
C52
330
1E
100
AcDbEntity
  8
0
100
AcDbLine
 10
70.3543307086614
 20
-92.24409448818899
 30
0.0
 11
70.3543307086614
 21
-91.41732283464568
 31
0.0
  0
LWPOLYLINE
  5
C53
330
1E
100
AcDbEntity
  8
0
100
AcDbPolyline
 90
        3
 70
     0
 43
0.0
 10
70.3543307086614
 20
-91.41732283464568
 10
70.33464566929132
 20
-91.39763779527561
 10
70.31496062992125
 20
-91.39763779527561
  0
LINE
  5
C58
330
1E
100
AcDbEntity
  8
0
100
AcDbLine
 10
70.31496062992125
 20
-91.39763779527561
 30
0.0
 11
70.29527559055115
 21
-91.39763779527561
 31
0.0
  0
LINE
  5
C59
330
1E
100
AcDbEntity
  8
0
100
AcDbLine
 10
70.29527559055115
 20
-92.24409448818899
 30
0.0
 11
70.29527559055115
 21
-91.39763779527561
 31
0.0
  0
LWPOLYLINE
  5
C5A
330
1E
100
AcDbEntity
  8
0
100
AcDbPolyline
 90
        3
 70
     0
 43
0.0
 10
70.29527559055115
 20
-91.39763779527561
 10
70.19685039370077
 20
-91.39763779527561
 10
70.13779527559053
 20
-91.39763779527561
  0
LWPOLYLINE
  5
C5F
330
1E
100
AcDbEntity
  8
0
100
AcDbPolyline
 90
        3
 70
     0
 43
0.0
 10
70.13779527559053
 20
-92.24409448818899
 10
70.13779527559053
 20
-92.20472440944883
 10
70.13779527559053
 20
-92.16535433070868
  0
LINE
  5
C64
330
1E
100
AcDbEntity
  8
0
100
AcDbLine
 10
70.13779527559053
 20
-92.16535433070868
 30
0.0
 11
70.11811023622046
 21
-92.16535433070868
 31
0.0
  0
LINE
  5
C65
330
1E
100
AcDbEntity
  8
0
100
AcDbLine
 10
69.76377952755903
 20
-92.20472440944883
 30
0.0
 11
69.76377952755903
 21
-92.24409448818899
 31
0.0
  0
LWPOLYLINE
  5
C66
330
1E
100
AcDbEntity
  8
0
100
AcDbPolyline
 90
        3
 70
     0
 43
0.0
 10
70.3543307086614
 20
-93.07086614173229
 10
70.3543307086614
 20
-93.11023622047246
 10
70.31496062992125
 20
-93.12992125984253
  0
LWPOLYLINE
  5
C6B
330
1E
100
AcDbEntity
  8
0
100
AcDbPolyline
 90
        3
 70
     0
 43
0.0
 10
70.31496062992125
 20
-91.37795275590553
 10
70.3543307086614
 20
-91.39763779527561
 10
70.3543307086614
 20
-91.41732283464568
  0
LINE
  5
C70
330
1E
100
AcDbEntity
  8
0
100
AcDbLine
 10
69.90157480314959
 20
-92.30314960629922
 30
0.0
 11
69.92125984251967
 21
-92.30314960629922
 31
0.0
  0
LINE
  5
C71
330
1E
100
AcDbEntity
  8
0
100
AcDbLine
 10
69.92125984251967
 20
-92.30314960629922
 30
0.0
 11
69.92125984251967
 21
-92.30314960629922
 31
0.0
  0
LINE
  5
C72
330
1E
100
AcDbEntity
  8
0
100
AcDbLine
 10
70.13779527559053
 20
-92.30314960629922
 30
0.0
 11
70.11811023622046
 21
-92.30314960629922
 31
0.0
  0
LINE
  5
C73
330
1E
100
AcDbEntity
  8
0
100
AcDbLine
 10
70.11811023622046
 20
-92.30314960629922
 30
0.0
 11
70.11811023622046
 21
-92.30314960629922
 31
0.0
  0
LINE
  5
C74
330
1E
100
AcDbEntity
  8
0
100
AcDbLine
 10
69.92125984251967
 20
-92.16535433070868
 30
0.0
 11
69.92125984251967
 21
-92.16535433070868
 31
0.0
  0
LINE
  5
C75
330
1E
100
AcDbEntity
  8
0
100
AcDbLine
 10
69.92125984251967
 20
-92.16535433070868
 30
0.0
 11
69.90157480314959
 21
-92.16535433070868
 31
0.0
  0
LINE
  5
C76
330
1E
100
AcDbEntity
  8
0
100
AcDbLine
 10
70.11811023622046
 20
-92.30314960629922
 30
0.0
 11
70.13779527559053
 21
-92.28346456692914
 31
0.0
  0
LINE
  5
C77
330
1E
100
AcDbEntity
  8
0
100
AcDbLine
 10
70.11811023622046
 20
-92.30314960629922
 30
0.0
 11
70.11811023622046
 21
-92.28346456692914
 31
0.0
  0
LINE
  5
C78
330
1E
100
AcDbEntity
  8
0
100
AcDbLine
 10
69.88188976377951
 20
-92.30314960629922
 30
0.0
 11
69.88188976377951
 21
-92.28346456692914
 31
0.0
  0
LINE
  5
C79
330
1E
100
AcDbEntity
  8
0
100
AcDbLine
 10
69.86220472440944
 20
-92.30314960629922
 30
0.0
 11
69.86220472440944
 21
-92.28346456692914
 31
0.0
  0
LINE
  5
C7A
330
1E
100
AcDbEntity
  8
0
100
AcDbLine
 10
69.76377952755903
 20
-92.34251968503938
 30
0.0
 11
69.76377952755903
 21
-92.32283464566931
 31
0.0
  0
LWPOLYLINE
  5
C7B
330
1E
100
AcDbEntity
  8
0
100
AcDbPolyline
 90
        3
 70
     0
 43
0.0
 10
69.68503937007873
 20
-92.36220472440946
 10
69.66535433070863
 20
-92.36220472440946
 10
69.66535433070863
 20
-92.34251968503938
  0
LINE
  5
C80
330
1E
100
AcDbEntity
  8
0
100
AcDbLine
 10
69.92125984251967
 20
-92.30314960629922
 30
0.0
 11
69.92125984251967
 21
-93.11023622047246
 31
0.0
  0
LINE
  5
C81
330
1E
100
AcDbEntity
  8
0
100
AcDbLine
 10
69.92125984251967
 20
-93.11023622047246
 30
0.0
 11
69.94094488188975
 21
-93.11023622047246
 31
0.0
  0
LINE
  5
C82
330
1E
100
AcDbEntity
  8
0
100
AcDbLine
 10
69.94094488188975
 20
-93.11023622047246
 30
0.0
 11
69.94094488188975
 21
-93.11023622047246
 31
0.0
  0
LINE
  5
C83
330
1E
100
AcDbEntity
  8
0
100
AcDbLine
 10
69.94094488188975
 20
-91.39763779527561
 30
0.0
 11
69.94094488188975
 21
-91.39763779527561
 31
0.0
  0
LINE
  5
C84
330
1E
100
AcDbEntity
  8
0
100
AcDbLine
 10
69.94094488188975
 20
-91.39763779527561
 30
0.0
 11
69.92125984251967
 21
-91.39763779527561
 31
0.0
  0
LINE
  5
C85
330
1E
100
AcDbEntity
  8
0
100
AcDbLine
 10
69.92125984251967
 20
-91.39763779527561
 30
0.0
 11
69.92125984251967
 21
-92.16535433070868
 31
0.0
  0
LINE
  5
C86
330
1E
100
AcDbEntity
  8
0
100
AcDbLine
 10
70.37401574803148
 20
-92.24409448818899
 30
0.0
 11
70.3543307086614
 21
-92.24409448818899
 31
0.0
  0
LINE
  5
C87
330
1E
100
AcDbEntity
  8
0
100
AcDbLine
 10
70.31496062992125
 20
-91.39763779527561
 30
0.0
 11
70.31496062992125
 21
-91.37795275590553
 31
0.0
  0
LINE
  5
C88
330
1E
100
AcDbEntity
  8
0
100
AcDbLine
 10
70.31496062992125
 20
-93.12992125984253
 30
0.0
 11
70.31496062992125
 21
-93.11023622047246
 31
0.0
  0
LINE
  5
C89
330
1E
100
AcDbEntity
  8
0
100
AcDbLine
 10
70.29527559055115
 20
-91.39763779527561
 30
0.0
 11
70.29527559055115
 21
-91.37795275590553
 31
0.0
  0
LINE
  5
C8A
330
1E
100
AcDbEntity
  8
0
100
AcDbLine
 10
70.29527559055115
 20
-93.12992125984253
 30
0.0
 11
70.29527559055115
 21
-93.11023622047246
 31
0.0
  0
LINE
  5
C8B
330
1E
100
AcDbEntity
  8
0
100
AcDbLine
 10
70.13779527559053
 20
-91.39763779527561
 30
0.0
 11
70.15748031496061
 21
-91.37795275590553
 31
0.0
  0
LWPOLYLINE
  5
C8C
330
1E
100
AcDbEntity
  8
0
100
AcDbPolyline
 90
        3
 70
     0
 43
0.0
 10
70.15748031496061
 20
-93.12992125984253
 10
70.15748031496061
 20
-93.11023622047246
 10
70.13779527559053
 20
-93.11023622047246
  0
LINE
  5
C91
330
1E
100
AcDbEntity
  8
0
100
AcDbLine
 10
69.94094488188975
 20
-91.39763779527561
 30
0.0
 11
69.94094488188975
 21
-91.37795275590553
 31
0.0
  0
LINE
  5
C92
330
1E
100
AcDbEntity
  8
0
100
AcDbLine
 10
69.94094488188975
 20
-93.12992125984253
 30
0.0
 11
69.94094488188975
 21
-93.11023622047246
 31
0.0
  0
LINE
  5
C93
330
1E
100
AcDbEntity
  8
0
100
AcDbLine
 10
69.94094488188975
 20
-91.39763779527561
 30
0.0
 11
69.94094488188975
 21
-91.37795275590553
 31
0.0
  0
LINE
  5
C94
330
1E
100
AcDbEntity
  8
0
100
AcDbLine
 10
69.94094488188975
 20
-93.12992125984253
 30
0.0
 11
69.94094488188975
 21
-93.11023622047246
 31
0.0
  0
LINE
  5
C95
330
1E
100
AcDbEntity
  8
0
100
AcDbLine
 10
69.92125984251967
 20
-91.39763779527561
 30
0.0
 11
69.92125984251967
 21
-91.37795275590553
 31
0.0
  0
LINE
  5
C96
330
1E
100
AcDbEntity
  8
0
100
AcDbLine
 10
69.92125984251967
 20
-93.12992125984253
 30
0.0
 11
69.92125984251967
 21
-93.11023622047246
 31
0.0
  0
LINE
  5
C97
330
1E
100
AcDbEntity
  8
0
100
AcDbLine
 10
70.37401574803148
 20
-88.77952755905512
 30
0.0
 11
70.3543307086614
 21
-87.95275590551183
 31
0.0
  0
LINE
  5
C98
330
1E
100
AcDbEntity
  8
0
100
AcDbLine
 10
70.29527559055115
 20
-87.91338582677166
 30
0.0
 11
70.29527559055115
 21
-88.77952755905512
 31
0.0
  0
LINE
  5
C99
330
1E
100
AcDbEntity
  8
0
100
AcDbLine
 10
70.29527559055115
 20
-88.77952755905512
 30
0.0
 11
70.3543307086614
 21
-88.77952755905512
 31
0.0
  0
LINE
  5
C9A
330
1E
100
AcDbEntity
  8
0
100
AcDbLine
 10
70.3543307086614
 20
-87.95275590551183
 30
0.0
 11
70.3543307086614
 21
-88.77952755905512
 31
0.0
  0
LWPOLYLINE
  5
C9B
330
1E
100
AcDbEntity
  8
0
100
AcDbPolyline
 90
        3
 70
     0
 43
0.0
 10
70.31496062992125
 20
-87.91338582677166
 10
70.33464566929132
 20
-87.93307086614174
 10
70.3543307086614
 20
-87.95275590551183
  0
LINE
  5
CA0
330
1E
100
AcDbEntity
  8
0
100
AcDbLine
 10
70.29527559055115
 20
-87.91338582677166
 30
0.0
 11
70.31496062992125
 21
-87.91338582677166
 31
0.0
  0
LINE
  5
CA1
330
1E
100
AcDbEntity
  8
0
100
AcDbLine
 10
70.13779527559053
 20
-87.91338582677166
 30
0.0
 11
70.13779527559053
 21
-88.74015748031498
 31
0.0
  0
LINE
  5
CA2
330
1E
100
AcDbEntity
  8
0
100
AcDbLine
 10
70.13779527559053
 20
-88.74015748031498
 30
0.0
 11
70.13779527559053
 21
-88.74015748031498
 31
0.0
  0
LWPOLYLINE
  5
CA3
330
1E
100
AcDbEntity
  8
0
100
AcDbPolyline
 90
        3
 70
     0
 43
0.0
 10
70.13779527559053
 20
-88.74015748031498
 10
70.13779527559053
 20
-88.75984251968505
 10
70.13779527559053
 20
-88.77952755905512
  0
LWPOLYLINE
  5
CA8
330
1E
100
AcDbEntity
  8
0
100
AcDbPolyline
 90
        3
 70
     0
 43
0.0
 10
70.29527559055115
 20
-88.77952755905512
 10
70.19685039370077
 20
-88.77952755905512
 10
70.13779527559053
 20
-88.77952755905512
  0
LWPOLYLINE
  5
CAD
330
1E
100
AcDbEntity
  8
0
100
AcDbPolyline
 90
        3
 70
     0
 43
0.0
 10
70.13779527559053
 20
-87.91338582677166
 10
70.19685039370077
 20
-87.91338582677166
 10
70.29527559055115
 20
-87.91338582677166
  0
LINE
  5
CB2
330
1E
100
AcDbEntity
  8
0
100
AcDbLine
 10
69.76377952755903
 20
-88.77952755905512
 30
0.0
 11
69.76377952755903
 21
-88.70078740157481
 31
0.0
  0
LINE
  5
CB3
330
1E
100
AcDbEntity
  8
0
100
AcDbLine
 10
70.13779527559053
 20
-88.77952755905512
 30
0.0
 11
69.76377952755903
 21
-88.77952755905512
 31
0.0
  0
LINE
  5
CB4
330
1E
100
AcDbEntity
  8
0
100
AcDbLine
 10
70.11811023622046
 20
-88.74015748031498
 30
0.0
 11
70.13779527559053
 21
-88.74015748031498
 31
0.0
  0
LINE
  5
CB5
330
1E
100
AcDbEntity
  8
0
100
AcDbLine
 10
69.88188976377951
 20
-88.74015748031498
 30
0.0
 11
70.11811023622046
 21
-88.74015748031498
 31
0.0
  0
LINE
  5
CB6
330
1E
100
AcDbEntity
  8
0
100
AcDbLine
 10
69.86220472440944
 20
-88.74015748031498
 30
0.0
 11
69.88188976377951
 21
-88.74015748031498
 31
0.0
  0
LINE
  5
CB7
330
1E
100
AcDbEntity
  8
0
100
AcDbLine
 10
69.76377952755903
 20
-88.70078740157481
 30
0.0
 11
69.86220472440944
 21
-88.74015748031498
 31
0.0
  0
LINE
  5
CB8
330
1E
100
AcDbEntity
  8
0
100
AcDbLine
 10
69.66535433070863
 20
-88.68110236220474
 30
0.0
 11
69.66535433070863
 21
-88.77952755905512
 31
0.0
  0
LWPOLYLINE
  5
CB9
330
1E
100
AcDbEntity
  8
0
100
AcDbPolyline
 90
        4
 70
     0
 43
0.0
 10
69.76377952755903
 20
-88.77952755905512
 10
69.72440944881888
 20
-88.77952755905512
 10
69.68503937007873
 20
-88.77952755905512
 10
69.66535433070863
 20
-88.77952755905512
  0
LWPOLYLINE
  5
CBF
330
1E
100
AcDbEntity
  8
0
100
AcDbPolyline
 90
        4
 70
     0
 43
0.0
 10
69.66535433070863
 20
-88.68110236220474
 10
69.7047244094488
 20
-88.68110236220474
 10
69.72440944881888
 20
-88.70078740157481
 10
69.76377952755903
 20
-88.70078740157481
  0
LINE
  5
CC5
330
1E
100
AcDbEntity
  8
0
100
AcDbLine
 10
69.92125984251967
 20
-87.91338582677166
 30
0.0
 11
69.90157480314959
 21
-88.74015748031498
 31
0.0
  0
LINE
  5
CC6
330
1E
100
AcDbEntity
  8
0
100
AcDbLine
 10
69.92125984251967
 20
-88.7204724409449
 30
0.0
 11
69.94094488188975
 21
-87.91338582677166
 31
0.0
  0
LINE
  5
CC7
330
1E
100
AcDbEntity
  8
0
100
AcDbLine
 10
70.13779527559053
 20
-88.7204724409449
 30
0.0
 11
69.92125984251967
 21
-88.7204724409449
 31
0.0
  0
LINE
  5
CC8
330
1E
100
AcDbEntity
  8
0
100
AcDbLine
 10
70.13779527559053
 20
-88.74015748031498
 30
0.0
 11
70.13779527559053
 21
-88.7204724409449
 31
0.0
  0
LINE
  5
CC9
330
1E
100
AcDbEntity
  8
0
100
AcDbLine
 10
69.94094488188975
 20
-87.91338582677166
 30
0.0
 11
70.13779527559053
 21
-87.91338582677166
 31
0.0
  0
LINE
  5
CCA
330
1E
100
AcDbEntity
  8
0
100
AcDbLine
 10
70.11811023622046
 20
-88.74015748031498
 30
0.0
 11
69.88188976377951
 21
-88.74015748031498
 31
0.0
  0
LINE
  5
CCB
330
1E
100
AcDbEntity
  8
0
100
AcDbLine
 10
70.11811023622046
 20
-88.85826771653544
 30
0.0
 11
69.88188976377951
 21
-88.85826771653544
 31
0.0
  0
LINE
  5
CCC
330
1E
100
AcDbEntity
  8
0
100
AcDbLine
 10
69.88188976377951
 20
-88.85826771653544
 30
0.0
 11
69.82283464566927
 21
-88.83858267716536
 31
0.0
  0
LINE
  5
CCD
330
1E
100
AcDbEntity
  8
0
100
AcDbLine
 10
69.88188976377951
 20
-88.74015748031498
 30
0.0
 11
69.86220472440944
 21
-88.74015748031498
 31
0.0
  0
LINE
  5
CCE
330
1E
100
AcDbEntity
  8
0
100
AcDbLine
 10
69.82283464566927
 20
-88.83858267716536
 30
0.0
 11
69.76377952755903
 21
-88.81889763779529
 31
0.0
  0
LWPOLYLINE
  5
CCF
330
1E
100
AcDbEntity
  8
0
100
AcDbPolyline
 90
        5
 70
     0
 43
0.0
 10
69.66535433070863
 20
-88.77952755905512
 10
69.68503937007873
 20
-88.79921259842522
 10
69.7047244094488
 20
-88.79921259842522
 10
69.74409448818896
 20
-88.81889763779529
 10
69.76377952755903
 20
-88.81889763779529
  0
LWPOLYLINE
  5
CD6
330
1E
100
AcDbEntity
  8
0
100
AcDbPolyline
 90
        4
 70
     0
 43
0.0
 10
69.76377952755903
 20
-88.70078740157481
 10
69.74409448818896
 20
-88.68110236220474
 10
69.7047244094488
 20
-88.68110236220474
 10
69.68503937007873
 20
-88.66141732283466
  0
LINE
  5
CDC
330
1E
100
AcDbEntity
  8
0
100
AcDbLine
 10
69.86220472440944
 20
-88.74015748031498
 30
0.0
 11
69.76377952755903
 21
-88.70078740157481
 31
0.0
  0
LINE
  5
CDD
330
1E
100
AcDbEntity
  8
0
100
AcDbLine
 10
70.29527559055115
 20
-89.64566929133859
 30
0.0
 11
70.31496062992125
 21
-89.64566929133859
 31
0.0
  0
LWPOLYLINE
  5
CDE
330
1E
100
AcDbEntity
  8
0
100
AcDbPolyline
 90
        3
 70
     0
 43
0.0
 10
70.15748031496061
 20
-89.64566929133859
 10
70.21653543307085
 20
-89.64566929133859
 10
70.29527559055115
 20
-89.64566929133859
  0
LINE
  5
CE3
330
1E
100
AcDbEntity
  8
0
100
AcDbLine
 10
69.94094488188975
 20
-89.64566929133859
 30
0.0
 11
70.15748031496061
 21
-89.64566929133859
 31
0.0
  0
LINE
  5
CE4
330
1E
100
AcDbEntity
  8
0
100
AcDbLine
 10
69.94094488188975
 20
-89.64566929133859
 30
0.0
 11
69.94094488188975
 21
-89.64566929133859
 31
0.0
  0
LINE
  5
CE5
330
1E
100
AcDbEntity
  8
0
100
AcDbLine
 10
69.94094488188975
 20
-87.91338582677166
 30
0.0
 11
69.94094488188975
 21
-87.91338582677166
 31
0.0
  0
LINE
  5
CE6
330
1E
100
AcDbEntity
  8
0
100
AcDbLine
 10
70.15748031496061
 20
-87.91338582677166
 30
0.0
 11
69.94094488188975
 21
-87.91338582677166
 31
0.0
  0
LWPOLYLINE
  5
CE7
330
1E
100
AcDbEntity
  8
0
100
AcDbPolyline
 90
        3
 70
     0
 43
0.0
 10
70.29527559055115
 20
-87.91338582677166
 10
70.21653543307085
 20
-87.91338582677166
 10
70.15748031496061
 20
-87.91338582677166
  0
LINE
  5
CEC
330
1E
100
AcDbEntity
  8
0
100
AcDbLine
 10
70.31496062992125
 20
-87.91338582677166
 30
0.0
 11
70.29527559055115
 21
-87.91338582677166
 31
0.0
  0
LINE
  5
CED
330
1E
100
AcDbEntity
  8
0
100
AcDbLine
 10
70.3543307086614
 20
-89.60629921259844
 30
0.0
 11
70.37401574803148
 21
-88.77952755905512
 31
0.0
  0
LINE
  5
CEE
330
1E
100
AcDbEntity
  8
0
100
AcDbLine
 10
69.90157480314959
 20
-88.85826771653544
 30
0.0
 11
69.92125984251967
 21
-89.64566929133859
 31
0.0
  0
LINE
  5
CEF
330
1E
100
AcDbEntity
  8
0
100
AcDbLine
 10
70.13779527559053
 20
-88.85826771653544
 30
0.0
 11
70.13779527559053
 21
-89.64566929133859
 31
0.0
  0
LINE
  5
CF0
330
1E
100
AcDbEntity
  8
0
100
AcDbLine
 10
70.13779527559053
 20
-88.87795275590553
 30
0.0
 11
70.13779527559053
 21
-88.85826771653544
 31
0.0
  0
LINE
  5
CF1
330
1E
100
AcDbEntity
  8
0
100
AcDbLine
 10
69.92125984251967
 20
-88.87795275590553
 30
0.0
 11
70.13779527559053
 21
-88.87795275590553
 31
0.0
  0
LINE
  5
CF2
330
1E
100
AcDbEntity
  8
0
100
AcDbLine
 10
69.94094488188975
 20
-89.64566929133859
 30
0.0
 11
69.92125984251967
 21
-88.87795275590553
 31
0.0
  0
LINE
  5
CF3
330
1E
100
AcDbEntity
  8
0
100
AcDbLine
 10
70.13779527559053
 20
-89.64566929133859
 30
0.0
 11
69.94094488188975
 21
-89.64566929133859
 31
0.0
  0
LINE
  5
CF4
330
1E
100
AcDbEntity
  8
0
100
AcDbLine
 10
70.29527559055115
 20
-88.77952755905512
 30
0.0
 11
70.29527559055115
 21
-89.64566929133859
 31
0.0
  0
LINE
  5
CF5
330
1E
100
AcDbEntity
  8
0
100
AcDbLine
 10
70.31496062992125
 20
-89.64566929133859
 30
0.0
 11
70.29527559055115
 21
-89.64566929133859
 31
0.0
  0
LWPOLYLINE
  5
CF6
330
1E
100
AcDbEntity
  8
0
100
AcDbPolyline
 90
        3
 70
     0
 43
0.0
 10
70.3543307086614
 20
-89.60629921259844
 10
70.33464566929132
 20
-89.62598425196851
 10
70.31496062992125
 20
-89.64566929133859
  0
LINE
  5
CFB
330
1E
100
AcDbEntity
  8
0
100
AcDbLine
 10
70.3543307086614
 20
-88.77952755905512
 30
0.0
 11
70.3543307086614
 21
-89.60629921259844
 31
0.0
  0
LWPOLYLINE
  5
CFC
330
1E
100
AcDbEntity
  8
0
100
AcDbPolyline
 90
        3
 70
     0
 43
0.0
 10
70.13779527559053
 20
-88.77952755905512
 10
70.13779527559053
 20
-88.81889763779529
 10
70.13779527559053
 20
-88.85826771653544
  0
LWPOLYLINE
  5
D01
330
1E
100
AcDbEntity
  8
0
100
AcDbPolyline
 90
        3
 70
     0
 43
0.0
 10
70.29527559055115
 20
-89.64566929133859
 10
70.19685039370077
 20
-89.64566929133859
 10
70.13779527559053
 20
-89.64566929133859
  0
LINE
  5
D06
330
1E
100
AcDbEntity
  8
0
100
AcDbLine
 10
69.76377952755903
 20
-88.81889763779529
 30
0.0
 11
69.76377952755903
 21
-88.77952755905512
 31
0.0
  0
LINE
  5
D07
330
1E
100
AcDbEntity
  8
0
100
AcDbLine
 10
70.13779527559053
 20
-88.87795275590553
 30
0.0
 11
70.11811023622046
 21
-88.85826771653544
 31
0.0
  0
LWPOLYLINE
  5
D08
330
1E
100
AcDbEntity
  8
0
100
AcDbPolyline
 90
        3
 70
     0
 43
0.0
 10
70.3543307086614
 20
-87.95275590551183
 10
70.3543307086614
 20
-87.91338582677166
 10
70.31496062992125
 20
-87.91338582677166
  0
LWPOLYLINE
  5
D0D
330
1E
100
AcDbEntity
  8
0
100
AcDbPolyline
 90
        3
 70
     0
 43
0.0
 10
70.31496062992125
 20
-89.64566929133859
 10
70.3543307086614
 20
-89.64566929133859
 10
70.3543307086614
 20
-89.60629921259844
  0
LINE
  5
D12
330
1E
100
AcDbEntity
  8
0
100
AcDbLine
 10
70.11811023622046
 20
-88.74015748031498
 30
0.0
 11
70.11811023622046
 21
-88.74015748031498
 31
0.0
  0
LWPOLYLINE
  5
D13
330
1E
100
AcDbEntity
  8
0
100
AcDbPolyline
 90
        3
 70
     0
 43
0.0
 10
70.13779527559053
 20
-88.7204724409449
 10
70.11811023622046
 20
-88.7204724409449
 10
70.11811023622046
 20
-88.74015748031498
  0
LINE
  5
D18
330
1E
100
AcDbEntity
  8
0
100
AcDbLine
 10
69.92125984251967
 20
-88.74015748031498
 30
0.0
 11
69.92125984251967
 21
-88.7204724409449
 31
0.0
  0
LINE
  5
D19
330
1E
100
AcDbEntity
  8
0
100
AcDbLine
 10
69.90157480314959
 20
-88.74015748031498
 30
0.0
 11
69.92125984251967
 21
-88.74015748031498
 31
0.0
  0
LINE
  5
D1A
330
1E
100
AcDbEntity
  8
0
100
AcDbLine
 10
69.92125984251967
 20
-88.85826771653544
 30
0.0
 11
69.90157480314959
 21
-88.85826771653544
 31
0.0
  0
LINE
  5
D1B
330
1E
100
AcDbEntity
  8
0
100
AcDbLine
 10
69.92125984251967
 20
-88.87795275590553
 30
0.0
 11
69.92125984251967
 21
-88.85826771653544
 31
0.0
  0
LINE
  5
D1C
330
1E
100
AcDbEntity
  8
0
100
AcDbLine
 10
70.11811023622046
 20
-88.74015748031498
 30
0.0
 11
70.13779527559053
 21
-88.74015748031498
 31
0.0
  0
LWPOLYLINE
  5
D1D
330
1E
100
AcDbEntity
  8
0
100
AcDbPolyline
 90
        3
 70
     0
 43
0.0
 10
69.68503937007873
 20
-88.66141732283466
 10
69.66535433070863
 20
-88.66141732283466
 10
69.66535433070863
 20
-88.68110236220474
  0
LINE
  5
D22
330
1E
100
AcDbEntity
  8
0
100
AcDbLine
 10
69.92125984251967
 20
-88.74015748031498
 30
0.0
 11
69.92125984251967
 21
-87.91338582677166
 31
0.0
  0
LINE
  5
D23
330
1E
100
AcDbEntity
  8
0
100
AcDbLine
 10
69.94094488188975
 20
-87.91338582677166
 30
0.0
 11
69.94094488188975
 21
-87.91338582677166
 31
0.0
  0
LINE
  5
D24
330
1E
100
AcDbEntity
  8
0
100
AcDbLine
 10
69.92125984251967
 20
-87.91338582677166
 30
0.0
 11
69.94094488188975
 21
-87.91338582677166
 31
0.0
  0
LINE
  5
D25
330
1E
100
AcDbEntity
  8
0
100
AcDbLine
 10
69.92125984251967
 20
-89.64566929133859
 30
0.0
 11
69.92125984251967
 21
-88.85826771653544
 31
0.0
  0
LINE
  5
D26
330
1E
100
AcDbEntity
  8
0
100
AcDbLine
 10
69.94094488188975
 20
-89.64566929133859
 30
0.0
 11
69.92125984251967
 21
-89.64566929133859
 31
0.0
  0
LINE
  5
D27
330
1E
100
AcDbEntity
  8
0
100
AcDbLine
 10
69.94094488188975
 20
-89.64566929133859
 30
0.0
 11
69.94094488188975
 21
-89.64566929133859
 31
0.0
  0
LINE
  5
D28
330
1E
100
AcDbEntity
  8
0
100
AcDbLine
 10
70.37401574803148
 20
-88.77952755905512
 30
0.0
 11
70.3543307086614
 21
-88.77952755905512
 31
0.0
  0
LINE
  5
D29
330
1E
100
AcDbEntity
  8
0
100
AcDbLine
 10
70.13779527559053
 20
-89.64566929133859
 30
0.0
 11
70.15748031496061
 21
-89.64566929133859
 31
0.0
  0
LINE
  5
D2A
330
1E
100
AcDbEntity
  8
0
100
AcDbLine
 10
70.15748031496061
 20
-87.91338582677166
 30
0.0
 11
70.13779527559053
 21
-87.91338582677166
 31
0.0
  0
ENDSEC
  0
SECTION
  2
OBJECTS
  0
DICTIONARY
  5
C
330
0
100
AcDbDictionary
  3
ACAD_GROUP
350
D
  3
ACAD_LAYOUT
350
19
  3
ACAD_MLINESTYLE
350
16
  3
ACAD_PLOTSETTINGS
350
18
  3
ACAD_PLOTSTYLENAME
350
E
  3
ACDBHEADERROUNDTRIPXREC
350
D63
  0
DICTIONARY
  5
D86
330
1E
100
AcDbDictionary
280
     1
  3
ACAD_LAYOUTSELFREF
360
D87
  0
DICTIONARY
  5
D84
330
1A
100
AcDbDictionary
280
     1
  3
ACAD_LAYOUTSELFREF
360
D85
  0
DICTIONARY
  5
D
102
{ACAD_REACTORS
330
C
102
}
330
C
100
AcDbDictionary
  0
DICTIONARY
  5
19
102
{ACAD_REACTORS
330
C
102
}
330
C
100
AcDbDictionary
  0
DICTIONARY
  5
16
102
{ACAD_REACTORS
330
C
102
}
330
C
100
AcDbDictionary
  3
STANDARD
350
17
  0
DICTIONARY
  5
18
102
{ACAD_REACTORS
330
C
102
}
330
C
100
AcDbDictionary
  0
ACDBDICTIONARYWDFLT
  5
E
102
{ACAD_REACTORS
330
C
102
}
330
C
100
AcDbDictionary
281
     1
  3
Normal
350
F
100
AcDbDictionaryWithDefault
340
F
  0
DICTIONARY
  5
D63
102
{ACAD_REACTORS
330
C
102
}
330
C
100
AcDbDictionary
  3
CEPSNTYPE
350
D6D
  3
DIMSTYLEDATA
350
D71
  3
FINGERPRINTGUID
350
D6E
  3
HYPERLINKBASE
350
D66
  3
INSUNITS
350
D6C
  3
LAYOUTDICT
350
D68
  3
LWETCUNION
350
D6B
  3
PLOTSETDICT
350
D69
  3
PLOTSTYLNAMDICT
350
D6A
  3
PSVPSCALE
350
D70
  3
PUCSBASE
350
D74
  3
PUCSORGBACK
350
D7A
  3
PUCSORGBOTTOM
350
D76
  3
PUCSORGFRONT
350
D79
  3
PUCSORGLEFT
350
D77
  3
PUCSORGRIGHT
350
D78
  3
PUCSORGTOP
350
D75
  3
PUCSORTHOREF
350
D72
  3
PUCSORTHOVIEW
350
D73
  3
STYLESHEET
350
D67
  3
TSTACKALIGN
350
D64
  3
TSTACKSIZE
350
D65
  3
UCSBASE
350
D7D
  3
UCSORGBACK
350
D83
  3
UCSORGBOTTOM
350
D7F
  3
UCSORGFRONT
350
D82
  3
UCSORGLEFT
350
D80
  3
UCSORGRIGHT
350
D81
  3
UCSORGTOP
350
D7E
  3
UCSORTHOREF
350
D7B
  3
UCSORTHOVIEW
350
D7C
  3
VERSIONGUID
350
D6F
  0
XRECORD
  5
D87
102
{ACAD_REACTORS
330
D86
102
}
330
D86
100
AcDbXrecord
340
1E
  0
XRECORD
  5
D85
102
{ACAD_REACTORS
330
D84
102
}
330
D84
100
AcDbXrecord
340
1A
  0
MLINESTYLE
  5
17
102
{ACAD_REACTORS
330
16
102
}
330
16
100
AcDbMlineStyle
  2
STANDARD
 70
     0
  3

 62
   256
 51
90.0
 52
90.0
 71
     2
 49
0.5
 62
   256
  6
BYLAYER
 49
-0.5
 62
   256
  6
BYLAYER
  0
ACDBPLACEHOLDER
  5
F
102
{ACAD_REACTORS
330
E
102
}
330
E
100
AcDbPlaceHolder
280
     0
  0
XRECORD
  5
D6D
102
{ACAD_REACTORS
330
D63
102
}
330
D63
100
AcDbXrecord
 90
        0
  0
XRECORD
  5
D71
102
{ACAD_REACTORS
330
D63
102
}
330
D63
100
AcDbXrecord
1000
DSTYLE
1002
{
1070
   279
 70
     2
1002
}
  0
XRECORD
  5
D6E
102
{ACAD_REACTORS
330
D63
102
}
330
D63
100
AcDbXrecord
  1
{71A147EE-7AA3-4967-97D4-B1DA508124D4}
  0
XRECORD
  5
D66
102
{ACAD_REACTORS
330
D63
102
}
330
D63
100
AcDbXrecord
  1

  0
XRECORD
  5
D6C
102
{ACAD_REACTORS
330
D63
102
}
330
D63
100
AcDbXrecord
 90
        0
  0
XRECORD
  5
D68
102
{ACAD_REACTORS
330
D63
102
}
330
D63
100
AcDbXrecord
340
19
  0
XRECORD
  5
D6B
102
{ACAD_REACTORS
330
D63
102
}
330
D63
100
AcDbXrecord
 90
    14877
  0
XRECORD
  5
D69
102
{ACAD_REACTORS
330
D63
102
}
330
D63
100
AcDbXrecord
340
18
  0
XRECORD
  5
D6A
102
{ACAD_REACTORS
330
D63
102
}
330
D63
100
AcDbXrecord
340
E
  0
XRECORD
  5
D70
102
{ACAD_REACTORS
330
D63
102
}
330
D63
100
AcDbXrecord
 40
0.0
  0
XRECORD
  5
D74
102
{ACAD_REACTORS
330
D63
102
}
330
D63
100
AcDbXrecord
340
0
  0
XRECORD
  5
D7A
102
{ACAD_REACTORS
330
D63
102
}
330
D63
100
AcDbXrecord
 10
0.0
 20
0.0
 30
0.0
  0
XRECORD
  5
D76
102
{ACAD_REACTORS
330
D63
102
}
330
D63
100
AcDbXrecord
 10
0.0
 20
0.0
 30
0.0
  0
XRECORD
  5
D79
102
{ACAD_REACTORS
330
D63
102
}
330
D63
100
AcDbXrecord
 10
0.0
 20
0.0
 30
0.0
  0
XRECORD
  5
D77
102
{ACAD_REACTORS
330
D63
102
}
330
D63
100
AcDbXrecord
 10
0.0
 20
0.0
 30
0.0
  0
XRECORD
  5
D78
102
{ACAD_REACTORS
330
D63
102
}
330
D63
100
AcDbXrecord
 10
0.0
 20
0.0
 30
0.0
  0
XRECORD
  5
D75
102
{ACAD_REACTORS
330
D63
102
}
330
D63
100
AcDbXrecord
 10
0.0
 20
0.0
 30
0.0
  0
XRECORD
  5
D72
102
{ACAD_REACTORS
330
D63
102
}
330
D63
100
AcDbXrecord
340
0
  0
XRECORD
  5
D73
102
{ACAD_REACTORS
330
D63
102
}
330
D63
100
AcDbXrecord
 70
     0
  0
XRECORD
  5
D67
102
{ACAD_REACTORS
330
D63
102
}
330
D63
100
AcDbXrecord
  1

  0
XRECORD
  5
D64
102
{ACAD_REACTORS
330
D63
102
}
330
D63
100
AcDbXrecord
 90
        1
  0
XRECORD
  5
D65
102
{ACAD_REACTORS
330
D63
102
}
330
D63
100
AcDbXrecord
 90
       70
  0
XRECORD
  5
D7D
102
{ACAD_REACTORS
330
D63
102
}
330
D63
100
AcDbXrecord
340
0
  0
XRECORD
  5
D83
102
{ACAD_REACTORS
330
D63
102
}
330
D63
100
AcDbXrecord
 10
0.0
 20
0.0
 30
0.0
  0
XRECORD
  5
D7F
102
{ACAD_REACTORS
330
D63
102
}
330
D63
100
AcDbXrecord
 10
0.0
 20
0.0
 30
0.0
  0
XRECORD
  5
D82
102
{ACAD_REACTORS
330
D63
102
}
330
D63
100
AcDbXrecord
 10
0.0
 20
0.0
 30
0.0
  0
XRECORD
  5
D80
102
{ACAD_REACTORS
330
D63
102
}
330
D63
100
AcDbXrecord
 10
0.0
 20
0.0
 30
0.0
  0
XRECORD
  5
D81
102
{ACAD_REACTORS
330
D63
102
}
330
D63
100
AcDbXrecord
 10
0.0
 20
0.0
 30
0.0
  0
XRECORD
  5
D7E
102
{ACAD_REACTORS
330
D63
102
}
330
D63
100
AcDbXrecord
 10
0.0
 20
0.0
 30
0.0
  0
XRECORD
  5
D7B
102
{ACAD_REACTORS
330
D63
102
}
330
D63
100
AcDbXrecord
340
0
  0
XRECORD
  5
D7C
102
{ACAD_REACTORS
330
D63
102
}
330
D63
100
AcDbXrecord
 70
     0
  0
XRECORD
  5
D6F
102
{ACAD_REACTORS
330
D63
102
}
330
D63
100
AcDbXrecord
  1
{86BBCD65-1258-42BC-AE27-A3A7201E66D9}
  0
ENDSEC
  0
EOF
