  0
SECTION
  2
HEADER
  9
$ACADVER
  1
AC1014
  9
$ACADMAINTVER
 70
     9
  9
$DWGCODEPAGE
  3
ANSI_1252
  9
$INSBASE
 10
0.0
 20
0.0
 30
0.0
  9
$EXTMIN
 10
6.341491734540895
 20
1.407348655405627
 30
-0.0015258207003583
  9
$EXTMAX
 10
25.34326176222327
 20
10.18954470007394
 30
0.0000000349246037
  9
$LIMMIN
 10
0.0
 20
0.0
  9
$LIMMAX
 10
12.0
 20
9.0
  9
$ORTHOMODE
 70
     0
  9
$REGENMODE
 70
     1
  9
$FILLMODE
 70
     1
  9
$QTEXTMODE
 70
     0
  9
$MIRRTEXT
 70
     1
  9
$DRAGMODE
 70
     2
  9
$LTSCALE
 40
1.0
  9
$OSMODE
 70
    37
  9
$ATTMODE
 70
     1
  9
$TEXTSIZE
 40
0.2
  9
$TRACEWID
 40
0.05
  9
$TEXTSTYLE
  7
STANDARD
  9
$CLAYER
  8
0
  9
$CELTYPE
  6
BYLAYER
  9
$CECOLOR
 62
   256
  9
$CELTSCALE
 40
1.0
  9
$DELOBJ
 70
     1
  9
$DISPSILH
 70
     0
  9
$DIMSCALE
 40
1.0
  9
$DIMASZ
 40
0.18
  9
$DIMEXO
 40
0.0625
  9
$DIMDLI
 40
0.38
  9
$DIMRND
 40
0.0
  9
$DIMDLE
 40
0.0
  9
$DIMEXE
 40
0.18
  9
$DIMTP
 40
0.0
  9
$DIMTM
 40
0.0
  9
$DIMTXT
 40
0.18
  9
$DIMCEN
 40
0.09
  9
$DIMTSZ
 40
0.0
  9
$DIMTOL
 70
     0
  9
$DIMLIM
 70
     0
  9
$DIMTIH
 70
     1
  9
$DIMTOH
 70
     1
  9
$DIMSE1
 70
     0
  9
$DIMSE2
 70
     0
  9
$DIMTAD
 70
     0
  9
$DIMZIN
 70
     0
  9
$DIMBLK
  1

  9
$DIMASO
 70
     1
  9
$DIMSHO
 70
     1
  9
$DIMPOST
  1

  9
$DIMAPOST
  1

  9
$DIMALT
 70
     0
  9
$DIMALTD
 70
     2
  9
$DIMALTF
 40
25.4
  9
$DIMLFAC
 40
1.0
  9
$DIMTOFL
 70
     0
  9
$DIMTVP
 40
0.0
  9
$DIMTIX
 70
     0
  9
$DIMSOXD
 70
     0
  9
$DIMSAH
 70
     0
  9
$DIMBLK1
  1

  9
$DIMBLK2
  1

  9
$DIMSTYLE
  2
STANDARD
  9
$DIMCLRD
 70
     0
  9
$DIMCLRE
 70
     0
  9
$DIMCLRT
 70
     0
  9
$DIMTFAC
 40
1.0
  9
$DIMGAP
 40
0.09
  9
$DIMJUST
 70
     0
  9
$DIMSD1
 70
     0
  9
$DIMSD2
 70
     0
  9
$DIMTOLJ
 70
     1
  9
$DIMTZIN
 70
     0
  9
$DIMALTZ
 70
     0
  9
$DIMALTTZ
 70
     0
  9
$DIMFIT
 70
     5
  9
$DIMUPT
 70
     0
  9
$DIMUNIT
 70
     2
  9
$DIMDEC
 70
     4
  9
$DIMTDEC
 70
     4
  9
$DIMALTU
 70
     2
  9
$DIMALTTD
 70
     2
  9
$DIMTXSTY
  7
STANDARD
  9
$DIMAUNIT
 70
     0
  9
$LUNITS
 70
     2
  9
$LUPREC
 70
     4
  9
$SKETCHINC
 40
0.1
  9
$FILLETRAD
 40
0.0
  9
$AUNITS
 70
     0
  9
$AUPREC
 70
     0
  9
$MENU
  1
acad
  9
$ELEVATION
 40
0.0
  9
$PELEVATION
 40
0.0
  9
$THICKNESS
 40
0.0
  9
$LIMCHECK
 70
     0
  9
$BLIPMODE
 70
     0
  9
$CHAMFERA
 40
0.0
  9
$CHAMFERB
 40
0.0
  9
$CHAMFERC
 40
0.0
  9
$CHAMFERD
 40
0.0
  9
$SKPOLY
 70
     0
  9
$TDCREATE
 40
2452397.395567130
  9
$TDUPDATE
 40
2452397.412120219
  9
$TDINDWG
 40
0.0132004051
  9
$TDUSRTIMER
 40
0.0132004051
  9
$USRTIMER
 70
     1
  9
$ANGBASE
 50
0.0
  9
$ANGDIR
 70
     0
  9
$PDMODE
 70
     0
  9
$PDSIZE
 40
0.0
  9
$PLINEWID
 40
0.0
  9
$COORDS
 70
     2
  9
$SPLFRAME
 70
     0
  9
$SPLINETYPE
 70
     6
  9
$SPLINESEGS
 70
     8
  9
$ATTDIA
 70
     0
  9
$ATTREQ
 70
     1
  9
$HANDLING
 70
-16383
  9
$HANDSEED
  5
4717
  9
$SURFTAB1
 70
     6
  9
$SURFTAB2
 70
     6
  9
$SURFTYPE
 70
     6
  9
$SURFU
 70
     6
  9
$SURFV
 70
     6
  9
$UCSNAME
  2

  9
$UCSORG
 10
0.0
 20
0.0
 30
0.0
  9
$UCSXDIR
 10
1.0
 20
0.0
 30
0.0
  9
$UCSYDIR
 10
0.0
 20
1.0
 30
0.0
  9
$PUCSNAME
  2

  9
$PUCSORG
 10
0.0
 20
0.0
 30
0.0
  9
$PUCSXDIR
 10
1.0
 20
0.0
 30
0.0
  9
$PUCSYDIR
 10
0.0
 20
1.0
 30
0.0
  9
$USERI1
 70
     0
  9
$USERI2
 70
     0
  9
$USERI3
 70
     0
  9
$USERI4
 70
     0
  9
$USERI5
 70
     0
  9
$USERR1
 40
0.0
  9
$USERR2
 40
0.0
  9
$USERR3
 40
0.0
  9
$USERR4
 40
0.0
  9
$USERR5
 40
0.0
  9
$WORLDVIEW
 70
     1
  9
$SHADEDGE
 70
     3
  9
$SHADEDIF
 70
    70
  9
$TILEMODE
 70
     1
  9
$MAXACTVP
 70
    16
  9
$PINSBASE
 10
0.0
 20
0.0
 30
0.0
  9
$PLIMCHECK
 70
     0
  9
$PEXTMIN
 10
1.000000000000000E+20
 20
1.000000000000000E+20
 30
1.000000000000000E+20
  9
$PEXTMAX
 10
-1.000000000000000E+20
 20
-1.000000000000000E+20
 30
-1.000000000000000E+20
  9
$PLIMMIN
 10
0.0
 20
0.0
  9
$PLIMMAX
 10
12.0
 20
9.0
  9
$UNITMODE
 70
     0
  9
$VISRETAIN
 70
     0
  9
$PLINEGEN
 70
     0
  9
$PSLTSCALE
 70
     1
  9
$TREEDEPTH
 70
  3020
  9
$PICKSTYLE
 70
     0
  9
$CMLSTYLE
  2
STANDARD
  9
$CMLJUST
 70
     0
  9
$CMLSCALE
 40
1.0
  9
$PROXYGRAPHICS
 70
     1
  9
$MEASUREMENT
 70
     0
  0
ENDSEC
  0
SECTION
  2
CLASSES
  0
CLASS
  1
ACDBDICTIONARYWDFLT
  2
AcDbDictionaryWithDefault
  3
AutoCAD 2000
 90
        0
280
     0
281
     0
  0
CLASS
  1
ACDBPLACEHOLDER
  2
AcDbPlaceHolder
  3
AutoCAD 2000
 90
        0
280
     0
281
     0
  0
CLASS
  1
LAYOUT
  2
AcDbLayout
  3
AutoCAD 2000
 90
        0
280
     0
281
     0
  0
CLASS
  1
LONG_TRANSACTION
  2
AcDbLongTransaction
  3
AutoCAD 2000
 90
        0
280
     0
281
     0
  0
CLASS
  1
LWPOLYLINE
  2
AcDbPolyline
  3
AutoCAD 2000
 90
        0
280
     0
281
     1
  0
CLASS
  1
HATCH
  2
AcDbHatch
  3
AutoCAD 2000
 90
        0
280
     0
281
     1
  0
CLASS
  1
XRECORD
  2
AcDbXrecord
  3
AutoCAD 2000
 90
        0
280
     0
281
     0
  0
ENDSEC
  0
SECTION
  2
TABLES
  0
TABLE
  2
VPORT
  5
8
330
0
100
AcDbSymbolTable
 70
     3
  0
VPORT
  5
46F1
330
8
100
AcDbSymbolTableRecord
100
AcDbViewportTableRecord
  2
*ACTIVE
 70
     0
 10
0.0
 20
0.0
 11
1.0
 21
1.0
 12
15.84237674838208
 22
5.798446677739785
 13
0.0
 23
0.0
 14
1.0
 24
1.0
 15
0.0
 25
0.0
 16
0.0
 26
0.0
 36
1.0
 17
0.0
 27
0.0
 37
0.0
 40
12.74713207946745
 41
1.498659517426273
 42
50.0
 43
0.0
 44
0.0
 50
0.0
 51
0.0
 71
     0
 72
   100
 73
     1
 74
     1
 75
     0
 76
     0
 77
     0
 78
     0
  0
ENDTAB
  0
TABLE
  2
LTYPE
  5
5
330
0
100
AcDbSymbolTable
 70
    25
  0
LTYPE
  5
13
330
5
100
AcDbSymbolTableRecord
100
AcDbLinetypeTableRecord
  2
BYBLOCK
 70
     0
  3

 72
    65
 73
     0
 40
0.0
  0
LTYPE
  5
14
330
5
100
AcDbSymbolTableRecord
100
AcDbLinetypeTableRecord
  2
BYLAYER
 70
     0
  3

 72
    65
 73
     0
 40
0.0
  0
LTYPE
  5
15
330
5
100
AcDbSymbolTableRecord
100
AcDbLinetypeTableRecord
  2
CONTINUOUS
 70
     0
  3
Solid line
 72
    65
 73
     0
 40
0.0
  0
LTYPE
  5
22
330
5
100
AcDbSymbolTableRecord
100
AcDbLinetypeTableRecord
  2
BORDER
 70
     0
  3
__ __ . __ __ . __ __ . __ __ . __ __ . __ __ .
 72
    65
 73
     6
 40
1.75
 49
0.5
 74
     0
 49
-0.25
 74
     0
 49
0.5
 74
     0
 49
-0.25
 74
     0
 49
0.5
 74
     0
 49
-0.25
 74
     0
  0
LTYPE
  5
23
330
5
100
AcDbSymbolTableRecord
100
AcDbLinetypeTableRecord
  2
BORDER2
 70
     0
  3
__.__.__.__.__.__.__.__.__.__.__.__.__.__.__.__
 72
    65
 73
     6
 40
0.875
 49
0.25
 74
     0
 49
-0.125
 74
     0
 49
0.25
 74
     0
 49
-0.125
 74
     0
 49
0.25
 74
     0
 49
-0.125
 74
     0
  0
LTYPE
  5
24
330
5
100
AcDbSymbolTableRecord
100
AcDbLinetypeTableRecord
  2
BORDERX2
 70
     0
  3
____  ____  .  ____  ____  .  
 72
    65
 73
     6
 40
3.5
 49
1.0
 74
     0
 49
-0.5
 74
     0
 49
1.0
 74
     0
 49
-0.5
 74
     0
 49
1.0
 74
     0
 49
-0.5
 74
     0
  0
LTYPE
  5
25
330
5
100
AcDbSymbolTableRecord
100
AcDbLinetypeTableRecord
  2
CENTER
 70
     0
  3
____ _ ____ _ ____ _ ____ _ ____ _ ____ _ ____
 72
    65
 73
     4
 40
2.0
 49
1.25
 74
     0
 49
-0.25
 74
     0
 49
0.25
 74
     0
 49
-0.25
 74
     0
  0
LTYPE
  5
26
330
5
100
AcDbSymbolTableRecord
100
AcDbLinetypeTableRecord
  2
CENTER2
 70
     0
  3
____ _ ____ _ ____ _ ____ _ ____ _ ____ _ ____
 72
    65
 73
     4
 40
1.125
 49
0.75
 74
     0
 49
-0.125
 74
     0
 49
0.125
 74
     0
 49
-0.125
 74
     0
  0
LTYPE
  5
27
330
5
100
AcDbSymbolTableRecord
100
AcDbLinetypeTableRecord
  2
CENTERX2
 70
     0
  3
________  __  ________  __  ________  __  
 72
    65
 73
     4
 40
4.0
 49
2.5
 74
     0
 49
-0.5
 74
     0
 49
0.5
 74
     0
 49
-0.5
 74
     0
  0
LTYPE
  5
28
330
5
100
AcDbSymbolTableRecord
100
AcDbLinetypeTableRecord
  2
DASHDOT
 70
     0
  3
__ . __ . __ . __ . __ . __ . __ . 
 72
    65
 73
     4
 40
1.0
 49
0.5
 74
     0
 49
-0.25
 74
     0
 49
0.0
 74
     0
 49
-0.25
 74
     0
  0
LTYPE
  5
29
330
5
100
AcDbSymbolTableRecord
100
AcDbLinetypeTableRecord
  2
DASHDOT2
 70
     0
  3
_._._._._._._._._._._._._._._._.
 72
    65
 73
     4
 40
0.5
 49
0.25
 74
     0
 49
-0.125
 74
     0
 49
0.0
 74
     0
 49
-0.125
 74
     0
  0
LTYPE
  5
2A
330
5
100
AcDbSymbolTableRecord
100
AcDbLinetypeTableRecord
  2
DASHDOTX2
 70
     0
  3
____  .  ____  .  ____  .  ____  .  
 72
    65
 73
     4
 40
2.0
 49
1.0
 74
     0
 49
-0.5
 74
     0
 49
0.0
 74
     0
 49
-0.5
 74
     0
  0
LTYPE
  5
2B
330
5
100
AcDbSymbolTableRecord
100
AcDbLinetypeTableRecord
  2
DASHED
 70
     0
  3
__ __ __ __ __ __ __ __ __ __ __ __ 
 72
    65
 73
     2
 40
0.75
 49
0.5
 74
     0
 49
-0.25
 74
     0
  0
LTYPE
  5
2C
330
5
100
AcDbSymbolTableRecord
100
AcDbLinetypeTableRecord
  2
DASHED2
 70
     0
  3
_ _ _ _ _ _ _ _ _ _ _ _ _ _ _ _ _ _ 
 72
    65
 73
     2
 40
0.375
 49
0.25
 74
     0
 49
-0.125
 74
     0
  0
LTYPE
  5
2D
330
5
100
AcDbSymbolTableRecord
100
AcDbLinetypeTableRecord
  2
DASHEDX2
 70
     0
  3
____  ____  ____  ____  ____  ____  
 72
    65
 73
     2
 40
1.5
 49
1.0
 74
     0
 49
-0.5
 74
     0
  0
LTYPE
  5
2E
330
5
100
AcDbSymbolTableRecord
100
AcDbLinetypeTableRecord
  2
DIVIDE
 70
     0
  3
____ . . ____ . . ____ . . ____ . . 
 72
    65
 73
     6
 40
1.25
 49
0.5
 74
     0
 49
-0.25
 74
     0
 49
0.0
 74
     0
 49
-0.25
 74
     0
 49
0.0
 74
     0
 49
-0.25
 74
     0
  0
LTYPE
  5
2F
330
5
100
AcDbSymbolTableRecord
100
AcDbLinetypeTableRecord
  2
DIVIDE2
 70
     0
  3
__..__..__..__..__..__..__..__..__..
 72
    65
 73
     6
 40
0.625
 49
0.25
 74
     0
 49
-0.125
 74
     0
 49
0.0
 74
     0
 49
-0.125
 74
     0
 49
0.0
 74
     0
 49
-0.125
 74
     0
  0
LTYPE
  5
30
330
5
100
AcDbSymbolTableRecord
100
AcDbLinetypeTableRecord
  2
DIVIDEX2
 70
     0
  3
________  .  .  ________  .  .  ________  .  . 
 72
    65
 73
     6
 40
2.5
 49
1.0
 74
     0
 49
-0.5
 74
     0
 49
0.0
 74
     0
 49
-0.5
 74
     0
 49
0.0
 74
     0
 49
-0.5
 74
     0
  0
LTYPE
  5
31
330
5
100
AcDbSymbolTableRecord
100
AcDbLinetypeTableRecord
  2
DOT
 70
     0
  3
. . . . . . . . . . . . . . . . . . 
 72
    65
 73
     2
 40
0.25
 49
0.0
 74
     0
 49
-0.25
 74
     0
  0
LTYPE
  5
32
330
5
100
AcDbSymbolTableRecord
100
AcDbLinetypeTableRecord
  2
DOT2
 70
     0
  3
....................................
 72
    65
 73
     2
 40
0.125
 49
0.0
 74
     0
 49
-0.125
 74
     0
  0
LTYPE
  5
33
330
5
100
AcDbSymbolTableRecord
100
AcDbLinetypeTableRecord
  2
DOTX2
 70
     0
  3
.  .  .  .  .  .  .  .  .  .  .  .  .  
 72
    65
 73
     2
 40
0.5
 49
0.0
 74
     0
 49
-0.5
 74
     0
  0
LTYPE
  5
34
330
5
100
AcDbSymbolTableRecord
100
AcDbLinetypeTableRecord
  2
HIDDEN
 70
     0
  3
__ __ __ __ __ __ __ __ __ __ __ __ 
 72
    65
 73
     2
 40
0.375
 49
0.25
 74
     0
 49
-0.125
 74
     0
  0
LTYPE
  5
35
330
5
100
AcDbSymbolTableRecord
100
AcDbLinetypeTableRecord
  2
HIDDEN2
 70
     0
  3
_ _ _ _ _ _ _ _ _ _ _ _ _ _ _ _ _ _ 
 72
    65
 73
     2
 40
0.1875
 49
0.125
 74
     0
 49
-0.0625
 74
     0
  0
LTYPE
  5
36
330
5
100
AcDbSymbolTableRecord
100
AcDbLinetypeTableRecord
  2
HIDDENX2
 70
     0
  3
____ ____ ____ ____ ____ ____ ____ 
 72
    65
 73
     2
 40
0.75
 49
0.5
 74
     0
 49
-0.25
 74
     0
  0
LTYPE
  5
37
330
5
100
AcDbSymbolTableRecord
100
AcDbLinetypeTableRecord
  2
PHANTOM
 70
     0
  3
______  __  __  ______  __  __  
 72
    65
 73
     6
 40
2.5
 49
1.25
 74
     0
 49
-0.25
 74
     0
 49
0.25
 74
     0
 49
-0.25
 74
     0
 49
0.25
 74
     0
 49
-0.25
 74
     0
  0
LTYPE
  5
38
330
5
100
AcDbSymbolTableRecord
100
AcDbLinetypeTableRecord
  2
PHANTOM2
 70
     0
  3
___ _ _ ___ _ _ ___ _ _ ___ _ _ 
 72
    65
 73
     6
 40
1.25
 49
0.625
 74
     0
 49
-0.125
 74
     0
 49
0.125
 74
     0
 49
-0.125
 74
     0
 49
0.125
 74
     0
 49
-0.125
 74
     0
  0
LTYPE
  5
39
330
5
100
AcDbSymbolTableRecord
100
AcDbLinetypeTableRecord
  2
PHANTOMX2
 70
     0
  3
___ _ _ ___ _ _ ___ _ _ ___ _ _ 
 72
    65
 73
     6
 40
5.0
 49
2.5
 74
     0
 49
-0.5
 74
     0
 49
0.5
 74
     0
 49
-0.5
 74
     0
 49
0.5
 74
     0
 49
-0.5
 74
     0
  0
ENDTAB
  0
TABLE
  2
LAYER
  5
2
330
0
100
AcDbSymbolTable
 70
   256
  0
LAYER
  5
10
330
2
100
AcDbSymbolTableRecord
100
AcDbLayerTableRecord
  2
0
 70
     0
 62
     7
  6
CONTINUOUS
  0
LAYER
  5
3A
330
2
100
AcDbSymbolTableRecord
100
AcDbLayerTableRecord
  2
1
 70
     0
 62
     1
  6
CONTINUOUS
  0
LAYER
  5
3B
330
2
100
AcDbSymbolTableRecord
100
AcDbLayerTableRecord
  2
2
 70
     0
 62
     2
  6
CONTINUOUS
  0
LAYER
  5
3C
330
2
100
AcDbSymbolTableRecord
100
AcDbLayerTableRecord
  2
3
 70
     0
 62
     3
  6
CONTINUOUS
  0
LAYER
  5
3D
330
2
100
AcDbSymbolTableRecord
100
AcDbLayerTableRecord
  2
4
 70
     0
 62
     4
  6
CONTINUOUS
  0
LAYER
  5
3E
330
2
100
AcDbSymbolTableRecord
100
AcDbLayerTableRecord
  2
5
 70
     0
 62
     5
  6
CONTINUOUS
  0
LAYER
  5
3F
330
2
100
AcDbSymbolTableRecord
100
AcDbLayerTableRecord
  2
6
 70
     0
 62
     6
  6
CONTINUOUS
  0
LAYER
  5
40
330
2
100
AcDbSymbolTableRecord
100
AcDbLayerTableRecord
  2
7
 70
     0
 62
     7
  6
CONTINUOUS
  0
LAYER
  5
41
330
2
100
AcDbSymbolTableRecord
100
AcDbLayerTableRecord
  2
8
 70
     0
 62
     8
  6
CONTINUOUS
  0
LAYER
  5
42
330
2
100
AcDbSymbolTableRecord
100
AcDbLayerTableRecord
  2
9
 70
     0
 62
     9
  6
CONTINUOUS
  0
LAYER
  5
43
330
2
100
AcDbSymbolTableRecord
100
AcDbLayerTableRecord
  2
10
 70
     0
 62
    10
  6
CONTINUOUS
  0
LAYER
  5
44
330
2
100
AcDbSymbolTableRecord
100
AcDbLayerTableRecord
  2
11
 70
     0
 62
    11
  6
CONTINUOUS
  0
LAYER
  5
45
330
2
100
AcDbSymbolTableRecord
100
AcDbLayerTableRecord
  2
12
 70
     0
 62
    12
  6
CONTINUOUS
  0
LAYER
  5
46
330
2
100
AcDbSymbolTableRecord
100
AcDbLayerTableRecord
  2
13
 70
     0
 62
    13
  6
CONTINUOUS
  0
LAYER
  5
47
330
2
100
AcDbSymbolTableRecord
100
AcDbLayerTableRecord
  2
14
 70
     0
 62
    14
  6
CONTINUOUS
  0
LAYER
  5
48
330
2
100
AcDbSymbolTableRecord
100
AcDbLayerTableRecord
  2
15
 70
     0
 62
    15
  6
CONTINUOUS
  0
LAYER
  5
49
330
2
100
AcDbSymbolTableRecord
100
AcDbLayerTableRecord
  2
16
 70
     0
 62
    16
  6
CONTINUOUS
  0
LAYER
  5
4A
330
2
100
AcDbSymbolTableRecord
100
AcDbLayerTableRecord
  2
17
 70
     0
 62
    17
  6
CONTINUOUS
  0
LAYER
  5
4B
330
2
100
AcDbSymbolTableRecord
100
AcDbLayerTableRecord
  2
18
 70
     0
 62
    18
  6
CONTINUOUS
  0
LAYER
  5
4C
330
2
100
AcDbSymbolTableRecord
100
AcDbLayerTableRecord
  2
19
 70
     0
 62
    19
  6
CONTINUOUS
  0
LAYER
  5
4D
330
2
100
AcDbSymbolTableRecord
100
AcDbLayerTableRecord
  2
20
 70
     0
 62
    20
  6
CONTINUOUS
  0
LAYER
  5
4E
330
2
100
AcDbSymbolTableRecord
100
AcDbLayerTableRecord
  2
21
 70
     0
 62
    21
  6
CONTINUOUS
  0
LAYER
  5
4F
330
2
100
AcDbSymbolTableRecord
100
AcDbLayerTableRecord
  2
22
 70
     0
 62
    22
  6
CONTINUOUS
  0
LAYER
  5
50
330
2
100
AcDbSymbolTableRecord
100
AcDbLayerTableRecord
  2
23
 70
     0
 62
    23
  6
CONTINUOUS
  0
LAYER
  5
51
330
2
100
AcDbSymbolTableRecord
100
AcDbLayerTableRecord
  2
24
 70
     0
 62
    24
  6
CONTINUOUS
  0
LAYER
  5
52
330
2
100
AcDbSymbolTableRecord
100
AcDbLayerTableRecord
  2
25
 70
     0
 62
    25
  6
CONTINUOUS
  0
LAYER
  5
53
330
2
100
AcDbSymbolTableRecord
100
AcDbLayerTableRecord
  2
26
 70
     0
 62
    26
  6
CONTINUOUS
  0
LAYER
  5
54
330
2
100
AcDbSymbolTableRecord
100
AcDbLayerTableRecord
  2
27
 70
     0
 62
    27
  6
CONTINUOUS
  0
LAYER
  5
55
330
2
100
AcDbSymbolTableRecord
100
AcDbLayerTableRecord
  2
28
 70
     0
 62
    28
  6
CONTINUOUS
  0
LAYER
  5
56
330
2
100
AcDbSymbolTableRecord
100
AcDbLayerTableRecord
  2
29
 70
     0
 62
    29
  6
CONTINUOUS
  0
LAYER
  5
57
330
2
100
AcDbSymbolTableRecord
100
AcDbLayerTableRecord
  2
30
 70
     0
 62
    30
  6
CONTINUOUS
  0
LAYER
  5
58
330
2
100
AcDbSymbolTableRecord
100
AcDbLayerTableRecord
  2
31
 70
     0
 62
    31
  6
CONTINUOUS
  0
LAYER
  5
59
330
2
100
AcDbSymbolTableRecord
100
AcDbLayerTableRecord
  2
32
 70
     0
 62
    32
  6
CONTINUOUS
  0
LAYER
  5
5A
330
2
100
AcDbSymbolTableRecord
100
AcDbLayerTableRecord
  2
33
 70
     0
 62
    33
  6
CONTINUOUS
  0
LAYER
  5
5B
330
2
100
AcDbSymbolTableRecord
100
AcDbLayerTableRecord
  2
34
 70
     0
 62
    34
  6
CONTINUOUS
  0
LAYER
  5
5C
330
2
100
AcDbSymbolTableRecord
100
AcDbLayerTableRecord
  2
35
 70
     0
 62
    35
  6
CONTINUOUS
  0
LAYER
  5
5D
330
2
100
AcDbSymbolTableRecord
100
AcDbLayerTableRecord
  2
36
 70
     0
 62
    36
  6
CONTINUOUS
  0
LAYER
  5
5E
330
2
100
AcDbSymbolTableRecord
100
AcDbLayerTableRecord
  2
37
 70
     0
 62
    37
  6
CONTINUOUS
  0
LAYER
  5
5F
330
2
100
AcDbSymbolTableRecord
100
AcDbLayerTableRecord
  2
38
 70
     0
 62
    38
  6
CONTINUOUS
  0
LAYER
  5
60
330
2
100
AcDbSymbolTableRecord
100
AcDbLayerTableRecord
  2
39
 70
     0
 62
    39
  6
CONTINUOUS
  0
LAYER
  5
61
330
2
100
AcDbSymbolTableRecord
100
AcDbLayerTableRecord
  2
40
 70
     0
 62
    40
  6
CONTINUOUS
  0
LAYER
  5
62
330
2
100
AcDbSymbolTableRecord
100
AcDbLayerTableRecord
  2
41
 70
     0
 62
    41
  6
CONTINUOUS
  0
LAYER
  5
63
330
2
100
AcDbSymbolTableRecord
100
AcDbLayerTableRecord
  2
42
 70
     0
 62
    42
  6
CONTINUOUS
  0
LAYER
  5
64
330
2
100
AcDbSymbolTableRecord
100
AcDbLayerTableRecord
  2
43
 70
     0
 62
    43
  6
CONTINUOUS
  0
LAYER
  5
65
330
2
100
AcDbSymbolTableRecord
100
AcDbLayerTableRecord
  2
44
 70
     0
 62
    44
  6
CONTINUOUS
  0
LAYER
  5
66
330
2
100
AcDbSymbolTableRecord
100
AcDbLayerTableRecord
  2
45
 70
     0
 62
    45
  6
CONTINUOUS
  0
LAYER
  5
67
330
2
100
AcDbSymbolTableRecord
100
AcDbLayerTableRecord
  2
46
 70
     0
 62
    46
  6
CONTINUOUS
  0
LAYER
  5
68
330
2
100
AcDbSymbolTableRecord
100
AcDbLayerTableRecord
  2
47
 70
     0
 62
    47
  6
CONTINUOUS
  0
LAYER
  5
69
330
2
100
AcDbSymbolTableRecord
100
AcDbLayerTableRecord
  2
48
 70
     0
 62
    48
  6
CONTINUOUS
  0
LAYER
  5
6A
330
2
100
AcDbSymbolTableRecord
100
AcDbLayerTableRecord
  2
49
 70
     0
 62
    49
  6
CONTINUOUS
  0
LAYER
  5
6B
330
2
100
AcDbSymbolTableRecord
100
AcDbLayerTableRecord
  2
50
 70
     0
 62
    50
  6
CONTINUOUS
  0
LAYER
  5
6C
330
2
100
AcDbSymbolTableRecord
100
AcDbLayerTableRecord
  2
51
 70
     0
 62
    51
  6
CONTINUOUS
  0
LAYER
  5
6D
330
2
100
AcDbSymbolTableRecord
100
AcDbLayerTableRecord
  2
52
 70
     0
 62
    52
  6
CONTINUOUS
  0
LAYER
  5
6E
330
2
100
AcDbSymbolTableRecord
100
AcDbLayerTableRecord
  2
53
 70
     0
 62
    53
  6
CONTINUOUS
  0
LAYER
  5
6F
330
2
100
AcDbSymbolTableRecord
100
AcDbLayerTableRecord
  2
54
 70
     0
 62
    54
  6
CONTINUOUS
  0
LAYER
  5
70
330
2
100
AcDbSymbolTableRecord
100
AcDbLayerTableRecord
  2
55
 70
     0
 62
    55
  6
CONTINUOUS
  0
LAYER
  5
71
330
2
100
AcDbSymbolTableRecord
100
AcDbLayerTableRecord
  2
56
 70
     0
 62
    56
  6
CONTINUOUS
  0
LAYER
  5
72
330
2
100
AcDbSymbolTableRecord
100
AcDbLayerTableRecord
  2
57
 70
     0
 62
    57
  6
CONTINUOUS
  0
LAYER
  5
73
330
2
100
AcDbSymbolTableRecord
100
AcDbLayerTableRecord
  2
58
 70
     0
 62
    58
  6
CONTINUOUS
  0
LAYER
  5
74
330
2
100
AcDbSymbolTableRecord
100
AcDbLayerTableRecord
  2
59
 70
     0
 62
    59
  6
CONTINUOUS
  0
LAYER
  5
75
330
2
100
AcDbSymbolTableRecord
100
AcDbLayerTableRecord
  2
60
 70
     0
 62
    60
  6
CONTINUOUS
  0
LAYER
  5
76
330
2
100
AcDbSymbolTableRecord
100
AcDbLayerTableRecord
  2
61
 70
     0
 62
    61
  6
CONTINUOUS
  0
LAYER
  5
77
330
2
100
AcDbSymbolTableRecord
100
AcDbLayerTableRecord
  2
62
 70
     0
 62
    62
  6
CONTINUOUS
  0
LAYER
  5
78
330
2
100
AcDbSymbolTableRecord
100
AcDbLayerTableRecord
  2
63
 70
     0
 62
    63
  6
CONTINUOUS
  0
LAYER
  5
79
330
2
100
AcDbSymbolTableRecord
100
AcDbLayerTableRecord
  2
64
 70
     0
 62
    64
  6
CONTINUOUS
  0
LAYER
  5
7A
330
2
100
AcDbSymbolTableRecord
100
AcDbLayerTableRecord
  2
65
 70
     0
 62
    65
  6
CONTINUOUS
  0
LAYER
  5
7B
330
2
100
AcDbSymbolTableRecord
100
AcDbLayerTableRecord
  2
66
 70
     0
 62
    66
  6
CONTINUOUS
  0
LAYER
  5
7C
330
2
100
AcDbSymbolTableRecord
100
AcDbLayerTableRecord
  2
67
 70
     0
 62
    67
  6
CONTINUOUS
  0
LAYER
  5
7D
330
2
100
AcDbSymbolTableRecord
100
AcDbLayerTableRecord
  2
68
 70
     0
 62
    68
  6
CONTINUOUS
  0
LAYER
  5
7E
330
2
100
AcDbSymbolTableRecord
100
AcDbLayerTableRecord
  2
69
 70
     0
 62
    69
  6
CONTINUOUS
  0
LAYER
  5
7F
330
2
100
AcDbSymbolTableRecord
100
AcDbLayerTableRecord
  2
70
 70
     0
 62
    70
  6
CONTINUOUS
  0
LAYER
  5
80
330
2
100
AcDbSymbolTableRecord
100
AcDbLayerTableRecord
  2
71
 70
     0
 62
    71
  6
CONTINUOUS
  0
LAYER
  5
81
330
2
100
AcDbSymbolTableRecord
100
AcDbLayerTableRecord
  2
72
 70
     0
 62
    72
  6
CONTINUOUS
  0
LAYER
  5
82
330
2
100
AcDbSymbolTableRecord
100
AcDbLayerTableRecord
  2
73
 70
     0
 62
    73
  6
CONTINUOUS
  0
LAYER
  5
83
330
2
100
AcDbSymbolTableRecord
100
AcDbLayerTableRecord
  2
74
 70
     0
 62
    74
  6
CONTINUOUS
  0
LAYER
  5
84
330
2
100
AcDbSymbolTableRecord
100
AcDbLayerTableRecord
  2
75
 70
     0
 62
    75
  6
CONTINUOUS
  0
LAYER
  5
85
330
2
100
AcDbSymbolTableRecord
100
AcDbLayerTableRecord
  2
76
 70
     0
 62
    76
  6
CONTINUOUS
  0
LAYER
  5
86
330
2
100
AcDbSymbolTableRecord
100
AcDbLayerTableRecord
  2
77
 70
     0
 62
    77
  6
CONTINUOUS
  0
LAYER
  5
87
330
2
100
AcDbSymbolTableRecord
100
AcDbLayerTableRecord
  2
78
 70
     0
 62
    78
  6
CONTINUOUS
  0
LAYER
  5
88
330
2
100
AcDbSymbolTableRecord
100
AcDbLayerTableRecord
  2
79
 70
     0
 62
    79
  6
CONTINUOUS
  0
LAYER
  5
89
330
2
100
AcDbSymbolTableRecord
100
AcDbLayerTableRecord
  2
80
 70
     0
 62
    80
  6
CONTINUOUS
  0
LAYER
  5
8A
330
2
100
AcDbSymbolTableRecord
100
AcDbLayerTableRecord
  2
81
 70
     0
 62
    81
  6
CONTINUOUS
  0
LAYER
  5
8B
330
2
100
AcDbSymbolTableRecord
100
AcDbLayerTableRecord
  2
82
 70
     0
 62
    82
  6
CONTINUOUS
  0
LAYER
  5
8C
330
2
100
AcDbSymbolTableRecord
100
AcDbLayerTableRecord
  2
83
 70
     0
 62
    83
  6
CONTINUOUS
  0
LAYER
  5
8D
330
2
100
AcDbSymbolTableRecord
100
AcDbLayerTableRecord
  2
84
 70
     0
 62
    84
  6
CONTINUOUS
  0
LAYER
  5
8E
330
2
100
AcDbSymbolTableRecord
100
AcDbLayerTableRecord
  2
85
 70
     0
 62
    85
  6
CONTINUOUS
  0
LAYER
  5
8F
330
2
100
AcDbSymbolTableRecord
100
AcDbLayerTableRecord
  2
86
 70
     0
 62
    86
  6
CONTINUOUS
  0
LAYER
  5
90
330
2
100
AcDbSymbolTableRecord
100
AcDbLayerTableRecord
  2
87
 70
     0
 62
    87
  6
CONTINUOUS
  0
LAYER
  5
91
330
2
100
AcDbSymbolTableRecord
100
AcDbLayerTableRecord
  2
88
 70
     0
 62
    88
  6
CONTINUOUS
  0
LAYER
  5
92
330
2
100
AcDbSymbolTableRecord
100
AcDbLayerTableRecord
  2
89
 70
     0
 62
    89
  6
CONTINUOUS
  0
LAYER
  5
93
330
2
100
AcDbSymbolTableRecord
100
AcDbLayerTableRecord
  2
90
 70
     0
 62
    90
  6
CONTINUOUS
  0
LAYER
  5
94
330
2
100
AcDbSymbolTableRecord
100
AcDbLayerTableRecord
  2
91
 70
     0
 62
    91
  6
CONTINUOUS
  0
LAYER
  5
95
330
2
100
AcDbSymbolTableRecord
100
AcDbLayerTableRecord
  2
92
 70
     0
 62
    92
  6
CONTINUOUS
  0
LAYER
  5
96
330
2
100
AcDbSymbolTableRecord
100
AcDbLayerTableRecord
  2
93
 70
     0
 62
    93
  6
CONTINUOUS
  0
LAYER
  5
97
330
2
100
AcDbSymbolTableRecord
100
AcDbLayerTableRecord
  2
94
 70
     0
 62
    94
  6
CONTINUOUS
  0
LAYER
  5
98
330
2
100
AcDbSymbolTableRecord
100
AcDbLayerTableRecord
  2
95
 70
     0
 62
    95
  6
CONTINUOUS
  0
LAYER
  5
99
330
2
100
AcDbSymbolTableRecord
100
AcDbLayerTableRecord
  2
96
 70
     0
 62
    96
  6
CONTINUOUS
  0
LAYER
  5
9A
330
2
100
AcDbSymbolTableRecord
100
AcDbLayerTableRecord
  2
97
 70
     0
 62
    97
  6
CONTINUOUS
  0
LAYER
  5
9B
330
2
100
AcDbSymbolTableRecord
100
AcDbLayerTableRecord
  2
98
 70
     0
 62
    98
  6
CONTINUOUS
  0
LAYER
  5
9C
330
2
100
AcDbSymbolTableRecord
100
AcDbLayerTableRecord
  2
99
 70
     0
 62
    99
  6
CONTINUOUS
  0
LAYER
  5
9D
330
2
100
AcDbSymbolTableRecord
100
AcDbLayerTableRecord
  2
100
 70
     0
 62
   100
  6
CONTINUOUS
  0
LAYER
  5
9E
330
2
100
AcDbSymbolTableRecord
100
AcDbLayerTableRecord
  2
101
 70
     0
 62
   101
  6
CONTINUOUS
  0
LAYER
  5
9F
330
2
100
AcDbSymbolTableRecord
100
AcDbLayerTableRecord
  2
102
 70
     0
 62
   102
  6
CONTINUOUS
  0
LAYER
  5
A0
330
2
100
AcDbSymbolTableRecord
100
AcDbLayerTableRecord
  2
103
 70
     0
 62
   103
  6
CONTINUOUS
  0
LAYER
  5
A1
330
2
100
AcDbSymbolTableRecord
100
AcDbLayerTableRecord
  2
104
 70
     0
 62
   104
  6
CONTINUOUS
  0
LAYER
  5
A2
330
2
100
AcDbSymbolTableRecord
100
AcDbLayerTableRecord
  2
105
 70
     0
 62
   105
  6
CONTINUOUS
  0
LAYER
  5
A3
330
2
100
AcDbSymbolTableRecord
100
AcDbLayerTableRecord
  2
106
 70
     0
 62
   106
  6
CONTINUOUS
  0
LAYER
  5
A4
330
2
100
AcDbSymbolTableRecord
100
AcDbLayerTableRecord
  2
107
 70
     0
 62
   107
  6
CONTINUOUS
  0
LAYER
  5
A5
330
2
100
AcDbSymbolTableRecord
100
AcDbLayerTableRecord
  2
108
 70
     0
 62
   108
  6
CONTINUOUS
  0
LAYER
  5
A6
330
2
100
AcDbSymbolTableRecord
100
AcDbLayerTableRecord
  2
109
 70
     0
 62
   109
  6
CONTINUOUS
  0
LAYER
  5
A7
330
2
100
AcDbSymbolTableRecord
100
AcDbLayerTableRecord
  2
110
 70
     0
 62
   110
  6
CONTINUOUS
  0
LAYER
  5
A8
330
2
100
AcDbSymbolTableRecord
100
AcDbLayerTableRecord
  2
111
 70
     0
 62
   111
  6
CONTINUOUS
  0
LAYER
  5
A9
330
2
100
AcDbSymbolTableRecord
100
AcDbLayerTableRecord
  2
112
 70
     0
 62
   112
  6
CONTINUOUS
  0
LAYER
  5
AA
330
2
100
AcDbSymbolTableRecord
100
AcDbLayerTableRecord
  2
113
 70
     0
 62
   113
  6
CONTINUOUS
  0
LAYER
  5
AB
330
2
100
AcDbSymbolTableRecord
100
AcDbLayerTableRecord
  2
114
 70
     0
 62
   114
  6
CONTINUOUS
  0
LAYER
  5
AC
330
2
100
AcDbSymbolTableRecord
100
AcDbLayerTableRecord
  2
115
 70
     0
 62
   115
  6
CONTINUOUS
  0
LAYER
  5
AD
330
2
100
AcDbSymbolTableRecord
100
AcDbLayerTableRecord
  2
116
 70
     0
 62
   116
  6
CONTINUOUS
  0
LAYER
  5
AE
330
2
100
AcDbSymbolTableRecord
100
AcDbLayerTableRecord
  2
117
 70
     0
 62
   117
  6
CONTINUOUS
  0
LAYER
  5
AF
330
2
100
AcDbSymbolTableRecord
100
AcDbLayerTableRecord
  2
118
 70
     0
 62
   118
  6
CONTINUOUS
  0
LAYER
  5
B0
330
2
100
AcDbSymbolTableRecord
100
AcDbLayerTableRecord
  2
119
 70
     0
 62
   119
  6
CONTINUOUS
  0
LAYER
  5
B1
330
2
100
AcDbSymbolTableRecord
100
AcDbLayerTableRecord
  2
120
 70
     0
 62
   120
  6
CONTINUOUS
  0
LAYER
  5
B2
330
2
100
AcDbSymbolTableRecord
100
AcDbLayerTableRecord
  2
121
 70
     0
 62
   121
  6
CONTINUOUS
  0
LAYER
  5
B3
330
2
100
AcDbSymbolTableRecord
100
AcDbLayerTableRecord
  2
122
 70
     0
 62
   122
  6
CONTINUOUS
  0
LAYER
  5
B4
330
2
100
AcDbSymbolTableRecord
100
AcDbLayerTableRecord
  2
123
 70
     0
 62
   123
  6
CONTINUOUS
  0
LAYER
  5
B5
330
2
100
AcDbSymbolTableRecord
100
AcDbLayerTableRecord
  2
124
 70
     0
 62
   124
  6
CONTINUOUS
  0
LAYER
  5
B6
330
2
100
AcDbSymbolTableRecord
100
AcDbLayerTableRecord
  2
125
 70
     0
 62
   125
  6
CONTINUOUS
  0
LAYER
  5
B7
330
2
100
AcDbSymbolTableRecord
100
AcDbLayerTableRecord
  2
126
 70
     0
 62
   126
  6
CONTINUOUS
  0
LAYER
  5
B8
330
2
100
AcDbSymbolTableRecord
100
AcDbLayerTableRecord
  2
127
 70
     0
 62
   127
  6
CONTINUOUS
  0
LAYER
  5
B9
330
2
100
AcDbSymbolTableRecord
100
AcDbLayerTableRecord
  2
128
 70
     0
 62
   128
  6
CONTINUOUS
  0
LAYER
  5
BA
330
2
100
AcDbSymbolTableRecord
100
AcDbLayerTableRecord
  2
129
 70
     0
 62
   129
  6
CONTINUOUS
  0
LAYER
  5
BB
330
2
100
AcDbSymbolTableRecord
100
AcDbLayerTableRecord
  2
130
 70
     0
 62
   130
  6
CONTINUOUS
  0
LAYER
  5
BC
330
2
100
AcDbSymbolTableRecord
100
AcDbLayerTableRecord
  2
131
 70
     0
 62
   131
  6
CONTINUOUS
  0
LAYER
  5
BD
330
2
100
AcDbSymbolTableRecord
100
AcDbLayerTableRecord
  2
132
 70
     0
 62
   132
  6
CONTINUOUS
  0
LAYER
  5
BE
330
2
100
AcDbSymbolTableRecord
100
AcDbLayerTableRecord
  2
133
 70
     0
 62
   133
  6
CONTINUOUS
  0
LAYER
  5
BF
330
2
100
AcDbSymbolTableRecord
100
AcDbLayerTableRecord
  2
134
 70
     0
 62
   134
  6
CONTINUOUS
  0
LAYER
  5
C0
330
2
100
AcDbSymbolTableRecord
100
AcDbLayerTableRecord
  2
135
 70
     0
 62
   135
  6
CONTINUOUS
  0
LAYER
  5
C1
330
2
100
AcDbSymbolTableRecord
100
AcDbLayerTableRecord
  2
136
 70
     0
 62
   136
  6
CONTINUOUS
  0
LAYER
  5
C2
330
2
100
AcDbSymbolTableRecord
100
AcDbLayerTableRecord
  2
137
 70
     0
 62
   137
  6
CONTINUOUS
  0
LAYER
  5
C3
330
2
100
AcDbSymbolTableRecord
100
AcDbLayerTableRecord
  2
138
 70
     0
 62
   138
  6
CONTINUOUS
  0
LAYER
  5
C4
330
2
100
AcDbSymbolTableRecord
100
AcDbLayerTableRecord
  2
139
 70
     0
 62
   139
  6
CONTINUOUS
  0
LAYER
  5
C5
330
2
100
AcDbSymbolTableRecord
100
AcDbLayerTableRecord
  2
140
 70
     0
 62
   140
  6
CONTINUOUS
  0
LAYER
  5
C6
330
2
100
AcDbSymbolTableRecord
100
AcDbLayerTableRecord
  2
141
 70
     0
 62
   141
  6
CONTINUOUS
  0
LAYER
  5
C7
330
2
100
AcDbSymbolTableRecord
100
AcDbLayerTableRecord
  2
142
 70
     0
 62
   142
  6
CONTINUOUS
  0
LAYER
  5
C8
330
2
100
AcDbSymbolTableRecord
100
AcDbLayerTableRecord
  2
143
 70
     0
 62
   143
  6
CONTINUOUS
  0
LAYER
  5
C9
330
2
100
AcDbSymbolTableRecord
100
AcDbLayerTableRecord
  2
144
 70
     0
 62
   144
  6
CONTINUOUS
  0
LAYER
  5
CA
330
2
100
AcDbSymbolTableRecord
100
AcDbLayerTableRecord
  2
145
 70
     0
 62
   145
  6
CONTINUOUS
  0
LAYER
  5
CB
330
2
100
AcDbSymbolTableRecord
100
AcDbLayerTableRecord
  2
146
 70
     0
 62
   146
  6
CONTINUOUS
  0
LAYER
  5
CC
330
2
100
AcDbSymbolTableRecord
100
AcDbLayerTableRecord
  2
147
 70
     0
 62
   147
  6
CONTINUOUS
  0
LAYER
  5
CD
330
2
100
AcDbSymbolTableRecord
100
AcDbLayerTableRecord
  2
148
 70
     0
 62
   148
  6
CONTINUOUS
  0
LAYER
  5
CE
330
2
100
AcDbSymbolTableRecord
100
AcDbLayerTableRecord
  2
149
 70
     0
 62
   149
  6
CONTINUOUS
  0
LAYER
  5
CF
330
2
100
AcDbSymbolTableRecord
100
AcDbLayerTableRecord
  2
150
 70
     0
 62
   150
  6
CONTINUOUS
  0
LAYER
  5
D0
330
2
100
AcDbSymbolTableRecord
100
AcDbLayerTableRecord
  2
151
 70
     0
 62
   151
  6
CONTINUOUS
  0
LAYER
  5
D1
330
2
100
AcDbSymbolTableRecord
100
AcDbLayerTableRecord
  2
152
 70
     0
 62
   152
  6
CONTINUOUS
  0
LAYER
  5
D2
330
2
100
AcDbSymbolTableRecord
100
AcDbLayerTableRecord
  2
153
 70
     0
 62
   153
  6
CONTINUOUS
  0
LAYER
  5
D3
330
2
100
AcDbSymbolTableRecord
100
AcDbLayerTableRecord
  2
154
 70
     0
 62
   154
  6
CONTINUOUS
  0
LAYER
  5
D4
330
2
100
AcDbSymbolTableRecord
100
AcDbLayerTableRecord
  2
155
 70
     0
 62
   155
  6
CONTINUOUS
  0
LAYER
  5
D5
330
2
100
AcDbSymbolTableRecord
100
AcDbLayerTableRecord
  2
156
 70
     0
 62
   156
  6
CONTINUOUS
  0
LAYER
  5
D6
330
2
100
AcDbSymbolTableRecord
100
AcDbLayerTableRecord
  2
157
 70
     0
 62
   157
  6
CONTINUOUS
  0
LAYER
  5
D7
330
2
100
AcDbSymbolTableRecord
100
AcDbLayerTableRecord
  2
158
 70
     0
 62
   158
  6
CONTINUOUS
  0
LAYER
  5
D8
330
2
100
AcDbSymbolTableRecord
100
AcDbLayerTableRecord
  2
159
 70
     0
 62
   159
  6
CONTINUOUS
  0
LAYER
  5
D9
330
2
100
AcDbSymbolTableRecord
100
AcDbLayerTableRecord
  2
160
 70
     0
 62
   160
  6
CONTINUOUS
  0
LAYER
  5
DA
330
2
100
AcDbSymbolTableRecord
100
AcDbLayerTableRecord
  2
161
 70
     0
 62
   161
  6
CONTINUOUS
  0
LAYER
  5
DB
330
2
100
AcDbSymbolTableRecord
100
AcDbLayerTableRecord
  2
162
 70
     0
 62
   162
  6
CONTINUOUS
  0
LAYER
  5
DC
330
2
100
AcDbSymbolTableRecord
100
AcDbLayerTableRecord
  2
163
 70
     0
 62
   163
  6
CONTINUOUS
  0
LAYER
  5
DD
330
2
100
AcDbSymbolTableRecord
100
AcDbLayerTableRecord
  2
164
 70
     0
 62
   164
  6
CONTINUOUS
  0
LAYER
  5
DE
330
2
100
AcDbSymbolTableRecord
100
AcDbLayerTableRecord
  2
165
 70
     0
 62
   165
  6
CONTINUOUS
  0
LAYER
  5
DF
330
2
100
AcDbSymbolTableRecord
100
AcDbLayerTableRecord
  2
166
 70
     0
 62
   166
  6
CONTINUOUS
  0
LAYER
  5
E0
330
2
100
AcDbSymbolTableRecord
100
AcDbLayerTableRecord
  2
167
 70
     0
 62
   167
  6
CONTINUOUS
  0
LAYER
  5
E1
330
2
100
AcDbSymbolTableRecord
100
AcDbLayerTableRecord
  2
168
 70
     0
 62
   168
  6
CONTINUOUS
  0
LAYER
  5
E2
330
2
100
AcDbSymbolTableRecord
100
AcDbLayerTableRecord
  2
169
 70
     0
 62
   169
  6
CONTINUOUS
  0
LAYER
  5
E3
330
2
100
AcDbSymbolTableRecord
100
AcDbLayerTableRecord
  2
170
 70
     0
 62
   170
  6
CONTINUOUS
  0
LAYER
  5
E4
330
2
100
AcDbSymbolTableRecord
100
AcDbLayerTableRecord
  2
171
 70
     0
 62
   171
  6
CONTINUOUS
  0
LAYER
  5
E5
330
2
100
AcDbSymbolTableRecord
100
AcDbLayerTableRecord
  2
172
 70
     0
 62
   172
  6
CONTINUOUS
  0
LAYER
  5
E6
330
2
100
AcDbSymbolTableRecord
100
AcDbLayerTableRecord
  2
173
 70
     0
 62
   173
  6
CONTINUOUS
  0
LAYER
  5
E7
330
2
100
AcDbSymbolTableRecord
100
AcDbLayerTableRecord
  2
174
 70
     0
 62
   174
  6
CONTINUOUS
  0
LAYER
  5
E8
330
2
100
AcDbSymbolTableRecord
100
AcDbLayerTableRecord
  2
175
 70
     0
 62
   175
  6
CONTINUOUS
  0
LAYER
  5
E9
330
2
100
AcDbSymbolTableRecord
100
AcDbLayerTableRecord
  2
176
 70
     0
 62
   176
  6
CONTINUOUS
  0
LAYER
  5
EA
330
2
100
AcDbSymbolTableRecord
100
AcDbLayerTableRecord
  2
177
 70
     0
 62
   177
  6
CONTINUOUS
  0
LAYER
  5
EB
330
2
100
AcDbSymbolTableRecord
100
AcDbLayerTableRecord
  2
178
 70
     0
 62
   178
  6
CONTINUOUS
  0
LAYER
  5
EC
330
2
100
AcDbSymbolTableRecord
100
AcDbLayerTableRecord
  2
179
 70
     0
 62
   179
  6
CONTINUOUS
  0
LAYER
  5
ED
330
2
100
AcDbSymbolTableRecord
100
AcDbLayerTableRecord
  2
180
 70
     0
 62
   180
  6
CONTINUOUS
  0
LAYER
  5
EE
330
2
100
AcDbSymbolTableRecord
100
AcDbLayerTableRecord
  2
181
 70
     0
 62
   181
  6
CONTINUOUS
  0
LAYER
  5
EF
330
2
100
AcDbSymbolTableRecord
100
AcDbLayerTableRecord
  2
182
 70
     0
 62
   182
  6
CONTINUOUS
  0
LAYER
  5
F0
330
2
100
AcDbSymbolTableRecord
100
AcDbLayerTableRecord
  2
183
 70
     0
 62
   183
  6
CONTINUOUS
  0
LAYER
  5
F1
330
2
100
AcDbSymbolTableRecord
100
AcDbLayerTableRecord
  2
184
 70
     0
 62
   184
  6
CONTINUOUS
  0
LAYER
  5
F2
330
2
100
AcDbSymbolTableRecord
100
AcDbLayerTableRecord
  2
185
 70
     0
 62
   185
  6
CONTINUOUS
  0
LAYER
  5
F3
330
2
100
AcDbSymbolTableRecord
100
AcDbLayerTableRecord
  2
186
 70
     0
 62
   186
  6
CONTINUOUS
  0
LAYER
  5
F4
330
2
100
AcDbSymbolTableRecord
100
AcDbLayerTableRecord
  2
187
 70
     0
 62
   187
  6
CONTINUOUS
  0
LAYER
  5
F5
330
2
100
AcDbSymbolTableRecord
100
AcDbLayerTableRecord
  2
188
 70
     0
 62
   188
  6
CONTINUOUS
  0
LAYER
  5
F6
330
2
100
AcDbSymbolTableRecord
100
AcDbLayerTableRecord
  2
189
 70
     0
 62
   189
  6
CONTINUOUS
  0
LAYER
  5
F7
330
2
100
AcDbSymbolTableRecord
100
AcDbLayerTableRecord
  2
190
 70
     0
 62
   190
  6
CONTINUOUS
  0
LAYER
  5
F8
330
2
100
AcDbSymbolTableRecord
100
AcDbLayerTableRecord
  2
191
 70
     0
 62
   191
  6
CONTINUOUS
  0
LAYER
  5
F9
330
2
100
AcDbSymbolTableRecord
100
AcDbLayerTableRecord
  2
192
 70
     0
 62
   192
  6
CONTINUOUS
  0
LAYER
  5
FA
330
2
100
AcDbSymbolTableRecord
100
AcDbLayerTableRecord
  2
193
 70
     0
 62
   193
  6
CONTINUOUS
  0
LAYER
  5
FB
330
2
100
AcDbSymbolTableRecord
100
AcDbLayerTableRecord
  2
194
 70
     0
 62
   194
  6
CONTINUOUS
  0
LAYER
  5
FC
330
2
100
AcDbSymbolTableRecord
100
AcDbLayerTableRecord
  2
195
 70
     0
 62
   195
  6
CONTINUOUS
  0
LAYER
  5
FD
330
2
100
AcDbSymbolTableRecord
100
AcDbLayerTableRecord
  2
196
 70
     0
 62
   196
  6
CONTINUOUS
  0
LAYER
  5
FE
330
2
100
AcDbSymbolTableRecord
100
AcDbLayerTableRecord
  2
197
 70
     0
 62
   197
  6
CONTINUOUS
  0
LAYER
  5
FF
330
2
100
AcDbSymbolTableRecord
100
AcDbLayerTableRecord
  2
198
 70
     0
 62
   198
  6
CONTINUOUS
  0
LAYER
  5
100
330
2
100
AcDbSymbolTableRecord
100
AcDbLayerTableRecord
  2
199
 70
     0
 62
   199
  6
CONTINUOUS
  0
LAYER
  5
101
330
2
100
AcDbSymbolTableRecord
100
AcDbLayerTableRecord
  2
200
 70
     0
 62
   200
  6
CONTINUOUS
  0
LAYER
  5
102
330
2
100
AcDbSymbolTableRecord
100
AcDbLayerTableRecord
  2
201
 70
     0
 62
   201
  6
CONTINUOUS
  0
LAYER
  5
103
330
2
100
AcDbSymbolTableRecord
100
AcDbLayerTableRecord
  2
202
 70
     0
 62
   202
  6
CONTINUOUS
  0
LAYER
  5
104
330
2
100
AcDbSymbolTableRecord
100
AcDbLayerTableRecord
  2
203
 70
     0
 62
   203
  6
CONTINUOUS
  0
LAYER
  5
105
330
2
100
AcDbSymbolTableRecord
100
AcDbLayerTableRecord
  2
204
 70
     0
 62
   204
  6
CONTINUOUS
  0
LAYER
  5
106
330
2
100
AcDbSymbolTableRecord
100
AcDbLayerTableRecord
  2
205
 70
     0
 62
   205
  6
CONTINUOUS
  0
LAYER
  5
107
330
2
100
AcDbSymbolTableRecord
100
AcDbLayerTableRecord
  2
206
 70
     0
 62
   206
  6
CONTINUOUS
  0
LAYER
  5
108
330
2
100
AcDbSymbolTableRecord
100
AcDbLayerTableRecord
  2
207
 70
     0
 62
   207
  6
CONTINUOUS
  0
LAYER
  5
109
330
2
100
AcDbSymbolTableRecord
100
AcDbLayerTableRecord
  2
208
 70
     0
 62
   208
  6
CONTINUOUS
  0
LAYER
  5
10A
330
2
100
AcDbSymbolTableRecord
100
AcDbLayerTableRecord
  2
209
 70
     0
 62
   209
  6
CONTINUOUS
  0
LAYER
  5
10B
330
2
100
AcDbSymbolTableRecord
100
AcDbLayerTableRecord
  2
210
 70
     0
 62
   210
  6
CONTINUOUS
  0
LAYER
  5
10C
330
2
100
AcDbSymbolTableRecord
100
AcDbLayerTableRecord
  2
211
 70
     0
 62
   211
  6
CONTINUOUS
  0
LAYER
  5
10D
330
2
100
AcDbSymbolTableRecord
100
AcDbLayerTableRecord
  2
212
 70
     0
 62
   212
  6
CONTINUOUS
  0
LAYER
  5
10E
330
2
100
AcDbSymbolTableRecord
100
AcDbLayerTableRecord
  2
213
 70
     0
 62
   213
  6
CONTINUOUS
  0
LAYER
  5
10F
330
2
100
AcDbSymbolTableRecord
100
AcDbLayerTableRecord
  2
214
 70
     0
 62
   214
  6
CONTINUOUS
  0
LAYER
  5
110
330
2
100
AcDbSymbolTableRecord
100
AcDbLayerTableRecord
  2
215
 70
     0
 62
   215
  6
CONTINUOUS
  0
LAYER
  5
111
330
2
100
AcDbSymbolTableRecord
100
AcDbLayerTableRecord
  2
216
 70
     0
 62
   216
  6
CONTINUOUS
  0
LAYER
  5
112
330
2
100
AcDbSymbolTableRecord
100
AcDbLayerTableRecord
  2
217
 70
     0
 62
   217
  6
CONTINUOUS
  0
LAYER
  5
113
330
2
100
AcDbSymbolTableRecord
100
AcDbLayerTableRecord
  2
218
 70
     0
 62
   218
  6
CONTINUOUS
  0
LAYER
  5
114
330
2
100
AcDbSymbolTableRecord
100
AcDbLayerTableRecord
  2
219
 70
     0
 62
   219
  6
CONTINUOUS
  0
LAYER
  5
115
330
2
100
AcDbSymbolTableRecord
100
AcDbLayerTableRecord
  2
220
 70
     0
 62
   220
  6
CONTINUOUS
  0
LAYER
  5
116
330
2
100
AcDbSymbolTableRecord
100
AcDbLayerTableRecord
  2
221
 70
     0
 62
   221
  6
CONTINUOUS
  0
LAYER
  5
117
330
2
100
AcDbSymbolTableRecord
100
AcDbLayerTableRecord
  2
222
 70
     0
 62
   222
  6
CONTINUOUS
  0
LAYER
  5
118
330
2
100
AcDbSymbolTableRecord
100
AcDbLayerTableRecord
  2
223
 70
     0
 62
   223
  6
CONTINUOUS
  0
LAYER
  5
119
330
2
100
AcDbSymbolTableRecord
100
AcDbLayerTableRecord
  2
224
 70
     0
 62
   224
  6
CONTINUOUS
  0
LAYER
  5
11A
330
2
100
AcDbSymbolTableRecord
100
AcDbLayerTableRecord
  2
225
 70
     0
 62
   225
  6
CONTINUOUS
  0
LAYER
  5
11B
330
2
100
AcDbSymbolTableRecord
100
AcDbLayerTableRecord
  2
226
 70
     0
 62
   226
  6
CONTINUOUS
  0
LAYER
  5
11C
330
2
100
AcDbSymbolTableRecord
100
AcDbLayerTableRecord
  2
227
 70
     0
 62
   227
  6
CONTINUOUS
  0
LAYER
  5
11D
330
2
100
AcDbSymbolTableRecord
100
AcDbLayerTableRecord
  2
228
 70
     0
 62
   228
  6
CONTINUOUS
  0
LAYER
  5
11E
330
2
100
AcDbSymbolTableRecord
100
AcDbLayerTableRecord
  2
229
 70
     0
 62
   229
  6
CONTINUOUS
  0
LAYER
  5
11F
330
2
100
AcDbSymbolTableRecord
100
AcDbLayerTableRecord
  2
230
 70
     0
 62
   230
  6
CONTINUOUS
  0
LAYER
  5
120
330
2
100
AcDbSymbolTableRecord
100
AcDbLayerTableRecord
  2
231
 70
     0
 62
   231
  6
CONTINUOUS
  0
LAYER
  5
121
330
2
100
AcDbSymbolTableRecord
100
AcDbLayerTableRecord
  2
232
 70
     0
 62
   232
  6
CONTINUOUS
  0
LAYER
  5
122
330
2
100
AcDbSymbolTableRecord
100
AcDbLayerTableRecord
  2
233
 70
     0
 62
   233
  6
CONTINUOUS
  0
LAYER
  5
123
330
2
100
AcDbSymbolTableRecord
100
AcDbLayerTableRecord
  2
234
 70
     0
 62
   234
  6
CONTINUOUS
  0
LAYER
  5
124
330
2
100
AcDbSymbolTableRecord
100
AcDbLayerTableRecord
  2
235
 70
     0
 62
   235
  6
CONTINUOUS
  0
LAYER
  5
125
330
2
100
AcDbSymbolTableRecord
100
AcDbLayerTableRecord
  2
236
 70
     0
 62
   236
  6
CONTINUOUS
  0
LAYER
  5
126
330
2
100
AcDbSymbolTableRecord
100
AcDbLayerTableRecord
  2
237
 70
     0
 62
   237
  6
CONTINUOUS
  0
LAYER
  5
127
330
2
100
AcDbSymbolTableRecord
100
AcDbLayerTableRecord
  2
238
 70
     0
 62
   238
  6
CONTINUOUS
  0
LAYER
  5
128
330
2
100
AcDbSymbolTableRecord
100
AcDbLayerTableRecord
  2
239
 70
     0
 62
   239
  6
CONTINUOUS
  0
LAYER
  5
129
330
2
100
AcDbSymbolTableRecord
100
AcDbLayerTableRecord
  2
240
 70
     0
 62
   240
  6
CONTINUOUS
  0
LAYER
  5
12A
330
2
100
AcDbSymbolTableRecord
100
AcDbLayerTableRecord
  2
241
 70
     0
 62
   241
  6
CONTINUOUS
  0
LAYER
  5
12B
330
2
100
AcDbSymbolTableRecord
100
AcDbLayerTableRecord
  2
242
 70
     0
 62
   242
  6
CONTINUOUS
  0
LAYER
  5
12C
330
2
100
AcDbSymbolTableRecord
100
AcDbLayerTableRecord
  2
243
 70
     0
 62
   243
  6
CONTINUOUS
  0
LAYER
  5
12D
330
2
100
AcDbSymbolTableRecord
100
AcDbLayerTableRecord
  2
244
 70
     0
 62
   244
  6
CONTINUOUS
  0
LAYER
  5
12E
330
2
100
AcDbSymbolTableRecord
100
AcDbLayerTableRecord
  2
245
 70
     0
 62
   245
  6
CONTINUOUS
  0
LAYER
  5
12F
330
2
100
AcDbSymbolTableRecord
100
AcDbLayerTableRecord
  2
246
 70
     0
 62
   246
  6
CONTINUOUS
  0
LAYER
  5
130
330
2
100
AcDbSymbolTableRecord
100
AcDbLayerTableRecord
  2
247
 70
     0
 62
   247
  6
CONTINUOUS
  0
LAYER
  5
131
330
2
100
AcDbSymbolTableRecord
100
AcDbLayerTableRecord
  2
248
 70
     0
 62
   248
  6
CONTINUOUS
  0
LAYER
  5
132
330
2
100
AcDbSymbolTableRecord
100
AcDbLayerTableRecord
  2
249
 70
     0
 62
   249
  6
CONTINUOUS
  0
LAYER
  5
133
330
2
100
AcDbSymbolTableRecord
100
AcDbLayerTableRecord
  2
250
 70
     0
 62
   250
  6
CONTINUOUS
  0
LAYER
  5
134
330
2
100
AcDbSymbolTableRecord
100
AcDbLayerTableRecord
  2
251
 70
     0
 62
   251
  6
CONTINUOUS
  0
LAYER
  5
135
330
2
100
AcDbSymbolTableRecord
100
AcDbLayerTableRecord
  2
252
 70
     0
 62
   252
  6
CONTINUOUS
  0
LAYER
  5
136
330
2
100
AcDbSymbolTableRecord
100
AcDbLayerTableRecord
  2
253
 70
     0
 62
   253
  6
CONTINUOUS
  0
LAYER
  5
137
330
2
100
AcDbSymbolTableRecord
100
AcDbLayerTableRecord
  2
254
 70
     0
 62
   254
  6
CONTINUOUS
  0
LAYER
  5
138
330
2
100
AcDbSymbolTableRecord
100
AcDbLayerTableRecord
  2
255
 70
     0
 62
   255
  6
CONTINUOUS
  0
ENDTAB
  0
TABLE
  2
STYLE
  5
3
330
0
100
AcDbSymbolTable
 70
     1
  0
STYLE
  5
11
330
3
100
AcDbSymbolTableRecord
100
AcDbTextStyleTableRecord
  2
STANDARD
 70
     0
 40
0.0
 41
1.0
 50
0.0
 71
     0
 42
0.2
  3
monotxt
  4

  0
ENDTAB
  0
TABLE
  2
VIEW
  5
6
330
0
100
AcDbSymbolTable
 70
     0
  0
ENDTAB
  0
TABLE
  2
UCS
  5
7
330
0
100
AcDbSymbolTable
 70
     0
  0
ENDTAB
  0
TABLE
  2
APPID
  5
9
330
0
100
AcDbSymbolTable
 70
     1
  0
APPID
  5
12
330
9
100
AcDbSymbolTableRecord
100
AcDbRegAppTableRecord
  2
ACAD
 70
     0
  0
ENDTAB
  0
TABLE
  2
DIMSTYLE
  5
A
330
0
100
AcDbSymbolTable
 70
     1
  0
DIMSTYLE
105
44A4
330
A
100
AcDbSymbolTableRecord
100
AcDbDimStyleTableRecord
  2
STANDARD
 70
     0
  3

  4

  5

  6

  7

 40
1.0
 41
0.18
 42
0.0625
 43
0.38
 44
0.18
 45
0.0
 46
0.0
 47
0.0
 48
0.0
140
0.18
141
0.09
142
0.0
143
25.4
144
1.0
145
0.0
146
1.0
147
0.09
 71
     0
 72
     0
 73
     1
 74
     1
 75
     0
 76
     0
 77
     0
 78
     0
170
     0
171
     2
172
     0
173
     0
174
     0
175
     0
176
     0
177
     0
178
     0
270
     2
271
     4
272
     4
273
     2
274
     2
340
11
275
     0
280
     0
281
     0
282
     0
283
     1
284
     0
285
     0
286
     0
287
     3
288
     0
  0
ENDTAB
  0
TABLE
  2
BLOCK_RECORD
  5
1
330
0
100
AcDbSymbolTable
 70
     0
  0
BLOCK_RECORD
  5
1E
102
{ACAD_XDICTIONARY
360
4715
102
}
330
1
100
AcDbSymbolTableRecord
100
AcDbBlockTableRecord
  2
*MODEL_SPACE
  0
BLOCK_RECORD
  5
1A
102
{ACAD_XDICTIONARY
360
4713
102
}
330
1
100
AcDbSymbolTableRecord
100
AcDbBlockTableRecord
  2
*PAPER_SPACE
  0
ENDTAB
  0
ENDSEC
  0
SECTION
  2
BLOCKS
  0
BLOCK
  5
13B
330
1E
100
AcDbEntity
  8
0
100
AcDbBlockBegin
  2
*MODEL_SPACE
 70
     0
 10
0.0
 20
0.0
 30
0.0
  3
*MODEL_SPACE
  1

  0
ENDBLK
  5
13C
330
1E
100
AcDbEntity
  8
0
100
AcDbBlockEnd
  0
BLOCK
  5
139
330
1A
100
AcDbEntity
 67
     1
  8
0
100
AcDbBlockBegin
  2
*PAPER_SPACE
 70
     0
 10
0.0
 20
0.0
 30
0.0
  3
*PAPER_SPACE
  1

  0
ENDBLK
  5
13A
330
1A
100
AcDbEntity
 67
     1
  8
0
100
AcDbBlockEnd
  0
ENDSEC
  0
SECTION
  2
ENTITIES
  0
LINE
  5
3F05
330
1E
100
AcDbEntity
  8
3
100
AcDbLine
 10
6.391732283464566
 20
4.256889763779529
 30
0.0
 11
7.03248031496063
 21
4.256889763779529
 31
0.0
  0
LINE
  5
3F06
330
1E
100
AcDbEntity
  8
3
100
AcDbLine
 10
25.29232283464567
 20
4.419291338582679
 30
0.0
 11
25.29232283464567
 21
4.256889763779529
 31
0.0
  0
LINE
  5
3F07
330
1E
100
AcDbEntity
  8
3
100
AcDbLine
 10
24.6515748031496
 20
4.256889763779529
 30
0.0
 11
24.6515748031496
 21
4.419291338582679
 31
0.0
  0
LINE
  5
3F08
330
1E
100
AcDbEntity
  8
3
100
AcDbLine
 10
6.391732283464566
 20
4.419291338582679
 30
0.0
 11
6.391732283464566
 21
4.256889763779529
 31
0.0
  0
LINE
  5
3F09
330
1E
100
AcDbEntity
  8
3
100
AcDbLine
 10
7.03248031496063
 20
4.256889763779529
 30
0.0
 11
7.03248031496063
 21
4.419291338582679
 31
0.0
  0
LINE
  5
3F0A
330
1E
100
AcDbEntity
  8
3
100
AcDbLine
 10
24.6515748031496
 20
4.419291338582679
 30
0.0
 11
25.29232283464567
 21
4.419291338582679
 31
0.0
  0
LINE
  5
3F0B
330
1E
100
AcDbEntity
  8
3
100
AcDbLine
 10
25.29232283464567
 20
4.256889763779529
 30
0.0
 11
24.6515748031496
 21
4.256889763779529
 31
0.0
  0
LINE
  5
3F0C
330
1E
100
AcDbEntity
  8
3
100
AcDbLine
 10
7.03248031496063
 20
4.419291338582679
 30
0.0
 11
6.391732283464566
 21
4.419291338582679
 31
0.0
  0
LINE
  5
3F0D
330
1E
100
AcDbEntity
  8
3
100
AcDbLine
 10
25.34251968503937
 20
3.878937007874018
 30
0.0
 11
25.34251968503937
 21
2.408464566929135
 31
0.0
  0
LINE
  5
3F0E
330
1E
100
AcDbEntity
  8
3
100
AcDbLine
 10
6.341535433070866
 20
2.414370078740158
 30
0.0
 11
6.341535433070866
 21
3.87303149606299
 31
0.0
  0
LINE
  5
3F0F
330
1E
100
AcDbEntity
  8
3
100
AcDbLine
 10
6.341535433070866
 20
4.162401574803151
 30
0.0
 11
6.341535433070866
 21
4.817913385826773
 31
0.0
  0
LINE
  5
3F10
330
1E
100
AcDbEntity
  8
3
100
AcDbLine
 10
25.34251968503937
 20
2.127952755905512
 30
0.0
 11
25.34251968503937
 21
1.469488188976379
 31
0.0
  0
LINE
  5
3F11
330
1E
100
AcDbEntity
  8
3
100
AcDbLine
 10
24.74311023622047
 20
4.876968503937007
 30
0.0
 11
25.28346456692913
 21
4.876968503937007
 31
0.0
  0
LINE
  5
3F12
330
1E
100
AcDbEntity
  8
3
100
AcDbLine
 10
6.940944881889763
 20
1.40748031496063
 30
0.0
 11
6.403543307086613
 21
1.40748031496063
 31
0.0
  0
LINE
  5
3F13
330
1E
100
AcDbEntity
  8
3
100
AcDbLine
 10
24.93799212598425
 20
3.533464566929135
 30
0.0
 11
25.05610236220472
 21
3.533464566929135
 31
0.0
  0
LINE
  5
3F1E
330
1E
100
AcDbEntity
  8
3
100
AcDbLine
 10
24.93799212598425
 20
3.252952755905512
 30
0.0
 11
25.05610236220472
 21
3.252952755905512
 31
0.0
  0
LINE
  5
3F29
330
1E
100
AcDbEntity
  8
3
100
AcDbLine
 10
24.93799212598425
 20
3.03444881889764
 30
0.0
 11
25.05610236220472
 21
3.03444881889764
 31
0.0
  0
LINE
  5
3F34
330
1E
100
AcDbEntity
  8
3
100
AcDbLine
 10
24.93799212598425
 20
2.753937007874018
 30
0.0
 11
25.05610236220472
 21
2.753937007874018
 31
0.0
  0
LINE
  5
3F3F
330
1E
100
AcDbEntity
  8
3
100
AcDbLine
 10
6.627952755905512
 20
3.533464566929135
 30
0.0
 11
6.746062992125985
 21
3.533464566929135
 31
0.0
  0
LINE
  5
3F4A
330
1E
100
AcDbEntity
  8
3
100
AcDbLine
 10
6.627952755905512
 20
3.252952755905512
 30
0.0
 11
6.746062992125985
 21
3.252952755905512
 31
0.0
  0
LINE
  5
3F58
330
1E
100
AcDbEntity
  8
3
100
AcDbLine
 10
6.627952755905512
 20
3.03444881889764
 30
0.0
 11
6.746062992125985
 21
3.03444881889764
 31
0.0
  0
LINE
  5
3F66
330
1E
100
AcDbEntity
  8
3
100
AcDbLine
 10
6.627952755905512
 20
2.753937007874018
 30
0.0
 11
6.746062992125985
 21
2.753937007874018
 31
0.0
  0
LINE
  5
3F70
330
1E
100
AcDbEntity
  8
3
100
AcDbLine
 10
6.568897637795275
 20
2.768700787401574
 30
0.0
 11
6.627952755905512
 21
2.753937007874018
 31
0.0
  0
LINE
  5
3F71
330
1E
100
AcDbEntity
  8
3
100
AcDbLine
 10
24.93799212598425
 20
4.782480314960629
 30
0.0
 11
25.05610236220472
 21
4.782480314960629
 31
0.0
  0
LINE
  5
3F7C
330
1E
100
AcDbEntity
  8
3
100
AcDbLine
 10
24.93799212598425
 20
4.501968503937007
 30
0.0
 11
25.05610236220472
 21
4.501968503937007
 31
0.0
  0
LINE
  5
3F87
330
1E
100
AcDbEntity
  8
3
100
AcDbLine
 10
24.93799212598425
 20
1.78248031496063
 30
0.0
 11
25.05610236220472
 21
1.78248031496063
 31
0.0
  0
LINE
  5
3F92
330
1E
100
AcDbEntity
  8
3
100
AcDbLine
 10
24.93799212598425
 20
1.501968503937008
 30
0.0
 11
25.05610236220472
 21
1.501968503937008
 31
0.0
  0
LINE
  5
3F9D
330
1E
100
AcDbEntity
  8
3
100
AcDbLine
 10
6.627952755905512
 20
4.782480314960629
 30
0.0
 11
6.746062992125985
 21
4.782480314960629
 31
0.0
  0
LINE
  5
3FA8
330
1E
100
AcDbEntity
  8
3
100
AcDbLine
 10
6.627952755905512
 20
4.501968503937007
 30
0.0
 11
6.746062992125985
 21
4.501968503937007
 31
0.0
  0
LINE
  5
3FB6
330
1E
100
AcDbEntity
  8
3
100
AcDbLine
 10
6.627952755905512
 20
1.78248031496063
 30
0.0
 11
6.746062992125985
 21
1.78248031496063
 31
0.0
  0
LINE
  5
3FC4
330
1E
100
AcDbEntity
  8
3
100
AcDbLine
 10
6.627952755905512
 20
1.501968503937008
 30
0.0
 11
6.746062992125985
 21
1.501968503937008
 31
0.0
  0
LINE
  5
3FCE
330
1E
100
AcDbEntity
  8
3
100
AcDbLine
 10
6.568897637795275
 20
1.519685039370079
 30
0.0
 11
6.627952755905512
 21
1.504921259842521
 31
0.0
  0
LINE
  5
3FCF
330
1E
100
AcDbEntity
  8
3
100
AcDbLine
 10
24.93799212598425
 20
3.878937007874018
 30
0.0
 11
25.34251968503937
 21
3.878937007874018
 31
0.0
  0
LINE
  5
3FDA
330
1E
100
AcDbEntity
  8
3
100
AcDbLine
 10
25.34251968503937
 20
4.15944881889764
 30
0.0
 11
24.93799212598425
 21
4.15944881889764
 31
0.0
  0
LINE
  5
3FDB
330
1E
100
AcDbEntity
  8
3
100
AcDbLine
 10
25.34251968503937
 20
4.817913385826773
 30
0.0
 11
25.34251968503937
 21
4.15944881889764
 31
0.0
  0
LINE
  5
3FE1
330
1E
100
AcDbEntity
  8
3
100
AcDbLine
 10
24.74311023622047
 20
4.788385826771657
 30
0.0
 11
24.74311023622047
 21
4.876968503937007
 31
0.0
  0
LINE
  5
3FE9
330
1E
100
AcDbEntity
  8
3
100
AcDbLine
 10
7.062007874015749
 20
4.788385826771657
 30
0.0
 11
24.62204724409448
 21
4.788385826771657
 31
0.0
  0
LINE
  5
3FF0
330
1E
100
AcDbEntity
  8
3
100
AcDbLine
 10
7.044291338582677
 20
4.74704724409449
 30
0.0
 11
7.062007874015749
 21
4.788385826771657
 31
0.0
  0
LINE
  5
3FF1
330
1E
100
AcDbEntity
  8
3
100
AcDbLine
 10
6.940944881889763
 20
4.876968503937007
 30
0.0
 11
6.940944881889763
 21
4.788385826771657
 31
0.0
  0
LINE
  5
3FF2
330
1E
100
AcDbEntity
  8
3
100
AcDbLine
 10
6.403543307086613
 20
4.876968503937007
 30
0.0
 11
6.940944881889763
 21
4.876968503937007
 31
0.0
  0
LINE
  5
3FF8
330
1E
100
AcDbEntity
  8
3
100
AcDbLine
 10
6.746062992125985
 20
4.162401574803151
 30
0.0
 11
6.341535433070866
 21
4.162401574803151
 31
0.0
  0
LINE
  5
4003
330
1E
100
AcDbEntity
  8
3
100
AcDbLine
 10
6.341535433070866
 20
3.87303149606299
 30
0.0
 11
6.746062992125985
 21
3.87303149606299
 31
0.0
  0
LINE
  5
4004
330
1E
100
AcDbEntity
  8
3
100
AcDbLine
 10
6.746062992125985
 20
2.414370078740158
 30
0.0
 11
6.341535433070866
 21
2.414370078740158
 31
0.0
  0
LINE
  5
400F
330
1E
100
AcDbEntity
  8
3
100
AcDbLine
 10
6.341535433070866
 20
2.122047244094489
 30
0.0
 11
6.746062992125985
 21
2.122047244094489
 31
0.0
  0
LINE
  5
4010
330
1E
100
AcDbEntity
  8
3
100
AcDbLine
 10
6.341535433070866
 20
1.469488188976379
 30
0.0
 11
6.341535433070866
 21
2.122047244094489
 31
0.0
  0
LINE
  5
4016
330
1E
100
AcDbEntity
  8
3
100
AcDbLine
 10
6.940944881889763
 20
1.499015748031497
 30
0.0
 11
6.940944881889763
 21
1.40748031496063
 31
0.0
  0
LINE
  5
401E
330
1E
100
AcDbEntity
  8
3
100
AcDbLine
 10
24.62204724409448
 20
1.499015748031497
 30
0.0
 11
7.062007874015749
 21
1.499015748031497
 31
0.0
  0
LINE
  5
4026
330
1E
100
AcDbEntity
  8
3
100
AcDbLine
 10
24.74311023622047
 20
1.40748031496063
 30
0.0
 11
24.74311023622047
 21
1.499015748031497
 31
0.0
  0
LINE
  5
4027
330
1E
100
AcDbEntity
  8
3
100
AcDbLine
 10
25.28346456692913
 20
1.40748031496063
 30
0.0
 11
24.74311023622047
 21
1.40748031496063
 31
0.0
  0
LINE
  5
402D
330
1E
100
AcDbEntity
  8
3
100
AcDbLine
 10
24.93799212598425
 20
2.127952755905512
 30
0.0
 11
25.34251968503937
 21
2.127952755905512
 31
0.0
  0
LINE
  5
4038
330
1E
100
AcDbEntity
  8
3
100
AcDbLine
 10
25.34251968503937
 20
2.408464566929135
 30
0.0
 11
24.93799212598425
 21
2.408464566929135
 31
0.0
  0
LINE
  5
409A
330
1E
100
AcDbEntity
  8
3
100
AcDbLine
 10
11.60629921259842
 20
3.843503937007874
 30
0.0
 11
11.61811023622047
 21
3.790354330708662
 31
0.0
  0
LINE
  5
412D
330
1E
100
AcDbEntity
  8
3
100
AcDbLine
 10
15.53051181102361
 20
2.497047244094489
 30
0.0
 11
15.51870078740157
 21
2.443897637795276
 31
0.0
  0
LINE
  5
4142
330
1E
100
AcDbEntity
  8
3
100
AcDbLine
 10
20.53543307086613
 20
4.543307086614174
 30
0.0
 11
20.53543307086613
 21
1.744094488188978
 31
0.0
  0
LINE
  5
4148
330
1E
100
AcDbEntity
  8
3
100
AcDbLine
 10
20.53543307086613
 20
1.744094488188978
 30
0.0
 11
24.08464566929133
 21
1.744094488188978
 31
0.0
  0
LINE
  5
4149
330
1E
100
AcDbEntity
  8
3
100
AcDbLine
 10
16.22440944881889
 20
4.543307086614174
 30
0.0
 11
16.22440944881889
 21
1.744094488188978
 31
0.0
  0
LINE
  5
414F
330
1E
100
AcDbEntity
  8
3
100
AcDbLine
 10
16.22440944881889
 20
1.744094488188978
 30
0.0
 11
19.77362204724409
 21
1.744094488188978
 31
0.0
  0
LINE
  5
4150
330
1E
100
AcDbEntity
  8
3
100
AcDbLine
 10
11.91043307086613
 20
4.543307086614174
 30
0.0
 11
11.91043307086613
 21
1.744094488188978
 31
0.0
  0
LINE
  5
4156
330
1E
100
AcDbEntity
  8
3
100
AcDbLine
 10
11.91043307086613
 20
1.744094488188978
 30
0.0
 11
15.45964566929133
 21
1.744094488188978
 31
0.0
  0
LINE
  5
417F
330
1E
100
AcDbEntity
  8
3
100
AcDbLine
 10
7.599409448818898
 20
4.543307086614174
 30
0.0
 11
7.599409448818898
 21
1.744094488188978
 31
0.0
  0
LINE
  5
4185
330
1E
100
AcDbEntity
  8
3
100
AcDbLine
 10
7.599409448818898
 20
1.744094488188978
 30
0.0
 11
11.14862204724409
 21
1.744094488188978
 31
0.0
  0
LINE
  5
4186
330
1E
100
AcDbEntity
  8
3
100
AcDbLine
 10
7.062007874015749
 20
1.499015748031497
 30
0.0
 11
7.150590551181102
 21
1.499015748031497
 31
0.0
  0
LINE
  5
4187
330
1E
100
AcDbEntity
  8
3
100
AcDbLine
 10
7.330708661417324
 20
1.499015748031497
 30
0.0
 11
7.510826771653542
 21
1.499015748031497
 31
0.0
  0
LINE
  5
4188
330
1E
100
AcDbEntity
  8
3
100
AcDbLine
 10
7.68799212598425
 20
1.499015748031497
 30
0.0
 11
7.868110236220473
 21
1.499015748031497
 31
0.0
  0
LINE
  5
4189
330
1E
100
AcDbEntity
  8
3
100
AcDbLine
 10
8.048228346456692
 20
1.499015748031497
 30
0.0
 11
8.2253937007874
 21
1.499015748031497
 31
0.0
  0
LINE
  5
418A
330
1E
100
AcDbEntity
  8
3
100
AcDbLine
 10
8.405511811023622
 20
1.499015748031497
 30
0.0
 11
8.585629921259842
 21
1.499015748031497
 31
0.0
  0
LINE
  5
418B
330
1E
100
AcDbEntity
  8
3
100
AcDbLine
 10
8.765748031496061
 20
1.499015748031497
 30
0.0
 11
8.942913385826772
 21
1.499015748031497
 31
0.0
  0
LINE
  5
418C
330
1E
100
AcDbEntity
  8
3
100
AcDbLine
 10
9.123031496062992
 20
1.499015748031497
 30
0.0
 11
9.303149606299211
 21
1.499015748031497
 31
0.0
  0
LINE
  5
418D
330
1E
100
AcDbEntity
  8
3
100
AcDbLine
 10
9.480314960629918
 20
1.499015748031497
 30
0.0
 11
9.660433070866139
 21
1.499015748031497
 31
0.0
  0
LINE
  5
418E
330
1E
100
AcDbEntity
  8
3
100
AcDbLine
 10
9.840551181102359
 20
1.499015748031497
 30
0.0
 11
10.01771653543306
 21
1.499015748031497
 31
0.0
  0
LINE
  5
418F
330
1E
100
AcDbEntity
  8
3
100
AcDbLine
 10
10.19783464566929
 20
1.499015748031497
 30
0.0
 11
10.3779527559055
 21
1.499015748031497
 31
0.0
  0
LINE
  5
4190
330
1E
100
AcDbEntity
  8
3
100
AcDbLine
 10
10.55511811023621
 20
1.499015748031497
 30
0.0
 11
10.73523622047243
 21
1.499015748031497
 31
0.0
  0
LINE
  5
4191
330
1E
100
AcDbEntity
  8
3
100
AcDbLine
 10
10.91535433070865
 20
1.499015748031497
 30
0.0
 11
11.09251968503936
 21
1.499015748031497
 31
0.0
  0
LINE
  5
4192
330
1E
100
AcDbEntity
  8
3
100
AcDbLine
 10
11.27263779527558
 20
1.499015748031497
 30
0.0
 11
11.4527559055118
 21
1.499015748031497
 31
0.0
  0
LINE
  5
4193
330
1E
100
AcDbEntity
  8
3
100
AcDbLine
 10
11.62992125984251
 20
1.499015748031497
 30
0.0
 11
11.81003937007873
 21
1.499015748031497
 31
0.0
  0
LINE
  5
4194
330
1E
100
AcDbEntity
  8
3
100
AcDbLine
 10
11.99015748031496
 20
1.499015748031497
 30
0.0
 11
12.17027559055117
 21
1.499015748031497
 31
0.0
  0
LINE
  5
4195
330
1E
100
AcDbEntity
  8
3
100
AcDbLine
 10
12.34744094488188
 20
1.499015748031497
 30
0.0
 11
12.5275590551181
 21
1.499015748031497
 31
0.0
  0
LINE
  5
4196
330
1E
100
AcDbEntity
  8
3
100
AcDbLine
 10
12.70767716535432
 20
1.499015748031497
 30
0.0
 11
12.88484251968503
 21
1.499015748031497
 31
0.0
  0
LINE
  5
4197
330
1E
100
AcDbEntity
  8
3
100
AcDbLine
 10
13.06496062992126
 20
1.499015748031497
 30
0.0
 11
13.24507874015747
 21
1.499015748031497
 31
0.0
  0
LINE
  5
4198
330
1E
100
AcDbEntity
  8
3
100
AcDbLine
 10
13.42224409448818
 20
1.499015748031497
 30
0.0
 11
13.6023622047244
 21
1.499015748031497
 31
0.0
  0
LINE
  5
4199
330
1E
100
AcDbEntity
  8
3
100
AcDbLine
 10
13.78248031496062
 20
1.499015748031497
 30
0.0
 11
13.95964566929133
 21
1.499015748031497
 31
0.0
  0
LINE
  5
419A
330
1E
100
AcDbEntity
  8
3
100
AcDbLine
 10
14.13976377952755
 20
1.499015748031497
 30
0.0
 11
14.31988188976377
 21
1.499015748031497
 31
0.0
  0
LINE
  5
419B
330
1E
100
AcDbEntity
  8
3
100
AcDbLine
 10
14.49704724409448
 20
1.499015748031497
 30
0.0
 11
14.6771653543307
 21
1.499015748031497
 31
0.0
  0
LINE
  5
419C
330
1E
100
AcDbEntity
  8
3
100
AcDbLine
 10
14.85728346456692
 20
1.499015748031497
 30
0.0
 11
15.03444881889763
 21
1.499015748031497
 31
0.0
  0
LINE
  5
419D
330
1E
100
AcDbEntity
  8
3
100
AcDbLine
 10
15.21456692913385
 20
1.499015748031497
 30
0.0
 11
15.39468503937007
 21
1.499015748031497
 31
0.0
  0
LINE
  5
419E
330
1E
100
AcDbEntity
  8
3
100
AcDbLine
 10
15.57185039370078
 20
1.499015748031497
 30
0.0
 11
15.751968503937
 21
1.499015748031497
 31
0.0
  0
LINE
  5
419F
330
1E
100
AcDbEntity
  8
3
100
AcDbLine
 10
15.93208661417322
 20
1.499015748031497
 30
0.0
 11
16.11220472440944
 21
1.499015748031497
 31
0.0
  0
LINE
  5
41A0
330
1E
100
AcDbEntity
  8
3
100
AcDbLine
 10
16.28937007874015
 20
1.499015748031497
 30
0.0
 11
16.46948818897637
 21
1.499015748031497
 31
0.0
  0
LINE
  5
41A1
330
1E
100
AcDbEntity
  8
3
100
AcDbLine
 10
16.64960629921259
 20
1.499015748031497
 30
0.0
 11
16.8267716535433
 21
1.499015748031497
 31
0.0
  0
LINE
  5
41A2
330
1E
100
AcDbEntity
  8
3
100
AcDbLine
 10
17.00688976377952
 20
1.499015748031497
 30
0.0
 11
17.18700787401574
 21
1.499015748031497
 31
0.0
  0
LINE
  5
41A3
330
1E
100
AcDbEntity
  8
3
100
AcDbLine
 10
17.36417322834645
 20
1.499015748031497
 30
0.0
 11
17.54429133858267
 21
1.499015748031497
 31
0.0
  0
LINE
  5
41A4
330
1E
100
AcDbEntity
  8
3
100
AcDbLine
 10
17.72440944881889
 20
1.499015748031497
 30
0.0
 11
17.9015748031496
 21
1.499015748031497
 31
0.0
  0
LINE
  5
41A5
330
1E
100
AcDbEntity
  8
3
100
AcDbLine
 10
18.08169291338582
 20
1.499015748031497
 30
0.0
 11
18.26181102362204
 21
1.499015748031497
 31
0.0
  0
LINE
  5
41A6
330
1E
100
AcDbEntity
  8
3
100
AcDbLine
 10
18.43897637795275
 20
1.499015748031497
 30
0.0
 11
18.61909448818897
 21
1.499015748031497
 31
0.0
  0
LINE
  5
41A7
330
1E
100
AcDbEntity
  8
3
100
AcDbLine
 10
18.79921259842519
 20
1.499015748031497
 30
0.0
 11
18.9763779527559
 21
1.499015748031497
 31
0.0
  0
LINE
  5
41A8
330
1E
100
AcDbEntity
  8
3
100
AcDbLine
 10
19.15649606299212
 20
1.499015748031497
 30
0.0
 11
19.33661417322834
 21
1.499015748031497
 31
0.0
  0
LINE
  5
41A9
330
1E
100
AcDbEntity
  8
3
100
AcDbLine
 10
19.51673228346456
 20
1.499015748031497
 30
0.0
 11
19.69389763779527
 21
1.499015748031497
 31
0.0
  0
LINE
  5
41AA
330
1E
100
AcDbEntity
  8
3
100
AcDbLine
 10
19.87401574803149
 20
1.499015748031497
 30
0.0
 11
20.05413385826771
 21
1.499015748031497
 31
0.0
  0
LINE
  5
41AB
330
1E
100
AcDbEntity
  8
3
100
AcDbLine
 10
20.23129921259842
 20
1.499015748031497
 30
0.0
 11
20.41141732283464
 21
1.499015748031497
 31
0.0
  0
LINE
  5
41AC
330
1E
100
AcDbEntity
  8
3
100
AcDbLine
 10
20.59153543307086
 20
1.499015748031497
 30
0.0
 11
20.76870078740157
 21
1.499015748031497
 31
0.0
  0
LINE
  5
41AD
330
1E
100
AcDbEntity
  8
3
100
AcDbLine
 10
20.94881889763779
 20
1.499015748031497
 30
0.0
 11
21.12893700787401
 21
1.499015748031497
 31
0.0
  0
LINE
  5
41AE
330
1E
100
AcDbEntity
  8
3
100
AcDbLine
 10
21.30610236220472
 20
1.499015748031497
 30
0.0
 11
21.48622047244094
 21
1.499015748031497
 31
0.0
  0
LINE
  5
41AF
330
1E
100
AcDbEntity
  8
3
100
AcDbLine
 10
21.66633858267716
 20
1.499015748031497
 30
0.0
 11
21.84350393700787
 21
1.499015748031497
 31
0.0
  0
LINE
  5
41B0
330
1E
100
AcDbEntity
  8
3
100
AcDbLine
 10
22.02362204724409
 20
1.499015748031497
 30
0.0
 11
22.20374015748031
 21
1.499015748031497
 31
0.0
  0
LINE
  5
41B1
330
1E
100
AcDbEntity
  8
3
100
AcDbLine
 10
22.38090551181102
 20
1.499015748031497
 30
0.0
 11
22.56102362204724
 21
1.499015748031497
 31
0.0
  0
LINE
  5
41B2
330
1E
100
AcDbEntity
  8
3
100
AcDbLine
 10
22.74114173228346
 20
1.499015748031497
 30
0.0
 11
22.92125984251968
 21
1.499015748031497
 31
0.0
  0
LINE
  5
41B3
330
1E
100
AcDbEntity
  8
3
100
AcDbLine
 10
23.09842519685039
 20
1.499015748031497
 30
0.0
 11
23.27854330708661
 21
1.499015748031497
 31
0.0
  0
LINE
  5
41B4
330
1E
100
AcDbEntity
  8
3
100
AcDbLine
 10
23.45866141732283
 20
1.499015748031497
 30
0.0
 11
23.63582677165354
 21
1.499015748031497
 31
0.0
  0
LINE
  5
41B5
330
1E
100
AcDbEntity
  8
3
100
AcDbLine
 10
23.81594488188976
 20
1.499015748031497
 30
0.0
 11
23.99606299212598
 21
1.499015748031497
 31
0.0
  0
LINE
  5
41B6
330
1E
100
AcDbEntity
  8
3
100
AcDbLine
 10
24.17322834645669
 20
1.499015748031497
 30
0.0
 11
24.35334645669291
 21
1.499015748031497
 31
0.0
  0
LINE
  5
41B7
330
1E
100
AcDbEntity
  8
3
100
AcDbLine
 10
24.53346456692913
 20
1.499015748031497
 30
0.0
 11
24.62204724409448
 21
1.499015748031497
 31
0.0
  0
LINE
  5
41B8
330
1E
100
AcDbEntity
  8
3
100
AcDbLine
 10
24.62204724409448
 20
4.788385826771657
 30
0.0
 11
24.53346456692913
 21
4.788385826771657
 31
0.0
  0
LINE
  5
41B9
330
1E
100
AcDbEntity
  8
3
100
AcDbLine
 10
24.35334645669291
 20
4.788385826771657
 30
0.0
 11
24.17322834645669
 21
4.788385826771657
 31
0.0
  0
LINE
  5
41BA
330
1E
100
AcDbEntity
  8
3
100
AcDbLine
 10
23.99606299212598
 20
4.788385826771657
 30
0.0
 11
23.81594488188976
 21
4.788385826771657
 31
0.0
  0
LINE
  5
41BB
330
1E
100
AcDbEntity
  8
3
100
AcDbLine
 10
23.63582677165354
 20
4.788385826771657
 30
0.0
 11
23.45866141732283
 21
4.788385826771657
 31
0.0
  0
LINE
  5
41BC
330
1E
100
AcDbEntity
  8
3
100
AcDbLine
 10
23.27854330708661
 20
4.788385826771657
 30
0.0
 11
23.09842519685039
 21
4.788385826771657
 31
0.0
  0
LINE
  5
41BD
330
1E
100
AcDbEntity
  8
3
100
AcDbLine
 10
22.92125984251968
 20
4.788385826771657
 30
0.0
 11
22.74114173228346
 21
4.788385826771657
 31
0.0
  0
LINE
  5
41BE
330
1E
100
AcDbEntity
  8
3
100
AcDbLine
 10
22.56102362204724
 20
4.788385826771657
 30
0.0
 11
22.38090551181102
 21
4.788385826771657
 31
0.0
  0
LINE
  5
41BF
330
1E
100
AcDbEntity
  8
3
100
AcDbLine
 10
22.20374015748031
 20
4.788385826771657
 30
0.0
 11
22.02362204724409
 21
4.788385826771657
 31
0.0
  0
LINE
  5
41C0
330
1E
100
AcDbEntity
  8
3
100
AcDbLine
 10
21.84350393700787
 20
4.788385826771657
 30
0.0
 11
21.66633858267716
 21
4.788385826771657
 31
0.0
  0
LINE
  5
41C1
330
1E
100
AcDbEntity
  8
3
100
AcDbLine
 10
21.48622047244094
 20
4.788385826771657
 30
0.0
 11
21.30610236220472
 21
4.788385826771657
 31
0.0
  0
LINE
  5
41C2
330
1E
100
AcDbEntity
  8
3
100
AcDbLine
 10
21.12893700787401
 20
4.788385826771657
 30
0.0
 11
20.94881889763779
 21
4.788385826771657
 31
0.0
  0
LINE
  5
41C3
330
1E
100
AcDbEntity
  8
3
100
AcDbLine
 10
20.76870078740157
 20
4.788385826771657
 30
0.0
 11
20.59153543307086
 21
4.788385826771657
 31
0.0
  0
LINE
  5
41C4
330
1E
100
AcDbEntity
  8
3
100
AcDbLine
 10
20.41141732283464
 20
4.788385826771657
 30
0.0
 11
20.23129921259842
 21
4.788385826771657
 31
0.0
  0
LINE
  5
41C5
330
1E
100
AcDbEntity
  8
3
100
AcDbLine
 10
20.05413385826771
 20
4.788385826771657
 30
0.0
 11
19.87401574803149
 21
4.788385826771657
 31
0.0
  0
LINE
  5
41C6
330
1E
100
AcDbEntity
  8
3
100
AcDbLine
 10
19.69389763779527
 20
4.788385826771657
 30
0.0
 11
19.51673228346456
 21
4.788385826771657
 31
0.0
  0
LINE
  5
41C7
330
1E
100
AcDbEntity
  8
3
100
AcDbLine
 10
19.33661417322834
 20
4.788385826771657
 30
0.0
 11
19.15649606299212
 21
4.788385826771657
 31
0.0
  0
LINE
  5
41C8
330
1E
100
AcDbEntity
  8
3
100
AcDbLine
 10
18.9763779527559
 20
4.788385826771657
 30
0.0
 11
18.79921259842519
 21
4.788385826771657
 31
0.0
  0
LINE
  5
41C9
330
1E
100
AcDbEntity
  8
3
100
AcDbLine
 10
18.61909448818897
 20
4.788385826771657
 30
0.0
 11
18.43897637795275
 21
4.788385826771657
 31
0.0
  0
LINE
  5
41CA
330
1E
100
AcDbEntity
  8
3
100
AcDbLine
 10
18.26181102362204
 20
4.788385826771657
 30
0.0
 11
18.08169291338582
 21
4.788385826771657
 31
0.0
  0
LINE
  5
41CB
330
1E
100
AcDbEntity
  8
3
100
AcDbLine
 10
17.9015748031496
 20
4.788385826771657
 30
0.0
 11
17.72440944881889
 21
4.788385826771657
 31
0.0
  0
LINE
  5
41CC
330
1E
100
AcDbEntity
  8
3
100
AcDbLine
 10
17.54429133858267
 20
4.788385826771657
 30
0.0
 11
17.36417322834645
 21
4.788385826771657
 31
0.0
  0
LINE
  5
41CD
330
1E
100
AcDbEntity
  8
3
100
AcDbLine
 10
17.18700787401574
 20
4.788385826771657
 30
0.0
 11
17.00688976377952
 21
4.788385826771657
 31
0.0
  0
LINE
  5
41CE
330
1E
100
AcDbEntity
  8
3
100
AcDbLine
 10
16.8267716535433
 20
4.788385826771657
 30
0.0
 11
16.64960629921259
 21
4.788385826771657
 31
0.0
  0
LINE
  5
41CF
330
1E
100
AcDbEntity
  8
3
100
AcDbLine
 10
16.46948818897637
 20
4.788385826771657
 30
0.0
 11
16.28937007874015
 21
4.788385826771657
 31
0.0
  0
LINE
  5
41D0
330
1E
100
AcDbEntity
  8
3
100
AcDbLine
 10
16.11220472440944
 20
4.788385826771657
 30
0.0
 11
15.93208661417322
 21
4.788385826771657
 31
0.0
  0
LINE
  5
41D1
330
1E
100
AcDbEntity
  8
3
100
AcDbLine
 10
15.751968503937
 20
4.788385826771657
 30
0.0
 11
15.57185039370078
 21
4.788385826771657
 31
0.0
  0
LINE
  5
41D2
330
1E
100
AcDbEntity
  8
3
100
AcDbLine
 10
15.39468503937007
 20
4.788385826771657
 30
0.0
 11
15.21456692913385
 21
4.788385826771657
 31
0.0
  0
LINE
  5
41D3
330
1E
100
AcDbEntity
  8
3
100
AcDbLine
 10
15.03444881889763
 20
4.788385826771657
 30
0.0
 11
14.85728346456692
 21
4.788385826771657
 31
0.0
  0
LINE
  5
41D4
330
1E
100
AcDbEntity
  8
3
100
AcDbLine
 10
14.6771653543307
 20
4.788385826771657
 30
0.0
 11
14.49704724409448
 21
4.788385826771657
 31
0.0
  0
LINE
  5
41D5
330
1E
100
AcDbEntity
  8
3
100
AcDbLine
 10
14.31988188976377
 20
4.788385826771657
 30
0.0
 11
14.13976377952755
 21
4.788385826771657
 31
0.0
  0
LINE
  5
41D6
330
1E
100
AcDbEntity
  8
3
100
AcDbLine
 10
13.95964566929133
 20
4.788385826771657
 30
0.0
 11
13.78248031496062
 21
4.788385826771657
 31
0.0
  0
LINE
  5
41D7
330
1E
100
AcDbEntity
  8
3
100
AcDbLine
 10
13.6023622047244
 20
4.788385826771657
 30
0.0
 11
13.42224409448818
 21
4.788385826771657
 31
0.0
  0
LINE
  5
41D8
330
1E
100
AcDbEntity
  8
3
100
AcDbLine
 10
13.24507874015747
 20
4.788385826771657
 30
0.0
 11
13.06496062992126
 21
4.788385826771657
 31
0.0
  0
LINE
  5
41D9
330
1E
100
AcDbEntity
  8
3
100
AcDbLine
 10
12.88484251968503
 20
4.788385826771657
 30
0.0
 11
12.70767716535432
 21
4.788385826771657
 31
0.0
  0
LINE
  5
41DA
330
1E
100
AcDbEntity
  8
3
100
AcDbLine
 10
12.5275590551181
 20
4.788385826771657
 30
0.0
 11
12.34744094488188
 21
4.788385826771657
 31
0.0
  0
LINE
  5
41DB
330
1E
100
AcDbEntity
  8
3
100
AcDbLine
 10
12.17027559055117
 20
4.788385826771657
 30
0.0
 11
11.99015748031496
 21
4.788385826771657
 31
0.0
  0
LINE
  5
41DC
330
1E
100
AcDbEntity
  8
3
100
AcDbLine
 10
11.81003937007873
 20
4.788385826771657
 30
0.0
 11
11.62992125984251
 21
4.788385826771657
 31
0.0
  0
LINE
  5
41DD
330
1E
100
AcDbEntity
  8
3
100
AcDbLine
 10
11.4527559055118
 20
4.788385826771657
 30
0.0
 11
11.27263779527558
 21
4.788385826771657
 31
0.0
  0
LINE
  5
41DE
330
1E
100
AcDbEntity
  8
3
100
AcDbLine
 10
11.09251968503936
 20
4.788385826771657
 30
0.0
 11
10.91535433070865
 21
4.788385826771657
 31
0.0
  0
LINE
  5
41DF
330
1E
100
AcDbEntity
  8
3
100
AcDbLine
 10
10.73523622047243
 20
4.788385826771657
 30
0.0
 11
10.55511811023621
 21
4.788385826771657
 31
0.0
  0
LINE
  5
41E0
330
1E
100
AcDbEntity
  8
3
100
AcDbLine
 10
10.3779527559055
 20
4.788385826771657
 30
0.0
 11
10.19783464566929
 21
4.788385826771657
 31
0.0
  0
LINE
  5
41E1
330
1E
100
AcDbEntity
  8
3
100
AcDbLine
 10
10.01771653543306
 20
4.788385826771657
 30
0.0
 11
9.840551181102359
 21
4.788385826771657
 31
0.0
  0
LINE
  5
41E2
330
1E
100
AcDbEntity
  8
3
100
AcDbLine
 10
9.660433070866139
 20
4.788385826771657
 30
0.0
 11
9.480314960629918
 21
4.788385826771657
 31
0.0
  0
LINE
  5
41E3
330
1E
100
AcDbEntity
  8
3
100
AcDbLine
 10
9.303149606299211
 20
4.788385826771657
 30
0.0
 11
9.123031496062992
 21
4.788385826771657
 31
0.0
  0
LINE
  5
41E4
330
1E
100
AcDbEntity
  8
3
100
AcDbLine
 10
8.942913385826772
 20
4.788385826771657
 30
0.0
 11
8.765748031496061
 21
4.788385826771657
 31
0.0
  0
LINE
  5
41E5
330
1E
100
AcDbEntity
  8
3
100
AcDbLine
 10
8.585629921259842
 20
4.788385826771657
 30
0.0
 11
8.405511811023622
 21
4.788385826771657
 31
0.0
  0
LINE
  5
41E6
330
1E
100
AcDbEntity
  8
3
100
AcDbLine
 10
8.2253937007874
 20
4.788385826771657
 30
0.0
 11
8.048228346456692
 21
4.788385826771657
 31
0.0
  0
LINE
  5
41E7
330
1E
100
AcDbEntity
  8
3
100
AcDbLine
 10
7.868110236220473
 20
4.788385826771657
 30
0.0
 11
7.68799212598425
 21
4.788385826771657
 31
0.0
  0
LINE
  5
41E8
330
1E
100
AcDbEntity
  8
3
100
AcDbLine
 10
7.510826771653542
 20
4.788385826771657
 30
0.0
 11
7.330708661417324
 21
4.788385826771657
 31
0.0
  0
LINE
  5
41E9
330
1E
100
AcDbEntity
  8
3
100
AcDbLine
 10
7.150590551181102
 20
4.788385826771657
 30
0.0
 11
7.062007874015749
 21
4.788385826771657
 31
0.0
  0
LINE
  5
41EA
330
1E
100
AcDbEntity
  8
3
100
AcDbLine
 10
7.062007874015749
 20
1.469488188976379
 30
0.0
 11
7.062007874015749
 21
1.451771653543308
 31
0.0
  0
LINE
  5
41EB
330
1E
100
AcDbEntity
  8
3
100
AcDbLine
 10
7.062007874015749
 20
1.42224409448819
 30
0.0
 11
7.062007874015749
 21
1.40748031496063
 31
0.0
  0
LINE
  5
41F9
330
1E
100
AcDbEntity
  8
3
100
AcDbLine
 10
24.62204724409448
 20
1.451771653543308
 30
0.0
 11
24.62204724409448
 21
1.469488188976379
 31
0.0
  0
LINE
  5
41FA
330
1E
100
AcDbEntity
  8
3
100
AcDbLine
 10
7.062007874015749
 20
1.40748031496063
 30
0.0
 11
24.62204724409448
 21
1.40748031496063
 31
0.0
  0
LINE
  5
41FB
330
1E
100
AcDbEntity
  8
3
100
AcDbLine
 10
24.62204724409448
 20
1.469488188976379
 30
0.0
 11
24.53346456692913
 21
1.469488188976379
 31
0.0
  0
LINE
  5
41FC
330
1E
100
AcDbEntity
  8
3
100
AcDbLine
 10
24.35334645669291
 20
1.469488188976379
 30
0.0
 11
24.17322834645669
 21
1.469488188976379
 31
0.0
  0
LINE
  5
41FD
330
1E
100
AcDbEntity
  8
3
100
AcDbLine
 10
23.99606299212598
 20
1.469488188976379
 30
0.0
 11
23.81594488188976
 21
1.469488188976379
 31
0.0
  0
LINE
  5
41FE
330
1E
100
AcDbEntity
  8
3
100
AcDbLine
 10
23.63582677165354
 20
1.469488188976379
 30
0.0
 11
23.45866141732283
 21
1.469488188976379
 31
0.0
  0
LINE
  5
41FF
330
1E
100
AcDbEntity
  8
3
100
AcDbLine
 10
23.27854330708661
 20
1.469488188976379
 30
0.0
 11
23.09842519685039
 21
1.469488188976379
 31
0.0
  0
LINE
  5
4200
330
1E
100
AcDbEntity
  8
3
100
AcDbLine
 10
22.92125984251968
 20
1.469488188976379
 30
0.0
 11
22.74114173228346
 21
1.469488188976379
 31
0.0
  0
LINE
  5
4201
330
1E
100
AcDbEntity
  8
3
100
AcDbLine
 10
22.56102362204724
 20
1.469488188976379
 30
0.0
 11
22.38090551181102
 21
1.469488188976379
 31
0.0
  0
LINE
  5
4202
330
1E
100
AcDbEntity
  8
3
100
AcDbLine
 10
22.20374015748031
 20
1.469488188976379
 30
0.0
 11
22.02362204724409
 21
1.469488188976379
 31
0.0
  0
LINE
  5
4203
330
1E
100
AcDbEntity
  8
3
100
AcDbLine
 10
21.84350393700787
 20
1.469488188976379
 30
0.0
 11
21.66633858267716
 21
1.469488188976379
 31
0.0
  0
LINE
  5
4204
330
1E
100
AcDbEntity
  8
3
100
AcDbLine
 10
21.48622047244094
 20
1.469488188976379
 30
0.0
 11
21.30610236220472
 21
1.469488188976379
 31
0.0
  0
LINE
  5
4205
330
1E
100
AcDbEntity
  8
3
100
AcDbLine
 10
21.12893700787401
 20
1.469488188976379
 30
0.0
 11
20.94881889763779
 21
1.469488188976379
 31
0.0
  0
LINE
  5
4206
330
1E
100
AcDbEntity
  8
3
100
AcDbLine
 10
20.76870078740157
 20
1.469488188976379
 30
0.0
 11
20.59153543307086
 21
1.469488188976379
 31
0.0
  0
LINE
  5
4207
330
1E
100
AcDbEntity
  8
3
100
AcDbLine
 10
20.41141732283464
 20
1.469488188976379
 30
0.0
 11
20.23129921259842
 21
1.469488188976379
 31
0.0
  0
LINE
  5
4208
330
1E
100
AcDbEntity
  8
3
100
AcDbLine
 10
20.05413385826771
 20
1.469488188976379
 30
0.0
 11
19.87401574803149
 21
1.469488188976379
 31
0.0
  0
LINE
  5
4209
330
1E
100
AcDbEntity
  8
3
100
AcDbLine
 10
19.69389763779527
 20
1.469488188976379
 30
0.0
 11
19.51673228346456
 21
1.469488188976379
 31
0.0
  0
LINE
  5
420A
330
1E
100
AcDbEntity
  8
3
100
AcDbLine
 10
19.33661417322834
 20
1.469488188976379
 30
0.0
 11
19.15649606299212
 21
1.469488188976379
 31
0.0
  0
LINE
  5
420B
330
1E
100
AcDbEntity
  8
3
100
AcDbLine
 10
18.9763779527559
 20
1.469488188976379
 30
0.0
 11
18.79921259842519
 21
1.469488188976379
 31
0.0
  0
LINE
  5
420C
330
1E
100
AcDbEntity
  8
3
100
AcDbLine
 10
18.61909448818897
 20
1.469488188976379
 30
0.0
 11
18.43897637795275
 21
1.469488188976379
 31
0.0
  0
LINE
  5
420D
330
1E
100
AcDbEntity
  8
3
100
AcDbLine
 10
18.26181102362204
 20
1.469488188976379
 30
0.0
 11
18.08169291338582
 21
1.469488188976379
 31
0.0
  0
LINE
  5
420E
330
1E
100
AcDbEntity
  8
3
100
AcDbLine
 10
17.9015748031496
 20
1.469488188976379
 30
0.0
 11
17.72440944881889
 21
1.469488188976379
 31
0.0
  0
LINE
  5
420F
330
1E
100
AcDbEntity
  8
3
100
AcDbLine
 10
17.54429133858267
 20
1.469488188976379
 30
0.0
 11
17.36417322834645
 21
1.469488188976379
 31
0.0
  0
LINE
  5
4210
330
1E
100
AcDbEntity
  8
3
100
AcDbLine
 10
17.18700787401574
 20
1.469488188976379
 30
0.0
 11
17.00688976377952
 21
1.469488188976379
 31
0.0
  0
LINE
  5
4211
330
1E
100
AcDbEntity
  8
3
100
AcDbLine
 10
16.8267716535433
 20
1.469488188976379
 30
0.0
 11
16.64960629921259
 21
1.469488188976379
 31
0.0
  0
LINE
  5
4212
330
1E
100
AcDbEntity
  8
3
100
AcDbLine
 10
16.46948818897637
 20
1.469488188976379
 30
0.0
 11
16.28937007874015
 21
1.469488188976379
 31
0.0
  0
LINE
  5
4213
330
1E
100
AcDbEntity
  8
3
100
AcDbLine
 10
16.11220472440944
 20
1.469488188976379
 30
0.0
 11
15.93208661417322
 21
1.469488188976379
 31
0.0
  0
LINE
  5
4214
330
1E
100
AcDbEntity
  8
3
100
AcDbLine
 10
15.751968503937
 20
1.469488188976379
 30
0.0
 11
15.57185039370078
 21
1.469488188976379
 31
0.0
  0
LINE
  5
4215
330
1E
100
AcDbEntity
  8
3
100
AcDbLine
 10
15.39468503937007
 20
1.469488188976379
 30
0.0
 11
15.21456692913385
 21
1.469488188976379
 31
0.0
  0
LINE
  5
4216
330
1E
100
AcDbEntity
  8
3
100
AcDbLine
 10
15.03444881889763
 20
1.469488188976379
 30
0.0
 11
14.85728346456692
 21
1.469488188976379
 31
0.0
  0
LINE
  5
4217
330
1E
100
AcDbEntity
  8
3
100
AcDbLine
 10
14.6771653543307
 20
1.469488188976379
 30
0.0
 11
14.49704724409448
 21
1.469488188976379
 31
0.0
  0
LINE
  5
4218
330
1E
100
AcDbEntity
  8
3
100
AcDbLine
 10
14.31988188976377
 20
1.469488188976379
 30
0.0
 11
14.13976377952755
 21
1.469488188976379
 31
0.0
  0
LINE
  5
4219
330
1E
100
AcDbEntity
  8
3
100
AcDbLine
 10
13.95964566929133
 20
1.469488188976379
 30
0.0
 11
13.78248031496062
 21
1.469488188976379
 31
0.0
  0
LINE
  5
421A
330
1E
100
AcDbEntity
  8
3
100
AcDbLine
 10
13.6023622047244
 20
1.469488188976379
 30
0.0
 11
13.42224409448818
 21
1.469488188976379
 31
0.0
  0
LINE
  5
421B
330
1E
100
AcDbEntity
  8
3
100
AcDbLine
 10
13.24507874015747
 20
1.469488188976379
 30
0.0
 11
13.06496062992126
 21
1.469488188976379
 31
0.0
  0
LINE
  5
421C
330
1E
100
AcDbEntity
  8
3
100
AcDbLine
 10
12.88484251968503
 20
1.469488188976379
 30
0.0
 11
12.70767716535432
 21
1.469488188976379
 31
0.0
  0
LINE
  5
421D
330
1E
100
AcDbEntity
  8
3
100
AcDbLine
 10
12.5275590551181
 20
1.469488188976379
 30
0.0
 11
12.34744094488188
 21
1.469488188976379
 31
0.0
  0
LINE
  5
421E
330
1E
100
AcDbEntity
  8
3
100
AcDbLine
 10
12.17027559055117
 20
1.469488188976379
 30
0.0
 11
11.99015748031496
 21
1.469488188976379
 31
0.0
  0
LINE
  5
421F
330
1E
100
AcDbEntity
  8
3
100
AcDbLine
 10
11.81003937007873
 20
1.469488188976379
 30
0.0
 11
11.62992125984251
 21
1.469488188976379
 31
0.0
  0
LINE
  5
4220
330
1E
100
AcDbEntity
  8
3
100
AcDbLine
 10
11.4527559055118
 20
1.469488188976379
 30
0.0
 11
11.27263779527558
 21
1.469488188976379
 31
0.0
  0
LINE
  5
4221
330
1E
100
AcDbEntity
  8
3
100
AcDbLine
 10
11.09251968503936
 20
1.469488188976379
 30
0.0
 11
10.91535433070865
 21
1.469488188976379
 31
0.0
  0
LINE
  5
4222
330
1E
100
AcDbEntity
  8
3
100
AcDbLine
 10
10.73523622047243
 20
1.469488188976379
 30
0.0
 11
10.55511811023621
 21
1.469488188976379
 31
0.0
  0
LINE
  5
4223
330
1E
100
AcDbEntity
  8
3
100
AcDbLine
 10
10.3779527559055
 20
1.469488188976379
 30
0.0
 11
10.19783464566929
 21
1.469488188976379
 31
0.0
  0
LINE
  5
4224
330
1E
100
AcDbEntity
  8
3
100
AcDbLine
 10
10.01771653543306
 20
1.469488188976379
 30
0.0
 11
9.840551181102359
 21
1.469488188976379
 31
0.0
  0
LINE
  5
4225
330
1E
100
AcDbEntity
  8
3
100
AcDbLine
 10
9.660433070866139
 20
1.469488188976379
 30
0.0
 11
9.480314960629918
 21
1.469488188976379
 31
0.0
  0
LINE
  5
4226
330
1E
100
AcDbEntity
  8
3
100
AcDbLine
 10
9.303149606299211
 20
1.469488188976379
 30
0.0
 11
9.123031496062992
 21
1.469488188976379
 31
0.0
  0
LINE
  5
4227
330
1E
100
AcDbEntity
  8
3
100
AcDbLine
 10
8.942913385826772
 20
1.469488188976379
 30
0.0
 11
8.765748031496061
 21
1.469488188976379
 31
0.0
  0
LINE
  5
4228
330
1E
100
AcDbEntity
  8
3
100
AcDbLine
 10
8.585629921259842
 20
1.469488188976379
 30
0.0
 11
8.405511811023622
 21
1.469488188976379
 31
0.0
  0
LINE
  5
4229
330
1E
100
AcDbEntity
  8
3
100
AcDbLine
 10
8.2253937007874
 20
1.469488188976379
 30
0.0
 11
8.048228346456692
 21
1.469488188976379
 31
0.0
  0
LINE
  5
422A
330
1E
100
AcDbEntity
  8
3
100
AcDbLine
 10
7.868110236220473
 20
1.469488188976379
 30
0.0
 11
7.68799212598425
 21
1.469488188976379
 31
0.0
  0
LINE
  5
422B
330
1E
100
AcDbEntity
  8
3
100
AcDbLine
 10
7.510826771653542
 20
1.469488188976379
 30
0.0
 11
7.330708661417324
 21
1.469488188976379
 31
0.0
  0
LINE
  5
422C
330
1E
100
AcDbEntity
  8
3
100
AcDbLine
 10
7.150590551181102
 20
1.469488188976379
 30
0.0
 11
7.062007874015749
 21
1.469488188976379
 31
0.0
  0
LINE
  5
422D
330
1E
100
AcDbEntity
  8
3
100
AcDbLine
 10
7.280511811023622
 20
1.40748031496063
 30
0.0
 11
7.280511811023622
 21
1.42224409448819
 31
0.0
  0
LINE
  5
422E
330
1E
100
AcDbEntity
  8
3
100
AcDbLine
 10
7.280511811023622
 20
1.451771653543308
 30
0.0
 11
7.280511811023622
 21
1.469488188976379
 31
0.0
  0
LINE
  5
422F
330
1E
100
AcDbEntity
  8
3
100
AcDbLine
 10
24.40354330708661
 20
1.469488188976379
 30
0.0
 11
24.40354330708661
 21
1.451771653543308
 31
0.0
  0
LINE
  5
4230
330
1E
100
AcDbEntity
  8
3
100
AcDbLine
 10
24.40354330708661
 20
1.42224409448819
 30
0.0
 11
24.40354330708661
 21
1.40748031496063
 31
0.0
  0
LINE
  5
4231
330
1E
100
AcDbEntity
  8
3
100
AcDbLine
 10
24.62204724409448
 20
4.817913385826773
 30
0.0
 11
24.62204724409448
 21
4.832677165354329
 31
0.0
  0
LINE
  5
4232
330
1E
100
AcDbEntity
  8
3
100
AcDbLine
 10
24.62204724409448
 20
4.862204724409451
 30
0.0
 11
24.62204724409448
 21
4.876968503937007
 31
0.0
  0
LINE
  5
4240
330
1E
100
AcDbEntity
  8
3
100
AcDbLine
 10
7.062007874015749
 20
4.832677165354329
 30
0.0
 11
7.062007874015749
 21
4.817913385826773
 31
0.0
  0
LINE
  5
4241
330
1E
100
AcDbEntity
  8
3
100
AcDbLine
 10
24.62204724409448
 20
4.876968503937007
 30
0.0
 11
7.062007874015749
 21
4.876968503937007
 31
0.0
  0
LINE
  5
4242
330
1E
100
AcDbEntity
  8
3
100
AcDbLine
 10
7.062007874015749
 20
4.817913385826773
 30
0.0
 11
7.150590551181102
 21
4.817913385826773
 31
0.0
  0
LINE
  5
4243
330
1E
100
AcDbEntity
  8
3
100
AcDbLine
 10
7.330708661417324
 20
4.817913385826773
 30
0.0
 11
7.510826771653542
 21
4.817913385826773
 31
0.0
  0
LINE
  5
4244
330
1E
100
AcDbEntity
  8
3
100
AcDbLine
 10
7.68799212598425
 20
4.817913385826773
 30
0.0
 11
7.868110236220473
 21
4.817913385826773
 31
0.0
  0
LINE
  5
4245
330
1E
100
AcDbEntity
  8
3
100
AcDbLine
 10
8.048228346456692
 20
4.817913385826773
 30
0.0
 11
8.2253937007874
 21
4.817913385826773
 31
0.0
  0
LINE
  5
4246
330
1E
100
AcDbEntity
  8
3
100
AcDbLine
 10
8.405511811023622
 20
4.817913385826773
 30
0.0
 11
8.585629921259842
 21
4.817913385826773
 31
0.0
  0
LINE
  5
4247
330
1E
100
AcDbEntity
  8
3
100
AcDbLine
 10
8.765748031496061
 20
4.817913385826773
 30
0.0
 11
8.942913385826772
 21
4.817913385826773
 31
0.0
  0
LINE
  5
4248
330
1E
100
AcDbEntity
  8
3
100
AcDbLine
 10
9.123031496062992
 20
4.817913385826773
 30
0.0
 11
9.303149606299211
 21
4.817913385826773
 31
0.0
  0
LINE
  5
4249
330
1E
100
AcDbEntity
  8
3
100
AcDbLine
 10
9.480314960629918
 20
4.817913385826773
 30
0.0
 11
9.660433070866139
 21
4.817913385826773
 31
0.0
  0
LINE
  5
424A
330
1E
100
AcDbEntity
  8
3
100
AcDbLine
 10
9.840551181102359
 20
4.817913385826773
 30
0.0
 11
10.01771653543306
 21
4.817913385826773
 31
0.0
  0
LINE
  5
424B
330
1E
100
AcDbEntity
  8
3
100
AcDbLine
 10
10.19783464566929
 20
4.817913385826773
 30
0.0
 11
10.3779527559055
 21
4.817913385826773
 31
0.0
  0
LINE
  5
424C
330
1E
100
AcDbEntity
  8
3
100
AcDbLine
 10
10.55511811023621
 20
4.817913385826773
 30
0.0
 11
10.73523622047243
 21
4.817913385826773
 31
0.0
  0
LINE
  5
424D
330
1E
100
AcDbEntity
  8
3
100
AcDbLine
 10
10.91535433070865
 20
4.817913385826773
 30
0.0
 11
11.09251968503936
 21
4.817913385826773
 31
0.0
  0
LINE
  5
424E
330
1E
100
AcDbEntity
  8
3
100
AcDbLine
 10
11.27263779527558
 20
4.817913385826773
 30
0.0
 11
11.4527559055118
 21
4.817913385826773
 31
0.0
  0
LINE
  5
424F
330
1E
100
AcDbEntity
  8
3
100
AcDbLine
 10
11.62992125984251
 20
4.817913385826773
 30
0.0
 11
11.81003937007873
 21
4.817913385826773
 31
0.0
  0
LINE
  5
4250
330
1E
100
AcDbEntity
  8
3
100
AcDbLine
 10
11.99015748031496
 20
4.817913385826773
 30
0.0
 11
12.17027559055117
 21
4.817913385826773
 31
0.0
  0
LINE
  5
4251
330
1E
100
AcDbEntity
  8
3
100
AcDbLine
 10
12.34744094488188
 20
4.817913385826773
 30
0.0
 11
12.5275590551181
 21
4.817913385826773
 31
0.0
  0
LINE
  5
4252
330
1E
100
AcDbEntity
  8
3
100
AcDbLine
 10
12.70767716535432
 20
4.817913385826773
 30
0.0
 11
12.88484251968503
 21
4.817913385826773
 31
0.0
  0
LINE
  5
4253
330
1E
100
AcDbEntity
  8
3
100
AcDbLine
 10
13.06496062992126
 20
4.817913385826773
 30
0.0
 11
13.24507874015747
 21
4.817913385826773
 31
0.0
  0
LINE
  5
4254
330
1E
100
AcDbEntity
  8
3
100
AcDbLine
 10
13.42224409448818
 20
4.817913385826773
 30
0.0
 11
13.6023622047244
 21
4.817913385826773
 31
0.0
  0
LINE
  5
4255
330
1E
100
AcDbEntity
  8
3
100
AcDbLine
 10
13.78248031496062
 20
4.817913385826773
 30
0.0
 11
13.95964566929133
 21
4.817913385826773
 31
0.0
  0
LINE
  5
4256
330
1E
100
AcDbEntity
  8
3
100
AcDbLine
 10
14.13976377952755
 20
4.817913385826773
 30
0.0
 11
14.31988188976377
 21
4.817913385826773
 31
0.0
  0
LINE
  5
4257
330
1E
100
AcDbEntity
  8
3
100
AcDbLine
 10
14.49704724409448
 20
4.817913385826773
 30
0.0
 11
14.6771653543307
 21
4.817913385826773
 31
0.0
  0
LINE
  5
4258
330
1E
100
AcDbEntity
  8
3
100
AcDbLine
 10
14.85728346456692
 20
4.817913385826773
 30
0.0
 11
15.03444881889763
 21
4.817913385826773
 31
0.0
  0
LINE
  5
4259
330
1E
100
AcDbEntity
  8
3
100
AcDbLine
 10
15.21456692913385
 20
4.817913385826773
 30
0.0
 11
15.39468503937007
 21
4.817913385826773
 31
0.0
  0
LINE
  5
425A
330
1E
100
AcDbEntity
  8
3
100
AcDbLine
 10
15.57185039370078
 20
4.817913385826773
 30
0.0
 11
15.751968503937
 21
4.817913385826773
 31
0.0
  0
LINE
  5
425B
330
1E
100
AcDbEntity
  8
3
100
AcDbLine
 10
15.93208661417322
 20
4.817913385826773
 30
0.0
 11
16.11220472440944
 21
4.817913385826773
 31
0.0
  0
LINE
  5
425C
330
1E
100
AcDbEntity
  8
3
100
AcDbLine
 10
16.28937007874015
 20
4.817913385826773
 30
0.0
 11
16.46948818897637
 21
4.817913385826773
 31
0.0
  0
LINE
  5
425D
330
1E
100
AcDbEntity
  8
3
100
AcDbLine
 10
16.64960629921259
 20
4.817913385826773
 30
0.0
 11
16.8267716535433
 21
4.817913385826773
 31
0.0
  0
LINE
  5
425E
330
1E
100
AcDbEntity
  8
3
100
AcDbLine
 10
17.00688976377952
 20
4.817913385826773
 30
0.0
 11
17.18700787401574
 21
4.817913385826773
 31
0.0
  0
LINE
  5
425F
330
1E
100
AcDbEntity
  8
3
100
AcDbLine
 10
17.36417322834645
 20
4.817913385826773
 30
0.0
 11
17.54429133858267
 21
4.817913385826773
 31
0.0
  0
LINE
  5
4260
330
1E
100
AcDbEntity
  8
3
100
AcDbLine
 10
17.72440944881889
 20
4.817913385826773
 30
0.0
 11
17.9015748031496
 21
4.817913385826773
 31
0.0
  0
LINE
  5
4261
330
1E
100
AcDbEntity
  8
3
100
AcDbLine
 10
18.08169291338582
 20
4.817913385826773
 30
0.0
 11
18.26181102362204
 21
4.817913385826773
 31
0.0
  0
LINE
  5
4262
330
1E
100
AcDbEntity
  8
3
100
AcDbLine
 10
18.43897637795275
 20
4.817913385826773
 30
0.0
 11
18.61909448818897
 21
4.817913385826773
 31
0.0
  0
LINE
  5
4263
330
1E
100
AcDbEntity
  8
3
100
AcDbLine
 10
18.79921259842519
 20
4.817913385826773
 30
0.0
 11
18.9763779527559
 21
4.817913385826773
 31
0.0
  0
LINE
  5
4264
330
1E
100
AcDbEntity
  8
3
100
AcDbLine
 10
19.15649606299212
 20
4.817913385826773
 30
0.0
 11
19.33661417322834
 21
4.817913385826773
 31
0.0
  0
LINE
  5
4265
330
1E
100
AcDbEntity
  8
3
100
AcDbLine
 10
19.51673228346456
 20
4.817913385826773
 30
0.0
 11
19.69389763779527
 21
4.817913385826773
 31
0.0
  0
LINE
  5
4266
330
1E
100
AcDbEntity
  8
3
100
AcDbLine
 10
19.87401574803149
 20
4.817913385826773
 30
0.0
 11
20.05413385826771
 21
4.817913385826773
 31
0.0
  0
LINE
  5
4267
330
1E
100
AcDbEntity
  8
3
100
AcDbLine
 10
20.23129921259842
 20
4.817913385826773
 30
0.0
 11
20.41141732283464
 21
4.817913385826773
 31
0.0
  0
LINE
  5
4268
330
1E
100
AcDbEntity
  8
3
100
AcDbLine
 10
20.59153543307086
 20
4.817913385826773
 30
0.0
 11
20.76870078740157
 21
4.817913385826773
 31
0.0
  0
LINE
  5
4269
330
1E
100
AcDbEntity
  8
3
100
AcDbLine
 10
20.94881889763779
 20
4.817913385826773
 30
0.0
 11
21.12893700787401
 21
4.817913385826773
 31
0.0
  0
LINE
  5
426A
330
1E
100
AcDbEntity
  8
3
100
AcDbLine
 10
21.30610236220472
 20
4.817913385826773
 30
0.0
 11
21.48622047244094
 21
4.817913385826773
 31
0.0
  0
LINE
  5
426B
330
1E
100
AcDbEntity
  8
3
100
AcDbLine
 10
21.66633858267716
 20
4.817913385826773
 30
0.0
 11
21.84350393700787
 21
4.817913385826773
 31
0.0
  0
LINE
  5
426C
330
1E
100
AcDbEntity
  8
3
100
AcDbLine
 10
22.02362204724409
 20
4.817913385826773
 30
0.0
 11
22.20374015748031
 21
4.817913385826773
 31
0.0
  0
LINE
  5
426D
330
1E
100
AcDbEntity
  8
3
100
AcDbLine
 10
22.38090551181102
 20
4.817913385826773
 30
0.0
 11
22.56102362204724
 21
4.817913385826773
 31
0.0
  0
LINE
  5
426E
330
1E
100
AcDbEntity
  8
3
100
AcDbLine
 10
22.74114173228346
 20
4.817913385826773
 30
0.0
 11
22.92125984251968
 21
4.817913385826773
 31
0.0
  0
LINE
  5
426F
330
1E
100
AcDbEntity
  8
3
100
AcDbLine
 10
23.09842519685039
 20
4.817913385826773
 30
0.0
 11
23.27854330708661
 21
4.817913385826773
 31
0.0
  0
LINE
  5
4270
330
1E
100
AcDbEntity
  8
3
100
AcDbLine
 10
23.45866141732283
 20
4.817913385826773
 30
0.0
 11
23.63582677165354
 21
4.817913385826773
 31
0.0
  0
LINE
  5
4271
330
1E
100
AcDbEntity
  8
3
100
AcDbLine
 10
23.81594488188976
 20
4.817913385826773
 30
0.0
 11
23.99606299212598
 21
4.817913385826773
 31
0.0
  0
LINE
  5
4272
330
1E
100
AcDbEntity
  8
3
100
AcDbLine
 10
24.17322834645669
 20
4.817913385826773
 30
0.0
 11
24.35334645669291
 21
4.817913385826773
 31
0.0
  0
LINE
  5
4273
330
1E
100
AcDbEntity
  8
3
100
AcDbLine
 10
24.53346456692913
 20
4.817913385826773
 30
0.0
 11
24.62204724409448
 21
4.817913385826773
 31
0.0
  0
LINE
  5
4274
330
1E
100
AcDbEntity
  8
3
100
AcDbLine
 10
7.280511811023622
 20
4.817913385826773
 30
0.0
 11
7.280511811023622
 21
4.832677165354329
 31
0.0
  0
LINE
  5
4275
330
1E
100
AcDbEntity
  8
3
100
AcDbLine
 10
7.280511811023622
 20
4.862204724409451
 30
0.0
 11
7.280511811023622
 21
4.876968503937007
 31
0.0
  0
LINE
  5
4276
330
1E
100
AcDbEntity
  8
3
100
AcDbLine
 10
24.40354330708661
 20
4.876968503937007
 30
0.0
 11
24.40354330708661
 21
4.862204724409451
 31
0.0
  0
LINE
  5
4277
330
1E
100
AcDbEntity
  8
3
100
AcDbLine
 10
24.40354330708661
 20
4.832677165354329
 30
0.0
 11
24.40354330708661
 21
4.817913385826773
 31
0.0
  0
LINE
  5
4278
330
1E
100
AcDbEntity
  8
3
100
AcDbLine
 10
24.56003937007874
 20
1.469488188976379
 30
0.0
 11
24.56003937007874
 21
1.451771653543308
 31
0.0
  0
LINE
  5
4279
330
1E
100
AcDbEntity
  8
3
100
AcDbLine
 10
24.56003937007874
 20
1.42224409448819
 30
0.0
 11
24.56003937007874
 21
1.40748031496063
 31
0.0
  0
LINE
  5
427A
330
1E
100
AcDbEntity
  8
3
100
AcDbLine
 10
24.53051181102361
 20
1.40748031496063
 30
0.0
 11
24.53051181102361
 21
1.42224409448819
 31
0.0
  0
LINE
  5
427B
330
1E
100
AcDbEntity
  8
3
100
AcDbLine
 10
24.53051181102361
 20
1.451771653543308
 30
0.0
 11
24.53051181102361
 21
1.469488188976379
 31
0.0
  0
LINE
  5
427C
330
1E
100
AcDbEntity
  8
3
100
AcDbLine
 10
24.46850393700787
 20
1.469488188976379
 30
0.0
 11
24.46850393700787
 21
1.451771653543308
 31
0.0
  0
LINE
  5
427D
330
1E
100
AcDbEntity
  8
3
100
AcDbLine
 10
24.46850393700787
 20
1.42224409448819
 30
0.0
 11
24.46850393700787
 21
1.40748031496063
 31
0.0
  0
LINE
  5
427E
330
1E
100
AcDbEntity
  8
3
100
AcDbLine
 10
24.56003937007874
 20
4.876968503937007
 30
0.0
 11
24.56003937007874
 21
4.862204724409451
 31
0.0
  0
LINE
  5
427F
330
1E
100
AcDbEntity
  8
3
100
AcDbLine
 10
24.56003937007874
 20
4.832677165354329
 30
0.0
 11
24.56003937007874
 21
4.817913385826773
 31
0.0
  0
LINE
  5
4280
330
1E
100
AcDbEntity
  8
3
100
AcDbLine
 10
24.53051181102361
 20
4.817913385826773
 30
0.0
 11
24.53051181102361
 21
4.832677165354329
 31
0.0
  0
LINE
  5
4281
330
1E
100
AcDbEntity
  8
3
100
AcDbLine
 10
24.53051181102361
 20
4.862204724409451
 30
0.0
 11
24.53051181102361
 21
4.876968503937007
 31
0.0
  0
LINE
  5
4282
330
1E
100
AcDbEntity
  8
3
100
AcDbLine
 10
24.46850393700787
 20
4.876968503937007
 30
0.0
 11
24.46850393700787
 21
4.862204724409451
 31
0.0
  0
LINE
  5
4283
330
1E
100
AcDbEntity
  8
3
100
AcDbLine
 10
24.46850393700787
 20
4.832677165354329
 30
0.0
 11
24.46850393700787
 21
4.817913385826773
 31
0.0
  0
LINE
  5
4284
330
1E
100
AcDbEntity
  8
3
100
AcDbLine
 10
7.218503937007874
 20
1.40748031496063
 30
0.0
 11
7.218503937007874
 21
1.42224409448819
 31
0.0
  0
LINE
  5
4285
330
1E
100
AcDbEntity
  8
3
100
AcDbLine
 10
7.218503937007874
 20
1.451771653543308
 30
0.0
 11
7.218503937007874
 21
1.469488188976379
 31
0.0
  0
LINE
  5
4286
330
1E
100
AcDbEntity
  8
3
100
AcDbLine
 10
7.124015748031496
 20
1.40748031496063
 30
0.0
 11
7.124015748031496
 21
1.42224409448819
 31
0.0
  0
LINE
  5
4287
330
1E
100
AcDbEntity
  8
3
100
AcDbLine
 10
7.124015748031496
 20
1.451771653543308
 30
0.0
 11
7.124015748031496
 21
1.469488188976379
 31
0.0
  0
LINE
  5
4288
330
1E
100
AcDbEntity
  8
3
100
AcDbLine
 10
7.153543307086613
 20
1.469488188976379
 30
0.0
 11
7.153543307086613
 21
1.451771653543308
 31
0.0
  0
LINE
  5
4289
330
1E
100
AcDbEntity
  8
3
100
AcDbLine
 10
7.153543307086613
 20
1.42224409448819
 30
0.0
 11
7.153543307086613
 21
1.40748031496063
 31
0.0
  0
LINE
  5
428A
330
1E
100
AcDbEntity
  8
3
100
AcDbLine
 10
7.218503937007874
 20
4.817913385826773
 30
0.0
 11
7.218503937007874
 21
4.832677165354329
 31
0.0
  0
LINE
  5
428B
330
1E
100
AcDbEntity
  8
3
100
AcDbLine
 10
7.218503937007874
 20
4.862204724409451
 30
0.0
 11
7.218503937007874
 21
4.876968503937007
 31
0.0
  0
LINE
  5
428C
330
1E
100
AcDbEntity
  8
3
100
AcDbLine
 10
7.124015748031496
 20
4.817913385826773
 30
0.0
 11
7.124015748031496
 21
4.832677165354329
 31
0.0
  0
LINE
  5
428D
330
1E
100
AcDbEntity
  8
3
100
AcDbLine
 10
7.124015748031496
 20
4.862204724409451
 30
0.0
 11
7.124015748031496
 21
4.876968503937007
 31
0.0
  0
LINE
  5
428E
330
1E
100
AcDbEntity
  8
3
100
AcDbLine
 10
7.153543307086613
 20
4.876968503937007
 30
0.0
 11
7.153543307086613
 21
4.862204724409451
 31
0.0
  0
LINE
  5
428F
330
1E
100
AcDbEntity
  8
3
100
AcDbLine
 10
7.153543307086613
 20
4.832677165354329
 30
0.0
 11
7.153543307086613
 21
4.817913385826773
 31
0.0
  0
LINE
  5
4290
330
1E
100
AcDbEntity
  8
3
100
AcDbLine
 10
25.19783464566929
 20
9.749015748031496
 30
0.0
 11
25.19783464566929
 21
9.763779527559057
 31
0.0
  0
LINE
  5
4291
330
1E
100
AcDbEntity
  8
3
100
AcDbLine
 10
25.19783464566929
 20
9.793307086614174
 30
0.0
 11
25.19783464566929
 21
9.808070866141735
 31
0.0
  0
LINE
  5
4292
330
1E
100
AcDbEntity
  8
3
100
AcDbLine
 10
6.887795275590551
 20
9.749015748031496
 30
0.0
 11
6.887795275590551
 21
9.763779527559057
 31
0.0
  0
LINE
  5
4293
330
1E
100
AcDbEntity
  8
3
100
AcDbLine
 10
6.887795275590551
 20
9.793307086614174
 30
0.0
 11
6.887795275590551
 21
9.808070866141735
 31
0.0
  0
LINE
  5
4294
330
1E
100
AcDbEntity
  8
3
100
AcDbLine
 10
24.79625984251968
 20
9.808070866141735
 30
0.0
 11
24.79625984251968
 21
9.793307086614174
 31
0.0
  0
LINE
  5
4295
330
1E
100
AcDbEntity
  8
3
100
AcDbLine
 10
24.79625984251968
 20
9.763779527559057
 30
0.0
 11
24.79625984251968
 21
9.749015748031496
 31
0.0
  0
LINE
  5
4296
330
1E
100
AcDbEntity
  8
3
100
AcDbLine
 10
6.486220472440944
 20
9.808070866141735
 30
0.0
 11
6.486220472440944
 21
9.793307086614174
 31
0.0
  0
LINE
  5
4297
330
1E
100
AcDbEntity
  8
3
100
AcDbLine
 10
6.486220472440944
 20
9.763779527559057
 30
0.0
 11
6.486220472440944
 21
9.749015748031496
 31
0.0
  0
LINE
  5
4298
330
1E
100
AcDbEntity
  8
3
100
AcDbLine
 10
6.890748031496062
 20
9.749015748031496
 30
0.0
 11
6.890748031496062
 21
9.763779527559057
 31
0.0
  0
LINE
  5
4299
330
1E
100
AcDbEntity
  8
3
100
AcDbLine
 10
6.890748031496062
 20
9.793307086614174
 30
0.0
 11
6.890748031496062
 21
9.808070866141735
 31
0.0
  0
LINE
  5
429A
330
1E
100
AcDbEntity
  8
3
100
AcDbLine
 10
24.79625984251968
 20
9.808070866141735
 30
0.0
 11
24.79625984251968
 21
9.793307086614174
 31
0.0
  0
LINE
  5
429B
330
1E
100
AcDbEntity
  8
3
100
AcDbLine
 10
24.79625984251968
 20
9.763779527559057
 30
0.0
 11
24.79625984251968
 21
9.749015748031496
 31
0.0
  0
LINE
  5
429C
330
1E
100
AcDbEntity
  8
3
100
AcDbLine
 10
7.289370078740157
 20
9.808070866141735
 30
0.0
 11
7.289370078740157
 21
9.793307086614174
 31
0.0
  0
LINE
  5
429D
330
1E
100
AcDbEntity
  8
3
100
AcDbLine
 10
7.289370078740157
 20
9.763779527559057
 30
0.0
 11
7.289370078740157
 21
9.749015748031496
 31
0.0
  0
LINE
  5
429E
330
1E
100
AcDbEntity
  8
3
100
AcDbLine
 10
7.543307086614173
 20
9.749015748031496
 30
0.0
 11
7.543307086614173
 21
9.763779527559057
 31
0.0
  0
LINE
  5
429F
330
1E
100
AcDbEntity
  8
3
100
AcDbLine
 10
7.543307086614173
 20
9.793307086614174
 30
0.0
 11
7.543307086614173
 21
9.808070866141735
 31
0.0
  0
LINE
  5
42A0
330
1E
100
AcDbEntity
  8
3
100
AcDbLine
 10
24.14074803149606
 20
9.808070866141735
 30
0.0
 11
24.14074803149606
 21
9.793307086614174
 31
0.0
  0
LINE
  5
42A1
330
1E
100
AcDbEntity
  8
3
100
AcDbLine
 10
24.14074803149606
 20
9.763779527559057
 30
0.0
 11
24.14074803149606
 21
9.749015748031496
 31
0.0
  0
LINE
  5
42A2
330
1E
100
AcDbEntity
  8
3
100
AcDbLine
 10
24.39468503937008
 20
9.749015748031496
 30
0.0
 11
24.39468503937008
 21
9.763779527559057
 31
0.0
  0
LINE
  5
42A3
330
1E
100
AcDbEntity
  8
3
100
AcDbLine
 10
24.39468503937008
 20
9.793307086614174
 30
0.0
 11
24.39468503937008
 21
9.808070866141735
 31
0.0
  0
LINE
  5
42A4
330
1E
100
AcDbEntity
  8
3
100
AcDbLine
 10
20.2253937007874
 20
9.808070866141735
 30
0.0
 11
20.2253937007874
 21
9.793307086614174
 31
0.0
  0
LINE
  5
42A5
330
1E
100
AcDbEntity
  8
3
100
AcDbLine
 10
20.2253937007874
 20
9.763779527559057
 30
0.0
 11
20.2253937007874
 21
9.749015748031496
 31
0.0
  0
LINE
  5
42A6
330
1E
100
AcDbEntity
  8
3
100
AcDbLine
 10
20.47933070866141
 20
9.749015748031496
 30
0.0
 11
20.47933070866141
 21
9.763779527559057
 31
0.0
  0
LINE
  5
42A7
330
1E
100
AcDbEntity
  8
3
100
AcDbLine
 10
20.47933070866141
 20
9.793307086614174
 30
0.0
 11
20.47933070866141
 21
9.808070866141735
 31
0.0
  0
LINE
  5
42A8
330
1E
100
AcDbEntity
  8
3
100
AcDbLine
 10
11.60334645669291
 20
9.808070866141735
 30
0.0
 11
11.60334645669291
 21
9.793307086614174
 31
0.0
  0
LINE
  5
42A9
330
1E
100
AcDbEntity
  8
3
100
AcDbLine
 10
11.60334645669291
 20
9.763779527559057
 30
0.0
 11
11.60334645669291
 21
9.749015748031496
 31
0.0
  0
LINE
  5
42AA
330
1E
100
AcDbEntity
  8
3
100
AcDbLine
 10
11.85433070866141
 20
9.749015748031496
 30
0.0
 11
11.85433070866141
 21
9.763779527559057
 31
0.0
  0
LINE
  5
42AB
330
1E
100
AcDbEntity
  8
3
100
AcDbLine
 10
11.85433070866141
 20
9.793307086614174
 30
0.0
 11
11.85433070866141
 21
9.808070866141735
 31
0.0
  0
LINE
  5
42AC
330
1E
100
AcDbEntity
  8
3
100
AcDbLine
 10
11.20472440944881
 20
9.808070866141735
 30
0.0
 11
11.20472440944881
 21
9.793307086614174
 31
0.0
  0
LINE
  5
42AD
330
1E
100
AcDbEntity
  8
3
100
AcDbLine
 10
11.20472440944881
 20
9.763779527559057
 30
0.0
 11
11.20472440944881
 21
9.749015748031496
 31
0.0
  0
LINE
  5
42AE
330
1E
100
AcDbEntity
  8
3
100
AcDbLine
 10
11.45866141732283
 20
9.749015748031496
 30
0.0
 11
11.45866141732283
 21
9.763779527559057
 31
0.0
  0
LINE
  5
42AF
330
1E
100
AcDbEntity
  8
3
100
AcDbLine
 10
11.45866141732283
 20
9.793307086614174
 30
0.0
 11
11.45866141732283
 21
9.808070866141735
 31
0.0
  0
LINE
  5
42B0
330
1E
100
AcDbEntity
  8
3
100
AcDbLine
 10
19.82972440944881
 20
9.808070866141735
 30
0.0
 11
19.82972440944881
 21
9.793307086614174
 31
0.0
  0
LINE
  5
42B1
330
1E
100
AcDbEntity
  8
3
100
AcDbLine
 10
19.82972440944881
 20
9.763779527559057
 30
0.0
 11
19.82972440944881
 21
9.749015748031496
 31
0.0
  0
LINE
  5
42B2
330
1E
100
AcDbEntity
  8
3
100
AcDbLine
 10
20.08070866141732
 20
9.749015748031496
 30
0.0
 11
20.08070866141732
 21
9.763779527559057
 31
0.0
  0
LINE
  5
42B3
330
1E
100
AcDbEntity
  8
3
100
AcDbLine
 10
20.08070866141732
 20
9.793307086614174
 30
0.0
 11
20.08070866141732
 21
9.808070866141735
 31
0.0
  0
LINE
  5
42B4
330
1E
100
AcDbEntity
  8
3
100
AcDbLine
 10
15.51574803149606
 20
9.808070866141735
 30
0.0
 11
15.51574803149606
 21
9.793307086614174
 31
0.0
  0
LINE
  5
42B5
330
1E
100
AcDbEntity
  8
3
100
AcDbLine
 10
15.51574803149606
 20
9.763779527559057
 30
0.0
 11
15.51574803149606
 21
9.749015748031496
 31
0.0
  0
LINE
  5
42B6
330
1E
100
AcDbEntity
  8
3
100
AcDbLine
 10
15.76968503937007
 20
9.749015748031496
 30
0.0
 11
15.76968503937007
 21
9.763779527559057
 31
0.0
  0
LINE
  5
42B7
330
1E
100
AcDbEntity
  8
3
100
AcDbLine
 10
15.76968503937007
 20
9.793307086614174
 30
0.0
 11
15.76968503937007
 21
9.808070866141735
 31
0.0
  0
LINE
  5
42B8
330
1E
100
AcDbEntity
  8
3
100
AcDbLine
 10
15.91437007874015
 20
9.808070866141735
 30
0.0
 11
15.91437007874015
 21
9.793307086614174
 31
0.0
  0
LINE
  5
42B9
330
1E
100
AcDbEntity
  8
3
100
AcDbLine
 10
15.91437007874015
 20
9.763779527559057
 30
0.0
 11
15.91437007874015
 21
9.749015748031496
 31
0.0
  0
LINE
  5
42BA
330
1E
100
AcDbEntity
  8
3
100
AcDbLine
 10
16.16830708661417
 20
9.749015748031496
 30
0.0
 11
16.16830708661417
 21
9.763779527559057
 31
0.0
  0
LINE
  5
42BB
330
1E
100
AcDbEntity
  8
3
100
AcDbLine
 10
16.16830708661417
 20
9.793307086614174
 30
0.0
 11
16.16830708661417
 21
9.808070866141735
 31
0.0
  0
LINE
  5
42BC
330
1E
100
AcDbEntity
  8
3
100
AcDbLine
 10
6.887795275590551
 20
9.749015748031496
 30
0.0
 11
6.887795275590551
 21
9.763779527559057
 31
0.0
  0
LINE
  5
42BD
330
1E
100
AcDbEntity
  8
3
100
AcDbLine
 10
6.887795275590551
 20
9.793307086614174
 30
0.0
 11
6.887795275590551
 21
9.808070866141735
 31
0.0
  0
LINE
  5
42BE
330
1E
100
AcDbEntity
  8
3
100
AcDbLine
 10
6.486220472440944
 20
9.808070866141735
 30
0.0
 11
6.486220472440944
 21
9.793307086614174
 31
0.0
  0
LINE
  5
42BF
330
1E
100
AcDbEntity
  8
3
100
AcDbLine
 10
6.486220472440944
 20
9.763779527559057
 30
0.0
 11
6.486220472440944
 21
9.749015748031496
 31
0.0
  0
LINE
  5
42C0
330
1E
100
AcDbEntity
  8
3
100
AcDbLine
 10
24.79625984251968
 20
9.808070866141735
 30
0.0
 11
24.79625984251968
 21
9.793307086614174
 31
0.0
  0
LINE
  5
42C1
330
1E
100
AcDbEntity
  8
3
100
AcDbLine
 10
24.79625984251968
 20
9.763779527559057
 30
0.0
 11
24.79625984251968
 21
9.749015748031496
 31
0.0
  0
LINE
  5
42C2
330
1E
100
AcDbEntity
  8
3
100
AcDbLine
 10
25.19783464566929
 20
9.749015748031496
 30
0.0
 11
25.19783464566929
 21
9.763779527559057
 31
0.0
  0
LINE
  5
42C3
330
1E
100
AcDbEntity
  8
3
100
AcDbLine
 10
25.19783464566929
 20
9.793307086614174
 30
0.0
 11
25.19783464566929
 21
9.808070866141735
 31
0.0
  0
LINE
  5
42C4
330
1E
100
AcDbEntity
  8
3
100
AcDbLine
 10
6.887795275590551
 20
9.749015748031496
 30
0.0
 11
6.887795275590551
 21
9.763779527559057
 31
0.0
  0
LINE
  5
42C5
330
1E
100
AcDbEntity
  8
3
100
AcDbLine
 10
6.887795275590551
 20
9.793307086614174
 30
0.0
 11
6.887795275590551
 21
9.808070866141735
 31
0.0
  0
LINE
  5
42C6
330
1E
100
AcDbEntity
  8
3
100
AcDbLine
 10
24.79625984251968
 20
9.808070866141735
 30
0.0
 11
24.79625984251968
 21
9.793307086614174
 31
0.0
  0
LINE
  5
42C7
330
1E
100
AcDbEntity
  8
3
100
AcDbLine
 10
24.79625984251968
 20
9.763779527559057
 30
0.0
 11
24.79625984251968
 21
9.749015748031496
 31
0.0
  0
LINE
  5
42C8
330
1E
100
AcDbEntity
  8
3
100
AcDbLine
 10
25.19783464566929
 20
9.749015748031496
 30
0.0
 11
25.19783464566929
 21
9.763779527559057
 31
0.0
  0
LINE
  5
42C9
330
1E
100
AcDbEntity
  8
3
100
AcDbLine
 10
25.19783464566929
 20
9.793307086614174
 30
0.0
 11
25.19783464566929
 21
9.808070866141735
 31
0.0
  0
LINE
  5
42CA
330
1E
100
AcDbEntity
  8
3
100
AcDbLine
 10
6.486220472440944
 20
9.808070866141735
 30
0.0
 11
6.486220472440944
 21
9.793307086614174
 31
0.0
  0
LINE
  5
42CB
330
1E
100
AcDbEntity
  8
3
100
AcDbLine
 10
6.486220472440944
 20
9.763779527559057
 30
0.0
 11
6.486220472440944
 21
9.749015748031496
 31
0.0
  0
LINE
  5
42CC
330
1E
100
AcDbEntity
  8
3
100
AcDbLine
 10
11.60334645669291
 20
9.808070866141735
 30
0.0
 11
11.60334645669291
 21
9.793307086614174
 31
0.0
  0
LINE
  5
42CD
330
1E
100
AcDbEntity
  8
3
100
AcDbLine
 10
11.60334645669291
 20
9.763779527559057
 30
0.0
 11
11.60334645669291
 21
9.749015748031496
 31
0.0
  0
LINE
  5
42CE
330
1E
100
AcDbEntity
  8
3
100
AcDbLine
 10
11.85433070866141
 20
9.749015748031496
 30
0.0
 11
11.85433070866141
 21
9.763779527559057
 31
0.0
  0
LINE
  5
42CF
330
1E
100
AcDbEntity
  8
3
100
AcDbLine
 10
11.85433070866141
 20
9.793307086614174
 30
0.0
 11
11.85433070866141
 21
9.808070866141735
 31
0.0
  0
LINE
  5
42D0
330
1E
100
AcDbEntity
  8
3
100
AcDbLine
 10
11.20472440944881
 20
9.808070866141735
 30
0.0
 11
11.20472440944881
 21
9.793307086614174
 31
0.0
  0
LINE
  5
42D1
330
1E
100
AcDbEntity
  8
3
100
AcDbLine
 10
11.20472440944881
 20
9.763779527559057
 30
0.0
 11
11.20472440944881
 21
9.749015748031496
 31
0.0
  0
LINE
  5
42D2
330
1E
100
AcDbEntity
  8
3
100
AcDbLine
 10
11.45866141732283
 20
9.749015748031496
 30
0.0
 11
11.45866141732283
 21
9.763779527559057
 31
0.0
  0
LINE
  5
42D3
330
1E
100
AcDbEntity
  8
3
100
AcDbLine
 10
11.45866141732283
 20
9.793307086614174
 30
0.0
 11
11.45866141732283
 21
9.808070866141735
 31
0.0
  0
LINE
  5
42D4
330
1E
100
AcDbEntity
  8
3
100
AcDbLine
 10
15.91437007874015
 20
9.808070866141735
 30
0.0
 11
15.91437007874015
 21
9.793307086614174
 31
0.0
  0
LINE
  5
42D5
330
1E
100
AcDbEntity
  8
3
100
AcDbLine
 10
15.91437007874015
 20
9.763779527559057
 30
0.0
 11
15.91437007874015
 21
9.749015748031496
 31
0.0
  0
LINE
  5
42D6
330
1E
100
AcDbEntity
  8
3
100
AcDbLine
 10
16.16830708661417
 20
9.749015748031496
 30
0.0
 11
16.16830708661417
 21
9.763779527559057
 31
0.0
  0
LINE
  5
42D7
330
1E
100
AcDbEntity
  8
3
100
AcDbLine
 10
16.16830708661417
 20
9.793307086614174
 30
0.0
 11
16.16830708661417
 21
9.808070866141735
 31
0.0
  0
LINE
  5
42D8
330
1E
100
AcDbEntity
  8
3
100
AcDbLine
 10
15.51574803149606
 20
9.808070866141735
 30
0.0
 11
15.51574803149606
 21
9.793307086614174
 31
0.0
  0
LINE
  5
42D9
330
1E
100
AcDbEntity
  8
3
100
AcDbLine
 10
15.51574803149606
 20
9.763779527559057
 30
0.0
 11
15.51574803149606
 21
9.749015748031496
 31
0.0
  0
LINE
  5
42DA
330
1E
100
AcDbEntity
  8
3
100
AcDbLine
 10
15.76968503937007
 20
9.749015748031496
 30
0.0
 11
15.76968503937007
 21
9.763779527559057
 31
0.0
  0
LINE
  5
42DB
330
1E
100
AcDbEntity
  8
3
100
AcDbLine
 10
15.76968503937007
 20
9.793307086614174
 30
0.0
 11
15.76968503937007
 21
9.808070866141735
 31
0.0
  0
LINE
  5
42DC
330
1E
100
AcDbEntity
  8
3
100
AcDbLine
 10
7.289370078740157
 20
9.808070866141735
 30
0.0
 11
7.289370078740157
 21
9.793307086614174
 31
0.0
  0
LINE
  5
42DD
330
1E
100
AcDbEntity
  8
3
100
AcDbLine
 10
7.289370078740157
 20
9.763779527559057
 30
0.0
 11
7.289370078740157
 21
9.749015748031496
 31
0.0
  0
LINE
  5
42DE
330
1E
100
AcDbEntity
  8
3
100
AcDbLine
 10
7.543307086614173
 20
9.749015748031496
 30
0.0
 11
7.543307086614173
 21
9.763779527559057
 31
0.0
  0
LINE
  5
42DF
330
1E
100
AcDbEntity
  8
3
100
AcDbLine
 10
7.543307086614173
 20
9.793307086614174
 30
0.0
 11
7.543307086614173
 21
9.808070866141735
 31
0.0
  0
LINE
  5
42E0
330
1E
100
AcDbEntity
  8
3
100
AcDbLine
 10
24.14074803149606
 20
9.808070866141735
 30
0.0
 11
24.14074803149606
 21
9.793307086614174
 31
0.0
  0
LINE
  5
42E1
330
1E
100
AcDbEntity
  8
3
100
AcDbLine
 10
24.14074803149606
 20
9.763779527559057
 30
0.0
 11
24.14074803149606
 21
9.749015748031496
 31
0.0
  0
LINE
  5
42E2
330
1E
100
AcDbEntity
  8
3
100
AcDbLine
 10
24.39468503937008
 20
9.749015748031496
 30
0.0
 11
24.39468503937008
 21
9.763779527559057
 31
0.0
  0
LINE
  5
42E3
330
1E
100
AcDbEntity
  8
3
100
AcDbLine
 10
24.39468503937008
 20
9.793307086614174
 30
0.0
 11
24.39468503937008
 21
9.808070866141735
 31
0.0
  0
LINE
  5
42E4
330
1E
100
AcDbEntity
  8
3
100
AcDbLine
 10
19.82972440944881
 20
9.808070866141735
 30
0.0
 11
19.82972440944881
 21
9.793307086614174
 31
0.0
  0
LINE
  5
42E5
330
1E
100
AcDbEntity
  8
3
100
AcDbLine
 10
19.82972440944881
 20
9.763779527559057
 30
0.0
 11
19.82972440944881
 21
9.749015748031496
 31
0.0
  0
LINE
  5
42E6
330
1E
100
AcDbEntity
  8
3
100
AcDbLine
 10
20.08070866141732
 20
9.749015748031496
 30
0.0
 11
20.08070866141732
 21
9.763779527559057
 31
0.0
  0
LINE
  5
42E7
330
1E
100
AcDbEntity
  8
3
100
AcDbLine
 10
20.08070866141732
 20
9.793307086614174
 30
0.0
 11
20.08070866141732
 21
9.808070866141735
 31
0.0
  0
LINE
  5
42E8
330
1E
100
AcDbEntity
  8
3
100
AcDbLine
 10
20.2253937007874
 20
9.808070866141735
 30
0.0
 11
20.2253937007874
 21
9.793307086614174
 31
0.0
  0
LINE
  5
42E9
330
1E
100
AcDbEntity
  8
3
100
AcDbLine
 10
20.2253937007874
 20
9.763779527559057
 30
0.0
 11
20.2253937007874
 21
9.749015748031496
 31
0.0
  0
LINE
  5
42EA
330
1E
100
AcDbEntity
  8
3
100
AcDbLine
 10
20.47933070866141
 20
9.749015748031496
 30
0.0
 11
20.47933070866141
 21
9.763779527559057
 31
0.0
  0
LINE
  5
42EB
330
1E
100
AcDbEntity
  8
3
100
AcDbLine
 10
20.47933070866141
 20
9.793307086614174
 30
0.0
 11
20.47933070866141
 21
9.808070866141735
 31
0.0
  0
LINE
  5
42EC
330
1E
100
AcDbEntity
  8
3
100
AcDbLine
 10
6.890748031496062
 20
9.749015748031496
 30
0.0
 11
6.890748031496062
 21
9.763779527559057
 31
0.0
  0
LINE
  5
42ED
330
1E
100
AcDbEntity
  8
3
100
AcDbLine
 10
6.890748031496062
 20
9.793307086614174
 30
0.0
 11
6.890748031496062
 21
9.808070866141735
 31
0.0
  0
LINE
  5
42EE
330
1E
100
AcDbEntity
  8
3
100
AcDbLine
 10
24.79625984251968
 20
9.808070866141735
 30
0.0
 11
24.79625984251968
 21
9.793307086614174
 31
0.0
  0
LINE
  5
42EF
330
1E
100
AcDbEntity
  8
3
100
AcDbLine
 10
24.79625984251968
 20
9.763779527559057
 30
0.0
 11
24.79625984251968
 21
9.749015748031496
 31
0.0
  0
LINE
  5
42F0
330
1E
100
AcDbEntity
  8
3
100
AcDbLine
 10
25.19783464566929
 20
9.749015748031496
 30
0.0
 11
25.19783464566929
 21
9.763779527559057
 31
0.0
  0
LINE
  5
42F1
330
1E
100
AcDbEntity
  8
3
100
AcDbLine
 10
25.19783464566929
 20
9.793307086614174
 30
0.0
 11
25.19783464566929
 21
9.808070866141735
 31
0.0
  0
LINE
  5
42F2
330
1E
100
AcDbEntity
  8
3
100
AcDbLine
 10
6.486220472440944
 20
9.808070866141735
 30
0.0
 11
6.486220472440944
 21
9.793307086614174
 31
0.0
  0
LINE
  5
42F3
330
1E
100
AcDbEntity
  8
3
100
AcDbLine
 10
6.486220472440944
 20
9.763779527559057
 30
0.0
 11
6.486220472440944
 21
9.749015748031496
 31
0.0
  0
LINE
  5
42F4
330
1E
100
AcDbEntity
  8
3
100
AcDbLine
 10
24.79625984251968
 20
9.808070866141735
 30
0.0
 11
24.79625984251968
 21
9.793307086614174
 31
0.0
  0
LINE
  5
42F5
330
1E
100
AcDbEntity
  8
3
100
AcDbLine
 10
24.79625984251968
 20
9.763779527559057
 30
0.0
 11
24.79625984251968
 21
9.749015748031496
 31
0.0
  0
LINE
  5
42F6
330
1E
100
AcDbEntity
  8
3
100
AcDbLine
 10
6.887795275590551
 20
9.749015748031496
 30
0.0
 11
6.887795275590551
 21
9.763779527559057
 31
0.0
  0
LINE
  5
42F7
330
1E
100
AcDbEntity
  8
3
100
AcDbLine
 10
6.887795275590551
 20
9.793307086614174
 30
0.0
 11
6.887795275590551
 21
9.808070866141735
 31
0.0
  0
LINE
  5
42F8
330
1E
100
AcDbEntity
  8
3
100
AcDbLine
 10
6.391732283464566
 20
9.749015748031496
 30
0.0
 11
7.03248031496063
 21
9.749015748031496
 31
0.0
  0
LINE
  5
42FE
330
1E
100
AcDbEntity
  8
3
100
AcDbLine
 10
7.03248031496063
 20
9.749015748031496
 30
0.0
 11
6.391732283464566
 21
9.749015748031496
 31
0.0
  0
LINE
  5
42FF
330
1E
100
AcDbEntity
  8
3
100
AcDbLine
 10
6.341535433070866
 20
9.749015748031496
 30
0.0
 11
6.341535433070866
 21
9.808070866141735
 31
0.0
  0
LINE
  5
4307
330
1E
100
AcDbEntity
  8
3
100
AcDbLine
 10
6.403543307086613
 20
9.749015748031496
 30
0.0
 11
6.403543307086613
 21
9.763779527559057
 31
0.0
  0
LINE
  5
4308
330
1E
100
AcDbEntity
  8
3
100
AcDbLine
 10
6.403543307086613
 20
9.793307086614174
 30
0.0
 11
6.403543307086613
 21
9.808070866141735
 31
0.0
  0
LINE
  5
4309
330
1E
100
AcDbEntity
  8
3
100
AcDbLine
 10
25.34251968503937
 20
9.749015748031496
 30
0.0
 11
25.32480314960629
 21
9.749015748031496
 31
0.0
  0
LINE
  5
430A
330
1E
100
AcDbEntity
  8
3
100
AcDbLine
 10
25.32480314960629
 20
9.749015748031496
 30
0.0
 11
25.28346456692913
 21
9.749015748031496
 31
0.0
  0
LINE
  5
4312
330
1E
100
AcDbEntity
  8
3
100
AcDbLine
 10
7.062007874015749
 20
9.749015748031496
 30
0.0
 11
24.62204724409448
 21
9.749015748031496
 31
0.0
  0
LINE
  5
431A
330
1E
100
AcDbEntity
  8
3
100
AcDbLine
 10
6.403543307086613
 20
9.749015748031496
 30
0.0
 11
6.940944881889763
 21
9.749015748031496
 31
0.0
  0
LINE
  5
4320
330
1E
100
AcDbEntity
  8
3
100
AcDbLine
 10
25.28346456692913
 20
9.808070866141735
 30
0.0
 11
25.28346456692913
 21
9.793307086614174
 31
0.0
  0
LINE
  5
4321
330
1E
100
AcDbEntity
  8
3
100
AcDbLine
 10
25.28346456692913
 20
9.763779527559057
 30
0.0
 11
25.28346456692913
 21
9.749015748031496
 31
0.0
  0
LINE
  5
4327
330
1E
100
AcDbEntity
  8
3
100
AcDbLine
 10
6.940944881889763
 20
9.808070866141735
 30
0.0
 11
6.940944881889763
 21
9.749015748031496
 31
0.0
  0
LINE
  5
4334
330
1E
100
AcDbEntity
  8
3
100
AcDbLine
 10
24.62204724409448
 20
9.808070866141735
 30
0.0
 11
24.53346456692913
 21
9.808070866141735
 31
0.0
  0
LINE
  5
4335
330
1E
100
AcDbEntity
  8
3
100
AcDbLine
 10
24.35334645669291
 20
9.808070866141735
 30
0.0
 11
24.17322834645669
 21
9.808070866141735
 31
0.0
  0
LINE
  5
4336
330
1E
100
AcDbEntity
  8
3
100
AcDbLine
 10
23.99606299212598
 20
9.808070866141735
 30
0.0
 11
23.81594488188976
 21
9.808070866141735
 31
0.0
  0
LINE
  5
4337
330
1E
100
AcDbEntity
  8
3
100
AcDbLine
 10
23.63582677165354
 20
9.808070866141735
 30
0.0
 11
23.45866141732283
 21
9.808070866141735
 31
0.0
  0
LINE
  5
4338
330
1E
100
AcDbEntity
  8
3
100
AcDbLine
 10
23.27854330708661
 20
9.808070866141735
 30
0.0
 11
23.09842519685039
 21
9.808070866141735
 31
0.0
  0
LINE
  5
4339
330
1E
100
AcDbEntity
  8
3
100
AcDbLine
 10
22.92125984251968
 20
9.808070866141735
 30
0.0
 11
22.74114173228346
 21
9.808070866141735
 31
0.0
  0
LINE
  5
433A
330
1E
100
AcDbEntity
  8
3
100
AcDbLine
 10
22.56102362204724
 20
9.808070866141735
 30
0.0
 11
22.38090551181102
 21
9.808070866141735
 31
0.0
  0
LINE
  5
433B
330
1E
100
AcDbEntity
  8
3
100
AcDbLine
 10
22.20374015748031
 20
9.808070866141735
 30
0.0
 11
22.02362204724409
 21
9.808070866141735
 31
0.0
  0
LINE
  5
433C
330
1E
100
AcDbEntity
  8
3
100
AcDbLine
 10
21.84350393700787
 20
9.808070866141735
 30
0.0
 11
21.66633858267716
 21
9.808070866141735
 31
0.0
  0
LINE
  5
433D
330
1E
100
AcDbEntity
  8
3
100
AcDbLine
 10
21.48622047244094
 20
9.808070866141735
 30
0.0
 11
21.30610236220472
 21
9.808070866141735
 31
0.0
  0
LINE
  5
433E
330
1E
100
AcDbEntity
  8
3
100
AcDbLine
 10
21.12893700787401
 20
9.808070866141735
 30
0.0
 11
20.94881889763779
 21
9.808070866141735
 31
0.0
  0
LINE
  5
433F
330
1E
100
AcDbEntity
  8
3
100
AcDbLine
 10
20.76870078740157
 20
9.808070866141735
 30
0.0
 11
20.59153543307086
 21
9.808070866141735
 31
0.0
  0
LINE
  5
4340
330
1E
100
AcDbEntity
  8
3
100
AcDbLine
 10
20.41141732283464
 20
9.808070866141735
 30
0.0
 11
20.23129921259842
 21
9.808070866141735
 31
0.0
  0
LINE
  5
4341
330
1E
100
AcDbEntity
  8
3
100
AcDbLine
 10
20.05413385826771
 20
9.808070866141735
 30
0.0
 11
19.87401574803149
 21
9.808070866141735
 31
0.0
  0
LINE
  5
4342
330
1E
100
AcDbEntity
  8
3
100
AcDbLine
 10
19.69389763779527
 20
9.808070866141735
 30
0.0
 11
19.51673228346456
 21
9.808070866141735
 31
0.0
  0
LINE
  5
4343
330
1E
100
AcDbEntity
  8
3
100
AcDbLine
 10
19.33661417322834
 20
9.808070866141735
 30
0.0
 11
19.15649606299212
 21
9.808070866141735
 31
0.0
  0
LINE
  5
4344
330
1E
100
AcDbEntity
  8
3
100
AcDbLine
 10
18.9763779527559
 20
9.808070866141735
 30
0.0
 11
18.79921259842519
 21
9.808070866141735
 31
0.0
  0
LINE
  5
4345
330
1E
100
AcDbEntity
  8
3
100
AcDbLine
 10
18.61909448818897
 20
9.808070866141735
 30
0.0
 11
18.43897637795275
 21
9.808070866141735
 31
0.0
  0
LINE
  5
4346
330
1E
100
AcDbEntity
  8
3
100
AcDbLine
 10
18.26181102362204
 20
9.808070866141735
 30
0.0
 11
18.08169291338582
 21
9.808070866141735
 31
0.0
  0
LINE
  5
4347
330
1E
100
AcDbEntity
  8
3
100
AcDbLine
 10
17.9015748031496
 20
9.808070866141735
 30
0.0
 11
17.72440944881889
 21
9.808070866141735
 31
0.0
  0
LINE
  5
4348
330
1E
100
AcDbEntity
  8
3
100
AcDbLine
 10
17.54429133858267
 20
9.808070866141735
 30
0.0
 11
17.36417322834645
 21
9.808070866141735
 31
0.0
  0
LINE
  5
4349
330
1E
100
AcDbEntity
  8
3
100
AcDbLine
 10
17.18700787401574
 20
9.808070866141735
 30
0.0
 11
17.00688976377952
 21
9.808070866141735
 31
0.0
  0
LINE
  5
434A
330
1E
100
AcDbEntity
  8
3
100
AcDbLine
 10
16.8267716535433
 20
9.808070866141735
 30
0.0
 11
16.64960629921259
 21
9.808070866141735
 31
0.0
  0
LINE
  5
434B
330
1E
100
AcDbEntity
  8
3
100
AcDbLine
 10
16.46948818897637
 20
9.808070866141735
 30
0.0
 11
16.28937007874015
 21
9.808070866141735
 31
0.0
  0
LINE
  5
434C
330
1E
100
AcDbEntity
  8
3
100
AcDbLine
 10
16.11220472440944
 20
9.808070866141735
 30
0.0
 11
15.93208661417322
 21
9.808070866141735
 31
0.0
  0
LINE
  5
434D
330
1E
100
AcDbEntity
  8
3
100
AcDbLine
 10
15.751968503937
 20
9.808070866141735
 30
0.0
 11
15.57185039370078
 21
9.808070866141735
 31
0.0
  0
LINE
  5
434E
330
1E
100
AcDbEntity
  8
3
100
AcDbLine
 10
15.39468503937007
 20
9.808070866141735
 30
0.0
 11
15.21456692913385
 21
9.808070866141735
 31
0.0
  0
LINE
  5
434F
330
1E
100
AcDbEntity
  8
3
100
AcDbLine
 10
15.03444881889763
 20
9.808070866141735
 30
0.0
 11
14.85728346456692
 21
9.808070866141735
 31
0.0
  0
LINE
  5
4350
330
1E
100
AcDbEntity
  8
3
100
AcDbLine
 10
14.6771653543307
 20
9.808070866141735
 30
0.0
 11
14.49704724409448
 21
9.808070866141735
 31
0.0
  0
LINE
  5
4351
330
1E
100
AcDbEntity
  8
3
100
AcDbLine
 10
14.31988188976377
 20
9.808070866141735
 30
0.0
 11
14.13976377952755
 21
9.808070866141735
 31
0.0
  0
LINE
  5
4352
330
1E
100
AcDbEntity
  8
3
100
AcDbLine
 10
13.95964566929133
 20
9.808070866141735
 30
0.0
 11
13.78248031496062
 21
9.808070866141735
 31
0.0
  0
LINE
  5
4353
330
1E
100
AcDbEntity
  8
3
100
AcDbLine
 10
13.6023622047244
 20
9.808070866141735
 30
0.0
 11
13.42224409448818
 21
9.808070866141735
 31
0.0
  0
LINE
  5
4354
330
1E
100
AcDbEntity
  8
3
100
AcDbLine
 10
13.24507874015747
 20
9.808070866141735
 30
0.0
 11
13.06496062992126
 21
9.808070866141735
 31
0.0
  0
LINE
  5
4355
330
1E
100
AcDbEntity
  8
3
100
AcDbLine
 10
12.88484251968503
 20
9.808070866141735
 30
0.0
 11
12.70767716535432
 21
9.808070866141735
 31
0.0
  0
LINE
  5
4356
330
1E
100
AcDbEntity
  8
3
100
AcDbLine
 10
12.5275590551181
 20
9.808070866141735
 30
0.0
 11
12.34744094488188
 21
9.808070866141735
 31
0.0
  0
LINE
  5
4357
330
1E
100
AcDbEntity
  8
3
100
AcDbLine
 10
12.17027559055117
 20
9.808070866141735
 30
0.0
 11
11.99015748031496
 21
9.808070866141735
 31
0.0
  0
LINE
  5
4358
330
1E
100
AcDbEntity
  8
3
100
AcDbLine
 10
11.81003937007873
 20
9.808070866141735
 30
0.0
 11
11.62992125984251
 21
9.808070866141735
 31
0.0
  0
LINE
  5
4359
330
1E
100
AcDbEntity
  8
3
100
AcDbLine
 10
11.4527559055118
 20
9.808070866141735
 30
0.0
 11
11.27263779527558
 21
9.808070866141735
 31
0.0
  0
LINE
  5
435A
330
1E
100
AcDbEntity
  8
3
100
AcDbLine
 10
11.09251968503936
 20
9.808070866141735
 30
0.0
 11
10.91535433070865
 21
9.808070866141735
 31
0.0
  0
LINE
  5
435B
330
1E
100
AcDbEntity
  8
3
100
AcDbLine
 10
10.73523622047243
 20
9.808070866141735
 30
0.0
 11
10.55511811023621
 21
9.808070866141735
 31
0.0
  0
LINE
  5
435C
330
1E
100
AcDbEntity
  8
3
100
AcDbLine
 10
10.3779527559055
 20
9.808070866141735
 30
0.0
 11
10.19783464566929
 21
9.808070866141735
 31
0.0
  0
LINE
  5
435D
330
1E
100
AcDbEntity
  8
3
100
AcDbLine
 10
10.01771653543306
 20
9.808070866141735
 30
0.0
 11
9.840551181102359
 21
9.808070866141735
 31
0.0
  0
LINE
  5
435E
330
1E
100
AcDbEntity
  8
3
100
AcDbLine
 10
9.660433070866139
 20
9.808070866141735
 30
0.0
 11
9.480314960629918
 21
9.808070866141735
 31
0.0
  0
LINE
  5
435F
330
1E
100
AcDbEntity
  8
3
100
AcDbLine
 10
9.303149606299211
 20
9.808070866141735
 30
0.0
 11
9.123031496062992
 21
9.808070866141735
 31
0.0
  0
LINE
  5
4360
330
1E
100
AcDbEntity
  8
3
100
AcDbLine
 10
8.942913385826772
 20
9.808070866141735
 30
0.0
 11
8.765748031496061
 21
9.808070866141735
 31
0.0
  0
LINE
  5
4361
330
1E
100
AcDbEntity
  8
3
100
AcDbLine
 10
8.585629921259842
 20
9.808070866141735
 30
0.0
 11
8.405511811023622
 21
9.808070866141735
 31
0.0
  0
LINE
  5
4362
330
1E
100
AcDbEntity
  8
3
100
AcDbLine
 10
8.2253937007874
 20
9.808070866141735
 30
0.0
 11
8.048228346456692
 21
9.808070866141735
 31
0.0
  0
LINE
  5
4363
330
1E
100
AcDbEntity
  8
3
100
AcDbLine
 10
7.868110236220473
 20
9.808070866141735
 30
0.0
 11
7.68799212598425
 21
9.808070866141735
 31
0.0
  0
LINE
  5
4364
330
1E
100
AcDbEntity
  8
3
100
AcDbLine
 10
7.510826771653542
 20
9.808070866141735
 30
0.0
 11
7.330708661417324
 21
9.808070866141735
 31
0.0
  0
LINE
  5
4365
330
1E
100
AcDbEntity
  8
3
100
AcDbLine
 10
7.150590551181102
 20
9.808070866141735
 30
0.0
 11
7.062007874015749
 21
9.808070866141735
 31
0.0
  0
LINE
  5
4373
330
1E
100
AcDbEntity
  8
3
100
AcDbLine
 10
24.93799212598425
 20
9.808070866141735
 30
0.0
 11
24.93799212598425
 21
9.793307086614174
 31
0.0
  0
LINE
  5
4374
330
1E
100
AcDbEntity
  8
3
100
AcDbLine
 10
24.93799212598425
 20
9.763779527559057
 30
0.0
 11
24.93799212598425
 21
9.749015748031496
 31
0.0
  0
LINE
  5
4375
330
1E
100
AcDbEntity
  8
3
100
AcDbLine
 10
24.93799212598425
 20
9.808070866141735
 30
0.0
 11
24.93799212598425
 21
9.793307086614174
 31
0.0
  0
LINE
  5
4376
330
1E
100
AcDbEntity
  8
3
100
AcDbLine
 10
24.93799212598425
 20
9.763779527559057
 30
0.0
 11
24.93799212598425
 21
9.749015748031496
 31
0.0
  0
LINE
  5
4377
330
1E
100
AcDbEntity
  8
3
100
AcDbLine
 10
6.746062992125985
 20
9.808070866141735
 30
0.0
 11
6.746062992125985
 21
9.793307086614174
 31
0.0
  0
LINE
  5
4378
330
1E
100
AcDbEntity
  8
3
100
AcDbLine
 10
6.746062992125985
 20
9.763779527559057
 30
0.0
 11
6.746062992125985
 21
9.749015748031496
 31
0.0
  0
LINE
  5
4379
330
1E
100
AcDbEntity
  8
3
100
AcDbLine
 10
6.746062992125985
 20
9.808070866141735
 30
0.0
 11
6.746062992125985
 21
9.793307086614174
 31
0.0
  0
LINE
  5
437A
330
1E
100
AcDbEntity
  8
3
100
AcDbLine
 10
6.746062992125985
 20
9.763779527559057
 30
0.0
 11
6.746062992125985
 21
9.749015748031496
 31
0.0
  0
LINE
  5
437B
330
1E
100
AcDbEntity
  8
3
100
AcDbLine
 10
7.062007874015749
 20
9.837598425196851
 30
0.0
 11
7.150590551181102
 21
9.837598425196851
 31
0.0
  0
LINE
  5
437C
330
1E
100
AcDbEntity
  8
3
100
AcDbLine
 10
7.330708661417324
 20
9.837598425196851
 30
0.0
 11
7.510826771653542
 21
9.837598425196851
 31
0.0
  0
LINE
  5
437D
330
1E
100
AcDbEntity
  8
3
100
AcDbLine
 10
7.68799212598425
 20
9.837598425196851
 30
0.0
 11
7.868110236220473
 21
9.837598425196851
 31
0.0
  0
LINE
  5
437E
330
1E
100
AcDbEntity
  8
3
100
AcDbLine
 10
8.048228346456692
 20
9.837598425196851
 30
0.0
 11
8.2253937007874
 21
9.837598425196851
 31
0.0
  0
LINE
  5
437F
330
1E
100
AcDbEntity
  8
3
100
AcDbLine
 10
8.405511811023622
 20
9.837598425196851
 30
0.0
 11
8.585629921259842
 21
9.837598425196851
 31
0.0
  0
LINE
  5
4380
330
1E
100
AcDbEntity
  8
3
100
AcDbLine
 10
8.765748031496061
 20
9.837598425196851
 30
0.0
 11
8.942913385826772
 21
9.837598425196851
 31
0.0
  0
LINE
  5
4381
330
1E
100
AcDbEntity
  8
3
100
AcDbLine
 10
9.123031496062992
 20
9.837598425196851
 30
0.0
 11
9.303149606299211
 21
9.837598425196851
 31
0.0
  0
LINE
  5
4382
330
1E
100
AcDbEntity
  8
3
100
AcDbLine
 10
9.480314960629918
 20
9.837598425196851
 30
0.0
 11
9.660433070866139
 21
9.837598425196851
 31
0.0
  0
LINE
  5
4383
330
1E
100
AcDbEntity
  8
3
100
AcDbLine
 10
9.840551181102359
 20
9.837598425196851
 30
0.0
 11
10.01771653543306
 21
9.837598425196851
 31
0.0
  0
LINE
  5
4384
330
1E
100
AcDbEntity
  8
3
100
AcDbLine
 10
10.19783464566929
 20
9.837598425196851
 30
0.0
 11
10.3779527559055
 21
9.837598425196851
 31
0.0
  0
LINE
  5
4385
330
1E
100
AcDbEntity
  8
3
100
AcDbLine
 10
10.55511811023621
 20
9.837598425196851
 30
0.0
 11
10.73523622047243
 21
9.837598425196851
 31
0.0
  0
LINE
  5
4386
330
1E
100
AcDbEntity
  8
3
100
AcDbLine
 10
10.91535433070865
 20
9.837598425196851
 30
0.0
 11
11.09251968503936
 21
9.837598425196851
 31
0.0
  0
LINE
  5
4387
330
1E
100
AcDbEntity
  8
3
100
AcDbLine
 10
11.27263779527558
 20
9.837598425196851
 30
0.0
 11
11.4527559055118
 21
9.837598425196851
 31
0.0
  0
LINE
  5
4388
330
1E
100
AcDbEntity
  8
3
100
AcDbLine
 10
11.62992125984251
 20
9.837598425196851
 30
0.0
 11
11.81003937007873
 21
9.837598425196851
 31
0.0
  0
LINE
  5
4389
330
1E
100
AcDbEntity
  8
3
100
AcDbLine
 10
11.99015748031496
 20
9.837598425196851
 30
0.0
 11
12.17027559055117
 21
9.837598425196851
 31
0.0
  0
LINE
  5
438A
330
1E
100
AcDbEntity
  8
3
100
AcDbLine
 10
12.34744094488188
 20
9.837598425196851
 30
0.0
 11
12.5275590551181
 21
9.837598425196851
 31
0.0
  0
LINE
  5
438B
330
1E
100
AcDbEntity
  8
3
100
AcDbLine
 10
12.70767716535432
 20
9.837598425196851
 30
0.0
 11
12.88484251968503
 21
9.837598425196851
 31
0.0
  0
LINE
  5
438C
330
1E
100
AcDbEntity
  8
3
100
AcDbLine
 10
13.06496062992126
 20
9.837598425196851
 30
0.0
 11
13.24507874015747
 21
9.837598425196851
 31
0.0
  0
LINE
  5
438D
330
1E
100
AcDbEntity
  8
3
100
AcDbLine
 10
13.42224409448818
 20
9.837598425196851
 30
0.0
 11
13.6023622047244
 21
9.837598425196851
 31
0.0
  0
LINE
  5
438E
330
1E
100
AcDbEntity
  8
3
100
AcDbLine
 10
13.78248031496062
 20
9.837598425196851
 30
0.0
 11
13.95964566929133
 21
9.837598425196851
 31
0.0
  0
LINE
  5
438F
330
1E
100
AcDbEntity
  8
3
100
AcDbLine
 10
14.13976377952755
 20
9.837598425196851
 30
0.0
 11
14.31988188976377
 21
9.837598425196851
 31
0.0
  0
LINE
  5
4390
330
1E
100
AcDbEntity
  8
3
100
AcDbLine
 10
14.49704724409448
 20
9.837598425196851
 30
0.0
 11
14.6771653543307
 21
9.837598425196851
 31
0.0
  0
LINE
  5
4391
330
1E
100
AcDbEntity
  8
3
100
AcDbLine
 10
14.85728346456692
 20
9.837598425196851
 30
0.0
 11
15.03444881889763
 21
9.837598425196851
 31
0.0
  0
LINE
  5
4392
330
1E
100
AcDbEntity
  8
3
100
AcDbLine
 10
15.21456692913385
 20
9.837598425196851
 30
0.0
 11
15.39468503937007
 21
9.837598425196851
 31
0.0
  0
LINE
  5
4393
330
1E
100
AcDbEntity
  8
3
100
AcDbLine
 10
15.57185039370078
 20
9.837598425196851
 30
0.0
 11
15.751968503937
 21
9.837598425196851
 31
0.0
  0
LINE
  5
4394
330
1E
100
AcDbEntity
  8
3
100
AcDbLine
 10
15.93208661417322
 20
9.837598425196851
 30
0.0
 11
16.11220472440944
 21
9.837598425196851
 31
0.0
  0
LINE
  5
4395
330
1E
100
AcDbEntity
  8
3
100
AcDbLine
 10
16.28937007874015
 20
9.837598425196851
 30
0.0
 11
16.46948818897637
 21
9.837598425196851
 31
0.0
  0
LINE
  5
4396
330
1E
100
AcDbEntity
  8
3
100
AcDbLine
 10
16.64960629921259
 20
9.837598425196851
 30
0.0
 11
16.8267716535433
 21
9.837598425196851
 31
0.0
  0
LINE
  5
4397
330
1E
100
AcDbEntity
  8
3
100
AcDbLine
 10
17.00688976377952
 20
9.837598425196851
 30
0.0
 11
17.18700787401574
 21
9.837598425196851
 31
0.0
  0
LINE
  5
4398
330
1E
100
AcDbEntity
  8
3
100
AcDbLine
 10
17.36417322834645
 20
9.837598425196851
 30
0.0
 11
17.54429133858267
 21
9.837598425196851
 31
0.0
  0
LINE
  5
4399
330
1E
100
AcDbEntity
  8
3
100
AcDbLine
 10
17.72440944881889
 20
9.837598425196851
 30
0.0
 11
17.9015748031496
 21
9.837598425196851
 31
0.0
  0
LINE
  5
439A
330
1E
100
AcDbEntity
  8
3
100
AcDbLine
 10
18.08169291338582
 20
9.837598425196851
 30
0.0
 11
18.26181102362204
 21
9.837598425196851
 31
0.0
  0
LINE
  5
439B
330
1E
100
AcDbEntity
  8
3
100
AcDbLine
 10
18.43897637795275
 20
9.837598425196851
 30
0.0
 11
18.61909448818897
 21
9.837598425196851
 31
0.0
  0
LINE
  5
439C
330
1E
100
AcDbEntity
  8
3
100
AcDbLine
 10
18.79921259842519
 20
9.837598425196851
 30
0.0
 11
18.9763779527559
 21
9.837598425196851
 31
0.0
  0
LINE
  5
439D
330
1E
100
AcDbEntity
  8
3
100
AcDbLine
 10
19.15649606299212
 20
9.837598425196851
 30
0.0
 11
19.33661417322834
 21
9.837598425196851
 31
0.0
  0
LINE
  5
439E
330
1E
100
AcDbEntity
  8
3
100
AcDbLine
 10
19.51673228346456
 20
9.837598425196851
 30
0.0
 11
19.69389763779527
 21
9.837598425196851
 31
0.0
  0
LINE
  5
439F
330
1E
100
AcDbEntity
  8
3
100
AcDbLine
 10
19.87401574803149
 20
9.837598425196851
 30
0.0
 11
20.05413385826771
 21
9.837598425196851
 31
0.0
  0
LINE
  5
43A0
330
1E
100
AcDbEntity
  8
3
100
AcDbLine
 10
20.23129921259842
 20
9.837598425196851
 30
0.0
 11
20.41141732283464
 21
9.837598425196851
 31
0.0
  0
LINE
  5
43A1
330
1E
100
AcDbEntity
  8
3
100
AcDbLine
 10
20.59153543307086
 20
9.837598425196851
 30
0.0
 11
20.76870078740157
 21
9.837598425196851
 31
0.0
  0
LINE
  5
43A2
330
1E
100
AcDbEntity
  8
3
100
AcDbLine
 10
20.94881889763779
 20
9.837598425196851
 30
0.0
 11
21.12893700787401
 21
9.837598425196851
 31
0.0
  0
LINE
  5
43A3
330
1E
100
AcDbEntity
  8
3
100
AcDbLine
 10
21.30610236220472
 20
9.837598425196851
 30
0.0
 11
21.48622047244094
 21
9.837598425196851
 31
0.0
  0
LINE
  5
43A4
330
1E
100
AcDbEntity
  8
3
100
AcDbLine
 10
21.66633858267716
 20
9.837598425196851
 30
0.0
 11
21.84350393700787
 21
9.837598425196851
 31
0.0
  0
LINE
  5
43A5
330
1E
100
AcDbEntity
  8
3
100
AcDbLine
 10
22.02362204724409
 20
9.837598425196851
 30
0.0
 11
22.20374015748031
 21
9.837598425196851
 31
0.0
  0
LINE
  5
43A6
330
1E
100
AcDbEntity
  8
3
100
AcDbLine
 10
22.38090551181102
 20
9.837598425196851
 30
0.0
 11
22.56102362204724
 21
9.837598425196851
 31
0.0
  0
LINE
  5
43A7
330
1E
100
AcDbEntity
  8
3
100
AcDbLine
 10
22.74114173228346
 20
9.837598425196851
 30
0.0
 11
22.92125984251968
 21
9.837598425196851
 31
0.0
  0
LINE
  5
43A8
330
1E
100
AcDbEntity
  8
3
100
AcDbLine
 10
23.09842519685039
 20
9.837598425196851
 30
0.0
 11
23.27854330708661
 21
9.837598425196851
 31
0.0
  0
LINE
  5
43A9
330
1E
100
AcDbEntity
  8
3
100
AcDbLine
 10
23.45866141732283
 20
9.837598425196851
 30
0.0
 11
23.63582677165354
 21
9.837598425196851
 31
0.0
  0
LINE
  5
43AA
330
1E
100
AcDbEntity
  8
3
100
AcDbLine
 10
23.81594488188976
 20
9.837598425196851
 30
0.0
 11
23.99606299212598
 21
9.837598425196851
 31
0.0
  0
LINE
  5
43AB
330
1E
100
AcDbEntity
  8
3
100
AcDbLine
 10
24.17322834645669
 20
9.837598425196851
 30
0.0
 11
24.35334645669291
 21
9.837598425196851
 31
0.0
  0
LINE
  5
43B1
330
1E
100
AcDbEntity
  8
3
100
AcDbLine
 10
24.35334645669291
 20
9.837598425196851
 30
0.0
 11
24.17322834645669
 21
9.837598425196851
 31
0.0
  0
LINE
  5
43B2
330
1E
100
AcDbEntity
  8
3
100
AcDbLine
 10
23.99606299212598
 20
9.837598425196851
 30
0.0
 11
23.81594488188976
 21
9.837598425196851
 31
0.0
  0
LINE
  5
43B3
330
1E
100
AcDbEntity
  8
3
100
AcDbLine
 10
23.63582677165354
 20
9.837598425196851
 30
0.0
 11
23.45866141732283
 21
9.837598425196851
 31
0.0
  0
LINE
  5
43B4
330
1E
100
AcDbEntity
  8
3
100
AcDbLine
 10
23.27854330708661
 20
9.837598425196851
 30
0.0
 11
23.09842519685039
 21
9.837598425196851
 31
0.0
  0
LINE
  5
43B5
330
1E
100
AcDbEntity
  8
3
100
AcDbLine
 10
22.92125984251968
 20
9.837598425196851
 30
0.0
 11
22.74114173228346
 21
9.837598425196851
 31
0.0
  0
LINE
  5
43B6
330
1E
100
AcDbEntity
  8
3
100
AcDbLine
 10
22.56102362204724
 20
9.837598425196851
 30
0.0
 11
22.38090551181102
 21
9.837598425196851
 31
0.0
  0
LINE
  5
43B7
330
1E
100
AcDbEntity
  8
3
100
AcDbLine
 10
22.20374015748031
 20
9.837598425196851
 30
0.0
 11
22.02362204724409
 21
9.837598425196851
 31
0.0
  0
LINE
  5
43B8
330
1E
100
AcDbEntity
  8
3
100
AcDbLine
 10
21.84350393700787
 20
9.837598425196851
 30
0.0
 11
21.66633858267716
 21
9.837598425196851
 31
0.0
  0
LINE
  5
43B9
330
1E
100
AcDbEntity
  8
3
100
AcDbLine
 10
21.48622047244094
 20
9.837598425196851
 30
0.0
 11
21.30610236220472
 21
9.837598425196851
 31
0.0
  0
LINE
  5
43BA
330
1E
100
AcDbEntity
  8
3
100
AcDbLine
 10
21.12893700787401
 20
9.837598425196851
 30
0.0
 11
20.94881889763779
 21
9.837598425196851
 31
0.0
  0
LINE
  5
43BB
330
1E
100
AcDbEntity
  8
3
100
AcDbLine
 10
20.76870078740157
 20
9.837598425196851
 30
0.0
 11
20.59153543307086
 21
9.837598425196851
 31
0.0
  0
LINE
  5
43BC
330
1E
100
AcDbEntity
  8
3
100
AcDbLine
 10
20.41141732283464
 20
9.837598425196851
 30
0.0
 11
20.23129921259842
 21
9.837598425196851
 31
0.0
  0
LINE
  5
43BD
330
1E
100
AcDbEntity
  8
3
100
AcDbLine
 10
20.05413385826771
 20
9.837598425196851
 30
0.0
 11
19.87401574803149
 21
9.837598425196851
 31
0.0
  0
LINE
  5
43BE
330
1E
100
AcDbEntity
  8
3
100
AcDbLine
 10
19.69389763779527
 20
9.837598425196851
 30
0.0
 11
19.51673228346456
 21
9.837598425196851
 31
0.0
  0
LINE
  5
43BF
330
1E
100
AcDbEntity
  8
3
100
AcDbLine
 10
19.33661417322834
 20
9.837598425196851
 30
0.0
 11
19.15649606299212
 21
9.837598425196851
 31
0.0
  0
LINE
  5
43C0
330
1E
100
AcDbEntity
  8
3
100
AcDbLine
 10
18.9763779527559
 20
9.837598425196851
 30
0.0
 11
18.79921259842519
 21
9.837598425196851
 31
0.0
  0
LINE
  5
43C1
330
1E
100
AcDbEntity
  8
3
100
AcDbLine
 10
18.61909448818897
 20
9.837598425196851
 30
0.0
 11
18.43897637795275
 21
9.837598425196851
 31
0.0
  0
LINE
  5
43C2
330
1E
100
AcDbEntity
  8
3
100
AcDbLine
 10
18.26181102362204
 20
9.837598425196851
 30
0.0
 11
18.08169291338582
 21
9.837598425196851
 31
0.0
  0
LINE
  5
43C3
330
1E
100
AcDbEntity
  8
3
100
AcDbLine
 10
17.9015748031496
 20
9.837598425196851
 30
0.0
 11
17.72440944881889
 21
9.837598425196851
 31
0.0
  0
LINE
  5
43C4
330
1E
100
AcDbEntity
  8
3
100
AcDbLine
 10
17.54429133858267
 20
9.837598425196851
 30
0.0
 11
17.36417322834645
 21
9.837598425196851
 31
0.0
  0
LINE
  5
43C5
330
1E
100
AcDbEntity
  8
3
100
AcDbLine
 10
17.18700787401574
 20
9.837598425196851
 30
0.0
 11
17.00688976377952
 21
9.837598425196851
 31
0.0
  0
LINE
  5
43C6
330
1E
100
AcDbEntity
  8
3
100
AcDbLine
 10
16.8267716535433
 20
9.837598425196851
 30
0.0
 11
16.64960629921259
 21
9.837598425196851
 31
0.0
  0
LINE
  5
43C7
330
1E
100
AcDbEntity
  8
3
100
AcDbLine
 10
16.46948818897637
 20
9.837598425196851
 30
0.0
 11
16.28937007874015
 21
9.837598425196851
 31
0.0
  0
LINE
  5
43C8
330
1E
100
AcDbEntity
  8
3
100
AcDbLine
 10
16.11220472440944
 20
9.837598425196851
 30
0.0
 11
15.93208661417322
 21
9.837598425196851
 31
0.0
  0
LINE
  5
43C9
330
1E
100
AcDbEntity
  8
3
100
AcDbLine
 10
15.751968503937
 20
9.837598425196851
 30
0.0
 11
15.57185039370078
 21
9.837598425196851
 31
0.0
  0
LINE
  5
43CA
330
1E
100
AcDbEntity
  8
3
100
AcDbLine
 10
15.39468503937007
 20
9.837598425196851
 30
0.0
 11
15.21456692913385
 21
9.837598425196851
 31
0.0
  0
LINE
  5
43CB
330
1E
100
AcDbEntity
  8
3
100
AcDbLine
 10
15.03444881889763
 20
9.837598425196851
 30
0.0
 11
14.85728346456692
 21
9.837598425196851
 31
0.0
  0
LINE
  5
43CC
330
1E
100
AcDbEntity
  8
3
100
AcDbLine
 10
14.6771653543307
 20
9.837598425196851
 30
0.0
 11
14.49704724409448
 21
9.837598425196851
 31
0.0
  0
LINE
  5
43CD
330
1E
100
AcDbEntity
  8
3
100
AcDbLine
 10
14.31988188976377
 20
9.837598425196851
 30
0.0
 11
14.13976377952755
 21
9.837598425196851
 31
0.0
  0
LINE
  5
43CE
330
1E
100
AcDbEntity
  8
3
100
AcDbLine
 10
13.95964566929133
 20
9.837598425196851
 30
0.0
 11
13.78248031496062
 21
9.837598425196851
 31
0.0
  0
LINE
  5
43CF
330
1E
100
AcDbEntity
  8
3
100
AcDbLine
 10
13.6023622047244
 20
9.837598425196851
 30
0.0
 11
13.42224409448818
 21
9.837598425196851
 31
0.0
  0
LINE
  5
43D0
330
1E
100
AcDbEntity
  8
3
100
AcDbLine
 10
13.24507874015747
 20
9.837598425196851
 30
0.0
 11
13.06496062992126
 21
9.837598425196851
 31
0.0
  0
LINE
  5
43D1
330
1E
100
AcDbEntity
  8
3
100
AcDbLine
 10
12.88484251968503
 20
9.837598425196851
 30
0.0
 11
12.70767716535432
 21
9.837598425196851
 31
0.0
  0
LINE
  5
43D2
330
1E
100
AcDbEntity
  8
3
100
AcDbLine
 10
12.5275590551181
 20
9.837598425196851
 30
0.0
 11
12.34744094488188
 21
9.837598425196851
 31
0.0
  0
LINE
  5
43D3
330
1E
100
AcDbEntity
  8
3
100
AcDbLine
 10
12.17027559055117
 20
9.837598425196851
 30
0.0
 11
11.99015748031496
 21
9.837598425196851
 31
0.0
  0
LINE
  5
43D4
330
1E
100
AcDbEntity
  8
3
100
AcDbLine
 10
11.81003937007873
 20
9.837598425196851
 30
0.0
 11
11.62992125984251
 21
9.837598425196851
 31
0.0
  0
LINE
  5
43D5
330
1E
100
AcDbEntity
  8
3
100
AcDbLine
 10
11.4527559055118
 20
9.837598425196851
 30
0.0
 11
11.27263779527558
 21
9.837598425196851
 31
0.0
  0
LINE
  5
43D6
330
1E
100
AcDbEntity
  8
3
100
AcDbLine
 10
11.09251968503936
 20
9.837598425196851
 30
0.0
 11
10.91535433070865
 21
9.837598425196851
 31
0.0
  0
LINE
  5
43D7
330
1E
100
AcDbEntity
  8
3
100
AcDbLine
 10
10.73523622047243
 20
9.837598425196851
 30
0.0
 11
10.55511811023621
 21
9.837598425196851
 31
0.0
  0
LINE
  5
43D8
330
1E
100
AcDbEntity
  8
3
100
AcDbLine
 10
10.3779527559055
 20
9.837598425196851
 30
0.0
 11
10.19783464566929
 21
9.837598425196851
 31
0.0
  0
LINE
  5
43D9
330
1E
100
AcDbEntity
  8
3
100
AcDbLine
 10
10.01771653543306
 20
9.837598425196851
 30
0.0
 11
9.840551181102359
 21
9.837598425196851
 31
0.0
  0
LINE
  5
43DA
330
1E
100
AcDbEntity
  8
3
100
AcDbLine
 10
9.660433070866139
 20
9.837598425196851
 30
0.0
 11
9.480314960629918
 21
9.837598425196851
 31
0.0
  0
LINE
  5
43DB
330
1E
100
AcDbEntity
  8
3
100
AcDbLine
 10
9.303149606299211
 20
9.837598425196851
 30
0.0
 11
9.123031496062992
 21
9.837598425196851
 31
0.0
  0
LINE
  5
43DC
330
1E
100
AcDbEntity
  8
3
100
AcDbLine
 10
8.942913385826772
 20
9.837598425196851
 30
0.0
 11
8.765748031496061
 21
9.837598425196851
 31
0.0
  0
LINE
  5
43DD
330
1E
100
AcDbEntity
  8
3
100
AcDbLine
 10
8.585629921259842
 20
9.837598425196851
 30
0.0
 11
8.405511811023622
 21
9.837598425196851
 31
0.0
  0
LINE
  5
43DE
330
1E
100
AcDbEntity
  8
3
100
AcDbLine
 10
8.2253937007874
 20
9.837598425196851
 30
0.0
 11
8.048228346456692
 21
9.837598425196851
 31
0.0
  0
LINE
  5
43DF
330
1E
100
AcDbEntity
  8
3
100
AcDbLine
 10
7.868110236220473
 20
9.837598425196851
 30
0.0
 11
7.68799212598425
 21
9.837598425196851
 31
0.0
  0
LINE
  5
43E0
330
1E
100
AcDbEntity
  8
3
100
AcDbLine
 10
7.510826771653542
 20
9.837598425196851
 30
0.0
 11
7.330708661417324
 21
9.837598425196851
 31
0.0
  0
LINE
  5
43E1
330
1E
100
AcDbEntity
  8
3
100
AcDbLine
 10
7.150590551181102
 20
9.837598425196851
 30
0.0
 11
7.062007874015749
 21
9.837598425196851
 31
0.0
  0
LINE
  5
43F3
330
1E
100
AcDbEntity
  8
3
100
AcDbLine
 10
7.330708661417324
 20
9.837598425196851
 30
0.0
 11
7.510826771653542
 21
9.837598425196851
 31
0.0
  0
LINE
  5
43F4
330
1E
100
AcDbEntity
  8
3
100
AcDbLine
 10
7.68799212598425
 20
9.837598425196851
 30
0.0
 11
7.868110236220473
 21
9.837598425196851
 31
0.0
  0
LINE
  5
43F5
330
1E
100
AcDbEntity
  8
3
100
AcDbLine
 10
8.048228346456692
 20
9.837598425196851
 30
0.0
 11
8.2253937007874
 21
9.837598425196851
 31
0.0
  0
LINE
  5
43F6
330
1E
100
AcDbEntity
  8
3
100
AcDbLine
 10
8.405511811023622
 20
9.837598425196851
 30
0.0
 11
8.585629921259842
 21
9.837598425196851
 31
0.0
  0
LINE
  5
43F7
330
1E
100
AcDbEntity
  8
3
100
AcDbLine
 10
8.765748031496061
 20
9.837598425196851
 30
0.0
 11
8.942913385826772
 21
9.837598425196851
 31
0.0
  0
LINE
  5
43F8
330
1E
100
AcDbEntity
  8
3
100
AcDbLine
 10
9.123031496062992
 20
9.837598425196851
 30
0.0
 11
9.303149606299211
 21
9.837598425196851
 31
0.0
  0
LINE
  5
43F9
330
1E
100
AcDbEntity
  8
3
100
AcDbLine
 10
9.480314960629918
 20
9.837598425196851
 30
0.0
 11
9.660433070866139
 21
9.837598425196851
 31
0.0
  0
LINE
  5
43FA
330
1E
100
AcDbEntity
  8
3
100
AcDbLine
 10
9.840551181102359
 20
9.837598425196851
 30
0.0
 11
10.01771653543306
 21
9.837598425196851
 31
0.0
  0
LINE
  5
43FB
330
1E
100
AcDbEntity
  8
3
100
AcDbLine
 10
10.19783464566929
 20
9.837598425196851
 30
0.0
 11
10.3779527559055
 21
9.837598425196851
 31
0.0
  0
LINE
  5
43FC
330
1E
100
AcDbEntity
  8
3
100
AcDbLine
 10
10.55511811023621
 20
9.837598425196851
 30
0.0
 11
10.73523622047243
 21
9.837598425196851
 31
0.0
  0
LINE
  5
43FD
330
1E
100
AcDbEntity
  8
3
100
AcDbLine
 10
10.91535433070865
 20
9.837598425196851
 30
0.0
 11
11.09251968503936
 21
9.837598425196851
 31
0.0
  0
LINE
  5
43FE
330
1E
100
AcDbEntity
  8
3
100
AcDbLine
 10
11.27263779527558
 20
9.837598425196851
 30
0.0
 11
11.4527559055118
 21
9.837598425196851
 31
0.0
  0
LINE
  5
43FF
330
1E
100
AcDbEntity
  8
3
100
AcDbLine
 10
11.62992125984251
 20
9.837598425196851
 30
0.0
 11
11.81003937007873
 21
9.837598425196851
 31
0.0
  0
LINE
  5
4400
330
1E
100
AcDbEntity
  8
3
100
AcDbLine
 10
11.99015748031496
 20
9.837598425196851
 30
0.0
 11
12.17027559055117
 21
9.837598425196851
 31
0.0
  0
LINE
  5
4401
330
1E
100
AcDbEntity
  8
3
100
AcDbLine
 10
12.34744094488188
 20
9.837598425196851
 30
0.0
 11
12.5275590551181
 21
9.837598425196851
 31
0.0
  0
LINE
  5
4402
330
1E
100
AcDbEntity
  8
3
100
AcDbLine
 10
12.70767716535432
 20
9.837598425196851
 30
0.0
 11
12.88484251968503
 21
9.837598425196851
 31
0.0
  0
LINE
  5
4403
330
1E
100
AcDbEntity
  8
3
100
AcDbLine
 10
13.06496062992126
 20
9.837598425196851
 30
0.0
 11
13.24507874015747
 21
9.837598425196851
 31
0.0
  0
LINE
  5
4404
330
1E
100
AcDbEntity
  8
3
100
AcDbLine
 10
13.42224409448818
 20
9.837598425196851
 30
0.0
 11
13.6023622047244
 21
9.837598425196851
 31
0.0
  0
LINE
  5
4405
330
1E
100
AcDbEntity
  8
3
100
AcDbLine
 10
13.78248031496062
 20
9.837598425196851
 30
0.0
 11
13.95964566929133
 21
9.837598425196851
 31
0.0
  0
LINE
  5
4406
330
1E
100
AcDbEntity
  8
3
100
AcDbLine
 10
14.13976377952755
 20
9.837598425196851
 30
0.0
 11
14.31988188976377
 21
9.837598425196851
 31
0.0
  0
LINE
  5
4407
330
1E
100
AcDbEntity
  8
3
100
AcDbLine
 10
14.49704724409448
 20
9.837598425196851
 30
0.0
 11
14.6771653543307
 21
9.837598425196851
 31
0.0
  0
LINE
  5
4408
330
1E
100
AcDbEntity
  8
3
100
AcDbLine
 10
14.85728346456692
 20
9.837598425196851
 30
0.0
 11
15.03444881889763
 21
9.837598425196851
 31
0.0
  0
LINE
  5
4409
330
1E
100
AcDbEntity
  8
3
100
AcDbLine
 10
15.21456692913385
 20
9.837598425196851
 30
0.0
 11
15.39468503937007
 21
9.837598425196851
 31
0.0
  0
LINE
  5
440A
330
1E
100
AcDbEntity
  8
3
100
AcDbLine
 10
15.57185039370078
 20
9.837598425196851
 30
0.0
 11
15.751968503937
 21
9.837598425196851
 31
0.0
  0
LINE
  5
440B
330
1E
100
AcDbEntity
  8
3
100
AcDbLine
 10
15.93208661417322
 20
9.837598425196851
 30
0.0
 11
16.11220472440944
 21
9.837598425196851
 31
0.0
  0
LINE
  5
440C
330
1E
100
AcDbEntity
  8
3
100
AcDbLine
 10
16.28937007874015
 20
9.837598425196851
 30
0.0
 11
16.46948818897637
 21
9.837598425196851
 31
0.0
  0
LINE
  5
440D
330
1E
100
AcDbEntity
  8
3
100
AcDbLine
 10
16.64960629921259
 20
9.837598425196851
 30
0.0
 11
16.8267716535433
 21
9.837598425196851
 31
0.0
  0
LINE
  5
440E
330
1E
100
AcDbEntity
  8
3
100
AcDbLine
 10
17.00688976377952
 20
9.837598425196851
 30
0.0
 11
17.18700787401574
 21
9.837598425196851
 31
0.0
  0
LINE
  5
440F
330
1E
100
AcDbEntity
  8
3
100
AcDbLine
 10
17.36417322834645
 20
9.837598425196851
 30
0.0
 11
17.54429133858267
 21
9.837598425196851
 31
0.0
  0
LINE
  5
4410
330
1E
100
AcDbEntity
  8
3
100
AcDbLine
 10
17.72440944881889
 20
9.837598425196851
 30
0.0
 11
17.9015748031496
 21
9.837598425196851
 31
0.0
  0
LINE
  5
4411
330
1E
100
AcDbEntity
  8
3
100
AcDbLine
 10
18.08169291338582
 20
9.837598425196851
 30
0.0
 11
18.26181102362204
 21
9.837598425196851
 31
0.0
  0
LINE
  5
4412
330
1E
100
AcDbEntity
  8
3
100
AcDbLine
 10
18.43897637795275
 20
9.837598425196851
 30
0.0
 11
18.61909448818897
 21
9.837598425196851
 31
0.0
  0
LINE
  5
4413
330
1E
100
AcDbEntity
  8
3
100
AcDbLine
 10
18.79921259842519
 20
9.837598425196851
 30
0.0
 11
18.9763779527559
 21
9.837598425196851
 31
0.0
  0
LINE
  5
4414
330
1E
100
AcDbEntity
  8
3
100
AcDbLine
 10
19.15649606299212
 20
9.837598425196851
 30
0.0
 11
19.33661417322834
 21
9.837598425196851
 31
0.0
  0
LINE
  5
4415
330
1E
100
AcDbEntity
  8
3
100
AcDbLine
 10
19.51673228346456
 20
9.837598425196851
 30
0.0
 11
19.69389763779527
 21
9.837598425196851
 31
0.0
  0
LINE
  5
4416
330
1E
100
AcDbEntity
  8
3
100
AcDbLine
 10
19.87401574803149
 20
9.837598425196851
 30
0.0
 11
20.05413385826771
 21
9.837598425196851
 31
0.0
  0
LINE
  5
4417
330
1E
100
AcDbEntity
  8
3
100
AcDbLine
 10
20.23129921259842
 20
9.837598425196851
 30
0.0
 11
20.41141732283464
 21
9.837598425196851
 31
0.0
  0
LINE
  5
4418
330
1E
100
AcDbEntity
  8
3
100
AcDbLine
 10
20.59153543307086
 20
9.837598425196851
 30
0.0
 11
20.76870078740157
 21
9.837598425196851
 31
0.0
  0
LINE
  5
4419
330
1E
100
AcDbEntity
  8
3
100
AcDbLine
 10
20.94881889763779
 20
9.837598425196851
 30
0.0
 11
21.12893700787401
 21
9.837598425196851
 31
0.0
  0
LINE
  5
441A
330
1E
100
AcDbEntity
  8
3
100
AcDbLine
 10
21.30610236220472
 20
9.837598425196851
 30
0.0
 11
21.48622047244094
 21
9.837598425196851
 31
0.0
  0
LINE
  5
441B
330
1E
100
AcDbEntity
  8
3
100
AcDbLine
 10
21.66633858267716
 20
9.837598425196851
 30
0.0
 11
21.84350393700787
 21
9.837598425196851
 31
0.0
  0
LINE
  5
441C
330
1E
100
AcDbEntity
  8
3
100
AcDbLine
 10
22.02362204724409
 20
9.837598425196851
 30
0.0
 11
22.20374015748031
 21
9.837598425196851
 31
0.0
  0
LINE
  5
441D
330
1E
100
AcDbEntity
  8
3
100
AcDbLine
 10
22.38090551181102
 20
9.837598425196851
 30
0.0
 11
22.56102362204724
 21
9.837598425196851
 31
0.0
  0
LINE
  5
441E
330
1E
100
AcDbEntity
  8
3
100
AcDbLine
 10
22.74114173228346
 20
9.837598425196851
 30
0.0
 11
22.92125984251968
 21
9.837598425196851
 31
0.0
  0
LINE
  5
441F
330
1E
100
AcDbEntity
  8
3
100
AcDbLine
 10
23.09842519685039
 20
9.837598425196851
 30
0.0
 11
23.27854330708661
 21
9.837598425196851
 31
0.0
  0
LINE
  5
4420
330
1E
100
AcDbEntity
  8
3
100
AcDbLine
 10
23.45866141732283
 20
9.837598425196851
 30
0.0
 11
23.63582677165354
 21
9.837598425196851
 31
0.0
  0
LINE
  5
4421
330
1E
100
AcDbEntity
  8
3
100
AcDbLine
 10
23.81594488188976
 20
9.837598425196851
 30
0.0
 11
23.99606299212598
 21
9.837598425196851
 31
0.0
  0
LINE
  5
4422
330
1E
100
AcDbEntity
  8
3
100
AcDbLine
 10
24.17322834645669
 20
9.837598425196851
 30
0.0
 11
24.35334645669291
 21
9.837598425196851
 31
0.0
  0
LINE
  5
4428
330
1E
100
AcDbEntity
  8
3
100
AcDbLine
 10
7.062007874015749
 20
9.837598425196851
 30
0.0
 11
7.062007874015749
 21
9.896653543307085
 31
0.0
  0
LINE
  5
4429
330
1E
100
AcDbEntity
  8
3
100
AcDbLine
 10
7.124015748031496
 20
9.958661417322835
 30
0.0
 11
7.153543307086613
 21
9.958661417322835
 31
0.0
  0
LINE
  5
4434
330
1E
100
AcDbEntity
  8
3
100
AcDbLine
 10
24.53051181102361
 20
9.958661417322835
 30
0.0
 11
24.56003937007874
 21
9.958661417322835
 31
0.0
  0
LINE
  5
443A
330
1E
100
AcDbEntity
  8
3
100
AcDbLine
 10
24.46850393700787
 20
10.126968503937
 30
0.0
 11
24.46850393700787
 21
10.02066929133858
 31
0.0
  0
LINE
  5
4440
330
1E
100
AcDbEntity
  8
3
100
AcDbLine
 10
24.40354330708661
 20
10.18897637795275
 30
0.0
 11
7.280511811023622
 21
10.18897637795275
 31
0.0
  0
LINE
  5
4446
330
1E
100
AcDbEntity
  8
3
100
AcDbLine
 10
7.218503937007874
 20
10.02066929133858
 30
0.0
 11
7.218503937007874
 21
10.126968503937
 31
0.0
  0
LINE
  5
444C
330
1E
100
AcDbEntity
  8
3
100
AcDbLine
 10
7.599409448818898
 20
9.749015748031496
 30
0.0
 11
7.599409448818898
 21
9.763779527559057
 31
0.0
  0
LINE
  5
444D
330
1E
100
AcDbEntity
  8
3
100
AcDbLine
 10
7.599409448818898
 20
9.793307086614174
 30
0.0
 11
7.599409448818898
 21
9.808070866141735
 31
0.0
  0
LINE
  5
444E
330
1E
100
AcDbEntity
  8
3
100
AcDbLine
 10
11.14862204724409
 20
9.749015748031496
 30
0.0
 11
11.14862204724409
 21
9.763779527559057
 31
0.0
  0
LINE
  5
444F
330
1E
100
AcDbEntity
  8
3
100
AcDbLine
 10
11.14862204724409
 20
9.793307086614174
 30
0.0
 11
11.14862204724409
 21
9.808070866141735
 31
0.0
  0
LINE
  5
4450
330
1E
100
AcDbEntity
  8
3
100
AcDbLine
 10
11.91043307086613
 20
9.749015748031496
 30
0.0
 11
11.91043307086613
 21
9.763779527559057
 31
0.0
  0
LINE
  5
4451
330
1E
100
AcDbEntity
  8
3
100
AcDbLine
 10
11.91043307086613
 20
9.793307086614174
 30
0.0
 11
11.91043307086613
 21
9.808070866141735
 31
0.0
  0
LINE
  5
4452
330
1E
100
AcDbEntity
  8
3
100
AcDbLine
 10
15.45964566929133
 20
9.749015748031496
 30
0.0
 11
15.45964566929133
 21
9.763779527559057
 31
0.0
  0
LINE
  5
4453
330
1E
100
AcDbEntity
  8
3
100
AcDbLine
 10
15.45964566929133
 20
9.793307086614174
 30
0.0
 11
15.45964566929133
 21
9.808070866141735
 31
0.0
  0
LINE
  5
4454
330
1E
100
AcDbEntity
  8
3
100
AcDbLine
 10
16.22440944881889
 20
9.749015748031496
 30
0.0
 11
16.22440944881889
 21
9.763779527559057
 31
0.0
  0
LINE
  5
4455
330
1E
100
AcDbEntity
  8
3
100
AcDbLine
 10
16.22440944881889
 20
9.793307086614174
 30
0.0
 11
16.22440944881889
 21
9.808070866141735
 31
0.0
  0
LINE
  5
4456
330
1E
100
AcDbEntity
  8
3
100
AcDbLine
 10
19.77362204724409
 20
9.749015748031496
 30
0.0
 11
19.77362204724409
 21
9.763779527559057
 31
0.0
  0
LINE
  5
4457
330
1E
100
AcDbEntity
  8
3
100
AcDbLine
 10
19.77362204724409
 20
9.793307086614174
 30
0.0
 11
19.77362204724409
 21
9.808070866141735
 31
0.0
  0
LINE
  5
4458
330
1E
100
AcDbEntity
  8
3
100
AcDbLine
 10
20.53543307086613
 20
9.749015748031496
 30
0.0
 11
20.53543307086613
 21
9.763779527559057
 31
0.0
  0
LINE
  5
4459
330
1E
100
AcDbEntity
  8
3
100
AcDbLine
 10
20.53543307086613
 20
9.793307086614174
 30
0.0
 11
20.53543307086613
 21
9.808070866141735
 31
0.0
  0
LINE
  5
445A
330
1E
100
AcDbEntity
  8
3
100
AcDbLine
 10
24.08464566929133
 20
9.749015748031496
 30
0.0
 11
24.08464566929133
 21
9.763779527559057
 31
0.0
  0
LINE
  5
445B
330
1E
100
AcDbEntity
  8
3
100
AcDbLine
 10
24.08464566929133
 20
9.793307086614174
 30
0.0
 11
24.08464566929133
 21
9.808070866141735
 31
0.0
  0
LINE
  5
445C
330
1E
100
AcDbEntity
  8
3
100
AcDbLine
 10
6.746062992125985
 20
9.808070866141735
 30
0.0
 11
6.746062992125985
 21
9.793307086614174
 31
0.0
  0
LINE
  5
445D
330
1E
100
AcDbEntity
  8
3
100
AcDbLine
 10
6.746062992125985
 20
9.763779527559057
 30
0.0
 11
6.746062992125985
 21
9.749015748031496
 31
0.0
  0
LINE
  5
445E
330
1E
100
AcDbEntity
  8
3
100
AcDbLine
 10
6.746062992125985
 20
9.808070866141735
 30
0.0
 11
6.746062992125985
 21
9.793307086614174
 31
0.0
  0
LINE
  5
445F
330
1E
100
AcDbEntity
  8
3
100
AcDbLine
 10
6.746062992125985
 20
9.763779527559057
 30
0.0
 11
6.746062992125985
 21
9.749015748031496
 31
0.0
  0
LINE
  5
4460
330
1E
100
AcDbEntity
  8
3
100
AcDbLine
 10
24.93799212598425
 20
9.808070866141735
 30
0.0
 11
24.93799212598425
 21
9.793307086614174
 31
0.0
  0
LINE
  5
4461
330
1E
100
AcDbEntity
  8
3
100
AcDbLine
 10
24.93799212598425
 20
9.763779527559057
 30
0.0
 11
24.93799212598425
 21
9.749015748031496
 31
0.0
  0
LINE
  5
4462
330
1E
100
AcDbEntity
  8
3
100
AcDbLine
 10
24.93799212598425
 20
9.808070866141735
 30
0.0
 11
24.93799212598425
 21
9.793307086614174
 31
0.0
  0
LINE
  5
4463
330
1E
100
AcDbEntity
  8
3
100
AcDbLine
 10
24.93799212598425
 20
9.763779527559057
 30
0.0
 11
24.93799212598425
 21
9.749015748031496
 31
0.0
  0
LINE
  5
4464
330
1E
100
AcDbEntity
  8
3
100
AcDbLine
 10
6.746062992125985
 20
9.808070866141735
 30
0.0
 11
6.746062992125985
 21
9.793307086614174
 31
0.0
  0
LINE
  5
4465
330
1E
100
AcDbEntity
  8
3
100
AcDbLine
 10
6.746062992125985
 20
9.763779527559057
 30
0.0
 11
6.746062992125985
 21
9.749015748031496
 31
0.0
  0
LINE
  5
4466
330
1E
100
AcDbEntity
  8
3
100
AcDbLine
 10
6.627952755905512
 20
9.808070866141735
 30
0.0
 11
6.627952755905512
 21
9.793307086614174
 31
0.0
  0
LINE
  5
4467
330
1E
100
AcDbEntity
  8
3
100
AcDbLine
 10
6.627952755905512
 20
9.763779527559057
 30
0.0
 11
6.627952755905512
 21
9.749015748031496
 31
0.0
  0
LINE
  5
4468
330
1E
100
AcDbEntity
  8
3
100
AcDbLine
 10
6.627952755905512
 20
9.808070866141735
 30
0.0
 11
6.627952755905512
 21
9.793307086614174
 31
0.0
  0
LINE
  5
4469
330
1E
100
AcDbEntity
  8
3
100
AcDbLine
 10
6.627952755905512
 20
9.763779527559057
 30
0.0
 11
6.627952755905512
 21
9.749015748031496
 31
0.0
  0
LINE
  5
446A
330
1E
100
AcDbEntity
  8
3
100
AcDbLine
 10
6.746062992125985
 20
9.808070866141735
 30
0.0
 11
6.746062992125985
 21
9.793307086614174
 31
0.0
  0
LINE
  5
446B
330
1E
100
AcDbEntity
  8
3
100
AcDbLine
 10
6.746062992125985
 20
9.763779527559057
 30
0.0
 11
6.746062992125985
 21
9.749015748031496
 31
0.0
  0
LINE
  5
446C
330
1E
100
AcDbEntity
  8
3
100
AcDbLine
 10
6.746062992125985
 20
9.808070866141735
 30
0.0
 11
6.746062992125985
 21
9.793307086614174
 31
0.0
  0
LINE
  5
446D
330
1E
100
AcDbEntity
  8
3
100
AcDbLine
 10
6.746062992125985
 20
9.763779527559057
 30
0.0
 11
6.746062992125985
 21
9.749015748031496
 31
0.0
  0
LINE
  5
446E
330
1E
100
AcDbEntity
  8
3
100
AcDbLine
 10
6.627952755905512
 20
9.808070866141735
 30
0.0
 11
6.627952755905512
 21
9.793307086614174
 31
0.0
  0
LINE
  5
446F
330
1E
100
AcDbEntity
  8
3
100
AcDbLine
 10
6.627952755905512
 20
9.763779527559057
 30
0.0
 11
6.627952755905512
 21
9.749015748031496
 31
0.0
  0
LINE
  5
4470
330
1E
100
AcDbEntity
  8
3
100
AcDbLine
 10
6.627952755905512
 20
9.808070866141735
 30
0.0
 11
6.627952755905512
 21
9.793307086614174
 31
0.0
  0
LINE
  5
4471
330
1E
100
AcDbEntity
  8
3
100
AcDbLine
 10
6.627952755905512
 20
9.763779527559057
 30
0.0
 11
6.627952755905512
 21
9.749015748031496
 31
0.0
  0
LINE
  5
4472
330
1E
100
AcDbEntity
  8
3
100
AcDbLine
 10
6.746062992125985
 20
9.808070866141735
 30
0.0
 11
6.746062992125985
 21
9.793307086614174
 31
0.0
  0
LINE
  5
4473
330
1E
100
AcDbEntity
  8
3
100
AcDbLine
 10
6.746062992125985
 20
9.763779527559057
 30
0.0
 11
6.746062992125985
 21
9.749015748031496
 31
0.0
  0
LINE
  5
4474
330
1E
100
AcDbEntity
  8
3
100
AcDbLine
 10
25.05610236220472
 20
9.808070866141735
 30
0.0
 11
25.05610236220472
 21
9.793307086614174
 31
0.0
  0
LINE
  5
4475
330
1E
100
AcDbEntity
  8
3
100
AcDbLine
 10
25.05610236220472
 20
9.763779527559057
 30
0.0
 11
25.05610236220472
 21
9.749015748031496
 31
0.0
  0
LINE
  5
4476
330
1E
100
AcDbEntity
  8
3
100
AcDbLine
 10
24.93799212598425
 20
9.808070866141735
 30
0.0
 11
24.93799212598425
 21
9.793307086614174
 31
0.0
  0
LINE
  5
4477
330
1E
100
AcDbEntity
  8
3
100
AcDbLine
 10
24.93799212598425
 20
9.763779527559057
 30
0.0
 11
24.93799212598425
 21
9.749015748031496
 31
0.0
  0
LINE
  5
4478
330
1E
100
AcDbEntity
  8
3
100
AcDbLine
 10
24.93799212598425
 20
9.808070866141735
 30
0.0
 11
24.93799212598425
 21
9.793307086614174
 31
0.0
  0
LINE
  5
4479
330
1E
100
AcDbEntity
  8
3
100
AcDbLine
 10
24.93799212598425
 20
9.763779527559057
 30
0.0
 11
24.93799212598425
 21
9.749015748031496
 31
0.0
  0
LINE
  5
447A
330
1E
100
AcDbEntity
  8
3
100
AcDbLine
 10
25.05610236220472
 20
9.808070866141735
 30
0.0
 11
25.05610236220472
 21
9.793307086614174
 31
0.0
  0
LINE
  5
447B
330
1E
100
AcDbEntity
  8
3
100
AcDbLine
 10
25.05610236220472
 20
9.763779527559057
 30
0.0
 11
25.05610236220472
 21
9.749015748031496
 31
0.0
  0
LINE
  5
447C
330
1E
100
AcDbEntity
  8
3
100
AcDbLine
 10
25.05610236220472
 20
9.808070866141735
 30
0.0
 11
25.05610236220472
 21
9.793307086614174
 31
0.0
  0
LINE
  5
447D
330
1E
100
AcDbEntity
  8
3
100
AcDbLine
 10
25.05610236220472
 20
9.763779527559057
 30
0.0
 11
25.05610236220472
 21
9.749015748031496
 31
0.0
  0
LINE
  5
447E
330
1E
100
AcDbEntity
  8
3
100
AcDbLine
 10
24.93799212598425
 20
9.808070866141735
 30
0.0
 11
24.93799212598425
 21
9.793307086614174
 31
0.0
  0
LINE
  5
447F
330
1E
100
AcDbEntity
  8
3
100
AcDbLine
 10
24.93799212598425
 20
9.763779527559057
 30
0.0
 11
24.93799212598425
 21
9.749015748031496
 31
0.0
  0
LINE
  5
4480
330
1E
100
AcDbEntity
  8
3
100
AcDbLine
 10
24.93799212598425
 20
9.808070866141735
 30
0.0
 11
24.93799212598425
 21
9.793307086614174
 31
0.0
  0
LINE
  5
4481
330
1E
100
AcDbEntity
  8
3
100
AcDbLine
 10
24.93799212598425
 20
9.763779527559057
 30
0.0
 11
24.93799212598425
 21
9.749015748031496
 31
0.0
  0
LINE
  5
4482
330
1E
100
AcDbEntity
  8
3
100
AcDbLine
 10
25.05610236220472
 20
9.808070866141735
 30
0.0
 11
25.05610236220472
 21
9.793307086614174
 31
0.0
  0
LINE
  5
4483
330
1E
100
AcDbEntity
  8
3
100
AcDbLine
 10
25.05610236220472
 20
9.763779527559057
 30
0.0
 11
25.05610236220472
 21
9.749015748031496
 31
0.0
  0
LINE
  5
4484
330
1E
100
AcDbEntity
  8
3
100
AcDbLine
 10
6.746062992125985
 20
9.808070866141735
 30
0.0
 11
6.746062992125985
 21
9.793307086614174
 31
0.0
  0
LINE
  5
4485
330
1E
100
AcDbEntity
  8
3
100
AcDbLine
 10
6.746062992125985
 20
9.763779527559057
 30
0.0
 11
6.746062992125985
 21
9.749015748031496
 31
0.0
  0
LINE
  5
4486
330
1E
100
AcDbEntity
  8
3
100
AcDbLine
 10
6.627952755905512
 20
9.808070866141735
 30
0.0
 11
6.627952755905512
 21
9.793307086614174
 31
0.0
  0
LINE
  5
4487
330
1E
100
AcDbEntity
  8
3
100
AcDbLine
 10
6.627952755905512
 20
9.763779527559057
 30
0.0
 11
6.627952755905512
 21
9.749015748031496
 31
0.0
  0
LINE
  5
4488
330
1E
100
AcDbEntity
  8
3
100
AcDbLine
 10
6.627952755905512
 20
9.808070866141735
 30
0.0
 11
6.627952755905512
 21
9.793307086614174
 31
0.0
  0
LINE
  5
4489
330
1E
100
AcDbEntity
  8
3
100
AcDbLine
 10
6.627952755905512
 20
9.763779527559057
 30
0.0
 11
6.627952755905512
 21
9.749015748031496
 31
0.0
  0
LINE
  5
448A
330
1E
100
AcDbEntity
  8
3
100
AcDbLine
 10
6.746062992125985
 20
9.808070866141735
 30
0.0
 11
6.746062992125985
 21
9.793307086614174
 31
0.0
  0
LINE
  5
448B
330
1E
100
AcDbEntity
  8
3
100
AcDbLine
 10
6.746062992125985
 20
9.763779527559057
 30
0.0
 11
6.746062992125985
 21
9.749015748031496
 31
0.0
  0
LINE
  5
448C
330
1E
100
AcDbEntity
  8
3
100
AcDbLine
 10
6.746062992125985
 20
9.808070866141735
 30
0.0
 11
6.746062992125985
 21
9.793307086614174
 31
0.0
  0
LINE
  5
448D
330
1E
100
AcDbEntity
  8
3
100
AcDbLine
 10
6.746062992125985
 20
9.763779527559057
 30
0.0
 11
6.746062992125985
 21
9.749015748031496
 31
0.0
  0
LINE
  5
448E
330
1E
100
AcDbEntity
  8
3
100
AcDbLine
 10
6.627952755905512
 20
9.808070866141735
 30
0.0
 11
6.627952755905512
 21
9.793307086614174
 31
0.0
  0
LINE
  5
448F
330
1E
100
AcDbEntity
  8
3
100
AcDbLine
 10
6.627952755905512
 20
9.763779527559057
 30
0.0
 11
6.627952755905512
 21
9.749015748031496
 31
0.0
  0
LINE
  5
4490
330
1E
100
AcDbEntity
  8
3
100
AcDbLine
 10
6.627952755905512
 20
9.808070866141735
 30
0.0
 11
6.627952755905512
 21
9.793307086614174
 31
0.0
  0
LINE
  5
4491
330
1E
100
AcDbEntity
  8
3
100
AcDbLine
 10
6.627952755905512
 20
9.763779527559057
 30
0.0
 11
6.627952755905512
 21
9.749015748031496
 31
0.0
  0
LINE
  5
4492
330
1E
100
AcDbEntity
  8
3
100
AcDbLine
 10
6.746062992125985
 20
9.808070866141735
 30
0.0
 11
6.746062992125985
 21
9.793307086614174
 31
0.0
  0
LINE
  5
4493
330
1E
100
AcDbEntity
  8
3
100
AcDbLine
 10
6.746062992125985
 20
9.763779527559057
 30
0.0
 11
6.746062992125985
 21
9.749015748031496
 31
0.0
  0
LINE
  5
4494
330
1E
100
AcDbEntity
  8
3
100
AcDbLine
 10
25.05610236220472
 20
9.808070866141735
 30
0.0
 11
25.05610236220472
 21
9.793307086614174
 31
0.0
  0
LINE
  5
4495
330
1E
100
AcDbEntity
  8
3
100
AcDbLine
 10
25.05610236220472
 20
9.763779527559057
 30
0.0
 11
25.05610236220472
 21
9.749015748031496
 31
0.0
  0
LINE
  5
4496
330
1E
100
AcDbEntity
  8
3
100
AcDbLine
 10
24.93799212598425
 20
9.808070866141735
 30
0.0
 11
24.93799212598425
 21
9.793307086614174
 31
0.0
  0
LINE
  5
4497
330
1E
100
AcDbEntity
  8
3
100
AcDbLine
 10
24.93799212598425
 20
9.763779527559057
 30
0.0
 11
24.93799212598425
 21
9.749015748031496
 31
0.0
  0
LINE
  5
4498
330
1E
100
AcDbEntity
  8
3
100
AcDbLine
 10
24.93799212598425
 20
9.808070866141735
 30
0.0
 11
24.93799212598425
 21
9.793307086614174
 31
0.0
  0
LINE
  5
4499
330
1E
100
AcDbEntity
  8
3
100
AcDbLine
 10
24.93799212598425
 20
9.763779527559057
 30
0.0
 11
24.93799212598425
 21
9.749015748031496
 31
0.0
  0
LINE
  5
449A
330
1E
100
AcDbEntity
  8
3
100
AcDbLine
 10
25.05610236220472
 20
9.808070866141735
 30
0.0
 11
25.05610236220472
 21
9.793307086614174
 31
0.0
  0
LINE
  5
449B
330
1E
100
AcDbEntity
  8
3
100
AcDbLine
 10
25.05610236220472
 20
9.763779527559057
 30
0.0
 11
25.05610236220472
 21
9.749015748031496
 31
0.0
  0
LINE
  5
449C
330
1E
100
AcDbEntity
  8
3
100
AcDbLine
 10
25.05610236220472
 20
9.808070866141735
 30
0.0
 11
25.05610236220472
 21
9.793307086614174
 31
0.0
  0
LINE
  5
449D
330
1E
100
AcDbEntity
  8
3
100
AcDbLine
 10
25.05610236220472
 20
9.763779527559057
 30
0.0
 11
25.05610236220472
 21
9.749015748031496
 31
0.0
  0
LINE
  5
449E
330
1E
100
AcDbEntity
  8
3
100
AcDbLine
 10
24.93799212598425
 20
9.808070866141735
 30
0.0
 11
24.93799212598425
 21
9.793307086614174
 31
0.0
  0
LINE
  5
449F
330
1E
100
AcDbEntity
  8
3
100
AcDbLine
 10
24.93799212598425
 20
9.763779527559057
 30
0.0
 11
24.93799212598425
 21
9.749015748031496
 31
0.0
  0
LINE
  5
44A0
330
1E
100
AcDbEntity
  8
3
100
AcDbLine
 10
24.93799212598425
 20
9.808070866141735
 30
0.0
 11
24.93799212598425
 21
9.793307086614174
 31
0.0
  0
LINE
  5
44A1
330
1E
100
AcDbEntity
  8
3
100
AcDbLine
 10
24.93799212598425
 20
9.763779527559057
 30
0.0
 11
24.93799212598425
 21
9.749015748031496
 31
0.0
  0
LINE
  5
44A2
330
1E
100
AcDbEntity
  8
3
100
AcDbLine
 10
25.05610236220472
 20
9.808070866141735
 30
0.0
 11
25.05610236220472
 21
9.793307086614174
 31
0.0
  0
LINE
  5
44A3
330
1E
100
AcDbEntity
  8
3
100
AcDbLine
 10
25.05610236220472
 20
9.763779527559057
 30
0.0
 11
25.05610236220472
 21
9.749015748031496
 31
0.0
  0
LINE
  5
44A7
330
1E
100
AcDbEntity
  8
3
100
AcDbLine
 10
24.62204724409448
 20
9.837598425196851
 30
0.0
 11
7.062007874015749
 21
9.837598425196851
 31
0.0
  0
LINE
  5
44A8
330
1E
100
AcDbEntity
  8
3
100
AcDbLine
 10
7.062007874015749
 20
9.837598425196851
 30
0.0
 11
7.150590551181102
 21
9.837598425196851
 31
0.0
  0
LINE
  5
44A9
330
1E
100
AcDbEntity
  8
3
100
AcDbLine
 10
11.91043307086613
 20
4.543307086614174
 30
0.0
 11
15.45964566929133
 21
4.543307086614174
 31
0.0
  0
LINE
  5
44AA
330
1E
100
AcDbEntity
  8
3
100
AcDbLine
 10
15.45964566929133
 20
4.543307086614174
 30
0.0
 11
15.45964566929133
 21
1.744094488188978
 31
0.0
  0
LINE
  5
44AB
330
1E
100
AcDbEntity
  8
3
100
AcDbLine
 10
7.599409448818898
 20
4.543307086614174
 30
0.0
 11
11.14862204724409
 21
4.543307086614174
 31
0.0
  0
LINE
  5
44AC
330
1E
100
AcDbEntity
  8
3
100
AcDbLine
 10
11.14862204724409
 20
4.543307086614174
 30
0.0
 11
11.14862204724409
 21
1.744094488188978
 31
0.0
  0
LINE
  5
44F4
330
1E
100
AcDbEntity
  8
3
100
AcDbLine
 10
6.627952755905512
 20
1.78248031496063
 30
0.0
 11
6.568897637795275
 21
1.767716535433072
 31
0.0
  0
LINE
  5
44F5
330
1E
100
AcDbEntity
  8
3
100
AcDbLine
 10
6.568897637795275
 20
1.767716535433072
 30
0.0
 11
6.518700787401574
 21
1.729330708661418
 31
0.0
  0
LINE
  5
44F6
330
1E
100
AcDbEntity
  8
3
100
AcDbLine
 10
6.518700787401574
 20
1.729330708661418
 30
0.0
 11
6.492125984251968
 21
1.673228346456694
 31
0.0
  0
LINE
  5
44F7
330
1E
100
AcDbEntity
  8
3
100
AcDbLine
 10
6.492125984251968
 20
1.673228346456694
 30
0.0
 11
6.492125984251968
 21
1.614173228346457
 31
0.0
  0
LINE
  5
44F8
330
1E
100
AcDbEntity
  8
3
100
AcDbLine
 10
6.492125984251968
 20
1.614173228346457
 30
0.0
 11
6.518700787401574
 21
1.558070866141733
 31
0.0
  0
LINE
  5
44F9
330
1E
100
AcDbEntity
  8
3
100
AcDbLine
 10
6.518700787401574
 20
1.558070866141733
 30
0.0
 11
6.568897637795275
 21
1.519685039370079
 31
0.0
  0
LINE
  5
44FA
330
1E
100
AcDbEntity
  8
3
100
AcDbLine
 10
6.344488188976377
 20
1.469488188976379
 30
0.0
 11
6.362204724409449
 21
1.428149606299214
 31
0.0
  0
LINE
  5
44FB
330
1E
100
AcDbEntity
  8
3
100
AcDbLine
 10
6.362204724409449
 20
1.428149606299214
 30
0.0
 11
6.403543307086613
 21
1.410433070866143
 31
0.0
  0
LINE
  5
44FC
330
1E
100
AcDbEntity
  8
3
100
AcDbLine
 10
6.627952755905512
 20
3.031496062992126
 30
0.0
 11
6.568897637795275
 21
3.016732283464568
 31
0.0
  0
LINE
  5
44FD
330
1E
100
AcDbEntity
  8
3
100
AcDbLine
 10
6.568897637795275
 20
3.016732283464568
 30
0.0
 11
6.518700787401574
 21
2.978346456692912
 31
0.0
  0
LINE
  5
44FE
330
1E
100
AcDbEntity
  8
3
100
AcDbLine
 10
6.518700787401574
 20
2.978346456692912
 30
0.0
 11
6.492125984251968
 21
2.92224409448819
 31
0.0
  0
LINE
  5
44FF
330
1E
100
AcDbEntity
  8
3
100
AcDbLine
 10
6.492125984251968
 20
2.92224409448819
 30
0.0
 11
6.492125984251968
 21
2.863188976377954
 31
0.0
  0
LINE
  5
4500
330
1E
100
AcDbEntity
  8
3
100
AcDbLine
 10
6.492125984251968
 20
2.863188976377954
 30
0.0
 11
6.518700787401574
 21
2.807086614173229
 31
0.0
  0
LINE
  5
4501
330
1E
100
AcDbEntity
  8
3
100
AcDbLine
 10
6.518700787401574
 20
2.807086614173229
 30
0.0
 11
6.568897637795275
 21
2.768700787401574
 31
0.0
  0
LINE
  5
4502
330
1E
100
AcDbEntity
  8
3
100
AcDbLine
 10
6.518700787401574
 20
3.480314960629923
 30
0.0
 11
6.492125984251968
 21
3.424212598425196
 31
0.0
  0
LINE
  5
4503
330
1E
100
AcDbEntity
  8
3
100
AcDbLine
 10
6.492125984251968
 20
3.424212598425196
 30
0.0
 11
6.492125984251968
 21
3.365157480314962
 31
0.0
  0
LINE
  5
4504
330
1E
100
AcDbEntity
  8
3
100
AcDbLine
 10
6.492125984251968
 20
3.365157480314962
 30
0.0
 11
6.518700787401574
 21
3.309055118110237
 31
0.0
  0
LINE
  5
4505
330
1E
100
AcDbEntity
  8
3
100
AcDbLine
 10
6.518700787401574
 20
3.309055118110237
 30
0.0
 11
6.568897637795275
 21
3.270669291338585
 31
0.0
  0
LINE
  5
4506
330
1E
100
AcDbEntity
  8
3
100
AcDbLine
 10
6.568897637795275
 20
3.270669291338585
 30
0.0
 11
6.627952755905512
 21
3.255905511811024
 31
0.0
  0
LINE
  5
4507
330
1E
100
AcDbEntity
  8
3
100
AcDbLine
 10
6.627952755905512
 20
3.533464566929135
 30
0.0
 11
6.568897637795275
 21
3.518700787401574
 31
0.0
  0
LINE
  5
4508
330
1E
100
AcDbEntity
  8
3
100
AcDbLine
 10
6.568897637795275
 20
3.518700787401574
 30
0.0
 11
6.518700787401574
 21
3.480314960629923
 31
0.0
  0
LINE
  5
4509
330
1E
100
AcDbEntity
  8
3
100
AcDbLine
 10
6.746062992125985
 20
1.504921259842521
 30
0.0
 11
6.805118110236221
 21
1.519685039370079
 31
0.0
  0
LINE
  5
450A
330
1E
100
AcDbEntity
  8
3
100
AcDbLine
 10
6.805118110236221
 20
1.519685039370079
 30
0.0
 11
6.855314960629921
 21
1.558070866141733
 31
0.0
  0
LINE
  5
450B
330
1E
100
AcDbEntity
  8
3
100
AcDbLine
 10
6.855314960629921
 20
1.558070866141733
 30
0.0
 11
6.881889763779527
 21
1.614173228346457
 31
0.0
  0
LINE
  5
450C
330
1E
100
AcDbEntity
  8
3
100
AcDbLine
 10
6.881889763779527
 20
1.614173228346457
 30
0.0
 11
6.881889763779527
 21
1.673228346456694
 31
0.0
  0
LINE
  5
450D
330
1E
100
AcDbEntity
  8
3
100
AcDbLine
 10
6.881889763779527
 20
1.673228346456694
 30
0.0
 11
6.855314960629921
 21
1.729330708661418
 31
0.0
  0
LINE
  5
450E
330
1E
100
AcDbEntity
  8
3
100
AcDbLine
 10
7.062007874015749
 20
1.499015748031497
 30
0.0
 11
7.062007874015749
 21
1.451771653543308
 31
0.0
  0
LINE
  5
450F
330
1E
100
AcDbEntity
  8
3
100
AcDbLine
 10
7.062007874015749
 20
1.451771653543308
 30
0.0
 11
7.062007874015749
 21
1.419291338582678
 31
0.0
  0
LINE
  5
4510
330
1E
100
AcDbEntity
  8
3
100
AcDbLine
 10
7.062007874015749
 20
1.419291338582678
 30
0.0
 11
7.062007874015749
 21
1.40748031496063
 31
0.0
  0
LINE
  5
4511
330
1E
100
AcDbEntity
  8
3
100
AcDbLine
 10
7.062007874015749
 20
1.499015748031497
 30
0.0
 11
7.044291338582677
 21
1.540354330708662
 31
0.0
  0
LINE
  5
4512
330
1E
100
AcDbEntity
  8
3
100
AcDbLine
 10
7.044291338582677
 20
1.540354330708662
 30
0.0
 11
7.002952755905512
 21
1.558070866141733
 31
0.0
  0
LINE
  5
4513
330
1E
100
AcDbEntity
  8
3
100
AcDbLine
 10
7.002952755905512
 20
1.558070866141733
 30
0.0
 11
6.961614173228347
 21
1.540354330708662
 31
0.0
  0
LINE
  5
4514
330
1E
100
AcDbEntity
  8
3
100
AcDbLine
 10
6.961614173228347
 20
1.540354330708662
 30
0.0
 11
6.943897637795275
 21
1.499015748031497
 31
0.0
  0
LINE
  5
4515
330
1E
100
AcDbEntity
  8
3
100
AcDbLine
 10
6.855314960629921
 20
1.729330708661418
 30
0.0
 11
6.805118110236221
 21
1.767716535433072
 31
0.0
  0
LINE
  5
4516
330
1E
100
AcDbEntity
  8
3
100
AcDbLine
 10
6.805118110236221
 20
1.767716535433072
 30
0.0
 11
6.746062992125985
 21
1.78248031496063
 31
0.0
  0
LINE
  5
4517
330
1E
100
AcDbEntity
  8
3
100
AcDbLine
 10
7.442913385826773
 20
2.322834645669292
 30
0.0
 11
7.493110236220473
 21
2.346456692913386
 31
0.0
  0
LINE
  5
4518
330
1E
100
AcDbEntity
  8
3
100
AcDbLine
 10
7.493110236220473
 20
2.346456692913386
 30
0.0
 11
7.528543307086614
 21
2.390748031496064
 31
0.0
  0
LINE
  5
4519
330
1E
100
AcDbEntity
  8
3
100
AcDbLine
 10
7.528543307086614
 20
2.390748031496064
 30
0.0
 11
7.540354330708662
 21
2.443897637795276
 31
0.0
  0
LINE
  5
451A
330
1E
100
AcDbEntity
  8
3
100
AcDbLine
 10
7.540354330708662
 20
2.443897637795276
 30
0.0
 11
7.528543307086614
 21
2.497047244094489
 31
0.0
  0
LINE
  5
451B
330
1E
100
AcDbEntity
  8
3
100
AcDbLine
 10
7.528543307086614
 20
2.497047244094489
 30
0.0
 11
7.493110236220473
 21
2.541338582677167
 31
0.0
  0
LINE
  5
451C
330
1E
100
AcDbEntity
  8
3
100
AcDbLine
 10
7.493110236220473
 20
2.541338582677167
 30
0.0
 11
7.442913385826773
 21
2.564960629921261
 31
0.0
  0
LINE
  5
451D
330
1E
100
AcDbEntity
  8
3
100
AcDbLine
 10
7.442913385826773
 20
2.564960629921261
 30
0.0
 11
7.38976377952756
 21
2.564960629921261
 31
0.0
  0
LINE
  5
451E
330
1E
100
AcDbEntity
  8
3
100
AcDbLine
 10
7.38976377952756
 20
2.564960629921261
 30
0.0
 11
7.339566929133858
 21
2.541338582677167
 31
0.0
  0
LINE
  5
451F
330
1E
100
AcDbEntity
  8
3
100
AcDbLine
 10
7.339566929133858
 20
2.541338582677167
 30
0.0
 11
7.304133858267716
 21
2.497047244094489
 31
0.0
  0
LINE
  5
4520
330
1E
100
AcDbEntity
  8
3
100
AcDbLine
 10
7.304133858267716
 20
2.497047244094489
 30
0.0
 11
7.292322834645669
 21
2.443897637795276
 31
0.0
  0
LINE
  5
4521
330
1E
100
AcDbEntity
  8
3
100
AcDbLine
 10
7.292322834645669
 20
2.443897637795276
 30
0.0
 11
7.304133858267716
 21
2.390748031496064
 31
0.0
  0
LINE
  5
4522
330
1E
100
AcDbEntity
  8
3
100
AcDbLine
 10
7.304133858267716
 20
2.390748031496064
 30
0.0
 11
7.339566929133858
 21
2.346456692913386
 31
0.0
  0
LINE
  5
4523
330
1E
100
AcDbEntity
  8
3
100
AcDbLine
 10
7.339566929133858
 20
2.346456692913386
 30
0.0
 11
7.38976377952756
 21
2.322834645669292
 31
0.0
  0
LINE
  5
4524
330
1E
100
AcDbEntity
  8
3
100
AcDbLine
 10
7.38976377952756
 20
2.322834645669292
 30
0.0
 11
7.442913385826773
 21
2.322834645669292
 31
0.0
  0
LINE
  5
4525
330
1E
100
AcDbEntity
  8
3
100
AcDbLine
 10
6.746062992125985
 20
2.125000000000001
 30
0.0
 11
6.808070866141732
 21
2.13976377952756
 31
0.0
  0
LINE
  5
4526
330
1E
100
AcDbEntity
  8
3
100
AcDbLine
 10
6.808070866141732
 20
2.13976377952756
 30
0.0
 11
6.858267716535433
 21
2.178149606299214
 31
0.0
  0
LINE
  5
4527
330
1E
100
AcDbEntity
  8
3
100
AcDbLine
 10
6.858267716535433
 20
2.178149606299214
 30
0.0
 11
6.887795275590551
 21
2.23720472440945
 31
0.0
  0
LINE
  5
4528
330
1E
100
AcDbEntity
  8
3
100
AcDbLine
 10
6.887795275590551
 20
2.23720472440945
 30
0.0
 11
6.887795275590551
 21
2.30216535433071
 31
0.0
  0
LINE
  5
4529
330
1E
100
AcDbEntity
  8
3
100
AcDbLine
 10
6.887795275590551
 20
2.30216535433071
 30
0.0
 11
6.858267716535433
 21
2.361220472440946
 31
0.0
  0
LINE
  5
452A
330
1E
100
AcDbEntity
  8
3
100
AcDbLine
 10
6.858267716535433
 20
2.361220472440946
 30
0.0
 11
6.808070866141732
 21
2.399606299212599
 31
0.0
  0
LINE
  5
452B
330
1E
100
AcDbEntity
  8
3
100
AcDbLine
 10
6.808070866141732
 20
2.399606299212599
 30
0.0
 11
6.746062992125985
 21
2.414370078740158
 31
0.0
  0
LINE
  5
452C
330
1E
100
AcDbEntity
  8
3
100
AcDbLine
 10
6.855314960629921
 20
2.978346456692912
 30
0.0
 11
6.805118110236221
 21
3.016732283464568
 31
0.0
  0
LINE
  5
452D
330
1E
100
AcDbEntity
  8
3
100
AcDbLine
 10
6.805118110236221
 20
3.016732283464568
 30
0.0
 11
6.746062992125985
 21
3.031496062992126
 31
0.0
  0
LINE
  5
452E
330
1E
100
AcDbEntity
  8
3
100
AcDbLine
 10
6.746062992125985
 20
2.753937007874018
 30
0.0
 11
6.805118110236221
 21
2.768700787401574
 31
0.0
  0
LINE
  5
452F
330
1E
100
AcDbEntity
  8
3
100
AcDbLine
 10
6.805118110236221
 20
2.768700787401574
 30
0.0
 11
6.855314960629921
 21
2.807086614173229
 31
0.0
  0
LINE
  5
4530
330
1E
100
AcDbEntity
  8
3
100
AcDbLine
 10
6.855314960629921
 20
2.807086614173229
 30
0.0
 11
6.881889763779527
 21
2.863188976377954
 31
0.0
  0
LINE
  5
4531
330
1E
100
AcDbEntity
  8
3
100
AcDbLine
 10
6.881889763779527
 20
2.863188976377954
 30
0.0
 11
6.881889763779527
 21
2.92224409448819
 31
0.0
  0
LINE
  5
4532
330
1E
100
AcDbEntity
  8
3
100
AcDbLine
 10
6.881889763779527
 20
2.92224409448819
 30
0.0
 11
6.855314960629921
 21
2.978346456692912
 31
0.0
  0
LINE
  5
4533
330
1E
100
AcDbEntity
  8
3
100
AcDbLine
 10
7.292322834645669
 20
3.843503937007874
 30
0.0
 11
7.304133858267716
 21
3.790354330708662
 31
0.0
  0
LINE
  5
4534
330
1E
100
AcDbEntity
  8
3
100
AcDbLine
 10
7.304133858267716
 20
3.790354330708662
 30
0.0
 11
7.339566929133858
 21
3.746062992125985
 31
0.0
  0
LINE
  5
4535
330
1E
100
AcDbEntity
  8
3
100
AcDbLine
 10
7.339566929133858
 20
3.746062992125985
 30
0.0
 11
7.38976377952756
 21
3.72244094488189
 31
0.0
  0
LINE
  5
4536
330
1E
100
AcDbEntity
  8
3
100
AcDbLine
 10
7.38976377952756
 20
3.72244094488189
 30
0.0
 11
7.442913385826773
 21
3.72244094488189
 31
0.0
  0
LINE
  5
4537
330
1E
100
AcDbEntity
  8
3
100
AcDbLine
 10
7.442913385826773
 20
3.72244094488189
 30
0.0
 11
7.493110236220473
 21
3.746062992125985
 31
0.0
  0
LINE
  5
4538
330
1E
100
AcDbEntity
  8
3
100
AcDbLine
 10
7.493110236220473
 20
3.746062992125985
 30
0.0
 11
7.528543307086614
 21
3.790354330708662
 31
0.0
  0
LINE
  5
4539
330
1E
100
AcDbEntity
  8
3
100
AcDbLine
 10
7.528543307086614
 20
3.790354330708662
 30
0.0
 11
7.540354330708662
 21
3.843503937007874
 31
0.0
  0
LINE
  5
453A
330
1E
100
AcDbEntity
  8
3
100
AcDbLine
 10
7.540354330708662
 20
3.843503937007874
 30
0.0
 11
7.528543307086614
 21
3.896653543307085
 31
0.0
  0
LINE
  5
453B
330
1E
100
AcDbEntity
  8
3
100
AcDbLine
 10
7.528543307086614
 20
3.896653543307085
 30
0.0
 11
7.493110236220473
 21
3.940944881889762
 31
0.0
  0
LINE
  5
453C
330
1E
100
AcDbEntity
  8
3
100
AcDbLine
 10
7.493110236220473
 20
3.940944881889762
 30
0.0
 11
7.442913385826773
 21
3.964566929133857
 31
0.0
  0
LINE
  5
453D
330
1E
100
AcDbEntity
  8
3
100
AcDbLine
 10
7.442913385826773
 20
3.964566929133857
 30
0.0
 11
7.38976377952756
 21
3.964566929133857
 31
0.0
  0
LINE
  5
453E
330
1E
100
AcDbEntity
  8
3
100
AcDbLine
 10
7.38976377952756
 20
3.964566929133857
 30
0.0
 11
7.339566929133858
 21
3.940944881889762
 31
0.0
  0
LINE
  5
453F
330
1E
100
AcDbEntity
  8
3
100
AcDbLine
 10
6.746062992125985
 20
3.255905511811024
 30
0.0
 11
6.805118110236221
 21
3.270669291338585
 31
0.0
  0
LINE
  5
4540
330
1E
100
AcDbEntity
  8
3
100
AcDbLine
 10
6.805118110236221
 20
3.270669291338585
 30
0.0
 11
6.855314960629921
 21
3.309055118110237
 31
0.0
  0
LINE
  5
4541
330
1E
100
AcDbEntity
  8
3
100
AcDbLine
 10
6.855314960629921
 20
3.309055118110237
 30
0.0
 11
6.881889763779527
 21
3.365157480314962
 31
0.0
  0
LINE
  5
4542
330
1E
100
AcDbEntity
  8
3
100
AcDbLine
 10
6.881889763779527
 20
3.365157480314962
 30
0.0
 11
6.881889763779527
 21
3.424212598425196
 31
0.0
  0
LINE
  5
4543
330
1E
100
AcDbEntity
  8
3
100
AcDbLine
 10
6.881889763779527
 20
3.424212598425196
 30
0.0
 11
6.855314960629921
 21
3.480314960629923
 31
0.0
  0
LINE
  5
4544
330
1E
100
AcDbEntity
  8
3
100
AcDbLine
 10
6.855314960629921
 20
3.480314960629923
 30
0.0
 11
6.805118110236221
 21
3.518700787401574
 31
0.0
  0
LINE
  5
4545
330
1E
100
AcDbEntity
  8
3
100
AcDbLine
 10
6.805118110236221
 20
3.518700787401574
 30
0.0
 11
6.746062992125985
 21
3.533464566929135
 31
0.0
  0
LINE
  5
4546
330
1E
100
AcDbEntity
  8
3
100
AcDbLine
 10
6.746062992125985
 20
3.87303149606299
 30
0.0
 11
6.808070866141732
 21
3.887795275590551
 31
0.0
  0
LINE
  5
4547
330
1E
100
AcDbEntity
  8
3
100
AcDbLine
 10
6.808070866141732
 20
3.887795275590551
 30
0.0
 11
6.858267716535433
 21
3.926181102362207
 31
0.0
  0
LINE
  5
4548
330
1E
100
AcDbEntity
  8
3
100
AcDbLine
 10
6.858267716535433
 20
3.926181102362207
 30
0.0
 11
6.887795275590551
 21
3.98523622047244
 31
0.0
  0
LINE
  5
4549
330
1E
100
AcDbEntity
  8
3
100
AcDbLine
 10
6.887795275590551
 20
3.98523622047244
 30
0.0
 11
6.887795275590551
 21
4.050196850393701
 31
0.0
  0
LINE
  5
454A
330
1E
100
AcDbEntity
  8
3
100
AcDbLine
 10
6.887795275590551
 20
4.050196850393701
 30
0.0
 11
6.858267716535433
 21
4.10925196850394
 31
0.0
  0
LINE
  5
454B
330
1E
100
AcDbEntity
  8
3
100
AcDbLine
 10
6.858267716535433
 20
4.10925196850394
 30
0.0
 11
6.808070866141732
 21
4.14763779527559
 31
0.0
  0
LINE
  5
454C
330
1E
100
AcDbEntity
  8
3
100
AcDbLine
 10
6.808070866141732
 20
4.14763779527559
 30
0.0
 11
6.746062992125985
 21
4.162401574803151
 31
0.0
  0
LINE
  5
454D
330
1E
100
AcDbEntity
  8
3
100
AcDbLine
 10
7.339566929133858
 20
3.940944881889762
 30
0.0
 11
7.304133858267716
 21
3.896653543307085
 31
0.0
  0
LINE
  5
454E
330
1E
100
AcDbEntity
  8
3
100
AcDbLine
 10
7.304133858267716
 20
3.896653543307085
 30
0.0
 11
7.292322834645669
 21
3.843503937007874
 31
0.0
  0
LINE
  5
454F
330
1E
100
AcDbEntity
  8
3
100
AcDbLine
 10
11.70374015748031
 20
2.564960629921261
 30
0.0
 11
11.65354330708661
 21
2.541338582677167
 31
0.0
  0
LINE
  5
4550
330
1E
100
AcDbEntity
  8
3
100
AcDbLine
 10
11.65354330708661
 20
2.541338582677167
 30
0.0
 11
11.61811023622047
 21
2.497047244094489
 31
0.0
  0
LINE
  5
4551
330
1E
100
AcDbEntity
  8
3
100
AcDbLine
 10
11.61811023622047
 20
2.497047244094489
 30
0.0
 11
11.60629921259842
 21
2.443897637795276
 31
0.0
  0
LINE
  5
4552
330
1E
100
AcDbEntity
  8
3
100
AcDbLine
 10
11.60629921259842
 20
2.443897637795276
 30
0.0
 11
11.61811023622047
 21
2.390748031496064
 31
0.0
  0
LINE
  5
4553
330
1E
100
AcDbEntity
  8
3
100
AcDbLine
 10
11.61811023622047
 20
2.390748031496064
 30
0.0
 11
11.65354330708661
 21
2.346456692913386
 31
0.0
  0
LINE
  5
4554
330
1E
100
AcDbEntity
  8
3
100
AcDbLine
 10
11.65354330708661
 20
2.346456692913386
 30
0.0
 11
11.70374015748031
 21
2.322834645669292
 31
0.0
  0
LINE
  5
4555
330
1E
100
AcDbEntity
  8
3
100
AcDbLine
 10
11.70374015748031
 20
2.322834645669292
 30
0.0
 11
11.75688976377952
 21
2.322834645669292
 31
0.0
  0
LINE
  5
4556
330
1E
100
AcDbEntity
  8
3
100
AcDbLine
 10
11.75688976377952
 20
2.322834645669292
 30
0.0
 11
11.80708661417322
 21
2.346456692913386
 31
0.0
  0
LINE
  5
4557
330
1E
100
AcDbEntity
  8
3
100
AcDbLine
 10
11.80708661417322
 20
2.346456692913386
 30
0.0
 11
11.84251968503936
 21
2.390748031496064
 31
0.0
  0
LINE
  5
4558
330
1E
100
AcDbEntity
  8
3
100
AcDbLine
 10
11.84251968503936
 20
2.390748031496064
 30
0.0
 11
11.85433070866141
 21
2.443897637795276
 31
0.0
  0
LINE
  5
4559
330
1E
100
AcDbEntity
  8
3
100
AcDbLine
 10
11.85433070866141
 20
2.443897637795276
 30
0.0
 11
11.84251968503936
 21
2.497047244094489
 31
0.0
  0
LINE
  5
455A
330
1E
100
AcDbEntity
  8
3
100
AcDbLine
 10
11.84251968503936
 20
2.497047244094489
 30
0.0
 11
11.80708661417322
 21
2.541338582677167
 31
0.0
  0
LINE
  5
455B
330
1E
100
AcDbEntity
  8
3
100
AcDbLine
 10
11.80708661417322
 20
2.541338582677167
 30
0.0
 11
11.75688976377952
 21
2.564960629921261
 31
0.0
  0
LINE
  5
455C
330
1E
100
AcDbEntity
  8
3
100
AcDbLine
 10
11.75688976377952
 20
2.564960629921261
 30
0.0
 11
11.70374015748031
 21
2.564960629921261
 31
0.0
  0
LINE
  5
455D
330
1E
100
AcDbEntity
  8
3
100
AcDbLine
 10
11.45570866141731
 20
2.443897637795276
 30
0.0
 11
11.44389763779527
 21
2.497047244094489
 31
0.0
  0
LINE
  5
455E
330
1E
100
AcDbEntity
  8
3
100
AcDbLine
 10
11.44389763779527
 20
2.497047244094489
 30
0.0
 11
11.40846456692913
 21
2.541338582677167
 31
0.0
  0
LINE
  5
455F
330
1E
100
AcDbEntity
  8
3
100
AcDbLine
 10
11.40846456692913
 20
2.541338582677167
 30
0.0
 11
11.35826771653543
 21
2.564960629921261
 31
0.0
  0
LINE
  5
4560
330
1E
100
AcDbEntity
  8
3
100
AcDbLine
 10
11.35826771653543
 20
2.564960629921261
 30
0.0
 11
11.30511811023621
 21
2.564960629921261
 31
0.0
  0
LINE
  5
4561
330
1E
100
AcDbEntity
  8
3
100
AcDbLine
 10
11.30511811023621
 20
2.564960629921261
 30
0.0
 11
11.25492125984251
 21
2.541338582677167
 31
0.0
  0
LINE
  5
4562
330
1E
100
AcDbEntity
  8
3
100
AcDbLine
 10
11.25492125984251
 20
2.541338582677167
 30
0.0
 11
11.21948818897637
 21
2.497047244094489
 31
0.0
  0
LINE
  5
4563
330
1E
100
AcDbEntity
  8
3
100
AcDbLine
 10
11.21948818897637
 20
2.497047244094489
 30
0.0
 11
11.20767716535432
 21
2.443897637795276
 31
0.0
  0
LINE
  5
4564
330
1E
100
AcDbEntity
  8
3
100
AcDbLine
 10
11.20767716535432
 20
2.443897637795276
 30
0.0
 11
11.21948818897637
 21
2.390748031496064
 31
0.0
  0
LINE
  5
4565
330
1E
100
AcDbEntity
  8
3
100
AcDbLine
 10
11.21948818897637
 20
2.390748031496064
 30
0.0
 11
11.25492125984251
 21
2.346456692913386
 31
0.0
  0
LINE
  5
4566
330
1E
100
AcDbEntity
  8
3
100
AcDbLine
 10
11.25492125984251
 20
2.346456692913386
 30
0.0
 11
11.30511811023621
 21
2.322834645669292
 31
0.0
  0
LINE
  5
4567
330
1E
100
AcDbEntity
  8
3
100
AcDbLine
 10
11.30511811023621
 20
2.322834645669292
 30
0.0
 11
11.35826771653543
 21
2.322834645669292
 31
0.0
  0
LINE
  5
4568
330
1E
100
AcDbEntity
  8
3
100
AcDbLine
 10
11.35826771653543
 20
2.322834645669292
 30
0.0
 11
11.40846456692913
 21
2.346456692913386
 31
0.0
  0
LINE
  5
4569
330
1E
100
AcDbEntity
  8
3
100
AcDbLine
 10
11.40846456692913
 20
2.346456692913386
 30
0.0
 11
11.44389763779527
 21
2.390748031496064
 31
0.0
  0
LINE
  5
456A
330
1E
100
AcDbEntity
  8
3
100
AcDbLine
 10
11.44389763779527
 20
2.390748031496064
 30
0.0
 11
11.45570866141731
 21
2.443897637795276
 31
0.0
  0
LINE
  5
456B
330
1E
100
AcDbEntity
  8
3
100
AcDbLine
 10
11.61811023622047
 20
3.790354330708662
 30
0.0
 11
11.65354330708661
 21
3.746062992125985
 31
0.0
  0
LINE
  5
456C
330
1E
100
AcDbEntity
  8
3
100
AcDbLine
 10
11.65354330708661
 20
3.746062992125985
 30
0.0
 11
11.70374015748031
 21
3.72244094488189
 31
0.0
  0
LINE
  5
456D
330
1E
100
AcDbEntity
  8
3
100
AcDbLine
 10
11.70374015748031
 20
3.72244094488189
 30
0.0
 11
11.75688976377952
 21
3.72244094488189
 31
0.0
  0
LINE
  5
456E
330
1E
100
AcDbEntity
  8
3
100
AcDbLine
 10
11.75688976377952
 20
3.72244094488189
 30
0.0
 11
11.80708661417322
 21
3.746062992125985
 31
0.0
  0
LINE
  5
456F
330
1E
100
AcDbEntity
  8
3
100
AcDbLine
 10
11.80708661417322
 20
3.746062992125985
 30
0.0
 11
11.84251968503936
 21
3.790354330708662
 31
0.0
  0
LINE
  5
4570
330
1E
100
AcDbEntity
  8
3
100
AcDbLine
 10
11.84251968503936
 20
3.790354330708662
 30
0.0
 11
11.85433070866141
 21
3.843503937007874
 31
0.0
  0
LINE
  5
4571
330
1E
100
AcDbEntity
  8
3
100
AcDbLine
 10
11.85433070866141
 20
3.843503937007874
 30
0.0
 11
11.84251968503936
 21
3.896653543307085
 31
0.0
  0
LINE
  5
4572
330
1E
100
AcDbEntity
  8
3
100
AcDbLine
 10
11.84251968503936
 20
3.896653543307085
 30
0.0
 11
11.80708661417322
 21
3.940944881889762
 31
0.0
  0
LINE
  5
4573
330
1E
100
AcDbEntity
  8
3
100
AcDbLine
 10
11.80708661417322
 20
3.940944881889762
 30
0.0
 11
11.75688976377952
 21
3.964566929133857
 31
0.0
  0
LINE
  5
4574
330
1E
100
AcDbEntity
  8
3
100
AcDbLine
 10
11.75688976377952
 20
3.964566929133857
 30
0.0
 11
11.70374015748031
 21
3.964566929133857
 31
0.0
  0
LINE
  5
4575
330
1E
100
AcDbEntity
  8
3
100
AcDbLine
 10
11.70374015748031
 20
3.964566929133857
 30
0.0
 11
11.65354330708661
 21
3.940944881889762
 31
0.0
  0
LINE
  5
4576
330
1E
100
AcDbEntity
  8
3
100
AcDbLine
 10
11.65354330708661
 20
3.940944881889762
 30
0.0
 11
11.61811023622047
 21
3.896653543307085
 31
0.0
  0
LINE
  5
4577
330
1E
100
AcDbEntity
  8
3
100
AcDbLine
 10
11.61811023622047
 20
3.896653543307085
 30
0.0
 11
11.60629921259842
 21
3.843503937007874
 31
0.0
  0
LINE
  5
4578
330
1E
100
AcDbEntity
  8
3
100
AcDbLine
 10
11.20767716535432
 20
3.843503937007874
 30
0.0
 11
11.21948818897637
 21
3.790354330708662
 31
0.0
  0
LINE
  5
4579
330
1E
100
AcDbEntity
  8
3
100
AcDbLine
 10
11.21948818897637
 20
3.790354330708662
 30
0.0
 11
11.25492125984251
 21
3.746062992125985
 31
0.0
  0
LINE
  5
457A
330
1E
100
AcDbEntity
  8
3
100
AcDbLine
 10
11.25492125984251
 20
3.746062992125985
 30
0.0
 11
11.30511811023621
 21
3.72244094488189
 31
0.0
  0
LINE
  5
457B
330
1E
100
AcDbEntity
  8
3
100
AcDbLine
 10
11.30511811023621
 20
3.72244094488189
 30
0.0
 11
11.35826771653543
 21
3.72244094488189
 31
0.0
  0
LINE
  5
457C
330
1E
100
AcDbEntity
  8
3
100
AcDbLine
 10
11.35826771653543
 20
3.72244094488189
 30
0.0
 11
11.40846456692913
 21
3.746062992125985
 31
0.0
  0
LINE
  5
457D
330
1E
100
AcDbEntity
  8
3
100
AcDbLine
 10
11.40846456692913
 20
3.746062992125985
 30
0.0
 11
11.44389763779527
 21
3.790354330708662
 31
0.0
  0
LINE
  5
457E
330
1E
100
AcDbEntity
  8
3
100
AcDbLine
 10
11.44389763779527
 20
3.790354330708662
 30
0.0
 11
11.45570866141731
 21
3.843503937007874
 31
0.0
  0
LINE
  5
457F
330
1E
100
AcDbEntity
  8
3
100
AcDbLine
 10
11.45570866141731
 20
3.843503937007874
 30
0.0
 11
11.44389763779527
 21
3.896653543307085
 31
0.0
  0
LINE
  5
4580
330
1E
100
AcDbEntity
  8
3
100
AcDbLine
 10
11.44389763779527
 20
3.896653543307085
 30
0.0
 11
11.40846456692913
 21
3.940944881889762
 31
0.0
  0
LINE
  5
4581
330
1E
100
AcDbEntity
  8
3
100
AcDbLine
 10
11.40846456692913
 20
3.940944881889762
 30
0.0
 11
11.35826771653543
 21
3.964566929133857
 31
0.0
  0
LINE
  5
4582
330
1E
100
AcDbEntity
  8
3
100
AcDbLine
 10
11.35826771653543
 20
3.964566929133857
 30
0.0
 11
11.30511811023621
 21
3.964566929133857
 31
0.0
  0
LINE
  5
4583
330
1E
100
AcDbEntity
  8
3
100
AcDbLine
 10
11.30511811023621
 20
3.964566929133857
 30
0.0
 11
11.25492125984251
 21
3.940944881889762
 31
0.0
  0
LINE
  5
4584
330
1E
100
AcDbEntity
  8
3
100
AcDbLine
 10
11.25492125984251
 20
3.940944881889762
 30
0.0
 11
11.21948818897637
 21
3.896653543307085
 31
0.0
  0
LINE
  5
4585
330
1E
100
AcDbEntity
  8
3
100
AcDbLine
 10
11.21948818897637
 20
3.896653543307085
 30
0.0
 11
11.20767716535432
 21
3.843503937007874
 31
0.0
  0
LINE
  5
4589
330
1E
100
AcDbEntity
  8
3
100
AcDbLine
 10
6.627952755905512
 20
4.782480314960629
 30
0.0
 11
6.568897637795275
 21
4.767716535433073
 31
0.0
  0
LINE
  5
458A
330
1E
100
AcDbEntity
  8
3
100
AcDbLine
 10
6.568897637795275
 20
4.767716535433073
 30
0.0
 11
6.518700787401574
 21
4.729330708661418
 31
0.0
  0
LINE
  5
458B
330
1E
100
AcDbEntity
  8
3
100
AcDbLine
 10
6.518700787401574
 20
4.729330708661418
 30
0.0
 11
6.492125984251968
 21
4.673228346456696
 31
0.0
  0
LINE
  5
458C
330
1E
100
AcDbEntity
  8
3
100
AcDbLine
 10
6.492125984251968
 20
4.673228346456696
 30
0.0
 11
6.492125984251968
 21
4.614173228346457
 31
0.0
  0
LINE
  5
458D
330
1E
100
AcDbEntity
  8
3
100
AcDbLine
 10
6.492125984251968
 20
4.614173228346457
 30
0.0
 11
6.518700787401574
 21
4.558070866141735
 31
0.0
  0
LINE
  5
458E
330
1E
100
AcDbEntity
  8
3
100
AcDbLine
 10
6.518700787401574
 20
4.558070866141735
 30
0.0
 11
6.568897637795275
 21
4.519685039370079
 31
0.0
  0
LINE
  5
458F
330
1E
100
AcDbEntity
  8
3
100
AcDbLine
 10
6.568897637795275
 20
4.519685039370079
 30
0.0
 11
6.627952755905512
 21
4.504921259842518
 31
0.0
  0
LINE
  5
4590
330
1E
100
AcDbEntity
  8
3
100
AcDbLine
 10
6.403543307086613
 20
4.876968503937007
 30
0.0
 11
6.362204724409449
 21
4.85925196850394
 31
0.0
  0
LINE
  5
4591
330
1E
100
AcDbEntity
  8
3
100
AcDbLine
 10
6.362204724409449
 20
4.85925196850394
 30
0.0
 11
6.344488188976377
 21
4.817913385826773
 31
0.0
  0
LINE
  5
4592
330
1E
100
AcDbEntity
  8
3
100
AcDbLine
 10
6.943897637795275
 20
4.788385826771657
 30
0.0
 11
6.961614173228347
 21
4.74704724409449
 31
0.0
  0
LINE
  5
4593
330
1E
100
AcDbEntity
  8
3
100
AcDbLine
 10
6.961614173228347
 20
4.74704724409449
 30
0.0
 11
7.002952755905512
 21
4.729330708661418
 31
0.0
  0
LINE
  5
4594
330
1E
100
AcDbEntity
  8
3
100
AcDbLine
 10
7.002952755905512
 20
4.729330708661418
 30
0.0
 11
7.044291338582677
 21
4.74704724409449
 31
0.0
  0
LINE
  5
4595
330
1E
100
AcDbEntity
  8
3
100
AcDbLine
 10
6.746062992125985
 20
4.504921259842518
 30
0.0
 11
6.805118110236221
 21
4.519685039370079
 31
0.0
  0
LINE
  5
4596
330
1E
100
AcDbEntity
  8
3
100
AcDbLine
 10
6.805118110236221
 20
4.519685039370079
 30
0.0
 11
6.855314960629921
 21
4.558070866141735
 31
0.0
  0
LINE
  5
4597
330
1E
100
AcDbEntity
  8
3
100
AcDbLine
 10
6.855314960629921
 20
4.558070866141735
 30
0.0
 11
6.881889763779527
 21
4.614173228346457
 31
0.0
  0
LINE
  5
4598
330
1E
100
AcDbEntity
  8
3
100
AcDbLine
 10
6.881889763779527
 20
4.614173228346457
 30
0.0
 11
6.881889763779527
 21
4.673228346456696
 31
0.0
  0
LINE
  5
4599
330
1E
100
AcDbEntity
  8
3
100
AcDbLine
 10
6.881889763779527
 20
4.673228346456696
 30
0.0
 11
6.855314960629921
 21
4.729330708661418
 31
0.0
  0
LINE
  5
459A
330
1E
100
AcDbEntity
  8
3
100
AcDbLine
 10
6.855314960629921
 20
4.729330708661418
 30
0.0
 11
6.805118110236221
 21
4.767716535433073
 31
0.0
  0
LINE
  5
459B
330
1E
100
AcDbEntity
  8
3
100
AcDbLine
 10
6.805118110236221
 20
4.767716535433073
 30
0.0
 11
6.746062992125985
 21
4.782480314960629
 31
0.0
  0
LINE
  5
459C
330
1E
100
AcDbEntity
  8
3
100
AcDbLine
 10
7.062007874015749
 20
4.788385826771657
 30
0.0
 11
7.062007874015749
 21
4.832677165354329
 31
0.0
  0
LINE
  5
459D
330
1E
100
AcDbEntity
  8
3
100
AcDbLine
 10
7.062007874015749
 20
4.832677165354329
 30
0.0
 11
7.062007874015749
 21
4.865157480314962
 31
0.0
  0
LINE
  5
459E
330
1E
100
AcDbEntity
  8
3
100
AcDbLine
 10
7.062007874015749
 20
4.865157480314962
 30
0.0
 11
7.062007874015749
 21
4.876968503937007
 31
0.0
  0
LINE
  5
459F
330
1E
100
AcDbEntity
  8
3
100
AcDbLine
 10
7.062007874015749
 20
4.876968503937007
 30
0.0
 11
7.062007874015749
 21
4.862204724409451
 31
0.0
  0
LINE
  5
45A0
330
1E
100
AcDbEntity
  8
3
100
AcDbLine
 10
6.940944881889763
 20
9.808070866141735
 30
0.0
 11
6.403543307086613
 21
9.808070866141735
 31
0.0
  0
LINE
  5
45A1
330
1E
100
AcDbEntity
  8
3
100
AcDbLine
 10
6.403543307086613
 20
9.808070866141735
 30
0.0
 11
6.403543307086613
 21
9.749015748031496
 31
0.0
  0
LINE
  5
45A2
330
1E
100
AcDbEntity
  8
3
100
AcDbLine
 10
6.341535433070866
 20
9.808070866141735
 30
0.0
 11
6.359251968503937
 21
9.808070866141735
 31
0.0
  0
LINE
  5
45A3
330
1E
100
AcDbEntity
  8
3
100
AcDbLine
 10
6.359251968503937
 20
9.808070866141735
 30
0.0
 11
6.403543307086613
 21
9.808070866141735
 31
0.0
  0
LINE
  5
45A4
330
1E
100
AcDbEntity
  8
3
100
AcDbLine
 10
6.403543307086613
 20
9.749015748031496
 30
0.0
 11
6.359251968503937
 21
9.749015748031496
 31
0.0
  0
LINE
  5
45A5
330
1E
100
AcDbEntity
  8
3
100
AcDbLine
 10
6.359251968503937
 20
9.749015748031496
 30
0.0
 11
6.341535433070866
 21
9.749015748031496
 31
0.0
  0
LINE
  5
45A6
330
1E
100
AcDbEntity
  8
3
100
AcDbLine
 10
7.153543307086613
 20
9.958661417322835
 30
0.0
 11
7.197834645669291
 21
9.976377952755907
 31
0.0
  0
LINE
  5
45A7
330
1E
100
AcDbEntity
  8
3
100
AcDbLine
 10
7.197834645669291
 20
9.976377952755907
 30
0.0
 11
7.215551181102362
 21
10.02066929133858
 31
0.0
  0
LINE
  5
45A8
330
1E
100
AcDbEntity
  8
3
100
AcDbLine
 10
7.124015748031496
 20
9.958661417322835
 30
0.0
 11
7.079724409448819
 21
9.940944881889762
 31
0.0
  0
LINE
  5
45A9
330
1E
100
AcDbEntity
  8
3
100
AcDbLine
 10
7.079724409448819
 20
9.940944881889762
 30
0.0
 11
7.062007874015749
 21
9.896653543307085
 31
0.0
  0
LINE
  5
45AA
330
1E
100
AcDbEntity
  8
3
100
AcDbLine
 10
7.062007874015749
 20
9.749015748031496
 30
0.0
 11
7.062007874015749
 21
9.760826771653546
 31
0.0
  0
LINE
  5
45AB
330
1E
100
AcDbEntity
  8
3
100
AcDbLine
 10
7.062007874015749
 20
9.760826771653546
 30
0.0
 11
7.062007874015749
 21
9.793307086614174
 31
0.0
  0
LINE
  5
45AC
330
1E
100
AcDbEntity
  8
3
100
AcDbLine
 10
7.062007874015749
 20
9.793307086614174
 30
0.0
 11
7.062007874015749
 21
9.837598425196851
 31
0.0
  0
LINE
  5
45AD
330
1E
100
AcDbEntity
  8
3
100
AcDbLine
 10
7.062007874015749
 20
9.808070866141735
 30
0.0
 11
7.044291338582677
 21
9.808070866141735
 31
0.0
  0
LINE
  5
45AE
330
1E
100
AcDbEntity
  8
3
100
AcDbLine
 10
7.044291338582677
 20
9.808070866141735
 30
0.0
 11
7.002952755905512
 21
9.808070866141735
 31
0.0
  0
LINE
  5
45AF
330
1E
100
AcDbEntity
  8
3
100
AcDbLine
 10
7.002952755905512
 20
9.808070866141735
 30
0.0
 11
6.958661417322835
 21
9.808070866141735
 31
0.0
  0
LINE
  5
45B0
330
1E
100
AcDbEntity
  8
3
100
AcDbLine
 10
6.958661417322835
 20
9.808070866141735
 30
0.0
 11
6.940944881889763
 21
9.808070866141735
 31
0.0
  0
LINE
  5
45B1
330
1E
100
AcDbEntity
  8
3
100
AcDbLine
 10
6.940944881889763
 20
9.749015748031496
 30
0.0
 11
6.958661417322835
 21
9.749015748031496
 31
0.0
  0
LINE
  5
45B2
330
1E
100
AcDbEntity
  8
3
100
AcDbLine
 10
6.958661417322835
 20
9.749015748031496
 30
0.0
 11
7.002952755905512
 21
9.749015748031496
 31
0.0
  0
LINE
  5
45B3
330
1E
100
AcDbEntity
  8
3
100
AcDbLine
 10
7.002952755905512
 20
9.749015748031496
 30
0.0
 11
7.044291338582677
 21
9.749015748031496
 31
0.0
  0
LINE
  5
45B4
330
1E
100
AcDbEntity
  8
3
100
AcDbLine
 10
7.044291338582677
 20
9.749015748031496
 30
0.0
 11
7.062007874015749
 21
9.749015748031496
 31
0.0
  0
LINE
  5
45B5
330
1E
100
AcDbEntity
  8
3
100
AcDbLine
 10
7.280511811023622
 20
10.18897637795275
 30
0.0
 11
7.236220472440944
 21
10.17125984251968
 31
0.0
  0
LINE
  5
45B6
330
1E
100
AcDbEntity
  8
3
100
AcDbLine
 10
7.236220472440944
 20
10.17125984251968
 30
0.0
 11
7.218503937007874
 21
10.126968503937
 31
0.0
  0
LINE
  5
45B7
330
1E
100
AcDbEntity
  8
3
100
AcDbLine
 10
16.22440944881889
 20
4.543307086614174
 30
0.0
 11
19.77362204724409
 21
4.543307086614174
 31
0.0
  0
LINE
  5
45B8
330
1E
100
AcDbEntity
  8
3
100
AcDbLine
 10
19.77362204724409
 20
4.543307086614174
 30
0.0
 11
19.77362204724409
 21
1.744094488188978
 31
0.0
  0
LINE
  5
45B9
330
1E
100
AcDbEntity
  8
3
100
AcDbLine
 10
20.53543307086613
 20
4.543307086614174
 30
0.0
 11
24.08464566929133
 21
4.543307086614174
 31
0.0
  0
LINE
  5
45BA
330
1E
100
AcDbEntity
  8
3
100
AcDbLine
 10
24.08464566929133
 20
4.543307086614174
 30
0.0
 11
24.08464566929133
 21
1.744094488188978
 31
0.0
  0
LINE
  5
45BB
330
1E
100
AcDbEntity
  8
3
100
AcDbLine
 10
15.51870078740157
 20
2.443897637795276
 30
0.0
 11
15.53051181102361
 21
2.390748031496064
 31
0.0
  0
LINE
  5
45BC
330
1E
100
AcDbEntity
  8
3
100
AcDbLine
 10
15.53051181102361
 20
2.390748031496064
 30
0.0
 11
15.56594488188976
 21
2.346456692913386
 31
0.0
  0
LINE
  5
45BD
330
1E
100
AcDbEntity
  8
3
100
AcDbLine
 10
15.56594488188976
 20
2.346456692913386
 30
0.0
 11
15.61614173228346
 21
2.322834645669292
 31
0.0
  0
LINE
  5
45BE
330
1E
100
AcDbEntity
  8
3
100
AcDbLine
 10
15.61614173228346
 20
2.322834645669292
 30
0.0
 11
15.66929133858267
 21
2.322834645669292
 31
0.0
  0
LINE
  5
45BF
330
1E
100
AcDbEntity
  8
3
100
AcDbLine
 10
15.66929133858267
 20
2.322834645669292
 30
0.0
 11
15.71948818897637
 21
2.346456692913386
 31
0.0
  0
LINE
  5
45C0
330
1E
100
AcDbEntity
  8
3
100
AcDbLine
 10
15.71948818897637
 20
2.346456692913386
 30
0.0
 11
15.75492125984251
 21
2.390748031496064
 31
0.0
  0
LINE
  5
45C1
330
1E
100
AcDbEntity
  8
3
100
AcDbLine
 10
15.75492125984251
 20
2.390748031496064
 30
0.0
 11
15.76673228346456
 21
2.443897637795276
 31
0.0
  0
LINE
  5
45C2
330
1E
100
AcDbEntity
  8
3
100
AcDbLine
 10
15.76673228346456
 20
2.443897637795276
 30
0.0
 11
15.75492125984251
 21
2.497047244094489
 31
0.0
  0
LINE
  5
45C3
330
1E
100
AcDbEntity
  8
3
100
AcDbLine
 10
15.75492125984251
 20
2.497047244094489
 30
0.0
 11
15.71948818897637
 21
2.541338582677167
 31
0.0
  0
LINE
  5
45C4
330
1E
100
AcDbEntity
  8
3
100
AcDbLine
 10
15.71948818897637
 20
2.541338582677167
 30
0.0
 11
15.66929133858267
 21
2.564960629921261
 31
0.0
  0
LINE
  5
45C5
330
1E
100
AcDbEntity
  8
3
100
AcDbLine
 10
15.66929133858267
 20
2.564960629921261
 30
0.0
 11
15.61614173228346
 21
2.564960629921261
 31
0.0
  0
LINE
  5
45C6
330
1E
100
AcDbEntity
  8
3
100
AcDbLine
 10
15.61614173228346
 20
2.564960629921261
 30
0.0
 11
15.56594488188976
 21
2.541338582677167
 31
0.0
  0
LINE
  5
45C7
330
1E
100
AcDbEntity
  8
3
100
AcDbLine
 10
15.56594488188976
 20
2.541338582677167
 30
0.0
 11
15.53051181102361
 21
2.497047244094489
 31
0.0
  0
LINE
  5
45C8
330
1E
100
AcDbEntity
  8
3
100
AcDbLine
 10
15.91732283464566
 20
2.443897637795276
 30
0.0
 11
15.92913385826771
 21
2.390748031496064
 31
0.0
  0
LINE
  5
45C9
330
1E
100
AcDbEntity
  8
3
100
AcDbLine
 10
15.92913385826771
 20
2.390748031496064
 30
0.0
 11
15.96456692913385
 21
2.346456692913386
 31
0.0
  0
LINE
  5
45CA
330
1E
100
AcDbEntity
  8
3
100
AcDbLine
 10
15.96456692913385
 20
2.346456692913386
 30
0.0
 11
16.01476377952755
 21
2.322834645669292
 31
0.0
  0
LINE
  5
45CB
330
1E
100
AcDbEntity
  8
3
100
AcDbLine
 10
16.01476377952755
 20
2.322834645669292
 30
0.0
 11
16.06791338582677
 21
2.322834645669292
 31
0.0
  0
LINE
  5
45CC
330
1E
100
AcDbEntity
  8
3
100
AcDbLine
 10
16.06791338582677
 20
2.322834645669292
 30
0.0
 11
16.11811023622047
 21
2.346456692913386
 31
0.0
  0
LINE
  5
45CD
330
1E
100
AcDbEntity
  8
3
100
AcDbLine
 10
16.11811023622047
 20
2.346456692913386
 30
0.0
 11
16.15354330708661
 21
2.390748031496064
 31
0.0
  0
LINE
  5
45CE
330
1E
100
AcDbEntity
  8
3
100
AcDbLine
 10
16.15354330708661
 20
2.390748031496064
 30
0.0
 11
16.16535433070866
 21
2.443897637795276
 31
0.0
  0
LINE
  5
45CF
330
1E
100
AcDbEntity
  8
3
100
AcDbLine
 10
16.16535433070866
 20
2.443897637795276
 30
0.0
 11
16.15354330708661
 21
2.497047244094489
 31
0.0
  0
LINE
  5
45D0
330
1E
100
AcDbEntity
  8
3
100
AcDbLine
 10
16.15354330708661
 20
2.497047244094489
 30
0.0
 11
16.11811023622047
 21
2.541338582677167
 31
0.0
  0
LINE
  5
45D1
330
1E
100
AcDbEntity
  8
3
100
AcDbLine
 10
16.11811023622047
 20
2.541338582677167
 30
0.0
 11
16.06791338582677
 21
2.564960629921261
 31
0.0
  0
LINE
  5
45D2
330
1E
100
AcDbEntity
  8
3
100
AcDbLine
 10
16.06791338582677
 20
2.564960629921261
 30
0.0
 11
16.01476377952755
 21
2.564960629921261
 31
0.0
  0
LINE
  5
45D3
330
1E
100
AcDbEntity
  8
3
100
AcDbLine
 10
16.01476377952755
 20
2.564960629921261
 30
0.0
 11
15.96456692913385
 21
2.541338582677167
 31
0.0
  0
LINE
  5
45D4
330
1E
100
AcDbEntity
  8
3
100
AcDbLine
 10
15.96456692913385
 20
2.541338582677167
 30
0.0
 11
15.92913385826771
 21
2.497047244094489
 31
0.0
  0
LINE
  5
45D5
330
1E
100
AcDbEntity
  8
3
100
AcDbLine
 10
15.92913385826771
 20
2.497047244094489
 30
0.0
 11
15.91732283464566
 21
2.443897637795276
 31
0.0
  0
LINE
  5
45D6
330
1E
100
AcDbEntity
  8
3
100
AcDbLine
 10
15.66929133858267
 20
3.72244094488189
 30
0.0
 11
15.71948818897637
 21
3.746062992125985
 31
0.0
  0
LINE
  5
45D7
330
1E
100
AcDbEntity
  8
3
100
AcDbLine
 10
15.71948818897637
 20
3.746062992125985
 30
0.0
 11
15.75492125984251
 21
3.790354330708662
 31
0.0
  0
LINE
  5
45D8
330
1E
100
AcDbEntity
  8
3
100
AcDbLine
 10
15.75492125984251
 20
3.790354330708662
 30
0.0
 11
15.76673228346456
 21
3.843503937007874
 31
0.0
  0
LINE
  5
45D9
330
1E
100
AcDbEntity
  8
3
100
AcDbLine
 10
15.76673228346456
 20
3.843503937007874
 30
0.0
 11
15.75492125984251
 21
3.896653543307085
 31
0.0
  0
LINE
  5
45DA
330
1E
100
AcDbEntity
  8
3
100
AcDbLine
 10
15.75492125984251
 20
3.896653543307085
 30
0.0
 11
15.71948818897637
 21
3.940944881889762
 31
0.0
  0
LINE
  5
45DB
330
1E
100
AcDbEntity
  8
3
100
AcDbLine
 10
15.71948818897637
 20
3.940944881889762
 30
0.0
 11
15.66929133858267
 21
3.964566929133857
 31
0.0
  0
LINE
  5
45DC
330
1E
100
AcDbEntity
  8
3
100
AcDbLine
 10
15.66929133858267
 20
3.964566929133857
 30
0.0
 11
15.61614173228346
 21
3.964566929133857
 31
0.0
  0
LINE
  5
45DD
330
1E
100
AcDbEntity
  8
3
100
AcDbLine
 10
15.61614173228346
 20
3.964566929133857
 30
0.0
 11
15.56594488188976
 21
3.940944881889762
 31
0.0
  0
LINE
  5
45DE
330
1E
100
AcDbEntity
  8
3
100
AcDbLine
 10
15.56594488188976
 20
3.940944881889762
 30
0.0
 11
15.53051181102361
 21
3.896653543307085
 31
0.0
  0
LINE
  5
45DF
330
1E
100
AcDbEntity
  8
3
100
AcDbLine
 10
15.53051181102361
 20
3.896653543307085
 30
0.0
 11
15.51870078740157
 21
3.843503937007874
 31
0.0
  0
LINE
  5
45E0
330
1E
100
AcDbEntity
  8
3
100
AcDbLine
 10
15.51870078740157
 20
3.843503937007874
 30
0.0
 11
15.53051181102361
 21
3.790354330708662
 31
0.0
  0
LINE
  5
45E1
330
1E
100
AcDbEntity
  8
3
100
AcDbLine
 10
15.53051181102361
 20
3.790354330708662
 30
0.0
 11
15.56594488188976
 21
3.746062992125985
 31
0.0
  0
LINE
  5
45E2
330
1E
100
AcDbEntity
  8
3
100
AcDbLine
 10
15.56594488188976
 20
3.746062992125985
 30
0.0
 11
15.61614173228346
 21
3.72244094488189
 31
0.0
  0
LINE
  5
45E3
330
1E
100
AcDbEntity
  8
3
100
AcDbLine
 10
15.61614173228346
 20
3.72244094488189
 30
0.0
 11
15.66929133858267
 21
3.72244094488189
 31
0.0
  0
LINE
  5
45E4
330
1E
100
AcDbEntity
  8
3
100
AcDbLine
 10
16.16535433070866
 20
3.843503937007874
 30
0.0
 11
16.15354330708661
 21
3.896653543307085
 31
0.0
  0
LINE
  5
45E5
330
1E
100
AcDbEntity
  8
3
100
AcDbLine
 10
16.15354330708661
 20
3.896653543307085
 30
0.0
 11
16.11811023622047
 21
3.940944881889762
 31
0.0
  0
LINE
  5
45E6
330
1E
100
AcDbEntity
  8
3
100
AcDbLine
 10
16.11811023622047
 20
3.940944881889762
 30
0.0
 11
16.06791338582677
 21
3.964566929133857
 31
0.0
  0
LINE
  5
45E7
330
1E
100
AcDbEntity
  8
3
100
AcDbLine
 10
16.06791338582677
 20
3.964566929133857
 30
0.0
 11
16.01476377952755
 21
3.964566929133857
 31
0.0
  0
LINE
  5
45E8
330
1E
100
AcDbEntity
  8
3
100
AcDbLine
 10
16.01476377952755
 20
3.964566929133857
 30
0.0
 11
15.96456692913385
 21
3.940944881889762
 31
0.0
  0
LINE
  5
45E9
330
1E
100
AcDbEntity
  8
3
100
AcDbLine
 10
15.96456692913385
 20
3.940944881889762
 30
0.0
 11
15.92913385826771
 21
3.896653543307085
 31
0.0
  0
LINE
  5
45EA
330
1E
100
AcDbEntity
  8
3
100
AcDbLine
 10
15.92913385826771
 20
3.896653543307085
 30
0.0
 11
15.91732283464566
 21
3.843503937007874
 31
0.0
  0
LINE
  5
45EB
330
1E
100
AcDbEntity
  8
3
100
AcDbLine
 10
15.91732283464566
 20
3.843503937007874
 30
0.0
 11
15.92913385826771
 21
3.790354330708662
 31
0.0
  0
LINE
  5
45EC
330
1E
100
AcDbEntity
  8
3
100
AcDbLine
 10
15.92913385826771
 20
3.790354330708662
 30
0.0
 11
15.96456692913385
 21
3.746062992125985
 31
0.0
  0
LINE
  5
45ED
330
1E
100
AcDbEntity
  8
3
100
AcDbLine
 10
15.96456692913385
 20
3.746062992125985
 30
0.0
 11
16.01476377952755
 21
3.72244094488189
 31
0.0
  0
LINE
  5
45EE
330
1E
100
AcDbEntity
  8
3
100
AcDbLine
 10
16.01476377952755
 20
3.72244094488189
 30
0.0
 11
16.06791338582677
 21
3.72244094488189
 31
0.0
  0
LINE
  5
45EF
330
1E
100
AcDbEntity
  8
3
100
AcDbLine
 10
16.06791338582677
 20
3.72244094488189
 30
0.0
 11
16.11811023622047
 21
3.746062992125985
 31
0.0
  0
LINE
  5
45F0
330
1E
100
AcDbEntity
  8
3
100
AcDbLine
 10
16.11811023622047
 20
3.746062992125985
 30
0.0
 11
16.15354330708661
 21
3.790354330708662
 31
0.0
  0
LINE
  5
45F1
330
1E
100
AcDbEntity
  8
3
100
AcDbLine
 10
16.15354330708661
 20
3.790354330708662
 30
0.0
 11
16.16535433070866
 21
3.843503937007874
 31
0.0
  0
LINE
  5
45F2
330
1E
100
AcDbEntity
  8
3
100
AcDbLine
 10
19.9271653543307
 20
2.322834645669292
 30
0.0
 11
19.98031496062991
 21
2.322834645669292
 31
0.0
  0
LINE
  5
45F3
330
1E
100
AcDbEntity
  8
3
100
AcDbLine
 10
19.98031496062991
 20
2.322834645669292
 30
0.0
 11
20.03051181102362
 21
2.346456692913386
 31
0.0
  0
LINE
  5
45F4
330
1E
100
AcDbEntity
  8
3
100
AcDbLine
 10
20.03051181102362
 20
2.346456692913386
 30
0.0
 11
20.06594488188976
 21
2.390748031496064
 31
0.0
  0
LINE
  5
45F5
330
1E
100
AcDbEntity
  8
3
100
AcDbLine
 10
20.06594488188976
 20
2.390748031496064
 30
0.0
 11
20.0777559055118
 21
2.443897637795276
 31
0.0
  0
LINE
  5
45F6
330
1E
100
AcDbEntity
  8
3
100
AcDbLine
 10
20.0777559055118
 20
2.443897637795276
 30
0.0
 11
20.06594488188976
 21
2.497047244094489
 31
0.0
  0
LINE
  5
45F7
330
1E
100
AcDbEntity
  8
3
100
AcDbLine
 10
20.06594488188976
 20
2.497047244094489
 30
0.0
 11
20.03051181102362
 21
2.541338582677167
 31
0.0
  0
LINE
  5
45F8
330
1E
100
AcDbEntity
  8
3
100
AcDbLine
 10
20.03051181102362
 20
2.541338582677167
 30
0.0
 11
19.98031496062991
 21
2.564960629921261
 31
0.0
  0
LINE
  5
45F9
330
1E
100
AcDbEntity
  8
3
100
AcDbLine
 10
19.98031496062991
 20
2.564960629921261
 30
0.0
 11
19.9271653543307
 21
2.564960629921261
 31
0.0
  0
LINE
  5
45FA
330
1E
100
AcDbEntity
  8
3
100
AcDbLine
 10
19.9271653543307
 20
2.564960629921261
 30
0.0
 11
19.876968503937
 21
2.541338582677167
 31
0.0
  0
LINE
  5
45FB
330
1E
100
AcDbEntity
  8
3
100
AcDbLine
 10
19.876968503937
 20
2.541338582677167
 30
0.0
 11
19.84153543307086
 21
2.497047244094489
 31
0.0
  0
LINE
  5
45FC
330
1E
100
AcDbEntity
  8
3
100
AcDbLine
 10
19.84153543307086
 20
2.497047244094489
 30
0.0
 11
19.82972440944881
 21
2.443897637795276
 31
0.0
  0
LINE
  5
45FD
330
1E
100
AcDbEntity
  8
3
100
AcDbLine
 10
19.82972440944881
 20
2.443897637795276
 30
0.0
 11
19.84153543307086
 21
2.390748031496064
 31
0.0
  0
LINE
  5
45FE
330
1E
100
AcDbEntity
  8
3
100
AcDbLine
 10
19.84153543307086
 20
2.390748031496064
 30
0.0
 11
19.876968503937
 21
2.346456692913386
 31
0.0
  0
LINE
  5
45FF
330
1E
100
AcDbEntity
  8
3
100
AcDbLine
 10
19.876968503937
 20
2.346456692913386
 30
0.0
 11
19.9271653543307
 21
2.322834645669292
 31
0.0
  0
LINE
  5
4600
330
1E
100
AcDbEntity
  8
3
100
AcDbLine
 10
20.46456692913385
 20
2.390748031496064
 30
0.0
 11
20.4763779527559
 21
2.443897637795276
 31
0.0
  0
LINE
  5
4601
330
1E
100
AcDbEntity
  8
3
100
AcDbLine
 10
20.4763779527559
 20
2.443897637795276
 30
0.0
 11
20.46456692913385
 21
2.497047244094489
 31
0.0
  0
LINE
  5
4602
330
1E
100
AcDbEntity
  8
3
100
AcDbLine
 10
20.46456692913385
 20
2.497047244094489
 30
0.0
 11
20.42913385826771
 21
2.541338582677167
 31
0.0
  0
LINE
  5
4603
330
1E
100
AcDbEntity
  8
3
100
AcDbLine
 10
20.42913385826771
 20
2.541338582677167
 30
0.0
 11
20.37893700787401
 21
2.564960629921261
 31
0.0
  0
LINE
  5
4604
330
1E
100
AcDbEntity
  8
3
100
AcDbLine
 10
20.37893700787401
 20
2.564960629921261
 30
0.0
 11
20.3257874015748
 21
2.564960629921261
 31
0.0
  0
LINE
  5
4605
330
1E
100
AcDbEntity
  8
3
100
AcDbLine
 10
20.3257874015748
 20
2.564960629921261
 30
0.0
 11
20.2755905511811
 21
2.541338582677167
 31
0.0
  0
LINE
  5
4606
330
1E
100
AcDbEntity
  8
3
100
AcDbLine
 10
20.2755905511811
 20
2.541338582677167
 30
0.0
 11
20.24015748031496
 21
2.497047244094489
 31
0.0
  0
LINE
  5
4607
330
1E
100
AcDbEntity
  8
3
100
AcDbLine
 10
20.24015748031496
 20
2.497047244094489
 30
0.0
 11
20.22834645669291
 21
2.443897637795276
 31
0.0
  0
LINE
  5
4608
330
1E
100
AcDbEntity
  8
3
100
AcDbLine
 10
20.22834645669291
 20
2.443897637795276
 30
0.0
 11
20.24015748031496
 21
2.390748031496064
 31
0.0
  0
LINE
  5
4609
330
1E
100
AcDbEntity
  8
3
100
AcDbLine
 10
20.24015748031496
 20
2.390748031496064
 30
0.0
 11
20.2755905511811
 21
2.346456692913386
 31
0.0
  0
LINE
  5
460A
330
1E
100
AcDbEntity
  8
3
100
AcDbLine
 10
20.2755905511811
 20
2.346456692913386
 30
0.0
 11
20.3257874015748
 21
2.322834645669292
 31
0.0
  0
LINE
  5
460B
330
1E
100
AcDbEntity
  8
3
100
AcDbLine
 10
20.3257874015748
 20
2.322834645669292
 30
0.0
 11
20.37893700787401
 21
2.322834645669292
 31
0.0
  0
LINE
  5
460C
330
1E
100
AcDbEntity
  8
3
100
AcDbLine
 10
20.37893700787401
 20
2.322834645669292
 30
0.0
 11
20.42913385826771
 21
2.346456692913386
 31
0.0
  0
LINE
  5
460D
330
1E
100
AcDbEntity
  8
3
100
AcDbLine
 10
20.42913385826771
 20
2.346456692913386
 30
0.0
 11
20.46456692913385
 21
2.390748031496064
 31
0.0
  0
LINE
  5
460E
330
1E
100
AcDbEntity
  8
3
100
AcDbLine
 10
19.82972440944881
 20
3.843503937007874
 30
0.0
 11
19.84153543307086
 21
3.790354330708662
 31
0.0
  0
LINE
  5
460F
330
1E
100
AcDbEntity
  8
3
100
AcDbLine
 10
19.84153543307086
 20
3.790354330708662
 30
0.0
 11
19.876968503937
 21
3.746062992125985
 31
0.0
  0
LINE
  5
4610
330
1E
100
AcDbEntity
  8
3
100
AcDbLine
 10
19.876968503937
 20
3.746062992125985
 30
0.0
 11
19.9271653543307
 21
3.72244094488189
 31
0.0
  0
LINE
  5
4611
330
1E
100
AcDbEntity
  8
3
100
AcDbLine
 10
19.9271653543307
 20
3.72244094488189
 30
0.0
 11
19.98031496062991
 21
3.72244094488189
 31
0.0
  0
LINE
  5
4612
330
1E
100
AcDbEntity
  8
3
100
AcDbLine
 10
19.98031496062991
 20
3.72244094488189
 30
0.0
 11
20.03051181102362
 21
3.746062992125985
 31
0.0
  0
LINE
  5
4613
330
1E
100
AcDbEntity
  8
3
100
AcDbLine
 10
20.03051181102362
 20
3.746062992125985
 30
0.0
 11
20.06594488188976
 21
3.790354330708662
 31
0.0
  0
LINE
  5
4614
330
1E
100
AcDbEntity
  8
3
100
AcDbLine
 10
20.06594488188976
 20
3.790354330708662
 30
0.0
 11
20.0777559055118
 21
3.843503937007874
 31
0.0
  0
LINE
  5
4615
330
1E
100
AcDbEntity
  8
3
100
AcDbLine
 10
20.0777559055118
 20
3.843503937007874
 30
0.0
 11
20.06594488188976
 21
3.896653543307085
 31
0.0
  0
LINE
  5
4616
330
1E
100
AcDbEntity
  8
3
100
AcDbLine
 10
20.06594488188976
 20
3.896653543307085
 30
0.0
 11
20.03051181102362
 21
3.940944881889762
 31
0.0
  0
LINE
  5
4617
330
1E
100
AcDbEntity
  8
3
100
AcDbLine
 10
20.03051181102362
 20
3.940944881889762
 30
0.0
 11
19.98031496062991
 21
3.964566929133857
 31
0.0
  0
LINE
  5
4618
330
1E
100
AcDbEntity
  8
3
100
AcDbLine
 10
19.98031496062991
 20
3.964566929133857
 30
0.0
 11
19.9271653543307
 21
3.964566929133857
 31
0.0
  0
LINE
  5
4619
330
1E
100
AcDbEntity
  8
3
100
AcDbLine
 10
19.9271653543307
 20
3.964566929133857
 30
0.0
 11
19.876968503937
 21
3.940944881889762
 31
0.0
  0
LINE
  5
461A
330
1E
100
AcDbEntity
  8
3
100
AcDbLine
 10
19.876968503937
 20
3.940944881889762
 30
0.0
 11
19.84153543307086
 21
3.896653543307085
 31
0.0
  0
LINE
  5
461B
330
1E
100
AcDbEntity
  8
3
100
AcDbLine
 10
19.84153543307086
 20
3.896653543307085
 30
0.0
 11
19.82972440944881
 21
3.843503937007874
 31
0.0
  0
LINE
  5
461C
330
1E
100
AcDbEntity
  8
3
100
AcDbLine
 10
20.22834645669291
 20
3.843503937007874
 30
0.0
 11
20.24015748031496
 21
3.790354330708662
 31
0.0
  0
LINE
  5
461D
330
1E
100
AcDbEntity
  8
3
100
AcDbLine
 10
20.24015748031496
 20
3.790354330708662
 30
0.0
 11
20.2755905511811
 21
3.746062992125985
 31
0.0
  0
LINE
  5
461E
330
1E
100
AcDbEntity
  8
3
100
AcDbLine
 10
20.2755905511811
 20
3.746062992125985
 30
0.0
 11
20.3257874015748
 21
3.72244094488189
 31
0.0
  0
LINE
  5
461F
330
1E
100
AcDbEntity
  8
3
100
AcDbLine
 10
20.3257874015748
 20
3.72244094488189
 30
0.0
 11
20.37893700787401
 21
3.72244094488189
 31
0.0
  0
LINE
  5
4620
330
1E
100
AcDbEntity
  8
3
100
AcDbLine
 10
20.37893700787401
 20
3.72244094488189
 30
0.0
 11
20.42913385826771
 21
3.746062992125985
 31
0.0
  0
LINE
  5
4621
330
1E
100
AcDbEntity
  8
3
100
AcDbLine
 10
20.42913385826771
 20
3.746062992125985
 30
0.0
 11
20.46456692913385
 21
3.790354330708662
 31
0.0
  0
LINE
  5
4622
330
1E
100
AcDbEntity
  8
3
100
AcDbLine
 10
20.46456692913385
 20
3.790354330708662
 30
0.0
 11
20.4763779527559
 21
3.843503937007874
 31
0.0
  0
LINE
  5
4623
330
1E
100
AcDbEntity
  8
3
100
AcDbLine
 10
20.4763779527559
 20
3.843503937007874
 30
0.0
 11
20.46456692913385
 21
3.896653543307085
 31
0.0
  0
LINE
  5
4624
330
1E
100
AcDbEntity
  8
3
100
AcDbLine
 10
20.46456692913385
 20
3.896653543307085
 30
0.0
 11
20.42913385826771
 21
3.940944881889762
 31
0.0
  0
LINE
  5
4625
330
1E
100
AcDbEntity
  8
3
100
AcDbLine
 10
20.42913385826771
 20
3.940944881889762
 30
0.0
 11
20.37893700787401
 21
3.964566929133857
 31
0.0
  0
LINE
  5
4626
330
1E
100
AcDbEntity
  8
3
100
AcDbLine
 10
20.37893700787401
 20
3.964566929133857
 30
0.0
 11
20.3257874015748
 21
3.964566929133857
 31
0.0
  0
LINE
  5
4627
330
1E
100
AcDbEntity
  8
3
100
AcDbLine
 10
20.3257874015748
 20
3.964566929133857
 30
0.0
 11
20.2755905511811
 21
3.940944881889762
 31
0.0
  0
LINE
  5
4628
330
1E
100
AcDbEntity
  8
3
100
AcDbLine
 10
20.2755905511811
 20
3.940944881889762
 30
0.0
 11
20.24015748031496
 21
3.896653543307085
 31
0.0
  0
LINE
  5
4629
330
1E
100
AcDbEntity
  8
3
100
AcDbLine
 10
20.24015748031496
 20
3.896653543307085
 30
0.0
 11
20.22834645669291
 21
3.843503937007874
 31
0.0
  0
LINE
  5
462A
330
1E
100
AcDbEntity
  8
3
100
AcDbLine
 10
24.93799212598425
 20
1.78248031496063
 30
0.0
 11
24.87893700787401
 21
1.767716535433072
 31
0.0
  0
LINE
  5
462B
330
1E
100
AcDbEntity
  8
3
100
AcDbLine
 10
24.87893700787401
 20
1.767716535433072
 30
0.0
 11
24.82874015748031
 21
1.729330708661418
 31
0.0
  0
LINE
  5
462C
330
1E
100
AcDbEntity
  8
3
100
AcDbLine
 10
24.82874015748031
 20
1.729330708661418
 30
0.0
 11
24.8021653543307
 21
1.673228346456694
 31
0.0
  0
LINE
  5
462D
330
1E
100
AcDbEntity
  8
3
100
AcDbLine
 10
24.8021653543307
 20
1.673228346456694
 30
0.0
 11
24.8021653543307
 21
1.614173228346457
 31
0.0
  0
LINE
  5
462E
330
1E
100
AcDbEntity
  8
3
100
AcDbLine
 10
24.8021653543307
 20
1.614173228346457
 30
0.0
 11
24.82874015748031
 21
1.558070866141733
 31
0.0
  0
LINE
  5
462F
330
1E
100
AcDbEntity
  8
3
100
AcDbLine
 10
24.82874015748031
 20
1.558070866141733
 30
0.0
 11
24.87893700787401
 21
1.519685039370079
 31
0.0
  0
LINE
  5
4630
330
1E
100
AcDbEntity
  8
3
100
AcDbLine
 10
24.87893700787401
 20
1.519685039370079
 30
0.0
 11
24.93799212598425
 21
1.504921259842521
 31
0.0
  0
LINE
  5
4631
330
1E
100
AcDbEntity
  8
3
100
AcDbLine
 10
24.74015748031495
 20
1.499015748031497
 30
0.0
 11
24.72244094488189
 21
1.540354330708662
 31
0.0
  0
LINE
  5
4632
330
1E
100
AcDbEntity
  8
3
100
AcDbLine
 10
24.72244094488189
 20
1.540354330708662
 30
0.0
 11
24.68110236220472
 21
1.558070866141733
 31
0.0
  0
LINE
  5
4633
330
1E
100
AcDbEntity
  8
3
100
AcDbLine
 10
24.68110236220472
 20
1.558070866141733
 30
0.0
 11
24.63976377952755
 21
1.540354330708662
 31
0.0
  0
LINE
  5
4634
330
1E
100
AcDbEntity
  8
3
100
AcDbLine
 10
24.63976377952755
 20
1.540354330708662
 30
0.0
 11
24.62204724409448
 21
1.499015748031497
 31
0.0
  0
LINE
  5
4635
330
1E
100
AcDbEntity
  8
3
100
AcDbLine
 10
24.62204724409448
 20
1.499015748031497
 30
0.0
 11
24.62204724409448
 21
1.451771653543308
 31
0.0
  0
LINE
  5
4636
330
1E
100
AcDbEntity
  8
3
100
AcDbLine
 10
24.62204724409448
 20
1.451771653543308
 30
0.0
 11
24.62204724409448
 21
1.419291338582678
 31
0.0
  0
LINE
  5
4637
330
1E
100
AcDbEntity
  8
3
100
AcDbLine
 10
24.62204724409448
 20
1.419291338582678
 30
0.0
 11
24.62204724409448
 21
1.40748031496063
 31
0.0
  0
LINE
  5
4638
330
1E
100
AcDbEntity
  8
3
100
AcDbLine
 10
24.62204724409448
 20
1.40748031496063
 30
0.0
 11
24.62204724409448
 21
1.42224409448819
 31
0.0
  0
LINE
  5
4639
330
1E
100
AcDbEntity
  8
3
100
AcDbLine
 10
25.05610236220472
 20
1.504921259842521
 30
0.0
 11
25.11515748031496
 21
1.519685039370079
 31
0.0
  0
LINE
  5
463A
330
1E
100
AcDbEntity
  8
3
100
AcDbLine
 10
25.11515748031496
 20
1.519685039370079
 30
0.0
 11
25.16535433070866
 21
1.558070866141733
 31
0.0
  0
LINE
  5
463B
330
1E
100
AcDbEntity
  8
3
100
AcDbLine
 10
25.16535433070866
 20
1.558070866141733
 30
0.0
 11
25.19192913385827
 21
1.614173228346457
 31
0.0
  0
LINE
  5
463C
330
1E
100
AcDbEntity
  8
3
100
AcDbLine
 10
25.19192913385827
 20
1.614173228346457
 30
0.0
 11
25.19192913385827
 21
1.673228346456694
 31
0.0
  0
LINE
  5
463D
330
1E
100
AcDbEntity
  8
3
100
AcDbLine
 10
25.19192913385827
 20
1.673228346456694
 30
0.0
 11
25.16535433070866
 21
1.729330708661418
 31
0.0
  0
LINE
  5
463E
330
1E
100
AcDbEntity
  8
3
100
AcDbLine
 10
25.16535433070866
 20
1.729330708661418
 30
0.0
 11
25.11515748031496
 21
1.767716535433072
 31
0.0
  0
LINE
  5
463F
330
1E
100
AcDbEntity
  8
3
100
AcDbLine
 10
25.11515748031496
 20
1.767716535433072
 30
0.0
 11
25.05610236220472
 21
1.78248031496063
 31
0.0
  0
LINE
  5
4640
330
1E
100
AcDbEntity
  8
3
100
AcDbLine
 10
25.28346456692913
 20
1.410433070866143
 30
0.0
 11
25.32480314960629
 21
1.428149606299214
 31
0.0
  0
LINE
  5
4641
330
1E
100
AcDbEntity
  8
3
100
AcDbLine
 10
25.32480314960629
 20
1.428149606299214
 30
0.0
 11
25.34251968503937
 21
1.469488188976379
 31
0.0
  0
LINE
  5
4642
330
1E
100
AcDbEntity
  8
3
100
AcDbLine
 10
24.34448818897638
 20
2.541338582677167
 30
0.0
 11
24.29429133858267
 21
2.564960629921261
 31
0.0
  0
LINE
  5
4643
330
1E
100
AcDbEntity
  8
3
100
AcDbLine
 10
24.29429133858267
 20
2.564960629921261
 30
0.0
 11
24.24114173228346
 21
2.564960629921261
 31
0.0
  0
LINE
  5
4644
330
1E
100
AcDbEntity
  8
3
100
AcDbLine
 10
24.24114173228346
 20
2.564960629921261
 30
0.0
 11
24.19094488188976
 21
2.541338582677167
 31
0.0
  0
LINE
  5
4645
330
1E
100
AcDbEntity
  8
3
100
AcDbLine
 10
24.19094488188976
 20
2.541338582677167
 30
0.0
 11
24.15551181102362
 21
2.497047244094489
 31
0.0
  0
LINE
  5
4646
330
1E
100
AcDbEntity
  8
3
100
AcDbLine
 10
24.15551181102362
 20
2.497047244094489
 30
0.0
 11
24.14370078740157
 21
2.443897637795276
 31
0.0
  0
LINE
  5
4647
330
1E
100
AcDbEntity
  8
3
100
AcDbLine
 10
24.14370078740157
 20
2.443897637795276
 30
0.0
 11
24.15551181102362
 21
2.390748031496064
 31
0.0
  0
LINE
  5
4648
330
1E
100
AcDbEntity
  8
3
100
AcDbLine
 10
24.15551181102362
 20
2.390748031496064
 30
0.0
 11
24.19094488188976
 21
2.346456692913386
 31
0.0
  0
LINE
  5
4649
330
1E
100
AcDbEntity
  8
3
100
AcDbLine
 10
24.19094488188976
 20
2.346456692913386
 30
0.0
 11
24.24114173228346
 21
2.322834645669292
 31
0.0
  0
LINE
  5
464A
330
1E
100
AcDbEntity
  8
3
100
AcDbLine
 10
24.24114173228346
 20
2.322834645669292
 30
0.0
 11
24.29429133858267
 21
2.322834645669292
 31
0.0
  0
LINE
  5
464B
330
1E
100
AcDbEntity
  8
3
100
AcDbLine
 10
24.29429133858267
 20
2.322834645669292
 30
0.0
 11
24.34448818897638
 21
2.346456692913386
 31
0.0
  0
LINE
  5
464C
330
1E
100
AcDbEntity
  8
3
100
AcDbLine
 10
24.34448818897638
 20
2.346456692913386
 30
0.0
 11
24.37992125984251
 21
2.390748031496064
 31
0.0
  0
LINE
  5
464D
330
1E
100
AcDbEntity
  8
3
100
AcDbLine
 10
24.37992125984251
 20
2.390748031496064
 30
0.0
 11
24.39173228346457
 21
2.443897637795276
 31
0.0
  0
LINE
  5
464E
330
1E
100
AcDbEntity
  8
3
100
AcDbLine
 10
24.39173228346457
 20
2.443897637795276
 30
0.0
 11
24.37992125984251
 21
2.497047244094489
 31
0.0
  0
LINE
  5
464F
330
1E
100
AcDbEntity
  8
3
100
AcDbLine
 10
24.37992125984251
 20
2.497047244094489
 30
0.0
 11
24.34448818897638
 21
2.541338582677167
 31
0.0
  0
LINE
  5
4650
330
1E
100
AcDbEntity
  8
3
100
AcDbLine
 10
24.93799212598425
 20
2.408464566929135
 30
0.0
 11
24.87893700787401
 21
2.393700787401575
 31
0.0
  0
LINE
  5
4651
330
1E
100
AcDbEntity
  8
3
100
AcDbLine
 10
24.87893700787401
 20
2.393700787401575
 30
0.0
 11
24.82874015748031
 21
2.355314960629922
 31
0.0
  0
LINE
  5
4652
330
1E
100
AcDbEntity
  8
3
100
AcDbLine
 10
24.82874015748031
 20
2.355314960629922
 30
0.0
 11
24.8021653543307
 21
2.299212598425197
 31
0.0
  0
LINE
  5
4653
330
1E
100
AcDbEntity
  8
3
100
AcDbLine
 10
24.8021653543307
 20
2.299212598425197
 30
0.0
 11
24.8021653543307
 21
2.240157480314961
 31
0.0
  0
LINE
  5
4654
330
1E
100
AcDbEntity
  8
3
100
AcDbLine
 10
24.8021653543307
 20
2.240157480314961
 30
0.0
 11
24.82874015748031
 21
2.184055118110237
 31
0.0
  0
LINE
  5
4655
330
1E
100
AcDbEntity
  8
3
100
AcDbLine
 10
24.82874015748031
 20
2.184055118110237
 30
0.0
 11
24.87893700787401
 21
2.145669291338583
 31
0.0
  0
LINE
  5
4656
330
1E
100
AcDbEntity
  8
3
100
AcDbLine
 10
24.87893700787401
 20
2.145669291338583
 30
0.0
 11
24.93799212598425
 21
2.130905511811025
 31
0.0
  0
LINE
  5
4657
330
1E
100
AcDbEntity
  8
3
100
AcDbLine
 10
24.93799212598425
 20
3.031496062992126
 30
0.0
 11
24.87893700787401
 21
3.016732283464568
 31
0.0
  0
LINE
  5
4658
330
1E
100
AcDbEntity
  8
3
100
AcDbLine
 10
24.87893700787401
 20
3.016732283464568
 30
0.0
 11
24.82874015748031
 21
2.978346456692912
 31
0.0
  0
LINE
  5
4659
330
1E
100
AcDbEntity
  8
3
100
AcDbLine
 10
24.82874015748031
 20
2.978346456692912
 30
0.0
 11
24.8021653543307
 21
2.92224409448819
 31
0.0
  0
LINE
  5
465A
330
1E
100
AcDbEntity
  8
3
100
AcDbLine
 10
24.8021653543307
 20
2.92224409448819
 30
0.0
 11
24.8021653543307
 21
2.863188976377954
 31
0.0
  0
LINE
  5
465B
330
1E
100
AcDbEntity
  8
3
100
AcDbLine
 10
24.8021653543307
 20
2.863188976377954
 30
0.0
 11
24.82874015748031
 21
2.807086614173229
 31
0.0
  0
LINE
  5
465C
330
1E
100
AcDbEntity
  8
3
100
AcDbLine
 10
24.82874015748031
 20
2.807086614173229
 30
0.0
 11
24.87893700787401
 21
2.768700787401574
 31
0.0
  0
LINE
  5
465D
330
1E
100
AcDbEntity
  8
3
100
AcDbLine
 10
24.87893700787401
 20
2.768700787401574
 30
0.0
 11
24.93799212598425
 21
2.753937007874018
 31
0.0
  0
LINE
  5
465E
330
1E
100
AcDbEntity
  8
3
100
AcDbLine
 10
24.14370078740157
 20
3.843503937007874
 30
0.0
 11
24.15551181102362
 21
3.790354330708662
 31
0.0
  0
LINE
  5
465F
330
1E
100
AcDbEntity
  8
3
100
AcDbLine
 10
24.15551181102362
 20
3.790354330708662
 30
0.0
 11
24.19094488188976
 21
3.746062992125985
 31
0.0
  0
LINE
  5
4660
330
1E
100
AcDbEntity
  8
3
100
AcDbLine
 10
24.19094488188976
 20
3.746062992125985
 30
0.0
 11
24.24114173228346
 21
3.72244094488189
 31
0.0
  0
LINE
  5
4661
330
1E
100
AcDbEntity
  8
3
100
AcDbLine
 10
24.24114173228346
 20
3.72244094488189
 30
0.0
 11
24.29429133858267
 21
3.72244094488189
 31
0.0
  0
LINE
  5
4662
330
1E
100
AcDbEntity
  8
3
100
AcDbLine
 10
24.29429133858267
 20
3.72244094488189
 30
0.0
 11
24.34448818897638
 21
3.746062992125985
 31
0.0
  0
LINE
  5
4663
330
1E
100
AcDbEntity
  8
3
100
AcDbLine
 10
24.34448818897638
 20
3.746062992125985
 30
0.0
 11
24.37992125984251
 21
3.790354330708662
 31
0.0
  0
LINE
  5
4664
330
1E
100
AcDbEntity
  8
3
100
AcDbLine
 10
24.37992125984251
 20
3.790354330708662
 30
0.0
 11
24.39173228346457
 21
3.843503937007874
 31
0.0
  0
LINE
  5
4665
330
1E
100
AcDbEntity
  8
3
100
AcDbLine
 10
24.39173228346457
 20
3.843503937007874
 30
0.0
 11
24.37992125984251
 21
3.896653543307085
 31
0.0
  0
LINE
  5
4666
330
1E
100
AcDbEntity
  8
3
100
AcDbLine
 10
24.37992125984251
 20
3.896653543307085
 30
0.0
 11
24.34448818897638
 21
3.940944881889762
 31
0.0
  0
LINE
  5
4667
330
1E
100
AcDbEntity
  8
3
100
AcDbLine
 10
24.34448818897638
 20
3.940944881889762
 30
0.0
 11
24.29429133858267
 21
3.964566929133857
 31
0.0
  0
LINE
  5
4668
330
1E
100
AcDbEntity
  8
3
100
AcDbLine
 10
24.29429133858267
 20
3.964566929133857
 30
0.0
 11
24.24114173228346
 21
3.964566929133857
 31
0.0
  0
LINE
  5
4669
330
1E
100
AcDbEntity
  8
3
100
AcDbLine
 10
24.24114173228346
 20
3.964566929133857
 30
0.0
 11
24.19094488188976
 21
3.940944881889762
 31
0.0
  0
LINE
  5
466A
330
1E
100
AcDbEntity
  8
3
100
AcDbLine
 10
24.19094488188976
 20
3.940944881889762
 30
0.0
 11
24.15551181102362
 21
3.896653543307085
 31
0.0
  0
LINE
  5
466B
330
1E
100
AcDbEntity
  8
3
100
AcDbLine
 10
24.15551181102362
 20
3.896653543307085
 30
0.0
 11
24.14370078740157
 21
3.843503937007874
 31
0.0
  0
LINE
  5
466C
330
1E
100
AcDbEntity
  8
3
100
AcDbLine
 10
24.93799212598425
 20
3.533464566929135
 30
0.0
 11
24.87893700787401
 21
3.518700787401574
 31
0.0
  0
LINE
  5
466D
330
1E
100
AcDbEntity
  8
3
100
AcDbLine
 10
24.87893700787401
 20
3.518700787401574
 30
0.0
 11
24.82874015748031
 21
3.480314960629923
 31
0.0
  0
LINE
  5
466E
330
1E
100
AcDbEntity
  8
3
100
AcDbLine
 10
24.82874015748031
 20
3.480314960629923
 30
0.0
 11
24.8021653543307
 21
3.424212598425196
 31
0.0
  0
LINE
  5
466F
330
1E
100
AcDbEntity
  8
3
100
AcDbLine
 10
24.8021653543307
 20
3.424212598425196
 30
0.0
 11
24.8021653543307
 21
3.365157480314962
 31
0.0
  0
LINE
  5
4670
330
1E
100
AcDbEntity
  8
3
100
AcDbLine
 10
24.8021653543307
 20
3.365157480314962
 30
0.0
 11
24.82874015748031
 21
3.309055118110237
 31
0.0
  0
LINE
  5
4671
330
1E
100
AcDbEntity
  8
3
100
AcDbLine
 10
24.82874015748031
 20
3.309055118110237
 30
0.0
 11
24.87893700787401
 21
3.270669291338585
 31
0.0
  0
LINE
  5
4672
330
1E
100
AcDbEntity
  8
3
100
AcDbLine
 10
24.87893700787401
 20
3.270669291338585
 30
0.0
 11
24.93799212598425
 21
3.255905511811024
 31
0.0
  0
LINE
  5
4673
330
1E
100
AcDbEntity
  8
3
100
AcDbLine
 10
24.93799212598425
 20
4.156496062992129
 30
0.0
 11
24.87893700787401
 21
4.141732283464568
 31
0.0
  0
LINE
  5
4674
330
1E
100
AcDbEntity
  8
3
100
AcDbLine
 10
24.87893700787401
 20
4.141732283464568
 30
0.0
 11
24.82874015748031
 21
4.103346456692912
 31
0.0
  0
LINE
  5
4675
330
1E
100
AcDbEntity
  8
3
100
AcDbLine
 10
24.82874015748031
 20
4.103346456692912
 30
0.0
 11
24.8021653543307
 21
4.04724409448819
 31
0.0
  0
LINE
  5
4676
330
1E
100
AcDbEntity
  8
3
100
AcDbLine
 10
24.8021653543307
 20
4.04724409448819
 30
0.0
 11
24.8021653543307
 21
3.988188976377951
 31
0.0
  0
LINE
  5
4677
330
1E
100
AcDbEntity
  8
3
100
AcDbLine
 10
24.8021653543307
 20
3.988188976377951
 30
0.0
 11
24.82874015748031
 21
3.932086614173229
 31
0.0
  0
LINE
  5
4678
330
1E
100
AcDbEntity
  8
3
100
AcDbLine
 10
24.82874015748031
 20
3.932086614173229
 30
0.0
 11
24.87893700787401
 21
3.893700787401574
 31
0.0
  0
LINE
  5
4679
330
1E
100
AcDbEntity
  8
3
100
AcDbLine
 10
24.87893700787401
 20
3.893700787401574
 30
0.0
 11
24.93799212598425
 21
3.878937007874018
 31
0.0
  0
LINE
  5
467A
330
1E
100
AcDbEntity
  8
3
100
AcDbLine
 10
25.05610236220472
 20
2.753937007874018
 30
0.0
 11
25.11515748031496
 21
2.768700787401574
 31
0.0
  0
LINE
  5
467B
330
1E
100
AcDbEntity
  8
3
100
AcDbLine
 10
25.11515748031496
 20
2.768700787401574
 30
0.0
 11
25.16535433070866
 21
2.807086614173229
 31
0.0
  0
LINE
  5
467C
330
1E
100
AcDbEntity
  8
3
100
AcDbLine
 10
25.16535433070866
 20
2.807086614173229
 30
0.0
 11
25.19192913385827
 21
2.863188976377954
 31
0.0
  0
LINE
  5
467D
330
1E
100
AcDbEntity
  8
3
100
AcDbLine
 10
25.19192913385827
 20
2.863188976377954
 30
0.0
 11
25.19192913385827
 21
2.92224409448819
 31
0.0
  0
LINE
  5
467E
330
1E
100
AcDbEntity
  8
3
100
AcDbLine
 10
25.19192913385827
 20
2.92224409448819
 30
0.0
 11
25.16535433070866
 21
2.978346456692912
 31
0.0
  0
LINE
  5
467F
330
1E
100
AcDbEntity
  8
3
100
AcDbLine
 10
25.16535433070866
 20
2.978346456692912
 30
0.0
 11
25.11515748031496
 21
3.016732283464568
 31
0.0
  0
LINE
  5
4680
330
1E
100
AcDbEntity
  8
3
100
AcDbLine
 10
25.11515748031496
 20
3.016732283464568
 30
0.0
 11
25.05610236220472
 21
3.031496062992126
 31
0.0
  0
LINE
  5
4681
330
1E
100
AcDbEntity
  8
3
100
AcDbLine
 10
25.05610236220472
 20
3.255905511811024
 30
0.0
 11
25.11515748031496
 21
3.270669291338585
 31
0.0
  0
LINE
  5
4682
330
1E
100
AcDbEntity
  8
3
100
AcDbLine
 10
25.11515748031496
 20
3.270669291338585
 30
0.0
 11
25.16535433070866
 21
3.309055118110237
 31
0.0
  0
LINE
  5
4683
330
1E
100
AcDbEntity
  8
3
100
AcDbLine
 10
25.16535433070866
 20
3.309055118110237
 30
0.0
 11
25.19192913385827
 21
3.365157480314962
 31
0.0
  0
LINE
  5
4684
330
1E
100
AcDbEntity
  8
3
100
AcDbLine
 10
25.19192913385827
 20
3.365157480314962
 30
0.0
 11
25.19192913385827
 21
3.424212598425196
 31
0.0
  0
LINE
  5
4685
330
1E
100
AcDbEntity
  8
3
100
AcDbLine
 10
25.19192913385827
 20
3.424212598425196
 30
0.0
 11
25.16535433070866
 21
3.480314960629923
 31
0.0
  0
LINE
  5
4686
330
1E
100
AcDbEntity
  8
3
100
AcDbLine
 10
25.16535433070866
 20
3.480314960629923
 30
0.0
 11
25.11515748031496
 21
3.518700787401574
 31
0.0
  0
LINE
  5
4687
330
1E
100
AcDbEntity
  8
3
100
AcDbLine
 10
25.11515748031496
 20
3.518700787401574
 30
0.0
 11
25.05610236220472
 21
3.533464566929135
 31
0.0
  0
LINE
  5
4688
330
1E
100
AcDbEntity
  8
3
100
AcDbLine
 10
24.62204724409448
 20
4.788385826771657
 30
0.0
 11
24.63976377952755
 21
4.74704724409449
 31
0.0
  0
LINE
  5
4689
330
1E
100
AcDbEntity
  8
3
100
AcDbLine
 10
24.63976377952755
 20
4.74704724409449
 30
0.0
 11
24.68110236220472
 21
4.729330708661418
 31
0.0
  0
LINE
  5
468A
330
1E
100
AcDbEntity
  8
3
100
AcDbLine
 10
24.68110236220472
 20
4.729330708661418
 30
0.0
 11
24.72244094488189
 21
4.74704724409449
 31
0.0
  0
LINE
  5
468B
330
1E
100
AcDbEntity
  8
3
100
AcDbLine
 10
24.72244094488189
 20
4.74704724409449
 30
0.0
 11
24.74015748031495
 21
4.788385826771657
 31
0.0
  0
LINE
  5
468C
330
1E
100
AcDbEntity
  8
3
100
AcDbLine
 10
24.93799212598425
 20
4.782480314960629
 30
0.0
 11
24.87893700787401
 21
4.767716535433073
 31
0.0
  0
LINE
  5
468D
330
1E
100
AcDbEntity
  8
3
100
AcDbLine
 10
24.87893700787401
 20
4.767716535433073
 30
0.0
 11
24.82874015748031
 21
4.729330708661418
 31
0.0
  0
LINE
  5
468E
330
1E
100
AcDbEntity
  8
3
100
AcDbLine
 10
24.82874015748031
 20
4.729330708661418
 30
0.0
 11
24.8021653543307
 21
4.673228346456696
 31
0.0
  0
LINE
  5
468F
330
1E
100
AcDbEntity
  8
3
100
AcDbLine
 10
24.8021653543307
 20
4.673228346456696
 30
0.0
 11
24.8021653543307
 21
4.614173228346457
 31
0.0
  0
LINE
  5
4690
330
1E
100
AcDbEntity
  8
3
100
AcDbLine
 10
24.8021653543307
 20
4.614173228346457
 30
0.0
 11
24.82874015748031
 21
4.558070866141735
 31
0.0
  0
LINE
  5
4691
330
1E
100
AcDbEntity
  8
3
100
AcDbLine
 10
24.82874015748031
 20
4.558070866141735
 30
0.0
 11
24.87893700787401
 21
4.519685039370079
 31
0.0
  0
LINE
  5
4692
330
1E
100
AcDbEntity
  8
3
100
AcDbLine
 10
24.87893700787401
 20
4.519685039370079
 30
0.0
 11
24.93799212598425
 21
4.504921259842518
 31
0.0
  0
LINE
  5
4693
330
1E
100
AcDbEntity
  8
3
100
AcDbLine
 10
24.62204724409448
 20
4.788385826771657
 30
0.0
 11
24.62204724409448
 21
4.832677165354329
 31
0.0
  0
LINE
  5
4694
330
1E
100
AcDbEntity
  8
3
100
AcDbLine
 10
24.62204724409448
 20
4.832677165354329
 30
0.0
 11
24.62204724409448
 21
4.865157480314962
 31
0.0
  0
LINE
  5
4695
330
1E
100
AcDbEntity
  8
3
100
AcDbLine
 10
24.62204724409448
 20
4.865157480314962
 30
0.0
 11
24.62204724409448
 21
4.876968503937007
 31
0.0
  0
LINE
  5
4696
330
1E
100
AcDbEntity
  8
3
100
AcDbLine
 10
25.05610236220472
 20
4.504921259842518
 30
0.0
 11
25.11515748031496
 21
4.519685039370079
 31
0.0
  0
LINE
  5
4697
330
1E
100
AcDbEntity
  8
3
100
AcDbLine
 10
25.11515748031496
 20
4.519685039370079
 30
0.0
 11
25.16535433070866
 21
4.558070866141735
 31
0.0
  0
LINE
  5
4698
330
1E
100
AcDbEntity
  8
3
100
AcDbLine
 10
25.16535433070866
 20
4.558070866141735
 30
0.0
 11
25.19192913385827
 21
4.614173228346457
 31
0.0
  0
LINE
  5
4699
330
1E
100
AcDbEntity
  8
3
100
AcDbLine
 10
25.19192913385827
 20
4.614173228346457
 30
0.0
 11
25.19192913385827
 21
4.673228346456696
 31
0.0
  0
LINE
  5
469A
330
1E
100
AcDbEntity
  8
3
100
AcDbLine
 10
25.19192913385827
 20
4.673228346456696
 30
0.0
 11
25.16535433070866
 21
4.729330708661418
 31
0.0
  0
LINE
  5
469B
330
1E
100
AcDbEntity
  8
3
100
AcDbLine
 10
25.16535433070866
 20
4.729330708661418
 30
0.0
 11
25.11515748031496
 21
4.767716535433073
 31
0.0
  0
LINE
  5
469C
330
1E
100
AcDbEntity
  8
3
100
AcDbLine
 10
25.11515748031496
 20
4.767716535433073
 30
0.0
 11
25.05610236220472
 21
4.782480314960629
 31
0.0
  0
LINE
  5
469D
330
1E
100
AcDbEntity
  8
3
100
AcDbLine
 10
25.34251968503937
 20
4.817913385826773
 30
0.0
 11
25.32480314960629
 21
4.85925196850394
 31
0.0
  0
LINE
  5
469E
330
1E
100
AcDbEntity
  8
3
100
AcDbLine
 10
25.32480314960629
 20
4.85925196850394
 30
0.0
 11
25.28346456692913
 21
4.876968503937007
 31
0.0
  0
LINE
  5
469F
330
1E
100
AcDbEntity
  8
3
100
AcDbLine
 10
24.74311023622047
 20
9.749015748031496
 30
0.0
 11
25.28346456692913
 21
9.749015748031496
 31
0.0
  0
LINE
  5
46A0
330
1E
100
AcDbEntity
  8
3
100
AcDbLine
 10
25.28346456692913
 20
9.749015748031496
 30
0.0
 11
25.28346456692913
 21
9.808070866141735
 31
0.0
  0
LINE
  5
46A1
330
1E
100
AcDbEntity
  8
3
100
AcDbLine
 10
25.28346456692913
 20
9.808070866141735
 30
0.0
 11
24.74311023622047
 21
9.808070866141735
 31
0.0
  0
LINE
  5
46A2
330
1E
100
AcDbEntity
  8
3
100
AcDbLine
 10
24.74311023622047
 20
9.808070866141735
 30
0.0
 11
24.74311023622047
 21
9.749015748031496
 31
0.0
  0
LINE
  5
46A3
330
1E
100
AcDbEntity
  8
3
100
AcDbLine
 10
24.6515748031496
 20
9.749015748031496
 30
0.0
 11
25.29232283464567
 21
9.749015748031496
 31
0.0
  0
LINE
  5
46A4
330
1E
100
AcDbEntity
  8
3
100
AcDbLine
 10
25.29232283464567
 20
9.749015748031496
 30
0.0
 11
24.6515748031496
 21
9.749015748031496
 31
0.0
  0
LINE
  5
46A5
330
1E
100
AcDbEntity
  8
3
100
AcDbLine
 10
24.46850393700787
 20
10.02066929133858
 30
0.0
 11
24.48622047244095
 21
9.976377952755907
 31
0.0
  0
LINE
  5
46A6
330
1E
100
AcDbEntity
  8
3
100
AcDbLine
 10
24.48622047244095
 20
9.976377952755907
 30
0.0
 11
24.53051181102361
 21
9.958661417322835
 31
0.0
  0
LINE
  5
46A7
330
1E
100
AcDbEntity
  8
3
100
AcDbLine
 10
24.74311023622047
 20
9.808070866141735
 30
0.0
 11
24.7253937007874
 21
9.808070866141735
 31
0.0
  0
LINE
  5
46A8
330
1E
100
AcDbEntity
  8
3
100
AcDbLine
 10
24.7253937007874
 20
9.808070866141735
 30
0.0
 11
24.68110236220472
 21
9.808070866141735
 31
0.0
  0
LINE
  5
46A9
330
1E
100
AcDbEntity
  8
3
100
AcDbLine
 10
24.68110236220472
 20
9.808070866141735
 30
0.0
 11
24.63976377952755
 21
9.808070866141735
 31
0.0
  0
LINE
  5
46AA
330
1E
100
AcDbEntity
  8
3
100
AcDbLine
 10
24.63976377952755
 20
9.808070866141735
 30
0.0
 11
24.62204724409448
 21
9.808070866141735
 31
0.0
  0
LINE
  5
46AB
330
1E
100
AcDbEntity
  8
3
100
AcDbLine
 10
24.62204724409448
 20
9.749015748031496
 30
0.0
 11
24.63976377952755
 21
9.749015748031496
 31
0.0
  0
LINE
  5
46AC
330
1E
100
AcDbEntity
  8
3
100
AcDbLine
 10
24.63976377952755
 20
9.749015748031496
 30
0.0
 11
24.68110236220472
 21
9.749015748031496
 31
0.0
  0
LINE
  5
46AD
330
1E
100
AcDbEntity
  8
3
100
AcDbLine
 10
24.68110236220472
 20
9.749015748031496
 30
0.0
 11
24.7253937007874
 21
9.749015748031496
 31
0.0
  0
LINE
  5
46AE
330
1E
100
AcDbEntity
  8
3
100
AcDbLine
 10
24.7253937007874
 20
9.749015748031496
 30
0.0
 11
24.74311023622047
 21
9.749015748031496
 31
0.0
  0
LINE
  5
46AF
330
1E
100
AcDbEntity
  8
3
100
AcDbLine
 10
24.62204724409448
 20
9.896653543307085
 30
0.0
 11
24.60433070866141
 21
9.940944881889762
 31
0.0
  0
LINE
  5
46B0
330
1E
100
AcDbEntity
  8
3
100
AcDbLine
 10
24.60433070866141
 20
9.940944881889762
 30
0.0
 11
24.56003937007874
 21
9.958661417322835
 31
0.0
  0
LINE
  5
46B1
330
1E
100
AcDbEntity
  8
3
100
AcDbLine
 10
24.53346456692913
 20
9.837598425196851
 30
0.0
 11
24.62204724409448
 21
9.837598425196851
 31
0.0
  0
LINE
  5
46B2
330
1E
100
AcDbEntity
  8
3
100
AcDbLine
 10
24.62204724409448
 20
9.837598425196851
 30
0.0
 11
24.62204724409448
 21
9.896653543307085
 31
0.0
  0
LINE
  5
46B3
330
1E
100
AcDbEntity
  8
3
100
AcDbLine
 10
24.62204724409448
 20
9.749015748031496
 30
0.0
 11
24.62204724409448
 21
9.760826771653546
 31
0.0
  0
LINE
  5
46B4
330
1E
100
AcDbEntity
  8
3
100
AcDbLine
 10
24.62204724409448
 20
9.760826771653546
 30
0.0
 11
24.62204724409448
 21
9.793307086614174
 31
0.0
  0
LINE
  5
46B5
330
1E
100
AcDbEntity
  8
3
100
AcDbLine
 10
24.62204724409448
 20
9.793307086614174
 30
0.0
 11
24.62204724409448
 21
9.837598425196851
 31
0.0
  0
LINE
  5
46B6
330
1E
100
AcDbEntity
  8
3
100
AcDbLine
 10
24.53346456692913
 20
9.837598425196851
 30
0.0
 11
24.62204724409448
 21
9.837598425196851
 31
0.0
  0
LINE
  5
46B7
330
1E
100
AcDbEntity
  8
3
100
AcDbLine
 10
24.62204724409448
 20
9.837598425196851
 30
0.0
 11
24.53346456692913
 21
9.837598425196851
 31
0.0
  0
LINE
  5
46B8
330
1E
100
AcDbEntity
  8
3
100
AcDbLine
 10
24.46555118110236
 20
10.126968503937
 30
0.0
 11
24.44783464566929
 21
10.17125984251968
 31
0.0
  0
LINE
  5
46B9
330
1E
100
AcDbEntity
  8
3
100
AcDbLine
 10
24.44783464566929
 20
10.17125984251968
 30
0.0
 11
24.40354330708661
 21
10.18897637795275
 31
0.0
  0
LINE
  5
46BA
330
1E
100
AcDbEntity
  8
3
100
AcDbLine
 10
25.28346456692913
 20
9.808070866141735
 30
0.0
 11
25.32480314960629
 21
9.808070866141735
 31
0.0
  0
LINE
  5
46BB
330
1E
100
AcDbEntity
  8
3
100
AcDbLine
 10
25.32480314960629
 20
9.808070866141735
 30
0.0
 11
25.34251968503937
 21
9.808070866141735
 31
0.0
  0
LINE
  5
46BC
330
1E
100
AcDbEntity
  8
3
100
AcDbLine
 10
25.34251968503937
 20
9.808070866141735
 30
0.0
 11
25.34251968503937
 21
9.749015748031496
 31
0.0
  0
ENDSEC
  0
SECTION
  2
OBJECTS
  0
DICTIONARY
  5
C
330
0
100
AcDbDictionary
  3
ACAD_GROUP
350
D
  3
ACAD_LAYOUT
350
19
  3
ACAD_MLINESTYLE
350
16
  3
ACAD_PLOTSETTINGS
350
18
  3
ACAD_PLOTSTYLENAME
350
E
  3
ACDBHEADERROUNDTRIPXREC
350
46F2
  0
DICTIONARY
  5
4715
330
1E
100
AcDbDictionary
280
     1
  3
ACAD_LAYOUTSELFREF
360
4716
  0
DICTIONARY
  5
4713
330
1A
100
AcDbDictionary
280
     1
  3
ACAD_LAYOUTSELFREF
360
4714
  0
DICTIONARY
  5
D
102
{ACAD_REACTORS
330
C
102
}
330
C
100
AcDbDictionary
  0
DICTIONARY
  5
19
102
{ACAD_REACTORS
330
C
102
}
330
C
100
AcDbDictionary
  0
DICTIONARY
  5
16
102
{ACAD_REACTORS
330
C
102
}
330
C
100
AcDbDictionary
  3
STANDARD
350
17
  0
DICTIONARY
  5
18
102
{ACAD_REACTORS
330
C
102
}
330
C
100
AcDbDictionary
  0
ACDBDICTIONARYWDFLT
  5
E
102
{ACAD_REACTORS
330
C
102
}
330
C
100
AcDbDictionary
281
     1
  3
Normal
350
F
100
AcDbDictionaryWithDefault
340
F
  0
DICTIONARY
  5
46F2
102
{ACAD_REACTORS
330
C
102
}
330
C
100
AcDbDictionary
  3
CEPSNTYPE
350
46FC
  3
DIMSTYLEDATA
350
4700
  3
FINGERPRINTGUID
350
46FD
  3
HYPERLINKBASE
350
46F5
  3
INSUNITS
350
46FB
  3
LAYOUTDICT
350
46F7
  3
LWETCUNION
350
46FA
  3
PLOTSETDICT
350
46F8
  3
PLOTSTYLNAMDICT
350
46F9
  3
PSVPSCALE
350
46FF
  3
PUCSBASE
350
4703
  3
PUCSORGBACK
350
4709
  3
PUCSORGBOTTOM
350
4705
  3
PUCSORGFRONT
350
4708
  3
PUCSORGLEFT
350
4706
  3
PUCSORGRIGHT
350
4707
  3
PUCSORGTOP
350
4704
  3
PUCSORTHOREF
350
4701
  3
PUCSORTHOVIEW
350
4702
  3
STYLESHEET
350
46F6
  3
TSTACKALIGN
350
46F3
  3
TSTACKSIZE
350
46F4
  3
UCSBASE
350
470C
  3
UCSORGBACK
350
4712
  3
UCSORGBOTTOM
350
470E
  3
UCSORGFRONT
350
4711
  3
UCSORGLEFT
350
470F
  3
UCSORGRIGHT
350
4710
  3
UCSORGTOP
350
470D
  3
UCSORTHOREF
350
470A
  3
UCSORTHOVIEW
350
470B
  3
VERSIONGUID
350
46FE
  0
XRECORD
  5
4716
102
{ACAD_REACTORS
330
4715
102
}
330
4715
100
AcDbXrecord
340
1E
  0
XRECORD
  5
4714
102
{ACAD_REACTORS
330
4713
102
}
330
4713
100
AcDbXrecord
340
1A
  0
MLINESTYLE
  5
17
102
{ACAD_REACTORS
330
16
102
}
330
16
100
AcDbMlineStyle
  2
STANDARD
 70
     0
  3

 62
   256
 51
90.0
 52
90.0
 71
     2
 49
0.5
 62
   256
  6
BYLAYER
 49
-0.5
 62
   256
  6
BYLAYER
  0
ACDBPLACEHOLDER
  5
F
102
{ACAD_REACTORS
330
E
102
}
330
E
100
AcDbPlaceHolder
280
     0
  0
XRECORD
  5
46FC
102
{ACAD_REACTORS
330
46F2
102
}
330
46F2
100
AcDbXrecord
 90
        0
  0
XRECORD
  5
4700
102
{ACAD_REACTORS
330
46F2
102
}
330
46F2
100
AcDbXrecord
1000
DSTYLE
1002
{
1070
   279
 70
     2
1002
}
  0
XRECORD
  5
46FD
102
{ACAD_REACTORS
330
46F2
102
}
330
46F2
100
AcDbXrecord
  1
{B3ADE414-5DD9-11D6-B7D1-00B0D0207C23}
  0
XRECORD
  5
46F5
102
{ACAD_REACTORS
330
46F2
102
}
330
46F2
100
AcDbXrecord
  1

  0
XRECORD
  5
46FB
102
{ACAD_REACTORS
330
46F2
102
}
330
46F2
100
AcDbXrecord
 90
        0
  0
XRECORD
  5
46F7
102
{ACAD_REACTORS
330
46F2
102
}
330
46F2
100
AcDbXrecord
340
19
  0
XRECORD
  5
46FA
102
{ACAD_REACTORS
330
46F2
102
}
330
46F2
100
AcDbXrecord
 90
    14877
  0
XRECORD
  5
46F8
102
{ACAD_REACTORS
330
46F2
102
}
330
46F2
100
AcDbXrecord
340
18
  0
XRECORD
  5
46F9
102
{ACAD_REACTORS
330
46F2
102
}
330
46F2
100
AcDbXrecord
340
E
  0
XRECORD
  5
46FF
102
{ACAD_REACTORS
330
46F2
102
}
330
46F2
100
AcDbXrecord
 40
0.0
  0
XRECORD
  5
4703
102
{ACAD_REACTORS
330
46F2
102
}
330
46F2
100
AcDbXrecord
340
0
  0
XRECORD
  5
4709
102
{ACAD_REACTORS
330
46F2
102
}
330
46F2
100
AcDbXrecord
 10
0.0
 20
0.0
 30
0.0
  0
XRECORD
  5
4705
102
{ACAD_REACTORS
330
46F2
102
}
330
46F2
100
AcDbXrecord
 10
0.0
 20
0.0
 30
0.0
  0
XRECORD
  5
4708
102
{ACAD_REACTORS
330
46F2
102
}
330
46F2
100
AcDbXrecord
 10
0.0
 20
0.0
 30
0.0
  0
XRECORD
  5
4706
102
{ACAD_REACTORS
330
46F2
102
}
330
46F2
100
AcDbXrecord
 10
0.0
 20
0.0
 30
0.0
  0
XRECORD
  5
4707
102
{ACAD_REACTORS
330
46F2
102
}
330
46F2
100
AcDbXrecord
 10
0.0
 20
0.0
 30
0.0
  0
XRECORD
  5
4704
102
{ACAD_REACTORS
330
46F2
102
}
330
46F2
100
AcDbXrecord
 10
0.0
 20
0.0
 30
0.0
  0
XRECORD
  5
4701
102
{ACAD_REACTORS
330
46F2
102
}
330
46F2
100
AcDbXrecord
340
0
  0
XRECORD
  5
4702
102
{ACAD_REACTORS
330
46F2
102
}
330
46F2
100
AcDbXrecord
 70
     0
  0
XRECORD
  5
46F6
102
{ACAD_REACTORS
330
46F2
102
}
330
46F2
100
AcDbXrecord
  1

  0
XRECORD
  5
46F3
102
{ACAD_REACTORS
330
46F2
102
}
330
46F2
100
AcDbXrecord
 90
        1
  0
XRECORD
  5
46F4
102
{ACAD_REACTORS
330
46F2
102
}
330
46F2
100
AcDbXrecord
 90
       70
  0
XRECORD
  5
470C
102
{ACAD_REACTORS
330
46F2
102
}
330
46F2
100
AcDbXrecord
340
0
  0
XRECORD
  5
4712
102
{ACAD_REACTORS
330
46F2
102
}
330
46F2
100
AcDbXrecord
 10
0.0
 20
0.0
 30
0.0
  0
XRECORD
  5
470E
102
{ACAD_REACTORS
330
46F2
102
}
330
46F2
100
AcDbXrecord
 10
0.0
 20
0.0
 30
0.0
  0
XRECORD
  5
4711
102
{ACAD_REACTORS
330
46F2
102
}
330
46F2
100
AcDbXrecord
 10
0.0
 20
0.0
 30
0.0
  0
XRECORD
  5
470F
102
{ACAD_REACTORS
330
46F2
102
}
330
46F2
100
AcDbXrecord
 10
0.0
 20
0.0
 30
0.0
  0
XRECORD
  5
4710
102
{ACAD_REACTORS
330
46F2
102
}
330
46F2
100
AcDbXrecord
 10
0.0
 20
0.0
 30
0.0
  0
XRECORD
  5
470D
102
{ACAD_REACTORS
330
46F2
102
}
330
46F2
100
AcDbXrecord
 10
0.0
 20
0.0
 30
0.0
  0
XRECORD
  5
470A
102
{ACAD_REACTORS
330
46F2
102
}
330
46F2
100
AcDbXrecord
340
0
  0
XRECORD
  5
470B
102
{ACAD_REACTORS
330
46F2
102
}
330
46F2
100
AcDbXrecord
 70
     0
  0
XRECORD
  5
46FE
102
{ACAD_REACTORS
330
46F2
102
}
330
46F2
100
AcDbXrecord
  1
{B3ADE418-5DD9-11D6-B7D1-00B0D0207C23}
  0
ENDSEC
  0
EOF
