  0
SECTION
  2
HEADER
  9
$ACADVER
  1
AC1012
  9
$DWGCODEPAGE
  3
ANSI_1252
  9
$INSBASE
 10
0.0
 20
0.0
 30
0.0
  9
$EXTMIN
 10
-2.968505834891118
 20
-0.8063964643590111
 30
-0.0015258207003583
  9
$EXTMAX
 10
11.81726076991444
 20
6.995269794011569
 30
0.0000000349246037
  9
$LIMMIN
 10
0.0
 20
0.0
  9
$LIMMAX
 10
12.0
 20
9.0
  9
$ORTHOMODE
 70
     0
  9
$REGENMODE
 70
     1
  9
$FILLMODE
 70
     1
  9
$QTEXTMODE
 70
     0
  9
$MIRRTEXT
 70
     1
  9
$DRAGMODE
 70
     2
  9
$LTSCALE
 40
1.0
  9
$OSMODE
 70
    33
  9
$ATTMODE
 70
     1
  9
$TEXTSIZE
 40
0.2
  9
$TRACEWID
 40
0.05
  9
$TEXTSTYLE
  7
STANDARD
  9
$CLAYER
  8
0
  9
$CELTYPE
  6
BYLAYER
  9
$CECOLOR
 62
   256
  9
$CELTSCALE
 40
1.0
  9
$DELOBJ
 70
     1
  9
$DISPSILH
 70
     0
  9
$DIMSCALE
 40
1.0
  9
$DIMASZ
 40
0.18
  9
$DIMEXO
 40
0.0625
  9
$DIMDLI
 40
0.38
  9
$DIMRND
 40
0.0
  9
$DIMDLE
 40
0.0
  9
$DIMEXE
 40
0.18
  9
$DIMTP
 40
0.0
  9
$DIMTM
 40
0.0
  9
$DIMTXT
 40
0.18
  9
$DIMCEN
 40
0.09
  9
$DIMTSZ
 40
0.0
  9
$DIMTOL
 70
     0
  9
$DIMLIM
 70
     0
  9
$DIMTIH
 70
     1
  9
$DIMTOH
 70
     1
  9
$DIMSE1
 70
     0
  9
$DIMSE2
 70
     0
  9
$DIMTAD
 70
     0
  9
$DIMZIN
 70
     0
  9
$DIMBLK
  1

  9
$DIMASO
 70
     1
  9
$DIMSHO
 70
     1
  9
$DIMPOST
  1

  9
$DIMAPOST
  1

  9
$DIMALT
 70
     0
  9
$DIMALTD
 70
     2
  9
$DIMALTF
 40
25.4
  9
$DIMLFAC
 40
1.0
  9
$DIMTOFL
 70
     0
  9
$DIMTVP
 40
0.0
  9
$DIMTIX
 70
     0
  9
$DIMSOXD
 70
     0
  9
$DIMSAH
 70
     0
  9
$DIMBLK1
  1

  9
$DIMBLK2
  1

  9
$DIMSTYLE
  2
STANDARD
  9
$DIMCLRD
 70
     0
  9
$DIMCLRE
 70
     0
  9
$DIMCLRT
 70
     0
  9
$DIMTFAC
 40
1.0
  9
$DIMGAP
 40
0.09
  9
$DIMJUST
 70
     0
  9
$DIMSD1
 70
     0
  9
$DIMSD2
 70
     0
  9
$DIMTOLJ
 70
     1
  9
$DIMTZIN
 70
     0
  9
$DIMALTZ
 70
     0
  9
$DIMALTTZ
 70
     0
  9
$DIMFIT
 70
     5
  9
$DIMUPT
 70
     0
  9
$DIMUNIT
 70
     2
  9
$DIMDEC
 70
     4
  9
$DIMTDEC
 70
     4
  9
$DIMALTU
 70
     2
  9
$DIMALTTD
 70
     2
  9
$DIMTXSTY
  7
STANDARD
  9
$DIMAUNIT
 70
     0
  9
$LUNITS
 70
     2
  9
$LUPREC
 70
     4
  9
$SKETCHINC
 40
0.1
  9
$FILLETRAD
 40
0.0
  9
$AUNITS
 70
     0
  9
$AUPREC
 70
     0
  9
$MENU
  1
acad
  9
$ELEVATION
 40
0.0
  9
$PELEVATION
 40
0.0
  9
$THICKNESS
 40
0.0
  9
$LIMCHECK
 70
     0
  9
$BLIPMODE
 70
     0
  9
$CHAMFERA
 40
0.0
  9
$CHAMFERB
 40
0.0
  9
$CHAMFERC
 40
0.0
  9
$CHAMFERD
 40
0.0
  9
$SKPOLY
 70
     0
  9
$TDCREATE
 40
2452604.348287037
  9
$TDUPDATE
 40
2452604.354922928
  9
$TDINDWG
 40
0.0015212731
  9
$TDUSRTIMER
 40
0.0015212731
  9
$USRTIMER
 70
     1
  9
$ANGBASE
 50
0.0
  9
$ANGDIR
 70
     0
  9
$PDMODE
 70
     0
  9
$PDSIZE
 40
0.0
  9
$PLINEWID
 40
0.0
  9
$COORDS
 70
     2
  9
$SPLFRAME
 70
     0
  9
$SPLINETYPE
 70
     6
  9
$SPLINESEGS
 70
     8
  9
$ATTDIA
 70
     0
  9
$ATTREQ
 70
     1
  9
$HANDLING
 70
  4097
  9
$HANDSEED
  5
4197
  9
$SURFTAB1
 70
     6
  9
$SURFTAB2
 70
     6
  9
$SURFTYPE
 70
     6
  9
$SURFU
 70
     6
  9
$SURFV
 70
     6
  9
$UCSNAME
  2

  9
$UCSORG
 10
0.0
 20
0.0
 30
0.0
  9
$UCSXDIR
 10
1.0
 20
0.0
 30
0.0
  9
$UCSYDIR
 10
0.0
 20
1.0
 30
0.0
  9
$PUCSNAME
  2

  9
$PUCSORG
 10
0.0
 20
0.0
 30
0.0
  9
$PUCSXDIR
 10
1.0
 20
0.0
 30
0.0
  9
$PUCSYDIR
 10
0.0
 20
1.0
 30
0.0
  9
$USERI1
 70
     0
  9
$USERI2
 70
     0
  9
$USERI3
 70
     0
  9
$USERI4
 70
     0
  9
$USERI5
 70
     0
  9
$USERR1
 40
0.0
  9
$USERR2
 40
0.0
  9
$USERR3
 40
0.0
  9
$USERR4
 40
0.0
  9
$USERR5
 40
0.0
  9
$WORLDVIEW
 70
     1
  9
$SHADEDGE
 70
     3
  9
$SHADEDIF
 70
    70
  9
$TILEMODE
 70
     1
  9
$MAXACTVP
 70
    16
  9
$PINSBASE
 10
0.0
 20
0.0
 30
0.0
  9
$PLIMCHECK
 70
     0
  9
$PEXTMIN
 10
1.000000000000000E+20
 20
1.000000000000000E+20
 30
1.000000000000000E+20
  9
$PEXTMAX
 10
-1.000000000000000E+20
 20
-1.000000000000000E+20
 30
-1.000000000000000E+20
  9
$PLIMMIN
 10
0.0
 20
0.0
  9
$PLIMMAX
 10
12.0
 20
9.0
  9
$UNITMODE
 70
     0
  9
$VISRETAIN
 70
     0
  9
$PLINEGEN
 70
     0
  9
$PSLTSCALE
 70
     1
  9
$TREEDEPTH
 70
  3020
  9
$PICKSTYLE
 70
     1
  9
$CMLSTYLE
  2
STANDARD
  9
$CMLJUST
 70
     0
  9
$CMLSCALE
 40
1.0
  9
$SAVEIMAGES
 70
     1
  0
ENDSEC
  0
SECTION
  2
CLASSES
  0
CLASS
  1
ACDBDICTIONARYWDFLT
  2
AcDbDictionaryWithDefault
  3
AutoCAD 2000
 90
    32768
280
     0
281
     0
  0
CLASS
  1
ACDBPLACEHOLDER
  2
AcDbPlaceHolder
  3
AutoCAD 2000
 90
    32768
280
     0
281
     0
  0
CLASS
  1
LAYOUT
  2
AcDbLayout
  3
AutoCAD 2000
 90
    32768
280
     0
281
     0
  0
CLASS
  1
LONG_TRANSACTION
  2
AcDbLongTransaction
  3
AutoCAD 2000
 90
    32768
280
     0
281
     0
  0
CLASS
  1
LWPOLYLINE
  2
AcDbPolyline
  3
AutoCAD 2000
 90
    32768
280
     0
281
     1
  0
CLASS
  1
HATCH
  2
AcDbHatch
  3
AutoCAD 2000
 90
    32768
280
     0
281
     1
  0
CLASS
  1
XRECORD
  2
AcDbXrecord
  3
AutoCAD 2000
 90
    32768
280
     0
281
     0
  0
ENDSEC
  0
SECTION
  2
TABLES
  0
TABLE
  2
VPORT
  5
8
330
0
100
AcDbSymbolTable
 70
     3
  0
VPORT
  5
4192
330
8
100
AcDbSymbolTableRecord
100
AcDbViewportTableRecord
  2
*ACTIVE
 70
     0
 10
0.0
 20
0.0
 11
1.0
 21
1.0
 12
4.424377467511662
 22
3.094436664826279
 13
0.0
 23
0.0
 14
1.0
 24
1.0
 15
0.0
 25
0.0
 16
0.0
 26
0.0
 36
1.0
 17
0.0
 27
0.0
 37
0.0
 40
9.119019659761141
 41
1.62928759894459
 42
50.0
 43
0.0
 44
0.0
 50
0.0
 51
0.0
 71
     0
 72
   100
 73
     1
 74
     1
 75
     0
 76
     0
 77
     0
 78
     0
  0
ENDTAB
  0
TABLE
  2
LTYPE
  5
5
330
0
100
AcDbSymbolTable
 70
    25
  0
LTYPE
  5
13
330
5
100
AcDbSymbolTableRecord
100
AcDbLinetypeTableRecord
  2
BYBLOCK
 70
     0
  3

 72
    65
 73
     0
 40
0.0
  0
LTYPE
  5
14
330
5
100
AcDbSymbolTableRecord
100
AcDbLinetypeTableRecord
  2
BYLAYER
 70
     0
  3

 72
    65
 73
     0
 40
0.0
  0
LTYPE
  5
15
330
5
100
AcDbSymbolTableRecord
100
AcDbLinetypeTableRecord
  2
CONTINUOUS
 70
     0
  3
Solid line
 72
    65
 73
     0
 40
0.0
  0
LTYPE
  5
22
330
5
100
AcDbSymbolTableRecord
100
AcDbLinetypeTableRecord
  2
BORDER
 70
     0
  3
__ __ . __ __ . __ __ . __ __ . __ __ . __ __ .
 72
    65
 73
     6
 40
1.75
 49
0.5
 74
     0
 49
-0.25
 74
     0
 49
0.5
 74
     0
 49
-0.25
 74
     0
 49
0.5
 74
     0
 49
-0.25
 74
     0
  0
LTYPE
  5
23
330
5
100
AcDbSymbolTableRecord
100
AcDbLinetypeTableRecord
  2
BORDER2
 70
     0
  3
__.__.__.__.__.__.__.__.__.__.__.__.__.__.__.__
 72
    65
 73
     6
 40
0.875
 49
0.25
 74
     0
 49
-0.125
 74
     0
 49
0.25
 74
     0
 49
-0.125
 74
     0
 49
0.25
 74
     0
 49
-0.125
 74
     0
  0
LTYPE
  5
24
330
5
100
AcDbSymbolTableRecord
100
AcDbLinetypeTableRecord
  2
BORDERX2
 70
     0
  3
____  ____  .  ____  ____  .  
 72
    65
 73
     6
 40
3.5
 49
1.0
 74
     0
 49
-0.5
 74
     0
 49
1.0
 74
     0
 49
-0.5
 74
     0
 49
1.0
 74
     0
 49
-0.5
 74
     0
  0
LTYPE
  5
25
330
5
100
AcDbSymbolTableRecord
100
AcDbLinetypeTableRecord
  2
CENTER
 70
     0
  3
____ _ ____ _ ____ _ ____ _ ____ _ ____ _ ____
 72
    65
 73
     4
 40
2.0
 49
1.25
 74
     0
 49
-0.25
 74
     0
 49
0.25
 74
     0
 49
-0.25
 74
     0
  0
LTYPE
  5
26
330
5
100
AcDbSymbolTableRecord
100
AcDbLinetypeTableRecord
  2
CENTER2
 70
     0
  3
____ _ ____ _ ____ _ ____ _ ____ _ ____ _ ____
 72
    65
 73
     4
 40
1.125
 49
0.75
 74
     0
 49
-0.125
 74
     0
 49
0.125
 74
     0
 49
-0.125
 74
     0
  0
LTYPE
  5
27
330
5
100
AcDbSymbolTableRecord
100
AcDbLinetypeTableRecord
  2
CENTERX2
 70
     0
  3
________  __  ________  __  ________  __  
 72
    65
 73
     4
 40
4.0
 49
2.5
 74
     0
 49
-0.5
 74
     0
 49
0.5
 74
     0
 49
-0.5
 74
     0
  0
LTYPE
  5
28
330
5
100
AcDbSymbolTableRecord
100
AcDbLinetypeTableRecord
  2
DASHDOT
 70
     0
  3
__ . __ . __ . __ . __ . __ . __ . 
 72
    65
 73
     4
 40
1.0
 49
0.5
 74
     0
 49
-0.25
 74
     0
 49
0.0
 74
     0
 49
-0.25
 74
     0
  0
LTYPE
  5
29
330
5
100
AcDbSymbolTableRecord
100
AcDbLinetypeTableRecord
  2
DASHDOT2
 70
     0
  3
_._._._._._._._._._._._._._._._.
 72
    65
 73
     4
 40
0.5
 49
0.25
 74
     0
 49
-0.125
 74
     0
 49
0.0
 74
     0
 49
-0.125
 74
     0
  0
LTYPE
  5
2A
330
5
100
AcDbSymbolTableRecord
100
AcDbLinetypeTableRecord
  2
DASHDOTX2
 70
     0
  3
____  .  ____  .  ____  .  ____  .  
 72
    65
 73
     4
 40
2.0
 49
1.0
 74
     0
 49
-0.5
 74
     0
 49
0.0
 74
     0
 49
-0.5
 74
     0
  0
LTYPE
  5
2B
330
5
100
AcDbSymbolTableRecord
100
AcDbLinetypeTableRecord
  2
DASHED
 70
     0
  3
__ __ __ __ __ __ __ __ __ __ __ __ 
 72
    65
 73
     2
 40
0.75
 49
0.5
 74
     0
 49
-0.25
 74
     0
  0
LTYPE
  5
2C
330
5
100
AcDbSymbolTableRecord
100
AcDbLinetypeTableRecord
  2
DASHED2
 70
     0
  3
_ _ _ _ _ _ _ _ _ _ _ _ _ _ _ _ _ _ 
 72
    65
 73
     2
 40
0.375
 49
0.25
 74
     0
 49
-0.125
 74
     0
  0
LTYPE
  5
2D
330
5
100
AcDbSymbolTableRecord
100
AcDbLinetypeTableRecord
  2
DASHEDX2
 70
     0
  3
____  ____  ____  ____  ____  ____  
 72
    65
 73
     2
 40
1.5
 49
1.0
 74
     0
 49
-0.5
 74
     0
  0
LTYPE
  5
2E
330
5
100
AcDbSymbolTableRecord
100
AcDbLinetypeTableRecord
  2
DIVIDE
 70
     0
  3
____ . . ____ . . ____ . . ____ . . 
 72
    65
 73
     6
 40
1.25
 49
0.5
 74
     0
 49
-0.25
 74
     0
 49
0.0
 74
     0
 49
-0.25
 74
     0
 49
0.0
 74
     0
 49
-0.25
 74
     0
  0
LTYPE
  5
2F
330
5
100
AcDbSymbolTableRecord
100
AcDbLinetypeTableRecord
  2
DIVIDE2
 70
     0
  3
__..__..__..__..__..__..__..__..__..
 72
    65
 73
     6
 40
0.625
 49
0.25
 74
     0
 49
-0.125
 74
     0
 49
0.0
 74
     0
 49
-0.125
 74
     0
 49
0.0
 74
     0
 49
-0.125
 74
     0
  0
LTYPE
  5
30
330
5
100
AcDbSymbolTableRecord
100
AcDbLinetypeTableRecord
  2
DIVIDEX2
 70
     0
  3
________  .  .  ________  .  .  ________  .  . 
 72
    65
 73
     6
 40
2.5
 49
1.0
 74
     0
 49
-0.5
 74
     0
 49
0.0
 74
     0
 49
-0.5
 74
     0
 49
0.0
 74
     0
 49
-0.5
 74
     0
  0
LTYPE
  5
31
330
5
100
AcDbSymbolTableRecord
100
AcDbLinetypeTableRecord
  2
DOT
 70
     0
  3
. . . . . . . . . . . . . . . . . . 
 72
    65
 73
     2
 40
0.25
 49
0.0
 74
     0
 49
-0.25
 74
     0
  0
LTYPE
  5
32
330
5
100
AcDbSymbolTableRecord
100
AcDbLinetypeTableRecord
  2
DOT2
 70
     0
  3
....................................
 72
    65
 73
     2
 40
0.125
 49
0.0
 74
     0
 49
-0.125
 74
     0
  0
LTYPE
  5
33
330
5
100
AcDbSymbolTableRecord
100
AcDbLinetypeTableRecord
  2
DOTX2
 70
     0
  3
.  .  .  .  .  .  .  .  .  .  .  .  .  
 72
    65
 73
     2
 40
0.5
 49
0.0
 74
     0
 49
-0.5
 74
     0
  0
LTYPE
  5
34
330
5
100
AcDbSymbolTableRecord
100
AcDbLinetypeTableRecord
  2
HIDDEN
 70
     0
  3
__ __ __ __ __ __ __ __ __ __ __ __ 
 72
    65
 73
     2
 40
0.375
 49
0.25
 74
     0
 49
-0.125
 74
     0
  0
LTYPE
  5
35
330
5
100
AcDbSymbolTableRecord
100
AcDbLinetypeTableRecord
  2
HIDDEN2
 70
     0
  3
_ _ _ _ _ _ _ _ _ _ _ _ _ _ _ _ _ _ 
 72
    65
 73
     2
 40
0.1875
 49
0.125
 74
     0
 49
-0.0625
 74
     0
  0
LTYPE
  5
36
330
5
100
AcDbSymbolTableRecord
100
AcDbLinetypeTableRecord
  2
HIDDENX2
 70
     0
  3
____ ____ ____ ____ ____ ____ ____ 
 72
    65
 73
     2
 40
0.75
 49
0.5
 74
     0
 49
-0.25
 74
     0
  0
LTYPE
  5
37
330
5
100
AcDbSymbolTableRecord
100
AcDbLinetypeTableRecord
  2
PHANTOM
 70
     0
  3
______  __  __  ______  __  __  
 72
    65
 73
     6
 40
2.5
 49
1.25
 74
     0
 49
-0.25
 74
     0
 49
0.25
 74
     0
 49
-0.25
 74
     0
 49
0.25
 74
     0
 49
-0.25
 74
     0
  0
LTYPE
  5
38
330
5
100
AcDbSymbolTableRecord
100
AcDbLinetypeTableRecord
  2
PHANTOM2
 70
     0
  3
___ _ _ ___ _ _ ___ _ _ ___ _ _ 
 72
    65
 73
     6
 40
1.25
 49
0.625
 74
     0
 49
-0.125
 74
     0
 49
0.125
 74
     0
 49
-0.125
 74
     0
 49
0.125
 74
     0
 49
-0.125
 74
     0
  0
LTYPE
  5
39
330
5
100
AcDbSymbolTableRecord
100
AcDbLinetypeTableRecord
  2
PHANTOMX2
 70
     0
  3
___ _ _ ___ _ _ ___ _ _ ___ _ _ 
 72
    65
 73
     6
 40
5.0
 49
2.5
 74
     0
 49
-0.5
 74
     0
 49
0.5
 74
     0
 49
-0.5
 74
     0
 49
0.5
 74
     0
 49
-0.5
 74
     0
  0
ENDTAB
  0
TABLE
  2
LAYER
  5
2
330
0
100
AcDbSymbolTable
 70
   257
  0
LAYER
  5
10
330
2
100
AcDbSymbolTableRecord
100
AcDbLayerTableRecord
  2
0
 70
     0
 62
     7
  6
CONTINUOUS
  0
LAYER
  5
3A
330
2
100
AcDbSymbolTableRecord
100
AcDbLayerTableRecord
  2
1
 70
     0
 62
     1
  6
CONTINUOUS
  0
LAYER
  5
3B
330
2
100
AcDbSymbolTableRecord
100
AcDbLayerTableRecord
  2
2
 70
     0
 62
     2
  6
CONTINUOUS
  0
LAYER
  5
3C
330
2
100
AcDbSymbolTableRecord
100
AcDbLayerTableRecord
  2
3
 70
     0
 62
     3
  6
CONTINUOUS
  0
LAYER
  5
3D
330
2
100
AcDbSymbolTableRecord
100
AcDbLayerTableRecord
  2
4
 70
     0
 62
     4
  6
CONTINUOUS
  0
LAYER
  5
3E
330
2
100
AcDbSymbolTableRecord
100
AcDbLayerTableRecord
  2
5
 70
     0
 62
     5
  6
CONTINUOUS
  0
LAYER
  5
3F
330
2
100
AcDbSymbolTableRecord
100
AcDbLayerTableRecord
  2
6
 70
     0
 62
     6
  6
CONTINUOUS
  0
LAYER
  5
40
330
2
100
AcDbSymbolTableRecord
100
AcDbLayerTableRecord
  2
7
 70
     0
 62
     7
  6
CONTINUOUS
  0
LAYER
  5
41
330
2
100
AcDbSymbolTableRecord
100
AcDbLayerTableRecord
  2
8
 70
     0
 62
     8
  6
CONTINUOUS
  0
LAYER
  5
42
330
2
100
AcDbSymbolTableRecord
100
AcDbLayerTableRecord
  2
9
 70
     0
 62
     9
  6
CONTINUOUS
  0
LAYER
  5
43
330
2
100
AcDbSymbolTableRecord
100
AcDbLayerTableRecord
  2
10
 70
     0
 62
    10
  6
CONTINUOUS
  0
LAYER
  5
44
330
2
100
AcDbSymbolTableRecord
100
AcDbLayerTableRecord
  2
11
 70
     0
 62
    11
  6
CONTINUOUS
  0
LAYER
  5
45
330
2
100
AcDbSymbolTableRecord
100
AcDbLayerTableRecord
  2
12
 70
     0
 62
    12
  6
CONTINUOUS
  0
LAYER
  5
46
330
2
100
AcDbSymbolTableRecord
100
AcDbLayerTableRecord
  2
13
 70
     0
 62
    13
  6
CONTINUOUS
  0
LAYER
  5
47
330
2
100
AcDbSymbolTableRecord
100
AcDbLayerTableRecord
  2
14
 70
     0
 62
    14
  6
CONTINUOUS
  0
LAYER
  5
48
330
2
100
AcDbSymbolTableRecord
100
AcDbLayerTableRecord
  2
15
 70
     0
 62
    15
  6
CONTINUOUS
  0
LAYER
  5
49
330
2
100
AcDbSymbolTableRecord
100
AcDbLayerTableRecord
  2
16
 70
     0
 62
    16
  6
CONTINUOUS
  0
LAYER
  5
4A
330
2
100
AcDbSymbolTableRecord
100
AcDbLayerTableRecord
  2
17
 70
     0
 62
    17
  6
CONTINUOUS
  0
LAYER
  5
4B
330
2
100
AcDbSymbolTableRecord
100
AcDbLayerTableRecord
  2
18
 70
     0
 62
    18
  6
CONTINUOUS
  0
LAYER
  5
4C
330
2
100
AcDbSymbolTableRecord
100
AcDbLayerTableRecord
  2
19
 70
     0
 62
    19
  6
CONTINUOUS
  0
LAYER
  5
4D
330
2
100
AcDbSymbolTableRecord
100
AcDbLayerTableRecord
  2
20
 70
     0
 62
    20
  6
CONTINUOUS
  0
LAYER
  5
4E
330
2
100
AcDbSymbolTableRecord
100
AcDbLayerTableRecord
  2
21
 70
     0
 62
    21
  6
CONTINUOUS
  0
LAYER
  5
4F
330
2
100
AcDbSymbolTableRecord
100
AcDbLayerTableRecord
  2
22
 70
     0
 62
    22
  6
CONTINUOUS
  0
LAYER
  5
50
330
2
100
AcDbSymbolTableRecord
100
AcDbLayerTableRecord
  2
23
 70
     0
 62
    23
  6
CONTINUOUS
  0
LAYER
  5
51
330
2
100
AcDbSymbolTableRecord
100
AcDbLayerTableRecord
  2
24
 70
     0
 62
    24
  6
CONTINUOUS
  0
LAYER
  5
52
330
2
100
AcDbSymbolTableRecord
100
AcDbLayerTableRecord
  2
25
 70
     0
 62
    25
  6
CONTINUOUS
  0
LAYER
  5
53
330
2
100
AcDbSymbolTableRecord
100
AcDbLayerTableRecord
  2
26
 70
     0
 62
    26
  6
CONTINUOUS
  0
LAYER
  5
54
330
2
100
AcDbSymbolTableRecord
100
AcDbLayerTableRecord
  2
27
 70
     0
 62
    27
  6
CONTINUOUS
  0
LAYER
  5
55
330
2
100
AcDbSymbolTableRecord
100
AcDbLayerTableRecord
  2
28
 70
     0
 62
    28
  6
CONTINUOUS
  0
LAYER
  5
56
330
2
100
AcDbSymbolTableRecord
100
AcDbLayerTableRecord
  2
29
 70
     0
 62
    29
  6
CONTINUOUS
  0
LAYER
  5
57
330
2
100
AcDbSymbolTableRecord
100
AcDbLayerTableRecord
  2
30
 70
     0
 62
    30
  6
CONTINUOUS
  0
LAYER
  5
58
330
2
100
AcDbSymbolTableRecord
100
AcDbLayerTableRecord
  2
31
 70
     0
 62
    31
  6
CONTINUOUS
  0
LAYER
  5
59
330
2
100
AcDbSymbolTableRecord
100
AcDbLayerTableRecord
  2
32
 70
     0
 62
    32
  6
CONTINUOUS
  0
LAYER
  5
5A
330
2
100
AcDbSymbolTableRecord
100
AcDbLayerTableRecord
  2
33
 70
     0
 62
    33
  6
CONTINUOUS
  0
LAYER
  5
5B
330
2
100
AcDbSymbolTableRecord
100
AcDbLayerTableRecord
  2
34
 70
     0
 62
    34
  6
CONTINUOUS
  0
LAYER
  5
5C
330
2
100
AcDbSymbolTableRecord
100
AcDbLayerTableRecord
  2
35
 70
     0
 62
    35
  6
CONTINUOUS
  0
LAYER
  5
5D
330
2
100
AcDbSymbolTableRecord
100
AcDbLayerTableRecord
  2
36
 70
     0
 62
    36
  6
CONTINUOUS
  0
LAYER
  5
5E
330
2
100
AcDbSymbolTableRecord
100
AcDbLayerTableRecord
  2
37
 70
     0
 62
    37
  6
CONTINUOUS
  0
LAYER
  5
5F
330
2
100
AcDbSymbolTableRecord
100
AcDbLayerTableRecord
  2
38
 70
     0
 62
    38
  6
CONTINUOUS
  0
LAYER
  5
60
330
2
100
AcDbSymbolTableRecord
100
AcDbLayerTableRecord
  2
39
 70
     0
 62
    39
  6
CONTINUOUS
  0
LAYER
  5
61
330
2
100
AcDbSymbolTableRecord
100
AcDbLayerTableRecord
  2
40
 70
     0
 62
    40
  6
CONTINUOUS
  0
LAYER
  5
62
330
2
100
AcDbSymbolTableRecord
100
AcDbLayerTableRecord
  2
41
 70
     0
 62
    41
  6
CONTINUOUS
  0
LAYER
  5
63
330
2
100
AcDbSymbolTableRecord
100
AcDbLayerTableRecord
  2
42
 70
     0
 62
    42
  6
CONTINUOUS
  0
LAYER
  5
64
330
2
100
AcDbSymbolTableRecord
100
AcDbLayerTableRecord
  2
43
 70
     0
 62
    43
  6
CONTINUOUS
  0
LAYER
  5
65
330
2
100
AcDbSymbolTableRecord
100
AcDbLayerTableRecord
  2
44
 70
     0
 62
    44
  6
CONTINUOUS
  0
LAYER
  5
66
330
2
100
AcDbSymbolTableRecord
100
AcDbLayerTableRecord
  2
45
 70
     0
 62
    45
  6
CONTINUOUS
  0
LAYER
  5
67
330
2
100
AcDbSymbolTableRecord
100
AcDbLayerTableRecord
  2
46
 70
     0
 62
    46
  6
CONTINUOUS
  0
LAYER
  5
68
330
2
100
AcDbSymbolTableRecord
100
AcDbLayerTableRecord
  2
47
 70
     0
 62
    47
  6
CONTINUOUS
  0
LAYER
  5
69
330
2
100
AcDbSymbolTableRecord
100
AcDbLayerTableRecord
  2
48
 70
     0
 62
    48
  6
CONTINUOUS
  0
LAYER
  5
6A
330
2
100
AcDbSymbolTableRecord
100
AcDbLayerTableRecord
  2
49
 70
     0
 62
    49
  6
CONTINUOUS
  0
LAYER
  5
6B
330
2
100
AcDbSymbolTableRecord
100
AcDbLayerTableRecord
  2
50
 70
     0
 62
    50
  6
CONTINUOUS
  0
LAYER
  5
6C
330
2
100
AcDbSymbolTableRecord
100
AcDbLayerTableRecord
  2
51
 70
     0
 62
    51
  6
CONTINUOUS
  0
LAYER
  5
6D
330
2
100
AcDbSymbolTableRecord
100
AcDbLayerTableRecord
  2
52
 70
     0
 62
    52
  6
CONTINUOUS
  0
LAYER
  5
6E
330
2
100
AcDbSymbolTableRecord
100
AcDbLayerTableRecord
  2
53
 70
     0
 62
    53
  6
CONTINUOUS
  0
LAYER
  5
6F
330
2
100
AcDbSymbolTableRecord
100
AcDbLayerTableRecord
  2
54
 70
     0
 62
    54
  6
CONTINUOUS
  0
LAYER
  5
70
330
2
100
AcDbSymbolTableRecord
100
AcDbLayerTableRecord
  2
55
 70
     0
 62
    55
  6
CONTINUOUS
  0
LAYER
  5
71
330
2
100
AcDbSymbolTableRecord
100
AcDbLayerTableRecord
  2
56
 70
     0
 62
    56
  6
CONTINUOUS
  0
LAYER
  5
72
330
2
100
AcDbSymbolTableRecord
100
AcDbLayerTableRecord
  2
57
 70
     0
 62
    57
  6
CONTINUOUS
  0
LAYER
  5
73
330
2
100
AcDbSymbolTableRecord
100
AcDbLayerTableRecord
  2
58
 70
     0
 62
    58
  6
CONTINUOUS
  0
LAYER
  5
74
330
2
100
AcDbSymbolTableRecord
100
AcDbLayerTableRecord
  2
59
 70
     0
 62
    59
  6
CONTINUOUS
  0
LAYER
  5
75
330
2
100
AcDbSymbolTableRecord
100
AcDbLayerTableRecord
  2
60
 70
     0
 62
    60
  6
CONTINUOUS
  0
LAYER
  5
76
330
2
100
AcDbSymbolTableRecord
100
AcDbLayerTableRecord
  2
61
 70
     0
 62
    61
  6
CONTINUOUS
  0
LAYER
  5
77
330
2
100
AcDbSymbolTableRecord
100
AcDbLayerTableRecord
  2
62
 70
     0
 62
    62
  6
CONTINUOUS
  0
LAYER
  5
78
330
2
100
AcDbSymbolTableRecord
100
AcDbLayerTableRecord
  2
63
 70
     0
 62
    63
  6
CONTINUOUS
  0
LAYER
  5
79
330
2
100
AcDbSymbolTableRecord
100
AcDbLayerTableRecord
  2
64
 70
     0
 62
    64
  6
CONTINUOUS
  0
LAYER
  5
7A
330
2
100
AcDbSymbolTableRecord
100
AcDbLayerTableRecord
  2
65
 70
     0
 62
    65
  6
CONTINUOUS
  0
LAYER
  5
7B
330
2
100
AcDbSymbolTableRecord
100
AcDbLayerTableRecord
  2
66
 70
     0
 62
    66
  6
CONTINUOUS
  0
LAYER
  5
7C
330
2
100
AcDbSymbolTableRecord
100
AcDbLayerTableRecord
  2
67
 70
     0
 62
    67
  6
CONTINUOUS
  0
LAYER
  5
7D
330
2
100
AcDbSymbolTableRecord
100
AcDbLayerTableRecord
  2
68
 70
     0
 62
    68
  6
CONTINUOUS
  0
LAYER
  5
7E
330
2
100
AcDbSymbolTableRecord
100
AcDbLayerTableRecord
  2
69
 70
     0
 62
    69
  6
CONTINUOUS
  0
LAYER
  5
7F
330
2
100
AcDbSymbolTableRecord
100
AcDbLayerTableRecord
  2
70
 70
     0
 62
    70
  6
CONTINUOUS
  0
LAYER
  5
80
330
2
100
AcDbSymbolTableRecord
100
AcDbLayerTableRecord
  2
71
 70
     0
 62
    71
  6
CONTINUOUS
  0
LAYER
  5
81
330
2
100
AcDbSymbolTableRecord
100
AcDbLayerTableRecord
  2
72
 70
     0
 62
    72
  6
CONTINUOUS
  0
LAYER
  5
82
330
2
100
AcDbSymbolTableRecord
100
AcDbLayerTableRecord
  2
73
 70
     0
 62
    73
  6
CONTINUOUS
  0
LAYER
  5
83
330
2
100
AcDbSymbolTableRecord
100
AcDbLayerTableRecord
  2
74
 70
     0
 62
    74
  6
CONTINUOUS
  0
LAYER
  5
84
330
2
100
AcDbSymbolTableRecord
100
AcDbLayerTableRecord
  2
75
 70
     0
 62
    75
  6
CONTINUOUS
  0
LAYER
  5
85
330
2
100
AcDbSymbolTableRecord
100
AcDbLayerTableRecord
  2
76
 70
     0
 62
    76
  6
CONTINUOUS
  0
LAYER
  5
86
330
2
100
AcDbSymbolTableRecord
100
AcDbLayerTableRecord
  2
77
 70
     0
 62
    77
  6
CONTINUOUS
  0
LAYER
  5
87
330
2
100
AcDbSymbolTableRecord
100
AcDbLayerTableRecord
  2
78
 70
     0
 62
    78
  6
CONTINUOUS
  0
LAYER
  5
88
330
2
100
AcDbSymbolTableRecord
100
AcDbLayerTableRecord
  2
79
 70
     0
 62
    79
  6
CONTINUOUS
  0
LAYER
  5
89
330
2
100
AcDbSymbolTableRecord
100
AcDbLayerTableRecord
  2
80
 70
     0
 62
    80
  6
CONTINUOUS
  0
LAYER
  5
8A
330
2
100
AcDbSymbolTableRecord
100
AcDbLayerTableRecord
  2
81
 70
     0
 62
    81
  6
CONTINUOUS
  0
LAYER
  5
8B
330
2
100
AcDbSymbolTableRecord
100
AcDbLayerTableRecord
  2
82
 70
     0
 62
    82
  6
CONTINUOUS
  0
LAYER
  5
8C
330
2
100
AcDbSymbolTableRecord
100
AcDbLayerTableRecord
  2
83
 70
     0
 62
    83
  6
CONTINUOUS
  0
LAYER
  5
8D
330
2
100
AcDbSymbolTableRecord
100
AcDbLayerTableRecord
  2
84
 70
     0
 62
    84
  6
CONTINUOUS
  0
LAYER
  5
8E
330
2
100
AcDbSymbolTableRecord
100
AcDbLayerTableRecord
  2
85
 70
     0
 62
    85
  6
CONTINUOUS
  0
LAYER
  5
8F
330
2
100
AcDbSymbolTableRecord
100
AcDbLayerTableRecord
  2
86
 70
     0
 62
    86
  6
CONTINUOUS
  0
LAYER
  5
90
330
2
100
AcDbSymbolTableRecord
100
AcDbLayerTableRecord
  2
87
 70
     0
 62
    87
  6
CONTINUOUS
  0
LAYER
  5
91
330
2
100
AcDbSymbolTableRecord
100
AcDbLayerTableRecord
  2
88
 70
     0
 62
    88
  6
CONTINUOUS
  0
LAYER
  5
92
330
2
100
AcDbSymbolTableRecord
100
AcDbLayerTableRecord
  2
89
 70
     0
 62
    89
  6
CONTINUOUS
  0
LAYER
  5
93
330
2
100
AcDbSymbolTableRecord
100
AcDbLayerTableRecord
  2
90
 70
     0
 62
    90
  6
CONTINUOUS
  0
LAYER
  5
94
330
2
100
AcDbSymbolTableRecord
100
AcDbLayerTableRecord
  2
91
 70
     0
 62
    91
  6
CONTINUOUS
  0
LAYER
  5
95
330
2
100
AcDbSymbolTableRecord
100
AcDbLayerTableRecord
  2
92
 70
     0
 62
    92
  6
CONTINUOUS
  0
LAYER
  5
96
330
2
100
AcDbSymbolTableRecord
100
AcDbLayerTableRecord
  2
93
 70
     0
 62
    93
  6
CONTINUOUS
  0
LAYER
  5
97
330
2
100
AcDbSymbolTableRecord
100
AcDbLayerTableRecord
  2
94
 70
     0
 62
    94
  6
CONTINUOUS
  0
LAYER
  5
98
330
2
100
AcDbSymbolTableRecord
100
AcDbLayerTableRecord
  2
95
 70
     0
 62
    95
  6
CONTINUOUS
  0
LAYER
  5
99
330
2
100
AcDbSymbolTableRecord
100
AcDbLayerTableRecord
  2
96
 70
     0
 62
    96
  6
CONTINUOUS
  0
LAYER
  5
9A
330
2
100
AcDbSymbolTableRecord
100
AcDbLayerTableRecord
  2
97
 70
     0
 62
    97
  6
CONTINUOUS
  0
LAYER
  5
9B
330
2
100
AcDbSymbolTableRecord
100
AcDbLayerTableRecord
  2
98
 70
     0
 62
    98
  6
CONTINUOUS
  0
LAYER
  5
9C
330
2
100
AcDbSymbolTableRecord
100
AcDbLayerTableRecord
  2
99
 70
     0
 62
    99
  6
CONTINUOUS
  0
LAYER
  5
9D
330
2
100
AcDbSymbolTableRecord
100
AcDbLayerTableRecord
  2
100
 70
     0
 62
   100
  6
CONTINUOUS
  0
LAYER
  5
9E
330
2
100
AcDbSymbolTableRecord
100
AcDbLayerTableRecord
  2
101
 70
     0
 62
   101
  6
CONTINUOUS
  0
LAYER
  5
9F
330
2
100
AcDbSymbolTableRecord
100
AcDbLayerTableRecord
  2
102
 70
     0
 62
   102
  6
CONTINUOUS
  0
LAYER
  5
A0
330
2
100
AcDbSymbolTableRecord
100
AcDbLayerTableRecord
  2
103
 70
     0
 62
   103
  6
CONTINUOUS
  0
LAYER
  5
A1
330
2
100
AcDbSymbolTableRecord
100
AcDbLayerTableRecord
  2
104
 70
     0
 62
   104
  6
CONTINUOUS
  0
LAYER
  5
A2
330
2
100
AcDbSymbolTableRecord
100
AcDbLayerTableRecord
  2
105
 70
     0
 62
   105
  6
CONTINUOUS
  0
LAYER
  5
A3
330
2
100
AcDbSymbolTableRecord
100
AcDbLayerTableRecord
  2
106
 70
     0
 62
   106
  6
CONTINUOUS
  0
LAYER
  5
A4
330
2
100
AcDbSymbolTableRecord
100
AcDbLayerTableRecord
  2
107
 70
     0
 62
   107
  6
CONTINUOUS
  0
LAYER
  5
A5
330
2
100
AcDbSymbolTableRecord
100
AcDbLayerTableRecord
  2
108
 70
     0
 62
   108
  6
CONTINUOUS
  0
LAYER
  5
A6
330
2
100
AcDbSymbolTableRecord
100
AcDbLayerTableRecord
  2
109
 70
     0
 62
   109
  6
CONTINUOUS
  0
LAYER
  5
A7
330
2
100
AcDbSymbolTableRecord
100
AcDbLayerTableRecord
  2
110
 70
     0
 62
   110
  6
CONTINUOUS
  0
LAYER
  5
A8
330
2
100
AcDbSymbolTableRecord
100
AcDbLayerTableRecord
  2
111
 70
     0
 62
   111
  6
CONTINUOUS
  0
LAYER
  5
A9
330
2
100
AcDbSymbolTableRecord
100
AcDbLayerTableRecord
  2
112
 70
     0
 62
   112
  6
CONTINUOUS
  0
LAYER
  5
AA
330
2
100
AcDbSymbolTableRecord
100
AcDbLayerTableRecord
  2
113
 70
     0
 62
   113
  6
CONTINUOUS
  0
LAYER
  5
AB
330
2
100
AcDbSymbolTableRecord
100
AcDbLayerTableRecord
  2
114
 70
     0
 62
   114
  6
CONTINUOUS
  0
LAYER
  5
AC
330
2
100
AcDbSymbolTableRecord
100
AcDbLayerTableRecord
  2
115
 70
     0
 62
   115
  6
CONTINUOUS
  0
LAYER
  5
AD
330
2
100
AcDbSymbolTableRecord
100
AcDbLayerTableRecord
  2
116
 70
     0
 62
   116
  6
CONTINUOUS
  0
LAYER
  5
AE
330
2
100
AcDbSymbolTableRecord
100
AcDbLayerTableRecord
  2
117
 70
     0
 62
   117
  6
CONTINUOUS
  0
LAYER
  5
AF
330
2
100
AcDbSymbolTableRecord
100
AcDbLayerTableRecord
  2
118
 70
     0
 62
   118
  6
CONTINUOUS
  0
LAYER
  5
B0
330
2
100
AcDbSymbolTableRecord
100
AcDbLayerTableRecord
  2
119
 70
     0
 62
   119
  6
CONTINUOUS
  0
LAYER
  5
B1
330
2
100
AcDbSymbolTableRecord
100
AcDbLayerTableRecord
  2
120
 70
     0
 62
   120
  6
CONTINUOUS
  0
LAYER
  5
B2
330
2
100
AcDbSymbolTableRecord
100
AcDbLayerTableRecord
  2
121
 70
     0
 62
   121
  6
CONTINUOUS
  0
LAYER
  5
B3
330
2
100
AcDbSymbolTableRecord
100
AcDbLayerTableRecord
  2
122
 70
     0
 62
   122
  6
CONTINUOUS
  0
LAYER
  5
B4
330
2
100
AcDbSymbolTableRecord
100
AcDbLayerTableRecord
  2
123
 70
     0
 62
   123
  6
CONTINUOUS
  0
LAYER
  5
B5
330
2
100
AcDbSymbolTableRecord
100
AcDbLayerTableRecord
  2
124
 70
     0
 62
   124
  6
CONTINUOUS
  0
LAYER
  5
B6
330
2
100
AcDbSymbolTableRecord
100
AcDbLayerTableRecord
  2
125
 70
     0
 62
   125
  6
CONTINUOUS
  0
LAYER
  5
B7
330
2
100
AcDbSymbolTableRecord
100
AcDbLayerTableRecord
  2
126
 70
     0
 62
   126
  6
CONTINUOUS
  0
LAYER
  5
B8
330
2
100
AcDbSymbolTableRecord
100
AcDbLayerTableRecord
  2
127
 70
     0
 62
   127
  6
CONTINUOUS
  0
LAYER
  5
B9
330
2
100
AcDbSymbolTableRecord
100
AcDbLayerTableRecord
  2
128
 70
     0
 62
   128
  6
CONTINUOUS
  0
LAYER
  5
BA
330
2
100
AcDbSymbolTableRecord
100
AcDbLayerTableRecord
  2
129
 70
     0
 62
   129
  6
CONTINUOUS
  0
LAYER
  5
BB
330
2
100
AcDbSymbolTableRecord
100
AcDbLayerTableRecord
  2
130
 70
     0
 62
   130
  6
CONTINUOUS
  0
LAYER
  5
BC
330
2
100
AcDbSymbolTableRecord
100
AcDbLayerTableRecord
  2
131
 70
     0
 62
   131
  6
CONTINUOUS
  0
LAYER
  5
BD
330
2
100
AcDbSymbolTableRecord
100
AcDbLayerTableRecord
  2
132
 70
     0
 62
   132
  6
CONTINUOUS
  0
LAYER
  5
BE
330
2
100
AcDbSymbolTableRecord
100
AcDbLayerTableRecord
  2
133
 70
     0
 62
   133
  6
CONTINUOUS
  0
LAYER
  5
BF
330
2
100
AcDbSymbolTableRecord
100
AcDbLayerTableRecord
  2
134
 70
     0
 62
   134
  6
CONTINUOUS
  0
LAYER
  5
C0
330
2
100
AcDbSymbolTableRecord
100
AcDbLayerTableRecord
  2
135
 70
     0
 62
   135
  6
CONTINUOUS
  0
LAYER
  5
C1
330
2
100
AcDbSymbolTableRecord
100
AcDbLayerTableRecord
  2
136
 70
     0
 62
   136
  6
CONTINUOUS
  0
LAYER
  5
C2
330
2
100
AcDbSymbolTableRecord
100
AcDbLayerTableRecord
  2
137
 70
     0
 62
   137
  6
CONTINUOUS
  0
LAYER
  5
C3
330
2
100
AcDbSymbolTableRecord
100
AcDbLayerTableRecord
  2
138
 70
     0
 62
   138
  6
CONTINUOUS
  0
LAYER
  5
C4
330
2
100
AcDbSymbolTableRecord
100
AcDbLayerTableRecord
  2
139
 70
     0
 62
   139
  6
CONTINUOUS
  0
LAYER
  5
C5
330
2
100
AcDbSymbolTableRecord
100
AcDbLayerTableRecord
  2
140
 70
     0
 62
   140
  6
CONTINUOUS
  0
LAYER
  5
C6
330
2
100
AcDbSymbolTableRecord
100
AcDbLayerTableRecord
  2
141
 70
     0
 62
   141
  6
CONTINUOUS
  0
LAYER
  5
C7
330
2
100
AcDbSymbolTableRecord
100
AcDbLayerTableRecord
  2
142
 70
     0
 62
   142
  6
CONTINUOUS
  0
LAYER
  5
C8
330
2
100
AcDbSymbolTableRecord
100
AcDbLayerTableRecord
  2
143
 70
     0
 62
   143
  6
CONTINUOUS
  0
LAYER
  5
C9
330
2
100
AcDbSymbolTableRecord
100
AcDbLayerTableRecord
  2
144
 70
     0
 62
   144
  6
CONTINUOUS
  0
LAYER
  5
CA
330
2
100
AcDbSymbolTableRecord
100
AcDbLayerTableRecord
  2
145
 70
     0
 62
   145
  6
CONTINUOUS
  0
LAYER
  5
CB
330
2
100
AcDbSymbolTableRecord
100
AcDbLayerTableRecord
  2
146
 70
     0
 62
   146
  6
CONTINUOUS
  0
LAYER
  5
CC
330
2
100
AcDbSymbolTableRecord
100
AcDbLayerTableRecord
  2
147
 70
     0
 62
   147
  6
CONTINUOUS
  0
LAYER
  5
CD
330
2
100
AcDbSymbolTableRecord
100
AcDbLayerTableRecord
  2
148
 70
     0
 62
   148
  6
CONTINUOUS
  0
LAYER
  5
CE
330
2
100
AcDbSymbolTableRecord
100
AcDbLayerTableRecord
  2
149
 70
     0
 62
   149
  6
CONTINUOUS
  0
LAYER
  5
CF
330
2
100
AcDbSymbolTableRecord
100
AcDbLayerTableRecord
  2
150
 70
     0
 62
   150
  6
CONTINUOUS
  0
LAYER
  5
D0
330
2
100
AcDbSymbolTableRecord
100
AcDbLayerTableRecord
  2
151
 70
     0
 62
   151
  6
CONTINUOUS
  0
LAYER
  5
D1
330
2
100
AcDbSymbolTableRecord
100
AcDbLayerTableRecord
  2
152
 70
     0
 62
   152
  6
CONTINUOUS
  0
LAYER
  5
D2
330
2
100
AcDbSymbolTableRecord
100
AcDbLayerTableRecord
  2
153
 70
     0
 62
   153
  6
CONTINUOUS
  0
LAYER
  5
D3
330
2
100
AcDbSymbolTableRecord
100
AcDbLayerTableRecord
  2
154
 70
     0
 62
   154
  6
CONTINUOUS
  0
LAYER
  5
D4
330
2
100
AcDbSymbolTableRecord
100
AcDbLayerTableRecord
  2
155
 70
     0
 62
   155
  6
CONTINUOUS
  0
LAYER
  5
D5
330
2
100
AcDbSymbolTableRecord
100
AcDbLayerTableRecord
  2
156
 70
     0
 62
   156
  6
CONTINUOUS
  0
LAYER
  5
D6
330
2
100
AcDbSymbolTableRecord
100
AcDbLayerTableRecord
  2
157
 70
     0
 62
   157
  6
CONTINUOUS
  0
LAYER
  5
D7
330
2
100
AcDbSymbolTableRecord
100
AcDbLayerTableRecord
  2
158
 70
     0
 62
   158
  6
CONTINUOUS
  0
LAYER
  5
D8
330
2
100
AcDbSymbolTableRecord
100
AcDbLayerTableRecord
  2
159
 70
     0
 62
   159
  6
CONTINUOUS
  0
LAYER
  5
D9
330
2
100
AcDbSymbolTableRecord
100
AcDbLayerTableRecord
  2
160
 70
     0
 62
   160
  6
CONTINUOUS
  0
LAYER
  5
DA
330
2
100
AcDbSymbolTableRecord
100
AcDbLayerTableRecord
  2
161
 70
     0
 62
   161
  6
CONTINUOUS
  0
LAYER
  5
DB
330
2
100
AcDbSymbolTableRecord
100
AcDbLayerTableRecord
  2
162
 70
     0
 62
   162
  6
CONTINUOUS
  0
LAYER
  5
DC
330
2
100
AcDbSymbolTableRecord
100
AcDbLayerTableRecord
  2
163
 70
     0
 62
   163
  6
CONTINUOUS
  0
LAYER
  5
DD
330
2
100
AcDbSymbolTableRecord
100
AcDbLayerTableRecord
  2
164
 70
     0
 62
   164
  6
CONTINUOUS
  0
LAYER
  5
DE
330
2
100
AcDbSymbolTableRecord
100
AcDbLayerTableRecord
  2
165
 70
     0
 62
   165
  6
CONTINUOUS
  0
LAYER
  5
DF
330
2
100
AcDbSymbolTableRecord
100
AcDbLayerTableRecord
  2
166
 70
     0
 62
   166
  6
CONTINUOUS
  0
LAYER
  5
E0
330
2
100
AcDbSymbolTableRecord
100
AcDbLayerTableRecord
  2
167
 70
     0
 62
   167
  6
CONTINUOUS
  0
LAYER
  5
E1
330
2
100
AcDbSymbolTableRecord
100
AcDbLayerTableRecord
  2
168
 70
     0
 62
   168
  6
CONTINUOUS
  0
LAYER
  5
E2
330
2
100
AcDbSymbolTableRecord
100
AcDbLayerTableRecord
  2
169
 70
     0
 62
   169
  6
CONTINUOUS
  0
LAYER
  5
E3
330
2
100
AcDbSymbolTableRecord
100
AcDbLayerTableRecord
  2
170
 70
     0
 62
   170
  6
CONTINUOUS
  0
LAYER
  5
E4
330
2
100
AcDbSymbolTableRecord
100
AcDbLayerTableRecord
  2
171
 70
     0
 62
   171
  6
CONTINUOUS
  0
LAYER
  5
E5
330
2
100
AcDbSymbolTableRecord
100
AcDbLayerTableRecord
  2
172
 70
     0
 62
   172
  6
CONTINUOUS
  0
LAYER
  5
E6
330
2
100
AcDbSymbolTableRecord
100
AcDbLayerTableRecord
  2
173
 70
     0
 62
   173
  6
CONTINUOUS
  0
LAYER
  5
E7
330
2
100
AcDbSymbolTableRecord
100
AcDbLayerTableRecord
  2
174
 70
     0
 62
   174
  6
CONTINUOUS
  0
LAYER
  5
E8
330
2
100
AcDbSymbolTableRecord
100
AcDbLayerTableRecord
  2
175
 70
     0
 62
   175
  6
CONTINUOUS
  0
LAYER
  5
E9
330
2
100
AcDbSymbolTableRecord
100
AcDbLayerTableRecord
  2
176
 70
     0
 62
   176
  6
CONTINUOUS
  0
LAYER
  5
EA
330
2
100
AcDbSymbolTableRecord
100
AcDbLayerTableRecord
  2
177
 70
     0
 62
   177
  6
CONTINUOUS
  0
LAYER
  5
EB
330
2
100
AcDbSymbolTableRecord
100
AcDbLayerTableRecord
  2
178
 70
     0
 62
   178
  6
CONTINUOUS
  0
LAYER
  5
EC
330
2
100
AcDbSymbolTableRecord
100
AcDbLayerTableRecord
  2
179
 70
     0
 62
   179
  6
CONTINUOUS
  0
LAYER
  5
ED
330
2
100
AcDbSymbolTableRecord
100
AcDbLayerTableRecord
  2
180
 70
     0
 62
   180
  6
CONTINUOUS
  0
LAYER
  5
EE
330
2
100
AcDbSymbolTableRecord
100
AcDbLayerTableRecord
  2
181
 70
     0
 62
   181
  6
CONTINUOUS
  0
LAYER
  5
EF
330
2
100
AcDbSymbolTableRecord
100
AcDbLayerTableRecord
  2
182
 70
     0
 62
   182
  6
CONTINUOUS
  0
LAYER
  5
F0
330
2
100
AcDbSymbolTableRecord
100
AcDbLayerTableRecord
  2
183
 70
     0
 62
   183
  6
CONTINUOUS
  0
LAYER
  5
F1
330
2
100
AcDbSymbolTableRecord
100
AcDbLayerTableRecord
  2
184
 70
     0
 62
   184
  6
CONTINUOUS
  0
LAYER
  5
F2
330
2
100
AcDbSymbolTableRecord
100
AcDbLayerTableRecord
  2
185
 70
     0
 62
   185
  6
CONTINUOUS
  0
LAYER
  5
F3
330
2
100
AcDbSymbolTableRecord
100
AcDbLayerTableRecord
  2
186
 70
     0
 62
   186
  6
CONTINUOUS
  0
LAYER
  5
F4
330
2
100
AcDbSymbolTableRecord
100
AcDbLayerTableRecord
  2
187
 70
     0
 62
   187
  6
CONTINUOUS
  0
LAYER
  5
F5
330
2
100
AcDbSymbolTableRecord
100
AcDbLayerTableRecord
  2
188
 70
     0
 62
   188
  6
CONTINUOUS
  0
LAYER
  5
F6
330
2
100
AcDbSymbolTableRecord
100
AcDbLayerTableRecord
  2
189
 70
     0
 62
   189
  6
CONTINUOUS
  0
LAYER
  5
F7
330
2
100
AcDbSymbolTableRecord
100
AcDbLayerTableRecord
  2
190
 70
     0
 62
   190
  6
CONTINUOUS
  0
LAYER
  5
F8
330
2
100
AcDbSymbolTableRecord
100
AcDbLayerTableRecord
  2
191
 70
     0
 62
   191
  6
CONTINUOUS
  0
LAYER
  5
F9
330
2
100
AcDbSymbolTableRecord
100
AcDbLayerTableRecord
  2
192
 70
     0
 62
   192
  6
CONTINUOUS
  0
LAYER
  5
FA
330
2
100
AcDbSymbolTableRecord
100
AcDbLayerTableRecord
  2
193
 70
     0
 62
   193
  6
CONTINUOUS
  0
LAYER
  5
FB
330
2
100
AcDbSymbolTableRecord
100
AcDbLayerTableRecord
  2
194
 70
     0
 62
   194
  6
CONTINUOUS
  0
LAYER
  5
FC
330
2
100
AcDbSymbolTableRecord
100
AcDbLayerTableRecord
  2
195
 70
     0
 62
   195
  6
CONTINUOUS
  0
LAYER
  5
FD
330
2
100
AcDbSymbolTableRecord
100
AcDbLayerTableRecord
  2
196
 70
     0
 62
   196
  6
CONTINUOUS
  0
LAYER
  5
FE
330
2
100
AcDbSymbolTableRecord
100
AcDbLayerTableRecord
  2
197
 70
     0
 62
   197
  6
CONTINUOUS
  0
LAYER
  5
FF
330
2
100
AcDbSymbolTableRecord
100
AcDbLayerTableRecord
  2
198
 70
     0
 62
   198
  6
CONTINUOUS
  0
LAYER
  5
100
330
2
100
AcDbSymbolTableRecord
100
AcDbLayerTableRecord
  2
199
 70
     0
 62
   199
  6
CONTINUOUS
  0
LAYER
  5
101
330
2
100
AcDbSymbolTableRecord
100
AcDbLayerTableRecord
  2
200
 70
     0
 62
   200
  6
CONTINUOUS
  0
LAYER
  5
102
330
2
100
AcDbSymbolTableRecord
100
AcDbLayerTableRecord
  2
201
 70
     0
 62
   201
  6
CONTINUOUS
  0
LAYER
  5
103
330
2
100
AcDbSymbolTableRecord
100
AcDbLayerTableRecord
  2
202
 70
     0
 62
   202
  6
CONTINUOUS
  0
LAYER
  5
104
330
2
100
AcDbSymbolTableRecord
100
AcDbLayerTableRecord
  2
203
 70
     0
 62
   203
  6
CONTINUOUS
  0
LAYER
  5
105
330
2
100
AcDbSymbolTableRecord
100
AcDbLayerTableRecord
  2
204
 70
     0
 62
   204
  6
CONTINUOUS
  0
LAYER
  5
106
330
2
100
AcDbSymbolTableRecord
100
AcDbLayerTableRecord
  2
205
 70
     0
 62
   205
  6
CONTINUOUS
  0
LAYER
  5
107
330
2
100
AcDbSymbolTableRecord
100
AcDbLayerTableRecord
  2
206
 70
     0
 62
   206
  6
CONTINUOUS
  0
LAYER
  5
108
330
2
100
AcDbSymbolTableRecord
100
AcDbLayerTableRecord
  2
207
 70
     0
 62
   207
  6
CONTINUOUS
  0
LAYER
  5
109
330
2
100
AcDbSymbolTableRecord
100
AcDbLayerTableRecord
  2
208
 70
     0
 62
   208
  6
CONTINUOUS
  0
LAYER
  5
10A
330
2
100
AcDbSymbolTableRecord
100
AcDbLayerTableRecord
  2
209
 70
     0
 62
   209
  6
CONTINUOUS
  0
LAYER
  5
10B
330
2
100
AcDbSymbolTableRecord
100
AcDbLayerTableRecord
  2
210
 70
     0
 62
   210
  6
CONTINUOUS
  0
LAYER
  5
10C
330
2
100
AcDbSymbolTableRecord
100
AcDbLayerTableRecord
  2
211
 70
     0
 62
   211
  6
CONTINUOUS
  0
LAYER
  5
10D
330
2
100
AcDbSymbolTableRecord
100
AcDbLayerTableRecord
  2
212
 70
     0
 62
   212
  6
CONTINUOUS
  0
LAYER
  5
10E
330
2
100
AcDbSymbolTableRecord
100
AcDbLayerTableRecord
  2
213
 70
     0
 62
   213
  6
CONTINUOUS
  0
LAYER
  5
10F
330
2
100
AcDbSymbolTableRecord
100
AcDbLayerTableRecord
  2
214
 70
     0
 62
   214
  6
CONTINUOUS
  0
LAYER
  5
110
330
2
100
AcDbSymbolTableRecord
100
AcDbLayerTableRecord
  2
215
 70
     0
 62
   215
  6
CONTINUOUS
  0
LAYER
  5
111
330
2
100
AcDbSymbolTableRecord
100
AcDbLayerTableRecord
  2
216
 70
     0
 62
   216
  6
CONTINUOUS
  0
LAYER
  5
112
330
2
100
AcDbSymbolTableRecord
100
AcDbLayerTableRecord
  2
217
 70
     0
 62
   217
  6
CONTINUOUS
  0
LAYER
  5
113
330
2
100
AcDbSymbolTableRecord
100
AcDbLayerTableRecord
  2
218
 70
     0
 62
   218
  6
CONTINUOUS
  0
LAYER
  5
114
330
2
100
AcDbSymbolTableRecord
100
AcDbLayerTableRecord
  2
219
 70
     0
 62
   219
  6
CONTINUOUS
  0
LAYER
  5
115
330
2
100
AcDbSymbolTableRecord
100
AcDbLayerTableRecord
  2
220
 70
     0
 62
   220
  6
CONTINUOUS
  0
LAYER
  5
116
330
2
100
AcDbSymbolTableRecord
100
AcDbLayerTableRecord
  2
221
 70
     0
 62
   221
  6
CONTINUOUS
  0
LAYER
  5
117
330
2
100
AcDbSymbolTableRecord
100
AcDbLayerTableRecord
  2
222
 70
     0
 62
   222
  6
CONTINUOUS
  0
LAYER
  5
118
330
2
100
AcDbSymbolTableRecord
100
AcDbLayerTableRecord
  2
223
 70
     0
 62
   223
  6
CONTINUOUS
  0
LAYER
  5
119
330
2
100
AcDbSymbolTableRecord
100
AcDbLayerTableRecord
  2
224
 70
     0
 62
   224
  6
CONTINUOUS
  0
LAYER
  5
11A
330
2
100
AcDbSymbolTableRecord
100
AcDbLayerTableRecord
  2
225
 70
     0
 62
   225
  6
CONTINUOUS
  0
LAYER
  5
11B
330
2
100
AcDbSymbolTableRecord
100
AcDbLayerTableRecord
  2
226
 70
     0
 62
   226
  6
CONTINUOUS
  0
LAYER
  5
11C
330
2
100
AcDbSymbolTableRecord
100
AcDbLayerTableRecord
  2
227
 70
     0
 62
   227
  6
CONTINUOUS
  0
LAYER
  5
11D
330
2
100
AcDbSymbolTableRecord
100
AcDbLayerTableRecord
  2
228
 70
     0
 62
   228
  6
CONTINUOUS
  0
LAYER
  5
11E
330
2
100
AcDbSymbolTableRecord
100
AcDbLayerTableRecord
  2
229
 70
     0
 62
   229
  6
CONTINUOUS
  0
LAYER
  5
11F
330
2
100
AcDbSymbolTableRecord
100
AcDbLayerTableRecord
  2
230
 70
     0
 62
   230
  6
CONTINUOUS
  0
LAYER
  5
120
330
2
100
AcDbSymbolTableRecord
100
AcDbLayerTableRecord
  2
231
 70
     0
 62
   231
  6
CONTINUOUS
  0
LAYER
  5
121
330
2
100
AcDbSymbolTableRecord
100
AcDbLayerTableRecord
  2
232
 70
     0
 62
   232
  6
CONTINUOUS
  0
LAYER
  5
122
330
2
100
AcDbSymbolTableRecord
100
AcDbLayerTableRecord
  2
233
 70
     0
 62
   233
  6
CONTINUOUS
  0
LAYER
  5
123
330
2
100
AcDbSymbolTableRecord
100
AcDbLayerTableRecord
  2
234
 70
     0
 62
   234
  6
CONTINUOUS
  0
LAYER
  5
124
330
2
100
AcDbSymbolTableRecord
100
AcDbLayerTableRecord
  2
235
 70
     0
 62
   235
  6
CONTINUOUS
  0
LAYER
  5
125
330
2
100
AcDbSymbolTableRecord
100
AcDbLayerTableRecord
  2
236
 70
     0
 62
   236
  6
CONTINUOUS
  0
LAYER
  5
126
330
2
100
AcDbSymbolTableRecord
100
AcDbLayerTableRecord
  2
237
 70
     0
 62
   237
  6
CONTINUOUS
  0
LAYER
  5
127
330
2
100
AcDbSymbolTableRecord
100
AcDbLayerTableRecord
  2
238
 70
     0
 62
   238
  6
CONTINUOUS
  0
LAYER
  5
128
330
2
100
AcDbSymbolTableRecord
100
AcDbLayerTableRecord
  2
239
 70
     0
 62
   239
  6
CONTINUOUS
  0
LAYER
  5
129
330
2
100
AcDbSymbolTableRecord
100
AcDbLayerTableRecord
  2
240
 70
     0
 62
   240
  6
CONTINUOUS
  0
LAYER
  5
12A
330
2
100
AcDbSymbolTableRecord
100
AcDbLayerTableRecord
  2
241
 70
     0
 62
   241
  6
CONTINUOUS
  0
LAYER
  5
12B
330
2
100
AcDbSymbolTableRecord
100
AcDbLayerTableRecord
  2
242
 70
     0
 62
   242
  6
CONTINUOUS
  0
LAYER
  5
12C
330
2
100
AcDbSymbolTableRecord
100
AcDbLayerTableRecord
  2
243
 70
     0
 62
   243
  6
CONTINUOUS
  0
LAYER
  5
12D
330
2
100
AcDbSymbolTableRecord
100
AcDbLayerTableRecord
  2
244
 70
     0
 62
   244
  6
CONTINUOUS
  0
LAYER
  5
12E
330
2
100
AcDbSymbolTableRecord
100
AcDbLayerTableRecord
  2
245
 70
     0
 62
   245
  6
CONTINUOUS
  0
LAYER
  5
12F
330
2
100
AcDbSymbolTableRecord
100
AcDbLayerTableRecord
  2
246
 70
     0
 62
   246
  6
CONTINUOUS
  0
LAYER
  5
130
330
2
100
AcDbSymbolTableRecord
100
AcDbLayerTableRecord
  2
247
 70
     0
 62
   247
  6
CONTINUOUS
  0
LAYER
  5
131
330
2
100
AcDbSymbolTableRecord
100
AcDbLayerTableRecord
  2
248
 70
     0
 62
   248
  6
CONTINUOUS
  0
LAYER
  5
132
330
2
100
AcDbSymbolTableRecord
100
AcDbLayerTableRecord
  2
249
 70
     0
 62
   249
  6
CONTINUOUS
  0
LAYER
  5
133
330
2
100
AcDbSymbolTableRecord
100
AcDbLayerTableRecord
  2
250
 70
     0
 62
   250
  6
CONTINUOUS
  0
LAYER
  5
134
330
2
100
AcDbSymbolTableRecord
100
AcDbLayerTableRecord
  2
251
 70
     0
 62
   251
  6
CONTINUOUS
  0
LAYER
  5
135
330
2
100
AcDbSymbolTableRecord
100
AcDbLayerTableRecord
  2
252
 70
     0
 62
   252
  6
CONTINUOUS
  0
LAYER
  5
136
330
2
100
AcDbSymbolTableRecord
100
AcDbLayerTableRecord
  2
253
 70
     0
 62
   253
  6
CONTINUOUS
  0
LAYER
  5
137
330
2
100
AcDbSymbolTableRecord
100
AcDbLayerTableRecord
  2
254
 70
     0
 62
   254
  6
CONTINUOUS
  0
LAYER
  5
138
330
2
100
AcDbSymbolTableRecord
100
AcDbLayerTableRecord
  2
255
 70
     0
 62
   255
  6
CONTINUOUS
  0
LAYER
  5
413A
330
2
100
AcDbSymbolTableRecord
100
AcDbLayerTableRecord
  2
DEFPOINTS
 70
     0
 62
     7
  6
CONTINUOUS
  0
ENDTAB
  0
TABLE
  2
STYLE
  5
3
330
0
100
AcDbSymbolTable
 70
     1
  0
STYLE
  5
11
330
3
100
AcDbSymbolTableRecord
100
AcDbTextStyleTableRecord
  2
STANDARD
 70
     0
 40
0.0
 41
1.0
 50
0.0
 71
     0
 42
0.2
  3
monotxt
  4

  0
ENDTAB
  0
TABLE
  2
VIEW
  5
6
330
0
100
AcDbSymbolTable
 70
     0
  0
ENDTAB
  0
TABLE
  2
UCS
  5
7
330
0
100
AcDbSymbolTable
 70
     0
  0
ENDTAB
  0
TABLE
  2
APPID
  5
9
330
0
100
AcDbSymbolTable
 70
     1
  0
APPID
  5
12
330
9
100
AcDbSymbolTableRecord
100
AcDbRegAppTableRecord
  2
ACAD
 70
     0
  0
ENDTAB
  0
TABLE
  2
DIMSTYLE
  5
A
330
0
100
AcDbSymbolTable
 70
     1
  0
DIMSTYLE
105
2E24
102
{ACAD_REACTORS
330
4139
102
}
330
A
100
AcDbSymbolTableRecord
100
AcDbDimStyleTableRecord
  2
STANDARD
 70
     0
  3

  4

  5

  6

  7

 40
1.0
 41
0.18
 42
0.0625
 43
0.38
 44
0.18
 45
0.0
 46
0.0
 47
0.0
 48
0.0
140
0.18
141
0.09
142
0.0
143
25.4
144
1.0
145
0.0
146
1.0
147
0.09
 71
     0
 72
     0
 73
     1
 74
     1
 75
     0
 76
     0
 77
     0
 78
     0
170
     0
171
     2
172
     0
173
     0
174
     0
175
     0
176
     0
177
     0
178
     0
270
     2
271
     4
272
     4
273
     2
274
     2
340
11
275
     0
280
     0
281
     0
282
     0
283
     1
284
     0
285
     0
286
     0
287
     3
288
     0
  0
ENDTAB
  0
TABLE
  2
BLOCK_RECORD
  5
1
330
0
100
AcDbSymbolTable
 70
     1
  0
BLOCK_RECORD
  5
1E
102
{ACAD_XDICTIONARY
360
4195
102
}
330
1
100
AcDbSymbolTableRecord
100
AcDbBlockTableRecord
  2
*MODEL_SPACE
  0
BLOCK_RECORD
  5
1A
102
{ACAD_XDICTIONARY
360
4193
102
}
330
1
100
AcDbSymbolTableRecord
100
AcDbBlockTableRecord
  2
*PAPER_SPACE
  0
BLOCK_RECORD
  5
413B
330
1
100
AcDbSymbolTableRecord
100
AcDbBlockTableRecord
  2
*D0
  0
ENDTAB
  0
ENDSEC
  0
SECTION
  2
BLOCKS
  0
BLOCK
  5
13B
330
1E
100
AcDbEntity
  8
0
100
AcDbBlockBegin
  2
*MODEL_SPACE
 70
     0
 10
0.0
 20
0.0
 30
0.0
  3
*MODEL_SPACE
  1

  0
ENDBLK
  5
13C
330
1E
100
AcDbEntity
  8
0
100
AcDbBlockEnd
  0
BLOCK
  5
139
330
1A
100
AcDbEntity
 67
     1
  8
0
100
AcDbBlockBegin
  2
*PAPER_SPACE
 70
     0
 10
0.0
 20
0.0
 30
0.0
  3
*PAPER_SPACE
  1

  0
ENDBLK
  5
13A
330
1A
100
AcDbEntity
 67
     1
  8
0
100
AcDbBlockEnd
  0
BLOCK
  5
4146
330
413B
100
AcDbEntity
  8
0
100
AcDbBlockBegin
  2
*D0
 70
     1
 10
0.0
 20
0.0
 30
0.0
  3
*D0
  1

  0
LINE
  5
4152
330
413B
100
AcDbEntity
  8
0
 62
     0
100
AcDbLine
 10
-2.96832527756554
 20
-2.133476697445722
 30
0.0
 11
-2.96832527756554
 21
-3.092587091012504
 31
0.0
  0
LINE
  5
4153
330
413B
100
AcDbEntity
  8
0
 62
     0
100
AcDbLine
 10
7.031674722434456
 20
-2.133476697445722
 30
0.0
 11
7.031674722434456
 21
-3.092587091012504
 31
0.0
  0
LINE
  5
4154
330
413B
100
AcDbEntity
  8
0
 62
     0
100
AcDbLine
 10
-2.78832527756554
 20
-2.912587091012504
 30
0.0
 11
1.341674722434458
 21
-2.912587091012504
 31
0.0
  0
LINE
  5
4155
330
413B
100
AcDbEntity
  8
0
 62
     0
100
AcDbLine
 10
6.851674722434457
 20
-2.912587091012504
 30
0.0
 11
2.721674722434458
 21
-2.912587091012504
 31
0.0
  0
SOLID
  5
4156
330
413B
100
AcDbEntity
  8
0
 62
     0
100
AcDbTrace
 10
-2.78832527756554
 20
-2.882587091012504
 30
0.0
 11
-2.78832527756554
 21
-2.942587091012504
 31
0.0
 12
-2.96832527756554
 22
-2.912587091012504
 32
0.0
 13
-2.96832527756554
 23
-2.912587091012504
 33
0.0
  0
SOLID
  5
4157
330
413B
100
AcDbEntity
  8
0
 62
     0
100
AcDbTrace
 10
6.851674722434457
 20
-2.882587091012504
 30
0.0
 11
6.851674722434457
 21
-2.942587091012504
 31
0.0
 12
7.031674722434456
 22
-2.912587091012504
 32
0.0
 13
7.031674722434456
 23
-2.912587091012504
 33
0.0
  0
MTEXT
  5
4158
330
413B
100
AcDbEntity
  8
0
 62
     0
100
AcDbMText
 10
2.031674722434458
 20
-2.912587091012504
 30
0.0
 40
0.18
 41
0.0
 71
     5
 72
     1
  1
\A1;10.0000
1001
ACAD
1000
MTEXTBEGIN
1070
    73
1070
     1
1070
    44
1040
1.0
1070
    74
1070
     0
1000
MTEXTEND
  0
POINT
  5
4159
330
413B
100
AcDbEntity
  8
DEFPOINTS
 62
     0
100
AcDbPoint
 10
-2.96832527756554
 20
-2.070976697445722
 30
0.0
  0
POINT
  5
415A
330
413B
100
AcDbEntity
  8
DEFPOINTS
 62
     0
100
AcDbPoint
 10
7.031674722434456
 20
-2.070976697445722
 30
0.0
  0
POINT
  5
415B
330
413B
100
AcDbEntity
  8
DEFPOINTS
 62
     0
100
AcDbPoint
 10
7.031674722434456
 20
-2.912587091012504
 30
0.0
  0
ENDBLK
  5
4147
330
413B
100
AcDbEntity
  8
0
100
AcDbBlockEnd
  0
ENDSEC
  0
SECTION
  2
ENTITIES
  0
LINE
  5
2949
330
1E
100
AcDbEntity
  8
7
100
AcDbLine
 10
-2.695359398300449
 20
3.619312016465036
 30
0.0
 11
-2.96832527756554
 21
3.619312016465036
 31
0.0
  0
LINE
  5
294A
330
1E
100
AcDbEntity
  8
7
100
AcDbLine
 10
7.031674722434456
 20
6.516949811740626
 30
0.0
 11
7.031674722434456
 21
6.243983932475535
 31
0.0
  0
LINE
  5
294B
330
1E
100
AcDbEntity
  8
7
100
AcDbLine
 10
7.031674722434456
 20
6.165243774995218
 30
0.0
 11
7.031674722434456
 21
6.243983932475535
 31
0.0
  0
LINE
  5
294C
330
1E
100
AcDbEntity
  8
7
100
AcDbLine
 10
7.031674722434456
 20
6.076004929850863
 30
0.0
 11
7.031674722434456
 21
6.165243774995218
 31
0.0
  0
LINE
  5
294D
330
1E
100
AcDbEntity
  8
7
100
AcDbLine
 10
7.031674722434456
 20
4.535322515152699
 30
0.0
 11
7.031674722434456
 21
6.076004929850863
 31
0.0
  0
LINE
  5
294E
330
1E
100
AcDbEntity
  8
7
100
AcDbLine
 10
7.031674722434456
 20
4.446083670008341
 30
0.0
 11
7.031674722434456
 21
4.535322515152699
 31
0.0
  0
LINE
  5
294F
330
1E
100
AcDbEntity
  8
7
100
AcDbLine
 10
7.031674722434456
 20
4.369968184444038
 30
0.0
 11
7.031674722434456
 21
4.446083670008341
 31
0.0
  0
LINE
  5
2950
330
1E
100
AcDbEntity
  8
7
100
AcDbLine
 10
-2.571999818247955
 20
5.556319890480784
 30
0.0
 11
-2.571999818247955
 21
6.07075558601884
 31
0.0
  0
LINE
  5
2957
330
1E
100
AcDbEntity
  8
7
100
AcDbLine
 10
-1.687485382552416
 20
4.369968184444038
 30
0.0
 11
-1.687485382552416
 21
4.267605979719629
 31
0.0
  0
LINE
  5
2958
330
1E
100
AcDbEntity
  8
7
100
AcDbLine
 10
-2.267537875990738
 20
6.243983932475535
 30
0.0
 11
-2.267537875990738
 21
6.343721465283934
 31
0.0
  0
LINE
  5
2959
330
1E
100
AcDbEntity
  8
7
100
AcDbLine
 10
5.798078921909524
 20
4.509075795992593
 30
0.0
 11
5.798078921909524
 21
6.104876320926979
 31
0.0
  0
LINE
  5
295A
330
1E
100
AcDbEntity
  8
7
100
AcDbLine
 10
-1.732104805124595
 20
4.509075795992593
 30
0.0
 11
-1.732104805124595
 21
6.104876320926979
 31
0.0
  0
LINE
  5
2961
330
1E
100
AcDbEntity
  8
7
100
AcDbLine
 10
1.291517242119498
 20
4.64030939179312
 30
0.0
 11
1.291517242119498
 21
5.971018053210443
 31
0.0
  0
LINE
  5
2968
330
1E
100
AcDbEntity
  8
7
100
AcDbLine
 10
-1.207170421922496
 20
4.540571858984719
 30
0.0
 11
1.191779709311099
 21
4.540571858984719
 31
0.0
  0
LINE
  5
2969
330
1E
100
AcDbEntity
  8
7
100
AcDbLine
 10
-1.306907954730895
 20
4.64030939179312
 30
0.0
 11
-1.293784595150843
 21
4.59044062538892
 31
0.0
  0
LINE
  5
296F
330
1E
100
AcDbEntity
  8
7
100
AcDbLine
 10
-1.306907954730895
 20
5.971018053210443
 30
0.0
 11
-1.306907954730895
 21
4.64030939179312
 31
0.0
  0
LINE
  5
2976
330
1E
100
AcDbEntity
  8
7
100
AcDbLine
 10
1.191779709311099
 20
6.07075558601884
 30
0.0
 11
-1.207170421922496
 21
6.07075558601884
 31
0.0
  0
LINE
  5
297D
330
1E
100
AcDbEntity
  8
7
100
AcDbLine
 10
2.871569735557817
 20
6.07075558601884
 30
0.0
 11
5.273144538707423
 21
6.07075558601884
 31
0.0
  0
LINE
  5
2983
330
1E
100
AcDbEntity
  8
7
100
AcDbLine
 10
5.323013305111622
 20
6.057632226438789
 30
0.0
 11
5.273144538707423
 21
6.07075558601884
 31
0.0
  0
LINE
  5
2984
330
1E
100
AcDbEntity
  8
7
100
AcDbLine
 10
5.372882071515823
 20
5.971018053210443
 30
0.0
 11
5.372882071515823
 21
4.64030939179312
 31
0.0
  0
LINE
  5
298B
330
1E
100
AcDbEntity
  8
7
100
AcDbLine
 10
5.273144538707423
 20
4.540571858984719
 30
0.0
 11
2.871569735557817
 21
4.540571858984719
 31
0.0
  0
LINE
  5
2992
330
1E
100
AcDbEntity
  8
7
100
AcDbLine
 10
2.771832202749418
 20
4.64030939179312
 30
0.0
 11
2.771832202749418
 21
5.971018053210443
 31
0.0
  0
LINE
  5
2993
330
1E
100
AcDbEntity
  8
7
100
AcDbLine
 10
-1.488010316935619
 20
4.369968184444038
 30
0.0
 11
-1.687485382552416
 21
4.369968184444038
 31
0.0
  0
LINE
  5
2994
330
1E
100
AcDbEntity
  8
7
100
AcDbLine
 10
-1.488010316935619
 20
4.446083670008341
 30
0.0
 11
-1.488010316935619
 21
4.369968184444038
 31
0.0
  0
LINE
  5
2995
330
1E
100
AcDbEntity
  8
7
100
AcDbLine
 10
-1.524755723759766
 20
4.446083670008341
 30
0.0
 11
-1.488010316935619
 21
4.446083670008341
 31
0.0
  0
LINE
  5
2996
330
1E
100
AcDbEntity
  8
7
100
AcDbLine
 10
-1.524755723759766
 20
4.648183407541152
 30
0.0
 11
-1.524755723759766
 21
4.446083670008341
 31
0.0
  0
LINE
  5
2997
330
1E
100
AcDbEntity
  8
7
100
AcDbLine
 10
-1.716356773628533
 20
4.648183407541152
 30
0.0
 11
-1.524755723759766
 21
4.648183407541152
 31
0.0
  0
LINE
  5
2998
330
1E
100
AcDbEntity
  8
7
100
AcDbLine
 10
-1.716356773628533
 20
4.446083670008341
 30
0.0
 11
-1.716356773628533
 21
4.648183407541152
 31
0.0
  0
LINE
  5
2999
330
1E
100
AcDbEntity
  8
7
100
AcDbLine
 10
-1.732104805124595
 20
4.446083670008341
 30
0.0
 11
-1.716356773628533
 21
4.446083670008341
 31
0.0
  0
LINE
  5
299A
330
1E
100
AcDbEntity
  8
7
100
AcDbLine
 10
-1.732104805124595
 20
4.369968184444038
 30
0.0
 11
-1.732104805124595
 21
4.446083670008341
 31
0.0
  0
LINE
  5
299B
330
1E
100
AcDbEntity
  8
7
100
AcDbLine
 10
-1.732104805124595
 20
6.165243774995218
 30
0.0
 11
-1.732104805124595
 21
6.243983932475535
 31
0.0
  0
LINE
  5
299C
330
1E
100
AcDbEntity
  8
7
100
AcDbLine
 10
-1.716356773628533
 20
6.165243774995218
 30
0.0
 11
-1.732104805124595
 21
6.165243774995218
 31
0.0
  0
LINE
  5
299D
330
1E
100
AcDbEntity
  8
7
100
AcDbLine
 10
-1.716356773628533
 20
5.963144037462411
 30
0.0
 11
-1.716356773628533
 21
6.165243774995218
 31
0.0
  0
LINE
  5
299E
330
1E
100
AcDbEntity
  8
7
100
AcDbLine
 10
-1.524755723759766
 20
5.963144037462411
 30
0.0
 11
-1.716356773628533
 21
5.963144037462411
 31
0.0
  0
LINE
  5
299F
330
1E
100
AcDbEntity
  8
7
100
AcDbLine
 10
-1.524755723759766
 20
6.165243774995218
 30
0.0
 11
-1.524755723759766
 21
5.963144037462411
 31
0.0
  0
LINE
  5
29A0
330
1E
100
AcDbEntity
  8
7
100
AcDbLine
 10
-1.488010316935619
 20
6.165243774995218
 30
0.0
 11
-1.524755723759766
 21
6.165243774995218
 31
0.0
  0
LINE
  5
29A1
330
1E
100
AcDbEntity
  8
7
100
AcDbLine
 10
-1.488010316935619
 20
6.243983932475535
 30
0.0
 11
-1.488010316935619
 21
6.165243774995218
 31
0.0
  0
LINE
  5
29A2
330
1E
100
AcDbEntity
  8
7
100
AcDbLine
 10
-1.687485382552416
 20
6.243983932475535
 30
0.0
 11
-1.488010316935619
 21
6.243983932475535
 31
0.0
  0
LINE
  5
29A8
330
1E
100
AcDbEntity
  8
7
100
AcDbLine
 10
-1.732104805124595
 20
4.509075795992593
 30
0.0
 11
-1.716356773628533
 21
4.509075795992593
 31
0.0
  0
LINE
  5
29A9
330
1E
100
AcDbEntity
  8
7
100
AcDbLine
 10
-1.732104805124595
 20
4.446083670008341
 30
0.0
 11
-1.732104805124595
 21
4.509075795992593
 31
0.0
  0
LINE
  5
29AA
330
1E
100
AcDbEntity
  8
7
100
AcDbLine
 10
1.291517242119498
 20
6.243983932475535
 30
0.0
 11
2.771832202749418
 21
6.243983932475535
 31
0.0
  0
LINE
  5
29B0
330
1E
100
AcDbEntity
  8
7
100
AcDbLine
 10
5.490992307736294
 20
6.243983932475535
 30
0.0
 11
2.83482432873367
 21
6.243983932475535
 31
0.0
  0
LINE
  5
29B6
330
1E
100
AcDbEntity
  8
7
100
AcDbLine
 10
5.753459499337344
 20
6.243983932475535
 30
0.0
 11
5.551359761804536
 21
6.243983932475535
 31
0.0
  0
LINE
  5
29C2
330
1E
100
AcDbEntity
  8
7
100
AcDbLine
 10
-2.267537875990738
 20
4.369968184444038
 30
0.0
 11
-2.96832527756554
 21
4.369968184444038
 31
0.0
  0
LINE
  5
29DE
330
1E
100
AcDbEntity
  8
7
100
AcDbLine
 10
-2.571999818247955
 20
4.540571858984719
 30
0.0
 11
-2.571999818247955
 21
5.057632226438789
 31
0.0
  0
LINE
  5
29EC
330
1E
100
AcDbEntity
  8
7
100
AcDbLine
 10
-2.571999818247955
 20
6.07075558601884
 30
0.0
 11
-2.222918453418559
 21
6.07075558601884
 31
0.0
  0
LINE
  5
29ED
330
1E
100
AcDbEntity
  8
7
100
AcDbLine
 10
-2.222918453418559
 20
6.104876320926979
 30
0.0
 11
-2.222918453418559
 21
6.07075558601884
 31
0.0
  0
LINE
  5
29EE
330
1E
100
AcDbEntity
  8
7
100
AcDbLine
 10
-2.96832527756554
 20
4.535322515152699
 30
0.0
 11
-2.96832527756554
 21
6.076004929850863
 31
0.0
  0
LINE
  5
29EF
330
1E
100
AcDbEntity
  8
7
100
AcDbLine
 10
-2.222918453418559
 20
4.540571858984719
 30
0.0
 11
-2.571999818247955
 21
4.540571858984719
 31
0.0
  0
LINE
  5
29F0
330
1E
100
AcDbEntity
  8
7
100
AcDbLine
 10
5.551359761804536
 20
4.369968184444038
 30
0.0
 11
5.753459499337344
 21
4.369968184444038
 31
0.0
  0
LINE
  5
29F6
330
1E
100
AcDbEntity
  8
7
100
AcDbLine
 10
2.83482432873367
 20
4.369968184444038
 30
0.0
 11
5.490992307736294
 21
4.369968184444038
 31
0.0
  0
LINE
  5
2A14
330
1E
100
AcDbEntity
  8
7
100
AcDbLine
 10
2.771832202749418
 20
4.369968184444038
 30
0.0
 11
2.771832202749418
 21
4.535322515152699
 31
0.0
  0
LINE
  5
2A15
330
1E
100
AcDbEntity
  8
7
100
AcDbLine
 10
2.708840076765167
 20
4.598314641136951
 30
0.0
 11
2.771832202749418
 21
4.535322515152699
 31
0.0
  0
LINE
  5
2A16
330
1E
100
AcDbEntity
  8
7
100
AcDbLine
 10
2.708840076765167
 20
4.598314641136951
 30
0.0
 11
2.56973246521661
 21
4.598314641136951
 31
0.0
  0
LINE
  5
2A17
330
1E
100
AcDbEntity
  8
7
100
AcDbLine
 10
2.506740339232358
 20
4.535322515152699
 30
0.0
 11
2.56973246521661
 21
4.598314641136951
 31
0.0
  0
LINE
  5
2A18
330
1E
100
AcDbEntity
  8
7
100
AcDbLine
 10
2.506740339232358
 20
4.535322515152699
 30
0.0
 11
2.506740339232358
 21
4.446083670008341
 31
0.0
  0
LINE
  5
2A19
330
1E
100
AcDbEntity
  8
7
100
AcDbLine
 10
1.556609105636558
 20
4.446083670008341
 30
0.0
 11
2.506740339232358
 21
4.446083670008341
 31
0.0
  0
LINE
  5
2A1A
330
1E
100
AcDbEntity
  8
7
100
AcDbLine
 10
1.556609105636558
 20
4.535322515152699
 30
0.0
 11
1.556609105636558
 21
4.446083670008341
 31
0.0
  0
LINE
  5
2A1B
330
1E
100
AcDbEntity
  8
7
100
AcDbLine
 10
1.556609105636558
 20
4.535322515152699
 30
0.0
 11
1.493616979652306
 21
4.598314641136951
 31
0.0
  0
LINE
  5
2A1C
330
1E
100
AcDbEntity
  8
7
100
AcDbLine
 10
1.354509368103749
 20
4.598314641136951
 30
0.0
 11
1.493616979652306
 21
4.598314641136951
 31
0.0
  0
LINE
  5
2A1D
330
1E
100
AcDbEntity
  8
7
100
AcDbLine
 10
1.354509368103749
 20
4.598314641136951
 30
0.0
 11
1.291517242119498
 21
4.535322515152699
 31
0.0
  0
LINE
  5
2A1E
330
1E
100
AcDbEntity
  8
7
100
AcDbLine
 10
1.291517242119498
 20
4.369968184444038
 30
0.0
 11
1.291517242119498
 21
4.535322515152699
 31
0.0
  0
LINE
  5
2A1F
330
1E
100
AcDbEntity
  8
7
100
AcDbLine
 10
2.506740339232358
 20
6.165243774995218
 30
0.0
 11
1.556609105636558
 21
6.165243774995218
 31
0.0
  0
LINE
  5
2A20
330
1E
100
AcDbEntity
  8
7
100
AcDbLine
 10
2.506740339232358
 20
6.165243774995218
 30
0.0
 11
2.506740339232358
 21
6.076004929850863
 31
0.0
  0
LINE
  5
2A21
330
1E
100
AcDbEntity
  8
7
100
AcDbLine
 10
2.56973246521661
 20
6.013012803866611
 30
0.0
 11
2.506740339232358
 21
6.076004929850863
 31
0.0
  0
LINE
  5
2A22
330
1E
100
AcDbEntity
  8
7
100
AcDbLine
 10
2.56973246521661
 20
6.013012803866611
 30
0.0
 11
2.708840076765167
 21
6.013012803866611
 31
0.0
  0
LINE
  5
2A23
330
1E
100
AcDbEntity
  8
7
100
AcDbLine
 10
2.771832202749418
 20
6.076004929850863
 30
0.0
 11
2.708840076765167
 21
6.013012803866611
 31
0.0
  0
LINE
  5
2A24
330
1E
100
AcDbEntity
  8
7
100
AcDbLine
 10
2.771832202749418
 20
6.076004929850863
 30
0.0
 11
2.771832202749418
 21
6.243983932475535
 31
0.0
  0
LINE
  5
2A25
330
1E
100
AcDbEntity
  8
7
100
AcDbLine
 10
1.291517242119498
 20
6.076004929850863
 30
0.0
 11
1.291517242119498
 21
6.243983932475535
 31
0.0
  0
LINE
  5
2A26
330
1E
100
AcDbEntity
  8
7
100
AcDbLine
 10
1.291517242119498
 20
6.076004929850863
 30
0.0
 11
1.354509368103749
 21
6.013012803866611
 31
0.0
  0
LINE
  5
2A27
330
1E
100
AcDbEntity
  8
7
100
AcDbLine
 10
1.493616979652306
 20
6.013012803866611
 30
0.0
 11
1.354509368103749
 21
6.013012803866611
 31
0.0
  0
LINE
  5
2A28
330
1E
100
AcDbEntity
  8
7
100
AcDbLine
 10
1.493616979652306
 20
6.013012803866611
 30
0.0
 11
1.556609105636558
 21
6.076004929850863
 31
0.0
  0
LINE
  5
2A29
330
1E
100
AcDbEntity
  8
7
100
AcDbLine
 10
1.556609105636558
 20
6.165243774995218
 30
0.0
 11
1.556609105636558
 21
6.076004929850863
 31
0.0
  0
LINE
  5
2A2A
330
1E
100
AcDbEntity
  8
7
100
AcDbLine
 10
-2.96832527756554
 20
4.446083670008341
 30
0.0
 11
-2.222918453418559
 21
4.446083670008341
 31
0.0
  0
LINE
  5
2A2B
330
1E
100
AcDbEntity
  8
7
100
AcDbLine
 10
-2.222918453418559
 20
6.165243774995218
 30
0.0
 11
-2.96832527756554
 21
6.165243774995218
 31
0.0
  0
LINE
  5
2A2C
330
1E
100
AcDbEntity
  8
7
100
AcDbLine
 10
-2.222918453418559
 20
6.243983932475535
 30
0.0
 11
-2.222918453418559
 21
6.165243774995218
 31
0.0
  0
LINE
  5
2A2D
330
1E
100
AcDbEntity
  8
7
100
AcDbLine
 10
-2.905333151581288
 20
4.598314641136951
 30
0.0
 11
-2.766225540032731
 21
4.598314641136951
 31
0.0
  0
LINE
  5
2A2E
330
1E
100
AcDbEntity
  8
7
100
AcDbLine
 10
-2.905333151581288
 20
4.598314641136951
 30
0.0
 11
-2.96832527756554
 21
4.535322515152699
 31
0.0
  0
LINE
  5
2A2F
330
1E
100
AcDbEntity
  8
7
100
AcDbLine
 10
-2.703233414048479
 20
4.535322515152699
 30
0.0
 11
-2.703233414048479
 21
4.446083670008341
 31
0.0
  0
LINE
  5
2A30
330
1E
100
AcDbEntity
  8
7
100
AcDbLine
 10
-2.703233414048479
 20
4.535322515152699
 30
0.0
 11
-2.766225540032731
 21
4.598314641136951
 31
0.0
  0
LINE
  5
2A31
330
1E
100
AcDbEntity
  8
7
100
AcDbLine
 10
-2.96832527756554
 20
6.076004929850863
 30
0.0
 11
-2.905333151581288
 21
6.013012803866611
 31
0.0
  0
LINE
  5
2A32
330
1E
100
AcDbEntity
  8
7
100
AcDbLine
 10
-2.766225540032731
 20
6.013012803866611
 30
0.0
 11
-2.905333151581288
 21
6.013012803866611
 31
0.0
  0
LINE
  5
2A33
330
1E
100
AcDbEntity
  8
7
100
AcDbLine
 10
-2.766225540032731
 20
6.013012803866611
 30
0.0
 11
-2.703233414048479
 21
6.076004929850863
 31
0.0
  0
LINE
  5
2A34
330
1E
100
AcDbEntity
  8
7
100
AcDbLine
 10
-2.703233414048479
 20
6.165243774995218
 30
0.0
 11
-2.703233414048479
 21
6.076004929850863
 31
0.0
  0
LINE
  5
2A35
330
1E
100
AcDbEntity
  8
7
100
AcDbLine
 10
-2.222918453418559
 20
6.104876320926979
 30
0.0
 11
-2.703233414048479
 21
6.104876320926979
 31
0.0
  0
LINE
  5
2A36
330
1E
100
AcDbEntity
  8
7
100
AcDbLine
 10
-2.222918453418559
 20
6.165243774995218
 30
0.0
 11
-2.222918453418559
 21
6.104876320926979
 31
0.0
  0
LINE
  5
2A3D
330
1E
100
AcDbEntity
  8
7
100
AcDbLine
 10
-1.425018190951367
 20
6.243983932475535
 30
0.0
 11
-1.425018190951367
 21
6.165243774995218
 31
0.0
  0
LINE
  5
2A3E
330
1E
100
AcDbEntity
  8
7
100
AcDbLine
 10
1.228525116135246
 20
6.104876320926979
 30
0.0
 11
1.228525116135246
 21
6.243983932475535
 31
0.0
  0
LINE
  5
2A3F
330
1E
100
AcDbEntity
  8
7
100
AcDbLine
 10
2.506740339232358
 20
6.104876320926979
 30
0.0
 11
1.556609105636558
 21
6.104876320926979
 31
0.0
  0
LINE
  5
2A40
330
1E
100
AcDbEntity
  8
7
100
AcDbLine
 10
-2.703233414048479
 20
4.509075795992593
 30
0.0
 11
-2.222918453418559
 21
4.509075795992593
 31
0.0
  0
LINE
  5
2A47
330
1E
100
AcDbEntity
  8
7
100
AcDbLine
 10
1.228525116135246
 20
4.369968184444038
 30
0.0
 11
1.228525116135246
 21
4.509075795992593
 31
0.0
  0
LINE
  5
2A48
330
1E
100
AcDbEntity
  8
7
100
AcDbLine
 10
-1.425018190951367
 20
4.446083670008341
 30
0.0
 11
-1.425018190951367
 21
4.369968184444038
 31
0.0
  0
LINE
  5
2A49
330
1E
100
AcDbEntity
  8
7
100
AcDbLine
 10
1.556609105636558
 20
4.509075795992593
 30
0.0
 11
2.506740339232358
 21
4.509075795992593
 31
0.0
  0
LINE
  5
2A4A
330
1E
100
AcDbEntity
  8
7
100
AcDbLine
 10
-2.167800343182339
 20
4.167868446911231
 30
0.0
 11
-1.787222915360816
 21
4.167868446911231
 31
0.0
  0
LINE
  5
2A50
330
1E
100
AcDbEntity
  8
7
100
AcDbLine
 10
-1.70060874213247
 20
4.217737213315428
 30
0.0
 11
-2.254414516410685
 21
4.217737213315428
 31
0.0
  0
LINE
  5
2A56
330
1E
100
AcDbEntity
  8
7
100
AcDbLine
 10
-2.267537875990738
 20
4.369968184444038
 30
0.0
 11
-1.687485382552416
 21
4.369968184444038
 31
0.0
  0
LINE
  5
2A57
330
1E
100
AcDbEntity
  8
7
100
AcDbLine
 10
-2.267537875990738
 20
4.267605979719629
 30
0.0
 11
-2.267537875990738
 21
4.369968184444038
 31
0.0
  0
LINE
  5
2A58
330
1E
100
AcDbEntity
  8
7
100
AcDbLine
 10
-2.167800343182339
 20
6.443458998092332
 30
0.0
 11
-1.787222915360816
 21
6.443458998092332
 31
0.0
  0
LINE
  5
2A59
330
1E
100
AcDbEntity
  8
7
100
AcDbLine
 10
-2.167800343182339
 20
6.443458998092332
 30
0.0
 11
-2.217669109586537
 21
6.43033563851228
 31
0.0
  0
LINE
  5
2A5A
330
1E
100
AcDbEntity
  8
7
100
AcDbLine
 10
-2.217669109586537
 20
6.43033563851228
 30
0.0
 11
-2.254414516410685
 21
6.393590231688132
 31
0.0
  0
LINE
  5
2A5B
330
1E
100
AcDbEntity
  8
7
100
AcDbLine
 10
-2.254414516410685
 20
6.393590231688132
 30
0.0
 11
-1.70060874213247
 21
6.393590231688132
 31
0.0
  0
LINE
  5
2A66
330
1E
100
AcDbEntity
  8
7
100
AcDbLine
 10
-1.70060874213247
 20
4.217737213315428
 30
0.0
 11
-1.687485382552416
 21
4.267605979719629
 31
0.0
  0
LINE
  5
2A67
330
1E
100
AcDbEntity
  8
7
100
AcDbLine
 10
-2.267537875990738
 20
4.267605979719629
 30
0.0
 11
-2.254414516410685
 21
4.217737213315428
 31
0.0
  0
LINE
  5
2A68
330
1E
100
AcDbEntity
  8
7
100
AcDbLine
 10
-2.254414516410685
 20
6.393590231688132
 30
0.0
 11
-2.267537875990738
 21
6.343721465283934
 31
0.0
  0
LINE
  5
2A69
330
1E
100
AcDbEntity
  8
7
100
AcDbLine
 10
-1.687485382552416
 20
6.343721465283934
 30
0.0
 11
-1.70060874213247
 21
6.393590231688132
 31
0.0
  0
LINE
  5
2A6A
330
1E
100
AcDbEntity
  8
7
100
AcDbLine
 10
6.637973935032881
 20
5.556319890480784
 30
0.0
 11
6.637973935032881
 21
6.07075558601884
 31
0.0
  0
LINE
  5
2A6B
330
1E
100
AcDbEntity
  8
7
100
AcDbLine
 10
6.286267898287475
 20
4.446083670008341
 30
0.0
 11
6.286267898287475
 21
4.369968184444038
 31
0.0
  0
LINE
  5
2A6C
330
1E
100
AcDbEntity
  8
7
100
AcDbLine
 10
6.286267898287475
 20
4.509075795992593
 30
0.0
 11
6.286267898287475
 21
4.446083670008341
 31
0.0
  0
LINE
  5
2A6D
330
1E
100
AcDbEntity
  8
7
100
AcDbLine
 10
6.286267898287475
 20
4.540571858984719
 30
0.0
 11
6.286267898287475
 21
4.509075795992593
 31
0.0
  0
LINE
  5
2A6E
330
1E
100
AcDbEntity
  8
7
100
AcDbLine
 10
5.753459499337344
 20
4.369968184444038
 30
0.0
 11
5.753459499337344
 21
4.267605979719629
 31
0.0
  0
LINE
  5
2A6F
330
1E
100
AcDbEntity
  8
7
100
AcDbLine
 10
6.330887320859654
 20
6.243983932475535
 30
0.0
 11
6.330887320859654
 21
6.343721465283934
 31
0.0
  0
LINE
  5
2A70
330
1E
100
AcDbEntity
  8
7
100
AcDbLine
 10
5.798078921909524
 20
4.369968184444038
 30
0.0
 11
5.798078921909524
 21
4.446083670008341
 31
0.0
  0
LINE
  5
2A84
330
1E
100
AcDbEntity
  8
7
100
AcDbLine
 10
5.77970621849745
 20
6.104876320926979
 30
0.0
 11
5.798078921909524
 21
6.104876320926979
 31
0.0
  0
LINE
  5
2A85
330
1E
100
AcDbEntity
  8
7
100
AcDbLine
 10
5.798078921909524
 20
6.104876320926979
 30
0.0
 11
5.798078921909524
 21
6.165243774995218
 31
0.0
  0
LINE
  5
2A86
330
1E
100
AcDbEntity
  8
7
100
AcDbLine
 10
5.798078921909524
 20
4.509075795992593
 30
0.0
 11
5.77970621849745
 21
4.509075795992593
 31
0.0
  0
LINE
  5
2A87
330
1E
100
AcDbEntity
  8
7
100
AcDbLine
 10
5.798078921909524
 20
4.446083670008341
 30
0.0
 11
5.798078921909524
 21
4.509075795992593
 31
0.0
  0
LINE
  5
2A88
330
1E
100
AcDbEntity
  8
7
100
AcDbLine
 10
6.330887320859654
 20
4.369968184444038
 30
0.0
 11
7.031674722434456
 21
4.369968184444038
 31
0.0
  0
LINE
  5
2A8E
330
1E
100
AcDbEntity
  8
7
100
AcDbLine
 10
5.551359761804536
 20
4.446083670008341
 30
0.0
 11
5.532987058392462
 21
4.446083670008341
 31
0.0
  0
LINE
  5
2A8F
330
1E
100
AcDbEntity
  8
7
100
AcDbLine
 10
5.532987058392462
 20
4.446083670008341
 30
0.0
 11
5.490992307736294
 21
4.446083670008341
 31
0.0
  0
LINE
  5
2AA4
330
1E
100
AcDbEntity
  8
7
100
AcDbLine
 10
6.637973935032881
 20
4.540571858984719
 30
0.0
 11
6.637973935032881
 21
5.057632226438789
 31
0.0
  0
LINE
  5
2AA5
330
1E
100
AcDbEntity
  8
7
100
AcDbLine
 10
6.286267898287475
 20
4.540571858984719
 30
0.0
 11
6.637973935032881
 21
4.540571858984719
 31
0.0
  0
LINE
  5
2AA6
330
1E
100
AcDbEntity
  8
7
100
AcDbLine
 10
6.286267898287475
 20
6.104876320926979
 30
0.0
 11
6.286267898287475
 21
6.07075558601884
 31
0.0
  0
LINE
  5
2AA7
330
1E
100
AcDbEntity
  8
7
100
AcDbLine
 10
6.637973935032881
 20
6.07075558601884
 30
0.0
 11
6.286267898287475
 21
6.07075558601884
 31
0.0
  0
LINE
  5
2AB5
330
1E
100
AcDbEntity
  8
7
100
AcDbLine
 10
7.031674722434456
 20
6.994640100454536
 30
0.0
 11
7.031674722434456
 21
6.721674221189445
 31
0.0
  0
LINE
  5
2AB6
330
1E
100
AcDbEntity
  8
7
100
AcDbLine
 10
7.031674722434456
 20
6.243983932475535
 30
0.0
 11
6.330887320859654
 21
6.243983932475535
 31
0.0
  0
LINE
  5
2AB7
330
1E
100
AcDbEntity
  8
7
100
AcDbLine
 10
7.031674722434456
 20
4.446083670008341
 30
0.0
 11
6.286267898287475
 21
4.446083670008341
 31
0.0
  0
LINE
  5
2ABD
330
1E
100
AcDbEntity
  8
7
100
AcDbLine
 10
6.968682596450205
 20
4.598314641136951
 30
0.0
 11
6.82957498490165
 21
4.598314641136951
 31
0.0
  0
LINE
  5
2ABE
330
1E
100
AcDbEntity
  8
7
100
AcDbLine
 10
6.766582858917398
 20
4.535322515152699
 30
0.0
 11
6.82957498490165
 21
4.598314641136951
 31
0.0
  0
LINE
  5
2ABF
330
1E
100
AcDbEntity
  8
7
100
AcDbLine
 10
6.766582858917398
 20
4.535322515152699
 30
0.0
 11
6.766582858917398
 21
4.446083670008341
 31
0.0
  0
LINE
  5
2AC0
330
1E
100
AcDbEntity
  8
7
100
AcDbLine
 10
6.968682596450205
 20
4.598314641136951
 30
0.0
 11
7.031674722434456
 21
4.535322515152699
 31
0.0
  0
LINE
  5
2AC1
330
1E
100
AcDbEntity
  8
7
100
AcDbLine
 10
6.766582858917398
 20
6.165243774995218
 30
0.0
 11
6.766582858917398
 21
6.076004929850863
 31
0.0
  0
LINE
  5
2AC2
330
1E
100
AcDbEntity
  8
7
100
AcDbLine
 10
6.82957498490165
 20
6.013012803866611
 30
0.0
 11
6.766582858917398
 21
6.076004929850863
 31
0.0
  0
LINE
  5
2AC3
330
1E
100
AcDbEntity
  8
7
100
AcDbLine
 10
6.82957498490165
 20
6.013012803866611
 30
0.0
 11
6.968682596450205
 21
6.013012803866611
 31
0.0
  0
LINE
  5
2AC4
330
1E
100
AcDbEntity
  8
7
100
AcDbLine
 10
7.031674722434456
 20
6.076004929850863
 30
0.0
 11
6.968682596450205
 21
6.013012803866611
 31
0.0
  0
LINE
  5
2AC5
330
1E
100
AcDbEntity
  8
7
100
AcDbLine
 10
6.286267898287475
 20
6.104876320926979
 30
0.0
 11
6.766582858917398
 21
6.104876320926979
 31
0.0
  0
LINE
  5
2AC6
330
1E
100
AcDbEntity
  8
7
100
AcDbLine
 10
6.286267898287475
 20
6.165243774995218
 30
0.0
 11
6.286267898287475
 21
6.104876320926979
 31
0.0
  0
LINE
  5
2AC7
330
1E
100
AcDbEntity
  8
7
100
AcDbLine
 10
2.83482432873367
 20
6.104876320926979
 30
0.0
 11
5.590729840544694
 21
6.104876320926979
 31
0.0
  0
LINE
  5
2ACE
330
1E
100
AcDbEntity
  8
7
100
AcDbLine
 10
5.490992307736294
 20
6.243983932475535
 30
0.0
 11
5.490992307736294
 21
6.165243774995218
 31
0.0
  0
LINE
  5
2ACF
330
1E
100
AcDbEntity
  8
7
100
AcDbLine
 10
6.766582858917398
 20
4.509075795992593
 30
0.0
 11
6.286267898287475
 21
4.509075795992593
 31
0.0
  0
LINE
  5
2AD6
330
1E
100
AcDbEntity
  8
7
100
AcDbLine
 10
5.490992307736294
 20
4.446083670008341
 30
0.0
 11
5.490992307736294
 21
4.369968184444038
 31
0.0
  0
LINE
  5
2AD7
330
1E
100
AcDbEntity
  8
7
100
AcDbLine
 10
2.83482432873367
 20
4.369968184444038
 30
0.0
 11
2.83482432873367
 21
4.509075795992593
 31
0.0
  0
LINE
  5
2AD8
330
1E
100
AcDbEntity
  8
7
100
AcDbLine
 10
6.231149788051254
 20
4.167868446911231
 30
0.0
 11
5.853197032145743
 21
4.167868446911231
 31
0.0
  0
LINE
  5
2ADE
330
1E
100
AcDbEntity
  8
7
100
AcDbLine
 10
5.766582858917398
 20
4.217737213315428
 30
0.0
 11
6.317763961279601
 21
4.217737213315428
 31
0.0
  0
LINE
  5
2AE4
330
1E
100
AcDbEntity
  8
7
100
AcDbLine
 10
6.330887320859654
 20
4.369968184444038
 30
0.0
 11
5.753459499337344
 21
4.369968184444038
 31
0.0
  0
LINE
  5
2AE5
330
1E
100
AcDbEntity
  8
7
100
AcDbLine
 10
6.330887320859654
 20
4.267605979719629
 30
0.0
 11
6.330887320859654
 21
4.369968184444038
 31
0.0
  0
LINE
  5
2AE6
330
1E
100
AcDbEntity
  8
7
100
AcDbLine
 10
6.231149788051254
 20
6.443458998092332
 30
0.0
 11
5.853197032145743
 21
6.443458998092332
 31
0.0
  0
LINE
  5
2AEC
330
1E
100
AcDbEntity
  8
7
100
AcDbLine
 10
6.317763961279601
 20
6.393590231688132
 30
0.0
 11
5.766582858917398
 21
6.393590231688132
 31
0.0
  0
LINE
  5
2AED
330
1E
100
AcDbEntity
  8
7
100
AcDbLine
 10
6.317763961279601
 20
6.393590231688132
 30
0.0
 11
6.281018554455455
 21
6.43033563851228
 31
0.0
  0
LINE
  5
2AEE
330
1E
100
AcDbEntity
  8
7
100
AcDbLine
 10
6.281018554455455
 20
6.43033563851228
 30
0.0
 11
6.231149788051254
 21
6.443458998092332
 31
0.0
  0
LINE
  5
2AF4
330
1E
100
AcDbEntity
  8
7
100
AcDbLine
 10
6.330887320859654
 20
4.267605979719629
 30
0.0
 11
6.317763961279601
 21
4.217737213315428
 31
0.0
  0
LINE
  5
2AF5
330
1E
100
AcDbEntity
  8
7
100
AcDbLine
 10
5.766582858917398
 20
4.217737213315428
 30
0.0
 11
5.753459499337344
 21
4.267605979719629
 31
0.0
  0
LINE
  5
2AF6
330
1E
100
AcDbEntity
  8
7
100
AcDbLine
 10
5.753459499337344
 20
6.343721465283934
 30
0.0
 11
5.766582858917398
 21
6.393590231688132
 31
0.0
  0
LINE
  5
2AF7
330
1E
100
AcDbEntity
  8
7
100
AcDbLine
 10
6.317763961279601
 20
6.393590231688132
 30
0.0
 11
6.330887320859654
 21
6.343721465283934
 31
0.0
  0
LINE
  5
2AF8
330
1E
100
AcDbEntity
  8
7
100
AcDbLine
 10
6.281018554455455
 20
6.994640100454536
 30
0.0
 11
7.031674722434456
 21
6.994640100454536
 31
0.0
  0
LINE
  5
2AF9
330
1E
100
AcDbEntity
  8
7
100
AcDbLine
 10
6.281018554455455
 20
6.43033563851228
 30
0.0
 11
6.281018554455455
 21
6.994640100454536
 31
0.0
  0
LINE
  5
2AFA
330
1E
100
AcDbEntity
  8
7
100
AcDbLine
 10
7.031674722434456
 20
6.516949811740626
 30
0.0
 11
6.582855824796662
 21
6.516949811740626
 31
0.0
  0
LINE
  5
2B07
330
1E
100
AcDbEntity
  8
7
100
AcDbLine
 10
6.582855824796662
 20
6.721674221189445
 30
0.0
 11
7.031674722434456
 21
6.721674221189445
 31
0.0
  0
LINE
  5
2B08
330
1E
100
AcDbEntity
  8
7
100
AcDbLine
 10
-2.217669109586537
 20
3.619312016465036
 30
0.0
 11
-2.49063498885163
 21
3.619312016465036
 31
0.0
  0
LINE
  5
2B09
330
1E
100
AcDbEntity
  8
7
100
AcDbLine
 10
-2.217669109586537
 20
4.180991806491283
 30
0.0
 11
-2.217669109586537
 21
3.619312016465036
 31
0.0
  0
LINE
  5
2B0A
330
1E
100
AcDbEntity
  8
7
100
AcDbLine
 10
-2.695359398300449
 20
3.619312016465036
 30
0.0
 11
-2.695359398300449
 21
4.068130914102831
 31
0.0
  0
LINE
  5
2B14
330
1E
100
AcDbEntity
  8
7
100
AcDbLine
 10
-2.49063498885163
 20
4.068130914102831
 30
0.0
 11
-2.49063498885163
 21
3.619312016465036
 31
0.0
  0
LINE
  5
2B1A
330
1E
100
AcDbEntity
  8
7
100
AcDbLine
 10
-2.96832527756554
 20
-0.8058848339286637
 30
0.0
 11
-2.96832527756554
 21
-0.6641525504640958
 31
0.0
  0
LINE
  5
2B1B
330
1E
100
AcDbEntity
  8
7
100
AcDbLine
 10
-2.96832527756554
 20
-0.8058848339286637
 30
0.0
 11
-2.695359398300449
 21
-0.8058848339286637
 31
0.0
  0
LINE
  5
2B1C
330
1E
100
AcDbEntity
  8
7
100
AcDbLine
 10
7.031674722434456
 20
-0.8058848339286637
 30
0.0
 11
7.031674722434456
 21
0.6954275020293411
 31
0.0
  0
LINE
  5
2B1D
330
1E
100
AcDbEntity
  8
7
100
AcDbLine
 10
-2.267537875990738
 20
-0.6641525504640958
 30
0.0
 11
-2.267537875990738
 21
0.6954275020293411
 31
0.0
  0
LINE
  5
2B1E
330
1E
100
AcDbEntity
  8
7
100
AcDbLine
 10
-1.687485382552416
 20
1.026136163446664
 30
0.0
 11
-1.687485382552416
 21
0.8240364259138567
 31
0.0
  0
LINE
  5
2B1F
330
1E
100
AcDbEntity
  8
7
100
AcDbLine
 10
-1.488010316935619
 20
0.6954275020293411
 30
0.0
 11
-1.687485382552416
 21
0.6954275020293411
 31
0.0
  0
LINE
  5
2B20
330
1E
100
AcDbEntity
  8
7
100
AcDbLine
 10
-2.267537875990738
 20
0.6954275020293411
 30
0.0
 11
-2.96832527756554
 21
0.6954275020293411
 31
0.0
  0
LINE
  5
2B21
330
1E
100
AcDbEntity
  8
7
100
AcDbLine
 10
-2.96832527756554
 20
-0.6641525504640958
 30
0.0
 11
-2.96832527756554
 21
0.6954275020293411
 31
0.0
  0
LINE
  5
2B22
330
1E
100
AcDbEntity
  8
7
100
AcDbLine
 10
-1.687485382552416
 20
-0.8058848339286637
 30
0.0
 11
5.753459499337344
 21
-0.8058848339286637
 31
0.0
  0
LINE
  5
2B23
330
1E
100
AcDbEntity
  8
7
100
AcDbLine
 10
5.551359761804536
 20
0.6954275020293411
 30
0.0
 11
5.753459499337344
 21
0.6954275020293411
 31
0.0
  0
LINE
  5
2B24
330
1E
100
AcDbEntity
  8
7
100
AcDbLine
 10
5.551359761804536
 20
-0.3518165924588463
 30
0.0
 11
5.551359761804536
 21
0.6954275020293411
 31
0.0
  0
LINE
  5
2B2A
330
1E
100
AcDbEntity
  8
7
100
AcDbLine
 10
2.83482432873367
 20
-0.4148087184430982
 30
0.0
 11
5.490992307736294
 21
-0.4148087184430982
 31
0.0
  0
LINE
  5
2B35
330
1E
100
AcDbEntity
  8
7
100
AcDbLine
 10
1.291517242119498
 20
-0.3518165924588463
 30
0.0
 11
1.291517242119498
 21
0.6954275020293411
 31
0.0
  0
LINE
  5
2B36
330
1E
100
AcDbEntity
  8
7
100
AcDbLine
 10
1.228525116135246
 20
-0.4121840465270883
 30
0.0
 11
1.270519866791414
 21
-0.3938113431150145
 31
0.0
  0
LINE
  5
2B37
330
1E
100
AcDbEntity
  8
7
100
AcDbLine
 10
1.270519866791414
 20
-0.3938113431150145
 30
0.0
 11
1.288892570203487
 21
-0.3518165924588463
 31
0.0
  0
LINE
  5
2B38
330
1E
100
AcDbEntity
  8
7
100
AcDbLine
 10
1.228525116135246
 20
-0.4148087184430982
 30
0.0
 11
-1.425018190951367
 21
-0.4148087184430982
 31
0.0
  0
LINE
  5
2B3E
330
1E
100
AcDbEntity
  8
7
100
AcDbLine
 10
-1.488010316935619
 20
-0.3518165924588463
 30
0.0
 11
-1.488010316935619
 21
0.6954275020293411
 31
0.0
  0
LINE
  5
2B3F
330
1E
100
AcDbEntity
  8
7
100
AcDbLine
 10
7.031674722434456
 20
-0.8058848339286637
 30
0.0
 11
6.330887320859654
 21
-0.8058848339286637
 31
0.0
  0
LINE
  5
2B46
330
1E
100
AcDbEntity
  8
7
100
AcDbLine
 10
5.853197032145743
 20
-0.8058848339286637
 30
0.0
 11
6.231149788051254
 21
-0.8058848339286637
 31
0.0
  0
LINE
  5
2B59
330
1E
100
AcDbEntity
  8
7
100
AcDbLine
 10
-2.49063498885163
 20
-0.8058848339286637
 30
0.0
 11
-2.217669109586537
 21
-0.8058848339286637
 31
0.0
  0
LINE
  5
2B6E
330
1E
100
AcDbEntity
  8
7
100
AcDbLine
 10
-1.687485382552416
 20
0.6954275020293411
 30
0.0
 11
-1.687485382552416
 21
-0.8058848339286637
 31
0.0
  0
LINE
  5
2B6F
330
1E
100
AcDbEntity
  8
7
100
AcDbLine
 10
-2.267537875990738
 20
0.8240364259138567
 30
0.0
 11
-2.267537875990738
 21
1.026136163446664
 31
0.0
  0
LINE
  5
2B70
330
1E
100
AcDbEntity
  8
7
100
AcDbLine
 10
-1.787222915360816
 20
-0.8058848339286637
 30
0.0
 11
-1.787222915360816
 21
1.086503617514906
 31
0.0
  0
LINE
  5
2B71
330
1E
100
AcDbEntity
  8
7
100
AcDbLine
 10
-2.167800343182339
 20
1.086503617514906
 30
0.0
 11
-2.167800343182339
 21
-0.8058848339286637
 31
0.0
  0
LINE
  5
2B72
330
1E
100
AcDbEntity
  8
7
100
AcDbLine
 10
-2.267537875990738
 20
0.6954275020293411
 30
0.0
 11
-2.267537875990738
 21
0.8240364259138567
 31
0.0
  0
LINE
  5
2B73
330
1E
100
AcDbEntity
  8
7
100
AcDbLine
 10
-1.687485382552416
 20
0.8240364259138567
 30
0.0
 11
-1.687485382552416
 21
0.6954275020293411
 31
0.0
  0
LINE
  5
2B74
330
1E
100
AcDbEntity
  8
7
100
AcDbLine
 10
-1.70060874213247
 20
1.086503617514906
 30
0.0
 11
-1.687485382552416
 21
1.026136163446664
 31
0.0
  0
LINE
  5
2B75
330
1E
100
AcDbEntity
  8
7
100
AcDbLine
 10
-2.267537875990738
 20
1.026136163446664
 30
0.0
 11
-2.254414516410685
 21
1.086503617514906
 31
0.0
  0
LINE
  5
2B76
330
1E
100
AcDbEntity
  8
7
100
AcDbLine
 10
6.330887320859654
 20
-0.8058848339286637
 30
0.0
 11
6.330887320859654
 21
0.6954275020293411
 31
0.0
  0
LINE
  5
2B77
330
1E
100
AcDbEntity
  8
7
100
AcDbLine
 10
5.753459499337344
 20
1.026136163446664
 30
0.0
 11
5.753459499337344
 21
0.8240364259138567
 31
0.0
  0
LINE
  5
2B78
330
1E
100
AcDbEntity
  8
7
100
AcDbLine
 10
6.330887320859654
 20
0.6954275020293411
 30
0.0
 11
7.031674722434456
 21
0.6954275020293411
 31
0.0
  0
LINE
  5
2B79
330
1E
100
AcDbEntity
  8
7
100
AcDbLine
 10
6.231149788051254
 20
1.086503617514906
 30
0.0
 11
5.853197032145743
 21
1.086503617514906
 31
0.0
  0
LINE
  5
2B84
330
1E
100
AcDbEntity
  8
7
100
AcDbLine
 10
5.753459499337344
 20
0.6954275020293411
 30
0.0
 11
5.753459499337344
 21
-0.8058848339286637
 31
0.0
  0
LINE
  5
2B85
330
1E
100
AcDbEntity
  8
7
100
AcDbLine
 10
6.330887320859654
 20
0.8240364259138567
 30
0.0
 11
6.330887320859654
 21
1.026136163446664
 31
0.0
  0
LINE
  5
2B86
330
1E
100
AcDbEntity
  8
7
100
AcDbLine
 10
6.231149788051254
 20
1.086503617514906
 30
0.0
 11
6.231149788051254
 21
-0.8058848339286637
 31
0.0
  0
LINE
  5
2B87
330
1E
100
AcDbEntity
  8
7
100
AcDbLine
 10
5.853197032145743
 20
-0.8058848339286637
 30
0.0
 11
5.853197032145743
 21
1.086503617514906
 31
0.0
  0
LINE
  5
2B88
330
1E
100
AcDbEntity
  8
7
100
AcDbLine
 10
6.330887320859654
 20
0.6954275020293411
 30
0.0
 11
6.330887320859654
 21
0.8240364259138567
 31
0.0
  0
LINE
  5
2B89
330
1E
100
AcDbEntity
  8
7
100
AcDbLine
 10
5.753459499337344
 20
0.8240364259138567
 30
0.0
 11
5.753459499337344
 21
0.6954275020293411
 31
0.0
  0
LINE
  5
2B8A
330
1E
100
AcDbEntity
  8
7
100
AcDbLine
 10
6.330887320859654
 20
1.026136163446664
 30
0.0
 11
6.317763961279601
 21
1.086503617514906
 31
0.0
  0
LINE
  5
2B8B
330
1E
100
AcDbEntity
  8
7
100
AcDbLine
 10
5.766582858917398
 20
1.086503617514906
 30
0.0
 11
5.753459499337344
 21
1.026136163446664
 31
0.0
  0
LINE
  5
2B8C
330
1E
100
AcDbEntity
  8
7
100
AcDbLine
 10
-2.49063498885163
 20
-0.8058848339286637
 30
0.0
 11
-2.49063498885163
 21
-0.6641525504640958
 31
0.0
  0
LINE
  5
2BA1
330
1E
100
AcDbEntity
  8
7
100
AcDbLine
 10
10.98705529986227
 20
0.6954275020293411
 30
0.0
 11
11.06579545734259
 21
0.6954275020293411
 31
0.0
  0
LINE
  5
2BA2
330
1E
100
AcDbEntity
  8
7
100
AcDbLine
 10
10.98705529986227
 20
0.5641939062288176
 30
0.0
 11
10.98705529986227
 21
0.6954275020293411
 31
0.0
  0
LINE
  5
2BA3
330
1E
100
AcDbEntity
  8
7
100
AcDbLine
 10
10.89781645471792
 20
0.5641939062288176
 30
0.0
 11
10.98705529986227
 21
0.5641939062288176
 31
0.0
  0
LINE
  5
2BA4
330
1E
100
AcDbEntity
  8
7
100
AcDbLine
 10
10.89781645471792
 20
-0.6641525504640958
 30
0.0
 11
10.89781645471792
 21
0.5641939062288176
 31
0.0
  0
LINE
  5
2BA5
330
1E
100
AcDbEntity
  8
7
100
AcDbLine
 10
9.359758711935768
 20
-0.6641525504640958
 30
0.0
 11
10.89781645471792
 21
-0.6641525504640958
 31
0.0
  0
LINE
  5
2BA6
330
1E
100
AcDbEntity
  8
7
100
AcDbLine
 10
9.359758711935768
 20
0.5641939062288176
 30
0.0
 11
9.359758711935768
 21
-0.6641525504640958
 31
0.0
  0
LINE
  5
2BA7
330
1E
100
AcDbEntity
  8
7
100
AcDbLine
 10
9.270519866791412
 20
0.5641939062288176
 30
0.0
 11
9.359758711935768
 21
0.5641939062288176
 31
0.0
  0
LINE
  5
2BA8
330
1E
100
AcDbEntity
  8
7
100
AcDbLine
 10
9.270519866791412
 20
0.5641939062288176
 30
0.0
 11
9.270519866791412
 21
0.6954275020293411
 31
0.0
  0
LINE
  5
2BA9
330
1E
100
AcDbEntity
  8
7
100
AcDbLine
 10
9.191779709311095
 20
0.6954275020293411
 30
0.0
 11
9.270519866791412
 21
0.6954275020293411
 31
0.0
  0
LINE
  5
2BAA
330
1E
100
AcDbEntity
  8
7
100
AcDbLine
 10
9.191779709311095
 20
-0.8058848339286637
 30
0.0
 11
9.191779709311095
 21
0.6954275020293411
 31
0.0
  0
LINE
  5
2BAB
330
1E
100
AcDbEntity
  8
7
100
AcDbLine
 10
11.33876133660768
 20
-0.8058848339286637
 30
0.0
 11
9.191779709311095
 21
-0.8058848339286637
 31
0.0
  0
LINE
  5
2BB6
330
1E
100
AcDbEntity
  8
7
100
AcDbLine
 10
9.092042176502697
 20
-0.8058848339286637
 30
0.0
 11
9.191779709311095
 21
-0.8058848339286637
 31
0.0
  0
LINE
  5
2BBD
330
1E
100
AcDbEntity
  8
7
100
AcDbLine
 10
8.441123541332093
 20
-0.8058848339286637
 30
0.0
 11
8.992304643694298
 21
-0.8058848339286637
 31
0.0
  0
LINE
  5
2BBE
330
1E
100
AcDbEntity
  8
7
100
AcDbLine
 10
9.191779709311095
 20
0.6954275020293411
 30
0.0
 11
9.092042176502697
 21
0.6954275020293411
 31
0.0
  0
LINE
  5
2BBF
330
1E
100
AcDbEntity
  8
7
100
AcDbLine
 10
9.092042176502697
 20
-0.8058848339286637
 30
0.0
 11
9.092042176502697
 21
0.6954275020293411
 31
0.0
  0
LINE
  5
2BC0
330
1E
100
AcDbEntity
  8
7
100
AcDbLine
 10
11.06579545734259
 20
0.9054012553101804
 30
0.0
 11
11.16553299015099
 21
1.026136163446664
 31
0.0
  0
LINE
  5
2BC1
330
1E
100
AcDbEntity
  8
7
100
AcDbLine
 10
11.06579545734259
 20
0.8240364259138567
 30
0.0
 11
11.06579545734259
 21
0.9054012553101804
 31
0.0
  0
LINE
  5
2BC2
330
1E
100
AcDbEntity
  8
7
100
AcDbLine
 10
11.06579545734259
 20
0.8240364259138567
 30
0.0
 11
11.16553299015099
 21
0.8240364259138567
 31
0.0
  0
LINE
  5
2BC3
330
1E
100
AcDbEntity
  8
7
100
AcDbLine
 10
11.16553299015099
 20
1.026136163446664
 30
0.0
 11
11.16553299015099
 21
0.8240364259138567
 31
0.0
  0
LINE
  5
2BC4
330
1E
100
AcDbEntity
  8
7
100
AcDbLine
 10
9.270519866791412
 20
0.6954275020293411
 30
0.0
 11
9.469994932408209
 21
0.6954275020293411
 31
0.0
  0
LINE
  5
2BC5
330
1E
100
AcDbEntity
  8
7
100
AcDbLine
 10
10.78495556232946
 20
0.6954275020293411
 30
0.0
 11
10.98705529986227
 21
0.6954275020293411
 31
0.0
  0
LINE
  5
2BC6
330
1E
100
AcDbEntity
  8
7
100
AcDbLine
 10
11.5434857460565
 20
-0.8058848339286637
 30
0.0
 11
11.5434857460565
 21
-0.6641525504640958
 31
0.0
  0
LINE
  5
2BD1
330
1E
100
AcDbEntity
  8
7
100
AcDbLine
 10
11.16553299015099
 20
0.6954275020293411
 30
0.0
 11
11.06579545734259
 21
0.6954275020293411
 31
0.0
  0
LINE
  5
2BD7
330
1E
100
AcDbEntity
  8
7
100
AcDbLine
 10
9.42012616600401
 20
0.5641939062288176
 30
0.0
 11
9.359758711935768
 21
0.5641939062288176
 31
0.0
  0
LINE
  5
2BD8
330
1E
100
AcDbEntity
  8
7
100
AcDbLine
 10
9.42012616600401
 20
-0.6641525504640958
 30
0.0
 11
9.42012616600401
 21
0.5641939062288176
 31
0.0
  0
LINE
  5
2BDE
330
1E
100
AcDbEntity
  8
7
100
AcDbLine
 10
9.469994932408209
 20
-0.6641525504640958
 30
0.0
 11
9.469994932408209
 21
0.6954275020293411
 31
0.0
  0
LINE
  5
2BDF
330
1E
100
AcDbEntity
  8
7
100
AcDbLine
 10
10.78495556232946
 20
-0.6641525504640958
 30
0.0
 11
10.78495556232946
 21
0.6954275020293411
 31
0.0
  0
LINE
  5
2BE5
330
1E
100
AcDbEntity
  8
7
100
AcDbLine
 10
9.191779709311095
 20
0.8240364259138567
 30
0.0
 11
9.191779709311095
 21
0.9054012553101804
 31
0.0
  0
LINE
  5
2BE6
330
1E
100
AcDbEntity
  8
7
100
AcDbLine
 10
9.092042176502697
 20
0.8240364259138567
 30
0.0
 11
9.191779709311095
 21
0.8240364259138567
 31
0.0
  0
LINE
  5
2BE7
330
1E
100
AcDbEntity
  8
7
100
AcDbLine
 10
9.092042176502697
 20
1.026136163446664
 30
0.0
 11
9.191779709311095
 21
0.9054012553101804
 31
0.0
  0
LINE
  5
2BE8
330
1E
100
AcDbEntity
  8
7
100
AcDbLine
 10
9.092042176502697
 20
0.8240364259138567
 30
0.0
 11
9.092042176502697
 21
1.026136163446664
 31
0.0
  0
LINE
  5
2BE9
330
1E
100
AcDbEntity
  8
7
100
AcDbLine
 10
8.992304643694298
 20
1.086503617514906
 30
0.0
 11
8.992304643694298
 21
-0.8058848339286637
 31
0.0
  0
LINE
  5
2BEF
330
1E
100
AcDbEntity
  8
7
100
AcDbLine
 10
11.16553299015099
 20
0.6954275020293411
 30
0.0
 11
11.16553299015099
 21
-0.6641525504640958
 31
0.0
  0
LINE
  5
2BF0
330
1E
100
AcDbEntity
  8
7
100
AcDbLine
 10
11.26527052295939
 20
-0.6641525504640958
 30
0.0
 11
11.26527052295939
 21
1.086503617514906
 31
0.0
  0
LINE
  5
2BFC
330
1E
100
AcDbEntity
  8
7
100
AcDbLine
 10
9.078918816922644
 20
0.6954275020293411
 30
0.0
 11
9.078918816922644
 21
0.8240364259138567
 31
0.0
  0
LINE
  5
2BFD
330
1E
100
AcDbEntity
  8
7
100
AcDbLine
 10
9.092042176502697
 20
1.026136163446664
 30
0.0
 11
9.042173410098499
 21
1.086503617514906
 31
0.0
  0
LINE
  5
2BFE
330
1E
100
AcDbEntity
  8
7
100
AcDbLine
 10
11.21540175655519
 20
1.086503617514906
 30
0.0
 11
11.16553299015099
 21
1.026136163446664
 31
0.0
  0
LINE
  5
2C0B
330
1E
100
AcDbEntity
  8
7
100
AcDbLine
 10
8.441123541332093
 20
-0.8058848339286637
 30
0.0
 11
8.441123541332093
 21
-0.6641525504640958
 31
0.0
  0
LINE
  5
2C0C
330
1E
100
AcDbEntity
  8
7
100
AcDbLine
 10
8.992304643694298
 20
-0.6641525504640958
 30
0.0
 11
8.441123541332093
 21
-0.6641525504640958
 31
0.0
  0
LINE
  5
2E7B
330
1E
100
AcDbEntity
  8
7
100
AcDbLine
 10
11.44112354133209
 20
-0.6641525504640958
 30
0.0
 11
11.4936169796523
 21
-0.6641525504640958
 31
0.0
  0
LINE
  5
2E7C
330
1E
100
AcDbEntity
  8
7
100
AcDbLine
 10
11.4936169796523
 20
-0.6641525504640958
 30
0.0
 11
11.53036238647645
 21
-0.6641525504640958
 31
0.0
  0
LINE
  5
2E7D
330
1E
100
AcDbEntity
  8
7
100
AcDbLine
 10
11.53036238647645
 20
-0.6641525504640958
 30
0.0
 11
11.5434857460565
 21
-0.6641525504640958
 31
0.0
  0
LINE
  5
2E7E
330
1E
100
AcDbEntity
  8
7
100
AcDbLine
 10
11.33876133660768
 20
-0.6641525504640958
 30
0.0
 11
11.35188469618773
 21
-0.6641525504640958
 31
0.0
  0
LINE
  5
2E7F
330
1E
100
AcDbEntity
  8
7
100
AcDbLine
 10
11.35188469618773
 20
-0.6641525504640958
 30
0.0
 11
11.39125477492789
 21
-0.6641525504640958
 31
0.0
  0
LINE
  5
2E80
330
1E
100
AcDbEntity
  8
7
100
AcDbLine
 10
11.39125477492789
 20
-0.6641525504640958
 30
0.0
 11
11.44112354133209
 21
-0.6641525504640958
 31
0.0
  0
LINE
  5
2E81
330
1E
100
AcDbEntity
  8
7
100
AcDbLine
 10
11.16553299015099
 20
0.8240364259138567
 30
0.0
 11
11.17340700589902
 21
0.8240364259138567
 31
0.0
  0
LINE
  5
2E82
330
1E
100
AcDbEntity
  8
7
100
AcDbLine
 10
11.17340700589902
 20
0.8240364259138567
 30
0.0
 11
11.17865634973104
 21
0.8240364259138567
 31
0.0
  0
LINE
  5
2E83
330
1E
100
AcDbEntity
  8
7
100
AcDbLine
 10
11.17865634973104
 20
0.8240364259138567
 30
0.0
 11
11.17865634973104
 21
0.6954275020293411
 31
0.0
  0
LINE
  5
2E84
330
1E
100
AcDbEntity
  8
7
100
AcDbLine
 10
9.078918816922644
 20
0.8240364259138567
 30
0.0
 11
9.084168160754666
 21
0.8240364259138567
 31
0.0
  0
LINE
  5
2E85
330
1E
100
AcDbEntity
  8
7
100
AcDbLine
 10
9.084168160754666
 20
0.8240364259138567
 30
0.0
 11
9.092042176502697
 21
0.8240364259138567
 31
0.0
  0
LINE
  5
2E86
330
1E
100
AcDbEntity
  8
7
100
AcDbLine
 10
11.26527052295939
 20
1.086503617514906
 30
0.0
 11
11.25214716337933
 21
1.086503617514906
 31
0.0
  0
LINE
  5
2E87
330
1E
100
AcDbEntity
  8
7
100
AcDbLine
 10
11.25214716337933
 20
1.086503617514906
 30
0.0
 11
11.21540175655519
 21
1.086503617514906
 31
0.0
  0
LINE
  5
2E88
330
1E
100
AcDbEntity
  8
7
100
AcDbLine
 10
9.042173410098499
 20
1.086503617514906
 30
0.0
 11
9.005428003274349
 21
1.086503617514906
 31
0.0
  0
LINE
  5
2E89
330
1E
100
AcDbEntity
  8
7
100
AcDbLine
 10
9.005428003274349
 20
1.086503617514906
 30
0.0
 11
8.992304643694298
 21
1.086503617514906
 31
0.0
  0
LINE
  5
2E8A
330
1E
100
AcDbEntity
  8
7
100
AcDbLine
 10
10.89781645471792
 20
0.5641939062288176
 30
0.0
 11
10.83744900064967
 21
0.5641939062288176
 31
0.0
  0
LINE
  5
2E8B
330
1E
100
AcDbEntity
  8
7
100
AcDbLine
 10
10.83744900064967
 20
0.5641939062288176
 30
0.0
 11
10.83744900064967
 21
-0.6641525504640958
 31
0.0
  0
LINE
  5
2E8C
330
1E
100
AcDbEntity
  8
7
100
AcDbLine
 10
11.17865634973104
 20
0.6954275020293411
 30
0.0
 11
11.17340700589902
 21
0.6954275020293411
 31
0.0
  0
LINE
  5
2E8D
330
1E
100
AcDbEntity
  8
7
100
AcDbLine
 10
11.17340700589902
 20
0.6954275020293411
 30
0.0
 11
11.16553299015099
 21
0.6954275020293411
 31
0.0
  0
LINE
  5
2E8E
330
1E
100
AcDbEntity
  8
7
100
AcDbLine
 10
9.092042176502697
 20
0.6954275020293411
 30
0.0
 11
9.084168160754666
 21
0.6954275020293411
 31
0.0
  0
LINE
  5
2E8F
330
1E
100
AcDbEntity
  8
7
100
AcDbLine
 10
9.084168160754666
 20
0.6954275020293411
 30
0.0
 11
9.078918816922644
 21
0.6954275020293411
 31
0.0
  0
LINE
  5
2E90
330
1E
100
AcDbEntity
  8
7
100
AcDbLine
 10
11.81645162532159
 20
-0.8058848339286637
 30
0.0
 11
11.81645162532159
 21
-0.6641525504640958
 31
0.0
  0
LINE
  5
2E91
330
1E
100
AcDbEntity
  8
7
100
AcDbLine
 10
11.81645162532159
 20
-0.6641525504640958
 30
0.0
 11
11.5434857460565
 21
-0.6641525504640958
 31
0.0
  0
LINE
  5
2E92
330
1E
100
AcDbEntity
  8
7
100
AcDbLine
 10
8.992304643694298
 20
-0.8058848339286637
 30
0.0
 11
9.005428003274349
 21
-0.8058848339286637
 31
0.0
  0
LINE
  5
2E93
330
1E
100
AcDbEntity
  8
7
100
AcDbLine
 10
9.005428003274349
 20
-0.8058848339286637
 30
0.0
 11
9.042173410098499
 21
-0.8058848339286637
 31
0.0
  0
LINE
  5
2E94
330
1E
100
AcDbEntity
  8
7
100
AcDbLine
 10
9.042173410098499
 20
-0.8058848339286637
 30
0.0
 11
9.092042176502697
 21
-0.8058848339286637
 31
0.0
  0
LINE
  5
2E95
330
1E
100
AcDbEntity
  8
7
100
AcDbLine
 10
11.81645162532159
 20
-0.8058848339286637
 30
0.0
 11
11.5434857460565
 21
-0.8058848339286637
 31
0.0
  0
LINE
  5
2E96
330
1E
100
AcDbEntity
  8
7
100
AcDbLine
 10
11.5434857460565
 20
-0.8058848339286637
 30
0.0
 11
11.53036238647645
 21
-0.8058848339286637
 31
0.0
  0
LINE
  5
2E97
330
1E
100
AcDbEntity
  8
7
100
AcDbLine
 10
11.53036238647645
 20
-0.8058848339286637
 30
0.0
 11
11.4936169796523
 21
-0.8058848339286637
 31
0.0
  0
LINE
  5
2E98
330
1E
100
AcDbEntity
  8
7
100
AcDbLine
 10
11.4936169796523
 20
-0.8058848339286637
 30
0.0
 11
11.44112354133209
 21
-0.8058848339286637
 31
0.0
  0
LINE
  5
2E99
330
1E
100
AcDbEntity
  8
7
100
AcDbLine
 10
11.44112354133209
 20
-0.8058848339286637
 30
0.0
 11
11.39125477492789
 21
-0.8058848339286637
 31
0.0
  0
LINE
  5
2E9A
330
1E
100
AcDbEntity
  8
7
100
AcDbLine
 10
11.39125477492789
 20
-0.8058848339286637
 30
0.0
 11
11.35188469618773
 21
-0.8058848339286637
 31
0.0
  0
LINE
  5
2E9B
330
1E
100
AcDbEntity
  8
7
100
AcDbLine
 10
11.35188469618773
 20
-0.8058848339286637
 30
0.0
 11
11.33876133660768
 21
-0.8058848339286637
 31
0.0
  0
LINE
  5
2E9C
330
1E
100
AcDbEntity
  8
7
100
AcDbLine
 10
11.33876133660768
 20
-0.8058848339286637
 30
0.0
 11
11.33876133660768
 21
-0.6641525504640958
 31
0.0
  0
LINE
  5
2E9D
330
1E
100
AcDbEntity
  8
7
100
AcDbLine
 10
11.33876133660768
 20
-0.6641525504640958
 30
0.0
 11
11.06579545734259
 21
-0.6641525504640958
 31
0.0
  0
LINE
  5
2E9E
330
1E
100
AcDbEntity
  8
7
100
AcDbLine
 10
11.06579545734259
 20
-0.6641525504640958
 30
0.0
 11
11.06579545734259
 21
0.6954275020293411
 31
0.0
  0
LINE
  5
2E9F
330
1E
100
AcDbEntity
  8
7
100
AcDbLine
 10
-2.695359398300449
 20
-0.6641525504640958
 30
0.0
 11
-2.682236038720396
 21
-0.6641525504640958
 31
0.0
  0
LINE
  5
2EA0
330
1E
100
AcDbEntity
  8
7
100
AcDbLine
 10
-2.682236038720396
 20
-0.6641525504640958
 30
0.0
 11
-2.642865959980238
 21
-0.6641525504640958
 31
0.0
  0
LINE
  5
2EA1
330
1E
100
AcDbEntity
  8
7
100
AcDbLine
 10
-2.642865959980238
 20
-0.6641525504640958
 30
0.0
 11
-2.592997193576039
 21
-0.6641525504640958
 31
0.0
  0
LINE
  5
2EA2
330
1E
100
AcDbEntity
  8
7
100
AcDbLine
 10
-2.592997193576039
 20
-0.6641525504640958
 30
0.0
 11
-2.540503755255829
 21
-0.6641525504640958
 31
0.0
  0
LINE
  5
2EA3
330
1E
100
AcDbEntity
  8
7
100
AcDbLine
 10
-2.540503755255829
 20
-0.6641525504640958
 30
0.0
 11
-2.503758348431682
 21
-0.6641525504640958
 31
0.0
  0
LINE
  5
2EA4
330
1E
100
AcDbEntity
  8
7
100
AcDbLine
 10
-2.503758348431682
 20
-0.6641525504640958
 30
0.0
 11
-2.49063498885163
 21
-0.6641525504640958
 31
0.0
  0
LINE
  5
2EA5
330
1E
100
AcDbEntity
  8
7
100
AcDbLine
 10
-2.217669109586537
 20
-0.8058848339286637
 30
0.0
 11
-2.217669109586537
 21
-0.6641525504640958
 31
0.0
  0
LINE
  5
2EA6
330
1E
100
AcDbEntity
  8
7
100
AcDbLine
 10
-2.217669109586537
 20
-0.6641525504640958
 30
0.0
 11
-2.49063498885163
 21
-0.6641525504640958
 31
0.0
  0
LINE
  5
2EA7
330
1E
100
AcDbEntity
  8
7
100
AcDbLine
 10
5.853197032145743
 20
1.086503617514906
 30
0.0
 11
5.803328265741543
 21
1.086503617514906
 31
0.0
  0
LINE
  5
2EA8
330
1E
100
AcDbEntity
  8
7
100
AcDbLine
 10
5.803328265741543
 20
1.086503617514906
 30
0.0
 11
5.766582858917398
 21
1.086503617514906
 31
0.0
  0
LINE
  5
2EA9
330
1E
100
AcDbEntity
  8
7
100
AcDbLine
 10
6.317763961279601
 20
1.086503617514906
 30
0.0
 11
6.281018554455455
 21
1.086503617514906
 31
0.0
  0
LINE
  5
2EAA
330
1E
100
AcDbEntity
  8
7
100
AcDbLine
 10
6.281018554455455
 20
1.086503617514906
 30
0.0
 11
6.231149788051254
 21
1.086503617514906
 31
0.0
  0
LINE
  5
2EAB
330
1E
100
AcDbEntity
  8
7
100
AcDbLine
 10
-2.254414516410685
 20
1.086503617514906
 30
0.0
 11
-2.217669109586537
 21
1.086503617514906
 31
0.0
  0
LINE
  5
2EAC
330
1E
100
AcDbEntity
  8
7
100
AcDbLine
 10
-2.217669109586537
 20
1.086503617514906
 30
0.0
 11
-2.167800343182339
 21
1.086503617514906
 31
0.0
  0
LINE
  5
2EAD
330
1E
100
AcDbEntity
  8
7
100
AcDbLine
 10
-2.167800343182339
 20
1.086503617514906
 30
0.0
 11
-1.787222915360816
 21
1.086503617514906
 31
0.0
  0
LINE
  5
2EAE
330
1E
100
AcDbEntity
  8
7
100
AcDbLine
 10
-1.787222915360816
 20
1.086503617514906
 30
0.0
 11
-1.737354148956617
 21
1.086503617514906
 31
0.0
  0
LINE
  5
2EAF
330
1E
100
AcDbEntity
  8
7
100
AcDbLine
 10
-1.737354148956617
 20
1.086503617514906
 30
0.0
 11
-1.70060874213247
 21
1.086503617514906
 31
0.0
  0
LINE
  5
2EB0
330
1E
100
AcDbEntity
  8
7
100
AcDbLine
 10
-2.49063498885163
 20
-0.8058848339286637
 30
0.0
 11
-2.503758348431682
 21
-0.8058848339286637
 31
0.0
  0
LINE
  5
2EB1
330
1E
100
AcDbEntity
  8
7
100
AcDbLine
 10
-2.503758348431682
 20
-0.8058848339286637
 30
0.0
 11
-2.540503755255829
 21
-0.8058848339286637
 31
0.0
  0
LINE
  5
2EB2
330
1E
100
AcDbEntity
  8
7
100
AcDbLine
 10
-2.540503755255829
 20
-0.8058848339286637
 30
0.0
 11
-2.592997193576039
 21
-0.8058848339286637
 31
0.0
  0
LINE
  5
2EB3
330
1E
100
AcDbEntity
  8
7
100
AcDbLine
 10
-2.592997193576039
 20
-0.8058848339286637
 30
0.0
 11
-2.642865959980238
 21
-0.8058848339286637
 31
0.0
  0
LINE
  5
2EB4
330
1E
100
AcDbEntity
  8
7
100
AcDbLine
 10
-2.642865959980238
 20
-0.8058848339286637
 30
0.0
 11
-2.682236038720396
 21
-0.8058848339286637
 31
0.0
  0
LINE
  5
2EB5
330
1E
100
AcDbEntity
  8
7
100
AcDbLine
 10
-2.682236038720396
 20
-0.8058848339286637
 30
0.0
 11
-2.695359398300449
 21
-0.8058848339286637
 31
0.0
  0
LINE
  5
2EB6
330
1E
100
AcDbEntity
  8
7
100
AcDbLine
 10
-1.737354148956617
 20
-0.8058848339286637
 30
0.0
 11
-1.787222915360816
 21
-0.8058848339286637
 31
0.0
  0
LINE
  5
2EB7
330
1E
100
AcDbEntity
  8
7
100
AcDbLine
 10
-1.787222915360816
 20
-0.8058848339286637
 30
0.0
 11
-2.167800343182339
 21
-0.8058848339286637
 31
0.0
  0
LINE
  5
2EB8
330
1E
100
AcDbEntity
  8
7
100
AcDbLine
 10
-2.167800343182339
 20
-0.8058848339286637
 30
0.0
 11
-2.194047062342444
 21
-0.8058848339286637
 31
0.0
  0
LINE
  5
2EB9
330
1E
100
AcDbEntity
  8
7
100
AcDbLine
 10
-2.194047062342444
 20
-0.8058848339286637
 30
0.0
 11
-2.217669109586537
 21
-0.8058848339286637
 31
0.0
  0
LINE
  5
2EBA
330
1E
100
AcDbEntity
  8
7
100
AcDbLine
 10
-1.687485382552416
 20
-0.8058848339286637
 30
0.0
 11
-1.70060874213247
 21
-0.8058848339286637
 31
0.0
  0
LINE
  5
2EBB
330
1E
100
AcDbEntity
  8
7
100
AcDbLine
 10
-1.70060874213247
 20
-0.8058848339286637
 30
0.0
 11
-1.737354148956617
 21
-0.8058848339286637
 31
0.0
  0
LINE
  5
2EBC
330
1E
100
AcDbEntity
  8
7
100
AcDbLine
 10
5.753459499337344
 20
-0.8058848339286637
 30
0.0
 11
5.766582858917398
 21
-0.8058848339286637
 31
0.0
  0
LINE
  5
2EBD
330
1E
100
AcDbEntity
  8
7
100
AcDbLine
 10
5.766582858917398
 20
-0.8058848339286637
 30
0.0
 11
5.803328265741543
 21
-0.8058848339286637
 31
0.0
  0
LINE
  5
2EBE
330
1E
100
AcDbEntity
  8
7
100
AcDbLine
 10
5.803328265741543
 20
-0.8058848339286637
 30
0.0
 11
5.853197032145743
 21
-0.8058848339286637
 31
0.0
  0
LINE
  5
2EBF
330
1E
100
AcDbEntity
  8
7
100
AcDbLine
 10
6.231149788051254
 20
-0.8058848339286637
 30
0.0
 11
6.281018554455455
 21
-0.8058848339286637
 31
0.0
  0
LINE
  5
2EC0
330
1E
100
AcDbEntity
  8
7
100
AcDbLine
 10
6.281018554455455
 20
-0.8058848339286637
 30
0.0
 11
6.317763961279601
 21
-0.8058848339286637
 31
0.0
  0
LINE
  5
2EC1
330
1E
100
AcDbEntity
  8
7
100
AcDbLine
 10
6.317763961279601
 20
-0.8058848339286637
 30
0.0
 11
6.330887320859654
 21
-0.8058848339286637
 31
0.0
  0
LINE
  5
2EC2
330
1E
100
AcDbEntity
  8
7
100
AcDbLine
 10
-1.485385645019609
 20
-0.3518165924588463
 30
0.0
 11
-1.467012941607535
 21
-0.3938113431150145
 31
0.0
  0
LINE
  5
2EC3
330
1E
100
AcDbEntity
  8
7
100
AcDbLine
 10
-1.467012941607535
 20
-0.3938113431150145
 30
0.0
 11
-1.425018190951367
 21
-0.4121840465270883
 31
0.0
  0
LINE
  5
2EC4
330
1E
100
AcDbEntity
  8
7
100
AcDbLine
 10
2.771832202749418
 20
-0.3518165924588463
 30
0.0
 11
2.771832202749418
 21
0.6954275020293411
 31
0.0
  0
LINE
  5
2EC5
330
1E
100
AcDbEntity
  8
7
100
AcDbLine
 10
2.771832202749418
 20
0.6954275020293411
 30
0.0
 11
1.291517242119498
 21
0.6954275020293411
 31
0.0
  0
LINE
  5
2EC6
330
1E
100
AcDbEntity
  8
7
100
AcDbLine
 10
2.774456874665429
 20
-0.3518165924588463
 30
0.0
 11
2.792829578077502
 21
-0.3938113431150145
 31
0.0
  0
LINE
  5
2EC7
330
1E
100
AcDbEntity
  8
7
100
AcDbLine
 10
2.792829578077502
 20
-0.3938113431150145
 30
0.0
 11
2.83482432873367
 21
-0.4121840465270883
 31
0.0
  0
LINE
  5
2EC8
330
1E
100
AcDbEntity
  8
7
100
AcDbLine
 10
5.490992307736294
 20
-0.4121840465270883
 30
0.0
 11
5.532987058392462
 21
-0.3938113431150145
 31
0.0
  0
LINE
  5
2EC9
330
1E
100
AcDbEntity
  8
7
100
AcDbLine
 10
5.532987058392462
 20
-0.3938113431150145
 30
0.0
 11
5.551359761804536
 21
-0.3518165924588463
 31
0.0
  0
LINE
  5
2ECA
330
1E
100
AcDbEntity
  8
7
100
AcDbLine
 10
-2.695359398300449
 20
-0.8058848339286637
 30
0.0
 11
-2.695359398300449
 21
-0.6641525504640958
 31
0.0
  0
LINE
  5
2ECB
330
1E
100
AcDbEntity
  8
7
100
AcDbLine
 10
-2.695359398300449
 20
-0.6641525504640958
 30
0.0
 11
-2.96832527756554
 21
-0.6641525504640958
 31
0.0
  0
LINE
  5
2ECC
330
1E
100
AcDbEntity
  8
7
100
AcDbLine
 10
-2.49063498885163
 20
4.068130914102831
 30
0.0
 11
-2.503758348431682
 21
4.117999680507031
 31
0.0
  0
LINE
  5
2ECD
330
1E
100
AcDbEntity
  8
7
100
AcDbLine
 10
-2.503758348431682
 20
4.117999680507031
 30
0.0
 11
-2.540503755255829
 21
4.157369759247189
 31
0.0
  0
LINE
  5
2ECE
330
1E
100
AcDbEntity
  8
7
100
AcDbLine
 10
-2.540503755255829
 20
4.157369759247189
 30
0.0
 11
-2.592997193576039
 21
4.170493118827241
 31
0.0
  0
LINE
  5
2ECF
330
1E
100
AcDbEntity
  8
7
100
AcDbLine
 10
-2.592997193576039
 20
4.170493118827241
 30
0.0
 11
-2.642865959980238
 21
4.157369759247189
 31
0.0
  0
LINE
  5
2ED0
330
1E
100
AcDbEntity
  8
7
100
AcDbLine
 10
-2.642865959980238
 20
4.157369759247189
 30
0.0
 11
-2.682236038720396
 21
4.120624352423041
 31
0.0
  0
LINE
  5
2ED1
330
1E
100
AcDbEntity
  8
7
100
AcDbLine
 10
-2.682236038720396
 20
4.120624352423041
 30
0.0
 11
-2.695359398300449
 21
4.068130914102831
 31
0.0
  0
LINE
  5
2ED2
330
1E
100
AcDbEntity
  8
7
100
AcDbLine
 10
6.493616979652304
 20
6.671805454785245
 30
0.0
 11
6.480493620072252
 21
6.619312016465036
 31
0.0
  0
LINE
  5
2ED3
330
1E
100
AcDbEntity
  8
7
100
AcDbLine
 10
6.480493620072252
 20
6.619312016465036
 30
0.0
 11
6.493616979652304
 21
6.569443250060835
 31
0.0
  0
LINE
  5
2ED4
330
1E
100
AcDbEntity
  8
7
100
AcDbLine
 10
6.493616979652304
 20
6.569443250060835
 30
0.0
 11
6.530362386476452
 21
6.530073171320678
 31
0.0
  0
LINE
  5
2ED5
330
1E
100
AcDbEntity
  8
7
100
AcDbLine
 10
6.530362386476452
 20
6.530073171320678
 30
0.0
 11
6.582855824796662
 21
6.516949811740626
 31
0.0
  0
LINE
  5
2ED6
330
1E
100
AcDbEntity
  8
7
100
AcDbLine
 10
6.582855824796662
 20
6.721674221189445
 30
0.0
 11
6.532987058392462
 21
6.708550861609394
 31
0.0
  0
LINE
  5
2ED7
330
1E
100
AcDbEntity
  8
7
100
AcDbLine
 10
6.532987058392462
 20
6.708550861609394
 30
0.0
 11
6.493616979652304
 21
6.671805454785245
 31
0.0
  0
LINE
  5
2ED8
330
1E
100
AcDbEntity
  8
7
100
AcDbLine
 10
5.753459499337344
 20
6.343721465283934
 30
0.0
 11
5.753459499337344
 21
6.243983932475535
 31
0.0
  0
LINE
  5
2ED9
330
1E
100
AcDbEntity
  8
7
100
AcDbLine
 10
5.753459499337344
 20
6.243983932475535
 30
0.0
 11
6.330887320859654
 21
6.243983932475535
 31
0.0
  0
LINE
  5
2EDA
330
1E
100
AcDbEntity
  8
7
100
AcDbLine
 10
5.853197032145743
 20
6.443458998092332
 30
0.0
 11
5.803328265741543
 21
6.43033563851228
 31
0.0
  0
LINE
  5
2EDB
330
1E
100
AcDbEntity
  8
7
100
AcDbLine
 10
5.803328265741543
 20
6.43033563851228
 30
0.0
 11
5.766582858917398
 21
6.393590231688132
 31
0.0
  0
LINE
  5
2EDC
330
1E
100
AcDbEntity
  8
7
100
AcDbLine
 10
5.766582858917398
 20
4.217737213315428
 30
0.0
 11
5.803328265741543
 21
4.180991806491283
 31
0.0
  0
LINE
  5
2EDD
330
1E
100
AcDbEntity
  8
7
100
AcDbLine
 10
5.803328265741543
 20
4.180991806491283
 30
0.0
 11
5.853197032145743
 21
4.167868446911231
 31
0.0
  0
LINE
  5
2EDE
330
1E
100
AcDbEntity
  8
7
100
AcDbLine
 10
6.231149788051254
 20
4.167868446911231
 30
0.0
 11
6.281018554455455
 21
4.180991806491283
 31
0.0
  0
LINE
  5
2EDF
330
1E
100
AcDbEntity
  8
7
100
AcDbLine
 10
6.281018554455455
 20
4.180991806491283
 30
0.0
 11
6.317763961279601
 21
4.217737213315428
 31
0.0
  0
LINE
  5
2EE0
330
1E
100
AcDbEntity
  8
7
100
AcDbLine
 10
5.590729840544694
 20
4.509075795992593
 30
0.0
 11
2.83482432873367
 21
4.509075795992593
 31
0.0
  0
LINE
  5
2EE1
330
1E
100
AcDbEntity
  8
7
100
AcDbLine
 10
2.83482432873367
 20
4.509075795992593
 30
0.0
 11
2.790204906161492
 21
4.509075795992593
 31
0.0
  0
LINE
  5
2EE2
330
1E
100
AcDbEntity
  8
7
100
AcDbLine
 10
2.790204906161492
 20
4.509075795992593
 30
0.0
 11
2.771832202749418
 21
4.509075795992593
 31
0.0
  0
LINE
  5
2EE3
330
1E
100
AcDbEntity
  8
7
100
AcDbLine
 10
2.771832202749418
 20
6.104876320926979
 30
0.0
 11
2.790204906161492
 21
6.104876320926979
 31
0.0
  0
LINE
  5
2EE4
330
1E
100
AcDbEntity
  8
7
100
AcDbLine
 10
2.790204906161492
 20
6.104876320926979
 30
0.0
 11
2.83482432873367
 21
6.104876320926979
 31
0.0
  0
LINE
  5
2EE5
330
1E
100
AcDbEntity
  8
7
100
AcDbLine
 10
2.83482432873367
 20
6.104876320926979
 30
0.0
 11
2.83482432873367
 21
6.243983932475535
 31
0.0
  0
LINE
  5
2EE6
330
1E
100
AcDbEntity
  8
7
100
AcDbLine
 10
6.286267898287475
 20
6.243983932475535
 30
0.0
 11
6.286267898287475
 21
6.165243774995218
 31
0.0
  0
LINE
  5
2EE7
330
1E
100
AcDbEntity
  8
7
100
AcDbLine
 10
6.286267898287475
 20
6.165243774995218
 30
0.0
 11
7.031674722434456
 21
6.165243774995218
 31
0.0
  0
LINE
  5
2EE8
330
1E
100
AcDbEntity
  8
7
100
AcDbLine
 10
6.637973935032881
 20
5.556319890480784
 30
0.0
 11
6.561858449468578
 21
5.543196530900732
 31
0.0
  0
LINE
  5
2EE9
330
1E
100
AcDbEntity
  8
7
100
AcDbLine
 10
6.561858449468578
 20
5.543196530900732
 30
0.0
 11
6.490992307736294
 21
5.509075795992593
 31
0.0
  0
LINE
  5
2EEA
330
1E
100
AcDbEntity
  8
7
100
AcDbLine
 10
6.490992307736294
 20
5.509075795992593
 30
0.0
 11
6.435874197500075
 21
5.453957685756374
 31
0.0
  0
LINE
  5
2EEB
330
1E
100
AcDbEntity
  8
7
100
AcDbLine
 10
6.435874197500075
 20
5.453957685756374
 30
0.0
 11
6.401753462591936
 21
5.38309154402409
 31
0.0
  0
LINE
  5
2EEC
330
1E
100
AcDbEntity
  8
7
100
AcDbLine
 10
6.401753462591936
 20
5.38309154402409
 30
0.0
 11
6.388630103011884
 21
5.306976058459786
 31
0.0
  0
LINE
  5
2EED
330
1E
100
AcDbEntity
  8
7
100
AcDbLine
 10
6.388630103011884
 20
5.306976058459786
 30
0.0
 11
6.401753462591936
 21
5.230860572895482
 31
0.0
  0
LINE
  5
2EEE
330
1E
100
AcDbEntity
  8
7
100
AcDbLine
 10
6.401753462591936
 20
5.230860572895482
 30
0.0
 11
6.435874197500075
 21
5.159994431163198
 31
0.0
  0
LINE
  5
2EEF
330
1E
100
AcDbEntity
  8
7
100
AcDbLine
 10
6.435874197500075
 20
5.159994431163198
 30
0.0
 11
6.490992307736294
 21
5.104876320926979
 31
0.0
  0
LINE
  5
2EF0
330
1E
100
AcDbEntity
  8
7
100
AcDbLine
 10
6.490992307736294
 20
5.104876320926979
 30
0.0
 11
6.561858449468578
 21
5.07075558601884
 31
0.0
  0
LINE
  5
2EF1
330
1E
100
AcDbEntity
  8
7
100
AcDbLine
 10
6.561858449468578
 20
5.07075558601884
 30
0.0
 11
6.637973935032881
 21
5.057632226438789
 31
0.0
  0
LINE
  5
2EF2
330
1E
100
AcDbEntity
  8
7
100
AcDbLine
 10
6.742960811673301
 20
5.33059810570388
 30
0.0
 11
6.721963436345218
 21
5.37521752827606
 31
0.0
  0
LINE
  5
2EF3
330
1E
100
AcDbEntity
  8
7
100
AcDbLine
 10
6.721963436345218
 20
5.37521752827606
 30
0.0
 11
6.685218029521072
 21
5.404088919352174
 31
0.0
  0
LINE
  5
2EF4
330
1E
100
AcDbEntity
  8
7
100
AcDbLine
 10
6.685218029521072
 20
5.404088919352174
 30
0.0
 11
6.637973935032881
 21
5.414587607016215
 31
0.0
  0
LINE
  5
2EF5
330
1E
100
AcDbEntity
  8
7
100
AcDbLine
 10
6.637973935032881
 20
5.414587607016215
 30
0.0
 11
6.590729840544694
 21
5.404088919352174
 31
0.0
  0
LINE
  5
2EF6
330
1E
100
AcDbEntity
  8
7
100
AcDbLine
 10
6.590729840544694
 20
5.404088919352174
 30
0.0
 11
6.553984433720546
 21
5.37521752827606
 31
0.0
  0
LINE
  5
2EF7
330
1E
100
AcDbEntity
  8
7
100
AcDbLine
 10
6.553984433720546
 20
5.37521752827606
 30
0.0
 11
6.532987058392462
 21
5.33059810570388
 31
0.0
  0
LINE
  5
2EF8
330
1E
100
AcDbEntity
  8
7
100
AcDbLine
 10
6.532987058392462
 20
5.33059810570388
 30
0.0
 11
6.532987058392462
 21
5.283354011215692
 31
0.0
  0
LINE
  5
2EF9
330
1E
100
AcDbEntity
  8
7
100
AcDbLine
 10
6.532987058392462
 20
5.283354011215692
 30
0.0
 11
6.553984433720546
 21
5.238734588643512
 31
0.0
  0
LINE
  5
2EFA
330
1E
100
AcDbEntity
  8
7
100
AcDbLine
 10
6.553984433720546
 20
5.238734588643512
 30
0.0
 11
6.590729840544694
 21
5.209863197567399
 31
0.0
  0
LINE
  5
2EFB
330
1E
100
AcDbEntity
  8
7
100
AcDbLine
 10
6.590729840544694
 20
5.209863197567399
 30
0.0
 11
6.637973935032881
 21
5.199364509903356
 31
0.0
  0
LINE
  5
2EFC
330
1E
100
AcDbEntity
  8
7
100
AcDbLine
 10
6.637973935032881
 20
5.199364509903356
 30
0.0
 11
6.685218029521072
 21
5.209863197567399
 31
0.0
  0
LINE
  5
2EFD
330
1E
100
AcDbEntity
  8
7
100
AcDbLine
 10
6.685218029521072
 20
5.209863197567399
 30
0.0
 11
6.721963436345218
 21
5.238734588643512
 31
0.0
  0
LINE
  5
2EFE
330
1E
100
AcDbEntity
  8
7
100
AcDbLine
 10
6.721963436345218
 20
5.238734588643512
 30
0.0
 11
6.742960811673301
 21
5.283354011215692
 31
0.0
  0
LINE
  5
2EFF
330
1E
100
AcDbEntity
  8
7
100
AcDbLine
 10
6.742960811673301
 20
5.283354011215692
 30
0.0
 11
6.742960811673301
 21
5.33059810570388
 31
0.0
  0
LINE
  5
2F00
330
1E
100
AcDbEntity
  8
7
100
AcDbLine
 10
5.490992307736294
 20
6.165243774995218
 30
0.0
 11
5.532987058392462
 21
6.165243774995218
 31
0.0
  0
LINE
  5
2F01
330
1E
100
AcDbEntity
  8
7
100
AcDbLine
 10
5.532987058392462
 20
6.165243774995218
 30
0.0
 11
5.551359761804536
 21
6.165243774995218
 31
0.0
  0
LINE
  5
2F02
330
1E
100
AcDbEntity
  8
7
100
AcDbLine
 10
5.551359761804536
 20
6.243983932475535
 30
0.0
 11
5.551359761804536
 21
6.165243774995218
 31
0.0
  0
LINE
  5
2F03
330
1E
100
AcDbEntity
  8
7
100
AcDbLine
 10
5.551359761804536
 20
6.165243774995218
 30
0.0
 11
5.590729840544694
 21
6.165243774995218
 31
0.0
  0
LINE
  5
2F04
330
1E
100
AcDbEntity
  8
7
100
AcDbLine
 10
5.590729840544694
 20
6.165243774995218
 30
0.0
 11
5.590729840544694
 21
5.963144037462411
 31
0.0
  0
LINE
  5
2F05
330
1E
100
AcDbEntity
  8
7
100
AcDbLine
 10
5.590729840544694
 20
5.963144037462411
 30
0.0
 11
5.77970621849745
 21
5.963144037462411
 31
0.0
  0
LINE
  5
2F06
330
1E
100
AcDbEntity
  8
7
100
AcDbLine
 10
5.77970621849745
 20
5.963144037462411
 30
0.0
 11
5.77970621849745
 21
6.165243774995218
 31
0.0
  0
LINE
  5
2F07
330
1E
100
AcDbEntity
  8
7
100
AcDbLine
 10
5.77970621849745
 20
6.165243774995218
 30
0.0
 11
5.798078921909524
 21
6.165243774995218
 31
0.0
  0
LINE
  5
2F08
330
1E
100
AcDbEntity
  8
7
100
AcDbLine
 10
5.798078921909524
 20
6.165243774995218
 30
0.0
 11
5.798078921909524
 21
6.243983932475535
 31
0.0
  0
LINE
  5
2F09
330
1E
100
AcDbEntity
  8
7
100
AcDbLine
 10
5.798078921909524
 20
4.446083670008341
 30
0.0
 11
5.77970621849745
 21
4.446083670008341
 31
0.0
  0
LINE
  5
2F0A
330
1E
100
AcDbEntity
  8
7
100
AcDbLine
 10
5.77970621849745
 20
4.446083670008341
 30
0.0
 11
5.77970621849745
 21
4.648183407541152
 31
0.0
  0
LINE
  5
2F0B
330
1E
100
AcDbEntity
  8
7
100
AcDbLine
 10
5.77970621849745
 20
4.648183407541152
 30
0.0
 11
5.590729840544694
 21
4.648183407541152
 31
0.0
  0
LINE
  5
2F0C
330
1E
100
AcDbEntity
  8
7
100
AcDbLine
 10
5.590729840544694
 20
4.648183407541152
 30
0.0
 11
5.590729840544694
 21
4.446083670008341
 31
0.0
  0
LINE
  5
2F0D
330
1E
100
AcDbEntity
  8
7
100
AcDbLine
 10
5.590729840544694
 20
4.446083670008341
 30
0.0
 11
5.551359761804536
 21
4.446083670008341
 31
0.0
  0
LINE
  5
2F0E
330
1E
100
AcDbEntity
  8
7
100
AcDbLine
 10
5.551359761804536
 20
4.446083670008341
 30
0.0
 11
5.551359761804536
 21
4.369968184444038
 31
0.0
  0
LINE
  5
2F0F
330
1E
100
AcDbEntity
  8
7
100
AcDbLine
 10
-1.687485382552416
 20
6.343721465283934
 30
0.0
 11
-1.687485382552416
 21
6.243983932475535
 31
0.0
  0
LINE
  5
2F10
330
1E
100
AcDbEntity
  8
7
100
AcDbLine
 10
-1.687485382552416
 20
6.243983932475535
 30
0.0
 11
-2.267537875990738
 21
6.243983932475535
 31
0.0
  0
LINE
  5
2F11
330
1E
100
AcDbEntity
  8
7
100
AcDbLine
 10
-1.70060874213247
 20
6.393590231688132
 30
0.0
 11
-1.737354148956617
 21
6.43033563851228
 31
0.0
  0
LINE
  5
2F12
330
1E
100
AcDbEntity
  8
7
100
AcDbLine
 10
-1.737354148956617
 20
6.43033563851228
 30
0.0
 11
-1.787222915360816
 21
6.443458998092332
 31
0.0
  0
LINE
  5
2F13
330
1E
100
AcDbEntity
  8
7
100
AcDbLine
 10
-2.254414516410685
 20
4.217737213315428
 30
0.0
 11
-2.217669109586537
 21
4.180991806491283
 31
0.0
  0
LINE
  5
2F14
330
1E
100
AcDbEntity
  8
7
100
AcDbLine
 10
-2.217669109586537
 20
4.180991806491283
 30
0.0
 11
-2.167800343182339
 21
4.167868446911231
 31
0.0
  0
LINE
  5
2F15
330
1E
100
AcDbEntity
  8
7
100
AcDbLine
 10
-1.787222915360816
 20
4.167868446911231
 30
0.0
 11
-1.737354148956617
 21
4.180991806491283
 31
0.0
  0
LINE
  5
2F16
330
1E
100
AcDbEntity
  8
7
100
AcDbLine
 10
-1.737354148956617
 20
4.180991806491283
 30
0.0
 11
-1.70060874213247
 21
4.217737213315428
 31
0.0
  0
LINE
  5
2F17
330
1E
100
AcDbEntity
  8
7
100
AcDbLine
 10
-1.524755723759766
 20
4.509075795992593
 30
0.0
 11
1.228525116135246
 21
4.509075795992593
 31
0.0
  0
LINE
  5
2F18
330
1E
100
AcDbEntity
  8
7
100
AcDbLine
 10
1.228525116135246
 20
4.509075795992593
 30
0.0
 11
1.273144538707424
 21
4.509075795992593
 31
0.0
  0
LINE
  5
2F19
330
1E
100
AcDbEntity
  8
7
100
AcDbLine
 10
1.273144538707424
 20
4.509075795992593
 30
0.0
 11
1.291517242119498
 21
4.509075795992593
 31
0.0
  0
LINE
  5
2F1A
330
1E
100
AcDbEntity
  8
7
100
AcDbLine
 10
1.291517242119498
 20
6.104876320926979
 30
0.0
 11
1.273144538707424
 21
6.104876320926979
 31
0.0
  0
LINE
  5
2F1B
330
1E
100
AcDbEntity
  8
7
100
AcDbLine
 10
1.273144538707424
 20
6.104876320926979
 30
0.0
 11
1.228525116135246
 21
6.104876320926979
 31
0.0
  0
LINE
  5
2F1C
330
1E
100
AcDbEntity
  8
7
100
AcDbLine
 10
1.228525116135246
 20
6.104876320926979
 30
0.0
 11
-1.524755723759766
 21
6.104876320926979
 31
0.0
  0
LINE
  5
2F1D
330
1E
100
AcDbEntity
  8
7
100
AcDbLine
 10
-2.96832527756554
 20
6.076004929850863
 30
0.0
 11
-2.96832527756554
 21
6.165243774995218
 31
0.0
  0
LINE
  5
2F1E
330
1E
100
AcDbEntity
  8
7
100
AcDbLine
 10
-2.96832527756554
 20
6.165243774995218
 30
0.0
 11
-2.96832527756554
 21
6.243983932475535
 31
0.0
  0
LINE
  5
2F1F
330
1E
100
AcDbEntity
  8
7
100
AcDbLine
 10
-2.96832527756554
 20
6.243983932475535
 30
0.0
 11
-2.267537875990738
 21
6.243983932475535
 31
0.0
  0
LINE
  5
2F20
330
1E
100
AcDbEntity
  8
7
100
AcDbLine
 10
-2.96832527756554
 20
3.619312016465036
 30
0.0
 11
-2.96832527756554
 21
4.369968184444038
 31
0.0
  0
LINE
  5
2F21
330
1E
100
AcDbEntity
  8
7
100
AcDbLine
 10
-2.96832527756554
 20
4.369968184444038
 30
0.0
 11
-2.96832527756554
 21
4.446083670008341
 31
0.0
  0
LINE
  5
2F22
330
1E
100
AcDbEntity
  8
7
100
AcDbLine
 10
-2.96832527756554
 20
4.446083670008341
 30
0.0
 11
-2.96832527756554
 21
4.535322515152699
 31
0.0
  0
LINE
  5
2F23
330
1E
100
AcDbEntity
  8
7
100
AcDbLine
 10
-1.425018190951367
 20
4.369968184444038
 30
0.0
 11
-1.469637613523545
 21
4.369968184444038
 31
0.0
  0
LINE
  5
2F24
330
1E
100
AcDbEntity
  8
7
100
AcDbLine
 10
-1.469637613523545
 20
4.369968184444038
 30
0.0
 11
-1.488010316935619
 21
4.369968184444038
 31
0.0
  0
LINE
  5
2F25
330
1E
100
AcDbEntity
  8
7
100
AcDbLine
 10
2.771832202749418
 20
4.369968184444038
 30
0.0
 11
1.291517242119498
 21
4.369968184444038
 31
0.0
  0
LINE
  5
2F26
330
1E
100
AcDbEntity
  8
7
100
AcDbLine
 10
1.291517242119498
 20
4.369968184444038
 30
0.0
 11
1.273144538707424
 21
4.369968184444038
 31
0.0
  0
LINE
  5
2F27
330
1E
100
AcDbEntity
  8
7
100
AcDbLine
 10
1.273144538707424
 20
4.369968184444038
 30
0.0
 11
1.228525116135246
 21
4.369968184444038
 31
0.0
  0
LINE
  5
2F28
330
1E
100
AcDbEntity
  8
7
100
AcDbLine
 10
1.228525116135246
 20
4.369968184444038
 30
0.0
 11
-1.425018190951367
 21
4.369968184444038
 31
0.0
  0
LINE
  5
2F29
330
1E
100
AcDbEntity
  8
7
100
AcDbLine
 10
2.771832202749418
 20
4.369968184444038
 30
0.0
 11
2.790204906161492
 21
4.369968184444038
 31
0.0
  0
LINE
  5
2F2A
330
1E
100
AcDbEntity
  8
7
100
AcDbLine
 10
2.790204906161492
 20
4.369968184444038
 30
0.0
 11
2.83482432873367
 21
4.369968184444038
 31
0.0
  0
LINE
  5
2F2B
330
1E
100
AcDbEntity
  8
7
100
AcDbLine
 10
5.490992307736294
 20
4.369968184444038
 30
0.0
 11
5.532987058392462
 21
4.369968184444038
 31
0.0
  0
LINE
  5
2F2C
330
1E
100
AcDbEntity
  8
7
100
AcDbLine
 10
5.532987058392462
 20
4.369968184444038
 30
0.0
 11
5.551359761804536
 21
4.369968184444038
 31
0.0
  0
LINE
  5
2F2D
330
1E
100
AcDbEntity
  8
7
100
AcDbLine
 10
-2.571999818247955
 20
5.057632226438789
 30
0.0
 11
-2.495884332683651
 21
5.07075558601884
 31
0.0
  0
LINE
  5
2F2E
330
1E
100
AcDbEntity
  8
7
100
AcDbLine
 10
-2.495884332683651
 20
5.07075558601884
 30
0.0
 11
-2.425018190951367
 21
5.104876320926979
 31
0.0
  0
LINE
  5
2F2F
330
1E
100
AcDbEntity
  8
7
100
AcDbLine
 10
-2.425018190951367
 20
5.104876320926979
 30
0.0
 11
-2.369900080715146
 21
5.159994431163198
 31
0.0
  0
LINE
  5
2F30
330
1E
100
AcDbEntity
  8
7
100
AcDbLine
 10
-2.369900080715146
 20
5.159994431163198
 30
0.0
 11
-2.335779345807011
 21
5.230860572895482
 31
0.0
  0
LINE
  5
2F31
330
1E
100
AcDbEntity
  8
7
100
AcDbLine
 10
-2.335779345807011
 20
5.230860572895482
 30
0.0
 11
-2.322655986226958
 21
5.306976058459786
 31
0.0
  0
LINE
  5
2F32
330
1E
100
AcDbEntity
  8
7
100
AcDbLine
 10
-2.322655986226958
 20
5.306976058459786
 30
0.0
 11
-2.335779345807011
 21
5.38309154402409
 31
0.0
  0
LINE
  5
2F33
330
1E
100
AcDbEntity
  8
7
100
AcDbLine
 10
-2.335779345807011
 20
5.38309154402409
 30
0.0
 11
-2.369900080715146
 21
5.453957685756374
 31
0.0
  0
LINE
  5
2F34
330
1E
100
AcDbEntity
  8
7
100
AcDbLine
 10
-2.369900080715146
 20
5.453957685756374
 30
0.0
 11
-2.425018190951367
 21
5.509075795992593
 31
0.0
  0
LINE
  5
2F35
330
1E
100
AcDbEntity
  8
7
100
AcDbLine
 10
-2.425018190951367
 20
5.509075795992593
 30
0.0
 11
-2.495884332683651
 21
5.543196530900732
 31
0.0
  0
LINE
  5
2F36
330
1E
100
AcDbEntity
  8
7
100
AcDbLine
 10
-2.495884332683651
 20
5.543196530900732
 30
0.0
 11
-2.571999818247955
 21
5.556319890480784
 31
0.0
  0
LINE
  5
2F37
330
1E
100
AcDbEntity
  8
7
100
AcDbLine
 10
-2.571999818247955
 20
5.199364509903356
 30
0.0
 11
-2.524755723759766
 21
5.209863197567399
 31
0.0
  0
LINE
  5
2F38
330
1E
100
AcDbEntity
  8
7
100
AcDbLine
 10
-2.524755723759766
 20
5.209863197567399
 30
0.0
 11
-2.488010316935619
 21
5.238734588643512
 31
0.0
  0
LINE
  5
2F39
330
1E
100
AcDbEntity
  8
7
100
AcDbLine
 10
-2.488010316935619
 20
5.238734588643512
 30
0.0
 11
-2.467012941607535
 21
5.283354011215692
 31
0.0
  0
LINE
  5
2F3A
330
1E
100
AcDbEntity
  8
7
100
AcDbLine
 10
-2.467012941607535
 20
5.283354011215692
 30
0.0
 11
-2.467012941607535
 21
5.33059810570388
 31
0.0
  0
LINE
  5
2F3B
330
1E
100
AcDbEntity
  8
7
100
AcDbLine
 10
-2.467012941607535
 20
5.33059810570388
 30
0.0
 11
-2.488010316935619
 21
5.37521752827606
 31
0.0
  0
LINE
  5
2F3C
330
1E
100
AcDbEntity
  8
7
100
AcDbLine
 10
-2.488010316935619
 20
5.37521752827606
 30
0.0
 11
-2.524755723759766
 21
5.404088919352174
 31
0.0
  0
LINE
  5
2F3D
330
1E
100
AcDbEntity
  8
7
100
AcDbLine
 10
-2.524755723759766
 20
5.404088919352174
 30
0.0
 11
-2.571999818247955
 21
5.414587607016215
 31
0.0
  0
LINE
  5
2F3E
330
1E
100
AcDbEntity
  8
7
100
AcDbLine
 10
-2.571999818247955
 20
5.414587607016215
 30
0.0
 11
-2.619243912736144
 21
5.404088919352174
 31
0.0
  0
LINE
  5
2F3F
330
1E
100
AcDbEntity
  8
7
100
AcDbLine
 10
-2.619243912736144
 20
5.404088919352174
 30
0.0
 11
-2.655989319560291
 21
5.37521752827606
 31
0.0
  0
LINE
  5
2F40
330
1E
100
AcDbEntity
  8
7
100
AcDbLine
 10
-2.655989319560291
 20
5.37521752827606
 30
0.0
 11
-2.676986694888374
 21
5.33059810570388
 31
0.0
  0
LINE
  5
2F41
330
1E
100
AcDbEntity
  8
7
100
AcDbLine
 10
-2.676986694888374
 20
5.33059810570388
 30
0.0
 11
-2.676986694888374
 21
5.283354011215692
 31
0.0
  0
LINE
  5
2F42
330
1E
100
AcDbEntity
  8
7
100
AcDbLine
 10
-2.676986694888374
 20
5.283354011215692
 30
0.0
 11
-2.655989319560291
 21
5.238734588643512
 31
0.0
  0
LINE
  5
2F43
330
1E
100
AcDbEntity
  8
7
100
AcDbLine
 10
-2.655989319560291
 20
5.238734588643512
 30
0.0
 11
-2.619243912736144
 21
5.209863197567399
 31
0.0
  0
LINE
  5
2F44
330
1E
100
AcDbEntity
  8
7
100
AcDbLine
 10
-2.619243912736144
 20
5.209863197567399
 30
0.0
 11
-2.571999818247955
 21
5.199364509903356
 31
0.0
  0
LINE
  5
2F45
330
1E
100
AcDbEntity
  8
7
100
AcDbLine
 10
-1.488010316935619
 20
4.446083670008341
 30
0.0
 11
-1.469637613523545
 21
4.446083670008341
 31
0.0
  0
LINE
  5
2F46
330
1E
100
AcDbEntity
  8
7
100
AcDbLine
 10
-1.469637613523545
 20
4.446083670008341
 30
0.0
 11
-1.425018190951367
 21
4.446083670008341
 31
0.0
  0
LINE
  5
2F47
330
1E
100
AcDbEntity
  8
7
100
AcDbLine
 10
-1.425018190951367
 20
6.165243774995218
 30
0.0
 11
-1.469637613523545
 21
6.165243774995218
 31
0.0
  0
LINE
  5
2F48
330
1E
100
AcDbEntity
  8
7
100
AcDbLine
 10
-1.469637613523545
 20
6.165243774995218
 30
0.0
 11
-1.488010316935619
 21
6.165243774995218
 31
0.0
  0
LINE
  5
2F49
330
1E
100
AcDbEntity
  8
7
100
AcDbLine
 10
1.228525116135246
 20
6.243983932475535
 30
0.0
 11
1.273144538707424
 21
6.243983932475535
 31
0.0
  0
LINE
  5
2F4A
330
1E
100
AcDbEntity
  8
7
100
AcDbLine
 10
1.273144538707424
 20
6.243983932475535
 30
0.0
 11
1.291517242119498
 21
6.243983932475535
 31
0.0
  0
LINE
  5
2F4B
330
1E
100
AcDbEntity
  8
7
100
AcDbLine
 10
-1.488010316935619
 20
6.243983932475535
 30
0.0
 11
-1.469637613523545
 21
6.243983932475535
 31
0.0
  0
LINE
  5
2F4C
330
1E
100
AcDbEntity
  8
7
100
AcDbLine
 10
-1.469637613523545
 20
6.243983932475535
 30
0.0
 11
-1.425018190951367
 21
6.243983932475535
 31
0.0
  0
LINE
  5
2F4D
330
1E
100
AcDbEntity
  8
7
100
AcDbLine
 10
-1.425018190951367
 20
6.243983932475535
 30
0.0
 11
1.228525116135246
 21
6.243983932475535
 31
0.0
  0
LINE
  5
2F4E
330
1E
100
AcDbEntity
  8
7
100
AcDbLine
 10
5.551359761804536
 20
6.243983932475535
 30
0.0
 11
5.532987058392462
 21
6.243983932475535
 31
0.0
  0
LINE
  5
2F4F
330
1E
100
AcDbEntity
  8
7
100
AcDbLine
 10
5.532987058392462
 20
6.243983932475535
 30
0.0
 11
5.490992307736294
 21
6.243983932475535
 31
0.0
  0
LINE
  5
2F50
330
1E
100
AcDbEntity
  8
7
100
AcDbLine
 10
2.83482432873367
 20
6.243983932475535
 30
0.0
 11
2.790204906161492
 21
6.243983932475535
 31
0.0
  0
LINE
  5
2F51
330
1E
100
AcDbEntity
  8
7
100
AcDbLine
 10
2.790204906161492
 20
6.243983932475535
 30
0.0
 11
2.771832202749418
 21
6.243983932475535
 31
0.0
  0
LINE
  5
2F52
330
1E
100
AcDbEntity
  8
7
100
AcDbLine
 10
-1.716356773628533
 20
6.104876320926979
 30
0.0
 11
-1.732104805124595
 21
6.104876320926979
 31
0.0
  0
LINE
  5
2F53
330
1E
100
AcDbEntity
  8
7
100
AcDbLine
 10
-1.732104805124595
 20
6.104876320926979
 30
0.0
 11
-1.732104805124595
 21
6.165243774995218
 31
0.0
  0
LINE
  5
2F54
330
1E
100
AcDbEntity
  8
7
100
AcDbLine
 10
2.771832202749418
 20
4.64030939179312
 30
0.0
 11
2.784955562329471
 21
4.59044062538892
 31
0.0
  0
LINE
  5
2F55
330
1E
100
AcDbEntity
  8
7
100
AcDbLine
 10
2.784955562329471
 20
4.59044062538892
 30
0.0
 11
2.821700969153618
 21
4.553695218564774
 31
0.0
  0
LINE
  5
2F56
330
1E
100
AcDbEntity
  8
7
100
AcDbLine
 10
2.821700969153618
 20
4.553695218564774
 30
0.0
 11
2.871569735557817
 21
4.540571858984719
 31
0.0
  0
LINE
  5
2F57
330
1E
100
AcDbEntity
  8
7
100
AcDbLine
 10
5.273144538707423
 20
4.540571858984719
 30
0.0
 11
5.323013305111622
 21
4.553695218564774
 31
0.0
  0
LINE
  5
2F58
330
1E
100
AcDbEntity
  8
7
100
AcDbLine
 10
5.323013305111622
 20
4.553695218564774
 30
0.0
 11
5.359758711935768
 21
4.59044062538892
 31
0.0
  0
LINE
  5
2F59
330
1E
100
AcDbEntity
  8
7
100
AcDbLine
 10
5.359758711935768
 20
4.59044062538892
 30
0.0
 11
5.372882071515823
 21
4.64030939179312
 31
0.0
  0
LINE
  5
2F5A
330
1E
100
AcDbEntity
  8
7
100
AcDbLine
 10
5.372882071515823
 20
5.971018053210443
 30
0.0
 11
5.359758711935768
 21
6.020886819614643
 31
0.0
  0
LINE
  5
2F5B
330
1E
100
AcDbEntity
  8
7
100
AcDbLine
 10
5.359758711935768
 20
6.020886819614643
 30
0.0
 11
5.323013305111622
 21
6.057632226438789
 31
0.0
  0
LINE
  5
2F5C
330
1E
100
AcDbEntity
  8
7
100
AcDbLine
 10
2.871569735557817
 20
6.07075558601884
 30
0.0
 11
2.821700969153618
 21
6.057632226438789
 31
0.0
  0
LINE
  5
2F5D
330
1E
100
AcDbEntity
  8
7
100
AcDbLine
 10
2.821700969153618
 20
6.057632226438789
 30
0.0
 11
2.784955562329471
 21
6.020886819614643
 31
0.0
  0
LINE
  5
2F5E
330
1E
100
AcDbEntity
  8
7
100
AcDbLine
 10
2.784955562329471
 20
6.020886819614643
 30
0.0
 11
2.771832202749418
 21
5.971018053210443
 31
0.0
  0
LINE
  5
2F5F
330
1E
100
AcDbEntity
  8
7
100
AcDbLine
 10
-1.207170421922496
 20
6.07075558601884
 30
0.0
 11
-1.257039188326696
 21
6.057632226438789
 31
0.0
  0
LINE
  5
2F60
330
1E
100
AcDbEntity
  8
7
100
AcDbLine
 10
-1.257039188326696
 20
6.057632226438789
 30
0.0
 11
-1.293784595150843
 21
6.020886819614643
 31
0.0
  0
LINE
  5
2F61
330
1E
100
AcDbEntity
  8
7
100
AcDbLine
 10
-1.293784595150843
 20
6.020886819614643
 30
0.0
 11
-1.306907954730895
 21
5.971018053210443
 31
0.0
  0
LINE
  5
2F62
330
1E
100
AcDbEntity
  8
7
100
AcDbLine
 10
-1.293784595150843
 20
4.59044062538892
 30
0.0
 11
-1.257039188326696
 21
4.553695218564774
 31
0.0
  0
LINE
  5
2F63
330
1E
100
AcDbEntity
  8
7
100
AcDbLine
 10
-1.257039188326696
 20
4.553695218564774
 30
0.0
 11
-1.207170421922496
 21
4.540571858984719
 31
0.0
  0
LINE
  5
2F64
330
1E
100
AcDbEntity
  8
7
100
AcDbLine
 10
1.191779709311099
 20
4.540571858984719
 30
0.0
 11
1.241648475715298
 21
4.553695218564774
 31
0.0
  0
LINE
  5
2F65
330
1E
100
AcDbEntity
  8
7
100
AcDbLine
 10
1.241648475715298
 20
4.553695218564774
 30
0.0
 11
1.278393882539444
 21
4.59044062538892
 31
0.0
  0
LINE
  5
2F66
330
1E
100
AcDbEntity
  8
7
100
AcDbLine
 10
1.278393882539444
 20
4.59044062538892
 30
0.0
 11
1.291517242119498
 21
4.64030939179312
 31
0.0
  0
LINE
  5
2F67
330
1E
100
AcDbEntity
  8
7
100
AcDbLine
 10
1.291517242119498
 20
5.971018053210443
 30
0.0
 11
1.278393882539444
 21
6.020886819614643
 31
0.0
  0
LINE
  5
2F68
330
1E
100
AcDbEntity
  8
7
100
AcDbLine
 10
1.278393882539444
 20
6.020886819614643
 30
0.0
 11
1.241648475715298
 21
6.057632226438789
 31
0.0
  0
LINE
  5
2F69
330
1E
100
AcDbEntity
  8
7
100
AcDbLine
 10
1.241648475715298
 20
6.057632226438789
 30
0.0
 11
1.191779709311099
 21
6.07075558601884
 31
0.0
  0
LINE
  5
2F6A
330
1E
100
AcDbEntity
  8
7
100
AcDbLine
 10
-2.222918453418559
 20
4.540571858984719
 30
0.0
 11
-2.222918453418559
 21
4.509075795992593
 31
0.0
  0
LINE
  5
2F6B
330
1E
100
AcDbEntity
  8
7
100
AcDbLine
 10
-2.222918453418559
 20
4.509075795992593
 30
0.0
 11
-2.222918453418559
 21
4.446083670008341
 31
0.0
  0
LINE
  5
2F6C
330
1E
100
AcDbEntity
  8
7
100
AcDbLine
 10
-2.222918453418559
 20
4.446083670008341
 30
0.0
 11
-2.222918453418559
 21
4.369968184444038
 31
0.0
  0
ENDSEC
  0
SECTION
  2
OBJECTS
  0
DICTIONARY
  5
C
330
0
100
AcDbDictionary
  3
ACAD_GROUP
350
D
  3
ACAD_MLINESTYLE
350
16
  3
ACAD_PLOTSETTINGS
350
18
  3
ACAD_LAYOUT
350
19
1001
ACAD
1000
TREAT_AS_HARD
1070
     0
  0
DICTIONARY
  5
4195
330
1E
100
AcDbDictionary
  3
ACAD_LAYOUTSELFREF
350
4196
  0
DICTIONARY
  5
4193
330
1A
100
AcDbDictionary
  3
ACAD_LAYOUTSELFREF
350
4194
  0
DICTIONARY
  5
D
102
{ACAD_REACTORS
330
C
102
}
330
C
100
AcDbDictionary
1001
ACAD
1000
TREAT_AS_HARD
1070
     0
  0
DICTIONARY
  5
16
102
{ACAD_REACTORS
330
C
102
}
330
C
100
AcDbDictionary
  3
STANDARD
350
17
1001
ACAD
1000
TREAT_AS_HARD
1070
     0
  0
DICTIONARY
  5
18
102
{ACAD_REACTORS
330
C
102
}
330
C
100
AcDbDictionary
1001
ACAD
1000
TREAT_AS_HARD
1070
     0
  0
DICTIONARY
  5
19
102
{ACAD_REACTORS
330
C
102
}
330
C
100
AcDbDictionary
1001
ACAD
1000
TREAT_AS_HARD
1070
     0
  0
XRECORD
  5
4196
102
{ACAD_REACTORS
330
4195
102
}
330
4195
100
AcDbXrecord
340
1E
  0
XRECORD
  5
4194
102
{ACAD_REACTORS
330
4193
102
}
330
4193
100
AcDbXrecord
340
1A
  0
MLINESTYLE
  5
17
102
{ACAD_REACTORS
330
16
102
}
330
16
100
AcDbMlineStyle
  2
STANDARD
 70
     0
  3

 62
   256
 51
90.0
 52
90.0
 71
     2
 49
0.5
 62
   256
  6
BYLAYER
 49
-0.5
 62
   256
  6
BYLAYER
  0
ENDSEC
  0
EOF
