  0
SECTION
  2
HEADER
  9
$ACADVER
  1
AC1012
  9
$DWGCODEPAGE
  3
ANSI_1252
  9
$INSBASE
 10
0.0
 20
0.0
 30
0.0
  9
$EXTMIN
 10
1.240173369227179
 20
4.544631984253218
 30
-0.0015258207003583
  9
$EXTMAX
 10
7.203918479387553
 20
7.300140399835235
 30
0.0000000349246037
  9
$LIMMIN
 10
0.0
 20
0.0
  9
$LIMMAX
 10
12.0
 20
9.0
  9
$ORTHOMODE
 70
     0
  9
$REGENMODE
 70
     1
  9
$FILLMODE
 70
     1
  9
$QTEXTMODE
 70
     0
  9
$MIRRTEXT
 70
     1
  9
$DRAGMODE
 70
     2
  9
$LTSCALE
 40
1.0
  9
$OSMODE
 70
    37
  9
$ATTMODE
 70
     1
  9
$TEXTSIZE
 40
0.2
  9
$TRACEWID
 40
0.05
  9
$TEXTSTYLE
  7
STANDARD
  9
$CLAYER
  8
0
  9
$CELTYPE
  6
BYLAYER
  9
$CECOLOR
 62
   256
  9
$CELTSCALE
 40
1.0
  9
$DELOBJ
 70
     1
  9
$DISPSILH
 70
     0
  9
$DIMSCALE
 40
1.0
  9
$DIMASZ
 40
0.18
  9
$DIMEXO
 40
0.0625
  9
$DIMDLI
 40
0.38
  9
$DIMRND
 40
0.0
  9
$DIMDLE
 40
0.0
  9
$DIMEXE
 40
0.18
  9
$DIMTP
 40
0.0
  9
$DIMTM
 40
0.0
  9
$DIMTXT
 40
0.18
  9
$DIMCEN
 40
0.09
  9
$DIMTSZ
 40
0.0
  9
$DIMTOL
 70
     0
  9
$DIMLIM
 70
     0
  9
$DIMTIH
 70
     1
  9
$DIMTOH
 70
     1
  9
$DIMSE1
 70
     0
  9
$DIMSE2
 70
     0
  9
$DIMTAD
 70
     0
  9
$DIMZIN
 70
     0
  9
$DIMBLK
  1

  9
$DIMASO
 70
     1
  9
$DIMSHO
 70
     1
  9
$DIMPOST
  1

  9
$DIMAPOST
  1

  9
$DIMALT
 70
     0
  9
$DIMALTD
 70
     2
  9
$DIMALTF
 40
25.4
  9
$DIMLFAC
 40
1.0
  9
$DIMTOFL
 70
     0
  9
$DIMTVP
 40
0.0
  9
$DIMTIX
 70
     0
  9
$DIMSOXD
 70
     0
  9
$DIMSAH
 70
     0
  9
$DIMBLK1
  1

  9
$DIMBLK2
  1

  9
$DIMSTYLE
  2
STANDARD
  9
$DIMCLRD
 70
     0
  9
$DIMCLRE
 70
     0
  9
$DIMCLRT
 70
     0
  9
$DIMTFAC
 40
1.0
  9
$DIMGAP
 40
0.09
  9
$DIMJUST
 70
     0
  9
$DIMSD1
 70
     0
  9
$DIMSD2
 70
     0
  9
$DIMTOLJ
 70
     1
  9
$DIMTZIN
 70
     0
  9
$DIMALTZ
 70
     0
  9
$DIMALTTZ
 70
     0
  9
$DIMFIT
 70
     5
  9
$DIMUPT
 70
     0
  9
$DIMUNIT
 70
     2
  9
$DIMDEC
 70
     4
  9
$DIMTDEC
 70
     4
  9
$DIMALTU
 70
     2
  9
$DIMALTTD
 70
     2
  9
$DIMTXSTY
  7
STANDARD
  9
$DIMAUNIT
 70
     0
  9
$LUNITS
 70
     2
  9
$LUPREC
 70
     4
  9
$SKETCHINC
 40
0.1
  9
$FILLETRAD
 40
0.0
  9
$AUNITS
 70
     0
  9
$AUPREC
 70
     0
  9
$MENU
  1
acad
  9
$ELEVATION
 40
0.0
  9
$PELEVATION
 40
0.0
  9
$THICKNESS
 40
0.0
  9
$LIMCHECK
 70
     0
  9
$BLIPMODE
 70
     0
  9
$CHAMFERA
 40
0.0
  9
$CHAMFERB
 40
0.0
  9
$CHAMFERC
 40
0.0
  9
$CHAMFERD
 40
0.0
  9
$SKPOLY
 70
     0
  9
$TDCREATE
 40
2454253.600740740
  9
$TDUPDATE
 40
2454253.605944166
  9
$TDINDWG
 40
0.0014633333
  9
$TDUSRTIMER
 40
0.0014633333
  9
$USRTIMER
 70
     1
  9
$ANGBASE
 50
0.0
  9
$ANGDIR
 70
     0
  9
$PDMODE
 70
     0
  9
$PDSIZE
 40
0.0
  9
$PLINEWID
 40
0.0
  9
$COORDS
 70
     1
  9
$SPLFRAME
 70
     0
  9
$SPLINETYPE
 70
     6
  9
$SPLINESEGS
 70
     8
  9
$ATTDIA
 70
     0
  9
$ATTREQ
 70
     1
  9
$HANDLING
 70
  4097
  9
$HANDSEED
  5
2967
  9
$SURFTAB1
 70
     6
  9
$SURFTAB2
 70
     6
  9
$SURFTYPE
 70
     6
  9
$SURFU
 70
     6
  9
$SURFV
 70
     6
  9
$UCSNAME
  2

  9
$UCSORG
 10
0.0
 20
0.0
 30
0.0
  9
$UCSXDIR
 10
1.0
 20
0.0
 30
0.0
  9
$UCSYDIR
 10
0.0
 20
1.0
 30
0.0
  9
$PUCSNAME
  2

  9
$PUCSORG
 10
0.0
 20
0.0
 30
0.0
  9
$PUCSXDIR
 10
1.0
 20
0.0
 30
0.0
  9
$PUCSYDIR
 10
0.0
 20
1.0
 30
0.0
  9
$USERI1
 70
     0
  9
$USERI2
 70
     0
  9
$USERI3
 70
     0
  9
$USERI4
 70
     0
  9
$USERI5
 70
     0
  9
$USERR1
 40
0.0
  9
$USERR2
 40
0.0
  9
$USERR3
 40
0.0
  9
$USERR4
 40
0.0
  9
$USERR5
 40
0.0
  9
$WORLDVIEW
 70
     1
  9
$SHADEDGE
 70
     3
  9
$SHADEDIF
 70
    70
  9
$TILEMODE
 70
     1
  9
$MAXACTVP
 70
    16
  9
$PINSBASE
 10
0.0
 20
0.0
 30
0.0
  9
$PLIMCHECK
 70
     0
  9
$PEXTMIN
 10
1.000000000000000E+20
 20
1.000000000000000E+20
 30
1.000000000000000E+20
  9
$PEXTMAX
 10
-1.000000000000000E+20
 20
-1.000000000000000E+20
 30
-1.000000000000000E+20
  9
$PLIMMIN
 10
0.0
 20
0.0
  9
$PLIMMAX
 10
12.0
 20
9.0
  9
$UNITMODE
 70
     0
  9
$VISRETAIN
 70
     0
  9
$PLINEGEN
 70
     0
  9
$PSLTSCALE
 70
     1
  9
$TREEDEPTH
 70
  3020
  9
$PICKSTYLE
 70
     1
  9
$CMLSTYLE
  2
STANDARD
  9
$CMLJUST
 70
     0
  9
$CMLSCALE
 40
1.0
  9
$SAVEIMAGES
 70
     1
  0
ENDSEC
  0
SECTION
  2
CLASSES
  0
CLASS
  1
ACDBDICTIONARYWDFLT
  2
AcDbDictionaryWithDefault
  3
AutoCAD 2000
 90
    32768
280
     0
281
     0
  0
CLASS
  1
ACDBPLACEHOLDER
  2
AcDbPlaceHolder
  3
AutoCAD 2000
 90
    32768
280
     0
281
     0
  0
CLASS
  1
LAYOUT
  2
AcDbLayout
  3
AutoCAD 2000
 90
    32768
280
     0
281
     0
  0
CLASS
  1
LONG_TRANSACTION
  2
AcDbLongTransaction
  3
AutoCAD 2000
 90
    32768
280
     0
281
     0
  0
CLASS
  1
LWPOLYLINE
  2
AcDbPolyline
  3
AutoCAD 2000
 90
    32768
280
     0
281
     1
  0
CLASS
  1
HATCH
  2
AcDbHatch
  3
AutoCAD 2000
 90
    32768
280
     0
281
     1
  0
CLASS
  1
XRECORD
  2
AcDbXrecord
  3
AutoCAD 2000
 90
    32768
280
     0
281
     0
  0
ENDSEC
  0
SECTION
  2
TABLES
  0
TABLE
  2
VPORT
  5
8
330
0
100
AcDbSymbolTable
 70
     3
  0
VPORT
  5
2720
330
8
100
AcDbSymbolTableRecord
100
AcDbViewportTableRecord
  2
*ACTIVE
 70
     0
 10
0.0
 20
0.0
 11
1.0
 21
1.0
 12
4.222045924307366
 22
5.922386192044227
 13
0.0
 23
0.0
 14
1.0
 24
1.0
 15
0.0
 25
0.0
 16
0.0
 26
0.0
 36
1.0
 17
0.0
 27
0.0
 37
0.0
 40
3.265214177439681
 41
1.838323353293413
 42
50.0
 43
0.0
 44
0.0
 50
0.0
 51
0.0
 71
     0
 72
   100
 73
     1
 74
     1
 75
     0
 76
     0
 77
     0
 78
     0
  0
ENDTAB
  0
TABLE
  2
LTYPE
  5
5
330
0
100
AcDbSymbolTable
 70
    25
  0
LTYPE
  5
13
330
5
100
AcDbSymbolTableRecord
100
AcDbLinetypeTableRecord
  2
BYBLOCK
 70
     0
  3

 72
    65
 73
     0
 40
0.0
  0
LTYPE
  5
14
330
5
100
AcDbSymbolTableRecord
100
AcDbLinetypeTableRecord
  2
BYLAYER
 70
     0
  3

 72
    65
 73
     0
 40
0.0
  0
LTYPE
  5
15
330
5
100
AcDbSymbolTableRecord
100
AcDbLinetypeTableRecord
  2
CONTINUOUS
 70
     0
  3
Solid line
 72
    65
 73
     0
 40
0.0
  0
LTYPE
  5
22
330
5
100
AcDbSymbolTableRecord
100
AcDbLinetypeTableRecord
  2
BORDER
 70
     0
  3
__ __ . __ __ . __ __ . __ __ . __ __ . __ __ .
 72
    65
 73
     6
 40
1.75
 49
0.5
 74
     0
 49
-0.25
 74
     0
 49
0.5
 74
     0
 49
-0.25
 74
     0
 49
0.5
 74
     0
 49
-0.25
 74
     0
  0
LTYPE
  5
23
330
5
100
AcDbSymbolTableRecord
100
AcDbLinetypeTableRecord
  2
BORDER2
 70
     0
  3
__.__.__.__.__.__.__.__.
 72
    65
 73
     6
 40
0.875
 49
0.25
 74
     0
 49
-0.125
 74
     0
 49
0.25
 74
     0
 49
-0.125
 74
     0
 49
0.25
 74
     0
 49
-0.125
 74
     0
  0
LTYPE
  5
24
330
5
100
AcDbSymbolTableRecord
100
AcDbLinetypeTableRecord
  2
BORDERX2
 70
     0
  3
____  ____  .  
 72
    65
 73
     6
 40
3.5
 49
1.0
 74
     0
 49
-0.5
 74
     0
 49
1.0
 74
     0
 49
-0.5
 74
     0
 49
1.0
 74
     0
 49
-0.5
 74
     0
  0
LTYPE
  5
25
330
5
100
AcDbSymbolTableRecord
100
AcDbLinetypeTableRecord
  2
CENTER
 70
     0
  3
____ _ ____ _ ____ _ 
 72
    65
 73
     4
 40
2.0
 49
1.25
 74
     0
 49
-0.25
 74
     0
 49
0.25
 74
     0
 49
-0.25
 74
     0
  0
LTYPE
  5
26
330
5
100
AcDbSymbolTableRecord
100
AcDbLinetypeTableRecord
  2
CENTER2
 70
     0
  3
____ _ ____ _ ____ _ 
 72
    65
 73
     4
 40
1.125
 49
0.75
 74
     0
 49
-0.125
 74
     0
 49
0.125
 74
     0
 49
-0.125
 74
     0
  0
LTYPE
  5
27
330
5
100
AcDbSymbolTableRecord
100
AcDbLinetypeTableRecord
  2
CENTERX2
 70
     0
  3
________  __  
 72
    65
 73
     4
 40
4.0
 49
2.5
 74
     0
 49
-0.5
 74
     0
 49
0.5
 74
     0
 49
-0.5
 74
     0
  0
LTYPE
  5
28
330
5
100
AcDbSymbolTableRecord
100
AcDbLinetypeTableRecord
  2
DASHDOT
 70
     0
  3
__ . __ . __ . __ . 
 72
    65
 73
     4
 40
1.0
 49
0.5
 74
     0
 49
-0.25
 74
     0
 49
0.0
 74
     0
 49
-0.25
 74
     0
  0
LTYPE
  5
29
330
5
100
AcDbSymbolTableRecord
100
AcDbLinetypeTableRecord
  2
DASHDOT2
 70
     0
  3
_._._._._._._._._.
 72
    65
 73
     4
 40
0.5
 49
0.25
 74
     0
 49
-0.125
 74
     0
 49
0.0
 74
     0
 49
-0.125
 74
     0
  0
LTYPE
  5
2A
330
5
100
AcDbSymbolTableRecord
100
AcDbLinetypeTableRecord
  2
DASHDOTX2
 70
     0
  3
____  .  ____  .  
 72
    65
 73
     4
 40
2.0
 49
1.0
 74
     0
 49
-0.5
 74
     0
 49
0.0
 74
     0
 49
-0.5
 74
     0
  0
LTYPE
  5
2B
330
5
100
AcDbSymbolTableRecord
100
AcDbLinetypeTableRecord
  2
DASHED
 70
     0
  3
__ __ __ __ __ __ __ 
 72
    65
 73
     2
 40
0.75
 49
0.5
 74
     0
 49
-0.25
 74
     0
  0
LTYPE
  5
2C
330
5
100
AcDbSymbolTableRecord
100
AcDbLinetypeTableRecord
  2
DASHED2
 70
     0
  3
_ _ _ _ _ _ _ _ _ _ 
 72
    65
 73
     2
 40
0.375
 49
0.25
 74
     0
 49
-0.125
 74
     0
  0
LTYPE
  5
2D
330
5
100
AcDbSymbolTableRecord
100
AcDbLinetypeTableRecord
  2
DASHEDX2
 70
     0
  3
____  ____  ____  
 72
    65
 73
     2
 40
1.5
 49
1.0
 74
     0
 49
-0.5
 74
     0
  0
LTYPE
  5
2E
330
5
100
AcDbSymbolTableRecord
100
AcDbLinetypeTableRecord
  2
DIVIDE
 70
     0
  3
____ . . ____ . . 
 72
    65
 73
     6
 40
1.25
 49
0.5
 74
     0
 49
-0.25
 74
     0
 49
0.0
 74
     0
 49
-0.25
 74
     0
 49
0.0
 74
     0
 49
-0.25
 74
     0
  0
LTYPE
  5
2F
330
5
100
AcDbSymbolTableRecord
100
AcDbLinetypeTableRecord
  2
DIVIDE2
 70
     0
  3
__..__..__..__..__..
 72
    65
 73
     6
 40
0.625
 49
0.25
 74
     0
 49
-0.125
 74
     0
 49
0.0
 74
     0
 49
-0.125
 74
     0
 49
0.0
 74
     0
 49
-0.125
 74
     0
  0
LTYPE
  5
30
330
5
100
AcDbSymbolTableRecord
100
AcDbLinetypeTableRecord
  2
DIVIDEX2
 70
     0
  3
________  .  .  
 72
    65
 73
     6
 40
2.5
 49
1.0
 74
     0
 49
-0.5
 74
     0
 49
0.0
 74
     0
 49
-0.5
 74
     0
 49
0.0
 74
     0
 49
-0.5
 74
     0
  0
LTYPE
  5
31
330
5
100
AcDbSymbolTableRecord
100
AcDbLinetypeTableRecord
  2
DOT
 70
     0
  3
. . . . . . . . . 
 72
    65
 73
     2
 40
0.25
 49
0.0
 74
     0
 49
-0.25
 74
     0
  0
LTYPE
  5
32
330
5
100
AcDbSymbolTableRecord
100
AcDbLinetypeTableRecord
  2
DOT2
 70
     0
  3
..................
 72
    65
 73
     2
 40
0.125
 49
0.0
 74
     0
 49
-0.125
 74
     0
  0
LTYPE
  5
33
330
5
100
AcDbSymbolTableRecord
100
AcDbLinetypeTableRecord
  2
DOTX2
 70
     0
  3
.  .  .  .  .  .  
 72
    65
 73
     2
 40
0.5
 49
0.0
 74
     0
 49
-0.5
 74
     0
  0
LTYPE
  5
34
330
5
100
AcDbSymbolTableRecord
100
AcDbLinetypeTableRecord
  2
HIDDEN
 70
     0
  3
__ __ __ __ __ __ 
 72
    65
 73
     2
 40
0.375
 49
0.25
 74
     0
 49
-0.125
 74
     0
  0
LTYPE
  5
35
330
5
100
AcDbSymbolTableRecord
100
AcDbLinetypeTableRecord
  2
HIDDEN2
 70
     0
  3
_ _ _ _ _ _ _ _ _ 
 72
    65
 73
     2
 40
0.1875
 49
0.125
 74
     0
 49
-0.0625
 74
     0
  0
LTYPE
  5
36
330
5
100
AcDbSymbolTableRecord
100
AcDbLinetypeTableRecord
  2
HIDDENX2
 70
     0
  3
____ ____ ____ ____ 
 72
    65
 73
     2
 40
0.75
 49
0.5
 74
     0
 49
-0.25
 74
     0
  0
LTYPE
  5
37
330
5
100
AcDbSymbolTableRecord
100
AcDbLinetypeTableRecord
  2
PHANTOM
 70
     0
  3
______  __  __  
 72
    65
 73
     6
 40
2.5
 49
1.25
 74
     0
 49
-0.25
 74
     0
 49
0.25
 74
     0
 49
-0.25
 74
     0
 49
0.25
 74
     0
 49
-0.25
 74
     0
  0
LTYPE
  5
38
330
5
100
AcDbSymbolTableRecord
100
AcDbLinetypeTableRecord
  2
PHANTOM2
 70
     0
  3
___ _ _ ___ _ _ 
 72
    65
 73
     6
 40
1.25
 49
0.625
 74
     0
 49
-0.125
 74
     0
 49
0.125
 74
     0
 49
-0.125
 74
     0
 49
0.125
 74
     0
 49
-0.125
 74
     0
  0
LTYPE
  5
39
330
5
100
AcDbSymbolTableRecord
100
AcDbLinetypeTableRecord
  2
PHANTOMX2
 70
     0
  3
___ _ _ ___ _ _ 
 72
    65
 73
     6
 40
5.0
 49
2.5
 74
     0
 49
-0.5
 74
     0
 49
0.5
 74
     0
 49
-0.5
 74
     0
 49
0.5
 74
     0
 49
-0.5
 74
     0
  0
ENDTAB
  0
TABLE
  2
LAYER
  5
2
330
0
100
AcDbSymbolTable
 70
   257
  0
LAYER
  5
10
330
2
100
AcDbSymbolTableRecord
100
AcDbLayerTableRecord
  2
0
 70
     0
 62
     7
  6
CONTINUOUS
  0
LAYER
  5
3A
330
2
100
AcDbSymbolTableRecord
100
AcDbLayerTableRecord
  2
1
 70
     0
 62
     1
  6
CONTINUOUS
  0
LAYER
  5
3B
330
2
100
AcDbSymbolTableRecord
100
AcDbLayerTableRecord
  2
2
 70
     0
 62
     2
  6
CONTINUOUS
  0
LAYER
  5
3C
330
2
100
AcDbSymbolTableRecord
100
AcDbLayerTableRecord
  2
3
 70
     0
 62
     3
  6
CONTINUOUS
  0
LAYER
  5
3D
330
2
100
AcDbSymbolTableRecord
100
AcDbLayerTableRecord
  2
4
 70
     0
 62
     4
  6
CONTINUOUS
  0
LAYER
  5
3E
330
2
100
AcDbSymbolTableRecord
100
AcDbLayerTableRecord
  2
5
 70
     0
 62
     5
  6
CONTINUOUS
  0
LAYER
  5
3F
330
2
100
AcDbSymbolTableRecord
100
AcDbLayerTableRecord
  2
6
 70
     0
 62
     6
  6
CONTINUOUS
  0
LAYER
  5
40
330
2
100
AcDbSymbolTableRecord
100
AcDbLayerTableRecord
  2
7
 70
     0
 62
     7
  6
CONTINUOUS
  0
LAYER
  5
41
330
2
100
AcDbSymbolTableRecord
100
AcDbLayerTableRecord
  2
8
 70
     0
 62
     8
  6
CONTINUOUS
  0
LAYER
  5
42
330
2
100
AcDbSymbolTableRecord
100
AcDbLayerTableRecord
  2
9
 70
     0
 62
     9
  6
CONTINUOUS
  0
LAYER
  5
43
330
2
100
AcDbSymbolTableRecord
100
AcDbLayerTableRecord
  2
10
 70
     0
 62
    10
  6
CONTINUOUS
  0
LAYER
  5
44
330
2
100
AcDbSymbolTableRecord
100
AcDbLayerTableRecord
  2
11
 70
     0
 62
    11
  6
CONTINUOUS
  0
LAYER
  5
45
330
2
100
AcDbSymbolTableRecord
100
AcDbLayerTableRecord
  2
12
 70
     0
 62
    12
  6
CONTINUOUS
  0
LAYER
  5
46
330
2
100
AcDbSymbolTableRecord
100
AcDbLayerTableRecord
  2
13
 70
     0
 62
    13
  6
CONTINUOUS
  0
LAYER
  5
47
330
2
100
AcDbSymbolTableRecord
100
AcDbLayerTableRecord
  2
14
 70
     0
 62
    14
  6
CONTINUOUS
  0
LAYER
  5
48
330
2
100
AcDbSymbolTableRecord
100
AcDbLayerTableRecord
  2
15
 70
     0
 62
    15
  6
CONTINUOUS
  0
LAYER
  5
49
330
2
100
AcDbSymbolTableRecord
100
AcDbLayerTableRecord
  2
16
 70
     0
 62
    16
  6
CONTINUOUS
  0
LAYER
  5
4A
330
2
100
AcDbSymbolTableRecord
100
AcDbLayerTableRecord
  2
17
 70
     0
 62
    17
  6
CONTINUOUS
  0
LAYER
  5
4B
330
2
100
AcDbSymbolTableRecord
100
AcDbLayerTableRecord
  2
18
 70
     0
 62
    18
  6
CONTINUOUS
  0
LAYER
  5
4C
330
2
100
AcDbSymbolTableRecord
100
AcDbLayerTableRecord
  2
19
 70
     0
 62
    19
  6
CONTINUOUS
  0
LAYER
  5
4D
330
2
100
AcDbSymbolTableRecord
100
AcDbLayerTableRecord
  2
20
 70
     0
 62
    20
  6
CONTINUOUS
  0
LAYER
  5
4E
330
2
100
AcDbSymbolTableRecord
100
AcDbLayerTableRecord
  2
21
 70
     0
 62
    21
  6
CONTINUOUS
  0
LAYER
  5
4F
330
2
100
AcDbSymbolTableRecord
100
AcDbLayerTableRecord
  2
22
 70
     0
 62
    22
  6
CONTINUOUS
  0
LAYER
  5
50
330
2
100
AcDbSymbolTableRecord
100
AcDbLayerTableRecord
  2
23
 70
     0
 62
    23
  6
CONTINUOUS
  0
LAYER
  5
51
330
2
100
AcDbSymbolTableRecord
100
AcDbLayerTableRecord
  2
24
 70
     0
 62
    24
  6
CONTINUOUS
  0
LAYER
  5
52
330
2
100
AcDbSymbolTableRecord
100
AcDbLayerTableRecord
  2
25
 70
     0
 62
    25
  6
CONTINUOUS
  0
LAYER
  5
53
330
2
100
AcDbSymbolTableRecord
100
AcDbLayerTableRecord
  2
26
 70
     0
 62
    26
  6
CONTINUOUS
  0
LAYER
  5
54
330
2
100
AcDbSymbolTableRecord
100
AcDbLayerTableRecord
  2
27
 70
     0
 62
    27
  6
CONTINUOUS
  0
LAYER
  5
55
330
2
100
AcDbSymbolTableRecord
100
AcDbLayerTableRecord
  2
28
 70
     0
 62
    28
  6
CONTINUOUS
  0
LAYER
  5
56
330
2
100
AcDbSymbolTableRecord
100
AcDbLayerTableRecord
  2
29
 70
     0
 62
    29
  6
CONTINUOUS
  0
LAYER
  5
57
330
2
100
AcDbSymbolTableRecord
100
AcDbLayerTableRecord
  2
30
 70
     0
 62
    30
  6
CONTINUOUS
  0
LAYER
  5
58
330
2
100
AcDbSymbolTableRecord
100
AcDbLayerTableRecord
  2
31
 70
     0
 62
    31
  6
CONTINUOUS
  0
LAYER
  5
59
330
2
100
AcDbSymbolTableRecord
100
AcDbLayerTableRecord
  2
32
 70
     0
 62
    32
  6
CONTINUOUS
  0
LAYER
  5
5A
330
2
100
AcDbSymbolTableRecord
100
AcDbLayerTableRecord
  2
33
 70
     0
 62
    33
  6
CONTINUOUS
  0
LAYER
  5
5B
330
2
100
AcDbSymbolTableRecord
100
AcDbLayerTableRecord
  2
34
 70
     0
 62
    34
  6
CONTINUOUS
  0
LAYER
  5
5C
330
2
100
AcDbSymbolTableRecord
100
AcDbLayerTableRecord
  2
35
 70
     0
 62
    35
  6
CONTINUOUS
  0
LAYER
  5
5D
330
2
100
AcDbSymbolTableRecord
100
AcDbLayerTableRecord
  2
36
 70
     0
 62
    36
  6
CONTINUOUS
  0
LAYER
  5
5E
330
2
100
AcDbSymbolTableRecord
100
AcDbLayerTableRecord
  2
37
 70
     0
 62
    37
  6
CONTINUOUS
  0
LAYER
  5
5F
330
2
100
AcDbSymbolTableRecord
100
AcDbLayerTableRecord
  2
38
 70
     0
 62
    38
  6
CONTINUOUS
  0
LAYER
  5
60
330
2
100
AcDbSymbolTableRecord
100
AcDbLayerTableRecord
  2
39
 70
     0
 62
    39
  6
CONTINUOUS
  0
LAYER
  5
61
330
2
100
AcDbSymbolTableRecord
100
AcDbLayerTableRecord
  2
40
 70
     0
 62
    40
  6
CONTINUOUS
  0
LAYER
  5
62
330
2
100
AcDbSymbolTableRecord
100
AcDbLayerTableRecord
  2
41
 70
     0
 62
    41
  6
CONTINUOUS
  0
LAYER
  5
63
330
2
100
AcDbSymbolTableRecord
100
AcDbLayerTableRecord
  2
42
 70
     0
 62
    42
  6
CONTINUOUS
  0
LAYER
  5
64
330
2
100
AcDbSymbolTableRecord
100
AcDbLayerTableRecord
  2
43
 70
     0
 62
    43
  6
CONTINUOUS
  0
LAYER
  5
65
330
2
100
AcDbSymbolTableRecord
100
AcDbLayerTableRecord
  2
44
 70
     0
 62
    44
  6
CONTINUOUS
  0
LAYER
  5
66
330
2
100
AcDbSymbolTableRecord
100
AcDbLayerTableRecord
  2
45
 70
     0
 62
    45
  6
CONTINUOUS
  0
LAYER
  5
67
330
2
100
AcDbSymbolTableRecord
100
AcDbLayerTableRecord
  2
46
 70
     0
 62
    46
  6
CONTINUOUS
  0
LAYER
  5
68
330
2
100
AcDbSymbolTableRecord
100
AcDbLayerTableRecord
  2
47
 70
     0
 62
    47
  6
CONTINUOUS
  0
LAYER
  5
69
330
2
100
AcDbSymbolTableRecord
100
AcDbLayerTableRecord
  2
48
 70
     0
 62
    48
  6
CONTINUOUS
  0
LAYER
  5
6A
330
2
100
AcDbSymbolTableRecord
100
AcDbLayerTableRecord
  2
49
 70
     0
 62
    49
  6
CONTINUOUS
  0
LAYER
  5
6B
330
2
100
AcDbSymbolTableRecord
100
AcDbLayerTableRecord
  2
50
 70
     0
 62
    50
  6
CONTINUOUS
  0
LAYER
  5
6C
330
2
100
AcDbSymbolTableRecord
100
AcDbLayerTableRecord
  2
51
 70
     0
 62
    51
  6
CONTINUOUS
  0
LAYER
  5
6D
330
2
100
AcDbSymbolTableRecord
100
AcDbLayerTableRecord
  2
52
 70
     0
 62
    52
  6
CONTINUOUS
  0
LAYER
  5
6E
330
2
100
AcDbSymbolTableRecord
100
AcDbLayerTableRecord
  2
53
 70
     0
 62
    53
  6
CONTINUOUS
  0
LAYER
  5
6F
330
2
100
AcDbSymbolTableRecord
100
AcDbLayerTableRecord
  2
54
 70
     0
 62
    54
  6
CONTINUOUS
  0
LAYER
  5
70
330
2
100
AcDbSymbolTableRecord
100
AcDbLayerTableRecord
  2
55
 70
     0
 62
    55
  6
CONTINUOUS
  0
LAYER
  5
71
330
2
100
AcDbSymbolTableRecord
100
AcDbLayerTableRecord
  2
56
 70
     0
 62
    56
  6
CONTINUOUS
  0
LAYER
  5
72
330
2
100
AcDbSymbolTableRecord
100
AcDbLayerTableRecord
  2
57
 70
     0
 62
    57
  6
CONTINUOUS
  0
LAYER
  5
73
330
2
100
AcDbSymbolTableRecord
100
AcDbLayerTableRecord
  2
58
 70
     0
 62
    58
  6
CONTINUOUS
  0
LAYER
  5
74
330
2
100
AcDbSymbolTableRecord
100
AcDbLayerTableRecord
  2
59
 70
     0
 62
    59
  6
CONTINUOUS
  0
LAYER
  5
75
330
2
100
AcDbSymbolTableRecord
100
AcDbLayerTableRecord
  2
60
 70
     0
 62
    60
  6
CONTINUOUS
  0
LAYER
  5
76
330
2
100
AcDbSymbolTableRecord
100
AcDbLayerTableRecord
  2
61
 70
     0
 62
    61
  6
CONTINUOUS
  0
LAYER
  5
77
330
2
100
AcDbSymbolTableRecord
100
AcDbLayerTableRecord
  2
62
 70
     0
 62
    62
  6
CONTINUOUS
  0
LAYER
  5
78
330
2
100
AcDbSymbolTableRecord
100
AcDbLayerTableRecord
  2
63
 70
     0
 62
    63
  6
CONTINUOUS
  0
LAYER
  5
79
330
2
100
AcDbSymbolTableRecord
100
AcDbLayerTableRecord
  2
64
 70
     0
 62
    64
  6
CONTINUOUS
  0
LAYER
  5
7A
330
2
100
AcDbSymbolTableRecord
100
AcDbLayerTableRecord
  2
65
 70
     0
 62
    65
  6
CONTINUOUS
  0
LAYER
  5
7B
330
2
100
AcDbSymbolTableRecord
100
AcDbLayerTableRecord
  2
66
 70
     0
 62
    66
  6
CONTINUOUS
  0
LAYER
  5
7C
330
2
100
AcDbSymbolTableRecord
100
AcDbLayerTableRecord
  2
67
 70
     0
 62
    67
  6
CONTINUOUS
  0
LAYER
  5
7D
330
2
100
AcDbSymbolTableRecord
100
AcDbLayerTableRecord
  2
68
 70
     0
 62
    68
  6
CONTINUOUS
  0
LAYER
  5
7E
330
2
100
AcDbSymbolTableRecord
100
AcDbLayerTableRecord
  2
69
 70
     0
 62
    69
  6
CONTINUOUS
  0
LAYER
  5
7F
330
2
100
AcDbSymbolTableRecord
100
AcDbLayerTableRecord
  2
70
 70
     0
 62
    70
  6
CONTINUOUS
  0
LAYER
  5
80
330
2
100
AcDbSymbolTableRecord
100
AcDbLayerTableRecord
  2
71
 70
     0
 62
    71
  6
CONTINUOUS
  0
LAYER
  5
81
330
2
100
AcDbSymbolTableRecord
100
AcDbLayerTableRecord
  2
72
 70
     0
 62
    72
  6
CONTINUOUS
  0
LAYER
  5
82
330
2
100
AcDbSymbolTableRecord
100
AcDbLayerTableRecord
  2
73
 70
     0
 62
    73
  6
CONTINUOUS
  0
LAYER
  5
83
330
2
100
AcDbSymbolTableRecord
100
AcDbLayerTableRecord
  2
74
 70
     0
 62
    74
  6
CONTINUOUS
  0
LAYER
  5
84
330
2
100
AcDbSymbolTableRecord
100
AcDbLayerTableRecord
  2
75
 70
     0
 62
    75
  6
CONTINUOUS
  0
LAYER
  5
85
330
2
100
AcDbSymbolTableRecord
100
AcDbLayerTableRecord
  2
76
 70
     0
 62
    76
  6
CONTINUOUS
  0
LAYER
  5
86
330
2
100
AcDbSymbolTableRecord
100
AcDbLayerTableRecord
  2
77
 70
     0
 62
    77
  6
CONTINUOUS
  0
LAYER
  5
87
330
2
100
AcDbSymbolTableRecord
100
AcDbLayerTableRecord
  2
78
 70
     0
 62
    78
  6
CONTINUOUS
  0
LAYER
  5
88
330
2
100
AcDbSymbolTableRecord
100
AcDbLayerTableRecord
  2
79
 70
     0
 62
    79
  6
CONTINUOUS
  0
LAYER
  5
89
330
2
100
AcDbSymbolTableRecord
100
AcDbLayerTableRecord
  2
80
 70
     0
 62
    80
  6
CONTINUOUS
  0
LAYER
  5
8A
330
2
100
AcDbSymbolTableRecord
100
AcDbLayerTableRecord
  2
81
 70
     0
 62
    81
  6
CONTINUOUS
  0
LAYER
  5
8B
330
2
100
AcDbSymbolTableRecord
100
AcDbLayerTableRecord
  2
82
 70
     0
 62
    82
  6
CONTINUOUS
  0
LAYER
  5
8C
330
2
100
AcDbSymbolTableRecord
100
AcDbLayerTableRecord
  2
83
 70
     0
 62
    83
  6
CONTINUOUS
  0
LAYER
  5
8D
330
2
100
AcDbSymbolTableRecord
100
AcDbLayerTableRecord
  2
84
 70
     0
 62
    84
  6
CONTINUOUS
  0
LAYER
  5
8E
330
2
100
AcDbSymbolTableRecord
100
AcDbLayerTableRecord
  2
85
 70
     0
 62
    85
  6
CONTINUOUS
  0
LAYER
  5
8F
330
2
100
AcDbSymbolTableRecord
100
AcDbLayerTableRecord
  2
86
 70
     0
 62
    86
  6
CONTINUOUS
  0
LAYER
  5
90
330
2
100
AcDbSymbolTableRecord
100
AcDbLayerTableRecord
  2
87
 70
     0
 62
    87
  6
CONTINUOUS
  0
LAYER
  5
91
330
2
100
AcDbSymbolTableRecord
100
AcDbLayerTableRecord
  2
88
 70
     0
 62
    88
  6
CONTINUOUS
  0
LAYER
  5
92
330
2
100
AcDbSymbolTableRecord
100
AcDbLayerTableRecord
  2
89
 70
     0
 62
    89
  6
CONTINUOUS
  0
LAYER
  5
93
330
2
100
AcDbSymbolTableRecord
100
AcDbLayerTableRecord
  2
90
 70
     0
 62
    90
  6
CONTINUOUS
  0
LAYER
  5
94
330
2
100
AcDbSymbolTableRecord
100
AcDbLayerTableRecord
  2
91
 70
     0
 62
    91
  6
CONTINUOUS
  0
LAYER
  5
95
330
2
100
AcDbSymbolTableRecord
100
AcDbLayerTableRecord
  2
92
 70
     0
 62
    92
  6
CONTINUOUS
  0
LAYER
  5
96
330
2
100
AcDbSymbolTableRecord
100
AcDbLayerTableRecord
  2
93
 70
     0
 62
    93
  6
CONTINUOUS
  0
LAYER
  5
97
330
2
100
AcDbSymbolTableRecord
100
AcDbLayerTableRecord
  2
94
 70
     0
 62
    94
  6
CONTINUOUS
  0
LAYER
  5
98
330
2
100
AcDbSymbolTableRecord
100
AcDbLayerTableRecord
  2
95
 70
     0
 62
    95
  6
CONTINUOUS
  0
LAYER
  5
99
330
2
100
AcDbSymbolTableRecord
100
AcDbLayerTableRecord
  2
96
 70
     0
 62
    96
  6
CONTINUOUS
  0
LAYER
  5
9A
330
2
100
AcDbSymbolTableRecord
100
AcDbLayerTableRecord
  2
97
 70
     0
 62
    97
  6
CONTINUOUS
  0
LAYER
  5
9B
330
2
100
AcDbSymbolTableRecord
100
AcDbLayerTableRecord
  2
98
 70
     0
 62
    98
  6
CONTINUOUS
  0
LAYER
  5
9C
330
2
100
AcDbSymbolTableRecord
100
AcDbLayerTableRecord
  2
99
 70
     0
 62
    99
  6
CONTINUOUS
  0
LAYER
  5
9D
330
2
100
AcDbSymbolTableRecord
100
AcDbLayerTableRecord
  2
100
 70
     0
 62
   100
  6
CONTINUOUS
  0
LAYER
  5
9E
330
2
100
AcDbSymbolTableRecord
100
AcDbLayerTableRecord
  2
101
 70
     0
 62
   101
  6
CONTINUOUS
  0
LAYER
  5
9F
330
2
100
AcDbSymbolTableRecord
100
AcDbLayerTableRecord
  2
102
 70
     0
 62
   102
  6
CONTINUOUS
  0
LAYER
  5
A0
330
2
100
AcDbSymbolTableRecord
100
AcDbLayerTableRecord
  2
103
 70
     0
 62
   103
  6
CONTINUOUS
  0
LAYER
  5
A1
330
2
100
AcDbSymbolTableRecord
100
AcDbLayerTableRecord
  2
104
 70
     0
 62
   104
  6
CONTINUOUS
  0
LAYER
  5
A2
330
2
100
AcDbSymbolTableRecord
100
AcDbLayerTableRecord
  2
105
 70
     0
 62
   105
  6
CONTINUOUS
  0
LAYER
  5
A3
330
2
100
AcDbSymbolTableRecord
100
AcDbLayerTableRecord
  2
106
 70
     0
 62
   106
  6
CONTINUOUS
  0
LAYER
  5
A4
330
2
100
AcDbSymbolTableRecord
100
AcDbLayerTableRecord
  2
107
 70
     0
 62
   107
  6
CONTINUOUS
  0
LAYER
  5
A5
330
2
100
AcDbSymbolTableRecord
100
AcDbLayerTableRecord
  2
108
 70
     0
 62
   108
  6
CONTINUOUS
  0
LAYER
  5
A6
330
2
100
AcDbSymbolTableRecord
100
AcDbLayerTableRecord
  2
109
 70
     0
 62
   109
  6
CONTINUOUS
  0
LAYER
  5
A7
330
2
100
AcDbSymbolTableRecord
100
AcDbLayerTableRecord
  2
110
 70
     0
 62
   110
  6
CONTINUOUS
  0
LAYER
  5
A8
330
2
100
AcDbSymbolTableRecord
100
AcDbLayerTableRecord
  2
111
 70
     0
 62
   111
  6
CONTINUOUS
  0
LAYER
  5
A9
330
2
100
AcDbSymbolTableRecord
100
AcDbLayerTableRecord
  2
112
 70
     0
 62
   112
  6
CONTINUOUS
  0
LAYER
  5
AA
330
2
100
AcDbSymbolTableRecord
100
AcDbLayerTableRecord
  2
113
 70
     0
 62
   113
  6
CONTINUOUS
  0
LAYER
  5
AB
330
2
100
AcDbSymbolTableRecord
100
AcDbLayerTableRecord
  2
114
 70
     0
 62
   114
  6
CONTINUOUS
  0
LAYER
  5
AC
330
2
100
AcDbSymbolTableRecord
100
AcDbLayerTableRecord
  2
115
 70
     0
 62
   115
  6
CONTINUOUS
  0
LAYER
  5
AD
330
2
100
AcDbSymbolTableRecord
100
AcDbLayerTableRecord
  2
116
 70
     0
 62
   116
  6
CONTINUOUS
  0
LAYER
  5
AE
330
2
100
AcDbSymbolTableRecord
100
AcDbLayerTableRecord
  2
117
 70
     0
 62
   117
  6
CONTINUOUS
  0
LAYER
  5
AF
330
2
100
AcDbSymbolTableRecord
100
AcDbLayerTableRecord
  2
118
 70
     0
 62
   118
  6
CONTINUOUS
  0
LAYER
  5
B0
330
2
100
AcDbSymbolTableRecord
100
AcDbLayerTableRecord
  2
119
 70
     0
 62
   119
  6
CONTINUOUS
  0
LAYER
  5
B1
330
2
100
AcDbSymbolTableRecord
100
AcDbLayerTableRecord
  2
120
 70
     0
 62
   120
  6
CONTINUOUS
  0
LAYER
  5
B2
330
2
100
AcDbSymbolTableRecord
100
AcDbLayerTableRecord
  2
121
 70
     0
 62
   121
  6
CONTINUOUS
  0
LAYER
  5
B3
330
2
100
AcDbSymbolTableRecord
100
AcDbLayerTableRecord
  2
122
 70
     0
 62
   122
  6
CONTINUOUS
  0
LAYER
  5
B4
330
2
100
AcDbSymbolTableRecord
100
AcDbLayerTableRecord
  2
123
 70
     0
 62
   123
  6
CONTINUOUS
  0
LAYER
  5
B5
330
2
100
AcDbSymbolTableRecord
100
AcDbLayerTableRecord
  2
124
 70
     0
 62
   124
  6
CONTINUOUS
  0
LAYER
  5
B6
330
2
100
AcDbSymbolTableRecord
100
AcDbLayerTableRecord
  2
125
 70
     0
 62
   125
  6
CONTINUOUS
  0
LAYER
  5
B7
330
2
100
AcDbSymbolTableRecord
100
AcDbLayerTableRecord
  2
126
 70
     0
 62
   126
  6
CONTINUOUS
  0
LAYER
  5
B8
330
2
100
AcDbSymbolTableRecord
100
AcDbLayerTableRecord
  2
127
 70
     0
 62
   127
  6
CONTINUOUS
  0
LAYER
  5
B9
330
2
100
AcDbSymbolTableRecord
100
AcDbLayerTableRecord
  2
128
 70
     0
 62
   128
  6
CONTINUOUS
  0
LAYER
  5
BA
330
2
100
AcDbSymbolTableRecord
100
AcDbLayerTableRecord
  2
129
 70
     0
 62
   129
  6
CONTINUOUS
  0
LAYER
  5
BB
330
2
100
AcDbSymbolTableRecord
100
AcDbLayerTableRecord
  2
130
 70
     0
 62
   130
  6
CONTINUOUS
  0
LAYER
  5
BC
330
2
100
AcDbSymbolTableRecord
100
AcDbLayerTableRecord
  2
131
 70
     0
 62
   131
  6
CONTINUOUS
  0
LAYER
  5
BD
330
2
100
AcDbSymbolTableRecord
100
AcDbLayerTableRecord
  2
132
 70
     0
 62
   132
  6
CONTINUOUS
  0
LAYER
  5
BE
330
2
100
AcDbSymbolTableRecord
100
AcDbLayerTableRecord
  2
133
 70
     0
 62
   133
  6
CONTINUOUS
  0
LAYER
  5
BF
330
2
100
AcDbSymbolTableRecord
100
AcDbLayerTableRecord
  2
134
 70
     0
 62
   134
  6
CONTINUOUS
  0
LAYER
  5
C0
330
2
100
AcDbSymbolTableRecord
100
AcDbLayerTableRecord
  2
135
 70
     0
 62
   135
  6
CONTINUOUS
  0
LAYER
  5
C1
330
2
100
AcDbSymbolTableRecord
100
AcDbLayerTableRecord
  2
136
 70
     0
 62
   136
  6
CONTINUOUS
  0
LAYER
  5
C2
330
2
100
AcDbSymbolTableRecord
100
AcDbLayerTableRecord
  2
137
 70
     0
 62
   137
  6
CONTINUOUS
  0
LAYER
  5
C3
330
2
100
AcDbSymbolTableRecord
100
AcDbLayerTableRecord
  2
138
 70
     0
 62
   138
  6
CONTINUOUS
  0
LAYER
  5
C4
330
2
100
AcDbSymbolTableRecord
100
AcDbLayerTableRecord
  2
139
 70
     0
 62
   139
  6
CONTINUOUS
  0
LAYER
  5
C5
330
2
100
AcDbSymbolTableRecord
100
AcDbLayerTableRecord
  2
140
 70
     0
 62
   140
  6
CONTINUOUS
  0
LAYER
  5
C6
330
2
100
AcDbSymbolTableRecord
100
AcDbLayerTableRecord
  2
141
 70
     0
 62
   141
  6
CONTINUOUS
  0
LAYER
  5
C7
330
2
100
AcDbSymbolTableRecord
100
AcDbLayerTableRecord
  2
142
 70
     0
 62
   142
  6
CONTINUOUS
  0
LAYER
  5
C8
330
2
100
AcDbSymbolTableRecord
100
AcDbLayerTableRecord
  2
143
 70
     0
 62
   143
  6
CONTINUOUS
  0
LAYER
  5
C9
330
2
100
AcDbSymbolTableRecord
100
AcDbLayerTableRecord
  2
144
 70
     0
 62
   144
  6
CONTINUOUS
  0
LAYER
  5
CA
330
2
100
AcDbSymbolTableRecord
100
AcDbLayerTableRecord
  2
145
 70
     0
 62
   145
  6
CONTINUOUS
  0
LAYER
  5
CB
330
2
100
AcDbSymbolTableRecord
100
AcDbLayerTableRecord
  2
146
 70
     0
 62
   146
  6
CONTINUOUS
  0
LAYER
  5
CC
330
2
100
AcDbSymbolTableRecord
100
AcDbLayerTableRecord
  2
147
 70
     0
 62
   147
  6
CONTINUOUS
  0
LAYER
  5
CD
330
2
100
AcDbSymbolTableRecord
100
AcDbLayerTableRecord
  2
148
 70
     0
 62
   148
  6
CONTINUOUS
  0
LAYER
  5
CE
330
2
100
AcDbSymbolTableRecord
100
AcDbLayerTableRecord
  2
149
 70
     0
 62
   149
  6
CONTINUOUS
  0
LAYER
  5
CF
330
2
100
AcDbSymbolTableRecord
100
AcDbLayerTableRecord
  2
150
 70
     0
 62
   150
  6
CONTINUOUS
  0
LAYER
  5
D0
330
2
100
AcDbSymbolTableRecord
100
AcDbLayerTableRecord
  2
151
 70
     0
 62
   151
  6
CONTINUOUS
  0
LAYER
  5
D1
330
2
100
AcDbSymbolTableRecord
100
AcDbLayerTableRecord
  2
152
 70
     0
 62
   152
  6
CONTINUOUS
  0
LAYER
  5
D2
330
2
100
AcDbSymbolTableRecord
100
AcDbLayerTableRecord
  2
153
 70
     0
 62
   153
  6
CONTINUOUS
  0
LAYER
  5
D3
330
2
100
AcDbSymbolTableRecord
100
AcDbLayerTableRecord
  2
154
 70
     0
 62
   154
  6
CONTINUOUS
  0
LAYER
  5
D4
330
2
100
AcDbSymbolTableRecord
100
AcDbLayerTableRecord
  2
155
 70
     0
 62
   155
  6
CONTINUOUS
  0
LAYER
  5
D5
330
2
100
AcDbSymbolTableRecord
100
AcDbLayerTableRecord
  2
156
 70
     0
 62
   156
  6
CONTINUOUS
  0
LAYER
  5
D6
330
2
100
AcDbSymbolTableRecord
100
AcDbLayerTableRecord
  2
157
 70
     0
 62
   157
  6
CONTINUOUS
  0
LAYER
  5
D7
330
2
100
AcDbSymbolTableRecord
100
AcDbLayerTableRecord
  2
158
 70
     0
 62
   158
  6
CONTINUOUS
  0
LAYER
  5
D8
330
2
100
AcDbSymbolTableRecord
100
AcDbLayerTableRecord
  2
159
 70
     0
 62
   159
  6
CONTINUOUS
  0
LAYER
  5
D9
330
2
100
AcDbSymbolTableRecord
100
AcDbLayerTableRecord
  2
160
 70
     0
 62
   160
  6
CONTINUOUS
  0
LAYER
  5
DA
330
2
100
AcDbSymbolTableRecord
100
AcDbLayerTableRecord
  2
161
 70
     0
 62
   161
  6
CONTINUOUS
  0
LAYER
  5
DB
330
2
100
AcDbSymbolTableRecord
100
AcDbLayerTableRecord
  2
162
 70
     0
 62
   162
  6
CONTINUOUS
  0
LAYER
  5
DC
330
2
100
AcDbSymbolTableRecord
100
AcDbLayerTableRecord
  2
163
 70
     0
 62
   163
  6
CONTINUOUS
  0
LAYER
  5
DD
330
2
100
AcDbSymbolTableRecord
100
AcDbLayerTableRecord
  2
164
 70
     0
 62
   164
  6
CONTINUOUS
  0
LAYER
  5
DE
330
2
100
AcDbSymbolTableRecord
100
AcDbLayerTableRecord
  2
165
 70
     0
 62
   165
  6
CONTINUOUS
  0
LAYER
  5
DF
330
2
100
AcDbSymbolTableRecord
100
AcDbLayerTableRecord
  2
166
 70
     0
 62
   166
  6
CONTINUOUS
  0
LAYER
  5
E0
330
2
100
AcDbSymbolTableRecord
100
AcDbLayerTableRecord
  2
167
 70
     0
 62
   167
  6
CONTINUOUS
  0
LAYER
  5
E1
330
2
100
AcDbSymbolTableRecord
100
AcDbLayerTableRecord
  2
168
 70
     0
 62
   168
  6
CONTINUOUS
  0
LAYER
  5
E2
330
2
100
AcDbSymbolTableRecord
100
AcDbLayerTableRecord
  2
169
 70
     0
 62
   169
  6
CONTINUOUS
  0
LAYER
  5
E3
330
2
100
AcDbSymbolTableRecord
100
AcDbLayerTableRecord
  2
170
 70
     0
 62
   170
  6
CONTINUOUS
  0
LAYER
  5
E4
330
2
100
AcDbSymbolTableRecord
100
AcDbLayerTableRecord
  2
171
 70
     0
 62
   171
  6
CONTINUOUS
  0
LAYER
  5
E5
330
2
100
AcDbSymbolTableRecord
100
AcDbLayerTableRecord
  2
172
 70
     0
 62
   172
  6
CONTINUOUS
  0
LAYER
  5
E6
330
2
100
AcDbSymbolTableRecord
100
AcDbLayerTableRecord
  2
173
 70
     0
 62
   173
  6
CONTINUOUS
  0
LAYER
  5
E7
330
2
100
AcDbSymbolTableRecord
100
AcDbLayerTableRecord
  2
174
 70
     0
 62
   174
  6
CONTINUOUS
  0
LAYER
  5
E8
330
2
100
AcDbSymbolTableRecord
100
AcDbLayerTableRecord
  2
175
 70
     0
 62
   175
  6
CONTINUOUS
  0
LAYER
  5
E9
330
2
100
AcDbSymbolTableRecord
100
AcDbLayerTableRecord
  2
176
 70
     0
 62
   176
  6
CONTINUOUS
  0
LAYER
  5
EA
330
2
100
AcDbSymbolTableRecord
100
AcDbLayerTableRecord
  2
177
 70
     0
 62
   177
  6
CONTINUOUS
  0
LAYER
  5
EB
330
2
100
AcDbSymbolTableRecord
100
AcDbLayerTableRecord
  2
178
 70
     0
 62
   178
  6
CONTINUOUS
  0
LAYER
  5
EC
330
2
100
AcDbSymbolTableRecord
100
AcDbLayerTableRecord
  2
179
 70
     0
 62
   179
  6
CONTINUOUS
  0
LAYER
  5
ED
330
2
100
AcDbSymbolTableRecord
100
AcDbLayerTableRecord
  2
180
 70
     0
 62
   180
  6
CONTINUOUS
  0
LAYER
  5
EE
330
2
100
AcDbSymbolTableRecord
100
AcDbLayerTableRecord
  2
181
 70
     0
 62
   181
  6
CONTINUOUS
  0
LAYER
  5
EF
330
2
100
AcDbSymbolTableRecord
100
AcDbLayerTableRecord
  2
182
 70
     0
 62
   182
  6
CONTINUOUS
  0
LAYER
  5
F0
330
2
100
AcDbSymbolTableRecord
100
AcDbLayerTableRecord
  2
183
 70
     0
 62
   183
  6
CONTINUOUS
  0
LAYER
  5
F1
330
2
100
AcDbSymbolTableRecord
100
AcDbLayerTableRecord
  2
184
 70
     0
 62
   184
  6
CONTINUOUS
  0
LAYER
  5
F2
330
2
100
AcDbSymbolTableRecord
100
AcDbLayerTableRecord
  2
185
 70
     0
 62
   185
  6
CONTINUOUS
  0
LAYER
  5
F3
330
2
100
AcDbSymbolTableRecord
100
AcDbLayerTableRecord
  2
186
 70
     0
 62
   186
  6
CONTINUOUS
  0
LAYER
  5
F4
330
2
100
AcDbSymbolTableRecord
100
AcDbLayerTableRecord
  2
187
 70
     0
 62
   187
  6
CONTINUOUS
  0
LAYER
  5
F5
330
2
100
AcDbSymbolTableRecord
100
AcDbLayerTableRecord
  2
188
 70
     0
 62
   188
  6
CONTINUOUS
  0
LAYER
  5
F6
330
2
100
AcDbSymbolTableRecord
100
AcDbLayerTableRecord
  2
189
 70
     0
 62
   189
  6
CONTINUOUS
  0
LAYER
  5
F7
330
2
100
AcDbSymbolTableRecord
100
AcDbLayerTableRecord
  2
190
 70
     0
 62
   190
  6
CONTINUOUS
  0
LAYER
  5
F8
330
2
100
AcDbSymbolTableRecord
100
AcDbLayerTableRecord
  2
191
 70
     0
 62
   191
  6
CONTINUOUS
  0
LAYER
  5
F9
330
2
100
AcDbSymbolTableRecord
100
AcDbLayerTableRecord
  2
192
 70
     0
 62
   192
  6
CONTINUOUS
  0
LAYER
  5
FA
330
2
100
AcDbSymbolTableRecord
100
AcDbLayerTableRecord
  2
193
 70
     0
 62
   193
  6
CONTINUOUS
  0
LAYER
  5
FB
330
2
100
AcDbSymbolTableRecord
100
AcDbLayerTableRecord
  2
194
 70
     0
 62
   194
  6
CONTINUOUS
  0
LAYER
  5
FC
330
2
100
AcDbSymbolTableRecord
100
AcDbLayerTableRecord
  2
195
 70
     0
 62
   195
  6
CONTINUOUS
  0
LAYER
  5
FD
330
2
100
AcDbSymbolTableRecord
100
AcDbLayerTableRecord
  2
196
 70
     0
 62
   196
  6
CONTINUOUS
  0
LAYER
  5
FE
330
2
100
AcDbSymbolTableRecord
100
AcDbLayerTableRecord
  2
197
 70
     0
 62
   197
  6
CONTINUOUS
  0
LAYER
  5
FF
330
2
100
AcDbSymbolTableRecord
100
AcDbLayerTableRecord
  2
198
 70
     0
 62
   198
  6
CONTINUOUS
  0
LAYER
  5
100
330
2
100
AcDbSymbolTableRecord
100
AcDbLayerTableRecord
  2
199
 70
     0
 62
   199
  6
CONTINUOUS
  0
LAYER
  5
101
330
2
100
AcDbSymbolTableRecord
100
AcDbLayerTableRecord
  2
200
 70
     0
 62
   200
  6
CONTINUOUS
  0
LAYER
  5
102
330
2
100
AcDbSymbolTableRecord
100
AcDbLayerTableRecord
  2
201
 70
     0
 62
   201
  6
CONTINUOUS
  0
LAYER
  5
103
330
2
100
AcDbSymbolTableRecord
100
AcDbLayerTableRecord
  2
202
 70
     0
 62
   202
  6
CONTINUOUS
  0
LAYER
  5
104
330
2
100
AcDbSymbolTableRecord
100
AcDbLayerTableRecord
  2
203
 70
     0
 62
   203
  6
CONTINUOUS
  0
LAYER
  5
105
330
2
100
AcDbSymbolTableRecord
100
AcDbLayerTableRecord
  2
204
 70
     0
 62
   204
  6
CONTINUOUS
  0
LAYER
  5
106
330
2
100
AcDbSymbolTableRecord
100
AcDbLayerTableRecord
  2
205
 70
     0
 62
   205
  6
CONTINUOUS
  0
LAYER
  5
107
330
2
100
AcDbSymbolTableRecord
100
AcDbLayerTableRecord
  2
206
 70
     0
 62
   206
  6
CONTINUOUS
  0
LAYER
  5
108
330
2
100
AcDbSymbolTableRecord
100
AcDbLayerTableRecord
  2
207
 70
     0
 62
   207
  6
CONTINUOUS
  0
LAYER
  5
109
330
2
100
AcDbSymbolTableRecord
100
AcDbLayerTableRecord
  2
208
 70
     0
 62
   208
  6
CONTINUOUS
  0
LAYER
  5
10A
330
2
100
AcDbSymbolTableRecord
100
AcDbLayerTableRecord
  2
209
 70
     0
 62
   209
  6
CONTINUOUS
  0
LAYER
  5
10B
330
2
100
AcDbSymbolTableRecord
100
AcDbLayerTableRecord
  2
210
 70
     0
 62
   210
  6
CONTINUOUS
  0
LAYER
  5
10C
330
2
100
AcDbSymbolTableRecord
100
AcDbLayerTableRecord
  2
211
 70
     0
 62
   211
  6
CONTINUOUS
  0
LAYER
  5
10D
330
2
100
AcDbSymbolTableRecord
100
AcDbLayerTableRecord
  2
212
 70
     0
 62
   212
  6
CONTINUOUS
  0
LAYER
  5
10E
330
2
100
AcDbSymbolTableRecord
100
AcDbLayerTableRecord
  2
213
 70
     0
 62
   213
  6
CONTINUOUS
  0
LAYER
  5
10F
330
2
100
AcDbSymbolTableRecord
100
AcDbLayerTableRecord
  2
214
 70
     0
 62
   214
  6
CONTINUOUS
  0
LAYER
  5
110
330
2
100
AcDbSymbolTableRecord
100
AcDbLayerTableRecord
  2
215
 70
     0
 62
   215
  6
CONTINUOUS
  0
LAYER
  5
111
330
2
100
AcDbSymbolTableRecord
100
AcDbLayerTableRecord
  2
216
 70
     0
 62
   216
  6
CONTINUOUS
  0
LAYER
  5
112
330
2
100
AcDbSymbolTableRecord
100
AcDbLayerTableRecord
  2
217
 70
     0
 62
   217
  6
CONTINUOUS
  0
LAYER
  5
113
330
2
100
AcDbSymbolTableRecord
100
AcDbLayerTableRecord
  2
218
 70
     0
 62
   218
  6
CONTINUOUS
  0
LAYER
  5
114
330
2
100
AcDbSymbolTableRecord
100
AcDbLayerTableRecord
  2
219
 70
     0
 62
   219
  6
CONTINUOUS
  0
LAYER
  5
115
330
2
100
AcDbSymbolTableRecord
100
AcDbLayerTableRecord
  2
220
 70
     0
 62
   220
  6
CONTINUOUS
  0
LAYER
  5
116
330
2
100
AcDbSymbolTableRecord
100
AcDbLayerTableRecord
  2
221
 70
     0
 62
   221
  6
CONTINUOUS
  0
LAYER
  5
117
330
2
100
AcDbSymbolTableRecord
100
AcDbLayerTableRecord
  2
222
 70
     0
 62
   222
  6
CONTINUOUS
  0
LAYER
  5
118
330
2
100
AcDbSymbolTableRecord
100
AcDbLayerTableRecord
  2
223
 70
     0
 62
   223
  6
CONTINUOUS
  0
LAYER
  5
119
330
2
100
AcDbSymbolTableRecord
100
AcDbLayerTableRecord
  2
224
 70
     0
 62
   224
  6
CONTINUOUS
  0
LAYER
  5
11A
330
2
100
AcDbSymbolTableRecord
100
AcDbLayerTableRecord
  2
225
 70
     0
 62
   225
  6
CONTINUOUS
  0
LAYER
  5
11B
330
2
100
AcDbSymbolTableRecord
100
AcDbLayerTableRecord
  2
226
 70
     0
 62
   226
  6
CONTINUOUS
  0
LAYER
  5
11C
330
2
100
AcDbSymbolTableRecord
100
AcDbLayerTableRecord
  2
227
 70
     0
 62
   227
  6
CONTINUOUS
  0
LAYER
  5
11D
330
2
100
AcDbSymbolTableRecord
100
AcDbLayerTableRecord
  2
228
 70
     0
 62
   228
  6
CONTINUOUS
  0
LAYER
  5
11E
330
2
100
AcDbSymbolTableRecord
100
AcDbLayerTableRecord
  2
229
 70
     0
 62
   229
  6
CONTINUOUS
  0
LAYER
  5
11F
330
2
100
AcDbSymbolTableRecord
100
AcDbLayerTableRecord
  2
230
 70
     0
 62
   230
  6
CONTINUOUS
  0
LAYER
  5
120
330
2
100
AcDbSymbolTableRecord
100
AcDbLayerTableRecord
  2
231
 70
     0
 62
   231
  6
CONTINUOUS
  0
LAYER
  5
121
330
2
100
AcDbSymbolTableRecord
100
AcDbLayerTableRecord
  2
232
 70
     0
 62
   232
  6
CONTINUOUS
  0
LAYER
  5
122
330
2
100
AcDbSymbolTableRecord
100
AcDbLayerTableRecord
  2
233
 70
     0
 62
   233
  6
CONTINUOUS
  0
LAYER
  5
123
330
2
100
AcDbSymbolTableRecord
100
AcDbLayerTableRecord
  2
234
 70
     0
 62
   234
  6
CONTINUOUS
  0
LAYER
  5
124
330
2
100
AcDbSymbolTableRecord
100
AcDbLayerTableRecord
  2
235
 70
     0
 62
   235
  6
CONTINUOUS
  0
LAYER
  5
125
330
2
100
AcDbSymbolTableRecord
100
AcDbLayerTableRecord
  2
236
 70
     0
 62
   236
  6
CONTINUOUS
  0
LAYER
  5
126
330
2
100
AcDbSymbolTableRecord
100
AcDbLayerTableRecord
  2
237
 70
     0
 62
   237
  6
CONTINUOUS
  0
LAYER
  5
127
330
2
100
AcDbSymbolTableRecord
100
AcDbLayerTableRecord
  2
238
 70
     0
 62
   238
  6
CONTINUOUS
  0
LAYER
  5
128
330
2
100
AcDbSymbolTableRecord
100
AcDbLayerTableRecord
  2
239
 70
     0
 62
   239
  6
CONTINUOUS
  0
LAYER
  5
129
330
2
100
AcDbSymbolTableRecord
100
AcDbLayerTableRecord
  2
240
 70
     0
 62
   240
  6
CONTINUOUS
  0
LAYER
  5
12A
330
2
100
AcDbSymbolTableRecord
100
AcDbLayerTableRecord
  2
241
 70
     0
 62
   241
  6
CONTINUOUS
  0
LAYER
  5
12B
330
2
100
AcDbSymbolTableRecord
100
AcDbLayerTableRecord
  2
242
 70
     0
 62
   242
  6
CONTINUOUS
  0
LAYER
  5
12C
330
2
100
AcDbSymbolTableRecord
100
AcDbLayerTableRecord
  2
243
 70
     0
 62
   243
  6
CONTINUOUS
  0
LAYER
  5
12D
330
2
100
AcDbSymbolTableRecord
100
AcDbLayerTableRecord
  2
244
 70
     0
 62
   244
  6
CONTINUOUS
  0
LAYER
  5
12E
330
2
100
AcDbSymbolTableRecord
100
AcDbLayerTableRecord
  2
245
 70
     0
 62
   245
  6
CONTINUOUS
  0
LAYER
  5
12F
330
2
100
AcDbSymbolTableRecord
100
AcDbLayerTableRecord
  2
246
 70
     0
 62
   246
  6
CONTINUOUS
  0
LAYER
  5
130
330
2
100
AcDbSymbolTableRecord
100
AcDbLayerTableRecord
  2
247
 70
     0
 62
   247
  6
CONTINUOUS
  0
LAYER
  5
131
330
2
100
AcDbSymbolTableRecord
100
AcDbLayerTableRecord
  2
248
 70
     0
 62
   248
  6
CONTINUOUS
  0
LAYER
  5
132
330
2
100
AcDbSymbolTableRecord
100
AcDbLayerTableRecord
  2
249
 70
     0
 62
   249
  6
CONTINUOUS
  0
LAYER
  5
133
330
2
100
AcDbSymbolTableRecord
100
AcDbLayerTableRecord
  2
250
 70
     0
 62
   250
  6
CONTINUOUS
  0
LAYER
  5
134
330
2
100
AcDbSymbolTableRecord
100
AcDbLayerTableRecord
  2
251
 70
     0
 62
   251
  6
CONTINUOUS
  0
LAYER
  5
135
330
2
100
AcDbSymbolTableRecord
100
AcDbLayerTableRecord
  2
252
 70
     0
 62
   252
  6
CONTINUOUS
  0
LAYER
  5
136
330
2
100
AcDbSymbolTableRecord
100
AcDbLayerTableRecord
  2
253
 70
     0
 62
   253
  6
CONTINUOUS
  0
LAYER
  5
137
330
2
100
AcDbSymbolTableRecord
100
AcDbLayerTableRecord
  2
254
 70
     0
 62
   254
  6
CONTINUOUS
  0
LAYER
  5
138
330
2
100
AcDbSymbolTableRecord
100
AcDbLayerTableRecord
  2
255
 70
     0
 62
   255
  6
CONTINUOUS
  0
LAYER
  5
2707
330
2
100
AcDbSymbolTableRecord
100
AcDbLayerTableRecord
  2
DEFPOINTS
 70
     0
 62
     7
  6
CONTINUOUS
  0
ENDTAB
  0
TABLE
  2
STYLE
  5
3
330
0
100
AcDbSymbolTable
 70
     1
  0
STYLE
  5
11
330
3
100
AcDbSymbolTableRecord
100
AcDbTextStyleTableRecord
  2
STANDARD
 70
     0
 40
0.0
 41
1.0
 50
0.0
 71
     0
 42
0.2
  3
txt
  4

  0
ENDTAB
  0
TABLE
  2
VIEW
  5
6
330
0
100
AcDbSymbolTable
 70
     0
  0
ENDTAB
  0
TABLE
  2
UCS
  5
7
330
0
100
AcDbSymbolTable
 70
     0
  0
ENDTAB
  0
TABLE
  2
APPID
  5
9
330
0
100
AcDbSymbolTable
 70
     1
  0
APPID
  5
12
330
9
100
AcDbSymbolTableRecord
100
AcDbRegAppTableRecord
  2
ACAD
 70
     0
  0
ENDTAB
  0
TABLE
  2
DIMSTYLE
  5
A
330
0
100
AcDbSymbolTable
 70
     1
  0
DIMSTYLE
105
2703
102
{ACAD_REACTORS
330
2706
102
}
330
A
100
AcDbSymbolTableRecord
100
AcDbDimStyleTableRecord
  2
STANDARD
 70
     0
  3

  4

  5

  6

  7

 40
1.0
 41
0.18
 42
0.0625
 43
0.38
 44
0.18
 45
0.0
 46
0.0
 47
0.0
 48
0.0
140
0.18
141
0.09
142
0.0
143
25.4
144
1.0
145
0.0
146
1.0
147
0.09
 71
     0
 72
     0
 73
     1
 74
     1
 75
     0
 76
     0
 77
     0
 78
     0
170
     0
171
     2
172
     0
173
     0
174
     0
175
     0
176
     0
177
     0
178
     0
270
     2
271
     4
272
     4
273
     2
274
     2
340
11
275
     0
280
     0
281
     0
282
     0
283
     1
284
     0
285
     0
286
     0
287
     3
288
     0
  0
ENDTAB
  0
TABLE
  2
BLOCK_RECORD
  5
1
330
0
100
AcDbSymbolTable
 70
     1
  0
BLOCK_RECORD
  5
1E
102
{ACAD_XDICTIONARY
360
2723
102
}
330
1
100
AcDbSymbolTableRecord
100
AcDbBlockTableRecord
  2
*MODEL_SPACE
  0
BLOCK_RECORD
  5
1A
102
{ACAD_XDICTIONARY
360
2721
102
}
330
1
100
AcDbSymbolTableRecord
100
AcDbBlockTableRecord
  2
*PAPER_SPACE
  0
BLOCK_RECORD
  5
2708
330
1
100
AcDbSymbolTableRecord
100
AcDbBlockTableRecord
  2
*D0
  0
ENDTAB
  0
ENDSEC
  0
SECTION
  2
BLOCKS
  0
BLOCK
  5
13B
330
1E
100
AcDbEntity
  8
0
100
AcDbBlockBegin
  2
*MODEL_SPACE
 70
     0
 10
0.0
 20
0.0
 30
0.0
  3
*MODEL_SPACE
  1

  0
ENDBLK
  5
13C
330
1E
100
AcDbEntity
  8
0
100
AcDbBlockEnd
  0
BLOCK
  5
139
330
1A
100
AcDbEntity
 67
     1
  8
0
100
AcDbBlockBegin
  2
*PAPER_SPACE
 70
     0
 10
0.0
 20
0.0
 30
0.0
  3
*PAPER_SPACE
  1

  0
ENDBLK
  5
13A
330
1A
100
AcDbEntity
 67
     1
  8
0
100
AcDbBlockEnd
  0
BLOCK
  5
2713
330
2708
100
AcDbEntity
  8
0
100
AcDbBlockBegin
  2
*D0
 70
     1
 10
0.0
 20
0.0
 30
0.0
  3
*D0
  1

  0
LINE
  5
2715
330
2708
100
AcDbEntity
  8
0
 62
     0
100
AcDbLine
 10
-0.309717880093269
 20
7.299897216886975
 30
0.0
 11
-1.164232499747066
 21
7.299897216886975
 31
0.0
  0
LINE
  5
2716
330
2708
100
AcDbEntity
  8
0
 62
     0
100
AcDbLine
 10
-0.309717880093269
 20
4.544680681453903
 30
0.0
 11
-1.164232499747066
 21
4.544680681453903
 31
0.0
  0
LINE
  5
2717
330
2708
100
AcDbEntity
  8
0
 62
     0
100
AcDbLine
 10
-0.9842324997470665
 20
7.119897216886975
 30
0.0
 11
-0.9842324997470667
 21
6.102288949170439
 31
0.0
  0
LINE
  5
2718
330
2708
100
AcDbEntity
  8
0
 62
     0
100
AcDbLine
 10
-0.9842324997470671
 20
4.724680681453903
 30
0.0
 11
-0.9842324997470669
 21
5.74228894917044
 31
0.0
  0
SOLID
  5
2719
330
2708
100
AcDbEntity
  8
0
 62
     0
100
AcDbTrace
 10
-1.014232499747066
 20
7.119897216886975
 30
0.0
 11
-0.9542324997470664
 21
7.119897216886975
 31
0.0
 12
-0.9842324997470663
 22
7.299897216886975
 32
0.0
 13
-0.9842324997470663
 23
7.299897216886975
 33
0.0
  0
SOLID
  5
271A
330
2708
100
AcDbEntity
  8
0
 62
     0
100
AcDbTrace
 10
-1.014232499747066
 20
4.724680681453903
 30
0.0
 11
-0.954232499747067
 21
4.724680681453903
 31
0.0
 12
-0.9842324997470671
 22
4.544680681453903
 32
0.0
 13
-0.9842324997470671
 23
4.544680681453903
 33
0.0
  0
MTEXT
  5
271B
330
2708
100
AcDbEntity
  8
0
 62
     0
100
AcDbMText
 10
-0.9842324997470676
 20
5.92228894917044
 30
0.0
 40
0.18
 41
0.0
 71
     5
 72
     1
  1
\A1;2.7552
1001
ACAD
1000
MTEXTBEGIN
1070
    73
1070
     1
1070
    44
1040
1.0
1070
    74
1070
     0
1000
MTEXTEND
  0
POINT
  5
271C
330
2708
100
AcDbEntity
  8
DEFPOINTS
 62
     0
100
AcDbPoint
 10
-0.247217880093269
 20
7.299897216886975
 30
0.0
  0
POINT
  5
271D
330
2708
100
AcDbEntity
  8
DEFPOINTS
 62
     0
100
AcDbPoint
 10
-0.247217880093269
 20
4.544680681453903
 30
0.0
  0
POINT
  5
271E
330
2708
100
AcDbEntity
  8
DEFPOINTS
 62
     0
100
AcDbPoint
 10
-0.9842324997470671
 20
4.544680681453903
 30
0.0
  0
ENDBLK
  5
2714
330
2708
100
AcDbEntity
  8
0
100
AcDbBlockEnd
  0
ENDSEC
  0
SECTION
  2
ENTITIES
  0
LINE
  5
230B
330
1E
100
AcDbEntity
  8
0
100
AcDbLine
 10
3.385731923056337
 20
5.745167886178313
 30
0.0
 11
3.341123655339802
 21
5.745167886178313
 31
0.0
  0
LINE
  5
230C
330
1E
100
AcDbEntity
  8
0
100
AcDbLine
 10
3.385731923056337
 20
6.10072202003658
 30
0.0
 11
3.385731923056337
 21
5.745167886178313
 31
0.0
  0
LINE
  5
230D
330
1E
100
AcDbEntity
  8
0
100
AcDbLine
 10
3.385731923056337
 20
6.10072202003658
 30
0.0
 11
3.341123655339802
 21
6.10072202003658
 31
0.0
  0
LINE
  5
230E
330
1E
100
AcDbEntity
  8
0
100
AcDbLine
 10
3.341123655339802
 20
6.10072202003658
 30
0.0
 11
3.341123655339802
 21
6.591412964918471
 31
0.0
  0
LINE
  5
230F
330
1E
100
AcDbEntity
  8
0
100
AcDbLine
 10
1.895290978174447
 20
6.591412964918471
 30
0.0
 11
3.341123655339802
 21
6.591412964918471
 31
0.0
  0
LINE
  5
2310
330
1E
100
AcDbEntity
  8
0
100
AcDbLine
 10
1.895290978174447
 20
6.10072202003658
 30
0.0
 11
1.895290978174447
 21
6.591412964918471
 31
0.0
  0
LINE
  5
2311
330
1E
100
AcDbEntity
  8
0
100
AcDbLine
 10
1.850682710457912
 20
6.10072202003658
 30
0.0
 11
1.895290978174447
 21
6.10072202003658
 31
0.0
  0
LINE
  5
2312
330
1E
100
AcDbEntity
  8
0
100
AcDbLine
 10
1.850682710457912
 20
6.10072202003658
 30
0.0
 11
1.850682710457912
 21
5.745167886178313
 31
0.0
  0
LINE
  5
2313
330
1E
100
AcDbEntity
  8
0
100
AcDbLine
 10
1.850682710457912
 20
5.745167886178313
 30
0.0
 11
1.895290978174447
 21
5.745167886178313
 31
0.0
  0
LINE
  5
2314
330
1E
100
AcDbEntity
  8
0
100
AcDbLine
 10
1.895290978174447
 20
5.254476941296424
 30
0.0
 11
1.895290978174447
 21
5.745167886178313
 31
0.0
  0
LINE
  5
2315
330
1E
100
AcDbEntity
  8
0
100
AcDbLine
 10
1.895290978174447
 20
5.254476941296424
 30
0.0
 11
3.341123655339802
 21
5.254476941296424
 31
0.0
  0
LINE
  5
2316
330
1E
100
AcDbEntity
  8
0
100
AcDbLine
 10
3.341123655339802
 20
5.254476941296424
 30
0.0
 11
3.341123655339802
 21
5.745167886178313
 31
0.0
  0
LINE
  5
2317
330
1E
100
AcDbEntity
  8
0
100
AcDbLine
 10
3.408036056914605
 20
6.020689539721621
 30
0.0
 11
3.408036056914605
 21
6.587476941296424
 31
0.0
  0
LINE
  5
2318
330
1E
100
AcDbEntity
  8
0
100
AcDbLine
 10
3.404100033292558
 20
6.594036980666502
 30
0.0
 11
3.404100033292558
 21
6.11646611452477
 31
0.0
  0
LINE
  5
2319
330
1E
100
AcDbEntity
  8
0
100
AcDbLine
 10
3.404100033292558
 20
6.11646611452477
 30
0.0
 11
3.404100033292558
 21
6.016753516099573
 31
0.0
  0
LINE
  5
231A
330
1E
100
AcDbEntity
  8
0
100
AcDbLine
 10
3.404100033292558
 20
6.016753516099573
 30
0.0
 11
3.408036056914605
 21
6.020689539721621
 31
0.0
  0
LINE
  5
231B
330
1E
100
AcDbEntity
  8
0
100
AcDbLine
 10
1.82969058447366
 20
5.825200366493273
 30
0.0
 11
1.82969058447366
 21
5.258412964918471
 31
0.0
  0
LINE
  5
231C
330
1E
100
AcDbEntity
  8
0
100
AcDbLine
 10
1.832314600221691
 20
5.251852925548392
 30
0.0
 11
1.832314600221691
 21
5.729423791690124
 31
0.0
  0
LINE
  5
231D
330
1E
100
AcDbEntity
  8
0
100
AcDbLine
 10
1.832314600221691
 20
5.829136390115321
 30
0.0
 11
1.832314600221691
 21
5.729423791690124
 31
0.0
  0
LINE
  5
231E
330
1E
100
AcDbEntity
  8
0
100
AcDbLine
 10
1.832314600221691
 20
5.829136390115321
 30
0.0
 11
1.82969058447366
 21
5.825200366493273
 31
0.0
  0
LINE
  5
231F
330
1E
100
AcDbEntity
  8
0
100
AcDbLine
 10
3.345059678961849
 20
5.729423791690124
 30
0.0
 11
3.341123655339802
 21
5.745167886178313
 31
0.0
  0
LINE
  5
2320
330
1E
100
AcDbEntity
  8
0
100
AcDbLine
 10
3.404100033292558
 20
5.729423791690124
 30
0.0
 11
3.345059678961849
 21
5.729423791690124
 31
0.0
  0
LINE
  5
2321
330
1E
100
AcDbEntity
  8
0
100
AcDbLine
 10
3.404100033292558
 20
5.729423791690124
 30
0.0
 11
3.385731923056337
 21
5.745167886178313
 31
0.0
  0
LINE
  5
2322
330
1E
100
AcDbEntity
  8
0
100
AcDbLine
 10
3.345059678961849
 20
5.251852925548392
 30
0.0
 11
3.341123655339802
 21
5.254476941296424
 31
0.0
  0
LINE
  5
2323
330
1E
100
AcDbEntity
  8
0
100
AcDbLine
 10
3.345059678961849
 20
5.251852925548392
 30
0.0
 11
3.345059678961849
 21
5.729423791690124
 31
0.0
  0
LINE
  5
2324
330
1E
100
AcDbEntity
  8
0
100
AcDbLine
 10
1.83887463959177
 20
5.247916901926345
 30
0.0
 11
3.397539993922479
 21
5.247916901926345
 31
0.0
  0
LINE
  5
2325
330
1E
100
AcDbEntity
  8
0
100
AcDbLine
 10
3.404100033292558
 20
5.251852925548392
 30
0.0
 11
3.345059678961849
 21
5.251852925548392
 31
0.0
  0
LINE
  5
2326
330
1E
100
AcDbEntity
  8
0
100
AcDbLine
 10
1.892666962426416
 20
5.251852925548392
 30
0.0
 11
1.895290978174447
 21
5.254476941296424
 31
0.0
  0
LINE
  5
2327
330
1E
100
AcDbEntity
  8
0
100
AcDbLine
 10
1.892666962426416
 20
5.251852925548392
 30
0.0
 11
1.832314600221691
 21
5.251852925548392
 31
0.0
  0
LINE
  5
2328
330
1E
100
AcDbEntity
  8
0
100
AcDbLine
 10
1.892666962426416
 20
5.729423791690124
 30
0.0
 11
1.895290978174447
 21
5.745167886178313
 31
0.0
  0
LINE
  5
2329
330
1E
100
AcDbEntity
  8
0
100
AcDbLine
 10
1.892666962426416
 20
5.251852925548392
 30
0.0
 11
1.892666962426416
 21
5.729423791690124
 31
0.0
  0
LINE
  5
232A
330
1E
100
AcDbEntity
  8
0
100
AcDbLine
 10
1.832314600221691
 20
5.729423791690124
 30
0.0
 11
1.850682710457912
 21
5.745167886178313
 31
0.0
  0
LINE
  5
232B
330
1E
100
AcDbEntity
  8
0
100
AcDbLine
 10
1.832314600221691
 20
5.729423791690124
 30
0.0
 11
1.892666962426416
 21
5.729423791690124
 31
0.0
  0
LINE
  5
232C
330
1E
100
AcDbEntity
  8
0
100
AcDbLine
 10
1.832314600221691
 20
6.11646611452477
 30
0.0
 11
1.850682710457912
 21
6.10072202003658
 31
0.0
  0
LINE
  5
232D
330
1E
100
AcDbEntity
  8
0
100
AcDbLine
 10
1.832314600221691
 20
6.11646611452477
 30
0.0
 11
1.832314600221691
 21
6.016753516099573
 31
0.0
  0
LINE
  5
232E
330
1E
100
AcDbEntity
  8
0
100
AcDbLine
 10
1.832314600221691
 20
5.829136390115321
 30
0.0
 11
1.832314600221691
 21
6.016753516099573
 31
0.0
  0
LINE
  5
232F
330
1E
100
AcDbEntity
  8
0
100
AcDbLine
 10
1.892666962426416
 20
6.11646611452477
 30
0.0
 11
1.895290978174447
 21
6.10072202003658
 31
0.0
  0
LINE
  5
2330
330
1E
100
AcDbEntity
  8
0
100
AcDbLine
 10
1.832314600221691
 20
6.11646611452477
 30
0.0
 11
1.892666962426416
 21
6.11646611452477
 31
0.0
  0
LINE
  5
2331
330
1E
100
AcDbEntity
  8
0
100
AcDbLine
 10
1.892666962426416
 20
6.594036980666502
 30
0.0
 11
1.895290978174447
 21
6.591412964918471
 31
0.0
  0
LINE
  5
2332
330
1E
100
AcDbEntity
  8
0
100
AcDbLine
 10
1.892666962426416
 20
6.11646611452477
 30
0.0
 11
1.892666962426416
 21
6.594036980666502
 31
0.0
  0
LINE
  5
2333
330
1E
100
AcDbEntity
  8
0
100
AcDbLine
 10
3.397539993922479
 20
6.59797300428855
 30
0.0
 11
1.83887463959177
 21
6.59797300428855
 31
0.0
  0
LINE
  5
2334
330
1E
100
AcDbEntity
  8
0
100
AcDbLine
 10
1.832314600221691
 20
6.594036980666502
 30
0.0
 11
1.892666962426416
 21
6.594036980666502
 31
0.0
  0
LINE
  5
2335
330
1E
100
AcDbEntity
  8
0
100
AcDbLine
 10
3.345059678961849
 20
6.594036980666502
 30
0.0
 11
3.341123655339802
 21
6.591412964918471
 31
0.0
  0
LINE
  5
2336
330
1E
100
AcDbEntity
  8
0
100
AcDbLine
 10
3.345059678961849
 20
6.594036980666502
 30
0.0
 11
3.404100033292558
 21
6.594036980666502
 31
0.0
  0
LINE
  5
2337
330
1E
100
AcDbEntity
  8
0
100
AcDbLine
 10
3.345059678961849
 20
6.11646611452477
 30
0.0
 11
3.341123655339802
 21
6.10072202003658
 31
0.0
  0
LINE
  5
2338
330
1E
100
AcDbEntity
  8
0
100
AcDbLine
 10
3.345059678961849
 20
6.11646611452477
 30
0.0
 11
3.345059678961849
 21
6.594036980666502
 31
0.0
  0
LINE
  5
2339
330
1E
100
AcDbEntity
  8
0
100
AcDbLine
 10
3.404100033292558
 20
6.11646611452477
 30
0.0
 11
3.385731923056337
 21
6.10072202003658
 31
0.0
  0
LINE
  5
233A
330
1E
100
AcDbEntity
  8
0
100
AcDbLine
 10
3.404100033292558
 20
6.11646611452477
 30
0.0
 11
3.345059678961849
 21
6.11646611452477
 31
0.0
  0
LINE
  5
233B
330
1E
100
AcDbEntity
  8
0
100
AcDbLine
 10
3.404100033292558
 20
5.829136390115321
 30
0.0
 11
3.404100033292558
 21
5.729423791690124
 31
0.0
  0
LINE
  5
233C
330
1E
100
AcDbEntity
  8
0
100
AcDbLine
 10
3.404100033292558
 20
5.829136390115321
 30
0.0
 11
3.404100033292558
 21
6.016753516099573
 31
0.0
  0
LINE
  5
233D
330
1E
100
AcDbEntity
  8
0
100
AcDbLine
 10
3.993191568725629
 20
5.417165917674376
 30
0.0
 11
3.993191568725629
 21
6.428723988540518
 31
0.0
  0
POLYLINE
  5
233E
330
1E
100
AcDbEntity
  8
0
100
AcDb2dPolyline
 66
     1
 10
0.0
 20
0.0
 30
0.0
  0
VERTEX
  5
2725
330
233E
100
AcDbEntity
  8
0
100
AcDbVertex
100
AcDb2dVertex
 10
3.993191568725629
 20
6.428723988540518
 30
0.0
  0
VERTEX
  5
2726
330
233E
100
AcDbEntity
  8
0
100
AcDbVertex
100
AcDb2dVertex
 10
3.987943537229566
 20
6.441844067280676
 30
0.0
  0
VERTEX
  5
2727
330
233E
100
AcDbEntity
  8
0
100
AcDbVertex
100
AcDb2dVertex
 10
3.973511450615392
 20
6.448404106650754
 30
0.0
  0
SEQEND
  5
2728
330
233E
100
AcDbEntity
  8
0
  0
LINE
  5
2343
330
1E
100
AcDbEntity
  8
0
100
AcDbLine
 10
3.913159088410668
 20
6.448404106650754
 30
0.0
 11
3.973511450615392
 21
6.448404106650754
 31
0.0
  0
POLYLINE
  5
2344
330
1E
100
AcDbEntity
  8
0
100
AcDb2dPolyline
 66
     1
 10
0.0
 20
0.0
 30
0.0
  0
VERTEX
  5
2729
330
2344
100
AcDbEntity
  8
0
100
AcDbVertex
100
AcDb2dVertex
 10
3.913159088410668
 20
6.448404106650754
 30
0.0
  0
VERTEX
  5
272A
330
2344
100
AcDbEntity
  8
0
100
AcDbVertex
100
AcDb2dVertex
 10
3.90003900967051
 20
6.453652138146818
 30
0.0
  0
VERTEX
  5
272B
330
2344
100
AcDbEntity
  8
0
100
AcDbVertex
100
AcDb2dVertex
 10
3.893478970300432
 20
6.468084224760991
 30
0.0
  0
SEQEND
  5
272C
330
2344
100
AcDbEntity
  8
0
  0
LINE
  5
2349
330
1E
100
AcDbEntity
  8
0
100
AcDbLine
 10
3.893478970300432
 20
6.468084224760991
 30
0.0
 11
3.893478970300432
 21
7.17788048460351
 31
0.0
  0
POLYLINE
  5
234A
330
1E
100
AcDbEntity
  8
0
100
AcDb2dPolyline
 66
     1
 10
0.0
 20
0.0
 30
0.0
  0
VERTEX
  5
272D
330
234A
100
AcDbEntity
  8
0
100
AcDbVertex
100
AcDb2dVertex
 10
3.893478970300432
 20
7.177880484603511
 30
0.0
  0
VERTEX
  5
272E
330
234A
100
AcDbEntity
  8
0
100
AcDbVertex
100
AcDb2dVertex
 10
3.888230938804369
 20
7.192312571217684
 30
0.0
  0
VERTEX
  5
272F
330
234A
100
AcDbEntity
  8
0
100
AcDbVertex
100
AcDb2dVertex
 10
3.873798852190196
 20
7.197560602713746
 30
0.0
  0
SEQEND
  5
2730
330
234A
100
AcDbEntity
  8
0
  0
LINE
  5
234F
330
1E
100
AcDbEntity
  8
0
100
AcDbLine
 10
3.164002592347676
 20
7.197560602713746
 30
0.0
 11
3.873798852190196
 21
7.197560602713746
 31
0.0
  0
POLYLINE
  5
2350
330
1E
100
AcDbEntity
  8
0
100
AcDb2dPolyline
 66
     1
 10
0.0
 20
0.0
 30
0.0
  0
VERTEX
  5
2731
330
2350
100
AcDbEntity
  8
0
100
AcDbVertex
100
AcDb2dVertex
 10
3.164002592347677
 20
7.197560602713746
 30
0.0
  0
VERTEX
  5
2732
330
2350
100
AcDbEntity
  8
0
100
AcDbVertex
100
AcDb2dVertex
 10
3.149570505733503
 20
7.204120642083825
 30
0.0
  0
VERTEX
  5
2733
330
2350
100
AcDbEntity
  8
0
100
AcDbVertex
100
AcDb2dVertex
 10
3.144322474237439
 20
7.218552728697998
 30
0.0
  0
SEQEND
  5
2734
330
2350
100
AcDbEntity
  8
0
  0
LINE
  5
2355
330
1E
100
AcDbEntity
  8
0
100
AcDbLine
 10
3.14432247423744
 20
7.277593083028706
 30
0.0
 11
3.14432247423744
 21
7.218552728697998
 31
0.0
  0
POLYLINE
  5
2356
330
1E
100
AcDbEntity
  8
0
100
AcDb2dPolyline
 66
     1
 10
0.0
 20
0.0
 30
0.0
  0
VERTEX
  5
2735
330
2356
100
AcDbEntity
  8
0
100
AcDbVertex
100
AcDb2dVertex
 10
3.144322474237439
 20
7.277593083028706
 30
0.0
  0
VERTEX
  5
2736
330
2356
100
AcDbEntity
  8
0
100
AcDbVertex
100
AcDb2dVertex
 10
3.13776243486736
 20
7.292025169642881
 30
0.0
  0
VERTEX
  5
2737
330
2356
100
AcDbEntity
  8
0
100
AcDbVertex
100
AcDb2dVertex
 10
3.123330348253188
 20
7.298585209012959
 30
0.0
  0
SEQEND
  5
2738
330
2356
100
AcDbEntity
  8
0
  0
LINE
  5
235B
330
1E
100
AcDbEntity
  8
0
100
AcDbLine
 10
2.113084285261062
 20
7.298585209012959
 30
0.0
 11
3.123330348253188
 21
7.298585209012959
 31
0.0
  0
POLYLINE
  5
235C
330
1E
100
AcDbEntity
  8
0
100
AcDb2dPolyline
 66
     1
 10
0.0
 20
0.0
 30
0.0
  0
VERTEX
  5
2739
330
235C
100
AcDbEntity
  8
0
100
AcDbVertex
100
AcDb2dVertex
 10
2.113084285261062
 20
7.298585209012959
 30
0.0
  0
VERTEX
  5
273A
330
235C
100
AcDbEntity
  8
0
100
AcDbVertex
100
AcDb2dVertex
 10
2.098652198646888
 20
7.292025169642881
 30
0.0
  0
VERTEX
  5
273B
330
235C
100
AcDbEntity
  8
0
100
AcDbVertex
100
AcDb2dVertex
 10
2.093404167150825
 20
7.277593083028706
 30
0.0
  0
SEQEND
  5
273C
330
235C
100
AcDbEntity
  8
0
  0
LINE
  5
2361
330
1E
100
AcDbEntity
  8
0
100
AcDbLine
 10
2.093404167150825
 20
7.277593083028706
 30
0.0
 11
2.093404167150825
 21
7.218552728697998
 31
0.0
  0
POLYLINE
  5
2362
330
1E
100
AcDbEntity
  8
0
100
AcDb2dPolyline
 66
     1
 10
0.0
 20
0.0
 30
0.0
  0
VERTEX
  5
273D
330
2362
100
AcDbEntity
  8
0
100
AcDbVertex
100
AcDb2dVertex
 10
2.093404167150825
 20
7.218552728697998
 30
0.0
  0
VERTEX
  5
273E
330
2362
100
AcDbEntity
  8
0
100
AcDbVertex
100
AcDb2dVertex
 10
2.086844127780747
 20
7.204120642083825
 30
0.0
  0
VERTEX
  5
273F
330
2362
100
AcDbEntity
  8
0
100
AcDbVertex
100
AcDb2dVertex
 10
2.072412041166573
 20
7.197560602713746
 30
0.0
  0
SEQEND
  5
2740
330
2362
100
AcDbEntity
  8
0
  0
LINE
  5
2367
330
1E
100
AcDbEntity
  8
0
100
AcDbLine
 10
1.362615781324053
 20
7.197560602713746
 30
0.0
 11
2.072412041166573
 21
7.197560602713746
 31
0.0
  0
POLYLINE
  5
2368
330
1E
100
AcDbEntity
  8
0
100
AcDb2dPolyline
 66
     1
 10
0.0
 20
0.0
 30
0.0
  0
VERTEX
  5
2741
330
2368
100
AcDbEntity
  8
0
100
AcDbVertex
100
AcDb2dVertex
 10
1.362615781324053
 20
7.197560602713746
 30
0.0
  0
VERTEX
  5
2742
330
2368
100
AcDbEntity
  8
0
100
AcDbVertex
100
AcDb2dVertex
 10
1.349495702583896
 20
7.192312571217684
 30
0.0
  0
VERTEX
  5
2743
330
2368
100
AcDbEntity
  8
0
100
AcDbVertex
100
AcDb2dVertex
 10
1.342935663213817
 20
7.177880484603511
 30
0.0
  0
SEQEND
  5
2744
330
2368
100
AcDbEntity
  8
0
  0
LINE
  5
236D
330
1E
100
AcDbEntity
  8
0
100
AcDbLine
 10
1.342935663213817
 20
6.468084224760991
 30
0.0
 11
1.342935663213817
 21
7.17788048460351
 31
0.0
  0
POLYLINE
  5
236E
330
1E
100
AcDbEntity
  8
0
100
AcDb2dPolyline
 66
     1
 10
0.0
 20
0.0
 30
0.0
  0
VERTEX
  5
2745
330
236E
100
AcDbEntity
  8
0
100
AcDbVertex
100
AcDb2dVertex
 10
1.342935663213817
 20
6.468084224760991
 30
0.0
  0
VERTEX
  5
2746
330
236E
100
AcDbEntity
  8
0
100
AcDbVertex
100
AcDb2dVertex
 10
1.337687631717754
 20
6.453652138146818
 30
0.0
  0
VERTEX
  5
2747
330
236E
100
AcDbEntity
  8
0
100
AcDbVertex
100
AcDb2dVertex
 10
1.323255545103581
 20
6.448404106650754
 30
0.0
  0
SEQEND
  5
2748
330
236E
100
AcDbEntity
  8
0
  0
LINE
  5
2373
330
1E
100
AcDbEntity
  8
0
100
AcDbLine
 10
1.262903182898857
 20
6.448404106650754
 30
0.0
 11
1.323255545103581
 21
6.448404106650754
 31
0.0
  0
POLYLINE
  5
2374
330
1E
100
AcDbEntity
  8
0
100
AcDb2dPolyline
 66
     1
 10
0.0
 20
0.0
 30
0.0
  0
VERTEX
  5
2749
330
2374
100
AcDbEntity
  8
0
100
AcDbVertex
100
AcDb2dVertex
 10
1.262903182898857
 20
6.448404106650754
 30
0.0
  0
VERTEX
  5
274A
330
2374
100
AcDbEntity
  8
0
100
AcDbVertex
100
AcDb2dVertex
 10
1.248471096284684
 20
6.441844067280676
 30
0.0
  0
VERTEX
  5
274B
330
2374
100
AcDbEntity
  8
0
100
AcDbVertex
100
AcDb2dVertex
 10
1.243223064788621
 20
6.428723988540518
 30
0.0
  0
SEQEND
  5
274C
330
2374
100
AcDbEntity
  8
0
  0
LINE
  5
2379
330
1E
100
AcDbEntity
  8
0
100
AcDbLine
 10
1.243223064788621
 20
5.417165917674376
 30
0.0
 11
1.243223064788621
 21
6.428723988540518
 31
0.0
  0
POLYLINE
  5
237A
330
1E
100
AcDbEntity
  8
0
100
AcDb2dPolyline
 66
     1
 10
0.0
 20
0.0
 30
0.0
  0
VERTEX
  5
274D
330
237A
100
AcDbEntity
  8
0
100
AcDbVertex
100
AcDb2dVertex
 10
1.243223064788621
 20
5.417165917674377
 30
0.0
  0
VERTEX
  5
274E
330
237A
100
AcDbEntity
  8
0
100
AcDbVertex
100
AcDb2dVertex
 10
1.248471096284684
 20
5.402733831060203
 30
0.0
  0
VERTEX
  5
274F
330
237A
100
AcDbEntity
  8
0
100
AcDbVertex
100
AcDb2dVertex
 10
1.262903182898857
 20
5.397485799564139
 30
0.0
  0
SEQEND
  5
2750
330
237A
100
AcDbEntity
  8
0
  0
LINE
  5
237F
330
1E
100
AcDbEntity
  8
0
100
AcDbLine
 10
1.262903182898857
 20
5.397485799564139
 30
0.0
 11
1.323255545103581
 21
5.397485799564139
 31
0.0
  0
POLYLINE
  5
2380
330
1E
100
AcDbEntity
  8
0
100
AcDb2dPolyline
 66
     1
 10
0.0
 20
0.0
 30
0.0
  0
VERTEX
  5
2751
330
2380
100
AcDbEntity
  8
0
100
AcDbVertex
100
AcDb2dVertex
 10
1.323255545103581
 20
5.397485799564139
 30
0.0
  0
VERTEX
  5
2752
330
2380
100
AcDbEntity
  8
0
100
AcDbVertex
100
AcDb2dVertex
 10
1.337687631717754
 20
5.390925760194061
 30
0.0
  0
VERTEX
  5
2753
330
2380
100
AcDbEntity
  8
0
100
AcDbVertex
100
AcDb2dVertex
 10
1.342935663213817
 20
5.377805681453903
 30
0.0
  0
SEQEND
  5
2754
330
2380
100
AcDbEntity
  8
0
  0
LINE
  5
2385
330
1E
100
AcDbEntity
  8
0
100
AcDbLine
 10
1.342935663213817
 20
4.668009421611383
 30
0.0
 11
1.342935663213817
 21
5.377805681453903
 31
0.0
  0
POLYLINE
  5
2386
330
1E
100
AcDbEntity
  8
0
100
AcDb2dPolyline
 66
     1
 10
0.0
 20
0.0
 30
0.0
  0
VERTEX
  5
2755
330
2386
100
AcDbEntity
  8
0
100
AcDbVertex
100
AcDb2dVertex
 10
1.342935663213817
 20
4.668009421611384
 30
0.0
  0
VERTEX
  5
2756
330
2386
100
AcDbEntity
  8
0
100
AcDbVertex
100
AcDb2dVertex
 10
1.349495702583896
 20
4.65357733499721
 30
0.0
  0
VERTEX
  5
2757
330
2386
100
AcDbEntity
  8
0
100
AcDbVertex
100
AcDb2dVertex
 10
1.362615781324053
 20
4.647017295627132
 30
0.0
  0
SEQEND
  5
2758
330
2386
100
AcDbEntity
  8
0
  0
LINE
  5
238B
330
1E
100
AcDbEntity
  8
0
100
AcDbLine
 10
1.362615781324053
 20
4.647017295627132
 30
0.0
 11
2.072412041166573
 21
4.647017295627132
 31
0.0
  0
POLYLINE
  5
238C
330
1E
100
AcDbEntity
  8
0
100
AcDb2dPolyline
 66
     1
 10
0.0
 20
0.0
 30
0.0
  0
VERTEX
  5
2759
330
238C
100
AcDbEntity
  8
0
100
AcDbVertex
100
AcDb2dVertex
 10
2.072412041166573
 20
4.647017295627132
 30
0.0
  0
VERTEX
  5
275A
330
238C
100
AcDbEntity
  8
0
100
AcDbVertex
100
AcDb2dVertex
 10
2.086844127780747
 20
4.641769264131069
 30
0.0
  0
VERTEX
  5
275B
330
238C
100
AcDbEntity
  8
0
100
AcDbVertex
100
AcDb2dVertex
 10
2.093404167150825
 20
4.627337177516896
 30
0.0
  0
SEQEND
  5
275C
330
238C
100
AcDbEntity
  8
0
  0
LINE
  5
2391
330
1E
100
AcDbEntity
  8
0
100
AcDbLine
 10
2.093404167150825
 20
4.627337177516896
 30
0.0
 11
2.093404167150825
 21
4.566984815312172
 31
0.0
  0
POLYLINE
  5
2392
330
1E
100
AcDbEntity
  8
0
100
AcDb2dPolyline
 66
     1
 10
0.0
 20
0.0
 30
0.0
  0
VERTEX
  5
275D
330
2392
100
AcDbEntity
  8
0
100
AcDbVertex
100
AcDb2dVertex
 10
2.093404167150825
 20
4.566984815312172
 30
0.0
  0
VERTEX
  5
275E
330
2392
100
AcDbEntity
  8
0
100
AcDbVertex
100
AcDb2dVertex
 10
2.098652198646888
 20
4.553864736572013
 30
0.0
  0
VERTEX
  5
275F
330
2392
100
AcDbEntity
  8
0
100
AcDbVertex
100
AcDb2dVertex
 10
2.113084285261062
 20
4.547304697201935
 30
0.0
  0
SEQEND
  5
2760
330
2392
100
AcDbEntity
  8
0
  0
LINE
  5
2397
330
1E
100
AcDbEntity
  8
0
100
AcDbLine
 10
2.113084285261062
 20
4.547304697201935
 30
0.0
 11
3.123330348253188
 21
4.547304697201935
 31
0.0
  0
POLYLINE
  5
2398
330
1E
100
AcDbEntity
  8
0
100
AcDb2dPolyline
 66
     1
 10
0.0
 20
0.0
 30
0.0
  0
VERTEX
  5
2761
330
2398
100
AcDbEntity
  8
0
100
AcDbVertex
100
AcDb2dVertex
 10
3.123330348253188
 20
4.547304697201935
 30
0.0
  0
VERTEX
  5
2762
330
2398
100
AcDbEntity
  8
0
100
AcDbVertex
100
AcDb2dVertex
 10
3.13776243486736
 20
4.553864736572013
 30
0.0
  0
VERTEX
  5
2763
330
2398
100
AcDbEntity
  8
0
100
AcDbVertex
100
AcDb2dVertex
 10
3.144322474237439
 20
4.566984815312172
 30
0.0
  0
SEQEND
  5
2764
330
2398
100
AcDbEntity
  8
0
  0
LINE
  5
239D
330
1E
100
AcDbEntity
  8
0
100
AcDbLine
 10
3.14432247423744
 20
4.627337177516896
 30
0.0
 11
3.14432247423744
 21
4.566984815312172
 31
0.0
  0
POLYLINE
  5
239E
330
1E
100
AcDbEntity
  8
0
100
AcDb2dPolyline
 66
     1
 10
0.0
 20
0.0
 30
0.0
  0
VERTEX
  5
2765
330
239E
100
AcDbEntity
  8
0
100
AcDbVertex
100
AcDb2dVertex
 10
3.144322474237439
 20
4.627337177516896
 30
0.0
  0
VERTEX
  5
2766
330
239E
100
AcDbEntity
  8
0
100
AcDbVertex
100
AcDb2dVertex
 10
3.149570505733503
 20
4.641769264131069
 30
0.0
  0
VERTEX
  5
2767
330
239E
100
AcDbEntity
  8
0
100
AcDbVertex
100
AcDb2dVertex
 10
3.164002592347677
 20
4.647017295627132
 30
0.0
  0
SEQEND
  5
2768
330
239E
100
AcDbEntity
  8
0
  0
LINE
  5
23A3
330
1E
100
AcDbEntity
  8
0
100
AcDbLine
 10
3.164002592347676
 20
4.647017295627132
 30
0.0
 11
3.873798852190196
 21
4.647017295627132
 31
0.0
  0
POLYLINE
  5
23A4
330
1E
100
AcDbEntity
  8
0
100
AcDb2dPolyline
 66
     1
 10
0.0
 20
0.0
 30
0.0
  0
VERTEX
  5
2769
330
23A4
100
AcDbEntity
  8
0
100
AcDbVertex
100
AcDb2dVertex
 10
3.873798852190196
 20
4.647017295627132
 30
0.0
  0
VERTEX
  5
276A
330
23A4
100
AcDbEntity
  8
0
100
AcDbVertex
100
AcDb2dVertex
 10
3.888230938804369
 20
4.65357733499721
 30
0.0
  0
VERTEX
  5
276B
330
23A4
100
AcDbEntity
  8
0
100
AcDbVertex
100
AcDb2dVertex
 10
3.893478970300432
 20
4.668009421611384
 30
0.0
  0
SEQEND
  5
276C
330
23A4
100
AcDbEntity
  8
0
  0
LINE
  5
23A9
330
1E
100
AcDbEntity
  8
0
100
AcDbLine
 10
3.893478970300432
 20
4.668009421611383
 30
0.0
 11
3.893478970300432
 21
5.377805681453903
 31
0.0
  0
POLYLINE
  5
23AA
330
1E
100
AcDbEntity
  8
0
100
AcDb2dPolyline
 66
     1
 10
0.0
 20
0.0
 30
0.0
  0
VERTEX
  5
276D
330
23AA
100
AcDbEntity
  8
0
100
AcDbVertex
100
AcDb2dVertex
 10
3.893478970300432
 20
5.377805681453903
 30
0.0
  0
VERTEX
  5
276E
330
23AA
100
AcDbEntity
  8
0
100
AcDbVertex
100
AcDb2dVertex
 10
3.90003900967051
 20
5.390925760194061
 30
0.0
  0
VERTEX
  5
276F
330
23AA
100
AcDbEntity
  8
0
100
AcDbVertex
100
AcDb2dVertex
 10
3.913159088410668
 20
5.397485799564139
 30
0.0
  0
SEQEND
  5
2770
330
23AA
100
AcDbEntity
  8
0
  0
LINE
  5
23AF
330
1E
100
AcDbEntity
  8
0
100
AcDbLine
 10
3.913159088410668
 20
5.397485799564139
 30
0.0
 11
3.973511450615392
 21
5.397485799564139
 31
0.0
  0
POLYLINE
  5
23B0
330
1E
100
AcDbEntity
  8
0
100
AcDb2dPolyline
 66
     1
 10
0.0
 20
0.0
 30
0.0
  0
VERTEX
  5
2771
330
23B0
100
AcDbEntity
  8
0
100
AcDbVertex
100
AcDb2dVertex
 10
3.973511450615392
 20
5.397485799564139
 30
0.0
  0
VERTEX
  5
2772
330
23B0
100
AcDbEntity
  8
0
100
AcDbVertex
100
AcDb2dVertex
 10
3.987943537229566
 20
5.402733831060203
 30
0.0
  0
VERTEX
  5
2773
330
23B0
100
AcDbEntity
  8
0
100
AcDbVertex
100
AcDb2dVertex
 10
3.993191568725629
 20
5.417165917674377
 30
0.0
  0
SEQEND
  5
2774
330
23B0
100
AcDbEntity
  8
0
  0
CIRCLE
  5
23B5
330
1E
100
AcDbEntity
  8
0
100
AcDbCircle
 10
2.618207316757124
 20
5.92228894917044
 30
0.0
 40
1.276583661417322
  0
CIRCLE
  5
23B6
330
1E
100
AcDbEntity
  8
0
100
AcDbCircle
 10
3.719637926993345
 20
4.820858338934219
 30
0.0
 40
0.1187385247501686
  0
CIRCLE
  5
23B7
330
1E
100
AcDbEntity
  8
0
100
AcDbCircle
 10
1.515464698646888
 20
7.025031567280676
 30
0.0
 40
0.1187385247501686
  0
CIRCLE
  5
23B8
330
1E
100
AcDbEntity
  8
0
100
AcDbCircle
 10
1.515464698646888
 20
4.820858338934219
 30
0.0
 40
0.1187385247501686
  0
CIRCLE
  5
23B9
330
1E
100
AcDbEntity
  8
0
100
AcDbCircle
 10
3.719637926993345
 20
7.025031567280676
 30
0.0
 40
0.1187385247501686
  0
LINE
  5
23BA
330
1E
100
AcDbEntity
  8
0
100
AcDbLine
 10
1.240599049040589
 20
7.280217098776739
 30
0.0
 11
1.240599049040589
 21
4.565672807438156
 31
0.0
  0
POLYLINE
  5
23BB
330
1E
100
AcDbEntity
  8
0
100
AcDb2dPolyline
 66
     1
 10
0.0
 20
0.0
 30
0.0
  0
VERTEX
  5
2775
330
23BB
100
AcDbEntity
  8
0
100
AcDbVertex
100
AcDb2dVertex
 10
1.240599049040589
 20
7.28021709877674
 30
0.0
  0
VERTEX
  5
2776
330
23BB
100
AcDbEntity
  8
0
100
AcDbVertex
100
AcDb2dVertex
 10
1.247159088410668
 20
7.294649185390913
 30
0.0
  0
VERTEX
  5
2777
330
23BB
100
AcDbEntity
  8
0
100
AcDbVertex
100
AcDb2dVertex
 10
1.260279167150825
 20
7.299897216886975
 30
0.0
  0
SEQEND
  5
2778
330
23BB
100
AcDbEntity
  8
0
  0
LINE
  5
23C0
330
1E
100
AcDbEntity
  8
0
100
AcDbLine
 10
3.976135466363423
 20
7.299897216886975
 30
0.0
 11
1.260279167150825
 21
7.299897216886975
 31
0.0
  0
POLYLINE
  5
23C1
330
1E
100
AcDbEntity
  8
0
100
AcDb2dPolyline
 66
     1
 10
0.0
 20
0.0
 30
0.0
  0
VERTEX
  5
2779
330
23C1
100
AcDbEntity
  8
0
100
AcDbVertex
100
AcDb2dVertex
 10
3.976135466363423
 20
7.299897216886975
 30
0.0
  0
VERTEX
  5
277A
330
23C1
100
AcDbEntity
  8
0
100
AcDbVertex
100
AcDb2dVertex
 10
3.990567552977597
 20
7.294649185390913
 30
0.0
  0
VERTEX
  5
277B
330
23C1
100
AcDbEntity
  8
0
100
AcDbVertex
100
AcDb2dVertex
 10
3.99581558447366
 20
7.28021709877674
 30
0.0
  0
SEQEND
  5
277C
330
23C1
100
AcDbEntity
  8
0
  0
LINE
  5
23C6
330
1E
100
AcDbEntity
  8
0
100
AcDbLine
 10
3.99581558447366
 20
4.565672807438156
 30
0.0
 11
3.99581558447366
 21
7.280217098776739
 31
0.0
  0
POLYLINE
  5
23C7
330
1E
100
AcDbEntity
  8
0
100
AcDb2dPolyline
 66
     1
 10
0.0
 20
0.0
 30
0.0
  0
VERTEX
  5
277D
330
23C7
100
AcDbEntity
  8
0
100
AcDbVertex
100
AcDb2dVertex
 10
3.99581558447366
 20
4.565672807438156
 30
0.0
  0
VERTEX
  5
277E
330
23C7
100
AcDbEntity
  8
0
100
AcDbVertex
100
AcDb2dVertex
 10
3.990567552977597
 20
4.551240720823983
 30
0.0
  0
VERTEX
  5
277F
330
23C7
100
AcDbEntity
  8
0
100
AcDbVertex
100
AcDb2dVertex
 10
3.976135466363423
 20
4.544680681453903
 30
0.0
  0
SEQEND
  5
2780
330
23C7
100
AcDbEntity
  8
0
  0
LINE
  5
23CC
330
1E
100
AcDbEntity
  8
0
100
AcDbLine
 10
1.260279167150825
 20
4.544680681453903
 30
0.0
 11
3.976135466363423
 21
4.544680681453903
 31
0.0
  0
POLYLINE
  5
23CD
330
1E
100
AcDbEntity
  8
0
100
AcDb2dPolyline
 66
     1
 10
0.0
 20
0.0
 30
0.0
  0
VERTEX
  5
2781
330
23CD
100
AcDbEntity
  8
0
100
AcDbVertex
100
AcDb2dVertex
 10
1.260279167150825
 20
4.544680681453903
 30
0.0
  0
VERTEX
  5
2782
330
23CD
100
AcDbEntity
  8
0
100
AcDbVertex
100
AcDb2dVertex
 10
1.247159088410668
 20
4.551240720823983
 30
0.0
  0
VERTEX
  5
2783
330
23CD
100
AcDbEntity
  8
0
100
AcDbVertex
100
AcDb2dVertex
 10
1.240599049040589
 20
4.565672807438156
 30
0.0
  0
SEQEND
  5
2784
330
23CD
100
AcDbEntity
  8
0
  0
POLYLINE
  5
23D2
330
1E
100
AcDbEntity
  8
0
100
AcDb2dPolyline
 66
     1
 10
0.0
 20
0.0
 30
0.0
  0
VERTEX
  5
2785
330
23D2
100
AcDbEntity
  8
0
100
AcDbVertex
100
AcDb2dVertex
 10
3.648133497859487
 20
4.82020233499721
 30
0.0
  0
VERTEX
  5
2786
330
23D2
100
AcDbEntity
  8
0
100
AcDbVertex
100
AcDb2dVertex
 10
3.654693537229566
 20
4.847754500351542
 30
0.0
  0
VERTEX
  5
2787
330
23D2
100
AcDbEntity
  8
0
100
AcDbVertex
100
AcDb2dVertex
 10
3.669125623843739
 20
4.871370642083824
 30
0.0
  0
VERTEX
  5
2788
330
23D2
100
AcDbEntity
  8
0
100
AcDbVertex
100
AcDb2dVertex
 10
3.692741765576023
 20
4.887114736572014
 30
0.0
  0
VERTEX
  5
2789
330
23D2
100
AcDbEntity
  8
0
100
AcDbVertex
100
AcDb2dVertex
 10
3.720293930930353
 20
4.892362768068077
 30
0.0
  0
VERTEX
  5
278A
330
23D2
100
AcDbEntity
  8
0
100
AcDbVertex
100
AcDb2dVertex
 10
3.747846096284684
 20
4.887114736572014
 30
0.0
  0
VERTEX
  5
278B
330
23D2
100
AcDbEntity
  8
0
100
AcDbVertex
100
AcDb2dVertex
 10
3.771462238016968
 20
4.871370642083824
 30
0.0
  0
VERTEX
  5
278C
330
23D2
100
AcDbEntity
  8
0
100
AcDbVertex
100
AcDb2dVertex
 10
3.787206332505156
 20
4.847754500351542
 30
0.0
  0
VERTEX
  5
278D
330
23D2
100
AcDbEntity
  8
0
100
AcDbVertex
100
AcDb2dVertex
 10
3.79245436400122
 20
4.82020233499721
 30
0.0
  0
VERTEX
  5
278E
330
23D2
100
AcDbEntity
  8
0
100
AcDbVertex
100
AcDb2dVertex
 10
3.787206332505156
 20
4.79265016964288
 30
0.0
  0
VERTEX
  5
278F
330
23D2
100
AcDbEntity
  8
0
100
AcDbVertex
100
AcDb2dVertex
 10
3.771462238016968
 20
4.770346035784613
 30
0.0
  0
VERTEX
  5
2790
330
23D2
100
AcDbEntity
  8
0
100
AcDbVertex
100
AcDb2dVertex
 10
3.747846096284684
 20
4.754601941296423
 30
0.0
  0
VERTEX
  5
2791
330
23D2
100
AcDbEntity
  8
0
100
AcDbVertex
100
AcDb2dVertex
 10
3.720293930930353
 20
4.749353909800361
 30
0.0
  0
VERTEX
  5
2792
330
23D2
100
AcDbEntity
  8
0
100
AcDbVertex
100
AcDb2dVertex
 10
3.692741765576023
 20
4.754601941296423
 30
0.0
  0
VERTEX
  5
2793
330
23D2
100
AcDbEntity
  8
0
100
AcDbVertex
100
AcDb2dVertex
 10
3.669125623843739
 20
4.770346035784613
 30
0.0
  0
VERTEX
  5
2794
330
23D2
100
AcDbEntity
  8
0
100
AcDbVertex
100
AcDb2dVertex
 10
3.654693537229566
 20
4.79265016964288
 30
0.0
  0
VERTEX
  5
2795
330
23D2
100
AcDbEntity
  8
0
100
AcDbVertex
100
AcDb2dVertex
 10
3.648133497859487
 20
4.82020233499721
 30
0.0
  0
SEQEND
  5
2796
330
23D2
100
AcDbEntity
  8
0
  0
POLYLINE
  5
23E5
330
1E
100
AcDbEntity
  8
0
100
AcDb2dPolyline
 66
     1
 10
0.0
 20
0.0
 30
0.0
  0
VERTEX
  5
2797
330
23E5
100
AcDbEntity
  8
0
100
AcDbVertex
100
AcDb2dVertex
 10
1.44396026951303
 20
7.024375563343669
 30
0.0
  0
VERTEX
  5
2798
330
23E5
100
AcDbEntity
  8
0
100
AcDbVertex
100
AcDb2dVertex
 10
1.450520308883109
 20
7.051927728697998
 30
0.0
  0
VERTEX
  5
2799
330
23E5
100
AcDbEntity
  8
0
100
AcDbVertex
100
AcDb2dVertex
 10
1.464952395497282
 20
7.075543870430282
 30
0.0
  0
VERTEX
  5
279A
330
23E5
100
AcDbEntity
  8
0
100
AcDbVertex
100
AcDb2dVertex
 10
1.488568537229566
 20
7.091287964918471
 30
0.0
  0
VERTEX
  5
279B
330
23E5
100
AcDbEntity
  8
0
100
AcDbVertex
100
AcDb2dVertex
 10
1.516120702583896
 20
7.096535996414534
 30
0.0
  0
VERTEX
  5
279C
330
23E5
100
AcDbEntity
  8
0
100
AcDbVertex
100
AcDb2dVertex
 10
1.543672867938227
 20
7.091287964918471
 30
0.0
  0
VERTEX
  5
279D
330
23E5
100
AcDbEntity
  8
0
100
AcDbVertex
100
AcDb2dVertex
 10
1.56728900967051
 20
7.075543870430282
 30
0.0
  0
VERTEX
  5
279E
330
23E5
100
AcDbEntity
  8
0
100
AcDbVertex
100
AcDb2dVertex
 10
1.583033104158699
 20
7.051927728697998
 30
0.0
  0
VERTEX
  5
279F
330
23E5
100
AcDbEntity
  8
0
100
AcDbVertex
100
AcDb2dVertex
 10
1.588281135654762
 20
7.024375563343669
 30
0.0
  0
VERTEX
  5
27A0
330
23E5
100
AcDbEntity
  8
0
100
AcDbVertex
100
AcDb2dVertex
 10
1.583033104158699
 20
6.996823397989336
 30
0.0
  0
VERTEX
  5
27A1
330
23E5
100
AcDbEntity
  8
0
100
AcDbVertex
100
AcDb2dVertex
 10
1.56728900967051
 20
6.974519264131069
 30
0.0
  0
VERTEX
  5
27A2
330
23E5
100
AcDbEntity
  8
0
100
AcDbVertex
100
AcDb2dVertex
 10
1.543672867938227
 20
6.95877516964288
 30
0.0
  0
VERTEX
  5
27A3
330
23E5
100
AcDbEntity
  8
0
100
AcDbVertex
100
AcDb2dVertex
 10
1.516120702583896
 20
6.953527138146817
 30
0.0
  0
VERTEX
  5
27A4
330
23E5
100
AcDbEntity
  8
0
100
AcDbVertex
100
AcDb2dVertex
 10
1.488568537229566
 20
6.95877516964288
 30
0.0
  0
VERTEX
  5
27A5
330
23E5
100
AcDbEntity
  8
0
100
AcDbVertex
100
AcDb2dVertex
 10
1.464952395497282
 20
6.974519264131069
 30
0.0
  0
VERTEX
  5
27A6
330
23E5
100
AcDbEntity
  8
0
100
AcDbVertex
100
AcDb2dVertex
 10
1.450520308883109
 20
6.996823397989336
 30
0.0
  0
VERTEX
  5
27A7
330
23E5
100
AcDbEntity
  8
0
100
AcDbVertex
100
AcDb2dVertex
 10
1.44396026951303
 20
7.024375563343669
 30
0.0
  0
SEQEND
  5
27A8
330
23E5
100
AcDbEntity
  8
0
  0
POLYLINE
  5
23F8
330
1E
100
AcDbEntity
  8
0
100
AcDb2dPolyline
 66
     1
 10
0.0
 20
0.0
 30
0.0
  0
VERTEX
  5
27A9
330
23F8
100
AcDbEntity
  8
0
100
AcDbVertex
100
AcDb2dVertex
 10
1.44396026951303
 20
4.82020233499721
 30
0.0
  0
VERTEX
  5
27AA
330
23F8
100
AcDbEntity
  8
0
100
AcDbVertex
100
AcDb2dVertex
 10
1.450520308883109
 20
4.847754500351542
 30
0.0
  0
VERTEX
  5
27AB
330
23F8
100
AcDbEntity
  8
0
100
AcDbVertex
100
AcDb2dVertex
 10
1.464952395497282
 20
4.871370642083824
 30
0.0
  0
VERTEX
  5
27AC
330
23F8
100
AcDbEntity
  8
0
100
AcDbVertex
100
AcDb2dVertex
 10
1.488568537229566
 20
4.887114736572014
 30
0.0
  0
VERTEX
  5
27AD
330
23F8
100
AcDbEntity
  8
0
100
AcDbVertex
100
AcDb2dVertex
 10
1.516120702583896
 20
4.892362768068077
 30
0.0
  0
VERTEX
  5
27AE
330
23F8
100
AcDbEntity
  8
0
100
AcDbVertex
100
AcDb2dVertex
 10
1.543672867938227
 20
4.887114736572014
 30
0.0
  0
VERTEX
  5
27AF
330
23F8
100
AcDbEntity
  8
0
100
AcDbVertex
100
AcDb2dVertex
 10
1.56728900967051
 20
4.871370642083824
 30
0.0
  0
VERTEX
  5
27B0
330
23F8
100
AcDbEntity
  8
0
100
AcDbVertex
100
AcDb2dVertex
 10
1.583033104158699
 20
4.847754500351542
 30
0.0
  0
VERTEX
  5
27B1
330
23F8
100
AcDbEntity
  8
0
100
AcDbVertex
100
AcDb2dVertex
 10
1.588281135654762
 20
4.82020233499721
 30
0.0
  0
VERTEX
  5
27B2
330
23F8
100
AcDbEntity
  8
0
100
AcDbVertex
100
AcDb2dVertex
 10
1.583033104158699
 20
4.79265016964288
 30
0.0
  0
VERTEX
  5
27B3
330
23F8
100
AcDbEntity
  8
0
100
AcDbVertex
100
AcDb2dVertex
 10
1.56728900967051
 20
4.770346035784613
 30
0.0
  0
VERTEX
  5
27B4
330
23F8
100
AcDbEntity
  8
0
100
AcDbVertex
100
AcDb2dVertex
 10
1.543672867938227
 20
4.754601941296423
 30
0.0
  0
VERTEX
  5
27B5
330
23F8
100
AcDbEntity
  8
0
100
AcDbVertex
100
AcDb2dVertex
 10
1.516120702583896
 20
4.749353909800361
 30
0.0
  0
VERTEX
  5
27B6
330
23F8
100
AcDbEntity
  8
0
100
AcDbVertex
100
AcDb2dVertex
 10
1.488568537229566
 20
4.754601941296423
 30
0.0
  0
VERTEX
  5
27B7
330
23F8
100
AcDbEntity
  8
0
100
AcDbVertex
100
AcDb2dVertex
 10
1.464952395497282
 20
4.770346035784613
 30
0.0
  0
VERTEX
  5
27B8
330
23F8
100
AcDbEntity
  8
0
100
AcDbVertex
100
AcDb2dVertex
 10
1.450520308883109
 20
4.79265016964288
 30
0.0
  0
VERTEX
  5
27B9
330
23F8
100
AcDbEntity
  8
0
100
AcDbVertex
100
AcDb2dVertex
 10
1.44396026951303
 20
4.82020233499721
 30
0.0
  0
SEQEND
  5
27BA
330
23F8
100
AcDbEntity
  8
0
  0
POLYLINE
  5
240B
330
1E
100
AcDbEntity
  8
0
100
AcDb2dPolyline
 66
     1
 10
0.0
 20
0.0
 30
0.0
  0
VERTEX
  5
27BB
330
240B
100
AcDbEntity
  8
0
100
AcDbVertex
100
AcDb2dVertex
 10
3.648133497859487
 20
7.024375563343669
 30
0.0
  0
VERTEX
  5
27BC
330
240B
100
AcDbEntity
  8
0
100
AcDbVertex
100
AcDb2dVertex
 10
3.654693537229566
 20
7.051927728697998
 30
0.0
  0
VERTEX
  5
27BD
330
240B
100
AcDbEntity
  8
0
100
AcDbVertex
100
AcDb2dVertex
 10
3.669125623843739
 20
7.075543870430282
 30
0.0
  0
VERTEX
  5
27BE
330
240B
100
AcDbEntity
  8
0
100
AcDbVertex
100
AcDb2dVertex
 10
3.692741765576023
 20
7.091287964918471
 30
0.0
  0
VERTEX
  5
27BF
330
240B
100
AcDbEntity
  8
0
100
AcDbVertex
100
AcDb2dVertex
 10
3.720293930930353
 20
7.096535996414534
 30
0.0
  0
VERTEX
  5
27C0
330
240B
100
AcDbEntity
  8
0
100
AcDbVertex
100
AcDb2dVertex
 10
3.747846096284684
 20
7.091287964918471
 30
0.0
  0
VERTEX
  5
27C1
330
240B
100
AcDbEntity
  8
0
100
AcDbVertex
100
AcDb2dVertex
 10
3.771462238016968
 20
7.075543870430282
 30
0.0
  0
VERTEX
  5
27C2
330
240B
100
AcDbEntity
  8
0
100
AcDbVertex
100
AcDb2dVertex
 10
3.787206332505156
 20
7.051927728697998
 30
0.0
  0
VERTEX
  5
27C3
330
240B
100
AcDbEntity
  8
0
100
AcDbVertex
100
AcDb2dVertex
 10
3.79245436400122
 20
7.024375563343669
 30
0.0
  0
VERTEX
  5
27C4
330
240B
100
AcDbEntity
  8
0
100
AcDbVertex
100
AcDb2dVertex
 10
3.787206332505156
 20
6.996823397989336
 30
0.0
  0
VERTEX
  5
27C5
330
240B
100
AcDbEntity
  8
0
100
AcDbVertex
100
AcDb2dVertex
 10
3.771462238016968
 20
6.974519264131069
 30
0.0
  0
VERTEX
  5
27C6
330
240B
100
AcDbEntity
  8
0
100
AcDbVertex
100
AcDb2dVertex
 10
3.747846096284684
 20
6.95877516964288
 30
0.0
  0
VERTEX
  5
27C7
330
240B
100
AcDbEntity
  8
0
100
AcDbVertex
100
AcDb2dVertex
 10
3.720293930930353
 20
6.953527138146817
 30
0.0
  0
VERTEX
  5
27C8
330
240B
100
AcDbEntity
  8
0
100
AcDbVertex
100
AcDb2dVertex
 10
3.692741765576023
 20
6.95877516964288
 30
0.0
  0
VERTEX
  5
27C9
330
240B
100
AcDbEntity
  8
0
100
AcDbVertex
100
AcDb2dVertex
 10
3.669125623843739
 20
6.974519264131069
 30
0.0
  0
VERTEX
  5
27CA
330
240B
100
AcDbEntity
  8
0
100
AcDbVertex
100
AcDb2dVertex
 10
3.654693537229566
 20
6.996823397989336
 30
0.0
  0
VERTEX
  5
27CB
330
240B
100
AcDbEntity
  8
0
100
AcDbVertex
100
AcDb2dVertex
 10
3.648133497859487
 20
7.024375563343669
 30
0.0
  0
SEQEND
  5
27CC
330
240B
100
AcDbEntity
  8
0
  0
CIRCLE
  5
241E
330
1E
100
AcDbEntity
  8
0
100
AcDbCircle
 10
2.618863320694132
 20
5.92228894917044
 30
0.0
 40
1.151286909448819
  0
POLYLINE
  5
241F
330
1E
100
AcDbEntity
  8
0
100
AcDb2dPolyline
 66
     1
 10
0.0
 20
0.0
 30
0.0
  0
VERTEX
  5
27CD
330
241F
100
AcDbEntity
  8
0
100
AcDbVertex
100
AcDb2dVertex
 10
3.408036056914605
 20
6.020689539721621
 30
0.0
  0
VERTEX
  5
27CE
330
241F
100
AcDbEntity
  8
0
100
AcDbVertex
100
AcDb2dVertex
 10
3.410660072662637
 20
6.012817492477525
 30
0.0
  0
VERTEX
  5
27CF
330
241F
100
AcDbEntity
  8
0
100
AcDbVertex
100
AcDb2dVertex
 10
3.417220112032716
 20
6.010193476729494
 30
0.0
  0
SEQEND
  5
27D0
330
241F
100
AcDbEntity
  8
0
  0
LINE
  5
2424
330
1E
100
AcDbEntity
  8
0
100
AcDbLine
 10
3.457892356127203
 20
6.010193476729495
 30
0.0
 11
3.417220112032715
 21
6.010193476729495
 31
0.0
  0
POLYLINE
  5
2425
330
1E
100
AcDbEntity
  8
0
100
AcDb2dPolyline
 66
     1
 10
0.0
 20
0.0
 30
0.0
  0
VERTEX
  5
27D1
330
2425
100
AcDbEntity
  8
0
100
AcDbVertex
100
AcDb2dVertex
 10
3.457892356127203
 20
6.010193476729494
 30
0.0
  0
VERTEX
  5
27D2
330
2425
100
AcDbEntity
  8
0
100
AcDbVertex
100
AcDb2dVertex
 10
3.464452395497283
 20
6.007569460981462
 30
0.0
  0
VERTEX
  5
27D3
330
2425
100
AcDbEntity
  8
0
100
AcDbVertex
100
AcDb2dVertex
 10
3.467076411245314
 20
5.999697413737369
 30
0.0
  0
SEQEND
  5
27D4
330
2425
100
AcDbEntity
  8
0
  0
LINE
  5
242A
330
1E
100
AcDbEntity
  8
0
100
AcDbLine
 10
3.467076411245314
 20
5.999697413737369
 30
0.0
 11
3.467076411245314
 21
5.84488048460351
 31
0.0
  0
POLYLINE
  5
242B
330
1E
100
AcDbEntity
  8
0
100
AcDb2dPolyline
 66
     1
 10
0.0
 20
0.0
 30
0.0
  0
VERTEX
  5
27D5
330
242B
100
AcDbEntity
  8
0
100
AcDbVertex
100
AcDb2dVertex
 10
3.467076411245314
 20
5.84488048460351
 30
0.0
  0
VERTEX
  5
27D6
330
242B
100
AcDbEntity
  8
0
100
AcDbVertex
100
AcDb2dVertex
 10
3.464452395497283
 20
5.838320445233431
 30
0.0
  0
VERTEX
  5
27D7
330
242B
100
AcDbEntity
  8
0
100
AcDbVertex
100
AcDb2dVertex
 10
3.457892356127203
 20
5.835696429485399
 30
0.0
  0
SEQEND
  5
27D8
330
242B
100
AcDbEntity
  8
0
  0
LINE
  5
2430
330
1E
100
AcDbEntity
  8
0
100
AcDbLine
 10
3.457892356127203
 20
5.835696429485399
 30
0.0
 11
3.417220112032715
 21
5.835696429485399
 31
0.0
  0
POLYLINE
  5
2431
330
1E
100
AcDbEntity
  8
0
100
AcDb2dPolyline
 66
     1
 10
0.0
 20
0.0
 30
0.0
  0
VERTEX
  5
27D9
330
2431
100
AcDbEntity
  8
0
100
AcDbVertex
100
AcDb2dVertex
 10
3.417220112032716
 20
5.835696429485399
 30
0.0
  0
VERTEX
  5
27DA
330
2431
100
AcDbEntity
  8
0
100
AcDbVertex
100
AcDb2dVertex
 10
3.410660072662637
 20
5.831760405863353
 30
0.0
  0
VERTEX
  5
27DB
330
2431
100
AcDbEntity
  8
0
100
AcDbVertex
100
AcDb2dVertex
 10
3.408036056914605
 20
5.825200366493273
 30
0.0
  0
SEQEND
  5
27DC
330
2431
100
AcDbEntity
  8
0
  0
LINE
  5
2436
330
1E
100
AcDbEntity
  8
0
100
AcDbLine
 10
3.408036056914605
 20
5.258412964918471
 30
0.0
 11
3.408036056914605
 21
5.825200366493273
 31
0.0
  0
POLYLINE
  5
2437
330
1E
100
AcDbEntity
  8
0
100
AcDb2dPolyline
 66
     1
 10
0.0
 20
0.0
 30
0.0
  0
VERTEX
  5
27DD
330
2437
100
AcDbEntity
  8
0
100
AcDbVertex
100
AcDb2dVertex
 10
3.408036056914605
 20
5.258412964918472
 30
0.0
  0
VERTEX
  5
27DE
330
2437
100
AcDbEntity
  8
0
100
AcDbVertex
100
AcDb2dVertex
 10
3.40672404904059
 20
5.254476941296424
 30
0.0
  0
VERTEX
  5
27DF
330
2437
100
AcDbEntity
  8
0
100
AcDbVertex
100
AcDb2dVertex
 10
3.405412041166573
 20
5.251852925548392
 30
0.0
  0
VERTEX
  5
27E0
330
2437
100
AcDbEntity
  8
0
100
AcDbVertex
100
AcDb2dVertex
 10
3.402788025418542
 20
5.24922890980036
 30
0.0
  0
VERTEX
  5
27E1
330
2437
100
AcDbEntity
  8
0
100
AcDbVertex
100
AcDb2dVertex
 10
3.400164009670511
 20
5.247916901926346
 30
0.0
  0
VERTEX
  5
27E2
330
2437
100
AcDbEntity
  8
0
100
AcDbVertex
100
AcDb2dVertex
 10
3.397539993922479
 20
5.247916901926346
 30
0.0
  0
SEQEND
  5
27E3
330
2437
100
AcDbEntity
  8
0
  0
POLYLINE
  5
243F
330
1E
100
AcDbEntity
  8
0
100
AcDb2dPolyline
 66
     1
 10
0.0
 20
0.0
 30
0.0
  0
VERTEX
  5
27E4
330
243F
100
AcDbEntity
  8
0
100
AcDbVertex
100
AcDb2dVertex
 10
1.83887463959177
 20
5.247916901926346
 30
0.0
  0
VERTEX
  5
27E5
330
243F
100
AcDbEntity
  8
0
100
AcDbVertex
100
AcDb2dVertex
 10
1.836250623843739
 20
5.24922890980036
 30
0.0
  0
VERTEX
  5
27E6
330
243F
100
AcDbEntity
  8
0
100
AcDbVertex
100
AcDb2dVertex
 10
1.832314600221692
 20
5.250540917674376
 30
0.0
  0
VERTEX
  5
27E7
330
243F
100
AcDbEntity
  8
0
100
AcDbVertex
100
AcDb2dVertex
 10
1.831002592347676
 20
5.253164933422408
 30
0.0
  0
VERTEX
  5
27E8
330
243F
100
AcDbEntity
  8
0
100
AcDbVertex
100
AcDb2dVertex
 10
1.82969058447366
 20
5.255788949170439
 30
0.0
  0
VERTEX
  5
27E9
330
243F
100
AcDbEntity
  8
0
100
AcDbVertex
100
AcDb2dVertex
 10
1.82969058447366
 20
5.258412964918472
 30
0.0
  0
SEQEND
  5
27EA
330
243F
100
AcDbEntity
  8
0
  0
POLYLINE
  5
2447
330
1E
100
AcDbEntity
  8
0
100
AcDb2dPolyline
 66
     1
 10
0.0
 20
0.0
 30
0.0
  0
VERTEX
  5
27EB
330
2447
100
AcDbEntity
  8
0
100
AcDbVertex
100
AcDb2dVertex
 10
1.82969058447366
 20
5.825200366493273
 30
0.0
  0
VERTEX
  5
27EC
330
2447
100
AcDbEntity
  8
0
100
AcDbVertex
100
AcDb2dVertex
 10
1.825754560851613
 20
5.831760405863353
 30
0.0
  0
VERTEX
  5
27ED
330
2447
100
AcDbEntity
  8
0
100
AcDbVertex
100
AcDb2dVertex
 10
1.819194521481534
 20
5.835696429485399
 30
0.0
  0
SEQEND
  5
27EE
330
2447
100
AcDbEntity
  8
0
  0
LINE
  5
244C
330
1E
100
AcDbEntity
  8
0
100
AcDbLine
 10
1.778522277387046
 20
5.835696429485399
 30
0.0
 11
1.819194521481534
 21
5.835696429485399
 31
0.0
  0
POLYLINE
  5
244D
330
1E
100
AcDbEntity
  8
0
100
AcDb2dPolyline
 66
     1
 10
0.0
 20
0.0
 30
0.0
  0
VERTEX
  5
27EF
330
244D
100
AcDbEntity
  8
0
100
AcDbVertex
100
AcDb2dVertex
 10
1.778522277387046
 20
5.835696429485399
 30
0.0
  0
VERTEX
  5
27F0
330
244D
100
AcDbEntity
  8
0
100
AcDbVertex
100
AcDb2dVertex
 10
1.771962238016967
 20
5.838320445233431
 30
0.0
  0
VERTEX
  5
27F1
330
244D
100
AcDbEntity
  8
0
100
AcDbVertex
100
AcDb2dVertex
 10
1.769338222268936
 20
5.84488048460351
 30
0.0
  0
SEQEND
  5
27F2
330
244D
100
AcDbEntity
  8
0
  0
LINE
  5
2452
330
1E
100
AcDbEntity
  8
0
100
AcDbLine
 10
1.769338222268936
 20
5.84488048460351
 30
0.0
 11
1.769338222268936
 21
5.999697413737369
 31
0.0
  0
POLYLINE
  5
2453
330
1E
100
AcDbEntity
  8
0
100
AcDb2dPolyline
 66
     1
 10
0.0
 20
0.0
 30
0.0
  0
VERTEX
  5
27F3
330
2453
100
AcDbEntity
  8
0
100
AcDbVertex
100
AcDb2dVertex
 10
1.769338222268936
 20
5.999697413737369
 30
0.0
  0
VERTEX
  5
27F4
330
2453
100
AcDbEntity
  8
0
100
AcDbVertex
100
AcDb2dVertex
 10
1.771962238016967
 20
6.007569460981462
 30
0.0
  0
VERTEX
  5
27F5
330
2453
100
AcDbEntity
  8
0
100
AcDbVertex
100
AcDb2dVertex
 10
1.778522277387046
 20
6.010193476729494
 30
0.0
  0
SEQEND
  5
27F6
330
2453
100
AcDbEntity
  8
0
  0
LINE
  5
2458
330
1E
100
AcDbEntity
  8
0
100
AcDbLine
 10
1.778522277387046
 20
6.010193476729495
 30
0.0
 11
1.819194521481534
 21
6.010193476729495
 31
0.0
  0
POLYLINE
  5
2459
330
1E
100
AcDbEntity
  8
0
100
AcDb2dPolyline
 66
     1
 10
0.0
 20
0.0
 30
0.0
  0
VERTEX
  5
27F7
330
2459
100
AcDbEntity
  8
0
100
AcDbVertex
100
AcDb2dVertex
 10
1.819194521481534
 20
6.010193476729494
 30
0.0
  0
VERTEX
  5
27F8
330
2459
100
AcDbEntity
  8
0
100
AcDbVertex
100
AcDb2dVertex
 10
1.825754560851613
 20
6.012817492477525
 30
0.0
  0
VERTEX
  5
27F9
330
2459
100
AcDbEntity
  8
0
100
AcDbVertex
100
AcDb2dVertex
 10
1.82969058447366
 20
6.020689539721621
 30
0.0
  0
SEQEND
  5
27FA
330
2459
100
AcDbEntity
  8
0
  0
LINE
  5
245E
330
1E
100
AcDbEntity
  8
0
100
AcDbLine
 10
1.82969058447366
 20
6.587476941296424
 30
0.0
 11
1.82969058447366
 21
6.020689539721621
 31
0.0
  0
POLYLINE
  5
245F
330
1E
100
AcDbEntity
  8
0
100
AcDb2dPolyline
 66
     1
 10
0.0
 20
0.0
 30
0.0
  0
VERTEX
  5
27FB
330
245F
100
AcDbEntity
  8
0
100
AcDbVertex
100
AcDb2dVertex
 10
1.82969058447366
 20
6.587476941296424
 30
0.0
  0
VERTEX
  5
27FC
330
245F
100
AcDbEntity
  8
0
100
AcDbVertex
100
AcDb2dVertex
 10
1.82969058447366
 20
6.590100957044455
 30
0.0
  0
VERTEX
  5
27FD
330
245F
100
AcDbEntity
  8
0
100
AcDbVertex
100
AcDb2dVertex
 10
1.831002592347676
 20
6.594036980666503
 30
0.0
  0
VERTEX
  5
27FE
330
245F
100
AcDbEntity
  8
0
100
AcDbVertex
100
AcDb2dVertex
 10
1.833626608095707
 20
6.595348988540518
 30
0.0
  0
VERTEX
  5
27FF
330
245F
100
AcDbEntity
  8
0
100
AcDbVertex
100
AcDb2dVertex
 10
1.836250623843739
 20
6.596660996414534
 30
0.0
  0
VERTEX
  5
2800
330
245F
100
AcDbEntity
  8
0
100
AcDbVertex
100
AcDb2dVertex
 10
1.83887463959177
 20
6.597973004288549
 30
0.0
  0
SEQEND
  5
2801
330
245F
100
AcDbEntity
  8
0
  0
POLYLINE
  5
2467
330
1E
100
AcDbEntity
  8
0
100
AcDb2dPolyline
 66
     1
 10
0.0
 20
0.0
 30
0.0
  0
VERTEX
  5
2802
330
2467
100
AcDbEntity
  8
0
100
AcDbVertex
100
AcDb2dVertex
 10
3.397539993922479
 20
6.597973004288549
 30
0.0
  0
VERTEX
  5
2803
330
2467
100
AcDbEntity
  8
0
100
AcDbVertex
100
AcDb2dVertex
 10
3.401476017544526
 20
6.596660996414534
 30
0.0
  0
VERTEX
  5
2804
330
2467
100
AcDbEntity
  8
0
100
AcDbVertex
100
AcDb2dVertex
 10
3.404100033292558
 20
6.595348988540518
 30
0.0
  0
VERTEX
  5
2805
330
2467
100
AcDbEntity
  8
0
100
AcDbVertex
100
AcDb2dVertex
 10
3.40672404904059
 20
6.592724972792487
 30
0.0
  0
VERTEX
  5
2806
330
2467
100
AcDbEntity
  8
0
100
AcDbVertex
100
AcDb2dVertex
 10
3.40672404904059
 20
6.590100957044455
 30
0.0
  0
VERTEX
  5
2807
330
2467
100
AcDbEntity
  8
0
100
AcDbVertex
100
AcDb2dVertex
 10
3.408036056914605
 20
6.587476941296424
 30
0.0
  0
SEQEND
  5
2808
330
2467
100
AcDbEntity
  8
0
  0
CIRCLE
  5
246F
330
1E
100
AcDbEntity
  8
0
100
AcDbCircle
 10
2.61951932463114
 20
5.922944953107447
 30
0.0
 40
1.235911591421531
  0
CIRCLE
  5
2470
330
1E
100
AcDbEntity
  8
0
100
AcDbCircle
 10
2.617551312820117
 20
5.92228894917044
 30
0.0
 40
1.231319389763779
  0
POLYLINE
  5
2471
330
1E
100
AcDbEntity
  8
0
100
AcDb2dPolyline
 66
     1
 10
0.0
 20
0.0
 30
0.0
  0
VERTEX
  5
2809
330
2471
100
AcDbEntity
  8
0
100
AcDbVertex
100
AcDb2dVertex
 10
3.646821489985471
 20
7.024375563343669
 30
0.0
  0
VERTEX
  5
280A
330
2471
100
AcDbEntity
  8
0
100
AcDbVertex
100
AcDb2dVertex
 10
3.65338152935555
 20
7.053239736572013
 30
0.0
  0
VERTEX
  5
280B
330
2471
100
AcDbEntity
  8
0
100
AcDbVertex
100
AcDb2dVertex
 10
3.669125623843739
 20
7.076855878304298
 30
0.0
  0
VERTEX
  5
280C
330
2471
100
AcDbEntity
  8
0
100
AcDbVertex
100
AcDb2dVertex
 10
3.692741765576023
 20
7.092599972792488
 30
0.0
  0
VERTEX
  5
280D
330
2471
100
AcDbEntity
  8
0
100
AcDbVertex
100
AcDb2dVertex
 10
3.720293930930353
 20
7.09784800428855
 30
0.0
  0
VERTEX
  5
280E
330
2471
100
AcDbEntity
  8
0
100
AcDbVertex
100
AcDb2dVertex
 10
3.747846096284684
 20
7.092599972792488
 30
0.0
  0
VERTEX
  5
280F
330
2471
100
AcDbEntity
  8
0
100
AcDbVertex
100
AcDb2dVertex
 10
3.772774245890983
 20
7.076855878304298
 30
0.0
  0
VERTEX
  5
2810
330
2471
100
AcDbEntity
  8
0
100
AcDbVertex
100
AcDb2dVertex
 10
3.788518340379172
 20
7.053239736572013
 30
0.0
  0
VERTEX
  5
2811
330
2471
100
AcDbEntity
  8
0
100
AcDbVertex
100
AcDb2dVertex
 10
3.793766371875235
 20
7.024375563343669
 30
0.0
  0
VERTEX
  5
2812
330
2471
100
AcDbEntity
  8
0
100
AcDbVertex
100
AcDb2dVertex
 10
3.788518340379172
 20
6.996823397989336
 30
0.0
  0
VERTEX
  5
2813
330
2471
100
AcDbEntity
  8
0
100
AcDbVertex
100
AcDb2dVertex
 10
3.772774245890983
 20
6.973207256257055
 30
0.0
  0
VERTEX
  5
2814
330
2471
100
AcDbEntity
  8
0
100
AcDbVertex
100
AcDb2dVertex
 10
3.747846096284684
 20
6.957463161768865
 30
0.0
  0
VERTEX
  5
2815
330
2471
100
AcDbEntity
  8
0
100
AcDbVertex
100
AcDb2dVertex
 10
3.720293930930353
 20
6.952215130272803
 30
0.0
  0
VERTEX
  5
2816
330
2471
100
AcDbEntity
  8
0
100
AcDbVertex
100
AcDb2dVertex
 10
3.692741765576023
 20
6.957463161768865
 30
0.0
  0
VERTEX
  5
2817
330
2471
100
AcDbEntity
  8
0
100
AcDbVertex
100
AcDb2dVertex
 10
3.669125623843739
 20
6.973207256257055
 30
0.0
  0
VERTEX
  5
2818
330
2471
100
AcDbEntity
  8
0
100
AcDbVertex
100
AcDb2dVertex
 10
3.65338152935555
 20
6.996823397989336
 30
0.0
  0
VERTEX
  5
2819
330
2471
100
AcDbEntity
  8
0
100
AcDbVertex
100
AcDb2dVertex
 10
3.646821489985471
 20
7.024375563343669
 30
0.0
  0
SEQEND
  5
281A
330
2471
100
AcDbEntity
  8
0
  0
POLYLINE
  5
2484
330
1E
100
AcDbEntity
  8
0
100
AcDb2dPolyline
 66
     1
 10
0.0
 20
0.0
 30
0.0
  0
VERTEX
  5
281B
330
2484
100
AcDbEntity
  8
0
100
AcDbVertex
100
AcDb2dVertex
 10
1.442648261639014
 20
4.82020233499721
 30
0.0
  0
VERTEX
  5
281C
330
2484
100
AcDbEntity
  8
0
100
AcDbVertex
100
AcDb2dVertex
 10
1.449208301009093
 20
4.849066508225558
 30
0.0
  0
VERTEX
  5
281D
330
2484
100
AcDbEntity
  8
0
100
AcDbVertex
100
AcDb2dVertex
 10
1.464952395497282
 20
4.87268264995784
 30
0.0
  0
VERTEX
  5
281E
330
2484
100
AcDbEntity
  8
0
100
AcDbVertex
100
AcDb2dVertex
 10
1.488568537229566
 20
4.88842674444603
 30
0.0
  0
VERTEX
  5
281F
330
2484
100
AcDbEntity
  8
0
100
AcDbVertex
100
AcDb2dVertex
 10
1.516120702583896
 20
4.893674775942093
 30
0.0
  0
VERTEX
  5
2820
330
2484
100
AcDbEntity
  8
0
100
AcDbVertex
100
AcDb2dVertex
 10
1.543672867938227
 20
4.88842674444603
 30
0.0
  0
VERTEX
  5
2821
330
2484
100
AcDbEntity
  8
0
100
AcDbVertex
100
AcDb2dVertex
 10
1.568601017544526
 20
4.87268264995784
 30
0.0
  0
VERTEX
  5
2822
330
2484
100
AcDbEntity
  8
0
100
AcDbVertex
100
AcDb2dVertex
 10
1.584345112032715
 20
4.849066508225558
 30
0.0
  0
VERTEX
  5
2823
330
2484
100
AcDbEntity
  8
0
100
AcDbVertex
100
AcDb2dVertex
 10
1.589593143528778
 20
4.82020233499721
 30
0.0
  0
VERTEX
  5
2824
330
2484
100
AcDbEntity
  8
0
100
AcDbVertex
100
AcDb2dVertex
 10
1.584345112032715
 20
4.79265016964288
 30
0.0
  0
VERTEX
  5
2825
330
2484
100
AcDbEntity
  8
0
100
AcDbVertex
100
AcDb2dVertex
 10
1.568601017544526
 20
4.769034027910597
 30
0.0
  0
VERTEX
  5
2826
330
2484
100
AcDbEntity
  8
0
100
AcDbVertex
100
AcDb2dVertex
 10
1.543672867938227
 20
4.753289933422408
 30
0.0
  0
VERTEX
  5
2827
330
2484
100
AcDbEntity
  8
0
100
AcDbVertex
100
AcDb2dVertex
 10
1.516120702583896
 20
4.748041901926345
 30
0.0
  0
VERTEX
  5
2828
330
2484
100
AcDbEntity
  8
0
100
AcDbVertex
100
AcDb2dVertex
 10
1.488568537229566
 20
4.753289933422408
 30
0.0
  0
VERTEX
  5
2829
330
2484
100
AcDbEntity
  8
0
100
AcDbVertex
100
AcDb2dVertex
 10
1.464952395497282
 20
4.769034027910597
 30
0.0
  0
VERTEX
  5
282A
330
2484
100
AcDbEntity
  8
0
100
AcDbVertex
100
AcDb2dVertex
 10
1.449208301009093
 20
4.79265016964288
 30
0.0
  0
VERTEX
  5
282B
330
2484
100
AcDbEntity
  8
0
100
AcDbVertex
100
AcDb2dVertex
 10
1.442648261639014
 20
4.82020233499721
 30
0.0
  0
SEQEND
  5
282C
330
2484
100
AcDbEntity
  8
0
  0
POLYLINE
  5
2497
330
1E
100
AcDbEntity
  8
0
100
AcDb2dPolyline
 66
     1
 10
0.0
 20
0.0
 30
0.0
  0
VERTEX
  5
282D
330
2497
100
AcDbEntity
  8
0
100
AcDbVertex
100
AcDb2dVertex
 10
1.442648261639014
 20
7.024375563343669
 30
0.0
  0
VERTEX
  5
282E
330
2497
100
AcDbEntity
  8
0
100
AcDbVertex
100
AcDb2dVertex
 10
1.449208301009093
 20
7.053239736572013
 30
0.0
  0
VERTEX
  5
282F
330
2497
100
AcDbEntity
  8
0
100
AcDbVertex
100
AcDb2dVertex
 10
1.464952395497282
 20
7.076855878304298
 30
0.0
  0
VERTEX
  5
2830
330
2497
100
AcDbEntity
  8
0
100
AcDbVertex
100
AcDb2dVertex
 10
1.488568537229566
 20
7.092599972792488
 30
0.0
  0
VERTEX
  5
2831
330
2497
100
AcDbEntity
  8
0
100
AcDbVertex
100
AcDb2dVertex
 10
1.516120702583896
 20
7.09784800428855
 30
0.0
  0
VERTEX
  5
2832
330
2497
100
AcDbEntity
  8
0
100
AcDbVertex
100
AcDb2dVertex
 10
1.543672867938227
 20
7.092599972792488
 30
0.0
  0
VERTEX
  5
2833
330
2497
100
AcDbEntity
  8
0
100
AcDbVertex
100
AcDb2dVertex
 10
1.568601017544526
 20
7.076855878304298
 30
0.0
  0
VERTEX
  5
2834
330
2497
100
AcDbEntity
  8
0
100
AcDbVertex
100
AcDb2dVertex
 10
1.584345112032715
 20
7.053239736572013
 30
0.0
  0
VERTEX
  5
2835
330
2497
100
AcDbEntity
  8
0
100
AcDbVertex
100
AcDb2dVertex
 10
1.589593143528778
 20
7.024375563343669
 30
0.0
  0
VERTEX
  5
2836
330
2497
100
AcDbEntity
  8
0
100
AcDbVertex
100
AcDb2dVertex
 10
1.584345112032715
 20
6.996823397989336
 30
0.0
  0
VERTEX
  5
2837
330
2497
100
AcDbEntity
  8
0
100
AcDbVertex
100
AcDb2dVertex
 10
1.568601017544526
 20
6.973207256257055
 30
0.0
  0
VERTEX
  5
2838
330
2497
100
AcDbEntity
  8
0
100
AcDbVertex
100
AcDb2dVertex
 10
1.543672867938227
 20
6.957463161768865
 30
0.0
  0
VERTEX
  5
2839
330
2497
100
AcDbEntity
  8
0
100
AcDbVertex
100
AcDb2dVertex
 10
1.516120702583896
 20
6.952215130272803
 30
0.0
  0
VERTEX
  5
283A
330
2497
100
AcDbEntity
  8
0
100
AcDbVertex
100
AcDb2dVertex
 10
1.488568537229566
 20
6.957463161768865
 30
0.0
  0
VERTEX
  5
283B
330
2497
100
AcDbEntity
  8
0
100
AcDbVertex
100
AcDb2dVertex
 10
1.464952395497282
 20
6.973207256257055
 30
0.0
  0
VERTEX
  5
283C
330
2497
100
AcDbEntity
  8
0
100
AcDbVertex
100
AcDb2dVertex
 10
1.449208301009093
 20
6.996823397989336
 30
0.0
  0
VERTEX
  5
283D
330
2497
100
AcDbEntity
  8
0
100
AcDbVertex
100
AcDb2dVertex
 10
1.442648261639014
 20
7.024375563343669
 30
0.0
  0
SEQEND
  5
283E
330
2497
100
AcDbEntity
  8
0
  0
POLYLINE
  5
24AA
330
1E
100
AcDbEntity
  8
0
100
AcDb2dPolyline
 66
     1
 10
0.0
 20
0.0
 30
0.0
  0
VERTEX
  5
283F
330
24AA
100
AcDbEntity
  8
0
100
AcDbVertex
100
AcDb2dVertex
 10
3.646821489985471
 20
4.82020233499721
 30
0.0
  0
VERTEX
  5
2840
330
24AA
100
AcDbEntity
  8
0
100
AcDbVertex
100
AcDb2dVertex
 10
3.65338152935555
 20
4.849066508225558
 30
0.0
  0
VERTEX
  5
2841
330
24AA
100
AcDbEntity
  8
0
100
AcDbVertex
100
AcDb2dVertex
 10
3.669125623843739
 20
4.87268264995784
 30
0.0
  0
VERTEX
  5
2842
330
24AA
100
AcDbEntity
  8
0
100
AcDbVertex
100
AcDb2dVertex
 10
3.692741765576023
 20
4.88842674444603
 30
0.0
  0
VERTEX
  5
2843
330
24AA
100
AcDbEntity
  8
0
100
AcDbVertex
100
AcDb2dVertex
 10
3.720293930930353
 20
4.893674775942093
 30
0.0
  0
VERTEX
  5
2844
330
24AA
100
AcDbEntity
  8
0
100
AcDbVertex
100
AcDb2dVertex
 10
3.747846096284684
 20
4.88842674444603
 30
0.0
  0
VERTEX
  5
2845
330
24AA
100
AcDbEntity
  8
0
100
AcDbVertex
100
AcDb2dVertex
 10
3.772774245890983
 20
4.87268264995784
 30
0.0
  0
VERTEX
  5
2846
330
24AA
100
AcDbEntity
  8
0
100
AcDbVertex
100
AcDb2dVertex
 10
3.788518340379172
 20
4.849066508225558
 30
0.0
  0
VERTEX
  5
2847
330
24AA
100
AcDbEntity
  8
0
100
AcDbVertex
100
AcDb2dVertex
 10
3.793766371875235
 20
4.82020233499721
 30
0.0
  0
VERTEX
  5
2848
330
24AA
100
AcDbEntity
  8
0
100
AcDbVertex
100
AcDb2dVertex
 10
3.788518340379172
 20
4.79265016964288
 30
0.0
  0
VERTEX
  5
2849
330
24AA
100
AcDbEntity
  8
0
100
AcDbVertex
100
AcDb2dVertex
 10
3.772774245890983
 20
4.769034027910597
 30
0.0
  0
VERTEX
  5
284A
330
24AA
100
AcDbEntity
  8
0
100
AcDbVertex
100
AcDb2dVertex
 10
3.747846096284684
 20
4.753289933422408
 30
0.0
  0
VERTEX
  5
284B
330
24AA
100
AcDbEntity
  8
0
100
AcDbVertex
100
AcDb2dVertex
 10
3.720293930930353
 20
4.748041901926345
 30
0.0
  0
VERTEX
  5
284C
330
24AA
100
AcDbEntity
  8
0
100
AcDbVertex
100
AcDb2dVertex
 10
3.692741765576023
 20
4.753289933422408
 30
0.0
  0
VERTEX
  5
284D
330
24AA
100
AcDbEntity
  8
0
100
AcDbVertex
100
AcDb2dVertex
 10
3.669125623843739
 20
4.769034027910597
 30
0.0
  0
VERTEX
  5
284E
330
24AA
100
AcDbEntity
  8
0
100
AcDbVertex
100
AcDb2dVertex
 10
3.65338152935555
 20
4.79265016964288
 30
0.0
  0
VERTEX
  5
284F
330
24AA
100
AcDbEntity
  8
0
100
AcDbVertex
100
AcDb2dVertex
 10
3.646821489985471
 20
4.82020233499721
 30
0.0
  0
SEQEND
  5
2850
330
24AA
100
AcDbEntity
  8
0
  0
LINE
  5
24BD
330
1E
100
AcDbEntity
  8
0
100
AcDbLine
 10
3.404100033292558
 20
5.729423791690124
 30
0.0
 11
3.404100033292558
 21
5.251852925548392
 31
0.0
  0
LINE
  5
24BE
330
1E
100
AcDbEntity
  8
0
100
AcDbLine
 10
1.832314600221691
 20
6.11646611452477
 30
0.0
 11
1.832314600221691
 21
6.594036980666502
 31
0.0
  0
LINE
  5
24BF
330
1E
100
AcDbEntity
  8
0
100
AcDbLine
 10
1.82969058447366
 20
6.020689539721621
 30
0.0
 11
1.832314600221691
 21
6.016753516099573
 31
0.0
  0
LINE
  5
24C0
330
1E
100
AcDbEntity
  8
0
100
AcDbLine
 10
3.408036056914605
 20
5.825200366493273
 30
0.0
 11
3.404100033292558
 21
5.829136390115321
 31
0.0
  0
LINE
  5
24C1
330
1E
100
AcDbEntity
  8
0
100
AcDbLine
 10
1.782458301009093
 20
6.007569460981462
 30
0.0
 11
1.821818537229565
 21
6.007569460981462
 31
0.0
  0
LINE
  5
24C2
330
1E
100
AcDbEntity
  8
0
100
AcDbLine
 10
1.821818537229565
 20
6.007569460981462
 30
0.0
 11
1.819194521481534
 21
6.010193476729495
 31
0.0
  0
LINE
  5
24C3
330
1E
100
AcDbEntity
  8
0
100
AcDbLine
 10
1.778522277387046
 20
6.010193476729495
 30
0.0
 11
1.782458301009093
 21
6.007569460981462
 31
0.0
  0
LINE
  5
24C4
330
1E
100
AcDbEntity
  8
0
100
AcDbLine
 10
1.782458301009093
 20
5.838320445233431
 30
0.0
 11
1.821818537229565
 21
5.838320445233431
 31
0.0
  0
LINE
  5
24C5
330
1E
100
AcDbEntity
  8
0
100
AcDbLine
 10
1.782458301009093
 20
5.838320445233431
 30
0.0
 11
1.778522277387046
 21
5.835696429485399
 31
0.0
  0
LINE
  5
24C6
330
1E
100
AcDbEntity
  8
0
100
AcDbLine
 10
1.819194521481534
 20
5.835696429485399
 30
0.0
 11
1.821818537229565
 21
5.838320445233431
 31
0.0
  0
LINE
  5
24C7
330
1E
100
AcDbEntity
  8
0
100
AcDbLine
 10
1.769338222268936
 20
5.84488048460351
 30
0.0
 11
1.771962238016967
 21
5.848816508225557
 31
0.0
  0
LINE
  5
24C8
330
1E
100
AcDbEntity
  8
0
100
AcDbLine
 10
1.771962238016967
 20
5.848816508225557
 30
0.0
 11
1.771962238016967
 21
5.997073397989336
 31
0.0
  0
LINE
  5
24C9
330
1E
100
AcDbEntity
  8
0
100
AcDbLine
 10
1.771962238016967
 20
5.997073397989336
 30
0.0
 11
1.769338222268936
 21
5.999697413737369
 31
0.0
  0
POLYLINE
  5
24CA
330
1E
100
AcDbEntity
  8
0
100
AcDb2dPolyline
 66
     1
 10
0.0
 20
0.0
 30
0.0
  0
VERTEX
  5
2851
330
24CA
100
AcDbEntity
  8
0
100
AcDbVertex
100
AcDb2dVertex
 10
1.782458301009093
 20
6.007569460981462
 30
0.0
  0
VERTEX
  5
2852
330
24CA
100
AcDbEntity
  8
0
100
AcDbVertex
100
AcDb2dVertex
 10
1.774586253764999
 20
6.003633437359416
 30
0.0
  0
VERTEX
  5
2853
330
24CA
100
AcDbEntity
  8
0
100
AcDbVertex
100
AcDb2dVertex
 10
1.771962238016967
 20
5.997073397989336
 30
0.0
  0
SEQEND
  5
2854
330
24CA
100
AcDbEntity
  8
0
  0
POLYLINE
  5
24CF
330
1E
100
AcDbEntity
  8
0
100
AcDb2dPolyline
 66
     1
 10
0.0
 20
0.0
 30
0.0
  0
VERTEX
  5
2855
330
24CF
100
AcDbEntity
  8
0
100
AcDbVertex
100
AcDb2dVertex
 10
1.771962238016967
 20
5.848816508225557
 30
0.0
  0
VERTEX
  5
2856
330
24CF
100
AcDbEntity
  8
0
100
AcDbVertex
100
AcDb2dVertex
 10
1.774586253764999
 20
5.840944460981463
 30
0.0
  0
VERTEX
  5
2857
330
24CF
100
AcDbEntity
  8
0
100
AcDbVertex
100
AcDb2dVertex
 10
1.782458301009093
 20
5.838320445233431
 30
0.0
  0
SEQEND
  5
2858
330
24CF
100
AcDbEntity
  8
0
  0
POLYLINE
  5
24D4
330
1E
100
AcDbEntity
  8
0
100
AcDb2dPolyline
 66
     1
 10
0.0
 20
0.0
 30
0.0
  0
VERTEX
  5
2859
330
24D4
100
AcDbEntity
  8
0
100
AcDbVertex
100
AcDb2dVertex
 10
1.821818537229566
 20
5.838320445233431
 30
0.0
  0
VERTEX
  5
285A
330
24D4
100
AcDbEntity
  8
0
100
AcDbVertex
100
AcDb2dVertex
 10
1.82969058447366
 20
5.835696429485399
 30
0.0
  0
VERTEX
  5
285B
330
24D4
100
AcDbEntity
  8
0
100
AcDbVertex
100
AcDb2dVertex
 10
1.832314600221692
 20
5.829136390115321
 30
0.0
  0
SEQEND
  5
285C
330
24D4
100
AcDbEntity
  8
0
  0
POLYLINE
  5
24D9
330
1E
100
AcDbEntity
  8
0
100
AcDb2dPolyline
 66
     1
 10
0.0
 20
0.0
 30
0.0
  0
VERTEX
  5
285D
330
24D9
100
AcDbEntity
  8
0
100
AcDbVertex
100
AcDb2dVertex
 10
1.832314600221692
 20
6.016753516099573
 30
0.0
  0
VERTEX
  5
285E
330
24D9
100
AcDbEntity
  8
0
100
AcDbVertex
100
AcDb2dVertex
 10
1.82969058447366
 20
6.010193476729494
 30
0.0
  0
VERTEX
  5
285F
330
24D9
100
AcDbEntity
  8
0
100
AcDbVertex
100
AcDb2dVertex
 10
1.821818537229566
 20
6.007569460981462
 30
0.0
  0
SEQEND
  5
2860
330
24D9
100
AcDbEntity
  8
0
  0
LINE
  5
24DE
330
1E
100
AcDbEntity
  8
0
100
AcDbLine
 10
3.467076411245314
 20
5.999697413737369
 30
0.0
 11
3.464452395497282
 21
5.997073397989336
 31
0.0
  0
LINE
  5
24DF
330
1E
100
AcDbEntity
  8
0
100
AcDbLine
 10
3.464452395497282
 20
5.997073397989336
 30
0.0
 11
3.464452395497282
 21
5.848816508225557
 31
0.0
  0
LINE
  5
24E0
330
1E
100
AcDbEntity
  8
0
100
AcDbLine
 10
3.464452395497282
 20
5.848816508225557
 30
0.0
 11
3.467076411245314
 21
5.84488048460351
 31
0.0
  0
LINE
  5
24E1
330
1E
100
AcDbEntity
  8
0
100
AcDbLine
 10
3.457892356127203
 20
5.835696429485399
 30
0.0
 11
3.453956332505156
 21
5.838320445233431
 31
0.0
  0
LINE
  5
24E2
330
1E
100
AcDbEntity
  8
0
100
AcDbLine
 10
3.453956332505156
 20
5.838320445233431
 30
0.0
 11
3.414596096284684
 21
5.838320445233431
 31
0.0
  0
LINE
  5
24E3
330
1E
100
AcDbEntity
  8
0
100
AcDbLine
 10
3.414596096284684
 20
5.838320445233431
 30
0.0
 11
3.417220112032715
 21
5.835696429485399
 31
0.0
  0
LINE
  5
24E4
330
1E
100
AcDbEntity
  8
0
100
AcDbLine
 10
3.453956332505156
 20
6.007569460981462
 30
0.0
 11
3.414596096284684
 21
6.007569460981462
 31
0.0
  0
LINE
  5
24E5
330
1E
100
AcDbEntity
  8
0
100
AcDbLine
 10
3.453956332505156
 20
6.007569460981462
 30
0.0
 11
3.457892356127203
 21
6.010193476729495
 31
0.0
  0
LINE
  5
24E6
330
1E
100
AcDbEntity
  8
0
100
AcDbLine
 10
3.417220112032715
 20
6.010193476729495
 30
0.0
 11
3.414596096284684
 21
6.007569460981462
 31
0.0
  0
POLYLINE
  5
24E7
330
1E
100
AcDbEntity
  8
0
100
AcDb2dPolyline
 66
     1
 10
0.0
 20
0.0
 30
0.0
  0
VERTEX
  5
2861
330
24E7
100
AcDbEntity
  8
0
100
AcDbVertex
100
AcDb2dVertex
 10
3.464452395497283
 20
5.997073397989336
 30
0.0
  0
VERTEX
  5
2862
330
24E7
100
AcDbEntity
  8
0
100
AcDbVertex
100
AcDb2dVertex
 10
3.46182837974925
 20
6.003633437359416
 30
0.0
  0
VERTEX
  5
2863
330
24E7
100
AcDbEntity
  8
0
100
AcDbVertex
100
AcDb2dVertex
 10
3.453956332505156
 20
6.007569460981462
 30
0.0
  0
SEQEND
  5
2864
330
24E7
100
AcDbEntity
  8
0
  0
POLYLINE
  5
24EC
330
1E
100
AcDbEntity
  8
0
100
AcDb2dPolyline
 66
     1
 10
0.0
 20
0.0
 30
0.0
  0
VERTEX
  5
2865
330
24EC
100
AcDbEntity
  8
0
100
AcDbVertex
100
AcDb2dVertex
 10
3.414596096284684
 20
6.007569460981462
 30
0.0
  0
VERTEX
  5
2866
330
24EC
100
AcDbEntity
  8
0
100
AcDbVertex
100
AcDb2dVertex
 10
3.40672404904059
 20
6.010193476729494
 30
0.0
  0
VERTEX
  5
2867
330
24EC
100
AcDbEntity
  8
0
100
AcDbVertex
100
AcDb2dVertex
 10
3.404100033292558
 20
6.016753516099573
 30
0.0
  0
SEQEND
  5
2868
330
24EC
100
AcDbEntity
  8
0
  0
POLYLINE
  5
24F1
330
1E
100
AcDbEntity
  8
0
100
AcDb2dPolyline
 66
     1
 10
0.0
 20
0.0
 30
0.0
  0
VERTEX
  5
2869
330
24F1
100
AcDbEntity
  8
0
100
AcDbVertex
100
AcDb2dVertex
 10
3.404100033292558
 20
5.829136390115321
 30
0.0
  0
VERTEX
  5
286A
330
24F1
100
AcDbEntity
  8
0
100
AcDbVertex
100
AcDb2dVertex
 10
3.40672404904059
 20
5.835696429485399
 30
0.0
  0
VERTEX
  5
286B
330
24F1
100
AcDbEntity
  8
0
100
AcDbVertex
100
AcDb2dVertex
 10
3.414596096284684
 20
5.838320445233431
 30
0.0
  0
SEQEND
  5
286C
330
24F1
100
AcDbEntity
  8
0
  0
POLYLINE
  5
24F6
330
1E
100
AcDbEntity
  8
0
100
AcDb2dPolyline
 66
     1
 10
0.0
 20
0.0
 30
0.0
  0
VERTEX
  5
286D
330
24F6
100
AcDbEntity
  8
0
100
AcDbVertex
100
AcDb2dVertex
 10
3.453956332505156
 20
5.838320445233431
 30
0.0
  0
VERTEX
  5
286E
330
24F6
100
AcDbEntity
  8
0
100
AcDbVertex
100
AcDb2dVertex
 10
3.46182837974925
 20
5.840944460981463
 30
0.0
  0
VERTEX
  5
286F
330
24F6
100
AcDbEntity
  8
0
100
AcDbVertex
100
AcDb2dVertex
 10
3.464452395497283
 20
5.848816508225557
 30
0.0
  0
SEQEND
  5
2870
330
24F6
100
AcDbEntity
  8
0
  0
LINE
  5
24FB
330
1E
100
AcDbEntity
  8
0
100
AcDbLine
 10
1.261591175024841
 20
7.299897216886975
 30
0.0
 11
2.111772277387045
 21
7.299897216886975
 31
0.0
  0
LINE
  5
24FC
330
1E
100
AcDbEntity
  8
0
100
AcDbLine
 10
2.111772277387045
 20
7.299897216886975
 30
0.0
 11
2.113084285261062
 21
7.298585209012959
 31
0.0
  0
LINE
  5
24FD
330
1E
100
AcDbEntity
  8
0
100
AcDbLine
 10
3.123330348253188
 20
7.298585209012959
 30
0.0
 11
3.124642356127203
 21
7.299897216886975
 31
0.0
  0
LINE
  5
24FE
330
1E
100
AcDbEntity
  8
0
100
AcDbLine
 10
3.124642356127203
 20
7.299897216886975
 30
0.0
 11
3.974823458489408
 21
7.299897216886975
 31
0.0
  0
LINE
  5
24FF
330
1E
100
AcDbEntity
  8
0
100
AcDbLine
 10
3.974823458489408
 20
7.299897216886975
 30
0.0
 11
3.976135466363423
 21
7.299897216886975
 31
0.0
  0
LINE
  5
2500
330
1E
100
AcDbEntity
  8
0
100
AcDbLine
 10
1.260279167150825
 20
7.299897216886975
 30
0.0
 11
1.261591175024841
 21
7.299897216886975
 31
0.0
  0
LINE
  5
2501
330
1E
100
AcDbEntity
  8
0
100
AcDbLine
 10
3.994503576599644
 20
6.430035996414535
 30
0.0
 11
3.994503576599644
 21
7.278905090902723
 31
0.0
  0
LINE
  5
2502
330
1E
100
AcDbEntity
  8
0
100
AcDbLine
 10
3.994503576599644
 20
6.430035996414535
 30
0.0
 11
3.993191568725629
 21
6.428723988540518
 31
0.0
  0
LINE
  5
2503
330
1E
100
AcDbEntity
  8
0
100
AcDbLine
 10
3.993191568725629
 20
5.417165917674376
 30
0.0
 11
3.994503576599644
 21
5.415853909800361
 31
0.0
  0
LINE
  5
2504
330
1E
100
AcDbEntity
  8
0
100
AcDbLine
 10
3.994503576599644
 20
5.415853909800361
 30
0.0
 11
3.994503576599644
 21
4.565672807438156
 31
0.0
  0
LINE
  5
2505
330
1E
100
AcDbEntity
  8
0
100
AcDbLine
 10
3.994503576599644
 20
4.565672807438156
 30
0.0
 11
3.99581558447366
 21
4.565672807438156
 31
0.0
  0
LINE
  5
2506
330
1E
100
AcDbEntity
  8
0
100
AcDbLine
 10
3.99581558447366
 20
7.280217098776739
 30
0.0
 11
3.994503576599644
 21
7.278905090902723
 31
0.0
  0
LINE
  5
2507
330
1E
100
AcDbEntity
  8
0
100
AcDbLine
 10
3.124642356127203
 20
4.54599268932792
 30
0.0
 11
3.974823458489408
 21
4.54599268932792
 31
0.0
  0
LINE
  5
2508
330
1E
100
AcDbEntity
  8
0
100
AcDbLine
 10
3.124642356127203
 20
4.54599268932792
 30
0.0
 11
3.123330348253188
 21
4.547304697201935
 31
0.0
  0
LINE
  5
2509
330
1E
100
AcDbEntity
  8
0
100
AcDbLine
 10
2.113084285261062
 20
4.547304697201935
 30
0.0
 11
2.111772277387045
 21
4.54599268932792
 31
0.0
  0
LINE
  5
250A
330
1E
100
AcDbEntity
  8
0
100
AcDbLine
 10
1.261591175024841
 20
4.54599268932792
 30
0.0
 11
2.111772277387045
 21
4.54599268932792
 31
0.0
  0
LINE
  5
250B
330
1E
100
AcDbEntity
  8
0
100
AcDbLine
 10
1.261591175024841
 20
4.54599268932792
 30
0.0
 11
1.260279167150825
 21
4.544680681453903
 31
0.0
  0
LINE
  5
250C
330
1E
100
AcDbEntity
  8
0
100
AcDbLine
 10
3.976135466363423
 20
4.544680681453903
 30
0.0
 11
3.974823458489408
 21
4.54599268932792
 31
0.0
  0
LINE
  5
250D
330
1E
100
AcDbEntity
  8
0
100
AcDbLine
 10
1.241911056914605
 20
5.415853909800361
 30
0.0
 11
1.241911056914605
 21
4.565672807438156
 31
0.0
  0
LINE
  5
250E
330
1E
100
AcDbEntity
  8
0
100
AcDbLine
 10
1.241911056914605
 20
5.415853909800361
 30
0.0
 11
1.243223064788621
 21
5.417165917674376
 31
0.0
  0
LINE
  5
250F
330
1E
100
AcDbEntity
  8
0
100
AcDbLine
 10
1.243223064788621
 20
6.428723988540518
 30
0.0
 11
1.241911056914605
 21
6.430035996414535
 31
0.0
  0
LINE
  5
2510
330
1E
100
AcDbEntity
  8
0
100
AcDbLine
 10
1.241911056914605
 20
7.278905090902723
 30
0.0
 11
1.241911056914605
 21
6.430035996414535
 31
0.0
  0
LINE
  5
2511
330
1E
100
AcDbEntity
  8
0
100
AcDbLine
 10
1.241911056914605
 20
7.278905090902723
 30
0.0
 11
1.240599049040589
 21
7.280217098776739
 31
0.0
  0
LINE
  5
2512
330
1E
100
AcDbEntity
  8
0
100
AcDbLine
 10
1.240599049040589
 20
4.565672807438156
 30
0.0
 11
1.241911056914605
 21
4.565672807438156
 31
0.0
  0
LINE
  5
2513
330
1E
100
AcDbEntity
  8
0
100
AcDbLine
 10
2.09209215927681
 20
4.62602516964288
 30
0.0
 11
2.09209215927681
 21
4.565672807438156
 31
0.0
  0
LINE
  5
2514
330
1E
100
AcDbEntity
  8
0
100
AcDbLine
 10
2.09209215927681
 20
4.565672807438156
 30
0.0
 11
2.093404167150825
 21
4.566984815312172
 31
0.0
  0
LINE
  5
2515
330
1E
100
AcDbEntity
  8
0
100
AcDbLine
 10
2.093404167150825
 20
4.627337177516896
 30
0.0
 11
2.09209215927681
 21
4.62602516964288
 31
0.0
  0
POLYLINE
  5
2516
330
1E
100
AcDbEntity
  8
0
100
AcDb2dPolyline
 66
     1
 10
0.0
 20
0.0
 30
0.0
  0
VERTEX
  5
2871
330
2516
100
AcDbEntity
  8
0
100
AcDbVertex
100
AcDb2dVertex
 10
1.241911056914605
 20
4.565672807438156
 30
0.0
  0
VERTEX
  5
2872
330
2516
100
AcDbEntity
  8
0
100
AcDbVertex
100
AcDb2dVertex
 10
1.247159088410668
 20
4.552552728697998
 30
0.0
  0
VERTEX
  5
2873
330
2516
100
AcDbEntity
  8
0
100
AcDbVertex
100
AcDb2dVertex
 10
1.261591175024841
 20
4.54599268932792
 30
0.0
  0
SEQEND
  5
2874
330
2516
100
AcDbEntity
  8
0
  0
POLYLINE
  5
251B
330
1E
100
AcDbEntity
  8
0
100
AcDb2dPolyline
 66
     1
 10
0.0
 20
0.0
 30
0.0
  0
VERTEX
  5
2875
330
251B
100
AcDbEntity
  8
0
100
AcDbVertex
100
AcDb2dVertex
 10
2.111772277387045
 20
4.54599268932792
 30
0.0
  0
VERTEX
  5
2876
330
251B
100
AcDbEntity
  8
0
100
AcDbVertex
100
AcDb2dVertex
 10
2.097340190772873
 20
4.552552728697998
 30
0.0
  0
VERTEX
  5
2877
330
251B
100
AcDbEntity
  8
0
100
AcDbVertex
100
AcDb2dVertex
 10
2.09209215927681
 20
4.565672807438156
 30
0.0
  0
SEQEND
  5
2878
330
251B
100
AcDbEntity
  8
0
  0
POLYLINE
  5
2520
330
1E
100
AcDbEntity
  8
0
100
AcDb2dPolyline
 66
     1
 10
0.0
 20
0.0
 30
0.0
  0
VERTEX
  5
2879
330
2520
100
AcDbEntity
  8
0
100
AcDbVertex
100
AcDb2dVertex
 10
2.09209215927681
 20
4.62602516964288
 30
0.0
  0
VERTEX
  5
287A
330
2520
100
AcDbEntity
  8
0
100
AcDbVertex
100
AcDb2dVertex
 10
2.085532119906731
 20
4.640457256257054
 30
0.0
  0
VERTEX
  5
287B
330
2520
100
AcDbEntity
  8
0
100
AcDbVertex
100
AcDb2dVertex
 10
2.071100033292558
 20
4.645705287753116
 30
0.0
  0
SEQEND
  5
287C
330
2520
100
AcDbEntity
  8
0
  0
LINE
  5
2525
330
1E
100
AcDbEntity
  8
0
100
AcDbLine
 10
1.361303773450038
 20
4.645705287753116
 30
0.0
 11
2.071100033292557
 21
4.645705287753116
 31
0.0
  0
POLYLINE
  5
2526
330
1E
100
AcDbEntity
  8
0
100
AcDb2dPolyline
 66
     1
 10
0.0
 20
0.0
 30
0.0
  0
VERTEX
  5
287D
330
2526
100
AcDbEntity
  8
0
100
AcDbVertex
100
AcDb2dVertex
 10
1.361303773450038
 20
4.645705287753116
 30
0.0
  0
VERTEX
  5
287E
330
2526
100
AcDbEntity
  8
0
100
AcDbVertex
100
AcDb2dVertex
 10
1.34818369470988
 20
4.652265327123195
 30
0.0
  0
VERTEX
  5
287F
330
2526
100
AcDbEntity
  8
0
100
AcDbVertex
100
AcDb2dVertex
 10
1.341623655339802
 20
4.666697413737368
 30
0.0
  0
SEQEND
  5
2880
330
2526
100
AcDbEntity
  8
0
  0
LINE
  5
252B
330
1E
100
AcDbEntity
  8
0
100
AcDbLine
 10
1.341623655339801
 20
4.666697413737368
 30
0.0
 11
1.341623655339801
 21
5.376493673579887
 31
0.0
  0
POLYLINE
  5
252C
330
1E
100
AcDbEntity
  8
0
100
AcDb2dPolyline
 66
     1
 10
0.0
 20
0.0
 30
0.0
  0
VERTEX
  5
2881
330
252C
100
AcDbEntity
  8
0
100
AcDbVertex
100
AcDb2dVertex
 10
1.341623655339802
 20
5.376493673579888
 30
0.0
  0
VERTEX
  5
2882
330
252C
100
AcDbEntity
  8
0
100
AcDbVertex
100
AcDb2dVertex
 10
1.336375623843739
 20
5.389613752320046
 30
0.0
  0
VERTEX
  5
2883
330
252C
100
AcDbEntity
  8
0
100
AcDbVertex
100
AcDb2dVertex
 10
1.321943537229565
 20
5.396173791690125
 30
0.0
  0
SEQEND
  5
2884
330
252C
100
AcDbEntity
  8
0
  0
LINE
  5
2531
330
1E
100
AcDbEntity
  8
0
100
AcDbLine
 10
1.261591175024841
 20
5.396173791690124
 30
0.0
 11
1.321943537229565
 21
5.396173791690124
 31
0.0
  0
POLYLINE
  5
2532
330
1E
100
AcDbEntity
  8
0
100
AcDb2dPolyline
 66
     1
 10
0.0
 20
0.0
 30
0.0
  0
VERTEX
  5
2885
330
2532
100
AcDbEntity
  8
0
100
AcDbVertex
100
AcDb2dVertex
 10
1.261591175024841
 20
5.396173791690125
 30
0.0
  0
VERTEX
  5
2886
330
2532
100
AcDbEntity
  8
0
100
AcDbVertex
100
AcDb2dVertex
 10
1.247159088410668
 20
5.401421823186187
 30
0.0
  0
VERTEX
  5
2887
330
2532
100
AcDbEntity
  8
0
100
AcDbVertex
100
AcDb2dVertex
 10
1.241911056914605
 20
5.415853909800361
 30
0.0
  0
SEQEND
  5
2888
330
2532
100
AcDbEntity
  8
0
  0
LINE
  5
2537
330
1E
100
AcDbEntity
  8
0
100
AcDbLine
 10
2.071100033292557
 20
4.645705287753116
 30
0.0
 11
2.072412041166573
 21
4.647017295627132
 31
0.0
  0
LINE
  5
2538
330
1E
100
AcDbEntity
  8
0
100
AcDbLine
 10
1.362615781324053
 20
4.647017295627132
 30
0.0
 11
1.361303773450038
 21
4.645705287753116
 31
0.0
  0
LINE
  5
2539
330
1E
100
AcDbEntity
  8
0
100
AcDbLine
 10
3.14432247423744
 20
4.566984815312172
 30
0.0
 11
3.145634482111455
 21
4.565672807438156
 31
0.0
  0
LINE
  5
253A
330
1E
100
AcDbEntity
  8
0
100
AcDbLine
 10
3.145634482111455
 20
4.62602516964288
 30
0.0
 11
3.145634482111455
 21
4.565672807438156
 31
0.0
  0
LINE
  5
253B
330
1E
100
AcDbEntity
  8
0
100
AcDbLine
 10
3.145634482111455
 20
4.62602516964288
 30
0.0
 11
3.14432247423744
 21
4.627337177516896
 31
0.0
  0
POLYLINE
  5
253C
330
1E
100
AcDbEntity
  8
0
100
AcDb2dPolyline
 66
     1
 10
0.0
 20
0.0
 30
0.0
  0
VERTEX
  5
2889
330
253C
100
AcDbEntity
  8
0
100
AcDbVertex
100
AcDb2dVertex
 10
3.974823458489408
 20
4.54599268932792
 30
0.0
  0
VERTEX
  5
288A
330
253C
100
AcDbEntity
  8
0
100
AcDbVertex
100
AcDb2dVertex
 10
3.989255545103581
 20
4.552552728697998
 30
0.0
  0
VERTEX
  5
288B
330
253C
100
AcDbEntity
  8
0
100
AcDbVertex
100
AcDb2dVertex
 10
3.994503576599644
 20
4.565672807438156
 30
0.0
  0
SEQEND
  5
288C
330
253C
100
AcDbEntity
  8
0
  0
POLYLINE
  5
2541
330
1E
100
AcDbEntity
  8
0
100
AcDb2dPolyline
 66
     1
 10
0.0
 20
0.0
 30
0.0
  0
VERTEX
  5
288D
330
2541
100
AcDbEntity
  8
0
100
AcDbVertex
100
AcDb2dVertex
 10
3.994503576599644
 20
5.415853909800361
 30
0.0
  0
VERTEX
  5
288E
330
2541
100
AcDbEntity
  8
0
100
AcDbVertex
100
AcDb2dVertex
 10
3.989255545103581
 20
5.401421823186187
 30
0.0
  0
VERTEX
  5
288F
330
2541
100
AcDbEntity
  8
0
100
AcDbVertex
100
AcDb2dVertex
 10
3.974823458489408
 20
5.396173791690125
 30
0.0
  0
SEQEND
  5
2890
330
2541
100
AcDbEntity
  8
0
  0
LINE
  5
2546
330
1E
100
AcDbEntity
  8
0
100
AcDbLine
 10
3.914471096284684
 20
5.396173791690124
 30
0.0
 11
3.974823458489408
 21
5.396173791690124
 31
0.0
  0
POLYLINE
  5
2547
330
1E
100
AcDbEntity
  8
0
100
AcDb2dPolyline
 66
     1
 10
0.0
 20
0.0
 30
0.0
  0
VERTEX
  5
2891
330
2547
100
AcDbEntity
  8
0
100
AcDbVertex
100
AcDb2dVertex
 10
3.914471096284684
 20
5.396173791690125
 30
0.0
  0
VERTEX
  5
2892
330
2547
100
AcDbEntity
  8
0
100
AcDbVertex
100
AcDb2dVertex
 10
3.901351017544527
 20
5.389613752320046
 30
0.0
  0
VERTEX
  5
2893
330
2547
100
AcDbEntity
  8
0
100
AcDbVertex
100
AcDb2dVertex
 10
3.894790978174448
 20
5.376493673579888
 30
0.0
  0
SEQEND
  5
2894
330
2547
100
AcDbEntity
  8
0
  0
LINE
  5
254C
330
1E
100
AcDbEntity
  8
0
100
AcDbLine
 10
3.894790978174447
 20
4.666697413737368
 30
0.0
 11
3.894790978174447
 21
5.376493673579887
 31
0.0
  0
POLYLINE
  5
254D
330
1E
100
AcDbEntity
  8
0
100
AcDb2dPolyline
 66
     1
 10
0.0
 20
0.0
 30
0.0
  0
VERTEX
  5
2895
330
254D
100
AcDbEntity
  8
0
100
AcDbVertex
100
AcDb2dVertex
 10
3.894790978174448
 20
4.666697413737368
 30
0.0
  0
VERTEX
  5
2896
330
254D
100
AcDbEntity
  8
0
100
AcDbVertex
100
AcDb2dVertex
 10
3.889542946678384
 20
4.652265327123195
 30
0.0
  0
VERTEX
  5
2897
330
254D
100
AcDbEntity
  8
0
100
AcDbVertex
100
AcDb2dVertex
 10
3.875110860064211
 20
4.645705287753116
 30
0.0
  0
SEQEND
  5
2898
330
254D
100
AcDbEntity
  8
0
  0
LINE
  5
2552
330
1E
100
AcDbEntity
  8
0
100
AcDbLine
 10
3.165314600221691
 20
4.645705287753116
 30
0.0
 11
3.875110860064212
 21
4.645705287753116
 31
0.0
  0
POLYLINE
  5
2553
330
1E
100
AcDbEntity
  8
0
100
AcDb2dPolyline
 66
     1
 10
0.0
 20
0.0
 30
0.0
  0
VERTEX
  5
2899
330
2553
100
AcDbEntity
  8
0
100
AcDbVertex
100
AcDb2dVertex
 10
3.165314600221691
 20
4.645705287753116
 30
0.0
  0
VERTEX
  5
289A
330
2553
100
AcDbEntity
  8
0
100
AcDbVertex
100
AcDb2dVertex
 10
3.150882513607518
 20
4.640457256257054
 30
0.0
  0
VERTEX
  5
289B
330
2553
100
AcDbEntity
  8
0
100
AcDbVertex
100
AcDb2dVertex
 10
3.145634482111455
 20
4.62602516964288
 30
0.0
  0
SEQEND
  5
289C
330
2553
100
AcDbEntity
  8
0
  0
POLYLINE
  5
2558
330
1E
100
AcDbEntity
  8
0
100
AcDb2dPolyline
 66
     1
 10
0.0
 20
0.0
 30
0.0
  0
VERTEX
  5
289D
330
2558
100
AcDbEntity
  8
0
100
AcDbVertex
100
AcDb2dVertex
 10
3.145634482111455
 20
4.565672807438156
 30
0.0
  0
VERTEX
  5
289E
330
2558
100
AcDbEntity
  8
0
100
AcDbVertex
100
AcDb2dVertex
 10
3.139074442741377
 20
4.552552728697998
 30
0.0
  0
VERTEX
  5
289F
330
2558
100
AcDbEntity
  8
0
100
AcDbVertex
100
AcDb2dVertex
 10
3.124642356127203
 20
4.54599268932792
 30
0.0
  0
SEQEND
  5
28A0
330
2558
100
AcDbEntity
  8
0
  0
LINE
  5
255D
330
1E
100
AcDbEntity
  8
0
100
AcDbLine
 10
3.164002592347676
 20
4.647017295627132
 30
0.0
 11
3.165314600221691
 21
4.645705287753116
 31
0.0
  0
LINE
  5
255E
330
1E
100
AcDbEntity
  8
0
100
AcDbLine
 10
3.875110860064212
 20
4.645705287753116
 30
0.0
 11
3.873798852190196
 21
4.647017295627132
 31
0.0
  0
LINE
  5
255F
330
1E
100
AcDbEntity
  8
0
100
AcDbLine
 10
3.894790978174447
 20
5.376493673579887
 30
0.0
 11
3.893478970300432
 21
5.377805681453903
 31
0.0
  0
LINE
  5
2560
330
1E
100
AcDbEntity
  8
0
100
AcDbLine
 10
3.893478970300432
 20
4.668009421611383
 30
0.0
 11
3.894790978174447
 21
4.666697413737368
 31
0.0
  0
LINE
  5
2561
330
1E
100
AcDbEntity
  8
0
100
AcDbLine
 10
3.974823458489408
 20
5.396173791690124
 30
0.0
 11
3.973511450615392
 21
5.397485799564139
 31
0.0
  0
LINE
  5
2562
330
1E
100
AcDbEntity
  8
0
100
AcDbLine
 10
3.913159088410668
 20
5.397485799564139
 30
0.0
 11
3.914471096284684
 21
5.396173791690124
 31
0.0
  0
LINE
  5
2563
330
1E
100
AcDbEntity
  8
0
100
AcDbLine
 10
3.973511450615392
 20
6.448404106650754
 30
0.0
 11
3.974823458489408
 21
6.449716114524769
 31
0.0
  0
LINE
  5
2564
330
1E
100
AcDbEntity
  8
0
100
AcDbLine
 10
3.914471096284684
 20
6.449716114524769
 30
0.0
 11
3.974823458489408
 21
6.449716114524769
 31
0.0
  0
LINE
  5
2565
330
1E
100
AcDbEntity
  8
0
100
AcDbLine
 10
3.914471096284684
 20
6.449716114524769
 30
0.0
 11
3.913159088410668
 21
6.448404106650754
 31
0.0
  0
POLYLINE
  5
2566
330
1E
100
AcDbEntity
  8
0
100
AcDb2dPolyline
 66
     1
 10
0.0
 20
0.0
 30
0.0
  0
VERTEX
  5
28A1
330
2566
100
AcDbEntity
  8
0
100
AcDbVertex
100
AcDb2dVertex
 10
3.994503576599644
 20
7.278905090902723
 30
0.0
  0
VERTEX
  5
28A2
330
2566
100
AcDbEntity
  8
0
100
AcDbVertex
100
AcDb2dVertex
 10
3.989255545103581
 20
7.293337177516896
 30
0.0
  0
VERTEX
  5
28A3
330
2566
100
AcDbEntity
  8
0
100
AcDbVertex
100
AcDb2dVertex
 10
3.974823458489408
 20
7.299897216886975
 30
0.0
  0
SEQEND
  5
28A4
330
2566
100
AcDbEntity
  8
0
  0
POLYLINE
  5
256B
330
1E
100
AcDbEntity
  8
0
100
AcDb2dPolyline
 66
     1
 10
0.0
 20
0.0
 30
0.0
  0
VERTEX
  5
28A5
330
256B
100
AcDbEntity
  8
0
100
AcDbVertex
100
AcDb2dVertex
 10
3.124642356127203
 20
7.299897216886975
 30
0.0
  0
VERTEX
  5
28A6
330
256B
100
AcDbEntity
  8
0
100
AcDbVertex
100
AcDb2dVertex
 10
3.139074442741377
 20
7.293337177516896
 30
0.0
  0
VERTEX
  5
28A7
330
256B
100
AcDbEntity
  8
0
100
AcDbVertex
100
AcDb2dVertex
 10
3.145634482111455
 20
7.278905090902723
 30
0.0
  0
SEQEND
  5
28A8
330
256B
100
AcDbEntity
  8
0
  0
LINE
  5
2570
330
1E
100
AcDbEntity
  8
0
100
AcDbLine
 10
3.145634482111455
 20
7.278905090902723
 30
0.0
 11
3.145634482111455
 21
7.219864736572014
 31
0.0
  0
POLYLINE
  5
2571
330
1E
100
AcDbEntity
  8
0
100
AcDb2dPolyline
 66
     1
 10
0.0
 20
0.0
 30
0.0
  0
VERTEX
  5
28A9
330
2571
100
AcDbEntity
  8
0
100
AcDbVertex
100
AcDb2dVertex
 10
3.145634482111455
 20
7.219864736572015
 30
0.0
  0
VERTEX
  5
28AA
330
2571
100
AcDbEntity
  8
0
100
AcDbVertex
100
AcDb2dVertex
 10
3.150882513607518
 20
7.20543264995784
 30
0.0
  0
VERTEX
  5
28AB
330
2571
100
AcDbEntity
  8
0
100
AcDbVertex
100
AcDb2dVertex
 10
3.165314600221691
 20
7.198872610587763
 30
0.0
  0
SEQEND
  5
28AC
330
2571
100
AcDbEntity
  8
0
  0
LINE
  5
2576
330
1E
100
AcDbEntity
  8
0
100
AcDbLine
 10
3.165314600221691
 20
7.198872610587762
 30
0.0
 11
3.875110860064212
 21
7.198872610587762
 31
0.0
  0
POLYLINE
  5
2577
330
1E
100
AcDbEntity
  8
0
100
AcDb2dPolyline
 66
     1
 10
0.0
 20
0.0
 30
0.0
  0
VERTEX
  5
28AD
330
2577
100
AcDbEntity
  8
0
100
AcDbVertex
100
AcDb2dVertex
 10
3.875110860064211
 20
7.198872610587763
 30
0.0
  0
VERTEX
  5
28AE
330
2577
100
AcDbEntity
  8
0
100
AcDbVertex
100
AcDb2dVertex
 10
3.889542946678384
 20
7.193624579091698
 30
0.0
  0
VERTEX
  5
28AF
330
2577
100
AcDbEntity
  8
0
100
AcDbVertex
100
AcDb2dVertex
 10
3.894790978174448
 20
7.179192492477525
 30
0.0
  0
SEQEND
  5
28B0
330
2577
100
AcDbEntity
  8
0
  0
LINE
  5
257C
330
1E
100
AcDbEntity
  8
0
100
AcDbLine
 10
3.894790978174447
 20
6.469396232635006
 30
0.0
 11
3.894790978174447
 21
7.179192492477525
 31
0.0
  0
POLYLINE
  5
257D
330
1E
100
AcDbEntity
  8
0
100
AcDb2dPolyline
 66
     1
 10
0.0
 20
0.0
 30
0.0
  0
VERTEX
  5
28B1
330
257D
100
AcDbEntity
  8
0
100
AcDbVertex
100
AcDb2dVertex
 10
3.894790978174448
 20
6.469396232635006
 30
0.0
  0
VERTEX
  5
28B2
330
257D
100
AcDbEntity
  8
0
100
AcDbVertex
100
AcDb2dVertex
 10
3.901351017544527
 20
6.454964146020833
 30
0.0
  0
VERTEX
  5
28B3
330
257D
100
AcDbEntity
  8
0
100
AcDbVertex
100
AcDb2dVertex
 10
3.914471096284684
 20
6.44971611452477
 30
0.0
  0
SEQEND
  5
28B4
330
257D
100
AcDbEntity
  8
0
  0
POLYLINE
  5
2582
330
1E
100
AcDbEntity
  8
0
100
AcDb2dPolyline
 66
     1
 10
0.0
 20
0.0
 30
0.0
  0
VERTEX
  5
28B5
330
2582
100
AcDbEntity
  8
0
100
AcDbVertex
100
AcDb2dVertex
 10
3.974823458489408
 20
6.44971611452477
 30
0.0
  0
VERTEX
  5
28B6
330
2582
100
AcDbEntity
  8
0
100
AcDbVertex
100
AcDb2dVertex
 10
3.989255545103581
 20
6.443156075154691
 30
0.0
  0
VERTEX
  5
28B7
330
2582
100
AcDbEntity
  8
0
100
AcDbVertex
100
AcDb2dVertex
 10
3.994503576599644
 20
6.430035996414535
 30
0.0
  0
SEQEND
  5
28B8
330
2582
100
AcDbEntity
  8
0
  0
LINE
  5
2587
330
1E
100
AcDbEntity
  8
0
100
AcDbLine
 10
3.893478970300432
 20
6.468084224760991
 30
0.0
 11
3.894790978174447
 21
6.469396232635006
 31
0.0
  0
LINE
  5
2588
330
1E
100
AcDbEntity
  8
0
100
AcDbLine
 10
3.894790978174447
 20
7.179192492477525
 30
0.0
 11
3.893478970300432
 21
7.17788048460351
 31
0.0
  0
LINE
  5
2589
330
1E
100
AcDbEntity
  8
0
100
AcDbLine
 10
3.165314600221691
 20
7.198872610587762
 30
0.0
 11
3.164002592347676
 21
7.197560602713746
 31
0.0
  0
LINE
  5
258A
330
1E
100
AcDbEntity
  8
0
100
AcDbLine
 10
3.873798852190196
 20
7.197560602713746
 30
0.0
 11
3.875110860064212
 21
7.198872610587762
 31
0.0
  0
LINE
  5
258B
330
1E
100
AcDbEntity
  8
0
100
AcDbLine
 10
3.145634482111455
 20
7.278905090902723
 30
0.0
 11
3.14432247423744
 21
7.277593083028706
 31
0.0
  0
LINE
  5
258C
330
1E
100
AcDbEntity
  8
0
100
AcDbLine
 10
3.14432247423744
 20
7.218552728697998
 30
0.0
 11
3.145634482111455
 21
7.219864736572014
 31
0.0
  0
LINE
  5
258D
330
1E
100
AcDbEntity
  8
0
100
AcDbLine
 10
2.072412041166573
 20
7.197560602713746
 30
0.0
 11
2.071100033292557
 21
7.198872610587762
 31
0.0
  0
LINE
  5
258E
330
1E
100
AcDbEntity
  8
0
100
AcDbLine
 10
1.361303773450038
 20
7.198872610587762
 30
0.0
 11
2.071100033292557
 21
7.198872610587762
 31
0.0
  0
LINE
  5
258F
330
1E
100
AcDbEntity
  8
0
100
AcDbLine
 10
1.361303773450038
 20
7.198872610587762
 30
0.0
 11
1.362615781324053
 21
7.197560602713746
 31
0.0
  0
LINE
  5
2590
330
1E
100
AcDbEntity
  8
0
100
AcDbLine
 10
2.093404167150825
 20
7.277593083028706
 30
0.0
 11
2.09209215927681
 21
7.278905090902723
 31
0.0
  0
LINE
  5
2591
330
1E
100
AcDbEntity
  8
0
100
AcDbLine
 10
2.09209215927681
 20
7.278905090902723
 30
0.0
 11
2.09209215927681
 21
7.219864736572014
 31
0.0
  0
LINE
  5
2592
330
1E
100
AcDbEntity
  8
0
100
AcDbLine
 10
2.09209215927681
 20
7.219864736572014
 30
0.0
 11
2.093404167150825
 21
7.218552728697998
 31
0.0
  0
POLYLINE
  5
2593
330
1E
100
AcDbEntity
  8
0
100
AcDb2dPolyline
 66
     1
 10
0.0
 20
0.0
 30
0.0
  0
VERTEX
  5
28B9
330
2593
100
AcDbEntity
  8
0
100
AcDbVertex
100
AcDb2dVertex
 10
1.261591175024841
 20
7.299897216886975
 30
0.0
  0
VERTEX
  5
28BA
330
2593
100
AcDbEntity
  8
0
100
AcDbVertex
100
AcDb2dVertex
 10
1.247159088410668
 20
7.293337177516896
 30
0.0
  0
VERTEX
  5
28BB
330
2593
100
AcDbEntity
  8
0
100
AcDbVertex
100
AcDb2dVertex
 10
1.241911056914605
 20
7.278905090902723
 30
0.0
  0
SEQEND
  5
28BC
330
2593
100
AcDbEntity
  8
0
  0
POLYLINE
  5
2598
330
1E
100
AcDbEntity
  8
0
100
AcDb2dPolyline
 66
     1
 10
0.0
 20
0.0
 30
0.0
  0
VERTEX
  5
28BD
330
2598
100
AcDbEntity
  8
0
100
AcDbVertex
100
AcDb2dVertex
 10
1.241911056914605
 20
6.430035996414535
 30
0.0
  0
VERTEX
  5
28BE
330
2598
100
AcDbEntity
  8
0
100
AcDbVertex
100
AcDb2dVertex
 10
1.247159088410668
 20
6.443156075154691
 30
0.0
  0
VERTEX
  5
28BF
330
2598
100
AcDbEntity
  8
0
100
AcDbVertex
100
AcDb2dVertex
 10
1.261591175024841
 20
6.44971611452477
 30
0.0
  0
SEQEND
  5
28C0
330
2598
100
AcDbEntity
  8
0
  0
LINE
  5
259D
330
1E
100
AcDbEntity
  8
0
100
AcDbLine
 10
1.261591175024841
 20
6.449716114524769
 30
0.0
 11
1.321943537229565
 21
6.449716114524769
 31
0.0
  0
POLYLINE
  5
259E
330
1E
100
AcDbEntity
  8
0
100
AcDb2dPolyline
 66
     1
 10
0.0
 20
0.0
 30
0.0
  0
VERTEX
  5
28C1
330
259E
100
AcDbEntity
  8
0
100
AcDbVertex
100
AcDb2dVertex
 10
1.321943537229565
 20
6.44971611452477
 30
0.0
  0
VERTEX
  5
28C2
330
259E
100
AcDbEntity
  8
0
100
AcDbVertex
100
AcDb2dVertex
 10
1.336375623843739
 20
6.454964146020833
 30
0.0
  0
VERTEX
  5
28C3
330
259E
100
AcDbEntity
  8
0
100
AcDbVertex
100
AcDb2dVertex
 10
1.341623655339802
 20
6.469396232635006
 30
0.0
  0
SEQEND
  5
28C4
330
259E
100
AcDbEntity
  8
0
  0
LINE
  5
25A3
330
1E
100
AcDbEntity
  8
0
100
AcDbLine
 10
1.341623655339801
 20
6.469396232635006
 30
0.0
 11
1.341623655339801
 21
7.179192492477525
 31
0.0
  0
POLYLINE
  5
25A4
330
1E
100
AcDbEntity
  8
0
100
AcDb2dPolyline
 66
     1
 10
0.0
 20
0.0
 30
0.0
  0
VERTEX
  5
28C5
330
25A4
100
AcDbEntity
  8
0
100
AcDbVertex
100
AcDb2dVertex
 10
1.341623655339802
 20
7.179192492477525
 30
0.0
  0
VERTEX
  5
28C6
330
25A4
100
AcDbEntity
  8
0
100
AcDbVertex
100
AcDb2dVertex
 10
1.34818369470988
 20
7.193624579091698
 30
0.0
  0
VERTEX
  5
28C7
330
25A4
100
AcDbEntity
  8
0
100
AcDbVertex
100
AcDb2dVertex
 10
1.361303773450038
 20
7.198872610587763
 30
0.0
  0
SEQEND
  5
28C8
330
25A4
100
AcDbEntity
  8
0
  0
POLYLINE
  5
25A9
330
1E
100
AcDbEntity
  8
0
100
AcDb2dPolyline
 66
     1
 10
0.0
 20
0.0
 30
0.0
  0
VERTEX
  5
28C9
330
25A9
100
AcDbEntity
  8
0
100
AcDbVertex
100
AcDb2dVertex
 10
2.071100033292558
 20
7.198872610587763
 30
0.0
  0
VERTEX
  5
28CA
330
25A9
100
AcDbEntity
  8
0
100
AcDbVertex
100
AcDb2dVertex
 10
2.085532119906731
 20
7.20543264995784
 30
0.0
  0
VERTEX
  5
28CB
330
25A9
100
AcDbEntity
  8
0
100
AcDbVertex
100
AcDb2dVertex
 10
2.09209215927681
 20
7.219864736572015
 30
0.0
  0
SEQEND
  5
28CC
330
25A9
100
AcDbEntity
  8
0
  0
POLYLINE
  5
25AE
330
1E
100
AcDbEntity
  8
0
100
AcDb2dPolyline
 66
     1
 10
0.0
 20
0.0
 30
0.0
  0
VERTEX
  5
28CD
330
25AE
100
AcDbEntity
  8
0
100
AcDbVertex
100
AcDb2dVertex
 10
2.09209215927681
 20
7.278905090902723
 30
0.0
  0
VERTEX
  5
28CE
330
25AE
100
AcDbEntity
  8
0
100
AcDbVertex
100
AcDb2dVertex
 10
2.097340190772873
 20
7.293337177516896
 30
0.0
  0
VERTEX
  5
28CF
330
25AE
100
AcDbEntity
  8
0
100
AcDbVertex
100
AcDb2dVertex
 10
2.111772277387045
 20
7.299897216886975
 30
0.0
  0
SEQEND
  5
28D0
330
25AE
100
AcDbEntity
  8
0
  0
LINE
  5
25B3
330
1E
100
AcDbEntity
  8
0
100
AcDbLine
 10
1.341623655339801
 20
6.469396232635006
 30
0.0
 11
1.342935663213817
 21
6.468084224760991
 31
0.0
  0
LINE
  5
25B4
330
1E
100
AcDbEntity
  8
0
100
AcDbLine
 10
1.342935663213817
 20
7.17788048460351
 30
0.0
 11
1.341623655339801
 21
7.179192492477525
 31
0.0
  0
LINE
  5
25B5
330
1E
100
AcDbEntity
  8
0
100
AcDbLine
 10
1.261591175024841
 20
6.449716114524769
 30
0.0
 11
1.262903182898857
 21
6.448404106650754
 31
0.0
  0
LINE
  5
25B6
330
1E
100
AcDbEntity
  8
0
100
AcDbLine
 10
1.323255545103581
 20
6.448404106650754
 30
0.0
 11
1.321943537229565
 21
6.449716114524769
 31
0.0
  0
LINE
  5
25B7
330
1E
100
AcDbEntity
  8
0
100
AcDbLine
 10
1.342935663213817
 20
5.377805681453903
 30
0.0
 11
1.341623655339801
 21
5.376493673579887
 31
0.0
  0
LINE
  5
25B8
330
1E
100
AcDbEntity
  8
0
100
AcDbLine
 10
1.341623655339801
 20
4.666697413737368
 30
0.0
 11
1.342935663213817
 21
4.668009421611383
 31
0.0
  0
LINE
  5
25B9
330
1E
100
AcDbEntity
  8
0
100
AcDbLine
 10
1.262903182898857
 20
5.397485799564139
 30
0.0
 11
1.261591175024841
 21
5.396173791690124
 31
0.0
  0
LINE
  5
25BA
330
1E
100
AcDbEntity
  8
0
100
AcDbLine
 10
1.321943537229565
 20
5.396173791690124
 30
0.0
 11
1.323255545103581
 21
5.397485799564139
 31
0.0
  0
LINE
  5
2639
330
1E
100
AcDbEntity
  8
0
100
AcDbLine
 10
6.78252030888311
 20
4.690313555469651
 30
0.0
 11
7.02917778919807
 21
4.686377531847605
 31
0.0
  0
LINE
  5
263A
330
1E
100
AcDbEntity
  8
0
100
AcDbLine
 10
7.02917778919807
 20
7.15951237436729
 30
0.0
 11
6.78252030888311
 21
7.155576350745242
 31
0.0
  0
POLYLINE
  5
263B
330
1E
100
AcDbEntity
  8
0
100
AcDb2dPolyline
 66
     1
 10
0.0
 20
0.0
 30
0.0
  0
VERTEX
  5
28D1
330
263B
100
AcDbEntity
  8
0
100
AcDbVertex
100
AcDb2dVertex
 10
6.78252030888311
 20
7.155576350745242
 30
0.0
  0
VERTEX
  5
28D2
330
263B
100
AcDbEntity
  8
0
100
AcDbVertex
100
AcDb2dVertex
 10
6.752344127780747
 20
7.149016311375165
 30
0.0
  0
VERTEX
  5
28D3
330
263B
100
AcDbEntity
  8
0
100
AcDbVertex
100
AcDb2dVertex
 10
6.727415978174447
 20
7.130648201138944
 30
0.0
  0
VERTEX
  5
28D4
330
263B
100
AcDbEntity
  8
0
100
AcDbVertex
100
AcDb2dVertex
 10
6.710359875812243
 20
7.105720051532644
 30
0.0
  0
VERTEX
  5
28D5
330
263B
100
AcDbEntity
  8
0
100
AcDbVertex
100
AcDb2dVertex
 10
6.703799836442165
 20
7.075543870430282
 30
0.0
  0
SEQEND
  5
28D6
330
263B
100
AcDbEntity
  8
0
  0
POLYLINE
  5
2642
330
1E
100
AcDbEntity
  8
0
100
AcDb2dPolyline
 66
     1
 10
0.0
 20
0.0
 30
0.0
  0
VERTEX
  5
28D7
330
2642
100
AcDbEntity
  8
0
100
AcDbVertex
100
AcDb2dVertex
 10
6.703799836442165
 20
4.770346035784613
 30
0.0
  0
VERTEX
  5
28D8
330
2642
100
AcDbEntity
  8
0
100
AcDbVertex
100
AcDb2dVertex
 10
6.710359875812243
 20
4.740169854682251
 30
0.0
  0
VERTEX
  5
28D9
330
2642
100
AcDbEntity
  8
0
100
AcDbVertex
100
AcDb2dVertex
 10
6.727415978174447
 20
4.713929697201935
 30
0.0
  0
VERTEX
  5
28DA
330
2642
100
AcDbEntity
  8
0
100
AcDbVertex
100
AcDb2dVertex
 10
6.752344127780747
 20
4.696873594839731
 30
0.0
  0
VERTEX
  5
28DB
330
2642
100
AcDbEntity
  8
0
100
AcDbVertex
100
AcDb2dVertex
 10
6.78252030888311
 20
4.690313555469651
 30
0.0
  0
SEQEND
  5
28DC
330
2642
100
AcDbEntity
  8
0
  0
POLYLINE
  5
2649
330
1E
100
AcDbEntity
  8
0
100
AcDb2dPolyline
 66
     1
 10
0.0
 20
0.0
 30
0.0
  0
VERTEX
  5
28DD
330
2649
100
AcDbEntity
  8
0
100
AcDbVertex
100
AcDb2dVertex
 10
7.068538025418543
 20
7.198872610587763
 30
0.0
  0
VERTEX
  5
28DE
330
2649
100
AcDbEntity
  8
0
100
AcDbVertex
100
AcDb2dVertex
 10
7.06328999392248
 20
7.179192492477525
 30
0.0
  0
VERTEX
  5
28DF
330
2649
100
AcDbEntity
  8
0
100
AcDbVertex
100
AcDb2dVertex
 10
7.048857907308306
 20
7.164760405863352
 30
0.0
  0
VERTEX
  5
28E0
330
2649
100
AcDbEntity
  8
0
100
AcDbVertex
100
AcDb2dVertex
 10
7.02917778919807
 20
7.15951237436729
 30
0.0
  0
SEQEND
  5
28E1
330
2649
100
AcDbEntity
  8
0
  0
POLYLINE
  5
264F
330
1E
100
AcDbEntity
  8
0
100
AcDb2dPolyline
 66
     1
 10
0.0
 20
0.0
 30
0.0
  0
VERTEX
  5
28E2
330
264F
100
AcDbEntity
  8
0
100
AcDbVertex
100
AcDb2dVertex
 10
7.02917778919807
 20
4.686377531847605
 30
0.0
  0
VERTEX
  5
28E3
330
264F
100
AcDbEntity
  8
0
100
AcDbVertex
100
AcDb2dVertex
 10
7.048857907308306
 20
4.681129500351542
 30
0.0
  0
VERTEX
  5
28E4
330
264F
100
AcDbEntity
  8
0
100
AcDbVertex
100
AcDb2dVertex
 10
7.06328999392248
 20
4.665385405863353
 30
0.0
  0
VERTEX
  5
28E5
330
264F
100
AcDbEntity
  8
0
100
AcDbVertex
100
AcDb2dVertex
 10
7.068538025418543
 20
4.645705287753116
 30
0.0
  0
SEQEND
  5
28E6
330
264F
100
AcDbEntity
  8
0
  0
LINE
  5
2655
330
1E
100
AcDbEntity
  8
0
100
AcDbLine
 10
7.068538025418543
 20
5.417165917674376
 30
0.0
 11
7.068538025418543
 21
6.428723988540518
 31
0.0
  0
POLYLINE
  5
2656
330
1E
100
AcDbEntity
  8
0
100
AcDb2dPolyline
 66
     1
 10
0.0
 20
0.0
 30
0.0
  0
VERTEX
  5
28E7
330
2656
100
AcDbEntity
  8
0
100
AcDbVertex
100
AcDb2dVertex
 10
7.068538025418543
 20
6.428723988540518
 30
0.0
  0
VERTEX
  5
28E8
330
2656
100
AcDbEntity
  8
0
100
AcDbVertex
100
AcDb2dVertex
 10
7.068538025418543
 20
6.441844067280676
 30
0.0
  0
VERTEX
  5
28E9
330
2656
100
AcDbEntity
  8
0
100
AcDbVertex
100
AcDb2dVertex
 10
7.068538025418543
 20
6.448404106650754
 30
0.0
  0
SEQEND
  5
28EA
330
2656
100
AcDbEntity
  8
0
  0
POLYLINE
  5
265B
330
1E
100
AcDbEntity
  8
0
100
AcDb2dPolyline
 66
     1
 10
0.0
 20
0.0
 30
0.0
  0
VERTEX
  5
28EB
330
265B
100
AcDbEntity
  8
0
100
AcDbVertex
100
AcDb2dVertex
 10
7.068538025418543
 20
6.448404106650754
 30
0.0
  0
VERTEX
  5
28EC
330
265B
100
AcDbEntity
  8
0
100
AcDbVertex
100
AcDb2dVertex
 10
7.068538025418543
 20
6.453652138146818
 30
0.0
  0
VERTEX
  5
28ED
330
265B
100
AcDbEntity
  8
0
100
AcDbVertex
100
AcDb2dVertex
 10
7.068538025418543
 20
6.468084224760991
 30
0.0
  0
SEQEND
  5
28EE
330
265B
100
AcDbEntity
  8
0
  0
LINE
  5
2660
330
1E
100
AcDbEntity
  8
0
100
AcDbLine
 10
7.068538025418543
 20
6.468084224760991
 30
0.0
 11
7.068538025418543
 21
7.17788048460351
 31
0.0
  0
POLYLINE
  5
2661
330
1E
100
AcDbEntity
  8
0
100
AcDb2dPolyline
 66
     1
 10
0.0
 20
0.0
 30
0.0
  0
VERTEX
  5
28EF
330
2661
100
AcDbEntity
  8
0
100
AcDbVertex
100
AcDb2dVertex
 10
7.068538025418543
 20
7.177880484603511
 30
0.0
  0
VERTEX
  5
28F0
330
2661
100
AcDbEntity
  8
0
100
AcDbVertex
100
AcDb2dVertex
 10
7.068538025418543
 20
7.192312571217684
 30
0.0
  0
VERTEX
  5
28F1
330
2661
100
AcDbEntity
  8
0
100
AcDbVertex
100
AcDb2dVertex
 10
7.068538025418543
 20
7.197560602713746
 30
0.0
  0
SEQEND
  5
28F2
330
2661
100
AcDbEntity
  8
0
  0
POLYLINE
  5
2666
330
1E
100
AcDbEntity
  8
0
100
AcDb2dPolyline
 66
     1
 10
0.0
 20
0.0
 30
0.0
  0
VERTEX
  5
28F3
330
2666
100
AcDbEntity
  8
0
100
AcDbVertex
100
AcDb2dVertex
 10
7.068538025418543
 20
7.197560602713746
 30
0.0
  0
VERTEX
  5
28F4
330
2666
100
AcDbEntity
  8
0
100
AcDbVertex
100
AcDb2dVertex
 10
7.068538025418543
 20
7.204120642083825
 30
0.0
  0
VERTEX
  5
28F5
330
2666
100
AcDbEntity
  8
0
100
AcDbVertex
100
AcDb2dVertex
 10
7.068538025418543
 20
7.218552728697998
 30
0.0
  0
SEQEND
  5
28F6
330
2666
100
AcDbEntity
  8
0
  0
LINE
  5
266B
330
1E
100
AcDbEntity
  8
0
100
AcDbLine
 10
7.068538025418543
 20
7.277593083028706
 30
0.0
 11
7.068538025418543
 21
7.218552728697998
 31
0.0
  0
POLYLINE
  5
266C
330
1E
100
AcDbEntity
  8
0
100
AcDb2dPolyline
 66
     1
 10
0.0
 20
0.0
 30
0.0
  0
VERTEX
  5
28F7
330
266C
100
AcDbEntity
  8
0
100
AcDbVertex
100
AcDb2dVertex
 10
7.068538025418543
 20
7.277593083028706
 30
0.0
  0
VERTEX
  5
28F8
330
266C
100
AcDbEntity
  8
0
100
AcDbVertex
100
AcDb2dVertex
 10
7.068538025418543
 20
7.292025169642881
 30
0.0
  0
VERTEX
  5
28F9
330
266C
100
AcDbEntity
  8
0
100
AcDbVertex
100
AcDb2dVertex
 10
7.068538025418543
 20
7.298585209012959
 30
0.0
  0
SEQEND
  5
28FA
330
266C
100
AcDbEntity
  8
0
  0
POLYLINE
  5
2671
330
1E
100
AcDbEntity
  8
0
100
AcDb2dPolyline
 66
     1
 10
0.0
 20
0.0
 30
0.0
  0
VERTEX
  5
28FB
330
2671
100
AcDbEntity
  8
0
100
AcDbVertex
100
AcDb2dVertex
 10
7.068538025418543
 20
4.547304697201935
 30
0.0
  0
VERTEX
  5
28FC
330
2671
100
AcDbEntity
  8
0
100
AcDbVertex
100
AcDb2dVertex
 10
7.068538025418543
 20
4.553864736572013
 30
0.0
  0
VERTEX
  5
28FD
330
2671
100
AcDbEntity
  8
0
100
AcDbVertex
100
AcDb2dVertex
 10
7.068538025418543
 20
4.566984815312172
 30
0.0
  0
SEQEND
  5
28FE
330
2671
100
AcDbEntity
  8
0
  0
LINE
  5
2676
330
1E
100
AcDbEntity
  8
0
100
AcDbLine
 10
7.068538025418543
 20
4.627337177516896
 30
0.0
 11
7.068538025418543
 21
4.566984815312172
 31
0.0
  0
POLYLINE
  5
2677
330
1E
100
AcDbEntity
  8
0
100
AcDb2dPolyline
 66
     1
 10
0.0
 20
0.0
 30
0.0
  0
VERTEX
  5
28FF
330
2677
100
AcDbEntity
  8
0
100
AcDbVertex
100
AcDb2dVertex
 10
7.068538025418543
 20
4.627337177516896
 30
0.0
  0
VERTEX
  5
2900
330
2677
100
AcDbEntity
  8
0
100
AcDbVertex
100
AcDb2dVertex
 10
7.068538025418543
 20
4.641769264131069
 30
0.0
  0
VERTEX
  5
2901
330
2677
100
AcDbEntity
  8
0
100
AcDbVertex
100
AcDb2dVertex
 10
7.068538025418543
 20
4.647017295627132
 30
0.0
  0
SEQEND
  5
2902
330
2677
100
AcDbEntity
  8
0
  0
POLYLINE
  5
267C
330
1E
100
AcDbEntity
  8
0
100
AcDb2dPolyline
 66
     1
 10
0.0
 20
0.0
 30
0.0
  0
VERTEX
  5
2903
330
267C
100
AcDbEntity
  8
0
100
AcDbVertex
100
AcDb2dVertex
 10
7.068538025418543
 20
4.647017295627132
 30
0.0
  0
VERTEX
  5
2904
330
267C
100
AcDbEntity
  8
0
100
AcDbVertex
100
AcDb2dVertex
 10
7.068538025418543
 20
4.65357733499721
 30
0.0
  0
VERTEX
  5
2905
330
267C
100
AcDbEntity
  8
0
100
AcDbVertex
100
AcDb2dVertex
 10
7.068538025418543
 20
4.668009421611384
 30
0.0
  0
SEQEND
  5
2906
330
267C
100
AcDbEntity
  8
0
  0
LINE
  5
2681
330
1E
100
AcDbEntity
  8
0
100
AcDbLine
 10
7.068538025418543
 20
4.668009421611383
 30
0.0
 11
7.068538025418543
 21
5.377805681453903
 31
0.0
  0
POLYLINE
  5
2682
330
1E
100
AcDbEntity
  8
0
100
AcDb2dPolyline
 66
     1
 10
0.0
 20
0.0
 30
0.0
  0
VERTEX
  5
2907
330
2682
100
AcDbEntity
  8
0
100
AcDbVertex
100
AcDb2dVertex
 10
7.068538025418543
 20
5.377805681453903
 30
0.0
  0
VERTEX
  5
2908
330
2682
100
AcDbEntity
  8
0
100
AcDbVertex
100
AcDb2dVertex
 10
7.068538025418543
 20
5.390925760194061
 30
0.0
  0
VERTEX
  5
2909
330
2682
100
AcDbEntity
  8
0
100
AcDbVertex
100
AcDb2dVertex
 10
7.068538025418543
 20
5.397485799564139
 30
0.0
  0
SEQEND
  5
290A
330
2682
100
AcDbEntity
  8
0
  0
POLYLINE
  5
2687
330
1E
100
AcDbEntity
  8
0
100
AcDb2dPolyline
 66
     1
 10
0.0
 20
0.0
 30
0.0
  0
VERTEX
  5
290B
330
2687
100
AcDbEntity
  8
0
100
AcDbVertex
100
AcDb2dVertex
 10
7.068538025418543
 20
5.397485799564139
 30
0.0
  0
VERTEX
  5
290C
330
2687
100
AcDbEntity
  8
0
100
AcDbVertex
100
AcDb2dVertex
 10
7.068538025418543
 20
5.402733831060203
 30
0.0
  0
VERTEX
  5
290D
330
2687
100
AcDbEntity
  8
0
100
AcDbVertex
100
AcDb2dVertex
 10
7.068538025418543
 20
5.417165917674377
 30
0.0
  0
SEQEND
  5
290E
330
2687
100
AcDbEntity
  8
0
  0
POLYLINE
  5
268C
330
1E
100
AcDbEntity
  8
0
100
AcDb2dPolyline
 66
     1
 10
0.0
 20
0.0
 30
0.0
  0
VERTEX
  5
290F
330
268C
100
AcDbEntity
  8
0
100
AcDbVertex
100
AcDb2dVertex
 10
7.203674836442165
 20
7.299897216886975
 30
0.0
  0
VERTEX
  5
2910
330
268C
100
AcDbEntity
  8
0
100
AcDbVertex
100
AcDb2dVertex
 10
7.203674836442165
 20
7.294649185390913
 30
0.0
  0
VERTEX
  5
2911
330
268C
100
AcDbEntity
  8
0
100
AcDbVertex
100
AcDb2dVertex
 10
7.203674836442165
 20
7.28021709877674
 30
0.0
  0
SEQEND
  5
2912
330
268C
100
AcDbEntity
  8
0
  0
LINE
  5
2691
330
1E
100
AcDbEntity
  8
0
100
AcDbLine
 10
7.203674836442165
 20
4.565672807438156
 30
0.0
 11
7.203674836442165
 21
7.280217098776739
 31
0.0
  0
POLYLINE
  5
2692
330
1E
100
AcDbEntity
  8
0
100
AcDb2dPolyline
 66
     1
 10
0.0
 20
0.0
 30
0.0
  0
VERTEX
  5
2913
330
2692
100
AcDbEntity
  8
0
100
AcDbVertex
100
AcDb2dVertex
 10
7.203674836442165
 20
4.565672807438156
 30
0.0
  0
VERTEX
  5
2914
330
2692
100
AcDbEntity
  8
0
100
AcDbVertex
100
AcDb2dVertex
 10
7.203674836442165
 20
4.551240720823983
 30
0.0
  0
VERTEX
  5
2915
330
2692
100
AcDbEntity
  8
0
100
AcDbVertex
100
AcDb2dVertex
 10
7.203674836442165
 20
4.544680681453903
 30
0.0
  0
SEQEND
  5
2916
330
2692
100
AcDbEntity
  8
0
  0
POLYLINE
  5
2697
330
1E
100
AcDbEntity
  8
0
100
AcDb2dPolyline
 66
     1
 10
0.0
 20
0.0
 30
0.0
  0
VERTEX
  5
2917
330
2697
100
AcDbEntity
  8
0
100
AcDbVertex
100
AcDb2dVertex
 10
6.703799836442165
 20
5.92228894917044
 30
0.0
  0
VERTEX
  5
2918
330
2697
100
AcDbEntity
  8
0
100
AcDbVertex
100
AcDb2dVertex
 10
6.703799836442165
 20
6.035121626335794
 30
0.0
  0
VERTEX
  5
2919
330
2697
100
AcDbEntity
  8
0
100
AcDbVertex
100
AcDb2dVertex
 10
6.703799836442165
 20
6.147954303501148
 30
0.0
  0
VERTEX
  5
291A
330
2697
100
AcDbEntity
  8
0
100
AcDbVertex
100
AcDb2dVertex
 10
6.703799836442165
 20
6.256850957044456
 30
0.0
  0
VERTEX
  5
291B
330
2697
100
AcDbEntity
  8
0
100
AcDbVertex
100
AcDb2dVertex
 10
6.703799836442165
 20
6.364435602713747
 30
0.0
  0
VERTEX
  5
291C
330
2697
100
AcDbEntity
  8
0
100
AcDbVertex
100
AcDb2dVertex
 10
6.703799836442165
 20
6.46546020901296
 30
0.0
  0
VERTEX
  5
291D
330
2697
100
AcDbEntity
  8
0
100
AcDbVertex
100
AcDb2dVertex
 10
6.703799836442165
 20
6.562548791690124
 30
0.0
  0
VERTEX
  5
291E
330
2697
100
AcDbEntity
  8
0
100
AcDbVertex
100
AcDb2dVertex
 10
6.703799836442165
 20
6.654389342871228
 30
0.0
  0
VERTEX
  5
291F
330
2697
100
AcDbEntity
  8
0
100
AcDbVertex
100
AcDb2dVertex
 10
6.703799836442165
 20
6.73704583893422
 30
0.0
  0
VERTEX
  5
2920
330
2697
100
AcDbEntity
  8
0
100
AcDbVertex
100
AcDb2dVertex
 10
6.703799836442165
 20
6.813142295627132
 30
0.0
  0
VERTEX
  5
2921
330
2697
100
AcDbEntity
  8
0
100
AcDbVertex
100
AcDb2dVertex
 10
6.703799836442165
 20
6.881366705075951
 30
0.0
  0
VERTEX
  5
2922
330
2697
100
AcDbEntity
  8
0
100
AcDbVertex
100
AcDb2dVertex
 10
6.703799836442165
 20
6.939095051532644
 30
0.0
  0
VERTEX
  5
2923
330
2697
100
AcDbEntity
  8
0
100
AcDbVertex
100
AcDb2dVertex
 10
6.703799836442165
 20
6.987639342871228
 30
0.0
  0
VERTEX
  5
2924
330
2697
100
AcDbEntity
  8
0
100
AcDbVertex
100
AcDb2dVertex
 10
6.703799836442165
 20
7.025687571217684
 30
0.0
  0
VERTEX
  5
2925
330
2697
100
AcDbEntity
  8
0
100
AcDbVertex
100
AcDb2dVertex
 10
6.703799836442165
 20
7.053239736572013
 30
0.0
  0
VERTEX
  5
2926
330
2697
100
AcDbEntity
  8
0
100
AcDbVertex
100
AcDb2dVertex
 10
6.703799836442165
 20
7.070295838934219
 30
0.0
  0
VERTEX
  5
2927
330
2697
100
AcDbEntity
  8
0
100
AcDbVertex
100
AcDb2dVertex
 10
6.703799836442165
 20
7.075543870430282
 30
0.0
  0
SEQEND
  5
2928
330
2697
100
AcDbEntity
  8
0
  0
POLYLINE
  5
26AA
330
1E
100
AcDbEntity
  8
0
100
AcDb2dPolyline
 66
     1
 10
0.0
 20
0.0
 30
0.0
  0
VERTEX
  5
2929
330
26AA
100
AcDbEntity
  8
0
100
AcDbVertex
100
AcDb2dVertex
 10
6.703799836442165
 20
4.770346035784613
 30
0.0
  0
VERTEX
  5
292A
330
26AA
100
AcDbEntity
  8
0
100
AcDbVertex
100
AcDb2dVertex
 10
6.703799836442165
 20
4.775594067280676
 30
0.0
  0
VERTEX
  5
292B
330
26AA
100
AcDbEntity
  8
0
100
AcDbVertex
100
AcDb2dVertex
 10
6.703799836442165
 20
4.79265016964288
 30
0.0
  0
VERTEX
  5
292C
330
26AA
100
AcDbEntity
  8
0
100
AcDbVertex
100
AcDb2dVertex
 10
6.703799836442165
 20
4.82020233499721
 30
0.0
  0
VERTEX
  5
292D
330
26AA
100
AcDbEntity
  8
0
100
AcDbVertex
100
AcDb2dVertex
 10
6.703799836442165
 20
4.858250563343668
 30
0.0
  0
VERTEX
  5
292E
330
26AA
100
AcDbEntity
  8
0
100
AcDbVertex
100
AcDb2dVertex
 10
6.703799836442165
 20
4.90679485468225
 30
0.0
  0
VERTEX
  5
292F
330
26AA
100
AcDbEntity
  8
0
100
AcDbVertex
100
AcDb2dVertex
 10
6.703799836442165
 20
4.964523201138943
 30
0.0
  0
VERTEX
  5
2930
330
26AA
100
AcDbEntity
  8
0
100
AcDbVertex
100
AcDb2dVertex
 10
6.703799836442165
 20
5.031435602713746
 30
0.0
  0
VERTEX
  5
2931
330
26AA
100
AcDbEntity
  8
0
100
AcDbVertex
100
AcDb2dVertex
 10
6.703799836442165
 20
5.10753205940666
 30
0.0
  0
VERTEX
  5
2932
330
26AA
100
AcDbEntity
  8
0
100
AcDbVertex
100
AcDb2dVertex
 10
6.703799836442165
 20
5.191500563343668
 30
0.0
  0
VERTEX
  5
2933
330
26AA
100
AcDbEntity
  8
0
100
AcDbVertex
100
AcDb2dVertex
 10
6.703799836442165
 20
5.282029106650754
 30
0.0
  0
VERTEX
  5
2934
330
26AA
100
AcDbEntity
  8
0
100
AcDbVertex
100
AcDb2dVertex
 10
6.703799836442165
 20
5.37911768932792
 30
0.0
  0
VERTEX
  5
2935
330
26AA
100
AcDbEntity
  8
0
100
AcDbVertex
100
AcDb2dVertex
 10
6.703799836442165
 20
5.481454303501148
 30
0.0
  0
VERTEX
  5
2936
330
26AA
100
AcDbEntity
  8
0
100
AcDbVertex
100
AcDb2dVertex
 10
6.703799836442165
 20
5.587726941296423
 30
0.0
  0
VERTEX
  5
2937
330
26AA
100
AcDbEntity
  8
0
100
AcDbVertex
100
AcDb2dVertex
 10
6.703799836442165
 20
5.697935602713746
 30
0.0
  0
VERTEX
  5
2938
330
26AA
100
AcDbEntity
  8
0
100
AcDbVertex
100
AcDb2dVertex
 10
6.703799836442165
 20
5.809456272005085
 30
0.0
  0
VERTEX
  5
2939
330
26AA
100
AcDbEntity
  8
0
100
AcDbVertex
100
AcDb2dVertex
 10
6.703799836442165
 20
5.92228894917044
 30
0.0
  0
SEQEND
  5
293A
330
26AA
100
AcDbEntity
  8
0
  0
POLYLINE
  5
26BD
330
1E
100
AcDbEntity
  8
0
100
AcDb2dPolyline
 66
     1
 10
0.0
 20
0.0
 30
0.0
  0
VERTEX
  5
293B
330
26BD
100
AcDbEntity
  8
0
100
AcDbVertex
100
AcDb2dVertex
 10
7.02917778919807
 20
5.92228894917044
 30
0.0
  0
VERTEX
  5
293C
330
26BD
100
AcDbEntity
  8
0
100
AcDbVertex
100
AcDb2dVertex
 10
7.02917778919807
 20
6.044305681453904
 30
0.0
  0
VERTEX
  5
293D
330
26BD
100
AcDbEntity
  8
0
100
AcDbVertex
100
AcDb2dVertex
 10
7.02917778919807
 20
6.163698397989337
 30
0.0
  0
VERTEX
  5
293E
330
26BD
100
AcDbEntity
  8
0
100
AcDbVertex
100
AcDb2dVertex
 10
7.02917778919807
 20
6.281779106650754
 30
0.0
  0
VERTEX
  5
293F
330
26BD
100
AcDbEntity
  8
0
100
AcDbVertex
100
AcDb2dVertex
 10
7.02917778919807
 20
6.395923791690124
 30
0.0
  0
VERTEX
  5
2940
330
26BD
100
AcDbEntity
  8
0
100
AcDbVertex
100
AcDb2dVertex
 10
7.02917778919807
 20
6.506132453107447
 30
0.0
  0
VERTEX
  5
2941
330
26BD
100
AcDbEntity
  8
0
100
AcDbVertex
100
AcDb2dVertex
 10
7.02917778919807
 20
6.609781075154691
 30
0.0
  0
VERTEX
  5
2942
330
26BD
100
AcDbEntity
  8
0
100
AcDbVertex
100
AcDb2dVertex
 10
7.02917778919807
 20
6.706869657831857
 30
0.0
  0
VERTEX
  5
2943
330
26BD
100
AcDbEntity
  8
0
100
AcDbVertex
100
AcDb2dVertex
 10
7.02917778919807
 20
6.797398201138943
 30
0.0
  0
VERTEX
  5
2944
330
26BD
100
AcDbEntity
  8
0
100
AcDbVertex
100
AcDb2dVertex
 10
7.02917778919807
 20
6.878742689327919
 30
0.0
  0
VERTEX
  5
2945
330
26BD
100
AcDbEntity
  8
0
100
AcDbVertex
100
AcDb2dVertex
 10
7.02917778919807
 20
6.950903122398786
 30
0.0
  0
VERTEX
  5
2946
330
26BD
100
AcDbEntity
  8
0
100
AcDbVertex
100
AcDb2dVertex
 10
7.02917778919807
 20
7.013879500351542
 30
0.0
  0
VERTEX
  5
2947
330
26BD
100
AcDbEntity
  8
0
100
AcDbVertex
100
AcDb2dVertex
 10
7.02917778919807
 20
7.065047807438155
 30
0.0
  0
VERTEX
  5
2948
330
26BD
100
AcDbEntity
  8
0
100
AcDbVertex
100
AcDb2dVertex
 10
7.02917778919807
 20
7.105720051532644
 30
0.0
  0
VERTEX
  5
2949
330
26BD
100
AcDbEntity
  8
0
100
AcDbVertex
100
AcDb2dVertex
 10
7.02917778919807
 20
7.135896232635007
 30
0.0
  0
VERTEX
  5
294A
330
26BD
100
AcDbEntity
  8
0
100
AcDbVertex
100
AcDb2dVertex
 10
7.02917778919807
 20
7.152952334997211
 30
0.0
  0
VERTEX
  5
294B
330
26BD
100
AcDbEntity
  8
0
100
AcDbVertex
100
AcDb2dVertex
 10
7.02917778919807
 20
7.15951237436729
 30
0.0
  0
SEQEND
  5
294C
330
26BD
100
AcDbEntity
  8
0
  0
POLYLINE
  5
26D0
330
1E
100
AcDbEntity
  8
0
100
AcDb2dPolyline
 66
     1
 10
0.0
 20
0.0
 30
0.0
  0
VERTEX
  5
294D
330
26D0
100
AcDbEntity
  8
0
100
AcDbVertex
100
AcDb2dVertex
 10
7.02917778919807
 20
4.686377531847605
 30
0.0
  0
VERTEX
  5
294E
330
26D0
100
AcDbEntity
  8
0
100
AcDbVertex
100
AcDb2dVertex
 10
7.02917778919807
 20
4.691625563343668
 30
0.0
  0
VERTEX
  5
294F
330
26D0
100
AcDbEntity
  8
0
100
AcDbVertex
100
AcDb2dVertex
 10
7.02917778919807
 20
4.709993673579888
 30
0.0
  0
VERTEX
  5
2950
330
26D0
100
AcDbEntity
  8
0
100
AcDbVertex
100
AcDb2dVertex
 10
7.02917778919807
 20
4.738857846808235
 30
0.0
  0
VERTEX
  5
2951
330
26D0
100
AcDbEntity
  8
0
100
AcDbVertex
100
AcDb2dVertex
 10
7.02917778919807
 20
4.780842098776739
 30
0.0
  0
VERTEX
  5
2952
330
26D0
100
AcDbEntity
  8
0
100
AcDbVertex
100
AcDb2dVertex
 10
7.02917778919807
 20
4.832010405863353
 30
0.0
  0
VERTEX
  5
2953
330
26D0
100
AcDbEntity
  8
0
100
AcDbVertex
100
AcDb2dVertex
 10
7.02917778919807
 20
4.894986783816109
 30
0.0
  0
VERTEX
  5
2954
330
26D0
100
AcDbEntity
  8
0
100
AcDbVertex
100
AcDb2dVertex
 10
7.02917778919807
 20
4.967147216886975
 30
0.0
  0
VERTEX
  5
2955
330
26D0
100
AcDbEntity
  8
0
100
AcDbVertex
100
AcDb2dVertex
 10
7.02917778919807
 20
5.048491705075951
 30
0.0
  0
VERTEX
  5
2956
330
26D0
100
AcDbEntity
  8
0
100
AcDbVertex
100
AcDb2dVertex
 10
7.02917778919807
 20
5.137708240509021
 30
0.0
  0
VERTEX
  5
2957
330
26D0
100
AcDbEntity
  8
0
100
AcDbVertex
100
AcDb2dVertex
 10
7.02917778919807
 20
5.236108831060203
 30
0.0
  0
VERTEX
  5
2958
330
26D0
100
AcDbEntity
  8
0
100
AcDbVertex
100
AcDb2dVertex
 10
7.02917778919807
 20
5.339757453107447
 30
0.0
  0
VERTEX
  5
2959
330
26D0
100
AcDbEntity
  8
0
100
AcDbVertex
100
AcDb2dVertex
 10
7.02917778919807
 20
5.449966114524769
 30
0.0
  0
VERTEX
  5
295A
330
26D0
100
AcDbEntity
  8
0
100
AcDbVertex
100
AcDb2dVertex
 10
7.02917778919807
 20
5.56411079956414
 30
0.0
  0
VERTEX
  5
295B
330
26D0
100
AcDbEntity
  8
0
100
AcDbVertex
100
AcDb2dVertex
 10
7.02917778919807
 20
5.682191508225558
 30
0.0
  0
VERTEX
  5
295C
330
26D0
100
AcDbEntity
  8
0
100
AcDbVertex
100
AcDb2dVertex
 10
7.02917778919807
 20
5.801584224760991
 30
0.0
  0
VERTEX
  5
295D
330
26D0
100
AcDbEntity
  8
0
100
AcDbVertex
100
AcDb2dVertex
 10
7.02917778919807
 20
5.92228894917044
 30
0.0
  0
SEQEND
  5
295E
330
26D0
100
AcDbEntity
  8
0
  0
LINE
  5
26E3
330
1E
100
AcDbEntity
  8
0
100
AcDbLine
 10
7.068538025418543
 20
7.298585209012959
 30
0.0
 11
7.14332247423744
 21
7.299897216886975
 31
0.0
  0
LINE
  5
26E4
330
1E
100
AcDbEntity
  8
0
100
AcDbLine
 10
7.14332247423744
 20
7.299897216886975
 30
0.0
 11
7.203674836442165
 21
7.299897216886975
 31
0.0
  0
LINE
  5
26E5
330
1E
100
AcDbEntity
  8
0
100
AcDbLine
 10
7.14332247423744
 20
6.430035996414535
 30
0.0
 11
7.14332247423744
 21
7.278905090902723
 31
0.0
  0
LINE
  5
26E6
330
1E
100
AcDbEntity
  8
0
100
AcDbLine
 10
7.14332247423744
 20
6.430035996414535
 30
0.0
 11
7.068538025418543
 21
6.428723988540518
 31
0.0
  0
LINE
  5
26E7
330
1E
100
AcDbEntity
  8
0
100
AcDbLine
 10
7.068538025418543
 20
5.417165917674376
 30
0.0
 11
7.14332247423744
 21
5.415853909800361
 31
0.0
  0
LINE
  5
26E8
330
1E
100
AcDbEntity
  8
0
100
AcDbLine
 10
7.14332247423744
 20
5.415853909800361
 30
0.0
 11
7.14332247423744
 21
4.565672807438156
 31
0.0
  0
LINE
  5
26E9
330
1E
100
AcDbEntity
  8
0
100
AcDbLine
 10
7.14332247423744
 20
4.565672807438156
 30
0.0
 11
7.203674836442165
 21
4.565672807438156
 31
0.0
  0
LINE
  5
26EA
330
1E
100
AcDbEntity
  8
0
100
AcDbLine
 10
7.203674836442165
 20
7.280217098776739
 30
0.0
 11
7.14332247423744
 21
7.278905090902723
 31
0.0
  0
LINE
  5
26EB
330
1E
100
AcDbEntity
  8
0
100
AcDbLine
 10
7.14332247423744
 20
4.54599268932792
 30
0.0
 11
7.068538025418543
 21
4.547304697201935
 31
0.0
  0
LINE
  5
26EC
330
1E
100
AcDbEntity
  8
0
100
AcDbLine
 10
7.203674836442165
 20
4.544680681453903
 30
0.0
 11
7.14332247423744
 21
4.54599268932792
 31
0.0
  0
LINE
  5
26ED
330
1E
100
AcDbEntity
  8
0
100
AcDbLine
 10
7.068538025418543
 20
4.566984815312172
 30
0.0
 11
7.14332247423744
 21
4.565672807438156
 31
0.0
  0
LINE
  5
26EE
330
1E
100
AcDbEntity
  8
0
100
AcDbLine
 10
7.14332247423744
 20
4.62602516964288
 30
0.0
 11
7.068538025418543
 21
4.627337177516896
 31
0.0
  0
POLYLINE
  5
26EF
330
1E
100
AcDbEntity
  8
0
100
AcDb2dPolyline
 66
     1
 10
0.0
 20
0.0
 30
0.0
  0
VERTEX
  5
295F
330
26EF
100
AcDbEntity
  8
0
100
AcDbVertex
100
AcDb2dVertex
 10
7.14332247423744
 20
4.54599268932792
 30
0.0
  0
VERTEX
  5
2960
330
26EF
100
AcDbEntity
  8
0
100
AcDbVertex
100
AcDb2dVertex
 10
7.14332247423744
 20
4.552552728697998
 30
0.0
  0
VERTEX
  5
2961
330
26EF
100
AcDbEntity
  8
0
100
AcDbVertex
100
AcDb2dVertex
 10
7.14332247423744
 20
4.565672807438156
 30
0.0
  0
SEQEND
  5
2962
330
26EF
100
AcDbEntity
  8
0
  0
LINE
  5
26F4
330
1E
100
AcDbEntity
  8
0
100
AcDbLine
 10
7.14332247423744
 20
4.645705287753116
 30
0.0
 11
7.068538025418543
 21
4.647017295627132
 31
0.0
  0
LINE
  5
26F5
330
1E
100
AcDbEntity
  8
0
100
AcDbLine
 10
7.14332247423744
 20
5.376493673579887
 30
0.0
 11
7.068538025418543
 21
5.377805681453903
 31
0.0
  0
LINE
  5
26F6
330
1E
100
AcDbEntity
  8
0
100
AcDbLine
 10
7.068538025418543
 20
4.668009421611383
 30
0.0
 11
7.14332247423744
 21
4.666697413737368
 31
0.0
  0
LINE
  5
26F7
330
1E
100
AcDbEntity
  8
0
100
AcDbLine
 10
7.14332247423744
 20
5.396173791690124
 30
0.0
 11
7.068538025418543
 21
5.397485799564139
 31
0.0
  0
LINE
  5
26F8
330
1E
100
AcDbEntity
  8
0
100
AcDbLine
 10
7.068538025418543
 20
6.448404106650754
 30
0.0
 11
7.14332247423744
 21
6.449716114524769
 31
0.0
  0
POLYLINE
  5
26F9
330
1E
100
AcDbEntity
  8
0
100
AcDb2dPolyline
 66
     1
 10
0.0
 20
0.0
 30
0.0
  0
VERTEX
  5
2963
330
26F9
100
AcDbEntity
  8
0
100
AcDbVertex
100
AcDb2dVertex
 10
7.14332247423744
 20
7.278905090902723
 30
0.0
  0
VERTEX
  5
2964
330
26F9
100
AcDbEntity
  8
0
100
AcDbVertex
100
AcDb2dVertex
 10
7.14332247423744
 20
7.293337177516896
 30
0.0
  0
VERTEX
  5
2965
330
26F9
100
AcDbEntity
  8
0
100
AcDbVertex
100
AcDb2dVertex
 10
7.14332247423744
 20
7.299897216886975
 30
0.0
  0
SEQEND
  5
2966
330
26F9
100
AcDbEntity
  8
0
  0
LINE
  5
26FE
330
1E
100
AcDbEntity
  8
0
100
AcDbLine
 10
7.068538025418543
 20
6.468084224760991
 30
0.0
 11
7.14332247423744
 21
6.469396232635006
 31
0.0
  0
LINE
  5
26FF
330
1E
100
AcDbEntity
  8
0
100
AcDbLine
 10
7.14332247423744
 20
7.179192492477525
 30
0.0
 11
7.068538025418543
 21
7.17788048460351
 31
0.0
  0
LINE
  5
2700
330
1E
100
AcDbEntity
  8
0
100
AcDbLine
 10
7.068538025418543
 20
7.197560602713746
 30
0.0
 11
7.14332247423744
 21
7.198872610587762
 31
0.0
  0
LINE
  5
2701
330
1E
100
AcDbEntity
  8
0
100
AcDbLine
 10
7.14332247423744
 20
7.278905090902723
 30
0.0
 11
7.068538025418543
 21
7.277593083028706
 31
0.0
  0
LINE
  5
2702
330
1E
100
AcDbEntity
  8
0
100
AcDbLine
 10
7.068538025418543
 20
7.218552728697998
 30
0.0
 11
7.14332247423744
 21
7.219864736572014
 31
0.0
  0
ENDSEC
  0
SECTION
  2
OBJECTS
  0
DICTIONARY
  5
C
330
0
100
AcDbDictionary
  3
ACAD_GROUP
350
D
  3
ACAD_MLINESTYLE
350
16
  3
ACAD_PLOTSETTINGS
350
18
  3
ACAD_LAYOUT
350
19
1001
ACAD
1000
TREAT_AS_HARD
1070
     0
  0
DICTIONARY
  5
2723
330
1E
100
AcDbDictionary
  3
ACAD_LAYOUTSELFREF
350
2724
  0
DICTIONARY
  5
2721
330
1A
100
AcDbDictionary
  3
ACAD_LAYOUTSELFREF
350
2722
  0
DICTIONARY
  5
D
102
{ACAD_REACTORS
330
C
102
}
330
C
100
AcDbDictionary
1001
ACAD
1000
TREAT_AS_HARD
1070
     0
  0
DICTIONARY
  5
16
102
{ACAD_REACTORS
330
C
102
}
330
C
100
AcDbDictionary
  3
STANDARD
350
17
1001
ACAD
1000
TREAT_AS_HARD
1070
     0
  0
DICTIONARY
  5
18
102
{ACAD_REACTORS
330
C
102
}
330
C
100
AcDbDictionary
1001
ACAD
1000
TREAT_AS_HARD
1070
     0
  0
DICTIONARY
  5
19
102
{ACAD_REACTORS
330
C
102
}
330
C
100
AcDbDictionary
1001
ACAD
1000
TREAT_AS_HARD
1070
     0
  0
XRECORD
  5
2724
102
{ACAD_REACTORS
330
2723
102
}
330
2723
100
AcDbXrecord
340
1E
  0
XRECORD
  5
2722
102
{ACAD_REACTORS
330
2721
102
}
330
2721
100
AcDbXrecord
340
1A
  0
MLINESTYLE
  5
17
102
{ACAD_REACTORS
330
16
102
}
330
16
100
AcDbMlineStyle
  2
STANDARD
 70
     0
  3

 62
   256
 51
90.0
 52
90.0
 71
     2
 49
0.5
 62
   256
  6
BYLAYER
 49
-0.5
 62
   256
  6
BYLAYER
  0
ENDSEC
  0
EOF
