  0
SECTION
  2
HEADER
  9
$ACADVER
  1
AC1012
  9
$DWGCODEPAGE
  3
ANSI_1252
  9
$INSBASE
 10
0.0
 20
0.0
 30
0.0
  9
$EXTMIN
 10
3.919921907503066
 20
6.587402372373503
 30
-0.0000000000112498
  9
$EXTMAX
 10
7.46484377266006
 20
8.557388326103552
 30
0.0000000000002956
  9
$LIMMIN
 10
0.0
 20
0.0
  9
$LIMMAX
 10
12.0
 20
9.0
  9
$ORTHOMODE
 70
     0
  9
$REGENMODE
 70
     1
  9
$FILLMODE
 70
     1
  9
$QTEXTMODE
 70
     0
  9
$MIRRTEXT
 70
     1
  9
$DRAGMODE
 70
     2
  9
$LTSCALE
 40
1.0
  9
$OSMODE
 70
   547
  9
$ATTMODE
 70
     1
  9
$TEXTSIZE
 40
0.2
  9
$TRACEWID
 40
0.05
  9
$TEXTSTYLE
  7
STANDARD
  9
$CLAYER
  8
0
  9
$CELTYPE
  6
BYLAYER
  9
$CECOLOR
 62
   256
  9
$CELTSCALE
 40
1.0
  9
$DELOBJ
 70
     1
  9
$DISPSILH
 70
     0
  9
$DIMSCALE
 40
1.0
  9
$DIMASZ
 40
0.18
  9
$DIMEXO
 40
0.0625
  9
$DIMDLI
 40
0.38
  9
$DIMRND
 40
0.0
  9
$DIMDLE
 40
0.0
  9
$DIMEXE
 40
0.18
  9
$DIMTP
 40
0.0
  9
$DIMTM
 40
0.0
  9
$DIMTXT
 40
0.18
  9
$DIMCEN
 40
0.09
  9
$DIMTSZ
 40
0.0
  9
$DIMTOL
 70
     0
  9
$DIMLIM
 70
     0
  9
$DIMTIH
 70
     1
  9
$DIMTOH
 70
     1
  9
$DIMSE1
 70
     0
  9
$DIMSE2
 70
     0
  9
$DIMTAD
 70
     0
  9
$DIMZIN
 70
     0
  9
$DIMBLK
  1

  9
$DIMASO
 70
     1
  9
$DIMSHO
 70
     1
  9
$DIMPOST
  1

  9
$DIMAPOST
  1

  9
$DIMALT
 70
     0
  9
$DIMALTD
 70
     2
  9
$DIMALTF
 40
25.4
  9
$DIMLFAC
 40
1.0
  9
$DIMTOFL
 70
     0
  9
$DIMTVP
 40
0.0
  9
$DIMTIX
 70
     0
  9
$DIMSOXD
 70
     0
  9
$DIMSAH
 70
     0
  9
$DIMBLK1
  1

  9
$DIMBLK2
  1

  9
$DIMSTYLE
  2
STANDARD
  9
$DIMCLRD
 70
     0
  9
$DIMCLRE
 70
     0
  9
$DIMCLRT
 70
     0
  9
$DIMTFAC
 40
1.0
  9
$DIMGAP
 40
0.09
  9
$DIMJUST
 70
     0
  9
$DIMSD1
 70
     0
  9
$DIMSD2
 70
     0
  9
$DIMTOLJ
 70
     1
  9
$DIMTZIN
 70
     0
  9
$DIMALTZ
 70
     0
  9
$DIMALTTZ
 70
     0
  9
$DIMFIT
 70
     5
  9
$DIMUPT
 70
     0
  9
$DIMUNIT
 70
     2
  9
$DIMDEC
 70
     4
  9
$DIMTDEC
 70
     4
  9
$DIMALTU
 70
     2
  9
$DIMALTTD
 70
     2
  9
$DIMTXSTY
  7
STANDARD
  9
$DIMAUNIT
 70
     0
  9
$LUNITS
 70
     2
  9
$LUPREC
 70
     4
  9
$SKETCHINC
 40
0.1
  9
$FILLETRAD
 40
0.0
  9
$AUNITS
 70
     0
  9
$AUPREC
 70
     0
  9
$MENU
  1
acad
  9
$ELEVATION
 40
0.0
  9
$PELEVATION
 40
0.0
  9
$THICKNESS
 40
0.0
  9
$LIMCHECK
 70
     0
  9
$BLIPMODE
 70
     0
  9
$CHAMFERA
 40
0.0
  9
$CHAMFERB
 40
0.0
  9
$CHAMFERC
 40
0.0
  9
$CHAMFERD
 40
0.0
  9
$SKPOLY
 70
     0
  9
$TDCREATE
 40
2451908.391817129
  9
$TDUPDATE
 40
2453945.581906504
  9
$TDINDWG
 40
0.0009519676
  9
$TDUSRTIMER
 40
0.0009519676
  9
$USRTIMER
 70
     1
  9
$ANGBASE
 50
0.0
  9
$ANGDIR
 70
     0
  9
$PDMODE
 70
     0
  9
$PDSIZE
 40
0.0
  9
$PLINEWID
 40
0.0
  9
$COORDS
 70
     1
  9
$SPLFRAME
 70
     0
  9
$SPLINETYPE
 70
     6
  9
$SPLINESEGS
 70
     8
  9
$ATTDIA
 70
     0
  9
$ATTREQ
 70
     1
  9
$HANDLING
 70
  4097
  9
$HANDSEED
  5
2F4C
  9
$SURFTAB1
 70
     6
  9
$SURFTAB2
 70
     6
  9
$SURFTYPE
 70
     6
  9
$SURFU
 70
     6
  9
$SURFV
 70
     6
  9
$UCSNAME
  2

  9
$UCSORG
 10
0.0
 20
0.0
 30
0.0
  9
$UCSXDIR
 10
1.0
 20
0.0
 30
0.0
  9
$UCSYDIR
 10
0.0
 20
1.0
 30
0.0
  9
$PUCSNAME
  2

  9
$PUCSORG
 10
0.0
 20
0.0
 30
0.0
  9
$PUCSXDIR
 10
1.0
 20
0.0
 30
0.0
  9
$PUCSYDIR
 10
0.0
 20
1.0
 30
0.0
  9
$USERI1
 70
     0
  9
$USERI2
 70
     0
  9
$USERI3
 70
     0
  9
$USERI4
 70
     0
  9
$USERI5
 70
     0
  9
$USERR1
 40
0.0
  9
$USERR2
 40
0.0
  9
$USERR3
 40
0.0
  9
$USERR4
 40
0.0
  9
$USERR5
 40
0.0
  9
$WORLDVIEW
 70
     1
  9
$SHADEDGE
 70
     3
  9
$SHADEDIF
 70
    70
  9
$TILEMODE
 70
     1
  9
$MAXACTVP
 70
    16
  9
$PINSBASE
 10
0.0
 20
0.0
 30
0.0
  9
$PLIMCHECK
 70
     0
  9
$PEXTMIN
 10
1.000000000000000E+20
 20
1.000000000000000E+20
 30
1.000000000000000E+20
  9
$PEXTMAX
 10
-1.000000000000000E+20
 20
-1.000000000000000E+20
 30
-1.000000000000000E+20
  9
$PLIMMIN
 10
0.0
 20
0.0
  9
$PLIMMAX
 10
12.0
 20
9.0
  9
$UNITMODE
 70
     0
  9
$VISRETAIN
 70
     0
  9
$PLINEGEN
 70
     0
  9
$PSLTSCALE
 70
     1
  9
$TREEDEPTH
 70
  3020
  9
$PICKSTYLE
 70
     1
  9
$CMLSTYLE
  2
STANDARD
  9
$CMLJUST
 70
     0
  9
$CMLSCALE
 40
1.0
  9
$SAVEIMAGES
 70
     1
  0
ENDSEC
  0
SECTION
  2
CLASSES
  0
CLASS
  1
ACDBDICTIONARYWDFLT
  2
AcDbDictionaryWithDefault
  3
AutoCAD 2000
 90
    32768
280
     0
281
     0
  0
CLASS
  1
ACDBPLACEHOLDER
  2
AcDbPlaceHolder
  3
AutoCAD 2000
 90
    32768
280
     0
281
     0
  0
CLASS
  1
LAYOUT
  2
AcDbLayout
  3
AutoCAD 2000
 90
    32768
280
     0
281
     0
  0
CLASS
  1
LONG_TRANSACTION
  2
AcDbLongTransaction
  3
AutoCAD 2000
 90
    32768
280
     0
281
     0
  0
CLASS
  1
LWPOLYLINE
  2
AcDbPolyline
  3
AutoCAD 2000
 90
    32768
280
     0
281
     1
  0
CLASS
  1
HATCH
  2
AcDbHatch
  3
AutoCAD 2000
 90
    32768
280
     0
281
     1
  0
CLASS
  1
XRECORD
  2
AcDbXrecord
  3
AutoCAD 2000
 90
    32768
280
     0
281
     0
  0
CLASS
  1
LONG_TRANSACTION
  2
AcDbLongTransaction
  3
AutoCAD 2000
 90
    32768
280
     0
281
     0
  0
CLASS
  1
LWPOLYLINE
  2
AcDbPolyline
  3
AutoCAD 2000
 90
    32768
280
     0
281
     1
  0
CLASS
  1
HATCH
  2
AcDbHatch
  3
AutoCAD 2000
 90
    32768
280
     0
281
     1
  0
CLASS
  1
XRECORD
  2
AcDbXrecord
  3
AutoCAD 2000
 90
    32768
280
     0
281
     0
  0
ENDSEC
  0
SECTION
  2
TABLES
  0
TABLE
  2
VPORT
  5
8
330
0
100
AcDbSymbolTable
 70
     3
  0
VPORT
  5
2F49
330
8
100
AcDbSymbolTableRecord
100
AcDbViewportTableRecord
  2
*ACTIVE
 70
     0
 10
0.0
 20
0.0
 11
1.0
 21
1.0
 12
5.692382840081563
 22
7.572395349238528
 13
0.0
 23
0.0
 14
1.0
 24
1.0
 15
0.0
 25
0.0
 16
0.0
 26
0.0
 36
1.0
 17
0.0
 27
0.0
 37
0.0
 40
2.165186788507497
 41
1.647569444444444
 42
50.0
 43
0.0
 44
0.0
 50
0.0
 51
0.0
 71
     0
 72
   100
 73
     1
 74
     1
 75
     0
 76
     0
 77
     0
 78
     0
  0
ENDTAB
  0
TABLE
  2
LTYPE
  5
5
330
0
100
AcDbSymbolTable
 70
    25
  0
LTYPE
  5
13
330
5
100
AcDbSymbolTableRecord
100
AcDbLinetypeTableRecord
  2
BYBLOCK
 70
     0
  3

 72
    65
 73
     0
 40
0.0
  0
LTYPE
  5
14
330
5
100
AcDbSymbolTableRecord
100
AcDbLinetypeTableRecord
  2
BYLAYER
 70
     0
  3

 72
    65
 73
     0
 40
0.0
  0
LTYPE
  5
15
330
5
100
AcDbSymbolTableRecord
100
AcDbLinetypeTableRecord
  2
CONTINUOUS
 70
     0
  3
Solid line
 72
    65
 73
     0
 40
0.0
  0
LTYPE
  5
22
330
5
100
AcDbSymbolTableRecord
100
AcDbLinetypeTableRecord
  2
BORDER
 70
     0
  3
__ __ . __ __ . __ __ . __ __ . __ __ . __ __ .
 72
    65
 73
     6
 40
1.75
 49
0.5
 74
     0
 49
-0.25
 74
     0
 49
0.5
 74
     0
 49
-0.25
 74
     0
 49
0.5
 74
     0
 49
-0.25
 74
     0
  0
LTYPE
  5
23
330
5
100
AcDbSymbolTableRecord
100
AcDbLinetypeTableRecord
  2
BORDER2
 70
     0
  3
__.__.__.__.__.__.__.__.__.__.__.__.__.__.__.__
 72
    65
 73
     6
 40
0.875
 49
0.25
 74
     0
 49
-0.125
 74
     0
 49
0.25
 74
     0
 49
-0.125
 74
     0
 49
0.25
 74
     0
 49
-0.125
 74
     0
  0
LTYPE
  5
24
330
5
100
AcDbSymbolTableRecord
100
AcDbLinetypeTableRecord
  2
BORDERX2
 70
     0
  3
____  ____  .  ____  ____  .  
 72
    65
 73
     6
 40
3.5
 49
1.0
 74
     0
 49
-0.5
 74
     0
 49
1.0
 74
     0
 49
-0.5
 74
     0
 49
1.0
 74
     0
 49
-0.5
 74
     0
  0
LTYPE
  5
25
330
5
100
AcDbSymbolTableRecord
100
AcDbLinetypeTableRecord
  2
CENTER
 70
     0
  3
____ _ ____ _ ____ _ ____ _ ____ _ ____ _ ____
 72
    65
 73
     4
 40
2.0
 49
1.25
 74
     0
 49
-0.25
 74
     0
 49
0.25
 74
     0
 49
-0.25
 74
     0
  0
LTYPE
  5
26
330
5
100
AcDbSymbolTableRecord
100
AcDbLinetypeTableRecord
  2
CENTER2
 70
     0
  3
____ _ ____ _ ____ _ ____ _ ____ _ ____ _ ____
 72
    65
 73
     4
 40
1.125
 49
0.75
 74
     0
 49
-0.125
 74
     0
 49
0.125
 74
     0
 49
-0.125
 74
     0
  0
LTYPE
  5
27
330
5
100
AcDbSymbolTableRecord
100
AcDbLinetypeTableRecord
  2
CENTERX2
 70
     0
  3
________  __  ________  __  ________  __  
 72
    65
 73
     4
 40
4.0
 49
2.5
 74
     0
 49
-0.5
 74
     0
 49
0.5
 74
     0
 49
-0.5
 74
     0
  0
LTYPE
  5
28
330
5
100
AcDbSymbolTableRecord
100
AcDbLinetypeTableRecord
  2
DASHDOT
 70
     0
  3
__ . __ . __ . __ . __ . __ . __ . 
 72
    65
 73
     4
 40
1.0
 49
0.5
 74
     0
 49
-0.25
 74
     0
 49
0.0
 74
     0
 49
-0.25
 74
     0
  0
LTYPE
  5
29
330
5
100
AcDbSymbolTableRecord
100
AcDbLinetypeTableRecord
  2
DASHDOT2
 70
     0
  3
_._._._._._._._._._._._._._._._.
 72
    65
 73
     4
 40
0.5
 49
0.25
 74
     0
 49
-0.125
 74
     0
 49
0.0
 74
     0
 49
-0.125
 74
     0
  0
LTYPE
  5
2A
330
5
100
AcDbSymbolTableRecord
100
AcDbLinetypeTableRecord
  2
DASHDOTX2
 70
     0
  3
____  .  ____  .  ____  .  ____  .  
 72
    65
 73
     4
 40
2.0
 49
1.0
 74
     0
 49
-0.5
 74
     0
 49
0.0
 74
     0
 49
-0.5
 74
     0
  0
LTYPE
  5
2B
330
5
100
AcDbSymbolTableRecord
100
AcDbLinetypeTableRecord
  2
DASHED
 70
     0
  3
__ __ __ __ __ __ __ __ __ __ __ __ 
 72
    65
 73
     2
 40
0.75
 49
0.5
 74
     0
 49
-0.25
 74
     0
  0
LTYPE
  5
2C
330
5
100
AcDbSymbolTableRecord
100
AcDbLinetypeTableRecord
  2
DASHED2
 70
     0
  3
_ _ _ _ _ _ _ _ _ _ _ _ _ _ _ _ _ _ 
 72
    65
 73
     2
 40
0.375
 49
0.25
 74
     0
 49
-0.125
 74
     0
  0
LTYPE
  5
2D
330
5
100
AcDbSymbolTableRecord
100
AcDbLinetypeTableRecord
  2
DASHEDX2
 70
     0
  3
____  ____  ____  ____  ____  ____  
 72
    65
 73
     2
 40
1.5
 49
1.0
 74
     0
 49
-0.5
 74
     0
  0
LTYPE
  5
2E
330
5
100
AcDbSymbolTableRecord
100
AcDbLinetypeTableRecord
  2
DIVIDE
 70
     0
  3
____ . . ____ . . ____ . . ____ . . 
 72
    65
 73
     6
 40
1.25
 49
0.5
 74
     0
 49
-0.25
 74
     0
 49
0.0
 74
     0
 49
-0.25
 74
     0
 49
0.0
 74
     0
 49
-0.25
 74
     0
  0
LTYPE
  5
2F
330
5
100
AcDbSymbolTableRecord
100
AcDbLinetypeTableRecord
  2
DIVIDE2
 70
     0
  3
__..__..__..__..__..__..__..__..__..
 72
    65
 73
     6
 40
0.625
 49
0.25
 74
     0
 49
-0.125
 74
     0
 49
0.0
 74
     0
 49
-0.125
 74
     0
 49
0.0
 74
     0
 49
-0.125
 74
     0
  0
LTYPE
  5
30
330
5
100
AcDbSymbolTableRecord
100
AcDbLinetypeTableRecord
  2
DIVIDEX2
 70
     0
  3
________  .  .  ________  .  .  ________  .  . 
 72
    65
 73
     6
 40
2.5
 49
1.0
 74
     0
 49
-0.5
 74
     0
 49
0.0
 74
     0
 49
-0.5
 74
     0
 49
0.0
 74
     0
 49
-0.5
 74
     0
  0
LTYPE
  5
31
330
5
100
AcDbSymbolTableRecord
100
AcDbLinetypeTableRecord
  2
DOT
 70
     0
  3
. . . . . . . . . . . . . . . . . . 
 72
    65
 73
     2
 40
0.25
 49
0.0
 74
     0
 49
-0.25
 74
     0
  0
LTYPE
  5
32
330
5
100
AcDbSymbolTableRecord
100
AcDbLinetypeTableRecord
  2
DOT2
 70
     0
  3
....................................
 72
    65
 73
     2
 40
0.125
 49
0.0
 74
     0
 49
-0.125
 74
     0
  0
LTYPE
  5
33
330
5
100
AcDbSymbolTableRecord
100
AcDbLinetypeTableRecord
  2
DOTX2
 70
     0
  3
.  .  .  .  .  .  .  .  .  .  .  .  .  
 72
    65
 73
     2
 40
0.5
 49
0.0
 74
     0
 49
-0.5
 74
     0
  0
LTYPE
  5
34
330
5
100
AcDbSymbolTableRecord
100
AcDbLinetypeTableRecord
  2
HIDDEN
 70
     0
  3
__ __ __ __ __ __ __ __ __ __ __ __ 
 72
    65
 73
     2
 40
0.375
 49
0.25
 74
     0
 49
-0.125
 74
     0
  0
LTYPE
  5
35
330
5
100
AcDbSymbolTableRecord
100
AcDbLinetypeTableRecord
  2
HIDDEN2
 70
     0
  3
_ _ _ _ _ _ _ _ _ _ _ _ _ _ _ _ _ _ 
 72
    65
 73
     2
 40
0.1875
 49
0.125
 74
     0
 49
-0.0625
 74
     0
  0
LTYPE
  5
36
330
5
100
AcDbSymbolTableRecord
100
AcDbLinetypeTableRecord
  2
HIDDENX2
 70
     0
  3
____ ____ ____ ____ ____ ____ ____ 
 72
    65
 73
     2
 40
0.75
 49
0.5
 74
     0
 49
-0.25
 74
     0
  0
LTYPE
  5
37
330
5
100
AcDbSymbolTableRecord
100
AcDbLinetypeTableRecord
  2
PHANTOM
 70
     0
  3
______  __  __  ______  __  __  
 72
    65
 73
     6
 40
2.5
 49
1.25
 74
     0
 49
-0.25
 74
     0
 49
0.25
 74
     0
 49
-0.25
 74
     0
 49
0.25
 74
     0
 49
-0.25
 74
     0
  0
LTYPE
  5
38
330
5
100
AcDbSymbolTableRecord
100
AcDbLinetypeTableRecord
  2
PHANTOM2
 70
     0
  3
___ _ _ ___ _ _ ___ _ _ ___ _ _ 
 72
    65
 73
     6
 40
1.25
 49
0.625
 74
     0
 49
-0.125
 74
     0
 49
0.125
 74
     0
 49
-0.125
 74
     0
 49
0.125
 74
     0
 49
-0.125
 74
     0
  0
LTYPE
  5
39
330
5
100
AcDbSymbolTableRecord
100
AcDbLinetypeTableRecord
  2
PHANTOMX2
 70
     0
  3
___ _ _ ___ _ _ ___ _ _ ___ _ _ 
 72
    65
 73
     6
 40
5.0
 49
2.5
 74
     0
 49
-0.5
 74
     0
 49
0.5
 74
     0
 49
-0.5
 74
     0
 49
0.5
 74
     0
 49
-0.5
 74
     0
  0
ENDTAB
  0
TABLE
  2
LAYER
  5
2
330
0
100
AcDbSymbolTable
 70
   256
  0
LAYER
  5
10
330
2
100
AcDbSymbolTableRecord
100
AcDbLayerTableRecord
  2
0
 70
     0
 62
     7
  6
CONTINUOUS
  0
LAYER
  5
3A
330
2
100
AcDbSymbolTableRecord
100
AcDbLayerTableRecord
  2
1
 70
     0
 62
     1
  6
CONTINUOUS
  0
LAYER
  5
3B
330
2
100
AcDbSymbolTableRecord
100
AcDbLayerTableRecord
  2
2
 70
     0
 62
     2
  6
CONTINUOUS
  0
LAYER
  5
3C
330
2
100
AcDbSymbolTableRecord
100
AcDbLayerTableRecord
  2
3
 70
     0
 62
     3
  6
CONTINUOUS
  0
LAYER
  5
3D
330
2
100
AcDbSymbolTableRecord
100
AcDbLayerTableRecord
  2
4
 70
     0
 62
     4
  6
CONTINUOUS
  0
LAYER
  5
3E
330
2
100
AcDbSymbolTableRecord
100
AcDbLayerTableRecord
  2
5
 70
     0
 62
     5
  6
CONTINUOUS
  0
LAYER
  5
3F
330
2
100
AcDbSymbolTableRecord
100
AcDbLayerTableRecord
  2
6
 70
     0
 62
     6
  6
CONTINUOUS
  0
LAYER
  5
40
330
2
100
AcDbSymbolTableRecord
100
AcDbLayerTableRecord
  2
7
 70
     0
 62
     7
  6
CONTINUOUS
  0
LAYER
  5
41
330
2
100
AcDbSymbolTableRecord
100
AcDbLayerTableRecord
  2
8
 70
     0
 62
     8
  6
CONTINUOUS
  0
LAYER
  5
42
330
2
100
AcDbSymbolTableRecord
100
AcDbLayerTableRecord
  2
9
 70
     0
 62
     9
  6
CONTINUOUS
  0
LAYER
  5
43
330
2
100
AcDbSymbolTableRecord
100
AcDbLayerTableRecord
  2
10
 70
     0
 62
    10
  6
CONTINUOUS
  0
LAYER
  5
44
330
2
100
AcDbSymbolTableRecord
100
AcDbLayerTableRecord
  2
11
 70
     0
 62
    11
  6
CONTINUOUS
  0
LAYER
  5
45
330
2
100
AcDbSymbolTableRecord
100
AcDbLayerTableRecord
  2
12
 70
     0
 62
    12
  6
CONTINUOUS
  0
LAYER
  5
46
330
2
100
AcDbSymbolTableRecord
100
AcDbLayerTableRecord
  2
13
 70
     0
 62
    13
  6
CONTINUOUS
  0
LAYER
  5
47
330
2
100
AcDbSymbolTableRecord
100
AcDbLayerTableRecord
  2
14
 70
     0
 62
    14
  6
CONTINUOUS
  0
LAYER
  5
48
330
2
100
AcDbSymbolTableRecord
100
AcDbLayerTableRecord
  2
15
 70
     0
 62
    15
  6
CONTINUOUS
  0
LAYER
  5
49
330
2
100
AcDbSymbolTableRecord
100
AcDbLayerTableRecord
  2
16
 70
     0
 62
    16
  6
CONTINUOUS
  0
LAYER
  5
4A
330
2
100
AcDbSymbolTableRecord
100
AcDbLayerTableRecord
  2
17
 70
     0
 62
    17
  6
CONTINUOUS
  0
LAYER
  5
4B
330
2
100
AcDbSymbolTableRecord
100
AcDbLayerTableRecord
  2
18
 70
     0
 62
    18
  6
CONTINUOUS
  0
LAYER
  5
4C
330
2
100
AcDbSymbolTableRecord
100
AcDbLayerTableRecord
  2
19
 70
     0
 62
    19
  6
CONTINUOUS
  0
LAYER
  5
4D
330
2
100
AcDbSymbolTableRecord
100
AcDbLayerTableRecord
  2
20
 70
     0
 62
    20
  6
CONTINUOUS
  0
LAYER
  5
4E
330
2
100
AcDbSymbolTableRecord
100
AcDbLayerTableRecord
  2
21
 70
     0
 62
    21
  6
CONTINUOUS
  0
LAYER
  5
4F
330
2
100
AcDbSymbolTableRecord
100
AcDbLayerTableRecord
  2
22
 70
     0
 62
    22
  6
CONTINUOUS
  0
LAYER
  5
50
330
2
100
AcDbSymbolTableRecord
100
AcDbLayerTableRecord
  2
23
 70
     0
 62
    23
  6
CONTINUOUS
  0
LAYER
  5
51
330
2
100
AcDbSymbolTableRecord
100
AcDbLayerTableRecord
  2
24
 70
     0
 62
    24
  6
CONTINUOUS
  0
LAYER
  5
52
330
2
100
AcDbSymbolTableRecord
100
AcDbLayerTableRecord
  2
25
 70
     0
 62
    25
  6
CONTINUOUS
  0
LAYER
  5
53
330
2
100
AcDbSymbolTableRecord
100
AcDbLayerTableRecord
  2
26
 70
     0
 62
    26
  6
CONTINUOUS
  0
LAYER
  5
54
330
2
100
AcDbSymbolTableRecord
100
AcDbLayerTableRecord
  2
27
 70
     0
 62
    27
  6
CONTINUOUS
  0
LAYER
  5
55
330
2
100
AcDbSymbolTableRecord
100
AcDbLayerTableRecord
  2
28
 70
     0
 62
    28
  6
CONTINUOUS
  0
LAYER
  5
56
330
2
100
AcDbSymbolTableRecord
100
AcDbLayerTableRecord
  2
29
 70
     0
 62
    29
  6
CONTINUOUS
  0
LAYER
  5
57
330
2
100
AcDbSymbolTableRecord
100
AcDbLayerTableRecord
  2
30
 70
     0
 62
    30
  6
CONTINUOUS
  0
LAYER
  5
58
330
2
100
AcDbSymbolTableRecord
100
AcDbLayerTableRecord
  2
31
 70
     0
 62
    31
  6
CONTINUOUS
  0
LAYER
  5
59
330
2
100
AcDbSymbolTableRecord
100
AcDbLayerTableRecord
  2
32
 70
     0
 62
    32
  6
CONTINUOUS
  0
LAYER
  5
5A
330
2
100
AcDbSymbolTableRecord
100
AcDbLayerTableRecord
  2
33
 70
     0
 62
    33
  6
CONTINUOUS
  0
LAYER
  5
5B
330
2
100
AcDbSymbolTableRecord
100
AcDbLayerTableRecord
  2
34
 70
     0
 62
    34
  6
CONTINUOUS
  0
LAYER
  5
5C
330
2
100
AcDbSymbolTableRecord
100
AcDbLayerTableRecord
  2
35
 70
     0
 62
    35
  6
CONTINUOUS
  0
LAYER
  5
5D
330
2
100
AcDbSymbolTableRecord
100
AcDbLayerTableRecord
  2
36
 70
     0
 62
    36
  6
CONTINUOUS
  0
LAYER
  5
5E
330
2
100
AcDbSymbolTableRecord
100
AcDbLayerTableRecord
  2
37
 70
     0
 62
    37
  6
CONTINUOUS
  0
LAYER
  5
5F
330
2
100
AcDbSymbolTableRecord
100
AcDbLayerTableRecord
  2
38
 70
     0
 62
    38
  6
CONTINUOUS
  0
LAYER
  5
60
330
2
100
AcDbSymbolTableRecord
100
AcDbLayerTableRecord
  2
39
 70
     0
 62
    39
  6
CONTINUOUS
  0
LAYER
  5
61
330
2
100
AcDbSymbolTableRecord
100
AcDbLayerTableRecord
  2
40
 70
     0
 62
    40
  6
CONTINUOUS
  0
LAYER
  5
62
330
2
100
AcDbSymbolTableRecord
100
AcDbLayerTableRecord
  2
41
 70
     0
 62
    41
  6
CONTINUOUS
  0
LAYER
  5
63
330
2
100
AcDbSymbolTableRecord
100
AcDbLayerTableRecord
  2
42
 70
     0
 62
    42
  6
CONTINUOUS
  0
LAYER
  5
64
330
2
100
AcDbSymbolTableRecord
100
AcDbLayerTableRecord
  2
43
 70
     0
 62
    43
  6
CONTINUOUS
  0
LAYER
  5
65
330
2
100
AcDbSymbolTableRecord
100
AcDbLayerTableRecord
  2
44
 70
     0
 62
    44
  6
CONTINUOUS
  0
LAYER
  5
66
330
2
100
AcDbSymbolTableRecord
100
AcDbLayerTableRecord
  2
45
 70
     0
 62
    45
  6
CONTINUOUS
  0
LAYER
  5
67
330
2
100
AcDbSymbolTableRecord
100
AcDbLayerTableRecord
  2
46
 70
     0
 62
    46
  6
CONTINUOUS
  0
LAYER
  5
68
330
2
100
AcDbSymbolTableRecord
100
AcDbLayerTableRecord
  2
47
 70
     0
 62
    47
  6
CONTINUOUS
  0
LAYER
  5
69
330
2
100
AcDbSymbolTableRecord
100
AcDbLayerTableRecord
  2
48
 70
     0
 62
    48
  6
CONTINUOUS
  0
LAYER
  5
6A
330
2
100
AcDbSymbolTableRecord
100
AcDbLayerTableRecord
  2
49
 70
     0
 62
    49
  6
CONTINUOUS
  0
LAYER
  5
6B
330
2
100
AcDbSymbolTableRecord
100
AcDbLayerTableRecord
  2
50
 70
     0
 62
    50
  6
CONTINUOUS
  0
LAYER
  5
6C
330
2
100
AcDbSymbolTableRecord
100
AcDbLayerTableRecord
  2
51
 70
     0
 62
    51
  6
CONTINUOUS
  0
LAYER
  5
6D
330
2
100
AcDbSymbolTableRecord
100
AcDbLayerTableRecord
  2
52
 70
     0
 62
    52
  6
CONTINUOUS
  0
LAYER
  5
6E
330
2
100
AcDbSymbolTableRecord
100
AcDbLayerTableRecord
  2
53
 70
     0
 62
    53
  6
CONTINUOUS
  0
LAYER
  5
6F
330
2
100
AcDbSymbolTableRecord
100
AcDbLayerTableRecord
  2
54
 70
     0
 62
    54
  6
CONTINUOUS
  0
LAYER
  5
70
330
2
100
AcDbSymbolTableRecord
100
AcDbLayerTableRecord
  2
55
 70
     0
 62
    55
  6
CONTINUOUS
  0
LAYER
  5
71
330
2
100
AcDbSymbolTableRecord
100
AcDbLayerTableRecord
  2
56
 70
     0
 62
    56
  6
CONTINUOUS
  0
LAYER
  5
72
330
2
100
AcDbSymbolTableRecord
100
AcDbLayerTableRecord
  2
57
 70
     0
 62
    57
  6
CONTINUOUS
  0
LAYER
  5
73
330
2
100
AcDbSymbolTableRecord
100
AcDbLayerTableRecord
  2
58
 70
     0
 62
    58
  6
CONTINUOUS
  0
LAYER
  5
74
330
2
100
AcDbSymbolTableRecord
100
AcDbLayerTableRecord
  2
59
 70
     0
 62
    59
  6
CONTINUOUS
  0
LAYER
  5
75
330
2
100
AcDbSymbolTableRecord
100
AcDbLayerTableRecord
  2
60
 70
     0
 62
    60
  6
CONTINUOUS
  0
LAYER
  5
76
330
2
100
AcDbSymbolTableRecord
100
AcDbLayerTableRecord
  2
61
 70
     0
 62
    61
  6
CONTINUOUS
  0
LAYER
  5
77
330
2
100
AcDbSymbolTableRecord
100
AcDbLayerTableRecord
  2
62
 70
     0
 62
    62
  6
CONTINUOUS
  0
LAYER
  5
78
330
2
100
AcDbSymbolTableRecord
100
AcDbLayerTableRecord
  2
63
 70
     0
 62
    63
  6
CONTINUOUS
  0
LAYER
  5
79
330
2
100
AcDbSymbolTableRecord
100
AcDbLayerTableRecord
  2
64
 70
     0
 62
    64
  6
CONTINUOUS
  0
LAYER
  5
7A
330
2
100
AcDbSymbolTableRecord
100
AcDbLayerTableRecord
  2
65
 70
     0
 62
    65
  6
CONTINUOUS
  0
LAYER
  5
7B
330
2
100
AcDbSymbolTableRecord
100
AcDbLayerTableRecord
  2
66
 70
     0
 62
    66
  6
CONTINUOUS
  0
LAYER
  5
7C
330
2
100
AcDbSymbolTableRecord
100
AcDbLayerTableRecord
  2
67
 70
     0
 62
    67
  6
CONTINUOUS
  0
LAYER
  5
7D
330
2
100
AcDbSymbolTableRecord
100
AcDbLayerTableRecord
  2
68
 70
     0
 62
    68
  6
CONTINUOUS
  0
LAYER
  5
7E
330
2
100
AcDbSymbolTableRecord
100
AcDbLayerTableRecord
  2
69
 70
     0
 62
    69
  6
CONTINUOUS
  0
LAYER
  5
7F
330
2
100
AcDbSymbolTableRecord
100
AcDbLayerTableRecord
  2
70
 70
     0
 62
    70
  6
CONTINUOUS
  0
LAYER
  5
80
330
2
100
AcDbSymbolTableRecord
100
AcDbLayerTableRecord
  2
71
 70
     0
 62
    71
  6
CONTINUOUS
  0
LAYER
  5
81
330
2
100
AcDbSymbolTableRecord
100
AcDbLayerTableRecord
  2
72
 70
     0
 62
    72
  6
CONTINUOUS
  0
LAYER
  5
82
330
2
100
AcDbSymbolTableRecord
100
AcDbLayerTableRecord
  2
73
 70
     0
 62
    73
  6
CONTINUOUS
  0
LAYER
  5
83
330
2
100
AcDbSymbolTableRecord
100
AcDbLayerTableRecord
  2
74
 70
     0
 62
    74
  6
CONTINUOUS
  0
LAYER
  5
84
330
2
100
AcDbSymbolTableRecord
100
AcDbLayerTableRecord
  2
75
 70
     0
 62
    75
  6
CONTINUOUS
  0
LAYER
  5
85
330
2
100
AcDbSymbolTableRecord
100
AcDbLayerTableRecord
  2
76
 70
     0
 62
    76
  6
CONTINUOUS
  0
LAYER
  5
86
330
2
100
AcDbSymbolTableRecord
100
AcDbLayerTableRecord
  2
77
 70
     0
 62
    77
  6
CONTINUOUS
  0
LAYER
  5
87
330
2
100
AcDbSymbolTableRecord
100
AcDbLayerTableRecord
  2
78
 70
     0
 62
    78
  6
CONTINUOUS
  0
LAYER
  5
88
330
2
100
AcDbSymbolTableRecord
100
AcDbLayerTableRecord
  2
79
 70
     0
 62
    79
  6
CONTINUOUS
  0
LAYER
  5
89
330
2
100
AcDbSymbolTableRecord
100
AcDbLayerTableRecord
  2
80
 70
     0
 62
    80
  6
CONTINUOUS
  0
LAYER
  5
8A
330
2
100
AcDbSymbolTableRecord
100
AcDbLayerTableRecord
  2
81
 70
     0
 62
    81
  6
CONTINUOUS
  0
LAYER
  5
8B
330
2
100
AcDbSymbolTableRecord
100
AcDbLayerTableRecord
  2
82
 70
     0
 62
    82
  6
CONTINUOUS
  0
LAYER
  5
8C
330
2
100
AcDbSymbolTableRecord
100
AcDbLayerTableRecord
  2
83
 70
     0
 62
    83
  6
CONTINUOUS
  0
LAYER
  5
8D
330
2
100
AcDbSymbolTableRecord
100
AcDbLayerTableRecord
  2
84
 70
     0
 62
    84
  6
CONTINUOUS
  0
LAYER
  5
8E
330
2
100
AcDbSymbolTableRecord
100
AcDbLayerTableRecord
  2
85
 70
     0
 62
    85
  6
CONTINUOUS
  0
LAYER
  5
8F
330
2
100
AcDbSymbolTableRecord
100
AcDbLayerTableRecord
  2
86
 70
     0
 62
    86
  6
CONTINUOUS
  0
LAYER
  5
90
330
2
100
AcDbSymbolTableRecord
100
AcDbLayerTableRecord
  2
87
 70
     0
 62
    87
  6
CONTINUOUS
  0
LAYER
  5
91
330
2
100
AcDbSymbolTableRecord
100
AcDbLayerTableRecord
  2
88
 70
     0
 62
    88
  6
CONTINUOUS
  0
LAYER
  5
92
330
2
100
AcDbSymbolTableRecord
100
AcDbLayerTableRecord
  2
89
 70
     0
 62
    89
  6
CONTINUOUS
  0
LAYER
  5
93
330
2
100
AcDbSymbolTableRecord
100
AcDbLayerTableRecord
  2
90
 70
     0
 62
    90
  6
CONTINUOUS
  0
LAYER
  5
94
330
2
100
AcDbSymbolTableRecord
100
AcDbLayerTableRecord
  2
91
 70
     0
 62
    91
  6
CONTINUOUS
  0
LAYER
  5
95
330
2
100
AcDbSymbolTableRecord
100
AcDbLayerTableRecord
  2
92
 70
     0
 62
    92
  6
CONTINUOUS
  0
LAYER
  5
96
330
2
100
AcDbSymbolTableRecord
100
AcDbLayerTableRecord
  2
93
 70
     0
 62
    93
  6
CONTINUOUS
  0
LAYER
  5
97
330
2
100
AcDbSymbolTableRecord
100
AcDbLayerTableRecord
  2
94
 70
     0
 62
    94
  6
CONTINUOUS
  0
LAYER
  5
98
330
2
100
AcDbSymbolTableRecord
100
AcDbLayerTableRecord
  2
95
 70
     0
 62
    95
  6
CONTINUOUS
  0
LAYER
  5
99
330
2
100
AcDbSymbolTableRecord
100
AcDbLayerTableRecord
  2
96
 70
     0
 62
    96
  6
CONTINUOUS
  0
LAYER
  5
9A
330
2
100
AcDbSymbolTableRecord
100
AcDbLayerTableRecord
  2
97
 70
     0
 62
    97
  6
CONTINUOUS
  0
LAYER
  5
9B
330
2
100
AcDbSymbolTableRecord
100
AcDbLayerTableRecord
  2
98
 70
     0
 62
    98
  6
CONTINUOUS
  0
LAYER
  5
9C
330
2
100
AcDbSymbolTableRecord
100
AcDbLayerTableRecord
  2
99
 70
     0
 62
    99
  6
CONTINUOUS
  0
LAYER
  5
9D
330
2
100
AcDbSymbolTableRecord
100
AcDbLayerTableRecord
  2
100
 70
     0
 62
   100
  6
CONTINUOUS
  0
LAYER
  5
9E
330
2
100
AcDbSymbolTableRecord
100
AcDbLayerTableRecord
  2
101
 70
     0
 62
   101
  6
CONTINUOUS
  0
LAYER
  5
9F
330
2
100
AcDbSymbolTableRecord
100
AcDbLayerTableRecord
  2
102
 70
     0
 62
   102
  6
CONTINUOUS
  0
LAYER
  5
A0
330
2
100
AcDbSymbolTableRecord
100
AcDbLayerTableRecord
  2
103
 70
     0
 62
   103
  6
CONTINUOUS
  0
LAYER
  5
A1
330
2
100
AcDbSymbolTableRecord
100
AcDbLayerTableRecord
  2
104
 70
     0
 62
   104
  6
CONTINUOUS
  0
LAYER
  5
A2
330
2
100
AcDbSymbolTableRecord
100
AcDbLayerTableRecord
  2
105
 70
     0
 62
   105
  6
CONTINUOUS
  0
LAYER
  5
A3
330
2
100
AcDbSymbolTableRecord
100
AcDbLayerTableRecord
  2
106
 70
     0
 62
   106
  6
CONTINUOUS
  0
LAYER
  5
A4
330
2
100
AcDbSymbolTableRecord
100
AcDbLayerTableRecord
  2
107
 70
     0
 62
   107
  6
CONTINUOUS
  0
LAYER
  5
A5
330
2
100
AcDbSymbolTableRecord
100
AcDbLayerTableRecord
  2
108
 70
     0
 62
   108
  6
CONTINUOUS
  0
LAYER
  5
A6
330
2
100
AcDbSymbolTableRecord
100
AcDbLayerTableRecord
  2
109
 70
     0
 62
   109
  6
CONTINUOUS
  0
LAYER
  5
A7
330
2
100
AcDbSymbolTableRecord
100
AcDbLayerTableRecord
  2
110
 70
     0
 62
   110
  6
CONTINUOUS
  0
LAYER
  5
A8
330
2
100
AcDbSymbolTableRecord
100
AcDbLayerTableRecord
  2
111
 70
     0
 62
   111
  6
CONTINUOUS
  0
LAYER
  5
A9
330
2
100
AcDbSymbolTableRecord
100
AcDbLayerTableRecord
  2
112
 70
     0
 62
   112
  6
CONTINUOUS
  0
LAYER
  5
AA
330
2
100
AcDbSymbolTableRecord
100
AcDbLayerTableRecord
  2
113
 70
     0
 62
   113
  6
CONTINUOUS
  0
LAYER
  5
AB
330
2
100
AcDbSymbolTableRecord
100
AcDbLayerTableRecord
  2
114
 70
     0
 62
   114
  6
CONTINUOUS
  0
LAYER
  5
AC
330
2
100
AcDbSymbolTableRecord
100
AcDbLayerTableRecord
  2
115
 70
     0
 62
   115
  6
CONTINUOUS
  0
LAYER
  5
AD
330
2
100
AcDbSymbolTableRecord
100
AcDbLayerTableRecord
  2
116
 70
     0
 62
   116
  6
CONTINUOUS
  0
LAYER
  5
AE
330
2
100
AcDbSymbolTableRecord
100
AcDbLayerTableRecord
  2
117
 70
     0
 62
   117
  6
CONTINUOUS
  0
LAYER
  5
AF
330
2
100
AcDbSymbolTableRecord
100
AcDbLayerTableRecord
  2
118
 70
     0
 62
   118
  6
CONTINUOUS
  0
LAYER
  5
B0
330
2
100
AcDbSymbolTableRecord
100
AcDbLayerTableRecord
  2
119
 70
     0
 62
   119
  6
CONTINUOUS
  0
LAYER
  5
B1
330
2
100
AcDbSymbolTableRecord
100
AcDbLayerTableRecord
  2
120
 70
     0
 62
   120
  6
CONTINUOUS
  0
LAYER
  5
B2
330
2
100
AcDbSymbolTableRecord
100
AcDbLayerTableRecord
  2
121
 70
     0
 62
   121
  6
CONTINUOUS
  0
LAYER
  5
B3
330
2
100
AcDbSymbolTableRecord
100
AcDbLayerTableRecord
  2
122
 70
     0
 62
   122
  6
CONTINUOUS
  0
LAYER
  5
B4
330
2
100
AcDbSymbolTableRecord
100
AcDbLayerTableRecord
  2
123
 70
     0
 62
   123
  6
CONTINUOUS
  0
LAYER
  5
B5
330
2
100
AcDbSymbolTableRecord
100
AcDbLayerTableRecord
  2
124
 70
     0
 62
   124
  6
CONTINUOUS
  0
LAYER
  5
B6
330
2
100
AcDbSymbolTableRecord
100
AcDbLayerTableRecord
  2
125
 70
     0
 62
   125
  6
CONTINUOUS
  0
LAYER
  5
B7
330
2
100
AcDbSymbolTableRecord
100
AcDbLayerTableRecord
  2
126
 70
     0
 62
   126
  6
CONTINUOUS
  0
LAYER
  5
B8
330
2
100
AcDbSymbolTableRecord
100
AcDbLayerTableRecord
  2
127
 70
     0
 62
   127
  6
CONTINUOUS
  0
LAYER
  5
B9
330
2
100
AcDbSymbolTableRecord
100
AcDbLayerTableRecord
  2
128
 70
     0
 62
   128
  6
CONTINUOUS
  0
LAYER
  5
BA
330
2
100
AcDbSymbolTableRecord
100
AcDbLayerTableRecord
  2
129
 70
     0
 62
   129
  6
CONTINUOUS
  0
LAYER
  5
BB
330
2
100
AcDbSymbolTableRecord
100
AcDbLayerTableRecord
  2
130
 70
     0
 62
   130
  6
CONTINUOUS
  0
LAYER
  5
BC
330
2
100
AcDbSymbolTableRecord
100
AcDbLayerTableRecord
  2
131
 70
     0
 62
   131
  6
CONTINUOUS
  0
LAYER
  5
BD
330
2
100
AcDbSymbolTableRecord
100
AcDbLayerTableRecord
  2
132
 70
     0
 62
   132
  6
CONTINUOUS
  0
LAYER
  5
BE
330
2
100
AcDbSymbolTableRecord
100
AcDbLayerTableRecord
  2
133
 70
     0
 62
   133
  6
CONTINUOUS
  0
LAYER
  5
BF
330
2
100
AcDbSymbolTableRecord
100
AcDbLayerTableRecord
  2
134
 70
     0
 62
   134
  6
CONTINUOUS
  0
LAYER
  5
C0
330
2
100
AcDbSymbolTableRecord
100
AcDbLayerTableRecord
  2
135
 70
     0
 62
   135
  6
CONTINUOUS
  0
LAYER
  5
C1
330
2
100
AcDbSymbolTableRecord
100
AcDbLayerTableRecord
  2
136
 70
     0
 62
   136
  6
CONTINUOUS
  0
LAYER
  5
C2
330
2
100
AcDbSymbolTableRecord
100
AcDbLayerTableRecord
  2
137
 70
     0
 62
   137
  6
CONTINUOUS
  0
LAYER
  5
C3
330
2
100
AcDbSymbolTableRecord
100
AcDbLayerTableRecord
  2
138
 70
     0
 62
   138
  6
CONTINUOUS
  0
LAYER
  5
C4
330
2
100
AcDbSymbolTableRecord
100
AcDbLayerTableRecord
  2
139
 70
     0
 62
   139
  6
CONTINUOUS
  0
LAYER
  5
C5
330
2
100
AcDbSymbolTableRecord
100
AcDbLayerTableRecord
  2
140
 70
     0
 62
   140
  6
CONTINUOUS
  0
LAYER
  5
C6
330
2
100
AcDbSymbolTableRecord
100
AcDbLayerTableRecord
  2
141
 70
     0
 62
   141
  6
CONTINUOUS
  0
LAYER
  5
C7
330
2
100
AcDbSymbolTableRecord
100
AcDbLayerTableRecord
  2
142
 70
     0
 62
   142
  6
CONTINUOUS
  0
LAYER
  5
C8
330
2
100
AcDbSymbolTableRecord
100
AcDbLayerTableRecord
  2
143
 70
     0
 62
   143
  6
CONTINUOUS
  0
LAYER
  5
C9
330
2
100
AcDbSymbolTableRecord
100
AcDbLayerTableRecord
  2
144
 70
     0
 62
   144
  6
CONTINUOUS
  0
LAYER
  5
CA
330
2
100
AcDbSymbolTableRecord
100
AcDbLayerTableRecord
  2
145
 70
     0
 62
   145
  6
CONTINUOUS
  0
LAYER
  5
CB
330
2
100
AcDbSymbolTableRecord
100
AcDbLayerTableRecord
  2
146
 70
     0
 62
   146
  6
CONTINUOUS
  0
LAYER
  5
CC
330
2
100
AcDbSymbolTableRecord
100
AcDbLayerTableRecord
  2
147
 70
     0
 62
   147
  6
CONTINUOUS
  0
LAYER
  5
CD
330
2
100
AcDbSymbolTableRecord
100
AcDbLayerTableRecord
  2
148
 70
     0
 62
   148
  6
CONTINUOUS
  0
LAYER
  5
CE
330
2
100
AcDbSymbolTableRecord
100
AcDbLayerTableRecord
  2
149
 70
     0
 62
   149
  6
CONTINUOUS
  0
LAYER
  5
CF
330
2
100
AcDbSymbolTableRecord
100
AcDbLayerTableRecord
  2
150
 70
     0
 62
   150
  6
CONTINUOUS
  0
LAYER
  5
D0
330
2
100
AcDbSymbolTableRecord
100
AcDbLayerTableRecord
  2
151
 70
     0
 62
   151
  6
CONTINUOUS
  0
LAYER
  5
D1
330
2
100
AcDbSymbolTableRecord
100
AcDbLayerTableRecord
  2
152
 70
     0
 62
   152
  6
CONTINUOUS
  0
LAYER
  5
D2
330
2
100
AcDbSymbolTableRecord
100
AcDbLayerTableRecord
  2
153
 70
     0
 62
   153
  6
CONTINUOUS
  0
LAYER
  5
D3
330
2
100
AcDbSymbolTableRecord
100
AcDbLayerTableRecord
  2
154
 70
     0
 62
   154
  6
CONTINUOUS
  0
LAYER
  5
D4
330
2
100
AcDbSymbolTableRecord
100
AcDbLayerTableRecord
  2
155
 70
     0
 62
   155
  6
CONTINUOUS
  0
LAYER
  5
D5
330
2
100
AcDbSymbolTableRecord
100
AcDbLayerTableRecord
  2
156
 70
     0
 62
   156
  6
CONTINUOUS
  0
LAYER
  5
D6
330
2
100
AcDbSymbolTableRecord
100
AcDbLayerTableRecord
  2
157
 70
     0
 62
   157
  6
CONTINUOUS
  0
LAYER
  5
D7
330
2
100
AcDbSymbolTableRecord
100
AcDbLayerTableRecord
  2
158
 70
     0
 62
   158
  6
CONTINUOUS
  0
LAYER
  5
D8
330
2
100
AcDbSymbolTableRecord
100
AcDbLayerTableRecord
  2
159
 70
     0
 62
   159
  6
CONTINUOUS
  0
LAYER
  5
D9
330
2
100
AcDbSymbolTableRecord
100
AcDbLayerTableRecord
  2
160
 70
     0
 62
   160
  6
CONTINUOUS
  0
LAYER
  5
DA
330
2
100
AcDbSymbolTableRecord
100
AcDbLayerTableRecord
  2
161
 70
     0
 62
   161
  6
CONTINUOUS
  0
LAYER
  5
DB
330
2
100
AcDbSymbolTableRecord
100
AcDbLayerTableRecord
  2
162
 70
     0
 62
   162
  6
CONTINUOUS
  0
LAYER
  5
DC
330
2
100
AcDbSymbolTableRecord
100
AcDbLayerTableRecord
  2
163
 70
     0
 62
   163
  6
CONTINUOUS
  0
LAYER
  5
DD
330
2
100
AcDbSymbolTableRecord
100
AcDbLayerTableRecord
  2
164
 70
     0
 62
   164
  6
CONTINUOUS
  0
LAYER
  5
DE
330
2
100
AcDbSymbolTableRecord
100
AcDbLayerTableRecord
  2
165
 70
     0
 62
   165
  6
CONTINUOUS
  0
LAYER
  5
DF
330
2
100
AcDbSymbolTableRecord
100
AcDbLayerTableRecord
  2
166
 70
     0
 62
   166
  6
CONTINUOUS
  0
LAYER
  5
E0
330
2
100
AcDbSymbolTableRecord
100
AcDbLayerTableRecord
  2
167
 70
     0
 62
   167
  6
CONTINUOUS
  0
LAYER
  5
E1
330
2
100
AcDbSymbolTableRecord
100
AcDbLayerTableRecord
  2
168
 70
     0
 62
   168
  6
CONTINUOUS
  0
LAYER
  5
E2
330
2
100
AcDbSymbolTableRecord
100
AcDbLayerTableRecord
  2
169
 70
     0
 62
   169
  6
CONTINUOUS
  0
LAYER
  5
E3
330
2
100
AcDbSymbolTableRecord
100
AcDbLayerTableRecord
  2
170
 70
     0
 62
   170
  6
CONTINUOUS
  0
LAYER
  5
E4
330
2
100
AcDbSymbolTableRecord
100
AcDbLayerTableRecord
  2
171
 70
     0
 62
   171
  6
CONTINUOUS
  0
LAYER
  5
E5
330
2
100
AcDbSymbolTableRecord
100
AcDbLayerTableRecord
  2
172
 70
     0
 62
   172
  6
CONTINUOUS
  0
LAYER
  5
E6
330
2
100
AcDbSymbolTableRecord
100
AcDbLayerTableRecord
  2
173
 70
     0
 62
   173
  6
CONTINUOUS
  0
LAYER
  5
E7
330
2
100
AcDbSymbolTableRecord
100
AcDbLayerTableRecord
  2
174
 70
     0
 62
   174
  6
CONTINUOUS
  0
LAYER
  5
E8
330
2
100
AcDbSymbolTableRecord
100
AcDbLayerTableRecord
  2
175
 70
     0
 62
   175
  6
CONTINUOUS
  0
LAYER
  5
E9
330
2
100
AcDbSymbolTableRecord
100
AcDbLayerTableRecord
  2
176
 70
     0
 62
   176
  6
CONTINUOUS
  0
LAYER
  5
EA
330
2
100
AcDbSymbolTableRecord
100
AcDbLayerTableRecord
  2
177
 70
     0
 62
   177
  6
CONTINUOUS
  0
LAYER
  5
EB
330
2
100
AcDbSymbolTableRecord
100
AcDbLayerTableRecord
  2
178
 70
     0
 62
   178
  6
CONTINUOUS
  0
LAYER
  5
EC
330
2
100
AcDbSymbolTableRecord
100
AcDbLayerTableRecord
  2
179
 70
     0
 62
   179
  6
CONTINUOUS
  0
LAYER
  5
ED
330
2
100
AcDbSymbolTableRecord
100
AcDbLayerTableRecord
  2
180
 70
     0
 62
   180
  6
CONTINUOUS
  0
LAYER
  5
EE
330
2
100
AcDbSymbolTableRecord
100
AcDbLayerTableRecord
  2
181
 70
     0
 62
   181
  6
CONTINUOUS
  0
LAYER
  5
EF
330
2
100
AcDbSymbolTableRecord
100
AcDbLayerTableRecord
  2
182
 70
     0
 62
   182
  6
CONTINUOUS
  0
LAYER
  5
F0
330
2
100
AcDbSymbolTableRecord
100
AcDbLayerTableRecord
  2
183
 70
     0
 62
   183
  6
CONTINUOUS
  0
LAYER
  5
F1
330
2
100
AcDbSymbolTableRecord
100
AcDbLayerTableRecord
  2
184
 70
     0
 62
   184
  6
CONTINUOUS
  0
LAYER
  5
F2
330
2
100
AcDbSymbolTableRecord
100
AcDbLayerTableRecord
  2
185
 70
     0
 62
   185
  6
CONTINUOUS
  0
LAYER
  5
F3
330
2
100
AcDbSymbolTableRecord
100
AcDbLayerTableRecord
  2
186
 70
     0
 62
   186
  6
CONTINUOUS
  0
LAYER
  5
F4
330
2
100
AcDbSymbolTableRecord
100
AcDbLayerTableRecord
  2
187
 70
     0
 62
   187
  6
CONTINUOUS
  0
LAYER
  5
F5
330
2
100
AcDbSymbolTableRecord
100
AcDbLayerTableRecord
  2
188
 70
     0
 62
   188
  6
CONTINUOUS
  0
LAYER
  5
F6
330
2
100
AcDbSymbolTableRecord
100
AcDbLayerTableRecord
  2
189
 70
     0
 62
   189
  6
CONTINUOUS
  0
LAYER
  5
F7
330
2
100
AcDbSymbolTableRecord
100
AcDbLayerTableRecord
  2
190
 70
     0
 62
   190
  6
CONTINUOUS
  0
LAYER
  5
F8
330
2
100
AcDbSymbolTableRecord
100
AcDbLayerTableRecord
  2
191
 70
     0
 62
   191
  6
CONTINUOUS
  0
LAYER
  5
F9
330
2
100
AcDbSymbolTableRecord
100
AcDbLayerTableRecord
  2
192
 70
     0
 62
   192
  6
CONTINUOUS
  0
LAYER
  5
FA
330
2
100
AcDbSymbolTableRecord
100
AcDbLayerTableRecord
  2
193
 70
     0
 62
   193
  6
CONTINUOUS
  0
LAYER
  5
FB
330
2
100
AcDbSymbolTableRecord
100
AcDbLayerTableRecord
  2
194
 70
     0
 62
   194
  6
CONTINUOUS
  0
LAYER
  5
FC
330
2
100
AcDbSymbolTableRecord
100
AcDbLayerTableRecord
  2
195
 70
     0
 62
   195
  6
CONTINUOUS
  0
LAYER
  5
FD
330
2
100
AcDbSymbolTableRecord
100
AcDbLayerTableRecord
  2
196
 70
     0
 62
   196
  6
CONTINUOUS
  0
LAYER
  5
FE
330
2
100
AcDbSymbolTableRecord
100
AcDbLayerTableRecord
  2
197
 70
     0
 62
   197
  6
CONTINUOUS
  0
LAYER
  5
FF
330
2
100
AcDbSymbolTableRecord
100
AcDbLayerTableRecord
  2
198
 70
     0
 62
   198
  6
CONTINUOUS
  0
LAYER
  5
100
330
2
100
AcDbSymbolTableRecord
100
AcDbLayerTableRecord
  2
199
 70
     0
 62
   199
  6
CONTINUOUS
  0
LAYER
  5
101
330
2
100
AcDbSymbolTableRecord
100
AcDbLayerTableRecord
  2
200
 70
     0
 62
   200
  6
CONTINUOUS
  0
LAYER
  5
102
330
2
100
AcDbSymbolTableRecord
100
AcDbLayerTableRecord
  2
201
 70
     0
 62
   201
  6
CONTINUOUS
  0
LAYER
  5
103
330
2
100
AcDbSymbolTableRecord
100
AcDbLayerTableRecord
  2
202
 70
     0
 62
   202
  6
CONTINUOUS
  0
LAYER
  5
104
330
2
100
AcDbSymbolTableRecord
100
AcDbLayerTableRecord
  2
203
 70
     0
 62
   203
  6
CONTINUOUS
  0
LAYER
  5
105
330
2
100
AcDbSymbolTableRecord
100
AcDbLayerTableRecord
  2
204
 70
     0
 62
   204
  6
CONTINUOUS
  0
LAYER
  5
106
330
2
100
AcDbSymbolTableRecord
100
AcDbLayerTableRecord
  2
205
 70
     0
 62
   205
  6
CONTINUOUS
  0
LAYER
  5
107
330
2
100
AcDbSymbolTableRecord
100
AcDbLayerTableRecord
  2
206
 70
     0
 62
   206
  6
CONTINUOUS
  0
LAYER
  5
108
330
2
100
AcDbSymbolTableRecord
100
AcDbLayerTableRecord
  2
207
 70
     0
 62
   207
  6
CONTINUOUS
  0
LAYER
  5
109
330
2
100
AcDbSymbolTableRecord
100
AcDbLayerTableRecord
  2
208
 70
     0
 62
   208
  6
CONTINUOUS
  0
LAYER
  5
10A
330
2
100
AcDbSymbolTableRecord
100
AcDbLayerTableRecord
  2
209
 70
     0
 62
   209
  6
CONTINUOUS
  0
LAYER
  5
10B
330
2
100
AcDbSymbolTableRecord
100
AcDbLayerTableRecord
  2
210
 70
     0
 62
   210
  6
CONTINUOUS
  0
LAYER
  5
10C
330
2
100
AcDbSymbolTableRecord
100
AcDbLayerTableRecord
  2
211
 70
     0
 62
   211
  6
CONTINUOUS
  0
LAYER
  5
10D
330
2
100
AcDbSymbolTableRecord
100
AcDbLayerTableRecord
  2
212
 70
     0
 62
   212
  6
CONTINUOUS
  0
LAYER
  5
10E
330
2
100
AcDbSymbolTableRecord
100
AcDbLayerTableRecord
  2
213
 70
     0
 62
   213
  6
CONTINUOUS
  0
LAYER
  5
10F
330
2
100
AcDbSymbolTableRecord
100
AcDbLayerTableRecord
  2
214
 70
     0
 62
   214
  6
CONTINUOUS
  0
LAYER
  5
110
330
2
100
AcDbSymbolTableRecord
100
AcDbLayerTableRecord
  2
215
 70
     0
 62
   215
  6
CONTINUOUS
  0
LAYER
  5
111
330
2
100
AcDbSymbolTableRecord
100
AcDbLayerTableRecord
  2
216
 70
     0
 62
   216
  6
CONTINUOUS
  0
LAYER
  5
112
330
2
100
AcDbSymbolTableRecord
100
AcDbLayerTableRecord
  2
217
 70
     0
 62
   217
  6
CONTINUOUS
  0
LAYER
  5
113
330
2
100
AcDbSymbolTableRecord
100
AcDbLayerTableRecord
  2
218
 70
     0
 62
   218
  6
CONTINUOUS
  0
LAYER
  5
114
330
2
100
AcDbSymbolTableRecord
100
AcDbLayerTableRecord
  2
219
 70
     0
 62
   219
  6
CONTINUOUS
  0
LAYER
  5
115
330
2
100
AcDbSymbolTableRecord
100
AcDbLayerTableRecord
  2
220
 70
     0
 62
   220
  6
CONTINUOUS
  0
LAYER
  5
116
330
2
100
AcDbSymbolTableRecord
100
AcDbLayerTableRecord
  2
221
 70
     0
 62
   221
  6
CONTINUOUS
  0
LAYER
  5
117
330
2
100
AcDbSymbolTableRecord
100
AcDbLayerTableRecord
  2
222
 70
     0
 62
   222
  6
CONTINUOUS
  0
LAYER
  5
118
330
2
100
AcDbSymbolTableRecord
100
AcDbLayerTableRecord
  2
223
 70
     0
 62
   223
  6
CONTINUOUS
  0
LAYER
  5
119
330
2
100
AcDbSymbolTableRecord
100
AcDbLayerTableRecord
  2
224
 70
     0
 62
   224
  6
CONTINUOUS
  0
LAYER
  5
11A
330
2
100
AcDbSymbolTableRecord
100
AcDbLayerTableRecord
  2
225
 70
     0
 62
   225
  6
CONTINUOUS
  0
LAYER
  5
11B
330
2
100
AcDbSymbolTableRecord
100
AcDbLayerTableRecord
  2
226
 70
     0
 62
   226
  6
CONTINUOUS
  0
LAYER
  5
11C
330
2
100
AcDbSymbolTableRecord
100
AcDbLayerTableRecord
  2
227
 70
     0
 62
   227
  6
CONTINUOUS
  0
LAYER
  5
11D
330
2
100
AcDbSymbolTableRecord
100
AcDbLayerTableRecord
  2
228
 70
     0
 62
   228
  6
CONTINUOUS
  0
LAYER
  5
11E
330
2
100
AcDbSymbolTableRecord
100
AcDbLayerTableRecord
  2
229
 70
     0
 62
   229
  6
CONTINUOUS
  0
LAYER
  5
11F
330
2
100
AcDbSymbolTableRecord
100
AcDbLayerTableRecord
  2
230
 70
     0
 62
   230
  6
CONTINUOUS
  0
LAYER
  5
120
330
2
100
AcDbSymbolTableRecord
100
AcDbLayerTableRecord
  2
231
 70
     0
 62
   231
  6
CONTINUOUS
  0
LAYER
  5
121
330
2
100
AcDbSymbolTableRecord
100
AcDbLayerTableRecord
  2
232
 70
     0
 62
   232
  6
CONTINUOUS
  0
LAYER
  5
122
330
2
100
AcDbSymbolTableRecord
100
AcDbLayerTableRecord
  2
233
 70
     0
 62
   233
  6
CONTINUOUS
  0
LAYER
  5
123
330
2
100
AcDbSymbolTableRecord
100
AcDbLayerTableRecord
  2
234
 70
     0
 62
   234
  6
CONTINUOUS
  0
LAYER
  5
124
330
2
100
AcDbSymbolTableRecord
100
AcDbLayerTableRecord
  2
235
 70
     0
 62
   235
  6
CONTINUOUS
  0
LAYER
  5
125
330
2
100
AcDbSymbolTableRecord
100
AcDbLayerTableRecord
  2
236
 70
     0
 62
   236
  6
CONTINUOUS
  0
LAYER
  5
126
330
2
100
AcDbSymbolTableRecord
100
AcDbLayerTableRecord
  2
237
 70
     0
 62
   237
  6
CONTINUOUS
  0
LAYER
  5
127
330
2
100
AcDbSymbolTableRecord
100
AcDbLayerTableRecord
  2
238
 70
     0
 62
   238
  6
CONTINUOUS
  0
LAYER
  5
128
330
2
100
AcDbSymbolTableRecord
100
AcDbLayerTableRecord
  2
239
 70
     0
 62
   239
  6
CONTINUOUS
  0
LAYER
  5
129
330
2
100
AcDbSymbolTableRecord
100
AcDbLayerTableRecord
  2
240
 70
     0
 62
   240
  6
CONTINUOUS
  0
LAYER
  5
12A
330
2
100
AcDbSymbolTableRecord
100
AcDbLayerTableRecord
  2
241
 70
     0
 62
   241
  6
CONTINUOUS
  0
LAYER
  5
12B
330
2
100
AcDbSymbolTableRecord
100
AcDbLayerTableRecord
  2
242
 70
     0
 62
   242
  6
CONTINUOUS
  0
LAYER
  5
12C
330
2
100
AcDbSymbolTableRecord
100
AcDbLayerTableRecord
  2
243
 70
     0
 62
   243
  6
CONTINUOUS
  0
LAYER
  5
12D
330
2
100
AcDbSymbolTableRecord
100
AcDbLayerTableRecord
  2
244
 70
     0
 62
   244
  6
CONTINUOUS
  0
LAYER
  5
12E
330
2
100
AcDbSymbolTableRecord
100
AcDbLayerTableRecord
  2
245
 70
     0
 62
   245
  6
CONTINUOUS
  0
LAYER
  5
12F
330
2
100
AcDbSymbolTableRecord
100
AcDbLayerTableRecord
  2
246
 70
     0
 62
   246
  6
CONTINUOUS
  0
LAYER
  5
130
330
2
100
AcDbSymbolTableRecord
100
AcDbLayerTableRecord
  2
247
 70
     0
 62
   247
  6
CONTINUOUS
  0
LAYER
  5
131
330
2
100
AcDbSymbolTableRecord
100
AcDbLayerTableRecord
  2
248
 70
     0
 62
   248
  6
CONTINUOUS
  0
LAYER
  5
132
330
2
100
AcDbSymbolTableRecord
100
AcDbLayerTableRecord
  2
249
 70
     0
 62
   249
  6
CONTINUOUS
  0
LAYER
  5
133
330
2
100
AcDbSymbolTableRecord
100
AcDbLayerTableRecord
  2
250
 70
     0
 62
   250
  6
CONTINUOUS
  0
LAYER
  5
134
330
2
100
AcDbSymbolTableRecord
100
AcDbLayerTableRecord
  2
251
 70
     0
 62
   251
  6
CONTINUOUS
  0
LAYER
  5
135
330
2
100
AcDbSymbolTableRecord
100
AcDbLayerTableRecord
  2
252
 70
     0
 62
   252
  6
CONTINUOUS
  0
LAYER
  5
136
330
2
100
AcDbSymbolTableRecord
100
AcDbLayerTableRecord
  2
253
 70
     0
 62
   253
  6
CONTINUOUS
  0
LAYER
  5
137
330
2
100
AcDbSymbolTableRecord
100
AcDbLayerTableRecord
  2
254
 70
     0
 62
   254
  6
CONTINUOUS
  0
LAYER
  5
138
330
2
100
AcDbSymbolTableRecord
100
AcDbLayerTableRecord
  2
255
 70
     0
 62
   255
  6
CONTINUOUS
  0
ENDTAB
  0
TABLE
  2
STYLE
  5
3
330
0
100
AcDbSymbolTable
 70
     1
  0
STYLE
  5
11
330
3
100
AcDbSymbolTableRecord
100
AcDbTextStyleTableRecord
  2
STANDARD
 70
     0
 40
0.0
 41
1.0
 50
0.0
 71
     0
 42
0.2
  3
monotxt
  4

  0
ENDTAB
  0
TABLE
  2
VIEW
  5
6
330
0
100
AcDbSymbolTable
 70
     0
  0
ENDTAB
  0
TABLE
  2
UCS
  5
7
330
0
100
AcDbSymbolTable
 70
     0
  0
ENDTAB
  0
TABLE
  2
APPID
  5
9
330
0
100
AcDbSymbolTable
 70
     1
  0
APPID
  5
12
330
9
100
AcDbSymbolTableRecord
100
AcDbRegAppTableRecord
  2
ACAD
 70
     0
  0
ENDTAB
  0
TABLE
  2
DIMSTYLE
  5
A
330
0
100
AcDbSymbolTable
 70
     1
  0
DIMSTYLE
105
2A74
330
A
100
AcDbSymbolTableRecord
100
AcDbDimStyleTableRecord
  2
STANDARD
 70
     0
  3

  4

  5

  6

  7

 40
1.0
 41
0.18
 42
0.0625
 43
0.38
 44
0.18
 45
0.0
 46
0.0
 47
0.0
 48
0.0
140
0.18
141
0.09
142
0.0
143
25.4
144
1.0
145
0.0
146
1.0
147
0.09
 71
     0
 72
     0
 73
     1
 74
     1
 75
     0
 76
     0
 77
     0
 78
     0
170
     0
171
     2
172
     0
173
     0
174
     0
175
     0
176
     0
177
     0
178
     0
270
     2
271
     4
272
     4
273
     2
274
     2
340
11
275
     0
280
     0
281
     0
282
     0
283
     1
284
     0
285
     0
286
     0
287
     3
288
     0
  0
ENDTAB
  0
TABLE
  2
BLOCK_RECORD
  5
1
330
0
100
AcDbSymbolTable
 70
     0
  0
BLOCK_RECORD
  5
1E
102
{ACAD_XDICTIONARY
360
2F12
102
}
330
1
100
AcDbSymbolTableRecord
100
AcDbBlockTableRecord
  2
*MODEL_SPACE
  0
BLOCK_RECORD
  5
1A
102
{ACAD_XDICTIONARY
360
2F14
102
}
330
1
100
AcDbSymbolTableRecord
100
AcDbBlockTableRecord
  2
*PAPER_SPACE
  0
ENDTAB
  0
ENDSEC
  0
SECTION
  2
BLOCKS
  0
BLOCK
  5
13B
330
1E
100
AcDbEntity
  8
0
100
AcDbBlockBegin
  2
*MODEL_SPACE
 70
     0
 10
0.0
 20
0.0
 30
0.0
  3
*MODEL_SPACE
  1

  0
ENDBLK
  5
13C
330
1E
100
AcDbEntity
  8
0
100
AcDbBlockEnd
  0
BLOCK
  5
139
330
1A
100
AcDbEntity
 67
     1
  8
0
100
AcDbBlockBegin
  2
*PAPER_SPACE
 70
     0
 10
0.0
 20
0.0
 30
0.0
  3
*PAPER_SPACE
  1

  0
ENDBLK
  5
13A
330
1A
100
AcDbEntity
 67
     1
  8
0
100
AcDbBlockEnd
  0
ENDSEC
  0
SECTION
  2
ENTITIES
  0
LINE
  5
2496
330
1E
100
AcDbEntity
  8
7
100
AcDbLine
 10
5.888779527559054
 20
7.86023622047244
 30
0.0
 11
5.888779527559054
 21
6.689960629921259
 31
0.0
  0
LINE
  5
2497
330
1E
100
AcDbEntity
  8
7
100
AcDbLine
 10
5.888779527559054
 20
8.456692913385825
 30
0.0
 11
5.888779527559054
 21
8.100393700787401
 31
0.0
  0
LINE
  5
24B0
330
1E
100
AcDbEntity
  8
7
100
AcDbLine
 10
5.886811023622047
 20
6.689960629921259
 30
0.0
 11
5.886811023622047
 21
8.454724409448818
 31
0.0
  0
LINE
  5
24B1
330
1E
100
AcDbEntity
  8
7
100
AcDbLine
 10
5.857283464566928
 20
8.454724409448818
 30
0.0
 11
5.857283464566928
 21
6.689960629921259
 31
0.0
  0
LINE
  5
24B7
330
1E
100
AcDbEntity
  8
7
100
AcDbLine
 10
5.888779527559054
 20
8.100393700787401
 30
0.0
 11
5.888779527559054
 21
7.86023622047244
 31
0.0
  0
LINE
  5
24B8
330
1E
100
AcDbEntity
  8
7
100
AcDbLine
 10
5.886811023622047
 20
8.454724409448818
 30
0.0
 11
5.888779527559054
 21
8.456692913385825
 31
0.0
  0
LINE
  5
24B9
330
1E
100
AcDbEntity
  8
7
100
AcDbLine
 10
5.888779527559054
 20
6.687992125984251
 30
0.0
 11
5.886811023622047
 21
6.689960629921259
 31
0.0
  0
LINE
  5
24BA
330
1E
100
AcDbEntity
  8
7
100
AcDbLine
 10
5.888779527559054
 20
6.689960629921259
 30
0.0
 11
5.888779527559054
 21
6.687992125984251
 31
0.0
  0
LINE
  5
24C8
330
1E
100
AcDbEntity
  8
7
100
AcDbLine
 10
5.750984251968503
 20
7.460629921259842
 30
0.0
 11
5.753937007874015
 21
7.463582677165353
 31
0.0
  0
LINE
  5
24C9
330
1E
100
AcDbEntity
  8
7
100
AcDbLine
 10
5.750984251968503
 20
7.460629921259842
 30
0.0
 11
5.750984251968503
 21
7.308070866141731
 31
0.0
  0
LINE
  5
24CA
330
1E
100
AcDbEntity
  8
7
100
AcDbLine
 10
5.753937007874015
 20
7.30511811023622
 30
0.0
 11
5.750984251968503
 21
7.308070866141731
 31
0.0
  0
LINE
  5
24CB
330
1E
100
AcDbEntity
  8
7
100
AcDbLine
 10
5.753937007874015
 20
7.463582677165353
 30
0.0
 11
5.753937007874015
 21
7.30511811023622
 31
0.0
  0
LINE
  5
24D9
330
1E
100
AcDbEntity
  8
7
100
AcDbLine
 10
5.787401574803149
 20
6.590551181102362
 30
0.0
 11
5.812992125984251
 21
6.593503937007874
 31
0.0
  0
LINE
  5
24FF
330
1E
100
AcDbEntity
  8
7
100
AcDbLine
 10
4.118110236220472
 20
8.048228346456692
 30
0.0
 11
4.11515748031496
 21
8.051181102362203
 31
0.0
  0
LINE
  5
2505
330
1E
100
AcDbEntity
  8
7
100
AcDbLine
 10
4.123031496062991
 20
8.059055118110235
 30
0.0
 11
4.125984251968503
 21
8.056102362204724
 31
0.0
  0
LINE
  5
250B
330
1E
100
AcDbEntity
  8
7
100
AcDbLine
 10
4.125984251968503
 20
8.056102362204724
 30
0.0
 11
4.178149606299212
 21
8.056102362204724
 31
0.0
  0
LINE
  5
250C
330
1E
100
AcDbEntity
  8
7
100
AcDbLine
 10
4.181102362204724
 20
8.053149606299212
 30
0.0
 11
4.178149606299212
 21
8.056102362204724
 31
0.0
  0
LINE
  5
2512
330
1E
100
AcDbEntity
  8
7
100
AcDbLine
 10
5.683070866141731
 20
8.056102362204724
 30
0.0
 11
5.630905511811023
 21
8.056102362204724
 31
0.0
  0
LINE
  5
2513
330
1E
100
AcDbEntity
  8
7
100
AcDbLine
 10
5.686023622047243
 20
8.059055118110235
 30
0.0
 11
5.683070866141731
 21
8.056102362204724
 31
0.0
  0
LINE
  5
2514
330
1E
100
AcDbEntity
  8
7
100
AcDbLine
 10
4.123031496062991
 20
8.059055118110235
 30
0.0
 11
5.686023622047243
 21
8.059055118110235
 31
0.0
  0
LINE
  5
25A6
330
1E
100
AcDbEntity
  8
7
100
AcDbLine
 10
3.92027559055118
 20
8.456692913385825
 30
0.0
 11
3.92027559055118
 21
8.100393700787401
 31
0.0
  0
LINE
  5
25A7
330
1E
100
AcDbEntity
  8
7
100
AcDbLine
 10
4.022637795275589
 20
8.524606299212598
 30
0.0
 11
4.022637795275589
 21
8.545275590551181
 31
0.0
  0
LINE
  5
25A8
330
1E
100
AcDbEntity
  8
7
100
AcDbLine
 10
4.022637795275589
 20
8.545275590551181
 30
0.0
 11
4.022637795275589
 21
8.55511811023622
 31
0.0
  0
LINE
  5
25B7
330
1E
100
AcDbEntity
  8
7
100
AcDbLine
 10
4.022637795275589
 20
8.524606299212598
 30
0.0
 11
4.000984251968503
 21
8.521653543307087
 31
0.0
  0
LINE
  5
25BF
330
1E
100
AcDbEntity
  8
7
100
AcDbLine
 10
3.922244094488188
 20
8.454724409448818
 30
0.0
 11
3.92027559055118
 21
8.456692913385825
 31
0.0
  0
LINE
  5
25C0
330
1E
100
AcDbEntity
  8
7
100
AcDbLine
 10
4.019685039370078
 20
8.557086614173227
 30
0.0
 11
4.022637795275589
 21
8.55511811023622
 31
0.0
  0
LINE
  5
25CD
330
1E
100
AcDbEntity
  8
7
100
AcDbLine
 10
4.185039370078739
 20
8.169291338582675
 30
0.0
 11
4.185039370078739
 21
8.510826771653542
 31
0.0
  0
LINE
  5
25CE
330
1E
100
AcDbEntity
  8
7
100
AcDbLine
 10
4.185039370078739
 20
8.170275590551181
 30
0.0
 11
4.185039370078739
 21
8.509842519685038
 31
0.0
  0
LINE
  5
25CF
330
1E
100
AcDbEntity
  8
7
100
AcDbLine
 10
4.24015748031496
 20
8.518700787401574
 30
0.0
 11
4.24015748031496
 21
8.161417322834644
 31
0.0
  0
LINE
  5
25D0
330
1E
100
AcDbEntity
  8
7
100
AcDbLine
 10
4.236220472440944
 20
8.519685039370077
 30
0.0
 11
4.24015748031496
 21
8.518700787401574
 31
0.0
  0
LINE
  5
25D1
330
1E
100
AcDbEntity
  8
7
100
AcDbLine
 10
4.24015748031496
 20
8.161417322834644
 30
0.0
 11
4.236220472440944
 21
8.16043307086614
 31
0.0
  0
LINE
  5
25D2
330
1E
100
AcDbEntity
  8
7
100
AcDbLine
 10
4.195866141732283
 20
8.519685039370077
 30
0.0
 11
4.236220472440944
 21
8.519685039370077
 31
0.0
  0
LINE
  5
25D3
330
1E
100
AcDbEntity
  8
7
100
AcDbLine
 10
4.236220472440944
 20
8.16043307086614
 30
0.0
 11
4.195866141732283
 21
8.16043307086614
 31
0.0
  0
LINE
  5
25D9
330
1E
100
AcDbEntity
  8
7
100
AcDbLine
 10
5.614173228346456
 20
8.159448818897637
 30
0.0
 11
5.613188976377952
 21
8.16043307086614
 31
0.0
  0
LINE
  5
25DA
330
1E
100
AcDbEntity
  8
7
100
AcDbLine
 10
5.625
 20
8.169291338582675
 30
0.0
 11
5.622047244094487
 21
8.162401574803149
 31
0.0
  0
LINE
  5
25DB
330
1E
100
AcDbEntity
  8
7
100
AcDbLine
 10
5.622047244094487
 20
8.162401574803149
 30
0.0
 11
5.614173228346456
 21
8.159448818897637
 31
0.0
  0
LINE
  5
25DC
330
1E
100
AcDbEntity
  8
7
100
AcDbLine
 10
5.624015748031495
 20
8.170275590551181
 30
0.0
 11
5.625
 21
8.169291338582675
 31
0.0
  0
LINE
  5
25E2
330
1E
100
AcDbEntity
  8
7
100
AcDbLine
 10
5.625
 20
8.510826771653542
 30
0.0
 11
5.624015748031495
 21
8.509842519685038
 31
0.0
  0
LINE
  5
25E8
330
1E
100
AcDbEntity
  8
7
100
AcDbLine
 10
5.613188976377952
 20
8.519685039370077
 30
0.0
 11
5.614173228346456
 21
8.520669291338581
 31
0.0
  0
LINE
  5
25E9
330
1E
100
AcDbEntity
  8
7
100
AcDbLine
 10
4.022637795275589
 20
8.55511811023622
 30
0.0
 11
5.787401574803149
 21
8.55511811023622
 31
0.0
  0
LINE
  5
25EA
330
1E
100
AcDbEntity
  8
7
100
AcDbLine
 10
5.789370078740157
 20
8.557086614173227
 30
0.0
 11
4.019685039370078
 21
8.557086614173227
 31
0.0
  0
LINE
  5
25EB
330
1E
100
AcDbEntity
  8
7
100
AcDbLine
 10
5.787401574803149
 20
8.524606299212598
 30
0.0
 11
4.022637795275589
 21
8.524606299212598
 31
0.0
  0
LINE
  5
25EC
330
1E
100
AcDbEntity
  8
7
100
AcDbLine
 10
4.24015748031496
 20
8.161417322834644
 30
0.0
 11
5.569881889763779
 21
8.161417322834644
 31
0.0
  0
LINE
  5
25ED
330
1E
100
AcDbEntity
  8
7
100
AcDbLine
 10
5.569881889763779
 20
8.518700787401574
 30
0.0
 11
5.569881889763779
 21
8.161417322834644
 31
0.0
  0
LINE
  5
25EE
330
1E
100
AcDbEntity
  8
7
100
AcDbLine
 10
5.569881889763779
 20
8.518700787401574
 30
0.0
 11
4.24015748031496
 21
8.518700787401574
 31
0.0
  0
LINE
  5
25EF
330
1E
100
AcDbEntity
  8
7
100
AcDbLine
 10
5.614173228346456
 20
8.159448818897637
 30
0.0
 11
4.194881889763779
 21
8.159448818897637
 31
0.0
  0
LINE
  5
25F0
330
1E
100
AcDbEntity
  8
7
100
AcDbLine
 10
5.57283464566929
 20
8.16043307086614
 30
0.0
 11
5.613188976377952
 21
8.16043307086614
 31
0.0
  0
LINE
  5
25F1
330
1E
100
AcDbEntity
  8
7
100
AcDbLine
 10
5.569881889763779
 20
8.161417322834644
 30
0.0
 11
5.57283464566929
 21
8.16043307086614
 31
0.0
  0
LINE
  5
25F2
330
1E
100
AcDbEntity
  8
7
100
AcDbLine
 10
5.625
 20
8.169291338582675
 30
0.0
 11
5.625
 21
8.510826771653542
 31
0.0
  0
LINE
  5
25F3
330
1E
100
AcDbEntity
  8
7
100
AcDbLine
 10
5.624015748031495
 20
8.170275590551181
 30
0.0
 11
5.624015748031495
 21
8.509842519685038
 31
0.0
  0
LINE
  5
25F4
330
1E
100
AcDbEntity
  8
7
100
AcDbLine
 10
5.613188976377952
 20
8.519685039370077
 30
0.0
 11
5.57283464566929
 21
8.519685039370077
 31
0.0
  0
LINE
  5
25F5
330
1E
100
AcDbEntity
  8
7
100
AcDbLine
 10
4.194881889763779
 20
8.520669291338581
 30
0.0
 11
5.614173228346456
 21
8.520669291338581
 31
0.0
  0
LINE
  5
25F6
330
1E
100
AcDbEntity
  8
7
100
AcDbLine
 10
5.57283464566929
 20
8.519685039370077
 30
0.0
 11
5.569881889763779
 21
8.518700787401574
 31
0.0
  0
LINE
  5
25F7
330
1E
100
AcDbEntity
  8
7
100
AcDbLine
 10
5.690944881889762
 20
8.048228346456692
 30
0.0
 11
5.690944881889762
 21
7.578740157480314
 31
0.0
  0
LINE
  5
25F8
330
1E
100
AcDbEntity
  8
7
100
AcDbLine
 10
5.630905511811023
 20
8.056102362204724
 30
0.0
 11
5.630905511811023
 21
8.052165354330707
 31
0.0
  0
LINE
  5
25F9
330
1E
100
AcDbEntity
  8
7
100
AcDbLine
 10
5.685039370078739
 20
7.578740157480314
 30
0.0
 11
5.690944881889762
 21
7.578740157480314
 31
0.0
  0
LINE
  5
25FA
330
1E
100
AcDbEntity
  8
7
100
AcDbLine
 10
5.627952755905511
 20
8.052165354330707
 30
0.0
 11
5.627952755905511
 21
8.053149606299212
 31
0.0
  0
LINE
  5
25FB
330
1E
100
AcDbEntity
  8
7
100
AcDbLine
 10
4.181102362204724
 20
8.052165354330707
 30
0.0
 11
4.181102362204724
 21
8.053149606299212
 31
0.0
  0
LINE
  5
25FC
330
1E
100
AcDbEntity
  8
7
100
AcDbLine
 10
4.178149606299212
 20
8.056102362204724
 30
0.0
 11
4.178149606299212
 21
8.052165354330707
 31
0.0
  0
LINE
  5
25FD
330
1E
100
AcDbEntity
  8
7
100
AcDbLine
 10
4.118110236220472
 20
8.048228346456692
 30
0.0
 11
4.118110236220472
 21
7.578740157480314
 31
0.0
  0
LINE
  5
25FE
330
1E
100
AcDbEntity
  8
7
100
AcDbLine
 10
4.124015748031495
 20
7.578740157480314
 30
0.0
 11
4.118110236220472
 21
7.578740157480314
 31
0.0
  0
LINE
  5
25FF
330
1E
100
AcDbEntity
  8
7
100
AcDbLine
 10
4.11515748031496
 20
7.48031496062992
 30
0.0
 11
4.11515748031496
 21
8.051181102362203
 31
0.0
  0
LINE
  5
2600
330
1E
100
AcDbEntity
  8
7
100
AcDbLine
 10
4.11515748031496
 20
7.48031496062992
 30
0.0
 11
4.118110236220472
 21
7.476377952755905
 31
0.0
  0
LINE
  5
2601
330
1E
100
AcDbEntity
  8
7
100
AcDbLine
 10
4.118110236220472
 20
7.578740157480314
 30
0.0
 11
4.118110236220472
 21
7.476377952755905
 31
0.0
  0
LINE
  5
2602
330
1E
100
AcDbEntity
  8
7
100
AcDbLine
 10
5.693897637795275
 20
7.48031496062992
 30
0.0
 11
5.693897637795275
 21
8.051181102362203
 31
0.0
  0
LINE
  5
2603
330
1E
100
AcDbEntity
  8
7
100
AcDbLine
 10
5.690944881889762
 20
7.578740157480314
 30
0.0
 11
5.690944881889762
 21
7.476377952755905
 31
0.0
  0
LINE
  5
2604
330
1E
100
AcDbEntity
  8
7
100
AcDbLine
 10
5.693897637795275
 20
7.48031496062992
 30
0.0
 11
5.690944881889762
 21
7.476377952755905
 31
0.0
  0
LINE
  5
2605
330
1E
100
AcDbEntity
  8
7
100
AcDbLine
 10
4.022637795275589
 20
6.620078740157479
 30
0.0
 11
5.787401574803149
 21
6.620078740157479
 31
0.0
  0
LINE
  5
260F
330
1E
100
AcDbEntity
  8
7
100
AcDbLine
 10
5.701771653543306
 20
7.472440944881888
 30
0.0
 11
5.746062992125984
 21
7.472440944881888
 31
0.0
  0
LINE
  5
2610
330
1E
100
AcDbEntity
  8
7
100
AcDbLine
 10
5.701771653543306
 20
7.297244094488188
 30
0.0
 11
5.746062992125984
 21
7.297244094488188
 31
0.0
  0
LINE
  5
2616
330
1E
100
AcDbEntity
  8
7
100
AcDbLine
 10
5.693897637795275
 20
6.717519685039369
 30
0.0
 11
5.693897637795275
 21
7.289370078740157
 31
0.0
  0
LINE
  5
261C
330
1E
100
AcDbEntity
  8
7
100
AcDbLine
 10
4.123031496062991
 20
6.709645669291337
 30
0.0
 11
5.686023622047243
 21
6.709645669291337
 31
0.0
  0
LINE
  5
2628
330
1E
100
AcDbEntity
  8
7
100
AcDbLine
 10
4.05511811023622
 20
7.463582677165353
 30
0.0
 11
4.05511811023622
 21
7.30511811023622
 31
0.0
  0
LINE
  5
262E
330
1E
100
AcDbEntity
  8
7
100
AcDbLine
 10
4.107283464566928
 20
7.472440944881888
 30
0.0
 11
4.062992125984251
 21
7.472440944881888
 31
0.0
  0
LINE
  5
2646
330
1E
100
AcDbEntity
  8
7
100
AcDbLine
 10
3.92027559055118
 20
6.689960629921259
 30
0.0
 11
3.92027559055118
 21
6.687992125984251
 31
0.0
  0
LINE
  5
2647
330
1E
100
AcDbEntity
  8
7
100
AcDbLine
 10
3.92027559055118
 20
8.100393700787401
 30
0.0
 11
3.92027559055118
 21
7.86023622047244
 31
0.0
  0
LINE
  5
2648
330
1E
100
AcDbEntity
  8
7
100
AcDbLine
 10
4.117125984251968
 20
6.719488188976377
 30
0.0
 11
4.117125984251968
 21
6.815944881889763
 31
0.0
  0
LINE
  5
264E
330
1E
100
AcDbEntity
  8
7
100
AcDbLine
 10
4.244094488188975
 20
6.711614173228346
 30
0.0
 11
4.125
 21
6.711614173228346
 31
0.0
  0
LINE
  5
2656
330
1E
100
AcDbEntity
  8
7
100
AcDbLine
 10
3.922244094488188
 20
6.689960629921259
 30
0.0
 11
3.922244094488188
 21
8.454724409448818
 31
0.0
  0
LINE
  5
2657
330
1E
100
AcDbEntity
  8
7
100
AcDbLine
 10
3.92027559055118
 20
7.86023622047244
 30
0.0
 11
3.92027559055118
 21
6.689960629921259
 31
0.0
  0
LINE
  5
2658
330
1E
100
AcDbEntity
  8
7
100
AcDbLine
 10
3.92027559055118
 20
6.687992125984251
 30
0.0
 11
3.922244094488188
 21
6.689960629921259
 31
0.0
  0
LINE
  5
265E
330
1E
100
AcDbEntity
  8
7
100
AcDbLine
 10
4.118110236220472
 20
7.190944881889763
 30
0.0
 11
4.124015748031495
 21
7.195866141732283
 31
0.0
  0
LINE
  5
265F
330
1E
100
AcDbEntity
  8
7
100
AcDbLine
 10
4.124015748031495
 20
7.190944881889763
 30
0.0
 11
4.118110236220472
 21
7.190944881889763
 31
0.0
  0
LINE
  5
2660
330
1E
100
AcDbEntity
  8
7
100
AcDbLine
 10
4.118110236220472
 20
7.578740157480314
 30
0.0
 11
4.124015748031495
 21
7.573818897637794
 31
0.0
  0
LINE
  5
2661
330
1E
100
AcDbEntity
  8
7
100
AcDbLine
 10
5.690944881889762
 20
7.578740157480314
 30
0.0
 11
5.685039370078739
 21
7.573818897637794
 31
0.0
  0
LINE
  5
2670
330
1E
100
AcDbEntity
  8
7
100
AcDbLine
 10
4.11023622047244
 20
7.3001968503937
 30
0.0
 11
4.065944881889763
 21
7.3001968503937
 31
0.0
  0
LINE
  5
267C
330
1E
100
AcDbEntity
  8
7
100
AcDbLine
 10
5.698818897637795
 20
7.3001968503937
 30
0.0
 11
5.743110236220472
 21
7.3001968503937
 31
0.0
  0
LINE
  5
267D
330
1E
100
AcDbEntity
  8
7
100
AcDbLine
 10
5.698818897637795
 20
7.468503937007874
 30
0.0
 11
5.743110236220472
 21
7.468503937007874
 31
0.0
  0
LINE
  5
2683
330
1E
100
AcDbEntity
  8
7
100
AcDbLine
 10
5.690944881889762
 20
7.292322834645668
 30
0.0
 11
5.690944881889762
 21
7.476377952755905
 31
0.0
  0
LINE
  5
268E
330
1E
100
AcDbEntity
  8
7
100
AcDbLine
 10
5.690944881889762
 20
7.292322834645668
 30
0.0
 11
5.690944881889762
 21
7.190944881889763
 31
0.0
  0
LINE
  5
268F
330
1E
100
AcDbEntity
  8
7
100
AcDbLine
 10
4.250984251968503
 20
6.714566929133858
 30
0.0
 11
5.558070866141731
 21
6.714566929133858
 31
0.0
  0
LINE
  5
26A4
330
1E
100
AcDbEntity
  8
7
100
AcDbLine
 10
3.926181102362204
 20
6.664370078740157
 30
0.0
 11
3.922244094488188
 21
6.689960629921259
 31
0.0
  0
LINE
  5
26A5
330
1E
100
AcDbEntity
  8
7
100
AcDbLine
 10
4.11023622047244
 20
7.468503937007874
 30
0.0
 11
4.107283464566928
 21
7.472440944881888
 31
0.0
  0
LINE
  5
26A6
330
1E
100
AcDbEntity
  8
7
100
AcDbLine
 10
4.062992125984251
 20
7.472440944881888
 30
0.0
 11
4.065944881889763
 21
7.468503937007874
 31
0.0
  0
LINE
  5
26A7
330
1E
100
AcDbEntity
  8
7
100
AcDbLine
 10
4.058070866141732
 20
7.460629921259842
 30
0.0
 11
4.05511811023622
 21
7.463582677165353
 31
0.0
  0
LINE
  5
26A8
330
1E
100
AcDbEntity
  8
7
100
AcDbLine
 10
4.05511811023622
 20
7.30511811023622
 30
0.0
 11
4.058070866141732
 21
7.308070866141731
 31
0.0
  0
LINE
  5
26A9
330
1E
100
AcDbEntity
  8
7
100
AcDbLine
 10
4.065944881889763
 20
7.3001968503937
 30
0.0
 11
4.062992125984251
 21
7.297244094488188
 31
0.0
  0
LINE
  5
26AA
330
1E
100
AcDbEntity
  8
7
100
AcDbLine
 10
4.107283464566928
 20
7.297244094488188
 30
0.0
 11
4.11023622047244
 21
7.3001968503937
 31
0.0
  0
LINE
  5
26AB
330
1E
100
AcDbEntity
  8
7
100
AcDbLine
 10
4.118110236220472
 20
7.292322834645668
 30
0.0
 11
4.11515748031496
 21
7.289370078740157
 31
0.0
  0
LINE
  5
26AC
330
1E
100
AcDbEntity
  8
7
100
AcDbLine
 10
5.701771653543306
 20
7.297244094488188
 30
0.0
 11
5.698818897637795
 21
7.3001968503937
 31
0.0
  0
LINE
  5
26AD
330
1E
100
AcDbEntity
  8
7
100
AcDbLine
 10
5.690944881889762
 20
7.292322834645668
 30
0.0
 11
5.693897637795275
 21
7.289370078740157
 31
0.0
  0
LINE
  5
26AE
330
1E
100
AcDbEntity
  8
7
100
AcDbLine
 10
5.698818897637795
 20
7.468503937007874
 30
0.0
 11
5.701771653543306
 21
7.472440944881888
 31
0.0
  0
LINE
  5
26AF
330
1E
100
AcDbEntity
  8
7
100
AcDbLine
 10
5.692913385826771
 20
6.815944881889763
 30
0.0
 11
5.690944881889762
 21
6.815944881889763
 31
0.0
  0
LINE
  5
26B0
330
1E
100
AcDbEntity
  8
7
100
AcDbLine
 10
5.693897637795275
 20
6.717519685039369
 30
0.0
 11
5.692913385826771
 21
6.719488188976377
 31
0.0
  0
LINE
  5
26B1
330
1E
100
AcDbEntity
  8
7
100
AcDbLine
 10
5.684055118110236
 20
6.711614173228346
 30
0.0
 11
5.686023622047243
 21
6.709645669291337
 31
0.0
  0
LINE
  5
26B2
330
1E
100
AcDbEntity
  8
7
100
AcDbLine
 10
5.558070866141731
 20
6.714566929133858
 30
0.0
 11
5.565944881889762
 21
6.711614173228346
 31
0.0
  0
LINE
  5
26B3
330
1E
100
AcDbEntity
  8
7
100
AcDbLine
 10
4.250984251968503
 20
6.714566929133858
 30
0.0
 11
4.244094488188975
 21
6.711614173228346
 31
0.0
  0
LINE
  5
26B4
330
1E
100
AcDbEntity
  8
7
100
AcDbLine
 10
4.125
 20
6.711614173228346
 30
0.0
 11
4.123031496062991
 21
6.709645669291337
 31
0.0
  0
LINE
  5
26B5
330
1E
100
AcDbEntity
  8
7
100
AcDbLine
 10
4.11515748031496
 20
6.717519685039369
 30
0.0
 11
4.117125984251968
 21
6.719488188976377
 31
0.0
  0
LINE
  5
26B6
330
1E
100
AcDbEntity
  8
7
100
AcDbLine
 10
4.117125984251968
 20
6.815944881889763
 30
0.0
 11
4.118110236220472
 21
6.815944881889763
 31
0.0
  0
LINE
  5
26B7
330
1E
100
AcDbEntity
  8
7
100
AcDbLine
 10
4.022637795275589
 20
6.590551181102362
 30
0.0
 11
4.019685039370078
 21
6.58759842519685
 31
0.0
  0
LINE
  5
26B8
330
1E
100
AcDbEntity
  8
7
100
AcDbLine
 10
4.124015748031495
 20
7.684055118110235
 30
0.0
 11
4.124015748031495
 21
7.548228346456692
 31
0.0
  0
LINE
  5
26B9
330
1E
100
AcDbEntity
  8
7
100
AcDbLine
 10
4.123031496062991
 20
7.084645669291337
 30
0.0
 11
4.124015748031495
 21
7.084645669291337
 31
0.0
  0
LINE
  5
26BA
330
1E
100
AcDbEntity
  8
7
100
AcDbLine
 10
4.124015748031495
 20
7.221456692913385
 30
0.0
 11
4.124015748031495
 21
7.084645669291337
 31
0.0
  0
LINE
  5
26BB
330
1E
100
AcDbEntity
  8
7
100
AcDbLine
 10
5.685039370078739
 20
7.221456692913385
 30
0.0
 11
5.685039370078739
 21
7.084645669291337
 31
0.0
  0
LINE
  5
26BC
330
1E
100
AcDbEntity
  8
7
100
AcDbLine
 10
5.686023622047243
 20
7.084645669291337
 30
0.0
 11
5.685039370078739
 21
7.084645669291337
 31
0.0
  0
LINE
  5
26BD
330
1E
100
AcDbEntity
  8
7
100
AcDbLine
 10
5.685039370078739
 20
7.684055118110235
 30
0.0
 11
5.685039370078739
 21
7.548228346456692
 31
0.0
  0
LINE
  5
26BE
330
1E
100
AcDbEntity
  8
7
100
AcDbLine
 10
4.441929133858267
 20
7.073818897637795
 30
0.0
 11
4.732283464566928
 21
7.073818897637795
 31
0.0
  0
LINE
  5
26C4
330
1E
100
AcDbEntity
  8
7
100
AcDbLine
 10
4.441929133858267
 20
7.084645669291337
 30
0.0
 11
4.732283464566928
 21
7.084645669291337
 31
0.0
  0
LINE
  5
26C5
330
1E
100
AcDbEntity
  8
7
100
AcDbLine
 10
4.441929133858267
 20
7.084645669291337
 30
0.0
 11
4.441929133858267
 21
7.080708661417322
 31
0.0
  0
LINE
  5
26C6
330
1E
100
AcDbEntity
  8
7
100
AcDbLine
 10
4.441929133858267
 20
7.080708661417322
 30
0.0
 11
4.441929133858267
 21
7.073818897637795
 31
0.0
  0
LINE
  5
26C7
330
1E
100
AcDbEntity
  8
7
100
AcDbLine
 10
4.732283464566928
 20
7.084645669291337
 30
0.0
 11
4.441929133858267
 21
7.084645669291337
 31
0.0
  0
LINE
  5
26D7
330
1E
100
AcDbEntity
  8
7
100
AcDbLine
 10
4.689960629921259
 20
7.705708661417322
 30
0.0
 11
4.689960629921259
 21
7.702755905511811
 31
0.0
  0
LINE
  5
26F3
330
1E
100
AcDbEntity
  8
7
100
AcDbLine
 10
4.484251968503937
 20
7.768700787401574
 30
0.0
 11
4.689960629921259
 21
7.768700787401574
 31
0.0
  0
LINE
  5
26F4
330
1E
100
AcDbEntity
  8
7
100
AcDbLine
 10
4.124015748031495
 20
7.548228346456692
 30
0.0
 11
4.122047244094487
 21
7.538385826771653
 31
0.0
  0
LINE
  5
26F5
330
1E
100
AcDbEntity
  8
7
100
AcDbLine
 10
4.460629921259842
 20
7.780511811023622
 30
0.0
 11
4.342519685039369
 21
7.780511811023622
 31
0.0
  0
LINE
  5
26F6
330
1E
100
AcDbEntity
  8
7
100
AcDbLine
 10
4.460629921259842
 20
7.780511811023622
 30
0.0
 11
4.484251968503937
 21
7.768700787401574
 31
0.0
  0
LINE
  5
26F7
330
1E
100
AcDbEntity
  8
7
100
AcDbLine
 10
4.713582677165353
 20
7.780511811023622
 30
0.0
 11
4.689960629921259
 21
7.768700787401574
 31
0.0
  0
LINE
  5
2705
330
1E
100
AcDbEntity
  8
7
100
AcDbLine
 10
4.273622047244094
 20
7.716535433070866
 30
0.0
 11
4.341535433070865
 21
7.716535433070866
 31
0.0
  0
LINE
  5
2706
330
1E
100
AcDbEntity
  8
7
100
AcDbLine
 10
4.274606299212598
 20
7.715551181102361
 30
0.0
 11
4.273622047244094
 21
7.716535433070866
 31
0.0
  0
LINE
  5
2707
330
1E
100
AcDbEntity
  8
7
100
AcDbLine
 10
4.274606299212598
 20
7.715551181102361
 30
0.0
 11
4.342519685039369
 21
7.715551181102361
 31
0.0
  0
LINE
  5
2708
330
1E
100
AcDbEntity
  8
7
100
AcDbLine
 10
4.123031496062991
 20
7.081692913385826
 30
0.0
 11
4.123031496062991
 21
6.717519685039369
 31
0.0
  0
LINE
  5
2709
330
1E
100
AcDbEntity
  8
7
100
AcDbLine
 10
4.123031496062991
 20
7.081692913385826
 30
0.0
 11
4.125
 21
7.081692913385826
 31
0.0
  0
LINE
  5
270F
330
1E
100
AcDbEntity
  8
7
100
AcDbLine
 10
4.831692913385826
 20
7.715551181102361
 30
0.0
 11
4.831692913385826
 21
7.780511811023622
 31
0.0
  0
LINE
  5
2710
330
1E
100
AcDbEntity
  8
7
100
AcDbLine
 10
4.833661417322834
 20
7.716535433070866
 30
0.0
 11
4.831692913385826
 21
7.715551181102361
 31
0.0
  0
LINE
  5
2711
330
1E
100
AcDbEntity
  8
7
100
AcDbLine
 10
4.833661417322834
 20
7.716535433070866
 30
0.0
 11
4.833661417322834
 21
7.782480314960629
 31
0.0
  0
LINE
  5
2712
330
1E
100
AcDbEntity
  8
7
100
AcDbLine
 10
4.274606299212598
 20
7.715551181102361
 30
0.0
 11
4.274606299212598
 21
7.05511811023622
 31
0.0
  0
LINE
  5
2713
330
1E
100
AcDbEntity
  8
7
100
AcDbLine
 10
4.273622047244094
 20
7.054133858267715
 30
0.0
 11
4.273622047244094
 21
7.716535433070866
 31
0.0
  0
LINE
  5
2714
330
1E
100
AcDbEntity
  8
7
100
AcDbLine
 10
4.274606299212598
 20
7.05511811023622
 30
0.0
 11
4.273622047244094
 21
7.054133858267715
 31
0.0
  0
LINE
  5
2715
330
1E
100
AcDbEntity
  8
7
100
AcDbLine
 10
4.441929133858267
 20
7.05511811023622
 30
0.0
 11
4.441929133858267
 21
7.073818897637795
 31
0.0
  0
LINE
  5
271B
330
1E
100
AcDbEntity
  8
7
100
AcDbLine
 10
4.274606299212598
 20
7.05511811023622
 30
0.0
 11
4.441929133858267
 21
7.05511811023622
 31
0.0
  0
LINE
  5
271C
330
1E
100
AcDbEntity
  8
7
100
AcDbLine
 10
5.367125984251968
 20
7.073818897637795
 30
0.0
 11
5.076771653543306
 21
7.073818897637795
 31
0.0
  0
LINE
  5
2728
330
1E
100
AcDbEntity
  8
7
100
AcDbLine
 10
5.076771653543306
 20
7.084645669291337
 30
0.0
 11
5.367125984251968
 21
7.084645669291337
 31
0.0
  0
LINE
  5
272E
330
1E
100
AcDbEntity
  8
7
100
AcDbLine
 10
5.119094488188975
 20
7.702755905511811
 30
0.0
 11
5.324803149606299
 21
7.702755905511811
 31
0.0
  0
LINE
  5
272F
330
1E
100
AcDbEntity
  8
7
100
AcDbLine
 10
5.119094488188975
 20
7.672244094488188
 30
0.0
 11
5.119094488188975
 21
7.702755905511811
 31
0.0
  0
LINE
  5
2730
330
1E
100
AcDbEntity
  8
7
100
AcDbLine
 10
5.119094488188975
 20
7.705708661417322
 30
0.0
 11
5.324803149606299
 21
7.705708661417322
 31
0.0
  0
LINE
  5
2731
330
1E
100
AcDbEntity
  8
7
100
AcDbLine
 10
5.119094488188975
 20
7.705708661417322
 30
0.0
 11
5.119094488188975
 21
7.702755905511811
 31
0.0
  0
LINE
  5
2732
330
1E
100
AcDbEntity
  8
7
100
AcDbLine
 10
5.324803149606299
 20
7.705708661417322
 30
0.0
 11
5.324803149606299
 21
7.702755905511811
 31
0.0
  0
LINE
  5
2738
330
1E
100
AcDbEntity
  8
7
100
AcDbLine
 10
5.120078740157479
 20
7.733267716535433
 30
0.0
 11
5.324803149606299
 21
7.733267716535433
 31
0.0
  0
LINE
  5
273F
330
1E
100
AcDbEntity
  8
7
100
AcDbLine
 10
5.324803149606299
 20
7.733267716535433
 30
0.0
 11
5.324803149606299
 21
7.753937007874014
 31
0.0
  0
LINE
  5
2749
330
1E
100
AcDbEntity
  8
7
100
AcDbLine
 10
5.685039370078739
 20
7.548228346456692
 30
0.0
 11
5.687007874015747
 21
7.538385826771653
 31
0.0
  0
LINE
  5
274A
330
1E
100
AcDbEntity
  8
7
100
AcDbLine
 10
5.348425196850393
 20
7.780511811023622
 30
0.0
 11
5.467519685039369
 21
7.780511811023622
 31
0.0
  0
LINE
  5
274B
330
1E
100
AcDbEntity
  8
7
100
AcDbLine
 10
5.468503937007874
 20
7.782480314960629
 30
0.0
 11
5.467519685039369
 21
7.780511811023622
 31
0.0
  0
LINE
  5
274C
330
1E
100
AcDbEntity
  8
7
100
AcDbLine
 10
4.976377952755905
 20
7.782480314960629
 30
0.0
 11
5.468503937007874
 21
7.782480314960629
 31
0.0
  0
LINE
  5
274D
330
1E
100
AcDbEntity
  8
7
100
AcDbLine
 10
4.977362204724409
 20
7.780511811023622
 30
0.0
 11
4.976377952755905
 21
7.782480314960629
 31
0.0
  0
LINE
  5
274E
330
1E
100
AcDbEntity
  8
7
100
AcDbLine
 10
5.095472440944881
 20
7.780511811023622
 30
0.0
 11
4.977362204724409
 21
7.780511811023622
 31
0.0
  0
LINE
  5
274F
330
1E
100
AcDbEntity
  8
7
100
AcDbLine
 10
5.095472440944881
 20
7.780511811023622
 30
0.0
 11
5.119094488188975
 21
7.768700787401574
 31
0.0
  0
LINE
  5
2750
330
1E
100
AcDbEntity
  8
7
100
AcDbLine
 10
5.348425196850393
 20
7.780511811023622
 30
0.0
 11
5.325787401574802
 21
7.768700787401574
 31
0.0
  0
LINE
  5
2751
330
1E
100
AcDbEntity
  8
7
100
AcDbLine
 10
5.467519685039369
 20
7.780511811023622
 30
0.0
 11
5.467519685039369
 21
7.715551181102361
 31
0.0
  0
LINE
  5
2752
330
1E
100
AcDbEntity
  8
7
100
AcDbLine
 10
5.468503937007874
 20
7.716535433070866
 30
0.0
 11
5.467519685039369
 21
7.715551181102361
 31
0.0
  0
LINE
  5
2753
330
1E
100
AcDbEntity
  8
7
100
AcDbLine
 10
5.468503937007874
 20
7.782480314960629
 30
0.0
 11
5.468503937007874
 21
7.716535433070866
 31
0.0
  0
LINE
  5
2754
330
1E
100
AcDbEntity
  8
7
100
AcDbLine
 10
5.535433070866141
 20
7.716535433070866
 30
0.0
 11
5.468503937007874
 21
7.716535433070866
 31
0.0
  0
LINE
  5
2755
330
1E
100
AcDbEntity
  8
7
100
AcDbLine
 10
5.534448818897637
 20
7.715551181102361
 30
0.0
 11
5.467519685039369
 21
7.715551181102361
 31
0.0
  0
LINE
  5
2756
330
1E
100
AcDbEntity
  8
7
100
AcDbLine
 10
5.534448818897637
 20
7.715551181102361
 30
0.0
 11
5.535433070866141
 21
7.716535433070866
 31
0.0
  0
LINE
  5
2757
330
1E
100
AcDbEntity
  8
7
100
AcDbLine
 10
5.686023622047243
 20
7.081692913385826
 30
0.0
 11
5.686023622047243
 21
6.717519685039369
 31
0.0
  0
LINE
  5
2758
330
1E
100
AcDbEntity
  8
7
100
AcDbLine
 10
5.686023622047243
 20
7.081692913385826
 30
0.0
 11
5.684055118110236
 21
7.081692913385826
 31
0.0
  0
LINE
  5
275E
330
1E
100
AcDbEntity
  8
7
100
AcDbLine
 10
4.976377952755905
 20
7.716535433070866
 30
0.0
 11
4.976377952755905
 21
7.782480314960629
 31
0.0
  0
LINE
  5
276A
330
1E
100
AcDbEntity
  8
7
100
AcDbLine
 10
5.367125984251968
 20
7.05511811023622
 30
0.0
 11
5.367125984251968
 21
7.073818897637795
 31
0.0
  0
LINE
  5
2770
330
1E
100
AcDbEntity
  8
7
100
AcDbLine
 10
5.534448818897637
 20
7.05511811023622
 30
0.0
 11
5.367125984251968
 21
7.05511811023622
 31
0.0
  0
LINE
  5
2771
330
1E
100
AcDbEntity
  8
7
100
AcDbLine
 10
4.833661417322834
 20
7.716535433070866
 30
0.0
 11
4.976377952755905
 21
7.716535433070866
 31
0.0
  0
LINE
  5
2772
330
1E
100
AcDbEntity
  8
7
100
AcDbLine
 10
4.831692913385826
 20
7.715551181102361
 30
0.0
 11
4.977362204724409
 21
7.715551181102361
 31
0.0
  0
LINE
  5
2773
330
1E
100
AcDbEntity
  8
7
100
AcDbLine
 10
5.535433070866141
 20
7.054133858267715
 30
0.0
 11
4.273622047244094
 21
7.054133858267715
 31
0.0
  0
LINE
  5
2774
330
1E
100
AcDbEntity
  8
7
100
AcDbLine
 10
4.732283464566928
 20
7.05511811023622
 30
0.0
 11
5.076771653543306
 21
7.05511811023622
 31
0.0
  0
LINE
  5
2775
330
1E
100
AcDbEntity
  8
7
100
AcDbLine
 10
4.123031496062991
 20
8.052165354330707
 30
0.0
 11
5.686023622047243
 21
8.052165354330707
 31
0.0
  0
LINE
  5
2776
330
1E
100
AcDbEntity
  8
7
100
AcDbLine
 10
4.123031496062991
 20
6.717519685039369
 30
0.0
 11
5.686023622047243
 21
6.717519685039369
 31
0.0
  0
LINE
  5
2777
330
1E
100
AcDbEntity
  8
7
100
AcDbLine
 10
6.908464566929133
 20
8.170275590551181
 30
0.0
 11
7.025590551181101
 21
8.181102362204724
 31
0.0
  0
LINE
  5
277D
330
1E
100
AcDbEntity
  8
7
100
AcDbLine
 10
7.064960629921259
 20
7.624015748031496
 30
0.0
 11
7.144685039370078
 21
7.623031496062992
 31
0.0
  0
LINE
  5
277E
330
1E
100
AcDbEntity
  8
7
100
AcDbLine
 10
7.064960629921259
 20
7.144685039370078
 30
0.0
 11
7.064960629921259
 21
7.624015748031496
 31
0.0
  0
LINE
  5
277F
330
1E
100
AcDbEntity
  8
7
100
AcDbLine
 10
7.064960629921259
 20
7.144685039370078
 30
0.0
 11
7.144685039370078
 21
7.146653543307086
 31
0.0
  0
LINE
  5
2780
330
1E
100
AcDbEntity
  8
7
100
AcDbLine
 10
7.144685039370078
 20
7.623031496062992
 30
0.0
 11
7.144685039370078
 21
7.146653543307086
 31
0.0
  0
LINE
  5
2781
330
1E
100
AcDbEntity
  8
7
100
AcDbLine
 10
7.064960629921259
 20
7.624015748031496
 30
0.0
 11
6.898622047244094
 21
7.626968503937007
 31
0.0
  0
LINE
  5
2782
330
1E
100
AcDbEntity
  8
7
100
AcDbLine
 10
7.064960629921259
 20
7.144685039370078
 30
0.0
 11
6.898622047244094
 21
7.141732283464566
 31
0.0
  0
LINE
  5
2783
330
1E
100
AcDbEntity
  8
7
100
AcDbLine
 10
7.053149606299212
 20
7.624015748031496
 30
0.0
 11
7.053149606299212
 21
8.099409448818898
 31
0.0
  0
LINE
  5
2784
330
1E
100
AcDbEntity
  8
7
100
AcDbLine
 10
7.053149606299212
 20
7.144685039370078
 30
0.0
 11
7.053149606299212
 21
6.815944881889763
 31
0.0
  0
LINE
  5
278C
330
1E
100
AcDbEntity
  8
7
100
AcDbLine
 10
6.898622047244094
 20
8.101377952755905
 30
0.0
 11
6.898622047244094
 21
8.454724409448818
 31
0.0
  0
LINE
  5
278D
330
1E
100
AcDbEntity
  8
7
100
AcDbLine
 10
6.898622047244094
 20
8.101377952755905
 30
0.0
 11
6.874015748031495
 21
8.100393700787401
 31
0.0
  0
LINE
  5
278E
330
1E
100
AcDbEntity
  8
7
100
AcDbLine
 10
6.874015748031495
 20
8.456692913385825
 30
0.0
 11
6.898622047244094
 21
8.454724409448818
 31
0.0
  0
LINE
  5
278F
330
1E
100
AcDbEntity
  8
7
100
AcDbLine
 10
6.874015748031495
 20
8.456692913385825
 30
0.0
 11
6.874015748031495
 21
8.100393700787401
 31
0.0
  0
LINE
  5
27A8
330
1E
100
AcDbEntity
  8
7
100
AcDbLine
 10
6.810039370078739
 20
6.689960629921259
 30
0.0
 11
6.810039370078739
 21
8.454724409448818
 31
0.0
  0
LINE
  5
27AF
330
1E
100
AcDbEntity
  8
7
100
AcDbLine
 10
6.898622047244094
 20
8.544291338582675
 30
0.0
 11
6.898622047244094
 21
8.454724409448818
 31
0.0
  0
LINE
  5
27B0
330
1E
100
AcDbEntity
  8
7
100
AcDbLine
 10
6.898622047244094
 20
8.544291338582675
 30
0.0
 11
6.874015748031495
 21
8.545275590551181
 31
0.0
  0
LINE
  5
27B1
330
1E
100
AcDbEntity
  8
7
100
AcDbLine
 10
7.021653543307086
 20
8.314960629921259
 30
0.0
 11
6.898622047244094
 21
8.312992125984251
 31
0.0
  0
LINE
  5
27B7
330
1E
100
AcDbEntity
  8
7
100
AcDbLine
 10
6.874015748031495
 20
8.100393700787401
 30
0.0
 11
6.874015748031495
 21
7.86023622047244
 31
0.0
  0
LINE
  5
27B8
330
1E
100
AcDbEntity
  8
7
100
AcDbLine
 10
6.810039370078739
 20
8.454724409448818
 30
0.0
 11
6.874015748031495
 21
8.456692913385825
 31
0.0
  0
LINE
  5
27B9
330
1E
100
AcDbEntity
  8
7
100
AcDbLine
 10
6.874015748031495
 20
6.687992125984251
 30
0.0
 11
6.810039370078739
 21
6.689960629921259
 31
0.0
  0
LINE
  5
27BA
330
1E
100
AcDbEntity
  8
7
100
AcDbLine
 10
6.874015748031495
 20
6.689960629921259
 30
0.0
 11
6.874015748031495
 21
6.687992125984251
 31
0.0
  0
LINE
  5
27DE
330
1E
100
AcDbEntity
  8
7
100
AcDbLine
 10
7.053149606299212
 20
8.099409448818898
 30
0.0
 11
6.898622047244094
 21
8.102362204724409
 31
0.0
  0
LINE
  5
27DF
330
1E
100
AcDbEntity
  8
7
100
AcDbLine
 10
7.053149606299212
 20
6.815944881889763
 30
0.0
 11
6.898622047244094
 21
6.815944881889763
 31
0.0
  0
LINE
  5
280C
330
1E
100
AcDbEntity
  8
7
100
AcDbLine
 10
6.908464566929133
 20
8.484251968503937
 30
0.0
 11
7.025590551181101
 21
8.482283464566929
 31
0.0
  0
LINE
  5
2815
330
1E
100
AcDbEntity
  8
7
100
AcDbLine
 10
7.339566929133858
 20
7.14271653543307
 30
0.0
 11
7.224409448818897
 21
7.144685039370078
 31
0.0
  0
LINE
  5
281E
330
1E
100
AcDbEntity
  8
7
100
AcDbLine
 10
7.224409448818897
 20
6.86515748031496
 30
0.0
 11
7.198818897637794
 21
6.903543307086613
 31
0.0
  0
LINE
  5
281F
330
1E
100
AcDbEntity
  8
7
100
AcDbLine
 10
7.224409448818897
 20
6.86515748031496
 30
0.0
 11
7.233267716535432
 21
6.86023622047244
 31
0.0
  0
LINE
  5
2820
330
1E
100
AcDbEntity
  8
7
100
AcDbLine
 10
7.339566929133858
 20
6.86023622047244
 30
0.0
 11
7.233267716535432
 21
6.86023622047244
 31
0.0
  0
LINE
  5
2821
330
1E
100
AcDbEntity
  8
7
100
AcDbLine
 10
7.339566929133858
 20
6.86023622047244
 30
0.0
 11
7.339566929133858
 21
7.14271653543307
 31
0.0
  0
LINE
  5
2822
330
1E
100
AcDbEntity
  8
7
100
AcDbLine
 10
7.224409448818897
 20
7.144685039370078
 30
0.0
 11
7.144685039370078
 21
7.146653543307086
 31
0.0
  0
LINE
  5
2823
330
1E
100
AcDbEntity
  8
7
100
AcDbLine
 10
7.053149606299212
 20
6.815944881889763
 30
0.0
 11
7.080708661417322
 21
6.815944881889763
 31
0.0
  0
LINE
  5
2824
330
1E
100
AcDbEntity
  8
7
100
AcDbLine
 10
7.084645669291337
 20
6.907480314960629
 30
0.0
 11
7.080708661417322
 21
6.815944881889763
 31
0.0
  0
LINE
  5
282A
330
1E
100
AcDbEntity
  8
7
100
AcDbLine
 10
7.07775590551181
 20
6.714566929133858
 30
0.0
 11
7.075787401574802
 21
6.678149606299212
 31
0.0
  0
LINE
  5
282B
330
1E
100
AcDbEntity
  8
7
100
AcDbLine
 10
6.874015748031495
 20
6.674212598425196
 30
0.0
 11
7.075787401574802
 21
6.678149606299212
 31
0.0
  0
LINE
  5
282C
330
1E
100
AcDbEntity
  8
7
100
AcDbLine
 10
7.07775590551181
 20
6.714566929133858
 30
0.0
 11
6.898622047244094
 21
6.711614173228346
 31
0.0
  0
LINE
  5
282D
330
1E
100
AcDbEntity
  8
7
100
AcDbLine
 10
7.075787401574802
 20
6.67027559055118
 30
0.0
 11
6.874015748031495
 21
6.666338582677164
 31
0.0
  0
LINE
  5
282E
330
1E
100
AcDbEntity
  8
7
100
AcDbLine
 10
7.124015748031495
 20
6.782480314960629
 30
0.0
 11
6.968503937007874
 21
6.779527559055117
 31
0.0
  0
LINE
  5
282F
330
1E
100
AcDbEntity
  8
7
100
AcDbLine
 10
7.124015748031495
 20
6.782480314960629
 30
0.0
 11
7.124015748031495
 21
6.927165354330708
 31
0.0
  0
LINE
  5
2835
330
1E
100
AcDbEntity
  8
7
100
AcDbLine
 10
7.150590551181101
 20
7.538385826771653
 30
0.0
 11
7.169291338582676
 21
7.537401574803149
 31
0.0
  0
LINE
  5
2836
330
1E
100
AcDbEntity
  8
7
100
AcDbLine
 10
7.150590551181101
 20
7.538385826771653
 30
0.0
 11
7.150590551181101
 21
7.231299212598425
 31
0.0
  0
LINE
  5
2837
330
1E
100
AcDbEntity
  8
7
100
AcDbLine
 10
7.299212598425196
 20
7.236220472440944
 30
0.0
 11
7.169291338582676
 21
7.231299212598425
 31
0.0
  0
LINE
  5
283D
330
1E
100
AcDbEntity
  8
7
100
AcDbLine
 10
7.456692913385826
 20
7.78543307086614
 30
0.0
 11
7.373031496062991
 21
7.702755905511811
 31
0.0
  0
LINE
  5
283E
330
1E
100
AcDbEntity
  8
7
100
AcDbLine
 10
7.144685039370078
 20
7.885826771653542
 30
0.0
 11
7.371062992125984
 21
7.877952755905511
 31
0.0
  0
LINE
  5
2844
330
1E
100
AcDbEntity
  8
7
100
AcDbLine
 10
7.389763779527558
 20
7.838582677165353
 30
0.0
 11
7.389763779527558
 21
7.858267716535433
 31
0.0
  0
LINE
  5
2845
330
1E
100
AcDbEntity
  8
7
100
AcDbLine
 10
7.43799212598425
 20
7.835629921259842
 30
0.0
 11
7.144685039370078
 21
7.856299212598424
 31
0.0
  0
LINE
  5
2852
330
1E
100
AcDbEntity
  8
7
100
AcDbLine
 10
7.292322834645668
 20
7.672244094488188
 30
0.0
 11
7.311023622047243
 21
7.673228346456692
 31
0.0
  0
LINE
  5
2853
330
1E
100
AcDbEntity
  8
7
100
AcDbLine
 10
7.292322834645668
 20
7.672244094488188
 30
0.0
 11
7.292322834645668
 21
7.702755905511811
 31
0.0
  0
LINE
  5
2854
330
1E
100
AcDbEntity
  8
7
100
AcDbLine
 10
7.293307086614173
 20
7.705708661417322
 30
0.0
 11
7.292322834645668
 21
7.702755905511811
 31
0.0
  0
LINE
  5
2860
330
1E
100
AcDbEntity
  8
7
100
AcDbLine
 10
7.144685039370078
 20
7.538385826771653
 30
0.0
 11
7.150590551181101
 21
7.538385826771653
 31
0.0
  0
LINE
  5
2861
330
1E
100
AcDbEntity
  8
7
100
AcDbLine
 10
6.968503937007874
 20
6.717519685039369
 30
0.0
 11
6.968503937007874
 21
6.815944881889763
 31
0.0
  0
LINE
  5
2862
330
1E
100
AcDbEntity
  8
7
100
AcDbLine
 10
6.968503937007874
 20
6.717519685039369
 30
0.0
 11
6.898622047244094
 21
6.717519685039369
 31
0.0
  0
LINE
  5
2863
330
1E
100
AcDbEntity
  8
7
100
AcDbLine
 10
7.144685039370078
 20
7.77263779527559
 30
0.0
 11
7.290354330708661
 21
7.768700787401574
 31
0.0
  0
LINE
  5
2864
330
1E
100
AcDbEntity
  8
7
100
AcDbLine
 10
7.144685039370078
 20
7.230314960629921
 30
0.0
 11
7.150590551181101
 21
7.231299212598425
 31
0.0
  0
LINE
  5
2865
330
1E
100
AcDbEntity
  8
7
100
AcDbLine
 10
6.970472440944881
 20
6.717519685039369
 30
0.0
 11
6.968503937007874
 21
6.717519685039369
 31
0.0
  0
LINE
  5
2866
330
1E
100
AcDbEntity
  8
7
100
AcDbLine
 10
6.970472440944881
 20
6.717519685039369
 30
0.0
 11
6.996062992125984
 21
6.722440944881889
 31
0.0
  0
LINE
  5
2867
330
1E
100
AcDbEntity
  8
7
100
AcDbLine
 10
7.124015748031495
 20
6.782480314960629
 30
0.0
 11
6.996062992125984
 21
6.722440944881889
 31
0.0
  0
LINE
  5
2B04
330
1E
100
AcDbEntity
  8
7
100
AcDbLine
 10
7.30511811023622
 20
7.753937007874014
 30
0.0
 11
7.3001968503937
 21
7.763779527559055
 31
0.0
  0
LINE
  5
2B05
330
1E
100
AcDbEntity
  8
7
100
AcDbLine
 10
7.3001968503937
 20
7.763779527559055
 30
0.0
 11
7.290354330708661
 21
7.768700787401574
 31
0.0
  0
LINE
  5
2B06
330
1E
100
AcDbEntity
  8
7
100
AcDbLine
 10
7.293307086614173
 20
7.705708661417322
 30
0.0
 11
7.301181102362204
 21
7.718503937007874
 31
0.0
  0
LINE
  5
2B07
330
1E
100
AcDbEntity
  8
7
100
AcDbLine
 10
7.301181102362204
 20
7.718503937007874
 30
0.0
 11
7.30511811023622
 21
7.733267716535433
 31
0.0
  0
LINE
  5
2B08
330
1E
100
AcDbEntity
  8
7
100
AcDbLine
 10
7.30511811023622
 20
7.733267716535433
 30
0.0
 11
7.30511811023622
 21
7.753937007874014
 31
0.0
  0
LINE
  5
2B09
330
1E
100
AcDbEntity
  8
7
100
AcDbLine
 10
7.311023622047243
 20
7.673228346456692
 30
0.0
 11
7.344488188976377
 21
7.683070866141731
 31
0.0
  0
LINE
  5
2B0A
330
1E
100
AcDbEntity
  8
7
100
AcDbLine
 10
7.344488188976377
 20
7.683070866141731
 30
0.0
 11
7.373031496062991
 21
7.702755905511811
 31
0.0
  0
LINE
  5
2B0B
330
1E
100
AcDbEntity
  8
7
100
AcDbLine
 10
7.456692913385826
 20
7.78543307086614
 30
0.0
 11
7.464566929133858
 21
7.8001968503937
 31
0.0
  0
LINE
  5
2B0C
330
1E
100
AcDbEntity
  8
7
100
AcDbLine
 10
7.464566929133858
 20
7.8001968503937
 30
0.0
 11
7.46259842519685
 21
7.816929133858266
 31
0.0
  0
LINE
  5
2B0D
330
1E
100
AcDbEntity
  8
7
100
AcDbLine
 10
7.46259842519685
 20
7.816929133858266
 30
0.0
 11
7.45275590551181
 21
7.829724409448818
 31
0.0
  0
LINE
  5
2B0E
330
1E
100
AcDbEntity
  8
7
100
AcDbLine
 10
7.45275590551181
 20
7.829724409448818
 30
0.0
 11
7.43799212598425
 21
7.835629921259842
 31
0.0
  0
LINE
  5
2B0F
330
1E
100
AcDbEntity
  8
7
100
AcDbLine
 10
7.389763779527558
 20
7.858267716535433
 30
0.0
 11
7.383858267716535
 21
7.872047244094487
 31
0.0
  0
LINE
  5
2B10
330
1E
100
AcDbEntity
  8
7
100
AcDbLine
 10
7.383858267716535
 20
7.872047244094487
 30
0.0
 11
7.371062992125984
 21
7.877952755905511
 31
0.0
  0
LINE
  5
2B11
330
1E
100
AcDbEntity
  8
7
100
AcDbLine
 10
7.299212598425196
 20
7.236220472440944
 30
0.0
 11
7.299212598425196
 21
7.532480314960629
 31
0.0
  0
LINE
  5
2B12
330
1E
100
AcDbEntity
  8
7
100
AcDbLine
 10
7.299212598425196
 20
7.532480314960629
 30
0.0
 11
7.169291338582676
 21
7.537401574803149
 31
0.0
  0
LINE
  5
2B13
330
1E
100
AcDbEntity
  8
7
100
AcDbLine
 10
7.150590551181101
 20
7.231299212598425
 30
0.0
 11
7.169291338582676
 21
7.231299212598425
 31
0.0
  0
LINE
  5
2B14
330
1E
100
AcDbEntity
  8
7
100
AcDbLine
 10
7.169291338582676
 20
7.231299212598425
 30
0.0
 11
7.169291338582676
 21
7.537401574803149
 31
0.0
  0
LINE
  5
2B15
330
1E
100
AcDbEntity
  8
7
100
AcDbLine
 10
7.075787401574802
 20
6.67027559055118
 30
0.0
 11
7.075787401574802
 21
6.672244094488188
 31
0.0
  0
LINE
  5
2B16
330
1E
100
AcDbEntity
  8
7
100
AcDbLine
 10
7.075787401574802
 20
6.672244094488188
 30
0.0
 11
7.075787401574802
 21
6.678149606299212
 31
0.0
  0
LINE
  5
2B17
330
1E
100
AcDbEntity
  8
7
100
AcDbLine
 10
7.084645669291337
 20
6.907480314960629
 30
0.0
 11
7.090551181102362
 21
6.921259842519684
 31
0.0
  0
LINE
  5
2B18
330
1E
100
AcDbEntity
  8
7
100
AcDbLine
 10
7.090551181102362
 20
6.921259842519684
 30
0.0
 11
7.104330708661416
 21
6.927165354330708
 31
0.0
  0
LINE
  5
2B19
330
1E
100
AcDbEntity
  8
7
100
AcDbLine
 10
7.104330708661416
 20
6.927165354330708
 30
0.0
 11
7.169291338582676
 21
6.927165354330708
 31
0.0
  0
LINE
  5
2B1A
330
1E
100
AcDbEntity
  8
7
100
AcDbLine
 10
7.169291338582676
 20
6.927165354330708
 30
0.0
 11
7.186023622047243
 21
6.918307086614173
 31
0.0
  0
LINE
  5
2B1B
330
1E
100
AcDbEntity
  8
7
100
AcDbLine
 10
7.186023622047243
 20
6.918307086614173
 30
0.0
 11
7.198818897637794
 21
6.903543307086613
 31
0.0
  0
LINE
  5
2B1C
330
1E
100
AcDbEntity
  8
7
100
AcDbLine
 10
6.908464566929133
 20
8.484251968503937
 30
0.0
 11
6.906496062992125
 21
8.484251968503937
 31
0.0
  0
LINE
  5
2B1D
330
1E
100
AcDbEntity
  8
7
100
AcDbLine
 10
6.906496062992125
 20
8.484251968503937
 30
0.0
 11
6.904527559055117
 21
8.484251968503937
 31
0.0
  0
LINE
  5
2B1E
330
1E
100
AcDbEntity
  8
7
100
AcDbLine
 10
6.904527559055117
 20
8.484251968503937
 30
0.0
 11
6.90255905511811
 21
8.484251968503937
 31
0.0
  0
LINE
  5
2B1F
330
1E
100
AcDbEntity
  8
7
100
AcDbLine
 10
6.90255905511811
 20
8.484251968503937
 30
0.0
 11
6.900590551181101
 21
8.484251968503937
 31
0.0
  0
LINE
  5
2B20
330
1E
100
AcDbEntity
  8
7
100
AcDbLine
 10
6.900590551181101
 20
8.484251968503937
 30
0.0
 11
6.898622047244094
 21
8.484251968503937
 31
0.0
  0
LINE
  5
2B21
330
1E
100
AcDbEntity
  8
7
100
AcDbLine
 10
6.908464566929133
 20
8.312992125984251
 30
0.0
 11
6.908464566929133
 21
8.274606299212598
 31
0.0
  0
LINE
  5
2B22
330
1E
100
AcDbEntity
  8
7
100
AcDbLine
 10
6.908464566929133
 20
8.274606299212598
 30
0.0
 11
6.908464566929133
 21
8.240157480314961
 31
0.0
  0
LINE
  5
2B23
330
1E
100
AcDbEntity
  8
7
100
AcDbLine
 10
6.908464566929133
 20
8.240157480314961
 30
0.0
 11
6.908464566929133
 21
8.211614173228346
 31
0.0
  0
LINE
  5
2B24
330
1E
100
AcDbEntity
  8
7
100
AcDbLine
 10
6.908464566929133
 20
8.211614173228346
 30
0.0
 11
6.908464566929133
 21
8.188976377952755
 31
0.0
  0
LINE
  5
2B25
330
1E
100
AcDbEntity
  8
7
100
AcDbLine
 10
6.908464566929133
 20
8.188976377952755
 30
0.0
 11
6.908464566929133
 21
8.1751968503937
 31
0.0
  0
LINE
  5
2B26
330
1E
100
AcDbEntity
  8
7
100
AcDbLine
 10
6.908464566929133
 20
8.1751968503937
 30
0.0
 11
6.908464566929133
 21
8.170275590551181
 31
0.0
  0
LINE
  5
2B27
330
1E
100
AcDbEntity
  8
7
100
AcDbLine
 10
6.908464566929133
 20
8.484251968503937
 30
0.0
 11
6.908464566929133
 21
8.452755905511811
 31
0.0
  0
LINE
  5
2B28
330
1E
100
AcDbEntity
  8
7
100
AcDbLine
 10
6.908464566929133
 20
8.452755905511811
 30
0.0
 11
6.908464566929133
 21
8.413385826771653
 31
0.0
  0
LINE
  5
2B29
330
1E
100
AcDbEntity
  8
7
100
AcDbLine
 10
6.908464566929133
 20
8.413385826771653
 30
0.0
 11
6.908464566929133
 21
8.367125984251968
 31
0.0
  0
LINE
  5
2B2A
330
1E
100
AcDbEntity
  8
7
100
AcDbLine
 10
7.025590551181101
 20
8.482283464566929
 30
0.0
 11
7.025590551181101
 21
8.460629921259842
 31
0.0
  0
LINE
  5
2B2B
330
1E
100
AcDbEntity
  8
7
100
AcDbLine
 10
7.025590551181101
 20
8.460629921259842
 30
0.0
 11
7.025590551181101
 21
8.432086614173227
 31
0.0
  0
LINE
  5
2B2C
330
1E
100
AcDbEntity
  8
7
100
AcDbLine
 10
7.025590551181101
 20
8.432086614173227
 30
0.0
 11
7.025590551181101
 21
8.398622047244094
 31
0.0
  0
LINE
  5
2B2D
330
1E
100
AcDbEntity
  8
7
100
AcDbLine
 10
7.025590551181101
 20
8.398622047244094
 30
0.0
 11
7.025590551181101
 21
8.361220472440944
 31
0.0
  0
LINE
  5
2B2E
330
1E
100
AcDbEntity
  8
7
100
AcDbLine
 10
7.025590551181101
 20
8.361220472440944
 30
0.0
 11
7.025590551181101
 21
8.32283464566929
 31
0.0
  0
LINE
  5
2B2F
330
1E
100
AcDbEntity
  8
7
100
AcDbLine
 10
7.025590551181101
 20
8.32283464566929
 30
0.0
 11
7.025590551181101
 21
8.28543307086614
 31
0.0
  0
LINE
  5
2B30
330
1E
100
AcDbEntity
  8
7
100
AcDbLine
 10
7.025590551181101
 20
8.28543307086614
 30
0.0
 11
7.025590551181101
 21
8.250984251968503
 31
0.0
  0
LINE
  5
2B31
330
1E
100
AcDbEntity
  8
7
100
AcDbLine
 10
7.025590551181101
 20
8.250984251968503
 30
0.0
 11
7.025590551181101
 21
8.221456692913385
 31
0.0
  0
LINE
  5
2B32
330
1E
100
AcDbEntity
  8
7
100
AcDbLine
 10
7.025590551181101
 20
8.221456692913385
 30
0.0
 11
7.025590551181101
 21
8.199803149606298
 31
0.0
  0
LINE
  5
2B33
330
1E
100
AcDbEntity
  8
7
100
AcDbLine
 10
7.025590551181101
 20
8.199803149606298
 30
0.0
 11
7.025590551181101
 21
8.186023622047244
 31
0.0
  0
LINE
  5
2B34
330
1E
100
AcDbEntity
  8
7
100
AcDbLine
 10
7.025590551181101
 20
8.186023622047244
 30
0.0
 11
7.025590551181101
 21
8.181102362204724
 31
0.0
  0
LINE
  5
2B35
330
1E
100
AcDbEntity
  8
7
100
AcDbLine
 10
7.144685039370078
 20
7.623031496062992
 30
0.0
 11
7.144685039370078
 21
8.098425196850392
 31
0.0
  0
LINE
  5
2B36
330
1E
100
AcDbEntity
  8
7
100
AcDbLine
 10
7.144685039370078
 20
8.098425196850392
 30
0.0
 11
7.053149606299212
 21
8.099409448818898
 31
0.0
  0
LINE
  5
2B37
330
1E
100
AcDbEntity
  8
7
100
AcDbLine
 10
6.810039370078739
 20
6.590551181102362
 30
0.0
 11
6.874015748031495
 21
6.58759842519685
 31
0.0
  0
LINE
  5
2B38
330
1E
100
AcDbEntity
  8
7
100
AcDbLine
 10
6.874015748031495
 20
6.58759842519685
 30
0.0
 11
6.874015748031495
 21
6.591535433070865
 31
0.0
  0
LINE
  5
2B39
330
1E
100
AcDbEntity
  8
7
100
AcDbLine
 10
6.874015748031495
 20
6.591535433070865
 30
0.0
 11
6.874015748031495
 21
6.601377952755905
 31
0.0
  0
LINE
  5
2B3A
330
1E
100
AcDbEntity
  8
7
100
AcDbLine
 10
6.874015748031495
 20
6.601377952755905
 30
0.0
 11
6.874015748031495
 21
6.617125984251968
 31
0.0
  0
LINE
  5
2B3B
330
1E
100
AcDbEntity
  8
7
100
AcDbLine
 10
6.874015748031495
 20
6.617125984251968
 30
0.0
 11
6.874015748031495
 21
6.63779527559055
 31
0.0
  0
LINE
  5
2B3C
330
1E
100
AcDbEntity
  8
7
100
AcDbLine
 10
6.874015748031495
 20
6.63779527559055
 30
0.0
 11
6.874015748031495
 21
6.662401574803149
 31
0.0
  0
LINE
  5
2B3D
330
1E
100
AcDbEntity
  8
7
100
AcDbLine
 10
6.874015748031495
 20
6.662401574803149
 30
0.0
 11
6.874015748031495
 21
6.687992125984251
 31
0.0
  0
LINE
  5
2B3E
330
1E
100
AcDbEntity
  8
7
100
AcDbLine
 10
6.810039370078739
 20
6.590551181102362
 30
0.0
 11
6.810039370078739
 21
6.593503937007874
 31
0.0
  0
LINE
  5
2B3F
330
1E
100
AcDbEntity
  8
7
100
AcDbLine
 10
6.810039370078739
 20
6.593503937007874
 30
0.0
 11
6.809055118110236
 21
6.603346456692912
 31
0.0
  0
LINE
  5
2B40
330
1E
100
AcDbEntity
  8
7
100
AcDbLine
 10
6.809055118110236
 20
6.603346456692912
 30
0.0
 11
6.809055118110236
 21
6.619094488188975
 31
0.0
  0
LINE
  5
2B41
330
1E
100
AcDbEntity
  8
7
100
AcDbLine
 10
6.809055118110236
 20
6.619094488188975
 30
0.0
 11
6.809055118110236
 21
6.639763779527558
 31
0.0
  0
LINE
  5
2B42
330
1E
100
AcDbEntity
  8
7
100
AcDbLine
 10
6.809055118110236
 20
6.639763779527558
 30
0.0
 11
6.810039370078739
 21
6.664370078740157
 31
0.0
  0
LINE
  5
2B43
330
1E
100
AcDbEntity
  8
7
100
AcDbLine
 10
6.810039370078739
 20
6.664370078740157
 30
0.0
 11
6.810039370078739
 21
6.689960629921259
 31
0.0
  0
LINE
  5
2B44
330
1E
100
AcDbEntity
  8
7
100
AcDbLine
 10
6.781496062992125
 20
6.620078740157479
 30
0.0
 11
6.789370078740157
 21
6.599409448818897
 31
0.0
  0
LINE
  5
2B45
330
1E
100
AcDbEntity
  8
7
100
AcDbLine
 10
6.789370078740157
 20
6.599409448818897
 30
0.0
 11
6.810039370078739
 21
6.590551181102362
 31
0.0
  0
LINE
  5
2B46
330
1E
100
AcDbEntity
  8
7
100
AcDbLine
 10
6.780511811023621
 20
6.648622047244094
 30
0.0
 11
6.780511811023621
 21
6.633858267716535
 31
0.0
  0
LINE
  5
2B47
330
1E
100
AcDbEntity
  8
7
100
AcDbLine
 10
6.780511811023621
 20
6.633858267716535
 30
0.0
 11
6.780511811023621
 21
6.624015748031495
 31
0.0
  0
LINE
  5
2B48
330
1E
100
AcDbEntity
  8
7
100
AcDbLine
 10
6.780511811023621
 20
6.624015748031495
 30
0.0
 11
6.780511811023621
 21
6.620078740157479
 31
0.0
  0
LINE
  5
2B49
330
1E
100
AcDbEntity
  8
7
100
AcDbLine
 10
6.780511811023621
 20
6.689960629921259
 30
0.0
 11
6.780511811023621
 21
6.668307086614173
 31
0.0
  0
LINE
  5
2B4A
330
1E
100
AcDbEntity
  8
7
100
AcDbLine
 10
6.780511811023621
 20
6.668307086614173
 30
0.0
 11
6.780511811023621
 21
6.648622047244094
 31
0.0
  0
LINE
  5
2B4B
330
1E
100
AcDbEntity
  8
7
100
AcDbLine
 10
6.874015748031495
 20
8.456692913385825
 30
0.0
 11
6.874015748031495
 21
8.483267716535433
 31
0.0
  0
LINE
  5
2B4C
330
1E
100
AcDbEntity
  8
7
100
AcDbLine
 10
6.874015748031495
 20
8.483267716535433
 30
0.0
 11
6.874015748031495
 21
8.506889763779527
 31
0.0
  0
LINE
  5
2B4D
330
1E
100
AcDbEntity
  8
7
100
AcDbLine
 10
6.874015748031495
 20
8.506889763779527
 30
0.0
 11
6.874015748031495
 21
8.527559055118109
 31
0.0
  0
LINE
  5
2B4E
330
1E
100
AcDbEntity
  8
7
100
AcDbLine
 10
6.874015748031495
 20
8.527559055118109
 30
0.0
 11
6.874015748031495
 21
8.543307086614172
 31
0.0
  0
LINE
  5
2B4F
330
1E
100
AcDbEntity
  8
7
100
AcDbLine
 10
6.874015748031495
 20
8.543307086614172
 30
0.0
 11
6.874015748031495
 21
8.553149606299212
 31
0.0
  0
LINE
  5
2B50
330
1E
100
AcDbEntity
  8
7
100
AcDbLine
 10
6.874015748031495
 20
8.553149606299212
 30
0.0
 11
6.874015748031495
 21
8.557086614173227
 31
0.0
  0
LINE
  5
2B51
330
1E
100
AcDbEntity
  8
7
100
AcDbLine
 10
6.874015748031495
 20
8.557086614173227
 30
0.0
 11
6.810039370078739
 21
8.55511811023622
 31
0.0
  0
LINE
  5
2B52
330
1E
100
AcDbEntity
  8
7
100
AcDbLine
 10
7.021653543307086
 20
8.314960629921259
 30
0.0
 11
7.021653543307086
 21
8.365157480314961
 31
0.0
  0
LINE
  5
2B53
330
1E
100
AcDbEntity
  8
7
100
AcDbLine
 10
7.021653543307086
 20
8.365157480314961
 30
0.0
 11
6.898622047244094
 21
8.367125984251968
 31
0.0
  0
LINE
  5
2B54
330
1E
100
AcDbEntity
  8
7
100
AcDbLine
 10
6.780511811023621
 20
8.454724409448818
 30
0.0
 11
6.780511811023621
 21
6.689960629921259
 31
0.0
  0
LINE
  5
2B55
330
1E
100
AcDbEntity
  8
7
100
AcDbLine
 10
6.780511811023621
 20
6.689960629921259
 30
0.0
 11
6.789370078740157
 21
6.689960629921259
 31
0.0
  0
LINE
  5
2B56
330
1E
100
AcDbEntity
  8
7
100
AcDbLine
 10
6.789370078740157
 20
6.689960629921259
 30
0.0
 11
6.810039370078739
 21
6.689960629921259
 31
0.0
  0
LINE
  5
2B57
330
1E
100
AcDbEntity
  8
7
100
AcDbLine
 10
6.809055118110236
 20
8.504921259842518
 30
0.0
 11
6.809055118110236
 21
8.525590551181101
 31
0.0
  0
LINE
  5
2B58
330
1E
100
AcDbEntity
  8
7
100
AcDbLine
 10
6.809055118110236
 20
8.525590551181101
 30
0.0
 11
6.809055118110236
 21
8.541338582677164
 31
0.0
  0
LINE
  5
2B59
330
1E
100
AcDbEntity
  8
7
100
AcDbLine
 10
6.809055118110236
 20
8.541338582677164
 30
0.0
 11
6.810039370078739
 21
8.551181102362203
 31
0.0
  0
LINE
  5
2B5A
330
1E
100
AcDbEntity
  8
7
100
AcDbLine
 10
6.810039370078739
 20
8.551181102362203
 30
0.0
 11
6.810039370078739
 21
8.55511811023622
 31
0.0
  0
LINE
  5
2B5B
330
1E
100
AcDbEntity
  8
7
100
AcDbLine
 10
6.780511811023621
 20
8.524606299212598
 30
0.0
 11
6.780511811023621
 21
8.521653543307087
 31
0.0
  0
LINE
  5
2B5C
330
1E
100
AcDbEntity
  8
7
100
AcDbLine
 10
6.780511811023621
 20
8.521653543307087
 30
0.0
 11
6.780511811023621
 21
8.511811023622046
 31
0.0
  0
LINE
  5
2B5D
330
1E
100
AcDbEntity
  8
7
100
AcDbLine
 10
6.780511811023621
 20
8.511811023622046
 30
0.0
 11
6.780511811023621
 21
8.496062992125983
 31
0.0
  0
LINE
  5
2B5E
330
1E
100
AcDbEntity
  8
7
100
AcDbLine
 10
6.780511811023621
 20
8.496062992125983
 30
0.0
 11
6.780511811023621
 21
8.476377952755905
 31
0.0
  0
LINE
  5
2B5F
330
1E
100
AcDbEntity
  8
7
100
AcDbLine
 10
6.780511811023621
 20
8.476377952755905
 30
0.0
 11
6.780511811023621
 21
8.454724409448818
 31
0.0
  0
LINE
  5
2B60
330
1E
100
AcDbEntity
  8
7
100
AcDbLine
 10
6.780511811023621
 20
8.454724409448818
 30
0.0
 11
6.789370078740157
 21
8.454724409448818
 31
0.0
  0
LINE
  5
2B61
330
1E
100
AcDbEntity
  8
7
100
AcDbLine
 10
6.789370078740157
 20
8.454724409448818
 30
0.0
 11
6.810039370078739
 21
8.454724409448818
 31
0.0
  0
LINE
  5
2B62
330
1E
100
AcDbEntity
  8
7
100
AcDbLine
 10
6.810039370078739
 20
8.454724409448818
 30
0.0
 11
6.810039370078739
 21
8.48031496062992
 31
0.0
  0
LINE
  5
2B63
330
1E
100
AcDbEntity
  8
7
100
AcDbLine
 10
6.810039370078739
 20
8.48031496062992
 30
0.0
 11
6.809055118110236
 21
8.504921259842518
 31
0.0
  0
LINE
  5
2B64
330
1E
100
AcDbEntity
  8
7
100
AcDbLine
 10
6.810039370078739
 20
8.554133858267716
 30
0.0
 11
6.789370078740157
 21
8.545275590551181
 31
0.0
  0
LINE
  5
2B65
330
1E
100
AcDbEntity
  8
7
100
AcDbLine
 10
6.789370078740157
 20
8.545275590551181
 30
0.0
 11
6.781496062992125
 21
8.524606299212598
 31
0.0
  0
LINE
  5
2B66
330
1E
100
AcDbEntity
  8
7
100
AcDbLine
 10
6.898622047244094
 20
6.691929133858267
 30
0.0
 11
6.898622047244094
 21
7.859251968503937
 31
0.0
  0
LINE
  5
2B67
330
1E
100
AcDbEntity
  8
7
100
AcDbLine
 10
6.898622047244094
 20
7.859251968503937
 30
0.0
 11
6.874015748031495
 21
7.86023622047244
 31
0.0
  0
LINE
  5
2B68
330
1E
100
AcDbEntity
  8
7
100
AcDbLine
 10
6.874015748031495
 20
7.86023622047244
 30
0.0
 11
6.874015748031495
 21
6.689960629921259
 31
0.0
  0
LINE
  5
2B69
330
1E
100
AcDbEntity
  8
7
100
AcDbLine
 10
6.874015748031495
 20
6.689960629921259
 30
0.0
 11
6.898622047244094
 21
6.691929133858267
 31
0.0
  0
LINE
  5
2B6A
330
1E
100
AcDbEntity
  8
7
100
AcDbLine
 10
6.907480314960629
 20
8.170275590551181
 30
0.0
 11
6.901574803149605
 21
8.167322834645668
 31
0.0
  0
LINE
  5
2B6B
330
1E
100
AcDbEntity
  8
7
100
AcDbLine
 10
6.901574803149605
 20
8.167322834645668
 30
0.0
 11
6.898622047244094
 21
8.16043307086614
 31
0.0
  0
LINE
  5
2B6C
330
1E
100
AcDbEntity
  8
7
100
AcDbLine
 10
5.367125984251968
 20
7.05511811023622
 30
0.0
 11
5.076771653543306
 21
7.05511811023622
 31
0.0
  0
LINE
  5
2B6D
330
1E
100
AcDbEntity
  8
7
100
AcDbLine
 10
5.076771653543306
 20
7.05511811023622
 30
0.0
 11
5.076771653543306
 21
7.073818897637795
 31
0.0
  0
LINE
  5
2B6E
330
1E
100
AcDbEntity
  8
7
100
AcDbLine
 10
5.534448818897637
 20
7.715551181102361
 30
0.0
 11
5.534448818897637
 21
7.05511811023622
 31
0.0
  0
LINE
  5
2B6F
330
1E
100
AcDbEntity
  8
7
100
AcDbLine
 10
5.534448818897637
 20
7.05511811023622
 30
0.0
 11
5.535433070866141
 21
7.054133858267715
 31
0.0
  0
LINE
  5
2B70
330
1E
100
AcDbEntity
  8
7
100
AcDbLine
 10
5.535433070866141
 20
7.054133858267715
 30
0.0
 11
5.535433070866141
 21
7.716535433070866
 31
0.0
  0
LINE
  5
2B71
330
1E
100
AcDbEntity
  8
7
100
AcDbLine
 10
4.976377952755905
 20
7.716535433070866
 30
0.0
 11
4.977362204724409
 21
7.715551181102361
 31
0.0
  0
LINE
  5
2B72
330
1E
100
AcDbEntity
  8
7
100
AcDbLine
 10
4.977362204724409
 20
7.715551181102361
 30
0.0
 11
4.977362204724409
 21
7.780511811023622
 31
0.0
  0
LINE
  5
2B73
330
1E
100
AcDbEntity
  8
7
100
AcDbLine
 10
5.685039370078739
 20
7.084645669291337
 30
0.0
 11
5.684055118110236
 21
7.081692913385826
 31
0.0
  0
LINE
  5
2B74
330
1E
100
AcDbEntity
  8
7
100
AcDbLine
 10
5.684055118110236
 20
7.081692913385826
 30
0.0
 11
5.684055118110236
 21
7.687992125984251
 31
0.0
  0
LINE
  5
2B75
330
1E
100
AcDbEntity
  8
7
100
AcDbLine
 10
5.120078740157479
 20
7.753937007874014
 30
0.0
 11
5.324803149606299
 21
7.753937007874014
 31
0.0
  0
LINE
  5
2B76
330
1E
100
AcDbEntity
  8
7
100
AcDbLine
 10
5.324803149606299
 20
7.753937007874014
 30
0.0
 11
5.324803149606299
 21
7.763779527559055
 31
0.0
  0
LINE
  5
2B77
330
1E
100
AcDbEntity
  8
7
100
AcDbLine
 10
5.324803149606299
 20
7.763779527559055
 30
0.0
 11
5.325787401574802
 21
7.768700787401574
 31
0.0
  0
LINE
  5
2B78
330
1E
100
AcDbEntity
  8
7
100
AcDbLine
 10
5.325787401574802
 20
7.768700787401574
 30
0.0
 11
5.119094488188975
 21
7.768700787401574
 31
0.0
  0
LINE
  5
2B79
330
1E
100
AcDbEntity
  8
7
100
AcDbLine
 10
5.119094488188975
 20
7.768700787401574
 30
0.0
 11
5.119094488188975
 21
7.763779527559055
 31
0.0
  0
LINE
  5
2B7A
330
1E
100
AcDbEntity
  8
7
100
AcDbLine
 10
5.119094488188975
 20
7.763779527559055
 30
0.0
 11
5.120078740157479
 21
7.753937007874014
 31
0.0
  0
LINE
  5
2B7B
330
1E
100
AcDbEntity
  8
7
100
AcDbLine
 10
5.119094488188975
 20
7.705708661417322
 30
0.0
 11
5.119094488188975
 21
7.718503937007874
 31
0.0
  0
LINE
  5
2B7C
330
1E
100
AcDbEntity
  8
7
100
AcDbLine
 10
5.119094488188975
 20
7.718503937007874
 30
0.0
 11
5.120078740157479
 21
7.733267716535433
 31
0.0
  0
LINE
  5
2B7D
330
1E
100
AcDbEntity
  8
7
100
AcDbLine
 10
5.120078740157479
 20
7.733267716535433
 30
0.0
 11
5.120078740157479
 21
7.753937007874014
 31
0.0
  0
LINE
  5
2B7E
330
1E
100
AcDbEntity
  8
7
100
AcDbLine
 10
5.324803149606299
 20
7.705708661417322
 30
0.0
 11
5.324803149606299
 21
7.718503937007874
 31
0.0
  0
LINE
  5
2B7F
330
1E
100
AcDbEntity
  8
7
100
AcDbLine
 10
5.324803149606299
 20
7.718503937007874
 30
0.0
 11
5.324803149606299
 21
7.733267716535433
 31
0.0
  0
LINE
  5
2B80
330
1E
100
AcDbEntity
  8
7
100
AcDbLine
 10
5.119094488188975
 20
7.672244094488188
 30
0.0
 11
5.324803149606299
 21
7.672244094488188
 31
0.0
  0
LINE
  5
2B81
330
1E
100
AcDbEntity
  8
7
100
AcDbLine
 10
5.324803149606299
 20
7.672244094488188
 30
0.0
 11
5.324803149606299
 21
7.702755905511811
 31
0.0
  0
LINE
  5
2B82
330
1E
100
AcDbEntity
  8
7
100
AcDbLine
 10
5.367125984251968
 20
7.084645669291337
 30
0.0
 11
5.076771653543306
 21
7.084645669291337
 31
0.0
  0
LINE
  5
2B83
330
1E
100
AcDbEntity
  8
7
100
AcDbLine
 10
5.076771653543306
 20
7.084645669291337
 30
0.0
 11
5.076771653543306
 21
7.080708661417322
 31
0.0
  0
LINE
  5
2B84
330
1E
100
AcDbEntity
  8
7
100
AcDbLine
 10
5.076771653543306
 20
7.080708661417322
 30
0.0
 11
5.076771653543306
 21
7.073818897637795
 31
0.0
  0
LINE
  5
2B85
330
1E
100
AcDbEntity
  8
7
100
AcDbLine
 10
5.367125984251968
 20
7.084645669291337
 30
0.0
 11
5.367125984251968
 21
7.080708661417322
 31
0.0
  0
LINE
  5
2B86
330
1E
100
AcDbEntity
  8
7
100
AcDbLine
 10
5.367125984251968
 20
7.080708661417322
 30
0.0
 11
5.367125984251968
 21
7.073818897637795
 31
0.0
  0
LINE
  5
2B87
330
1E
100
AcDbEntity
  8
7
100
AcDbLine
 10
4.441929133858267
 20
7.05511811023622
 30
0.0
 11
4.732283464566928
 21
7.05511811023622
 31
0.0
  0
LINE
  5
2B88
330
1E
100
AcDbEntity
  8
7
100
AcDbLine
 10
4.732283464566928
 20
7.05511811023622
 30
0.0
 11
4.732283464566928
 21
7.073818897637795
 31
0.0
  0
LINE
  5
2B89
330
1E
100
AcDbEntity
  8
7
100
AcDbLine
 10
4.124015748031495
 20
7.084645669291337
 30
0.0
 11
4.125
 21
7.081692913385826
 31
0.0
  0
LINE
  5
2B8A
330
1E
100
AcDbEntity
  8
7
100
AcDbLine
 10
4.125
 20
7.081692913385826
 30
0.0
 11
4.125
 21
7.687992125984251
 31
0.0
  0
LINE
  5
2B8B
330
1E
100
AcDbEntity
  8
7
100
AcDbLine
 10
4.341535433070865
 20
7.782480314960629
 30
0.0
 11
4.341535433070865
 21
7.716535433070866
 31
0.0
  0
LINE
  5
2B8C
330
1E
100
AcDbEntity
  8
7
100
AcDbLine
 10
4.341535433070865
 20
7.716535433070866
 30
0.0
 11
4.342519685039369
 21
7.715551181102361
 31
0.0
  0
LINE
  5
2B8D
330
1E
100
AcDbEntity
  8
7
100
AcDbLine
 10
4.713582677165353
 20
7.780511811023622
 30
0.0
 11
4.831692913385826
 21
7.780511811023622
 31
0.0
  0
LINE
  5
2B8E
330
1E
100
AcDbEntity
  8
7
100
AcDbLine
 10
4.831692913385826
 20
7.780511811023622
 30
0.0
 11
4.833661417322834
 21
7.782480314960629
 31
0.0
  0
LINE
  5
2B8F
330
1E
100
AcDbEntity
  8
7
100
AcDbLine
 10
4.833661417322834
 20
7.782480314960629
 30
0.0
 11
4.341535433070865
 21
7.782480314960629
 31
0.0
  0
LINE
  5
2B90
330
1E
100
AcDbEntity
  8
7
100
AcDbLine
 10
4.341535433070865
 20
7.782480314960629
 30
0.0
 11
4.342519685039369
 21
7.780511811023622
 31
0.0
  0
LINE
  5
2B91
330
1E
100
AcDbEntity
  8
7
100
AcDbLine
 10
4.342519685039369
 20
7.780511811023622
 30
0.0
 11
4.342519685039369
 21
7.715551181102361
 31
0.0
  0
LINE
  5
2B92
330
1E
100
AcDbEntity
  8
7
100
AcDbLine
 10
4.689960629921259
 20
7.768700787401574
 30
0.0
 11
4.689960629921259
 21
7.763779527559055
 31
0.0
  0
LINE
  5
2B93
330
1E
100
AcDbEntity
  8
7
100
AcDbLine
 10
4.689960629921259
 20
7.763779527559055
 30
0.0
 11
4.689960629921259
 21
7.753937007874014
 31
0.0
  0
LINE
  5
2B94
330
1E
100
AcDbEntity
  8
7
100
AcDbLine
 10
4.484251968503937
 20
7.733267716535433
 30
0.0
 11
4.484251968503937
 21
7.753937007874014
 31
0.0
  0
LINE
  5
2B95
330
1E
100
AcDbEntity
  8
7
100
AcDbLine
 10
4.484251968503937
 20
7.753937007874014
 30
0.0
 11
4.484251968503937
 21
7.763779527559055
 31
0.0
  0
LINE
  5
2B96
330
1E
100
AcDbEntity
  8
7
100
AcDbLine
 10
4.484251968503937
 20
7.763779527559055
 30
0.0
 11
4.484251968503937
 21
7.768700787401574
 31
0.0
  0
LINE
  5
2B97
330
1E
100
AcDbEntity
  8
7
100
AcDbLine
 10
4.689960629921259
 20
7.733267716535433
 30
0.0
 11
4.689960629921259
 21
7.753937007874014
 31
0.0
  0
LINE
  5
2B98
330
1E
100
AcDbEntity
  8
7
100
AcDbLine
 10
4.689960629921259
 20
7.753937007874014
 30
0.0
 11
4.484251968503937
 21
7.753937007874014
 31
0.0
  0
LINE
  5
2B99
330
1E
100
AcDbEntity
  8
7
100
AcDbLine
 10
4.689960629921259
 20
7.705708661417322
 30
0.0
 11
4.689960629921259
 21
7.718503937007874
 31
0.0
  0
LINE
  5
2B9A
330
1E
100
AcDbEntity
  8
7
100
AcDbLine
 10
4.689960629921259
 20
7.718503937007874
 30
0.0
 11
4.689960629921259
 21
7.733267716535433
 31
0.0
  0
LINE
  5
2B9B
330
1E
100
AcDbEntity
  8
7
100
AcDbLine
 10
4.689960629921259
 20
7.733267716535433
 30
0.0
 11
4.484251968503937
 21
7.733267716535433
 31
0.0
  0
LINE
  5
2B9C
330
1E
100
AcDbEntity
  8
7
100
AcDbLine
 10
4.484251968503937
 20
7.705708661417322
 30
0.0
 11
4.484251968503937
 21
7.718503937007874
 31
0.0
  0
LINE
  5
2B9D
330
1E
100
AcDbEntity
  8
7
100
AcDbLine
 10
4.484251968503937
 20
7.718503937007874
 30
0.0
 11
4.484251968503937
 21
7.733267716535433
 31
0.0
  0
LINE
  5
2B9E
330
1E
100
AcDbEntity
  8
7
100
AcDbLine
 10
4.689960629921259
 20
7.705708661417322
 30
0.0
 11
4.484251968503937
 21
7.705708661417322
 31
0.0
  0
LINE
  5
2B9F
330
1E
100
AcDbEntity
  8
7
100
AcDbLine
 10
4.484251968503937
 20
7.705708661417322
 30
0.0
 11
4.484251968503937
 21
7.702755905511811
 31
0.0
  0
LINE
  5
2BA0
330
1E
100
AcDbEntity
  8
7
100
AcDbLine
 10
4.689960629921259
 20
7.672244094488188
 30
0.0
 11
4.689960629921259
 21
7.702755905511811
 31
0.0
  0
LINE
  5
2BA1
330
1E
100
AcDbEntity
  8
7
100
AcDbLine
 10
4.689960629921259
 20
7.702755905511811
 30
0.0
 11
4.484251968503937
 21
7.702755905511811
 31
0.0
  0
LINE
  5
2BA2
330
1E
100
AcDbEntity
  8
7
100
AcDbLine
 10
4.689960629921259
 20
7.672244094488188
 30
0.0
 11
4.484251968503937
 21
7.672244094488188
 31
0.0
  0
LINE
  5
2BA3
330
1E
100
AcDbEntity
  8
7
100
AcDbLine
 10
4.484251968503937
 20
7.672244094488188
 30
0.0
 11
4.484251968503937
 21
7.702755905511811
 31
0.0
  0
LINE
  5
2BA4
330
1E
100
AcDbEntity
  8
7
100
AcDbLine
 10
4.732283464566928
 20
7.084645669291337
 30
0.0
 11
4.732283464566928
 21
7.080708661417322
 31
0.0
  0
LINE
  5
2BA5
330
1E
100
AcDbEntity
  8
7
100
AcDbLine
 10
4.732283464566928
 20
7.080708661417322
 30
0.0
 11
4.732283464566928
 21
7.073818897637795
 31
0.0
  0
LINE
  5
2BA6
330
1E
100
AcDbEntity
  8
7
100
AcDbLine
 10
4.022637795275589
 20
6.590551181102362
 30
0.0
 11
3.996062992125984
 21
6.593503937007874
 31
0.0
  0
LINE
  5
2BA7
330
1E
100
AcDbEntity
  8
7
100
AcDbLine
 10
3.996062992125984
 20
6.593503937007874
 30
0.0
 11
3.972440944881889
 21
6.603346456692912
 31
0.0
  0
LINE
  5
2BA8
330
1E
100
AcDbEntity
  8
7
100
AcDbLine
 10
3.972440944881889
 20
6.603346456692912
 30
0.0
 11
3.951771653543306
 21
6.619094488188975
 31
0.0
  0
LINE
  5
2BA9
330
1E
100
AcDbEntity
  8
7
100
AcDbLine
 10
3.951771653543306
 20
6.619094488188975
 30
0.0
 11
3.936023622047243
 21
6.639763779527558
 31
0.0
  0
LINE
  5
2BAA
330
1E
100
AcDbEntity
  8
7
100
AcDbLine
 10
3.936023622047243
 20
6.639763779527558
 30
0.0
 11
3.926181102362204
 21
6.664370078740157
 31
0.0
  0
LINE
  5
2BAB
330
1E
100
AcDbEntity
  8
7
100
AcDbLine
 10
5.787401574803149
 20
6.590551181102362
 30
0.0
 11
4.022637795275589
 21
6.590551181102362
 31
0.0
  0
LINE
  5
2BAC
330
1E
100
AcDbEntity
  8
7
100
AcDbLine
 10
4.022637795275589
 20
6.590551181102362
 30
0.0
 11
4.022637795275589
 21
6.599409448818897
 31
0.0
  0
LINE
  5
2BAD
330
1E
100
AcDbEntity
  8
7
100
AcDbLine
 10
4.022637795275589
 20
6.599409448818897
 30
0.0
 11
4.022637795275589
 21
6.620078740157479
 31
0.0
  0
LINE
  5
2BAE
330
1E
100
AcDbEntity
  8
7
100
AcDbLine
 10
4.118110236220472
 20
7.292322834645668
 30
0.0
 11
4.118110236220472
 21
7.190944881889763
 31
0.0
  0
LINE
  5
2BAF
330
1E
100
AcDbEntity
  8
7
100
AcDbLine
 10
4.118110236220472
 20
7.190944881889763
 30
0.0
 11
4.118110236220472
 21
6.815944881889763
 31
0.0
  0
LINE
  5
2BB0
330
1E
100
AcDbEntity
  8
7
100
AcDbLine
 10
4.118110236220472
 20
6.815944881889763
 30
0.0
 11
4.123031496062991
 21
6.815944881889763
 31
0.0
  0
LINE
  5
2BB1
330
1E
100
AcDbEntity
  8
7
100
AcDbLine
 10
5.690944881889762
 20
7.190944881889763
 30
0.0
 11
5.690944881889762
 21
6.815944881889763
 31
0.0
  0
LINE
  5
2BB2
330
1E
100
AcDbEntity
  8
7
100
AcDbLine
 10
5.690944881889762
 20
6.815944881889763
 30
0.0
 11
5.686023622047243
 21
6.815944881889763
 31
0.0
  0
LINE
  5
2BB3
330
1E
100
AcDbEntity
  8
7
100
AcDbLine
 10
5.698818897637795
 20
7.3001968503937
 30
0.0
 11
5.692913385826771
 21
7.298228346456692
 31
0.0
  0
LINE
  5
2BB4
330
1E
100
AcDbEntity
  8
7
100
AcDbLine
 10
5.692913385826771
 20
7.298228346456692
 30
0.0
 11
5.690944881889762
 21
7.292322834645668
 31
0.0
  0
LINE
  5
2BB5
330
1E
100
AcDbEntity
  8
7
100
AcDbLine
 10
5.690944881889762
 20
7.476377952755905
 30
0.0
 11
5.692913385826771
 21
7.471456692913385
 31
0.0
  0
LINE
  5
2BB6
330
1E
100
AcDbEntity
  8
7
100
AcDbLine
 10
5.692913385826771
 20
7.471456692913385
 30
0.0
 11
5.698818897637795
 21
7.468503937007874
 31
0.0
  0
LINE
  5
2BB7
330
1E
100
AcDbEntity
  8
7
100
AcDbLine
 10
4.118110236220472
 20
7.292322834645668
 30
0.0
 11
4.118110236220472
 21
7.476377952755905
 31
0.0
  0
LINE
  5
2BB8
330
1E
100
AcDbEntity
  8
7
100
AcDbLine
 10
4.118110236220472
 20
7.476377952755905
 30
0.0
 11
4.116141732283463
 21
7.471456692913385
 31
0.0
  0
LINE
  5
2BB9
330
1E
100
AcDbEntity
  8
7
100
AcDbLine
 10
4.116141732283463
 20
7.471456692913385
 30
0.0
 11
4.11023622047244
 21
7.468503937007874
 31
0.0
  0
LINE
  5
2BBA
330
1E
100
AcDbEntity
  8
7
100
AcDbLine
 10
4.11023622047244
 20
7.3001968503937
 30
0.0
 11
4.116141732283463
 21
7.298228346456692
 31
0.0
  0
LINE
  5
2BBB
330
1E
100
AcDbEntity
  8
7
100
AcDbLine
 10
4.116141732283463
 20
7.298228346456692
 30
0.0
 11
4.118110236220472
 21
7.292322834645668
 31
0.0
  0
LINE
  5
2BBC
330
1E
100
AcDbEntity
  8
7
100
AcDbLine
 10
4.11023622047244
 20
7.468503937007874
 30
0.0
 11
4.065944881889763
 21
7.468503937007874
 31
0.0
  0
LINE
  5
2BBD
330
1E
100
AcDbEntity
  8
7
100
AcDbLine
 10
4.065944881889763
 20
7.468503937007874
 30
0.0
 11
4.061023622047243
 21
7.466535433070866
 31
0.0
  0
LINE
  5
2BBE
330
1E
100
AcDbEntity
  8
7
100
AcDbLine
 10
4.061023622047243
 20
7.466535433070866
 30
0.0
 11
4.058070866141732
 21
7.460629921259842
 31
0.0
  0
LINE
  5
2BBF
330
1E
100
AcDbEntity
  8
7
100
AcDbLine
 10
4.058070866141732
 20
7.460629921259842
 30
0.0
 11
4.058070866141732
 21
7.308070866141731
 31
0.0
  0
LINE
  5
2BC0
330
1E
100
AcDbEntity
  8
7
100
AcDbLine
 10
4.058070866141732
 20
7.308070866141731
 30
0.0
 11
4.061023622047243
 21
7.302165354330707
 31
0.0
  0
LINE
  5
2BC1
330
1E
100
AcDbEntity
  8
7
100
AcDbLine
 10
4.061023622047243
 20
7.302165354330707
 30
0.0
 11
4.065944881889763
 21
7.3001968503937
 31
0.0
  0
LINE
  5
2BC2
330
1E
100
AcDbEntity
  8
7
100
AcDbLine
 10
5.685039370078739
 20
7.190944881889763
 30
0.0
 11
5.690944881889762
 21
7.190944881889763
 31
0.0
  0
LINE
  5
2BC3
330
1E
100
AcDbEntity
  8
7
100
AcDbLine
 10
5.690944881889762
 20
7.190944881889763
 30
0.0
 11
5.685039370078739
 21
7.195866141732283
 31
0.0
  0
LINE
  5
2BC4
330
1E
100
AcDbEntity
  8
7
100
AcDbLine
 10
3.952755905511811
 20
6.689960629921259
 30
0.0
 11
3.931102362204724
 21
6.689960629921259
 31
0.0
  0
LINE
  5
2BC5
330
1E
100
AcDbEntity
  8
7
100
AcDbLine
 10
3.931102362204724
 20
6.689960629921259
 30
0.0
 11
3.922244094488188
 21
6.689960629921259
 31
0.0
  0
LINE
  5
2BC6
330
1E
100
AcDbEntity
  8
7
100
AcDbLine
 10
5.565944881889762
 20
6.711614173228346
 30
0.0
 11
5.684055118110236
 21
6.711614173228346
 31
0.0
  0
LINE
  5
2BC7
330
1E
100
AcDbEntity
  8
7
100
AcDbLine
 10
5.684055118110236
 20
6.711614173228346
 30
0.0
 11
5.689960629921259
 21
6.713582677165353
 31
0.0
  0
LINE
  5
2BC8
330
1E
100
AcDbEntity
  8
7
100
AcDbLine
 10
5.689960629921259
 20
6.713582677165353
 30
0.0
 11
5.692913385826771
 21
6.719488188976377
 31
0.0
  0
LINE
  5
2BC9
330
1E
100
AcDbEntity
  8
7
100
AcDbLine
 10
5.692913385826771
 20
6.719488188976377
 30
0.0
 11
5.692913385826771
 21
6.815944881889763
 31
0.0
  0
LINE
  5
2BCA
330
1E
100
AcDbEntity
  8
7
100
AcDbLine
 10
4.125
 20
6.711614173228346
 30
0.0
 11
4.119094488188975
 21
6.713582677165353
 31
0.0
  0
LINE
  5
2BCB
330
1E
100
AcDbEntity
  8
7
100
AcDbLine
 10
4.119094488188975
 20
6.713582677165353
 30
0.0
 11
4.117125984251968
 21
6.719488188976377
 31
0.0
  0
LINE
  5
2BCC
330
1E
100
AcDbEntity
  8
7
100
AcDbLine
 10
3.949803149606299
 20
6.617125984251968
 30
0.0
 11
3.933070866141732
 21
6.63779527559055
 31
0.0
  0
LINE
  5
2BCD
330
1E
100
AcDbEntity
  8
7
100
AcDbLine
 10
3.933070866141732
 20
6.63779527559055
 30
0.0
 11
3.923228346456692
 21
6.662401574803149
 31
0.0
  0
LINE
  5
2BCE
330
1E
100
AcDbEntity
  8
7
100
AcDbLine
 10
3.923228346456692
 20
6.662401574803149
 30
0.0
 11
3.92027559055118
 21
6.687992125984251
 31
0.0
  0
LINE
  5
2BCF
330
1E
100
AcDbEntity
  8
7
100
AcDbLine
 10
5.789370078740157
 20
6.58759842519685
 30
0.0
 11
4.019685039370078
 21
6.58759842519685
 31
0.0
  0
LINE
  5
2BD0
330
1E
100
AcDbEntity
  8
7
100
AcDbLine
 10
4.019685039370078
 20
6.58759842519685
 30
0.0
 11
3.994094488188975
 21
6.591535433070865
 31
0.0
  0
LINE
  5
2BD1
330
1E
100
AcDbEntity
  8
7
100
AcDbLine
 10
3.994094488188975
 20
6.591535433070865
 30
0.0
 11
3.970472440944881
 21
6.601377952755905
 31
0.0
  0
LINE
  5
2BD2
330
1E
100
AcDbEntity
  8
7
100
AcDbLine
 10
3.970472440944881
 20
6.601377952755905
 30
0.0
 11
3.949803149606299
 21
6.617125984251968
 31
0.0
  0
LINE
  5
2BD3
330
1E
100
AcDbEntity
  8
7
100
AcDbLine
 10
5.701771653543306
 20
7.472440944881888
 30
0.0
 11
5.696850393700787
 21
7.474409448818898
 31
0.0
  0
LINE
  5
2BD4
330
1E
100
AcDbEntity
  8
7
100
AcDbLine
 10
5.696850393700787
 20
7.474409448818898
 30
0.0
 11
5.693897637795275
 21
7.48031496062992
 31
0.0
  0
LINE
  5
2BD5
330
1E
100
AcDbEntity
  8
7
100
AcDbLine
 10
4.107283464566928
 20
7.472440944881888
 30
0.0
 11
4.113188976377952
 21
7.474409448818898
 31
0.0
  0
LINE
  5
2BD6
330
1E
100
AcDbEntity
  8
7
100
AcDbLine
 10
4.113188976377952
 20
7.474409448818898
 30
0.0
 11
4.11515748031496
 21
7.48031496062992
 31
0.0
  0
LINE
  5
2BD7
330
1E
100
AcDbEntity
  8
7
100
AcDbLine
 10
4.05511811023622
 20
7.463582677165353
 30
0.0
 11
4.057086614173227
 21
7.469488188976377
 31
0.0
  0
LINE
  5
2BD8
330
1E
100
AcDbEntity
  8
7
100
AcDbLine
 10
4.057086614173227
 20
7.469488188976377
 30
0.0
 11
4.062992125984251
 21
7.472440944881888
 31
0.0
  0
LINE
  5
2BD9
330
1E
100
AcDbEntity
  8
7
100
AcDbLine
 10
4.123031496062991
 20
6.709645669291337
 30
0.0
 11
4.117125984251968
 21
6.711614173228346
 31
0.0
  0
LINE
  5
2BDA
330
1E
100
AcDbEntity
  8
7
100
AcDbLine
 10
4.117125984251968
 20
6.711614173228346
 30
0.0
 11
4.11515748031496
 21
6.717519685039369
 31
0.0
  0
LINE
  5
2BDB
330
1E
100
AcDbEntity
  8
7
100
AcDbLine
 10
4.11515748031496
 20
6.717519685039369
 30
0.0
 11
4.11515748031496
 21
7.289370078740157
 31
0.0
  0
LINE
  5
2BDC
330
1E
100
AcDbEntity
  8
7
100
AcDbLine
 10
4.11515748031496
 20
7.289370078740157
 30
0.0
 11
4.113188976377952
 21
7.294291338582675
 31
0.0
  0
LINE
  5
2BDD
330
1E
100
AcDbEntity
  8
7
100
AcDbLine
 10
4.113188976377952
 20
7.294291338582675
 30
0.0
 11
4.107283464566928
 21
7.297244094488188
 31
0.0
  0
LINE
  5
2BDE
330
1E
100
AcDbEntity
  8
7
100
AcDbLine
 10
4.107283464566928
 20
7.297244094488188
 30
0.0
 11
4.062992125984251
 21
7.297244094488188
 31
0.0
  0
LINE
  5
2BDF
330
1E
100
AcDbEntity
  8
7
100
AcDbLine
 10
4.062992125984251
 20
7.297244094488188
 30
0.0
 11
4.057086614173227
 21
7.299212598425196
 31
0.0
  0
LINE
  5
2BE0
330
1E
100
AcDbEntity
  8
7
100
AcDbLine
 10
4.057086614173227
 20
7.299212598425196
 30
0.0
 11
4.05511811023622
 21
7.30511811023622
 31
0.0
  0
LINE
  5
2BE1
330
1E
100
AcDbEntity
  8
7
100
AcDbLine
 10
5.686023622047243
 20
6.709645669291337
 30
0.0
 11
5.691929133858267
 21
6.711614173228346
 31
0.0
  0
LINE
  5
2BE2
330
1E
100
AcDbEntity
  8
7
100
AcDbLine
 10
5.691929133858267
 20
6.711614173228346
 30
0.0
 11
5.693897637795275
 21
6.717519685039369
 31
0.0
  0
LINE
  5
2BE3
330
1E
100
AcDbEntity
  8
7
100
AcDbLine
 10
5.693897637795275
 20
7.289370078740157
 30
0.0
 11
5.696850393700787
 21
7.294291338582675
 31
0.0
  0
LINE
  5
2BE4
330
1E
100
AcDbEntity
  8
7
100
AcDbLine
 10
5.696850393700787
 20
7.294291338582675
 30
0.0
 11
5.701771653543306
 21
7.297244094488188
 31
0.0
  0
LINE
  5
2BE5
330
1E
100
AcDbEntity
  8
7
100
AcDbLine
 10
3.952755905511811
 20
8.454724409448818
 30
0.0
 11
3.952755905511811
 21
6.689960629921259
 31
0.0
  0
LINE
  5
2BE6
330
1E
100
AcDbEntity
  8
7
100
AcDbLine
 10
3.952755905511811
 20
6.689960629921259
 30
0.0
 11
3.955708661417322
 21
6.668307086614173
 31
0.0
  0
LINE
  5
2BE7
330
1E
100
AcDbEntity
  8
7
100
AcDbLine
 10
3.955708661417322
 20
6.668307086614173
 30
0.0
 11
3.965551181102362
 21
6.648622047244094
 31
0.0
  0
LINE
  5
2BE8
330
1E
100
AcDbEntity
  8
7
100
AcDbLine
 10
3.965551181102362
 20
6.648622047244094
 30
0.0
 11
3.981299212598425
 21
6.633858267716535
 31
0.0
  0
LINE
  5
2BE9
330
1E
100
AcDbEntity
  8
7
100
AcDbLine
 10
3.981299212598425
 20
6.633858267716535
 30
0.0
 11
4.000984251968503
 21
6.624015748031495
 31
0.0
  0
LINE
  5
2BEA
330
1E
100
AcDbEntity
  8
7
100
AcDbLine
 10
4.000984251968503
 20
6.624015748031495
 30
0.0
 11
4.022637795275589
 21
6.620078740157479
 31
0.0
  0
LINE
  5
2BEB
330
1E
100
AcDbEntity
  8
7
100
AcDbLine
 10
5.614173228346456
 20
8.520669291338581
 30
0.0
 11
5.622047244094487
 21
8.51771653543307
 31
0.0
  0
LINE
  5
2BEC
330
1E
100
AcDbEntity
  8
7
100
AcDbLine
 10
5.622047244094487
 20
8.51771653543307
 30
0.0
 11
5.625
 21
8.510826771653542
 31
0.0
  0
LINE
  5
2BED
330
1E
100
AcDbEntity
  8
7
100
AcDbLine
 10
5.624015748031495
 20
8.509842519685038
 30
0.0
 11
5.621062992125984
 21
8.516732283464566
 31
0.0
  0
LINE
  5
2BEE
330
1E
100
AcDbEntity
  8
7
100
AcDbLine
 10
5.621062992125984
 20
8.516732283464566
 30
0.0
 11
5.613188976377952
 21
8.519685039370077
 31
0.0
  0
LINE
  5
2BEF
330
1E
100
AcDbEntity
  8
7
100
AcDbLine
 10
5.613188976377952
 20
8.16043307086614
 30
0.0
 11
5.621062992125984
 21
8.163385826771653
 31
0.0
  0
LINE
  5
2BF0
330
1E
100
AcDbEntity
  8
7
100
AcDbLine
 10
5.621062992125984
 20
8.163385826771653
 30
0.0
 11
5.624015748031495
 21
8.170275590551181
 31
0.0
  0
LINE
  5
2BF1
330
1E
100
AcDbEntity
  8
7
100
AcDbLine
 10
3.949803149606299
 20
8.527559055118109
 30
0.0
 11
3.970472440944881
 21
8.543307086614172
 31
0.0
  0
LINE
  5
2BF2
330
1E
100
AcDbEntity
  8
7
100
AcDbLine
 10
3.970472440944881
 20
8.543307086614172
 30
0.0
 11
3.994094488188975
 21
8.553149606299212
 31
0.0
  0
LINE
  5
2BF3
330
1E
100
AcDbEntity
  8
7
100
AcDbLine
 10
3.994094488188975
 20
8.553149606299212
 30
0.0
 11
4.019685039370078
 21
8.557086614173227
 31
0.0
  0
LINE
  5
2BF4
330
1E
100
AcDbEntity
  8
7
100
AcDbLine
 10
3.92027559055118
 20
8.456692913385825
 30
0.0
 11
3.923228346456692
 21
8.483267716535433
 31
0.0
  0
LINE
  5
2BF5
330
1E
100
AcDbEntity
  8
7
100
AcDbLine
 10
3.923228346456692
 20
8.483267716535433
 30
0.0
 11
3.933070866141732
 21
8.506889763779527
 31
0.0
  0
LINE
  5
2BF6
330
1E
100
AcDbEntity
  8
7
100
AcDbLine
 10
3.933070866141732
 20
8.506889763779527
 30
0.0
 11
3.949803149606299
 21
8.527559055118109
 31
0.0
  0
LINE
  5
2BF7
330
1E
100
AcDbEntity
  8
7
100
AcDbLine
 10
4.000984251968503
 20
8.521653543307087
 30
0.0
 11
3.981299212598425
 21
8.511811023622046
 31
0.0
  0
LINE
  5
2BF8
330
1E
100
AcDbEntity
  8
7
100
AcDbLine
 10
3.981299212598425
 20
8.511811023622046
 30
0.0
 11
3.965551181102362
 21
8.496062992125983
 31
0.0
  0
LINE
  5
2BF9
330
1E
100
AcDbEntity
  8
7
100
AcDbLine
 10
3.965551181102362
 20
8.496062992125983
 30
0.0
 11
3.955708661417322
 21
8.476377952755905
 31
0.0
  0
LINE
  5
2BFA
330
1E
100
AcDbEntity
  8
7
100
AcDbLine
 10
3.955708661417322
 20
8.476377952755905
 30
0.0
 11
3.952755905511811
 21
8.454724409448818
 31
0.0
  0
LINE
  5
2BFB
330
1E
100
AcDbEntity
  8
7
100
AcDbLine
 10
3.952755905511811
 20
8.454724409448818
 30
0.0
 11
3.931102362204724
 21
8.454724409448818
 31
0.0
  0
LINE
  5
2BFC
330
1E
100
AcDbEntity
  8
7
100
AcDbLine
 10
3.931102362204724
 20
8.454724409448818
 30
0.0
 11
3.922244094488188
 21
8.454724409448818
 31
0.0
  0
LINE
  5
2BFD
330
1E
100
AcDbEntity
  8
7
100
AcDbLine
 10
3.922244094488188
 20
8.454724409448818
 30
0.0
 11
3.926181102362204
 21
8.48031496062992
 31
0.0
  0
LINE
  5
2BFE
330
1E
100
AcDbEntity
  8
7
100
AcDbLine
 10
3.926181102362204
 20
8.48031496062992
 30
0.0
 11
3.936023622047243
 21
8.504921259842518
 31
0.0
  0
LINE
  5
2BFF
330
1E
100
AcDbEntity
  8
7
100
AcDbLine
 10
3.936023622047243
 20
8.504921259842518
 30
0.0
 11
3.951771653543306
 21
8.525590551181101
 31
0.0
  0
LINE
  5
2C00
330
1E
100
AcDbEntity
  8
7
100
AcDbLine
 10
3.951771653543306
 20
8.525590551181101
 30
0.0
 11
3.972440944881889
 21
8.541338582677164
 31
0.0
  0
LINE
  5
2C01
330
1E
100
AcDbEntity
  8
7
100
AcDbLine
 10
3.972440944881889
 20
8.541338582677164
 30
0.0
 11
3.996062992125984
 21
8.551181102362203
 31
0.0
  0
LINE
  5
2C02
330
1E
100
AcDbEntity
  8
7
100
AcDbLine
 10
3.996062992125984
 20
8.551181102362203
 30
0.0
 11
4.022637795275589
 21
8.55511811023622
 31
0.0
  0
LINE
  5
2C03
330
1E
100
AcDbEntity
  8
7
100
AcDbLine
 10
4.185039370078739
 20
8.509842519685038
 30
0.0
 11
4.188976377952755
 21
8.516732283464566
 31
0.0
  0
LINE
  5
2C04
330
1E
100
AcDbEntity
  8
7
100
AcDbLine
 10
4.188976377952755
 20
8.516732283464566
 30
0.0
 11
4.195866141732283
 21
8.519685039370077
 31
0.0
  0
LINE
  5
2C05
330
1E
100
AcDbEntity
  8
7
100
AcDbLine
 10
4.195866141732283
 20
8.519685039370077
 30
0.0
 11
4.194881889763779
 21
8.520669291338581
 31
0.0
  0
LINE
  5
2C06
330
1E
100
AcDbEntity
  8
7
100
AcDbLine
 10
4.194881889763779
 20
8.520669291338581
 30
0.0
 11
4.187992125984251
 21
8.51771653543307
 31
0.0
  0
LINE
  5
2C07
330
1E
100
AcDbEntity
  8
7
100
AcDbLine
 10
4.187992125984251
 20
8.51771653543307
 30
0.0
 11
4.185039370078739
 21
8.510826771653542
 31
0.0
  0
LINE
  5
2C08
330
1E
100
AcDbEntity
  8
7
100
AcDbLine
 10
4.185039370078739
 20
8.510826771653542
 30
0.0
 11
4.185039370078739
 21
8.509842519685038
 31
0.0
  0
LINE
  5
2C09
330
1E
100
AcDbEntity
  8
7
100
AcDbLine
 10
4.187992125984251
 20
8.162401574803149
 30
0.0
 11
4.194881889763779
 21
8.159448818897637
 31
0.0
  0
LINE
  5
2C0A
330
1E
100
AcDbEntity
  8
7
100
AcDbLine
 10
4.194881889763779
 20
8.159448818897637
 30
0.0
 11
4.195866141732283
 21
8.16043307086614
 31
0.0
  0
LINE
  5
2C0B
330
1E
100
AcDbEntity
  8
7
100
AcDbLine
 10
4.195866141732283
 20
8.16043307086614
 30
0.0
 11
4.188976377952755
 21
8.163385826771653
 31
0.0
  0
LINE
  5
2C0C
330
1E
100
AcDbEntity
  8
7
100
AcDbLine
 10
4.188976377952755
 20
8.163385826771653
 30
0.0
 11
4.185039370078739
 21
8.170275590551181
 31
0.0
  0
LINE
  5
2C0D
330
1E
100
AcDbEntity
  8
7
100
AcDbLine
 10
4.185039370078739
 20
8.170275590551181
 30
0.0
 11
4.185039370078739
 21
8.169291338582675
 31
0.0
  0
LINE
  5
2C0E
330
1E
100
AcDbEntity
  8
7
100
AcDbLine
 10
4.185039370078739
 20
8.169291338582675
 30
0.0
 11
4.187992125984251
 21
8.162401574803149
 31
0.0
  0
LINE
  5
2C0F
330
1E
100
AcDbEntity
  8
7
100
AcDbLine
 10
4.936023622047243
 20
8.455708661417322
 30
0.0
 11
4.904527559055117
 21
8.459645669291338
 31
0.0
  0
LINE
  5
2C10
330
1E
100
AcDbEntity
  8
7
100
AcDbLine
 10
4.904527559055117
 20
8.459645669291338
 30
0.0
 11
4.873031496062991
 21
8.455708661417322
 31
0.0
  0
LINE
  5
2C11
330
1E
100
AcDbEntity
  8
7
100
AcDbLine
 10
4.873031496062991
 20
8.455708661417322
 30
0.0
 11
4.844488188976377
 21
8.443897637795275
 31
0.0
  0
LINE
  5
2C12
330
1E
100
AcDbEntity
  8
7
100
AcDbLine
 10
4.844488188976377
 20
8.443897637795275
 30
0.0
 11
4.819881889763779
 21
8.424212598425196
 31
0.0
  0
LINE
  5
2C13
330
1E
100
AcDbEntity
  8
7
100
AcDbLine
 10
4.819881889763779
 20
8.424212598425196
 30
0.0
 11
4.8001968503937
 21
8.399606299212598
 31
0.0
  0
LINE
  5
2C14
330
1E
100
AcDbEntity
  8
7
100
AcDbLine
 10
4.8001968503937
 20
8.399606299212598
 30
0.0
 11
4.788385826771652
 21
8.371062992125983
 31
0.0
  0
LINE
  5
2C15
330
1E
100
AcDbEntity
  8
7
100
AcDbLine
 10
4.788385826771652
 20
8.371062992125983
 30
0.0
 11
4.784448818897637
 21
8.339566929133857
 31
0.0
  0
LINE
  5
2C16
330
1E
100
AcDbEntity
  8
7
100
AcDbLine
 10
4.8001968503937
 20
8.279527559055118
 30
0.0
 11
4.819881889763779
 21
8.254921259842518
 31
0.0
  0
LINE
  5
2C17
330
1E
100
AcDbEntity
  8
7
100
AcDbLine
 10
4.819881889763779
 20
8.254921259842518
 30
0.0
 11
4.844488188976377
 21
8.23523622047244
 31
0.0
  0
LINE
  5
2C18
330
1E
100
AcDbEntity
  8
7
100
AcDbLine
 10
4.844488188976377
 20
8.23523622047244
 30
0.0
 11
4.873031496062991
 21
8.223425196850392
 31
0.0
  0
LINE
  5
2C19
330
1E
100
AcDbEntity
  8
7
100
AcDbLine
 10
4.873031496062991
 20
8.223425196850392
 30
0.0
 11
4.904527559055117
 21
8.219488188976377
 31
0.0
  0
LINE
  5
2C1A
330
1E
100
AcDbEntity
  8
7
100
AcDbLine
 10
4.904527559055117
 20
8.219488188976377
 30
0.0
 11
4.936023622047243
 21
8.223425196850392
 31
0.0
  0
LINE
  5
2C1B
330
1E
100
AcDbEntity
  8
7
100
AcDbLine
 10
4.936023622047243
 20
8.223425196850392
 30
0.0
 11
4.964566929133858
 21
8.23523622047244
 31
0.0
  0
LINE
  5
2C1C
330
1E
100
AcDbEntity
  8
7
100
AcDbLine
 10
4.964566929133858
 20
8.23523622047244
 30
0.0
 11
4.989173228346456
 21
8.254921259842518
 31
0.0
  0
LINE
  5
2C1D
330
1E
100
AcDbEntity
  8
7
100
AcDbLine
 10
4.989173228346456
 20
8.254921259842518
 30
0.0
 11
5.008858267716535
 21
8.279527559055118
 31
0.0
  0
LINE
  5
2C1E
330
1E
100
AcDbEntity
  8
7
100
AcDbLine
 10
5.008858267716535
 20
8.279527559055118
 30
0.0
 11
5.020669291338582
 21
8.308070866141731
 31
0.0
  0
LINE
  5
2C1F
330
1E
100
AcDbEntity
  8
7
100
AcDbLine
 10
5.020669291338582
 20
8.308070866141731
 30
0.0
 11
5.024606299212598
 21
8.339566929133857
 31
0.0
  0
LINE
  5
2C20
330
1E
100
AcDbEntity
  8
7
100
AcDbLine
 10
5.024606299212598
 20
8.339566929133857
 30
0.0
 11
5.020669291338582
 21
8.371062992125983
 31
0.0
  0
LINE
  5
2C21
330
1E
100
AcDbEntity
  8
7
100
AcDbLine
 10
5.020669291338582
 20
8.371062992125983
 30
0.0
 11
5.008858267716535
 21
8.399606299212598
 31
0.0
  0
LINE
  5
2C22
330
1E
100
AcDbEntity
  8
7
100
AcDbLine
 10
5.008858267716535
 20
8.399606299212598
 30
0.0
 11
4.989173228346456
 21
8.424212598425196
 31
0.0
  0
LINE
  5
2C23
330
1E
100
AcDbEntity
  8
7
100
AcDbLine
 10
4.989173228346456
 20
8.424212598425196
 30
0.0
 11
4.964566929133858
 21
8.443897637795275
 31
0.0
  0
LINE
  5
2C24
330
1E
100
AcDbEntity
  8
7
100
AcDbLine
 10
4.964566929133858
 20
8.443897637795275
 30
0.0
 11
4.936023622047243
 21
8.455708661417322
 31
0.0
  0
LINE
  5
2C25
330
1E
100
AcDbEntity
  8
7
100
AcDbLine
 10
4.784448818897637
 20
8.339566929133857
 30
0.0
 11
4.788385826771652
 21
8.308070866141731
 31
0.0
  0
LINE
  5
2C26
330
1E
100
AcDbEntity
  8
7
100
AcDbLine
 10
4.788385826771652
 20
8.308070866141731
 30
0.0
 11
4.8001968503937
 21
8.279527559055118
 31
0.0
  0
LINE
  5
2C27
330
1E
100
AcDbEntity
  8
7
100
AcDbLine
 10
4.829724409448818
 20
8.352362204724409
 30
0.0
 11
4.829724409448818
 21
8.326771653543307
 31
0.0
  0
LINE
  5
2C28
330
1E
100
AcDbEntity
  8
7
100
AcDbLine
 10
4.829724409448818
 20
8.326771653543307
 30
0.0
 11
4.83759842519685
 21
8.303149606299212
 31
0.0
  0
LINE
  5
2C29
330
1E
100
AcDbEntity
  8
7
100
AcDbLine
 10
4.83759842519685
 20
8.303149606299212
 30
0.0
 11
4.853346456692912
 21
8.283464566929133
 31
0.0
  0
LINE
  5
2C2A
330
1E
100
AcDbEntity
  8
7
100
AcDbLine
 10
4.853346456692912
 20
8.283464566929133
 30
0.0
 11
4.874015748031495
 21
8.269685039370077
 31
0.0
  0
LINE
  5
2C2B
330
1E
100
AcDbEntity
  8
7
100
AcDbLine
 10
4.874015748031495
 20
8.269685039370077
 30
0.0
 11
4.898622047244094
 21
8.263779527559055
 31
0.0
  0
LINE
  5
2C2C
330
1E
100
AcDbEntity
  8
7
100
AcDbLine
 10
4.898622047244094
 20
8.263779527559055
 30
0.0
 11
4.923228346456692
 21
8.265748031496062
 31
0.0
  0
LINE
  5
2C2D
330
1E
100
AcDbEntity
  8
7
100
AcDbLine
 10
4.923228346456692
 20
8.265748031496062
 30
0.0
 11
4.945866141732283
 21
8.276574803149605
 31
0.0
  0
LINE
  5
2C2E
330
1E
100
AcDbEntity
  8
7
100
AcDbLine
 10
4.945866141732283
 20
8.276574803149605
 30
0.0
 11
4.964566929133858
 21
8.293307086614172
 31
0.0
  0
LINE
  5
2C2F
330
1E
100
AcDbEntity
  8
7
100
AcDbLine
 10
4.964566929133858
 20
8.293307086614172
 30
0.0
 11
4.976377952755905
 21
8.314960629921259
 31
0.0
  0
LINE
  5
2C30
330
1E
100
AcDbEntity
  8
7
100
AcDbLine
 10
4.976377952755905
 20
8.314960629921259
 30
0.0
 11
4.980314960629921
 21
8.339566929133857
 31
0.0
  0
LINE
  5
2C31
330
1E
100
AcDbEntity
  8
7
100
AcDbLine
 10
4.980314960629921
 20
8.339566929133857
 30
0.0
 11
4.976377952755905
 21
8.364173228346455
 31
0.0
  0
LINE
  5
2C32
330
1E
100
AcDbEntity
  8
7
100
AcDbLine
 10
4.976377952755905
 20
8.364173228346455
 30
0.0
 11
4.964566929133858
 21
8.385826771653542
 31
0.0
  0
LINE
  5
2C33
330
1E
100
AcDbEntity
  8
7
100
AcDbLine
 10
4.964566929133858
 20
8.385826771653542
 30
0.0
 11
4.945866141732283
 21
8.402559055118109
 31
0.0
  0
LINE
  5
2C34
330
1E
100
AcDbEntity
  8
7
100
AcDbLine
 10
4.945866141732283
 20
8.402559055118109
 30
0.0
 11
4.923228346456692
 21
8.413385826771653
 31
0.0
  0
LINE
  5
2C35
330
1E
100
AcDbEntity
  8
7
100
AcDbLine
 10
4.923228346456692
 20
8.413385826771653
 30
0.0
 11
4.898622047244094
 21
8.415354330708661
 31
0.0
  0
LINE
  5
2C36
330
1E
100
AcDbEntity
  8
7
100
AcDbLine
 10
4.898622047244094
 20
8.415354330708661
 30
0.0
 11
4.874015748031495
 21
8.409448818897637
 31
0.0
  0
LINE
  5
2C37
330
1E
100
AcDbEntity
  8
7
100
AcDbLine
 10
4.874015748031495
 20
8.409448818897637
 30
0.0
 11
4.853346456692912
 21
8.395669291338581
 31
0.0
  0
LINE
  5
2C38
330
1E
100
AcDbEntity
  8
7
100
AcDbLine
 10
4.853346456692912
 20
8.395669291338581
 30
0.0
 11
4.83759842519685
 21
8.375984251968503
 31
0.0
  0
LINE
  5
2C39
330
1E
100
AcDbEntity
  8
7
100
AcDbLine
 10
4.83759842519685
 20
8.375984251968503
 30
0.0
 11
4.829724409448818
 21
8.352362204724409
 31
0.0
  0
LINE
  5
2C3A
330
1E
100
AcDbEntity
  8
7
100
AcDbLine
 10
4.989173228346456
 20
8.254921259842518
 30
0.0
 11
5.007874015748031
 21
8.279527559055118
 31
0.0
  0
LINE
  5
2C3B
330
1E
100
AcDbEntity
  8
7
100
AcDbLine
 10
5.007874015748031
 20
8.279527559055118
 30
0.0
 11
5.019685039370078
 21
8.309055118110235
 31
0.0
  0
LINE
  5
2C3C
330
1E
100
AcDbEntity
  8
7
100
AcDbLine
 10
5.019685039370078
 20
8.309055118110235
 30
0.0
 11
5.023622047244094
 21
8.339566929133857
 31
0.0
  0
LINE
  5
2C3D
330
1E
100
AcDbEntity
  8
7
100
AcDbLine
 10
4.874015748031495
 20
8.454724409448818
 30
0.0
 11
4.845472440944881
 21
8.44291338582677
 31
0.0
  0
LINE
  5
2C3E
330
1E
100
AcDbEntity
  8
7
100
AcDbLine
 10
4.845472440944881
 20
8.44291338582677
 30
0.0
 11
4.819881889763779
 21
8.424212598425196
 31
0.0
  0
LINE
  5
2C3F
330
1E
100
AcDbEntity
  8
7
100
AcDbLine
 10
4.819881889763779
 20
8.424212598425196
 30
0.0
 11
4.801181102362204
 21
8.399606299212598
 31
0.0
  0
LINE
  5
2C40
330
1E
100
AcDbEntity
  8
7
100
AcDbLine
 10
4.801181102362204
 20
8.399606299212598
 30
0.0
 11
4.789370078740157
 21
8.370078740157479
 31
0.0
  0
LINE
  5
2C41
330
1E
100
AcDbEntity
  8
7
100
AcDbLine
 10
4.789370078740157
 20
8.370078740157479
 30
0.0
 11
4.785433070866141
 21
8.339566929133857
 31
0.0
  0
LINE
  5
2C42
330
1E
100
AcDbEntity
  8
7
100
AcDbLine
 10
4.785433070866141
 20
8.339566929133857
 30
0.0
 11
4.789370078740157
 21
8.309055118110235
 31
0.0
  0
LINE
  5
2C43
330
1E
100
AcDbEntity
  8
7
100
AcDbLine
 10
4.789370078740157
 20
8.309055118110235
 30
0.0
 11
4.801181102362204
 21
8.280511811023622
 31
0.0
  0
LINE
  5
2C44
330
1E
100
AcDbEntity
  8
7
100
AcDbLine
 10
4.801181102362204
 20
8.280511811023622
 30
0.0
 11
4.819881889763779
 21
8.254921259842518
 31
0.0
  0
LINE
  5
2C45
330
1E
100
AcDbEntity
  8
7
100
AcDbLine
 10
4.819881889763779
 20
8.254921259842518
 30
0.0
 11
4.844488188976377
 21
8.236220472440944
 31
0.0
  0
LINE
  5
2C46
330
1E
100
AcDbEntity
  8
7
100
AcDbLine
 10
4.844488188976377
 20
8.236220472440944
 30
0.0
 11
4.874015748031495
 21
8.224409448818898
 31
0.0
  0
LINE
  5
2C47
330
1E
100
AcDbEntity
  8
7
100
AcDbLine
 10
4.874015748031495
 20
8.224409448818898
 30
0.0
 11
4.904527559055117
 21
8.220472440944881
 31
0.0
  0
LINE
  5
2C48
330
1E
100
AcDbEntity
  8
7
100
AcDbLine
 10
4.904527559055117
 20
8.220472440944881
 30
0.0
 11
4.935039370078739
 21
8.224409448818898
 31
0.0
  0
LINE
  5
2C49
330
1E
100
AcDbEntity
  8
7
100
AcDbLine
 10
4.935039370078739
 20
8.224409448818898
 30
0.0
 11
4.963582677165353
 21
8.236220472440944
 31
0.0
  0
LINE
  5
2C4A
330
1E
100
AcDbEntity
  8
7
100
AcDbLine
 10
4.963582677165353
 20
8.236220472440944
 30
0.0
 11
4.989173228346456
 21
8.254921259842518
 31
0.0
  0
LINE
  5
2C4B
330
1E
100
AcDbEntity
  8
7
100
AcDbLine
 10
5.023622047244094
 20
8.339566929133857
 30
0.0
 11
5.019685039370078
 21
8.370078740157479
 31
0.0
  0
LINE
  5
2C4C
330
1E
100
AcDbEntity
  8
7
100
AcDbLine
 10
5.019685039370078
 20
8.370078740157479
 30
0.0
 11
5.007874015748031
 21
8.398622047244094
 31
0.0
  0
LINE
  5
2C4D
330
1E
100
AcDbEntity
  8
7
100
AcDbLine
 10
5.007874015748031
 20
8.398622047244094
 30
0.0
 11
4.989173228346456
 21
8.424212598425196
 31
0.0
  0
LINE
  5
2C4E
330
1E
100
AcDbEntity
  8
7
100
AcDbLine
 10
4.989173228346456
 20
8.424212598425196
 30
0.0
 11
4.964566929133858
 21
8.44291338582677
 31
0.0
  0
LINE
  5
2C4F
330
1E
100
AcDbEntity
  8
7
100
AcDbLine
 10
4.964566929133858
 20
8.44291338582677
 30
0.0
 11
4.935039370078739
 21
8.454724409448818
 31
0.0
  0
LINE
  5
2C50
330
1E
100
AcDbEntity
  8
7
100
AcDbLine
 10
4.935039370078739
 20
8.454724409448818
 30
0.0
 11
4.904527559055117
 21
8.458661417322835
 31
0.0
  0
LINE
  5
2C51
330
1E
100
AcDbEntity
  8
7
100
AcDbLine
 10
4.904527559055117
 20
8.458661417322835
 30
0.0
 11
4.874015748031495
 21
8.454724409448818
 31
0.0
  0
LINE
  5
2C52
330
1E
100
AcDbEntity
  8
7
100
AcDbLine
 10
4.884842519685038
 20
8.417322834645668
 30
0.0
 11
4.86023622047244
 21
8.407480314960629
 31
0.0
  0
LINE
  5
2C53
330
1E
100
AcDbEntity
  8
7
100
AcDbLine
 10
4.86023622047244
 20
8.407480314960629
 30
0.0
 11
4.840551181102362
 21
8.388779527559055
 31
0.0
  0
LINE
  5
2C54
330
1E
100
AcDbEntity
  8
7
100
AcDbLine
 10
4.840551181102362
 20
8.388779527559055
 30
0.0
 11
4.827755905511811
 21
8.366141732283464
 31
0.0
  0
LINE
  5
2C55
330
1E
100
AcDbEntity
  8
7
100
AcDbLine
 10
4.827755905511811
 20
8.366141732283464
 30
0.0
 11
4.823818897637795
 21
8.339566929133857
 31
0.0
  0
LINE
  5
2C56
330
1E
100
AcDbEntity
  8
7
100
AcDbLine
 10
4.823818897637795
 20
8.339566929133857
 30
0.0
 11
4.827755905511811
 21
8.312992125984251
 31
0.0
  0
LINE
  5
2C57
330
1E
100
AcDbEntity
  8
7
100
AcDbLine
 10
4.827755905511811
 20
8.312992125984251
 30
0.0
 11
4.840551181102362
 21
8.290354330708661
 31
0.0
  0
LINE
  5
2C58
330
1E
100
AcDbEntity
  8
7
100
AcDbLine
 10
4.840551181102362
 20
8.290354330708661
 30
0.0
 11
4.86023622047244
 21
8.271653543307087
 31
0.0
  0
LINE
  5
2C59
330
1E
100
AcDbEntity
  8
7
100
AcDbLine
 10
4.86023622047244
 20
8.271653543307087
 30
0.0
 11
4.884842519685038
 21
8.261811023622046
 31
0.0
  0
LINE
  5
2C5A
330
1E
100
AcDbEntity
  8
7
100
AcDbLine
 10
4.884842519685038
 20
8.261811023622046
 30
0.0
 11
4.911417322834645
 21
8.258858267716535
 31
0.0
  0
LINE
  5
2C5B
330
1E
100
AcDbEntity
  8
7
100
AcDbLine
 10
4.911417322834645
 20
8.258858267716535
 30
0.0
 11
4.937007874015747
 21
8.265748031496062
 31
0.0
  0
LINE
  5
2C5C
330
1E
100
AcDbEntity
  8
7
100
AcDbLine
 10
4.937007874015747
 20
8.265748031496062
 30
0.0
 11
4.959645669291337
 21
8.280511811023622
 31
0.0
  0
LINE
  5
2C5D
330
1E
100
AcDbEntity
  8
7
100
AcDbLine
 10
4.959645669291337
 20
8.280511811023622
 30
0.0
 11
4.9753937007874
 21
8.301181102362203
 31
0.0
  0
LINE
  5
2C5E
330
1E
100
AcDbEntity
  8
7
100
AcDbLine
 10
4.9753937007874
 20
8.301181102362203
 30
0.0
 11
4.984251968503937
 21
8.326771653543307
 31
0.0
  0
LINE
  5
2C5F
330
1E
100
AcDbEntity
  8
7
100
AcDbLine
 10
4.984251968503937
 20
8.326771653543307
 30
0.0
 11
4.984251968503937
 21
8.352362204724409
 31
0.0
  0
LINE
  5
2C60
330
1E
100
AcDbEntity
  8
7
100
AcDbLine
 10
4.984251968503937
 20
8.352362204724409
 30
0.0
 11
4.9753937007874
 21
8.377952755905511
 31
0.0
  0
LINE
  5
2C61
330
1E
100
AcDbEntity
  8
7
100
AcDbLine
 10
4.9753937007874
 20
8.377952755905511
 30
0.0
 11
4.959645669291337
 21
8.398622047244094
 31
0.0
  0
LINE
  5
2C62
330
1E
100
AcDbEntity
  8
7
100
AcDbLine
 10
4.959645669291337
 20
8.398622047244094
 30
0.0
 11
4.937007874015747
 21
8.413385826771653
 31
0.0
  0
LINE
  5
2C63
330
1E
100
AcDbEntity
  8
7
100
AcDbLine
 10
4.937007874015747
 20
8.413385826771653
 30
0.0
 11
4.911417322834645
 21
8.420275590551181
 31
0.0
  0
LINE
  5
2C64
330
1E
100
AcDbEntity
  8
7
100
AcDbLine
 10
4.911417322834645
 20
8.420275590551181
 30
0.0
 11
4.884842519685038
 21
8.417322834645668
 31
0.0
  0
LINE
  5
2C65
330
1E
100
AcDbEntity
  8
7
100
AcDbLine
 10
5.683070866141731
 20
8.056102362204724
 30
0.0
 11
5.688976377952755
 21
8.054133858267716
 31
0.0
  0
LINE
  5
2C66
330
1E
100
AcDbEntity
  8
7
100
AcDbLine
 10
5.688976377952755
 20
8.054133858267716
 30
0.0
 11
5.690944881889762
 21
8.048228346456692
 31
0.0
  0
LINE
  5
2C67
330
1E
100
AcDbEntity
  8
7
100
AcDbLine
 10
5.690944881889762
 20
8.048228346456692
 30
0.0
 11
5.693897637795275
 21
8.051181102362203
 31
0.0
  0
LINE
  5
2C68
330
1E
100
AcDbEntity
  8
7
100
AcDbLine
 10
5.693897637795275
 20
8.051181102362203
 30
0.0
 11
5.691929133858267
 21
8.057086614173227
 31
0.0
  0
LINE
  5
2C69
330
1E
100
AcDbEntity
  8
7
100
AcDbLine
 10
5.691929133858267
 20
8.057086614173227
 30
0.0
 11
5.686023622047243
 21
8.059055118110235
 31
0.0
  0
LINE
  5
2C6A
330
1E
100
AcDbEntity
  8
7
100
AcDbLine
 10
4.181102362204724
 20
8.053149606299212
 30
0.0
 11
5.627952755905511
 21
8.053149606299212
 31
0.0
  0
LINE
  5
2C6B
330
1E
100
AcDbEntity
  8
7
100
AcDbLine
 10
5.627952755905511
 20
8.053149606299212
 30
0.0
 11
5.630905511811023
 21
8.056102362204724
 31
0.0
  0
LINE
  5
2C6C
330
1E
100
AcDbEntity
  8
7
100
AcDbLine
 10
4.11515748031496
 20
8.051181102362203
 30
0.0
 11
4.117125984251968
 21
8.057086614173227
 31
0.0
  0
LINE
  5
2C6D
330
1E
100
AcDbEntity
  8
7
100
AcDbLine
 10
4.117125984251968
 20
8.057086614173227
 30
0.0
 11
4.123031496062991
 21
8.059055118110235
 31
0.0
  0
LINE
  5
2C6E
330
1E
100
AcDbEntity
  8
7
100
AcDbLine
 10
4.125984251968503
 20
8.056102362204724
 30
0.0
 11
4.121062992125984
 21
8.054133858267716
 31
0.0
  0
LINE
  5
2C6F
330
1E
100
AcDbEntity
  8
7
100
AcDbLine
 10
4.121062992125984
 20
8.054133858267716
 30
0.0
 11
4.118110236220472
 21
8.048228346456692
 31
0.0
  0
LINE
  5
2C70
330
1E
100
AcDbEntity
  8
7
100
AcDbLine
 10
5.787401574803149
 20
6.590551181102362
 30
0.0
 11
5.789370078740157
 21
6.58759842519685
 31
0.0
  0
LINE
  5
2C71
330
1E
100
AcDbEntity
  8
7
100
AcDbLine
 10
5.789370078740157
 20
6.58759842519685
 30
0.0
 11
5.814960629921259
 21
6.591535433070865
 31
0.0
  0
LINE
  5
2C72
330
1E
100
AcDbEntity
  8
7
100
AcDbLine
 10
5.814960629921259
 20
6.591535433070865
 30
0.0
 11
5.839566929133858
 21
6.601377952755905
 31
0.0
  0
LINE
  5
2C73
330
1E
100
AcDbEntity
  8
7
100
AcDbLine
 10
5.839566929133858
 20
6.601377952755905
 30
0.0
 11
5.86023622047244
 21
6.617125984251968
 31
0.0
  0
LINE
  5
2C74
330
1E
100
AcDbEntity
  8
7
100
AcDbLine
 10
5.86023622047244
 20
6.617125984251968
 30
0.0
 11
5.875984251968503
 21
6.63779527559055
 31
0.0
  0
LINE
  5
2C75
330
1E
100
AcDbEntity
  8
7
100
AcDbLine
 10
5.875984251968503
 20
6.63779527559055
 30
0.0
 11
5.885826771653542
 21
6.662401574803149
 31
0.0
  0
LINE
  5
2C76
330
1E
100
AcDbEntity
  8
7
100
AcDbLine
 10
5.885826771653542
 20
6.662401574803149
 30
0.0
 11
5.888779527559054
 21
6.687992125984251
 31
0.0
  0
LINE
  5
2C77
330
1E
100
AcDbEntity
  8
7
100
AcDbLine
 10
5.753937007874015
 20
7.463582677165353
 30
0.0
 11
5.751968503937007
 21
7.469488188976377
 31
0.0
  0
LINE
  5
2C78
330
1E
100
AcDbEntity
  8
7
100
AcDbLine
 10
5.751968503937007
 20
7.469488188976377
 30
0.0
 11
5.746062992125984
 21
7.472440944881888
 31
0.0
  0
LINE
  5
2C79
330
1E
100
AcDbEntity
  8
7
100
AcDbLine
 10
5.746062992125984
 20
7.472440944881888
 30
0.0
 11
5.743110236220472
 21
7.468503937007874
 31
0.0
  0
LINE
  5
2C7A
330
1E
100
AcDbEntity
  8
7
100
AcDbLine
 10
5.743110236220472
 20
7.468503937007874
 30
0.0
 11
5.749015748031495
 21
7.466535433070866
 31
0.0
  0
LINE
  5
2C7B
330
1E
100
AcDbEntity
  8
7
100
AcDbLine
 10
5.749015748031495
 20
7.466535433070866
 30
0.0
 11
5.750984251968503
 21
7.460629921259842
 31
0.0
  0
LINE
  5
2C7C
330
1E
100
AcDbEntity
  8
7
100
AcDbLine
 10
5.750984251968503
 20
7.308070866141731
 30
0.0
 11
5.749015748031495
 21
7.302165354330707
 31
0.0
  0
LINE
  5
2C7D
330
1E
100
AcDbEntity
  8
7
100
AcDbLine
 10
5.749015748031495
 20
7.302165354330707
 30
0.0
 11
5.743110236220472
 21
7.3001968503937
 31
0.0
  0
LINE
  5
2C7E
330
1E
100
AcDbEntity
  8
7
100
AcDbLine
 10
5.743110236220472
 20
7.3001968503937
 30
0.0
 11
5.746062992125984
 21
7.297244094488188
 31
0.0
  0
LINE
  5
2C7F
330
1E
100
AcDbEntity
  8
7
100
AcDbLine
 10
5.746062992125984
 20
7.297244094488188
 30
0.0
 11
5.751968503937007
 21
7.299212598425196
 31
0.0
  0
LINE
  5
2C80
330
1E
100
AcDbEntity
  8
7
100
AcDbLine
 10
5.751968503937007
 20
7.299212598425196
 30
0.0
 11
5.753937007874015
 21
7.30511811023622
 31
0.0
  0
LINE
  5
2C81
330
1E
100
AcDbEntity
  8
7
100
AcDbLine
 10
5.812992125984251
 20
6.593503937007874
 30
0.0
 11
5.836614173228346
 21
6.603346456692912
 31
0.0
  0
LINE
  5
2C82
330
1E
100
AcDbEntity
  8
7
100
AcDbLine
 10
5.836614173228346
 20
6.603346456692912
 30
0.0
 11
5.857283464566928
 21
6.619094488188975
 31
0.0
  0
LINE
  5
2C83
330
1E
100
AcDbEntity
  8
7
100
AcDbLine
 10
5.857283464566928
 20
6.619094488188975
 30
0.0
 11
5.873031496062991
 21
6.639763779527558
 31
0.0
  0
LINE
  5
2C84
330
1E
100
AcDbEntity
  8
7
100
AcDbLine
 10
5.873031496062991
 20
6.639763779527558
 30
0.0
 11
5.883858267716535
 21
6.664370078740157
 31
0.0
  0
LINE
  5
2C85
330
1E
100
AcDbEntity
  8
7
100
AcDbLine
 10
5.883858267716535
 20
6.664370078740157
 30
0.0
 11
5.886811023622047
 21
6.689960629921259
 31
0.0
  0
LINE
  5
2C86
330
1E
100
AcDbEntity
  8
7
100
AcDbLine
 10
5.787401574803149
 20
6.590551181102362
 30
0.0
 11
5.787401574803149
 21
6.599409448818897
 31
0.0
  0
LINE
  5
2C87
330
1E
100
AcDbEntity
  8
7
100
AcDbLine
 10
5.787401574803149
 20
6.599409448818897
 30
0.0
 11
5.787401574803149
 21
6.620078740157479
 31
0.0
  0
LINE
  5
2C88
330
1E
100
AcDbEntity
  8
7
100
AcDbLine
 10
5.857283464566928
 20
6.689960629921259
 30
0.0
 11
5.853346456692912
 21
6.668307086614173
 31
0.0
  0
LINE
  5
2C89
330
1E
100
AcDbEntity
  8
7
100
AcDbLine
 10
5.853346456692912
 20
6.668307086614173
 30
0.0
 11
5.843503937007874
 21
6.648622047244094
 31
0.0
  0
LINE
  5
2C8A
330
1E
100
AcDbEntity
  8
7
100
AcDbLine
 10
5.843503937007874
 20
6.648622047244094
 30
0.0
 11
5.827755905511811
 21
6.633858267716535
 31
0.0
  0
LINE
  5
2C8B
330
1E
100
AcDbEntity
  8
7
100
AcDbLine
 10
5.827755905511811
 20
6.633858267716535
 30
0.0
 11
5.809055118110236
 21
6.624015748031495
 31
0.0
  0
LINE
  5
2C8C
330
1E
100
AcDbEntity
  8
7
100
AcDbLine
 10
5.809055118110236
 20
6.624015748031495
 30
0.0
 11
5.787401574803149
 21
6.620078740157479
 31
0.0
  0
LINE
  5
2C8D
330
1E
100
AcDbEntity
  8
7
100
AcDbLine
 10
5.875984251968503
 20
8.506889763779527
 30
0.0
 11
5.86023622047244
 21
8.527559055118109
 31
0.0
  0
LINE
  5
2C8E
330
1E
100
AcDbEntity
  8
7
100
AcDbLine
 10
5.86023622047244
 20
8.527559055118109
 30
0.0
 11
5.839566929133858
 21
8.543307086614172
 31
0.0
  0
LINE
  5
2C8F
330
1E
100
AcDbEntity
  8
7
100
AcDbLine
 10
5.839566929133858
 20
8.543307086614172
 30
0.0
 11
5.814960629921259
 21
8.553149606299212
 31
0.0
  0
LINE
  5
2C90
330
1E
100
AcDbEntity
  8
7
100
AcDbLine
 10
5.814960629921259
 20
8.553149606299212
 30
0.0
 11
5.789370078740157
 21
8.557086614173227
 31
0.0
  0
LINE
  5
2C91
330
1E
100
AcDbEntity
  8
7
100
AcDbLine
 10
5.789370078740157
 20
8.557086614173227
 30
0.0
 11
5.787401574803149
 21
8.55511811023622
 31
0.0
  0
LINE
  5
2C92
330
1E
100
AcDbEntity
  8
7
100
AcDbLine
 10
5.888779527559054
 20
8.456692913385825
 30
0.0
 11
5.885826771653542
 21
8.483267716535433
 31
0.0
  0
LINE
  5
2C93
330
1E
100
AcDbEntity
  8
7
100
AcDbLine
 10
5.885826771653542
 20
8.483267716535433
 30
0.0
 11
5.875984251968503
 21
8.506889763779527
 31
0.0
  0
LINE
  5
2C94
330
1E
100
AcDbEntity
  8
7
100
AcDbLine
 10
5.857283464566928
 20
6.689960629921259
 30
0.0
 11
5.877952755905511
 21
6.689960629921259
 31
0.0
  0
LINE
  5
2C95
330
1E
100
AcDbEntity
  8
7
100
AcDbLine
 10
5.877952755905511
 20
6.689960629921259
 30
0.0
 11
5.886811023622047
 21
6.689960629921259
 31
0.0
  0
LINE
  5
2C96
330
1E
100
AcDbEntity
  8
7
100
AcDbLine
 10
5.853346456692912
 20
8.476377952755905
 30
0.0
 11
5.857283464566928
 21
8.454724409448818
 31
0.0
  0
LINE
  5
2C97
330
1E
100
AcDbEntity
  8
7
100
AcDbLine
 10
5.857283464566928
 20
8.454724409448818
 30
0.0
 11
5.877952755905511
 21
8.454724409448818
 31
0.0
  0
LINE
  5
2C98
330
1E
100
AcDbEntity
  8
7
100
AcDbLine
 10
5.877952755905511
 20
8.454724409448818
 30
0.0
 11
5.886811023622047
 21
8.454724409448818
 31
0.0
  0
LINE
  5
2C99
330
1E
100
AcDbEntity
  8
7
100
AcDbLine
 10
5.886811023622047
 20
8.454724409448818
 30
0.0
 11
5.883858267716535
 21
8.48031496062992
 31
0.0
  0
LINE
  5
2C9A
330
1E
100
AcDbEntity
  8
7
100
AcDbLine
 10
5.883858267716535
 20
8.48031496062992
 30
0.0
 11
5.873031496062991
 21
8.504921259842518
 31
0.0
  0
LINE
  5
2C9B
330
1E
100
AcDbEntity
  8
7
100
AcDbLine
 10
5.873031496062991
 20
8.504921259842518
 30
0.0
 11
5.857283464566928
 21
8.525590551181101
 31
0.0
  0
LINE
  5
2C9C
330
1E
100
AcDbEntity
  8
7
100
AcDbLine
 10
5.857283464566928
 20
8.525590551181101
 30
0.0
 11
5.836614173228346
 21
8.541338582677164
 31
0.0
  0
LINE
  5
2C9D
330
1E
100
AcDbEntity
  8
7
100
AcDbLine
 10
5.836614173228346
 20
8.541338582677164
 30
0.0
 11
5.812992125984251
 21
8.551181102362203
 31
0.0
  0
LINE
  5
2C9E
330
1E
100
AcDbEntity
  8
7
100
AcDbLine
 10
5.812992125984251
 20
8.551181102362203
 30
0.0
 11
5.787401574803149
 21
8.55511811023622
 31
0.0
  0
LINE
  5
2C9F
330
1E
100
AcDbEntity
  8
7
100
AcDbLine
 10
5.787401574803149
 20
8.524606299212598
 30
0.0
 11
5.809055118110236
 21
8.521653543307087
 31
0.0
  0
LINE
  5
2CA0
330
1E
100
AcDbEntity
  8
7
100
AcDbLine
 10
5.809055118110236
 20
8.521653543307087
 30
0.0
 11
5.827755905511811
 21
8.511811023622046
 31
0.0
  0
LINE
  5
2CA1
330
1E
100
AcDbEntity
  8
7
100
AcDbLine
 10
5.827755905511811
 20
8.511811023622046
 30
0.0
 11
5.843503937007874
 21
8.496062992125983
 31
0.0
  0
LINE
  5
2CA2
330
1E
100
AcDbEntity
  8
7
100
AcDbLine
 10
5.843503937007874
 20
8.496062992125983
 30
0.0
 11
5.853346456692912
 21
8.476377952755905
 31
0.0
  0
LINE
  5
2CA3
330
1E
100
AcDbEntity
  8
7
100
AcDbLine
 10
5.787401574803149
 20
8.524606299212598
 30
0.0
 11
5.787401574803149
 21
8.545275590551181
 31
0.0
  0
LINE
  5
2CA4
330
1E
100
AcDbEntity
  8
7
100
AcDbLine
 10
5.787401574803149
 20
8.545275590551181
 30
0.0
 11
5.787401574803149
 21
8.55511811023622
 31
0.0
  0
ENDSEC
  0
SECTION
  2
OBJECTS
  0
DICTIONARY
  5
C
330
0
100
AcDbDictionary
  3
ACAD_GROUP
350
D
  3
ACAD_LAYOUT
350
19
  3
ACAD_MLINESTYLE
350
16
  3
ACAD_PLOTSETTINGS
350
18
1001
ACAD
1000
TREAT_AS_HARD
1070
     0
  0
DICTIONARY
  5
2F12
330
1E
100
AcDbDictionary
  3
ACAD_LAYOUTSELFREF
350
2F4B
1001
ACAD
1000
TREAT_AS_HARD
1070
     1
  0
DICTIONARY
  5
2F14
330
1A
100
AcDbDictionary
  3
ACAD_LAYOUTSELFREF
350
2F4A
1001
ACAD
1000
TREAT_AS_HARD
1070
     1
  0
DICTIONARY
  5
D
102
{ACAD_REACTORS
330
C
102
}
330
C
100
AcDbDictionary
1001
ACAD
1000
TREAT_AS_HARD
1070
     0
  0
DICTIONARY
  5
19
102
{ACAD_REACTORS
330
C
102
}
330
C
100
AcDbDictionary
1001
ACAD
1000
TREAT_AS_HARD
1070
     0
  0
DICTIONARY
  5
16
102
{ACAD_REACTORS
330
C
102
}
330
C
100
AcDbDictionary
  3
STANDARD
350
17
1001
ACAD
1000
TREAT_AS_HARD
1070
     0
  0
DICTIONARY
  5
18
102
{ACAD_REACTORS
330
C
102
}
330
C
100
AcDbDictionary
1001
ACAD
1000
TREAT_AS_HARD
1070
     0
  0
XRECORD
  5
2F4B
102
{ACAD_REACTORS
330
2F12
102
}
330
2F12
100
AcDbXrecord
340
1E
  0
XRECORD
  5
2F4A
102
{ACAD_REACTORS
330
2F14
102
}
330
2F14
100
AcDbXrecord
340
1A
  0
MLINESTYLE
  5
17
102
{ACAD_REACTORS
330
16
102
}
330
16
100
AcDbMlineStyle
  2
STANDARD
 70
     0
  3

 62
   256
 51
90.0
 52
90.0
 71
     2
 49
0.5
 62
   256
  6
BYLAYER
 49
-0.5
 62
   256
  6
BYLAYER
  0
ENDSEC
  0
EOF
