  0
SECTION
  2
HEADER
  9
$ACADVER
  1
AC1014
  9
$ACADMAINTVER
 70
           0
  9
$DWGCODEPAGE
  3
ANSI_1252
  9
$INSBASE
 10
0.0
 20
0.0
 30
0.0
  9
$EXTMIN
 10
2.028629541397
 20
7.527439594269
 30
0.0
  9
$EXTMAX
 10
48.511047363281
 20
31.628522872925
 30
0.0
  9
$LIMMIN
 10
-0.5
 20
-0.5
  9
$LIMMAX
 10
5.0
 20
5.0
  9
$ORTHOMODE
 70
           0
  9
$REGENMODE
 70
           1
  9
$FILLMODE
 70
           1
  9
$QTEXTMODE
 70
           0
  9
$MIRRTEXT
 70
           1
  9
$DRAGMODE
 70
           2
  9
$LTSCALE
 40
1.0
  9
$OSMODE
 70
           0
  9
$ATTMODE
 70
           1
  9
$TEXTSIZE
 40
0.2
  9
$TRACEWID
 40
0.05
  9
$TEXTSTYLE
  7
STANDARD
  9
$CLAYER
  8
0
  9
$CELTYPE
  6
CONTINUOUS
  9
$CECOLOR
 62
         256
  9
$CELTSCALE
 40
1.0
  9
$DELOBJ
 70
           1
  9
$DISPSILH
 70
           0
  9
$DIMSCALE
 40
1.0
  9
$DIMASZ
 40
0.18
  9
$DIMEXO
 40
0.0625
  9
$DIMDLI
 40
0.38
  9
$DIMRND
 40
0.0
  9
$DIMDLE
 40
0.0
  9
$DIMEXE
 40
0.18
  9
$DIMTP
 40
0.0
  9
$DIMTM
 40
0.0
  9
$DIMTXT
 40
0.18
  9
$DIMCEN
 40
0.09
  9
$DIMTSZ
 40
0.0
  9
$DIMTOL
 70
           0
  9
$DIMLIM
 70
           0
  9
$DIMTIH
 70
           1
  9
$DIMTOH
 70
           1
  9
$DIMSE1
 70
           0
  9
$DIMSE2
 70
           0
  9
$DIMTAD
 70
           0
  9
$DIMZIN
 70
           0
  9
$DIMBLK
  1

  9
$DIMASO
 70
           1
  9
$DIMSHO
 70
           1
  9
$DIMPOST
  1

  9
$DIMAPOST
  1

  9
$DIMALT
 70
           0
  9
$DIMALTD
 70
           2
  9
$DIMALTF
 40
25.4
  9
$DIMLFAC
 40
1.0
  9
$DIMTOFL
 70
           0
  9
$DIMTVP
 40
0.0
  9
$DIMTIX
 70
           0
  9
$DIMSOXD
 70
           0
  9
$DIMSAH
 70
           0
  9
$DIMBLK1
  1

  9
$DIMBLK2
  1

  9
$DIMSTYLE
  2
STANDARD
  9
$DIMCLRD
 70
           0
  9
$DIMCLRE
 70
           0
  9
$DIMCLRT
 70
           0
  9
$DIMTFAC
 40
1.0
  9
$DIMGAP
 40
0.09
  9
$DIMJUST
 70
           0
  9
$DIMSD1
 70
           0
  9
$DIMSD2
 70
           0
  9
$DIMTOLJ
 70
           1
  9
$DIMTZIN
 70
           0
  9
$DIMALTZ
 70
           0
  9
$DIMALTTZ
 70
           0
  9
$DIMFIT
 70
           3
  9
$DIMUPT
 70
           0
  9
$DIMUNIT
 70
           2
  9
$DIMDEC
 70
           4
  9
$DIMTDEC
 70
           4
  9
$DIMALTU
 70
           2
  9
$DIMALTTD
 70
           2
  9
$DIMTXSTY
  7
STANDARD
  9
$DIMAUNIT
 70
           0
  9
$LUNITS
 70
           2
  9
$LUPREC
 70
           4
  9
$SKETCHINC
 40
0.1
  9
$FILLETRAD
 40
0.0
  9
$AUNITS
 70
           0
  9
$AUPREC
 70
           0
  9
$MENU
  1
acad
  9
$ELEVATION
 40
0.0
  9
$PELEVATION
 40
0.0
  9
$THICKNESS
 40
0.0
  9
$LIMCHECK
 70
           0
  9
$BLIPMODE
 70
           0
  9
$CHAMFERA
 40
0.0
  9
$CHAMFERB
 40
0.0
  9
$CHAMFERC
 40
0.0
  9
$CHAMFERD
 40
0.0
  9
$SKPOLY
 70
           0
  9
$TDCREATE
 40
2444240.000000000
  9
$TDUPDATE
 40
2455482.614648704
  9
$TDINDWG
 40
0.0006018403
  9
$TDUSRTIMER
 40
0.0006018403
  9
$USRTIMER
 70
           1
  9
$ANGBASE
 50
0.0
  9
$ANGDIR
 70
           0
  9
$PDMODE
 70
           0
  9
$PDSIZE
 40
0.0
  9
$PLINEWID
 40
0.0
  9
$COORDS
 70
           0
  9
$SPLFRAME
 70
           0
  9
$SPLINETYPE
 70
           6
  9
$SPLINESEGS
 70
           8
  9
$ATTDIA
 70
           0
  9
$ATTREQ
 70
           0
  9
$HANDLING
 70
           1
  9
$HANDSEED
  5
251
  9
$SURFTAB1
 70
           6
  9
$SURFTAB2
 70
           6
  9
$SURFTYPE
 70
           6
  9
$SURFU
 70
           6
  9
$SURFV
 70
           6
  9
$UCSNAME
  2

  9
$UCSORG
 10
0.0
 20
0.0
 30
0.0
  9
$UCSXDIR
 10
1.0
 20
0.0
 30
0.0
  9
$UCSYDIR
 10
0.0
 20
1.0
 30
0.0
  9
$PUCSNAME
  2

  9
$PUCSORG
 10
0.0
 20
0.0
 30
0.0
  9
$PUCSXDIR
 10
1.0
 20
0.0
 30
0.0
  9
$PUCSYDIR
 10
0.0
 20
1.0
 30
0.0
  9
$USERI1
 70
           0
  9
$USERI2
 70
           0
  9
$USERI3
 70
           0
  9
$USERI4
 70
           0
  9
$USERI5
 70
           0
  9
$USERR1
 40
0.0
  9
$USERR2
 40
0.0
  9
$USERR3
 40
0.0
  9
$USERR4
 40
0.0
  9
$USERR5
 40
0.0
  9
$WORLDVIEW
 70
           1
  9
$SHADEDGE
 70
           3
  9
$SHADEDIF
 70
          70
  9
$TILEMODE
 70
           1
  9
$MAXACTVP
 70
          64
  9
$PINSBASE
 10
0.0
 20
0.0
 30
0.0
  9
$PLIMCHECK
 70
           0
  9
$PEXTMIN
 10
2.028629541397
 20
7.527439594269
 30
0.0
  9
$PEXTMAX
 10
48.511047363281
 20
31.628522872925
 30
0.0
  9
$PLIMMIN
 10
-0.5
 20
-0.5
  9
$PLIMMAX
 10
5.0
 20
5.0
  9
$UNITMODE
 70
           0
  9
$VISRETAIN
 70
           0
  9
$PLINEGEN
 70
           1
  9
$PSLTSCALE
 70
           0
  9
$TREEDEPTH
 70
        3020
  9
$PICKSTYLE
 70
           1
  9
$CMLSTYLE
  2
Standard
  9
$CMLJUST
 70
           0
  9
$CMLSCALE
 40
1.0
  9
$PROXYGRAPHICS
 70
           0
  9
$MEASUREMENT
 70
           0
  0
ENDSEC
  0
SECTION
  2
CLASSES
  0
CLASS
  1
LWPOLYLINE
  2
AcDbPolyline
  3
"AutoCAD"
 90
        0
280
           0
281
           1
  0
CLASS
  1
IMAGE
  2
AcDbRasterImage
  3
ISM
 90
      127
280
           0
281
           1
  0
CLASS
  1
OLE2FRAME
  2
AcDbOle2Frame
  3
""
 90
        0
280
           0
281
           1
  0
CLASS
  1
HATCH
  2
AcDbHatch
  3
"ACAD_SEDONA"
 90
        0
280
           0
281
           1
  0
CLASS
  1
DICTIONARYVAR
  2
AcDbDictionaryVar
  3
"AutoCAD"
 90
        0
280
           0
281
           0
  0
CLASS
  1
RASTERVARIABLES
  2
AcDbRasterVariables
  3
ISM
 90
        0
280
           0
281
           0
  0
CLASS
  1
IMAGEDEF
  2
AcDbRasterImageDef
  3
ISM
 90
        0
280
           0
281
           0
  0
CLASS
  1
IMAGEDEF_REACTOR
  2
AcDbRasterImageDefReactor
  3
ISM
 90
        1
280
           0
281
           0
  0
CLASS
  1
IDBUFFER
  2
AcDbIdBuffer
  3
"Acad"
 90
        0
280
           0
281
           0
  0
CLASS
  1
SPATIAL_FILTER
  2
AcDbSpatialFilter
  3
"Acad"
 90
        0
280
           0
281
           0
  0
CLASS
  1
XRECORD
  2
AcDbXrecord
  3
"<Built In>"
 90
        0
280
           0
281
           0
  0
CLASS
  1
SORTENTSTABLE
  2
AcDbSortentsTable
  3
"AutoCAD"
 90
        0
280
           0
281
           0
  0
CLASS
  1
LAYER_INDEX
  2
AcDbLayerIndex
  3
"Acad"
 90
        0
280
           0
281
           0
  0
CLASS
  1
SPATIAL_INDEX
  2
AcDbSpatialIndex
  3
"Acad"
 90
        0
280
           0
281
           0
  0
CLASS
  1
OBJECT_PTR
  2
CAseDLPNTableRecord
  3
"ASE-LPNTableRecord"
 90
        1
280
           0
281
           0
  0
CLASS
  1
LAYOUT
  2
AcDbLayout
  3
"AutoCAD 2000"
 90
        1
280
           0
281
           0
  0
CLASS
  1
PLOTSETTINGS
  2
AcDbPlotSettings
  3
"AutoCAD 2000"
 90
        1
280
           0
281
           0
  0
CLASS
  1
ACDBDICTIONARYWDFLT
  2
AcDbDictionaryWithDefault
  3
"AutoCAD 2000"
 90
        1
280
           0
281
           0
  0
CLASS
  1
ACDBPLACEHOLDER
  2
AcDbPlaceHolder
  3
"AutoCAD 2000"
 90
        1
280
           0
281
           0
  0
CLASS
  1
VBA_PROJECT
  2
AcDbVbaProject
  3
"acadvba"
 90
        1
280
           0
281
           0
  0
CLASS
  1
WIPEOUT
  2
AcDbWipeout
  3
WipeOut|AutoCAD Express Tool|expresstools@autodesk.com
 90
      127
280
           0
281
           1
  0
CLASS
  1
WIPEOUTVARIABLES
  2
AcDbWipeoutVariables
  3
WipeOut|AutoCAD Express Tool|expresstools@autodesk.com
 90
        0
280
           0
281
           0
  0
CLASS
  1
RTEXT
  2
RText
  3
RText|AutoCAD Express Tool|expresstools@autodesk.com
 90
        0
280
           0
281
           1
  0
CLASS
  1
ARCALIGNEDTEXT
  2
AcDbArcAlignedText
  3
ATEXT|AutoCAD Express Tool|expresstools@autodesk.com
 90
        0
280
           0
281
           1
  0
CLASS
  1
DIMASSOC
  2
AcDbDimAssoc
  3
AcDbDimAssoc|Product Desc:     AcDim ARX App For Dimension|Company:          Autodesk, Inc.|WEB Address:      www.autodesk.com
 90
        1
280
           0
281
           0
  0
ENDSEC
  0
SECTION
  2
TABLES
  0
TABLE
  2
VPORT
  5
7
100
AcDbSymbolTable
 70
          16
  0
VPORT
  5
23D
100
AcDbSymbolTableRecord
100
AcDbViewportTableRecord
  2
*ACTIVE
 70
           0
 10
0.0
 20
0.0
 11
1.0
 21
1.0
 12
25.269838452339
 22
19.577981233597
 13
0.0
 23
0.0
 14
1.0
 24
1.0
 15
0.0
 25
0.0
 16
0.0
 26
0.0
 36
1.0
 17
0.0
 27
0.0
 37
0.0
 40
26.243260272825
 41
0.688564
 42
50.0
 43
29.42356165193
 44
-29.42356165193
 50
0.0
 51
0.0
 71
          16
 72
         100
 73
           1
 74
           1
 75
           0
 76
           0
 77
           0
 78
           0
  0
VPORT
  5
23E
100
AcDbSymbolTableRecord
100
AcDbViewportTableRecord
  2
L1
 70
           0
 10
0.0
 20
0.0
 11
1.0
 21
1.0
 12
0.0
 22
0.0
 13
0.0
 23
0.0
 14
1.0
 24
1.0
 15
0.0
 25
0.0
 16
0.718873092757
 26
-0.585048612676
 36
0.37541922875
 17
0.0
 27
0.0
 37
0.0
 40
59.440892654164
 41
0.688564
 42
50.0
 43
29.42356165193
 44
-29.42356165193
 50
0.0
 51
0.0
 71
          16
 72
         100
 73
           1
 74
           1
 75
           0
 76
           0
 77
           0
 78
           0
  0
VPORT
  5
23F
100
AcDbSymbolTableRecord
100
AcDbViewportTableRecord
  2
L2
 70
           0
 10
0.0
 20
0.0
 11
0.5
 21
1.0
 12
0.0
 22
0.0
 13
0.0
 23
0.0
 14
1.0
 24
1.0
 15
0.0
 25
0.0
 16
0.0
 26
-1.0
 36
0.0
 17
0.0
 27
0.0
 37
0.0
 40
57.411827613522
 41
0.688564
 42
50.0
 43
29.512201280169
 44
-29.512201280169
 50
0.0
 51
0.0
 71
          16
 72
         100
 73
           1
 74
           1
 75
           0
 76
           0
 77
           0
 78
           0
  0
VPORT
  5
240
100
AcDbSymbolTableRecord
100
AcDbViewportTableRecord
  2
L2
 70
           0
 10
0.5
 20
0.0
 11
1.0
 21
1.0
 12
0.0
 22
0.0
 13
0.0
 23
0.0
 14
1.0
 24
1.0
 15
0.0
 25
0.0
 16
1.0
 26
0.0
 36
0.0
 17
0.0
 27
0.0
 37
0.0
 40
57.411827613522
 41
0.688564
 42
50.0
 43
29.091899817516
 44
-29.091899817516
 50
0.0
 51
0.0
 71
          16
 72
         100
 73
           1
 74
           1
 75
           0
 76
           0
 77
           0
 78
           0
  0
VPORT
  5
241
100
AcDbSymbolTableRecord
100
AcDbViewportTableRecord
  2
L3
 70
           0
 10
0.0
 20
0.5
 11
1.0
 21
1.0
 12
0.0
 22
0.0
 13
0.0
 23
0.0
 14
1.0
 24
1.0
 15
0.0
 25
0.0
 16
0.0
 26
0.0
 36
1.0
 17
0.0
 27
0.0
 37
0.0
 40
9.446512057087
 41
0.688564
 42
50.0
 43
28.705913806761
 44
-28.705913806761
 50
0.0
 51
0.0
 71
          16
 72
         100
 73
           1
 74
           1
 75
           0
 76
           0
 77
           0
 78
           0
  0
VPORT
  5
242
100
AcDbSymbolTableRecord
100
AcDbViewportTableRecord
  2
L3
 70
           0
 10
0.0
 20
0.0
 11
1.0
 21
0.5
 12
0.0
 22
0.0
 13
0.0
 23
0.0
 14
1.0
 24
1.0
 15
0.0
 25
0.0
 16
0.0
 26
-1.0
 36
0.0
 17
0.0
 27
0.0
 37
0.0
 40
57.411827613522
 41
0.688564
 42
50.0
 43
29.512201280169
 44
-29.512201280169
 50
0.0
 51
0.0
 71
          16
 72
         100
 73
           1
 74
           1
 75
           0
 76
           0
 77
           0
 78
           0
  0
VPORT
  5
243
100
AcDbSymbolTableRecord
100
AcDbViewportTableRecord
  2
L4
 70
           0
 10
0.0
 20
0.5
 11
0.5
 21
1.0
 12
0.0
 22
0.0
 13
0.0
 23
0.0
 14
1.0
 24
1.0
 15
0.0
 25
0.0
 16
0.0
 26
0.0
 36
1.0
 17
0.0
 27
0.0
 37
0.0
 40
9.446512057087
 41
0.688564
 42
50.0
 43
28.705913806761
 44
-28.705913806761
 50
0.0
 51
0.0
 71
          16
 72
         100
 73
           1
 74
           1
 75
           0
 76
           0
 77
           0
 78
           0
  0
VPORT
  5
244
100
AcDbSymbolTableRecord
100
AcDbViewportTableRecord
  2
L4
 70
           0
 10
0.0
 20
0.0
 11
0.5
 21
0.5
 12
0.0
 22
0.0
 13
0.0
 23
0.0
 14
1.0
 24
1.0
 15
0.0
 25
0.0
 16
0.0
 26
-1.0
 36
0.0
 17
0.0
 27
0.0
 37
0.0
 40
57.411827613522
 41
0.688564
 42
50.0
 43
29.512201280169
 44
-29.512201280169
 50
0.0
 51
0.0
 71
          16
 72
         100
 73
           1
 74
           1
 75
           0
 76
           0
 77
           0
 78
           0
  0
VPORT
  5
245
100
AcDbSymbolTableRecord
100
AcDbViewportTableRecord
  2
L4
 70
           0
 10
0.5
 20
0.0
 11
1.0
 21
0.5
 12
0.0
 22
0.0
 13
0.0
 23
0.0
 14
1.0
 24
1.0
 15
0.0
 25
0.0
 16
1.0
 26
0.0
 36
0.0
 17
0.0
 27
0.0
 37
0.0
 40
57.411827613522
 41
0.688564
 42
50.0
 43
29.091899817516
 44
-29.091899817516
 50
0.0
 51
0.0
 71
          16
 72
         100
 73
           1
 74
           1
 75
           0
 76
           0
 77
           0
 78
           0
  0
VPORT
  5
246
100
AcDbSymbolTableRecord
100
AcDbViewportTableRecord
  2
L4
 70
           0
 10
0.5
 20
0.5
 11
1.0
 21
1.0
 12
0.0
 22
0.0
 13
0.0
 23
0.0
 14
1.0
 24
1.0
 15
0.0
 25
0.0
 16
0.57735026919
 26
-0.57735026919
 36
0.57735026919
 17
0.0
 27
0.0
 37
0.0
 40
56.327159795076
 41
0.688564
 42
50.0
 43
29.328699195927
 44
-29.328699195927
 50
0.0
 51
0.0
 71
          16
 72
         100
 73
           1
 74
           1
 75
           0
 76
           0
 77
           0
 78
           0
  0
VPORT
  5
247
100
AcDbSymbolTableRecord
100
AcDbViewportTableRecord
  2
L6
 70
           0
 10
0.0
 20
0.5
 11
0.333333333333
 21
1.0
 12
0.0
 22
0.0
 13
0.0
 23
0.0
 14
1.0
 24
1.0
 15
0.0
 25
0.0
 16
0.718873092757
 26
-0.585048612676
 36
0.37541922875
 17
0.0
 27
0.0
 37
0.0
 40
59.440892654164
 41
0.688564
 42
50.0
 43
29.42356165193
 44
-29.42356165193
 50
0.0
 51
0.0
 71
          16
 72
         100
 73
           1
 74
           1
 75
           0
 76
           0
 77
           0
 78
           0
  0
VPORT
  5
248
100
AcDbSymbolTableRecord
100
AcDbViewportTableRecord
  2
L6
 70
           0
 10
0.0
 20
0.0
 11
0.333333333333
 21
0.5
 12
0.0
 22
0.0
 13
0.0
 23
0.0
 14
1.0
 24
1.0
 15
0.0
 25
0.0
 16
-1.0
 26
0.0
 36
0.0
 17
0.0
 27
0.0
 37
0.0
 40
57.411827613522
 41
0.688564
 42
50.0
 43
29.091899817516
 44
-29.091899817516
 50
0.0
 51
0.0
 71
          16
 72
         100
 73
           1
 74
           1
 75
           0
 76
           0
 77
           0
 78
           0
  0
VPORT
  5
249
100
AcDbSymbolTableRecord
100
AcDbViewportTableRecord
  2
L6
 70
           0
 10
0.333333333333
 20
0.5
 11
0.666666666667
 21
1.0
 12
0.0
 22
0.0
 13
0.0
 23
0.0
 14
1.0
 24
1.0
 15
0.0
 25
0.0
 16
0.0
 26
0.0
 36
1.0
 17
0.0
 27
0.0
 37
0.0
 40
9.446512057087
 41
0.688564
 42
50.0
 43
28.705913806761
 44
-28.705913806761
 50
0.0
 51
0.0
 71
          16
 72
         100
 73
           1
 74
           1
 75
           0
 76
           0
 77
           0
 78
           0
  0
VPORT
  5
24A
100
AcDbSymbolTableRecord
100
AcDbViewportTableRecord
  2
L6
 70
           0
 10
0.333333333333
 20
0.0
 11
0.666666666667
 21
0.5
 12
0.0
 22
0.0
 13
0.0
 23
0.0
 14
1.0
 24
1.0
 15
0.0
 25
0.0
 16
0.0
 26
-1.0
 36
0.0
 17
0.0
 27
0.0
 37
0.0
 40
57.411827613522
 41
0.688564
 42
50.0
 43
29.512201280169
 44
-29.512201280169
 50
0.0
 51
0.0
 71
          16
 72
         100
 73
           1
 74
           1
 75
           0
 76
           0
 77
           0
 78
           0
  0
VPORT
  5
24B
100
AcDbSymbolTableRecord
100
AcDbViewportTableRecord
  2
L6
 70
           0
 10
0.666666666667
 20
0.5
 11
1.0
 21
1.0
 12
0.0
 22
0.0
 13
0.0
 23
0.0
 14
1.0
 24
1.0
 15
0.0
 25
0.0
 16
0.57735026919
 26
-0.57735026919
 36
0.57735026919
 17
0.0
 27
0.0
 37
0.0
 40
56.327159795076
 41
0.688564
 42
50.0
 43
29.328699195927
 44
-29.328699195927
 50
0.0
 51
0.0
 71
          16
 72
         100
 73
           1
 74
           1
 75
           0
 76
           0
 77
           0
 78
           0
  0
VPORT
  5
24C
100
AcDbSymbolTableRecord
100
AcDbViewportTableRecord
  2
L6
 70
           0
 10
0.666666666667
 20
0.0
 11
1.0
 21
0.5
 12
0.0
 22
0.0
 13
0.0
 23
0.0
 14
1.0
 24
1.0
 15
0.0
 25
0.0
 16
1.0
 26
0.0
 36
0.0
 17
0.0
 27
0.0
 37
0.0
 40
57.411827613522
 41
0.688564
 42
50.0
 43
29.091899817516
 44
-29.091899817516
 50
0.0
 51
0.0
 71
          16
 72
         100
 73
           1
 74
           1
 75
           0
 76
           0
 77
           0
 78
           0
  0
ENDTAB
  0
TABLE
  2
LTYPE
  5
4
100
AcDbSymbolTable
 70
           9
  0
LTYPE
  5
11
100
AcDbSymbolTableRecord
100
AcDbLinetypeTableRecord
  2
BYBLOCK
 70
          64
  3

 72
          65
 73
           0
 40
0.0
  0
LTYPE
  5
12
100
AcDbSymbolTableRecord
100
AcDbLinetypeTableRecord
  2
BYLAYER
 70
          64
  3

 72
          65
 73
           0
 40
0.0
  0
LTYPE
  5
13
100
AcDbSymbolTableRecord
100
AcDbLinetypeTableRecord
  2
CONTINUOUS
 70
          64
  3
Solid line
 72
          65
 73
           0
 40
0.0
  0
LTYPE
  5
24
100
AcDbSymbolTableRecord
100
AcDbLinetypeTableRecord
  2
DASHED
 70
          64
  3
__ __ __ __ __ __ __ __ __
 72
          65
 73
           2
 40
25.72
 49
12.86
 74
           0
 49
-12.86
 74
           0
  0
LTYPE
  5
25
100
AcDbSymbolTableRecord
100
AcDbLinetypeTableRecord
  2
HIDDEN
 70
          64
  3
_ _ _ _ _ _ _ _ _ _ _ _ _ _ _
 72
          65
 73
           2
 40
0.5
 49
0.25
 74
           0
 49
-0.25
 74
           0
  0
LTYPE
  5
26
100
AcDbSymbolTableRecord
100
AcDbLinetypeTableRecord
  2
PHANTOM
 70
          64
  3
____ _ _ ____ _ _ _____ _ _ ____
 72
          65
 73
           6
 40
50.5
 49
18.0
 74
           0
 49
-6.5
 74
           0
 49
6.5
 74
           0
 49
-6.5
 74
           0
 49
6.5
 74
           0
 49
-6.5
 74
           0
  0
LTYPE
  5
27
100
AcDbSymbolTableRecord
100
AcDbLinetypeTableRecord
  2
CENTER
 70
          64
  3
____ _ ____ _ ____ _ ____
 72
          65
 73
           4
 40
47.5
 49
22.0
 74
           0
 49
-8.5
 74
           0
 49
8.5
 74
           0
 49
-8.5
 74
           0
  0
LTYPE
  5
28
100
AcDbSymbolTableRecord
100
AcDbLinetypeTableRecord
  2
DOT
 70
          64
  3
.........................
 72
          65
 73
           2
 40
10.0
 49
0.0
 74
           0
 49
-10.0
 74
           0
  0
LTYPE
  5
29
100
AcDbSymbolTableRecord
100
AcDbLinetypeTableRecord
  2
DASHDOT
 70
          64
  3
_._._._._._._._._._._._._._._._.
 72
          65
 73
           4
 40
70.0
 49
31.0
 74
           0
 49
-13.0
 74
           0
 49
13.0
 74
           0
 49
-13.0
 74
           0
  0
ENDTAB
  0
TABLE
  2
LAYER
  5
2
100
AcDbSymbolTable
 70
           2
  0
LAYER
  5
14
100
AcDbSymbolTableRecord
100
AcDbLayerTableRecord
  2
0
 70
           0
 62
           7
  6
CONTINUOUS
  0
LAYER
  5
2B
100
AcDbSymbolTableRecord
100
AcDbLayerTableRecord
  2
TFR-TRI
 70
           0
 62
           7
  6
CONTINUOUS
  0
ENDTAB
  0
TABLE
  2
STYLE
  5
3
100
AcDbSymbolTable
 70
           1
  0
STYLE
  5
17
100
AcDbSymbolTableRecord
100
AcDbTextStyleTableRecord
  2
STANDARD
 70
           0
 40
0.0
 41
1.0
 50
0.0
 71
           0
 42
0.2
  3
TXT
  4

  0
ENDTAB
  0
TABLE
  2
VIEW
  5
5
100
AcDbSymbolTable
 70
           8
  0
VIEW
  5
235
100
AcDbSymbolTableRecord
100
AcDbViewTableRecord
  2
TOP
 70
           0
 40
9.446512057087
 10
0.0
 20
0.0
 41
13.702632874016
 11
0.0
 21
0.0
 31
1.0
 12
0.0
 22
0.0
 32
0.0
 42
50.0
 43
28.705913806761
 44
-28.705913806761
 50
0.0
 71
          16
  0
VIEW
  5
236
100
AcDbSymbolTableRecord
100
AcDbViewTableRecord
  2
FRONT
 70
           0
 40
57.411827613522
 10
0.0
 20
0.0
 41
13.702632874016
 11
0.0
 21
-1.0
 31
0.0
 12
0.0
 22
0.0
 32
0.0
 42
50.0
 43
29.512201280169
 44
-29.512201280169
 50
0.0
 71
          16
  0
VIEW
  5
237
100
AcDbSymbolTableRecord
100
AcDbViewTableRecord
  2
RIGHT
 70
           0
 40
57.411827613522
 10
0.0
 20
0.0
 41
9.446512057087
 11
1.0
 21
0.0
 31
0.0
 12
0.0
 22
0.0
 32
0.0
 42
50.0
 43
29.091899817516
 44
-29.091899817516
 50
0.0
 71
          16
  0
VIEW
  5
238
100
AcDbSymbolTableRecord
100
AcDbViewTableRecord
  2
BACK
 70
           0
 40
57.411827613522
 10
0.0
 20
0.0
 41
13.702632874016
 11
0.0
 21
1.0
 31
0.0
 12
0.0
 22
0.0
 32
0.0
 42
50.0
 43
29.512201280169
 44
-29.512201280169
 50
0.0
 71
          16
  0
VIEW
  5
239
100
AcDbSymbolTableRecord
100
AcDbViewTableRecord
  2
BOTTOM
 70
           0
 40
9.446512057087
 10
0.0
 20
0.0
 41
13.702632874016
 11
0.0
 21
0.0
 31
-1.0
 12
0.0
 22
0.0
 32
0.0
 42
50.0
 43
28.705913806761
 44
-28.705913806761
 50
180.0
 71
          16
  0
VIEW
  5
23A
100
AcDbSymbolTableRecord
100
AcDbViewTableRecord
  2
LEFT
 70
           0
 40
57.411827613522
 10
0.0
 20
0.0
 41
9.446512057087
 11
-1.0
 21
0.0
 31
0.0
 12
0.0
 22
0.0
 32
0.0
 42
50.0
 43
29.091899817516
 44
-29.091899817516
 50
0.0
 71
          16
  0
VIEW
  5
23B
100
AcDbSymbolTableRecord
100
AcDbViewTableRecord
  2
TFR-ISO
 70
           0
 40
56.327159795076
 10
0.0
 20
0.0
 41
16.368917359453
 11
0.57735026919
 21
-0.57735026919
 31
0.57735026919
 12
0.0
 22
0.0
 32
0.0
 42
50.0
 43
29.328699195927
 44
-29.328699195927
 50
0.0
 71
          16
  0
VIEW
  5
23C
100
AcDbSymbolTableRecord
100
AcDbViewTableRecord
  2
TFR-TRI
 70
           0
 40
59.440892654164
 10
0.0
 20
0.0
 41
15.976121256315
 11
0.718873092757
 21
-0.585048612676
 31
0.37541922875
 12
0.0
 22
0.0
 32
0.0
 42
50.0
 43
29.42356165193
 44
-29.42356165193
 50
0.0
 71
          16
  0
ENDTAB
  0
TABLE
  2
UCS
  5
6
100
AcDbSymbolTable
 70
           0
  0
ENDTAB
  0
TABLE
  2
APPID
  5
8
100
AcDbSymbolTable
 70
           1
  0
APPID
  5
16
100
AcDbSymbolTableRecord
100
AcDbRegAppTableRecord
  2
ACAD
 70
           0
  0
ENDTAB
  0
TABLE
  2
DIMSTYLE
  5
9
100
AcDbSymbolTable
 70
           1
  0
DIMSTYLE
105
18
100
AcDbSymbolTableRecord
100
AcDbDimStyleTableRecord
  2
STANDARD
 70
           0
  3

  4

  5

  6

  7

 40
1.0
 41
0.18
 42
0.0625
 43
0.38
 44
0.18
 45
0.0
 46
0.0
 47
0.0
 48
0.0
 71
           0
 72
           0
 73
           1
 74
           1
 75
           0
 76
           0
 77
           0
 78
           0
140
0.18
141
0.09
142
0.0
143
25.4
144
1.0
145
0.0
146
1.0
147
0.09
170
           0
171
           2
172
           0
173
           0
174
           0
175
           0
176
           0
177
           0
178
           0
270
           2
271
           4
272
           4
273
           2
274
           2
275
           0
280
           0
281
           0
282
           0
283
           1
284
           0
285
           0
286
           0
287
           3
288
           0
340
17
  0
ENDTAB
  0
TABLE
  2
BLOCK_RECORD
  5
1
100
AcDbSymbolTable
 70
           0
  0
BLOCK_RECORD
  5
A
100
AcDbSymbolTableRecord
100
AcDbBlockTableRecord
  2
*MODEL_SPACE
  0
BLOCK_RECORD
  5
B
100
AcDbSymbolTableRecord
100
AcDbBlockTableRecord
  2
*PAPER_SPACE
  0
ENDTAB
  0
ENDSEC
  0
SECTION
  2
BLOCKS
  0
BLOCK
  5
D
100
AcDbEntity
  8
0
100
AcDbBlockBegin
  2
*MODEL_SPACE
 70
           0
 10
0.0
 20
0.0
 30
0.0
  3
*MODEL_SPACE
  1

  0
ENDBLK
  5
E
100
AcDbEntity
  8
0
100
AcDbBlockEnd
  0
BLOCK
  5
F
100
AcDbEntity
 67
           1
  8
0
100
AcDbBlockBegin
  2
*PAPER_SPACE
 70
           0
 10
0.0
 20
0.0
 30
0.0
  3
*PAPER_SPACE
  1

  0
ENDBLK
  5
10
100
AcDbEntity
 67
           1
  8
0
100
AcDbBlockEnd
  0
ENDSEC
  0
SECTION
  2
ENTITIES
  0
VIEWPORT
  5
24D
100
AcDbEntity
 67
           1
  8
0
100
AcDbViewport
 10
7.8
 20
4.5
 30
0.0
 40
15.64
 41
9.0
 68
           1
 69
           1
1001
ACAD
1000
MVIEW
1002
{
1070
          16
1010
0.0
1020
0.0
1030
0.0
1010
0.0
1020
0.0
1030
1.0
1040
0.0
1040
12.0
1040
6.0
1040
4.5
1040
50.0
1040
0.0
1040
0.0
1070
           0
1070
         100
1070
           0
1070
           1
1070
           0
1070
           0
1070
           0
1070
           0
1040
0.0
1040
0.0
1040
0.0
1040
0.5
1040
0.5
1040
0.5
1040
0.5
1070
           0
1002
{
1002
}
1002
}
  0
LINE
  5
2A
100
AcDbEntity
  8
TFR-TRI
  6
CONTINUOUS
 62
           4
100
AcDbLine
 10
37.252544403076
 20
8.290940284729
 30
0.0
 11
37.317810058594
 21
8.290940284729
 31
0.0
  0
LINE
  5
2C
100
AcDbEntity
  8
TFR-TRI
  6
CONTINUOUS
 62
           4
100
AcDbLine
 10
37.222545623779
 20
10.00032043457
 30
0.0
 11
37.222545623779
 21
9.9459400177
 31
0.0
  0
LINE
  5
2D
100
AcDbEntity
  8
TFR-TRI
  6
CONTINUOUS
 62
           4
100
AcDbLine
 10
27.312749862671
 20
8.212439537048
 30
0.0
 11
27.263576507568
 21
8.212439537048
 31
0.0
  0
LINE
  5
2E
100
AcDbEntity
  8
TFR-TRI
  6
CONTINUOUS
 62
           4
100
AcDbLine
 10
3.120452880859
 20
20.261522293091
 30
0.0
 11
3.08411693573
 21
20.261522293091
 31
0.0
  0
LINE
  5
2F
100
AcDbEntity
  8
TFR-TRI
  6
CONTINUOUS
 62
           4
100
AcDbLine
 10
37.649223327637
 20
8.290940284729
 30
0.0
 11
37.685558319092
 21
8.290940284729
 31
0.0
  0
LINE
  5
30
100
AcDbEntity
  8
TFR-TRI
  6
CONTINUOUS
 62
           4
100
AcDbLine
 10
27.617130279541
 20
8.212439537048
 30
0.0
 11
27.551866531372
 21
8.212439537048
 31
0.0
  0
LINE
  5
31
100
AcDbEntity
  8
TFR-TRI
  6
CONTINUOUS
 62
           4
100
AcDbLine
 10
27.117130279541
 20
8.212439537048
 30
0.0
 11
3.017129659653
 21
8.212439537048
 31
0.0
  0
LINE
  5
32
100
AcDbEntity
  8
TFR-TRI
  6
CONTINUOUS
 62
           4
100
AcDbLine
 10
2.517129659653
 20
20.870023727417
 30
0.0
 11
2.453367471695
 21
20.870023727417
 31
0.0
  0
LINE
  5
33
100
AcDbEntity
  8
TFR-TRI
  6
CONTINUOUS
 62
           4
100
AcDbLine
 10
45.606822967529
 20
8.290940284729
 30
0.0
 11
45.619583129883
 21
8.290940284729
 31
0.0
  0
LINE
  5
34
100
AcDbEntity
  8
TFR-TRI
  6
CONTINUOUS
 62
           4
100
AcDbLine
 10
37.752544403076
 20
8.046689987183
 30
0.0
 11
37.752544403076
 21
7.989380836487
 31
0.0
  0
LINE
  5
35
100
AcDbEntity
  8
TFR-TRI
  6
CONTINUOUS
 62
           4
100
AcDbLine
 10
2.065814495087
 20
28.720022201538
 30
0.0
 11
2.094076156616
 21
28.720022201538
 31
0.0
  0
LINE
  5
36
100
AcDbEntity
  8
TFR-TRI
  6
CONTINUOUS
 62
           4
100
AcDbLine
 10
45.852546691895
 20
8.290940284729
 30
0.0
 11
45.911205291748
 21
8.290940284729
 31
0.0
  0
LINE
  5
37
100
AcDbEntity
  8
TFR-TRI
  6
CONTINUOUS
 62
           4
100
AcDbLine
 10
45.602546691895
 20
8.253754615784
 30
0.0
 11
45.602546691895
 21
8.225493431091
 31
0.0
  0
LINE
  5
38
100
AcDbEntity
  8
TFR-TRI
  6
CONTINUOUS
 62
           4
100
AcDbLine
 10
3.000092506409
 20
8.290940284729
 30
0.0
 11
3.012851953506
 21
8.290940284729
 31
0.0
  0
LINE
  5
39
100
AcDbEntity
  8
TFR-TRI
  6
CONTINUOUS
 62
           4
100
AcDbLine
 10
10.159629821777
 20
30.269023895264
 30
0.0
 11
10.159629821777
 21
28.082523345947
 31
0.0
  0
LINE
  5
3A
100
AcDbEntity
  8
TFR-TRI
  6
CONTINUOUS
 62
           4
100
AcDbLine
 10
45.911205291748
 20
8.212439537048
 30
0.0
 11
45.852546691895
 21
8.212439537048
 31
0.0
  0
LINE
  5
3B
100
AcDbEntity
  8
TFR-TRI
  6
CONTINUOUS
 62
           4
100
AcDbLine
 10
48.340045928955
 20
8.290940284729
 30
0.0
 11
48.365936279297
 21
8.290940284729
 31
0.0
  0
LINE
  5
3C
100
AcDbEntity
  8
TFR-TRI
  6
CONTINUOUS
 62
           4
100
AcDbLine
 10
45.602546691895
 20
7.928873062134
 30
0.0
 11
45.602546691895
 21
7.866201877594
 31
0.0
  0
LINE
  5
3D
100
AcDbEntity
  8
TFR-TRI
  6
CONTINUOUS
 62
           4
100
AcDbLine
 10
45.602546691895
 20
8.290940284729
 30
0.0
 11
45.602546691895
 21
8.2867603302
 31
0.0
  0
LINE
  5
3E
100
AcDbEntity
  8
TFR-TRI
  6
CONTINUOUS
 62
           4
100
AcDbLine
 10
45.619583129883
 20
8.212439537048
 30
0.0
 11
45.606822967529
 21
8.212439537048
 31
0.0
  0
LINE
  5
3F
100
AcDbEntity
  8
TFR-TRI
  6
CONTINUOUS
 62
           4
100
AcDbLine
 10
48.365936279297
 20
8.212439537048
 30
0.0
 11
48.340045928955
 21
8.212439537048
 31
0.0
  0
LINE
  5
40
100
AcDbEntity
  8
TFR-TRI
  6
CONTINUOUS
 62
           4
100
AcDbLine
 10
45.602546691895
 20
7.802439689636
 30
0.0
 11
45.602546691895
 21
7.652439594269
 31
0.0
  0
LINE
  5
41
100
AcDbEntity
  8
TFR-TRI
  6
CONTINUOUS
 62
           4
100
AcDbLine
 10
2.272879600525
 20
28.720022201538
 30
0.0
 11
2.330188751221
 21
28.720022201538
 31
0.0
  0
LINE
  5
42
100
AcDbEntity
  8
TFR-TRI
  6
CONTINUOUS
 62
           4
100
AcDbLine
 10
37.735507965088
 20
8.290940284729
 30
0.0
 11
37.748268127441
 21
8.290940284729
 31
0.0
  0
LINE
  5
43
100
AcDbEntity
  8
TFR-TRI
  6
CONTINUOUS
 62
           4
100
AcDbLine
 10
26.064128875732
 20
25.653001785278
 30
0.0
 11
26.064128875732
 21
24.433002471924
 31
0.0
  0
LINE
  5
44
100
AcDbEntity
  8
TFR-TRI
  6
CONTINUOUS
 62
           4
100
AcDbLine
 10
48.511047363281
 20
7.65743970871
 30
0.0
 11
48.511047363281
 21
7.6250872612
 31
0.0
  0
LINE
  5
45
100
AcDbEntity
  8
TFR-TRI
  6
CONTINUOUS
 62
           4
100
AcDbLine
 10
2.517129659653
 20
8.290940284729
 30
0.0
 11
2.582392692566
 21
8.290940284729
 31
0.0
  0
LINE
  5
46
100
AcDbEntity
  8
TFR-TRI
  6
CONTINUOUS
 62
           4
100
AcDbLine
 10
21.049629211426
 20
25.775022506714
 30
0.0
 11
21.049629211426
 21
24.700023651123
 31
0.0
  0
LINE
  5
47
100
AcDbEntity
  8
TFR-TRI
  6
CONTINUOUS
 62
           4
100
AcDbLine
 10
27.743562698364
 20
20.870023727417
 30
0.0
 11
27.804071426392
 21
20.870023727417
 31
0.0
  0
LINE
  5
48
100
AcDbEntity
  8
TFR-TRI
  6
CONTINUOUS
 62
           4
100
AcDbLine
 10
24.379629135132
 20
26.78652381897
 30
0.0
 11
24.379629135132
 21
24.800024032593
 31
0.0
  0
LINE
  5
49
100
AcDbEntity
  8
TFR-TRI
  6
CONTINUOUS
 62
           4
100
AcDbLine
 10
2.517129659653
 20
8.212439537048
 30
0.0
 11
2.517129659653
 21
8.290940284729
 31
0.0
  0
LINE
  5
4A
100
AcDbEntity
  8
TFR-TRI
  6
CONTINUOUS
 62
           4
100
AcDbLine
 10
28.068445205688
 20
20.870023727417
 30
0.0
 11
28.088983535767
 21
20.870023727417
 31
0.0
  0
LINE
  5
4B
100
AcDbEntity
  8
TFR-TRI
  6
CONTINUOUS
 62
           4
100
AcDbLine
 10
27.117130279541
 20
20.35502243042
 30
0.0
 11
27.117130279541
 21
20.344041824341
 31
0.0
  0
LINE
  5
4C
100
AcDbEntity
  8
TFR-TRI
  6
CONTINUOUS
 62
           4
100
AcDbLine
 10
2.028629541397
 20
7.531699180603
 30
0.0
 11
2.028629541397
 21
7.544186592102
 31
0.0
  0
LINE
  5
4D
100
AcDbEntity
  8
TFR-TRI
  6
CONTINUOUS
 62
           4
100
AcDbLine
 10
27.861379623413
 20
28.720022201538
 30
0.0
 11
27.91450881958
 21
28.720022201538
 31
0.0
  0
LINE
  5
4E
100
AcDbEntity
  8
TFR-TRI
  6
CONTINUOUS
 62
           4
100
AcDbLine
 10
37.222545623779
 20
10.191661834717
 30
0.0
 11
37.222545623779
 21
10.178902626038
 31
0.0
  0
LINE
  5
4F
100
AcDbEntity
  8
TFR-TRI
  6
CONTINUOUS
 62
           4
100
AcDbLine
 10
21.049629211426
 20
30.269023895264
 30
0.0
 11
21.049629211426
 21
26.78652381897
 31
0.0
  0
LINE
  5
50
100
AcDbEntity
  8
TFR-TRI
  6
CONTINUOUS
 62
           4
100
AcDbLine
 10
27.117130279541
 20
20.261522293091
 30
0.0
 11
27.112852096558
 21
20.261522293091
 31
0.0
  0
LINE
  5
51
100
AcDbEntity
  8
TFR-TRI
  6
CONTINUOUS
 62
           4
100
AcDbLine
 10
2.107129573822
 20
7.589939594269
 30
0.0
 11
2.107129573822
 21
7.564051628113
 31
0.0
  0
LINE
  5
52
100
AcDbEntity
  8
TFR-TRI
  6
CONTINUOUS
 62
           4
100
AcDbLine
 10
37.748268127441
 20
8.212439537048
 30
0.0
 11
37.735507965088
 21
8.212439537048
 31
0.0
  0
LINE
  5
53
100
AcDbEntity
  8
TFR-TRI
  6
CONTINUOUS
 62
           4
100
AcDbLine
 10
37.735507965088
 20
8.212439537048
 30
0.0
 11
37.714485168457
 21
8.212439537048
 31
0.0
  0
LINE
  5
54
100
AcDbEntity
  8
TFR-TRI
  6
CONTINUOUS
 62
           4
100
AcDbLine
 10
28.101449966431
 20
28.720022201538
 30
0.0
 11
28.105628967285
 21
28.720022201538
 31
0.0
  0
LINE
  5
55
100
AcDbEntity
  8
TFR-TRI
  6
CONTINUOUS
 62
           4
100
AcDbLine
 10
24.379629135132
 20
30.169023513794
 30
0.0
 11
24.379629135132
 21
28.182523727417
 31
0.0
  0
LINE
  5
56
100
AcDbEntity
  8
TFR-TRI
  6
CONTINUOUS
 62
           4
100
AcDbLine
 10
37.44388961792
 20
8.212439537048
 30
0.0
 11
37.381954193115
 21
8.212439537048
 31
0.0
  0
LINE
  5
57
100
AcDbEntity
  8
TFR-TRI
  6
CONTINUOUS
 62
           4
100
AcDbLine
 10
6.367129802704
 20
31.520023345947
 30
0.0
 11
6.367129802704
 21
31.553550720215
 31
0.0
  0
LINE
  5
58
100
AcDbEntity
  8
TFR-TRI
  6
CONTINUOUS
 62
           4
100
AcDbLine
 10
3.000092506409
 20
8.212439537048
 30
0.0
 11
2.979069471359
 21
8.212439537048
 31
0.0
  0
LINE
  5
59
100
AcDbEntity
  8
TFR-TRI
  6
CONTINUOUS
 62
           4
100
AcDbLine
 10
28.105628967285
 20
7.564051628113
 30
0.0
 11
28.105628967285
 21
7.544186592102
 31
0.0
  0
LINE
  5
5A
100
AcDbEntity
  8
TFR-TRI
  6
CONTINUOUS
 62
           4
100
AcDbLine
 10
48.432544708252
 20
7.53243970871
 30
0.0
 11
48.432544708252
 21
7.536699295044
 31
0.0
  0
LINE
  5
5B
100
AcDbEntity
  8
TFR-TRI
  6
CONTINUOUS
 62
           4
100
AcDbLine
 10
37.222545623779
 20
10.049492835999
 30
0.0
 11
37.222545623779
 21
10.00032043457
 31
0.0
  0
LINE
  5
5C
100
AcDbEntity
  8
TFR-TRI
  6
CONTINUOUS
 62
           4
100
AcDbLine
 10
3.08411693573
 20
20.261522293091
 30
0.0
 11
3.055189847946
 21
20.261522293091
 31
0.0
  0
LINE
  5
5D
100
AcDbEntity
  8
TFR-TRI
  6
CONTINUOUS
 62
           4
100
AcDbLine
 10
27.220453262329
 20
8.212439537048
 30
0.0
 11
27.184116363525
 21
8.212439537048
 31
0.0
  0
LINE
  5
5E
100
AcDbEntity
  8
TFR-TRI
  6
CONTINUOUS
 62
           4
100
AcDbLine
 10
37.144046783447
 20
9.825349807739
 30
0.0
 11
37.144046783447
 21
9.887281417847
 31
0.0
  0
LINE
  5
5F
100
AcDbEntity
  8
TFR-TRI
  6
CONTINUOUS
 62
           4
100
AcDbLine
 10
19.549629211426
 20
30.269023895264
 30
0.0
 11
19.549629211426
 21
28.082523345947
 31
0.0
  0
LINE
  5
60
100
AcDbEntity
  8
TFR-TRI
  6
CONTINUOUS
 62
           4
100
AcDbLine
 10
26.74654006958
 20
20.340023040771
 30
0.0
 11
26.808471679688
 21
20.340023040771
 31
0.0
  0
LINE
  5
61
100
AcDbEntity
  8
TFR-TRI
  6
CONTINUOUS
 62
           4
100
AcDbLine
 10
48.432544708252
 20
8.182439804077
 30
0.0
 11
48.432544708252
 21
7.65743970871
 31
0.0
  0
LINE
  5
62
100
AcDbEntity
  8
TFR-TRI
  6
CONTINUOUS
 62
           4
100
AcDbLine
 10
6.367129802704
 20
8.212439537048
 30
0.0
 11
6.367129802704
 21
8.208420753479
 31
0.0
  0
LINE
  5
63
100
AcDbEntity
  8
TFR-TRI
  6
CONTINUOUS
 62
           4
100
AcDbLine
 10
2.913806200027
 20
8.290940284729
 30
0.0
 11
2.950142383575
 21
8.290940284729
 31
0.0
  0
LINE
  5
64
100
AcDbEntity
  8
TFR-TRI
  6
CONTINUOUS
 62
           4
100
AcDbLine
 10
37.752544403076
 20
7.802439689636
 30
0.0
 11
37.752544403076
 21
7.652439594269
 31
0.0
  0
LINE
  5
65
100
AcDbEntity
  8
TFR-TRI
  6
CONTINUOUS
 62
           4
100
AcDbLine
 10
3.08411693573
 20
20.340023040771
 30
0.0
 11
3.120452880859
 21
20.340023040771
 31
0.0
  0
LINE
  5
66
100
AcDbEntity
  8
TFR-TRI
  6
CONTINUOUS
 62
           4
100
AcDbLine
 10
7.509129524231
 20
24.487573623657
 30
0.0
 11
7.22912979126
 21
24.487573623657
 31
0.0
  0
LINE
  5
67
100
AcDbEntity
  8
TFR-TRI
  6
CONTINUOUS
 62
           4
100
AcDbLine
 10
37.502544403076
 20
8.290940284729
 30
0.0
 11
37.556926727295
 21
8.290940284729
 31
0.0
  0
LINE
  5
68
100
AcDbEntity
  8
TFR-TRI
  6
CONTINUOUS
 62
           4
100
AcDbLine
 10
27.15518951416
 20
8.290940284729
 30
0.0
 11
27.184116363525
 21
8.290940284729
 31
0.0
  0
LINE
  5
69
100
AcDbEntity
  8
TFR-TRI
  6
CONTINUOUS
 62
           4
100
AcDbLine
 10
27.425786972046
 20
8.290940284729
 30
0.0
 11
27.487720489502
 21
8.290940284729
 31
0.0
  0
LINE
  5
6A
100
AcDbEntity
  8
TFR-TRI
  6
CONTINUOUS
 62
           4
100
AcDbLine
 10
2.03280878067
 20
20.870023727417
 30
0.0
 11
2.028629541397
 21
20.870023727417
 31
0.0
  0
LINE
  5
6B
100
AcDbEntity
  8
TFR-TRI
  6
CONTINUOUS
 62
           4
100
AcDbLine
 10
3.45186662674
 20
20.340023040771
 30
0.0
 11
3.517129659653
 21
20.340023040771
 31
0.0
  0
LINE
  5
6C
100
AcDbEntity
  8
TFR-TRI
  6
CONTINUOUS
 62
           4
100
AcDbLine
 10
37.748268127441
 20
8.290940284729
 30
0.0
 11
37.752544403076
 21
8.290940284729
 31
0.0
  0
LINE
  5
6D
100
AcDbEntity
  8
TFR-TRI
  6
CONTINUOUS
 62
           4
100
AcDbLine
 10
37.752544403076
 20
8.189992904663
 30
0.0
 11
37.752544403076
 21
8.147861480713
 31
0.0
  0
LINE
  5
6E
100
AcDbEntity
  8
TFR-TRI
  6
CONTINUOUS
 62
           4
100
AcDbLine
 10
27.861379623413
 20
20.870023727417
 30
0.0
 11
27.91450881958
 21
20.870023727417
 31
0.0
  0
LINE
  5
6F
100
AcDbEntity
  8
TFR-TRI
  6
CONTINUOUS
 62
           4
100
AcDbLine
 10
2.028629541397
 20
28.720022201538
 30
0.0
 11
2.03280878067
 21
28.720022201538
 31
0.0
  0
LINE
  5
70
100
AcDbEntity
  8
TFR-TRI
  6
CONTINUOUS
 62
           4
100
AcDbLine
 10
45.705867767334
 20
8.290940284729
 30
0.0
 11
45.748992919922
 21
8.290940284729
 31
0.0
  0
LINE
  5
71
100
AcDbEntity
  8
TFR-TRI
  6
CONTINUOUS
 62
           4
100
AcDbLine
 10
27.121406555176
 20
8.212439537048
 30
0.0
 11
27.117130279541
 21
8.212439537048
 31
0.0
  0
LINE
  5
72
100
AcDbEntity
  8
TFR-TRI
  6
CONTINUOUS
 62
           4
100
AcDbLine
 10
28.004682540894
 20
28.720022201538
 30
0.0
 11
28.040182113647
 21
28.720022201538
 31
0.0
  0
LINE
  5
73
100
AcDbEntity
  8
TFR-TRI
  6
CONTINUOUS
 62
           4
100
AcDbLine
 10
3.212749004364
 20
20.261522293091
 30
0.0
 11
3.163576126099
 21
20.261522293091
 31
0.0
  0
LINE
  5
74
100
AcDbEntity
  8
TFR-TRI
  6
CONTINUOUS
 62
           4
100
AcDbLine
 10
4.070129394531
 20
27.653001785278
 30
0.0
 11
4.070129394531
 21
26.433002471924
 31
0.0
  0
LINE
  5
75
100
AcDbEntity
  8
TFR-TRI
  6
CONTINUOUS
 62
           4
100
AcDbLine
 10
46.102546691895
 20
8.212439537048
 30
0.0
 11
46.037284851074
 21
8.212439537048
 31
0.0
  0
LINE
  5
76
100
AcDbEntity
  8
TFR-TRI
  6
CONTINUOUS
 62
           4
100
AcDbLine
 10
48.277545928955
 20
8.290940284729
 30
0.0
 11
46.102546691895
 21
8.290940284729
 31
0.0
  0
LINE
  5
77
100
AcDbEntity
  8
TFR-TRI
  6
CONTINUOUS
 62
           4
100
AcDbLine
 10
45.602546691895
 20
8.099820137024
 30
0.0
 11
45.602546691895
 21
8.046689987183
 31
0.0
  0
LINE
  5
78
100
AcDbEntity
  8
TFR-TRI
  6
CONTINUOUS
 62
           4
100
AcDbLine
 10
8.659629821777
 20
30.269023895264
 30
0.0
 11
8.659629821777
 21
26.78652381897
 31
0.0
  0
LINE
  5
79
100
AcDbEntity
  8
TFR-TRI
  6
CONTINUOUS
 62
           4
100
AcDbLine
 10
45.705867767334
 20
8.212439537048
 30
0.0
 11
45.669532775879
 21
8.212439537048
 31
0.0
  0
LINE
  5
7A
100
AcDbEntity
  8
TFR-TRI
  6
CONTINUOUS
 62
           4
100
AcDbLine
 10
48.402545928955
 20
8.212439537048
 30
0.0
 11
48.398288726807
 21
8.212439537048
 31
0.0
  0
LINE
  5
7B
100
AcDbEntity
  8
TFR-TRI
  6
CONTINUOUS
 62
           4
100
AcDbLine
 10
4.070129394531
 20
23.653001785278
 30
0.0
 11
4.070129394531
 21
22.433002471924
 31
0.0
  0
LINE
  5
7C
100
AcDbEntity
  8
TFR-TRI
  6
CONTINUOUS
 62
           4
100
AcDbLine
 10
7.509129524231
 20
30.481573104858
 30
0.0
 11
7.509129524231
 21
27.870073318481
 31
0.0
  0
LINE
  5
7D
100
AcDbEntity
  8
TFR-TRI
  6
CONTINUOUS
 62
           4
100
AcDbLine
 10
2.517129659653
 20
28.720022201538
 30
0.0
 11
2.517129659653
 21
20.870023727417
 31
0.0
  0
LINE
  5
7E
100
AcDbEntity
  8
TFR-TRI
  6
CONTINUOUS
 62
           4
100
AcDbLine
 10
12.659629821777
 20
25.775022506714
 30
0.0
 11
12.659629821777
 21
24.700023651123
 31
0.0
  0
LINE
  5
7F
100
AcDbEntity
  8
TFR-TRI
  6
CONTINUOUS
 62
           4
100
AcDbLine
 10
27.134166717529
 20
8.212439537048
 30
0.0
 11
27.121406555176
 21
8.212439537048
 31
0.0
  0
LINE
  5
80
100
AcDbEntity
  8
TFR-TRI
  6
CONTINUOUS
 62
           4
100
AcDbLine
 10
48.432544708252
 20
7.59493970871
 30
0.0
 11
48.432544708252
 21
7.6250872612
 31
0.0
  0
LINE
  5
81
100
AcDbEntity
  8
TFR-TRI
  6
CONTINUOUS
 62
           4
100
AcDbLine
 10
27.117130279541
 20
8.257164955139
 30
0.0
 11
27.117130279541
 21
8.287411689758
 31
0.0
  0
LINE
  5
82
100
AcDbEntity
  8
TFR-TRI
  6
CONTINUOUS
 62
           4
100
AcDbLine
 10
26.617130279541
 20
10.1959400177
 30
0.0
 11
3.517129659653
 21
10.1959400177
 31
0.0
  0
LINE
  5
83
100
AcDbEntity
  8
TFR-TRI
  6
CONTINUOUS
 62
           4
100
AcDbLine
 10
2.767129659653
 20
8.290940284729
 30
0.0
 11
2.821510314941
 21
8.290940284729
 31
0.0
  0
LINE
  5
84
100
AcDbEntity
  8
TFR-TRI
  6
CONTINUOUS
 62
           4
100
AcDbLine
 10
27.962551116943
 20
20.870023727417
 30
0.0
 11
28.004682540894
 21
20.870023727417
 31
0.0
  0
LINE
  5
85
100
AcDbEntity
  8
TFR-TRI
  6
CONTINUOUS
 62
           4
100
AcDbLine
 10
2.028629541397
 20
7.652439594269
 30
0.0
 11
2.107129573822
 21
7.652439594269
 31
0.0
  0
LINE
  5
86
100
AcDbEntity
  8
TFR-TRI
  6
CONTINUOUS
 62
           4
100
AcDbLine
 10
27.680891036987
 20
28.720022201538
 30
0.0
 11
27.743562698364
 21
28.720022201538
 31
0.0
  0
LINE
  5
87
100
AcDbEntity
  8
TFR-TRI
  6
CONTINUOUS
 62
           4
100
AcDbLine
 10
3.017129659653
 20
20.344041824341
 30
0.0
 11
3.017129659653
 21
20.340023040771
 31
0.0
  0
LINE
  5
88
100
AcDbEntity
  8
TFR-TRI
  6
CONTINUOUS
 62
           4
100
AcDbLine
 10
2.028629541397
 20
7.620087623596
 30
0.0
 11
2.028629541397
 21
7.652439594269
 31
0.0
  0
LINE
  5
89
100
AcDbEntity
  8
TFR-TRI
  6
CONTINUOUS
 62
           4
100
AcDbLine
 10
28.040182113647
 20
28.720022201538
 30
0.0
 11
28.068445205688
 21
28.720022201538
 31
0.0
  0
LINE
  5
8A
100
AcDbEntity
  8
TFR-TRI
  6
CONTINUOUS
 62
           4
100
AcDbLine
 10
21.474630355835
 20
30.269023895264
 30
0.0
 11
21.474630355835
 21
26.78652381897
 31
0.0
  0
LINE
  5
8B
100
AcDbEntity
  8
TFR-TRI
  6
CONTINUOUS
 62
           4
100
AcDbLine
 10
27.050142288208
 20
20.261522293091
 30
0.0
 11
27.013805389404
 21
20.261522293091
 31
0.0
  0
LINE
  5
8C
100
AcDbEntity
  8
TFR-TRI
  6
CONTINUOUS
 62
           4
100
AcDbLine
 10
27.617130279541
 20
8.290940284729
 30
0.0
 11
27.617130279541
 21
8.212439537048
 31
0.0
  0
LINE
  5
8D
100
AcDbEntity
  8
TFR-TRI
  6
CONTINUOUS
 62
           4
100
AcDbLine
 10
37.606098175049
 20
8.212439537048
 30
0.0
 11
37.556926727295
 21
8.212439537048
 31
0.0
  0
LINE
  5
8E
100
AcDbEntity
  8
TFR-TRI
  6
CONTINUOUS
 62
           4
100
AcDbLine
 10
23.767129898071
 20
31.583797454834
 30
0.0
 11
23.767129898071
 21
31.607801437378
 31
0.0
  0
LINE
  5
8F
100
AcDbEntity
  8
TFR-TRI
  6
CONTINUOUS
 62
           4
100
AcDbLine
 10
37.222545623779
 20
10.157879829407
 30
0.0
 11
37.222545623779
 21
10.128952980042
 31
0.0
  0
LINE
  5
90
100
AcDbEntity
  8
TFR-TRI
  6
CONTINUOUS
 62
           4
100
AcDbLine
 10
22.625129699707
 20
27.870073318481
 30
0.0
 11
22.905130386353
 21
27.870073318481
 31
0.0
  0
LINE
  5
91
100
AcDbEntity
  8
TFR-TRI
  6
CONTINUOUS
 62
           4
100
AcDbLine
 10
26.682392120361
 20
20.261522293091
 30
0.0
 11
26.617130279541
 21
20.261522293091
 31
0.0
  0
LINE
  5
92
100
AcDbEntity
  8
TFR-TRI
  6
CONTINUOUS
 62
           4
100
AcDbLine
 10
28.105628967285
 20
7.652439594269
 30
0.0
 11
28.105628967285
 21
7.620087623596
 31
0.0
  0
LINE
  5
93
100
AcDbEntity
  8
TFR-TRI
  6
CONTINUOUS
 62
           4
100
AcDbLine
 10
37.649223327637
 20
8.212439537048
 30
0.0
 11
37.606098175049
 21
8.212439537048
 31
0.0
  0
LINE
  5
94
100
AcDbEntity
  8
TFR-TRI
  6
CONTINUOUS
 62
           4
100
AcDbLine
 10
46.102546691895
 20
8.290940284729
 30
0.0
 11
46.102546691895
 21
8.212439537048
 31
0.0
  0
LINE
  5
95
100
AcDbEntity
  8
TFR-TRI
  6
CONTINUOUS
 62
           4
100
AcDbLine
 10
27.367130279541
 20
8.212439537048
 30
0.0
 11
27.312749862671
 21
8.212439537048
 31
0.0
  0
LINE
  5
96
100
AcDbEntity
  8
TFR-TRI
  6
CONTINUOUS
 62
           4
100
AcDbLine
 10
6.367129802704
 20
31.623212814331
 30
0.0
 11
6.367129802704
 21
31.628522872925
 31
0.0
  0
LINE
  5
97
100
AcDbEntity
  8
TFR-TRI
  6
CONTINUOUS
 62
           4
100
AcDbLine
 10
13.084630012512
 20
30.269023895264
 30
0.0
 11
13.084630012512
 21
26.78652381897
 31
0.0
  0
LINE
  5
98
100
AcDbEntity
  8
TFR-TRI
  6
CONTINUOUS
 62
           4
100
AcDbLine
 10
28.027130126953
 20
7.531699180603
 30
0.0
 11
28.027130126953
 21
7.544186592102
 31
0.0
  0
LINE
  5
99
100
AcDbEntity
  8
TFR-TRI
  6
CONTINUOUS
 62
           4
100
AcDbLine
 10
37.144046783447
 20
8.3209400177
 30
0.0
 11
37.144046783447
 21
9.6959400177
 31
0.0
  0
LINE
  5
9A
100
AcDbEntity
  8
TFR-TRI
  6
CONTINUOUS
 62
           4
100
AcDbLine
 10
3.517129659653
 20
20.340023040771
 30
0.0
 11
26.617130279541
 21
20.340023040771
 31
0.0
  0
LINE
  5
9B
100
AcDbEntity
  8
TFR-TRI
  6
CONTINUOUS
 62
           4
100
AcDbLine
 10
23.767129898071
 20
8.212439537048
 30
0.0
 11
23.767129898071
 21
8.208420753479
 31
0.0
  0
LINE
  5
9C
100
AcDbEntity
  8
TFR-TRI
  6
CONTINUOUS
 62
           4
100
AcDbLine
 10
37.144046783447
 20
10.049492835999
 30
0.0
 11
37.144046783447
 21
10.092616081238
 31
0.0
  0
LINE
  5
9D
100
AcDbEntity
  8
TFR-TRI
  6
CONTINUOUS
 62
           4
100
AcDbLine
 10
23.767129898071
 20
31.623212814331
 30
0.0
 11
23.767129898071
 21
31.628522872925
 31
0.0
  0
LINE
  5
9E
100
AcDbEntity
  8
TFR-TRI
  6
CONTINUOUS
 62
           4
100
AcDbLine
 10
4.070129394531
 20
25.653001785278
 30
0.0
 11
4.070129394531
 21
24.433002471924
 31
0.0
  0
LINE
  5
9F
100
AcDbEntity
  8
TFR-TRI
  6
CONTINUOUS
 62
           4
100
AcDbLine
 10
23.767129898071
 20
8.182439804077
 30
0.0
 11
23.767129898071
 21
7.65743970871
 31
0.0
  0
LINE
  5
A0
100
AcDbEntity
  8
TFR-TRI
  6
CONTINUOUS
 62
           4
100
AcDbLine
 10
3.012851953506
 20
8.290940284729
 30
0.0
 11
3.017129659653
 21
8.290940284729
 31
0.0
  0
LINE
  5
A1
100
AcDbEntity
  8
TFR-TRI
  6
CONTINUOUS
 62
           4
100
AcDbLine
 10
3.02140712738
 20
20.340023040771
 30
0.0
 11
3.034166812897
 21
20.340023040771
 31
0.0
  0
LINE
  5
A2
100
AcDbEntity
  8
TFR-TRI
  6
CONTINUOUS
 62
           4
100
AcDbLine
 10
37.317810058594
 20
8.290940284729
 30
0.0
 11
37.381954193115
 21
8.290940284729
 31
0.0
  0
LINE
  5
A3
100
AcDbEntity
  8
TFR-TRI
  6
CONTINUOUS
 62
           4
100
AcDbLine
 10
45.602546691895
 20
8.27429485321
 30
0.0
 11
45.602546691895
 21
8.253754615784
 31
0.0
  0
LINE
  5
A4
100
AcDbEntity
  8
TFR-TRI
  6
CONTINUOUS
 62
           4
100
AcDbLine
 10
27.263576507568
 20
8.290940284729
 30
0.0
 11
27.312749862671
 21
8.290940284729
 31
0.0
  0
LINE
  5
A5
100
AcDbEntity
  8
TFR-TRI
  6
CONTINUOUS
 62
           4
100
AcDbLine
 10
5.754629611969
 20
30.169023513794
 30
0.0
 11
5.754629611969
 21
28.182523727417
 31
0.0
  0
LINE
  5
A6
100
AcDbEntity
  8
TFR-TRI
  6
CONTINUOUS
 62
           4
100
AcDbLine
 10
6.379629611969
 20
26.78652381897
 30
0.0
 11
6.379629611969
 21
24.800024032593
 31
0.0
  0
LINE
  5
A7
100
AcDbEntity
  8
TFR-TRI
  6
CONTINUOUS
 62
           4
100
AcDbLine
 10
37.685558319092
 20
8.290940284729
 30
0.0
 11
37.714485168457
 21
8.290940284729
 31
0.0
  0
LINE
  5
A8
100
AcDbEntity
  8
TFR-TRI
  6
CONTINUOUS
 62
           4
100
AcDbLine
 10
37.752544403076
 20
8.27429485321
 30
0.0
 11
37.752544403076
 21
8.253754615784
 31
0.0
  0
LINE
  5
A9
100
AcDbEntity
  8
TFR-TRI
  6
CONTINUOUS
 62
           4
100
AcDbLine
 10
6.379629611969
 20
30.169023513794
 30
0.0
 11
6.379629611969
 21
28.182523727417
 31
0.0
  0
LINE
  5
AA
100
AcDbEntity
  8
TFR-TRI
  6
CONTINUOUS
 62
           4
100
AcDbLine
 10
22.625129699707
 20
24.487573623657
 30
0.0
 11
22.905130386353
 21
24.487573623657
 31
0.0
  0
LINE
  5
AB
100
AcDbEntity
  8
TFR-TRI
  6
CONTINUOUS
 62
           4
100
AcDbLine
 10
7.22912979126
 20
27.099073410034
 30
0.0
 11
7.22912979126
 21
24.487573623657
 31
0.0
  0
LINE
  5
AC
100
AcDbEntity
  8
TFR-TRI
  6
CONTINUOUS
 62
           4
100
AcDbLine
 10
45.619583129883
 20
8.290940284729
 30
0.0
 11
45.640605926514
 21
8.290940284729
 31
0.0
  0
LINE
  5
AD
100
AcDbEntity
  8
TFR-TRI
  6
CONTINUOUS
 62
           4
100
AcDbLine
 10
37.752544403076
 20
7.989380836487
 30
0.0
 11
37.752544403076
 21
7.928873062134
 31
0.0
  0
LINE
  5
AE
100
AcDbEntity
  8
TFR-TRI
  6
CONTINUOUS
 62
           4
100
AcDbLine
 10
2.094076156616
 20
28.720022201538
 30
0.0
 11
2.129576444626
 21
28.720022201538
 31
0.0
  0
LINE
  5
AF
100
AcDbEntity
  8
TFR-TRI
  6
CONTINUOUS
 62
           4
100
AcDbLine
 10
45.911205291748
 20
8.290940284729
 30
0.0
 11
45.973136901855
 21
8.290940284729
 31
0.0
  0
LINE
  5
B0
100
AcDbEntity
  8
TFR-TRI
  6
CONTINUOUS
 62
           4
100
AcDbLine
 10
37.222545623779
 20
9.761202812195
 30
0.0
 11
37.222545623779
 21
9.6959400177
 31
0.0
  0
LINE
  5
B1
100
AcDbEntity
  8
TFR-TRI
  6
CONTINUOUS
 62
           4
100
AcDbLine
 10
3.017129659653
 20
8.257164955139
 30
0.0
 11
3.017129659653
 21
8.287411689758
 31
0.0
  0
LINE
  5
B2
100
AcDbEntity
  8
TFR-TRI
  6
CONTINUOUS
 62
           4
100
AcDbLine
 10
45.852546691895
 20
8.212439537048
 30
0.0
 11
45.798164367676
 21
8.212439537048
 31
0.0
  0
LINE
  5
B3
100
AcDbEntity
  8
TFR-TRI
  6
CONTINUOUS
 62
           4
100
AcDbLine
 10
48.365936279297
 20
8.290940284729
 30
0.0
 11
48.385799407959
 21
8.290940284729
 31
0.0
  0
LINE
  5
B4
100
AcDbEntity
  8
TFR-TRI
  6
CONTINUOUS
 62
           4
100
AcDbLine
 10
45.602546691895
 20
7.866201877594
 30
0.0
 11
45.602546691895
 21
7.802439689636
 31
0.0
  0
LINE
  5
B5
100
AcDbEntity
  8
TFR-TRI
  6
CONTINUOUS
 62
           4
100
AcDbLine
 10
48.340045928955
 20
8.212439537048
 30
0.0
 11
48.309898376465
 21
8.212439537048
 31
0.0
  0
LINE
  5
B6
100
AcDbEntity
  8
TFR-TRI
  6
CONTINUOUS
 62
           4
100
AcDbLine
 10
4.10012960434
 20
31.395023345947
 30
0.0
 11
4.10012960434
 21
29.220022201538
 31
0.0
  0
LINE
  5
B7
100
AcDbEntity
  8
TFR-TRI
  6
CONTINUOUS
 62
           4
100
AcDbLine
 10
2.330188751221
 20
28.720022201538
 30
0.0
 11
2.390696525574
 21
28.720022201538
 31
0.0
  0
LINE
  5
B8
100
AcDbEntity
  8
TFR-TRI
  6
CONTINUOUS
 62
           4
100
AcDbLine
 10
2.453367471695
 20
20.870023727417
 30
0.0
 11
2.390696525574
 21
20.870023727417
 31
0.0
  0
LINE
  5
B9
100
AcDbEntity
  8
TFR-TRI
  6
CONTINUOUS
 62
           4
100
AcDbLine
 10
37.144046783447
 20
10.128952980042
 30
0.0
 11
37.144046783447
 21
10.157879829407
 31
0.0
  0
LINE
  5
BA
100
AcDbEntity
  8
TFR-TRI
  6
CONTINUOUS
 62
           4
100
AcDbLine
 10
2.094076156616
 20
20.870023727417
 30
0.0
 11
2.065814495087
 21
20.870023727417
 31
0.0
  0
LINE
  5
BB
100
AcDbEntity
  8
TFR-TRI
  6
CONTINUOUS
 62
           4
100
AcDbLine
 10
27.117130279541
 20
8.3209400177
 30
0.0
 11
27.117130279541
 21
9.6959400177
 31
0.0
  0
LINE
  5
BC
100
AcDbEntity
  8
TFR-TRI
  6
CONTINUOUS
 62
           4
100
AcDbLine
 10
2.582392692566
 20
8.290940284729
 30
0.0
 11
2.646539211273
 21
8.290940284729
 31
0.0
  0
LINE
  5
BD
100
AcDbEntity
  8
TFR-TRI
  6
CONTINUOUS
 62
           4
100
AcDbLine
 10
27.804071426392
 20
20.870023727417
 30
0.0
 11
27.861379623413
 21
20.870023727417
 31
0.0
  0
LINE
  5
BE
100
AcDbEntity
  8
TFR-TRI
  6
CONTINUOUS
 62
           4
100
AcDbLine
 10
6.367129802704
 20
8.1974401474
 30
0.0
 11
6.367129802704
 21
8.182439804077
 31
0.0
  0
LINE
  5
BF
100
AcDbEntity
  8
TFR-TRI
  6
CONTINUOUS
 62
           4
100
AcDbLine
 10
27.617130279541
 20
28.720022201538
 30
0.0
 11
26.534130096436
 21
28.720022201538
 31
0.0
  0
LINE
  5
C0
100
AcDbEntity
  8
TFR-TRI
  6
CONTINUOUS
 62
           4
100
AcDbLine
 10
28.088983535767
 20
20.870023727417
 30
0.0
 11
28.101449966431
 21
20.870023727417
 31
0.0
  0
LINE
  5
C1
100
AcDbEntity
  8
TFR-TRI
  6
CONTINUOUS
 62
           4
100
AcDbLine
 10
37.752544403076
 20
8.2867603302
 30
0.0
 11
37.752544403076
 21
8.27429485321
 31
0.0
  0
LINE
  5
C2
100
AcDbEntity
  8
TFR-TRI
  6
CONTINUOUS
 62
           4
100
AcDbLine
 10
18.474630355835
 20
30.269023895264
 30
0.0
 11
18.474630355835
 21
28.082523345947
 31
0.0
  0
LINE
  5
C3
100
AcDbEntity
  8
TFR-TRI
  6
CONTINUOUS
 62
           4
100
AcDbLine
 10
27.117130279541
 20
20.344041824341
 30
0.0
 11
27.117130279541
 21
20.340023040771
 31
0.0
  0
LINE
  5
C4
100
AcDbEntity
  8
TFR-TRI
  6
CONTINUOUS
 62
           4
100
AcDbLine
 10
2.028629541397
 20
7.544186592102
 30
0.0
 11
2.028629541397
 21
7.564051628113
 31
0.0
  0
LINE
  5
C5
100
AcDbEntity
  8
TFR-TRI
  6
CONTINUOUS
 62
           4
100
AcDbLine
 10
26.064128875732
 20
27.653001785278
 30
0.0
 11
26.064128875732
 21
26.433002471924
 31
0.0
  0
LINE
  5
C6
100
AcDbEntity
  8
TFR-TRI
  6
CONTINUOUS
 62
           4
100
AcDbLine
 10
27.91450881958
 20
28.720022201538
 30
0.0
 11
27.962551116943
 21
28.720022201538
 31
0.0
  0
LINE
  5
C7
100
AcDbEntity
  8
TFR-TRI
  6
CONTINUOUS
 62
           4
100
AcDbLine
 10
27.112852096558
 20
20.261522293091
 30
0.0
 11
27.100091934204
 21
20.261522293091
 31
0.0
  0
LINE
  5
C8
100
AcDbEntity
  8
TFR-TRI
  6
CONTINUOUS
 62
           4
100
AcDbLine
 10
3.163576126099
 20
20.340023040771
 30
0.0
 11
3.212749004364
 21
20.340023040771
 31
0.0
  0
LINE
  5
C9
100
AcDbEntity
  8
TFR-TRI
  6
CONTINUOUS
 62
           4
100
AcDbLine
 10
2.107129573822
 20
7.564051628113
 30
0.0
 11
2.107129573822
 21
7.544186592102
 31
0.0
  0
LINE
  5
CA
100
AcDbEntity
  8
TFR-TRI
  6
CONTINUOUS
 62
           4
100
AcDbLine
 10
37.714485168457
 20
8.212439537048
 30
0.0
 11
37.685558319092
 21
8.212439537048
 31
0.0
  0
LINE
  5
CB
100
AcDbEntity
  8
TFR-TRI
  6
CONTINUOUS
 62
           4
100
AcDbLine
 10
28.105628967285
 20
28.720022201538
 30
0.0
 11
28.105628967285
 21
20.870023727417
 31
0.0
  0
LINE
  5
CC
100
AcDbEntity
  8
TFR-TRI
  6
CONTINUOUS
 62
           4
100
AcDbLine
 10
27.551866531372
 20
8.212439537048
 30
0.0
 11
27.487720489502
 21
8.212439537048
 31
0.0
  0
LINE
  5
CD
100
AcDbEntity
  8
TFR-TRI
  6
CONTINUOUS
 62
           4
100
AcDbLine
 10
28.027130126953
 20
7.802439689636
 30
0.0
 11
28.027130126953
 21
7.652439594269
 31
0.0
  0
LINE
  5
CE
100
AcDbEntity
  8
TFR-TRI
  6
CONTINUOUS
 62
           4
100
AcDbLine
 10
45.477546691895
 20
7.527439594269
 30
0.0
 11
37.877544403076
 21
7.527439594269
 31
0.0
  0
LINE
  5
CF
100
AcDbEntity
  8
TFR-TRI
  6
CONTINUOUS
 62
           4
100
AcDbLine
 10
6.367129802704
 20
31.553550720215
 30
0.0
 11
6.367129802704
 21
31.583797454834
 31
0.0
  0
LINE
  5
D0
100
AcDbEntity
  8
TFR-TRI
  6
CONTINUOUS
 62
           4
100
AcDbLine
 10
3.017129659653
 20
20.370023727417
 30
0.0
 11
27.117130279541
 21
20.370023727417
 31
0.0
  0
LINE
  5
D1
100
AcDbEntity
  8
TFR-TRI
  6
CONTINUOUS
 62
           4
100
AcDbLine
 10
3.387720108032
 20
20.261522293091
 30
0.0
 11
3.325788021088
 21
20.261522293091
 31
0.0
  0
LINE
  5
D2
100
AcDbEntity
  8
TFR-TRI
  6
CONTINUOUS
 62
           4
100
AcDbLine
 10
27.220453262329
 20
8.290940284729
 30
0.0
 11
27.263576507568
 21
8.290940284729
 31
0.0
  0
LINE
  5
D3
100
AcDbEntity
  8
TFR-TRI
  6
CONTINUOUS
 62
           4
100
AcDbLine
 10
28.105628967285
 20
7.544186592102
 30
0.0
 11
28.105628967285
 21
7.531699180603
 31
0.0
  0
LINE
  5
D4
100
AcDbEntity
  8
TFR-TRI
  6
CONTINUOUS
 62
           4
100
AcDbLine
 10
37.222545623779
 20
8.3209400177
 30
0.0
 11
37.144046783447
 21
8.3209400177
 31
0.0
  0
LINE
  5
D5
100
AcDbEntity
  8
TFR-TRI
  6
CONTINUOUS
 62
           4
100
AcDbLine
 10
48.432544708252
 20
7.536699295044
 30
0.0
 11
48.432544708252
 21
7.549186706543
 31
0.0
  0
LINE
  5
D6
100
AcDbEntity
  8
TFR-TRI
  6
CONTINUOUS
 62
           4
100
AcDbLine
 10
3.055189847946
 20
20.261522293091
 30
0.0
 11
3.034166812897
 21
20.261522293091
 31
0.0
  0
LINE
  5
D7
100
AcDbEntity
  8
TFR-TRI
  6
CONTINUOUS
 62
           4
100
AcDbLine
 10
28.027130126953
 20
7.620087623596
 30
0.0
 11
28.027130126953
 21
7.652439594269
 31
0.0
  0
LINE
  5
D8
100
AcDbEntity
  8
TFR-TRI
  6
CONTINUOUS
 62
           4
100
AcDbLine
 10
37.144046783447
 20
9.887281417847
 30
0.0
 11
37.144046783447
 21
9.9459400177
 31
0.0
  0
LINE
  5
D9
100
AcDbEntity
  8
TFR-TRI
  6
CONTINUOUS
 62
           4
100
AcDbLine
 10
25.784130096436
 20
27.653001785278
 30
0.0
 11
25.784130096436
 21
26.433002471924
 31
0.0
  0
LINE
  5
DA
100
AcDbEntity
  8
TFR-TRI
  6
CONTINUOUS
 62
           4
100
AcDbLine
 10
26.808471679688
 20
20.340023040771
 30
0.0
 11
26.867130279541
 21
20.340023040771
 31
0.0
  0
LINE
  5
DB
100
AcDbEntity
  8
TFR-TRI
  6
CONTINUOUS
 62
           4
100
AcDbLine
 10
6.367129802704
 20
8.208420753479
 30
0.0
 11
6.367129802704
 21
8.1974401474
 31
0.0
  0
LINE
  5
DC
100
AcDbEntity
  8
TFR-TRI
  6
CONTINUOUS
 62
           4
100
AcDbLine
 10
37.144046783447
 20
10.178902626038
 30
0.0
 11
37.144046783447
 21
10.191661834717
 31
0.0
  0
LINE
  5
DD
100
AcDbEntity
  8
TFR-TRI
  6
CONTINUOUS
 62
           4
100
AcDbLine
 10
27.100091934204
 20
20.340023040771
 30
0.0
 11
27.112852096558
 21
20.340023040771
 31
0.0
  0
LINE
  5
DE
100
AcDbEntity
  8
TFR-TRI
  6
CONTINUOUS
 62
           4
100
AcDbLine
 10
19.549629211426
 20
26.886522293091
 30
0.0
 11
19.549629211426
 21
24.700023651123
 31
0.0
  0
LINE
  5
DF
100
AcDbEntity
  8
TFR-TRI
  6
CONTINUOUS
 62
           4
100
AcDbLine
 10
37.752544403076
 20
8.212439537048
 30
0.0
 11
37.748268127441
 21
8.212439537048
 31
0.0
  0
LINE
  5
E0
100
AcDbEntity
  8
TFR-TRI
  6
CONTINUOUS
 62
           4
100
AcDbLine
 10
3.120452880859
 20
20.340023040771
 30
0.0
 11
3.163576126099
 21
20.340023040771
 31
0.0
  0
LINE
  5
E1
100
AcDbEntity
  8
TFR-TRI
  6
CONTINUOUS
 62
           4
100
AcDbLine
 10
48.511047363281
 20
7.569051265717
 30
0.0
 11
48.511047363281
 21
7.549186706543
 31
0.0
  0
LINE
  5
E2
100
AcDbEntity
  8
TFR-TRI
  6
CONTINUOUS
 62
           4
100
AcDbLine
 10
37.556926727295
 20
8.290940284729
 30
0.0
 11
37.606098175049
 21
8.290940284729
 31
0.0
  0
LINE
  5
E3
100
AcDbEntity
  8
TFR-TRI
  6
CONTINUOUS
 62
           4
100
AcDbLine
 10
4.35012960434
 20
25.653001785278
 30
0.0
 11
4.35012960434
 21
24.433002471924
 31
0.0
  0
LINE
  5
E4
100
AcDbEntity
  8
TFR-TRI
  6
CONTINUOUS
 62
           4
100
AcDbLine
 10
27.487720489502
 20
8.290940284729
 30
0.0
 11
27.551866531372
 21
8.290940284729
 31
0.0
  0
LINE
  5
E5
100
AcDbEntity
  8
TFR-TRI
  6
CONTINUOUS
 62
           4
100
AcDbLine
 10
26.617130279541
 20
20.261522293091
 30
0.0
 11
26.617130279541
 21
20.340023040771
 31
0.0
  0
LINE
  5
E6
100
AcDbEntity
  8
TFR-TRI
  6
CONTINUOUS
 62
           4
100
AcDbLine
 10
45.602546691895
 20
8.290940284729
 30
0.0
 11
37.752544403076
 21
8.290940284729
 31
0.0
  0
LINE
  5
E7
100
AcDbEntity
  8
TFR-TRI
  6
CONTINUOUS
 62
           4
100
AcDbLine
 10
37.752544403076
 20
8.147861480713
 30
0.0
 11
37.752544403076
 21
8.099820137024
 31
0.0
  0
LINE
  5
E8
100
AcDbEntity
  8
TFR-TRI
  6
CONTINUOUS
 62
           4
100
AcDbLine
 10
37.222545623779
 20
9.9459400177
 30
0.0
 11
37.222545623779
 21
9.887281417847
 31
0.0
  0
LINE
  5
E9
100
AcDbEntity
  8
TFR-TRI
  6
CONTINUOUS
 62
           4
100
AcDbLine
 10
17.049629211426
 20
25.775022506714
 30
0.0
 11
17.049629211426
 21
24.700023651123
 31
0.0
  0
LINE
  5
EA
100
AcDbEntity
  8
TFR-TRI
  6
CONTINUOUS
 62
           4
100
AcDbLine
 10
2.03280878067
 20
28.720022201538
 30
0.0
 11
2.045274972916
 21
28.720022201538
 31
0.0
  0
LINE
  5
EB
100
AcDbEntity
  8
TFR-TRI
  6
CONTINUOUS
 62
           4
100
AcDbLine
 10
45.748992919922
 20
8.290940284729
 30
0.0
 11
45.798164367676
 21
8.290940284729
 31
0.0
  0
LINE
  5
EC
100
AcDbEntity
  8
TFR-TRI
  6
CONTINUOUS
 62
           4
100
AcDbLine
 10
45.602546691895
 20
8.2867603302
 30
0.0
 11
45.602546691895
 21
8.27429485321
 31
0.0
  0
LINE
  5
ED
100
AcDbEntity
  8
TFR-TRI
  6
CONTINUOUS
 62
           4
100
AcDbLine
 10
10.584630012512
 20
30.269023895264
 30
0.0
 11
10.584630012512
 21
28.082523345947
 31
0.0
  0
LINE
  5
EE
100
AcDbEntity
  8
TFR-TRI
  6
CONTINUOUS
 62
           4
100
AcDbLine
 10
45.973136901855
 20
8.212439537048
 30
0.0
 11
45.911205291748
 21
8.212439537048
 31
0.0
  0
LINE
  5
EF
100
AcDbEntity
  8
TFR-TRI
  6
CONTINUOUS
 62
           4
100
AcDbLine
 10
46.037284851074
 20
8.212439537048
 30
0.0
 11
45.973136901855
 21
8.212439537048
 31
0.0
  0
LINE
  5
F0
100
AcDbEntity
  8
TFR-TRI
  6
CONTINUOUS
 62
           4
100
AcDbLine
 10
45.602546691895
 20
8.046689987183
 30
0.0
 11
45.602546691895
 21
7.989380836487
 31
0.0
  0
LINE
  5
F1
100
AcDbEntity
  8
TFR-TRI
  6
CONTINUOUS
 62
           4
100
AcDbLine
 10
2.708471298218
 20
8.212439537048
 30
0.0
 11
2.646539211273
 21
8.212439537048
 31
0.0
  0
LINE
  5
F2
100
AcDbEntity
  8
TFR-TRI
  6
CONTINUOUS
 62
           4
100
AcDbLine
 10
6.367129802704
 20
31.607801437378
 30
0.0
 11
6.367129802704
 21
31.623212814331
 31
0.0
  0
LINE
  5
F3
100
AcDbEntity
  8
TFR-TRI
  6
CONTINUOUS
 62
           4
100
AcDbLine
 10
45.669532775879
 20
8.212439537048
 30
0.0
 11
45.640605926514
 21
8.212439537048
 31
0.0
  0
LINE
  5
F4
100
AcDbEntity
  8
TFR-TRI
  6
CONTINUOUS
 62
           4
100
AcDbLine
 10
48.398288726807
 20
8.212439537048
 30
0.0
 11
48.385799407959
 21
8.212439537048
 31
0.0
  0
LINE
  5
F5
100
AcDbEntity
  8
TFR-TRI
  6
CONTINUOUS
 62
           4
100
AcDbLine
 10
27.117130279541
 20
8.217750549316
 30
0.0
 11
27.117130279541
 21
8.23316192627
 31
0.0
  0
LINE
  5
F6
100
AcDbEntity
  8
TFR-TRI
  6
CONTINUOUS
 62
           4
100
AcDbLine
 10
2.219749689102
 20
20.870023727417
 30
0.0
 11
2.171707868576
 21
20.870023727417
 31
0.0
  0
LINE
  5
F7
100
AcDbEntity
  8
TFR-TRI
  6
CONTINUOUS
 62
           4
100
AcDbLine
 10
7.509129524231
 20
27.870073318481
 30
0.0
 11
7.22912979126
 21
27.870073318481
 31
0.0
  0
LINE
  5
F8
100
AcDbEntity
  8
TFR-TRI
  6
CONTINUOUS
 62
           4
100
AcDbLine
 10
2.171707868576
 20
28.720022201538
 30
0.0
 11
2.219749689102
 21
28.720022201538
 31
0.0
  0
LINE
  5
F9
100
AcDbEntity
  8
TFR-TRI
  6
CONTINUOUS
 62
           4
100
AcDbLine
 10
23.767129898071
 20
8.1974401474
 30
0.0
 11
23.767129898071
 21
8.182439804077
 31
0.0
  0
LINE
  5
FA
100
AcDbEntity
  8
TFR-TRI
  6
CONTINUOUS
 62
           4
100
AcDbLine
 10
3.012851953506
 20
8.212439537048
 30
0.0
 11
3.000092506409
 21
8.212439537048
 31
0.0
  0
LINE
  5
FB
100
AcDbEntity
  8
TFR-TRI
  6
CONTINUOUS
 62
           4
100
AcDbLine
 10
48.432544708252
 20
7.65743970871
 30
0.0
 11
48.511047363281
 21
7.65743970871
 31
0.0
  0
LINE
  5
FC
100
AcDbEntity
  8
TFR-TRI
  6
CONTINUOUS
 62
           4
100
AcDbLine
 10
27.617130279541
 20
20.870023727417
 30
0.0
 11
27.680891036987
 21
20.870023727417
 31
0.0
  0
LINE
  5
FD
100
AcDbEntity
  8
TFR-TRI
  6
CONTINUOUS
 62
           4
100
AcDbLine
 10
23.754629135132
 20
26.78652381897
 30
0.0
 11
23.754629135132
 21
24.800024032593
 31
0.0
  0
LINE
  5
FE
100
AcDbEntity
  8
TFR-TRI
  6
CONTINUOUS
 62
           4
100
AcDbLine
 10
19.974630355835
 20
26.886522293091
 30
0.0
 11
19.974630355835
 21
24.700023651123
 31
0.0
  0
LINE
  5
FF
100
AcDbEntity
  8
TFR-TRI
  6
CONTINUOUS
 62
           4
100
AcDbLine
 10
28.004682540894
 20
20.870023727417
 30
0.0
 11
28.040182113647
 21
20.870023727417
 31
0.0
  0
LINE
  5
100
100
AcDbEntity
  8
TFR-TRI
  6
CONTINUOUS
 62
           4
100
AcDbLine
 10
22.625129699707
 20
27.099073410034
 30
0.0
 11
22.625129699707
 21
24.487573623657
 31
0.0
  0
LINE
  5
101
100
AcDbEntity
  8
TFR-TRI
  6
CONTINUOUS
 62
           4
100
AcDbLine
 10
23.767129898071
 20
31.520023345947
 30
0.0
 11
6.367129802704
 21
31.520023345947
 31
0.0
  0
LINE
  5
102
100
AcDbEntity
  8
TFR-TRI
  6
CONTINUOUS
 62
           4
100
AcDbLine
 10
3.055189847946
 20
20.340023040771
 30
0.0
 11
3.08411693573
 21
20.340023040771
 31
0.0
  0
LINE
  5
103
100
AcDbEntity
  8
TFR-TRI
  6
CONTINUOUS
 62
           4
100
AcDbLine
 10
2.107129573822
 20
7.802439689636
 30
0.0
 11
2.107129573822
 21
7.652439594269
 31
0.0
  0
LINE
  5
104
100
AcDbEntity
  8
TFR-TRI
  6
CONTINUOUS
 62
           4
100
AcDbLine
 10
27.743562698364
 20
28.720022201538
 30
0.0
 11
27.804071426392
 21
28.720022201538
 31
0.0
  0
LINE
  5
105
100
AcDbEntity
  8
TFR-TRI
  6
CONTINUOUS
 62
           4
100
AcDbLine
 10
3.02140712738
 20
20.261522293091
 30
0.0
 11
3.017129659653
 21
20.261522293091
 31
0.0
  0
LINE
  5
106
100
AcDbEntity
  8
TFR-TRI
  6
CONTINUOUS
 62
           4
100
AcDbLine
 10
19.974630355835
 20
30.269023895264
 30
0.0
 11
19.974630355835
 21
28.082523345947
 31
0.0
  0
LINE
  5
107
100
AcDbEntity
  8
TFR-TRI
  6
CONTINUOUS
 62
           4
100
AcDbLine
 10
27.117130279541
 20
20.340023040771
 30
0.0
 11
27.117130279541
 21
20.261522293091
 31
0.0
  0
LINE
  5
108
100
AcDbEntity
  8
TFR-TRI
  6
CONTINUOUS
 62
           4
100
AcDbLine
 10
2.107129573822
 20
7.652439594269
 30
0.0
 11
2.107129573822
 21
7.620087623596
 31
0.0
  0
LINE
  5
109
100
AcDbEntity
  8
TFR-TRI
  6
CONTINUOUS
 62
           4
100
AcDbLine
 10
45.602546691895
 20
7.802439689636
 30
0.0
 11
37.752544403076
 21
7.802439689636
 31
0.0
  0
LINE
  5
10A
100
AcDbEntity
  8
TFR-TRI
  6
CONTINUOUS
 62
           4
100
AcDbLine
 10
23.754629135132
 20
30.169023513794
 30
0.0
 11
23.754629135132
 21
28.182523727417
 31
0.0
  0
LINE
  5
10B
100
AcDbEntity
  8
TFR-TRI
  6
CONTINUOUS
 62
           4
100
AcDbLine
 10
27.013805389404
 20
20.261522293091
 30
0.0
 11
26.970682144165
 21
20.261522293091
 31
0.0
  0
LINE
  5
10C
100
AcDbEntity
  8
TFR-TRI
  6
CONTINUOUS
 62
           4
100
AcDbLine
 10
27.134166717529
 20
8.290940284729
 30
0.0
 11
27.15518951416
 21
8.290940284729
 31
0.0
  0
LINE
  5
10D
100
AcDbEntity
  8
TFR-TRI
  6
CONTINUOUS
 62
           4
100
AcDbLine
 10
23.767129898071
 20
31.607801437378
 30
0.0
 11
23.767129898071
 21
31.623212814331
 31
0.0
  0
LINE
  5
10E
100
AcDbEntity
  8
TFR-TRI
  6
CONTINUOUS
 62
           4
100
AcDbLine
 10
22.625129699707
 20
30.481573104858
 30
0.0
 11
22.625129699707
 21
27.870073318481
 31
0.0
  0
LINE
  5
10F
100
AcDbEntity
  8
TFR-TRI
  6
CONTINUOUS
 62
           4
100
AcDbLine
 10
26.617130279541
 20
20.261522293091
 30
0.0
 11
3.517129659653
 21
20.261522293091
 31
0.0
  0
LINE
  5
110
100
AcDbEntity
  8
TFR-TRI
  6
CONTINUOUS
 62
           4
100
AcDbLine
 10
45.602546691895
 20
8.225493431091
 30
0.0
 11
45.602546691895
 21
8.189992904663
 31
0.0
  0
LINE
  5
111
100
AcDbEntity
  8
TFR-TRI
  6
CONTINUOUS
 62
           4
100
AcDbLine
 10
28.105628967285
 20
7.620087623596
 30
0.0
 11
28.105628967285
 21
7.589939594269
 31
0.0
  0
LINE
  5
112
100
AcDbEntity
  8
TFR-TRI
  6
CONTINUOUS
 62
           4
100
AcDbLine
 10
48.511047363281
 20
7.549186706543
 30
0.0
 11
48.511047363281
 21
7.536699295044
 31
0.0
  0
LINE
  5
113
100
AcDbEntity
  8
TFR-TRI
  6
CONTINUOUS
 62
           4
100
AcDbLine
 10
3.163576126099
 20
20.261522293091
 30
0.0
 11
3.120452880859
 21
20.261522293091
 31
0.0
  0
LINE
  5
114
100
AcDbEntity
  8
TFR-TRI
  6
CONTINUOUS
 62
           4
100
AcDbLine
 10
9.084630012512
 20
25.775022506714
 30
0.0
 11
9.084630012512
 21
24.700023651123
 31
0.0
  0
LINE
  5
115
100
AcDbEntity
  8
TFR-TRI
  6
CONTINUOUS
 62
           4
100
AcDbLine
 10
28.027130126953
 20
7.544186592102
 30
0.0
 11
28.027130126953
 21
7.564051628113
 31
0.0
  0
LINE
  5
116
100
AcDbEntity
  8
TFR-TRI
  6
CONTINUOUS
 62
           4
100
AcDbLine
 10
37.144046783447
 20
9.6959400177
 30
0.0
 11
37.144046783447
 21
9.761202812195
 31
0.0
  0
LINE
  5
117
100
AcDbEntity
  8
TFR-TRI
  6
CONTINUOUS
 62
           4
100
AcDbLine
 10
48.432544708252
 20
7.6250872612
 30
0.0
 11
48.432544708252
 21
7.65743970871
 31
0.0
  0
LINE
  5
118
100
AcDbEntity
  8
TFR-TRI
  6
CONTINUOUS
 62
           4
100
AcDbLine
 10
3.267129659653
 20
20.261522293091
 30
0.0
 11
3.212749004364
 21
20.261522293091
 31
0.0
  0
LINE
  5
119
100
AcDbEntity
  8
TFR-TRI
  6
CONTINUOUS
 62
           4
100
AcDbLine
 10
4.35012960434
 20
23.653001785278
 30
0.0
 11
4.35012960434
 21
22.433002471924
 31
0.0
  0
LINE
  5
11A
100
AcDbEntity
  8
TFR-TRI
  6
CONTINUOUS
 62
           4
100
AcDbLine
 10
23.767129898071
 20
8.208420753479
 30
0.0
 11
23.767129898071
 21
8.1974401474
 31
0.0
  0
LINE
  5
11B
100
AcDbEntity
  8
TFR-TRI
  6
CONTINUOUS
 62
           4
100
AcDbLine
 10
37.144046783447
 20
10.092616081238
 30
0.0
 11
37.144046783447
 21
10.128952980042
 31
0.0
  0
LINE
  5
11C
100
AcDbEntity
  8
TFR-TRI
  6
CONTINUOUS
 62
           4
100
AcDbLine
 10
45.602546691895
 20
8.147861480713
 30
0.0
 11
45.602546691895
 21
8.099820137024
 31
0.0
  0
LINE
  5
11D
100
AcDbEntity
  8
TFR-TRI
  6
CONTINUOUS
 62
           4
100
AcDbLine
 10
27.013805389404
 20
20.340023040771
 30
0.0
 11
27.050142288208
 21
20.340023040771
 31
0.0
  0
LINE
  5
11E
100
AcDbEntity
  8
TFR-TRI
  6
CONTINUOUS
 62
           4
100
AcDbLine
 10
26.808471679688
 20
20.261522293091
 30
0.0
 11
26.74654006958
 21
20.261522293091
 31
0.0
  0
LINE
  5
11F
100
AcDbEntity
  8
TFR-TRI
  6
CONTINUOUS
 62
           4
100
AcDbLine
 10
6.367129802704
 20
8.182439804077
 30
0.0
 11
6.367129802704
 21
7.65743970871
 31
0.0
  0
LINE
  5
120
100
AcDbEntity
  8
TFR-TRI
  6
CONTINUOUS
 62
           4
100
AcDbLine
 10
27.117130279541
 20
8.290940284729
 30
0.0
 11
27.121406555176
 21
8.290940284729
 31
0.0
  0
LINE
  5
121
100
AcDbEntity
  8
TFR-TRI
  6
CONTINUOUS
 62
           4
100
AcDbLine
 10
3.034166812897
 20
20.340023040771
 30
0.0
 11
3.055189847946
 21
20.340023040771
 31
0.0
  0
LINE
  5
122
100
AcDbEntity
  8
TFR-TRI
  6
CONTINUOUS
 62
           4
100
AcDbLine
 10
37.381954193115
 20
8.290940284729
 30
0.0
 11
37.44388961792
 21
8.290940284729
 31
0.0
  0
LINE
  5
123
100
AcDbEntity
  8
TFR-TRI
  6
CONTINUOUS
 62
           4
100
AcDbLine
 10
37.222545623779
 20
9.887281417847
 30
0.0
 11
37.222545623779
 21
9.825349807739
 31
0.0
  0
LINE
  5
124
100
AcDbEntity
  8
TFR-TRI
  6
CONTINUOUS
 62
           4
100
AcDbLine
 10
37.222545623779
 20
10.092616081238
 30
0.0
 11
37.222545623779
 21
10.049492835999
 31
0.0
  0
LINE
  5
125
100
AcDbEntity
  8
TFR-TRI
  6
CONTINUOUS
 62
           4
100
AcDbLine
 10
3.325788021088
 20
20.340023040771
 30
0.0
 11
3.387720108032
 21
20.340023040771
 31
0.0
  0
LINE
  5
126
100
AcDbEntity
  8
TFR-TRI
  6
CONTINUOUS
 62
           4
100
AcDbLine
 10
27.487720489502
 20
8.212439537048
 30
0.0
 11
27.425786972046
 21
8.212439537048
 31
0.0
  0
LINE
  5
127
100
AcDbEntity
  8
TFR-TRI
  6
CONTINUOUS
 62
           4
100
AcDbLine
 10
27.117130279541
 20
8.3209400177
 30
0.0
 11
3.017129659653
 21
8.3209400177
 31
0.0
  0
LINE
  5
128
100
AcDbEntity
  8
TFR-TRI
  6
CONTINUOUS
 62
           4
100
AcDbLine
 10
17.474630355835
 20
30.269023895264
 30
0.0
 11
17.474630355835
 21
26.78652381897
 31
0.0
  0
LINE
  5
129
100
AcDbEntity
  8
TFR-TRI
  6
CONTINUOUS
 62
           4
100
AcDbLine
 10
12.084630012512
 20
30.269023895264
 30
0.0
 11
12.084630012512
 21
28.082523345947
 31
0.0
  0
LINE
  5
12A
100
AcDbEntity
  8
TFR-TRI
  6
CONTINUOUS
 62
           4
100
AcDbLine
 10
37.144046783447
 20
10.157879829407
 30
0.0
 11
37.144046783447
 21
10.178902626038
 31
0.0
  0
LINE
  5
12B
100
AcDbEntity
  8
TFR-TRI
  6
CONTINUOUS
 62
           4
100
AcDbLine
 10
45.640605926514
 20
8.290940284729
 30
0.0
 11
45.669532775879
 21
8.290940284729
 31
0.0
  0
LINE
  5
12C
100
AcDbEntity
  8
TFR-TRI
  6
CONTINUOUS
 62
           4
100
AcDbLine
 10
27.15518951416
 20
8.212439537048
 30
0.0
 11
27.134166717529
 21
8.212439537048
 31
0.0
  0
LINE
  5
12D
100
AcDbEntity
  8
TFR-TRI
  6
CONTINUOUS
 62
           4
100
AcDbLine
 10
2.870682954788
 20
8.212439537048
 30
0.0
 11
2.821510314941
 21
8.212439537048
 31
0.0
  0
LINE
  5
12E
100
AcDbEntity
  8
TFR-TRI
  6
CONTINUOUS
 62
           4
100
AcDbLine
 10
2.065814495087
 20
20.870023727417
 30
0.0
 11
2.045274972916
 21
20.870023727417
 31
0.0
  0
LINE
  5
12F
100
AcDbEntity
  8
TFR-TRI
  6
CONTINUOUS
 62
           4
100
AcDbLine
 10
45.973136901855
 20
8.290940284729
 30
0.0
 11
46.037284851074
 21
8.290940284729
 31
0.0
  0
LINE
  5
130
100
AcDbEntity
  8
TFR-TRI
  6
CONTINUOUS
 62
           4
100
AcDbLine
 10
9.084630012512
 20
30.269023895264
 30
0.0
 11
9.084630012512
 21
26.78652381897
 31
0.0
  0
LINE
  5
131
100
AcDbEntity
  8
TFR-TRI
  6
CONTINUOUS
 62
           4
100
AcDbLine
 10
26.867130279541
 20
20.261522293091
 30
0.0
 11
26.808471679688
 21
20.261522293091
 31
0.0
  0
LINE
  5
132
100
AcDbEntity
  8
TFR-TRI
  6
CONTINUOUS
 62
           4
100
AcDbLine
 10
45.798164367676
 20
8.212439537048
 30
0.0
 11
45.748992919922
 21
8.212439537048
 31
0.0
  0
LINE
  5
133
100
AcDbEntity
  8
TFR-TRI
  6
CONTINUOUS
 62
           4
100
AcDbLine
 10
48.385799407959
 20
8.290940284729
 30
0.0
 11
48.398288726807
 21
8.290940284729
 31
0.0
  0
LINE
  5
134
100
AcDbEntity
  8
TFR-TRI
  6
CONTINUOUS
 62
           4
100
AcDbLine
 10
27.184116363525
 20
8.212439537048
 30
0.0
 11
27.15518951416
 21
8.212439537048
 31
0.0
  0
LINE
  5
135
100
AcDbEntity
  8
TFR-TRI
  6
CONTINUOUS
 62
           4
100
AcDbLine
 10
2.646539211273
 20
8.212439537048
 30
0.0
 11
2.582392692566
 21
8.212439537048
 31
0.0
  0
LINE
  5
136
100
AcDbEntity
  8
TFR-TRI
  6
CONTINUOUS
 62
           4
100
AcDbLine
 10
2.390696525574
 20
20.870023727417
 30
0.0
 11
2.330188751221
 21
20.870023727417
 31
0.0
  0
LINE
  5
137
100
AcDbEntity
  8
TFR-TRI
  6
CONTINUOUS
 62
           4
100
AcDbLine
 10
48.309898376465
 20
8.212439537048
 30
0.0
 11
48.277545928955
 21
8.212439537048
 31
0.0
  0
LINE
  5
138
100
AcDbEntity
  8
TFR-TRI
  6
CONTINUOUS
 62
           4
100
AcDbLine
 10
3.017129659653
 20
8.212439537048
 30
0.0
 11
3.017129659653
 21
8.217750549316
 31
0.0
  0
LINE
  5
139
100
AcDbEntity
  8
TFR-TRI
  6
CONTINUOUS
 62
           4
100
AcDbLine
 10
2.390696525574
 20
28.720022201538
 30
0.0
 11
2.453367471695
 21
28.720022201538
 31
0.0
  0
LINE
  5
13A
100
AcDbEntity
  8
TFR-TRI
  6
CONTINUOUS
 62
           4
100
AcDbLine
 10
48.511047363281
 20
7.59493970871
 30
0.0
 11
48.511047363281
 21
7.569051265717
 31
0.0
  0
LINE
  5
13B
100
AcDbEntity
  8
TFR-TRI
  6
CONTINUOUS
 62
           4
100
AcDbLine
 10
2.646539211273
 20
8.290940284729
 30
0.0
 11
2.708471298218
 21
8.290940284729
 31
0.0
  0
LINE
  5
13C
100
AcDbEntity
  8
TFR-TRI
  6
CONTINUOUS
 62
           4
100
AcDbLine
 10
7.509129524231
 20
27.099073410034
 30
0.0
 11
7.22912979126
 21
27.099073410034
 31
0.0
  0
LINE
  5
13D
100
AcDbEntity
  8
TFR-TRI
  6
CONTINUOUS
 62
           4
100
AcDbLine
 10
48.432544708252
 20
7.569051265717
 30
0.0
 11
48.432544708252
 21
7.59493970871
 31
0.0
  0
LINE
  5
13E
100
AcDbEntity
  8
TFR-TRI
  6
CONTINUOUS
 62
           4
100
AcDbLine
 10
22.625129699707
 20
27.099073410034
 30
0.0
 11
22.905130386353
 21
27.099073410034
 31
0.0
  0
LINE
  5
13F
100
AcDbEntity
  8
TFR-TRI
  6
CONTINUOUS
 62
           4
100
AcDbLine
 10
2.028629541397
 20
7.802439689636
 30
0.0
 11
2.107129573822
 21
7.802439689636
 31
0.0
  0
LINE
  5
140
100
AcDbEntity
  8
TFR-TRI
  6
CONTINUOUS
 62
           4
100
AcDbLine
 10
28.101449966431
 20
20.870023727417
 30
0.0
 11
28.105628967285
 21
20.870023727417
 31
0.0
  0
LINE
  5
141
100
AcDbEntity
  8
TFR-TRI
  6
CONTINUOUS
 62
           4
100
AcDbLine
 10
45.602546691895
 20
7.989380836487
 30
0.0
 11
45.602546691895
 21
7.928873062134
 31
0.0
  0
LINE
  5
142
100
AcDbEntity
  8
TFR-TRI
  6
CONTINUOUS
 62
           4
100
AcDbLine
 10
37.556926727295
 20
8.212439537048
 30
0.0
 11
37.502544403076
 21
8.212439537048
 31
0.0
  0
LINE
  5
143
100
AcDbEntity
  8
TFR-TRI
  6
CONTINUOUS
 62
           4
100
AcDbLine
 10
3.017129659653
 20
20.370023727417
 30
0.0
 11
3.017129659653
 21
20.35502243042
 31
0.0
  0
LINE
  5
144
100
AcDbEntity
  8
TFR-TRI
  6
CONTINUOUS
 62
           4
100
AcDbLine
 10
2.028629541397
 20
7.564051628113
 30
0.0
 11
2.028629541397
 21
7.589939594269
 31
0.0
  0
LINE
  5
145
100
AcDbEntity
  8
TFR-TRI
  6
CONTINUOUS
 62
           4
100
AcDbLine
 10
27.962551116943
 20
28.720022201538
 30
0.0
 11
28.004682540894
 21
28.720022201538
 31
0.0
  0
LINE
  5
146
100
AcDbEntity
  8
TFR-TRI
  6
CONTINUOUS
 62
           4
100
AcDbLine
 10
11.659629821777
 20
30.269023895264
 30
0.0
 11
11.659629821777
 21
28.082523345947
 31
0.0
  0
LINE
  5
147
100
AcDbEntity
  8
TFR-TRI
  6
CONTINUOUS
 62
           4
100
AcDbLine
 10
27.100091934204
 20
20.261522293091
 30
0.0
 11
27.079069137573
 21
20.261522293091
 31
0.0
  0
LINE
  5
148
100
AcDbEntity
  8
TFR-TRI
  6
CONTINUOUS
 62
           4
100
AcDbLine
 10
2.107129573822
 20
7.544186592102
 30
0.0
 11
2.107129573822
 21
7.531699180603
 31
0.0
  0
LINE
  5
149
100
AcDbEntity
  8
TFR-TRI
  6
CONTINUOUS
 62
           4
100
AcDbLine
 10
37.685558319092
 20
8.212439537048
 30
0.0
 11
37.649223327637
 21
8.212439537048
 31
0.0
  0
LINE
  5
14A
100
AcDbEntity
  8
TFR-TRI
  6
CONTINUOUS
 62
           4
100
AcDbLine
 10
23.767129898071
 20
31.520023345947
 30
0.0
 11
23.767129898071
 21
31.553550720215
 31
0.0
  0
LINE
  5
14B
100
AcDbEntity
  8
TFR-TRI
  6
CONTINUOUS
 62
           4
100
AcDbLine
 10
2.129576444626
 20
28.720022201538
 30
0.0
 11
2.171707868576
 21
28.720022201538
 31
0.0
  0
LINE
  5
14C
100
AcDbEntity
  8
TFR-TRI
  6
CONTINUOUS
 62
           4
100
AcDbLine
 10
22.625129699707
 20
30.481573104858
 30
0.0
 11
22.905130386353
 21
30.481573104858
 31
0.0
  0
LINE
  5
14D
100
AcDbEntity
  8
TFR-TRI
  6
CONTINUOUS
 62
           4
100
AcDbLine
 10
28.027130126953
 20
7.652439594269
 30
0.0
 11
28.105628967285
 21
7.652439594269
 31
0.0
  0
LINE
  5
14E
100
AcDbEntity
  8
TFR-TRI
  6
CONTINUOUS
 62
           4
100
AcDbLine
 10
37.317810058594
 20
8.212439537048
 30
0.0
 11
37.252544403076
 21
8.212439537048
 31
0.0
  0
LINE
  5
14F
100
AcDbEntity
  8
TFR-TRI
  6
CONTINUOUS
 62
           4
100
AcDbLine
 10
6.367129802704
 20
31.583797454834
 30
0.0
 11
6.367129802704
 21
31.607801437378
 31
0.0
  0
LINE
  5
150
100
AcDbEntity
  8
TFR-TRI
  6
CONTINUOUS
 62
           4
100
AcDbLine
 10
3.45186662674
 20
20.261522293091
 30
0.0
 11
3.387720108032
 21
20.261522293091
 31
0.0
  0
LINE
  5
151
100
AcDbEntity
  8
TFR-TRI
  6
CONTINUOUS
 62
           4
100
AcDbLine
 10
3.325788021088
 20
20.261522293091
 30
0.0
 11
3.267129659653
 21
20.261522293091
 31
0.0
  0
LINE
  5
152
100
AcDbEntity
  8
TFR-TRI
  6
CONTINUOUS
 62
           4
100
AcDbLine
 10
28.105628967285
 20
7.531699180603
 30
0.0
 11
28.105628967285
 21
7.527439594269
 31
0.0
  0
LINE
  5
153
100
AcDbEntity
  8
TFR-TRI
  6
CONTINUOUS
 62
           4
100
AcDbLine
 10
37.222545623779
 20
8.3209400177
 30
0.0
 11
37.222545623779
 21
9.6959400177
 31
0.0
  0
LINE
  5
154
100
AcDbEntity
  8
TFR-TRI
  6
CONTINUOUS
 62
           4
100
AcDbLine
 10
48.432544708252
 20
7.549186706543
 30
0.0
 11
48.432544708252
 21
7.569051265717
 31
0.0
  0
LINE
  5
155
100
AcDbEntity
  8
TFR-TRI
  6
CONTINUOUS
 62
           4
100
AcDbLine
 10
48.277545928955
 20
8.290940284729
 30
0.0
 11
48.309898376465
 21
8.290940284729
 31
0.0
  0
LINE
  5
156
100
AcDbEntity
  8
TFR-TRI
  6
CONTINUOUS
 62
           4
100
AcDbLine
 10
2.107129573822
 20
7.527439594269
 30
0.0
 11
2.028629541397
 21
7.527439594269
 31
0.0
  0
LINE
  5
157
100
AcDbEntity
  8
TFR-TRI
  6
CONTINUOUS
 62
           4
100
AcDbLine
 10
26.970682144165
 20
20.261522293091
 30
0.0
 11
26.921510696411
 21
20.261522293091
 31
0.0
  0
LINE
  5
158
100
AcDbEntity
  8
TFR-TRI
  6
CONTINUOUS
 62
           4
100
AcDbLine
 10
3.017129659653
 20
8.23316192627
 30
0.0
 11
3.017129659653
 21
8.257164955139
 31
0.0
  0
LINE
  5
159
100
AcDbEntity
  8
TFR-TRI
  6
CONTINUOUS
 62
           4
100
AcDbLine
 10
26.867130279541
 20
20.340023040771
 30
0.0
 11
26.921510696411
 21
20.340023040771
 31
0.0
  0
LINE
  5
15A
100
AcDbEntity
  8
TFR-TRI
  6
CONTINUOUS
 62
           4
100
AcDbLine
 10
21.474630355835
 20
25.775022506714
 30
0.0
 11
21.474630355835
 21
24.700023651123
 31
0.0
  0
LINE
  5
15B
100
AcDbEntity
  8
TFR-TRI
  6
CONTINUOUS
 62
           4
100
AcDbLine
 10
37.144046783447
 20
10.191661834717
 30
0.0
 11
37.144046783447
 21
10.1959400177
 31
0.0
  0
LINE
  5
15C
100
AcDbEntity
  8
TFR-TRI
  6
CONTINUOUS
 62
           4
100
AcDbLine
 10
4.22512960434
 20
31.520023345947
 30
0.0
 11
6.367129802704
 21
31.520023345947
 31
0.0
  0
LINE
  5
15D
100
AcDbEntity
  8
TFR-TRI
  6
CONTINUOUS
 62
           4
100
AcDbLine
 10
27.312749862671
 20
8.290940284729
 30
0.0
 11
27.367130279541
 21
8.290940284729
 31
0.0
  0
LINE
  5
15E
100
AcDbEntity
  8
TFR-TRI
  6
CONTINUOUS
 62
           4
100
AcDbLine
 10
45.602546691895
 20
8.189992904663
 30
0.0
 11
45.602546691895
 21
8.147861480713
 31
0.0
  0
LINE
  5
15F
100
AcDbEntity
  8
TFR-TRI
  6
CONTINUOUS
 62
           4
100
AcDbLine
 10
27.112852096558
 20
20.340023040771
 30
0.0
 11
27.117130279541
 21
20.340023040771
 31
0.0
  0
LINE
  5
160
100
AcDbEntity
  8
TFR-TRI
  6
CONTINUOUS
 62
           4
100
AcDbLine
 10
48.402545928955
 20
8.290940284729
 30
0.0
 11
48.402545928955
 21
8.212439537048
 31
0.0
  0
LINE
  5
161
100
AcDbEntity
  8
TFR-TRI
  6
CONTINUOUS
 62
           4
100
AcDbLine
 10
18.049629211426
 20
26.886522293091
 30
0.0
 11
18.049629211426
 21
24.700023651123
 31
0.0
  0
LINE
  5
162
100
AcDbEntity
  8
TFR-TRI
  6
CONTINUOUS
 62
           4
100
AcDbLine
 10
48.511047363281
 20
7.6250872612
 30
0.0
 11
48.511047363281
 21
7.59493970871
 31
0.0
  0
LINE
  5
163
100
AcDbEntity
  8
TFR-TRI
  6
CONTINUOUS
 62
           4
100
AcDbLine
 10
10.159629821777
 20
26.886522293091
 30
0.0
 11
10.159629821777
 21
24.700023651123
 31
0.0
  0
LINE
  5
164
100
AcDbEntity
  8
TFR-TRI
  6
CONTINUOUS
 62
           4
100
AcDbLine
 10
37.606098175049
 20
8.290940284729
 30
0.0
 11
37.649223327637
 21
8.290940284729
 31
0.0
  0
LINE
  5
165
100
AcDbEntity
  8
TFR-TRI
  6
CONTINUOUS
 62
           4
100
AcDbLine
 10
2.129576444626
 20
20.870023727417
 30
0.0
 11
2.094076156616
 21
20.870023727417
 31
0.0
  0
LINE
  5
166
100
AcDbEntity
  8
TFR-TRI
  6
CONTINUOUS
 62
           4
100
AcDbLine
 10
37.752544403076
 20
8.290940284729
 30
0.0
 11
37.752544403076
 21
8.2867603302
 31
0.0
  0
LINE
  5
167
100
AcDbEntity
  8
TFR-TRI
  6
CONTINUOUS
 62
           4
100
AcDbLine
 10
2.979069471359
 20
8.212439537048
 30
0.0
 11
2.950142383575
 21
8.212439537048
 31
0.0
  0
LINE
  5
168
100
AcDbEntity
  8
TFR-TRI
  6
CONTINUOUS
 62
           4
100
AcDbLine
 10
7.509129524231
 20
27.099073410034
 30
0.0
 11
7.509129524231
 21
24.487573623657
 31
0.0
  0
LINE
  5
169
100
AcDbEntity
  8
TFR-TRI
  6
CONTINUOUS
 62
           4
100
AcDbLine
 10
45.602546691895
 20
8.290940284729
 30
0.0
 11
45.606822967529
 21
8.290940284729
 31
0.0
  0
LINE
  5
16A
100
AcDbEntity
  8
TFR-TRI
  6
CONTINUOUS
 62
           4
100
AcDbLine
 10
27.263576507568
 20
8.212439537048
 30
0.0
 11
27.220453262329
 21
8.212439537048
 31
0.0
  0
LINE
  5
16B
100
AcDbEntity
  8
TFR-TRI
  6
CONTINUOUS
 62
           4
100
AcDbLine
 10
2.171707868576
 20
20.870023727417
 30
0.0
 11
2.129576444626
 21
20.870023727417
 31
0.0
  0
LINE
  5
16C
100
AcDbEntity
  8
TFR-TRI
  6
CONTINUOUS
 62
           4
100
AcDbLine
 10
28.068445205688
 20
28.720022201538
 30
0.0
 11
28.088983535767
 21
28.720022201538
 31
0.0
  0
LINE
  5
16D
100
AcDbEntity
  8
TFR-TRI
  6
CONTINUOUS
 62
           4
100
AcDbLine
 10
45.798164367676
 20
8.290940284729
 30
0.0
 11
45.852546691895
 21
8.290940284729
 31
0.0
  0
LINE
  5
16E
100
AcDbEntity
  8
TFR-TRI
  6
CONTINUOUS
 62
           4
100
AcDbLine
 10
28.027130126953
 20
7.589939594269
 30
0.0
 11
28.027130126953
 21
7.620087623596
 31
0.0
  0
LINE
  5
16F
100
AcDbEntity
  8
TFR-TRI
  6
CONTINUOUS
 62
           4
100
AcDbLine
 10
3.017129659653
 20
8.212439537048
 30
0.0
 11
3.012851953506
 21
8.212439537048
 31
0.0
  0
LINE
  5
170
100
AcDbEntity
  8
TFR-TRI
  6
CONTINUOUS
 62
           4
100
AcDbLine
 10
26.064128875732
 20
23.653001785278
 30
0.0
 11
26.064128875732
 21
22.433002471924
 31
0.0
  0
LINE
  5
171
100
AcDbEntity
  8
TFR-TRI
  6
CONTINUOUS
 62
           4
100
AcDbLine
 10
25.784130096436
 20
25.653001785278
 30
0.0
 11
25.784130096436
 21
24.433002471924
 31
0.0
  0
LINE
  5
172
100
AcDbEntity
  8
TFR-TRI
  6
CONTINUOUS
 62
           4
100
AcDbLine
 10
48.309898376465
 20
8.290940284729
 30
0.0
 11
48.340045928955
 21
8.290940284729
 31
0.0
  0
LINE
  5
173
100
AcDbEntity
  8
TFR-TRI
  6
CONTINUOUS
 62
           4
100
AcDbLine
 10
3.517129659653
 20
20.340023040771
 30
0.0
 11
3.517129659653
 21
20.261522293091
 31
0.0
  0
LINE
  5
174
100
AcDbEntity
  8
TFR-TRI
  6
CONTINUOUS
 62
           4
100
AcDbLine
 10
2.821510314941
 20
8.212439537048
 30
0.0
 11
2.767129659653
 21
8.212439537048
 31
0.0
  0
LINE
  5
175
100
AcDbEntity
  8
TFR-TRI
  6
CONTINUOUS
 62
           4
100
AcDbLine
 10
17.049629211426
 20
30.269023895264
 30
0.0
 11
17.049629211426
 21
26.78652381897
 31
0.0
  0
LINE
  5
176
100
AcDbEntity
  8
TFR-TRI
  6
CONTINUOUS
 62
           4
100
AcDbLine
 10
45.640605926514
 20
8.212439537048
 30
0.0
 11
45.619583129883
 21
8.212439537048
 31
0.0
  0
LINE
  5
177
100
AcDbEntity
  8
TFR-TRI
  6
CONTINUOUS
 62
           4
100
AcDbLine
 10
48.385799407959
 20
8.212439537048
 30
0.0
 11
48.365936279297
 21
8.212439537048
 31
0.0
  0
LINE
  5
178
100
AcDbEntity
  8
TFR-TRI
  6
CONTINUOUS
 62
           4
100
AcDbLine
 10
27.117130279541
 20
8.23316192627
 30
0.0
 11
27.117130279541
 21
8.257164955139
 31
0.0
  0
LINE
  5
179
100
AcDbEntity
  8
TFR-TRI
  6
CONTINUOUS
 62
           4
100
AcDbLine
 10
7.22912979126
 20
30.481573104858
 30
0.0
 11
7.22912979126
 21
27.870073318481
 31
0.0
  0
LINE
  5
17A
100
AcDbEntity
  8
TFR-TRI
  6
CONTINUOUS
 62
           4
100
AcDbLine
 10
2.219749689102
 20
28.720022201538
 30
0.0
 11
2.272879600525
 21
28.720022201538
 31
0.0
  0
LINE
  5
17B
100
AcDbEntity
  8
TFR-TRI
  6
CONTINUOUS
 62
           4
100
AcDbLine
 10
2.913806200027
 20
8.212439537048
 30
0.0
 11
2.870682954788
 21
8.212439537048
 31
0.0
  0
LINE
  5
17C
100
AcDbEntity
  8
TFR-TRI
  6
CONTINUOUS
 62
           4
100
AcDbLine
 10
3.017129659653
 20
8.287411689758
 30
0.0
 11
3.017129659653
 21
8.3209400177
 31
0.0
  0
LINE
  5
17D
100
AcDbEntity
  8
TFR-TRI
  6
CONTINUOUS
 62
           4
100
AcDbLine
 10
27.680891036987
 20
20.870023727417
 30
0.0
 11
27.743562698364
 21
20.870023727417
 31
0.0
  0
LINE
  5
17E
100
AcDbEntity
  8
TFR-TRI
  6
CONTINUOUS
 62
           4
100
AcDbLine
 10
48.511047363281
 20
8.182439804077
 30
0.0
 11
48.511047363281
 21
7.65743970871
 31
0.0
  0
LINE
  5
17F
100
AcDbEntity
  8
TFR-TRI
  6
CONTINUOUS
 62
           4
100
AcDbLine
 10
27.117130279541
 20
8.212439537048
 30
0.0
 11
27.117130279541
 21
8.217750549316
 31
0.0
  0
LINE
  5
180
100
AcDbEntity
  8
TFR-TRI
  6
CONTINUOUS
 62
           4
100
AcDbLine
 10
2.950142383575
 20
8.290940284729
 30
0.0
 11
2.979069471359
 21
8.290940284729
 31
0.0
  0
LINE
  5
181
100
AcDbEntity
  8
TFR-TRI
  6
CONTINUOUS
 62
           4
100
AcDbLine
 10
28.040182113647
 20
20.870023727417
 30
0.0
 11
28.068445205688
 21
20.870023727417
 31
0.0
  0
LINE
  5
182
100
AcDbEntity
  8
TFR-TRI
  6
CONTINUOUS
 62
           4
100
AcDbLine
 10
26.617130279541
 20
20.340023040771
 30
0.0
 11
26.682392120361
 21
20.340023040771
 31
0.0
  0
LINE
  5
183
100
AcDbEntity
  8
TFR-TRI
  6
CONTINUOUS
 62
           4
100
AcDbLine
 10
18.049629211426
 20
30.269023895264
 30
0.0
 11
18.049629211426
 21
28.082523345947
 31
0.0
  0
LINE
  5
184
100
AcDbEntity
  8
TFR-TRI
  6
CONTINUOUS
 62
           4
100
AcDbLine
 10
23.767129898071
 20
31.628522872925
 30
0.0
 11
6.367129802704
 21
31.628522872925
 31
0.0
  0
LINE
  5
185
100
AcDbEntity
  8
TFR-TRI
  6
CONTINUOUS
 62
           4
100
AcDbLine
 10
27.117130279541
 20
20.370023727417
 30
0.0
 11
27.117130279541
 21
20.35502243042
 31
0.0
  0
LINE
  5
186
100
AcDbEntity
  8
TFR-TRI
  6
CONTINUOUS
 62
           4
100
AcDbLine
 10
2.028629541397
 20
7.527439594269
 30
0.0
 11
2.028629541397
 21
7.531699180603
 31
0.0
  0
LINE
  5
187
100
AcDbEntity
  8
TFR-TRI
  6
CONTINUOUS
 62
           4
100
AcDbLine
 10
37.752544403076
 20
7.928873062134
 30
0.0
 11
37.752544403076
 21
7.866201877594
 31
0.0
  0
LINE
  5
188
100
AcDbEntity
  8
TFR-TRI
  6
CONTINUOUS
 62
           4
100
AcDbLine
 10
27.804071426392
 20
28.720022201538
 30
0.0
 11
27.861379623413
 21
28.720022201538
 31
0.0
  0
LINE
  5
189
100
AcDbEntity
  8
TFR-TRI
  6
CONTINUOUS
 62
           4
100
AcDbLine
 10
3.017129659653
 20
20.261522293091
 30
0.0
 11
3.017129659653
 21
20.340023040771
 31
0.0
  0
LINE
  5
18A
100
AcDbEntity
  8
TFR-TRI
  6
CONTINUOUS
 62
           4
100
AcDbLine
 10
2.028629541397
 20
7.802439689636
 30
0.0
 11
2.028629541397
 21
7.652439594269
 31
0.0
  0
LINE
  5
18B
100
AcDbEntity
  8
TFR-TRI
  6
CONTINUOUS
 62
           4
100
AcDbLine
 10
2.107129573822
 20
7.620087623596
 30
0.0
 11
2.107129573822
 21
7.589939594269
 31
0.0
  0
LINE
  5
18C
100
AcDbEntity
  8
TFR-TRI
  6
CONTINUOUS
 62
           4
100
AcDbLine
 10
28.088983535767
 20
28.720022201538
 30
0.0
 11
28.101449966431
 21
28.720022201538
 31
0.0
  0
LINE
  5
18D
100
AcDbEntity
  8
TFR-TRI
  6
CONTINUOUS
 62
           4
100
AcDbLine
 10
45.606822967529
 20
8.212439537048
 30
0.0
 11
45.602546691895
 21
8.212439537048
 31
0.0
  0
LINE
  5
18E
100
AcDbEntity
  8
TFR-TRI
  6
CONTINUOUS
 62
           4
100
AcDbLine
 10
28.105628967285
 20
7.802439689636
 30
0.0
 11
28.027130126953
 21
7.802439689636
 31
0.0
  0
LINE
  5
18F
100
AcDbEntity
  8
TFR-TRI
  6
CONTINUOUS
 62
           4
100
AcDbLine
 10
37.502544403076
 20
8.212439537048
 30
0.0
 11
37.44388961792
 21
8.212439537048
 31
0.0
  0
LINE
  5
190
100
AcDbEntity
  8
TFR-TRI
  6
CONTINUOUS
 62
           4
100
AcDbLine
 10
37.144046783447
 20
9.9459400177
 30
0.0
 11
37.144046783447
 21
10.00032043457
 31
0.0
  0
LINE
  5
191
100
AcDbEntity
  8
TFR-TRI
  6
CONTINUOUS
 62
           4
100
AcDbLine
 10
13.084630012512
 20
25.775022506714
 30
0.0
 11
13.084630012512
 21
24.700023651123
 31
0.0
  0
LINE
  5
192
100
AcDbEntity
  8
TFR-TRI
  6
CONTINUOUS
 62
           4
100
AcDbLine
 10
3.517129659653
 20
20.261522293091
 30
0.0
 11
3.45186662674
 21
20.261522293091
 31
0.0
  0
LINE
  5
193
100
AcDbEntity
  8
TFR-TRI
  6
CONTINUOUS
 62
           4
100
AcDbLine
 10
28.105628967285
 20
7.589939594269
 30
0.0
 11
28.105628967285
 21
7.564051628113
 31
0.0
  0
LINE
  5
194
100
AcDbEntity
  8
TFR-TRI
  6
CONTINUOUS
 62
           4
100
AcDbLine
 10
37.252544403076
 20
8.212439537048
 30
0.0
 11
37.252544403076
 21
8.290940284729
 31
0.0
  0
LINE
  5
195
100
AcDbEntity
  8
TFR-TRI
  6
CONTINUOUS
 62
           4
100
AcDbLine
 10
48.511047363281
 20
7.536699295044
 30
0.0
 11
48.511047363281
 21
7.53243970871
 31
0.0
  0
LINE
  5
196
100
AcDbEntity
  8
TFR-TRI
  6
CONTINUOUS
 62
           4
100
AcDbLine
 10
27.079069137573
 20
20.261522293091
 30
0.0
 11
27.050142288208
 21
20.261522293091
 31
0.0
  0
LINE
  5
197
100
AcDbEntity
  8
TFR-TRI
  6
CONTINUOUS
 62
           4
100
AcDbLine
 10
27.184116363525
 20
8.290940284729
 30
0.0
 11
27.220453262329
 21
8.290940284729
 31
0.0
  0
LINE
  5
198
100
AcDbEntity
  8
TFR-TRI
  6
CONTINUOUS
 62
           4
100
AcDbLine
 10
12.659629821777
 20
30.269023895264
 30
0.0
 11
12.659629821777
 21
26.78652381897
 31
0.0
  0
LINE
  5
199
100
AcDbEntity
  8
TFR-TRI
  6
CONTINUOUS
 62
           4
100
AcDbLine
 10
27.117130279541
 20
8.287411689758
 30
0.0
 11
27.117130279541
 21
8.3209400177
 31
0.0
  0
LINE
  5
19A
100
AcDbEntity
  8
TFR-TRI
  6
CONTINUOUS
 62
           4
100
AcDbLine
 10
28.027130126953
 20
7.564051628113
 30
0.0
 11
28.027130126953
 21
7.589939594269
 31
0.0
  0
LINE
  5
19B
100
AcDbEntity
  8
TFR-TRI
  6
CONTINUOUS
 62
           4
100
AcDbLine
 10
37.144046783447
 20
9.761202812195
 30
0.0
 11
37.144046783447
 21
9.825349807739
 31
0.0
  0
LINE
  5
19C
100
AcDbEntity
  8
TFR-TRI
  6
CONTINUOUS
 62
           4
100
AcDbLine
 10
48.511047363281
 20
7.53243970871
 30
0.0
 11
48.432544708252
 21
7.53243970871
 31
0.0
  0
LINE
  5
19D
100
AcDbEntity
  8
TFR-TRI
  6
CONTINUOUS
 62
           4
100
AcDbLine
 10
18.474630355835
 20
26.886522293091
 30
0.0
 11
18.474630355835
 21
24.700023651123
 31
0.0
  0
LINE
  5
19E
100
AcDbEntity
  8
TFR-TRI
  6
CONTINUOUS
 62
           4
100
AcDbLine
 10
26.682392120361
 20
20.340023040771
 30
0.0
 11
26.74654006958
 21
20.340023040771
 31
0.0
  0
LINE
  5
19F
100
AcDbEntity
  8
TFR-TRI
  6
CONTINUOUS
 62
           4
100
AcDbLine
 10
2.870682954788
 20
8.290940284729
 30
0.0
 11
2.913806200027
 21
8.290940284729
 31
0.0
  0
LINE
  5
1A0
100
AcDbEntity
  8
TFR-TRI
  6
CONTINUOUS
 62
           4
100
AcDbLine
 10
2.767129659653
 20
8.212439537048
 30
0.0
 11
2.708471298218
 21
8.212439537048
 31
0.0
  0
LINE
  5
1A1
100
AcDbEntity
  8
TFR-TRI
  6
CONTINUOUS
 62
           4
100
AcDbLine
 10
37.222545623779
 20
9.825349807739
 30
0.0
 11
37.222545623779
 21
9.761202812195
 31
0.0
  0
LINE
  5
1A2
100
AcDbEntity
  8
TFR-TRI
  6
CONTINUOUS
 62
           4
100
AcDbLine
 10
27.050142288208
 20
20.340023040771
 30
0.0
 11
27.079069137573
 21
20.340023040771
 31
0.0
  0
LINE
  5
1A3
100
AcDbEntity
  8
TFR-TRI
  6
CONTINUOUS
 62
           4
100
AcDbLine
 10
37.222545623779
 20
10.178902626038
 30
0.0
 11
37.222545623779
 21
10.157879829407
 31
0.0
  0
LINE
  5
1A4
100
AcDbEntity
  8
TFR-TRI
  6
CONTINUOUS
 62
           4
100
AcDbLine
 10
6.492129802704
 20
7.53243970871
 30
0.0
 11
23.642129898071
 21
7.53243970871
 31
0.0
  0
LINE
  5
1A5
100
AcDbEntity
  8
TFR-TRI
  6
CONTINUOUS
 62
           4
100
AcDbLine
 10
27.121406555176
 20
8.290940284729
 30
0.0
 11
27.134166717529
 21
8.290940284729
 31
0.0
  0
LINE
  5
1A6
100
AcDbEntity
  8
TFR-TRI
  6
CONTINUOUS
 62
           4
100
AcDbLine
 10
2.272879600525
 20
20.870023727417
 30
0.0
 11
2.219749689102
 21
20.870023727417
 31
0.0
  0
LINE
  5
1A7
100
AcDbEntity
  8
TFR-TRI
  6
CONTINUOUS
 62
           4
100
AcDbLine
 10
23.767129898071
 20
31.553550720215
 30
0.0
 11
23.767129898071
 21
31.583797454834
 31
0.0
  0
LINE
  5
1A8
100
AcDbEntity
  8
TFR-TRI
  6
CONTINUOUS
 62
           4
100
AcDbLine
 10
2.028629541397
 20
28.720022201538
 30
0.0
 11
2.028629541397
 21
20.870023727417
 31
0.0
  0
LINE
  5
1A9
100
AcDbEntity
  8
TFR-TRI
  6
CONTINUOUS
 62
           4
100
AcDbLine
 10
37.44388961792
 20
8.290940284729
 30
0.0
 11
37.502544403076
 21
8.290940284729
 31
0.0
  0
LINE
  5
1AA
100
AcDbEntity
  8
TFR-TRI
  6
CONTINUOUS
 62
           4
100
AcDbLine
 10
27.367130279541
 20
8.290940284729
 30
0.0
 11
27.425786972046
 21
8.290940284729
 31
0.0
  0
LINE
  5
1AB
100
AcDbEntity
  8
TFR-TRI
  6
CONTINUOUS
 62
           4
100
AcDbLine
 10
3.387720108032
 20
20.340023040771
 30
0.0
 11
3.45186662674
 21
20.340023040771
 31
0.0
  0
LINE
  5
1AC
100
AcDbEntity
  8
TFR-TRI
  6
CONTINUOUS
 62
           4
100
AcDbLine
 10
37.381954193115
 20
8.212439537048
 30
0.0
 11
37.317810058594
 21
8.212439537048
 31
0.0
  0
LINE
  5
1AD
100
AcDbEntity
  8
TFR-TRI
  6
CONTINUOUS
 62
           4
100
AcDbLine
 10
5.754629611969
 20
26.78652381897
 30
0.0
 11
5.754629611969
 21
24.800024032593
 31
0.0
  0
LINE
  5
1AE
100
AcDbEntity
  8
TFR-TRI
  6
CONTINUOUS
 62
           4
100
AcDbLine
 10
37.752544403076
 20
8.225493431091
 30
0.0
 11
37.752544403076
 21
8.189992904663
 31
0.0
  0
LINE
  5
1AF
100
AcDbEntity
  8
TFR-TRI
  6
CONTINUOUS
 62
           4
100
AcDbLine
 10
2.330188751221
 20
20.870023727417
 30
0.0
 11
2.272879600525
 21
20.870023727417
 31
0.0
  0
LINE
  5
1B0
100
AcDbEntity
  8
TFR-TRI
  6
CONTINUOUS
 62
           4
100
AcDbLine
 10
45.669532775879
 20
8.290940284729
 30
0.0
 11
45.705867767334
 21
8.290940284729
 31
0.0
  0
LINE
  5
1B1
100
AcDbEntity
  8
TFR-TRI
  6
CONTINUOUS
 62
           4
100
AcDbLine
 10
48.432544708252
 20
8.182439804077
 30
0.0
 11
48.511047363281
 21
8.182439804077
 31
0.0
  0
LINE
  5
1B2
100
AcDbEntity
  8
TFR-TRI
  6
CONTINUOUS
 62
           4
100
AcDbLine
 10
37.752544403076
 20
7.866201877594
 30
0.0
 11
37.752544403076
 21
7.802439689636
 31
0.0
  0
LINE
  5
1B3
100
AcDbEntity
  8
TFR-TRI
  6
CONTINUOUS
 62
           4
100
AcDbLine
 10
2.045274972916
 20
28.720022201538
 30
0.0
 11
2.065814495087
 21
28.720022201538
 31
0.0
  0
LINE
  5
1B4
100
AcDbEntity
  8
TFR-TRI
  6
CONTINUOUS
 62
           4
100
AcDbLine
 10
3.034166812897
 20
20.261522293091
 30
0.0
 11
3.02140712738
 21
20.261522293091
 31
0.0
  0
LINE
  5
1B5
100
AcDbEntity
  8
TFR-TRI
  6
CONTINUOUS
 62
           4
100
AcDbLine
 10
28.105628967285
 20
7.802439689636
 30
0.0
 11
28.105628967285
 21
7.652439594269
 31
0.0
  0
LINE
  5
1B6
100
AcDbEntity
  8
TFR-TRI
  6
CONTINUOUS
 62
           4
100
AcDbLine
 10
46.037284851074
 20
8.290940284729
 30
0.0
 11
46.102546691895
 21
8.290940284729
 31
0.0
  0
LINE
  5
1B7
100
AcDbEntity
  8
TFR-TRI
  6
CONTINUOUS
 62
           4
100
AcDbLine
 10
2.950142383575
 20
8.212439537048
 30
0.0
 11
2.913806200027
 21
8.212439537048
 31
0.0
  0
LINE
  5
1B8
100
AcDbEntity
  8
TFR-TRI
  6
CONTINUOUS
 62
           4
100
AcDbLine
 10
26.970682144165
 20
20.340023040771
 30
0.0
 11
27.013805389404
 21
20.340023040771
 31
0.0
  0
LINE
  5
1B9
100
AcDbEntity
  8
TFR-TRI
  6
CONTINUOUS
 62
           4
100
AcDbLine
 10
45.748992919922
 20
8.212439537048
 30
0.0
 11
45.705867767334
 21
8.212439537048
 31
0.0
  0
LINE
  5
1BA
100
AcDbEntity
  8
TFR-TRI
  6
CONTINUOUS
 62
           4
100
AcDbLine
 10
48.398288726807
 20
8.290940284729
 30
0.0
 11
48.402545928955
 21
8.290940284729
 31
0.0
  0
LINE
  5
1BB
100
AcDbEntity
  8
TFR-TRI
  6
CONTINUOUS
 62
           4
100
AcDbLine
 10
2.582392692566
 20
8.212439537048
 30
0.0
 11
2.517129659653
 21
8.212439537048
 31
0.0
  0
LINE
  5
1BC
100
AcDbEntity
  8
TFR-TRI
  6
CONTINUOUS
 62
           4
100
AcDbLine
 10
7.509129524231
 20
30.481573104858
 30
0.0
 11
7.22912979126
 21
30.481573104858
 31
0.0
  0
LINE
  5
1BD
100
AcDbEntity
  8
TFR-TRI
  6
CONTINUOUS
 62
           4
100
AcDbLine
 10
27.425786972046
 20
8.212439537048
 30
0.0
 11
27.367130279541
 21
8.212439537048
 31
0.0
  0
LINE
  5
1BE
100
AcDbEntity
  8
TFR-TRI
  6
CONTINUOUS
 62
           4
100
AcDbLine
 10
48.277545928955
 20
8.212439537048
 30
0.0
 11
46.102546691895
 21
8.212439537048
 31
0.0
  0
LINE
  5
1BF
100
AcDbEntity
  8
TFR-TRI
  6
CONTINUOUS
 62
           4
100
AcDbLine
 10
3.017129659653
 20
8.217750549316
 30
0.0
 11
3.017129659653
 21
8.23316192627
 31
0.0
  0
LINE
  5
1C0
100
AcDbEntity
  8
TFR-TRI
  6
CONTINUOUS
 62
           4
100
AcDbLine
 10
3.017129659653
 20
20.340023040771
 30
0.0
 11
3.02140712738
 21
20.340023040771
 31
0.0
  0
LINE
  5
1C1
100
AcDbEntity
  8
TFR-TRI
  6
CONTINUOUS
 62
           4
100
AcDbLine
 10
10.584630012512
 20
26.886522293091
 30
0.0
 11
10.584630012512
 21
24.700023651123
 31
0.0
  0
LINE
  5
1C2
100
AcDbEntity
  8
TFR-TRI
  6
CONTINUOUS
 62
           4
100
AcDbLine
 10
2.453367471695
 20
28.720022201538
 30
0.0
 11
2.517129659653
 21
28.720022201538
 31
0.0
  0
LINE
  5
1C3
100
AcDbEntity
  8
TFR-TRI
  6
CONTINUOUS
 62
           4
100
AcDbLine
 10
2.821510314941
 20
8.290940284729
 30
0.0
 11
2.870682954788
 21
8.290940284729
 31
0.0
  0
LINE
  5
1C4
100
AcDbEntity
  8
TFR-TRI
  6
CONTINUOUS
 62
           4
100
AcDbLine
 10
27.079069137573
 20
20.340023040771
 30
0.0
 11
27.100091934204
 21
20.340023040771
 31
0.0
  0
LINE
  5
1C5
100
AcDbEntity
  8
TFR-TRI
  6
CONTINUOUS
 62
           4
100
AcDbLine
 10
2.708471298218
 20
8.290940284729
 30
0.0
 11
2.767129659653
 21
8.290940284729
 31
0.0
  0
LINE
  5
1C6
100
AcDbEntity
  8
TFR-TRI
  6
CONTINUOUS
 62
           4
100
AcDbLine
 10
37.752544403076
 20
8.099820137024
 30
0.0
 11
37.752544403076
 21
8.046689987183
 31
0.0
  0
LINE
  5
1C7
100
AcDbEntity
  8
TFR-TRI
  6
CONTINUOUS
 62
           4
100
AcDbLine
 10
27.91450881958
 20
20.870023727417
 30
0.0
 11
27.962551116943
 21
20.870023727417
 31
0.0
  0
LINE
  5
1C8
100
AcDbEntity
  8
TFR-TRI
  6
CONTINUOUS
 62
           4
100
AcDbLine
 10
22.905130386353
 20
27.099073410034
 30
0.0
 11
22.905130386353
 21
24.487573623657
 31
0.0
  0
LINE
  5
1C9
100
AcDbEntity
  8
TFR-TRI
  6
CONTINUOUS
 62
           4
100
AcDbLine
 10
4.35012960434
 20
27.653001785278
 30
0.0
 11
4.35012960434
 21
26.433002471924
 31
0.0
  0
LINE
  5
1CA
100
AcDbEntity
  8
TFR-TRI
  6
CONTINUOUS
 62
           4
100
AcDbLine
 10
26.034130096436
 20
31.395023345947
 30
0.0
 11
26.034130096436
 21
29.220022201538
 31
0.0
  0
LINE
  5
1CB
100
AcDbEntity
  8
TFR-TRI
  6
CONTINUOUS
 62
           4
100
AcDbLine
 10
2.979069471359
 20
8.290940284729
 30
0.0
 11
3.000092506409
 21
8.290940284729
 31
0.0
  0
LINE
  5
1CC
100
AcDbEntity
  8
TFR-TRI
  6
CONTINUOUS
 62
           4
100
AcDbLine
 10
3.212749004364
 20
20.340023040771
 30
0.0
 11
3.267129659653
 21
20.340023040771
 31
0.0
  0
LINE
  5
1CD
100
AcDbEntity
  8
TFR-TRI
  6
CONTINUOUS
 62
           4
100
AcDbLine
 10
27.617130279541
 20
28.720022201538
 30
0.0
 11
27.680891036987
 21
28.720022201538
 31
0.0
  0
LINE
  5
1CE
100
AcDbEntity
  8
TFR-TRI
  6
CONTINUOUS
 62
           4
100
AcDbLine
 10
3.017129659653
 20
20.35502243042
 30
0.0
 11
3.017129659653
 21
20.344041824341
 31
0.0
  0
LINE
  5
1CF
100
AcDbEntity
  8
TFR-TRI
  6
CONTINUOUS
 62
           4
100
AcDbLine
 10
37.144046783447
 20
10.1959400177
 30
0.0
 11
37.222545623779
 21
10.1959400177
 31
0.0
  0
LINE
  5
1D0
100
AcDbEntity
  8
TFR-TRI
  6
CONTINUOUS
 62
           4
100
AcDbLine
 10
2.028629541397
 20
7.589939594269
 30
0.0
 11
2.028629541397
 21
7.620087623596
 31
0.0
  0
LINE
  5
1D1
100
AcDbEntity
  8
TFR-TRI
  6
CONTINUOUS
 62
           4
100
AcDbLine
 10
37.714485168457
 20
8.290940284729
 30
0.0
 11
37.735507965088
 21
8.290940284729
 31
0.0
  0
LINE
  5
1D2
100
AcDbEntity
  8
TFR-TRI
  6
CONTINUOUS
 62
           4
100
AcDbLine
 10
3.267129659653
 20
20.340023040771
 30
0.0
 11
3.325788021088
 21
20.340023040771
 31
0.0
  0
LINE
  5
1D3
100
AcDbEntity
  8
TFR-TRI
  6
CONTINUOUS
 62
           4
100
AcDbLine
 10
2.107129573822
 20
7.531699180603
 30
0.0
 11
2.107129573822
 21
7.527439594269
 31
0.0
  0
LINE
  5
1D4
100
AcDbEntity
  8
TFR-TRI
  6
CONTINUOUS
 62
           4
100
AcDbLine
 10
27.551866531372
 20
8.290940284729
 30
0.0
 11
27.617130279541
 21
8.290940284729
 31
0.0
  0
LINE
  5
1D5
100
AcDbEntity
  8
TFR-TRI
  6
CONTINUOUS
 62
           4
100
AcDbLine
 10
37.222545623779
 20
10.128952980042
 30
0.0
 11
37.222545623779
 21
10.092616081238
 31
0.0
  0
LINE
  5
1D6
100
AcDbEntity
  8
TFR-TRI
  6
CONTINUOUS
 62
           4
100
AcDbLine
 10
11.659629821777
 20
26.886522293091
 30
0.0
 11
11.659629821777
 21
24.700023651123
 31
0.0
  0
LINE
  5
1D7
100
AcDbEntity
  8
TFR-TRI
  6
CONTINUOUS
 62
           4
100
AcDbLine
 10
22.905130386353
 20
30.481573104858
 30
0.0
 11
22.905130386353
 21
27.870073318481
 31
0.0
  0
LINE
  5
1D8
100
AcDbEntity
  8
TFR-TRI
  6
CONTINUOUS
 62
           4
100
AcDbLine
 10
26.74654006958
 20
20.261522293091
 30
0.0
 11
26.682392120361
 21
20.261522293091
 31
0.0
  0
LINE
  5
1D9
100
AcDbEntity
  8
TFR-TRI
  6
CONTINUOUS
 62
           4
100
AcDbLine
 10
26.921510696411
 20
20.261522293091
 30
0.0
 11
26.867130279541
 21
20.261522293091
 31
0.0
  0
LINE
  5
1DA
100
AcDbEntity
  8
TFR-TRI
  6
CONTINUOUS
 62
           4
100
AcDbLine
 10
48.277545928955
 20
8.212439537048
 30
0.0
 11
48.277545928955
 21
8.290940284729
 31
0.0
  0
LINE
  5
1DB
100
AcDbEntity
  8
TFR-TRI
  6
CONTINUOUS
 62
           4
100
AcDbLine
 10
27.617130279541
 20
28.720022201538
 30
0.0
 11
27.617130279541
 21
20.870023727417
 31
0.0
  0
LINE
  5
1DC
100
AcDbEntity
  8
TFR-TRI
  6
CONTINUOUS
 62
           4
100
AcDbLine
 10
28.027130126953
 20
7.527439594269
 30
0.0
 11
28.027130126953
 21
7.531699180603
 31
0.0
  0
LINE
  5
1DD
100
AcDbEntity
  8
TFR-TRI
  6
CONTINUOUS
 62
           4
100
AcDbLine
 10
2.517129659653
 20
28.720022201538
 30
0.0
 11
3.60012960434
 21
28.720022201538
 31
0.0
  0
LINE
  5
1DE
100
AcDbEntity
  8
TFR-TRI
  6
CONTINUOUS
 62
           4
100
AcDbLine
 10
37.222545623779
 20
9.6959400177
 30
0.0
 11
37.144046783447
 21
9.6959400177
 31
0.0
  0
LINE
  5
1DF
100
AcDbEntity
  8
TFR-TRI
  6
CONTINUOUS
 62
           4
100
AcDbLine
 10
37.752544403076
 20
8.253754615784
 30
0.0
 11
37.752544403076
 21
8.225493431091
 31
0.0
  0
LINE
  5
1E0
100
AcDbEntity
  8
TFR-TRI
  6
CONTINUOUS
 62
           4
100
AcDbLine
 10
8.659629821777
 20
25.775022506714
 30
0.0
 11
8.659629821777
 21
24.700023651123
 31
0.0
  0
LINE
  5
1E1
100
AcDbEntity
  8
TFR-TRI
  6
CONTINUOUS
 62
           4
100
AcDbLine
 10
28.105628967285
 20
7.527439594269
 30
0.0
 11
28.027130126953
 21
7.527439594269
 31
0.0
  0
LINE
  5
1E2
100
AcDbEntity
  8
TFR-TRI
  6
CONTINUOUS
 62
           4
100
AcDbLine
 10
37.144046783447
 20
10.00032043457
 30
0.0
 11
37.144046783447
 21
10.049492835999
 31
0.0
  0
LINE
  5
1E3
100
AcDbEntity
  8
TFR-TRI
  6
CONTINUOUS
 62
           4
100
AcDbLine
 10
25.784130096436
 20
23.653001785278
 30
0.0
 11
25.784130096436
 21
22.433002471924
 31
0.0
  0
LINE
  5
1E4
100
AcDbEntity
  8
TFR-TRI
  6
CONTINUOUS
 62
           4
100
AcDbLine
 10
26.921510696411
 20
20.340023040771
 30
0.0
 11
26.970682144165
 21
20.340023040771
 31
0.0
  0
LINE
  5
1E5
100
AcDbEntity
  8
TFR-TRI
  6
CONTINUOUS
 62
           4
100
AcDbLine
 10
6.367129802704
 20
8.182439804077
 30
0.0
 11
23.767129898071
 21
8.182439804077
 31
0.0
  0
LINE
  5
1E6
100
AcDbEntity
  8
TFR-TRI
  6
CONTINUOUS
 62
           4
100
AcDbLine
 10
17.474630355835
 20
25.775022506714
 30
0.0
 11
17.474630355835
 21
24.700023651123
 31
0.0
  0
LINE
  5
1E7
100
AcDbEntity
  8
TFR-TRI
  6
CONTINUOUS
 62
           4
100
AcDbLine
 10
37.222545623779
 20
10.1959400177
 30
0.0
 11
37.222545623779
 21
10.191661834717
 31
0.0
  0
LINE
  5
1E8
100
AcDbEntity
  8
TFR-TRI
  6
CONTINUOUS
 62
           4
100
AcDbLine
 10
3.017129659653
 20
8.3209400177
 30
0.0
 11
3.017129659653
 21
9.6959400177
 31
0.0
  0
LINE
  5
1E9
100
AcDbEntity
  8
TFR-TRI
  6
CONTINUOUS
 62
           4
100
AcDbLine
 10
12.084630012512
 20
26.886522293091
 30
0.0
 11
12.084630012512
 21
24.700023651123
 31
0.0
  0
LINE
  5
1EA
100
AcDbEntity
  8
TFR-TRI
  6
CONTINUOUS
 62
           4
100
AcDbLine
 10
23.767129898071
 20
31.520023345947
 30
0.0
 11
25.909130096436
 21
31.520023345947
 31
0.0
  0
LINE
  5
1EB
100
AcDbEntity
  8
TFR-TRI
  6
CONTINUOUS
 62
           4
100
AcDbLine
 10
2.045274972916
 20
20.870023727417
 30
0.0
 11
2.03280878067
 21
20.870023727417
 31
0.0
  0
ARC
  5
1EC
100
AcDbEntity
  8
TFR-TRI
  6
CONTINUOUS
 62
           4
100
AcDbCircle
 10
10.372129440308
 20
26.886522293091
 30
0.0
 40
0.21250000596
100
AcDbArc
 50
0.0
 51
180.0
  0
ARC
  5
1ED
100
AcDbEntity
  8
TFR-TRI
  6
CONTINUOUS
 62
           4
100
AcDbCircle
 10
45.477546691895
 20
7.652439594269
 30
0.0
 40
0.125
100
AcDbArc
 50
270.0
 51
360.0
  0
ARC
  5
1EE
100
AcDbEntity
  8
TFR-TRI
  6
CONTINUOUS
 62
           4
100
AcDbCircle
 10
6.067129611969
 20
28.182523727417
 30
0.0
 40
0.3125
100
AcDbArc
 50
180.0
 51
360.0
  0
ARC
  5
1EF
100
AcDbEntity
  8
TFR-TRI
  6
CONTINUOUS
 62
           4
100
AcDbCircle
 10
11.872129440308
 20
24.700023651123
 30
0.0
 40
0.21250000596
100
AcDbArc
 50
180.0
 51
360.0
  0
ARC
  5
1F0
100
AcDbEntity
  8
TFR-TRI
  6
CONTINUOUS
 62
           4
100
AcDbCircle
 10
4.22512960434
 20
31.395023345947
 30
0.0
 40
0.125
100
AcDbArc
 50
90.0
 51
180.0
  0
ARC
  5
1F1
100
AcDbEntity
  8
TFR-TRI
  6
CONTINUOUS
 62
           4
100
AcDbCircle
 10
25.924129486084
 20
23.653001785278
 30
0.0
 40
0.140000000596
100
AcDbArc
 50
0.0
 51
180.0
  0
ARC
  5
1F2
100
AcDbEntity
  8
TFR-TRI
  6
CONTINUOUS
 62
           4
100
AcDbCircle
 10
21.262128829956
 20
25.775022506714
 30
0.0
 40
0.21250000596
100
AcDbArc
 50
0.0
 51
180.0
  0
ARC
  5
1F3
100
AcDbEntity
  8
TFR-TRI
  6
CONTINUOUS
 62
           4
100
AcDbCircle
 10
18.262128829956
 20
30.269023895264
 30
0.0
 40
0.21250000596
100
AcDbArc
 50
0.0
 51
180.0
  0
ARC
  5
1F4
100
AcDbEntity
  8
TFR-TRI
  6
CONTINUOUS
 62
           4
100
AcDbCircle
 10
27.617130279541
 20
7.802439689636
 30
0.0
 40
0.488499999046
100
AcDbArc
 50
0.0
 51
90.0
  0
ARC
  5
1F5
100
AcDbEntity
  8
TFR-TRI
  6
CONTINUOUS
 62
           4
100
AcDbCircle
 10
12.872129440308
 20
24.700023651123
 30
0.0
 40
0.21250000596
100
AcDbArc
 50
180.0
 51
360.0
  0
ARC
  5
1F6
100
AcDbEntity
  8
TFR-TRI
  6
CONTINUOUS
 62
           4
100
AcDbCircle
 10
37.252544403076
 20
8.3209400177
 30
0.0
 40
0.029999999329
100
AcDbArc
 50
180.0
 51
270.0
  0
ARC
  5
1F7
100
AcDbEntity
  8
TFR-TRI
  6
CONTINUOUS
 62
           4
100
AcDbCircle
 10
4.210129737854
 20
26.433002471924
 30
0.0
 40
0.140000000596
100
AcDbArc
 50
180.0
 51
360.0
  0
ARC
  5
1F8
100
AcDbEntity
  8
TFR-TRI
  6
CONTINUOUS
 62
           4
100
AcDbCircle
 10
23.642129898071
 20
7.65743970871
 30
0.0
 40
0.125
100
AcDbArc
 50
270.0
 51
360.0
  0
ARC
  5
1F9
100
AcDbEntity
  8
TFR-TRI
  6
CONTINUOUS
 62
           4
100
AcDbCircle
 10
25.924129486084
 20
27.653001785278
 30
0.0
 40
0.140000000596
100
AcDbArc
 50
0.0
 51
180.0
  0
ARC
  5
1FA
100
AcDbEntity
  8
TFR-TRI
  6
CONTINUOUS
 62
           4
100
AcDbCircle
 10
10.372129440308
 20
24.700023651123
 30
0.0
 40
0.21250000596
100
AcDbArc
 50
180.0
 51
360.0
  0
ARC
  5
1FB
100
AcDbEntity
  8
TFR-TRI
  6
CONTINUOUS
 62
           4
100
AcDbCircle
 10
37.877544403076
 20
7.652439594269
 30
0.0
 40
0.125
100
AcDbArc
 50
180.0
 51
270.0
  0
ARC
  5
1FC
100
AcDbEntity
  8
TFR-TRI
  6
CONTINUOUS
 62
           4
100
AcDbCircle
 10
19.762128829956
 20
24.700023651123
 30
0.0
 40
0.21250000596
100
AcDbArc
 50
180.0
 51
360.0
  0
ARC
  5
1FD
100
AcDbEntity
  8
TFR-TRI
  6
CONTINUOUS
 62
           4
100
AcDbCircle
 10
17.262128829956
 20
26.78652381897
 30
0.0
 40
0.21250000596
100
AcDbArc
 50
180.0
 51
360.0
  0
ARC
  5
1FE
100
AcDbEntity
  8
TFR-TRI
  6
CONTINUOUS
 62
           4
100
AcDbCircle
 10
25.909130096436
 20
31.395023345947
 30
0.0
 40
0.125
100
AcDbArc
 50
0.0
 51
90.0
  0
ARC
  5
1FF
100
AcDbEntity
  8
TFR-TRI
  6
CONTINUOUS
 62
           4
100
AcDbCircle
 10
19.762128829956
 20
30.269023895264
 30
0.0
 40
0.21250000596
100
AcDbArc
 50
0.0
 51
180.0
  0
ARC
  5
200
100
AcDbEntity
  8
TFR-TRI
  6
CONTINUOUS
 62
           4
100
AcDbCircle
 10
21.262128829956
 20
26.78652381897
 30
0.0
 40
0.21250000596
100
AcDbArc
 50
180.0
 51
360.0
  0
ARC
  5
201
100
AcDbEntity
  8
TFR-TRI
  6
CONTINUOUS
 62
           4
100
AcDbCircle
 10
25.924129486084
 20
26.433002471924
 30
0.0
 40
0.140000000596
100
AcDbArc
 50
180.0
 51
360.0
  0
ARC
  5
202
100
AcDbEntity
  8
TFR-TRI
  6
CONTINUOUS
 62
           4
100
AcDbCircle
 10
4.210129737854
 20
24.433002471924
 30
0.0
 40
0.140000000596
100
AcDbArc
 50
180.0
 51
360.0
  0
ARC
  5
203
100
AcDbEntity
  8
TFR-TRI
  6
CONTINUOUS
 62
           4
100
AcDbCircle
 10
6.067129611969
 20
26.78652381897
 30
0.0
 40
0.3125
100
AcDbArc
 50
0.0
 51
180.0
  0
ARC
  5
204
100
AcDbEntity
  8
TFR-TRI
  6
CONTINUOUS
 62
           4
100
AcDbCircle
 10
21.262128829956
 20
24.700023651123
 30
0.0
 40
0.21250000596
100
AcDbArc
 50
180.0
 51
360.0
  0
ARC
  5
205
100
AcDbEntity
  8
TFR-TRI
  6
CONTINUOUS
 62
           4
100
AcDbCircle
 10
3.60012960434
 20
29.220022201538
 30
0.0
 40
0.5
100
AcDbArc
 50
270.0
 51
360.0
  0
ARC
  5
206
100
AcDbEntity
  8
TFR-TRI
  6
CONTINUOUS
 62
           4
100
AcDbCircle
 10
26.534130096436
 20
29.220022201538
 30
0.0
 40
0.5
100
AcDbArc
 50
180.0
 51
270.0
  0
ARC
  5
207
100
AcDbEntity
  8
TFR-TRI
  6
CONTINUOUS
 62
           4
100
AcDbCircle
 10
10.372129440308
 20
30.269023895264
 30
0.0
 40
0.21250000596
100
AcDbArc
 50
0.0
 51
180.0
  0
ARC
  5
208
100
AcDbEntity
  8
TFR-TRI
  6
CONTINUOUS
 62
           4
100
AcDbCircle
 10
8.872129440308
 20
25.775022506714
 30
0.0
 40
0.21250000596
100
AcDbArc
 50
0.0
 51
180.0
  0
ARC
  5
209
100
AcDbEntity
  8
TFR-TRI
  6
CONTINUOUS
 62
           4
100
AcDbCircle
 10
48.402545928955
 20
8.182439804077
 30
0.0
 40
0.029999999329
100
AcDbArc
 50
0.0
 51
90.0
  0
ARC
  5
20A
100
AcDbEntity
  8
TFR-TRI
  6
CONTINUOUS
 62
           4
100
AcDbCircle
 10
24.067129135132
 20
24.800024032593
 30
0.0
 40
0.3125
100
AcDbArc
 50
180.0
 51
360.0
  0
ARC
  5
20B
100
AcDbEntity
  8
TFR-TRI
  6
CONTINUOUS
 62
           4
100
AcDbCircle
 10
2.517129659653
 20
7.802439689636
 30
0.0
 40
0.488499999046
100
AcDbArc
 50
90.0
 51
180.0
  0
ARC
  5
20C
100
AcDbEntity
  8
TFR-TRI
  6
CONTINUOUS
 62
           4
100
AcDbCircle
 10
11.872129440308
 20
28.082523345947
 30
0.0
 40
0.21250000596
100
AcDbArc
 50
180.0
 51
360.0
  0
ARC
  5
20D
100
AcDbEntity
  8
TFR-TRI
  6
CONTINUOUS
 62
           4
100
AcDbCircle
 10
24.067129135132
 20
28.182523727417
 30
0.0
 40
0.3125
100
AcDbArc
 50
180.0
 51
360.0
  0
ARC
  5
20E
100
AcDbEntity
  8
TFR-TRI
  6
CONTINUOUS
 62
           4
100
AcDbCircle
 10
19.762128829956
 20
26.886522293091
 30
0.0
 40
0.21250000596
100
AcDbArc
 50
0.0
 51
180.0
  0
ARC
  5
20F
100
AcDbEntity
  8
TFR-TRI
  6
CONTINUOUS
 62
           4
100
AcDbCircle
 10
6.492129802704
 20
7.65743970871
 30
0.0
 40
0.125
100
AcDbArc
 50
180.0
 51
270.0
  0
ARC
  5
210
100
AcDbEntity
  8
TFR-TRI
  6
CONTINUOUS
 62
           4
100
AcDbCircle
 10
17.262128829956
 20
25.775022506714
 30
0.0
 40
0.21250000596
100
AcDbArc
 50
0.0
 51
180.0
  0
ARC
  5
211
100
AcDbEntity
  8
TFR-TRI
  6
CONTINUOUS
 62
           4
100
AcDbCircle
 10
2.517129659653
 20
7.802439689636
 30
0.0
 40
0.409999996424
100
AcDbArc
 50
90.0
 51
180.0
  0
ARC
  5
212
100
AcDbEntity
  8
TFR-TRI
  6
CONTINUOUS
 62
           4
100
AcDbCircle
 10
8.872129440308
 20
30.269023895264
 30
0.0
 40
0.21250000596
100
AcDbArc
 50
0.0
 51
180.0
  0
ARC
  5
213
100
AcDbEntity
  8
TFR-TRI
  6
CONTINUOUS
 62
           4
100
AcDbCircle
 10
2.517129659653
 20
20.370023727417
 30
0.0
 40
0.5
100
AcDbArc
 50
0.0
 51
90.0
  0
ARC
  5
214
100
AcDbEntity
  8
TFR-TRI
  6
CONTINUOUS
 62
           4
100
AcDbCircle
 10
3.517129659653
 20
9.6959400177
 30
0.0
 40
0.5
100
AcDbArc
 50
90.0
 51
180.0
  0
ARC
  5
215
100
AcDbEntity
  8
TFR-TRI
  6
CONTINUOUS
 62
           4
100
AcDbCircle
 10
25.924129486084
 20
22.433002471924
 30
0.0
 40
0.140000000596
100
AcDbArc
 50
180.0
 51
360.0
  0
ARC
  5
216
100
AcDbEntity
  8
TFR-TRI
  6
CONTINUOUS
 62
           4
100
AcDbCircle
 10
27.617130279541
 20
7.802439689636
 30
0.0
 40
0.409999996424
100
AcDbArc
 50
0.0
 51
90.0
  0
ARC
  5
217
100
AcDbEntity
  8
TFR-TRI
  6
CONTINUOUS
 62
           4
100
AcDbCircle
 10
18.262128829956
 20
26.886522293091
 30
0.0
 40
0.21250000596
100
AcDbArc
 50
0.0
 51
180.0
  0
ARC
  5
218
100
AcDbEntity
  8
TFR-TRI
  6
CONTINUOUS
 62
           4
100
AcDbCircle
 10
4.210129737854
 20
22.433002471924
 30
0.0
 40
0.140000000596
100
AcDbArc
 50
180.0
 51
360.0
  0
ARC
  5
219
100
AcDbEntity
  8
TFR-TRI
  6
CONTINUOUS
 62
           4
100
AcDbCircle
 10
6.067129611969
 20
30.169023513794
 30
0.0
 40
0.3125
100
AcDbArc
 50
0.0
 51
180.0
  0
ARC
  5
21A
100
AcDbEntity
  8
TFR-TRI
  6
CONTINUOUS
 62
           4
100
AcDbCircle
 10
12.872129440308
 20
26.78652381897
 30
0.0
 40
0.21250000596
100
AcDbArc
 50
180.0
 51
360.0
  0
ARC
  5
21B
100
AcDbEntity
  8
TFR-TRI
  6
CONTINUOUS
 62
           4
100
AcDbCircle
 10
37.252544403076
 20
8.3209400177
 30
0.0
 40
0.108499996364
100
AcDbArc
 50
180.0
 51
270.0
  0
ARC
  5
21C
100
AcDbEntity
  8
TFR-TRI
  6
CONTINUOUS
 62
           4
100
AcDbCircle
 10
18.262128829956
 20
28.082523345947
 30
0.0
 40
0.21250000596
100
AcDbArc
 50
180.0
 51
360.0
  0
CIRCLE
  5
21D
100
AcDbEntity
  8
TFR-TRI
  6
CONTINUOUS
 62
           4
100
AcDbCircle
 10
4.60012960434
 20
31.020023345947
 30
0.0
 40
0.0625
  0
ARC
  5
21E
100
AcDbEntity
  8
TFR-TRI
  6
CONTINUOUS
 62
           4
100
AcDbCircle
 10
27.617130279541
 20
20.370023727417
 30
0.0
 40
0.5
100
AcDbArc
 50
90.0
 51
180.0
  0
ARC
  5
21F
100
AcDbEntity
  8
TFR-TRI
  6
CONTINUOUS
 62
           4
100
AcDbCircle
 10
8.872129440308
 20
24.700023651123
 30
0.0
 40
0.21250000596
100
AcDbArc
 50
180.0
 51
360.0
  0
ARC
  5
220
100
AcDbEntity
  8
TFR-TRI
  6
CONTINUOUS
 62
           4
100
AcDbCircle
 10
17.262128829956
 20
30.269023895264
 30
0.0
 40
0.21250000596
100
AcDbArc
 50
0.0
 51
180.0
  0
ARC
  5
221
100
AcDbEntity
  8
TFR-TRI
  6
CONTINUOUS
 62
           4
100
AcDbCircle
 10
10.372129440308
 20
28.082523345947
 30
0.0
 40
0.21250000596
100
AcDbArc
 50
180.0
 51
360.0
  0
ARC
  5
222
100
AcDbEntity
  8
TFR-TRI
  6
CONTINUOUS
 62
           4
100
AcDbCircle
 10
17.262128829956
 20
24.700023651123
 30
0.0
 40
0.21250000596
100
AcDbArc
 50
180.0
 51
360.0
  0
ARC
  5
223
100
AcDbEntity
  8
TFR-TRI
  6
CONTINUOUS
 62
           4
100
AcDbCircle
 10
25.924129486084
 20
25.653001785278
 30
0.0
 40
0.140000000596
100
AcDbArc
 50
0.0
 51
180.0
  0
ARC
  5
224
100
AcDbEntity
  8
TFR-TRI
  6
CONTINUOUS
 62
           4
100
AcDbCircle
 10
24.067129135132
 20
26.78652381897
 30
0.0
 40
0.3125
100
AcDbArc
 50
0.0
 51
180.0
  0
ARC
  5
225
100
AcDbEntity
  8
TFR-TRI
  6
CONTINUOUS
 62
           4
100
AcDbCircle
 10
4.210129737854
 20
25.653001785278
 30
0.0
 40
0.140000000596
100
AcDbArc
 50
0.0
 51
180.0
  0
ARC
  5
226
100
AcDbEntity
  8
TFR-TRI
  6
CONTINUOUS
 62
           4
100
AcDbCircle
 10
18.262128829956
 20
24.700023651123
 30
0.0
 40
0.21250000596
100
AcDbArc
 50
180.0
 51
360.0
  0
ARC
  5
227
100
AcDbEntity
  8
TFR-TRI
  6
CONTINUOUS
 62
           4
100
AcDbCircle
 10
4.210129737854
 20
27.653001785278
 30
0.0
 40
0.140000000596
100
AcDbArc
 50
0.0
 51
180.0
  0
ARC
  5
228
100
AcDbEntity
  8
TFR-TRI
  6
CONTINUOUS
 62
           4
100
AcDbCircle
 10
19.762128829956
 20
28.082523345947
 30
0.0
 40
0.21250000596
100
AcDbArc
 50
180.0
 51
360.0
  0
ARC
  5
229
100
AcDbEntity
  8
TFR-TRI
  6
CONTINUOUS
 62
           4
100
AcDbCircle
 10
24.067129135132
 20
30.169023513794
 30
0.0
 40
0.3125
100
AcDbArc
 50
0.0
 51
180.0
  0
ARC
  5
22A
100
AcDbEntity
  8
TFR-TRI
  6
CONTINUOUS
 62
           4
100
AcDbCircle
 10
4.210129737854
 20
23.653001785278
 30
0.0
 40
0.140000000596
100
AcDbArc
 50
0.0
 51
180.0
  0
ARC
  5
22B
100
AcDbEntity
  8
TFR-TRI
  6
CONTINUOUS
 62
           4
100
AcDbCircle
 10
12.872129440308
 20
25.775022506714
 30
0.0
 40
0.21250000596
100
AcDbArc
 50
0.0
 51
180.0
  0
ARC
  5
22C
100
AcDbEntity
  8
TFR-TRI
  6
CONTINUOUS
 62
           4
100
AcDbCircle
 10
12.872129440308
 20
30.269023895264
 30
0.0
 40
0.21250000596
100
AcDbArc
 50
0.0
 51
180.0
  0
ARC
  5
22D
100
AcDbEntity
  8
TFR-TRI
  6
CONTINUOUS
 62
           4
100
AcDbCircle
 10
25.924129486084
 20
24.433002471924
 30
0.0
 40
0.140000000596
100
AcDbArc
 50
180.0
 51
360.0
  0
ARC
  5
22E
100
AcDbEntity
  8
TFR-TRI
  6
CONTINUOUS
 62
           4
100
AcDbCircle
 10
11.872129440308
 20
26.886522293091
 30
0.0
 40
0.21250000596
100
AcDbArc
 50
0.0
 51
180.0
  0
ARC
  5
22F
100
AcDbEntity
  8
TFR-TRI
  6
CONTINUOUS
 62
           4
100
AcDbCircle
 10
48.402545928955
 20
8.182439804077
 30
0.0
 40
0.108499996364
100
AcDbArc
 50
0.0
 51
90.0
  0
ARC
  5
230
100
AcDbEntity
  8
TFR-TRI
  6
CONTINUOUS
 62
           4
100
AcDbCircle
 10
8.872129440308
 20
26.78652381897
 30
0.0
 40
0.21250000596
100
AcDbArc
 50
180.0
 51
360.0
  0
ARC
  5
231
100
AcDbEntity
  8
TFR-TRI
  6
CONTINUOUS
 62
           4
100
AcDbCircle
 10
26.617130279541
 20
9.6959400177
 30
0.0
 40
0.5
100
AcDbArc
 50
0.0
 51
90.0
  0
ARC
  5
232
100
AcDbEntity
  8
TFR-TRI
  6
CONTINUOUS
 62
           4
100
AcDbCircle
 10
6.067129611969
 20
24.800024032593
 30
0.0
 40
0.3125
100
AcDbArc
 50
180.0
 51
360.0
  0
ARC
  5
233
100
AcDbEntity
  8
TFR-TRI
  6
CONTINUOUS
 62
           4
100
AcDbCircle
 10
11.872129440308
 20
30.269023895264
 30
0.0
 40
0.21250000596
100
AcDbArc
 50
0.0
 51
180.0
  0
ARC
  5
234
100
AcDbEntity
  8
TFR-TRI
  6
CONTINUOUS
 62
           4
100
AcDbCircle
 10
21.262128829956
 20
30.269023895264
 30
0.0
 40
0.21250000596
100
AcDbArc
 50
0.0
 51
180.0
  0
ENDSEC
  0
SECTION
  2
OBJECTS
  0
DICTIONARY
  5
19
100
AcDbDictionary
  3
ACAD_GROUP
350
1A
  3
ACAD_MLINESTYLE
350
1B
  3
ACDBVARIABLEDICTIONARY
350
24F
  0
DICTIONARY
  5
1A
102
{ACAD_REACTORS
330
19
102
}
100
AcDbDictionary
  0
DICTIONARY
  5
1B
102
{ACAD_REACTORS
330
19
102
}
100
AcDbDictionary
  3
STANDARD
350
1C
  0
MLINESTYLE
  5
1C
102
{ACAD_REACTORS
330
1B
102
}
100
AcDbMlineStyle
  2
Standard
 70
           0
  3

 62
           0
 51
90.0
 52
90.0
 71
           2
 49
0.5
 62
         256
  6
ByLayer
 49
-0.5
 62
         256
  6
ByLayer
  0
DICTIONARY
  5
1E
102
{ACAD_REACTORS
330
19
102
}
100
AcDbDictionary
  3
MODEL
350
20
  3
LAYOUT1
350
21
  0
DICTIONARY
  5
22
102
{ACAD_REACTORS
330
19
102
}
100
AcDbDictionary
  0
DICTIONARY
  5
24F
100
AcDbDictionary
  3
DIMADEC
350
250
  0
DICTIONARYVAR
  5
250
100
DictionaryVariables
280
           0
  1
0
  0
ENDSEC
  0
EOF
