  0
SECTION
  2
HEADER
  9
$ACADVER
  1
AC1012
  9
$DWGCODEPAGE
  3
ANSI_1252
  9
$INSBASE
 10
0.0
 20
0.0
 30
0.0
  9
$EXTMIN
 10
-0.0108034852766394
 20
0.6046600558383624
 30
-0.0000000349181948
  9
$EXTMAX
 10
8.553157085854017
 20
7.092086810725842
 30
0.0000000814935746
  9
$LIMMIN
 10
0.0
 20
0.0
  9
$LIMMAX
 10
12.0
 20
9.0
  9
$ORTHOMODE
 70
     0
  9
$REGENMODE
 70
     1
  9
$FILLMODE
 70
     1
  9
$QTEXTMODE
 70
     0
  9
$MIRRTEXT
 70
     1
  9
$DRAGMODE
 70
     2
  9
$LTSCALE
 40
1.0
  9
$OSMODE
 70
   547
  9
$ATTMODE
 70
     1
  9
$TEXTSIZE
 40
0.2
  9
$TRACEWID
 40
0.05
  9
$TEXTSTYLE
  7
STANDARD
  9
$CLAYER
  8
0
  9
$CELTYPE
  6
BYLAYER
  9
$CECOLOR
 62
   256
  9
$CELTSCALE
 40
1.0
  9
$DELOBJ
 70
     1
  9
$DISPSILH
 70
     0
  9
$DIMSCALE
 40
1.0
  9
$DIMASZ
 40
0.18
  9
$DIMEXO
 40
0.0625
  9
$DIMDLI
 40
0.38
  9
$DIMRND
 40
0.0
  9
$DIMDLE
 40
0.0
  9
$DIMEXE
 40
0.18
  9
$DIMTP
 40
0.0
  9
$DIMTM
 40
0.0
  9
$DIMTXT
 40
0.18
  9
$DIMCEN
 40
0.09
  9
$DIMTSZ
 40
0.0
  9
$DIMTOL
 70
     0
  9
$DIMLIM
 70
     0
  9
$DIMTIH
 70
     1
  9
$DIMTOH
 70
     1
  9
$DIMSE1
 70
     0
  9
$DIMSE2
 70
     0
  9
$DIMTAD
 70
     0
  9
$DIMZIN
 70
     0
  9
$DIMBLK
  1

  9
$DIMASO
 70
     1
  9
$DIMSHO
 70
     1
  9
$DIMPOST
  1

  9
$DIMAPOST
  1

  9
$DIMALT
 70
     0
  9
$DIMALTD
 70
     2
  9
$DIMALTF
 40
25.4
  9
$DIMLFAC
 40
1.0
  9
$DIMTOFL
 70
     0
  9
$DIMTVP
 40
0.0
  9
$DIMTIX
 70
     0
  9
$DIMSOXD
 70
     0
  9
$DIMSAH
 70
     0
  9
$DIMBLK1
  1

  9
$DIMBLK2
  1

  9
$DIMSTYLE
  2
STANDARD
  9
$DIMCLRD
 70
     0
  9
$DIMCLRE
 70
     0
  9
$DIMCLRT
 70
     0
  9
$DIMTFAC
 40
1.0
  9
$DIMGAP
 40
0.09
  9
$DIMJUST
 70
     0
  9
$DIMSD1
 70
     0
  9
$DIMSD2
 70
     0
  9
$DIMTOLJ
 70
     1
  9
$DIMTZIN
 70
     0
  9
$DIMALTZ
 70
     0
  9
$DIMALTTZ
 70
     0
  9
$DIMFIT
 70
     5
  9
$DIMUPT
 70
     0
  9
$DIMUNIT
 70
     2
  9
$DIMDEC
 70
     4
  9
$DIMTDEC
 70
     4
  9
$DIMALTU
 70
     2
  9
$DIMALTTD
 70
     2
  9
$DIMTXSTY
  7
STANDARD
  9
$DIMAUNIT
 70
     0
  9
$LUNITS
 70
     2
  9
$LUPREC
 70
     4
  9
$SKETCHINC
 40
0.1
  9
$FILLETRAD
 40
0.0
  9
$AUNITS
 70
     0
  9
$AUPREC
 70
     0
  9
$MENU
  1
acad
  9
$ELEVATION
 40
0.0
  9
$PELEVATION
 40
0.0
  9
$THICKNESS
 40
0.0
  9
$LIMCHECK
 70
     0
  9
$BLIPMODE
 70
     0
  9
$CHAMFERA
 40
0.0
  9
$CHAMFERB
 40
0.0
  9
$CHAMFERC
 40
0.0
  9
$CHAMFERD
 40
0.0
  9
$SKPOLY
 70
     0
  9
$TDCREATE
 40
2452557.439699074
  9
$TDUPDATE
 40
2453944.465102014
  9
$TDINDWG
 40
0.0016531134
  9
$TDUSRTIMER
 40
0.0016531134
  9
$USRTIMER
 70
     1
  9
$ANGBASE
 50
0.0
  9
$ANGDIR
 70
     0
  9
$PDMODE
 70
     0
  9
$PDSIZE
 40
0.0
  9
$PLINEWID
 40
0.0
  9
$COORDS
 70
     1
  9
$SPLFRAME
 70
     0
  9
$SPLINETYPE
 70
     6
  9
$SPLINESEGS
 70
     8
  9
$ATTDIA
 70
     0
  9
$ATTREQ
 70
     1
  9
$HANDLING
 70
  4097
  9
$HANDSEED
  5
4EDE
  9
$SURFTAB1
 70
     6
  9
$SURFTAB2
 70
     6
  9
$SURFTYPE
 70
     6
  9
$SURFU
 70
     6
  9
$SURFV
 70
     6
  9
$UCSNAME
  2

  9
$UCSORG
 10
0.0
 20
0.0
 30
0.0
  9
$UCSXDIR
 10
1.0
 20
0.0
 30
0.0
  9
$UCSYDIR
 10
0.0
 20
1.0
 30
0.0
  9
$PUCSNAME
  2

  9
$PUCSORG
 10
0.0
 20
0.0
 30
0.0
  9
$PUCSXDIR
 10
1.0
 20
0.0
 30
0.0
  9
$PUCSYDIR
 10
0.0
 20
1.0
 30
0.0
  9
$USERI1
 70
     0
  9
$USERI2
 70
     0
  9
$USERI3
 70
     0
  9
$USERI4
 70
     0
  9
$USERI5
 70
     0
  9
$USERR1
 40
0.0
  9
$USERR2
 40
0.0
  9
$USERR3
 40
0.0
  9
$USERR4
 40
0.0
  9
$USERR5
 40
0.0
  9
$WORLDVIEW
 70
     1
  9
$SHADEDGE
 70
     3
  9
$SHADEDIF
 70
    70
  9
$TILEMODE
 70
     1
  9
$MAXACTVP
 70
    16
  9
$PINSBASE
 10
0.0
 20
0.0
 30
0.0
  9
$PLIMCHECK
 70
     0
  9
$PEXTMIN
 10
1.000000000000000E+20
 20
1.000000000000000E+20
 30
1.000000000000000E+20
  9
$PEXTMAX
 10
-1.000000000000000E+20
 20
-1.000000000000000E+20
 30
-1.000000000000000E+20
  9
$PLIMMIN
 10
0.0
 20
0.0
  9
$PLIMMAX
 10
12.0
 20
9.0
  9
$UNITMODE
 70
     0
  9
$VISRETAIN
 70
     0
  9
$PLINEGEN
 70
     0
  9
$PSLTSCALE
 70
     1
  9
$TREEDEPTH
 70
  3020
  9
$PICKSTYLE
 70
     1
  9
$CMLSTYLE
  2
STANDARD
  9
$CMLJUST
 70
     0
  9
$CMLSCALE
 40
1.0
  9
$SAVEIMAGES
 70
     1
  0
ENDSEC
  0
SECTION
  2
CLASSES
  0
CLASS
  1
ACDBDICTIONARYWDFLT
  2
AcDbDictionaryWithDefault
  3
AutoCAD 2000
 90
    32768
280
     0
281
     0
  0
CLASS
  1
ACDBPLACEHOLDER
  2
AcDbPlaceHolder
  3
AutoCAD 2000
 90
    32768
280
     0
281
     0
  0
CLASS
  1
LAYOUT
  2
AcDbLayout
  3
AutoCAD 2000
 90
    32768
280
     0
281
     0
  0
CLASS
  1
LONG_TRANSACTION
  2
AcDbLongTransaction
  3
AutoCAD 2000
 90
    32768
280
     0
281
     0
  0
CLASS
  1
LWPOLYLINE
  2
AcDbPolyline
  3
AutoCAD 2000
 90
    32768
280
     0
281
     1
  0
CLASS
  1
HATCH
  2
AcDbHatch
  3
AutoCAD 2000
 90
    32768
280
     0
281
     1
  0
CLASS
  1
XRECORD
  2
AcDbXrecord
  3
AutoCAD 2000
 90
    32768
280
     0
281
     0
  0
CLASS
  1
LONG_TRANSACTION
  2
AcDbLongTransaction
  3
AutoCAD 2000
 90
    32768
280
     0
281
     0
  0
CLASS
  1
LWPOLYLINE
  2
AcDbPolyline
  3
AutoCAD 2000
 90
    32768
280
     0
281
     1
  0
CLASS
  1
HATCH
  2
AcDbHatch
  3
AutoCAD 2000
 90
    32768
280
     0
281
     1
  0
CLASS
  1
XRECORD
  2
AcDbXrecord
  3
AutoCAD 2000
 90
    32768
280
     0
281
     0
  0
ENDSEC
  0
SECTION
  2
TABLES
  0
TABLE
  2
VPORT
  5
8
330
0
100
AcDbSymbolTable
 70
     3
  0
VPORT
  5
4EDB
330
8
100
AcDbSymbolTableRecord
100
AcDbViewportTableRecord
  2
*ACTIVE
 70
     0
 10
0.0
 20
0.0
 11
1.0
 21
1.0
 12
4.271176800288689
 22
3.848373433282102
 13
0.0
 23
0.0
 14
1.0
 24
1.0
 15
0.0
 25
0.0
 16
0.0
 26
0.0
 36
1.0
 17
0.0
 27
0.0
 37
0.0
 40
6.554886998439169
 41
1.647569444444444
 42
50.0
 43
0.0
 44
0.0
 50
0.0
 51
0.0
 71
     0
 72
   100
 73
     1
 74
     1
 75
     0
 76
     0
 77
     0
 78
     0
  0
ENDTAB
  0
TABLE
  2
LTYPE
  5
5
330
0
100
AcDbSymbolTable
 70
    25
  0
LTYPE
  5
13
330
5
100
AcDbSymbolTableRecord
100
AcDbLinetypeTableRecord
  2
BYBLOCK
 70
     0
  3

 72
    65
 73
     0
 40
0.0
  0
LTYPE
  5
14
330
5
100
AcDbSymbolTableRecord
100
AcDbLinetypeTableRecord
  2
BYLAYER
 70
     0
  3

 72
    65
 73
     0
 40
0.0
  0
LTYPE
  5
15
330
5
100
AcDbSymbolTableRecord
100
AcDbLinetypeTableRecord
  2
CONTINUOUS
 70
     0
  3
Solid line
 72
    65
 73
     0
 40
0.0
  0
LTYPE
  5
22
330
5
100
AcDbSymbolTableRecord
100
AcDbLinetypeTableRecord
  2
BORDER
 70
     0
  3
__ __ . __ __ . __ __ . __ __ . __ __ . __ __ .
 72
    65
 73
     6
 40
1.75
 49
0.5
 74
     0
 49
-0.25
 74
     0
 49
0.5
 74
     0
 49
-0.25
 74
     0
 49
0.5
 74
     0
 49
-0.25
 74
     0
  0
LTYPE
  5
23
330
5
100
AcDbSymbolTableRecord
100
AcDbLinetypeTableRecord
  2
BORDER2
 70
     0
  3
__.__.__.__.__.__.__.__.__.__.__.__.__.__.__.__
 72
    65
 73
     6
 40
0.875
 49
0.25
 74
     0
 49
-0.125
 74
     0
 49
0.25
 74
     0
 49
-0.125
 74
     0
 49
0.25
 74
     0
 49
-0.125
 74
     0
  0
LTYPE
  5
24
330
5
100
AcDbSymbolTableRecord
100
AcDbLinetypeTableRecord
  2
BORDERX2
 70
     0
  3
____  ____  .  ____  ____  .  
 72
    65
 73
     6
 40
3.5
 49
1.0
 74
     0
 49
-0.5
 74
     0
 49
1.0
 74
     0
 49
-0.5
 74
     0
 49
1.0
 74
     0
 49
-0.5
 74
     0
  0
LTYPE
  5
25
330
5
100
AcDbSymbolTableRecord
100
AcDbLinetypeTableRecord
  2
CENTER
 70
     0
  3
____ _ ____ _ ____ _ ____ _ ____ _ ____ _ ____
 72
    65
 73
     4
 40
2.0
 49
1.25
 74
     0
 49
-0.25
 74
     0
 49
0.25
 74
     0
 49
-0.25
 74
     0
  0
LTYPE
  5
26
330
5
100
AcDbSymbolTableRecord
100
AcDbLinetypeTableRecord
  2
CENTER2
 70
     0
  3
____ _ ____ _ ____ _ ____ _ ____ _ ____ _ ____
 72
    65
 73
     4
 40
1.125
 49
0.75
 74
     0
 49
-0.125
 74
     0
 49
0.125
 74
     0
 49
-0.125
 74
     0
  0
LTYPE
  5
27
330
5
100
AcDbSymbolTableRecord
100
AcDbLinetypeTableRecord
  2
CENTERX2
 70
     0
  3
________  __  ________  __  ________  __  
 72
    65
 73
     4
 40
4.0
 49
2.5
 74
     0
 49
-0.5
 74
     0
 49
0.5
 74
     0
 49
-0.5
 74
     0
  0
LTYPE
  5
28
330
5
100
AcDbSymbolTableRecord
100
AcDbLinetypeTableRecord
  2
DASHDOT
 70
     0
  3
__ . __ . __ . __ . __ . __ . __ . 
 72
    65
 73
     4
 40
1.0
 49
0.5
 74
     0
 49
-0.25
 74
     0
 49
0.0
 74
     0
 49
-0.25
 74
     0
  0
LTYPE
  5
29
330
5
100
AcDbSymbolTableRecord
100
AcDbLinetypeTableRecord
  2
DASHDOT2
 70
     0
  3
_._._._._._._._._._._._._._._._.
 72
    65
 73
     4
 40
0.5
 49
0.25
 74
     0
 49
-0.125
 74
     0
 49
0.0
 74
     0
 49
-0.125
 74
     0
  0
LTYPE
  5
2A
330
5
100
AcDbSymbolTableRecord
100
AcDbLinetypeTableRecord
  2
DASHDOTX2
 70
     0
  3
____  .  ____  .  ____  .  ____  .  
 72
    65
 73
     4
 40
2.0
 49
1.0
 74
     0
 49
-0.5
 74
     0
 49
0.0
 74
     0
 49
-0.5
 74
     0
  0
LTYPE
  5
2B
330
5
100
AcDbSymbolTableRecord
100
AcDbLinetypeTableRecord
  2
DASHED
 70
     0
  3
__ __ __ __ __ __ __ __ __ __ __ __ 
 72
    65
 73
     2
 40
0.75
 49
0.5
 74
     0
 49
-0.25
 74
     0
  0
LTYPE
  5
2C
330
5
100
AcDbSymbolTableRecord
100
AcDbLinetypeTableRecord
  2
DASHED2
 70
     0
  3
_ _ _ _ _ _ _ _ _ _ _ _ _ _ _ _ _ _ 
 72
    65
 73
     2
 40
0.375
 49
0.25
 74
     0
 49
-0.125
 74
     0
  0
LTYPE
  5
2D
330
5
100
AcDbSymbolTableRecord
100
AcDbLinetypeTableRecord
  2
DASHEDX2
 70
     0
  3
____  ____  ____  ____  ____  ____  
 72
    65
 73
     2
 40
1.5
 49
1.0
 74
     0
 49
-0.5
 74
     0
  0
LTYPE
  5
2E
330
5
100
AcDbSymbolTableRecord
100
AcDbLinetypeTableRecord
  2
DIVIDE
 70
     0
  3
____ . . ____ . . ____ . . ____ . . 
 72
    65
 73
     6
 40
1.25
 49
0.5
 74
     0
 49
-0.25
 74
     0
 49
0.0
 74
     0
 49
-0.25
 74
     0
 49
0.0
 74
     0
 49
-0.25
 74
     0
  0
LTYPE
  5
2F
330
5
100
AcDbSymbolTableRecord
100
AcDbLinetypeTableRecord
  2
DIVIDE2
 70
     0
  3
__..__..__..__..__..__..__..__..__..
 72
    65
 73
     6
 40
0.625
 49
0.25
 74
     0
 49
-0.125
 74
     0
 49
0.0
 74
     0
 49
-0.125
 74
     0
 49
0.0
 74
     0
 49
-0.125
 74
     0
  0
LTYPE
  5
30
330
5
100
AcDbSymbolTableRecord
100
AcDbLinetypeTableRecord
  2
DIVIDEX2
 70
     0
  3
________  .  .  ________  .  .  ________  .  . 
 72
    65
 73
     6
 40
2.5
 49
1.0
 74
     0
 49
-0.5
 74
     0
 49
0.0
 74
     0
 49
-0.5
 74
     0
 49
0.0
 74
     0
 49
-0.5
 74
     0
  0
LTYPE
  5
31
330
5
100
AcDbSymbolTableRecord
100
AcDbLinetypeTableRecord
  2
DOT
 70
     0
  3
. . . . . . . . . . . . . . . . . . 
 72
    65
 73
     2
 40
0.25
 49
0.0
 74
     0
 49
-0.25
 74
     0
  0
LTYPE
  5
32
330
5
100
AcDbSymbolTableRecord
100
AcDbLinetypeTableRecord
  2
DOT2
 70
     0
  3
....................................
 72
    65
 73
     2
 40
0.125
 49
0.0
 74
     0
 49
-0.125
 74
     0
  0
LTYPE
  5
33
330
5
100
AcDbSymbolTableRecord
100
AcDbLinetypeTableRecord
  2
DOTX2
 70
     0
  3
.  .  .  .  .  .  .  .  .  .  .  .  .  
 72
    65
 73
     2
 40
0.5
 49
0.0
 74
     0
 49
-0.5
 74
     0
  0
LTYPE
  5
34
330
5
100
AcDbSymbolTableRecord
100
AcDbLinetypeTableRecord
  2
HIDDEN
 70
     0
  3
__ __ __ __ __ __ __ __ __ __ __ __ 
 72
    65
 73
     2
 40
0.375
 49
0.25
 74
     0
 49
-0.125
 74
     0
  0
LTYPE
  5
35
330
5
100
AcDbSymbolTableRecord
100
AcDbLinetypeTableRecord
  2
HIDDEN2
 70
     0
  3
_ _ _ _ _ _ _ _ _ _ _ _ _ _ _ _ _ _ 
 72
    65
 73
     2
 40
0.1875
 49
0.125
 74
     0
 49
-0.0625
 74
     0
  0
LTYPE
  5
36
330
5
100
AcDbSymbolTableRecord
100
AcDbLinetypeTableRecord
  2
HIDDENX2
 70
     0
  3
____ ____ ____ ____ ____ ____ ____ 
 72
    65
 73
     2
 40
0.75
 49
0.5
 74
     0
 49
-0.25
 74
     0
  0
LTYPE
  5
37
330
5
100
AcDbSymbolTableRecord
100
AcDbLinetypeTableRecord
  2
PHANTOM
 70
     0
  3
______  __  __  ______  __  __  
 72
    65
 73
     6
 40
2.5
 49
1.25
 74
     0
 49
-0.25
 74
     0
 49
0.25
 74
     0
 49
-0.25
 74
     0
 49
0.25
 74
     0
 49
-0.25
 74
     0
  0
LTYPE
  5
38
330
5
100
AcDbSymbolTableRecord
100
AcDbLinetypeTableRecord
  2
PHANTOM2
 70
     0
  3
___ _ _ ___ _ _ ___ _ _ ___ _ _ 
 72
    65
 73
     6
 40
1.25
 49
0.625
 74
     0
 49
-0.125
 74
     0
 49
0.125
 74
     0
 49
-0.125
 74
     0
 49
0.125
 74
     0
 49
-0.125
 74
     0
  0
LTYPE
  5
39
330
5
100
AcDbSymbolTableRecord
100
AcDbLinetypeTableRecord
  2
PHANTOMX2
 70
     0
  3
___ _ _ ___ _ _ ___ _ _ ___ _ _ 
 72
    65
 73
     6
 40
5.0
 49
2.5
 74
     0
 49
-0.5
 74
     0
 49
0.5
 74
     0
 49
-0.5
 74
     0
 49
0.5
 74
     0
 49
-0.5
 74
     0
  0
ENDTAB
  0
TABLE
  2
LAYER
  5
2
330
0
100
AcDbSymbolTable
 70
   257
  0
LAYER
  5
10
330
2
100
AcDbSymbolTableRecord
100
AcDbLayerTableRecord
  2
0
 70
     0
 62
     7
  6
CONTINUOUS
  0
LAYER
  5
3A
330
2
100
AcDbSymbolTableRecord
100
AcDbLayerTableRecord
  2
1
 70
     0
 62
     1
  6
CONTINUOUS
  0
LAYER
  5
3B
330
2
100
AcDbSymbolTableRecord
100
AcDbLayerTableRecord
  2
2
 70
     0
 62
     2
  6
CONTINUOUS
  0
LAYER
  5
3C
330
2
100
AcDbSymbolTableRecord
100
AcDbLayerTableRecord
  2
3
 70
     0
 62
     3
  6
CONTINUOUS
  0
LAYER
  5
3D
330
2
100
AcDbSymbolTableRecord
100
AcDbLayerTableRecord
  2
4
 70
     0
 62
     4
  6
CONTINUOUS
  0
LAYER
  5
3E
330
2
100
AcDbSymbolTableRecord
100
AcDbLayerTableRecord
  2
5
 70
     0
 62
     5
  6
CONTINUOUS
  0
LAYER
  5
3F
330
2
100
AcDbSymbolTableRecord
100
AcDbLayerTableRecord
  2
6
 70
     0
 62
     6
  6
CONTINUOUS
  0
LAYER
  5
40
330
2
100
AcDbSymbolTableRecord
100
AcDbLayerTableRecord
  2
7
 70
     0
 62
     7
  6
CONTINUOUS
  0
LAYER
  5
41
330
2
100
AcDbSymbolTableRecord
100
AcDbLayerTableRecord
  2
8
 70
     0
 62
     8
  6
CONTINUOUS
  0
LAYER
  5
42
330
2
100
AcDbSymbolTableRecord
100
AcDbLayerTableRecord
  2
9
 70
     0
 62
     9
  6
CONTINUOUS
  0
LAYER
  5
43
330
2
100
AcDbSymbolTableRecord
100
AcDbLayerTableRecord
  2
10
 70
     0
 62
    10
  6
CONTINUOUS
  0
LAYER
  5
44
330
2
100
AcDbSymbolTableRecord
100
AcDbLayerTableRecord
  2
11
 70
     0
 62
    11
  6
CONTINUOUS
  0
LAYER
  5
45
330
2
100
AcDbSymbolTableRecord
100
AcDbLayerTableRecord
  2
12
 70
     0
 62
    12
  6
CONTINUOUS
  0
LAYER
  5
46
330
2
100
AcDbSymbolTableRecord
100
AcDbLayerTableRecord
  2
13
 70
     0
 62
    13
  6
CONTINUOUS
  0
LAYER
  5
47
330
2
100
AcDbSymbolTableRecord
100
AcDbLayerTableRecord
  2
14
 70
     0
 62
    14
  6
CONTINUOUS
  0
LAYER
  5
48
330
2
100
AcDbSymbolTableRecord
100
AcDbLayerTableRecord
  2
15
 70
     0
 62
    15
  6
CONTINUOUS
  0
LAYER
  5
49
330
2
100
AcDbSymbolTableRecord
100
AcDbLayerTableRecord
  2
16
 70
     0
 62
    16
  6
CONTINUOUS
  0
LAYER
  5
4A
330
2
100
AcDbSymbolTableRecord
100
AcDbLayerTableRecord
  2
17
 70
     0
 62
    17
  6
CONTINUOUS
  0
LAYER
  5
4B
330
2
100
AcDbSymbolTableRecord
100
AcDbLayerTableRecord
  2
18
 70
     0
 62
    18
  6
CONTINUOUS
  0
LAYER
  5
4C
330
2
100
AcDbSymbolTableRecord
100
AcDbLayerTableRecord
  2
19
 70
     0
 62
    19
  6
CONTINUOUS
  0
LAYER
  5
4D
330
2
100
AcDbSymbolTableRecord
100
AcDbLayerTableRecord
  2
20
 70
     0
 62
    20
  6
CONTINUOUS
  0
LAYER
  5
4E
330
2
100
AcDbSymbolTableRecord
100
AcDbLayerTableRecord
  2
21
 70
     0
 62
    21
  6
CONTINUOUS
  0
LAYER
  5
4F
330
2
100
AcDbSymbolTableRecord
100
AcDbLayerTableRecord
  2
22
 70
     0
 62
    22
  6
CONTINUOUS
  0
LAYER
  5
50
330
2
100
AcDbSymbolTableRecord
100
AcDbLayerTableRecord
  2
23
 70
     0
 62
    23
  6
CONTINUOUS
  0
LAYER
  5
51
330
2
100
AcDbSymbolTableRecord
100
AcDbLayerTableRecord
  2
24
 70
     0
 62
    24
  6
CONTINUOUS
  0
LAYER
  5
52
330
2
100
AcDbSymbolTableRecord
100
AcDbLayerTableRecord
  2
25
 70
     0
 62
    25
  6
CONTINUOUS
  0
LAYER
  5
53
330
2
100
AcDbSymbolTableRecord
100
AcDbLayerTableRecord
  2
26
 70
     0
 62
    26
  6
CONTINUOUS
  0
LAYER
  5
54
330
2
100
AcDbSymbolTableRecord
100
AcDbLayerTableRecord
  2
27
 70
     0
 62
    27
  6
CONTINUOUS
  0
LAYER
  5
55
330
2
100
AcDbSymbolTableRecord
100
AcDbLayerTableRecord
  2
28
 70
     0
 62
    28
  6
CONTINUOUS
  0
LAYER
  5
56
330
2
100
AcDbSymbolTableRecord
100
AcDbLayerTableRecord
  2
29
 70
     0
 62
    29
  6
CONTINUOUS
  0
LAYER
  5
57
330
2
100
AcDbSymbolTableRecord
100
AcDbLayerTableRecord
  2
30
 70
     0
 62
    30
  6
CONTINUOUS
  0
LAYER
  5
58
330
2
100
AcDbSymbolTableRecord
100
AcDbLayerTableRecord
  2
31
 70
     0
 62
    31
  6
CONTINUOUS
  0
LAYER
  5
59
330
2
100
AcDbSymbolTableRecord
100
AcDbLayerTableRecord
  2
32
 70
     0
 62
    32
  6
CONTINUOUS
  0
LAYER
  5
5A
330
2
100
AcDbSymbolTableRecord
100
AcDbLayerTableRecord
  2
33
 70
     0
 62
    33
  6
CONTINUOUS
  0
LAYER
  5
5B
330
2
100
AcDbSymbolTableRecord
100
AcDbLayerTableRecord
  2
34
 70
     0
 62
    34
  6
CONTINUOUS
  0
LAYER
  5
5C
330
2
100
AcDbSymbolTableRecord
100
AcDbLayerTableRecord
  2
35
 70
     0
 62
    35
  6
CONTINUOUS
  0
LAYER
  5
5D
330
2
100
AcDbSymbolTableRecord
100
AcDbLayerTableRecord
  2
36
 70
     0
 62
    36
  6
CONTINUOUS
  0
LAYER
  5
5E
330
2
100
AcDbSymbolTableRecord
100
AcDbLayerTableRecord
  2
37
 70
     0
 62
    37
  6
CONTINUOUS
  0
LAYER
  5
5F
330
2
100
AcDbSymbolTableRecord
100
AcDbLayerTableRecord
  2
38
 70
     0
 62
    38
  6
CONTINUOUS
  0
LAYER
  5
60
330
2
100
AcDbSymbolTableRecord
100
AcDbLayerTableRecord
  2
39
 70
     0
 62
    39
  6
CONTINUOUS
  0
LAYER
  5
61
330
2
100
AcDbSymbolTableRecord
100
AcDbLayerTableRecord
  2
40
 70
     0
 62
    40
  6
CONTINUOUS
  0
LAYER
  5
62
330
2
100
AcDbSymbolTableRecord
100
AcDbLayerTableRecord
  2
41
 70
     0
 62
    41
  6
CONTINUOUS
  0
LAYER
  5
63
330
2
100
AcDbSymbolTableRecord
100
AcDbLayerTableRecord
  2
42
 70
     0
 62
    42
  6
CONTINUOUS
  0
LAYER
  5
64
330
2
100
AcDbSymbolTableRecord
100
AcDbLayerTableRecord
  2
43
 70
     0
 62
    43
  6
CONTINUOUS
  0
LAYER
  5
65
330
2
100
AcDbSymbolTableRecord
100
AcDbLayerTableRecord
  2
44
 70
     0
 62
    44
  6
CONTINUOUS
  0
LAYER
  5
66
330
2
100
AcDbSymbolTableRecord
100
AcDbLayerTableRecord
  2
45
 70
     0
 62
    45
  6
CONTINUOUS
  0
LAYER
  5
67
330
2
100
AcDbSymbolTableRecord
100
AcDbLayerTableRecord
  2
46
 70
     0
 62
    46
  6
CONTINUOUS
  0
LAYER
  5
68
330
2
100
AcDbSymbolTableRecord
100
AcDbLayerTableRecord
  2
47
 70
     0
 62
    47
  6
CONTINUOUS
  0
LAYER
  5
69
330
2
100
AcDbSymbolTableRecord
100
AcDbLayerTableRecord
  2
48
 70
     0
 62
    48
  6
CONTINUOUS
  0
LAYER
  5
6A
330
2
100
AcDbSymbolTableRecord
100
AcDbLayerTableRecord
  2
49
 70
     0
 62
    49
  6
CONTINUOUS
  0
LAYER
  5
6B
330
2
100
AcDbSymbolTableRecord
100
AcDbLayerTableRecord
  2
50
 70
     0
 62
    50
  6
CONTINUOUS
  0
LAYER
  5
6C
330
2
100
AcDbSymbolTableRecord
100
AcDbLayerTableRecord
  2
51
 70
     0
 62
    51
  6
CONTINUOUS
  0
LAYER
  5
6D
330
2
100
AcDbSymbolTableRecord
100
AcDbLayerTableRecord
  2
52
 70
     0
 62
    52
  6
CONTINUOUS
  0
LAYER
  5
6E
330
2
100
AcDbSymbolTableRecord
100
AcDbLayerTableRecord
  2
53
 70
     0
 62
    53
  6
CONTINUOUS
  0
LAYER
  5
6F
330
2
100
AcDbSymbolTableRecord
100
AcDbLayerTableRecord
  2
54
 70
     0
 62
    54
  6
CONTINUOUS
  0
LAYER
  5
70
330
2
100
AcDbSymbolTableRecord
100
AcDbLayerTableRecord
  2
55
 70
     0
 62
    55
  6
CONTINUOUS
  0
LAYER
  5
71
330
2
100
AcDbSymbolTableRecord
100
AcDbLayerTableRecord
  2
56
 70
     0
 62
    56
  6
CONTINUOUS
  0
LAYER
  5
72
330
2
100
AcDbSymbolTableRecord
100
AcDbLayerTableRecord
  2
57
 70
     0
 62
    57
  6
CONTINUOUS
  0
LAYER
  5
73
330
2
100
AcDbSymbolTableRecord
100
AcDbLayerTableRecord
  2
58
 70
     0
 62
    58
  6
CONTINUOUS
  0
LAYER
  5
74
330
2
100
AcDbSymbolTableRecord
100
AcDbLayerTableRecord
  2
59
 70
     0
 62
    59
  6
CONTINUOUS
  0
LAYER
  5
75
330
2
100
AcDbSymbolTableRecord
100
AcDbLayerTableRecord
  2
60
 70
     0
 62
    60
  6
CONTINUOUS
  0
LAYER
  5
76
330
2
100
AcDbSymbolTableRecord
100
AcDbLayerTableRecord
  2
61
 70
     0
 62
    61
  6
CONTINUOUS
  0
LAYER
  5
77
330
2
100
AcDbSymbolTableRecord
100
AcDbLayerTableRecord
  2
62
 70
     0
 62
    62
  6
CONTINUOUS
  0
LAYER
  5
78
330
2
100
AcDbSymbolTableRecord
100
AcDbLayerTableRecord
  2
63
 70
     0
 62
    63
  6
CONTINUOUS
  0
LAYER
  5
79
330
2
100
AcDbSymbolTableRecord
100
AcDbLayerTableRecord
  2
64
 70
     0
 62
    64
  6
CONTINUOUS
  0
LAYER
  5
7A
330
2
100
AcDbSymbolTableRecord
100
AcDbLayerTableRecord
  2
65
 70
     0
 62
    65
  6
CONTINUOUS
  0
LAYER
  5
7B
330
2
100
AcDbSymbolTableRecord
100
AcDbLayerTableRecord
  2
66
 70
     0
 62
    66
  6
CONTINUOUS
  0
LAYER
  5
7C
330
2
100
AcDbSymbolTableRecord
100
AcDbLayerTableRecord
  2
67
 70
     0
 62
    67
  6
CONTINUOUS
  0
LAYER
  5
7D
330
2
100
AcDbSymbolTableRecord
100
AcDbLayerTableRecord
  2
68
 70
     0
 62
    68
  6
CONTINUOUS
  0
LAYER
  5
7E
330
2
100
AcDbSymbolTableRecord
100
AcDbLayerTableRecord
  2
69
 70
     0
 62
    69
  6
CONTINUOUS
  0
LAYER
  5
7F
330
2
100
AcDbSymbolTableRecord
100
AcDbLayerTableRecord
  2
70
 70
     0
 62
    70
  6
CONTINUOUS
  0
LAYER
  5
80
330
2
100
AcDbSymbolTableRecord
100
AcDbLayerTableRecord
  2
71
 70
     0
 62
    71
  6
CONTINUOUS
  0
LAYER
  5
81
330
2
100
AcDbSymbolTableRecord
100
AcDbLayerTableRecord
  2
72
 70
     0
 62
    72
  6
CONTINUOUS
  0
LAYER
  5
82
330
2
100
AcDbSymbolTableRecord
100
AcDbLayerTableRecord
  2
73
 70
     0
 62
    73
  6
CONTINUOUS
  0
LAYER
  5
83
330
2
100
AcDbSymbolTableRecord
100
AcDbLayerTableRecord
  2
74
 70
     0
 62
    74
  6
CONTINUOUS
  0
LAYER
  5
84
330
2
100
AcDbSymbolTableRecord
100
AcDbLayerTableRecord
  2
75
 70
     0
 62
    75
  6
CONTINUOUS
  0
LAYER
  5
85
330
2
100
AcDbSymbolTableRecord
100
AcDbLayerTableRecord
  2
76
 70
     0
 62
    76
  6
CONTINUOUS
  0
LAYER
  5
86
330
2
100
AcDbSymbolTableRecord
100
AcDbLayerTableRecord
  2
77
 70
     0
 62
    77
  6
CONTINUOUS
  0
LAYER
  5
87
330
2
100
AcDbSymbolTableRecord
100
AcDbLayerTableRecord
  2
78
 70
     0
 62
    78
  6
CONTINUOUS
  0
LAYER
  5
88
330
2
100
AcDbSymbolTableRecord
100
AcDbLayerTableRecord
  2
79
 70
     0
 62
    79
  6
CONTINUOUS
  0
LAYER
  5
89
330
2
100
AcDbSymbolTableRecord
100
AcDbLayerTableRecord
  2
80
 70
     0
 62
    80
  6
CONTINUOUS
  0
LAYER
  5
8A
330
2
100
AcDbSymbolTableRecord
100
AcDbLayerTableRecord
  2
81
 70
     0
 62
    81
  6
CONTINUOUS
  0
LAYER
  5
8B
330
2
100
AcDbSymbolTableRecord
100
AcDbLayerTableRecord
  2
82
 70
     0
 62
    82
  6
CONTINUOUS
  0
LAYER
  5
8C
330
2
100
AcDbSymbolTableRecord
100
AcDbLayerTableRecord
  2
83
 70
     0
 62
    83
  6
CONTINUOUS
  0
LAYER
  5
8D
330
2
100
AcDbSymbolTableRecord
100
AcDbLayerTableRecord
  2
84
 70
     0
 62
    84
  6
CONTINUOUS
  0
LAYER
  5
8E
330
2
100
AcDbSymbolTableRecord
100
AcDbLayerTableRecord
  2
85
 70
     0
 62
    85
  6
CONTINUOUS
  0
LAYER
  5
8F
330
2
100
AcDbSymbolTableRecord
100
AcDbLayerTableRecord
  2
86
 70
     0
 62
    86
  6
CONTINUOUS
  0
LAYER
  5
90
330
2
100
AcDbSymbolTableRecord
100
AcDbLayerTableRecord
  2
87
 70
     0
 62
    87
  6
CONTINUOUS
  0
LAYER
  5
91
330
2
100
AcDbSymbolTableRecord
100
AcDbLayerTableRecord
  2
88
 70
     0
 62
    88
  6
CONTINUOUS
  0
LAYER
  5
92
330
2
100
AcDbSymbolTableRecord
100
AcDbLayerTableRecord
  2
89
 70
     0
 62
    89
  6
CONTINUOUS
  0
LAYER
  5
93
330
2
100
AcDbSymbolTableRecord
100
AcDbLayerTableRecord
  2
90
 70
     0
 62
    90
  6
CONTINUOUS
  0
LAYER
  5
94
330
2
100
AcDbSymbolTableRecord
100
AcDbLayerTableRecord
  2
91
 70
     0
 62
    91
  6
CONTINUOUS
  0
LAYER
  5
95
330
2
100
AcDbSymbolTableRecord
100
AcDbLayerTableRecord
  2
92
 70
     0
 62
    92
  6
CONTINUOUS
  0
LAYER
  5
96
330
2
100
AcDbSymbolTableRecord
100
AcDbLayerTableRecord
  2
93
 70
     0
 62
    93
  6
CONTINUOUS
  0
LAYER
  5
97
330
2
100
AcDbSymbolTableRecord
100
AcDbLayerTableRecord
  2
94
 70
     0
 62
    94
  6
CONTINUOUS
  0
LAYER
  5
98
330
2
100
AcDbSymbolTableRecord
100
AcDbLayerTableRecord
  2
95
 70
     0
 62
    95
  6
CONTINUOUS
  0
LAYER
  5
99
330
2
100
AcDbSymbolTableRecord
100
AcDbLayerTableRecord
  2
96
 70
     0
 62
    96
  6
CONTINUOUS
  0
LAYER
  5
9A
330
2
100
AcDbSymbolTableRecord
100
AcDbLayerTableRecord
  2
97
 70
     0
 62
    97
  6
CONTINUOUS
  0
LAYER
  5
9B
330
2
100
AcDbSymbolTableRecord
100
AcDbLayerTableRecord
  2
98
 70
     0
 62
    98
  6
CONTINUOUS
  0
LAYER
  5
9C
330
2
100
AcDbSymbolTableRecord
100
AcDbLayerTableRecord
  2
99
 70
     0
 62
    99
  6
CONTINUOUS
  0
LAYER
  5
9D
330
2
100
AcDbSymbolTableRecord
100
AcDbLayerTableRecord
  2
100
 70
     0
 62
   100
  6
CONTINUOUS
  0
LAYER
  5
9E
330
2
100
AcDbSymbolTableRecord
100
AcDbLayerTableRecord
  2
101
 70
     0
 62
   101
  6
CONTINUOUS
  0
LAYER
  5
9F
330
2
100
AcDbSymbolTableRecord
100
AcDbLayerTableRecord
  2
102
 70
     0
 62
   102
  6
CONTINUOUS
  0
LAYER
  5
A0
330
2
100
AcDbSymbolTableRecord
100
AcDbLayerTableRecord
  2
103
 70
     0
 62
   103
  6
CONTINUOUS
  0
LAYER
  5
A1
330
2
100
AcDbSymbolTableRecord
100
AcDbLayerTableRecord
  2
104
 70
     0
 62
   104
  6
CONTINUOUS
  0
LAYER
  5
A2
330
2
100
AcDbSymbolTableRecord
100
AcDbLayerTableRecord
  2
105
 70
     0
 62
   105
  6
CONTINUOUS
  0
LAYER
  5
A3
330
2
100
AcDbSymbolTableRecord
100
AcDbLayerTableRecord
  2
106
 70
     0
 62
   106
  6
CONTINUOUS
  0
LAYER
  5
A4
330
2
100
AcDbSymbolTableRecord
100
AcDbLayerTableRecord
  2
107
 70
     0
 62
   107
  6
CONTINUOUS
  0
LAYER
  5
A5
330
2
100
AcDbSymbolTableRecord
100
AcDbLayerTableRecord
  2
108
 70
     0
 62
   108
  6
CONTINUOUS
  0
LAYER
  5
A6
330
2
100
AcDbSymbolTableRecord
100
AcDbLayerTableRecord
  2
109
 70
     0
 62
   109
  6
CONTINUOUS
  0
LAYER
  5
A7
330
2
100
AcDbSymbolTableRecord
100
AcDbLayerTableRecord
  2
110
 70
     0
 62
   110
  6
CONTINUOUS
  0
LAYER
  5
A8
330
2
100
AcDbSymbolTableRecord
100
AcDbLayerTableRecord
  2
111
 70
     0
 62
   111
  6
CONTINUOUS
  0
LAYER
  5
A9
330
2
100
AcDbSymbolTableRecord
100
AcDbLayerTableRecord
  2
112
 70
     0
 62
   112
  6
CONTINUOUS
  0
LAYER
  5
AA
330
2
100
AcDbSymbolTableRecord
100
AcDbLayerTableRecord
  2
113
 70
     0
 62
   113
  6
CONTINUOUS
  0
LAYER
  5
AB
330
2
100
AcDbSymbolTableRecord
100
AcDbLayerTableRecord
  2
114
 70
     0
 62
   114
  6
CONTINUOUS
  0
LAYER
  5
AC
330
2
100
AcDbSymbolTableRecord
100
AcDbLayerTableRecord
  2
115
 70
     0
 62
   115
  6
CONTINUOUS
  0
LAYER
  5
AD
330
2
100
AcDbSymbolTableRecord
100
AcDbLayerTableRecord
  2
116
 70
     0
 62
   116
  6
CONTINUOUS
  0
LAYER
  5
AE
330
2
100
AcDbSymbolTableRecord
100
AcDbLayerTableRecord
  2
117
 70
     0
 62
   117
  6
CONTINUOUS
  0
LAYER
  5
AF
330
2
100
AcDbSymbolTableRecord
100
AcDbLayerTableRecord
  2
118
 70
     0
 62
   118
  6
CONTINUOUS
  0
LAYER
  5
B0
330
2
100
AcDbSymbolTableRecord
100
AcDbLayerTableRecord
  2
119
 70
     0
 62
   119
  6
CONTINUOUS
  0
LAYER
  5
B1
330
2
100
AcDbSymbolTableRecord
100
AcDbLayerTableRecord
  2
120
 70
     0
 62
   120
  6
CONTINUOUS
  0
LAYER
  5
B2
330
2
100
AcDbSymbolTableRecord
100
AcDbLayerTableRecord
  2
121
 70
     0
 62
   121
  6
CONTINUOUS
  0
LAYER
  5
B3
330
2
100
AcDbSymbolTableRecord
100
AcDbLayerTableRecord
  2
122
 70
     0
 62
   122
  6
CONTINUOUS
  0
LAYER
  5
B4
330
2
100
AcDbSymbolTableRecord
100
AcDbLayerTableRecord
  2
123
 70
     0
 62
   123
  6
CONTINUOUS
  0
LAYER
  5
B5
330
2
100
AcDbSymbolTableRecord
100
AcDbLayerTableRecord
  2
124
 70
     0
 62
   124
  6
CONTINUOUS
  0
LAYER
  5
B6
330
2
100
AcDbSymbolTableRecord
100
AcDbLayerTableRecord
  2
125
 70
     0
 62
   125
  6
CONTINUOUS
  0
LAYER
  5
B7
330
2
100
AcDbSymbolTableRecord
100
AcDbLayerTableRecord
  2
126
 70
     0
 62
   126
  6
CONTINUOUS
  0
LAYER
  5
B8
330
2
100
AcDbSymbolTableRecord
100
AcDbLayerTableRecord
  2
127
 70
     0
 62
   127
  6
CONTINUOUS
  0
LAYER
  5
B9
330
2
100
AcDbSymbolTableRecord
100
AcDbLayerTableRecord
  2
128
 70
     0
 62
   128
  6
CONTINUOUS
  0
LAYER
  5
BA
330
2
100
AcDbSymbolTableRecord
100
AcDbLayerTableRecord
  2
129
 70
     0
 62
   129
  6
CONTINUOUS
  0
LAYER
  5
BB
330
2
100
AcDbSymbolTableRecord
100
AcDbLayerTableRecord
  2
130
 70
     0
 62
   130
  6
CONTINUOUS
  0
LAYER
  5
BC
330
2
100
AcDbSymbolTableRecord
100
AcDbLayerTableRecord
  2
131
 70
     0
 62
   131
  6
CONTINUOUS
  0
LAYER
  5
BD
330
2
100
AcDbSymbolTableRecord
100
AcDbLayerTableRecord
  2
132
 70
     0
 62
   132
  6
CONTINUOUS
  0
LAYER
  5
BE
330
2
100
AcDbSymbolTableRecord
100
AcDbLayerTableRecord
  2
133
 70
     0
 62
   133
  6
CONTINUOUS
  0
LAYER
  5
BF
330
2
100
AcDbSymbolTableRecord
100
AcDbLayerTableRecord
  2
134
 70
     0
 62
   134
  6
CONTINUOUS
  0
LAYER
  5
C0
330
2
100
AcDbSymbolTableRecord
100
AcDbLayerTableRecord
  2
135
 70
     0
 62
   135
  6
CONTINUOUS
  0
LAYER
  5
C1
330
2
100
AcDbSymbolTableRecord
100
AcDbLayerTableRecord
  2
136
 70
     0
 62
   136
  6
CONTINUOUS
  0
LAYER
  5
C2
330
2
100
AcDbSymbolTableRecord
100
AcDbLayerTableRecord
  2
137
 70
     0
 62
   137
  6
CONTINUOUS
  0
LAYER
  5
C3
330
2
100
AcDbSymbolTableRecord
100
AcDbLayerTableRecord
  2
138
 70
     0
 62
   138
  6
CONTINUOUS
  0
LAYER
  5
C4
330
2
100
AcDbSymbolTableRecord
100
AcDbLayerTableRecord
  2
139
 70
     0
 62
   139
  6
CONTINUOUS
  0
LAYER
  5
C5
330
2
100
AcDbSymbolTableRecord
100
AcDbLayerTableRecord
  2
140
 70
     0
 62
   140
  6
CONTINUOUS
  0
LAYER
  5
C6
330
2
100
AcDbSymbolTableRecord
100
AcDbLayerTableRecord
  2
141
 70
     0
 62
   141
  6
CONTINUOUS
  0
LAYER
  5
C7
330
2
100
AcDbSymbolTableRecord
100
AcDbLayerTableRecord
  2
142
 70
     0
 62
   142
  6
CONTINUOUS
  0
LAYER
  5
C8
330
2
100
AcDbSymbolTableRecord
100
AcDbLayerTableRecord
  2
143
 70
     0
 62
   143
  6
CONTINUOUS
  0
LAYER
  5
C9
330
2
100
AcDbSymbolTableRecord
100
AcDbLayerTableRecord
  2
144
 70
     0
 62
   144
  6
CONTINUOUS
  0
LAYER
  5
CA
330
2
100
AcDbSymbolTableRecord
100
AcDbLayerTableRecord
  2
145
 70
     0
 62
   145
  6
CONTINUOUS
  0
LAYER
  5
CB
330
2
100
AcDbSymbolTableRecord
100
AcDbLayerTableRecord
  2
146
 70
     0
 62
   146
  6
CONTINUOUS
  0
LAYER
  5
CC
330
2
100
AcDbSymbolTableRecord
100
AcDbLayerTableRecord
  2
147
 70
     0
 62
   147
  6
CONTINUOUS
  0
LAYER
  5
CD
330
2
100
AcDbSymbolTableRecord
100
AcDbLayerTableRecord
  2
148
 70
     0
 62
   148
  6
CONTINUOUS
  0
LAYER
  5
CE
330
2
100
AcDbSymbolTableRecord
100
AcDbLayerTableRecord
  2
149
 70
     0
 62
   149
  6
CONTINUOUS
  0
LAYER
  5
CF
330
2
100
AcDbSymbolTableRecord
100
AcDbLayerTableRecord
  2
150
 70
     0
 62
   150
  6
CONTINUOUS
  0
LAYER
  5
D0
330
2
100
AcDbSymbolTableRecord
100
AcDbLayerTableRecord
  2
151
 70
     0
 62
   151
  6
CONTINUOUS
  0
LAYER
  5
D1
330
2
100
AcDbSymbolTableRecord
100
AcDbLayerTableRecord
  2
152
 70
     0
 62
   152
  6
CONTINUOUS
  0
LAYER
  5
D2
330
2
100
AcDbSymbolTableRecord
100
AcDbLayerTableRecord
  2
153
 70
     0
 62
   153
  6
CONTINUOUS
  0
LAYER
  5
D3
330
2
100
AcDbSymbolTableRecord
100
AcDbLayerTableRecord
  2
154
 70
     0
 62
   154
  6
CONTINUOUS
  0
LAYER
  5
D4
330
2
100
AcDbSymbolTableRecord
100
AcDbLayerTableRecord
  2
155
 70
     0
 62
   155
  6
CONTINUOUS
  0
LAYER
  5
D5
330
2
100
AcDbSymbolTableRecord
100
AcDbLayerTableRecord
  2
156
 70
     0
 62
   156
  6
CONTINUOUS
  0
LAYER
  5
D6
330
2
100
AcDbSymbolTableRecord
100
AcDbLayerTableRecord
  2
157
 70
     0
 62
   157
  6
CONTINUOUS
  0
LAYER
  5
D7
330
2
100
AcDbSymbolTableRecord
100
AcDbLayerTableRecord
  2
158
 70
     0
 62
   158
  6
CONTINUOUS
  0
LAYER
  5
D8
330
2
100
AcDbSymbolTableRecord
100
AcDbLayerTableRecord
  2
159
 70
     0
 62
   159
  6
CONTINUOUS
  0
LAYER
  5
D9
330
2
100
AcDbSymbolTableRecord
100
AcDbLayerTableRecord
  2
160
 70
     0
 62
   160
  6
CONTINUOUS
  0
LAYER
  5
DA
330
2
100
AcDbSymbolTableRecord
100
AcDbLayerTableRecord
  2
161
 70
     0
 62
   161
  6
CONTINUOUS
  0
LAYER
  5
DB
330
2
100
AcDbSymbolTableRecord
100
AcDbLayerTableRecord
  2
162
 70
     0
 62
   162
  6
CONTINUOUS
  0
LAYER
  5
DC
330
2
100
AcDbSymbolTableRecord
100
AcDbLayerTableRecord
  2
163
 70
     0
 62
   163
  6
CONTINUOUS
  0
LAYER
  5
DD
330
2
100
AcDbSymbolTableRecord
100
AcDbLayerTableRecord
  2
164
 70
     0
 62
   164
  6
CONTINUOUS
  0
LAYER
  5
DE
330
2
100
AcDbSymbolTableRecord
100
AcDbLayerTableRecord
  2
165
 70
     0
 62
   165
  6
CONTINUOUS
  0
LAYER
  5
DF
330
2
100
AcDbSymbolTableRecord
100
AcDbLayerTableRecord
  2
166
 70
     0
 62
   166
  6
CONTINUOUS
  0
LAYER
  5
E0
330
2
100
AcDbSymbolTableRecord
100
AcDbLayerTableRecord
  2
167
 70
     0
 62
   167
  6
CONTINUOUS
  0
LAYER
  5
E1
330
2
100
AcDbSymbolTableRecord
100
AcDbLayerTableRecord
  2
168
 70
     0
 62
   168
  6
CONTINUOUS
  0
LAYER
  5
E2
330
2
100
AcDbSymbolTableRecord
100
AcDbLayerTableRecord
  2
169
 70
     0
 62
   169
  6
CONTINUOUS
  0
LAYER
  5
E3
330
2
100
AcDbSymbolTableRecord
100
AcDbLayerTableRecord
  2
170
 70
     0
 62
   170
  6
CONTINUOUS
  0
LAYER
  5
E4
330
2
100
AcDbSymbolTableRecord
100
AcDbLayerTableRecord
  2
171
 70
     0
 62
   171
  6
CONTINUOUS
  0
LAYER
  5
E5
330
2
100
AcDbSymbolTableRecord
100
AcDbLayerTableRecord
  2
172
 70
     0
 62
   172
  6
CONTINUOUS
  0
LAYER
  5
E6
330
2
100
AcDbSymbolTableRecord
100
AcDbLayerTableRecord
  2
173
 70
     0
 62
   173
  6
CONTINUOUS
  0
LAYER
  5
E7
330
2
100
AcDbSymbolTableRecord
100
AcDbLayerTableRecord
  2
174
 70
     0
 62
   174
  6
CONTINUOUS
  0
LAYER
  5
E8
330
2
100
AcDbSymbolTableRecord
100
AcDbLayerTableRecord
  2
175
 70
     0
 62
   175
  6
CONTINUOUS
  0
LAYER
  5
E9
330
2
100
AcDbSymbolTableRecord
100
AcDbLayerTableRecord
  2
176
 70
     0
 62
   176
  6
CONTINUOUS
  0
LAYER
  5
EA
330
2
100
AcDbSymbolTableRecord
100
AcDbLayerTableRecord
  2
177
 70
     0
 62
   177
  6
CONTINUOUS
  0
LAYER
  5
EB
330
2
100
AcDbSymbolTableRecord
100
AcDbLayerTableRecord
  2
178
 70
     0
 62
   178
  6
CONTINUOUS
  0
LAYER
  5
EC
330
2
100
AcDbSymbolTableRecord
100
AcDbLayerTableRecord
  2
179
 70
     0
 62
   179
  6
CONTINUOUS
  0
LAYER
  5
ED
330
2
100
AcDbSymbolTableRecord
100
AcDbLayerTableRecord
  2
180
 70
     0
 62
   180
  6
CONTINUOUS
  0
LAYER
  5
EE
330
2
100
AcDbSymbolTableRecord
100
AcDbLayerTableRecord
  2
181
 70
     0
 62
   181
  6
CONTINUOUS
  0
LAYER
  5
EF
330
2
100
AcDbSymbolTableRecord
100
AcDbLayerTableRecord
  2
182
 70
     0
 62
   182
  6
CONTINUOUS
  0
LAYER
  5
F0
330
2
100
AcDbSymbolTableRecord
100
AcDbLayerTableRecord
  2
183
 70
     0
 62
   183
  6
CONTINUOUS
  0
LAYER
  5
F1
330
2
100
AcDbSymbolTableRecord
100
AcDbLayerTableRecord
  2
184
 70
     0
 62
   184
  6
CONTINUOUS
  0
LAYER
  5
F2
330
2
100
AcDbSymbolTableRecord
100
AcDbLayerTableRecord
  2
185
 70
     0
 62
   185
  6
CONTINUOUS
  0
LAYER
  5
F3
330
2
100
AcDbSymbolTableRecord
100
AcDbLayerTableRecord
  2
186
 70
     0
 62
   186
  6
CONTINUOUS
  0
LAYER
  5
F4
330
2
100
AcDbSymbolTableRecord
100
AcDbLayerTableRecord
  2
187
 70
     0
 62
   187
  6
CONTINUOUS
  0
LAYER
  5
F5
330
2
100
AcDbSymbolTableRecord
100
AcDbLayerTableRecord
  2
188
 70
     0
 62
   188
  6
CONTINUOUS
  0
LAYER
  5
F6
330
2
100
AcDbSymbolTableRecord
100
AcDbLayerTableRecord
  2
189
 70
     0
 62
   189
  6
CONTINUOUS
  0
LAYER
  5
F7
330
2
100
AcDbSymbolTableRecord
100
AcDbLayerTableRecord
  2
190
 70
     0
 62
   190
  6
CONTINUOUS
  0
LAYER
  5
F8
330
2
100
AcDbSymbolTableRecord
100
AcDbLayerTableRecord
  2
191
 70
     0
 62
   191
  6
CONTINUOUS
  0
LAYER
  5
F9
330
2
100
AcDbSymbolTableRecord
100
AcDbLayerTableRecord
  2
192
 70
     0
 62
   192
  6
CONTINUOUS
  0
LAYER
  5
FA
330
2
100
AcDbSymbolTableRecord
100
AcDbLayerTableRecord
  2
193
 70
     0
 62
   193
  6
CONTINUOUS
  0
LAYER
  5
FB
330
2
100
AcDbSymbolTableRecord
100
AcDbLayerTableRecord
  2
194
 70
     0
 62
   194
  6
CONTINUOUS
  0
LAYER
  5
FC
330
2
100
AcDbSymbolTableRecord
100
AcDbLayerTableRecord
  2
195
 70
     0
 62
   195
  6
CONTINUOUS
  0
LAYER
  5
FD
330
2
100
AcDbSymbolTableRecord
100
AcDbLayerTableRecord
  2
196
 70
     0
 62
   196
  6
CONTINUOUS
  0
LAYER
  5
FE
330
2
100
AcDbSymbolTableRecord
100
AcDbLayerTableRecord
  2
197
 70
     0
 62
   197
  6
CONTINUOUS
  0
LAYER
  5
FF
330
2
100
AcDbSymbolTableRecord
100
AcDbLayerTableRecord
  2
198
 70
     0
 62
   198
  6
CONTINUOUS
  0
LAYER
  5
100
330
2
100
AcDbSymbolTableRecord
100
AcDbLayerTableRecord
  2
199
 70
     0
 62
   199
  6
CONTINUOUS
  0
LAYER
  5
101
330
2
100
AcDbSymbolTableRecord
100
AcDbLayerTableRecord
  2
200
 70
     0
 62
   200
  6
CONTINUOUS
  0
LAYER
  5
102
330
2
100
AcDbSymbolTableRecord
100
AcDbLayerTableRecord
  2
201
 70
     0
 62
   201
  6
CONTINUOUS
  0
LAYER
  5
103
330
2
100
AcDbSymbolTableRecord
100
AcDbLayerTableRecord
  2
202
 70
     0
 62
   202
  6
CONTINUOUS
  0
LAYER
  5
104
330
2
100
AcDbSymbolTableRecord
100
AcDbLayerTableRecord
  2
203
 70
     0
 62
   203
  6
CONTINUOUS
  0
LAYER
  5
105
330
2
100
AcDbSymbolTableRecord
100
AcDbLayerTableRecord
  2
204
 70
     0
 62
   204
  6
CONTINUOUS
  0
LAYER
  5
106
330
2
100
AcDbSymbolTableRecord
100
AcDbLayerTableRecord
  2
205
 70
     0
 62
   205
  6
CONTINUOUS
  0
LAYER
  5
107
330
2
100
AcDbSymbolTableRecord
100
AcDbLayerTableRecord
  2
206
 70
     0
 62
   206
  6
CONTINUOUS
  0
LAYER
  5
108
330
2
100
AcDbSymbolTableRecord
100
AcDbLayerTableRecord
  2
207
 70
     0
 62
   207
  6
CONTINUOUS
  0
LAYER
  5
109
330
2
100
AcDbSymbolTableRecord
100
AcDbLayerTableRecord
  2
208
 70
     0
 62
   208
  6
CONTINUOUS
  0
LAYER
  5
10A
330
2
100
AcDbSymbolTableRecord
100
AcDbLayerTableRecord
  2
209
 70
     0
 62
   209
  6
CONTINUOUS
  0
LAYER
  5
10B
330
2
100
AcDbSymbolTableRecord
100
AcDbLayerTableRecord
  2
210
 70
     0
 62
   210
  6
CONTINUOUS
  0
LAYER
  5
10C
330
2
100
AcDbSymbolTableRecord
100
AcDbLayerTableRecord
  2
211
 70
     0
 62
   211
  6
CONTINUOUS
  0
LAYER
  5
10D
330
2
100
AcDbSymbolTableRecord
100
AcDbLayerTableRecord
  2
212
 70
     0
 62
   212
  6
CONTINUOUS
  0
LAYER
  5
10E
330
2
100
AcDbSymbolTableRecord
100
AcDbLayerTableRecord
  2
213
 70
     0
 62
   213
  6
CONTINUOUS
  0
LAYER
  5
10F
330
2
100
AcDbSymbolTableRecord
100
AcDbLayerTableRecord
  2
214
 70
     0
 62
   214
  6
CONTINUOUS
  0
LAYER
  5
110
330
2
100
AcDbSymbolTableRecord
100
AcDbLayerTableRecord
  2
215
 70
     0
 62
   215
  6
CONTINUOUS
  0
LAYER
  5
111
330
2
100
AcDbSymbolTableRecord
100
AcDbLayerTableRecord
  2
216
 70
     0
 62
   216
  6
CONTINUOUS
  0
LAYER
  5
112
330
2
100
AcDbSymbolTableRecord
100
AcDbLayerTableRecord
  2
217
 70
     0
 62
   217
  6
CONTINUOUS
  0
LAYER
  5
113
330
2
100
AcDbSymbolTableRecord
100
AcDbLayerTableRecord
  2
218
 70
     0
 62
   218
  6
CONTINUOUS
  0
LAYER
  5
114
330
2
100
AcDbSymbolTableRecord
100
AcDbLayerTableRecord
  2
219
 70
     0
 62
   219
  6
CONTINUOUS
  0
LAYER
  5
115
330
2
100
AcDbSymbolTableRecord
100
AcDbLayerTableRecord
  2
220
 70
     0
 62
   220
  6
CONTINUOUS
  0
LAYER
  5
116
330
2
100
AcDbSymbolTableRecord
100
AcDbLayerTableRecord
  2
221
 70
     0
 62
   221
  6
CONTINUOUS
  0
LAYER
  5
117
330
2
100
AcDbSymbolTableRecord
100
AcDbLayerTableRecord
  2
222
 70
     0
 62
   222
  6
CONTINUOUS
  0
LAYER
  5
118
330
2
100
AcDbSymbolTableRecord
100
AcDbLayerTableRecord
  2
223
 70
     0
 62
   223
  6
CONTINUOUS
  0
LAYER
  5
119
330
2
100
AcDbSymbolTableRecord
100
AcDbLayerTableRecord
  2
224
 70
     0
 62
   224
  6
CONTINUOUS
  0
LAYER
  5
11A
330
2
100
AcDbSymbolTableRecord
100
AcDbLayerTableRecord
  2
225
 70
     0
 62
   225
  6
CONTINUOUS
  0
LAYER
  5
11B
330
2
100
AcDbSymbolTableRecord
100
AcDbLayerTableRecord
  2
226
 70
     0
 62
   226
  6
CONTINUOUS
  0
LAYER
  5
11C
330
2
100
AcDbSymbolTableRecord
100
AcDbLayerTableRecord
  2
227
 70
     0
 62
   227
  6
CONTINUOUS
  0
LAYER
  5
11D
330
2
100
AcDbSymbolTableRecord
100
AcDbLayerTableRecord
  2
228
 70
     0
 62
   228
  6
CONTINUOUS
  0
LAYER
  5
11E
330
2
100
AcDbSymbolTableRecord
100
AcDbLayerTableRecord
  2
229
 70
     0
 62
   229
  6
CONTINUOUS
  0
LAYER
  5
11F
330
2
100
AcDbSymbolTableRecord
100
AcDbLayerTableRecord
  2
230
 70
     0
 62
   230
  6
CONTINUOUS
  0
LAYER
  5
120
330
2
100
AcDbSymbolTableRecord
100
AcDbLayerTableRecord
  2
231
 70
     0
 62
   231
  6
CONTINUOUS
  0
LAYER
  5
121
330
2
100
AcDbSymbolTableRecord
100
AcDbLayerTableRecord
  2
232
 70
     0
 62
   232
  6
CONTINUOUS
  0
LAYER
  5
122
330
2
100
AcDbSymbolTableRecord
100
AcDbLayerTableRecord
  2
233
 70
     0
 62
   233
  6
CONTINUOUS
  0
LAYER
  5
123
330
2
100
AcDbSymbolTableRecord
100
AcDbLayerTableRecord
  2
234
 70
     0
 62
   234
  6
CONTINUOUS
  0
LAYER
  5
124
330
2
100
AcDbSymbolTableRecord
100
AcDbLayerTableRecord
  2
235
 70
     0
 62
   235
  6
CONTINUOUS
  0
LAYER
  5
125
330
2
100
AcDbSymbolTableRecord
100
AcDbLayerTableRecord
  2
236
 70
     0
 62
   236
  6
CONTINUOUS
  0
LAYER
  5
126
330
2
100
AcDbSymbolTableRecord
100
AcDbLayerTableRecord
  2
237
 70
     0
 62
   237
  6
CONTINUOUS
  0
LAYER
  5
127
330
2
100
AcDbSymbolTableRecord
100
AcDbLayerTableRecord
  2
238
 70
     0
 62
   238
  6
CONTINUOUS
  0
LAYER
  5
128
330
2
100
AcDbSymbolTableRecord
100
AcDbLayerTableRecord
  2
239
 70
     0
 62
   239
  6
CONTINUOUS
  0
LAYER
  5
129
330
2
100
AcDbSymbolTableRecord
100
AcDbLayerTableRecord
  2
240
 70
     0
 62
   240
  6
CONTINUOUS
  0
LAYER
  5
12A
330
2
100
AcDbSymbolTableRecord
100
AcDbLayerTableRecord
  2
241
 70
     0
 62
   241
  6
CONTINUOUS
  0
LAYER
  5
12B
330
2
100
AcDbSymbolTableRecord
100
AcDbLayerTableRecord
  2
242
 70
     0
 62
   242
  6
CONTINUOUS
  0
LAYER
  5
12C
330
2
100
AcDbSymbolTableRecord
100
AcDbLayerTableRecord
  2
243
 70
     0
 62
   243
  6
CONTINUOUS
  0
LAYER
  5
12D
330
2
100
AcDbSymbolTableRecord
100
AcDbLayerTableRecord
  2
244
 70
     0
 62
   244
  6
CONTINUOUS
  0
LAYER
  5
12E
330
2
100
AcDbSymbolTableRecord
100
AcDbLayerTableRecord
  2
245
 70
     0
 62
   245
  6
CONTINUOUS
  0
LAYER
  5
12F
330
2
100
AcDbSymbolTableRecord
100
AcDbLayerTableRecord
  2
246
 70
     0
 62
   246
  6
CONTINUOUS
  0
LAYER
  5
130
330
2
100
AcDbSymbolTableRecord
100
AcDbLayerTableRecord
  2
247
 70
     0
 62
   247
  6
CONTINUOUS
  0
LAYER
  5
131
330
2
100
AcDbSymbolTableRecord
100
AcDbLayerTableRecord
  2
248
 70
     0
 62
   248
  6
CONTINUOUS
  0
LAYER
  5
132
330
2
100
AcDbSymbolTableRecord
100
AcDbLayerTableRecord
  2
249
 70
     0
 62
   249
  6
CONTINUOUS
  0
LAYER
  5
133
330
2
100
AcDbSymbolTableRecord
100
AcDbLayerTableRecord
  2
250
 70
     0
 62
   250
  6
CONTINUOUS
  0
LAYER
  5
134
330
2
100
AcDbSymbolTableRecord
100
AcDbLayerTableRecord
  2
251
 70
     0
 62
   251
  6
CONTINUOUS
  0
LAYER
  5
135
330
2
100
AcDbSymbolTableRecord
100
AcDbLayerTableRecord
  2
252
 70
     0
 62
   252
  6
CONTINUOUS
  0
LAYER
  5
136
330
2
100
AcDbSymbolTableRecord
100
AcDbLayerTableRecord
  2
253
 70
     0
 62
   253
  6
CONTINUOUS
  0
LAYER
  5
137
330
2
100
AcDbSymbolTableRecord
100
AcDbLayerTableRecord
  2
254
 70
     0
 62
   254
  6
CONTINUOUS
  0
LAYER
  5
138
330
2
100
AcDbSymbolTableRecord
100
AcDbLayerTableRecord
  2
255
 70
     0
 62
   255
  6
CONTINUOUS
  0
LAYER
  5
4E89
330
2
100
AcDbSymbolTableRecord
100
AcDbLayerTableRecord
  2
DEFPOINTS
 70
     0
 62
     7
  6
CONTINUOUS
  0
ENDTAB
  0
TABLE
  2
STYLE
  5
3
330
0
100
AcDbSymbolTable
 70
     1
  0
STYLE
  5
11
330
3
100
AcDbSymbolTableRecord
100
AcDbTextStyleTableRecord
  2
STANDARD
 70
     0
 40
0.0
 41
1.0
 50
0.0
 71
     0
 42
0.2
  3
monotxt
  4

  0
ENDTAB
  0
TABLE
  2
VIEW
  5
6
330
0
100
AcDbSymbolTable
 70
     0
  0
ENDTAB
  0
TABLE
  2
UCS
  5
7
330
0
100
AcDbSymbolTable
 70
     0
  0
ENDTAB
  0
TABLE
  2
APPID
  5
9
330
0
100
AcDbSymbolTable
 70
     1
  0
APPID
  5
12
330
9
100
AcDbSymbolTableRecord
100
AcDbRegAppTableRecord
  2
ACAD
 70
     0
  0
ENDTAB
  0
TABLE
  2
DIMSTYLE
  5
A
330
0
100
AcDbSymbolTable
 70
     1
  0
DIMSTYLE
105
36DD
330
A
100
AcDbSymbolTableRecord
100
AcDbDimStyleTableRecord
  2
STANDARD
 70
     0
  3

  4

  5

  6

  7

 40
1.0
 41
0.18
 42
0.0625
 43
0.38
 44
0.18
 45
0.0
 46
0.0
 47
0.0
 48
0.0
140
0.18
141
0.09
142
0.0
143
25.4
144
1.0
145
0.0
146
1.0
147
0.09
 71
     0
 72
     0
 73
     1
 74
     1
 75
     0
 76
     0
 77
     0
 78
     0
170
     0
171
     2
172
     0
173
     0
174
     0
175
     0
176
     0
177
     0
178
     0
270
     2
271
     4
272
     4
273
     2
274
     2
340
11
275
     0
280
     0
281
     0
282
     0
283
     1
284
     0
285
     0
286
     0
287
     3
288
     0
  0
ENDTAB
  0
TABLE
  2
BLOCK_RECORD
  5
1
330
0
100
AcDbSymbolTable
 70
     1
  0
BLOCK_RECORD
  5
1E
102
{ACAD_XDICTIONARY
360
4EA2
102
}
330
1
100
AcDbSymbolTableRecord
100
AcDbBlockTableRecord
  2
*MODEL_SPACE
  0
BLOCK_RECORD
  5
1A
102
{ACAD_XDICTIONARY
360
4EA4
102
}
330
1
100
AcDbSymbolTableRecord
100
AcDbBlockTableRecord
  2
*PAPER_SPACE
  0
ENDTAB
  0
ENDSEC
  0
SECTION
  2
BLOCKS
  0
BLOCK
  5
13B
330
1E
100
AcDbEntity
  8
0
100
AcDbBlockBegin
  2
*MODEL_SPACE
 70
     0
 10
0.0
 20
0.0
 30
0.0
  3
*MODEL_SPACE
  1

  0
ENDBLK
  5
13C
330
1E
100
AcDbEntity
  8
0
100
AcDbBlockEnd
  0
BLOCK
  5
139
330
1A
100
AcDbEntity
 67
     1
  8
0
100
AcDbBlockBegin
  2
*PAPER_SPACE
 70
     0
 10
0.0
 20
0.0
 30
0.0
  3
*PAPER_SPACE
  1

  0
ENDBLK
  5
13A
330
1A
100
AcDbEntity
 67
     1
  8
0
100
AcDbBlockEnd
  0
ENDSEC
  0
SECTION
  2
ENTITIES
  0
LINE
  5
2CC0
330
1E
100
AcDbEntity
  8
7
100
AcDbLine
 10
0.0389040838516766
 20
7.073750815736463
 30
0.0
 11
3.328274162591833
 21
7.073750815736463
 31
0.0
  0
LINE
  5
2CCA
330
1E
100
AcDbEntity
  8
7
100
AcDbLine
 10
3.186541879127267
 20
6.902490973216778
 30
0.0
 11
0.1786678633792353
 21
6.902490973216778
 31
0.0
  0
LINE
  5
2CD9
330
1E
100
AcDbEntity
  8
7
100
AcDbLine
 10
3.345990698024905
 20
7.091467351169534
 30
0.0
 11
3.328274162591833
 21
7.073750815736463
 31
0.0
  0
LINE
  5
2CDA
330
1E
100
AcDbEntity
  8
7
100
AcDbLine
 10
0.0074080208595506
 20
7.042254752744337
 30
0.0
 11
-0.0103085145735207
 21
7.059971288177408
 31
0.0
  0
LINE
  5
2CFC
330
1E
100
AcDbEntity
  8
7
100
AcDbLine
 10
3.357801721646952
 20
7.042254752744337
 30
0.0
 11
3.34992770589892
 21
7.036349240933313
 31
0.0
  0
LINE
  5
2D05
330
1E
100
AcDbEntity
  8
7
100
AcDbLine
 10
2.47984896574144
 20
6.036349240933313
 30
0.0
 11
2.466069438182385
 21
5.496979162193156
 31
0.0
  0
LINE
  5
2D39
330
1E
100
AcDbEntity
  8
7
100
AcDbLine
 10
2.796778099599707
 20
5.276506721248274
 30
0.0
 11
2.7948095956627
 21
5.274538217311267
 31
0.0
  0
LINE
  5
2D3A
330
1E
100
AcDbEntity
  8
7
100
AcDbLine
 10
2.946384398812306
 20
5.276506721248274
 30
0.0
 11
2.910951327946165
 21
5.258790185815204
 31
0.0
  0
LINE
  5
2D41
330
1E
100
AcDbEntity
  8
7
100
AcDbLine
 10
2.946384398812306
 20
5.274538217311267
 30
0.0
 11
2.946384398812306
 21
5.276506721248274
 31
0.0
  0
LINE
  5
2D6D
330
1E
100
AcDbEntity
  8
7
100
AcDbLine
 10
2.946384398812306
 20
5.254853177941187
 30
0.0
 11
2.989691485426479
 21
5.288317744870321
 31
0.0
  0
LINE
  5
2D7F
330
1E
100
AcDbEntity
  8
7
100
AcDbLine
 10
2.753471012985534
 20
5.288317744870321
 30
0.0
 11
2.796778099599707
 21
5.254853177941187
 31
0.0
  0
LINE
  5
2D96
330
1E
100
AcDbEntity
  8
7
100
AcDbLine
 10
2.7948095956627
 20
5.254853177941187
 30
0.0
 11
2.7948095956627
 21
5.274538217311267
 31
0.0
  0
LINE
  5
2D97
330
1E
100
AcDbEntity
  8
7
100
AcDbLine
 10
2.946384398812306
 20
5.274538217311267
 30
0.0
 11
2.946384398812306
 21
5.254853177941187
 31
0.0
  0
LINE
  5
2D98
330
1E
100
AcDbEntity
  8
7
100
AcDbLine
 10
0.808589123221755
 20
5.445798059830952
 30
0.0
 11
0.7987466035367162
 21
5.884774437783708
 31
0.0
  0
LINE
  5
2DB1
330
1E
100
AcDbEntity
  8
7
100
AcDbLine
 10
2.466069438182385
 20
5.416270500775834
 30
0.0
 11
0.8991403043241179
 21
5.416270500775834
 31
0.0
  0
LINE
  5
2DB7
330
1E
100
AcDbEntity
  8
7
100
AcDbLine
 10
0.8814237688910466
 20
5.400522469279771
 30
0.0
 11
0.8440221940878966
 21
5.410364988964809
 31
0.0
  0
LINE
  5
2DC2
330
1E
100
AcDbEntity
  8
7
100
AcDbLine
 10
2.556620619284747
 20
5.445798059830952
 30
0.0
 11
2.568431642906794
 21
5.884774437783708
 31
0.0
  0
LINE
  5
2DC3
330
1E
100
AcDbEntity
  8
7
100
AcDbLine
 10
2.568431642906794
 20
4.912333492901817
 30
0.0
 11
2.556620619284747
 21
5.445798059830952
 31
0.0
  0
LINE
  5
2DC4
330
1E
100
AcDbEntity
  8
7
100
AcDbLine
 10
2.568431642906794
 20
5.884774437783708
 30
0.0
 11
2.568431642906794
 21
4.912333492901817
 31
0.0
  0
LINE
  5
2DDA
330
1E
100
AcDbEntity
  8
7
100
AcDbLine
 10
2.546778099599707
 20
5.426113020460872
 30
0.0
 11
2.556620619284747
 21
5.445798059830952
 31
0.0
  0
LINE
  5
2E3C
330
1E
100
AcDbEntity
  8
7
100
AcDbLine
 10
0.5704001468438023
 20
5.254853177941187
 30
0.0
 11
0.6137072334579754
 21
5.288317744870321
 31
0.0
  0
LINE
  5
2E4E
330
1E
100
AcDbEntity
  8
7
100
AcDbLine
 10
0.3774867610170309
 20
5.288317744870321
 30
0.0
 11
0.4207938476312041
 21
5.254853177941187
 31
0.0
  0
LINE
  5
2E4F
330
1E
100
AcDbEntity
  8
7
100
AcDbLine
 10
0.4188253436941958
 20
5.274538217311267
 30
0.0
 11
0.4188253436941958
 21
5.254853177941187
 31
0.0
  0
LINE
  5
2E50
330
1E
100
AcDbEntity
  8
7
100
AcDbLine
 10
0.5704001468438023
 20
5.254853177941187
 30
0.0
 11
0.5704001468438023
 21
5.274538217311267
 31
0.0
  0
LINE
  5
2E76
330
1E
100
AcDbEntity
  8
7
100
AcDbLine
 10
0.5644946350327791
 20
5.361152390539613
 30
0.0
 11
0.574337154717818
 21
5.398553965342761
 31
0.0
  0
LINE
  5
2E95
330
1E
100
AcDbEntity
  8
7
100
AcDbLine
 10
3.375518257080022
 20
3.735168138571109
 30
0.0
 11
3.357801721646952
 21
3.754853177941187
 31
0.0
  0
LINE
  5
2E96
330
1E
100
AcDbEntity
  8
7
100
AcDbLine
 10
3.375518257080022
 20
7.059971288177408
 30
0.0
 11
3.375518257080022
 21
3.735168138571109
 31
0.0
  0
LINE
  5
2E97
330
1E
100
AcDbEntity
  8
7
100
AcDbLine
 10
0.0074080208595506
 20
3.754853177941187
 30
0.0
 11
0.0074080208595506
 21
7.042254752744337
 31
0.0
  0
LINE
  5
2EA4
330
1E
100
AcDbEntity
  8
7
100
AcDbLine
 10
0.1786678633792353
 20
6.902490973216778
 30
0.0
 11
0.1786678633792353
 21
3.894616957468747
 31
0.0
  0
LINE
  5
2EB4
330
1E
100
AcDbEntity
  8
7
100
AcDbLine
 10
0.0211875484186057
 20
3.705640579515991
 30
0.0
 11
3.345990698024905
 21
3.705640579515991
 31
0.0
  0
LINE
  5
2EBA
330
1E
100
AcDbEntity
  8
7
100
AcDbLine
 10
2.7948095956627
 20
5.254853177941187
 30
0.0
 11
2.796778099599707
 21
5.207609083452998
 31
0.0
  0
LINE
  5
2EBB
330
1E
100
AcDbEntity
  8
7
100
AcDbLine
 10
2.568431642906794
 20
4.912333492901817
 30
0.0
 11
2.56252613109577
 21
4.853278374791582
 31
0.0
  0
LINE
  5
2EC5
330
1E
100
AcDbEntity
  8
7
100
AcDbLine
 10
1.119612745268999
 20
4.741073650382132
 30
0.0
 11
1.609770225583959
 21
4.741073650382132
 31
0.0
  0
LINE
  5
2EC6
330
1E
100
AcDbEntity
  8
7
100
AcDbLine
 10
0.8676442413319911
 20
4.741073650382132
 30
0.0
 11
1.119612745268999
 21
4.741073650382132
 31
0.0
  0
LINE
  5
2EC7
330
1E
100
AcDbEntity
  8
7
100
AcDbLine
 10
0.7987466035367162
 20
4.912333492901817
 30
0.0
 11
0.8026836114107318
 21
4.853278374791582
 31
0.0
  0
LINE
  5
2ECE
330
1E
100
AcDbEntity
  8
7
100
AcDbLine
 10
0.5704001468438023
 20
5.254853177941187
 30
0.0
 11
0.5704001468438023
 21
5.207609083452998
 31
0.0
  0
LINE
  5
2ECF
330
1E
100
AcDbEntity
  8
7
100
AcDbLine
 10
0.4207938476312041
 20
5.207609083452998
 30
0.0
 11
0.5704001468438023
 21
5.207609083452998
 31
0.0
  0
LINE
  5
2ED0
330
1E
100
AcDbEntity
  8
7
100
AcDbLine
 10
0.4188253436941958
 20
5.254853177941187
 30
0.0
 11
0.4207938476312041
 21
5.207609083452998
 31
0.0
  0
LINE
  5
2ED1
330
1E
100
AcDbEntity
  8
7
100
AcDbLine
 10
0.1786678633792353
 20
3.894616957468747
 30
0.0
 11
3.186541879127267
 21
3.894616957468747
 31
0.0
  0
LINE
  5
2ED2
330
1E
100
AcDbEntity
  8
7
100
AcDbLine
 10
1.052683611410731
 20
5.357215382665597
 30
0.0
 11
1.052683611410731
 21
4.786349240933313
 31
0.0
  0
LINE
  5
2ED3
330
1E
100
AcDbEntity
  8
7
100
AcDbLine
 10
1.119612745268999
 20
4.833593335421502
 30
0.0
 11
1.119612745268999
 21
4.786349240933313
 31
0.0
  0
LINE
  5
2ED4
330
1E
100
AcDbEntity
  8
7
100
AcDbLine
 10
1.119612745268999
 20
4.741073650382132
 30
0.0
 11
1.119612745268999
 21
4.786349240933313
 31
0.0
  0
LINE
  5
2ED5
330
1E
100
AcDbEntity
  8
7
100
AcDbLine
 10
1.052683611410731
 20
4.833593335421502
 30
0.0
 11
1.119612745268999
 21
4.833593335421502
 31
0.0
  0
LINE
  5
2ED6
330
1E
100
AcDbEntity
  8
7
100
AcDbLine
 10
1.119612745268999
 20
4.79028624880733
 30
0.0
 11
1.239691485426479
 21
4.79028624880733
 31
0.0
  0
LINE
  5
2ED7
330
1E
100
AcDbEntity
  8
7
100
AcDbLine
 10
2.31252613109577
 20
5.357215382665597
 30
0.0
 11
2.31252613109577
 21
4.786349240933313
 31
0.0
  0
LINE
  5
2ED8
330
1E
100
AcDbEntity
  8
7
100
AcDbLine
 10
2.245596997237503
 20
4.741073650382132
 30
0.0
 11
2.245596997237503
 21
4.786349240933313
 31
0.0
  0
LINE
  5
2ED9
330
1E
100
AcDbEntity
  8
7
100
AcDbLine
 10
2.245596997237503
 20
4.833593335421502
 30
0.0
 11
2.245596997237503
 21
4.786349240933313
 31
0.0
  0
LINE
  5
2EDA
330
1E
100
AcDbEntity
  8
7
100
AcDbLine
 10
2.245596997237503
 20
4.79028624880733
 30
0.0
 11
2.125518257080022
 21
4.79028624880733
 31
0.0
  0
LINE
  5
2EDB
330
1E
100
AcDbEntity
  8
7
100
AcDbLine
 10
2.31252613109577
 20
4.833593335421502
 30
0.0
 11
2.245596997237503
 21
4.833593335421502
 31
0.0
  0
LINE
  5
2EE1
330
1E
100
AcDbEntity
  8
7
100
AcDbLine
 10
0.5704001468438023
 20
5.276506721248274
 30
0.0
 11
0.5704001468438023
 21
5.207609083452998
 31
0.0
  0
LINE
  5
2EED
330
1E
100
AcDbEntity
  8
7
100
AcDbLine
 10
0.0389040838516766
 20
3.723357114949061
 30
0.0
 11
0.0211875484186057
 21
3.705640579515991
 31
0.0
  0
LINE
  5
2EEE
330
1E
100
AcDbEntity
  8
7
100
AcDbLine
 10
3.328274162591833
 20
3.723357114949061
 30
0.0
 11
3.345990698024905
 21
3.705640579515991
 31
0.0
  0
LINE
  5
2EEF
330
1E
100
AcDbEntity
  8
7
100
AcDbLine
 10
3.328274162591833
 20
3.723357114949061
 30
0.0
 11
0.0389040838516766
 21
3.723357114949061
 31
0.0
  0
LINE
  5
2EFE
330
1E
100
AcDbEntity
  8
7
100
AcDbLine
 10
2.946384398812306
 20
5.276506721248274
 30
0.0
 11
2.946384398812306
 21
5.207609083452998
 31
0.0
  0
LINE
  5
2EFF
330
1E
100
AcDbEntity
  8
7
100
AcDbLine
 10
2.796778099599707
 20
5.276506721248274
 30
0.0
 11
2.796778099599707
 21
5.207609083452998
 31
0.0
  0
LINE
  5
2F00
330
1E
100
AcDbEntity
  8
7
100
AcDbLine
 10
2.946384398812306
 20
5.207609083452998
 30
0.0
 11
2.796778099599707
 21
5.207609083452998
 31
0.0
  0
LINE
  5
2F06
330
1E
100
AcDbEntity
  8
7
100
AcDbLine
 10
1.25740802085955
 20
5.075719319673471
 30
0.0
 11
1.473943453930417
 21
5.075719319673471
 31
0.0
  0
LINE
  5
2F0C
330
1E
100
AcDbEntity
  8
7
100
AcDbLine
 10
1.25740802085955
 20
5.067845303925439
 30
0.0
 11
1.25740802085955
 21
5.075719319673471
 31
0.0
  0
LINE
  5
2F0D
330
1E
100
AcDbEntity
  8
7
100
AcDbLine
 10
1.473943453930417
 20
5.067845303925439
 30
0.0
 11
1.25740802085955
 21
5.067845303925439
 31
0.0
  0
LINE
  5
2F0E
330
1E
100
AcDbEntity
  8
7
100
AcDbLine
 10
1.473943453930417
 20
5.067845303925439
 30
0.0
 11
1.473943453930417
 21
5.065876799988432
 31
0.0
  0
LINE
  5
2F14
330
1E
100
AcDbEntity
  8
7
100
AcDbLine
 10
1.473943453930417
 20
5.065876799988432
 30
0.0
 11
1.473943453930417
 21
5.063908296051424
 31
0.0
  0
LINE
  5
2F15
330
1E
100
AcDbEntity
  8
7
100
AcDbLine
 10
1.25740802085955
 20
5.063908296051424
 30
0.0
 11
1.25740802085955
 21
5.065876799988432
 31
0.0
  0
LINE
  5
2F16
330
1E
100
AcDbEntity
  8
7
100
AcDbLine
 10
1.473943453930417
 20
5.063908296051424
 30
0.0
 11
1.25740802085955
 21
5.063908296051424
 31
0.0
  0
LINE
  5
2F17
330
1E
100
AcDbEntity
  8
7
100
AcDbLine
 10
1.471974949993408
 20
5.042254752744337
 30
0.0
 11
1.473943453930417
 21
5.063908296051424
 31
0.0
  0
LINE
  5
2F18
330
1E
100
AcDbEntity
  8
7
100
AcDbLine
 10
1.259376524796558
 20
5.042254752744337
 30
0.0
 11
1.25740802085955
 21
5.063908296051424
 31
0.0
  0
LINE
  5
2F19
330
1E
100
AcDbEntity
  8
7
100
AcDbLine
 10
1.471974949993408
 20
5.042254752744337
 30
0.0
 11
1.259376524796558
 21
5.042254752744337
 31
0.0
  0
LINE
  5
2F1F
330
1E
100
AcDbEntity
  8
7
100
AcDbLine
 10
1.471974949993408
 20
5.042254752744337
 30
0.0
 11
1.471974949993408
 21
5.028475225185282
 31
0.0
  0
LINE
  5
2F20
330
1E
100
AcDbEntity
  8
7
100
AcDbLine
 10
1.052683611410731
 20
4.786349240933313
 30
0.0
 11
1.119612745268999
 21
4.786349240933313
 31
0.0
  0
LINE
  5
2F21
330
1E
100
AcDbEntity
  8
7
100
AcDbLine
 10
1.471974949993408
 20
5.006821681878195
 30
0.0
 11
1.489691485426479
 21
4.79028624880733
 31
0.0
  0
LINE
  5
2F27
330
1E
100
AcDbEntity
  8
7
100
AcDbLine
 10
1.489691485426479
 20
4.79028624880733
 30
0.0
 11
1.609770225583959
 21
4.79028624880733
 31
0.0
  0
LINE
  5
2F28
330
1E
100
AcDbEntity
  8
7
100
AcDbLine
 10
1.609770225583959
 20
4.741073650382132
 30
0.0
 11
1.609770225583959
 21
4.786349240933313
 31
0.0
  0
LINE
  5
2F29
330
1E
100
AcDbEntity
  8
7
100
AcDbLine
 10
1.609770225583959
 20
4.833593335421502
 30
0.0
 11
1.609770225583959
 21
4.786349240933313
 31
0.0
  0
LINE
  5
2F2A
330
1E
100
AcDbEntity
  8
7
100
AcDbLine
 10
1.471974949993408
 20
5.028475225185282
 30
0.0
 11
1.471974949993408
 21
5.006821681878195
 31
0.0
  0
LINE
  5
2F2B
330
1E
100
AcDbEntity
  8
7
100
AcDbLine
 10
1.259376524796558
 20
5.006821681878195
 30
0.0
 11
1.259376524796558
 21
5.028475225185282
 31
0.0
  0
LINE
  5
2F2C
330
1E
100
AcDbEntity
  8
7
100
AcDbLine
 10
1.609770225583959
 20
4.786349240933313
 30
0.0
 11
1.755439516922542
 21
4.786349240933313
 31
0.0
  0
LINE
  5
2F2D
330
1E
100
AcDbEntity
  8
7
100
AcDbLine
 10
1.755439516922542
 20
4.833593335421502
 30
0.0
 11
1.755439516922542
 21
4.786349240933313
 31
0.0
  0
LINE
  5
2F2E
330
1E
100
AcDbEntity
  8
7
100
AcDbLine
 10
1.609770225583959
 20
4.833593335421502
 30
0.0
 11
1.755439516922542
 21
4.833593335421502
 31
0.0
  0
LINE
  5
2F2F
330
1E
100
AcDbEntity
  8
7
100
AcDbLine
 10
1.875518257080022
 20
4.79028624880733
 30
0.0
 11
1.755439516922542
 21
4.79028624880733
 31
0.0
  0
LINE
  5
2F35
330
1E
100
AcDbEntity
  8
7
100
AcDbLine
 10
1.895203296450102
 20
5.093435855106541
 30
0.0
 11
1.893234792513093
 21
5.075719319673471
 31
0.0
  0
LINE
  5
2F3D
330
1E
100
AcDbEntity
  8
7
100
AcDbLine
 10
1.893234792513093
 20
5.067845303925439
 30
0.0
 11
1.893234792513093
 21
5.065876799988432
 31
0.0
  0
LINE
  5
2F3E
330
1E
100
AcDbEntity
  8
7
100
AcDbLine
 10
2.107801721646952
 20
5.065876799988432
 30
0.0
 11
1.893234792513093
 21
5.065876799988432
 31
0.0
  0
LINE
  5
2F3F
330
1E
100
AcDbEntity
  8
7
100
AcDbLine
 10
2.107801721646952
 20
5.067845303925439
 30
0.0
 11
2.107801721646952
 21
5.065876799988432
 31
0.0
  0
LINE
  5
2F45
330
1E
100
AcDbEntity
  8
7
100
AcDbLine
 10
2.107801721646952
 20
5.063908296051424
 30
0.0
 11
2.107801721646952
 21
5.065876799988432
 31
0.0
  0
LINE
  5
2F46
330
1E
100
AcDbEntity
  8
7
100
AcDbLine
 10
1.893234792513093
 20
5.042254752744337
 30
0.0
 11
1.893234792513093
 21
5.063908296051424
 31
0.0
  0
LINE
  5
2F51
330
1E
100
AcDbEntity
  8
7
100
AcDbLine
 10
2.107801721646952
 20
5.042254752744337
 30
0.0
 11
2.105833217709943
 21
5.028475225185282
 31
0.0
  0
LINE
  5
2F52
330
1E
100
AcDbEntity
  8
7
100
AcDbLine
 10
2.31252613109577
 20
4.786349240933313
 30
0.0
 11
2.245596997237503
 21
4.786349240933313
 31
0.0
  0
LINE
  5
2F53
330
1E
100
AcDbEntity
  8
7
100
AcDbLine
 10
2.107801721646952
 20
5.006821681878195
 30
0.0
 11
2.125518257080022
 21
4.79028624880733
 31
0.0
  0
LINE
  5
2F59
330
1E
100
AcDbEntity
  8
7
100
AcDbLine
 10
1.755439516922542
 20
4.786349240933313
 30
0.0
 11
1.755439516922542
 21
4.741073650382132
 31
0.0
  0
LINE
  5
2F5A
330
1E
100
AcDbEntity
  8
7
100
AcDbLine
 10
1.893234792513093
 20
5.006821681878195
 30
0.0
 11
1.895203296450102
 21
5.028475225185282
 31
0.0
  0
LINE
  5
2F5B
330
1E
100
AcDbEntity
  8
7
100
AcDbLine
 10
2.105833217709943
 20
5.028475225185282
 30
0.0
 11
2.107801721646952
 21
5.006821681878195
 31
0.0
  0
LINE
  5
2F5C
330
1E
100
AcDbEntity
  8
7
100
AcDbLine
 10
1.277093060229629
 20
5.349341366917565
 30
0.0
 11
1.45228991062333
 21
5.349341366917565
 31
0.0
  0
LINE
  5
2F5D
330
1E
100
AcDbEntity
  8
7
100
AcDbLine
 10
2.088116682276873
 20
5.349341366917565
 30
0.0
 11
1.912919831883172
 21
5.349341366917565
 31
0.0
  0
LINE
  5
2F5E
330
1E
100
AcDbEntity
  8
7
100
AcDbLine
 10
1.45228991062333
 20
5.382805933846698
 30
0.0
 11
1.45228991062333
 21
5.349341366917565
 31
0.0
  0
LINE
  5
2F5F
330
1E
100
AcDbEntity
  8
7
100
AcDbLine
 10
1.277093060229629
 20
5.382805933846698
 30
0.0
 11
1.45228991062333
 21
5.382805933846698
 31
0.0
  0
LINE
  5
2F60
330
1E
100
AcDbEntity
  8
7
100
AcDbLine
 10
1.277093060229629
 20
5.382805933846698
 30
0.0
 11
1.277093060229629
 21
5.349341366917565
 31
0.0
  0
LINE
  5
2F61
330
1E
100
AcDbEntity
  8
7
100
AcDbLine
 10
2.088116682276873
 20
5.382805933846698
 30
0.0
 11
2.088116682276873
 21
5.349341366917565
 31
0.0
  0
LINE
  5
2F67
330
1E
100
AcDbEntity
  8
7
100
AcDbLine
 10
1.468037942119392
 20
5.382805933846698
 30
0.0
 11
1.468037942119392
 21
5.357215382665597
 31
0.0
  0
LINE
  5
2F68
330
1E
100
AcDbEntity
  8
7
100
AcDbLine
 10
1.466069438182385
 20
5.382805933846698
 30
0.0
 11
1.468037942119392
 21
5.382805933846698
 31
0.0
  0
LINE
  5
2F69
330
1E
100
AcDbEntity
  8
7
100
AcDbLine
 10
1.466069438182385
 20
5.382805933846698
 30
0.0
 11
1.468037942119392
 21
5.357215382665597
 31
0.0
  0
LINE
  5
2F6A
330
1E
100
AcDbEntity
  8
7
100
AcDbLine
 10
1.263313532670574
 20
5.382805933846698
 30
0.0
 11
1.468037942119392
 21
5.382805933846698
 31
0.0
  0
LINE
  5
2F6B
330
1E
100
AcDbEntity
  8
7
100
AcDbLine
 10
1.265282036607581
 20
5.382805933846698
 30
0.0
 11
1.263313532670574
 21
5.382805933846698
 31
0.0
  0
LINE
  5
2F6C
330
1E
100
AcDbEntity
  8
7
100
AcDbLine
 10
1.277093060229629
 20
5.382805933846698
 30
0.0
 11
1.265282036607581
 21
5.382805933846698
 31
0.0
  0
LINE
  5
2F6D
330
1E
100
AcDbEntity
  8
7
100
AcDbLine
 10
1.466069438182385
 20
5.382805933846698
 30
0.0
 11
1.45228991062333
 21
5.382805933846698
 31
0.0
  0
LINE
  5
2F6E
330
1E
100
AcDbEntity
  8
7
100
AcDbLine
 10
1.263313532670574
 20
5.357215382665597
 30
0.0
 11
1.263313532670574
 21
5.382805933846698
 31
0.0
  0
LINE
  5
2F6F
330
1E
100
AcDbEntity
  8
7
100
AcDbLine
 10
1.263313532670574
 20
5.357215382665597
 30
0.0
 11
1.265282036607581
 21
5.382805933846698
 31
0.0
  0
LINE
  5
2F70
330
1E
100
AcDbEntity
  8
7
100
AcDbLine
 10
1.263313532670574
 20
5.357215382665597
 30
0.0
 11
1.052683611410731
 21
5.357215382665597
 31
0.0
  0
LINE
  5
2F71
330
1E
100
AcDbEntity
  8
7
100
AcDbLine
 10
2.101896209835928
 20
5.357215382665597
 30
0.0
 11
2.101896209835928
 21
5.382805933846698
 31
0.0
  0
LINE
  5
2F72
330
1E
100
AcDbEntity
  8
7
100
AcDbLine
 10
2.101896209835928
 20
5.357215382665597
 30
0.0
 11
2.101896209835928
 21
5.382805933846698
 31
0.0
  0
LINE
  5
2F73
330
1E
100
AcDbEntity
  8
7
100
AcDbLine
 10
1.899140304324117
 20
5.382805933846698
 30
0.0
 11
1.912919831883172
 21
5.382805933846698
 31
0.0
  0
LINE
  5
2F7F
330
1E
100
AcDbEntity
  8
7
100
AcDbLine
 10
2.101896209835928
 20
5.357215382665597
 30
0.0
 11
2.31252613109577
 21
5.357215382665597
 31
0.0
  0
LINE
  5
2F80
330
1E
100
AcDbEntity
  8
7
100
AcDbLine
 10
2.485754477552464
 20
5.400522469279771
 30
0.0
 11
2.499534005111518
 21
4.741073650382132
 31
0.0
  0
LINE
  5
2F81
330
1E
100
AcDbEntity
  8
7
100
AcDbLine
 10
0.8814237688910466
 20
5.400522469279771
 30
0.0
 11
0.8676442413319911
 21
4.741073650382132
 31
0.0
  0
LINE
  5
2F82
330
1E
100
AcDbEntity
  8
7
100
AcDbLine
 10
2.958195422434354
 20
4.138711445657722
 30
0.0
 11
2.987722981489471
 21
4.138711445657722
 31
0.0
  0
LINE
  5
2F83
330
1E
100
AcDbEntity
  8
7
100
AcDbLine
 10
2.958195422434354
 20
4.067845303925439
 30
0.0
 11
2.958195422434354
 21
4.138711445657722
 31
0.0
  0
LINE
  5
2F89
330
1E
100
AcDbEntity
  8
7
100
AcDbLine
 10
2.973943453930417
 20
4.052097272429376
 30
0.0
 11
3.005439516922542
 21
4.052097272429376
 31
0.0
  0
LINE
  5
2F8F
330
1E
100
AcDbEntity
  8
7
100
AcDbLine
 10
3.019219044481597
 20
4.138711445657722
 30
0.0
 11
3.019219044481597
 21
4.067845303925439
 31
0.0
  0
LINE
  5
2F90
330
1E
100
AcDbEntity
  8
7
100
AcDbLine
 10
3.001502509048527
 20
4.138711445657722
 30
0.0
 11
3.019219044481597
 21
4.138711445657722
 31
0.0
  0
LINE
  5
2F91
330
1E
100
AcDbEntity
  8
7
100
AcDbLine
 10
3.001502509048527
 20
4.075719319673471
 30
0.0
 11
3.001502509048527
 21
4.138711445657722
 31
0.0
  0
LINE
  5
2F97
330
1E
100
AcDbEntity
  8
7
100
AcDbLine
 10
2.991659989363487
 20
4.071782311799456
 30
0.0
 11
2.997565501174511
 21
4.071782311799456
 31
0.0
  0
LINE
  5
2F9D
330
1E
100
AcDbEntity
  8
7
100
AcDbLine
 10
2.987722981489471
 20
4.138711445657722
 30
0.0
 11
2.987722981489471
 21
4.075719319673471
 31
0.0
  0
LINE
  5
2F9E
330
1E
100
AcDbEntity
  8
7
100
AcDbLine
 10
2.879455264954038
 20
4.138711445657722
 30
0.0
 11
2.928667863379235
 21
4.138711445657722
 31
0.0
  0
LINE
  5
2FA4
330
1E
100
AcDbEntity
  8
7
100
AcDbLine
 10
2.944415894875298
 20
4.12296341416166
 30
0.0
 11
2.944415894875298
 21
4.067845303925439
 31
0.0
  0
LINE
  5
2FAF
330
1E
100
AcDbEntity
  8
7
100
AcDbLine
 10
2.905045816135141
 20
4.071782311799456
 30
0.0
 11
2.91488833582018
 21
4.071782311799456
 31
0.0
  0
LINE
  5
2FBA
330
1E
100
AcDbEntity
  8
7
100
AcDbLine
 10
2.918825343694196
 20
4.117057902350635
 30
0.0
 11
2.918825343694196
 21
4.075719319673471
 31
0.0
  0
LINE
  5
2FCA
330
1E
100
AcDbEntity
  8
7
100
AcDbLine
 10
2.70228991062333
 20
4.111152390539613
 30
0.0
 11
2.70228991062333
 21
4.138711445657722
 31
0.0
  0
LINE
  5
2FD0
330
1E
100
AcDbEntity
  8
7
100
AcDbLine
 10
2.686541879127267
 20
4.105246878728589
 30
0.0
 11
2.698352902749314
 21
4.105246878728589
 31
0.0
  0
LINE
  5
2FD1
330
1E
100
AcDbEntity
  8
7
100
AcDbLine
 10
2.716069438182385
 20
4.052097272429376
 30
0.0
 11
2.731817469678448
 21
4.091467351169534
 31
0.0
  0
LINE
  5
2FD7
330
1E
100
AcDbEntity
  8
7
100
AcDbLine
 10
2.686541879127267
 20
4.087530343295519
 30
0.0
 11
2.714100934245377
 21
4.087530343295519
 31
0.0
  0
LINE
  5
2FE4
330
1E
100
AcDbEntity
  8
7
100
AcDbLine
 10
2.751502509048527
 20
4.138711445657722
 30
0.0
 11
2.773156052355613
 21
4.138711445657722
 31
0.0
  0
LINE
  5
2FEB
330
1E
100
AcDbEntity
  8
7
100
AcDbLine
 10
2.842053690150889
 20
4.107215382665597
 30
0.0
 11
2.828274162591833
 21
4.138711445657722
 31
0.0
  0
LINE
  5
2FF3
330
1E
100
AcDbEntity
  8
7
100
AcDbLine
 10
2.82236865078081
 20
4.089498847232526
 30
0.0
 11
2.838116682276873
 21
4.052097272429376
 31
0.0
  0
LINE
  5
2FF4
330
1E
100
AcDbEntity
  8
7
100
AcDbLine
 10
2.82236865078081
 20
4.052097272429376
 30
0.0
 11
2.82236865078081
 21
4.089498847232526
 31
0.0
  0
LINE
  5
2FF5
330
1E
100
AcDbEntity
  8
7
100
AcDbLine
 10
2.82236865078081
 20
4.052097272429376
 30
0.0
 11
2.78496707597766
 21
4.052097272429376
 31
0.0
  0
LINE
  5
2FF6
330
1E
100
AcDbEntity
  8
7
100
AcDbLine
 10
2.779061564166637
 20
4.063908296051424
 30
0.0
 11
2.78496707597766
 21
4.052097272429376
 31
0.0
  0
LINE
  5
2FF7
330
1E
100
AcDbEntity
  8
7
100
AcDbLine
 10
2.745596997237503
 20
4.063908296051424
 30
0.0
 11
2.779061564166637
 21
4.063908296051424
 31
0.0
  0
LINE
  5
2FF8
330
1E
100
AcDbEntity
  8
7
100
AcDbLine
 10
2.739691485426479
 20
4.052097272429376
 30
0.0
 11
2.745596997237503
 21
4.063908296051424
 31
0.0
  0
LINE
  5
2FF9
330
1E
100
AcDbEntity
  8
7
100
AcDbLine
 10
2.739691485426479
 20
4.052097272429376
 30
0.0
 11
2.716069438182385
 21
4.052097272429376
 31
0.0
  0
LINE
  5
2FFA
330
1E
100
AcDbEntity
  8
7
100
AcDbLine
 10
2.773156052355613
 20
4.083593335421502
 30
0.0
 11
2.761345028733566
 21
4.107215382665597
 31
0.0
  0
LINE
  5
2FFB
330
1E
100
AcDbEntity
  8
7
100
AcDbLine
 10
2.751502509048527
 20
4.083593335421502
 30
0.0
 11
2.773156052355613
 21
4.083593335421502
 31
0.0
  0
LINE
  5
2FFC
330
1E
100
AcDbEntity
  8
7
100
AcDbLine
 10
2.751502509048527
 20
4.083593335421502
 30
0.0
 11
2.761345028733566
 21
4.107215382665597
 31
0.0
  0
LINE
  5
2FFD
330
1E
100
AcDbEntity
  8
7
100
AcDbLine
 10
3.117644241331991
 20
4.052097272429376
 30
0.0
 11
3.09008518621388
 21
4.052097272429376
 31
0.0
  0
LINE
  5
2FFE
330
1E
100
AcDbEntity
  8
7
100
AcDbLine
 10
3.117644241331991
 20
4.052097272429376
 30
0.0
 11
3.117644241331991
 21
4.120994910224652
 31
0.0
  0
LINE
  5
2FFF
330
1E
100
AcDbEntity
  8
7
100
AcDbLine
 10
3.137329280702069
 20
4.120994910224652
 30
0.0
 11
3.117644241331991
 21
4.120994910224652
 31
0.0
  0
LINE
  5
3000
330
1E
100
AcDbEntity
  8
7
100
AcDbLine
 10
3.137329280702069
 20
4.120994910224652
 30
0.0
 11
3.137329280702069
 21
4.138711445657722
 31
0.0
  0
LINE
  5
3001
330
1E
100
AcDbEntity
  8
7
100
AcDbLine
 10
3.07236865078081
 20
4.138711445657722
 30
0.0
 11
3.137329280702069
 21
4.138711445657722
 31
0.0
  0
LINE
  5
3007
330
1E
100
AcDbEntity
  8
7
100
AcDbLine
 10
3.09008518621388
 20
4.052097272429376
 30
0.0
 11
3.09008518621388
 21
4.120994910224652
 31
0.0
  0
LINE
  5
3008
330
1E
100
AcDbEntity
  8
7
100
AcDbLine
 10
3.058589123221755
 20
4.052097272429376
 30
0.0
 11
3.03496707597766
 21
4.052097272429376
 31
0.0
  0
LINE
  5
3009
330
1E
100
AcDbEntity
  8
7
100
AcDbLine
 10
3.058589123221755
 20
4.052097272429376
 30
0.0
 11
3.058589123221755
 21
4.138711445657722
 31
0.0
  0
LINE
  5
300A
330
1E
100
AcDbEntity
  8
7
100
AcDbLine
 10
3.03496707597766
 20
4.138711445657722
 30
0.0
 11
3.058589123221755
 21
4.138711445657722
 31
0.0
  0
LINE
  5
300B
330
1E
100
AcDbEntity
  8
7
100
AcDbLine
 10
3.03496707597766
 20
4.052097272429376
 30
0.0
 11
3.03496707597766
 21
4.138711445657722
 31
0.0
  0
LINE
  5
300C
330
1E
100
AcDbEntity
  8
7
100
AcDbLine
 10
1.912919831883172
 20
1.536349240933314
 30
0.0
 11
2.088116682276873
 21
1.536349240933314
 31
0.0
  0
LINE
  5
300D
330
1E
100
AcDbEntity
  8
7
100
AcDbLine
 10
1.277093060229629
 20
1.536349240933314
 30
0.0
 11
1.45228991062333
 21
1.536349240933314
 31
0.0
  0
LINE
  5
300E
330
1E
100
AcDbEntity
  8
7
100
AcDbLine
 10
2.466069438182385
 20
1.689892548019929
 30
0.0
 11
0.8991403043241179
 21
1.689892548019929
 31
0.0
  0
LINE
  5
300F
330
1E
100
AcDbEntity
  8
7
100
AcDbLine
 10
0.8991403043241179
 20
1.687924044082921
 30
0.0
 11
0.8558332177099439
 21
1.676113020460873
 31
0.0
  0
LINE
  5
301B
330
1E
100
AcDbEntity
  8
7
100
AcDbLine
 10
0.7987466035367162
 20
1.294223256681346
 30
0.0
 11
0.808589123221755
 21
1.603278374791583
 31
0.0
  0
LINE
  5
301C
330
1E
100
AcDbEntity
  8
7
100
AcDbLine
 10
0.8991403043241179
 20
1.689892548019929
 30
0.0
 11
0.8991403043241179
 21
1.687924044082921
 31
0.0
  0
LINE
  5
301D
330
1E
100
AcDbEntity
  8
7
100
AcDbLine
 10
0.8991403043241179
 20
1.687924044082921
 30
0.0
 11
0.8991403043241179
 21
1.685955540145912
 31
0.0
  0
LINE
  5
301E
330
1E
100
AcDbEntity
  8
7
100
AcDbLine
 10
2.466069438182385
 20
1.685955540145912
 30
0.0
 11
0.8991403043241179
 21
1.685955540145912
 31
0.0
  0
LINE
  5
302F
330
1E
100
AcDbEntity
  8
7
100
AcDbLine
 10
2.568431642906794
 20
1.294223256681346
 30
0.0
 11
2.556620619284747
 21
1.603278374791583
 31
0.0
  0
LINE
  5
3044
330
1E
100
AcDbEntity
  8
7
100
AcDbLine
 10
3.375518257080022
 20
0.8749319180986692
 30
0.0
 11
3.357801721646952
 21
1.134774437783708
 31
0.0
  0
LINE
  5
304E
330
1E
100
AcDbEntity
  8
7
100
AcDbLine
 10
-0.0103085145735207
 20
0.8749319180986692
 30
0.0
 11
0.0074080208595506
 21
1.134774437783708
 31
0.0
  0
LINE
  5
3059
330
1E
100
AcDbEntity
  8
7
100
AcDbLine
 10
0.0211875484186057
 20
0.8749319180986692
 30
0.0
 11
3.345990698024905
 21
0.8749319180986692
 31
0.0
  0
LINE
  5
305A
330
1E
100
AcDbEntity
  8
7
100
AcDbLine
 10
0.1786678633792353
 20
1.294223256681346
 30
0.0
 11
3.186541879127267
 21
1.294223256681346
 31
0.0
  0
LINE
  5
305B
330
1E
100
AcDbEntity
  8
7
100
AcDbLine
 10
1.052683611410731
 20
1.650522469279771
 30
0.0
 11
1.052683611410731
 21
1.319813807862448
 31
0.0
  0
LINE
  5
305C
330
1E
100
AcDbEntity
  8
7
100
AcDbLine
 10
1.119612745268999
 20
1.294223256681346
 30
0.0
 11
1.119612745268999
 21
1.319813807862448
 31
0.0
  0
LINE
  5
305D
330
1E
100
AcDbEntity
  8
7
100
AcDbLine
 10
1.052683611410731
 20
1.569813807862447
 30
0.0
 11
1.227880461804432
 21
1.569813807862447
 31
0.0
  0
LINE
  5
305E
330
1E
100
AcDbEntity
  8
7
100
AcDbLine
 10
2.31252613109577
 20
1.650522469279771
 30
0.0
 11
2.31252613109577
 21
1.319813807862448
 31
0.0
  0
LINE
  5
305F
330
1E
100
AcDbEntity
  8
7
100
AcDbLine
 10
2.245596997237503
 20
1.294223256681346
 30
0.0
 11
2.245596997237503
 21
1.319813807862448
 31
0.0
  0
LINE
  5
3060
330
1E
100
AcDbEntity
  8
7
100
AcDbLine
 10
2.31252613109577
 20
1.569813807862447
 30
0.0
 11
2.137329280702069
 21
1.569813807862447
 31
0.0
  0
LINE
  5
306C
330
1E
100
AcDbEntity
  8
7
100
AcDbLine
 10
0.0389040838516766
 20
1.134774437783708
 30
0.0
 11
0.0211875484186057
 21
0.8749319180986692
 31
0.0
  0
LINE
  5
306D
330
1E
100
AcDbEntity
  8
7
100
AcDbLine
 10
3.328274162591833
 20
1.134774437783708
 30
0.0
 11
3.345990698024905
 21
0.8749319180986692
 31
0.0
  0
LINE
  5
306E
330
1E
100
AcDbEntity
  8
7
100
AcDbLine
 10
3.328274162591833
 20
1.134774437783708
 30
0.0
 11
0.0389040838516766
 21
1.134774437783708
 31
0.0
  0
LINE
  5
307A
330
1E
100
AcDbEntity
  8
7
100
AcDbLine
 10
1.464100934245377
 20
0.7076090834529998
 30
0.0
 11
1.464100934245377
 21
0.6918610519569369
 31
0.0
  0
LINE
  5
307B
330
1E
100
AcDbEntity
  8
7
100
AcDbLine
 10
1.26725054054459
 20
0.7076090834529998
 30
0.0
 11
1.464100934245377
 21
0.7076090834529998
 31
0.0
  0
LINE
  5
307C
330
1E
100
AcDbEntity
  8
7
100
AcDbLine
 10
1.26725054054459
 20
0.6918610519569369
 30
0.0
 11
1.26725054054459
 21
0.7076090834529998
 31
0.0
  0
LINE
  5
307D
330
1E
100
AcDbEntity
  8
7
100
AcDbLine
 10
1.464100934245377
 20
0.6918610519569369
 30
0.0
 11
1.26725054054459
 21
0.6918610519569369
 31
0.0
  0
LINE
  5
307E
330
1E
100
AcDbEntity
  8
7
100
AcDbLine
 10
1.464100934245377
 20
0.6918610519569369
 30
0.0
 11
1.460163926371361
 21
0.6190264062876452
 31
0.0
  0
LINE
  5
3084
330
1E
100
AcDbEntity
  8
7
100
AcDbLine
 10
1.273156052355613
 20
0.6052468787285905
 30
0.0
 11
1.271187548418605
 21
0.6190264062876452
 31
0.0
  0
LINE
  5
3085
330
1E
100
AcDbEntity
  8
7
100
AcDbLine
 10
1.458195422434354
 20
0.6052468787285905
 30
0.0
 11
1.273156052355613
 21
0.6052468787285905
 31
0.0
  0
LINE
  5
3086
330
1E
100
AcDbEntity
  8
7
100
AcDbLine
 10
1.460163926371361
 20
0.6190264062876452
 30
0.0
 11
1.458195422434354
 21
0.6052468787285905
 31
0.0
  0
LINE
  5
3087
330
1E
100
AcDbEntity
  8
7
100
AcDbLine
 10
1.052683611410731
 20
1.319813807862448
 30
0.0
 11
1.119612745268999
 21
1.319813807862448
 31
0.0
  0
LINE
  5
3088
330
1E
100
AcDbEntity
  8
7
100
AcDbLine
 10
1.609770225583959
 20
1.294223256681346
 30
0.0
 11
1.609770225583959
 21
1.319813807862448
 31
0.0
  0
LINE
  5
3089
330
1E
100
AcDbEntity
  8
7
100
AcDbLine
 10
1.471974949993408
 20
0.8749319180986692
 30
0.0
 11
1.464100934245377
 21
0.7076090834529998
 31
0.0
  0
LINE
  5
308A
330
1E
100
AcDbEntity
  8
7
100
AcDbLine
 10
1.259376524796558
 20
0.8749319180986692
 30
0.0
 11
1.26725054054459
 21
0.7076090834529998
 31
0.0
  0
LINE
  5
308B
330
1E
100
AcDbEntity
  8
7
100
AcDbLine
 10
1.609770225583959
 20
1.319813807862448
 30
0.0
 11
1.755439516922542
 21
1.319813807862448
 31
0.0
  0
LINE
  5
3093
330
1E
100
AcDbEntity
  8
7
100
AcDbLine
 10
1.903077312198133
 20
0.6918610519569369
 30
0.0
 11
1.907014320072149
 21
0.6190264062876452
 31
0.0
  0
LINE
  5
3094
330
1E
100
AcDbEntity
  8
7
100
AcDbLine
 10
2.094022194087896
 20
0.6190264062876452
 30
0.0
 11
1.907014320072149
 21
0.6190264062876452
 31
0.0
  0
LINE
  5
3095
330
1E
100
AcDbEntity
  8
7
100
AcDbLine
 10
2.097959201961912
 20
0.6918610519569369
 30
0.0
 11
2.094022194087896
 21
0.6190264062876452
 31
0.0
  0
LINE
  5
3096
330
1E
100
AcDbEntity
  8
7
100
AcDbLine
 10
2.094022194087896
 20
0.6052468787285905
 30
0.0
 11
2.094022194087896
 21
0.6190264062876452
 31
0.0
  0
LINE
  5
309C
330
1E
100
AcDbEntity
  8
7
100
AcDbLine
 10
2.31252613109577
 20
1.319813807862448
 30
0.0
 11
2.245596997237503
 21
1.319813807862448
 31
0.0
  0
LINE
  5
309D
330
1E
100
AcDbEntity
  8
7
100
AcDbLine
 10
1.755439516922542
 20
1.319813807862448
 30
0.0
 11
1.755439516922542
 21
1.294223256681346
 31
0.0
  0
LINE
  5
309E
330
1E
100
AcDbEntity
  8
7
100
AcDbLine
 10
1.893234792513093
 20
0.8749319180986692
 30
0.0
 11
1.903077312198133
 21
0.7076090834529998
 31
0.0
  0
LINE
  5
309F
330
1E
100
AcDbEntity
  8
7
100
AcDbLine
 10
2.107801721646952
 20
0.8749319180986692
 30
0.0
 11
2.09992770589892
 21
0.7076090834529998
 31
0.0
  0
LINE
  5
30A0
330
1E
100
AcDbEntity
  8
7
100
AcDbLine
 10
1.277093060229629
 20
1.569813807862447
 30
0.0
 11
1.45228991062333
 21
1.569813807862447
 31
0.0
  0
LINE
  5
30A1
330
1E
100
AcDbEntity
  8
7
100
AcDbLine
 10
1.45228991062333
 20
1.58753034329552
 30
0.0
 11
1.45228991062333
 21
1.569813807862447
 31
0.0
  0
LINE
  5
30A2
330
1E
100
AcDbEntity
  8
7
100
AcDbLine
 10
1.277093060229629
 20
1.58753034329552
 30
0.0
 11
1.45228991062333
 21
1.58753034329552
 31
0.0
  0
LINE
  5
30A3
330
1E
100
AcDbEntity
  8
7
100
AcDbLine
 10
1.277093060229629
 20
1.58753034329552
 30
0.0
 11
1.277093060229629
 21
1.569813807862447
 31
0.0
  0
LINE
  5
30A9
330
1E
100
AcDbEntity
  8
7
100
AcDbLine
 10
1.277093060229629
 20
1.544223256681346
 30
0.0
 11
1.45228991062333
 21
1.544223256681346
 31
0.0
  0
LINE
  5
30B0
330
1E
100
AcDbEntity
  8
7
100
AcDbLine
 10
1.45228991062333
 20
1.569813807862447
 30
0.0
 11
1.45228991062333
 21
1.544223256681346
 31
0.0
  0
LINE
  5
30BF
330
1E
100
AcDbEntity
  8
7
100
AcDbLine
 10
2.088116682276873
 20
1.58753034329552
 30
0.0
 11
2.088116682276873
 21
1.569813807862447
 31
0.0
  0
LINE
  5
30C5
330
1E
100
AcDbEntity
  8
7
100
AcDbLine
 10
1.45228991062333
 20
1.607215382665597
 30
0.0
 11
1.45228991062333
 21
1.58753034329552
 31
0.0
  0
LINE
  5
30C6
330
1E
100
AcDbEntity
  8
7
100
AcDbLine
 10
1.277093060229629
 20
1.607215382665597
 30
0.0
 11
1.45228991062333
 21
1.607215382665597
 31
0.0
  0
LINE
  5
30C7
330
1E
100
AcDbEntity
  8
7
100
AcDbLine
 10
1.277093060229629
 20
1.607215382665597
 30
0.0
 11
1.277093060229629
 21
1.58753034329552
 31
0.0
  0
LINE
  5
30C8
330
1E
100
AcDbEntity
  8
7
100
AcDbLine
 10
2.088116682276873
 20
1.607215382665597
 30
0.0
 11
2.088116682276873
 21
1.58753034329552
 31
0.0
  0
LINE
  5
30CE
330
1E
100
AcDbEntity
  8
7
100
AcDbLine
 10
1.503471012985534
 20
1.569813807862447
 30
0.0
 11
1.863707233457975
 21
1.569813807862447
 31
0.0
  0
LINE
  5
30CF
330
1E
100
AcDbEntity
  8
7
100
AcDbLine
 10
1.22984896574144
 20
1.544223256681346
 30
0.0
 11
1.277093060229629
 21
1.544223256681346
 31
0.0
  0
LINE
  5
30D0
330
1E
100
AcDbEntity
  8
7
100
AcDbLine
 10
1.45228991062333
 20
1.544223256681346
 30
0.0
 11
1.501502509048527
 21
1.544223256681346
 31
0.0
  0
LINE
  5
30D1
330
1E
100
AcDbEntity
  8
7
100
AcDbLine
 10
1.503471012985534
 20
1.569813807862447
 30
0.0
 11
1.501502509048527
 21
1.544223256681346
 31
0.0
  0
LINE
  5
30D2
330
1E
100
AcDbEntity
  8
7
100
AcDbLine
 10
1.863707233457975
 20
1.569813807862447
 30
0.0
 11
1.863707233457975
 21
1.544223256681346
 31
0.0
  0
LINE
  5
30D3
330
1E
100
AcDbEntity
  8
7
100
AcDbLine
 10
1.912919831883172
 20
1.544223256681346
 30
0.0
 11
1.863707233457975
 21
1.544223256681346
 31
0.0
  0
LINE
  5
30D4
330
1E
100
AcDbEntity
  8
7
100
AcDbLine
 10
2.137329280702069
 20
1.544223256681346
 30
0.0
 11
2.088116682276873
 21
1.544223256681346
 31
0.0
  0
LINE
  5
30D5
330
1E
100
AcDbEntity
  8
7
100
AcDbLine
 10
1.227880461804432
 20
1.569813807862447
 30
0.0
 11
1.22984896574144
 21
1.544223256681346
 31
0.0
  0
LINE
  5
30D6
330
1E
100
AcDbEntity
  8
7
100
AcDbLine
 10
1.468037942119392
 20
1.666270500775834
 30
0.0
 11
1.468037942119392
 21
1.650522469279771
 31
0.0
  0
LINE
  5
30D7
330
1E
100
AcDbEntity
  8
7
100
AcDbLine
 10
1.466069438182385
 20
1.607215382665597
 30
0.0
 11
1.468037942119392
 21
1.650522469279771
 31
0.0
  0
LINE
  5
30D8
330
1E
100
AcDbEntity
  8
7
100
AcDbLine
 10
1.263313532670574
 20
1.666270500775834
 30
0.0
 11
1.468037942119392
 21
1.666270500775834
 31
0.0
  0
LINE
  5
30D9
330
1E
100
AcDbEntity
  8
7
100
AcDbLine
 10
1.277093060229629
 20
1.607215382665597
 30
0.0
 11
1.265282036607581
 21
1.607215382665597
 31
0.0
  0
LINE
  5
30DA
330
1E
100
AcDbEntity
  8
7
100
AcDbLine
 10
1.466069438182385
 20
1.607215382665597
 30
0.0
 11
1.45228991062333
 21
1.607215382665597
 31
0.0
  0
LINE
  5
30DB
330
1E
100
AcDbEntity
  8
7
100
AcDbLine
 10
1.263313532670574
 20
1.650522469279771
 30
0.0
 11
1.263313532670574
 21
1.666270500775834
 31
0.0
  0
LINE
  5
30DC
330
1E
100
AcDbEntity
  8
7
100
AcDbLine
 10
1.263313532670574
 20
1.650522469279771
 30
0.0
 11
1.265282036607581
 21
1.607215382665597
 31
0.0
  0
LINE
  5
30DD
330
1E
100
AcDbEntity
  8
7
100
AcDbLine
 10
1.263313532670574
 20
1.650522469279771
 30
0.0
 11
1.052683611410731
 21
1.650522469279771
 31
0.0
  0
LINE
  5
30DE
330
1E
100
AcDbEntity
  8
7
100
AcDbLine
 10
2.101896209835928
 20
1.650522469279771
 30
0.0
 11
2.101896209835928
 21
1.607215382665597
 31
0.0
  0
LINE
  5
30DF
330
1E
100
AcDbEntity
  8
7
100
AcDbLine
 10
2.101896209835928
 20
1.650522469279771
 30
0.0
 11
2.101896209835928
 21
1.666270500775834
 31
0.0
  0
LINE
  5
30E0
330
1E
100
AcDbEntity
  8
7
100
AcDbLine
 10
1.899140304324117
 20
1.607215382665597
 30
0.0
 11
1.912919831883172
 21
1.607215382665597
 31
0.0
  0
LINE
  5
30E1
330
1E
100
AcDbEntity
  8
7
100
AcDbLine
 10
2.088116682276873
 20
1.607215382665597
 30
0.0
 11
2.101896209835928
 21
1.607215382665597
 31
0.0
  0
LINE
  5
30EC
330
1E
100
AcDbEntity
  8
7
100
AcDbLine
 10
2.137329280702069
 20
1.569813807862447
 30
0.0
 11
2.137329280702069
 21
1.544223256681346
 31
0.0
  0
LINE
  5
30ED
330
1E
100
AcDbEntity
  8
7
100
AcDbLine
 10
2.101896209835928
 20
1.650522469279771
 30
0.0
 11
2.31252613109577
 21
1.650522469279771
 31
0.0
  0
LINE
  5
30EE
330
1E
100
AcDbEntity
  8
7
100
AcDbLine
 10
2.485754477552464
 20
1.676113020460873
 30
0.0
 11
2.499534005111518
 21
1.294223256681346
 31
0.0
  0
LINE
  5
30EF
330
1E
100
AcDbEntity
  8
7
100
AcDbLine
 10
0.8814237688910466
 20
1.676113020460873
 30
0.0
 11
0.8676442413319911
 21
1.294223256681346
 31
0.0
  0
LINE
  5
30F9
330
1E
100
AcDbEntity
  8
7
100
AcDbLine
 10
3.005439516922542
 20
1.309971288177409
 30
0.0
 11
3.005439516922542
 21
1.294223256681346
 31
0.0
  0
LINE
  5
30FA
330
1E
100
AcDbEntity
  8
7
100
AcDbLine
 10
2.973943453930417
 20
1.309971288177409
 30
0.0
 11
2.973943453930417
 21
1.294223256681346
 31
0.0
  0
LINE
  5
30FB
330
1E
100
AcDbEntity
  8
7
100
AcDbLine
 10
2.958195422434354
 20
1.309971288177409
 30
0.0
 11
2.958195422434354
 21
1.294223256681346
 31
0.0
  0
LINE
  5
30FC
330
1E
100
AcDbEntity
  8
7
100
AcDbLine
 10
2.944415894875298
 20
1.309971288177409
 30
0.0
 11
2.944415894875298
 21
1.294223256681346
 31
0.0
  0
LINE
  5
3102
330
1E
100
AcDbEntity
  8
7
100
AcDbLine
 10
2.928667863379235
 20
1.309971288177409
 30
0.0
 11
2.928667863379235
 21
1.294223256681346
 31
0.0
  0
LINE
  5
3103
330
1E
100
AcDbEntity
  8
7
100
AcDbLine
 10
2.879455264954038
 20
1.309971288177409
 30
0.0
 11
2.879455264954038
 21
1.294223256681346
 31
0.0
  0
LINE
  5
3104
330
1E
100
AcDbEntity
  8
7
100
AcDbLine
 10
2.928667863379235
 20
1.309971288177409
 30
0.0
 11
2.879455264954038
 21
1.309971288177409
 31
0.0
  0
LINE
  5
3105
330
1E
100
AcDbEntity
  8
7
100
AcDbLine
 10
2.716069438182385
 20
1.309971288177409
 30
0.0
 11
2.716069438182385
 21
1.294223256681346
 31
0.0
  0
LINE
  5
3106
330
1E
100
AcDbEntity
  8
7
100
AcDbLine
 10
2.714100934245377
 20
1.309971288177409
 30
0.0
 11
2.716069438182385
 21
1.309971288177409
 31
0.0
  0
LINE
  5
3107
330
1E
100
AcDbEntity
  8
7
100
AcDbLine
 10
2.714100934245377
 20
1.309971288177409
 30
0.0
 11
2.714100934245377
 21
1.294223256681346
 31
0.0
  0
LINE
  5
3108
330
1E
100
AcDbEntity
  8
7
100
AcDbLine
 10
2.686541879127267
 20
1.309971288177409
 30
0.0
 11
2.714100934245377
 21
1.309971288177409
 31
0.0
  0
LINE
  5
3109
330
1E
100
AcDbEntity
  8
7
100
AcDbLine
 10
2.686541879127267
 20
1.309971288177409
 30
0.0
 11
2.686541879127267
 21
1.294223256681346
 31
0.0
  0
LINE
  5
310A
330
1E
100
AcDbEntity
  8
7
100
AcDbLine
 10
2.635360776765062
 20
1.309971288177409
 30
0.0
 11
2.635360776765062
 21
1.294223256681346
 31
0.0
  0
LINE
  5
310B
330
1E
100
AcDbEntity
  8
7
100
AcDbLine
 10
2.686541879127267
 20
1.309971288177409
 30
0.0
 11
2.635360776765062
 21
1.309971288177409
 31
0.0
  0
LINE
  5
310C
330
1E
100
AcDbEntity
  8
7
100
AcDbLine
 10
2.865675737394983
 20
1.309971288177409
 30
0.0
 11
2.865675737394983
 21
1.294223256681346
 31
0.0
  0
LINE
  5
310D
330
1E
100
AcDbEntity
  8
7
100
AcDbLine
 10
2.838116682276873
 20
1.309971288177409
 30
0.0
 11
2.838116682276873
 21
1.294223256681346
 31
0.0
  0
LINE
  5
310E
330
1E
100
AcDbEntity
  8
7
100
AcDbLine
 10
2.865675737394983
 20
1.309971288177409
 30
0.0
 11
2.838116682276873
 21
1.309971288177409
 31
0.0
  0
LINE
  5
310F
330
1E
100
AcDbEntity
  8
7
100
AcDbLine
 10
2.82236865078081
 20
1.309971288177409
 30
0.0
 11
2.838116682276873
 21
1.309971288177409
 31
0.0
  0
LINE
  5
3110
330
1E
100
AcDbEntity
  8
7
100
AcDbLine
 10
2.82236865078081
 20
1.309971288177409
 30
0.0
 11
2.82236865078081
 21
1.294223256681346
 31
0.0
  0
LINE
  5
3111
330
1E
100
AcDbEntity
  8
7
100
AcDbLine
 10
2.78496707597766
 20
1.309971288177409
 30
0.0
 11
2.78496707597766
 21
1.294223256681346
 31
0.0
  0
LINE
  5
3112
330
1E
100
AcDbEntity
  8
7
100
AcDbLine
 10
2.82236865078081
 20
1.309971288177409
 30
0.0
 11
2.78496707597766
 21
1.309971288177409
 31
0.0
  0
LINE
  5
3113
330
1E
100
AcDbEntity
  8
7
100
AcDbLine
 10
2.779061564166637
 20
1.309971288177409
 30
0.0
 11
2.779061564166637
 21
1.294223256681346
 31
0.0
  0
LINE
  5
3114
330
1E
100
AcDbEntity
  8
7
100
AcDbLine
 10
2.779061564166637
 20
1.309971288177409
 30
0.0
 11
2.78496707597766
 21
1.309971288177409
 31
0.0
  0
LINE
  5
3115
330
1E
100
AcDbEntity
  8
7
100
AcDbLine
 10
2.745596997237503
 20
1.309971288177409
 30
0.0
 11
2.745596997237503
 21
1.294223256681346
 31
0.0
  0
LINE
  5
3116
330
1E
100
AcDbEntity
  8
7
100
AcDbLine
 10
2.745596997237503
 20
1.309971288177409
 30
0.0
 11
2.779061564166637
 21
1.309971288177409
 31
0.0
  0
LINE
  5
3117
330
1E
100
AcDbEntity
  8
7
100
AcDbLine
 10
2.739691485426479
 20
1.309971288177409
 30
0.0
 11
2.739691485426479
 21
1.294223256681346
 31
0.0
  0
LINE
  5
3118
330
1E
100
AcDbEntity
  8
7
100
AcDbLine
 10
2.739691485426479
 20
1.309971288177409
 30
0.0
 11
2.745596997237503
 21
1.309971288177409
 31
0.0
  0
LINE
  5
3119
330
1E
100
AcDbEntity
  8
7
100
AcDbLine
 10
2.716069438182385
 20
1.309971288177409
 30
0.0
 11
2.716069438182385
 21
1.294223256681346
 31
0.0
  0
LINE
  5
311A
330
1E
100
AcDbEntity
  8
7
100
AcDbLine
 10
2.739691485426479
 20
1.309971288177409
 30
0.0
 11
2.716069438182385
 21
1.309971288177409
 31
0.0
  0
LINE
  5
311B
330
1E
100
AcDbEntity
  8
7
100
AcDbLine
 10
3.117644241331991
 20
1.309971288177409
 30
0.0
 11
3.09008518621388
 21
1.309971288177409
 31
0.0
  0
LINE
  5
311C
330
1E
100
AcDbEntity
  8
7
100
AcDbLine
 10
3.137329280702069
 20
1.309971288177409
 30
0.0
 11
3.117644241331991
 21
1.309971288177409
 31
0.0
  0
LINE
  5
311D
330
1E
100
AcDbEntity
  8
7
100
AcDbLine
 10
3.07236865078081
 20
1.309971288177409
 30
0.0
 11
3.09008518621388
 21
1.309971288177409
 31
0.0
  0
LINE
  5
311E
330
1E
100
AcDbEntity
  8
7
100
AcDbLine
 10
3.137329280702069
 20
1.309971288177409
 30
0.0
 11
3.137329280702069
 21
1.294223256681346
 31
0.0
  0
LINE
  5
311F
330
1E
100
AcDbEntity
  8
7
100
AcDbLine
 10
3.117644241331991
 20
1.309971288177409
 30
0.0
 11
3.117644241331991
 21
1.294223256681346
 31
0.0
  0
LINE
  5
3120
330
1E
100
AcDbEntity
  8
7
100
AcDbLine
 10
3.09008518621388
 20
1.309971288177409
 30
0.0
 11
3.09008518621388
 21
1.294223256681346
 31
0.0
  0
LINE
  5
3121
330
1E
100
AcDbEntity
  8
7
100
AcDbLine
 10
3.07236865078081
 20
1.309971288177409
 30
0.0
 11
3.07236865078081
 21
1.294223256681346
 31
0.0
  0
LINE
  5
3127
330
1E
100
AcDbEntity
  8
7
100
AcDbLine
 10
3.058589123221755
 20
1.309971288177409
 30
0.0
 11
3.058589123221755
 21
1.294223256681346
 31
0.0
  0
LINE
  5
3395
330
1E
100
AcDbEntity
  8
7
100
AcDbLine
 10
7.948352902749313
 20
6.443829555893943
 30
0.0
 11
7.948352902749313
 21
6.475325618886069
 31
0.0
  0
LINE
  5
3396
330
1E
100
AcDbEntity
  8
7
100
AcDbLine
 10
8.078274162591833
 20
6.443829555893943
 30
0.0
 11
7.948352902749313
 21
6.443829555893943
 31
0.0
  0
LINE
  5
3397
330
1E
100
AcDbEntity
  8
7
100
AcDbLine
 10
8.078274162591833
 20
6.475325618886069
 30
0.0
 11
8.078274162591833
 21
6.443829555893943
 31
0.0
  0
LINE
  5
3398
330
1E
100
AcDbEntity
  8
7
100
AcDbLine
 10
8.078274162591833
 20
6.475325618886069
 30
0.0
 11
7.948352902749313
 21
6.475325618886069
 31
0.0
  0
LINE
  5
3399
330
1E
100
AcDbEntity
  8
7
100
AcDbLine
 10
7.948352902749313
 20
5.943829555893943
 30
0.0
 11
7.948352902749313
 21
5.975325618886069
 31
0.0
  0
LINE
  5
339A
330
1E
100
AcDbEntity
  8
7
100
AcDbLine
 10
8.078274162591833
 20
5.943829555893943
 30
0.0
 11
7.948352902749313
 21
5.943829555893943
 31
0.0
  0
LINE
  5
339B
330
1E
100
AcDbEntity
  8
7
100
AcDbLine
 10
8.078274162591833
 20
5.975325618886069
 30
0.0
 11
8.078274162591833
 21
5.943829555893943
 31
0.0
  0
LINE
  5
339C
330
1E
100
AcDbEntity
  8
7
100
AcDbLine
 10
8.078274162591833
 20
5.975325618886069
 30
0.0
 11
7.948352902749313
 21
5.975325618886069
 31
0.0
  0
LINE
  5
339D
330
1E
100
AcDbEntity
  8
7
100
AcDbLine
 10
5.769219044481597
 20
5.943829555893943
 30
0.0
 11
5.769219044481597
 21
5.975325618886069
 31
0.0
  0
LINE
  5
339E
330
1E
100
AcDbEntity
  8
7
100
AcDbLine
 10
5.641266288576086
 20
5.975325618886069
 30
0.0
 11
5.769219044481597
 21
5.975325618886069
 31
0.0
  0
LINE
  5
33A4
330
1E
100
AcDbEntity
  8
7
100
AcDbLine
 10
5.769219044481597
 20
6.443829555893943
 30
0.0
 11
5.769219044481597
 21
6.475325618886069
 31
0.0
  0
LINE
  5
33A5
330
1E
100
AcDbEntity
  8
7
100
AcDbLine
 10
5.641266288576086
 20
6.475325618886069
 30
0.0
 11
5.769219044481597
 21
6.475325618886069
 31
0.0
  0
LINE
  5
33AB
330
1E
100
AcDbEntity
  8
7
100
AcDbLine
 10
7.948352902749313
 20
6.475325618886069
 30
0.0
 11
7.948352902749313
 21
6.481231130697093
 31
0.0
  0
LINE
  5
33AC
330
1E
100
AcDbEntity
  8
7
100
AcDbLine
 10
7.948352902749313
 20
6.437924044082921
 30
0.0
 11
7.948352902749313
 21
6.443829555893943
 31
0.0
  0
LINE
  5
33AD
330
1E
100
AcDbEntity
  8
7
100
AcDbLine
 10
8.084179674402856
 20
6.437924044082921
 30
0.0
 11
7.948352902749313
 21
6.437924044082921
 31
0.0
  0
LINE
  5
33AE
330
1E
100
AcDbEntity
  8
7
100
AcDbLine
 10
8.084179674402856
 20
6.437924044082921
 30
0.0
 11
8.078274162591833
 21
6.443829555893943
 31
0.0
  0
LINE
  5
33AF
330
1E
100
AcDbEntity
  8
7
100
AcDbLine
 10
8.084179674402856
 20
6.481231130697093
 30
0.0
 11
8.084179674402856
 21
6.437924044082921
 31
0.0
  0
LINE
  5
33B0
330
1E
100
AcDbEntity
  8
7
100
AcDbLine
 10
8.084179674402856
 20
6.481231130697093
 30
0.0
 11
8.078274162591833
 21
6.475325618886069
 31
0.0
  0
LINE
  5
33B1
330
1E
100
AcDbEntity
  8
7
100
AcDbLine
 10
8.084179674402856
 20
6.481231130697093
 30
0.0
 11
7.948352902749313
 21
6.481231130697093
 31
0.0
  0
LINE
  5
33B2
330
1E
100
AcDbEntity
  8
7
100
AcDbLine
 10
7.948352902749313
 20
5.937924044082921
 30
0.0
 11
7.948352902749313
 21
5.943829555893943
 31
0.0
  0
LINE
  5
33B3
330
1E
100
AcDbEntity
  8
7
100
AcDbLine
 10
7.948352902749313
 20
5.975325618886069
 30
0.0
 11
7.948352902749313
 21
5.981231130697093
 31
0.0
  0
LINE
  5
33B4
330
1E
100
AcDbEntity
  8
7
100
AcDbLine
 10
8.084179674402856
 20
5.937924044082921
 30
0.0
 11
8.078274162591833
 21
5.943829555893943
 31
0.0
  0
LINE
  5
33B5
330
1E
100
AcDbEntity
  8
7
100
AcDbLine
 10
8.084179674402856
 20
5.937924044082921
 30
0.0
 11
7.948352902749313
 21
5.937924044082921
 31
0.0
  0
LINE
  5
33B6
330
1E
100
AcDbEntity
  8
7
100
AcDbLine
 10
8.084179674402856
 20
5.981231130697093
 30
0.0
 11
8.078274162591833
 21
5.975325618886069
 31
0.0
  0
LINE
  5
33B7
330
1E
100
AcDbEntity
  8
7
100
AcDbLine
 10
8.084179674402856
 20
5.981231130697093
 30
0.0
 11
8.084179674402856
 21
5.937924044082921
 31
0.0
  0
LINE
  5
33B8
330
1E
100
AcDbEntity
  8
7
100
AcDbLine
 10
8.084179674402856
 20
5.981231130697093
 30
0.0
 11
7.948352902749313
 21
5.981231130697093
 31
0.0
  0
LINE
  5
33B9
330
1E
100
AcDbEntity
  8
7
100
AcDbLine
 10
5.635360776765062
 20
5.981231130697093
 30
0.0
 11
5.641266288576086
 21
5.975325618886069
 31
0.0
  0
LINE
  5
33C4
330
1E
100
AcDbEntity
  8
7
100
AcDbLine
 10
5.769219044481597
 20
5.975325618886069
 30
0.0
 11
5.769219044481597
 21
5.981231130697093
 31
0.0
  0
LINE
  5
33C5
330
1E
100
AcDbEntity
  8
7
100
AcDbLine
 10
5.635360776765062
 20
5.981231130697093
 30
0.0
 11
5.769219044481597
 21
5.981231130697093
 31
0.0
  0
LINE
  5
33CB
330
1E
100
AcDbEntity
  8
7
100
AcDbLine
 10
5.635360776765062
 20
6.481231130697093
 30
0.0
 11
5.641266288576086
 21
6.475325618886069
 31
0.0
  0
LINE
  5
33CC
330
1E
100
AcDbEntity
  8
7
100
AcDbLine
 10
5.769219044481597
 20
6.437924044082921
 30
0.0
 11
5.769219044481597
 21
6.443829555893943
 31
0.0
  0
LINE
  5
33CD
330
1E
100
AcDbEntity
  8
7
100
AcDbLine
 10
5.635360776765062
 20
6.437924044082921
 30
0.0
 11
5.769219044481597
 21
6.437924044082921
 31
0.0
  0
LINE
  5
33CE
330
1E
100
AcDbEntity
  8
7
100
AcDbLine
 10
5.769219044481597
 20
6.475325618886069
 30
0.0
 11
5.769219044481597
 21
6.481231130697093
 31
0.0
  0
LINE
  5
33CF
330
1E
100
AcDbEntity
  8
7
100
AcDbLine
 10
5.635360776765062
 20
6.481231130697093
 30
0.0
 11
5.769219044481597
 21
6.481231130697093
 31
0.0
  0
LINE
  5
33D5
330
1E
100
AcDbEntity
  8
7
100
AcDbLine
 10
5.509376524796558
 20
6.185955540145911
 30
0.0
 11
5.505439516922542
 21
6.191861051956935
 31
0.0
  0
LINE
  5
33D6
330
1E
100
AcDbEntity
  8
7
100
AcDbLine
 10
5.509376524796558
 20
6.2331996346341
 30
0.0
 11
5.509376524796558
 21
6.185955540145911
 31
0.0
  0
LINE
  5
33D7
330
1E
100
AcDbEntity
  8
7
100
AcDbLine
 10
8.363707233457974
 20
6.902490973216778
 30
0.0
 11
5.355833217709943
 21
6.902490973216778
 31
0.0
  0
LINE
  5
33DF
330
1E
100
AcDbEntity
  8
7
100
AcDbLine
 10
5.277093060229629
 20
6.981231130697093
 30
0.0
 11
8.442447390938289
 21
6.981231130697093
 31
0.0
  0
LINE
  5
33E7
330
1E
100
AcDbEntity
  8
7
100
AcDbLine
 10
8.210163926371361
 20
6.2331996346341
 30
0.0
 11
8.214100934245376
 21
6.227294122823078
 31
0.0
  0
LINE
  5
33ED
330
1E
100
AcDbEntity
  8
7
100
AcDbLine
 10
8.214100934245376
 20
6.227294122823078
 30
0.0
 11
8.214100934245376
 21
6.191861051956935
 31
0.0
  0
LINE
  5
33EE
330
1E
100
AcDbEntity
  8
7
100
AcDbLine
 10
5.196384398812306
 20
7.091467351169534
 30
0.0
 11
8.521187548418604
 21
7.091467351169534
 31
0.0
  0
LINE
  5
33EF
330
1E
100
AcDbEntity
  8
7
100
AcDbLine
 10
8.458195422434352
 20
6.191861051956935
 30
0.0
 11
8.214100934245376
 21
6.191861051956935
 31
0.0
  0
LINE
  5
33F5
330
1E
100
AcDbEntity
  8
7
100
AcDbLine
 10
8.442447390938289
 20
6.231231130697093
 30
0.0
 11
8.458195422434352
 21
6.227294122823078
 31
0.0
  0
LINE
  5
33FD
330
1E
100
AcDbEntity
  8
7
100
AcDbLine
 10
8.442447390938289
 20
6.981231130697093
 30
0.0
 11
8.442447390938289
 21
6.231231130697093
 31
0.0
  0
LINE
  5
33FE
330
1E
100
AcDbEntity
  8
7
100
AcDbLine
 10
8.363707233457974
 20
6.2331996346341
 30
0.0
 11
8.363707233457974
 21
6.902490973216778
 31
0.0
  0
LINE
  5
3404
330
1E
100
AcDbEntity
  8
7
100
AcDbLine
 10
8.363707233457974
 20
6.185955540145911
 30
0.0
 11
8.210163926371361
 21
6.185955540145911
 31
0.0
  0
LINE
  5
340B
330
1E
100
AcDbEntity
  8
7
100
AcDbLine
 10
8.458195422434352
 20
6.191861051956935
 30
0.0
 11
8.442447390938289
 21
6.187924044082921
 31
0.0
  0
LINE
  5
3411
330
1E
100
AcDbEntity
  8
7
100
AcDbLine
 10
8.442447390938289
 20
6.981231130697093
 30
0.0
 11
8.460163926371361
 21
6.998947666130163
 31
0.0
  0
LINE
  5
3412
330
1E
100
AcDbEntity
  8
7
100
AcDbLine
 10
5.259376524796558
 20
6.998947666130163
 30
0.0
 11
8.460163926371361
 21
6.998947666130163
 31
0.0
  0
LINE
  5
3413
330
1E
100
AcDbEntity
  8
7
100
AcDbLine
 10
5.277093060229629
 20
6.981231130697093
 30
0.0
 11
5.259376524796558
 21
6.998947666130163
 31
0.0
  0
LINE
  5
341B
330
1E
100
AcDbEntity
  8
7
100
AcDbLine
 10
5.355833217709943
 20
6.2331996346341
 30
0.0
 11
5.355833217709943
 21
6.902490973216778
 31
0.0
  0
LINE
  5
3421
330
1E
100
AcDbEntity
  8
7
100
AcDbLine
 10
5.355833217709943
 20
6.2331996346341
 30
0.0
 11
5.509376524796558
 21
6.2331996346341
 31
0.0
  0
LINE
  5
3422
330
1E
100
AcDbEntity
  8
7
100
AcDbLine
 10
5.261345028733566
 20
6.191861051956935
 30
0.0
 11
5.261345028733566
 21
6.227294122823078
 31
0.0
  0
LINE
  5
3423
330
1E
100
AcDbEntity
  8
7
100
AcDbLine
 10
5.261345028733566
 20
6.191861051956935
 30
0.0
 11
5.505439516922542
 21
6.191861051956935
 31
0.0
  0
LINE
  5
3424
330
1E
100
AcDbEntity
  8
7
100
AcDbLine
 10
5.355833217709943
 20
6.185955540145911
 30
0.0
 11
5.509376524796558
 21
6.185955540145911
 31
0.0
  0
LINE
  5
3425
330
1E
100
AcDbEntity
  8
7
100
AcDbLine
 10
5.261345028733566
 20
6.191861051956935
 30
0.0
 11
5.277093060229629
 21
6.187924044082921
 31
0.0
  0
LINE
  5
352B
330
1E
100
AcDbEntity
  8
7
100
AcDbLine
 10
8.363707233457974
 20
3.892648453531739
 30
0.0
 11
8.363707233457974
 21
6.185955540145911
 31
0.0
  0
LINE
  5
352C
330
1E
100
AcDbEntity
  8
7
100
AcDbLine
 10
8.442447390938289
 20
3.815876799988432
 30
0.0
 11
8.434573375190257
 21
3.823750815736463
 31
0.0
  0
LINE
  5
3533
330
1E
100
AcDbEntity
  8
7
100
AcDbLine
 10
8.442447390938289
 20
6.187924044082921
 30
0.0
 11
8.442447390938289
 21
3.815876799988432
 31
0.0
  0
LINE
  5
3534
330
1E
100
AcDbEntity
  8
7
100
AcDbLine
 10
8.460163926371361
 20
3.798160264555361
 30
0.0
 11
8.442447390938289
 21
3.815876799988432
 31
0.0
  0
LINE
  5
3535
330
1E
100
AcDbEntity
  8
7
100
AcDbLine
 10
8.460163926371361
 20
6.998947666130163
 30
0.0
 11
8.460163926371361
 21
3.798160264555361
 31
0.0
  0
LINE
  5
3536
330
1E
100
AcDbEntity
  8
7
100
AcDbLine
 10
5.277093060229629
 20
6.187924044082921
 30
0.0
 11
5.277093060229629
 21
3.815876799988432
 31
0.0
  0
LINE
  5
3544
330
1E
100
AcDbEntity
  8
7
100
AcDbLine
 10
5.166856839757188
 20
7.059971288177408
 30
0.0
 11
5.166856839757188
 21
3.735168138571109
 31
0.0
  0
LINE
  5
3545
330
1E
100
AcDbEntity
  8
7
100
AcDbLine
 10
8.55268361141073
 20
7.059971288177408
 30
0.0
 11
8.55268361141073
 21
3.735168138571109
 31
0.0
  0
LINE
  5
3546
330
1E
100
AcDbEntity
  8
7
100
AcDbLine
 10
5.259376524796558
 20
3.798160264555361
 30
0.0
 11
8.460163926371361
 21
3.798160264555361
 31
0.0
  0
LINE
  5
3551
330
1E
100
AcDbEntity
  8
7
100
AcDbLine
 10
8.521187548418604
 20
3.705640579515991
 30
0.0
 11
5.196384398812306
 21
3.705640579515991
 31
0.0
  0
LINE
  5
3552
330
1E
100
AcDbEntity
  8
7
100
AcDbLine
 10
6.418825343694194
 20
4.766664201563235
 30
0.0
 11
6.05268361141073
 21
4.766664201563235
 31
0.0
  0
LINE
  5
3553
330
1E
100
AcDbEntity
  8
7
100
AcDbLine
 10
6.05268361141073
 20
6.006821681878195
 30
0.0
 11
6.05268361141073
 21
4.766664201563235
 31
0.0
  0
LINE
  5
3554
330
1E
100
AcDbEntity
  8
7
100
AcDbLine
 10
7.666856839757187
 20
6.006821681878195
 30
0.0
 11
6.05268361141073
 21
6.006821681878195
 31
0.0
  0
LINE
  5
3555
330
1E
100
AcDbEntity
  8
7
100
AcDbLine
 10
7.666856839757187
 20
6.006821681878195
 30
0.0
 11
7.666856839757187
 21
4.766664201563235
 31
0.0
  0
LINE
  5
3556
330
1E
100
AcDbEntity
  8
7
100
AcDbLine
 10
7.300715107473722
 20
4.766664201563235
 30
0.0
 11
7.666856839757187
 21
4.766664201563235
 31
0.0
  0
LINE
  5
3557
330
1E
100
AcDbEntity
  8
7
100
AcDbLine
 10
7.300715107473722
 20
4.685955540145911
 30
0.0
 11
7.300715107473722
 21
4.766664201563235
 31
0.0
  0
LINE
  5
3558
330
1E
100
AcDbEntity
  8
7
100
AcDbLine
 10
7.300715107473722
 20
4.685955540145911
 30
0.0
 11
7.05268361141073
 21
4.685955540145911
 31
0.0
  0
LINE
  5
3559
330
1E
100
AcDbEntity
  8
7
100
AcDbLine
 10
7.05268361141073
 20
4.766664201563235
 30
0.0
 11
7.05268361141073
 21
4.685955540145911
 31
0.0
  0
LINE
  5
355A
330
1E
100
AcDbEntity
  8
7
100
AcDbLine
 10
6.666856839757187
 20
4.766664201563235
 30
0.0
 11
7.05268361141073
 21
4.766664201563235
 31
0.0
  0
LINE
  5
355B
330
1E
100
AcDbEntity
  8
7
100
AcDbLine
 10
6.666856839757187
 20
4.766664201563235
 30
0.0
 11
6.666856839757187
 21
4.685955540145911
 31
0.0
  0
LINE
  5
355C
330
1E
100
AcDbEntity
  8
7
100
AcDbLine
 10
6.418825343694194
 20
4.685955540145911
 30
0.0
 11
6.666856839757187
 21
4.685955540145911
 31
0.0
  0
LINE
  5
355D
330
1E
100
AcDbEntity
  8
7
100
AcDbLine
 10
6.418825343694194
 20
4.685955540145911
 30
0.0
 11
6.418825343694194
 21
4.766664201563235
 31
0.0
  0
LINE
  5
355E
330
1E
100
AcDbEntity
  8
7
100
AcDbLine
 10
5.355833217709943
 20
3.892648453531739
 30
0.0
 11
8.363707233457974
 21
3.892648453531739
 31
0.0
  0
LINE
  5
355F
330
1E
100
AcDbEntity
  8
7
100
AcDbLine
 10
5.749534005111519
 20
4.493042154319141
 30
0.0
 11
5.749534005111519
 21
4.518632705500243
 31
0.0
  0
LINE
  5
3560
330
1E
100
AcDbEntity
  8
7
100
AcDbLine
 10
5.641266288576086
 20
4.493042154319141
 30
0.0
 11
5.749534005111519
 21
4.493042154319141
 31
0.0
  0
LINE
  5
3561
330
1E
100
AcDbEntity
  8
7
100
AcDbLine
 10
5.641266288576086
 20
4.493042154319141
 30
0.0
 11
5.641266288576086
 21
4.384774437783708
 31
0.0
  0
LINE
  5
3562
330
1E
100
AcDbEntity
  8
7
100
AcDbLine
 10
5.617644241331992
 20
4.384774437783708
 30
0.0
 11
5.641266288576086
 21
4.384774437783708
 31
0.0
  0
LINE
  5
3563
330
1E
100
AcDbEntity
  8
7
100
AcDbLine
 10
5.617644241331992
 20
4.493042154319141
 30
0.0
 11
5.617644241331992
 21
4.384774437783708
 31
0.0
  0
LINE
  5
3564
330
1E
100
AcDbEntity
  8
7
100
AcDbLine
 10
5.509376524796558
 20
4.493042154319141
 30
0.0
 11
5.617644241331992
 21
4.493042154319141
 31
0.0
  0
LINE
  5
356A
330
1E
100
AcDbEntity
  8
7
100
AcDbLine
 10
5.617644241331992
 20
4.626900422035676
 30
0.0
 11
5.617644241331992
 21
4.518632705500243
 31
0.0
  0
LINE
  5
3571
330
1E
100
AcDbEntity
  8
7
100
AcDbLine
 10
7.9700064460564
 20
4.493042154319141
 30
0.0
 11
7.9700064460564
 21
4.518632705500243
 31
0.0
  0
LINE
  5
3572
330
1E
100
AcDbEntity
  8
7
100
AcDbLine
 10
8.078274162591833
 20
4.518632705500243
 30
0.0
 11
7.9700064460564
 21
4.518632705500243
 31
0.0
  0
LINE
  5
3573
330
1E
100
AcDbEntity
  8
7
100
AcDbLine
 10
8.078274162591833
 20
4.626900422035676
 30
0.0
 11
8.078274162591833
 21
4.518632705500243
 31
0.0
  0
LINE
  5
3574
330
1E
100
AcDbEntity
  8
7
100
AcDbLine
 10
8.101896209835928
 20
4.626900422035676
 30
0.0
 11
8.078274162591833
 21
4.626900422035676
 31
0.0
  0
LINE
  5
3575
330
1E
100
AcDbEntity
  8
7
100
AcDbLine
 10
8.101896209835928
 20
4.626900422035676
 30
0.0
 11
8.101896209835928
 21
4.518632705500243
 31
0.0
  0
LINE
  5
3576
330
1E
100
AcDbEntity
  8
7
100
AcDbLine
 10
8.210163926371361
 20
4.518632705500243
 30
0.0
 11
8.101896209835928
 21
4.518632705500243
 31
0.0
  0
LINE
  5
3577
330
1E
100
AcDbEntity
  8
7
100
AcDbLine
 10
8.210163926371361
 20
4.493042154319141
 30
0.0
 11
8.210163926371361
 21
4.518632705500243
 31
0.0
  0
LINE
  5
357E
330
1E
100
AcDbEntity
  8
7
100
AcDbLine
 10
8.078274162591833
 20
4.493042154319141
 30
0.0
 11
8.078274162591833
 21
4.384774437783708
 31
0.0
  0
LINE
  5
357F
330
1E
100
AcDbEntity
  8
7
100
AcDbLine
 10
8.078274162591833
 20
4.493042154319141
 30
0.0
 11
7.9700064460564
 21
4.493042154319141
 31
0.0
  0
LINE
  5
3580
330
1E
100
AcDbEntity
  8
7
100
AcDbLine
 10
6.066463138969786
 20
5.445798059830952
 30
0.0
 11
6.05268361141073
 21
4.766664201563235
 31
0.0
  0
LINE
  5
3581
330
1E
100
AcDbEntity
  8
7
100
AcDbLine
 10
6.05268361141073
 20
6.006821681878195
 30
0.0
 11
6.066463138969786
 21
5.445798059830952
 31
0.0
  0
LINE
  5
3582
330
1E
100
AcDbEntity
  8
7
100
AcDbLine
 10
7.314494635032778
 20
5.445798059830952
 30
0.0
 11
7.314494635032778
 21
5.487136642508117
 31
0.0
  0
LINE
  5
3583
330
1E
100
AcDbEntity
  8
7
100
AcDbLine
 10
7.653077312198131
 20
5.445798059830952
 30
0.0
 11
7.314494635032778
 21
5.445798059830952
 31
0.0
  0
LINE
  5
3584
330
1E
100
AcDbEntity
  8
7
100
AcDbLine
 10
7.666856839757187
 20
6.006821681878195
 30
0.0
 11
7.653077312198131
 21
5.445798059830952
 31
0.0
  0
LINE
  5
358A
330
1E
100
AcDbEntity
  8
7
100
AcDbLine
 10
6.454258414560337
 20
5.487136642508117
 30
0.0
 11
6.454258414560337
 21
5.445798059830952
 31
0.0
  0
LINE
  5
358B
330
1E
100
AcDbEntity
  8
7
100
AcDbLine
 10
6.629455264954037
 20
5.445798059830952
 30
0.0
 11
6.454258414560337
 21
5.445798059830952
 31
0.0
  0
LINE
  5
358C
330
1E
100
AcDbEntity
  8
7
100
AcDbLine
 10
6.629455264954037
 20
5.445798059830952
 30
0.0
 11
6.629455264954037
 21
5.487136642508117
 31
0.0
  0
LINE
  5
3592
330
1E
100
AcDbEntity
  8
7
100
AcDbLine
 10
7.040872587788683
 20
5.487136642508117
 30
0.0
 11
7.038904083851676
 21
5.445798059830952
 31
0.0
  0
LINE
  5
3593
330
1E
100
AcDbEntity
  8
7
100
AcDbLine
 10
7.09008518621388
 20
5.445798059830952
 30
0.0
 11
7.09008518621388
 21
5.487136642508117
 31
0.0
  0
LINE
  5
3594
330
1E
100
AcDbEntity
  8
7
100
AcDbLine
 10
7.09008518621388
 20
5.445798059830952
 30
0.0
 11
7.265282036607581
 21
5.445798059830952
 31
0.0
  0
LINE
  5
3595
330
1E
100
AcDbEntity
  8
7
100
AcDbLine
 10
7.265282036607581
 20
5.487136642508117
 30
0.0
 11
7.265282036607581
 21
5.445798059830952
 31
0.0
  0
LINE
  5
3596
330
1E
100
AcDbEntity
  8
7
100
AcDbLine
 10
7.653077312198131
 20
5.445798059830952
 30
0.0
 11
7.666856839757187
 21
4.766664201563235
 31
0.0
  0
LINE
  5
3597
330
1E
100
AcDbEntity
  8
7
100
AcDbLine
 10
7.314494635032778
 20
5.487136642508117
 30
0.0
 11
7.265282036607581
 21
5.487136642508117
 31
0.0
  0
LINE
  5
3598
330
1E
100
AcDbEntity
  8
7
100
AcDbLine
 10
7.088116682276872
 20
5.487136642508117
 30
0.0
 11
7.09008518621388
 21
5.487136642508117
 31
0.0
  0
LINE
  5
3599
330
1E
100
AcDbEntity
  8
7
100
AcDbLine
 10
7.088116682276872
 20
5.487136642508117
 30
0.0
 11
7.040872587788683
 21
5.487136642508117
 31
0.0
  0
LINE
  5
359A
330
1E
100
AcDbEntity
  8
7
100
AcDbLine
 10
6.631423768891044
 20
5.487136642508117
 30
0.0
 11
6.629455264954037
 21
5.487136642508117
 31
0.0
  0
LINE
  5
359B
330
1E
100
AcDbEntity
  8
7
100
AcDbLine
 10
6.631423768891044
 20
5.487136642508117
 30
0.0
 11
6.678667863379235
 21
5.487136642508117
 31
0.0
  0
LINE
  5
359C
330
1E
100
AcDbEntity
  8
7
100
AcDbLine
 10
7.489691485426478
 20
5.402490973216778
 30
0.0
 11
7.489691485426478
 21
4.833593335421502
 31
0.0
  0
LINE
  5
359D
330
1E
100
AcDbEntity
  8
7
100
AcDbLine
 10
7.422762351568211
 20
4.833593335421502
 30
0.0
 11
7.422762351568211
 21
4.79028624880733
 31
0.0
  0
LINE
  5
359E
330
1E
100
AcDbEntity
  8
7
100
AcDbLine
 10
7.314494635032778
 20
5.402490973216778
 30
0.0
 11
7.314494635032778
 21
5.445798059830952
 31
0.0
  0
LINE
  5
359F
330
1E
100
AcDbEntity
  8
7
100
AcDbLine
 10
7.489691485426478
 20
5.402490973216778
 30
0.0
 11
7.314494635032778
 21
5.402490973216778
 31
0.0
  0
LINE
  5
35A0
330
1E
100
AcDbEntity
  8
7
100
AcDbLine
 10
7.489691485426478
 20
4.833593335421502
 30
0.0
 11
7.422762351568211
 21
4.833593335421502
 31
0.0
  0
LINE
  5
35A1
330
1E
100
AcDbEntity
  8
7
100
AcDbLine
 10
7.422762351568211
 20
4.79028624880733
 30
0.0
 11
7.30268361141073
 21
4.79028624880733
 31
0.0
  0
LINE
  5
35A2
330
1E
100
AcDbEntity
  8
7
100
AcDbLine
 10
7.300715107473722
 20
4.766664201563235
 30
0.0
 11
7.30268361141073
 21
4.79028624880733
 31
0.0
  0
LINE
  5
35A3
330
1E
100
AcDbEntity
  8
7
100
AcDbLine
 10
6.22984896574144
 20
5.402490973216778
 30
0.0
 11
6.22984896574144
 21
4.833593335421502
 31
0.0
  0
LINE
  5
35A4
330
1E
100
AcDbEntity
  8
7
100
AcDbLine
 10
6.296778099599707
 20
4.833593335421502
 30
0.0
 11
6.296778099599707
 21
4.79028624880733
 31
0.0
  0
LINE
  5
35AA
330
1E
100
AcDbEntity
  8
7
100
AcDbLine
 10
6.418825343694194
 20
4.766664201563235
 30
0.0
 11
6.416856839757187
 21
4.79028624880733
 31
0.0
  0
LINE
  5
35AB
330
1E
100
AcDbEntity
  8
7
100
AcDbLine
 10
6.296778099599707
 20
4.79028624880733
 30
0.0
 11
6.416856839757187
 21
4.79028624880733
 31
0.0
  0
LINE
  5
35AC
330
1E
100
AcDbEntity
  8
7
100
AcDbLine
 10
6.22984896574144
 20
4.833593335421502
 30
0.0
 11
6.296778099599707
 21
4.833593335421502
 31
0.0
  0
LINE
  5
35AD
330
1E
100
AcDbEntity
  8
7
100
AcDbLine
 10
8.078274162591833
 20
4.386742941720715
 30
0.0
 11
8.080242666528841
 21
4.39067994959473
 31
0.0
  0
LINE
  5
35AE
330
1E
100
AcDbEntity
  8
7
100
AcDbLine
 10
8.099927705898918
 20
4.386742941720715
 30
0.0
 11
8.078274162591833
 21
4.386742941720715
 31
0.0
  0
LINE
  5
35AF
330
1E
100
AcDbEntity
  8
7
100
AcDbLine
 10
8.099927705898918
 20
4.39067994959473
 30
0.0
 11
8.099927705898918
 21
4.386742941720715
 31
0.0
  0
LINE
  5
35B0
330
1E
100
AcDbEntity
  8
7
100
AcDbLine
 10
8.080242666528841
 20
4.39067994959473
 30
0.0
 11
8.099927705898918
 21
4.39067994959473
 31
0.0
  0
LINE
  5
35B1
330
1E
100
AcDbEntity
  8
7
100
AcDbLine
 10
8.204258414560337
 20
4.514695697626226
 30
0.0
 11
8.208195422434352
 21
4.516664201563235
 31
0.0
  0
LINE
  5
35B2
330
1E
100
AcDbEntity
  8
7
100
AcDbLine
 10
8.204258414560337
 20
4.495010658256148
 30
0.0
 11
8.204258414560337
 21
4.514695697626226
 31
0.0
  0
LINE
  5
35B3
330
1E
100
AcDbEntity
  8
7
100
AcDbLine
 10
8.208195422434352
 20
4.495010658256148
 30
0.0
 11
8.204258414560337
 21
4.495010658256148
 31
0.0
  0
LINE
  5
35B4
330
1E
100
AcDbEntity
  8
7
100
AcDbLine
 10
8.208195422434352
 20
4.516664201563235
 30
0.0
 11
8.208195422434352
 21
4.495010658256148
 31
0.0
  0
LINE
  5
35B5
330
1E
100
AcDbEntity
  8
7
100
AcDbLine
 10
8.080242666528841
 20
4.620994910224652
 30
0.0
 11
8.078274162591833
 21
4.624931918098667
 31
0.0
  0
LINE
  5
35B6
330
1E
100
AcDbEntity
  8
7
100
AcDbLine
 10
8.099927705898918
 20
4.620994910224652
 30
0.0
 11
8.080242666528841
 21
4.620994910224652
 31
0.0
  0
LINE
  5
35B7
330
1E
100
AcDbEntity
  8
7
100
AcDbLine
 10
8.099927705898918
 20
4.624931918098667
 30
0.0
 11
8.099927705898918
 21
4.620994910224652
 31
0.0
  0
LINE
  5
35B8
330
1E
100
AcDbEntity
  8
7
100
AcDbLine
 10
8.078274162591833
 20
4.624931918098667
 30
0.0
 11
8.099927705898918
 21
4.624931918098667
 31
0.0
  0
LINE
  5
35B9
330
1E
100
AcDbEntity
  8
7
100
AcDbLine
 10
8.099927705898918
 20
4.495010658256148
 30
0.0
 11
8.099927705898918
 21
4.39067994959473
 31
0.0
  0
LINE
  5
35BA
330
1E
100
AcDbEntity
  8
7
100
AcDbLine
 10
8.204258414560337
 20
4.495010658256148
 30
0.0
 11
8.099927705898918
 21
4.495010658256148
 31
0.0
  0
LINE
  5
35BB
330
1E
100
AcDbEntity
  8
7
100
AcDbLine
 10
8.204258414560337
 20
4.514695697626226
 30
0.0
 11
8.099927705898918
 21
4.514695697626226
 31
0.0
  0
LINE
  5
35BC
330
1E
100
AcDbEntity
  8
7
100
AcDbLine
 10
8.099927705898918
 20
4.620994910224652
 30
0.0
 11
8.099927705898918
 21
4.514695697626226
 31
0.0
  0
LINE
  5
35C3
330
1E
100
AcDbEntity
  8
7
100
AcDbLine
 10
8.080242666528841
 20
4.495010658256148
 30
0.0
 11
7.973943453930415
 21
4.495010658256148
 31
0.0
  0
LINE
  5
35C4
330
1E
100
AcDbEntity
  8
7
100
AcDbLine
 10
8.080242666528841
 20
4.495010658256148
 30
0.0
 11
8.080242666528841
 21
4.39067994959473
 31
0.0
  0
LINE
  5
35C5
330
1E
100
AcDbEntity
  8
7
100
AcDbLine
 10
7.971974949993407
 20
4.516664201563235
 30
0.0
 11
7.973943453930415
 21
4.514695697626226
 31
0.0
  0
LINE
  5
35C6
330
1E
100
AcDbEntity
  8
7
100
AcDbLine
 10
7.971974949993407
 20
4.495010658256148
 30
0.0
 11
7.971974949993407
 21
4.516664201563235
 31
0.0
  0
LINE
  5
35C7
330
1E
100
AcDbEntity
  8
7
100
AcDbLine
 10
7.973943453930415
 20
4.495010658256148
 30
0.0
 11
7.971974949993407
 21
4.495010658256148
 31
0.0
  0
LINE
  5
35C8
330
1E
100
AcDbEntity
  8
7
100
AcDbLine
 10
8.078274162591833
 20
4.493042154319141
 30
0.0
 11
8.080242666528841
 21
4.495010658256148
 31
0.0
  0
LINE
  5
35C9
330
1E
100
AcDbEntity
  8
7
100
AcDbLine
 10
7.9700064460564
 20
4.493042154319141
 30
0.0
 11
7.971974949993407
 21
4.495010658256148
 31
0.0
  0
LINE
  5
35CA
330
1E
100
AcDbEntity
  8
7
100
AcDbLine
 10
8.078274162591833
 20
4.384774437783708
 30
0.0
 11
8.078274162591833
 21
4.386742941720715
 31
0.0
  0
LINE
  5
35CB
330
1E
100
AcDbEntity
  8
7
100
AcDbLine
 10
8.101896209835928
 20
4.384774437783708
 30
0.0
 11
8.099927705898918
 21
4.386742941720715
 31
0.0
  0
LINE
  5
35CC
330
1E
100
AcDbEntity
  8
7
100
AcDbLine
 10
8.099927705898918
 20
4.495010658256148
 30
0.0
 11
8.101896209835928
 21
4.493042154319141
 31
0.0
  0
LINE
  5
35CD
330
1E
100
AcDbEntity
  8
7
100
AcDbLine
 10
8.210163926371361
 20
4.493042154319141
 30
0.0
 11
8.208195422434352
 21
4.495010658256148
 31
0.0
  0
LINE
  5
35CE
330
1E
100
AcDbEntity
  8
7
100
AcDbLine
 10
8.210163926371361
 20
4.518632705500243
 30
0.0
 11
8.208195422434352
 21
4.516664201563235
 31
0.0
  0
LINE
  5
35CF
330
1E
100
AcDbEntity
  8
7
100
AcDbLine
 10
8.101896209835928
 20
4.518632705500243
 30
0.0
 11
8.099927705898918
 21
4.514695697626226
 31
0.0
  0
LINE
  5
35D0
330
1E
100
AcDbEntity
  8
7
100
AcDbLine
 10
8.101896209835928
 20
4.626900422035676
 30
0.0
 11
8.099927705898918
 21
4.624931918098667
 31
0.0
  0
LINE
  5
35D1
330
1E
100
AcDbEntity
  8
7
100
AcDbLine
 10
8.078274162591833
 20
4.626900422035676
 30
0.0
 11
8.078274162591833
 21
4.624931918098667
 31
0.0
  0
LINE
  5
35D2
330
1E
100
AcDbEntity
  8
7
100
AcDbLine
 10
8.080242666528841
 20
4.514695697626226
 30
0.0
 11
8.078274162591833
 21
4.518632705500243
 31
0.0
  0
LINE
  5
35D3
330
1E
100
AcDbEntity
  8
7
100
AcDbLine
 10
7.9700064460564
 20
4.518632705500243
 30
0.0
 11
7.971974949993407
 21
4.516664201563235
 31
0.0
  0
LINE
  5
35D4
330
1E
100
AcDbEntity
  8
7
100
AcDbLine
 10
8.442447390938289
 20
3.815876799988432
 30
0.0
 11
5.277093060229629
 21
3.815876799988432
 31
0.0
  0
LINE
  5
35EA
330
1E
100
AcDbEntity
  8
7
100
AcDbLine
 10
5.619612745268999
 20
4.495010658256148
 30
0.0
 11
5.619612745268999
 21
4.39067994959473
 31
0.0
  0
LINE
  5
35EB
330
1E
100
AcDbEntity
  8
7
100
AcDbLine
 10
5.639297784639077
 20
4.495010658256148
 30
0.0
 11
5.639297784639077
 21
4.39067994959473
 31
0.0
  0
LINE
  5
35EC
330
1E
100
AcDbEntity
  8
7
100
AcDbLine
 10
5.639297784639077
 20
4.495010658256148
 30
0.0
 11
5.743628493300495
 21
4.495010658256148
 31
0.0
  0
LINE
  5
35ED
330
1E
100
AcDbEntity
  8
7
100
AcDbLine
 10
5.743628493300495
 20
4.514695697626226
 30
0.0
 11
5.743628493300495
 21
4.495010658256148
 31
0.0
  0
LINE
  5
35EE
330
1E
100
AcDbEntity
  8
7
100
AcDbLine
 10
5.639297784639077
 20
4.514695697626226
 30
0.0
 11
5.743628493300495
 21
4.514695697626226
 31
0.0
  0
LINE
  5
35EF
330
1E
100
AcDbEntity
  8
7
100
AcDbLine
 10
5.639297784639077
 20
4.620994910224652
 30
0.0
 11
5.639297784639077
 21
4.514695697626226
 31
0.0
  0
LINE
  5
35F0
330
1E
100
AcDbEntity
  8
7
100
AcDbLine
 10
5.619612745268999
 20
4.620994910224652
 30
0.0
 11
5.619612745268999
 21
4.514695697626226
 31
0.0
  0
LINE
  5
35F1
330
1E
100
AcDbEntity
  8
7
100
AcDbLine
 10
5.515282036607582
 20
4.514695697626226
 30
0.0
 11
5.619612745268999
 21
4.514695697626226
 31
0.0
  0
LINE
  5
35F2
330
1E
100
AcDbEntity
  8
7
100
AcDbLine
 10
5.515282036607582
 20
4.495010658256148
 30
0.0
 11
5.619612745268999
 21
4.495010658256148
 31
0.0
  0
LINE
  5
35F3
330
1E
100
AcDbEntity
  8
7
100
AcDbLine
 10
5.74756550117451
 20
4.516664201563235
 30
0.0
 11
5.743628493300495
 21
4.514695697626226
 31
0.0
  0
LINE
  5
35F9
330
1E
100
AcDbEntity
  8
7
100
AcDbLine
 10
5.749534005111519
 20
4.518632705500243
 30
0.0
 11
5.74756550117451
 21
4.516664201563235
 31
0.0
  0
LINE
  5
35FA
330
1E
100
AcDbEntity
  8
7
100
AcDbLine
 10
5.639297784639077
 20
4.514695697626226
 30
0.0
 11
5.641266288576086
 21
4.518632705500243
 31
0.0
  0
LINE
  5
35FB
330
1E
100
AcDbEntity
  8
7
100
AcDbLine
 10
5.641266288576086
 20
4.626900422035676
 30
0.0
 11
5.639297784639077
 21
4.624931918098667
 31
0.0
  0
LINE
  5
35FC
330
1E
100
AcDbEntity
  8
7
100
AcDbLine
 10
5.617644241331992
 20
4.626900422035676
 30
0.0
 11
5.619612745268999
 21
4.624931918098667
 31
0.0
  0
LINE
  5
35FD
330
1E
100
AcDbEntity
  8
7
100
AcDbLine
 10
5.617644241331992
 20
4.518632705500243
 30
0.0
 11
5.619612745268999
 21
4.514695697626226
 31
0.0
  0
LINE
  5
35FE
330
1E
100
AcDbEntity
  8
7
100
AcDbLine
 10
5.509376524796558
 20
4.518632705500243
 30
0.0
 11
5.511345028733566
 21
4.516664201563235
 31
0.0
  0
LINE
  5
35FF
330
1E
100
AcDbEntity
  8
7
100
AcDbLine
 10
5.509376524796558
 20
4.493042154319141
 30
0.0
 11
5.511345028733566
 21
4.495010658256148
 31
0.0
  0
LINE
  5
3600
330
1E
100
AcDbEntity
  8
7
100
AcDbLine
 10
5.619612745268999
 20
4.495010658256148
 30
0.0
 11
5.617644241331992
 21
4.493042154319141
 31
0.0
  0
LINE
  5
3601
330
1E
100
AcDbEntity
  8
7
100
AcDbLine
 10
5.617644241331992
 20
4.384774437783708
 30
0.0
 11
5.619612745268999
 21
4.386742941720715
 31
0.0
  0
LINE
  5
3602
330
1E
100
AcDbEntity
  8
7
100
AcDbLine
 10
5.641266288576086
 20
4.384774437783708
 30
0.0
 11
5.639297784639077
 21
4.386742941720715
 31
0.0
  0
LINE
  5
3603
330
1E
100
AcDbEntity
  8
7
100
AcDbLine
 10
5.641266288576086
 20
4.493042154319141
 30
0.0
 11
5.639297784639077
 21
4.495010658256148
 31
0.0
  0
LINE
  5
3604
330
1E
100
AcDbEntity
  8
7
100
AcDbLine
 10
5.749534005111519
 20
4.493042154319141
 30
0.0
 11
5.74756550117451
 21
4.495010658256148
 31
0.0
  0
LINE
  5
3605
330
1E
100
AcDbEntity
  8
7
100
AcDbLine
 10
7.078274162591833
 20
5.02060120943725
 30
0.0
 11
7.080242666528841
 21
5.024538217311267
 31
0.0
  0
LINE
  5
3606
330
1E
100
AcDbEntity
  8
7
100
AcDbLine
 10
7.27512455629262
 20
5.02060120943725
 30
0.0
 11
7.078274162591833
 21
5.02060120943725
 31
0.0
  0
LINE
  5
3607
330
1E
100
AcDbEntity
  8
7
100
AcDbLine
 10
7.27512455629262
 20
5.024538217311267
 30
0.0
 11
7.27512455629262
 21
5.02060120943725
 31
0.0
  0
LINE
  5
3608
330
1E
100
AcDbEntity
  8
7
100
AcDbLine
 10
7.080242666528841
 20
5.024538217311267
 30
0.0
 11
7.27512455629262
 21
5.024538217311267
 31
0.0
  0
LINE
  5
3609
330
1E
100
AcDbEntity
  8
7
100
AcDbLine
 10
7.080242666528841
 20
5.024538217311267
 30
0.0
 11
7.084179674402856
 21
5.028475225185282
 31
0.0
  0
LINE
  5
360F
330
1E
100
AcDbEntity
  8
7
100
AcDbLine
 10
7.271187548418604
 20
5.044223256681345
 30
0.0
 11
7.271187548418604
 21
5.028475225185282
 31
0.0
  0
LINE
  5
3610
330
1E
100
AcDbEntity
  8
7
100
AcDbLine
 10
7.084179674402856
 20
5.044223256681345
 30
0.0
 11
7.271187548418604
 21
5.044223256681345
 31
0.0
  0
LINE
  5
361C
330
1E
100
AcDbEntity
  8
7
100
AcDbLine
 10
7.271187548418604
 20
5.079656327547487
 30
0.0
 11
7.271187548418604
 21
5.065876799988432
 31
0.0
  0
LINE
  5
3622
330
1E
100
AcDbEntity
  8
7
100
AcDbLine
 10
7.070400146843802
 20
5.093435855106541
 30
0.0
 11
7.282998572040652
 21
5.093435855106541
 31
0.0
  0
LINE
  5
3623
330
1E
100
AcDbEntity
  8
7
100
AcDbLine
 10
7.084179674402856
 20
5.079656327547487
 30
0.0
 11
7.070400146843802
 21
5.093435855106541
 31
0.0
  0
LINE
  5
3624
330
1E
100
AcDbEntity
  8
7
100
AcDbLine
 10
7.282998572040652
 20
5.093435855106541
 30
0.0
 11
7.284967075977659
 21
5.075719319673471
 31
0.0
  0
LINE
  5
362A
330
1E
100
AcDbEntity
  8
7
100
AcDbLine
 10
7.284967075977659
 20
5.067845303925439
 30
0.0
 11
7.284967075977659
 21
5.075719319673471
 31
0.0
  0
LINE
  5
362B
330
1E
100
AcDbEntity
  8
7
100
AcDbLine
 10
7.068431642906793
 20
5.067845303925439
 30
0.0
 11
7.068431642906793
 21
5.065876799988432
 31
0.0
  0
LINE
  5
362C
330
1E
100
AcDbEntity
  8
7
100
AcDbLine
 10
7.284967075977659
 20
5.067845303925439
 30
0.0
 11
7.284967075977659
 21
5.065876799988432
 31
0.0
  0
LINE
  5
362D
330
1E
100
AcDbEntity
  8
7
100
AcDbLine
 10
7.068431642906793
 20
5.065876799988432
 30
0.0
 11
7.068431642906793
 21
5.063908296051424
 31
0.0
  0
LINE
  5
362E
330
1E
100
AcDbEntity
  8
7
100
AcDbLine
 10
7.284967075977659
 20
5.063908296051424
 30
0.0
 11
7.284967075977659
 21
5.065876799988432
 31
0.0
  0
LINE
  5
362F
330
1E
100
AcDbEntity
  8
7
100
AcDbLine
 10
7.070400146843802
 20
5.042254752744337
 30
0.0
 11
7.068431642906793
 21
5.063908296051424
 31
0.0
  0
LINE
  5
3630
330
1E
100
AcDbEntity
  8
7
100
AcDbLine
 10
7.282998572040652
 20
5.042254752744337
 30
0.0
 11
7.284967075977659
 21
5.063908296051424
 31
0.0
  0
LINE
  5
3631
330
1E
100
AcDbEntity
  8
7
100
AcDbLine
 10
7.282998572040652
 20
5.042254752744337
 30
0.0
 11
7.282998572040652
 21
5.028475225185282
 31
0.0
  0
LINE
  5
3632
330
1E
100
AcDbEntity
  8
7
100
AcDbLine
 10
7.070400146843802
 20
5.042254752744337
 30
0.0
 11
7.070400146843802
 21
5.028475225185282
 31
0.0
  0
LINE
  5
3633
330
1E
100
AcDbEntity
  8
7
100
AcDbLine
 10
7.070400146843802
 20
5.006821681878195
 30
0.0
 11
7.05268361141073
 21
4.79028624880733
 31
0.0
  0
LINE
  5
3634
330
1E
100
AcDbEntity
  8
7
100
AcDbLine
 10
7.282998572040652
 20
5.006821681878195
 30
0.0
 11
7.30268361141073
 21
4.79028624880733
 31
0.0
  0
LINE
  5
363A
330
1E
100
AcDbEntity
  8
7
100
AcDbLine
 10
7.05268361141073
 20
4.685955540145911
 30
0.0
 11
7.078274162591833
 21
5.02060120943725
 31
0.0
  0
LINE
  5
363B
330
1E
100
AcDbEntity
  8
7
100
AcDbLine
 10
7.070400146843802
 20
5.028475225185282
 30
0.0
 11
7.070400146843802
 21
5.006821681878195
 31
0.0
  0
LINE
  5
363C
330
1E
100
AcDbEntity
  8
7
100
AcDbLine
 10
7.05268361141073
 20
4.766664201563235
 30
0.0
 11
7.05268361141073
 21
4.79028624880733
 31
0.0
  0
LINE
  5
363D
330
1E
100
AcDbEntity
  8
7
100
AcDbLine
 10
7.300715107473722
 20
4.685955540145911
 30
0.0
 11
7.27512455629262
 21
5.02060120943725
 31
0.0
  0
LINE
  5
363E
330
1E
100
AcDbEntity
  8
7
100
AcDbLine
 10
7.282998572040652
 20
5.006821681878195
 30
0.0
 11
7.282998572040652
 21
5.028475225185282
 31
0.0
  0
LINE
  5
363F
330
1E
100
AcDbEntity
  8
7
100
AcDbLine
 10
6.93260487125325
 20
4.833593335421502
 30
0.0
 11
6.786935579914667
 21
4.833593335421502
 31
0.0
  0
LINE
  5
3640
330
1E
100
AcDbEntity
  8
7
100
AcDbLine
 10
6.786935579914667
 20
4.79028624880733
 30
0.0
 11
6.786935579914667
 21
4.833593335421502
 31
0.0
  0
LINE
  5
3641
330
1E
100
AcDbEntity
  8
7
100
AcDbLine
 10
6.666856839757187
 20
4.79028624880733
 30
0.0
 11
6.786935579914667
 21
4.79028624880733
 31
0.0
  0
LINE
  5
3642
330
1E
100
AcDbEntity
  8
7
100
AcDbLine
 10
6.666856839757187
 20
4.766664201563235
 30
0.0
 11
6.666856839757187
 21
4.79028624880733
 31
0.0
  0
LINE
  5
364A
330
1E
100
AcDbEntity
  8
7
100
AcDbLine
 10
6.639297784639076
 20
5.024538217311267
 30
0.0
 11
6.635360776765061
 21
5.028475225185282
 31
0.0
  0
LINE
  5
364B
330
1E
100
AcDbEntity
  8
7
100
AcDbLine
 10
6.448352902749313
 20
5.028475225185282
 30
0.0
 11
6.635360776765061
 21
5.028475225185282
 31
0.0
  0
LINE
  5
364C
330
1E
100
AcDbEntity
  8
7
100
AcDbLine
 10
6.444415894875298
 20
5.024538217311267
 30
0.0
 11
6.448352902749313
 21
5.028475225185282
 31
0.0
  0
LINE
  5
364D
330
1E
100
AcDbEntity
  8
7
100
AcDbLine
 10
6.448352902749313
 20
5.044223256681345
 30
0.0
 11
6.448352902749313
 21
5.028475225185282
 31
0.0
  0
LINE
  5
3653
330
1E
100
AcDbEntity
  8
7
100
AcDbLine
 10
6.635360776765061
 20
5.044223256681345
 30
0.0
 11
6.635360776765061
 21
5.065876799988432
 31
0.0
  0
LINE
  5
3654
330
1E
100
AcDbEntity
  8
7
100
AcDbLine
 10
6.448352902749313
 20
5.065876799988432
 30
0.0
 11
6.635360776765061
 21
5.065876799988432
 31
0.0
  0
LINE
  5
3655
330
1E
100
AcDbEntity
  8
7
100
AcDbLine
 10
6.448352902749313
 20
5.044223256681345
 30
0.0
 11
6.448352902749313
 21
5.065876799988432
 31
0.0
  0
LINE
  5
365B
330
1E
100
AcDbEntity
  8
7
100
AcDbLine
 10
6.448352902749313
 20
5.079656327547487
 30
0.0
 11
6.448352902749313
 21
5.065876799988432
 31
0.0
  0
LINE
  5
365C
330
1E
100
AcDbEntity
  8
7
100
AcDbLine
 10
6.448352902749313
 20
5.079656327547487
 30
0.0
 11
6.436541879127267
 21
5.093435855106541
 31
0.0
  0
LINE
  5
3668
330
1E
100
AcDbEntity
  8
7
100
AcDbLine
 10
6.434573375190257
 20
5.067845303925439
 30
0.0
 11
6.434573375190257
 21
5.075719319673471
 31
0.0
  0
LINE
  5
3669
330
1E
100
AcDbEntity
  8
7
100
AcDbLine
 10
6.651108808261124
 20
5.067845303925439
 30
0.0
 11
6.651108808261124
 21
5.065876799988432
 31
0.0
  0
LINE
  5
366A
330
1E
100
AcDbEntity
  8
7
100
AcDbLine
 10
6.434573375190257
 20
5.067845303925439
 30
0.0
 11
6.434573375190257
 21
5.065876799988432
 31
0.0
  0
LINE
  5
366B
330
1E
100
AcDbEntity
  8
7
100
AcDbLine
 10
6.651108808261124
 20
5.065876799988432
 30
0.0
 11
6.649140304324117
 21
5.063908296051424
 31
0.0
  0
LINE
  5
366C
330
1E
100
AcDbEntity
  8
7
100
AcDbLine
 10
6.434573375190257
 20
5.063908296051424
 30
0.0
 11
6.434573375190257
 21
5.065876799988432
 31
0.0
  0
LINE
  5
366D
330
1E
100
AcDbEntity
  8
7
100
AcDbLine
 10
6.649140304324117
 20
5.042254752744337
 30
0.0
 11
6.649140304324117
 21
5.063908296051424
 31
0.0
  0
LINE
  5
366E
330
1E
100
AcDbEntity
  8
7
100
AcDbLine
 10
6.436541879127267
 20
5.042254752744337
 30
0.0
 11
6.434573375190257
 21
5.063908296051424
 31
0.0
  0
LINE
  5
366F
330
1E
100
AcDbEntity
  8
7
100
AcDbLine
 10
6.649140304324117
 20
5.042254752744337
 30
0.0
 11
6.649140304324117
 21
5.028475225185282
 31
0.0
  0
LINE
  5
3670
330
1E
100
AcDbEntity
  8
7
100
AcDbLine
 10
6.436541879127267
 20
5.042254752744337
 30
0.0
 11
6.436541879127267
 21
5.028475225185282
 31
0.0
  0
LINE
  5
3671
330
1E
100
AcDbEntity
  8
7
100
AcDbLine
 10
6.436541879127267
 20
5.006821681878195
 30
0.0
 11
6.416856839757187
 21
4.79028624880733
 31
0.0
  0
LINE
  5
3672
330
1E
100
AcDbEntity
  8
7
100
AcDbLine
 10
6.649140304324117
 20
5.006821681878195
 30
0.0
 11
6.666856839757187
 21
4.79028624880733
 31
0.0
  0
LINE
  5
3673
330
1E
100
AcDbEntity
  8
7
100
AcDbLine
 10
6.666856839757187
 20
4.685955540145911
 30
0.0
 11
6.641266288576085
 21
5.02060120943725
 31
0.0
  0
LINE
  5
3674
330
1E
100
AcDbEntity
  8
7
100
AcDbLine
 10
6.649140304324117
 20
5.006821681878195
 30
0.0
 11
6.649140304324117
 21
5.028475225185282
 31
0.0
  0
LINE
  5
3675
330
1E
100
AcDbEntity
  8
7
100
AcDbLine
 10
6.418825343694194
 20
4.685955540145911
 30
0.0
 11
6.444415894875298
 21
5.02060120943725
 31
0.0
  0
LINE
  5
3676
330
1E
100
AcDbEntity
  8
7
100
AcDbLine
 10
6.436541879127267
 20
5.028475225185282
 30
0.0
 11
6.436541879127267
 21
5.006821681878195
 31
0.0
  0
LINE
  5
3677
330
1E
100
AcDbEntity
  8
7
100
AcDbLine
 10
7.265282036607581
 20
5.359183886602604
 30
0.0
 11
7.09008518621388
 21
5.359183886602604
 31
0.0
  0
LINE
  5
3678
330
1E
100
AcDbEntity
  8
7
100
AcDbLine
 10
7.09008518621388
 20
5.349341366917565
 30
0.0
 11
7.09008518621388
 21
5.359183886602604
 31
0.0
  0
LINE
  5
3679
330
1E
100
AcDbEntity
  8
7
100
AcDbLine
 10
7.265282036607581
 20
5.349341366917565
 30
0.0
 11
7.09008518621388
 21
5.349341366917565
 31
0.0
  0
LINE
  5
367A
330
1E
100
AcDbEntity
  8
7
100
AcDbLine
 10
7.265282036607581
 20
5.349341366917565
 30
0.0
 11
7.265282036607581
 21
5.359183886602604
 31
0.0
  0
LINE
  5
367B
330
1E
100
AcDbEntity
  8
7
100
AcDbLine
 10
7.09008518621388
 20
5.408396485027802
 30
0.0
 11
7.265282036607581
 21
5.408396485027802
 31
0.0
  0
LINE
  5
3681
330
1E
100
AcDbEntity
  8
7
100
AcDbLine
 10
7.265282036607581
 20
5.382805933846698
 30
0.0
 11
7.09008518621388
 21
5.382805933846698
 31
0.0
  0
LINE
  5
3688
330
1E
100
AcDbEntity
  8
7
100
AcDbLine
 10
7.09008518621388
 20
5.359183886602604
 30
0.0
 11
7.09008518621388
 21
5.382805933846698
 31
0.0
  0
LINE
  5
3698
330
1E
100
AcDbEntity
  8
7
100
AcDbLine
 10
6.454258414560337
 20
5.349341366917565
 30
0.0
 11
6.454258414560337
 21
5.359183886602604
 31
0.0
  0
LINE
  5
369E
330
1E
100
AcDbEntity
  8
7
100
AcDbLine
 10
7.265282036607581
 20
5.42808152439788
 30
0.0
 11
7.09008518621388
 21
5.42808152439788
 31
0.0
  0
LINE
  5
369F
330
1E
100
AcDbEntity
  8
7
100
AcDbLine
 10
7.265282036607581
 20
5.445798059830952
 30
0.0
 11
7.265282036607581
 21
5.42808152439788
 31
0.0
  0
LINE
  5
36A0
330
1E
100
AcDbEntity
  8
7
100
AcDbLine
 10
7.09008518621388
 20
5.42808152439788
 30
0.0
 11
7.09008518621388
 21
5.445798059830952
 31
0.0
  0
LINE
  5
36A6
330
1E
100
AcDbEntity
  8
7
100
AcDbLine
 10
7.265282036607581
 20
5.42808152439788
 30
0.0
 11
7.265282036607581
 21
5.426113020460872
 31
0.0
  0
LINE
  5
36A7
330
1E
100
AcDbEntity
  8
7
100
AcDbLine
 10
7.09008518621388
 20
5.408396485027802
 30
0.0
 11
7.09008518621388
 21
5.416270500775834
 31
0.0
  0
LINE
  5
36AD
330
1E
100
AcDbEntity
  8
7
100
AcDbLine
 10
7.088116682276872
 20
5.426113020460872
 30
0.0
 11
7.088116682276872
 21
5.416270500775834
 31
0.0
  0
LINE
  5
36AE
330
1E
100
AcDbEntity
  8
7
100
AcDbLine
 10
6.629455264954037
 20
5.408396485027802
 30
0.0
 11
6.629455264954037
 21
5.416270500775834
 31
0.0
  0
LINE
  5
36AF
330
1E
100
AcDbEntity
  8
7
100
AcDbLine
 10
6.631423768891044
 20
5.426113020460872
 30
0.0
 11
6.631423768891044
 21
5.416270500775834
 31
0.0
  0
LINE
  5
36B0
330
1E
100
AcDbEntity
  8
7
100
AcDbLine
 10
6.631423768891044
 20
5.426113020460872
 30
0.0
 11
6.454258414560337
 21
5.426113020460872
 31
0.0
  0
LINE
  5
36B1
330
1E
100
AcDbEntity
  8
7
100
AcDbLine
 10
6.454258414560337
 20
5.416270500775834
 30
0.0
 11
6.454258414560337
 21
5.426113020460872
 31
0.0
  0
LINE
  5
36B2
330
1E
100
AcDbEntity
  8
7
100
AcDbLine
 10
6.454258414560337
 20
5.408396485027802
 30
0.0
 11
6.454258414560337
 21
5.416270500775834
 31
0.0
  0
LINE
  5
36B8
330
1E
100
AcDbEntity
  8
7
100
AcDbLine
 10
6.454258414560337
 20
5.445798059830952
 30
0.0
 11
6.454258414560337
 21
5.42808152439788
 31
0.0
  0
LINE
  5
36B9
330
1E
100
AcDbEntity
  8
7
100
AcDbLine
 10
6.629455264954037
 20
5.42808152439788
 30
0.0
 11
6.631423768891044
 21
5.426113020460872
 31
0.0
  0
LINE
  5
36BA
330
1E
100
AcDbEntity
  8
7
100
AcDbLine
 10
6.454258414560337
 20
5.42808152439788
 30
0.0
 11
6.454258414560337
 21
5.426113020460872
 31
0.0
  0
LINE
  5
36BB
330
1E
100
AcDbEntity
  8
7
100
AcDbLine
 10
6.678667863379235
 20
5.445798059830952
 30
0.0
 11
6.678667863379235
 21
5.402490973216778
 31
0.0
  0
LINE
  5
36BC
330
1E
100
AcDbEntity
  8
7
100
AcDbLine
 10
7.040872587788683
 20
5.402490973216778
 30
0.0
 11
6.678667863379235
 21
5.402490973216778
 31
0.0
  0
LINE
  5
36BD
330
1E
100
AcDbEntity
  8
7
100
AcDbLine
 10
7.038904083851676
 20
5.445798059830952
 30
0.0
 11
7.040872587788683
 21
5.402490973216778
 31
0.0
  0
LINE
  5
36BE
330
1E
100
AcDbEntity
  8
7
100
AcDbLine
 10
7.314494635032778
 20
5.416270500775834
 30
0.0
 11
7.314494635032778
 21
5.487136642508117
 31
0.0
  0
LINE
  5
36BF
330
1E
100
AcDbEntity
  8
7
100
AcDbLine
 10
7.265282036607581
 20
5.487136642508117
 30
0.0
 11
7.265282036607581
 21
5.416270500775834
 31
0.0
  0
LINE
  5
36C0
330
1E
100
AcDbEntity
  8
7
100
AcDbLine
 10
7.314494635032778
 20
5.416270500775834
 30
0.0
 11
7.265282036607581
 21
5.416270500775834
 31
0.0
  0
LINE
  5
36C1
330
1E
100
AcDbEntity
  8
7
100
AcDbLine
 10
7.088116682276872
 20
5.416270500775834
 30
0.0
 11
7.088116682276872
 21
5.487136642508117
 31
0.0
  0
LINE
  5
36C2
330
1E
100
AcDbEntity
  8
7
100
AcDbLine
 10
7.040872587788683
 20
5.487136642508117
 30
0.0
 11
7.040872587788683
 21
5.416270500775834
 31
0.0
  0
LINE
  5
36C3
330
1E
100
AcDbEntity
  8
7
100
AcDbLine
 10
7.09008518621388
 20
5.416270500775834
 30
0.0
 11
7.040872587788683
 21
5.416270500775834
 31
0.0
  0
LINE
  5
36C4
330
1E
100
AcDbEntity
  8
7
100
AcDbLine
 10
7.040872587788683
 20
5.402490973216778
 30
0.0
 11
7.040872587788683
 21
5.416270500775834
 31
0.0
  0
LINE
  5
36C5
330
1E
100
AcDbEntity
  8
7
100
AcDbLine
 10
6.678667863379235
 20
5.402490973216778
 30
0.0
 11
6.678667863379235
 21
5.416270500775834
 31
0.0
  0
LINE
  5
36C6
330
1E
100
AcDbEntity
  8
7
100
AcDbLine
 10
6.678667863379235
 20
5.487136642508117
 30
0.0
 11
6.678667863379235
 21
5.416270500775834
 31
0.0
  0
LINE
  5
36C7
330
1E
100
AcDbEntity
  8
7
100
AcDbLine
 10
6.631423768891044
 20
5.416270500775834
 30
0.0
 11
6.631423768891044
 21
5.487136642508117
 31
0.0
  0
LINE
  5
36C8
330
1E
100
AcDbEntity
  8
7
100
AcDbLine
 10
6.629455264954037
 20
5.416270500775834
 30
0.0
 11
6.678667863379235
 21
5.416270500775834
 31
0.0
  0
LINE
  5
36C9
330
1E
100
AcDbEntity
  8
7
100
AcDbLine
 10
6.454258414560337
 20
5.487136642508117
 30
0.0
 11
6.454258414560337
 21
5.416270500775834
 31
0.0
  0
LINE
  5
36CA
330
1E
100
AcDbEntity
  8
7
100
AcDbLine
 10
6.405045816135139
 20
5.416270500775834
 30
0.0
 11
6.405045816135139
 21
5.487136642508117
 31
0.0
  0
LINE
  5
36CB
330
1E
100
AcDbEntity
  8
7
100
AcDbLine
 10
6.405045816135139
 20
5.416270500775834
 30
0.0
 11
6.454258414560337
 21
5.416270500775834
 31
0.0
  0
LINE
  5
36CC
330
1E
100
AcDbEntity
  8
7
100
AcDbLine
 10
6.405045816135139
 20
5.487136642508117
 30
0.0
 11
6.454258414560337
 21
5.487136642508117
 31
0.0
  0
LINE
  5
36CD
330
1E
100
AcDbEntity
  8
7
100
AcDbLine
 10
7.314494635032778
 20
5.402490973216778
 30
0.0
 11
7.314494635032778
 21
5.416270500775834
 31
0.0
  0
LINE
  5
36CE
330
1E
100
AcDbEntity
  8
7
100
AcDbLine
 10
7.076305658654824
 20
5.382805933846698
 30
0.0
 11
7.076305658654824
 21
5.357215382665597
 31
0.0
  0
LINE
  5
36CF
330
1E
100
AcDbEntity
  8
7
100
AcDbLine
 10
7.265282036607581
 20
5.382805933846698
 30
0.0
 11
7.277093060229628
 21
5.382805933846698
 31
0.0
  0
LINE
  5
36D0
330
1E
100
AcDbEntity
  8
7
100
AcDbLine
 10
7.076305658654824
 20
5.382805933846698
 30
0.0
 11
7.09008518621388
 21
5.382805933846698
 31
0.0
  0
LINE
  5
36D1
330
1E
100
AcDbEntity
  8
7
100
AcDbLine
 10
7.279061564166635
 20
5.357215382665597
 30
0.0
 11
7.277093060229628
 21
5.382805933846698
 31
0.0
  0
LINE
  5
36D2
330
1E
100
AcDbEntity
  8
7
100
AcDbLine
 10
7.279061564166635
 20
5.357215382665597
 30
0.0
 11
7.489691485426478
 21
5.357215382665597
 31
0.0
  0
LINE
  5
36D3
330
1E
100
AcDbEntity
  8
7
100
AcDbLine
 10
6.440478887001281
 20
5.357215382665597
 30
0.0
 11
6.440478887001281
 21
5.382805933846698
 31
0.0
  0
LINE
  5
36D4
330
1E
100
AcDbEntity
  8
7
100
AcDbLine
 10
6.643234792513093
 20
5.382805933846698
 30
0.0
 11
6.629455264954037
 21
5.382805933846698
 31
0.0
  0
LINE
  5
36D5
330
1E
100
AcDbEntity
  8
7
100
AcDbLine
 10
6.454258414560337
 20
5.382805933846698
 30
0.0
 11
6.440478887001281
 21
5.382805933846698
 31
0.0
  0
LINE
  5
36DB
330
1E
100
AcDbEntity
  8
7
100
AcDbLine
 10
6.405045816135139
 20
5.402490973216778
 30
0.0
 11
6.405045816135139
 21
5.416270500775834
 31
0.0
  0
LINE
  5
36DC
330
1E
100
AcDbEntity
  8
7
100
AcDbLine
 10
6.440478887001281
 20
5.357215382665597
 30
0.0
 11
6.22984896574144
 21
5.357215382665597
 31
0.0
  0
LINE
  5
36E0
330
1E
100
AcDbEntity
  8
7
100
AcDbLine
 10
6.643234792513093
 20
5.382805933846698
 30
0.0
 11
6.643234792513093
 21
5.357215382665597
 31
0.0
  0
LINE
  5
36E1
330
1E
100
AcDbEntity
  8
7
100
AcDbLine
 10
6.643234792513093
 20
5.357215382665597
 30
0.0
 11
7.076305658654824
 21
5.357215382665597
 31
0.0
  0
LINE
  5
36E2
330
1E
100
AcDbEntity
  8
7
100
AcDbLine
 10
6.454258414560337
 20
5.42808152439788
 30
0.0
 11
6.629455264954037
 21
5.42808152439788
 31
0.0
  0
LINE
  5
36E3
330
1E
100
AcDbEntity
  8
7
100
AcDbLine
 10
6.629455264954037
 20
5.42808152439788
 30
0.0
 11
6.629455264954037
 21
5.445798059830952
 31
0.0
  0
LINE
  5
36E4
330
1E
100
AcDbEntity
  8
7
100
AcDbLine
 10
7.265282036607581
 20
5.408396485027802
 30
0.0
 11
7.265282036607581
 21
5.416270500775834
 31
0.0
  0
LINE
  5
36E5
330
1E
100
AcDbEntity
  8
7
100
AcDbLine
 10
7.265282036607581
 20
5.416270500775834
 30
0.0
 11
7.265282036607581
 21
5.426113020460872
 31
0.0
  0
LINE
  5
36E6
330
1E
100
AcDbEntity
  8
7
100
AcDbLine
 10
7.09008518621388
 20
5.42808152439788
 30
0.0
 11
7.088116682276872
 21
5.426113020460872
 31
0.0
  0
LINE
  5
36E7
330
1E
100
AcDbEntity
  8
7
100
AcDbLine
 10
7.088116682276872
 20
5.426113020460872
 30
0.0
 11
7.265282036607581
 21
5.426113020460872
 31
0.0
  0
LINE
  5
36E8
330
1E
100
AcDbEntity
  8
7
100
AcDbLine
 10
6.454258414560337
 20
5.349341366917565
 30
0.0
 11
6.629455264954037
 21
5.349341366917565
 31
0.0
  0
LINE
  5
36E9
330
1E
100
AcDbEntity
  8
7
100
AcDbLine
 10
6.629455264954037
 20
5.349341366917565
 30
0.0
 11
6.629455264954037
 21
5.359183886602604
 31
0.0
  0
LINE
  5
36EA
330
1E
100
AcDbEntity
  8
7
100
AcDbLine
 10
6.454258414560337
 20
5.382805933846698
 30
0.0
 11
6.454258414560337
 21
5.359183886602604
 31
0.0
  0
LINE
  5
36EB
330
1E
100
AcDbEntity
  8
7
100
AcDbLine
 10
6.454258414560337
 20
5.359183886602604
 30
0.0
 11
6.629455264954037
 21
5.359183886602604
 31
0.0
  0
LINE
  5
36EC
330
1E
100
AcDbEntity
  8
7
100
AcDbLine
 10
6.629455264954037
 20
5.359183886602604
 30
0.0
 11
6.629455264954037
 21
5.382805933846698
 31
0.0
  0
LINE
  5
36ED
330
1E
100
AcDbEntity
  8
7
100
AcDbLine
 10
6.629455264954037
 20
5.408396485027802
 30
0.0
 11
6.454258414560337
 21
5.408396485027802
 31
0.0
  0
LINE
  5
36EE
330
1E
100
AcDbEntity
  8
7
100
AcDbLine
 10
6.454258414560337
 20
5.408396485027802
 30
0.0
 11
6.454258414560337
 21
5.394616957468747
 31
0.0
  0
LINE
  5
36EF
330
1E
100
AcDbEntity
  8
7
100
AcDbLine
 10
6.454258414560337
 20
5.394616957468747
 30
0.0
 11
6.454258414560337
 21
5.382805933846698
 31
0.0
  0
LINE
  5
36F0
330
1E
100
AcDbEntity
  8
7
100
AcDbLine
 10
6.454258414560337
 20
5.382805933846698
 30
0.0
 11
6.629455264954037
 21
5.382805933846698
 31
0.0
  0
LINE
  5
36F1
330
1E
100
AcDbEntity
  8
7
100
AcDbLine
 10
6.629455264954037
 20
5.382805933846698
 30
0.0
 11
6.629455264954037
 21
5.394616957468747
 31
0.0
  0
LINE
  5
36F2
330
1E
100
AcDbEntity
  8
7
100
AcDbLine
 10
6.629455264954037
 20
5.394616957468747
 30
0.0
 11
6.629455264954037
 21
5.408396485027802
 31
0.0
  0
LINE
  5
36F3
330
1E
100
AcDbEntity
  8
7
100
AcDbLine
 10
7.265282036607581
 20
5.408396485027802
 30
0.0
 11
7.265282036607581
 21
5.394616957468747
 31
0.0
  0
LINE
  5
36F4
330
1E
100
AcDbEntity
  8
7
100
AcDbLine
 10
7.265282036607581
 20
5.394616957468747
 30
0.0
 11
7.265282036607581
 21
5.382805933846698
 31
0.0
  0
LINE
  5
36F5
330
1E
100
AcDbEntity
  8
7
100
AcDbLine
 10
7.265282036607581
 20
5.382805933846698
 30
0.0
 11
7.265282036607581
 21
5.359183886602604
 31
0.0
  0
LINE
  5
36F6
330
1E
100
AcDbEntity
  8
7
100
AcDbLine
 10
7.09008518621388
 20
5.382805933846698
 30
0.0
 11
7.09008518621388
 21
5.394616957468747
 31
0.0
  0
LINE
  5
36F7
330
1E
100
AcDbEntity
  8
7
100
AcDbLine
 10
7.09008518621388
 20
5.394616957468747
 30
0.0
 11
7.09008518621388
 21
5.408396485027802
 31
0.0
  0
LINE
  5
36F8
330
1E
100
AcDbEntity
  8
7
100
AcDbLine
 10
6.649140304324117
 20
5.093435855106541
 30
0.0
 11
6.651108808261124
 21
5.075719319673471
 31
0.0
  0
LINE
  5
36F9
330
1E
100
AcDbEntity
  8
7
100
AcDbLine
 10
6.651108808261124
 20
5.075719319673471
 30
0.0
 11
6.651108808261124
 21
5.067845303925439
 31
0.0
  0
LINE
  5
36FA
330
1E
100
AcDbEntity
  8
7
100
AcDbLine
 10
6.635360776765061
 20
5.079656327547487
 30
0.0
 11
6.649140304324117
 21
5.093435855106541
 31
0.0
  0
LINE
  5
36FB
330
1E
100
AcDbEntity
  8
7
100
AcDbLine
 10
6.649140304324117
 20
5.093435855106541
 30
0.0
 11
6.436541879127267
 21
5.093435855106541
 31
0.0
  0
LINE
  5
36FC
330
1E
100
AcDbEntity
  8
7
100
AcDbLine
 10
6.436541879127267
 20
5.093435855106541
 30
0.0
 11
6.434573375190257
 21
5.075719319673471
 31
0.0
  0
LINE
  5
36FD
330
1E
100
AcDbEntity
  8
7
100
AcDbLine
 10
6.635360776765061
 20
5.065876799988432
 30
0.0
 11
6.635360776765061
 21
5.079656327547487
 31
0.0
  0
LINE
  5
36FE
330
1E
100
AcDbEntity
  8
7
100
AcDbLine
 10
6.635360776765061
 20
5.079656327547487
 30
0.0
 11
6.448352902749313
 21
5.079656327547487
 31
0.0
  0
LINE
  5
36FF
330
1E
100
AcDbEntity
  8
7
100
AcDbLine
 10
6.635360776765061
 20
5.028475225185282
 30
0.0
 11
6.635360776765061
 21
5.044223256681345
 31
0.0
  0
LINE
  5
3700
330
1E
100
AcDbEntity
  8
7
100
AcDbLine
 10
6.635360776765061
 20
5.044223256681345
 30
0.0
 11
6.448352902749313
 21
5.044223256681345
 31
0.0
  0
LINE
  5
3701
330
1E
100
AcDbEntity
  8
7
100
AcDbLine
 10
6.641266288576085
 20
5.02060120943725
 30
0.0
 11
6.639297784639076
 21
5.024538217311267
 31
0.0
  0
LINE
  5
3702
330
1E
100
AcDbEntity
  8
7
100
AcDbLine
 10
6.639297784639076
 20
5.024538217311267
 30
0.0
 11
6.444415894875298
 21
5.024538217311267
 31
0.0
  0
LINE
  5
3703
330
1E
100
AcDbEntity
  8
7
100
AcDbLine
 10
6.444415894875298
 20
5.024538217311267
 30
0.0
 11
6.444415894875298
 21
5.02060120943725
 31
0.0
  0
LINE
  5
3704
330
1E
100
AcDbEntity
  8
7
100
AcDbLine
 10
6.444415894875298
 20
5.02060120943725
 30
0.0
 11
6.641266288576085
 21
5.02060120943725
 31
0.0
  0
LINE
  5
3705
330
1E
100
AcDbEntity
  8
7
100
AcDbLine
 10
7.05268361141073
 20
4.79028624880733
 30
0.0
 11
6.93260487125325
 21
4.79028624880733
 31
0.0
  0
LINE
  5
3706
330
1E
100
AcDbEntity
  8
7
100
AcDbLine
 10
6.93260487125325
 20
4.79028624880733
 30
0.0
 11
6.93260487125325
 21
4.833593335421502
 31
0.0
  0
LINE
  5
3707
330
1E
100
AcDbEntity
  8
7
100
AcDbLine
 10
7.070400146843802
 20
5.093435855106541
 30
0.0
 11
7.068431642906793
 21
5.075719319673471
 31
0.0
  0
LINE
  5
3708
330
1E
100
AcDbEntity
  8
7
100
AcDbLine
 10
7.068431642906793
 20
5.075719319673471
 30
0.0
 11
7.068431642906793
 21
5.067845303925439
 31
0.0
  0
LINE
  5
3709
330
1E
100
AcDbEntity
  8
7
100
AcDbLine
 10
7.084179674402856
 20
5.079656327547487
 30
0.0
 11
7.271187548418604
 21
5.079656327547487
 31
0.0
  0
LINE
  5
370A
330
1E
100
AcDbEntity
  8
7
100
AcDbLine
 10
7.271187548418604
 20
5.079656327547487
 30
0.0
 11
7.282998572040652
 21
5.093435855106541
 31
0.0
  0
LINE
  5
370B
330
1E
100
AcDbEntity
  8
7
100
AcDbLine
 10
7.271187548418604
 20
5.044223256681345
 30
0.0
 11
7.271187548418604
 21
5.065876799988432
 31
0.0
  0
LINE
  5
370C
330
1E
100
AcDbEntity
  8
7
100
AcDbLine
 10
7.271187548418604
 20
5.065876799988432
 30
0.0
 11
7.084179674402856
 21
5.065876799988432
 31
0.0
  0
LINE
  5
370D
330
1E
100
AcDbEntity
  8
7
100
AcDbLine
 10
7.084179674402856
 20
5.065876799988432
 30
0.0
 11
7.084179674402856
 21
5.079656327547487
 31
0.0
  0
LINE
  5
370E
330
1E
100
AcDbEntity
  8
7
100
AcDbLine
 10
7.084179674402856
 20
5.028475225185282
 30
0.0
 11
7.084179674402856
 21
5.044223256681345
 31
0.0
  0
LINE
  5
370F
330
1E
100
AcDbEntity
  8
7
100
AcDbLine
 10
7.084179674402856
 20
5.044223256681345
 30
0.0
 11
7.084179674402856
 21
5.065876799988432
 31
0.0
  0
LINE
  5
3710
330
1E
100
AcDbEntity
  8
7
100
AcDbLine
 10
7.27512455629262
 20
5.024538217311267
 30
0.0
 11
7.271187548418604
 21
5.028475225185282
 31
0.0
  0
LINE
  5
3711
330
1E
100
AcDbEntity
  8
7
100
AcDbLine
 10
7.271187548418604
 20
5.028475225185282
 30
0.0
 11
7.084179674402856
 21
5.028475225185282
 31
0.0
  0
LINE
  5
3712
330
1E
100
AcDbEntity
  8
7
100
AcDbLine
 10
5.743628493300495
 20
4.495010658256148
 30
0.0
 11
5.74756550117451
 21
4.495010658256148
 31
0.0
  0
LINE
  5
3713
330
1E
100
AcDbEntity
  8
7
100
AcDbLine
 10
5.74756550117451
 20
4.495010658256148
 30
0.0
 11
5.74756550117451
 21
4.516664201563235
 31
0.0
  0
LINE
  5
3714
330
1E
100
AcDbEntity
  8
7
100
AcDbLine
 10
5.639297784639077
 20
4.386742941720715
 30
0.0
 11
5.639297784639077
 21
4.39067994959473
 31
0.0
  0
LINE
  5
3715
330
1E
100
AcDbEntity
  8
7
100
AcDbLine
 10
5.639297784639077
 20
4.39067994959473
 30
0.0
 11
5.619612745268999
 21
4.39067994959473
 31
0.0
  0
LINE
  5
3716
330
1E
100
AcDbEntity
  8
7
100
AcDbLine
 10
5.619612745268999
 20
4.39067994959473
 30
0.0
 11
5.619612745268999
 21
4.386742941720715
 31
0.0
  0
LINE
  5
3717
330
1E
100
AcDbEntity
  8
7
100
AcDbLine
 10
5.619612745268999
 20
4.386742941720715
 30
0.0
 11
5.639297784639077
 21
4.386742941720715
 31
0.0
  0
LINE
  5
3718
330
1E
100
AcDbEntity
  8
7
100
AcDbLine
 10
5.515282036607582
 20
4.514695697626226
 30
0.0
 11
5.511345028733566
 21
4.516664201563235
 31
0.0
  0
LINE
  5
3719
330
1E
100
AcDbEntity
  8
7
100
AcDbLine
 10
5.511345028733566
 20
4.516664201563235
 30
0.0
 11
5.511345028733566
 21
4.495010658256148
 31
0.0
  0
LINE
  5
371A
330
1E
100
AcDbEntity
  8
7
100
AcDbLine
 10
5.511345028733566
 20
4.495010658256148
 30
0.0
 11
5.515282036607582
 21
4.495010658256148
 31
0.0
  0
LINE
  5
371B
330
1E
100
AcDbEntity
  8
7
100
AcDbLine
 10
5.515282036607582
 20
4.495010658256148
 30
0.0
 11
5.515282036607582
 21
4.514695697626226
 31
0.0
  0
LINE
  5
371C
330
1E
100
AcDbEntity
  8
7
100
AcDbLine
 10
5.639297784639077
 20
4.620994910224652
 30
0.0
 11
5.639297784639077
 21
4.624931918098667
 31
0.0
  0
LINE
  5
371D
330
1E
100
AcDbEntity
  8
7
100
AcDbLine
 10
5.639297784639077
 20
4.624931918098667
 30
0.0
 11
5.619612745268999
 21
4.624931918098667
 31
0.0
  0
LINE
  5
371E
330
1E
100
AcDbEntity
  8
7
100
AcDbLine
 10
5.619612745268999
 20
4.624931918098667
 30
0.0
 11
5.619612745268999
 21
4.620994910224652
 31
0.0
  0
LINE
  5
371F
330
1E
100
AcDbEntity
  8
7
100
AcDbLine
 10
5.619612745268999
 20
4.620994910224652
 30
0.0
 11
5.639297784639077
 21
4.620994910224652
 31
0.0
  0
LINE
  5
3720
330
1E
100
AcDbEntity
  8
7
100
AcDbLine
 10
8.080242666528841
 20
4.620994910224652
 30
0.0
 11
8.080242666528841
 21
4.514695697626226
 31
0.0
  0
LINE
  5
3721
330
1E
100
AcDbEntity
  8
7
100
AcDbLine
 10
8.080242666528841
 20
4.514695697626226
 30
0.0
 11
7.973943453930415
 21
4.514695697626226
 31
0.0
  0
LINE
  5
3722
330
1E
100
AcDbEntity
  8
7
100
AcDbLine
 10
7.973943453930415
 20
4.514695697626226
 30
0.0
 11
7.973943453930415
 21
4.495010658256148
 31
0.0
  0
LINE
  5
3723
330
1E
100
AcDbEntity
  8
7
100
AcDbLine
 10
6.22984896574144
 20
5.402490973216778
 30
0.0
 11
6.405045816135139
 21
5.402490973216778
 31
0.0
  0
LINE
  5
3724
330
1E
100
AcDbEntity
  8
7
100
AcDbLine
 10
6.405045816135139
 20
5.402490973216778
 30
0.0
 11
6.405045816135139
 21
5.445798059830952
 31
0.0
  0
LINE
  5
3725
330
1E
100
AcDbEntity
  8
7
100
AcDbLine
 10
6.678667863379235
 20
5.487136642508117
 30
0.0
 11
6.678667863379235
 21
5.445798059830952
 31
0.0
  0
LINE
  5
3726
330
1E
100
AcDbEntity
  8
7
100
AcDbLine
 10
6.678667863379235
 20
5.445798059830952
 30
0.0
 11
7.038904083851676
 21
5.445798059830952
 31
0.0
  0
LINE
  5
3727
330
1E
100
AcDbEntity
  8
7
100
AcDbLine
 10
6.066463138969786
 20
5.445798059830952
 30
0.0
 11
6.405045816135139
 21
5.445798059830952
 31
0.0
  0
LINE
  5
3728
330
1E
100
AcDbEntity
  8
7
100
AcDbLine
 10
6.405045816135139
 20
5.445798059830952
 30
0.0
 11
6.405045816135139
 21
5.487136642508117
 31
0.0
  0
LINE
  5
3729
330
1E
100
AcDbEntity
  8
7
100
AcDbLine
 10
8.210163926371361
 20
4.493042154319141
 30
0.0
 11
8.101896209835928
 21
4.493042154319141
 31
0.0
  0
LINE
  5
372A
330
1E
100
AcDbEntity
  8
7
100
AcDbLine
 10
8.101896209835928
 20
4.493042154319141
 30
0.0
 11
8.101896209835928
 21
4.384774437783708
 31
0.0
  0
LINE
  5
372B
330
1E
100
AcDbEntity
  8
7
100
AcDbLine
 10
8.101896209835928
 20
4.384774437783708
 30
0.0
 11
8.078274162591833
 21
4.384774437783708
 31
0.0
  0
LINE
  5
372C
330
1E
100
AcDbEntity
  8
7
100
AcDbLine
 10
5.617644241331992
 20
4.626900422035676
 30
0.0
 11
5.641266288576086
 21
4.626900422035676
 31
0.0
  0
LINE
  5
372D
330
1E
100
AcDbEntity
  8
7
100
AcDbLine
 10
5.641266288576086
 20
4.626900422035676
 30
0.0
 11
5.641266288576086
 21
4.518632705500243
 31
0.0
  0
LINE
  5
372E
330
1E
100
AcDbEntity
  8
7
100
AcDbLine
 10
5.641266288576086
 20
4.518632705500243
 30
0.0
 11
5.749534005111519
 21
4.518632705500243
 31
0.0
  0
LINE
  5
372F
330
1E
100
AcDbEntity
  8
7
100
AcDbLine
 10
5.509376524796558
 20
4.493042154319141
 30
0.0
 11
5.509376524796558
 21
4.518632705500243
 31
0.0
  0
LINE
  5
3730
330
1E
100
AcDbEntity
  8
7
100
AcDbLine
 10
5.509376524796558
 20
4.518632705500243
 30
0.0
 11
5.617644241331992
 21
4.518632705500243
 31
0.0
  0
LINE
  5
3731
330
1E
100
AcDbEntity
  8
7
100
AcDbLine
 10
5.196384398812306
 20
3.705640579515991
 30
0.0
 11
5.174730855505219
 21
3.713514595264022
 31
0.0
  0
LINE
  5
3732
330
1E
100
AcDbEntity
  8
7
100
AcDbLine
 10
5.174730855505219
 20
3.713514595264022
 30
0.0
 11
5.166856839757188
 21
3.735168138571109
 31
0.0
  0
LINE
  5
3733
330
1E
100
AcDbEntity
  8
7
100
AcDbLine
 10
8.521187548418604
 20
3.705640579515991
 30
0.0
 11
8.544809595662698
 21
3.713514595264022
 31
0.0
  0
LINE
  5
3734
330
1E
100
AcDbEntity
  8
7
100
AcDbLine
 10
8.544809595662698
 20
3.713514595264022
 30
0.0
 11
8.55268361141073
 21
3.735168138571109
 31
0.0
  0
LINE
  5
3735
330
1E
100
AcDbEntity
  8
7
100
AcDbLine
 10
5.259376524796558
 20
6.998947666130163
 30
0.0
 11
5.259376524796558
 21
3.798160264555361
 31
0.0
  0
LINE
  5
3736
330
1E
100
AcDbEntity
  8
7
100
AcDbLine
 10
5.259376524796558
 20
3.798160264555361
 30
0.0
 11
5.277093060229629
 21
3.815876799988432
 31
0.0
  0
LINE
  5
3737
330
1E
100
AcDbEntity
  8
7
100
AcDbLine
 10
5.277093060229629
 20
3.815876799988432
 30
0.0
 11
5.28496707597766
 21
3.823750815736463
 31
0.0
  0
LINE
  5
3738
330
1E
100
AcDbEntity
  8
7
100
AcDbLine
 10
5.28496707597766
 20
3.823750815736463
 30
0.0
 11
5.30268361141073
 21
3.839498847232526
 31
0.0
  0
LINE
  5
3739
330
1E
100
AcDbEntity
  8
7
100
AcDbLine
 10
5.30268361141073
 20
3.839498847232526
 30
0.0
 11
5.326305658654825
 21
3.865089398413628
 31
0.0
  0
LINE
  5
373A
330
1E
100
AcDbEntity
  8
7
100
AcDbLine
 10
5.326305658654825
 20
3.865089398413628
 30
0.0
 11
5.355833217709943
 21
3.892648453531739
 31
0.0
  0
LINE
  5
373B
330
1E
100
AcDbEntity
  8
7
100
AcDbLine
 10
5.355833217709943
 20
3.892648453531739
 30
0.0
 11
5.355833217709943
 21
6.185955540145911
 31
0.0
  0
LINE
  5
373C
330
1E
100
AcDbEntity
  8
7
100
AcDbLine
 10
8.434573375190257
 20
3.823750815736463
 30
0.0
 11
8.416856839757187
 21
3.839498847232526
 31
0.0
  0
LINE
  5
373D
330
1E
100
AcDbEntity
  8
7
100
AcDbLine
 10
8.416856839757187
 20
3.839498847232526
 30
0.0
 11
8.393234792513093
 21
3.865089398413628
 31
0.0
  0
LINE
  5
373E
330
1E
100
AcDbEntity
  8
7
100
AcDbLine
 10
8.393234792513093
 20
3.865089398413628
 30
0.0
 11
8.363707233457974
 21
3.892648453531739
 31
0.0
  0
LINE
  5
373F
330
1E
100
AcDbEntity
  8
7
100
AcDbLine
 10
5.759376524796558
 20
5.591467351169534
 30
0.0
 11
5.700321406686321
 21
5.609183886602604
 31
0.0
  0
LINE
  5
3740
330
1E
100
AcDbEntity
  8
7
100
AcDbLine
 10
5.700321406686321
 20
5.609183886602604
 30
0.0
 11
5.641266288576086
 21
5.609183886602604
 31
0.0
  0
LINE
  5
3741
330
1E
100
AcDbEntity
  8
7
100
AcDbLine
 10
5.641266288576086
 20
5.609183886602604
 30
0.0
 11
5.582211170465849
 21
5.591467351169534
 31
0.0
  0
LINE
  5
3742
330
1E
100
AcDbEntity
  8
7
100
AcDbLine
 10
5.582211170465849
 20
5.591467351169534
 30
0.0
 11
5.531030068103645
 21
5.559971288177408
 31
0.0
  0
LINE
  5
3743
330
1E
100
AcDbEntity
  8
7
100
AcDbLine
 10
5.531030068103645
 20
5.559971288177408
 30
0.0
 11
5.491659989363488
 21
5.512727193689219
 31
0.0
  0
LINE
  5
3744
330
1E
100
AcDbEntity
  8
7
100
AcDbLine
 10
5.491659989363488
 20
5.512727193689219
 30
0.0
 11
5.466069438182384
 21
5.457609083452998
 31
0.0
  0
LINE
  5
3745
330
1E
100
AcDbEntity
  8
7
100
AcDbLine
 10
5.466069438182384
 20
5.457609083452998
 30
0.0
 11
5.458195422434353
 21
5.398553965342761
 31
0.0
  0
LINE
  5
3746
330
1E
100
AcDbEntity
  8
7
100
AcDbLine
 10
5.458195422434353
 20
5.398553965342761
 30
0.0
 11
5.466069438182384
 21
5.339498847232526
 31
0.0
  0
LINE
  5
3747
330
1E
100
AcDbEntity
  8
7
100
AcDbLine
 10
5.466069438182384
 20
5.339498847232526
 30
0.0
 11
5.491659989363488
 21
5.284380736996306
 31
0.0
  0
LINE
  5
3748
330
1E
100
AcDbEntity
  8
7
100
AcDbLine
 10
5.491659989363488
 20
5.284380736996306
 30
0.0
 11
5.531030068103645
 21
5.237136642508117
 31
0.0
  0
LINE
  5
3749
330
1E
100
AcDbEntity
  8
7
100
AcDbLine
 10
5.531030068103645
 20
5.237136642508117
 30
0.0
 11
5.582211170465849
 21
5.205640579515991
 31
0.0
  0
LINE
  5
374A
330
1E
100
AcDbEntity
  8
7
100
AcDbLine
 10
5.582211170465849
 20
5.205640579515991
 30
0.0
 11
5.641266288576086
 21
5.187924044082921
 31
0.0
  0
LINE
  5
374B
330
1E
100
AcDbEntity
  8
7
100
AcDbLine
 10
5.641266288576086
 20
5.187924044082921
 30
0.0
 11
5.700321406686321
 21
5.187924044082921
 31
0.0
  0
LINE
  5
374C
330
1E
100
AcDbEntity
  8
7
100
AcDbLine
 10
5.700321406686321
 20
5.187924044082921
 30
0.0
 11
5.759376524796558
 21
5.205640579515991
 31
0.0
  0
LINE
  5
374D
330
1E
100
AcDbEntity
  8
7
100
AcDbLine
 10
5.759376524796558
 20
5.205640579515991
 30
0.0
 11
5.810557627158762
 21
5.237136642508117
 31
0.0
  0
LINE
  5
374E
330
1E
100
AcDbEntity
  8
7
100
AcDbLine
 10
5.810557627158762
 20
5.237136642508117
 30
0.0
 11
5.849927705898919
 21
5.284380736996306
 31
0.0
  0
LINE
  5
374F
330
1E
100
AcDbEntity
  8
7
100
AcDbLine
 10
5.849927705898919
 20
5.284380736996306
 30
0.0
 11
5.875518257080023
 21
5.339498847232526
 31
0.0
  0
LINE
  5
3750
330
1E
100
AcDbEntity
  8
7
100
AcDbLine
 10
5.875518257080023
 20
5.339498847232526
 30
0.0
 11
5.883392272828054
 21
5.398553965342761
 31
0.0
  0
LINE
  5
3751
330
1E
100
AcDbEntity
  8
7
100
AcDbLine
 10
5.883392272828054
 20
5.398553965342761
 30
0.0
 11
5.875518257080023
 21
5.457609083452998
 31
0.0
  0
LINE
  5
3752
330
1E
100
AcDbEntity
  8
7
100
AcDbLine
 10
5.875518257080023
 20
5.457609083452998
 30
0.0
 11
5.849927705898919
 21
5.512727193689219
 31
0.0
  0
LINE
  5
3753
330
1E
100
AcDbEntity
  8
7
100
AcDbLine
 10
5.849927705898919
 20
5.512727193689219
 30
0.0
 11
5.810557627158762
 21
5.559971288177408
 31
0.0
  0
LINE
  5
3754
330
1E
100
AcDbEntity
  8
7
100
AcDbLine
 10
5.810557627158762
 20
5.559971288177408
 30
0.0
 11
5.759376524796558
 21
5.591467351169534
 31
0.0
  0
LINE
  5
3755
330
1E
100
AcDbEntity
  8
7
100
AcDbLine
 10
5.844022194087897
 20
5.313908296051424
 30
0.0
 11
5.861738729520967
 21
5.369026406287645
 31
0.0
  0
LINE
  5
3756
330
1E
100
AcDbEntity
  8
7
100
AcDbLine
 10
5.861738729520967
 20
5.369026406287645
 30
0.0
 11
5.861738729520967
 21
5.42808152439788
 31
0.0
  0
LINE
  5
3757
330
1E
100
AcDbEntity
  8
7
100
AcDbLine
 10
5.861738729520967
 20
5.42808152439788
 30
0.0
 11
5.844022194087897
 21
5.4831996346341
 31
0.0
  0
LINE
  5
3758
330
1E
100
AcDbEntity
  8
7
100
AcDbLine
 10
5.844022194087897
 20
5.4831996346341
 30
0.0
 11
5.812526131095771
 21
5.530443729122289
 31
0.0
  0
LINE
  5
3759
330
1E
100
AcDbEntity
  8
7
100
AcDbLine
 10
5.812526131095771
 20
5.530443729122289
 30
0.0
 11
5.76725054054459
 21
5.565876799988432
 31
0.0
  0
LINE
  5
375A
330
1E
100
AcDbEntity
  8
7
100
AcDbLine
 10
5.76725054054459
 20
5.565876799988432
 30
0.0
 11
5.714100934245377
 21
5.587530343295519
 31
0.0
  0
LINE
  5
375B
330
1E
100
AcDbEntity
  8
7
100
AcDbLine
 10
5.714100934245377
 20
5.587530343295519
 30
0.0
 11
5.657014320072149
 21
5.591467351169534
 31
0.0
  0
LINE
  5
375C
330
1E
100
AcDbEntity
  8
7
100
AcDbLine
 10
5.657014320072149
 20
5.591467351169534
 30
0.0
 11
5.599927705898919
 21
5.577687823610478
 31
0.0
  0
LINE
  5
375D
330
1E
100
AcDbEntity
  8
7
100
AcDbLine
 10
5.599927705898919
 20
5.577687823610478
 30
0.0
 11
5.550715107473723
 21
5.550128768492369
 31
0.0
  0
LINE
  5
375E
330
1E
100
AcDbEntity
  8
7
100
AcDbLine
 10
5.550715107473723
 20
5.550128768492369
 30
0.0
 11
5.511345028733566
 21
5.506821681878195
 31
0.0
  0
LINE
  5
375F
330
1E
100
AcDbEntity
  8
7
100
AcDbLine
 10
5.511345028733566
 20
5.506821681878195
 30
0.0
 11
5.485754477552464
 21
5.455640579515991
 31
0.0
  0
LINE
  5
3760
330
1E
100
AcDbEntity
  8
7
100
AcDbLine
 10
5.485754477552464
 20
5.455640579515991
 30
0.0
 11
5.477880461804432
 21
5.398553965342761
 31
0.0
  0
LINE
  5
3761
330
1E
100
AcDbEntity
  8
7
100
AcDbLine
 10
5.477880461804432
 20
5.398553965342761
 30
0.0
 11
5.485754477552464
 21
5.341467351169534
 31
0.0
  0
LINE
  5
3762
330
1E
100
AcDbEntity
  8
7
100
AcDbLine
 10
5.485754477552464
 20
5.341467351169534
 30
0.0
 11
5.511345028733566
 21
5.29028624880733
 31
0.0
  0
LINE
  5
3763
330
1E
100
AcDbEntity
  8
7
100
AcDbLine
 10
5.511345028733566
 20
5.29028624880733
 30
0.0
 11
5.550715107473723
 21
5.246979162193156
 31
0.0
  0
LINE
  5
3764
330
1E
100
AcDbEntity
  8
7
100
AcDbLine
 10
5.550715107473723
 20
5.246979162193156
 30
0.0
 11
5.599927705898919
 21
5.219420107075046
 31
0.0
  0
LINE
  5
3765
330
1E
100
AcDbEntity
  8
7
100
AcDbLine
 10
5.599927705898919
 20
5.219420107075046
 30
0.0
 11
5.657014320072149
 21
5.205640579515991
 31
0.0
  0
LINE
  5
3766
330
1E
100
AcDbEntity
  8
7
100
AcDbLine
 10
5.657014320072149
 20
5.205640579515991
 30
0.0
 11
5.714100934245377
 21
5.209577587390006
 31
0.0
  0
LINE
  5
3767
330
1E
100
AcDbEntity
  8
7
100
AcDbLine
 10
5.714100934245377
 20
5.209577587390006
 30
0.0
 11
5.76725054054459
 21
5.231231130697093
 31
0.0
  0
LINE
  5
3768
330
1E
100
AcDbEntity
  8
7
100
AcDbLine
 10
5.76725054054459
 20
5.231231130697093
 30
0.0
 11
5.812526131095771
 21
5.266664201563235
 31
0.0
  0
LINE
  5
3769
330
1E
100
AcDbEntity
  8
7
100
AcDbLine
 10
5.812526131095771
 20
5.266664201563235
 30
0.0
 11
5.844022194087897
 21
5.313908296051424
 31
0.0
  0
LINE
  5
376A
330
1E
100
AcDbEntity
  8
7
100
AcDbLine
 10
5.739691485426479
 20
5.223357114949061
 30
0.0
 11
5.788904083851677
 21
5.250916170067172
 31
0.0
  0
LINE
  5
376B
330
1E
100
AcDbEntity
  8
7
100
AcDbLine
 10
5.788904083851677
 20
5.250916170067172
 30
0.0
 11
5.826305658654825
 21
5.292254752744337
 31
0.0
  0
LINE
  5
376C
330
1E
100
AcDbEntity
  8
7
100
AcDbLine
 10
5.826305658654825
 20
5.292254752744337
 30
0.0
 11
5.851896209835929
 21
5.343435855106541
 31
0.0
  0
LINE
  5
376D
330
1E
100
AcDbEntity
  8
7
100
AcDbLine
 10
5.851896209835929
 20
5.343435855106541
 30
0.0
 11
5.85977022558396
 21
5.398553965342761
 31
0.0
  0
LINE
  5
376E
330
1E
100
AcDbEntity
  8
7
100
AcDbLine
 10
5.788904083851677
 20
5.546191760618352
 30
0.0
 11
5.739691485426479
 21
5.573750815736463
 31
0.0
  0
LINE
  5
376F
330
1E
100
AcDbEntity
  8
7
100
AcDbLine
 10
5.739691485426479
 20
5.573750815736463
 30
0.0
 11
5.684573375190258
 21
5.587530343295519
 31
0.0
  0
LINE
  5
3770
330
1E
100
AcDbEntity
  8
7
100
AcDbLine
 10
5.684573375190258
 20
5.587530343295519
 30
0.0
 11
5.629455264954038
 21
5.583593335421502
 31
0.0
  0
LINE
  5
3771
330
1E
100
AcDbEntity
  8
7
100
AcDbLine
 10
5.629455264954038
 20
5.583593335421502
 30
0.0
 11
5.576305658654825
 21
5.561939792114415
 31
0.0
  0
LINE
  5
3772
330
1E
100
AcDbEntity
  8
7
100
AcDbLine
 10
5.576305658654825
 20
5.561939792114415
 30
0.0
 11
5.532998572040653
 21
5.526506721248274
 31
0.0
  0
LINE
  5
3773
330
1E
100
AcDbEntity
  8
7
100
AcDbLine
 10
5.532998572040653
 20
5.526506721248274
 30
0.0
 11
5.501502509048527
 21
5.481231130697093
 31
0.0
  0
LINE
  5
3774
330
1E
100
AcDbEntity
  8
7
100
AcDbLine
 10
5.501502509048527
 20
5.481231130697093
 30
0.0
 11
5.483785973615456
 21
5.426113020460872
 31
0.0
  0
LINE
  5
3775
330
1E
100
AcDbEntity
  8
7
100
AcDbLine
 10
5.483785973615456
 20
5.426113020460872
 30
0.0
 11
5.483785973615456
 21
5.370994910224652
 31
0.0
  0
LINE
  5
3776
330
1E
100
AcDbEntity
  8
7
100
AcDbLine
 10
5.483785973615456
 20
5.370994910224652
 30
0.0
 11
5.501502509048527
 21
5.315876799988432
 31
0.0
  0
LINE
  5
3777
330
1E
100
AcDbEntity
  8
7
100
AcDbLine
 10
5.501502509048527
 20
5.315876799988432
 30
0.0
 11
5.532998572040653
 21
5.27060120943725
 31
0.0
  0
LINE
  5
3778
330
1E
100
AcDbEntity
  8
7
100
AcDbLine
 10
5.532998572040653
 20
5.27060120943725
 30
0.0
 11
5.576305658654825
 21
5.235168138571109
 31
0.0
  0
LINE
  5
3779
330
1E
100
AcDbEntity
  8
7
100
AcDbLine
 10
5.576305658654825
 20
5.235168138571109
 30
0.0
 11
5.629455264954038
 21
5.213514595264022
 31
0.0
  0
LINE
  5
377A
330
1E
100
AcDbEntity
  8
7
100
AcDbLine
 10
5.629455264954038
 20
5.213514595264022
 30
0.0
 11
5.684573375190258
 21
5.209577587390006
 31
0.0
  0
LINE
  5
377B
330
1E
100
AcDbEntity
  8
7
100
AcDbLine
 10
5.684573375190258
 20
5.209577587390006
 30
0.0
 11
5.739691485426479
 21
5.223357114949061
 31
0.0
  0
LINE
  5
377C
330
1E
100
AcDbEntity
  8
7
100
AcDbLine
 10
5.85977022558396
 20
5.398553965342761
 30
0.0
 11
5.851896209835929
 21
5.453672075578984
 31
0.0
  0
LINE
  5
377D
330
1E
100
AcDbEntity
  8
7
100
AcDbLine
 10
5.851896209835929
 20
5.453672075578984
 30
0.0
 11
5.826305658654825
 21
5.504853177941187
 31
0.0
  0
LINE
  5
377E
330
1E
100
AcDbEntity
  8
7
100
AcDbLine
 10
5.826305658654825
 20
5.504853177941187
 30
0.0
 11
5.788904083851677
 21
5.546191760618352
 31
0.0
  0
LINE
  5
377F
330
1E
100
AcDbEntity
  8
7
100
AcDbLine
 10
5.643234792513093
 20
5.471388611012054
 30
0.0
 11
5.611738729520967
 21
5.451703571641974
 31
0.0
  0
LINE
  5
3780
330
1E
100
AcDbEntity
  8
7
100
AcDbLine
 10
5.611738729520967
 20
5.451703571641974
 30
0.0
 11
5.594022194087897
 21
5.418239004712841
 31
0.0
  0
LINE
  5
3781
330
1E
100
AcDbEntity
  8
7
100
AcDbLine
 10
5.594022194087897
 20
5.418239004712841
 30
0.0
 11
5.594022194087897
 21
5.378868925972684
 31
0.0
  0
LINE
  5
3782
330
1E
100
AcDbEntity
  8
7
100
AcDbLine
 10
5.594022194087897
 20
5.378868925972684
 30
0.0
 11
5.611738729520967
 21
5.34540435904355
 31
0.0
  0
LINE
  5
3783
330
1E
100
AcDbEntity
  8
7
100
AcDbLine
 10
5.611738729520967
 20
5.34540435904355
 30
0.0
 11
5.643234792513093
 21
5.325719319673471
 31
0.0
  0
LINE
  5
3784
330
1E
100
AcDbEntity
  8
7
100
AcDbLine
 10
5.643234792513093
 20
5.325719319673471
 30
0.0
 11
5.680636367316243
 21
5.319813807862447
 31
0.0
  0
LINE
  5
3785
330
1E
100
AcDbEntity
  8
7
100
AcDbLine
 10
5.680636367316243
 20
5.319813807862447
 30
0.0
 11
5.716069438182384
 21
5.333593335421502
 31
0.0
  0
LINE
  5
3786
330
1E
100
AcDbEntity
  8
7
100
AcDbLine
 10
5.716069438182384
 20
5.333593335421502
 30
0.0
 11
5.739691485426479
 21
5.361152390539613
 31
0.0
  0
LINE
  5
3787
330
1E
100
AcDbEntity
  8
7
100
AcDbLine
 10
5.739691485426479
 20
5.361152390539613
 30
0.0
 11
5.749534005111519
 21
5.398553965342761
 31
0.0
  0
LINE
  5
3788
330
1E
100
AcDbEntity
  8
7
100
AcDbLine
 10
5.749534005111519
 20
5.398553965342761
 30
0.0
 11
5.739691485426479
 21
5.435955540145911
 31
0.0
  0
LINE
  5
3789
330
1E
100
AcDbEntity
  8
7
100
AcDbLine
 10
5.739691485426479
 20
5.435955540145911
 30
0.0
 11
5.716069438182384
 21
5.463514595264022
 31
0.0
  0
LINE
  5
378A
330
1E
100
AcDbEntity
  8
7
100
AcDbLine
 10
5.716069438182384
 20
5.463514595264022
 30
0.0
 11
5.680636367316243
 21
5.477294122823078
 31
0.0
  0
LINE
  5
378B
330
1E
100
AcDbEntity
  8
7
100
AcDbLine
 10
5.680636367316243
 20
5.477294122823078
 30
0.0
 11
5.643234792513093
 21
5.471388611012054
 31
0.0
  0
LINE
  5
378C
330
1E
100
AcDbEntity
  8
7
100
AcDbLine
 10
5.779061564166636
 20
5.516664201563235
 30
0.0
 11
5.735754477552464
 21
5.544223256681345
 31
0.0
  0
LINE
  5
378D
330
1E
100
AcDbEntity
  8
7
100
AcDbLine
 10
5.735754477552464
 20
5.544223256681345
 30
0.0
 11
5.684573375190258
 21
5.5580027842404
 31
0.0
  0
LINE
  5
378E
330
1E
100
AcDbEntity
  8
7
100
AcDbLine
 10
5.684573375190258
 20
5.5580027842404
 30
0.0
 11
5.631423768891045
 21
5.554065776366384
 31
0.0
  0
LINE
  5
378F
330
1E
100
AcDbEntity
  8
7
100
AcDbLine
 10
5.631423768891045
 20
5.554065776366384
 30
0.0
 11
5.584179674402856
 21
5.532412233059298
 31
0.0
  0
LINE
  5
3790
330
1E
100
AcDbEntity
  8
7
100
AcDbLine
 10
5.584179674402856
 20
5.532412233059298
 30
0.0
 11
5.544809595662699
 21
5.496979162193156
 31
0.0
  0
LINE
  5
3791
330
1E
100
AcDbEntity
  8
7
100
AcDbLine
 10
5.544809595662699
 20
5.496979162193156
 30
0.0
 11
5.519219044481597
 21
5.449735067704967
 31
0.0
  0
LINE
  5
3792
330
1E
100
AcDbEntity
  8
7
100
AcDbLine
 10
5.519219044481597
 20
5.449735067704967
 30
0.0
 11
5.511345028733566
 21
5.398553965342761
 31
0.0
  0
LINE
  5
3793
330
1E
100
AcDbEntity
  8
7
100
AcDbLine
 10
5.511345028733566
 20
5.398553965342761
 30
0.0
 11
5.519219044481597
 21
5.347372862980558
 31
0.0
  0
LINE
  5
3794
330
1E
100
AcDbEntity
  8
7
100
AcDbLine
 10
5.519219044481597
 20
5.347372862980558
 30
0.0
 11
5.544809595662699
 21
5.300128768492369
 31
0.0
  0
LINE
  5
3795
330
1E
100
AcDbEntity
  8
7
100
AcDbLine
 10
5.544809595662699
 20
5.300128768492369
 30
0.0
 11
5.584179674402856
 21
5.264695697626226
 31
0.0
  0
LINE
  5
3796
330
1E
100
AcDbEntity
  8
7
100
AcDbLine
 10
5.584179674402856
 20
5.264695697626226
 30
0.0
 11
5.631423768891045
 21
5.243042154319141
 31
0.0
  0
LINE
  5
3797
330
1E
100
AcDbEntity
  8
7
100
AcDbLine
 10
5.631423768891045
 20
5.243042154319141
 30
0.0
 11
5.684573375190258
 21
5.239105146445124
 31
0.0
  0
LINE
  5
3798
330
1E
100
AcDbEntity
  8
7
100
AcDbLine
 10
5.684573375190258
 20
5.239105146445124
 30
0.0
 11
5.735754477552464
 21
5.25288467400418
 31
0.0
  0
LINE
  5
3799
330
1E
100
AcDbEntity
  8
7
100
AcDbLine
 10
5.735754477552464
 20
5.25288467400418
 30
0.0
 11
5.779061564166636
 21
5.280443729122289
 31
0.0
  0
LINE
  5
379A
330
1E
100
AcDbEntity
  8
7
100
AcDbLine
 10
5.779061564166636
 20
5.280443729122289
 30
0.0
 11
5.810557627158762
 21
5.321782311799456
 31
0.0
  0
LINE
  5
379B
330
1E
100
AcDbEntity
  8
7
100
AcDbLine
 10
5.810557627158762
 20
5.321782311799456
 30
0.0
 11
5.828274162591834
 21
5.37296341416166
 31
0.0
  0
LINE
  5
379C
330
1E
100
AcDbEntity
  8
7
100
AcDbLine
 10
5.828274162591834
 20
5.37296341416166
 30
0.0
 11
5.828274162591834
 21
5.424144516523865
 31
0.0
  0
LINE
  5
379D
330
1E
100
AcDbEntity
  8
7
100
AcDbLine
 10
5.828274162591834
 20
5.424144516523865
 30
0.0
 11
5.810557627158762
 21
5.475325618886069
 31
0.0
  0
LINE
  5
379E
330
1E
100
AcDbEntity
  8
7
100
AcDbLine
 10
5.810557627158762
 20
5.475325618886069
 30
0.0
 11
5.779061564166636
 21
5.516664201563235
 31
0.0
  0
LINE
  5
379F
330
1E
100
AcDbEntity
  8
7
100
AcDbLine
 10
7.907014320072148
 20
5.559971288177408
 30
0.0
 11
7.867644241331991
 21
5.512727193689219
 31
0.0
  0
LINE
  5
37A0
330
1E
100
AcDbEntity
  8
7
100
AcDbLine
 10
7.867644241331991
 20
5.512727193689219
 30
0.0
 11
7.842053690150887
 21
5.457609083452998
 31
0.0
  0
LINE
  5
37A1
330
1E
100
AcDbEntity
  8
7
100
AcDbLine
 10
7.842053690150887
 20
5.457609083452998
 30
0.0
 11
7.834179674402856
 21
5.398553965342761
 31
0.0
  0
LINE
  5
37A2
330
1E
100
AcDbEntity
  8
7
100
AcDbLine
 10
7.834179674402856
 20
5.398553965342761
 30
0.0
 11
7.842053690150887
 21
5.339498847232526
 31
0.0
  0
LINE
  5
37A3
330
1E
100
AcDbEntity
  8
7
100
AcDbLine
 10
7.842053690150887
 20
5.339498847232526
 30
0.0
 11
7.867644241331991
 21
5.284380736996306
 31
0.0
  0
LINE
  5
37A4
330
1E
100
AcDbEntity
  8
7
100
AcDbLine
 10
7.867644241331991
 20
5.284380736996306
 30
0.0
 11
7.907014320072148
 21
5.237136642508117
 31
0.0
  0
LINE
  5
37A5
330
1E
100
AcDbEntity
  8
7
100
AcDbLine
 10
7.907014320072148
 20
5.237136642508117
 30
0.0
 11
7.958195422434352
 21
5.205640579515991
 31
0.0
  0
LINE
  5
37A6
330
1E
100
AcDbEntity
  8
7
100
AcDbLine
 10
7.958195422434352
 20
5.205640579515991
 30
0.0
 11
8.017250540544589
 21
5.187924044082921
 31
0.0
  0
LINE
  5
37A7
330
1E
100
AcDbEntity
  8
7
100
AcDbLine
 10
8.017250540544589
 20
5.187924044082921
 30
0.0
 11
8.076305658654824
 21
5.187924044082921
 31
0.0
  0
LINE
  5
37A8
330
1E
100
AcDbEntity
  8
7
100
AcDbLine
 10
8.076305658654824
 20
5.187924044082921
 30
0.0
 11
8.135360776765061
 21
5.205640579515991
 31
0.0
  0
LINE
  5
37A9
330
1E
100
AcDbEntity
  8
7
100
AcDbLine
 10
8.135360776765061
 20
5.205640579515991
 30
0.0
 11
8.186541879127267
 21
5.237136642508117
 31
0.0
  0
LINE
  5
37AA
330
1E
100
AcDbEntity
  8
7
100
AcDbLine
 10
8.186541879127267
 20
5.237136642508117
 30
0.0
 11
8.225911957867424
 21
5.284380736996306
 31
0.0
  0
LINE
  5
37AB
330
1E
100
AcDbEntity
  8
7
100
AcDbLine
 10
8.225911957867424
 20
5.284380736996306
 30
0.0
 11
8.251502509048526
 21
5.339498847232526
 31
0.0
  0
LINE
  5
37AC
330
1E
100
AcDbEntity
  8
7
100
AcDbLine
 10
8.251502509048526
 20
5.339498847232526
 30
0.0
 11
8.259376524796557
 21
5.398553965342761
 31
0.0
  0
LINE
  5
37AD
330
1E
100
AcDbEntity
  8
7
100
AcDbLine
 10
8.259376524796557
 20
5.398553965342761
 30
0.0
 11
8.251502509048526
 21
5.457609083452998
 31
0.0
  0
LINE
  5
37AE
330
1E
100
AcDbEntity
  8
7
100
AcDbLine
 10
8.251502509048526
 20
5.457609083452998
 30
0.0
 11
8.225911957867424
 21
5.512727193689219
 31
0.0
  0
LINE
  5
37AF
330
1E
100
AcDbEntity
  8
7
100
AcDbLine
 10
8.225911957867424
 20
5.512727193689219
 30
0.0
 11
8.186541879127267
 21
5.559971288177408
 31
0.0
  0
LINE
  5
37B0
330
1E
100
AcDbEntity
  8
7
100
AcDbLine
 10
8.186541879127267
 20
5.559971288177408
 30
0.0
 11
8.135360776765061
 21
5.591467351169534
 31
0.0
  0
LINE
  5
37B1
330
1E
100
AcDbEntity
  8
7
100
AcDbLine
 10
8.135360776765061
 20
5.591467351169534
 30
0.0
 11
8.076305658654824
 21
5.609183886602604
 31
0.0
  0
LINE
  5
37B2
330
1E
100
AcDbEntity
  8
7
100
AcDbLine
 10
8.076305658654824
 20
5.609183886602604
 30
0.0
 11
8.017250540544589
 21
5.609183886602604
 31
0.0
  0
LINE
  5
37B3
330
1E
100
AcDbEntity
  8
7
100
AcDbLine
 10
8.017250540544589
 20
5.609183886602604
 30
0.0
 11
7.958195422434352
 21
5.591467351169534
 31
0.0
  0
LINE
  5
37B4
330
1E
100
AcDbEntity
  8
7
100
AcDbLine
 10
7.958195422434352
 20
5.591467351169534
 30
0.0
 11
7.907014320072148
 21
5.559971288177408
 31
0.0
  0
LINE
  5
37B5
330
1E
100
AcDbEntity
  8
7
100
AcDbLine
 10
8.117644241331991
 20
5.219420107075046
 30
0.0
 11
8.166856839757187
 21
5.246979162193156
 31
0.0
  0
LINE
  5
37B6
330
1E
100
AcDbEntity
  8
7
100
AcDbLine
 10
8.166856839757187
 20
5.246979162193156
 30
0.0
 11
8.206226918497344
 21
5.29028624880733
 31
0.0
  0
LINE
  5
37B7
330
1E
100
AcDbEntity
  8
7
100
AcDbLine
 10
8.206226918497344
 20
5.29028624880733
 30
0.0
 11
8.231817469678446
 21
5.341467351169534
 31
0.0
  0
LINE
  5
37B8
330
1E
100
AcDbEntity
  8
7
100
AcDbLine
 10
8.231817469678446
 20
5.341467351169534
 30
0.0
 11
8.239691485426478
 21
5.398553965342761
 31
0.0
  0
LINE
  5
37B9
330
1E
100
AcDbEntity
  8
7
100
AcDbLine
 10
8.166856839757187
 20
5.550128768492369
 30
0.0
 11
8.117644241331991
 21
5.577687823610478
 31
0.0
  0
LINE
  5
37BA
330
1E
100
AcDbEntity
  8
7
100
AcDbLine
 10
8.117644241331991
 20
5.577687823610478
 30
0.0
 11
8.060557627158761
 21
5.591467351169534
 31
0.0
  0
LINE
  5
37BB
330
1E
100
AcDbEntity
  8
7
100
AcDbLine
 10
8.060557627158761
 20
5.591467351169534
 30
0.0
 11
8.003471012985533
 21
5.587530343295519
 31
0.0
  0
LINE
  5
37BC
330
1E
100
AcDbEntity
  8
7
100
AcDbLine
 10
8.003471012985533
 20
5.587530343295519
 30
0.0
 11
7.95032140668632
 21
5.565876799988432
 31
0.0
  0
LINE
  5
37BD
330
1E
100
AcDbEntity
  8
7
100
AcDbLine
 10
7.95032140668632
 20
5.565876799988432
 30
0.0
 11
7.905045816135139
 21
5.530443729122289
 31
0.0
  0
LINE
  5
37BE
330
1E
100
AcDbEntity
  8
7
100
AcDbLine
 10
7.905045816135139
 20
5.530443729122289
 30
0.0
 11
7.873549753143013
 21
5.4831996346341
 31
0.0
  0
LINE
  5
37BF
330
1E
100
AcDbEntity
  8
7
100
AcDbLine
 10
7.873549753143013
 20
5.4831996346341
 30
0.0
 11
7.855833217709943
 21
5.42808152439788
 31
0.0
  0
LINE
  5
37C0
330
1E
100
AcDbEntity
  8
7
100
AcDbLine
 10
7.855833217709943
 20
5.42808152439788
 30
0.0
 11
7.855833217709943
 21
5.369026406287645
 31
0.0
  0
LINE
  5
37C1
330
1E
100
AcDbEntity
  8
7
100
AcDbLine
 10
7.855833217709943
 20
5.369026406287645
 30
0.0
 11
7.873549753143013
 21
5.313908296051424
 31
0.0
  0
LINE
  5
37C2
330
1E
100
AcDbEntity
  8
7
100
AcDbLine
 10
7.873549753143013
 20
5.313908296051424
 30
0.0
 11
7.905045816135139
 21
5.266664201563235
 31
0.0
  0
LINE
  5
37C3
330
1E
100
AcDbEntity
  8
7
100
AcDbLine
 10
7.905045816135139
 20
5.266664201563235
 30
0.0
 11
7.95032140668632
 21
5.231231130697093
 31
0.0
  0
LINE
  5
37C4
330
1E
100
AcDbEntity
  8
7
100
AcDbLine
 10
7.95032140668632
 20
5.231231130697093
 30
0.0
 11
8.003471012985533
 21
5.209577587390006
 31
0.0
  0
LINE
  5
37C5
330
1E
100
AcDbEntity
  8
7
100
AcDbLine
 10
8.003471012985533
 20
5.209577587390006
 30
0.0
 11
8.060557627158761
 21
5.205640579515991
 31
0.0
  0
LINE
  5
37C6
330
1E
100
AcDbEntity
  8
7
100
AcDbLine
 10
8.060557627158761
 20
5.205640579515991
 30
0.0
 11
8.117644241331991
 21
5.219420107075046
 31
0.0
  0
LINE
  5
37C7
330
1E
100
AcDbEntity
  8
7
100
AcDbLine
 10
8.239691485426478
 20
5.398553965342761
 30
0.0
 11
8.231817469678446
 21
5.455640579515991
 31
0.0
  0
LINE
  5
37C8
330
1E
100
AcDbEntity
  8
7
100
AcDbLine
 10
8.231817469678446
 20
5.455640579515991
 30
0.0
 11
8.206226918497344
 21
5.506821681878195
 31
0.0
  0
LINE
  5
37C9
330
1E
100
AcDbEntity
  8
7
100
AcDbLine
 10
8.206226918497344
 20
5.506821681878195
 30
0.0
 11
8.166856839757187
 21
5.550128768492369
 31
0.0
  0
LINE
  5
37CA
330
1E
100
AcDbEntity
  8
7
100
AcDbLine
 10
8.184573375190257
 20
5.526506721248274
 30
0.0
 11
8.141266288576085
 21
5.561939792114415
 31
0.0
  0
LINE
  5
37CB
330
1E
100
AcDbEntity
  8
7
100
AcDbLine
 10
8.141266288576085
 20
5.561939792114415
 30
0.0
 11
8.088116682276872
 21
5.583593335421502
 31
0.0
  0
LINE
  5
37CC
330
1E
100
AcDbEntity
  8
7
100
AcDbLine
 10
8.088116682276872
 20
5.583593335421502
 30
0.0
 11
8.032998572040652
 21
5.587530343295519
 31
0.0
  0
LINE
  5
37CD
330
1E
100
AcDbEntity
  8
7
100
AcDbLine
 10
8.032998572040652
 20
5.587530343295519
 30
0.0
 11
7.977880461804431
 21
5.573750815736463
 31
0.0
  0
LINE
  5
37CE
330
1E
100
AcDbEntity
  8
7
100
AcDbLine
 10
7.977880461804431
 20
5.573750815736463
 30
0.0
 11
7.928667863379233
 21
5.546191760618352
 31
0.0
  0
LINE
  5
37CF
330
1E
100
AcDbEntity
  8
7
100
AcDbLine
 10
7.928667863379233
 20
5.546191760618352
 30
0.0
 11
7.891266288576085
 21
5.504853177941187
 31
0.0
  0
LINE
  5
37D0
330
1E
100
AcDbEntity
  8
7
100
AcDbLine
 10
7.891266288576085
 20
5.504853177941187
 30
0.0
 11
7.865675737394981
 21
5.453672075578984
 31
0.0
  0
LINE
  5
37D1
330
1E
100
AcDbEntity
  8
7
100
AcDbLine
 10
7.865675737394981
 20
5.453672075578984
 30
0.0
 11
7.85780172164695
 21
5.398553965342761
 31
0.0
  0
LINE
  5
37D2
330
1E
100
AcDbEntity
  8
7
100
AcDbLine
 10
7.85780172164695
 20
5.398553965342761
 30
0.0
 11
7.865675737394981
 21
5.343435855106541
 31
0.0
  0
LINE
  5
37D3
330
1E
100
AcDbEntity
  8
7
100
AcDbLine
 10
7.865675737394981
 20
5.343435855106541
 30
0.0
 11
7.891266288576085
 21
5.292254752744337
 31
0.0
  0
LINE
  5
37D4
330
1E
100
AcDbEntity
  8
7
100
AcDbLine
 10
7.891266288576085
 20
5.292254752744337
 30
0.0
 11
7.928667863379233
 21
5.250916170067172
 31
0.0
  0
LINE
  5
37D5
330
1E
100
AcDbEntity
  8
7
100
AcDbLine
 10
7.928667863379233
 20
5.250916170067172
 30
0.0
 11
7.977880461804431
 21
5.223357114949061
 31
0.0
  0
LINE
  5
37D6
330
1E
100
AcDbEntity
  8
7
100
AcDbLine
 10
7.977880461804431
 20
5.223357114949061
 30
0.0
 11
8.032998572040652
 21
5.209577587390006
 31
0.0
  0
LINE
  5
37D7
330
1E
100
AcDbEntity
  8
7
100
AcDbLine
 10
8.032998572040652
 20
5.209577587390006
 30
0.0
 11
8.088116682276872
 21
5.213514595264022
 31
0.0
  0
LINE
  5
37D8
330
1E
100
AcDbEntity
  8
7
100
AcDbLine
 10
8.088116682276872
 20
5.213514595264022
 30
0.0
 11
8.141266288576085
 21
5.235168138571109
 31
0.0
  0
LINE
  5
37D9
330
1E
100
AcDbEntity
  8
7
100
AcDbLine
 10
8.141266288576085
 20
5.235168138571109
 30
0.0
 11
8.184573375190257
 21
5.27060120943725
 31
0.0
  0
LINE
  5
37DA
330
1E
100
AcDbEntity
  8
7
100
AcDbLine
 10
8.184573375190257
 20
5.27060120943725
 30
0.0
 11
8.216069438182383
 21
5.315876799988432
 31
0.0
  0
LINE
  5
37DB
330
1E
100
AcDbEntity
  8
7
100
AcDbLine
 10
8.216069438182383
 20
5.315876799988432
 30
0.0
 11
8.233785973615455
 21
5.370994910224652
 31
0.0
  0
LINE
  5
37DC
330
1E
100
AcDbEntity
  8
7
100
AcDbLine
 10
8.233785973615455
 20
5.370994910224652
 30
0.0
 11
8.233785973615455
 21
5.426113020460872
 31
0.0
  0
LINE
  5
37DD
330
1E
100
AcDbEntity
  8
7
100
AcDbLine
 10
8.233785973615455
 20
5.426113020460872
 30
0.0
 11
8.216069438182383
 21
5.481231130697093
 31
0.0
  0
LINE
  5
37DE
330
1E
100
AcDbEntity
  8
7
100
AcDbLine
 10
8.216069438182383
 20
5.481231130697093
 30
0.0
 11
8.184573375190257
 21
5.526506721248274
 31
0.0
  0
LINE
  5
37DF
330
1E
100
AcDbEntity
  8
7
100
AcDbLine
 10
7.968037942119392
 20
5.398553965342761
 30
0.0
 11
7.977880461804431
 21
5.361152390539613
 31
0.0
  0
LINE
  5
37E0
330
1E
100
AcDbEntity
  8
7
100
AcDbLine
 10
7.977880461804431
 20
5.361152390539613
 30
0.0
 11
8.001502509048526
 21
5.333593335421502
 31
0.0
  0
LINE
  5
37E1
330
1E
100
AcDbEntity
  8
7
100
AcDbLine
 10
8.001502509048526
 20
5.333593335421502
 30
0.0
 11
8.036935579914667
 21
5.319813807862447
 31
0.0
  0
LINE
  5
37E2
330
1E
100
AcDbEntity
  8
7
100
AcDbLine
 10
8.036935579914667
 20
5.319813807862447
 30
0.0
 11
8.074337154717817
 21
5.325719319673471
 31
0.0
  0
LINE
  5
37E3
330
1E
100
AcDbEntity
  8
7
100
AcDbLine
 10
8.074337154717817
 20
5.325719319673471
 30
0.0
 11
8.105833217709943
 21
5.34540435904355
 31
0.0
  0
LINE
  5
37E4
330
1E
100
AcDbEntity
  8
7
100
AcDbLine
 10
8.105833217709943
 20
5.34540435904355
 30
0.0
 11
8.123549753143013
 21
5.378868925972684
 31
0.0
  0
LINE
  5
37E5
330
1E
100
AcDbEntity
  8
7
100
AcDbLine
 10
8.123549753143013
 20
5.378868925972684
 30
0.0
 11
8.123549753143013
 21
5.418239004712841
 31
0.0
  0
LINE
  5
37E6
330
1E
100
AcDbEntity
  8
7
100
AcDbLine
 10
8.123549753143013
 20
5.418239004712841
 30
0.0
 11
8.105833217709943
 21
5.451703571641974
 31
0.0
  0
LINE
  5
37E7
330
1E
100
AcDbEntity
  8
7
100
AcDbLine
 10
8.105833217709943
 20
5.451703571641974
 30
0.0
 11
8.074337154717817
 21
5.471388611012054
 31
0.0
  0
LINE
  5
37E8
330
1E
100
AcDbEntity
  8
7
100
AcDbLine
 10
8.074337154717817
 20
5.471388611012054
 30
0.0
 11
8.036935579914667
 21
5.477294122823078
 31
0.0
  0
LINE
  5
37E9
330
1E
100
AcDbEntity
  8
7
100
AcDbLine
 10
8.036935579914667
 20
5.477294122823078
 30
0.0
 11
8.001502509048526
 21
5.463514595264022
 31
0.0
  0
LINE
  5
37EA
330
1E
100
AcDbEntity
  8
7
100
AcDbLine
 10
8.001502509048526
 20
5.463514595264022
 30
0.0
 11
7.977880461804431
 21
5.435955540145911
 31
0.0
  0
LINE
  5
37EB
330
1E
100
AcDbEntity
  8
7
100
AcDbLine
 10
7.977880461804431
 20
5.435955540145911
 30
0.0
 11
7.968037942119392
 21
5.398553965342761
 31
0.0
  0
LINE
  5
37EC
330
1E
100
AcDbEntity
  8
7
100
AcDbLine
 10
8.032998572040652
 20
5.5580027842404
 30
0.0
 11
7.981817469678446
 21
5.544223256681345
 31
0.0
  0
LINE
  5
37ED
330
1E
100
AcDbEntity
  8
7
100
AcDbLine
 10
7.981817469678446
 20
5.544223256681345
 30
0.0
 11
7.938510383064274
 21
5.516664201563235
 31
0.0
  0
LINE
  5
37EE
330
1E
100
AcDbEntity
  8
7
100
AcDbLine
 10
7.938510383064274
 20
5.516664201563235
 30
0.0
 11
7.907014320072148
 21
5.475325618886069
 31
0.0
  0
LINE
  5
37EF
330
1E
100
AcDbEntity
  8
7
100
AcDbLine
 10
7.907014320072148
 20
5.475325618886069
 30
0.0
 11
7.889297784639076
 21
5.424144516523865
 31
0.0
  0
LINE
  5
37F0
330
1E
100
AcDbEntity
  8
7
100
AcDbLine
 10
7.889297784639076
 20
5.424144516523865
 30
0.0
 11
7.889297784639076
 21
5.37296341416166
 31
0.0
  0
LINE
  5
37F1
330
1E
100
AcDbEntity
  8
7
100
AcDbLine
 10
7.889297784639076
 20
5.37296341416166
 30
0.0
 11
7.907014320072148
 21
5.321782311799456
 31
0.0
  0
LINE
  5
37F2
330
1E
100
AcDbEntity
  8
7
100
AcDbLine
 10
7.907014320072148
 20
5.321782311799456
 30
0.0
 11
7.938510383064274
 21
5.280443729122289
 31
0.0
  0
LINE
  5
37F3
330
1E
100
AcDbEntity
  8
7
100
AcDbLine
 10
7.938510383064274
 20
5.280443729122289
 30
0.0
 11
7.981817469678446
 21
5.25288467400418
 31
0.0
  0
LINE
  5
37F4
330
1E
100
AcDbEntity
  8
7
100
AcDbLine
 10
7.981817469678446
 20
5.25288467400418
 30
0.0
 11
8.032998572040652
 21
5.239105146445124
 31
0.0
  0
LINE
  5
37F5
330
1E
100
AcDbEntity
  8
7
100
AcDbLine
 10
8.032998572040652
 20
5.239105146445124
 30
0.0
 11
8.086148178339865
 21
5.243042154319141
 31
0.0
  0
LINE
  5
37F6
330
1E
100
AcDbEntity
  8
7
100
AcDbLine
 10
8.086148178339865
 20
5.243042154319141
 30
0.0
 11
8.133392272828054
 21
5.264695697626226
 31
0.0
  0
LINE
  5
37F7
330
1E
100
AcDbEntity
  8
7
100
AcDbLine
 10
8.133392272828054
 20
5.264695697626226
 30
0.0
 11
8.172762351568211
 21
5.300128768492369
 31
0.0
  0
LINE
  5
37F8
330
1E
100
AcDbEntity
  8
7
100
AcDbLine
 10
8.172762351568211
 20
5.300128768492369
 30
0.0
 11
8.198352902749313
 21
5.347372862980558
 31
0.0
  0
LINE
  5
37F9
330
1E
100
AcDbEntity
  8
7
100
AcDbLine
 10
8.198352902749313
 20
5.347372862980558
 30
0.0
 11
8.206226918497344
 21
5.398553965342761
 31
0.0
  0
LINE
  5
37FA
330
1E
100
AcDbEntity
  8
7
100
AcDbLine
 10
8.206226918497344
 20
5.398553965342761
 30
0.0
 11
8.198352902749313
 21
5.449735067704967
 31
0.0
  0
LINE
  5
37FB
330
1E
100
AcDbEntity
  8
7
100
AcDbLine
 10
8.198352902749313
 20
5.449735067704967
 30
0.0
 11
8.172762351568211
 21
5.496979162193156
 31
0.0
  0
LINE
  5
37FC
330
1E
100
AcDbEntity
  8
7
100
AcDbLine
 10
8.172762351568211
 20
5.496979162193156
 30
0.0
 11
8.133392272828054
 21
5.532412233059298
 31
0.0
  0
LINE
  5
37FD
330
1E
100
AcDbEntity
  8
7
100
AcDbLine
 10
8.133392272828054
 20
5.532412233059298
 30
0.0
 11
8.086148178339865
 21
5.554065776366384
 31
0.0
  0
LINE
  5
37FE
330
1E
100
AcDbEntity
  8
7
100
AcDbLine
 10
8.086148178339865
 20
5.554065776366384
 30
0.0
 11
8.032998572040652
 21
5.5580027842404
 31
0.0
  0
LINE
  5
37FF
330
1E
100
AcDbEntity
  8
7
100
AcDbLine
 10
5.355833217709943
 20
6.185955540145911
 30
0.0
 11
5.318431642906793
 21
6.185955540145911
 31
0.0
  0
LINE
  5
3800
330
1E
100
AcDbEntity
  8
7
100
AcDbLine
 10
5.318431642906793
 20
6.185955540145911
 30
0.0
 11
5.288904083851677
 21
6.185955540145911
 31
0.0
  0
LINE
  5
3801
330
1E
100
AcDbEntity
  8
7
100
AcDbLine
 10
5.288904083851677
 20
6.185955540145911
 30
0.0
 11
5.277093060229629
 21
6.187924044082921
 31
0.0
  0
LINE
  5
3802
330
1E
100
AcDbEntity
  8
7
100
AcDbLine
 10
5.277093060229629
 20
6.231231130697093
 30
0.0
 11
5.261345028733566
 21
6.227294122823078
 31
0.0
  0
LINE
  5
3803
330
1E
100
AcDbEntity
  8
7
100
AcDbLine
 10
5.261345028733566
 20
6.227294122823078
 30
0.0
 11
5.505439516922542
 21
6.227294122823078
 31
0.0
  0
LINE
  5
3804
330
1E
100
AcDbEntity
  8
7
100
AcDbLine
 10
5.277093060229629
 20
6.981231130697093
 30
0.0
 11
5.277093060229629
 21
6.231231130697093
 31
0.0
  0
LINE
  5
3805
330
1E
100
AcDbEntity
  8
7
100
AcDbLine
 10
5.277093060229629
 20
6.231231130697093
 30
0.0
 11
5.288904083851677
 21
6.2331996346341
 31
0.0
  0
LINE
  5
3806
330
1E
100
AcDbEntity
  8
7
100
AcDbLine
 10
5.288904083851677
 20
6.2331996346341
 30
0.0
 11
5.318431642906793
 21
6.2331996346341
 31
0.0
  0
LINE
  5
3807
330
1E
100
AcDbEntity
  8
7
100
AcDbLine
 10
5.318431642906793
 20
6.2331996346341
 30
0.0
 11
5.355833217709943
 21
6.2331996346341
 31
0.0
  0
LINE
  5
3808
330
1E
100
AcDbEntity
  8
7
100
AcDbLine
 10
5.166856839757188
 20
7.059971288177408
 30
0.0
 11
5.174730855505219
 21
7.081624831484495
 31
0.0
  0
LINE
  5
3809
330
1E
100
AcDbEntity
  8
7
100
AcDbLine
 10
5.174730855505219
 20
7.081624831484495
 30
0.0
 11
5.196384398812306
 21
7.091467351169534
 31
0.0
  0
LINE
  5
380A
330
1E
100
AcDbEntity
  8
7
100
AcDbLine
 10
8.363707233457974
 20
6.185955540145911
 30
0.0
 11
8.401108808261124
 21
6.185955540145911
 31
0.0
  0
LINE
  5
380B
330
1E
100
AcDbEntity
  8
7
100
AcDbLine
 10
8.401108808261124
 20
6.185955540145911
 30
0.0
 11
8.430636367316242
 21
6.185955540145911
 31
0.0
  0
LINE
  5
380C
330
1E
100
AcDbEntity
  8
7
100
AcDbLine
 10
8.430636367316242
 20
6.185955540145911
 30
0.0
 11
8.442447390938289
 21
6.187924044082921
 31
0.0
  0
LINE
  5
380D
330
1E
100
AcDbEntity
  8
7
100
AcDbLine
 10
8.55268361141073
 20
7.059971288177408
 30
0.0
 11
8.544809595662698
 21
7.081624831484495
 31
0.0
  0
LINE
  5
380E
330
1E
100
AcDbEntity
  8
7
100
AcDbLine
 10
8.544809595662698
 20
7.081624831484495
 30
0.0
 11
8.521187548418604
 21
7.091467351169534
 31
0.0
  0
LINE
  5
380F
330
1E
100
AcDbEntity
  8
7
100
AcDbLine
 10
8.442447390938289
 20
6.231231130697093
 30
0.0
 11
8.430636367316242
 21
6.2331996346341
 31
0.0
  0
LINE
  5
3810
330
1E
100
AcDbEntity
  8
7
100
AcDbLine
 10
8.430636367316242
 20
6.2331996346341
 30
0.0
 11
8.401108808261124
 21
6.2331996346341
 31
0.0
  0
LINE
  5
3811
330
1E
100
AcDbEntity
  8
7
100
AcDbLine
 10
8.401108808261124
 20
6.2331996346341
 30
0.0
 11
8.363707233457974
 21
6.2331996346341
 31
0.0
  0
LINE
  5
3812
330
1E
100
AcDbEntity
  8
7
100
AcDbLine
 10
8.363707233457974
 20
6.2331996346341
 30
0.0
 11
8.210163926371361
 21
6.2331996346341
 31
0.0
  0
LINE
  5
3813
330
1E
100
AcDbEntity
  8
7
100
AcDbLine
 10
8.458195422434352
 20
6.191861051956935
 30
0.0
 11
8.458195422434352
 21
6.227294122823078
 31
0.0
  0
LINE
  5
3814
330
1E
100
AcDbEntity
  8
7
100
AcDbLine
 10
8.458195422434352
 20
6.227294122823078
 30
0.0
 11
8.214100934245376
 21
6.227294122823078
 31
0.0
  0
LINE
  5
3815
330
1E
100
AcDbEntity
  8
7
100
AcDbLine
 10
8.210163926371361
 20
6.2331996346341
 30
0.0
 11
8.210163926371361
 21
6.185955540145911
 31
0.0
  0
LINE
  5
3816
330
1E
100
AcDbEntity
  8
7
100
AcDbLine
 10
8.210163926371361
 20
6.185955540145911
 30
0.0
 11
8.214100934245376
 21
6.191861051956935
 31
0.0
  0
LINE
  5
3817
330
1E
100
AcDbEntity
  8
7
100
AcDbLine
 10
5.355833217709943
 20
6.902490973216778
 30
0.0
 11
5.326305658654825
 21
6.932018532271897
 31
0.0
  0
LINE
  5
3818
330
1E
100
AcDbEntity
  8
7
100
AcDbLine
 10
5.326305658654825
 20
6.932018532271897
 30
0.0
 11
5.30268361141073
 21
6.955640579515991
 31
0.0
  0
LINE
  5
3819
330
1E
100
AcDbEntity
  8
7
100
AcDbLine
 10
5.30268361141073
 20
6.955640579515991
 30
0.0
 11
5.28496707597766
 21
6.973357114949061
 31
0.0
  0
LINE
  5
381A
330
1E
100
AcDbEntity
  8
7
100
AcDbLine
 10
5.28496707597766
 20
6.973357114949061
 30
0.0
 11
5.277093060229629
 21
6.981231130697093
 31
0.0
  0
LINE
  5
381B
330
1E
100
AcDbEntity
  8
7
100
AcDbLine
 10
8.363707233457974
 20
6.902490973216778
 30
0.0
 11
8.393234792513093
 21
6.932018532271897
 31
0.0
  0
LINE
  5
381C
330
1E
100
AcDbEntity
  8
7
100
AcDbLine
 10
8.393234792513093
 20
6.932018532271897
 30
0.0
 11
8.416856839757187
 21
6.955640579515991
 31
0.0
  0
LINE
  5
381D
330
1E
100
AcDbEntity
  8
7
100
AcDbLine
 10
8.416856839757187
 20
6.955640579515991
 30
0.0
 11
8.434573375190257
 21
6.973357114949061
 31
0.0
  0
LINE
  5
381E
330
1E
100
AcDbEntity
  8
7
100
AcDbLine
 10
8.434573375190257
 20
6.973357114949061
 30
0.0
 11
8.442447390938289
 21
6.981231130697093
 31
0.0
  0
LINE
  5
381F
330
1E
100
AcDbEntity
  8
7
100
AcDbLine
 10
5.509376524796558
 20
6.2331996346341
 30
0.0
 11
5.505439516922542
 21
6.227294122823078
 31
0.0
  0
LINE
  5
3820
330
1E
100
AcDbEntity
  8
7
100
AcDbLine
 10
5.505439516922542
 20
6.227294122823078
 30
0.0
 11
5.505439516922542
 21
6.191861051956935
 31
0.0
  0
LINE
  5
3821
330
1E
100
AcDbEntity
  8
7
100
AcDbLine
 10
5.635360776765062
 20
6.481231130697093
 30
0.0
 11
5.635360776765062
 21
6.437924044082921
 31
0.0
  0
LINE
  5
3822
330
1E
100
AcDbEntity
  8
7
100
AcDbLine
 10
5.635360776765062
 20
6.437924044082921
 30
0.0
 11
5.641266288576086
 21
6.443829555893943
 31
0.0
  0
LINE
  5
3823
330
1E
100
AcDbEntity
  8
7
100
AcDbLine
 10
5.635360776765062
 20
5.937924044082921
 30
0.0
 11
5.769219044481597
 21
5.937924044082921
 31
0.0
  0
LINE
  5
3824
330
1E
100
AcDbEntity
  8
7
100
AcDbLine
 10
5.769219044481597
 20
5.937924044082921
 30
0.0
 11
5.769219044481597
 21
5.943829555893943
 31
0.0
  0
LINE
  5
3825
330
1E
100
AcDbEntity
  8
7
100
AcDbLine
 10
5.635360776765062
 20
5.981231130697093
 30
0.0
 11
5.635360776765062
 21
5.937924044082921
 31
0.0
  0
LINE
  5
3826
330
1E
100
AcDbEntity
  8
7
100
AcDbLine
 10
5.635360776765062
 20
5.937924044082921
 30
0.0
 11
5.641266288576086
 21
5.943829555893943
 31
0.0
  0
LINE
  5
3827
330
1E
100
AcDbEntity
  8
7
100
AcDbLine
 10
5.641266288576086
 20
6.475325618886069
 30
0.0
 11
5.641266288576086
 21
6.443829555893943
 31
0.0
  0
LINE
  5
3828
330
1E
100
AcDbEntity
  8
7
100
AcDbLine
 10
5.641266288576086
 20
6.443829555893943
 30
0.0
 11
5.769219044481597
 21
6.443829555893943
 31
0.0
  0
LINE
  5
3829
330
1E
100
AcDbEntity
  8
7
100
AcDbLine
 10
5.641266288576086
 20
5.975325618886069
 30
0.0
 11
5.641266288576086
 21
5.943829555893943
 31
0.0
  0
LINE
  5
382A
330
1E
100
AcDbEntity
  8
7
100
AcDbLine
 10
5.641266288576086
 20
5.943829555893943
 30
0.0
 11
5.769219044481597
 21
5.943829555893943
 31
0.0
  0
LINE
  5
38ED
330
1E
100
AcDbEntity
  8
7
100
AcDbLine
 10
3.058589123221755
 20
1.309971288177409
 30
0.0
 11
3.03496707597766
 21
1.309971288177409
 31
0.0
  0
LINE
  5
38EE
330
1E
100
AcDbEntity
  8
7
100
AcDbLine
 10
3.03496707597766
 20
1.309971288177409
 30
0.0
 11
3.03496707597766
 21
1.294223256681346
 31
0.0
  0
LINE
  5
38EF
330
1E
100
AcDbEntity
  8
7
100
AcDbLine
 10
2.928667863379235
 20
1.309971288177409
 30
0.0
 11
2.938510383064275
 21
1.309971288177409
 31
0.0
  0
LINE
  5
38F0
330
1E
100
AcDbEntity
  8
7
100
AcDbLine
 10
2.938510383064275
 20
1.309971288177409
 30
0.0
 11
2.944415894875298
 21
1.309971288177409
 31
0.0
  0
LINE
  5
38F1
330
1E
100
AcDbEntity
  8
7
100
AcDbLine
 10
2.958195422434354
 20
1.309971288177409
 30
0.0
 11
2.962132430308369
 21
1.309971288177409
 31
0.0
  0
LINE
  5
38F2
330
1E
100
AcDbEntity
  8
7
100
AcDbLine
 10
2.962132430308369
 20
1.309971288177409
 30
0.0
 11
2.973943453930417
 21
1.309971288177409
 31
0.0
  0
LINE
  5
38F3
330
1E
100
AcDbEntity
  8
7
100
AcDbLine
 10
2.973943453930417
 20
1.309971288177409
 30
0.0
 11
3.005439516922542
 21
1.309971288177409
 31
0.0
  0
LINE
  5
38F4
330
1E
100
AcDbEntity
  8
7
100
AcDbLine
 10
3.005439516922542
 20
1.309971288177409
 30
0.0
 11
3.015282036607581
 21
1.309971288177409
 31
0.0
  0
LINE
  5
38F5
330
1E
100
AcDbEntity
  8
7
100
AcDbLine
 10
3.015282036607581
 20
1.309971288177409
 30
0.0
 11
3.019219044481597
 21
1.309971288177409
 31
0.0
  0
LINE
  5
38F6
330
1E
100
AcDbEntity
  8
7
100
AcDbLine
 10
3.019219044481597
 20
1.309971288177409
 30
0.0
 11
3.019219044481597
 21
1.294223256681346
 31
0.0
  0
LINE
  5
38F7
330
1E
100
AcDbEntity
  8
7
100
AcDbLine
 10
1.899140304324117
 20
1.607215382665597
 30
0.0
 11
1.899140304324117
 21
1.650522469279771
 31
0.0
  0
LINE
  5
38F8
330
1E
100
AcDbEntity
  8
7
100
AcDbLine
 10
1.899140304324117
 20
1.650522469279771
 30
0.0
 11
1.468037942119392
 21
1.650522469279771
 31
0.0
  0
LINE
  5
38F9
330
1E
100
AcDbEntity
  8
7
100
AcDbLine
 10
2.101896209835928
 20
1.666270500775834
 30
0.0
 11
1.899140304324117
 21
1.666270500775834
 31
0.0
  0
LINE
  5
38FA
330
1E
100
AcDbEntity
  8
7
100
AcDbLine
 10
1.899140304324117
 20
1.666270500775834
 30
0.0
 11
1.899140304324117
 21
1.650522469279771
 31
0.0
  0
LINE
  5
38FB
330
1E
100
AcDbEntity
  8
7
100
AcDbLine
 10
2.088116682276873
 20
1.607215382665597
 30
0.0
 11
1.912919831883172
 21
1.607215382665597
 31
0.0
  0
LINE
  5
38FC
330
1E
100
AcDbEntity
  8
7
100
AcDbLine
 10
1.912919831883172
 20
1.607215382665597
 30
0.0
 11
1.912919831883172
 21
1.58753034329552
 31
0.0
  0
LINE
  5
38FD
330
1E
100
AcDbEntity
  8
7
100
AcDbLine
 10
2.088116682276873
 20
1.58753034329552
 30
0.0
 11
1.912919831883172
 21
1.58753034329552
 31
0.0
  0
LINE
  5
38FE
330
1E
100
AcDbEntity
  8
7
100
AcDbLine
 10
1.912919831883172
 20
1.58753034329552
 30
0.0
 11
1.912919831883172
 21
1.569813807862447
 31
0.0
  0
LINE
  5
38FF
330
1E
100
AcDbEntity
  8
7
100
AcDbLine
 10
2.088116682276873
 20
1.544223256681346
 30
0.0
 11
2.088116682276873
 21
1.569813807862447
 31
0.0
  0
LINE
  5
3900
330
1E
100
AcDbEntity
  8
7
100
AcDbLine
 10
2.088116682276873
 20
1.569813807862447
 30
0.0
 11
1.912919831883172
 21
1.569813807862447
 31
0.0
  0
LINE
  5
3901
330
1E
100
AcDbEntity
  8
7
100
AcDbLine
 10
1.912919831883172
 20
1.569813807862447
 30
0.0
 11
1.912919831883172
 21
1.544223256681346
 31
0.0
  0
LINE
  5
3902
330
1E
100
AcDbEntity
  8
7
100
AcDbLine
 10
2.088116682276873
 20
1.536349240933314
 30
0.0
 11
2.088116682276873
 21
1.538317744870322
 31
0.0
  0
LINE
  5
3903
330
1E
100
AcDbEntity
  8
7
100
AcDbLine
 10
2.088116682276873
 20
1.538317744870322
 30
0.0
 11
2.088116682276873
 21
1.544223256681346
 31
0.0
  0
LINE
  5
3904
330
1E
100
AcDbEntity
  8
7
100
AcDbLine
 10
2.088116682276873
 20
1.544223256681346
 30
0.0
 11
1.912919831883172
 21
1.544223256681346
 31
0.0
  0
LINE
  5
3905
330
1E
100
AcDbEntity
  8
7
100
AcDbLine
 10
1.912919831883172
 20
1.544223256681346
 30
0.0
 11
1.912919831883172
 21
1.538317744870322
 31
0.0
  0
LINE
  5
3906
330
1E
100
AcDbEntity
  8
7
100
AcDbLine
 10
1.912919831883172
 20
1.538317744870322
 30
0.0
 11
1.912919831883172
 21
1.536349240933314
 31
0.0
  0
LINE
  5
3907
330
1E
100
AcDbEntity
  8
7
100
AcDbLine
 10
1.277093060229629
 20
1.536349240933314
 30
0.0
 11
1.277093060229629
 21
1.538317744870322
 31
0.0
  0
LINE
  5
3908
330
1E
100
AcDbEntity
  8
7
100
AcDbLine
 10
1.277093060229629
 20
1.538317744870322
 30
0.0
 11
1.277093060229629
 21
1.544223256681346
 31
0.0
  0
LINE
  5
3909
330
1E
100
AcDbEntity
  8
7
100
AcDbLine
 10
1.277093060229629
 20
1.544223256681346
 30
0.0
 11
1.277093060229629
 21
1.569813807862447
 31
0.0
  0
LINE
  5
390A
330
1E
100
AcDbEntity
  8
7
100
AcDbLine
 10
1.45228991062333
 20
1.544223256681346
 30
0.0
 11
1.45228991062333
 21
1.538317744870322
 31
0.0
  0
LINE
  5
390B
330
1E
100
AcDbEntity
  8
7
100
AcDbLine
 10
1.45228991062333
 20
1.538317744870322
 30
0.0
 11
1.45228991062333
 21
1.536349240933314
 31
0.0
  0
LINE
  5
390C
330
1E
100
AcDbEntity
  8
7
100
AcDbLine
 10
1.907014320072149
 20
0.6190264062876452
 30
0.0
 11
1.907014320072149
 21
0.6052468787285905
 31
0.0
  0
LINE
  5
390D
330
1E
100
AcDbEntity
  8
7
100
AcDbLine
 10
1.907014320072149
 20
0.6052468787285905
 30
0.0
 11
2.094022194087896
 21
0.6052468787285905
 31
0.0
  0
LINE
  5
390E
330
1E
100
AcDbEntity
  8
7
100
AcDbLine
 10
1.903077312198133
 20
0.7076090834529998
 30
0.0
 11
1.903077312198133
 21
0.6918610519569369
 31
0.0
  0
LINE
  5
390F
330
1E
100
AcDbEntity
  8
7
100
AcDbLine
 10
1.903077312198133
 20
0.6918610519569369
 30
0.0
 11
2.097959201961912
 21
0.6918610519569369
 31
0.0
  0
LINE
  5
3910
330
1E
100
AcDbEntity
  8
7
100
AcDbLine
 10
2.097959201961912
 20
0.6918610519569369
 30
0.0
 11
2.09992770589892
 21
0.7076090834529998
 31
0.0
  0
LINE
  5
3911
330
1E
100
AcDbEntity
  8
7
100
AcDbLine
 10
2.09992770589892
 20
0.7076090834529998
 30
0.0
 11
1.903077312198133
 21
0.7076090834529998
 31
0.0
  0
LINE
  5
3912
330
1E
100
AcDbEntity
  8
7
100
AcDbLine
 10
1.26725054054459
 20
0.6918610519569369
 30
0.0
 11
1.271187548418605
 21
0.6190264062876452
 31
0.0
  0
LINE
  5
3913
330
1E
100
AcDbEntity
  8
7
100
AcDbLine
 10
1.271187548418605
 20
0.6190264062876452
 30
0.0
 11
1.460163926371361
 21
0.6190264062876452
 31
0.0
  0
LINE
  5
3914
330
1E
100
AcDbEntity
  8
7
100
AcDbLine
 10
3.186541879127267
 20
1.294223256681346
 30
0.0
 11
3.221974949993408
 21
1.29028624880733
 31
0.0
  0
LINE
  5
3915
330
1E
100
AcDbEntity
  8
7
100
AcDbLine
 10
3.221974949993408
 20
1.29028624880733
 30
0.0
 11
3.253471012985534
 21
1.274538217311267
 31
0.0
  0
LINE
  5
3916
330
1E
100
AcDbEntity
  8
7
100
AcDbLine
 10
3.253471012985534
 20
1.274538217311267
 30
0.0
 11
3.282998572040653
 21
1.248947666130165
 31
0.0
  0
LINE
  5
3917
330
1E
100
AcDbEntity
  8
7
100
AcDbLine
 10
3.282998572040653
 20
1.248947666130165
 30
0.0
 11
3.304652115347739
 21
1.215483099201031
 31
0.0
  0
LINE
  5
3918
330
1E
100
AcDbEntity
  8
7
100
AcDbLine
 10
3.304652115347739
 20
1.215483099201031
 30
0.0
 11
3.320400146843802
 21
1.176113020460873
 31
0.0
  0
LINE
  5
3919
330
1E
100
AcDbEntity
  8
7
100
AcDbLine
 10
3.320400146843802
 20
1.176113020460873
 30
0.0
 11
3.328274162591833
 21
1.134774437783708
 31
0.0
  0
LINE
  5
391A
330
1E
100
AcDbEntity
  8
7
100
AcDbLine
 10
3.328274162591833
 20
1.134774437783708
 30
0.0
 11
3.34992770589892
 21
1.134774437783708
 31
0.0
  0
LINE
  5
391B
330
1E
100
AcDbEntity
  8
7
100
AcDbLine
 10
3.34992770589892
 20
1.134774437783708
 30
0.0
 11
3.357801721646952
 21
1.134774437783708
 31
0.0
  0
LINE
  5
391C
330
1E
100
AcDbEntity
  8
7
100
AcDbLine
 10
0.1786678633792353
 20
1.294223256681346
 30
0.0
 11
0.1452032964501015
 21
1.29028624880733
 31
0.0
  0
LINE
  5
391D
330
1E
100
AcDbEntity
  8
7
100
AcDbLine
 10
0.1452032964501015
 20
1.29028624880733
 30
0.0
 11
0.1117387295209677
 21
1.274538217311267
 31
0.0
  0
LINE
  5
391E
330
1E
100
AcDbEntity
  8
7
100
AcDbLine
 10
0.1117387295209677
 20
1.274538217311267
 30
0.0
 11
0.0841796744028576
 21
1.248947666130165
 31
0.0
  0
LINE
  5
391F
330
1E
100
AcDbEntity
  8
7
100
AcDbLine
 10
0.0841796744028576
 20
1.248947666130165
 30
0.0
 11
0.0605576271587631
 21
1.215483099201031
 31
0.0
  0
LINE
  5
3920
330
1E
100
AcDbEntity
  8
7
100
AcDbLine
 10
0.0605576271587631
 20
1.215483099201031
 30
0.0
 11
0.0448095956627002
 21
1.176113020460873
 31
0.0
  0
LINE
  5
3921
330
1E
100
AcDbEntity
  8
7
100
AcDbLine
 10
0.0448095956627002
 20
1.176113020460873
 30
0.0
 11
0.0389040838516766
 21
1.134774437783708
 31
0.0
  0
LINE
  5
3922
330
1E
100
AcDbEntity
  8
7
100
AcDbLine
 10
0.0389040838516766
 20
1.134774437783708
 30
0.0
 11
0.01725054054459
 21
1.134774437783708
 31
0.0
  0
LINE
  5
3923
330
1E
100
AcDbEntity
  8
7
100
AcDbLine
 10
0.01725054054459
 20
1.134774437783708
 30
0.0
 11
0.0074080208595506
 21
1.134774437783708
 31
0.0
  0
LINE
  5
3924
330
1E
100
AcDbEntity
  8
7
100
AcDbLine
 10
3.345990698024905
 20
0.8749319180986692
 30
0.0
 11
3.367644241331991
 21
0.8749319180986692
 31
0.0
  0
LINE
  5
3925
330
1E
100
AcDbEntity
  8
7
100
AcDbLine
 10
3.367644241331991
 20
0.8749319180986692
 30
0.0
 11
3.375518257080022
 21
0.8749319180986692
 31
0.0
  0
LINE
  5
3926
330
1E
100
AcDbEntity
  8
7
100
AcDbLine
 10
0.0211875484186057
 20
0.8749319180986692
 30
0.0
 11
-0.0004659948884809
 21
0.8749319180986692
 31
0.0
  0
LINE
  5
3927
330
1E
100
AcDbEntity
  8
7
100
AcDbLine
 10
-0.0004659948884809
 20
0.8749319180986692
 30
0.0
 11
-0.0103085145735207
 21
0.8749319180986692
 31
0.0
  0
LINE
  5
3928
330
1E
100
AcDbEntity
  8
7
100
AcDbLine
 10
0.1786678633792353
 20
1.294223256681346
 30
0.0
 11
0.1373292807020701
 21
1.29028624880733
 31
0.0
  0
LINE
  5
3929
330
1E
100
AcDbEntity
  8
7
100
AcDbLine
 10
0.1373292807020701
 20
1.29028624880733
 30
0.0
 11
0.0959906980249048
 21
1.274538217311267
 31
0.0
  0
LINE
  5
392A
330
1E
100
AcDbEntity
  8
7
100
AcDbLine
 10
0.0959906980249048
 20
1.274538217311267
 30
0.0
 11
0.062526131095771
 21
1.248947666130165
 31
0.0
  0
LINE
  5
392B
330
1E
100
AcDbEntity
  8
7
100
AcDbLine
 10
0.062526131095771
 20
1.248947666130165
 30
0.0
 11
0.0349670759776608
 21
1.215483099201031
 31
0.0
  0
LINE
  5
392C
330
1E
100
AcDbEntity
  8
7
100
AcDbLine
 10
0.0349670759776608
 20
1.215483099201031
 30
0.0
 11
0.0152820366075821
 21
1.176113020460873
 31
0.0
  0
LINE
  5
392D
330
1E
100
AcDbEntity
  8
7
100
AcDbLine
 10
0.0152820366075821
 20
1.176113020460873
 30
0.0
 11
0.0074080208595506
 21
1.134774437783708
 31
0.0
  0
LINE
  5
392E
330
1E
100
AcDbEntity
  8
7
100
AcDbLine
 10
3.332211170465849
 20
1.215483099201031
 30
0.0
 11
3.34992770589892
 21
1.176113020460873
 31
0.0
  0
LINE
  5
392F
330
1E
100
AcDbEntity
  8
7
100
AcDbLine
 10
3.34992770589892
 20
1.176113020460873
 30
0.0
 11
3.357801721646952
 21
1.134774437783708
 31
0.0
  0
LINE
  5
3930
330
1E
100
AcDbEntity
  8
7
100
AcDbLine
 10
3.186541879127267
 20
1.294223256681346
 30
0.0
 11
3.22984896574144
 21
1.29028624880733
 31
0.0
  0
LINE
  5
3931
330
1E
100
AcDbEntity
  8
7
100
AcDbLine
 10
3.22984896574144
 20
1.29028624880733
 30
0.0
 11
3.269219044481597
 21
1.274538217311267
 31
0.0
  0
LINE
  5
3932
330
1E
100
AcDbEntity
  8
7
100
AcDbLine
 10
3.269219044481597
 20
1.274538217311267
 30
0.0
 11
3.304652115347739
 21
1.248947666130165
 31
0.0
  0
LINE
  5
3933
330
1E
100
AcDbEntity
  8
7
100
AcDbLine
 10
3.304652115347739
 20
1.248947666130165
 30
0.0
 11
3.332211170465849
 21
1.215483099201031
 31
0.0
  0
LINE
  5
3934
330
1E
100
AcDbEntity
  8
7
100
AcDbLine
 10
2.466069438182385
 20
1.685955540145912
 30
0.0
 11
2.47984896574144
 21
1.682018532271897
 31
0.0
  0
LINE
  5
3935
330
1E
100
AcDbEntity
  8
7
100
AcDbLine
 10
2.47984896574144
 20
1.682018532271897
 30
0.0
 11
2.485754477552464
 21
1.676113020460873
 31
0.0
  0
LINE
  5
3936
330
1E
100
AcDbEntity
  8
7
100
AcDbLine
 10
2.485754477552464
 20
1.676113020460873
 30
0.0
 11
2.521187548418605
 21
1.662333492901818
 31
0.0
  0
LINE
  5
3937
330
1E
100
AcDbEntity
  8
7
100
AcDbLine
 10
2.521187548418605
 20
1.662333492901818
 30
0.0
 11
2.546778099599707
 21
1.634774437783709
 31
0.0
  0
LINE
  5
3938
330
1E
100
AcDbEntity
  8
7
100
AcDbLine
 10
2.546778099599707
 20
1.634774437783709
 30
0.0
 11
2.556620619284747
 21
1.603278374791583
 31
0.0
  0
LINE
  5
3939
330
1E
100
AcDbEntity
  8
7
100
AcDbLine
 10
0.8814237688910466
 20
1.676113020460873
 30
0.0
 11
0.8853607767650624
 21
1.682018532271897
 31
0.0
  0
LINE
  5
393A
330
1E
100
AcDbEntity
  8
7
100
AcDbLine
 10
0.8853607767650624
 20
1.682018532271897
 30
0.0
 11
0.8991403043241179
 21
1.685955540145912
 31
0.0
  0
LINE
  5
393B
330
1E
100
AcDbEntity
  8
7
100
AcDbLine
 10
0.8814237688910466
 20
1.676113020460873
 30
0.0
 11
0.8440221940878966
 21
1.662333492901818
 31
0.0
  0
LINE
  5
393C
330
1E
100
AcDbEntity
  8
7
100
AcDbLine
 10
0.8440221940878966
 20
1.662333492901818
 30
0.0
 11
0.8184316429067948
 21
1.634774437783709
 31
0.0
  0
LINE
  5
393D
330
1E
100
AcDbEntity
  8
7
100
AcDbLine
 10
0.8184316429067948
 20
1.634774437783709
 30
0.0
 11
0.808589123221755
 21
1.603278374791583
 31
0.0
  0
LINE
  5
393E
330
1E
100
AcDbEntity
  8
7
100
AcDbLine
 10
2.466069438182385
 20
1.689892548019929
 30
0.0
 11
2.466069438182385
 21
1.687924044082921
 31
0.0
  0
LINE
  5
393F
330
1E
100
AcDbEntity
  8
7
100
AcDbLine
 10
2.466069438182385
 20
1.687924044082921
 30
0.0
 11
2.466069438182385
 21
1.685955540145912
 31
0.0
  0
LINE
  5
3940
330
1E
100
AcDbEntity
  8
7
100
AcDbLine
 10
2.554652115347739
 20
1.603278374791583
 30
0.0
 11
2.540872587788684
 21
1.644616957468747
 31
0.0
  0
LINE
  5
3941
330
1E
100
AcDbEntity
  8
7
100
AcDbLine
 10
2.540872587788684
 20
1.644616957468747
 30
0.0
 11
2.509376524796558
 21
1.676113020460873
 31
0.0
  0
LINE
  5
3942
330
1E
100
AcDbEntity
  8
7
100
AcDbLine
 10
2.509376524796558
 20
1.676113020460873
 30
0.0
 11
2.466069438182385
 21
1.687924044082921
 31
0.0
  0
LINE
  5
3943
330
1E
100
AcDbEntity
  8
7
100
AcDbLine
 10
0.8558332177099439
 20
1.676113020460873
 30
0.0
 11
0.8243371547178179
 21
1.644616957468747
 31
0.0
  0
LINE
  5
3944
330
1E
100
AcDbEntity
  8
7
100
AcDbLine
 10
0.8243371547178179
 20
1.644616957468747
 30
0.0
 11
0.8105576271587633
 21
1.603278374791583
 31
0.0
  0
LINE
  5
3945
330
1E
100
AcDbEntity
  8
7
100
AcDbLine
 10
3.07236865078081
 20
4.138711445657722
 30
0.0
 11
3.07236865078081
 21
4.120994910224652
 31
0.0
  0
LINE
  5
3946
330
1E
100
AcDbEntity
  8
7
100
AcDbLine
 10
3.07236865078081
 20
4.120994910224652
 30
0.0
 11
3.09008518621388
 21
4.120994910224652
 31
0.0
  0
LINE
  5
3947
330
1E
100
AcDbEntity
  8
7
100
AcDbLine
 10
2.842053690150889
 20
4.107215382665597
 30
0.0
 11
2.842053690150889
 21
4.138711445657722
 31
0.0
  0
LINE
  5
3948
330
1E
100
AcDbEntity
  8
7
100
AcDbLine
 10
2.842053690150889
 20
4.138711445657722
 30
0.0
 11
2.865675737394983
 21
4.138711445657722
 31
0.0
  0
LINE
  5
3949
330
1E
100
AcDbEntity
  8
7
100
AcDbLine
 10
2.865675737394983
 20
4.138711445657722
 30
0.0
 11
2.865675737394983
 21
4.052097272429376
 31
0.0
  0
LINE
  5
394A
330
1E
100
AcDbEntity
  8
7
100
AcDbLine
 10
2.865675737394983
 20
4.052097272429376
 30
0.0
 11
2.838116682276873
 21
4.052097272429376
 31
0.0
  0
LINE
  5
394B
330
1E
100
AcDbEntity
  8
7
100
AcDbLine
 10
2.773156052355613
 20
4.138711445657722
 30
0.0
 11
2.798746603536716
 21
4.081624831484495
 31
0.0
  0
LINE
  5
394C
330
1E
100
AcDbEntity
  8
7
100
AcDbLine
 10
2.798746603536716
 20
4.081624831484495
 30
0.0
 11
2.798746603536716
 21
4.138711445657722
 31
0.0
  0
LINE
  5
394D
330
1E
100
AcDbEntity
  8
7
100
AcDbLine
 10
2.798746603536716
 20
4.138711445657722
 30
0.0
 11
2.828274162591833
 21
4.138711445657722
 31
0.0
  0
LINE
  5
394E
330
1E
100
AcDbEntity
  8
7
100
AcDbLine
 10
2.749534005111518
 20
4.138711445657722
 30
0.0
 11
2.735754477552464
 21
4.156427981090793
 31
0.0
  0
LINE
  5
394F
330
1E
100
AcDbEntity
  8
7
100
AcDbLine
 10
2.735754477552464
 20
4.156427981090793
 30
0.0
 11
2.714100934245377
 21
4.164301996838824
 31
0.0
  0
LINE
  5
3950
330
1E
100
AcDbEntity
  8
7
100
AcDbLine
 10
2.686541879127267
 20
4.087530343295519
 30
0.0
 11
2.686541879127267
 21
4.052097272429376
 31
0.0
  0
LINE
  5
3951
330
1E
100
AcDbEntity
  8
7
100
AcDbLine
 10
2.686541879127267
 20
4.052097272429376
 30
0.0
 11
2.635360776765062
 21
4.052097272429376
 31
0.0
  0
LINE
  5
3952
330
1E
100
AcDbEntity
  8
7
100
AcDbLine
 10
2.635360776765062
 20
4.052097272429376
 30
0.0
 11
2.635360776765062
 21
4.164301996838824
 31
0.0
  0
LINE
  5
3953
330
1E
100
AcDbEntity
  8
7
100
AcDbLine
 10
2.635360776765062
 20
4.164301996838824
 30
0.0
 11
2.714100934245377
 21
4.164301996838824
 31
0.0
  0
LINE
  5
3954
330
1E
100
AcDbEntity
  8
7
100
AcDbLine
 10
2.714100934245377
 20
4.089498847232526
 30
0.0
 11
2.721974949993408
 21
4.089498847232526
 31
0.0
  0
LINE
  5
3955
330
1E
100
AcDbEntity
  8
7
100
AcDbLine
 10
2.721974949993408
 20
4.089498847232526
 30
0.0
 11
2.72984896574144
 21
4.093435855106541
 31
0.0
  0
LINE
  5
3956
330
1E
100
AcDbEntity
  8
7
100
AcDbLine
 10
2.698352902749314
 20
4.107215382665597
 30
0.0
 11
2.700321406686322
 21
4.109183886602604
 31
0.0
  0
LINE
  5
3957
330
1E
100
AcDbEntity
  8
7
100
AcDbLine
 10
2.700321406686322
 20
4.109183886602604
 30
0.0
 11
2.70228991062333
 21
4.111152390539613
 31
0.0
  0
LINE
  5
3958
330
1E
100
AcDbEntity
  8
7
100
AcDbLine
 10
2.70228991062333
 20
4.138711445657722
 30
0.0
 11
2.700321406686322
 21
4.14067994959473
 31
0.0
  0
LINE
  5
3959
330
1E
100
AcDbEntity
  8
7
100
AcDbLine
 10
2.700321406686322
 20
4.14067994959473
 30
0.0
 11
2.698352902749314
 21
4.142648453531739
 31
0.0
  0
LINE
  5
395A
330
1E
100
AcDbEntity
  8
7
100
AcDbLine
 10
2.686541879127267
 20
4.105246878728589
 30
0.0
 11
2.686541879127267
 21
4.144616957468747
 31
0.0
  0
LINE
  5
395B
330
1E
100
AcDbEntity
  8
7
100
AcDbLine
 10
2.686541879127267
 20
4.144616957468747
 30
0.0
 11
2.698352902749314
 21
4.144616957468747
 31
0.0
  0
LINE
  5
395C
330
1E
100
AcDbEntity
  8
7
100
AcDbLine
 10
2.91488833582018
 20
4.071782311799456
 30
0.0
 11
2.916856839757188
 21
4.073750815736463
 31
0.0
  0
LINE
  5
395D
330
1E
100
AcDbEntity
  8
7
100
AcDbLine
 10
2.916856839757188
 20
4.073750815736463
 30
0.0
 11
2.918825343694196
 21
4.075719319673471
 31
0.0
  0
LINE
  5
395E
330
1E
100
AcDbEntity
  8
7
100
AcDbLine
 10
2.918825343694196
 20
4.117057902350635
 30
0.0
 11
2.916856839757188
 21
4.119026406287645
 31
0.0
  0
LINE
  5
395F
330
1E
100
AcDbEntity
  8
7
100
AcDbLine
 10
2.916856839757188
 20
4.119026406287645
 30
0.0
 11
2.91488833582018
 21
4.120994910224652
 31
0.0
  0
LINE
  5
3960
330
1E
100
AcDbEntity
  8
7
100
AcDbLine
 10
2.905045816135141
 20
4.071782311799456
 30
0.0
 11
2.905045816135141
 21
4.120994910224652
 31
0.0
  0
LINE
  5
3961
330
1E
100
AcDbEntity
  8
7
100
AcDbLine
 10
2.905045816135141
 20
4.120994910224652
 30
0.0
 11
2.91488833582018
 21
4.120994910224652
 31
0.0
  0
LINE
  5
3962
330
1E
100
AcDbEntity
  8
7
100
AcDbLine
 10
2.928667863379235
 20
4.052097272429376
 30
0.0
 11
2.879455264954038
 21
4.052097272429376
 31
0.0
  0
LINE
  5
3963
330
1E
100
AcDbEntity
  8
7
100
AcDbLine
 10
2.879455264954038
 20
4.052097272429376
 30
0.0
 11
2.879455264954038
 21
4.138711445657722
 31
0.0
  0
LINE
  5
3964
330
1E
100
AcDbEntity
  8
7
100
AcDbLine
 10
2.928667863379235
 20
4.054065776366384
 30
0.0
 11
2.938510383064275
 21
4.0580027842404
 31
0.0
  0
LINE
  5
3965
330
1E
100
AcDbEntity
  8
7
100
AcDbLine
 10
2.938510383064275
 20
4.0580027842404
 30
0.0
 11
2.942447390938291
 21
4.067845303925439
 31
0.0
  0
LINE
  5
3966
330
1E
100
AcDbEntity
  8
7
100
AcDbLine
 10
2.942447390938291
 20
4.12296341416166
 30
0.0
 11
2.938510383064275
 21
4.132805933846698
 31
0.0
  0
LINE
  5
3967
330
1E
100
AcDbEntity
  8
7
100
AcDbLine
 10
2.938510383064275
 20
4.132805933846698
 30
0.0
 11
2.928667863379235
 21
4.136742941720715
 31
0.0
  0
LINE
  5
3968
330
1E
100
AcDbEntity
  8
7
100
AcDbLine
 10
2.987722981489471
 20
4.075719319673471
 30
0.0
 11
2.989691485426479
 21
4.073750815736463
 31
0.0
  0
LINE
  5
3969
330
1E
100
AcDbEntity
  8
7
100
AcDbLine
 10
2.989691485426479
 20
4.073750815736463
 30
0.0
 11
2.991659989363487
 21
4.071782311799456
 31
0.0
  0
LINE
  5
396A
330
1E
100
AcDbEntity
  8
7
100
AcDbLine
 10
2.997565501174511
 20
4.071782311799456
 30
0.0
 11
2.999534005111518
 21
4.073750815736463
 31
0.0
  0
LINE
  5
396B
330
1E
100
AcDbEntity
  8
7
100
AcDbLine
 10
2.999534005111518
 20
4.073750815736463
 30
0.0
 11
3.001502509048527
 21
4.075719319673471
 31
0.0
  0
LINE
  5
396C
330
1E
100
AcDbEntity
  8
7
100
AcDbLine
 10
3.005439516922542
 20
4.054065776366384
 30
0.0
 11
3.015282036607581
 21
4.0580027842404
 31
0.0
  0
LINE
  5
396D
330
1E
100
AcDbEntity
  8
7
100
AcDbLine
 10
3.015282036607581
 20
4.0580027842404
 30
0.0
 11
3.019219044481597
 21
4.067845303925439
 31
0.0
  0
LINE
  5
396E
330
1E
100
AcDbEntity
  8
7
100
AcDbLine
 10
2.960163926371361
 20
4.067845303925439
 30
0.0
 11
2.964100934245377
 21
4.0580027842404
 31
0.0
  0
LINE
  5
396F
330
1E
100
AcDbEntity
  8
7
100
AcDbLine
 10
2.964100934245377
 20
4.0580027842404
 30
0.0
 11
2.973943453930417
 21
4.054065776366384
 31
0.0
  0
LINE
  5
3970
330
1E
100
AcDbEntity
  8
7
100
AcDbLine
 10
1.899140304324117
 20
5.382805933846698
 30
0.0
 11
1.899140304324117
 21
5.357215382665597
 31
0.0
  0
LINE
  5
3971
330
1E
100
AcDbEntity
  8
7
100
AcDbLine
 10
1.899140304324117
 20
5.357215382665597
 30
0.0
 11
1.468037942119392
 21
5.357215382665597
 31
0.0
  0
LINE
  5
3972
330
1E
100
AcDbEntity
  8
7
100
AcDbLine
 10
2.088116682276873
 20
5.382805933846698
 30
0.0
 11
2.101896209835928
 21
5.382805933846698
 31
0.0
  0
LINE
  5
3973
330
1E
100
AcDbEntity
  8
7
100
AcDbLine
 10
2.101896209835928
 20
5.382805933846698
 30
0.0
 11
1.899140304324117
 21
5.382805933846698
 31
0.0
  0
LINE
  5
3974
330
1E
100
AcDbEntity
  8
7
100
AcDbLine
 10
1.899140304324117
 20
5.382805933846698
 30
0.0
 11
1.899140304324117
 21
5.357215382665597
 31
0.0
  0
LINE
  5
3975
330
1E
100
AcDbEntity
  8
7
100
AcDbLine
 10
2.088116682276873
 20
5.382805933846698
 30
0.0
 11
1.912919831883172
 21
5.382805933846698
 31
0.0
  0
LINE
  5
3976
330
1E
100
AcDbEntity
  8
7
100
AcDbLine
 10
1.912919831883172
 20
5.382805933846698
 30
0.0
 11
1.912919831883172
 21
5.349341366917565
 31
0.0
  0
LINE
  5
3977
330
1E
100
AcDbEntity
  8
7
100
AcDbLine
 10
2.107801721646952
 20
5.006821681878195
 30
0.0
 11
1.893234792513093
 21
5.006821681878195
 31
0.0
  0
LINE
  5
3978
330
1E
100
AcDbEntity
  8
7
100
AcDbLine
 10
1.893234792513093
 20
5.006821681878195
 30
0.0
 11
1.875518257080022
 21
4.79028624880733
 31
0.0
  0
LINE
  5
3979
330
1E
100
AcDbEntity
  8
7
100
AcDbLine
 10
1.893234792513093
 20
5.042254752744337
 30
0.0
 11
1.895203296450102
 21
5.028475225185282
 31
0.0
  0
LINE
  5
397A
330
1E
100
AcDbEntity
  8
7
100
AcDbLine
 10
1.895203296450102
 20
5.028475225185282
 30
0.0
 11
2.105833217709943
 21
5.028475225185282
 31
0.0
  0
LINE
  5
397B
330
1E
100
AcDbEntity
  8
7
100
AcDbLine
 10
1.893234792513093
 20
5.042254752744337
 30
0.0
 11
2.107801721646952
 21
5.042254752744337
 31
0.0
  0
LINE
  5
397C
330
1E
100
AcDbEntity
  8
7
100
AcDbLine
 10
2.107801721646952
 20
5.042254752744337
 30
0.0
 11
2.107801721646952
 21
5.063908296051424
 31
0.0
  0
LINE
  5
397D
330
1E
100
AcDbEntity
  8
7
100
AcDbLine
 10
1.893234792513093
 20
5.065876799988432
 30
0.0
 11
1.893234792513093
 21
5.063908296051424
 31
0.0
  0
LINE
  5
397E
330
1E
100
AcDbEntity
  8
7
100
AcDbLine
 10
1.893234792513093
 20
5.063908296051424
 30
0.0
 11
2.107801721646952
 21
5.063908296051424
 31
0.0
  0
LINE
  5
397F
330
1E
100
AcDbEntity
  8
7
100
AcDbLine
 10
2.107801721646952
 20
5.075719319673471
 30
0.0
 11
1.893234792513093
 21
5.075719319673471
 31
0.0
  0
LINE
  5
3980
330
1E
100
AcDbEntity
  8
7
100
AcDbLine
 10
1.893234792513093
 20
5.075719319673471
 30
0.0
 11
1.893234792513093
 21
5.067845303925439
 31
0.0
  0
LINE
  5
3981
330
1E
100
AcDbEntity
  8
7
100
AcDbLine
 10
1.893234792513093
 20
5.067845303925439
 30
0.0
 11
2.107801721646952
 21
5.067845303925439
 31
0.0
  0
LINE
  5
3982
330
1E
100
AcDbEntity
  8
7
100
AcDbLine
 10
2.107801721646952
 20
5.067845303925439
 30
0.0
 11
2.107801721646952
 21
5.075719319673471
 31
0.0
  0
LINE
  5
3983
330
1E
100
AcDbEntity
  8
7
100
AcDbLine
 10
1.895203296450102
 20
5.093435855106541
 30
0.0
 11
2.105833217709943
 21
5.093435855106541
 31
0.0
  0
LINE
  5
3984
330
1E
100
AcDbEntity
  8
7
100
AcDbLine
 10
2.105833217709943
 20
5.093435855106541
 30
0.0
 11
2.107801721646952
 21
5.075719319673471
 31
0.0
  0
LINE
  5
3985
330
1E
100
AcDbEntity
  8
7
100
AcDbLine
 10
1.471974949993408
 20
5.006821681878195
 30
0.0
 11
1.259376524796558
 21
5.006821681878195
 31
0.0
  0
LINE
  5
3986
330
1E
100
AcDbEntity
  8
7
100
AcDbLine
 10
1.259376524796558
 20
5.006821681878195
 30
0.0
 11
1.239691485426479
 21
4.79028624880733
 31
0.0
  0
LINE
  5
3987
330
1E
100
AcDbEntity
  8
7
100
AcDbLine
 10
1.259376524796558
 20
5.042254752744337
 30
0.0
 11
1.259376524796558
 21
5.028475225185282
 31
0.0
  0
LINE
  5
3988
330
1E
100
AcDbEntity
  8
7
100
AcDbLine
 10
1.259376524796558
 20
5.028475225185282
 30
0.0
 11
1.471974949993408
 21
5.028475225185282
 31
0.0
  0
LINE
  5
3989
330
1E
100
AcDbEntity
  8
7
100
AcDbLine
 10
1.25740802085955
 20
5.067845303925439
 30
0.0
 11
1.25740802085955
 21
5.065876799988432
 31
0.0
  0
LINE
  5
398A
330
1E
100
AcDbEntity
  8
7
100
AcDbLine
 10
1.25740802085955
 20
5.065876799988432
 30
0.0
 11
1.473943453930417
 21
5.065876799988432
 31
0.0
  0
LINE
  5
398B
330
1E
100
AcDbEntity
  8
7
100
AcDbLine
 10
1.471974949993408
 20
5.093435855106541
 30
0.0
 11
1.473943453930417
 21
5.075719319673471
 31
0.0
  0
LINE
  5
398C
330
1E
100
AcDbEntity
  8
7
100
AcDbLine
 10
1.473943453930417
 20
5.075719319673471
 30
0.0
 11
1.473943453930417
 21
5.067845303925439
 31
0.0
  0
LINE
  5
398D
330
1E
100
AcDbEntity
  8
7
100
AcDbLine
 10
1.471974949993408
 20
5.093435855106541
 30
0.0
 11
1.259376524796558
 21
5.093435855106541
 31
0.0
  0
LINE
  5
398E
330
1E
100
AcDbEntity
  8
7
100
AcDbLine
 10
1.259376524796558
 20
5.093435855106541
 30
0.0
 11
1.25740802085955
 21
5.075719319673471
 31
0.0
  0
LINE
  5
398F
330
1E
100
AcDbEntity
  8
7
100
AcDbLine
 10
3.328274162591833
 20
3.723357114949061
 30
0.0
 11
3.34992770589892
 21
3.731231130697093
 31
0.0
  0
LINE
  5
3990
330
1E
100
AcDbEntity
  8
7
100
AcDbLine
 10
3.34992770589892
 20
3.731231130697093
 30
0.0
 11
3.357801721646952
 21
3.754853177941187
 31
0.0
  0
LINE
  5
3991
330
1E
100
AcDbEntity
  8
7
100
AcDbLine
 10
3.186541879127267
 20
3.894616957468747
 30
0.0
 11
3.221974949993408
 21
3.851309870854572
 31
0.0
  0
LINE
  5
3992
330
1E
100
AcDbEntity
  8
7
100
AcDbLine
 10
3.221974949993408
 20
3.851309870854572
 30
0.0
 11
3.253471012985534
 21
3.811939792114415
 31
0.0
  0
LINE
  5
3993
330
1E
100
AcDbEntity
  8
7
100
AcDbLine
 10
3.253471012985534
 20
3.811939792114415
 30
0.0
 11
3.282998572040653
 21
3.776506721248274
 31
0.0
  0
LINE
  5
3994
330
1E
100
AcDbEntity
  8
7
100
AcDbLine
 10
3.282998572040653
 20
3.776506721248274
 30
0.0
 11
3.304652115347739
 21
3.748947666130163
 31
0.0
  0
LINE
  5
3995
330
1E
100
AcDbEntity
  8
7
100
AcDbLine
 10
3.304652115347739
 20
3.748947666130163
 30
0.0
 11
3.320400146843802
 21
3.731231130697093
 31
0.0
  0
LINE
  5
3996
330
1E
100
AcDbEntity
  8
7
100
AcDbLine
 10
3.320400146843802
 20
3.731231130697093
 30
0.0
 11
3.328274162591833
 21
3.723357114949061
 31
0.0
  0
LINE
  5
3997
330
1E
100
AcDbEntity
  8
7
100
AcDbLine
 10
0.1786678633792353
 20
3.894616957468747
 30
0.0
 11
0.1452032964501015
 21
3.851309870854572
 31
0.0
  0
LINE
  5
3998
330
1E
100
AcDbEntity
  8
7
100
AcDbLine
 10
0.1452032964501015
 20
3.851309870854572
 30
0.0
 11
0.1117387295209677
 21
3.811939792114415
 31
0.0
  0
LINE
  5
3999
330
1E
100
AcDbEntity
  8
7
100
AcDbLine
 10
0.1117387295209677
 20
3.811939792114415
 30
0.0
 11
0.0841796744028576
 21
3.776506721248274
 31
0.0
  0
LINE
  5
399A
330
1E
100
AcDbEntity
  8
7
100
AcDbLine
 10
0.0841796744028576
 20
3.776506721248274
 30
0.0
 11
0.0605576271587631
 21
3.748947666130163
 31
0.0
  0
LINE
  5
399B
330
1E
100
AcDbEntity
  8
7
100
AcDbLine
 10
0.0605576271587631
 20
3.748947666130163
 30
0.0
 11
0.0448095956627002
 21
3.731231130697093
 31
0.0
  0
LINE
  5
399C
330
1E
100
AcDbEntity
  8
7
100
AcDbLine
 10
0.0448095956627002
 20
3.731231130697093
 30
0.0
 11
0.0389040838516766
 21
3.723357114949061
 31
0.0
  0
LINE
  5
399D
330
1E
100
AcDbEntity
  8
7
100
AcDbLine
 10
0.0389040838516766
 20
3.723357114949061
 30
0.0
 11
0.01725054054459
 21
3.731231130697093
 31
0.0
  0
LINE
  5
399E
330
1E
100
AcDbEntity
  8
7
100
AcDbLine
 10
0.01725054054459
 20
3.731231130697093
 30
0.0
 11
0.0074080208595506
 21
3.754853177941187
 31
0.0
  0
LINE
  5
399F
330
1E
100
AcDbEntity
  8
7
100
AcDbLine
 10
0.4207938476312041
 20
5.276506721248274
 30
0.0
 11
0.4207938476312041
 21
5.207609083452998
 31
0.0
  0
LINE
  5
39A0
330
1E
100
AcDbEntity
  8
7
100
AcDbLine
 10
0.4207938476312041
 20
5.207609083452998
 30
0.0
 11
0.5704001468438023
 21
5.207609083452998
 31
0.0
  0
LINE
  5
39A1
330
1E
100
AcDbEntity
  8
7
100
AcDbLine
 10
0.8026836114107318
 20
4.853278374791582
 30
0.0
 11
0.8184316429067948
 21
4.802097272429376
 31
0.0
  0
LINE
  5
39A2
330
1E
100
AcDbEntity
  8
7
100
AcDbLine
 10
0.8184316429067948
 20
4.802097272429376
 30
0.0
 11
0.8400851862138809
 21
4.762727193689219
 31
0.0
  0
LINE
  5
39A3
330
1E
100
AcDbEntity
  8
7
100
AcDbLine
 10
0.8400851862138809
 20
4.762727193689219
 30
0.0
 11
0.8676442413319911
 21
4.741073650382132
 31
0.0
  0
LINE
  5
39A4
330
1E
100
AcDbEntity
  8
7
100
AcDbLine
 10
2.56252613109577
 20
4.853278374791582
 30
0.0
 11
2.548746603536716
 21
4.802097272429376
 31
0.0
  0
LINE
  5
39A5
330
1E
100
AcDbEntity
  8
7
100
AcDbLine
 10
2.548746603536716
 20
4.802097272429376
 30
0.0
 11
2.527093060229629
 21
4.762727193689219
 31
0.0
  0
LINE
  5
39A6
330
1E
100
AcDbEntity
  8
7
100
AcDbLine
 10
2.527093060229629
 20
4.762727193689219
 30
0.0
 11
2.499534005111518
 21
4.741073650382132
 31
0.0
  0
LINE
  5
39A7
330
1E
100
AcDbEntity
  8
7
100
AcDbLine
 10
2.499534005111518
 20
4.741073650382132
 30
0.0
 11
2.245596997237503
 21
4.741073650382132
 31
0.0
  0
LINE
  5
39A8
330
1E
100
AcDbEntity
  8
7
100
AcDbLine
 10
2.245596997237503
 20
4.741073650382132
 30
0.0
 11
1.755439516922542
 21
4.741073650382132
 31
0.0
  0
LINE
  5
39A9
330
1E
100
AcDbEntity
  8
7
100
AcDbLine
 10
1.755439516922542
 20
4.741073650382132
 30
0.0
 11
1.609770225583959
 21
4.741073650382132
 31
0.0
  0
LINE
  5
39AA
330
1E
100
AcDbEntity
  8
7
100
AcDbLine
 10
2.946384398812306
 20
5.254853177941187
 30
0.0
 11
2.946384398812306
 21
5.207609083452998
 31
0.0
  0
LINE
  5
39AB
330
1E
100
AcDbEntity
  8
7
100
AcDbLine
 10
2.946384398812306
 20
5.207609083452998
 30
0.0
 11
2.796778099599707
 21
5.207609083452998
 31
0.0
  0
LINE
  5
39AC
330
1E
100
AcDbEntity
  8
7
100
AcDbLine
 10
3.345990698024905
 20
3.705640579515991
 30
0.0
 11
3.367644241331991
 21
3.713514595264022
 31
0.0
  0
LINE
  5
39AD
330
1E
100
AcDbEntity
  8
7
100
AcDbLine
 10
3.367644241331991
 20
3.713514595264022
 30
0.0
 11
3.375518257080022
 21
3.735168138571109
 31
0.0
  0
LINE
  5
39AE
330
1E
100
AcDbEntity
  8
7
100
AcDbLine
 10
0.0211875484186057
 20
3.705640579515991
 30
0.0
 11
-0.0004659948884809
 21
3.713514595264022
 31
0.0
  0
LINE
  5
39AF
330
1E
100
AcDbEntity
  8
7
100
AcDbLine
 10
-0.0004659948884809
 20
3.713514595264022
 30
0.0
 11
-0.0103085145735207
 21
3.735168138571109
 31
0.0
  0
LINE
  5
39B0
330
1E
100
AcDbEntity
  8
7
100
AcDbLine
 10
-0.0103085145735207
 20
7.059971288177408
 30
0.0
 11
-0.0103085145735207
 21
3.735168138571109
 31
0.0
  0
LINE
  5
39B1
330
1E
100
AcDbEntity
  8
7
100
AcDbLine
 10
-0.0103085145735207
 20
3.735168138571109
 30
0.0
 11
0.0074080208595506
 21
3.754853177941187
 31
0.0
  0
LINE
  5
39B2
330
1E
100
AcDbEntity
  8
7
100
AcDbLine
 10
0.0349670759776608
 20
3.776506721248274
 30
0.0
 11
0.0152820366075821
 21
3.760758689752211
 31
0.0
  0
LINE
  5
39B3
330
1E
100
AcDbEntity
  8
7
100
AcDbLine
 10
0.0152820366075821
 20
3.760758689752211
 30
0.0
 11
0.0074080208595506
 21
3.754853177941187
 31
0.0
  0
LINE
  5
39B4
330
1E
100
AcDbEntity
  8
7
100
AcDbLine
 10
0.1786678633792353
 20
3.894616957468747
 30
0.0
 11
0.1373292807020701
 21
3.859183886602604
 31
0.0
  0
LINE
  5
39B5
330
1E
100
AcDbEntity
  8
7
100
AcDbLine
 10
0.1373292807020701
 20
3.859183886602604
 30
0.0
 11
0.0959906980249048
 21
3.827687823610478
 31
0.0
  0
LINE
  5
39B6
330
1E
100
AcDbEntity
  8
7
100
AcDbLine
 10
0.0959906980249048
 20
3.827687823610478
 30
0.0
 11
0.062526131095771
 21
3.798160264555361
 31
0.0
  0
LINE
  5
39B7
330
1E
100
AcDbEntity
  8
7
100
AcDbLine
 10
0.062526131095771
 20
3.798160264555361
 30
0.0
 11
0.0349670759776608
 21
3.776506721248274
 31
0.0
  0
LINE
  5
39B8
330
1E
100
AcDbEntity
  8
7
100
AcDbLine
 10
3.186541879127267
 20
6.902490973216778
 30
0.0
 11
3.186541879127267
 21
3.894616957468747
 31
0.0
  0
LINE
  5
39B9
330
1E
100
AcDbEntity
  8
7
100
AcDbLine
 10
3.186541879127267
 20
3.894616957468747
 30
0.0
 11
3.22984896574144
 21
3.859183886602604
 31
0.0
  0
LINE
  5
39BA
330
1E
100
AcDbEntity
  8
7
100
AcDbLine
 10
3.22984896574144
 20
3.859183886602604
 30
0.0
 11
3.269219044481597
 21
3.827687823610478
 31
0.0
  0
LINE
  5
39BB
330
1E
100
AcDbEntity
  8
7
100
AcDbLine
 10
3.269219044481597
 20
3.827687823610478
 30
0.0
 11
3.304652115347739
 21
3.798160264555361
 31
0.0
  0
LINE
  5
39BC
330
1E
100
AcDbEntity
  8
7
100
AcDbLine
 10
3.304652115347739
 20
3.798160264555361
 30
0.0
 11
3.332211170465849
 21
3.776506721248274
 31
0.0
  0
LINE
  5
39BD
330
1E
100
AcDbEntity
  8
7
100
AcDbLine
 10
3.332211170465849
 20
3.776506721248274
 30
0.0
 11
3.34992770589892
 21
3.760758689752211
 31
0.0
  0
LINE
  5
39BE
330
1E
100
AcDbEntity
  8
7
100
AcDbLine
 10
3.34992770589892
 20
3.760758689752211
 30
0.0
 11
3.357801721646952
 21
3.754853177941187
 31
0.0
  0
LINE
  5
39BF
330
1E
100
AcDbEntity
  8
7
100
AcDbLine
 10
3.357801721646952
 20
3.754853177941187
 30
0.0
 11
3.357801721646952
 21
7.042254752744337
 31
0.0
  0
LINE
  5
39C0
330
1E
100
AcDbEntity
  8
7
100
AcDbLine
 10
2.826305658654826
 20
5.463514595264022
 30
0.0
 11
2.802683611410731
 21
5.435955540145911
 31
0.0
  0
LINE
  5
39C1
330
1E
100
AcDbEntity
  8
7
100
AcDbLine
 10
2.802683611410731
 20
5.435955540145911
 30
0.0
 11
2.792841091725692
 21
5.398553965342761
 31
0.0
  0
LINE
  5
39C2
330
1E
100
AcDbEntity
  8
7
100
AcDbLine
 10
2.792841091725692
 20
5.398553965342761
 30
0.0
 11
2.802683611410731
 21
5.361152390539613
 31
0.0
  0
LINE
  5
39C3
330
1E
100
AcDbEntity
  8
7
100
AcDbLine
 10
2.802683611410731
 20
5.361152390539613
 30
0.0
 11
2.826305658654826
 21
5.333593335421502
 31
0.0
  0
LINE
  5
39C4
330
1E
100
AcDbEntity
  8
7
100
AcDbLine
 10
2.826305658654826
 20
5.333593335421502
 30
0.0
 11
2.861738729520967
 21
5.319813807862447
 31
0.0
  0
LINE
  5
39C5
330
1E
100
AcDbEntity
  8
7
100
AcDbLine
 10
2.861738729520967
 20
5.319813807862447
 30
0.0
 11
2.899140304324117
 21
5.325719319673471
 31
0.0
  0
LINE
  5
39C6
330
1E
100
AcDbEntity
  8
7
100
AcDbLine
 10
2.899140304324117
 20
5.325719319673471
 30
0.0
 11
2.930636367316243
 21
5.34540435904355
 31
0.0
  0
LINE
  5
39C7
330
1E
100
AcDbEntity
  8
7
100
AcDbLine
 10
2.930636367316243
 20
5.34540435904355
 30
0.0
 11
2.948352902749314
 21
5.378868925972684
 31
0.0
  0
LINE
  5
39C8
330
1E
100
AcDbEntity
  8
7
100
AcDbLine
 10
2.948352902749314
 20
5.378868925972684
 30
0.0
 11
2.948352902749314
 21
5.418239004712841
 31
0.0
  0
LINE
  5
39C9
330
1E
100
AcDbEntity
  8
7
100
AcDbLine
 10
2.948352902749314
 20
5.418239004712841
 30
0.0
 11
2.930636367316243
 21
5.451703571641974
 31
0.0
  0
LINE
  5
39CA
330
1E
100
AcDbEntity
  8
7
100
AcDbLine
 10
2.930636367316243
 20
5.451703571641974
 30
0.0
 11
2.899140304324117
 21
5.471388611012054
 31
0.0
  0
LINE
  5
39CB
330
1E
100
AcDbEntity
  8
7
100
AcDbLine
 10
2.899140304324117
 20
5.471388611012054
 30
0.0
 11
2.861738729520967
 21
5.477294122823078
 31
0.0
  0
LINE
  5
39CC
330
1E
100
AcDbEntity
  8
7
100
AcDbLine
 10
2.861738729520967
 20
5.477294122823078
 30
0.0
 11
2.826305658654826
 21
5.463514595264022
 31
0.0
  0
LINE
  5
39CD
330
1E
100
AcDbEntity
  8
7
100
AcDbLine
 10
0.574337154717818
 20
5.398553965342761
 30
0.0
 11
0.5644946350327791
 21
5.435955540145911
 31
0.0
  0
LINE
  5
39CE
330
1E
100
AcDbEntity
  8
7
100
AcDbLine
 10
0.5644946350327791
 20
5.435955540145911
 30
0.0
 11
0.5408725877886847
 21
5.463514595264022
 31
0.0
  0
LINE
  5
39CF
330
1E
100
AcDbEntity
  8
7
100
AcDbLine
 10
0.5408725877886847
 20
5.463514595264022
 30
0.0
 11
0.505439516922543
 21
5.477294122823078
 31
0.0
  0
LINE
  5
39D0
330
1E
100
AcDbEntity
  8
7
100
AcDbLine
 10
0.505439516922543
 20
5.477294122823078
 30
0.0
 11
0.468037942119393
 21
5.471388611012054
 31
0.0
  0
LINE
  5
39D1
330
1E
100
AcDbEntity
  8
7
100
AcDbLine
 10
0.468037942119393
 20
5.471388611012054
 30
0.0
 11
0.4365418791272671
 21
5.451703571641974
 31
0.0
  0
LINE
  5
39D2
330
1E
100
AcDbEntity
  8
7
100
AcDbLine
 10
0.4365418791272671
 20
5.451703571641974
 30
0.0
 11
0.4188253436941958
 21
5.418239004712841
 31
0.0
  0
LINE
  5
39D3
330
1E
100
AcDbEntity
  8
7
100
AcDbLine
 10
0.4188253436941958
 20
5.418239004712841
 30
0.0
 11
0.4188253436941958
 21
5.378868925972684
 31
0.0
  0
LINE
  5
39D4
330
1E
100
AcDbEntity
  8
7
100
AcDbLine
 10
0.4188253436941958
 20
5.378868925972684
 30
0.0
 11
0.4365418791272671
 21
5.34540435904355
 31
0.0
  0
LINE
  5
39D5
330
1E
100
AcDbEntity
  8
7
100
AcDbLine
 10
0.4365418791272671
 20
5.34540435904355
 30
0.0
 11
0.468037942119393
 21
5.325719319673471
 31
0.0
  0
LINE
  5
39D6
330
1E
100
AcDbEntity
  8
7
100
AcDbLine
 10
0.468037942119393
 20
5.325719319673471
 30
0.0
 11
0.505439516922543
 21
5.319813807862447
 31
0.0
  0
LINE
  5
39D7
330
1E
100
AcDbEntity
  8
7
100
AcDbLine
 10
0.505439516922543
 20
5.319813807862447
 30
0.0
 11
0.5408725877886847
 21
5.333593335421502
 31
0.0
  0
LINE
  5
39D8
330
1E
100
AcDbEntity
  8
7
100
AcDbLine
 10
0.5408725877886847
 20
5.333593335421502
 30
0.0
 11
0.5644946350327791
 21
5.361152390539613
 31
0.0
  0
LINE
  5
39D9
330
1E
100
AcDbEntity
  8
7
100
AcDbLine
 10
0.6314237688910467
 20
5.487136642508117
 30
0.0
 11
0.595990698024905
 21
5.526506721248274
 31
0.0
  0
LINE
  5
39DA
330
1E
100
AcDbEntity
  8
7
100
AcDbLine
 10
0.595990698024905
 20
5.526506721248274
 30
0.0
 11
0.5487466035367162
 21
5.552097272429376
 31
0.0
  0
LINE
  5
39DB
330
1E
100
AcDbEntity
  8
7
100
AcDbLine
 10
0.5487466035367162
 20
5.552097272429376
 30
0.0
 11
0.4955969972375032
 21
5.559971288177408
 31
0.0
  0
LINE
  5
39DC
330
1E
100
AcDbEntity
  8
7
100
AcDbLine
 10
0.4955969972375032
 20
5.559971288177408
 30
0.0
 11
0.4424473909382903
 21
5.552097272429376
 31
0.0
  0
LINE
  5
39DD
330
1E
100
AcDbEntity
  8
7
100
AcDbLine
 10
0.4424473909382903
 20
5.552097272429376
 30
0.0
 11
0.3952032964501013
 21
5.526506721248274
 31
0.0
  0
LINE
  5
39DE
330
1E
100
AcDbEntity
  8
7
100
AcDbLine
 10
0.3952032964501013
 20
5.526506721248274
 30
0.0
 11
0.3597702255839597
 21
5.487136642508117
 31
0.0
  0
LINE
  5
39DF
330
1E
100
AcDbEntity
  8
7
100
AcDbLine
 10
0.3597702255839597
 20
5.487136642508117
 30
0.0
 11
0.3381166822768735
 21
5.437924044082921
 31
0.0
  0
LINE
  5
39E0
330
1E
100
AcDbEntity
  8
7
100
AcDbLine
 10
0.3381166822768735
 20
5.437924044082921
 30
0.0
 11
0.3341796744028578
 21
5.384774437783708
 31
0.0
  0
LINE
  5
39E1
330
1E
100
AcDbEntity
  8
7
100
AcDbLine
 10
0.3341796744028578
 20
5.384774437783708
 30
0.0
 11
0.3479592019619124
 21
5.331624831484495
 31
0.0
  0
LINE
  5
39E2
330
1E
100
AcDbEntity
  8
7
100
AcDbLine
 10
0.3479592019619124
 20
5.331624831484495
 30
0.0
 11
0.3774867610170309
 21
5.288317744870321
 31
0.0
  0
LINE
  5
39E3
330
1E
100
AcDbEntity
  8
7
100
AcDbLine
 10
0.3774867610170309
 20
5.288317744870321
 30
0.0
 11
0.4207938476312041
 21
5.254853177941187
 31
0.0
  0
LINE
  5
39E4
330
1E
100
AcDbEntity
  8
7
100
AcDbLine
 10
0.5704001468438023
 20
5.254853177941187
 30
0.0
 11
0.6137072334579754
 21
5.288317744870321
 31
0.0
  0
LINE
  5
39E5
330
1E
100
AcDbEntity
  8
7
100
AcDbLine
 10
0.6137072334579754
 20
5.288317744870321
 30
0.0
 11
0.6432347925130939
 21
5.331624831484495
 31
0.0
  0
LINE
  5
39E6
330
1E
100
AcDbEntity
  8
7
100
AcDbLine
 10
0.6432347925130939
 20
5.331624831484495
 30
0.0
 11
0.6570143200721495
 21
5.384774437783708
 31
0.0
  0
LINE
  5
39E7
330
1E
100
AcDbEntity
  8
7
100
AcDbLine
 10
0.6570143200721495
 20
5.384774437783708
 30
0.0
 11
0.6530773121981337
 21
5.437924044082921
 31
0.0
  0
LINE
  5
39E8
330
1E
100
AcDbEntity
  8
7
100
AcDbLine
 10
0.6530773121981337
 20
5.437924044082921
 30
0.0
 11
0.6314237688910467
 21
5.487136642508117
 31
0.0
  0
LINE
  5
39E9
330
1E
100
AcDbEntity
  8
7
100
AcDbLine
 10
0.6137072334579754
 20
5.288317744870321
 30
0.0
 11
0.6432347925130939
 21
5.331624831484495
 31
0.0
  0
LINE
  5
39EA
330
1E
100
AcDbEntity
  8
7
100
AcDbLine
 10
0.6432347925130939
 20
5.331624831484495
 30
0.0
 11
0.6570143200721495
 21
5.384774437783708
 31
0.0
  0
LINE
  5
39EB
330
1E
100
AcDbEntity
  8
7
100
AcDbLine
 10
0.6570143200721495
 20
5.384774437783708
 30
0.0
 11
0.6530773121981337
 21
5.437924044082921
 31
0.0
  0
LINE
  5
39EC
330
1E
100
AcDbEntity
  8
7
100
AcDbLine
 10
0.6530773121981337
 20
5.437924044082921
 30
0.0
 11
0.6314237688910467
 21
5.487136642508117
 31
0.0
  0
LINE
  5
39ED
330
1E
100
AcDbEntity
  8
7
100
AcDbLine
 10
0.6314237688910467
 20
5.487136642508117
 30
0.0
 11
0.595990698024905
 21
5.526506721248274
 31
0.0
  0
LINE
  5
39EE
330
1E
100
AcDbEntity
  8
7
100
AcDbLine
 10
0.595990698024905
 20
5.526506721248274
 30
0.0
 11
0.5487466035367162
 21
5.552097272429376
 31
0.0
  0
LINE
  5
39EF
330
1E
100
AcDbEntity
  8
7
100
AcDbLine
 10
0.5487466035367162
 20
5.552097272429376
 30
0.0
 11
0.4955969972375032
 21
5.559971288177408
 31
0.0
  0
LINE
  5
39F0
330
1E
100
AcDbEntity
  8
7
100
AcDbLine
 10
0.4955969972375032
 20
5.559971288177408
 30
0.0
 11
0.4424473909382903
 21
5.552097272429376
 31
0.0
  0
LINE
  5
39F1
330
1E
100
AcDbEntity
  8
7
100
AcDbLine
 10
0.4424473909382903
 20
5.552097272429376
 30
0.0
 11
0.3952032964501013
 21
5.526506721248274
 31
0.0
  0
LINE
  5
39F2
330
1E
100
AcDbEntity
  8
7
100
AcDbLine
 10
0.3952032964501013
 20
5.526506721248274
 30
0.0
 11
0.3597702255839597
 21
5.487136642508117
 31
0.0
  0
LINE
  5
39F3
330
1E
100
AcDbEntity
  8
7
100
AcDbLine
 10
0.3597702255839597
 20
5.487136642508117
 30
0.0
 11
0.3381166822768735
 21
5.437924044082921
 31
0.0
  0
LINE
  5
39F4
330
1E
100
AcDbEntity
  8
7
100
AcDbLine
 10
0.3381166822768735
 20
5.437924044082921
 30
0.0
 11
0.3341796744028578
 21
5.384774437783708
 31
0.0
  0
LINE
  5
39F5
330
1E
100
AcDbEntity
  8
7
100
AcDbLine
 10
0.3341796744028578
 20
5.384774437783708
 30
0.0
 11
0.3479592019619124
 21
5.331624831484495
 31
0.0
  0
LINE
  5
39F6
330
1E
100
AcDbEntity
  8
7
100
AcDbLine
 10
0.3479592019619124
 20
5.331624831484495
 30
0.0
 11
0.3774867610170309
 21
5.288317744870321
 31
0.0
  0
LINE
  5
39F7
330
1E
100
AcDbEntity
  8
7
100
AcDbLine
 10
0.4188253436941958
 20
5.274538217311267
 30
0.0
 11
0.4207938476312041
 21
5.276506721248274
 31
0.0
  0
LINE
  5
39F8
330
1E
100
AcDbEntity
  8
7
100
AcDbLine
 10
0.4207938476312041
 20
5.276506721248274
 30
0.0
 11
0.4562269184973458
 21
5.258790185815204
 31
0.0
  0
LINE
  5
39F9
330
1E
100
AcDbEntity
  8
7
100
AcDbLine
 10
0.4562269184973458
 20
5.258790185815204
 30
0.0
 11
0.4955969972375032
 21
5.254853177941187
 31
0.0
  0
LINE
  5
39FA
330
1E
100
AcDbEntity
  8
7
100
AcDbLine
 10
0.4955969972375032
 20
5.254853177941187
 30
0.0
 11
0.5349670759776606
 21
5.258790185815204
 31
0.0
  0
LINE
  5
39FB
330
1E
100
AcDbEntity
  8
7
100
AcDbLine
 10
0.5349670759776606
 20
5.258790185815204
 30
0.0
 11
0.5704001468438023
 21
5.276506721248274
 31
0.0
  0
LINE
  5
39FC
330
1E
100
AcDbEntity
  8
7
100
AcDbLine
 10
0.5704001468438023
 20
5.276506721248274
 30
0.0
 11
0.5704001468438023
 21
5.274538217311267
 31
0.0
  0
LINE
  5
39FD
330
1E
100
AcDbEntity
  8
7
100
AcDbLine
 10
0.3518962098359282
 20
5.400522469279771
 30
0.0
 11
0.3597702255839597
 21
5.353278374791582
 31
0.0
  0
LINE
  5
39FE
330
1E
100
AcDbEntity
  8
7
100
AcDbLine
 10
0.3597702255839597
 20
5.353278374791582
 30
0.0
 11
0.3833922728280541
 21
5.309971288177408
 31
0.0
  0
LINE
  5
39FF
330
1E
100
AcDbEntity
  8
7
100
AcDbLine
 10
0.3833922728280541
 20
5.309971288177408
 30
0.0
 11
0.4207938476312041
 21
5.276506721248274
 31
0.0
  0
LINE
  5
3A00
330
1E
100
AcDbEntity
  8
7
100
AcDbLine
 10
0.5704001468438023
 20
5.276506721248274
 30
0.0
 11
0.6078017216469523
 21
5.309971288177408
 31
0.0
  0
LINE
  5
3A01
330
1E
100
AcDbEntity
  8
7
100
AcDbLine
 10
0.6078017216469523
 20
5.309971288177408
 30
0.0
 11
0.6314237688910467
 21
5.353278374791582
 31
0.0
  0
LINE
  5
3A02
330
1E
100
AcDbEntity
  8
7
100
AcDbLine
 10
0.6314237688910467
 20
5.353278374791582
 30
0.0
 11
0.6392977846390782
 21
5.400522469279771
 31
0.0
  0
LINE
  5
3A03
330
1E
100
AcDbEntity
  8
7
100
AcDbLine
 10
0.6392977846390782
 20
5.400522469279771
 30
0.0
 11
0.6294552649540393
 21
5.449735067704967
 31
0.0
  0
LINE
  5
3A04
330
1E
100
AcDbEntity
  8
7
100
AcDbLine
 10
0.6294552649540393
 20
5.449735067704967
 30
0.0
 11
0.6038647137729365
 21
5.491073650382132
 31
0.0
  0
LINE
  5
3A05
330
1E
100
AcDbEntity
  8
7
100
AcDbLine
 10
0.6038647137729365
 20
5.491073650382132
 30
0.0
 11
0.5664631389697865
 21
5.522569713374258
 31
0.0
  0
LINE
  5
3A06
330
1E
100
AcDbEntity
  8
7
100
AcDbLine
 10
0.5664631389697865
 20
5.522569713374258
 30
0.0
 11
0.521187548418606
 21
5.54028624880733
 31
0.0
  0
LINE
  5
3A07
330
1E
100
AcDbEntity
  8
7
100
AcDbLine
 10
0.521187548418606
 20
5.54028624880733
 30
0.0
 11
0.4700064460564004
 21
5.54028624880733
 31
0.0
  0
LINE
  5
3A08
330
1E
100
AcDbEntity
  8
7
100
AcDbLine
 10
0.4700064460564004
 20
5.54028624880733
 30
0.0
 11
0.4247308555052199
 21
5.522569713374258
 31
0.0
  0
LINE
  5
3A09
330
1E
100
AcDbEntity
  8
7
100
AcDbLine
 10
0.4247308555052199
 20
5.522569713374258
 30
0.0
 11
0.3873292807020698
 21
5.491073650382132
 31
0.0
  0
LINE
  5
3A0A
330
1E
100
AcDbEntity
  8
7
100
AcDbLine
 10
0.3873292807020698
 20
5.491073650382132
 30
0.0
 11
0.361738729520968
 21
5.449735067704967
 31
0.0
  0
LINE
  5
3A0B
330
1E
100
AcDbEntity
  8
7
100
AcDbLine
 10
0.361738729520968
 20
5.449735067704967
 30
0.0
 11
0.3518962098359282
 21
5.400522469279771
 31
0.0
  0
LINE
  5
3A0C
330
1E
100
AcDbEntity
  8
7
100
AcDbLine
 10
0.4247308555052199
 20
5.278475225185282
 30
0.0
 11
0.4719749499934088
 21
5.260758689752211
 31
0.0
  0
LINE
  5
3A0D
330
1E
100
AcDbEntity
  8
7
100
AcDbLine
 10
0.4719749499934088
 20
5.260758689752211
 30
0.0
 11
0.5192190444815977
 21
5.260758689752211
 31
0.0
  0
LINE
  5
3A0E
330
1E
100
AcDbEntity
  8
7
100
AcDbLine
 10
0.5192190444815977
 20
5.260758689752211
 30
0.0
 11
0.5644946350327791
 21
5.278475225185282
 31
0.0
  0
LINE
  5
3A0F
330
1E
100
AcDbEntity
  8
7
100
AcDbLine
 10
0.5644946350327791
 20
5.278475225185282
 30
0.0
 11
0.6018962098359282
 21
5.3080027842404
 31
0.0
  0
LINE
  5
3A10
330
1E
100
AcDbEntity
  8
7
100
AcDbLine
 10
0.6018962098359282
 20
5.3080027842404
 30
0.0
 11
0.627486761017031
 21
5.351309870854572
 31
0.0
  0
LINE
  5
3A11
330
1E
100
AcDbEntity
  8
7
100
AcDbLine
 10
0.627486761017031
 20
5.351309870854572
 30
0.0
 11
0.6353607767650625
 21
5.398553965342761
 31
0.0
  0
LINE
  5
3A12
330
1E
100
AcDbEntity
  8
7
100
AcDbLine
 10
0.6353607767650625
 20
5.398553965342761
 30
0.0
 11
0.627486761017031
 21
5.445798059830952
 31
0.0
  0
LINE
  5
3A13
330
1E
100
AcDbEntity
  8
7
100
AcDbLine
 10
0.627486761017031
 20
5.445798059830952
 30
0.0
 11
0.6018962098359282
 21
5.489105146445124
 31
0.0
  0
LINE
  5
3A14
330
1E
100
AcDbEntity
  8
7
100
AcDbLine
 10
0.6018962098359282
 20
5.489105146445124
 30
0.0
 11
0.5664631389697865
 21
5.518632705500243
 31
0.0
  0
LINE
  5
3A15
330
1E
100
AcDbEntity
  8
7
100
AcDbLine
 10
0.5664631389697865
 20
5.518632705500243
 30
0.0
 11
0.5192190444815977
 21
5.536349240933313
 31
0.0
  0
LINE
  5
3A16
330
1E
100
AcDbEntity
  8
7
100
AcDbLine
 10
0.5192190444815977
 20
5.536349240933313
 30
0.0
 11
0.4719749499934088
 21
5.536349240933313
 31
0.0
  0
LINE
  5
3A17
330
1E
100
AcDbEntity
  8
7
100
AcDbLine
 10
0.4719749499934088
 20
5.536349240933313
 30
0.0
 11
0.4266993594422273
 21
5.518632705500243
 31
0.0
  0
LINE
  5
3A18
330
1E
100
AcDbEntity
  8
7
100
AcDbLine
 10
0.4266993594422273
 20
5.518632705500243
 30
0.0
 11
0.3892977846390781
 21
5.489105146445124
 31
0.0
  0
LINE
  5
3A19
330
1E
100
AcDbEntity
  8
7
100
AcDbLine
 10
0.3892977846390781
 20
5.489105146445124
 30
0.0
 11
0.3637072334579754
 21
5.445798059830952
 31
0.0
  0
LINE
  5
3A1A
330
1E
100
AcDbEntity
  8
7
100
AcDbLine
 10
0.3637072334579754
 20
5.445798059830952
 30
0.0
 11
0.3558332177099439
 21
5.398553965342761
 31
0.0
  0
LINE
  5
3A1B
330
1E
100
AcDbEntity
  8
7
100
AcDbLine
 10
0.3558332177099439
 20
5.398553965342761
 30
0.0
 11
0.3637072334579754
 21
5.351309870854572
 31
0.0
  0
LINE
  5
3A1C
330
1E
100
AcDbEntity
  8
7
100
AcDbLine
 10
0.3637072334579754
 20
5.351309870854572
 30
0.0
 11
0.3892977846390781
 21
5.3080027842404
 31
0.0
  0
LINE
  5
3A1D
330
1E
100
AcDbEntity
  8
7
100
AcDbLine
 10
0.3892977846390781
 20
5.3080027842404
 30
0.0
 11
0.4247308555052199
 21
5.278475225185282
 31
0.0
  0
LINE
  5
3A1E
330
1E
100
AcDbEntity
  8
7
100
AcDbLine
 10
0.446384398812306
 20
5.459577587390006
 30
0.0
 11
0.4247308555052199
 21
5.432018532271897
 31
0.0
  0
LINE
  5
3A1F
330
1E
100
AcDbEntity
  8
7
100
AcDbLine
 10
0.4247308555052199
 20
5.432018532271897
 30
0.0
 11
0.4168568397571884
 21
5.398553965342761
 31
0.0
  0
LINE
  5
3A20
330
1E
100
AcDbEntity
  8
7
100
AcDbLine
 10
0.4168568397571884
 20
5.398553965342761
 30
0.0
 11
0.4247308555052199
 21
5.365089398413628
 31
0.0
  0
LINE
  5
3A21
330
1E
100
AcDbEntity
  8
7
100
AcDbLine
 10
0.4247308555052199
 20
5.365089398413628
 30
0.0
 11
0.446384398812306
 21
5.337530343295519
 31
0.0
  0
LINE
  5
3A22
330
1E
100
AcDbEntity
  8
7
100
AcDbLine
 10
0.446384398812306
 20
5.337530343295519
 30
0.0
 11
0.4778804618044319
 21
5.321782311799456
 31
0.0
  0
LINE
  5
3A23
330
1E
100
AcDbEntity
  8
7
100
AcDbLine
 10
0.4778804618044319
 20
5.321782311799456
 30
0.0
 11
0.5133135326705745
 21
5.321782311799456
 31
0.0
  0
LINE
  5
3A24
330
1E
100
AcDbEntity
  8
7
100
AcDbLine
 10
0.5133135326705745
 20
5.321782311799456
 30
0.0
 11
0.5448095956627004
 21
5.337530343295519
 31
0.0
  0
LINE
  5
3A25
330
1E
100
AcDbEntity
  8
7
100
AcDbLine
 10
0.5448095956627004
 20
5.337530343295519
 30
0.0
 11
0.5664631389697865
 21
5.365089398413628
 31
0.0
  0
LINE
  5
3A26
330
1E
100
AcDbEntity
  8
7
100
AcDbLine
 10
0.5664631389697865
 20
5.365089398413628
 30
0.0
 11
0.574337154717818
 21
5.398553965342761
 31
0.0
  0
LINE
  5
3A27
330
1E
100
AcDbEntity
  8
7
100
AcDbLine
 10
0.574337154717818
 20
5.398553965342761
 30
0.0
 11
0.5664631389697865
 21
5.432018532271897
 31
0.0
  0
LINE
  5
3A28
330
1E
100
AcDbEntity
  8
7
100
AcDbLine
 10
0.5664631389697865
 20
5.432018532271897
 30
0.0
 11
0.5448095956627004
 21
5.459577587390006
 31
0.0
  0
LINE
  5
3A29
330
1E
100
AcDbEntity
  8
7
100
AcDbLine
 10
0.5448095956627004
 20
5.459577587390006
 30
0.0
 11
0.5133135326705745
 21
5.475325618886069
 31
0.0
  0
LINE
  5
3A2A
330
1E
100
AcDbEntity
  8
7
100
AcDbLine
 10
0.5133135326705745
 20
5.475325618886069
 30
0.0
 11
0.4778804618044319
 21
5.475325618886069
 31
0.0
  0
LINE
  5
3A2B
330
1E
100
AcDbEntity
  8
7
100
AcDbLine
 10
0.4778804618044319
 20
5.475325618886069
 30
0.0
 11
0.446384398812306
 21
5.459577587390006
 31
0.0
  0
LINE
  5
3A2C
330
1E
100
AcDbEntity
  8
7
100
AcDbLine
 10
0.3932347925130939
 20
5.33556183935851
 30
0.0
 11
0.4227623515682116
 21
5.302097272429376
 31
0.0
  0
LINE
  5
3A2D
330
1E
100
AcDbEntity
  8
7
100
AcDbLine
 10
0.4227623515682116
 20
5.302097272429376
 30
0.0
 11
0.462132430308369
 21
5.282412233059298
 31
0.0
  0
LINE
  5
3A2E
330
1E
100
AcDbEntity
  8
7
100
AcDbLine
 10
0.462132430308369
 20
5.282412233059298
 30
0.0
 11
0.5074080208595504
 21
5.278475225185282
 31
0.0
  0
LINE
  5
3A2F
330
1E
100
AcDbEntity
  8
7
100
AcDbLine
 10
0.5074080208595504
 20
5.278475225185282
 30
0.0
 11
0.5487466035367162
 21
5.29028624880733
 31
0.0
  0
LINE
  5
3A30
330
1E
100
AcDbEntity
  8
7
100
AcDbLine
 10
0.5487466035367162
 20
5.29028624880733
 30
0.0
 11
0.5841796744028578
 21
5.317845303925439
 31
0.0
  0
LINE
  5
3A31
330
1E
100
AcDbEntity
  8
7
100
AcDbLine
 10
0.5841796744028578
 20
5.317845303925439
 30
0.0
 11
0.6078017216469523
 21
5.355246878728589
 31
0.0
  0
LINE
  5
3A32
330
1E
100
AcDbEntity
  8
7
100
AcDbLine
 10
0.6078017216469523
 20
5.355246878728589
 30
0.0
 11
0.6156757373949838
 21
5.398553965342761
 31
0.0
  0
LINE
  5
3A33
330
1E
100
AcDbEntity
  8
7
100
AcDbLine
 10
0.6156757373949838
 20
5.398553965342761
 30
0.0
 11
0.6078017216469523
 21
5.441861051956935
 31
0.0
  0
LINE
  5
3A34
330
1E
100
AcDbEntity
  8
7
100
AcDbLine
 10
0.6078017216469523
 20
5.441861051956935
 30
0.0
 11
0.5841796744028578
 21
5.479262626760085
 31
0.0
  0
LINE
  5
3A35
330
1E
100
AcDbEntity
  8
7
100
AcDbLine
 10
0.5841796744028578
 20
5.479262626760085
 30
0.0
 11
0.5487466035367162
 21
5.506821681878195
 31
0.0
  0
LINE
  5
3A36
330
1E
100
AcDbEntity
  8
7
100
AcDbLine
 10
0.5487466035367162
 20
5.506821681878195
 30
0.0
 11
0.5074080208595504
 21
5.518632705500243
 31
0.0
  0
LINE
  5
3A37
330
1E
100
AcDbEntity
  8
7
100
AcDbLine
 10
0.5074080208595504
 20
5.518632705500243
 30
0.0
 11
0.462132430308369
 21
5.514695697626226
 31
0.0
  0
LINE
  5
3A38
330
1E
100
AcDbEntity
  8
7
100
AcDbLine
 10
0.462132430308369
 20
5.514695697626226
 30
0.0
 11
0.4227623515682116
 21
5.495010658256148
 31
0.0
  0
LINE
  5
3A39
330
1E
100
AcDbEntity
  8
7
100
AcDbLine
 10
0.4227623515682116
 20
5.495010658256148
 30
0.0
 11
0.3932347925130939
 21
5.461546091327015
 31
0.0
  0
LINE
  5
3A3A
330
1E
100
AcDbEntity
  8
7
100
AcDbLine
 10
0.3932347925130939
 20
5.461546091327015
 30
0.0
 11
0.3774867610170309
 21
5.420207508649848
 31
0.0
  0
LINE
  5
3A3B
330
1E
100
AcDbEntity
  8
7
100
AcDbLine
 10
0.3774867610170309
 20
5.420207508649848
 30
0.0
 11
0.3774867610170309
 21
5.376900422035676
 31
0.0
  0
LINE
  5
3A3C
330
1E
100
AcDbEntity
  8
7
100
AcDbLine
 10
0.3774867610170309
 20
5.376900422035676
 30
0.0
 11
0.3932347925130939
 21
5.33556183935851
 31
0.0
  0
LINE
  5
3A3D
330
1E
100
AcDbEntity
  8
7
100
AcDbLine
 10
2.466069438182385
 20
5.416270500775834
 30
0.0
 11
2.47984896574144
 21
5.412333492901817
 31
0.0
  0
LINE
  5
3A3E
330
1E
100
AcDbEntity
  8
7
100
AcDbLine
 10
2.47984896574144
 20
5.412333492901817
 30
0.0
 11
2.485754477552464
 21
5.400522469279771
 31
0.0
  0
LINE
  5
3A3F
330
1E
100
AcDbEntity
  8
7
100
AcDbLine
 10
2.485754477552464
 20
5.400522469279771
 30
0.0
 11
2.521187548418605
 21
5.410364988964809
 31
0.0
  0
LINE
  5
3A40
330
1E
100
AcDbEntity
  8
7
100
AcDbLine
 10
2.521187548418605
 20
5.410364988964809
 30
0.0
 11
2.546778099599707
 21
5.426113020460872
 31
0.0
  0
LINE
  5
3A41
330
1E
100
AcDbEntity
  8
7
100
AcDbLine
 10
2.47984896574144
 20
6.036349240933313
 30
0.0
 11
2.50740802085955
 21
6.030443729122289
 31
0.0
  0
LINE
  5
3A42
330
1E
100
AcDbEntity
  8
7
100
AcDbLine
 10
2.50740802085955
 20
6.030443729122289
 30
0.0
 11
2.531030068103644
 21
6.008790185815204
 31
0.0
  0
LINE
  5
3A43
330
1E
100
AcDbEntity
  8
7
100
AcDbLine
 10
2.531030068103644
 20
6.008790185815204
 30
0.0
 11
2.550715107473723
 21
5.975325618886069
 31
0.0
  0
LINE
  5
3A44
330
1E
100
AcDbEntity
  8
7
100
AcDbLine
 10
2.550715107473723
 20
5.975325618886069
 30
0.0
 11
2.56252613109577
 21
5.932018532271897
 31
0.0
  0
LINE
  5
3A45
330
1E
100
AcDbEntity
  8
7
100
AcDbLine
 10
2.56252613109577
 20
5.932018532271897
 30
0.0
 11
2.568431642906794
 21
5.884774437783708
 31
0.0
  0
LINE
  5
3A46
330
1E
100
AcDbEntity
  8
7
100
AcDbLine
 10
2.556620619284747
 20
5.445798059830952
 30
0.0
 11
2.5448095956627
 21
5.469420107075046
 31
0.0
  0
LINE
  5
3A47
330
1E
100
AcDbEntity
  8
7
100
AcDbLine
 10
2.5448095956627
 20
5.469420107075046
 30
0.0
 11
2.511345028733566
 21
5.489105146445124
 31
0.0
  0
LINE
  5
3A48
330
1E
100
AcDbEntity
  8
7
100
AcDbLine
 10
2.511345028733566
 20
5.489105146445124
 30
0.0
 11
2.466069438182385
 21
5.496979162193156
 31
0.0
  0
LINE
  5
3A49
330
1E
100
AcDbEntity
  8
7
100
AcDbLine
 10
0.8814237688910466
 20
5.400522469279771
 30
0.0
 11
0.8853607767650624
 21
5.412333492901817
 31
0.0
  0
LINE
  5
3A4A
330
1E
100
AcDbEntity
  8
7
100
AcDbLine
 10
0.8853607767650624
 20
5.412333492901817
 30
0.0
 11
0.8991403043241179
 21
5.416270500775834
 31
0.0
  0
LINE
  5
3A4B
330
1E
100
AcDbEntity
  8
7
100
AcDbLine
 10
0.8440221940878966
 20
5.410364988964809
 30
0.0
 11
0.8184316429067948
 21
5.426113020460872
 31
0.0
  0
LINE
  5
3A4C
330
1E
100
AcDbEntity
  8
7
100
AcDbLine
 10
0.8184316429067948
 20
5.426113020460872
 30
0.0
 11
0.808589123221755
 21
5.445798059830952
 31
0.0
  0
LINE
  5
3A4D
330
1E
100
AcDbEntity
  8
7
100
AcDbLine
 10
2.466069438182385
 20
5.496979162193156
 30
0.0
 11
2.466069438182385
 21
5.457609083452998
 31
0.0
  0
LINE
  5
3A4E
330
1E
100
AcDbEntity
  8
7
100
AcDbLine
 10
2.466069438182385
 20
5.457609083452998
 30
0.0
 11
2.466069438182385
 21
5.416270500775834
 31
0.0
  0
LINE
  5
3A4F
330
1E
100
AcDbEntity
  8
7
100
AcDbLine
 10
0.8991403043241179
 20
5.496979162193156
 30
0.0
 11
0.8991403043241179
 21
5.457609083452998
 31
0.0
  0
LINE
  5
3A50
330
1E
100
AcDbEntity
  8
7
100
AcDbLine
 10
0.8991403043241179
 20
5.457609083452998
 30
0.0
 11
0.8991403043241179
 21
5.416270500775834
 31
0.0
  0
LINE
  5
3A51
330
1E
100
AcDbEntity
  8
7
100
AcDbLine
 10
0.7987466035367162
 20
5.884774437783708
 30
0.0
 11
0.7987466035367162
 21
4.912333492901817
 31
0.0
  0
LINE
  5
3A52
330
1E
100
AcDbEntity
  8
7
100
AcDbLine
 10
0.7987466035367162
 20
4.912333492901817
 30
0.0
 11
0.808589123221755
 21
5.445798059830952
 31
0.0
  0
LINE
  5
3A53
330
1E
100
AcDbEntity
  8
7
100
AcDbLine
 10
0.8853607767650624
 20
6.036349240933313
 30
0.0
 11
0.8597702255839596
 21
6.030443729122289
 31
0.0
  0
LINE
  5
3A54
330
1E
100
AcDbEntity
  8
7
100
AcDbLine
 10
0.8597702255839596
 20
6.030443729122289
 30
0.0
 11
0.8341796744028577
 21
6.008790185815204
 31
0.0
  0
LINE
  5
3A55
330
1E
100
AcDbEntity
  8
7
100
AcDbLine
 10
0.8341796744028577
 20
6.008790185815204
 30
0.0
 11
0.814494635032779
 21
5.975325618886069
 31
0.0
  0
LINE
  5
3A56
330
1E
100
AcDbEntity
  8
7
100
AcDbLine
 10
0.814494635032779
 20
5.975325618886069
 30
0.0
 11
0.8026836114107318
 21
5.932018532271897
 31
0.0
  0
LINE
  5
3A57
330
1E
100
AcDbEntity
  8
7
100
AcDbLine
 10
0.8026836114107318
 20
5.932018532271897
 30
0.0
 11
0.7987466035367162
 21
5.884774437783708
 31
0.0
  0
LINE
  5
3A58
330
1E
100
AcDbEntity
  8
7
100
AcDbLine
 10
0.808589123221755
 20
5.445798059830952
 30
0.0
 11
0.8223686507808105
 21
5.469420107075046
 31
0.0
  0
LINE
  5
3A59
330
1E
100
AcDbEntity
  8
7
100
AcDbLine
 10
0.8223686507808105
 20
5.469420107075046
 30
0.0
 11
0.8558332177099439
 21
5.489105146445124
 31
0.0
  0
LINE
  5
3A5A
330
1E
100
AcDbEntity
  8
7
100
AcDbLine
 10
0.8558332177099439
 20
5.489105146445124
 30
0.0
 11
0.8991403043241179
 21
5.496979162193156
 31
0.0
  0
LINE
  5
3A5B
330
1E
100
AcDbEntity
  8
7
100
AcDbLine
 10
2.818431642906794
 20
5.552097272429376
 30
0.0
 11
2.771187548418605
 21
5.526506721248274
 31
0.0
  0
LINE
  5
3A5C
330
1E
100
AcDbEntity
  8
7
100
AcDbLine
 10
2.771187548418605
 20
5.526506721248274
 30
0.0
 11
2.735754477552464
 21
5.487136642508117
 31
0.0
  0
LINE
  5
3A5D
330
1E
100
AcDbEntity
  8
7
100
AcDbLine
 10
2.735754477552464
 20
5.487136642508117
 30
0.0
 11
2.714100934245377
 21
5.437924044082921
 31
0.0
  0
LINE
  5
3A5E
330
1E
100
AcDbEntity
  8
7
100
AcDbLine
 10
2.714100934245377
 20
5.437924044082921
 30
0.0
 11
2.710163926371361
 21
5.384774437783708
 31
0.0
  0
LINE
  5
3A5F
330
1E
100
AcDbEntity
  8
7
100
AcDbLine
 10
2.710163926371361
 20
5.384774437783708
 30
0.0
 11
2.723943453930417
 21
5.331624831484495
 31
0.0
  0
LINE
  5
3A60
330
1E
100
AcDbEntity
  8
7
100
AcDbLine
 10
2.723943453930417
 20
5.331624831484495
 30
0.0
 11
2.753471012985534
 21
5.288317744870321
 31
0.0
  0
LINE
  5
3A61
330
1E
100
AcDbEntity
  8
7
100
AcDbLine
 10
2.753471012985534
 20
5.288317744870321
 30
0.0
 11
2.796778099599707
 21
5.254853177941187
 31
0.0
  0
LINE
  5
3A62
330
1E
100
AcDbEntity
  8
7
100
AcDbLine
 10
2.946384398812306
 20
5.254853177941187
 30
0.0
 11
2.989691485426479
 21
5.288317744870321
 31
0.0
  0
LINE
  5
3A63
330
1E
100
AcDbEntity
  8
7
100
AcDbLine
 10
2.989691485426479
 20
5.288317744870321
 30
0.0
 11
3.019219044481597
 21
5.331624831484495
 31
0.0
  0
LINE
  5
3A64
330
1E
100
AcDbEntity
  8
7
100
AcDbLine
 10
3.019219044481597
 20
5.331624831484495
 30
0.0
 11
3.032998572040653
 21
5.384774437783708
 31
0.0
  0
LINE
  5
3A65
330
1E
100
AcDbEntity
  8
7
100
AcDbLine
 10
3.032998572040653
 20
5.384774437783708
 30
0.0
 11
3.029061564166637
 21
5.437924044082921
 31
0.0
  0
LINE
  5
3A66
330
1E
100
AcDbEntity
  8
7
100
AcDbLine
 10
3.029061564166637
 20
5.437924044082921
 30
0.0
 11
3.00740802085955
 21
5.487136642508117
 31
0.0
  0
LINE
  5
3A67
330
1E
100
AcDbEntity
  8
7
100
AcDbLine
 10
3.00740802085955
 20
5.487136642508117
 30
0.0
 11
2.971974949993408
 21
5.526506721248274
 31
0.0
  0
LINE
  5
3A68
330
1E
100
AcDbEntity
  8
7
100
AcDbLine
 10
2.971974949993408
 20
5.526506721248274
 30
0.0
 11
2.924730855505219
 21
5.552097272429376
 31
0.0
  0
LINE
  5
3A69
330
1E
100
AcDbEntity
  8
7
100
AcDbLine
 10
2.924730855505219
 20
5.552097272429376
 30
0.0
 11
2.871581249206006
 21
5.559971288177408
 31
0.0
  0
LINE
  5
3A6A
330
1E
100
AcDbEntity
  8
7
100
AcDbLine
 10
2.871581249206006
 20
5.559971288177408
 30
0.0
 11
2.818431642906794
 21
5.552097272429376
 31
0.0
  0
LINE
  5
3A6B
330
1E
100
AcDbEntity
  8
7
100
AcDbLine
 10
2.989691485426479
 20
5.288317744870321
 30
0.0
 11
3.019219044481597
 21
5.331624831484495
 31
0.0
  0
LINE
  5
3A6C
330
1E
100
AcDbEntity
  8
7
100
AcDbLine
 10
3.019219044481597
 20
5.331624831484495
 30
0.0
 11
3.032998572040653
 21
5.384774437783708
 31
0.0
  0
LINE
  5
3A6D
330
1E
100
AcDbEntity
  8
7
100
AcDbLine
 10
3.032998572040653
 20
5.384774437783708
 30
0.0
 11
3.029061564166637
 21
5.437924044082921
 31
0.0
  0
LINE
  5
3A6E
330
1E
100
AcDbEntity
  8
7
100
AcDbLine
 10
3.029061564166637
 20
5.437924044082921
 30
0.0
 11
3.00740802085955
 21
5.487136642508117
 31
0.0
  0
LINE
  5
3A6F
330
1E
100
AcDbEntity
  8
7
100
AcDbLine
 10
3.00740802085955
 20
5.487136642508117
 30
0.0
 11
2.971974949993408
 21
5.526506721248274
 31
0.0
  0
LINE
  5
3A70
330
1E
100
AcDbEntity
  8
7
100
AcDbLine
 10
2.971974949993408
 20
5.526506721248274
 30
0.0
 11
2.924730855505219
 21
5.552097272429376
 31
0.0
  0
LINE
  5
3A71
330
1E
100
AcDbEntity
  8
7
100
AcDbLine
 10
2.924730855505219
 20
5.552097272429376
 30
0.0
 11
2.871581249206006
 21
5.559971288177408
 31
0.0
  0
LINE
  5
3A72
330
1E
100
AcDbEntity
  8
7
100
AcDbLine
 10
2.871581249206006
 20
5.559971288177408
 30
0.0
 11
2.818431642906794
 21
5.552097272429376
 31
0.0
  0
LINE
  5
3A73
330
1E
100
AcDbEntity
  8
7
100
AcDbLine
 10
2.818431642906794
 20
5.552097272429376
 30
0.0
 11
2.771187548418605
 21
5.526506721248274
 31
0.0
  0
LINE
  5
3A74
330
1E
100
AcDbEntity
  8
7
100
AcDbLine
 10
2.771187548418605
 20
5.526506721248274
 30
0.0
 11
2.735754477552464
 21
5.487136642508117
 31
0.0
  0
LINE
  5
3A75
330
1E
100
AcDbEntity
  8
7
100
AcDbLine
 10
2.735754477552464
 20
5.487136642508117
 30
0.0
 11
2.714100934245377
 21
5.437924044082921
 31
0.0
  0
LINE
  5
3A76
330
1E
100
AcDbEntity
  8
7
100
AcDbLine
 10
2.714100934245377
 20
5.437924044082921
 30
0.0
 11
2.710163926371361
 21
5.384774437783708
 31
0.0
  0
LINE
  5
3A77
330
1E
100
AcDbEntity
  8
7
100
AcDbLine
 10
2.710163926371361
 20
5.384774437783708
 30
0.0
 11
2.723943453930417
 21
5.331624831484495
 31
0.0
  0
LINE
  5
3A78
330
1E
100
AcDbEntity
  8
7
100
AcDbLine
 10
2.723943453930417
 20
5.331624831484495
 30
0.0
 11
2.753471012985534
 21
5.288317744870321
 31
0.0
  0
LINE
  5
3A79
330
1E
100
AcDbEntity
  8
7
100
AcDbLine
 10
2.82236865078081
 20
5.337530343295519
 30
0.0
 11
2.853864713772936
 21
5.321782311799456
 31
0.0
  0
LINE
  5
3A7A
330
1E
100
AcDbEntity
  8
7
100
AcDbLine
 10
2.853864713772936
 20
5.321782311799456
 30
0.0
 11
2.889297784639078
 21
5.321782311799456
 31
0.0
  0
LINE
  5
3A7B
330
1E
100
AcDbEntity
  8
7
100
AcDbLine
 10
2.889297784639078
 20
5.321782311799456
 30
0.0
 11
2.920793847631204
 21
5.337530343295519
 31
0.0
  0
LINE
  5
3A7C
330
1E
100
AcDbEntity
  8
7
100
AcDbLine
 10
2.920793847631204
 20
5.337530343295519
 30
0.0
 11
2.942447390938291
 21
5.365089398413628
 31
0.0
  0
LINE
  5
3A7D
330
1E
100
AcDbEntity
  8
7
100
AcDbLine
 10
2.942447390938291
 20
5.365089398413628
 30
0.0
 11
2.950321406686322
 21
5.398553965342761
 31
0.0
  0
LINE
  5
3A7E
330
1E
100
AcDbEntity
  8
7
100
AcDbLine
 10
2.950321406686322
 20
5.398553965342761
 30
0.0
 11
2.942447390938291
 21
5.432018532271897
 31
0.0
  0
LINE
  5
3A7F
330
1E
100
AcDbEntity
  8
7
100
AcDbLine
 10
2.942447390938291
 20
5.432018532271897
 30
0.0
 11
2.920793847631204
 21
5.459577587390006
 31
0.0
  0
LINE
  5
3A80
330
1E
100
AcDbEntity
  8
7
100
AcDbLine
 10
2.920793847631204
 20
5.459577587390006
 30
0.0
 11
2.889297784639078
 21
5.475325618886069
 31
0.0
  0
LINE
  5
3A81
330
1E
100
AcDbEntity
  8
7
100
AcDbLine
 10
2.889297784639078
 20
5.475325618886069
 30
0.0
 11
2.853864713772936
 21
5.475325618886069
 31
0.0
  0
LINE
  5
3A82
330
1E
100
AcDbEntity
  8
7
100
AcDbLine
 10
2.853864713772936
 20
5.475325618886069
 30
0.0
 11
2.82236865078081
 21
5.459577587390006
 31
0.0
  0
LINE
  5
3A83
330
1E
100
AcDbEntity
  8
7
100
AcDbLine
 10
2.82236865078081
 20
5.459577587390006
 30
0.0
 11
2.800715107473723
 21
5.432018532271897
 31
0.0
  0
LINE
  5
3A84
330
1E
100
AcDbEntity
  8
7
100
AcDbLine
 10
2.800715107473723
 20
5.432018532271897
 30
0.0
 11
2.792841091725692
 21
5.398553965342761
 31
0.0
  0
LINE
  5
3A85
330
1E
100
AcDbEntity
  8
7
100
AcDbLine
 10
2.792841091725692
 20
5.398553965342761
 30
0.0
 11
2.800715107473723
 21
5.365089398413628
 31
0.0
  0
LINE
  5
3A86
330
1E
100
AcDbEntity
  8
7
100
AcDbLine
 10
2.800715107473723
 20
5.365089398413628
 30
0.0
 11
2.82236865078081
 21
5.337530343295519
 31
0.0
  0
LINE
  5
3A87
330
1E
100
AcDbEntity
  8
7
100
AcDbLine
 10
2.973943453930417
 20
5.33556183935851
 30
0.0
 11
2.989691485426479
 21
5.376900422035676
 31
0.0
  0
LINE
  5
3A88
330
1E
100
AcDbEntity
  8
7
100
AcDbLine
 10
2.989691485426479
 20
5.376900422035676
 30
0.0
 11
2.989691485426479
 21
5.420207508649848
 31
0.0
  0
LINE
  5
3A89
330
1E
100
AcDbEntity
  8
7
100
AcDbLine
 10
2.989691485426479
 20
5.420207508649848
 30
0.0
 11
2.973943453930417
 21
5.461546091327015
 31
0.0
  0
LINE
  5
3A8A
330
1E
100
AcDbEntity
  8
7
100
AcDbLine
 10
2.973943453930417
 20
5.461546091327015
 30
0.0
 11
2.944415894875298
 21
5.495010658256148
 31
0.0
  0
LINE
  5
3A8B
330
1E
100
AcDbEntity
  8
7
100
AcDbLine
 10
2.944415894875298
 20
5.495010658256148
 30
0.0
 11
2.905045816135141
 21
5.514695697626226
 31
0.0
  0
LINE
  5
3A8C
330
1E
100
AcDbEntity
  8
7
100
AcDbLine
 10
2.905045816135141
 20
5.514695697626226
 30
0.0
 11
2.859770225583959
 21
5.518632705500243
 31
0.0
  0
LINE
  5
3A8D
330
1E
100
AcDbEntity
  8
7
100
AcDbLine
 10
2.859770225583959
 20
5.518632705500243
 30
0.0
 11
2.818431642906794
 21
5.506821681878195
 31
0.0
  0
LINE
  5
3A8E
330
1E
100
AcDbEntity
  8
7
100
AcDbLine
 10
2.818431642906794
 20
5.506821681878195
 30
0.0
 11
2.782998572040653
 21
5.479262626760085
 31
0.0
  0
LINE
  5
3A8F
330
1E
100
AcDbEntity
  8
7
100
AcDbLine
 10
2.782998572040653
 20
5.479262626760085
 30
0.0
 11
2.759376524796558
 21
5.441861051956935
 31
0.0
  0
LINE
  5
3A90
330
1E
100
AcDbEntity
  8
7
100
AcDbLine
 10
2.759376524796558
 20
5.441861051956935
 30
0.0
 11
2.751502509048527
 21
5.398553965342761
 31
0.0
  0
LINE
  5
3A91
330
1E
100
AcDbEntity
  8
7
100
AcDbLine
 10
2.751502509048527
 20
5.398553965342761
 30
0.0
 11
2.759376524796558
 21
5.355246878728589
 31
0.0
  0
LINE
  5
3A92
330
1E
100
AcDbEntity
  8
7
100
AcDbLine
 10
2.759376524796558
 20
5.355246878728589
 30
0.0
 11
2.782998572040653
 21
5.317845303925439
 31
0.0
  0
LINE
  5
3A93
330
1E
100
AcDbEntity
  8
7
100
AcDbLine
 10
2.782998572040653
 20
5.317845303925439
 30
0.0
 11
2.818431642906794
 21
5.29028624880733
 31
0.0
  0
LINE
  5
3A94
330
1E
100
AcDbEntity
  8
7
100
AcDbLine
 10
2.818431642906794
 20
5.29028624880733
 30
0.0
 11
2.859770225583959
 21
5.278475225185282
 31
0.0
  0
LINE
  5
3A95
330
1E
100
AcDbEntity
  8
7
100
AcDbLine
 10
2.859770225583959
 20
5.278475225185282
 30
0.0
 11
2.905045816135141
 21
5.282412233059298
 31
0.0
  0
LINE
  5
3A96
330
1E
100
AcDbEntity
  8
7
100
AcDbLine
 10
2.905045816135141
 20
5.282412233059298
 30
0.0
 11
2.944415894875298
 21
5.302097272429376
 31
0.0
  0
LINE
  5
3A97
330
1E
100
AcDbEntity
  8
7
100
AcDbLine
 10
2.944415894875298
 20
5.302097272429376
 30
0.0
 11
2.973943453930417
 21
5.33556183935851
 31
0.0
  0
LINE
  5
3A98
330
1E
100
AcDbEntity
  8
7
100
AcDbLine
 10
2.910951327946165
 20
5.258790185815204
 30
0.0
 11
2.871581249206006
 21
5.254853177941187
 31
0.0
  0
LINE
  5
3A99
330
1E
100
AcDbEntity
  8
7
100
AcDbLine
 10
2.871581249206006
 20
5.254853177941187
 30
0.0
 11
2.832211170465849
 21
5.258790185815204
 31
0.0
  0
LINE
  5
3A9A
330
1E
100
AcDbEntity
  8
7
100
AcDbLine
 10
2.832211170465849
 20
5.258790185815204
 30
0.0
 11
2.796778099599707
 21
5.276506721248274
 31
0.0
  0
LINE
  5
3A9B
330
1E
100
AcDbEntity
  8
7
100
AcDbLine
 10
2.897171800387109
 20
5.54028624880733
 30
0.0
 11
2.845990698024905
 21
5.54028624880733
 31
0.0
  0
LINE
  5
3A9C
330
1E
100
AcDbEntity
  8
7
100
AcDbLine
 10
2.845990698024905
 20
5.54028624880733
 30
0.0
 11
2.800715107473723
 21
5.522569713374258
 31
0.0
  0
LINE
  5
3A9D
330
1E
100
AcDbEntity
  8
7
100
AcDbLine
 10
2.800715107473723
 20
5.522569713374258
 30
0.0
 11
2.763313532670574
 21
5.491073650382132
 31
0.0
  0
LINE
  5
3A9E
330
1E
100
AcDbEntity
  8
7
100
AcDbLine
 10
2.763313532670574
 20
5.491073650382132
 30
0.0
 11
2.737722981489471
 21
5.449735067704967
 31
0.0
  0
LINE
  5
3A9F
330
1E
100
AcDbEntity
  8
7
100
AcDbLine
 10
2.737722981489471
 20
5.449735067704967
 30
0.0
 11
2.727880461804432
 21
5.400522469279771
 31
0.0
  0
LINE
  5
3AA0
330
1E
100
AcDbEntity
  8
7
100
AcDbLine
 10
2.727880461804432
 20
5.400522469279771
 30
0.0
 11
2.735754477552464
 21
5.353278374791582
 31
0.0
  0
LINE
  5
3AA1
330
1E
100
AcDbEntity
  8
7
100
AcDbLine
 10
2.735754477552464
 20
5.353278374791582
 30
0.0
 11
2.759376524796558
 21
5.309971288177408
 31
0.0
  0
LINE
  5
3AA2
330
1E
100
AcDbEntity
  8
7
100
AcDbLine
 10
2.759376524796558
 20
5.309971288177408
 30
0.0
 11
2.796778099599707
 21
5.276506721248274
 31
0.0
  0
LINE
  5
3AA3
330
1E
100
AcDbEntity
  8
7
100
AcDbLine
 10
2.946384398812306
 20
5.276506721248274
 30
0.0
 11
2.983785973615455
 21
5.309971288177408
 31
0.0
  0
LINE
  5
3AA4
330
1E
100
AcDbEntity
  8
7
100
AcDbLine
 10
2.983785973615455
 20
5.309971288177408
 30
0.0
 11
3.00740802085955
 21
5.353278374791582
 31
0.0
  0
LINE
  5
3AA5
330
1E
100
AcDbEntity
  8
7
100
AcDbLine
 10
3.00740802085955
 20
5.353278374791582
 30
0.0
 11
3.015282036607581
 21
5.400522469279771
 31
0.0
  0
LINE
  5
3AA6
330
1E
100
AcDbEntity
  8
7
100
AcDbLine
 10
3.015282036607581
 20
5.400522469279771
 30
0.0
 11
3.005439516922542
 21
5.449735067704967
 31
0.0
  0
LINE
  5
3AA7
330
1E
100
AcDbEntity
  8
7
100
AcDbLine
 10
3.005439516922542
 20
5.449735067704967
 30
0.0
 11
2.97984896574144
 21
5.491073650382132
 31
0.0
  0
LINE
  5
3AA8
330
1E
100
AcDbEntity
  8
7
100
AcDbLine
 10
2.97984896574144
 20
5.491073650382132
 30
0.0
 11
2.942447390938291
 21
5.522569713374258
 31
0.0
  0
LINE
  5
3AA9
330
1E
100
AcDbEntity
  8
7
100
AcDbLine
 10
2.942447390938291
 20
5.522569713374258
 30
0.0
 11
2.897171800387109
 21
5.54028624880733
 31
0.0
  0
LINE
  5
3AAA
330
1E
100
AcDbEntity
  8
7
100
AcDbLine
 10
2.800715107473723
 20
5.278475225185282
 30
0.0
 11
2.847959201961912
 21
5.260758689752211
 31
0.0
  0
LINE
  5
3AAB
330
1E
100
AcDbEntity
  8
7
100
AcDbLine
 10
2.847959201961912
 20
5.260758689752211
 30
0.0
 11
2.895203296450101
 21
5.260758689752211
 31
0.0
  0
LINE
  5
3AAC
330
1E
100
AcDbEntity
  8
7
100
AcDbLine
 10
2.895203296450101
 20
5.260758689752211
 30
0.0
 11
2.940478887001282
 21
5.278475225185282
 31
0.0
  0
LINE
  5
3AAD
330
1E
100
AcDbEntity
  8
7
100
AcDbLine
 10
2.940478887001282
 20
5.278475225185282
 30
0.0
 11
2.977880461804432
 21
5.3080027842404
 31
0.0
  0
LINE
  5
3AAE
330
1E
100
AcDbEntity
  8
7
100
AcDbLine
 10
2.977880461804432
 20
5.3080027842404
 30
0.0
 11
3.003471012985534
 21
5.351309870854572
 31
0.0
  0
LINE
  5
3AAF
330
1E
100
AcDbEntity
  8
7
100
AcDbLine
 10
3.003471012985534
 20
5.351309870854572
 30
0.0
 11
3.011345028733566
 21
5.398553965342761
 31
0.0
  0
LINE
  5
3AB0
330
1E
100
AcDbEntity
  8
7
100
AcDbLine
 10
3.011345028733566
 20
5.398553965342761
 30
0.0
 11
3.003471012985534
 21
5.445798059830952
 31
0.0
  0
LINE
  5
3AB1
330
1E
100
AcDbEntity
  8
7
100
AcDbLine
 10
3.003471012985534
 20
5.445798059830952
 30
0.0
 11
2.977880461804432
 21
5.489105146445124
 31
0.0
  0
LINE
  5
3AB2
330
1E
100
AcDbEntity
  8
7
100
AcDbLine
 10
2.977880461804432
 20
5.489105146445124
 30
0.0
 11
2.942447390938291
 21
5.518632705500243
 31
0.0
  0
LINE
  5
3AB3
330
1E
100
AcDbEntity
  8
7
100
AcDbLine
 10
2.942447390938291
 20
5.518632705500243
 30
0.0
 11
2.895203296450101
 21
5.536349240933313
 31
0.0
  0
LINE
  5
3AB4
330
1E
100
AcDbEntity
  8
7
100
AcDbLine
 10
2.895203296450101
 20
5.536349240933313
 30
0.0
 11
2.847959201961912
 21
5.536349240933313
 31
0.0
  0
LINE
  5
3AB5
330
1E
100
AcDbEntity
  8
7
100
AcDbLine
 10
2.847959201961912
 20
5.536349240933313
 30
0.0
 11
2.802683611410731
 21
5.518632705500243
 31
0.0
  0
LINE
  5
3AB6
330
1E
100
AcDbEntity
  8
7
100
AcDbLine
 10
2.802683611410731
 20
5.518632705500243
 30
0.0
 11
2.765282036607581
 21
5.489105146445124
 31
0.0
  0
LINE
  5
3AB7
330
1E
100
AcDbEntity
  8
7
100
AcDbLine
 10
2.765282036607581
 20
5.489105146445124
 30
0.0
 11
2.739691485426479
 21
5.445798059830952
 31
0.0
  0
LINE
  5
3AB8
330
1E
100
AcDbEntity
  8
7
100
AcDbLine
 10
2.739691485426479
 20
5.445798059830952
 30
0.0
 11
2.731817469678448
 21
5.398553965342761
 31
0.0
  0
LINE
  5
3AB9
330
1E
100
AcDbEntity
  8
7
100
AcDbLine
 10
2.731817469678448
 20
5.398553965342761
 30
0.0
 11
2.739691485426479
 21
5.351309870854572
 31
0.0
  0
LINE
  5
3ABA
330
1E
100
AcDbEntity
  8
7
100
AcDbLine
 10
2.739691485426479
 20
5.351309870854572
 30
0.0
 11
2.765282036607581
 21
5.3080027842404
 31
0.0
  0
LINE
  5
3ABB
330
1E
100
AcDbEntity
  8
7
100
AcDbLine
 10
2.765282036607581
 20
5.3080027842404
 30
0.0
 11
2.800715107473723
 21
5.278475225185282
 31
0.0
  0
LINE
  5
3ABC
330
1E
100
AcDbEntity
  8
7
100
AcDbLine
 10
2.47984896574144
 20
6.036349240933313
 30
0.0
 11
0.8853607767650624
 21
6.036349240933313
 31
0.0
  0
LINE
  5
3ABD
330
1E
100
AcDbEntity
  8
7
100
AcDbLine
 10
0.8853607767650624
 20
6.036349240933313
 30
0.0
 11
0.8991403043241179
 21
5.496979162193156
 31
0.0
  0
LINE
  5
3ABE
330
1E
100
AcDbEntity
  8
7
100
AcDbLine
 10
0.8991403043241179
 20
5.496979162193156
 30
0.0
 11
2.466069438182385
 21
5.496979162193156
 31
0.0
  0
LINE
  5
3ABF
330
1E
100
AcDbEntity
  8
7
100
AcDbLine
 10
3.34992770589892
 20
7.036349240933313
 30
0.0
 11
3.332211170465849
 21
7.02060120943725
 31
0.0
  0
LINE
  5
3AC0
330
1E
100
AcDbEntity
  8
7
100
AcDbLine
 10
3.332211170465849
 20
7.02060120943725
 30
0.0
 11
3.304652115347739
 21
6.998947666130163
 31
0.0
  0
LINE
  5
3AC1
330
1E
100
AcDbEntity
  8
7
100
AcDbLine
 10
3.304652115347739
 20
6.998947666130163
 30
0.0
 11
3.269219044481597
 21
6.969420107075046
 31
0.0
  0
LINE
  5
3AC2
330
1E
100
AcDbEntity
  8
7
100
AcDbLine
 10
3.269219044481597
 20
6.969420107075046
 30
0.0
 11
3.22984896574144
 21
6.935955540145911
 31
0.0
  0
LINE
  5
3AC3
330
1E
100
AcDbEntity
  8
7
100
AcDbLine
 10
3.22984896574144
 20
6.935955540145911
 30
0.0
 11
3.186541879127267
 21
6.902490973216778
 31
0.0
  0
LINE
  5
3AC4
330
1E
100
AcDbEntity
  8
7
100
AcDbLine
 10
3.357801721646952
 20
7.042254752744337
 30
0.0
 11
3.34992770589892
 21
7.063908296051424
 31
0.0
  0
LINE
  5
3AC5
330
1E
100
AcDbEntity
  8
7
100
AcDbLine
 10
3.34992770589892
 20
7.063908296051424
 30
0.0
 11
3.328274162591833
 21
7.073750815736463
 31
0.0
  0
LINE
  5
3AC6
330
1E
100
AcDbEntity
  8
7
100
AcDbLine
 10
3.357801721646952
 20
7.042254752744337
 30
0.0
 11
3.375518257080022
 21
7.059971288177408
 31
0.0
  0
LINE
  5
3AC7
330
1E
100
AcDbEntity
  8
7
100
AcDbLine
 10
3.375518257080022
 20
7.059971288177408
 30
0.0
 11
3.367644241331991
 21
7.081624831484495
 31
0.0
  0
LINE
  5
3AC8
330
1E
100
AcDbEntity
  8
7
100
AcDbLine
 10
3.367644241331991
 20
7.081624831484495
 30
0.0
 11
3.345990698024905
 21
7.091467351169534
 31
0.0
  0
LINE
  5
3AC9
330
1E
100
AcDbEntity
  8
7
100
AcDbLine
 10
0.0349670759776608
 20
7.02060120943725
 30
0.0
 11
0.062526131095771
 21
6.998947666130163
 31
0.0
  0
LINE
  5
3ACA
330
1E
100
AcDbEntity
  8
7
100
AcDbLine
 10
0.062526131095771
 20
6.998947666130163
 30
0.0
 11
0.0959906980249048
 21
6.969420107075046
 31
0.0
  0
LINE
  5
3ACB
330
1E
100
AcDbEntity
  8
7
100
AcDbLine
 10
0.0959906980249048
 20
6.969420107075046
 30
0.0
 11
0.1373292807020701
 21
6.935955540145911
 31
0.0
  0
LINE
  5
3ACC
330
1E
100
AcDbEntity
  8
7
100
AcDbLine
 10
0.1373292807020701
 20
6.935955540145911
 30
0.0
 11
0.1786678633792353
 21
6.902490973216778
 31
0.0
  0
LINE
  5
3ACD
330
1E
100
AcDbEntity
  8
7
100
AcDbLine
 10
0.0074080208595506
 20
7.042254752744337
 30
0.0
 11
0.0152820366075821
 21
7.036349240933313
 31
0.0
  0
LINE
  5
3ACE
330
1E
100
AcDbEntity
  8
7
100
AcDbLine
 10
0.0152820366075821
 20
7.036349240933313
 30
0.0
 11
0.0349670759776608
 21
7.02060120943725
 31
0.0
  0
LINE
  5
3ACF
330
1E
100
AcDbEntity
  8
7
100
AcDbLine
 10
-0.0103085145735207
 20
7.059971288177408
 30
0.0
 11
-0.0004659948884809
 21
7.081624831484495
 31
0.0
  0
LINE
  5
3AD0
330
1E
100
AcDbEntity
  8
7
100
AcDbLine
 10
-0.0004659948884809
 20
7.081624831484495
 30
0.0
 11
0.0211875484186057
 21
7.091467351169534
 31
0.0
  0
LINE
  5
3AD1
330
1E
100
AcDbEntity
  8
7
100
AcDbLine
 10
0.0074080208595506
 20
7.042254752744337
 30
0.0
 11
0.01725054054459
 21
7.063908296051424
 31
0.0
  0
LINE
  5
3AD2
330
1E
100
AcDbEntity
  8
7
100
AcDbLine
 10
0.01725054054459
 20
7.063908296051424
 30
0.0
 11
0.0389040838516766
 21
7.073750815736463
 31
0.0
  0
LINE
  5
3AD3
330
1E
100
AcDbEntity
  8
7
100
AcDbLine
 10
3.345990698024905
 20
7.091467351169534
 30
0.0
 11
0.0211875484186057
 21
7.091467351169534
 31
0.0
  0
LINE
  5
3AD4
330
1E
100
AcDbEntity
  8
7
100
AcDbLine
 10
0.0211875484186057
 20
7.091467351169534
 30
0.0
 11
0.0389040838516766
 21
7.073750815736463
 31
0.0
  0
LINE
  5
3AD5
330
1E
100
AcDbEntity
  8
7
100
AcDbLine
 10
3.328274162591833
 20
7.073750815736463
 30
0.0
 11
3.320400146843802
 21
7.065876799988432
 31
0.0
  0
LINE
  5
3AD6
330
1E
100
AcDbEntity
  8
7
100
AcDbLine
 10
3.320400146843802
 20
7.065876799988432
 30
0.0
 11
3.304652115347739
 21
7.046191760618352
 31
0.0
  0
LINE
  5
3AD7
330
1E
100
AcDbEntity
  8
7
100
AcDbLine
 10
3.304652115347739
 20
7.046191760618352
 30
0.0
 11
3.282998572040653
 21
7.018632705500243
 31
0.0
  0
LINE
  5
3AD8
330
1E
100
AcDbEntity
  8
7
100
AcDbLine
 10
3.282998572040653
 20
7.018632705500243
 30
0.0
 11
3.253471012985534
 21
6.985168138571109
 31
0.0
  0
LINE
  5
3AD9
330
1E
100
AcDbEntity
  8
7
100
AcDbLine
 10
3.253471012985534
 20
6.985168138571109
 30
0.0
 11
3.221974949993408
 21
6.943829555893943
 31
0.0
  0
LINE
  5
3ADA
330
1E
100
AcDbEntity
  8
7
100
AcDbLine
 10
3.221974949993408
 20
6.943829555893943
 30
0.0
 11
3.186541879127267
 21
6.902490973216778
 31
0.0
  0
LINE
  5
3ADB
330
1E
100
AcDbEntity
  8
7
100
AcDbLine
 10
0.0389040838516766
 20
7.073750815736463
 30
0.0
 11
0.0448095956627002
 21
7.065876799988432
 31
0.0
  0
LINE
  5
3ADC
330
1E
100
AcDbEntity
  8
7
100
AcDbLine
 10
0.0448095956627002
 20
7.065876799988432
 30
0.0
 11
0.0605576271587631
 21
7.046191760618352
 31
0.0
  0
LINE
  5
3ADD
330
1E
100
AcDbEntity
  8
7
100
AcDbLine
 10
0.0605576271587631
 20
7.046191760618352
 30
0.0
 11
0.0841796744028576
 21
7.018632705500243
 31
0.0
  0
LINE
  5
3ADE
330
1E
100
AcDbEntity
  8
7
100
AcDbLine
 10
0.0841796744028576
 20
7.018632705500243
 30
0.0
 11
0.1117387295209677
 21
6.985168138571109
 31
0.0
  0
LINE
  5
3ADF
330
1E
100
AcDbEntity
  8
7
100
AcDbLine
 10
0.1117387295209677
 20
6.985168138571109
 30
0.0
 11
0.1452032964501015
 21
6.943829555893943
 31
0.0
  0
LINE
  5
3AE0
330
1E
100
AcDbEntity
  8
7
100
AcDbLine
 10
0.1452032964501015
 20
6.943829555893943
 30
0.0
 11
0.1786678633792353
 21
6.902490973216778
 31
0.0
  0
ENDSEC
  0
SECTION
  2
OBJECTS
  0
DICTIONARY
  5
C
330
0
100
AcDbDictionary
  3
ACAD_GROUP
350
D
  3
ACAD_LAYOUT
350
19
  3
ACAD_MLINESTYLE
350
16
  3
ACAD_PLOTSETTINGS
350
18
1001
ACAD
1000
TREAT_AS_HARD
1070
     0
  0
DICTIONARY
  5
4EA2
330
1E
100
AcDbDictionary
  3
ACAD_LAYOUTSELFREF
350
4EDD
1001
ACAD
1000
TREAT_AS_HARD
1070
     1
  0
DICTIONARY
  5
4EA4
330
1A
100
AcDbDictionary
  3
ACAD_LAYOUTSELFREF
350
4EDC
1001
ACAD
1000
TREAT_AS_HARD
1070
     1
  0
DICTIONARY
  5
D
102
{ACAD_REACTORS
330
C
102
}
330
C
100
AcDbDictionary
1001
ACAD
1000
TREAT_AS_HARD
1070
     0
  0
DICTIONARY
  5
19
102
{ACAD_REACTORS
330
C
102
}
330
C
100
AcDbDictionary
1001
ACAD
1000
TREAT_AS_HARD
1070
     0
  0
DICTIONARY
  5
16
102
{ACAD_REACTORS
330
C
102
}
330
C
100
AcDbDictionary
  3
STANDARD
350
17
1001
ACAD
1000
TREAT_AS_HARD
1070
     0
  0
DICTIONARY
  5
18
102
{ACAD_REACTORS
330
C
102
}
330
C
100
AcDbDictionary
1001
ACAD
1000
TREAT_AS_HARD
1070
     0
  0
XRECORD
  5
4EDD
102
{ACAD_REACTORS
330
4EA2
102
}
330
4EA2
100
AcDbXrecord
340
1E
  0
XRECORD
  5
4EDC
102
{ACAD_REACTORS
330
4EA4
102
}
330
4EA4
100
AcDbXrecord
340
1A
  0
MLINESTYLE
  5
17
102
{ACAD_REACTORS
330
16
102
}
330
16
100
AcDbMlineStyle
  2
STANDARD
 70
     0
  3

 62
   256
 51
90.0
 52
90.0
 71
     2
 49
0.5
 62
   256
  6
BYLAYER
 49
-0.5
 62
   256
  6
BYLAYER
  0
ENDSEC
  0
EOF
