  0
SECTION
  2
HEADER
  9
$ACADVER
  1
AC1014
  9
$ACADMAINTVER
 70
           0
  9
$DWGCODEPAGE
  3
ANSI_1252
  9
$INSBASE
 10
0.0
 20
0.0
 30
0.0
  9
$EXTMIN
 10
8.874240342528
 20
15.969676017761
 30
0.0
  9
$EXTMAX
 10
30.248966217041
 20
57.819675445557
 30
0.0
  9
$LIMMIN
 10
-0.5
 20
-0.5
  9
$LIMMAX
 10
5.0
 20
5.0
  9
$ORTHOMODE
 70
           0
  9
$REGENMODE
 70
           1
  9
$FILLMODE
 70
           1
  9
$QTEXTMODE
 70
           0
  9
$MIRRTEXT
 70
           1
  9
$DRAGMODE
 70
           2
  9
$LTSCALE
 40
1.0
  9
$OSMODE
 70
           0
  9
$ATTMODE
 70
           1
  9
$TEXTSIZE
 40
0.2
  9
$TRACEWID
 40
0.05
  9
$TEXTSTYLE
  7
STANDARD
  9
$CLAYER
  8
0
  9
$CELTYPE
  6
CONTINUOUS
  9
$CECOLOR
 62
         256
  9
$CELTSCALE
 40
1.0
  9
$DELOBJ
 70
           1
  9
$DISPSILH
 70
           0
  9
$DIMSCALE
 40
1.0
  9
$DIMASZ
 40
0.18
  9
$DIMEXO
 40
0.0625
  9
$DIMDLI
 40
0.38
  9
$DIMRND
 40
0.0
  9
$DIMDLE
 40
0.0
  9
$DIMEXE
 40
0.18
  9
$DIMTP
 40
0.0
  9
$DIMTM
 40
0.0
  9
$DIMTXT
 40
0.18
  9
$DIMCEN
 40
0.09
  9
$DIMTSZ
 40
0.0
  9
$DIMTOL
 70
           0
  9
$DIMLIM
 70
           0
  9
$DIMTIH
 70
           1
  9
$DIMTOH
 70
           1
  9
$DIMSE1
 70
           0
  9
$DIMSE2
 70
           0
  9
$DIMTAD
 70
           0
  9
$DIMZIN
 70
           0
  9
$DIMBLK
  1

  9
$DIMASO
 70
           1
  9
$DIMSHO
 70
           1
  9
$DIMPOST
  1

  9
$DIMAPOST
  1

  9
$DIMALT
 70
           0
  9
$DIMALTD
 70
           2
  9
$DIMALTF
 40
25.4
  9
$DIMLFAC
 40
1.0
  9
$DIMTOFL
 70
           0
  9
$DIMTVP
 40
0.0
  9
$DIMTIX
 70
           0
  9
$DIMSOXD
 70
           0
  9
$DIMSAH
 70
           0
  9
$DIMBLK1
  1

  9
$DIMBLK2
  1

  9
$DIMSTYLE
  2
STANDARD
  9
$DIMCLRD
 70
           0
  9
$DIMCLRE
 70
           0
  9
$DIMCLRT
 70
           0
  9
$DIMTFAC
 40
1.0
  9
$DIMGAP
 40
0.09
  9
$DIMJUST
 70
           0
  9
$DIMSD1
 70
           0
  9
$DIMSD2
 70
           0
  9
$DIMTOLJ
 70
           1
  9
$DIMTZIN
 70
           0
  9
$DIMALTZ
 70
           0
  9
$DIMALTTZ
 70
           0
  9
$DIMFIT
 70
           3
  9
$DIMUPT
 70
           0
  9
$DIMUNIT
 70
           2
  9
$DIMDEC
 70
           4
  9
$DIMTDEC
 70
           4
  9
$DIMALTU
 70
           2
  9
$DIMALTTD
 70
           2
  9
$DIMTXSTY
  7
STANDARD
  9
$DIMAUNIT
 70
           0
  9
$LUNITS
 70
           2
  9
$LUPREC
 70
           4
  9
$SKETCHINC
 40
0.1
  9
$FILLETRAD
 40
0.0
  9
$AUNITS
 70
           0
  9
$AUPREC
 70
           0
  9
$MENU
  1
acad
  9
$ELEVATION
 40
0.0
  9
$PELEVATION
 40
0.0
  9
$THICKNESS
 40
0.0
  9
$LIMCHECK
 70
           0
  9
$BLIPMODE
 70
           0
  9
$CHAMFERA
 40
0.0
  9
$CHAMFERB
 40
0.0
  9
$CHAMFERC
 40
0.0
  9
$CHAMFERD
 40
0.0
  9
$SKPOLY
 70
           0
  9
$TDCREATE
 40
2444240.000000000
  9
$TDUPDATE
 40
2455398.610896505
  9
$TDINDWG
 40
0.0010185069
  9
$TDUSRTIMER
 40
0.0010185069
  9
$USRTIMER
 70
           1
  9
$ANGBASE
 50
0.0
  9
$ANGDIR
 70
           0
  9
$PDMODE
 70
           0
  9
$PDSIZE
 40
0.0
  9
$PLINEWID
 40
0.0
  9
$COORDS
 70
           0
  9
$SPLFRAME
 70
           0
  9
$SPLINETYPE
 70
           6
  9
$SPLINESEGS
 70
           8
  9
$ATTDIA
 70
           0
  9
$ATTREQ
 70
           0
  9
$HANDLING
 70
           1
  9
$HANDSEED
  5
C6
  9
$SURFTAB1
 70
           6
  9
$SURFTAB2
 70
           6
  9
$SURFTYPE
 70
           6
  9
$SURFU
 70
           6
  9
$SURFV
 70
           6
  9
$UCSNAME
  2

  9
$UCSORG
 10
0.0
 20
0.0
 30
0.0
  9
$UCSXDIR
 10
1.0
 20
0.0
 30
0.0
  9
$UCSYDIR
 10
0.0
 20
1.0
 30
0.0
  9
$PUCSNAME
  2

  9
$PUCSORG
 10
0.0
 20
0.0
 30
0.0
  9
$PUCSXDIR
 10
1.0
 20
0.0
 30
0.0
  9
$PUCSYDIR
 10
0.0
 20
1.0
 30
0.0
  9
$USERI1
 70
           0
  9
$USERI2
 70
           0
  9
$USERI3
 70
           0
  9
$USERI4
 70
           0
  9
$USERI5
 70
           0
  9
$USERR1
 40
0.0
  9
$USERR2
 40
0.0
  9
$USERR3
 40
0.0
  9
$USERR4
 40
0.0
  9
$USERR5
 40
0.0
  9
$WORLDVIEW
 70
           1
  9
$SHADEDGE
 70
           3
  9
$SHADEDIF
 70
          70
  9
$TILEMODE
 70
           1
  9
$MAXACTVP
 70
          64
  9
$PINSBASE
 10
0.0
 20
0.0
 30
0.0
  9
$PLIMCHECK
 70
           0
  9
$PEXTMIN
 10
4.437120171264
 20
7.984838008881
 30
0.0
  9
$PEXTMAX
 10
15.124483108521
 20
28.909837722778
 30
0.0
  9
$PLIMMIN
 10
-0.5
 20
-0.5
  9
$PLIMMAX
 10
5.0
 20
5.0
  9
$UNITMODE
 70
           0
  9
$VISRETAIN
 70
           0
  9
$PLINEGEN
 70
           1
  9
$PSLTSCALE
 70
           0
  9
$TREEDEPTH
 70
        3020
  9
$PICKSTYLE
 70
           1
  9
$CMLSTYLE
  2
Standard
  9
$CMLJUST
 70
           0
  9
$CMLSCALE
 40
1.0
  9
$PROXYGRAPHICS
 70
           0
  9
$MEASUREMENT
 70
           0
  0
ENDSEC
  0
SECTION
  2
CLASSES
  0
CLASS
  1
LWPOLYLINE
  2
AcDbPolyline
  3
"AutoCAD"
 90
        0
280
           0
281
           1
  0
CLASS
  1
IMAGE
  2
AcDbRasterImage
  3
ISM
 90
      127
280
           0
281
           1
  0
CLASS
  1
OLE2FRAME
  2
AcDbOle2Frame
  3
""
 90
        0
280
           0
281
           1
  0
CLASS
  1
HATCH
  2
AcDbHatch
  3
"ACAD_SEDONA"
 90
        0
280
           0
281
           1
  0
CLASS
  1
DICTIONARYVAR
  2
AcDbDictionaryVar
  3
"AutoCAD"
 90
        0
280
           0
281
           0
  0
CLASS
  1
RASTERVARIABLES
  2
AcDbRasterVariables
  3
ISM
 90
        0
280
           0
281
           0
  0
CLASS
  1
IMAGEDEF
  2
AcDbRasterImageDef
  3
ISM
 90
        0
280
           0
281
           0
  0
CLASS
  1
IMAGEDEF_REACTOR
  2
AcDbRasterImageDefReactor
  3
ISM
 90
        1
280
           0
281
           0
  0
CLASS
  1
IDBUFFER
  2
AcDbIdBuffer
  3
"Acad"
 90
        0
280
           0
281
           0
  0
CLASS
  1
SPATIAL_FILTER
  2
AcDbSpatialFilter
  3
"Acad"
 90
        0
280
           0
281
           0
  0
CLASS
  1
XRECORD
  2
AcDbXrecord
  3
"<Built In>"
 90
        0
280
           0
281
           0
  0
CLASS
  1
SORTENTSTABLE
  2
AcDbSortentsTable
  3
"AutoCAD"
 90
        0
280
           0
281
           0
  0
CLASS
  1
LAYER_INDEX
  2
AcDbLayerIndex
  3
"Acad"
 90
        0
280
           0
281
           0
  0
CLASS
  1
SPATIAL_INDEX
  2
AcDbSpatialIndex
  3
"Acad"
 90
        0
280
           0
281
           0
  0
CLASS
  1
OBJECT_PTR
  2
CAseDLPNTableRecord
  3
"ASE-LPNTableRecord"
 90
        1
280
           0
281
           0
  0
CLASS
  1
LAYOUT
  2
AcDbLayout
  3
"AutoCAD 2000"
 90
        1
280
           0
281
           0
  0
CLASS
  1
PLOTSETTINGS
  2
AcDbPlotSettings
  3
"AutoCAD 2000"
 90
        1
280
           0
281
           0
  0
CLASS
  1
ACDBDICTIONARYWDFLT
  2
AcDbDictionaryWithDefault
  3
"AutoCAD 2000"
 90
        1
280
           0
281
           0
  0
CLASS
  1
ACDBPLACEHOLDER
  2
AcDbPlaceHolder
  3
"AutoCAD 2000"
 90
        1
280
           0
281
           0
  0
CLASS
  1
VBA_PROJECT
  2
AcDbVbaProject
  3
"acadvba"
 90
        1
280
           0
281
           0
  0
CLASS
  1
WIPEOUT
  2
AcDbWipeout
  3
WipeOut|AutoCAD Express Tool|expresstools@autodesk.com
 90
      127
280
           0
281
           1
  0
CLASS
  1
WIPEOUTVARIABLES
  2
AcDbWipeoutVariables
  3
WipeOut|AutoCAD Express Tool|expresstools@autodesk.com
 90
        0
280
           0
281
           0
  0
CLASS
  1
RTEXT
  2
RText
  3
RText|AutoCAD Express Tool|expresstools@autodesk.com
 90
        0
280
           0
281
           1
  0
CLASS
  1
ARCALIGNEDTEXT
  2
AcDbArcAlignedText
  3
ATEXT|AutoCAD Express Tool|expresstools@autodesk.com
 90
        0
280
           0
281
           1
  0
CLASS
  1
DIMASSOC
  2
AcDbDimAssoc
  3
AcDbDimAssoc|Product Desc:     AcDim ARX App For Dimension|Company:          Autodesk, Inc.|WEB Address:      www.autodesk.com
 90
        1
280
           0
281
           0
  0
ENDSEC
  0
SECTION
  2
TABLES
  0
TABLE
  2
VPORT
  5
7
100
AcDbSymbolTable
 70
          16
  0
VPORT
  5
B2
100
AcDbSymbolTableRecord
100
AcDbViewportTableRecord
  2
*ACTIVE
 70
           0
 10
0.0
 20
0.0
 11
1.0
 21
1.0
 12
19.561603279784
 22
36.894675731659
 13
0.0
 23
0.0
 14
1.0
 24
1.0
 15
0.0
 25
0.0
 16
0.0
 26
0.0
 36
1.0
 17
0.0
 27
0.0
 37
0.0
 40
42.686999416351
 41
0.688564
 42
50.0
 43
29.436064350793
 44
-29.436064350793
 50
0.0
 51
0.0
 71
          16
 72
         100
 73
           1
 74
           1
 75
           0
 76
           0
 77
           0
 78
           0
  0
VPORT
  5
B3
100
AcDbSymbolTableRecord
100
AcDbViewportTableRecord
  2
L1
 70
           0
 10
0.0
 20
0.0
 11
1.0
 21
1.0
 12
0.0
 22
0.0
 13
0.0
 23
0.0
 14
1.0
 24
1.0
 15
0.0
 25
0.0
 16
0.718873092757
 26
-0.585048612676
 36
0.37541922875
 17
0.0
 27
0.0
 37
0.0
 40
59.525062908318
 41
0.688564
 42
50.0
 43
29.436064350793
 44
-29.436064350793
 50
0.0
 51
0.0
 71
          16
 72
         100
 73
           1
 74
           1
 75
           0
 76
           0
 77
           0
 78
           0
  0
VPORT
  5
B4
100
AcDbSymbolTableRecord
100
AcDbViewportTableRecord
  2
L2
 70
           0
 10
0.0
 20
0.0
 11
0.5
 21
1.0
 12
0.0
 22
0.0
 13
0.0
 23
0.0
 14
1.0
 24
1.0
 15
0.0
 25
0.0
 16
0.0
 26
-1.0
 36
0.0
 17
0.0
 27
0.0
 37
0.0
 40
57.436223123498
 41
0.688564
 42
50.0
 43
29.586753308898
 44
-29.586753308898
 50
0.0
 51
0.0
 71
          16
 72
         100
 73
           1
 74
           1
 75
           0
 76
           0
 77
           0
 78
           0
  0
VPORT
  5
B5
100
AcDbSymbolTableRecord
100
AcDbViewportTableRecord
  2
L2
 70
           0
 10
0.5
 20
0.0
 11
1.0
 21
1.0
 12
0.0
 22
0.0
 13
0.0
 23
0.0
 14
1.0
 24
1.0
 15
0.0
 25
0.0
 16
1.0
 26
0.0
 36
0.0
 17
0.0
 27
0.0
 37
0.0
 40
57.436223123498
 41
0.688564
 42
50.0
 43
29.072757718631
 44
-29.072757718631
 50
0.0
 51
0.0
 71
          16
 72
         100
 73
           1
 74
           1
 75
           0
 76
           0
 77
           0
 78
           0
  0
VPORT
  5
B6
100
AcDbSymbolTableRecord
100
AcDbViewportTableRecord
  2
L3
 70
           0
 10
0.0
 20
0.5
 11
1.0
 21
1.0
 12
0.0
 22
0.0
 13
0.0
 23
0.0
 14
1.0
 24
1.0
 15
0.0
 25
0.0
 16
0.0
 26
0.0
 36
1.0
 17
0.0
 27
0.0
 37
0.0
 40
9.054349163386
 41
0.688564
 42
50.0
 43
28.718111561749
 44
-28.718111561749
 50
0.0
 51
0.0
 71
          16
 72
         100
 73
           1
 74
           1
 75
           0
 76
           0
 77
           0
 78
           0
  0
VPORT
  5
B7
100
AcDbSymbolTableRecord
100
AcDbViewportTableRecord
  2
L3
 70
           0
 10
0.0
 20
0.0
 11
1.0
 21
0.5
 12
0.0
 22
0.0
 13
0.0
 23
0.0
 14
1.0
 24
1.0
 15
0.0
 25
0.0
 16
0.0
 26
-1.0
 36
0.0
 17
0.0
 27
0.0
 37
0.0
 40
57.436223123498
 41
0.688564
 42
50.0
 43
29.586753308898
 44
-29.586753308898
 50
0.0
 51
0.0
 71
          16
 72
         100
 73
           1
 74
           1
 75
           0
 76
           0
 77
           0
 78
           0
  0
VPORT
  5
B8
100
AcDbSymbolTableRecord
100
AcDbViewportTableRecord
  2
L4
 70
           0
 10
0.0
 20
0.5
 11
0.5
 21
1.0
 12
0.0
 22
0.0
 13
0.0
 23
0.0
 14
1.0
 24
1.0
 15
0.0
 25
0.0
 16
0.0
 26
0.0
 36
1.0
 17
0.0
 27
0.0
 37
0.0
 40
9.054349163386
 41
0.688564
 42
50.0
 43
28.718111561749
 44
-28.718111561749
 50
0.0
 51
0.0
 71
          16
 72
         100
 73
           1
 74
           1
 75
           0
 76
           0
 77
           0
 78
           0
  0
VPORT
  5
B9
100
AcDbSymbolTableRecord
100
AcDbViewportTableRecord
  2
L4
 70
           0
 10
0.0
 20
0.0
 11
0.5
 21
0.5
 12
0.0
 22
0.0
 13
0.0
 23
0.0
 14
1.0
 24
1.0
 15
0.0
 25
0.0
 16
0.0
 26
-1.0
 36
0.0
 17
0.0
 27
0.0
 37
0.0
 40
57.436223123498
 41
0.688564
 42
50.0
 43
29.586753308898
 44
-29.586753308898
 50
0.0
 51
0.0
 71
          16
 72
         100
 73
           1
 74
           1
 75
           0
 76
           0
 77
           0
 78
           0
  0
VPORT
  5
BA
100
AcDbSymbolTableRecord
100
AcDbViewportTableRecord
  2
L4
 70
           0
 10
0.5
 20
0.0
 11
1.0
 21
0.5
 12
0.0
 22
0.0
 13
0.0
 23
0.0
 14
1.0
 24
1.0
 15
0.0
 25
0.0
 16
1.0
 26
0.0
 36
0.0
 17
0.0
 27
0.0
 37
0.0
 40
57.436223123498
 41
0.688564
 42
50.0
 43
29.072757718631
 44
-29.072757718631
 50
0.0
 51
0.0
 71
          16
 72
         100
 73
           1
 74
           1
 75
           0
 76
           0
 77
           0
 78
           0
  0
VPORT
  5
BB
100
AcDbSymbolTableRecord
100
AcDbViewportTableRecord
  2
L4
 70
           0
 10
0.5
 20
0.5
 11
1.0
 21
1.0
 12
0.0
 22
0.0
 13
0.0
 23
0.0
 14
1.0
 24
1.0
 15
0.0
 25
0.0
 16
0.57735026919
 26
-0.57735026919
 36
0.57735026919
 17
0.0
 27
0.0
 37
0.0
 40
56.403584468245
 41
0.688564
 42
50.0
 43
29.379071880703
 44
-29.379071880703
 50
0.0
 51
0.0
 71
          16
 72
         100
 73
           1
 74
           1
 75
           0
 76
           0
 77
           0
 78
           0
  0
VPORT
  5
BC
100
AcDbSymbolTableRecord
100
AcDbViewportTableRecord
  2
L6
 70
           0
 10
0.0
 20
0.5
 11
0.333333333333
 21
1.0
 12
0.0
 22
0.0
 13
0.0
 23
0.0
 14
1.0
 24
1.0
 15
0.0
 25
0.0
 16
0.718873092757
 26
-0.585048612676
 36
0.37541922875
 17
0.0
 27
0.0
 37
0.0
 40
59.525062908318
 41
0.688564
 42
50.0
 43
29.436064350793
 44
-29.436064350793
 50
0.0
 51
0.0
 71
          16
 72
         100
 73
           1
 74
           1
 75
           0
 76
           0
 77
           0
 78
           0
  0
VPORT
  5
BD
100
AcDbSymbolTableRecord
100
AcDbViewportTableRecord
  2
L6
 70
           0
 10
0.0
 20
0.0
 11
0.333333333333
 21
0.5
 12
0.0
 22
0.0
 13
0.0
 23
0.0
 14
1.0
 24
1.0
 15
0.0
 25
0.0
 16
-1.0
 26
0.0
 36
0.0
 17
0.0
 27
0.0
 37
0.0
 40
57.436223123498
 41
0.688564
 42
50.0
 43
29.072757718631
 44
-29.072757718631
 50
0.0
 51
0.0
 71
          16
 72
         100
 73
           1
 74
           1
 75
           0
 76
           0
 77
           0
 78
           0
  0
VPORT
  5
BE
100
AcDbSymbolTableRecord
100
AcDbViewportTableRecord
  2
L6
 70
           0
 10
0.333333333333
 20
0.5
 11
0.666666666667
 21
1.0
 12
0.0
 22
0.0
 13
0.0
 23
0.0
 14
1.0
 24
1.0
 15
0.0
 25
0.0
 16
0.0
 26
0.0
 36
1.0
 17
0.0
 27
0.0
 37
0.0
 40
9.054349163386
 41
0.688564
 42
50.0
 43
28.718111561749
 44
-28.718111561749
 50
0.0
 51
0.0
 71
          16
 72
         100
 73
           1
 74
           1
 75
           0
 76
           0
 77
           0
 78
           0
  0
VPORT
  5
BF
100
AcDbSymbolTableRecord
100
AcDbViewportTableRecord
  2
L6
 70
           0
 10
0.333333333333
 20
0.0
 11
0.666666666667
 21
0.5
 12
0.0
 22
0.0
 13
0.0
 23
0.0
 14
1.0
 24
1.0
 15
0.0
 25
0.0
 16
0.0
 26
-1.0
 36
0.0
 17
0.0
 27
0.0
 37
0.0
 40
57.436223123498
 41
0.688564
 42
50.0
 43
29.586753308898
 44
-29.586753308898
 50
0.0
 51
0.0
 71
          16
 72
         100
 73
           1
 74
           1
 75
           0
 76
           0
 77
           0
 78
           0
  0
VPORT
  5
C0
100
AcDbSymbolTableRecord
100
AcDbViewportTableRecord
  2
L6
 70
           0
 10
0.666666666667
 20
0.5
 11
1.0
 21
1.0
 12
0.0
 22
0.0
 13
0.0
 23
0.0
 14
1.0
 24
1.0
 15
0.0
 25
0.0
 16
0.57735026919
 26
-0.57735026919
 36
0.57735026919
 17
0.0
 27
0.0
 37
0.0
 40
56.403584468245
 41
0.688564
 42
50.0
 43
29.379071880703
 44
-29.379071880703
 50
0.0
 51
0.0
 71
          16
 72
         100
 73
           1
 74
           1
 75
           0
 76
           0
 77
           0
 78
           0
  0
VPORT
  5
C1
100
AcDbSymbolTableRecord
100
AcDbViewportTableRecord
  2
L6
 70
           0
 10
0.666666666667
 20
0.0
 11
1.0
 21
0.5
 12
0.0
 22
0.0
 13
0.0
 23
0.0
 14
1.0
 24
1.0
 15
0.0
 25
0.0
 16
1.0
 26
0.0
 36
0.0
 17
0.0
 27
0.0
 37
0.0
 40
57.436223123498
 41
0.688564
 42
50.0
 43
29.072757718631
 44
-29.072757718631
 50
0.0
 51
0.0
 71
          16
 72
         100
 73
           1
 74
           1
 75
           0
 76
           0
 77
           0
 78
           0
  0
ENDTAB
  0
TABLE
  2
LTYPE
  5
4
100
AcDbSymbolTable
 70
           9
  0
LTYPE
  5
11
100
AcDbSymbolTableRecord
100
AcDbLinetypeTableRecord
  2
BYBLOCK
 70
          64
  3

 72
          65
 73
           0
 40
0.0
  0
LTYPE
  5
12
100
AcDbSymbolTableRecord
100
AcDbLinetypeTableRecord
  2
BYLAYER
 70
          64
  3

 72
          65
 73
           0
 40
0.0
  0
LTYPE
  5
13
100
AcDbSymbolTableRecord
100
AcDbLinetypeTableRecord
  2
CONTINUOUS
 70
          64
  3
Solid line
 72
          65
 73
           0
 40
0.0
  0
LTYPE
  5
24
100
AcDbSymbolTableRecord
100
AcDbLinetypeTableRecord
  2
DASHED
 70
          64
  3
__ __ __ __ __ __ __ __ __
 72
          65
 73
           2
 40
25.72
 49
12.86
 74
           0
 49
-12.86
 74
           0
  0
LTYPE
  5
25
100
AcDbSymbolTableRecord
100
AcDbLinetypeTableRecord
  2
HIDDEN
 70
          64
  3
_ _ _ _ _ _ _ _ _ _ _ _ _ _ _
 72
          65
 73
           2
 40
0.5
 49
0.25
 74
           0
 49
-0.25
 74
           0
  0
LTYPE
  5
26
100
AcDbSymbolTableRecord
100
AcDbLinetypeTableRecord
  2
PHANTOM
 70
          64
  3
____ _ _ ____ _ _ _____ _ _ ____
 72
          65
 73
           6
 40
50.5
 49
18.0
 74
           0
 49
-6.5
 74
           0
 49
6.5
 74
           0
 49
-6.5
 74
           0
 49
6.5
 74
           0
 49
-6.5
 74
           0
  0
LTYPE
  5
27
100
AcDbSymbolTableRecord
100
AcDbLinetypeTableRecord
  2
CENTER
 70
          64
  3
____ _ ____ _ ____ _ ____
 72
          65
 73
           4
 40
47.5
 49
22.0
 74
           0
 49
-8.5
 74
           0
 49
8.5
 74
           0
 49
-8.5
 74
           0
  0
LTYPE
  5
28
100
AcDbSymbolTableRecord
100
AcDbLinetypeTableRecord
  2
DOT
 70
          64
  3
.........................
 72
          65
 73
           2
 40
10.0
 49
0.0
 74
           0
 49
-10.0
 74
           0
  0
LTYPE
  5
29
100
AcDbSymbolTableRecord
100
AcDbLinetypeTableRecord
  2
DASHDOT
 70
          64
  3
_._._._._._._._._._._._._._._._.
 72
          65
 73
           4
 40
70.0
 49
31.0
 74
           0
 49
-13.0
 74
           0
 49
13.0
 74
           0
 49
-13.0
 74
           0
  0
ENDTAB
  0
TABLE
  2
LAYER
  5
2
100
AcDbSymbolTable
 70
           2
  0
LAYER
  5
14
100
AcDbSymbolTableRecord
100
AcDbLayerTableRecord
  2
0
 70
           0
 62
           7
  6
CONTINUOUS
  0
LAYER
  5
2B
100
AcDbSymbolTableRecord
100
AcDbLayerTableRecord
  2
TFR-TRI
 70
           0
 62
           7
  6
CONTINUOUS
  0
ENDTAB
  0
TABLE
  2
STYLE
  5
3
100
AcDbSymbolTable
 70
           1
  0
STYLE
  5
17
100
AcDbSymbolTableRecord
100
AcDbTextStyleTableRecord
  2
STANDARD
 70
           0
 40
0.0
 41
1.0
 50
0.0
 71
           0
 42
0.2
  3
TXT
  4

  0
ENDTAB
  0
TABLE
  2
VIEW
  5
5
100
AcDbSymbolTable
 70
           8
  0
VIEW
  5
AA
100
AcDbSymbolTableRecord
100
AcDbViewTableRecord
  2
TOP
 70
           0
 40
9.054349163386
 10
0.0
 20
0.0
 41
14.233206200787
 11
0.0
 21
0.0
 31
1.0
 12
0.0
 22
0.0
 32
0.0
 42
50.0
 43
28.718111561749
 44
-28.718111561749
 50
0.0
 71
          16
  0
VIEW
  5
AB
100
AcDbSymbolTableRecord
100
AcDbViewTableRecord
  2
FRONT
 70
           0
 40
57.436223123498
 10
0.0
 20
0.0
 41
14.233206200787
 11
0.0
 21
-1.0
 31
0.0
 12
0.0
 22
0.0
 32
0.0
 42
50.0
 43
29.586753308898
 44
-29.586753308898
 50
0.0
 71
          16
  0
VIEW
  5
AC
100
AcDbSymbolTableRecord
100
AcDbViewTableRecord
  2
RIGHT
 70
           0
 40
57.436223123498
 10
0.0
 20
0.0
 41
9.054349163386
 11
1.0
 21
0.0
 31
0.0
 12
0.0
 22
0.0
 32
0.0
 42
50.0
 43
29.072757718631
 44
-29.072757718631
 50
0.0
 71
          16
  0
VIEW
  5
AD
100
AcDbSymbolTableRecord
100
AcDbViewTableRecord
  2
BACK
 70
           0
 40
57.436223123498
 10
0.0
 20
0.0
 41
14.233206200787
 11
0.0
 21
1.0
 31
0.0
 12
0.0
 22
0.0
 32
0.0
 42
50.0
 43
29.586753308898
 44
-29.586753308898
 50
0.0
 71
          16
  0
VIEW
  5
AE
100
AcDbSymbolTableRecord
100
AcDbViewTableRecord
  2
BOTTOM
 70
           0
 40
9.054349163386
 10
0.0
 20
0.0
 41
14.233206200787
 11
0.0
 21
0.0
 31
-1.0
 12
0.0
 22
0.0
 32
0.0
 42
50.0
 43
28.718111561749
 44
-28.718111561749
 50
180.0
 71
          16
  0
VIEW
  5
AF
100
AcDbSymbolTableRecord
100
AcDbViewTableRecord
  2
LEFT
 70
           0
 40
57.436223123498
 10
0.0
 20
0.0
 41
9.054349163386
 11
-1.0
 21
0.0
 31
0.0
 12
0.0
 22
0.0
 32
0.0
 42
50.0
 43
29.072757718631
 44
-29.072757718631
 50
0.0
 71
          16
  0
VIEW
  5
B0
100
AcDbSymbolTableRecord
100
AcDbViewTableRecord
  2
TFR-ISO
 70
           0
 40
56.403584468245
 10
0.0
 20
0.0
 41
16.466788315264
 11
0.57735026919
 21
-0.57735026919
 31
0.57735026919
 12
0.0
 22
0.0
 32
0.0
 42
50.0
 43
29.379071880703
 44
-29.379071880703
 50
0.0
 71
          16
  0
VIEW
  5
B1
100
AcDbSymbolTableRecord
100
AcDbViewTableRecord
  2
TFR-TRI
 70
           0
 40
59.525062908318
 10
0.0
 20
0.0
 41
16.006865906753
 11
0.718873092757
 21
-0.585048612676
 31
0.37541922875
 12
0.0
 22
0.0
 32
0.0
 42
50.0
 43
29.436064350793
 44
-29.436064350793
 50
0.0
 71
          16
  0
ENDTAB
  0
TABLE
  2
UCS
  5
6
100
AcDbSymbolTable
 70
           0
  0
ENDTAB
  0
TABLE
  2
APPID
  5
8
100
AcDbSymbolTable
 70
           1
  0
APPID
  5
16
100
AcDbSymbolTableRecord
100
AcDbRegAppTableRecord
  2
ACAD
 70
           0
  0
ENDTAB
  0
TABLE
  2
DIMSTYLE
  5
9
100
AcDbSymbolTable
 70
           1
  0
DIMSTYLE
105
18
100
AcDbSymbolTableRecord
100
AcDbDimStyleTableRecord
  2
STANDARD
 70
           0
  3

  4

  5

  6

  7

 40
1.0
 41
0.18
 42
0.0625
 43
0.38
 44
0.18
 45
0.0
 46
0.0
 47
0.0
 48
0.0
 71
           0
 72
           0
 73
           1
 74
           1
 75
           0
 76
           0
 77
           0
 78
           0
140
0.18
141
0.09
142
0.0
143
25.4
144
1.0
145
0.0
146
1.0
147
0.09
170
           0
171
           2
172
           0
173
           0
174
           0
175
           0
176
           0
177
           0
178
           0
270
           2
271
           4
272
           4
273
           2
274
           2
275
           0
280
           0
281
           0
282
           0
283
           1
284
           0
285
           0
286
           0
287
           3
288
           0
340
17
  0
ENDTAB
  0
TABLE
  2
BLOCK_RECORD
  5
1
100
AcDbSymbolTable
 70
           0
  0
BLOCK_RECORD
  5
A
100
AcDbSymbolTableRecord
100
AcDbBlockTableRecord
  2
*MODEL_SPACE
  0
BLOCK_RECORD
  5
B
100
AcDbSymbolTableRecord
100
AcDbBlockTableRecord
  2
*PAPER_SPACE
  0
ENDTAB
  0
ENDSEC
  0
SECTION
  2
BLOCKS
  0
BLOCK
  5
D
100
AcDbEntity
  8
0
100
AcDbBlockBegin
  2
*MODEL_SPACE
 70
           0
 10
0.0
 20
0.0
 30
0.0
  3
*MODEL_SPACE
  1

  0
ENDBLK
  5
E
100
AcDbEntity
  8
0
100
AcDbBlockEnd
  0
BLOCK
  5
F
100
AcDbEntity
 67
           1
  8
0
100
AcDbBlockBegin
  2
*PAPER_SPACE
 70
           0
 10
0.0
 20
0.0
 30
0.0
  3
*PAPER_SPACE
  1

  0
ENDBLK
  5
10
100
AcDbEntity
 67
           1
  8
0
100
AcDbBlockEnd
  0
ENDSEC
  0
SECTION
  2
ENTITIES
  0
VIEWPORT
  5
C2
100
AcDbEntity
 67
           1
  8
0
100
AcDbViewport
 10
7.8
 20
4.5
 30
0.0
 40
15.64
 41
9.0
 68
           1
 69
           1
1001
ACAD
1000
MVIEW
1002
{
1070
          16
1010
0.0
1020
0.0
1030
0.0
1010
0.0
1020
0.0
1030
1.0
1040
0.0
1040
12.0
1040
6.0
1040
4.5
1040
50.0
1040
0.0
1040
0.0
1070
           0
1070
         100
1070
           0
1070
           1
1070
           0
1070
           0
1070
           0
1070
           0
1040
0.0
1040
0.0
1040
0.0
1040
0.5
1040
0.5
1040
0.5
1040
0.5
1070
           0
1002
{
1002
}
1002
}
  0
LINE
  5
2A
100
AcDbEntity
  8
TFR-TRI
  6
CONTINUOUS
 62
          30
100
AcDbLine
 10
30.209365844727
 20
25.422676086426
 30
0.0
 11
30.209365844727
 21
25.444637298584
 31
0.0
  0
LINE
  5
2C
100
AcDbEntity
  8
TFR-TRI
  6
CONTINUOUS
 62
          30
100
AcDbLine
 10
30.209365844727
 20
57.819675445557
 30
0.0
 11
30.248966217041
 21
57.819675445557
 31
0.0
  0
LINE
  5
2D
100
AcDbEntity
  8
TFR-TRI
  6
CONTINUOUS
 62
          30
100
AcDbLine
 10
10.265740394592
 20
54.479675292969
 30
0.0
 11
10.265740394592
 21
57.759674072266
 31
0.0
  0
LINE
  5
2E
100
AcDbEntity
  8
TFR-TRI
  6
CONTINUOUS
 62
          30
100
AcDbLine
 10
30.209365844727
 20
15.977714538574
 30
0.0
 11
30.209365844727
 21
15.999675750732
 31
0.0
  0
LINE
  5
2F
100
AcDbEntity
  8
TFR-TRI
  6
CONTINUOUS
 62
          30
100
AcDbLine
 10
30.209365844727
 20
15.999675750732
 30
0.0
 11
30.209365844727
 21
16.029676437378
 31
0.0
  0
LINE
  5
30
100
AcDbEntity
  8
TFR-TRI
  6
CONTINUOUS
 62
          30
100
AcDbLine
 10
30.209365844727
 20
48.524677276611
 30
0.0
 11
30.209365844727
 21
48.54663848877
 31
0.0
  0
LINE
  5
31
100
AcDbEntity
  8
TFR-TRI
  6
CONTINUOUS
 62
          30
100
AcDbLine
 10
30.248966217041
 20
15.977714538574
 30
0.0
 11
30.248966217041
 21
15.969676017761
 31
0.0
  0
LINE
  5
32
100
AcDbEntity
  8
TFR-TRI
  6
CONTINUOUS
 62
          30
100
AcDbLine
 10
30.248966217041
 20
25.39267539978
 30
0.0
 11
30.248966217041
 21
20.864675521851
 31
0.0
  0
LINE
  5
33
100
AcDbEntity
  8
TFR-TRI
  6
CONTINUOUS
 62
          30
100
AcDbLine
 10
30.248966217041
 20
25.46071434021
 30
0.0
 11
30.248966217041
 21
25.452676773071
 31
0.0
  0
LINE
  5
34
100
AcDbEntity
  8
TFR-TRI
  6
CONTINUOUS
 62
          30
100
AcDbLine
 10
30.248966217041
 20
20.812713623047
 30
0.0
 11
30.248966217041
 21
20.804676055908
 31
0.0
  0
LINE
  5
35
100
AcDbEntity
  8
TFR-TRI
  6
CONTINUOUS
 62
          30
100
AcDbLine
 10
30.209365844727
 20
57.811637878418
 30
0.0
 11
30.209365844727
 21
57.819675445557
 31
0.0
  0
LINE
  5
36
100
AcDbEntity
  8
TFR-TRI
  6
CONTINUOUS
 62
          30
100
AcDbLine
 10
9.900740623474
 20
24.5797996521
 30
0.0
 11
9.900740623474
 21
25.09267616272
 31
0.0
  0
LINE
  5
37
100
AcDbEntity
  8
TFR-TRI
  6
CONTINUOUS
 62
          30
100
AcDbLine
 10
30.209365844727
 20
25.512676239014
 30
0.0
 11
30.248966217041
 21
25.512676239014
 31
0.0
  0
LINE
  5
38
100
AcDbEntity
  8
TFR-TRI
  6
CONTINUOUS
 62
          30
100
AcDbLine
 10
16.310741424561
 20
20.804676055908
 30
0.0
 11
17.547241210938
 21
20.804676055908
 31
0.0
  0
LINE
  5
39
100
AcDbEntity
  8
TFR-TRI
  6
CONTINUOUS
 62
          30
100
AcDbLine
 10
30.209365844727
 20
25.39267539978
 30
0.0
 11
30.209365844727
 21
25.422676086426
 31
0.0
  0
LINE
  5
3A
100
AcDbEntity
  8
TFR-TRI
  6
CONTINUOUS
 62
          30
100
AcDbLine
 10
9.620740890503
 20
52.3297996521
 30
0.0
 11
9.620740890503
 21
52.842674255371
 31
0.0
  0
LINE
  5
3B
100
AcDbEntity
  8
TFR-TRI
  6
CONTINUOUS
 62
          30
100
AcDbLine
 10
30.248966217041
 20
48.54663848877
 30
0.0
 11
30.248966217041
 21
48.524677276611
 31
0.0
  0
LINE
  5
3C
100
AcDbEntity
  8
TFR-TRI
  6
CONTINUOUS
 62
          30
100
AcDbLine
 10
30.248966217041
 20
25.444637298584
 30
0.0
 11
30.248966217041
 21
25.422676086426
 31
0.0
  0
LINE
  5
3D
100
AcDbEntity
  8
TFR-TRI
  6
CONTINUOUS
 62
          30
100
AcDbLine
 10
30.209365844727
 20
57.78967666626
 30
0.0
 11
30.209365844727
 21
57.811637878418
 31
0.0
  0
LINE
  5
3E
100
AcDbEntity
  8
TFR-TRI
  6
CONTINUOUS
 62
          30
100
AcDbLine
 10
30.248966217041
 20
20.796636581421
 30
0.0
 11
30.248966217041
 21
20.774675369263
 31
0.0
  0
LINE
  5
3F
100
AcDbEntity
  8
TFR-TRI
  6
CONTINUOUS
 62
          30
100
AcDbLine
 10
17.547241210938
 20
15.969676017761
 30
0.0
 11
8.934240341187
 21
15.969676017761
 31
0.0
  0
LINE
  5
40
100
AcDbEntity
  8
TFR-TRI
  6
CONTINUOUS
 62
          30
100
AcDbLine
 10
9.620740890503
 20
48.91467666626
 30
0.0
 11
9.620740890503
 21
49.427551269531
 31
0.0
  0
LINE
  5
41
100
AcDbEntity
  8
TFR-TRI
  6
CONTINUOUS
 62
          30
100
AcDbLine
 10
30.209365844727
 20
48.554676055908
 30
0.0
 11
30.248966217041
 21
48.554676055908
 31
0.0
  0
LINE
  5
42
100
AcDbEntity
  8
TFR-TRI
  6
CONTINUOUS
 62
          30
100
AcDbLine
 10
9.900740623474
 20
52.3297996521
 30
0.0
 11
9.900740623474
 21
52.842674255371
 31
0.0
  0
LINE
  5
43
100
AcDbEntity
  8
TFR-TRI
  6
CONTINUOUS
 62
          30
100
AcDbLine
 10
30.209365844727
 20
16.029676437378
 30
0.0
 11
30.248966217041
 21
16.029676437378
 31
0.0
  0
LINE
  5
44
100
AcDbEntity
  8
TFR-TRI
  6
CONTINUOUS
 62
          30
100
AcDbLine
 10
30.248966217041
 20
16.029676437378
 30
0.0
 11
30.248966217041
 21
15.999675750732
 31
0.0
  0
LINE
  5
45
100
AcDbEntity
  8
TFR-TRI
  6
CONTINUOUS
 62
          30
100
AcDbLine
 10
30.248966217041
 20
25.39267539978
 30
0.0
 11
30.209365844727
 21
25.39267539978
 31
0.0
  0
LINE
  5
46
100
AcDbEntity
  8
TFR-TRI
  6
CONTINUOUS
 62
          30
100
AcDbLine
 10
8.874240875244
 20
16.029676437378
 30
0.0
 11
8.874240875244
 21
54.359676361084
 31
0.0
  0
LINE
  5
47
100
AcDbEntity
  8
TFR-TRI
  6
CONTINUOUS
 62
          30
100
AcDbLine
 10
30.209365844727
 20
25.46071434021
 30
0.0
 11
30.209365844727
 21
25.482675552368
 31
0.0
  0
LINE
  5
48
100
AcDbEntity
  8
TFR-TRI
  6
CONTINUOUS
 62
          30
100
AcDbLine
 10
30.248966217041
 20
25.512676239014
 30
0.0
 11
30.248966217041
 21
48.494674682617
 31
0.0
  0
LINE
  5
49
100
AcDbEntity
  8
TFR-TRI
  6
CONTINUOUS
 62
          30
100
AcDbLine
 10
30.209365844727
 20
25.452676773071
 30
0.0
 11
30.209365844727
 21
25.46071434021
 31
0.0
  0
LINE
  5
4A
100
AcDbEntity
  8
TFR-TRI
  6
CONTINUOUS
 62
          30
100
AcDbLine
 10
30.209365844727
 20
25.512676239014
 30
0.0
 11
30.209365844727
 21
48.494674682617
 31
0.0
  0
LINE
  5
4B
100
AcDbEntity
  8
TFR-TRI
  6
CONTINUOUS
 62
          30
100
AcDbLine
 10
30.209365844727
 20
25.39267539978
 30
0.0
 11
30.209365844727
 21
20.864675521851
 31
0.0
  0
LINE
  5
4C
100
AcDbEntity
  8
TFR-TRI
  6
CONTINUOUS
 62
          30
100
AcDbLine
 10
30.248966217041
 20
16.029676437378
 30
0.0
 11
30.248966217041
 21
20.744676589966
 31
0.0
  0
LINE
  5
4D
100
AcDbEntity
  8
TFR-TRI
  6
CONTINUOUS
 62
          30
100
AcDbLine
 10
30.248966217041
 20
57.819675445557
 30
0.0
 11
30.248966217041
 21
57.811637878418
 31
0.0
  0
LINE
  5
4E
100
AcDbEntity
  8
TFR-TRI
  6
CONTINUOUS
 62
          30
100
AcDbLine
 10
30.248966217041
 20
25.482675552368
 30
0.0
 11
30.248966217041
 21
25.46071434021
 31
0.0
  0
LINE
  5
4F
100
AcDbEntity
  8
TFR-TRI
  6
CONTINUOUS
 62
          30
100
AcDbLine
 10
9.620740890503
 20
24.5797996521
 30
0.0
 11
9.620740890503
 21
25.09267616272
 31
0.0
  0
LINE
  5
50
100
AcDbEntity
  8
TFR-TRI
  6
CONTINUOUS
 62
          30
100
AcDbLine
 10
30.209365844727
 20
48.562713623047
 30
0.0
 11
30.209365844727
 21
48.584674835205
 31
0.0
  0
LINE
  5
51
100
AcDbEntity
  8
TFR-TRI
  6
CONTINUOUS
 62
          30
100
AcDbLine
 10
30.248966217041
 20
25.452676773071
 30
0.0
 11
30.209365844727
 21
25.452676773071
 31
0.0
  0
LINE
  5
52
100
AcDbEntity
  8
TFR-TRI
  6
CONTINUOUS
 62
          30
100
AcDbLine
 10
30.248966217041
 20
15.969676017761
 30
0.0
 11
30.209365844727
 21
15.969676017761
 31
0.0
  0
LINE
  5
53
100
AcDbEntity
  8
TFR-TRI
  6
CONTINUOUS
 62
          30
100
AcDbLine
 10
30.248966217041
 20
57.759674072266
 30
0.0
 11
30.209365844727
 21
57.759674072266
 31
0.0
  0
LINE
  5
54
100
AcDbEntity
  8
TFR-TRI
  6
CONTINUOUS
 62
          30
100
AcDbLine
 10
30.209365844727
 20
20.834676742554
 30
0.0
 11
30.209365844727
 21
20.864675521851
 31
0.0
  0
LINE
  5
55
100
AcDbEntity
  8
TFR-TRI
  6
CONTINUOUS
 62
          30
100
AcDbLine
 10
9.900740623474
 20
48.91467666626
 30
0.0
 11
9.900740623474
 21
49.427551269531
 31
0.0
  0
LINE
  5
56
100
AcDbEntity
  8
TFR-TRI
  6
CONTINUOUS
 62
          30
100
AcDbLine
 10
30.248966217041
 20
20.834676742554
 30
0.0
 11
30.248966217041
 21
20.812713623047
 31
0.0
  0
LINE
  5
57
100
AcDbEntity
  8
TFR-TRI
  6
CONTINUOUS
 62
          30
100
AcDbLine
 10
17.60724067688
 20
16.029676437378
 30
0.0
 11
17.60724067688
 21
20.744676589966
 31
0.0
  0
LINE
  5
58
100
AcDbEntity
  8
TFR-TRI
  6
CONTINUOUS
 62
          30
100
AcDbLine
 10
30.209365844727
 20
20.804676055908
 30
0.0
 11
30.248966217041
 21
20.804676055908
 31
0.0
  0
LINE
  5
59
100
AcDbEntity
  8
TFR-TRI
  6
CONTINUOUS
 62
          30
100
AcDbLine
 10
30.248966217041
 20
48.554676055908
 30
0.0
 11
30.248966217041
 21
48.54663848877
 31
0.0
  0
LINE
  5
5A
100
AcDbEntity
  8
TFR-TRI
  6
CONTINUOUS
 62
          30
100
AcDbLine
 10
30.248966217041
 20
48.584674835205
 30
0.0
 11
30.248966217041
 21
48.562713623047
 31
0.0
  0
LINE
  5
5B
100
AcDbEntity
  8
TFR-TRI
  6
CONTINUOUS
 62
          30
100
AcDbLine
 10
30.209365844727
 20
57.759674072266
 30
0.0
 11
30.209365844727
 21
57.78967666626
 31
0.0
  0
LINE
  5
5C
100
AcDbEntity
  8
TFR-TRI
  6
CONTINUOUS
 62
          30
100
AcDbLine
 10
17.60724067688
 20
25.512676239014
 30
0.0
 11
17.60724067688
 21
48.494674682617
 31
0.0
  0
LINE
  5
5D
100
AcDbEntity
  8
TFR-TRI
  6
CONTINUOUS
 62
          30
100
AcDbLine
 10
30.248966217041
 20
25.452676773071
 30
0.0
 11
30.248966217041
 21
25.444637298584
 31
0.0
  0
LINE
  5
5E
100
AcDbEntity
  8
TFR-TRI
  6
CONTINUOUS
 62
          30
100
AcDbLine
 10
30.209365844727
 20
25.482675552368
 30
0.0
 11
30.209365844727
 21
25.512676239014
 31
0.0
  0
LINE
  5
5F
100
AcDbEntity
  8
TFR-TRI
  6
CONTINUOUS
 62
          30
100
AcDbLine
 10
30.248966217041
 20
20.804676055908
 30
0.0
 11
30.248966217041
 21
20.796636581421
 31
0.0
  0
LINE
  5
60
100
AcDbEntity
  8
TFR-TRI
  6
CONTINUOUS
 62
          30
100
AcDbLine
 10
8.934240341187
 20
54.419677734375
 30
0.0
 11
10.20574092865
 21
54.419677734375
 31
0.0
  0
LINE
  5
61
100
AcDbEntity
  8
TFR-TRI
  6
CONTINUOUS
 62
          30
100
AcDbLine
 10
30.248966217041
 20
48.614677429199
 30
0.0
 11
30.248966217041
 21
48.584674835205
 31
0.0
  0
LINE
  5
62
100
AcDbEntity
  8
TFR-TRI
  6
CONTINUOUS
 62
          30
100
AcDbLine
 10
16.25074005127
 20
57.759674072266
 30
0.0
 11
16.25074005127
 21
48.614677429199
 31
0.0
  0
LINE
  5
63
100
AcDbEntity
  8
TFR-TRI
  6
CONTINUOUS
 62
          30
100
AcDbLine
 10
30.209365844727
 20
20.744676589966
 30
0.0
 11
30.209365844727
 21
20.774675369263
 31
0.0
  0
LINE
  5
64
100
AcDbEntity
  8
TFR-TRI
  6
CONTINUOUS
 62
          30
100
AcDbLine
 10
30.209365844727
 20
57.759674072266
 30
0.0
 11
30.209365844727
 21
48.614677429199
 31
0.0
  0
LINE
  5
65
100
AcDbEntity
  8
TFR-TRI
  6
CONTINUOUS
 62
          30
100
AcDbLine
 10
30.209365844727
 20
20.774675369263
 30
0.0
 11
30.209365844727
 21
20.796636581421
 31
0.0
  0
LINE
  5
66
100
AcDbEntity
  8
TFR-TRI
  6
CONTINUOUS
 62
          30
100
AcDbLine
 10
30.248966217041
 20
20.744676589966
 30
0.0
 11
30.209365844727
 21
20.744676589966
 31
0.0
  0
LINE
  5
67
100
AcDbEntity
  8
TFR-TRI
  6
CONTINUOUS
 62
          30
100
AcDbLine
 10
9.620740890503
 20
21.16467666626
 30
0.0
 11
9.620740890503
 21
21.67755317688
 31
0.0
  0
LINE
  5
68
100
AcDbEntity
  8
TFR-TRI
  6
CONTINUOUS
 62
          30
100
AcDbLine
 10
30.209365844727
 20
20.864675521851
 30
0.0
 11
30.248966217041
 21
20.864675521851
 31
0.0
  0
LINE
  5
69
100
AcDbEntity
  8
TFR-TRI
  6
CONTINUOUS
 62
          30
100
AcDbLine
 10
30.248966217041
 20
48.524677276611
 30
0.0
 11
30.248966217041
 21
48.494674682617
 31
0.0
  0
LINE
  5
6A
100
AcDbEntity
  8
TFR-TRI
  6
CONTINUOUS
 62
          30
100
AcDbLine
 10
10.325740814209
 20
57.819675445557
 30
0.0
 11
16.190740585327
 21
57.819675445557
 31
0.0
  0
LINE
  5
6B
100
AcDbEntity
  8
TFR-TRI
  6
CONTINUOUS
 62
          30
100
AcDbLine
 10
30.248966217041
 20
25.422676086426
 30
0.0
 11
30.248966217041
 21
25.39267539978
 31
0.0
  0
LINE
  5
6C
100
AcDbEntity
  8
TFR-TRI
  6
CONTINUOUS
 62
          30
100
AcDbLine
 10
30.248966217041
 20
57.759674072266
 30
0.0
 11
30.248966217041
 21
48.614677429199
 31
0.0
  0
LINE
  5
6D
100
AcDbEntity
  8
TFR-TRI
  6
CONTINUOUS
 62
          30
100
AcDbLine
 10
16.25074005127
 20
25.39267539978
 30
0.0
 11
16.25074005127
 21
20.864675521851
 31
0.0
  0
LINE
  5
6E
100
AcDbEntity
  8
TFR-TRI
  6
CONTINUOUS
 62
          30
100
AcDbLine
 10
9.900740623474
 20
21.16467666626
 30
0.0
 11
9.900740623474
 21
21.67755317688
 31
0.0
  0
LINE
  5
6F
100
AcDbEntity
  8
TFR-TRI
  6
CONTINUOUS
 62
          30
100
AcDbLine
 10
30.248966217041
 20
20.774675369263
 30
0.0
 11
30.248966217041
 21
20.744676589966
 31
0.0
  0
LINE
  5
70
100
AcDbEntity
  8
TFR-TRI
  6
CONTINUOUS
 62
          30
100
AcDbLine
 10
30.209365844727
 20
48.494674682617
 30
0.0
 11
30.209365844727
 21
48.524677276611
 31
0.0
  0
LINE
  5
71
100
AcDbEntity
  8
TFR-TRI
  6
CONTINUOUS
 62
          30
100
AcDbLine
 10
30.209365844727
 20
20.796636581421
 30
0.0
 11
30.209365844727
 21
20.804676055908
 31
0.0
  0
LINE
  5
72
100
AcDbEntity
  8
TFR-TRI
  6
CONTINUOUS
 62
          30
100
AcDbLine
 10
30.209365844727
 20
20.804676055908
 30
0.0
 11
30.209365844727
 21
20.812713623047
 31
0.0
  0
LINE
  5
73
100
AcDbEntity
  8
TFR-TRI
  6
CONTINUOUS
 62
          30
100
AcDbLine
 10
16.310741424561
 20
48.554676055908
 30
0.0
 11
17.547241210938
 21
48.554676055908
 31
0.0
  0
LINE
  5
74
100
AcDbEntity
  8
TFR-TRI
  6
CONTINUOUS
 62
          30
100
AcDbLine
 10
30.209365844727
 20
20.812713623047
 30
0.0
 11
30.209365844727
 21
20.834676742554
 31
0.0
  0
LINE
  5
75
100
AcDbEntity
  8
TFR-TRI
  6
CONTINUOUS
 62
          30
100
AcDbLine
 10
30.248966217041
 20
48.562713623047
 30
0.0
 11
30.248966217041
 21
48.554676055908
 31
0.0
  0
LINE
  5
76
100
AcDbEntity
  8
TFR-TRI
  6
CONTINUOUS
 62
          30
100
AcDbLine
 10
30.209365844727
 20
15.969676017761
 30
0.0
 11
30.209365844727
 21
15.977714538574
 31
0.0
  0
LINE
  5
77
100
AcDbEntity
  8
TFR-TRI
  6
CONTINUOUS
 62
          30
100
AcDbLine
 10
30.248966217041
 20
57.78967666626
 30
0.0
 11
30.248966217041
 21
57.759674072266
 31
0.0
  0
LINE
  5
78
100
AcDbEntity
  8
TFR-TRI
  6
CONTINUOUS
 62
          30
100
AcDbLine
 10
30.209365844727
 20
48.614677429199
 30
0.0
 11
30.248966217041
 21
48.614677429199
 31
0.0
  0
LINE
  5
79
100
AcDbEntity
  8
TFR-TRI
  6
CONTINUOUS
 62
          30
100
AcDbLine
 10
30.209365844727
 20
48.584674835205
 30
0.0
 11
30.209365844727
 21
48.614677429199
 31
0.0
  0
LINE
  5
7A
100
AcDbEntity
  8
TFR-TRI
  6
CONTINUOUS
 62
          30
100
AcDbLine
 10
30.248966217041
 20
15.999675750732
 30
0.0
 11
30.248966217041
 21
15.977714538574
 31
0.0
  0
LINE
  5
7B
100
AcDbEntity
  8
TFR-TRI
  6
CONTINUOUS
 62
          30
100
AcDbLine
 10
30.248966217041
 20
48.494674682617
 30
0.0
 11
30.209365844727
 21
48.494674682617
 31
0.0
  0
LINE
  5
7C
100
AcDbEntity
  8
TFR-TRI
  6
CONTINUOUS
 62
          30
100
AcDbLine
 10
16.310741424561
 20
25.452676773071
 30
0.0
 11
17.547241210938
 21
25.452676773071
 31
0.0
  0
LINE
  5
7D
100
AcDbEntity
  8
TFR-TRI
  6
CONTINUOUS
 62
          30
100
AcDbLine
 10
30.248966217041
 20
25.512676239014
 30
0.0
 11
30.248966217041
 21
25.482675552368
 31
0.0
  0
LINE
  5
7E
100
AcDbEntity
  8
TFR-TRI
  6
CONTINUOUS
 62
          30
100
AcDbLine
 10
30.209365844727
 20
16.029676437378
 30
0.0
 11
30.209365844727
 21
20.744676589966
 31
0.0
  0
LINE
  5
7F
100
AcDbEntity
  8
TFR-TRI
  6
CONTINUOUS
 62
          30
100
AcDbLine
 10
30.248966217041
 20
57.811637878418
 30
0.0
 11
30.248966217041
 21
57.78967666626
 31
0.0
  0
LINE
  5
80
100
AcDbEntity
  8
TFR-TRI
  6
CONTINUOUS
 62
          30
100
AcDbLine
 10
30.209365844727
 20
25.444637298584
 30
0.0
 11
30.209365844727
 21
25.452676773071
 31
0.0
  0
LINE
  5
81
100
AcDbEntity
  8
TFR-TRI
  6
CONTINUOUS
 62
          30
100
AcDbLine
 10
30.209365844727
 20
48.54663848877
 30
0.0
 11
30.209365844727
 21
48.554676055908
 31
0.0
  0
LINE
  5
82
100
AcDbEntity
  8
TFR-TRI
  6
CONTINUOUS
 62
          30
100
AcDbLine
 10
30.209365844727
 20
48.554676055908
 30
0.0
 11
30.209365844727
 21
48.562713623047
 31
0.0
  0
LINE
  5
83
100
AcDbEntity
  8
TFR-TRI
  6
CONTINUOUS
 62
          30
100
AcDbLine
 10
30.248966217041
 20
20.864675521851
 30
0.0
 11
30.248966217041
 21
20.834676742554
 31
0.0
  0
CIRCLE
  5
84
100
AcDbEntity
  8
TFR-TRI
  6
CONTINUOUS
 62
          30
100
AcDbCircle
 10
16.515741348267
 20
37.003677368164
 30
0.0
 40
0.135000005364
  0
CIRCLE
  5
85
100
AcDbEntity
  8
TFR-TRI
  6
CONTINUOUS
 62
          30
100
AcDbCircle
 10
14.240740776062
 20
57.569675445557
 30
0.0
 40
0.135000005364
  0
ARC
  5
86
100
AcDbEntity
  8
TFR-TRI
  6
CONTINUOUS
 62
          30
100
AcDbCircle
 10
8.934240341187
 20
54.359676361084
 30
0.0
 40
0.059999998659
100
AcDbArc
 50
90.0
 51
180.0
  0
CIRCLE
  5
87
100
AcDbEntity
  8
TFR-TRI
  6
CONTINUOUS
 62
          30
100
AcDbCircle
 10
15.965741157532
 20
37.003677368164
 30
0.0
 40
0.135000005364
  0
CIRCLE
  5
88
100
AcDbEntity
  8
TFR-TRI
  6
CONTINUOUS
 62
          30
100
AcDbCircle
 10
15.265740394592
 20
57.569675445557
 30
0.0
 40
0.135000005364
  0
CIRCLE
  5
89
100
AcDbEntity
  8
TFR-TRI
  6
CONTINUOUS
 62
          30
100
AcDbCircle
 10
17.265741348267
 20
37.003677368164
 30
0.0
 40
0.135000005364
  0
CIRCLE
  5
8A
100
AcDbEntity
  8
TFR-TRI
  6
CONTINUOUS
 62
          30
100
AcDbCircle
 10
11.215741157532
 20
37.003677368164
 30
0.0
 40
0.135000005364
  0
ARC
  5
8B
100
AcDbEntity
  8
TFR-TRI
  6
CONTINUOUS
 62
          30
100
AcDbCircle
 10
17.547241210938
 20
20.744676589966
 30
0.0
 40
0.059999998659
100
AcDbArc
 50
0.0
 51
90.0
  0
ARC
  5
8C
100
AcDbEntity
  8
TFR-TRI
  6
CONTINUOUS
 62
          30
100
AcDbCircle
 10
9.760740280151
 20
52.842674255371
 30
0.0
 40
0.140000000596
100
AcDbArc
 50
0.0
 51
180.0
  0
CIRCLE
  5
8D
100
AcDbEntity
  8
TFR-TRI
  6
CONTINUOUS
 62
          30
100
AcDbCircle
 10
10.715741157532
 20
57.569675445557
 30
0.0
 40
0.135000005364
  0
ARC
  5
8E
100
AcDbEntity
  8
TFR-TRI
  6
CONTINUOUS
 62
          30
100
AcDbCircle
 10
9.760740280151
 20
21.884675979614
 30
0.0
 40
0.25
100
AcDbArc
 50
304.055798665712
 51
235.944201334287
  0
ARC
  5
8F
100
AcDbEntity
  8
TFR-TRI
  6
CONTINUOUS
 62
          30
100
AcDbCircle
 10
9.760740280151
 20
24.372676849365
 30
0.0
 40
0.25
100
AcDbArc
 50
124.055798665712
 51
55.944201334287
  0
CIRCLE
  5
90
100
AcDbEntity
  8
TFR-TRI
  6
CONTINUOUS
 62
          30
100
AcDbCircle
 10
10.715741157532
 20
37.003677368164
 30
0.0
 40
0.135000005364
  0
ARC
  5
91
100
AcDbEntity
  8
TFR-TRI
  6
CONTINUOUS
 62
          30
100
AcDbCircle
 10
17.547241210938
 20
25.512676239014
 30
0.0
 40
0.059999998659
100
AcDbArc
 50
270.0
 51
360.0
  0
ARC
  5
92
100
AcDbEntity
  8
TFR-TRI
  6
CONTINUOUS
 62
          30
100
AcDbCircle
 10
9.760740280151
 20
52.122676849365
 30
0.0
 40
0.25
100
AcDbArc
 50
124.055798665712
 51
55.944201334287
  0
ARC
  5
93
100
AcDbEntity
  8
TFR-TRI
  6
CONTINUOUS
 62
          30
100
AcDbCircle
 10
9.760740280151
 20
25.09267616272
 30
0.0
 40
0.140000000596
100
AcDbArc
 50
0.0
 51
180.0
  0
ARC
  5
94
100
AcDbEntity
  8
TFR-TRI
  6
CONTINUOUS
 62
          30
100
AcDbCircle
 10
10.325740814209
 20
57.759674072266
 30
0.0
 40
0.059999998659
100
AcDbArc
 50
90.0
 51
180.0
  0
CIRCLE
  5
95
100
AcDbEntity
  8
TFR-TRI
  6
CONTINUOUS
 62
          30
100
AcDbCircle
 10
15.265740394592
 20
37.003677368164
 30
0.0
 40
0.135000005364
  0
CIRCLE
  5
96
100
AcDbEntity
  8
TFR-TRI
  6
CONTINUOUS
 62
          30
100
AcDbCircle
 10
10.715741157532
 20
16.569675445557
 30
0.0
 40
0.135000005364
  0
CIRCLE
  5
97
100
AcDbEntity
  8
TFR-TRI
  6
CONTINUOUS
 62
          30
100
AcDbCircle
 10
11.215741157532
 20
16.569675445557
 30
0.0
 40
0.135000005364
  0
ARC
  5
98
100
AcDbEntity
  8
TFR-TRI
  6
CONTINUOUS
 62
          30
100
AcDbCircle
 10
9.760740280151
 20
48.91467666626
 30
0.0
 40
0.140000000596
100
AcDbArc
 50
180.0
 51
360.0
  0
ARC
  5
99
100
AcDbEntity
  8
TFR-TRI
  6
CONTINUOUS
 62
          30
100
AcDbCircle
 10
8.934240341187
 20
16.029676437378
 30
0.0
 40
0.059999998659
100
AcDbArc
 50
180.0
 51
270.0
  0
ARC
  5
9A
100
AcDbEntity
  8
TFR-TRI
  6
CONTINUOUS
 62
          30
100
AcDbCircle
 10
10.20574092865
 20
54.479675292969
 30
0.0
 40
0.059999998659
100
AcDbArc
 50
270.0
 51
360.0
  0
CIRCLE
  5
9B
100
AcDbEntity
  8
TFR-TRI
  6
CONTINUOUS
 62
          30
100
AcDbCircle
 10
15.965741157532
 20
16.569675445557
 30
0.0
 40
0.135000005364
  0
CIRCLE
  5
9C
100
AcDbEntity
  8
TFR-TRI
  6
CONTINUOUS
 62
          30
100
AcDbCircle
 10
16.515741348267
 20
16.569675445557
 30
0.0
 40
0.135000005364
  0
ARC
  5
9D
100
AcDbEntity
  8
TFR-TRI
  6
CONTINUOUS
 62
          30
100
AcDbCircle
 10
17.547241210938
 20
16.029676437378
 30
0.0
 40
0.059999998659
100
AcDbArc
 50
270.0
 51
360.0
  0
CIRCLE
  5
9E
100
AcDbEntity
  8
TFR-TRI
  6
CONTINUOUS
 62
          30
100
AcDbCircle
 10
11.215741157532
 20
57.569675445557
 30
0.0
 40
0.135000005364
  0
CIRCLE
  5
9F
100
AcDbEntity
  8
TFR-TRI
  6
CONTINUOUS
 62
          30
100
AcDbCircle
 10
15.265740394592
 20
16.569675445557
 30
0.0
 40
0.135000005364
  0
ARC
  5
A0
100
AcDbEntity
  8
TFR-TRI
  6
CONTINUOUS
 62
          30
100
AcDbCircle
 10
16.310741424561
 20
25.39267539978
 30
0.0
 40
0.059999998659
100
AcDbArc
 50
90.0
 51
180.0
  0
CIRCLE
  5
A1
100
AcDbEntity
  8
TFR-TRI
  6
CONTINUOUS
 62
          30
100
AcDbCircle
 10
17.265741348267
 20
16.569675445557
 30
0.0
 40
0.135000005364
  0
ARC
  5
A2
100
AcDbEntity
  8
TFR-TRI
  6
CONTINUOUS
 62
          30
100
AcDbCircle
 10
16.310741424561
 20
48.614677429199
 30
0.0
 40
0.059999998659
100
AcDbArc
 50
180.0
 51
270.0
  0
ARC
  5
A3
100
AcDbEntity
  8
TFR-TRI
  6
CONTINUOUS
 62
          30
100
AcDbCircle
 10
9.760740280151
 20
49.634674072266
 30
0.0
 40
0.25
100
AcDbArc
 50
304.055798665712
 51
235.944201334287
  0
ARC
  5
A4
100
AcDbEntity
  8
TFR-TRI
  6
CONTINUOUS
 62
          30
100
AcDbCircle
 10
16.190740585327
 20
57.759674072266
 30
0.0
 40
0.059999998659
100
AcDbArc
 50
0.0
 51
90.0
  0
ARC
  5
A5
100
AcDbEntity
  8
TFR-TRI
  6
CONTINUOUS
 62
          30
100
AcDbCircle
 10
16.310741424561
 20
20.864675521851
 30
0.0
 40
0.059999998659
100
AcDbArc
 50
180.0
 51
270.0
  0
ARC
  5
A6
100
AcDbEntity
  8
TFR-TRI
  6
CONTINUOUS
 62
          30
100
AcDbCircle
 10
17.547241210938
 20
48.494674682617
 30
0.0
 40
0.059999998659
100
AcDbArc
 50
0.0
 51
90.0
  0
CIRCLE
  5
A7
100
AcDbEntity
  8
TFR-TRI
  6
CONTINUOUS
 62
          30
100
AcDbCircle
 10
13.615740776062
 20
57.569675445557
 30
0.0
 40
0.135000005364
  0
CIRCLE
  5
A8
100
AcDbEntity
  8
TFR-TRI
  6
CONTINUOUS
 62
          30
100
AcDbCircle
 10
15.965741157532
 20
57.569675445557
 30
0.0
 40
0.135000005364
  0
ARC
  5
A9
100
AcDbEntity
  8
TFR-TRI
  6
CONTINUOUS
 62
          30
100
AcDbCircle
 10
9.760740280151
 20
21.16467666626
 30
0.0
 40
0.140000000596
100
AcDbArc
 50
180.0
 51
360.0
  0
ENDSEC
  0
SECTION
  2
OBJECTS
  0
DICTIONARY
  5
19
100
AcDbDictionary
  3
ACAD_GROUP
350
1A
  3
ACAD_MLINESTYLE
350
1B
  3
ACDBVARIABLEDICTIONARY
350
C4
  0
DICTIONARY
  5
1A
102
{ACAD_REACTORS
330
19
102
}
100
AcDbDictionary
  0
DICTIONARY
  5
1B
102
{ACAD_REACTORS
330
19
102
}
100
AcDbDictionary
  3
STANDARD
350
1C
  0
MLINESTYLE
  5
1C
102
{ACAD_REACTORS
330
1B
102
}
100
AcDbMlineStyle
  2
Standard
 70
           0
  3

 62
           0
 51
90.0
 52
90.0
 71
           2
 49
0.5
 62
         256
  6
ByLayer
 49
-0.5
 62
         256
  6
ByLayer
  0
DICTIONARY
  5
1E
102
{ACAD_REACTORS
330
19
102
}
100
AcDbDictionary
  3
MODEL
350
20
  3
LAYOUT1
350
21
  0
DICTIONARY
  5
22
102
{ACAD_REACTORS
330
19
102
}
100
AcDbDictionary
  0
DICTIONARY
  5
C4
100
AcDbDictionary
  3
DIMADEC
350
C5
  0
DICTIONARYVAR
  5
C5
100
DictionaryVariables
280
           0
  1
0
  0
ENDSEC
  0
EOF
