  0
SECTION
  2
HEADER
  9
$ACADVER
  1
AC1012
  9
$DWGCODEPAGE
  3
ANSI_1252
  9
$INSBASE
 10
0.0
 20
0.0
 30
0.0
  9
$EXTMIN
 10
1.031433134609173
 20
3.688385035014228
 30
-0.0015258207003583
  9
$EXTMAX
 10
5.086303730828575
 20
6.534530657733011
 30
0.0000000349246037
  9
$LIMMIN
 10
0.0
 20
0.0
  9
$LIMMAX
 10
12.0
 20
9.0
  9
$ORTHOMODE
 70
     0
  9
$REGENMODE
 70
     1
  9
$FILLMODE
 70
     1
  9
$QTEXTMODE
 70
     0
  9
$MIRRTEXT
 70
     1
  9
$DRAGMODE
 70
     2
  9
$LTSCALE
 40
1.0
  9
$OSMODE
 70
   547
  9
$ATTMODE
 70
     1
  9
$TEXTSIZE
 40
0.2
  9
$TRACEWID
 40
0.05
  9
$TEXTSTYLE
  7
STANDARD
  9
$CLAYER
  8
0
  9
$CELTYPE
  6
BYLAYER
  9
$CECOLOR
 62
   256
  9
$CELTSCALE
 40
1.0
  9
$DELOBJ
 70
     1
  9
$DISPSILH
 70
     0
  9
$DIMSCALE
 40
1.0
  9
$DIMASZ
 40
0.18
  9
$DIMEXO
 40
0.0625
  9
$DIMDLI
 40
0.38
  9
$DIMRND
 40
0.0
  9
$DIMDLE
 40
0.0
  9
$DIMEXE
 40
0.18
  9
$DIMTP
 40
0.0
  9
$DIMTM
 40
0.0
  9
$DIMTXT
 40
0.18
  9
$DIMCEN
 40
0.09
  9
$DIMTSZ
 40
0.0
  9
$DIMTOL
 70
     0
  9
$DIMLIM
 70
     0
  9
$DIMTIH
 70
     1
  9
$DIMTOH
 70
     1
  9
$DIMSE1
 70
     0
  9
$DIMSE2
 70
     0
  9
$DIMTAD
 70
     0
  9
$DIMZIN
 70
     0
  9
$DIMBLK
  1

  9
$DIMASO
 70
     1
  9
$DIMSHO
 70
     1
  9
$DIMPOST
  1

  9
$DIMAPOST
  1

  9
$DIMALT
 70
     0
  9
$DIMALTD
 70
     2
  9
$DIMALTF
 40
25.4
  9
$DIMLFAC
 40
1.0
  9
$DIMTOFL
 70
     0
  9
$DIMTVP
 40
0.0
  9
$DIMTIX
 70
     0
  9
$DIMSOXD
 70
     0
  9
$DIMSAH
 70
     0
  9
$DIMBLK1
  1

  9
$DIMBLK2
  1

  9
$DIMSTYLE
  2
STANDARD
  9
$DIMCLRD
 70
     0
  9
$DIMCLRE
 70
     0
  9
$DIMCLRT
 70
     0
  9
$DIMTFAC
 40
1.0
  9
$DIMGAP
 40
0.09
  9
$DIMJUST
 70
     0
  9
$DIMSD1
 70
     0
  9
$DIMSD2
 70
     0
  9
$DIMTOLJ
 70
     1
  9
$DIMTZIN
 70
     0
  9
$DIMALTZ
 70
     0
  9
$DIMALTTZ
 70
     0
  9
$DIMFIT
 70
     5
  9
$DIMUPT
 70
     0
  9
$DIMUNIT
 70
     2
  9
$DIMDEC
 70
     4
  9
$DIMTDEC
 70
     4
  9
$DIMALTU
 70
     2
  9
$DIMALTTD
 70
     2
  9
$DIMTXSTY
  7
STANDARD
  9
$DIMAUNIT
 70
     0
  9
$LUNITS
 70
     2
  9
$LUPREC
 70
     4
  9
$SKETCHINC
 40
0.1
  9
$FILLETRAD
 40
0.0
  9
$AUNITS
 70
     0
  9
$AUPREC
 70
     0
  9
$MENU
  1
acad
  9
$ELEVATION
 40
0.0
  9
$PELEVATION
 40
0.0
  9
$THICKNESS
 40
0.0
  9
$LIMCHECK
 70
     0
  9
$BLIPMODE
 70
     0
  9
$CHAMFERA
 40
0.0
  9
$CHAMFERB
 40
0.0
  9
$CHAMFERC
 40
0.0
  9
$CHAMFERD
 40
0.0
  9
$SKPOLY
 70
     0
  9
$TDCREATE
 40
2453586.530173610
  9
$TDUPDATE
 40
2453586.561226875
  9
$TDINDWG
 40
0.0003723495
  9
$TDUSRTIMER
 40
0.0003723495
  9
$USRTIMER
 70
     1
  9
$ANGBASE
 50
0.0
  9
$ANGDIR
 70
     0
  9
$PDMODE
 70
     0
  9
$PDSIZE
 40
0.0
  9
$PLINEWID
 40
0.0
  9
$COORDS
 70
     1
  9
$SPLFRAME
 70
     0
  9
$SPLINETYPE
 70
     6
  9
$SPLINESEGS
 70
     8
  9
$ATTDIA
 70
     0
  9
$ATTREQ
 70
     1
  9
$HANDLING
 70
  4097
  9
$HANDSEED
  5
4D95
  9
$SURFTAB1
 70
     6
  9
$SURFTAB2
 70
     6
  9
$SURFTYPE
 70
     6
  9
$SURFU
 70
     6
  9
$SURFV
 70
     6
  9
$UCSNAME
  2

  9
$UCSORG
 10
0.0
 20
0.0
 30
0.0
  9
$UCSXDIR
 10
1.0
 20
0.0
 30
0.0
  9
$UCSYDIR
 10
0.0
 20
1.0
 30
0.0
  9
$PUCSNAME
  2

  9
$PUCSORG
 10
0.0
 20
0.0
 30
0.0
  9
$PUCSXDIR
 10
1.0
 20
0.0
 30
0.0
  9
$PUCSYDIR
 10
0.0
 20
1.0
 30
0.0
  9
$USERI1
 70
     0
  9
$USERI2
 70
     0
  9
$USERI3
 70
     0
  9
$USERI4
 70
     0
  9
$USERI5
 70
     0
  9
$USERR1
 40
0.0
  9
$USERR2
 40
0.0
  9
$USERR3
 40
0.0
  9
$USERR4
 40
0.0
  9
$USERR5
 40
0.0
  9
$WORLDVIEW
 70
     1
  9
$SHADEDGE
 70
     3
  9
$SHADEDIF
 70
    70
  9
$TILEMODE
 70
     1
  9
$MAXACTVP
 70
    16
  9
$PINSBASE
 10
0.0
 20
0.0
 30
0.0
  9
$PLIMCHECK
 70
     0
  9
$PEXTMIN
 10
1.000000000000000E+20
 20
1.000000000000000E+20
 30
1.000000000000000E+20
  9
$PEXTMAX
 10
-1.000000000000000E+20
 20
-1.000000000000000E+20
 30
-1.000000000000000E+20
  9
$PLIMMIN
 10
0.0
 20
0.0
  9
$PLIMMAX
 10
12.0
 20
9.0
  9
$UNITMODE
 70
     0
  9
$VISRETAIN
 70
     0
  9
$PLINEGEN
 70
     0
  9
$PSLTSCALE
 70
     1
  9
$TREEDEPTH
 70
  3020
  9
$PICKSTYLE
 70
     1
  9
$CMLSTYLE
  2
STANDARD
  9
$CMLJUST
 70
     0
  9
$CMLSCALE
 40
1.0
  9
$SAVEIMAGES
 70
     1
  0
ENDSEC
  0
SECTION
  2
CLASSES
  0
CLASS
  1
ACDBDICTIONARYWDFLT
  2
AcDbDictionaryWithDefault
  3
AutoCAD 2000
 90
    32768
280
     0
281
     0
  0
CLASS
  1
ACDBPLACEHOLDER
  2
AcDbPlaceHolder
  3
AutoCAD 2000
 90
    32768
280
     0
281
     0
  0
CLASS
  1
LAYOUT
  2
AcDbLayout
  3
AutoCAD 2000
 90
    32768
280
     0
281
     0
  0
CLASS
  1
LONG_TRANSACTION
  2
AcDbLongTransaction
  3
AutoCAD 2000
 90
    32768
280
     0
281
     0
  0
CLASS
  1
LWPOLYLINE
  2
AcDbPolyline
  3
AutoCAD 2000
 90
    32768
280
     0
281
     1
  0
CLASS
  1
HATCH
  2
AcDbHatch
  3
AutoCAD 2000
 90
    32768
280
     0
281
     1
  0
CLASS
  1
XRECORD
  2
AcDbXrecord
  3
AutoCAD 2000
 90
    32768
280
     0
281
     0
  0
ENDSEC
  0
SECTION
  2
TABLES
  0
TABLE
  2
VPORT
  5
8
330
0
100
AcDbSymbolTable
 70
     3
  0
VPORT
  5
4D90
330
8
100
AcDbSymbolTableRecord
100
AcDbViewportTableRecord
  2
*ACTIVE
 70
     0
 10
0.0
 20
0.0
 11
1.0
 21
1.0
 12
3.058868432718873
 22
5.111457846373619
 13
0.0
 23
0.0
 14
1.0
 24
1.0
 15
0.0
 25
0.0
 16
0.0
 26
0.0
 36
1.0
 17
0.0
 27
0.0
 37
0.0
 40
2.87794613246983
 41
1.748134328358208
 42
50.0
 43
0.0
 44
0.0
 50
0.0
 51
0.0
 71
     0
 72
   100
 73
     1
 74
     1
 75
     0
 76
     0
 77
     0
 78
     0
  0
ENDTAB
  0
TABLE
  2
LTYPE
  5
5
330
0
100
AcDbSymbolTable
 70
    25
  0
LTYPE
  5
13
330
5
100
AcDbSymbolTableRecord
100
AcDbLinetypeTableRecord
  2
BYBLOCK
 70
     0
  3

 72
    65
 73
     0
 40
0.0
  0
LTYPE
  5
14
330
5
100
AcDbSymbolTableRecord
100
AcDbLinetypeTableRecord
  2
BYLAYER
 70
     0
  3

 72
    65
 73
     0
 40
0.0
  0
LTYPE
  5
15
330
5
100
AcDbSymbolTableRecord
100
AcDbLinetypeTableRecord
  2
CONTINUOUS
 70
     0
  3
Solid line
 72
    65
 73
     0
 40
0.0
  0
LTYPE
  5
22
330
5
100
AcDbSymbolTableRecord
100
AcDbLinetypeTableRecord
  2
BORDER
 70
     0
  3
__ __ . __ __ . __ __ . __ __ . __ __ . __ __ .
 72
    65
 73
     6
 40
1.75
 49
0.5
 74
     0
 49
-0.25
 74
     0
 49
0.5
 74
     0
 49
-0.25
 74
     0
 49
0.5
 74
     0
 49
-0.25
 74
     0
  0
LTYPE
  5
23
330
5
100
AcDbSymbolTableRecord
100
AcDbLinetypeTableRecord
  2
BORDER2
 70
     0
  3
__.__.__.__.__.__.__.__.__.__.__.__.__.__.__.__
 72
    65
 73
     6
 40
0.875
 49
0.25
 74
     0
 49
-0.125
 74
     0
 49
0.25
 74
     0
 49
-0.125
 74
     0
 49
0.25
 74
     0
 49
-0.125
 74
     0
  0
LTYPE
  5
24
330
5
100
AcDbSymbolTableRecord
100
AcDbLinetypeTableRecord
  2
BORDERX2
 70
     0
  3
____  ____  .  ____  ____  .  
 72
    65
 73
     6
 40
3.5
 49
1.0
 74
     0
 49
-0.5
 74
     0
 49
1.0
 74
     0
 49
-0.5
 74
     0
 49
1.0
 74
     0
 49
-0.5
 74
     0
  0
LTYPE
  5
25
330
5
100
AcDbSymbolTableRecord
100
AcDbLinetypeTableRecord
  2
CENTER
 70
     0
  3
____ _ ____ _ ____ _ ____ _ ____ _ ____ _ ____
 72
    65
 73
     4
 40
2.0
 49
1.25
 74
     0
 49
-0.25
 74
     0
 49
0.25
 74
     0
 49
-0.25
 74
     0
  0
LTYPE
  5
26
330
5
100
AcDbSymbolTableRecord
100
AcDbLinetypeTableRecord
  2
CENTER2
 70
     0
  3
____ _ ____ _ ____ _ ____ _ ____ _ ____ _ ____
 72
    65
 73
     4
 40
1.125
 49
0.75
 74
     0
 49
-0.125
 74
     0
 49
0.125
 74
     0
 49
-0.125
 74
     0
  0
LTYPE
  5
27
330
5
100
AcDbSymbolTableRecord
100
AcDbLinetypeTableRecord
  2
CENTERX2
 70
     0
  3
________  __  ________  __  ________  __  
 72
    65
 73
     4
 40
4.0
 49
2.5
 74
     0
 49
-0.5
 74
     0
 49
0.5
 74
     0
 49
-0.5
 74
     0
  0
LTYPE
  5
28
330
5
100
AcDbSymbolTableRecord
100
AcDbLinetypeTableRecord
  2
DASHDOT
 70
     0
  3
__ . __ . __ . __ . __ . __ . __ . 
 72
    65
 73
     4
 40
1.0
 49
0.5
 74
     0
 49
-0.25
 74
     0
 49
0.0
 74
     0
 49
-0.25
 74
     0
  0
LTYPE
  5
29
330
5
100
AcDbSymbolTableRecord
100
AcDbLinetypeTableRecord
  2
DASHDOT2
 70
     0
  3
_._._._._._._._._._._._._._._._.
 72
    65
 73
     4
 40
0.5
 49
0.25
 74
     0
 49
-0.125
 74
     0
 49
0.0
 74
     0
 49
-0.125
 74
     0
  0
LTYPE
  5
2A
330
5
100
AcDbSymbolTableRecord
100
AcDbLinetypeTableRecord
  2
DASHDOTX2
 70
     0
  3
____  .  ____  .  ____  .  ____  .  
 72
    65
 73
     4
 40
2.0
 49
1.0
 74
     0
 49
-0.5
 74
     0
 49
0.0
 74
     0
 49
-0.5
 74
     0
  0
LTYPE
  5
2B
330
5
100
AcDbSymbolTableRecord
100
AcDbLinetypeTableRecord
  2
DASHED
 70
     0
  3
__ __ __ __ __ __ __ __ __ __ __ __ 
 72
    65
 73
     2
 40
0.75
 49
0.5
 74
     0
 49
-0.25
 74
     0
  0
LTYPE
  5
2C
330
5
100
AcDbSymbolTableRecord
100
AcDbLinetypeTableRecord
  2
DASHED2
 70
     0
  3
_ _ _ _ _ _ _ _ _ _ _ _ _ _ _ _ _ _ 
 72
    65
 73
     2
 40
0.375
 49
0.25
 74
     0
 49
-0.125
 74
     0
  0
LTYPE
  5
2D
330
5
100
AcDbSymbolTableRecord
100
AcDbLinetypeTableRecord
  2
DASHEDX2
 70
     0
  3
____  ____  ____  ____  ____  ____  
 72
    65
 73
     2
 40
1.5
 49
1.0
 74
     0
 49
-0.5
 74
     0
  0
LTYPE
  5
2E
330
5
100
AcDbSymbolTableRecord
100
AcDbLinetypeTableRecord
  2
DIVIDE
 70
     0
  3
____ . . ____ . . ____ . . ____ . . 
 72
    65
 73
     6
 40
1.25
 49
0.5
 74
     0
 49
-0.25
 74
     0
 49
0.0
 74
     0
 49
-0.25
 74
     0
 49
0.0
 74
     0
 49
-0.25
 74
     0
  0
LTYPE
  5
2F
330
5
100
AcDbSymbolTableRecord
100
AcDbLinetypeTableRecord
  2
DIVIDE2
 70
     0
  3
__..__..__..__..__..__..__..__..__..
 72
    65
 73
     6
 40
0.625
 49
0.25
 74
     0
 49
-0.125
 74
     0
 49
0.0
 74
     0
 49
-0.125
 74
     0
 49
0.0
 74
     0
 49
-0.125
 74
     0
  0
LTYPE
  5
30
330
5
100
AcDbSymbolTableRecord
100
AcDbLinetypeTableRecord
  2
DIVIDEX2
 70
     0
  3
________  .  .  ________  .  .  ________  .  . 
 72
    65
 73
     6
 40
2.5
 49
1.0
 74
     0
 49
-0.5
 74
     0
 49
0.0
 74
     0
 49
-0.5
 74
     0
 49
0.0
 74
     0
 49
-0.5
 74
     0
  0
LTYPE
  5
31
330
5
100
AcDbSymbolTableRecord
100
AcDbLinetypeTableRecord
  2
DOT
 70
     0
  3
. . . . . . . . . . . . . . . . . . 
 72
    65
 73
     2
 40
0.25
 49
0.0
 74
     0
 49
-0.25
 74
     0
  0
LTYPE
  5
32
330
5
100
AcDbSymbolTableRecord
100
AcDbLinetypeTableRecord
  2
DOT2
 70
     0
  3
....................................
 72
    65
 73
     2
 40
0.125
 49
0.0
 74
     0
 49
-0.125
 74
     0
  0
LTYPE
  5
33
330
5
100
AcDbSymbolTableRecord
100
AcDbLinetypeTableRecord
  2
DOTX2
 70
     0
  3
.  .  .  .  .  .  .  .  .  .  .  .  .  
 72
    65
 73
     2
 40
0.5
 49
0.0
 74
     0
 49
-0.5
 74
     0
  0
LTYPE
  5
34
330
5
100
AcDbSymbolTableRecord
100
AcDbLinetypeTableRecord
  2
HIDDEN
 70
     0
  3
__ __ __ __ __ __ __ __ __ __ __ __ 
 72
    65
 73
     2
 40
0.375
 49
0.25
 74
     0
 49
-0.125
 74
     0
  0
LTYPE
  5
35
330
5
100
AcDbSymbolTableRecord
100
AcDbLinetypeTableRecord
  2
HIDDEN2
 70
     0
  3
_ _ _ _ _ _ _ _ _ _ _ _ _ _ _ _ _ _ 
 72
    65
 73
     2
 40
0.1875
 49
0.125
 74
     0
 49
-0.0625
 74
     0
  0
LTYPE
  5
36
330
5
100
AcDbSymbolTableRecord
100
AcDbLinetypeTableRecord
  2
HIDDENX2
 70
     0
  3
____ ____ ____ ____ ____ ____ ____ 
 72
    65
 73
     2
 40
0.75
 49
0.5
 74
     0
 49
-0.25
 74
     0
  0
LTYPE
  5
37
330
5
100
AcDbSymbolTableRecord
100
AcDbLinetypeTableRecord
  2
PHANTOM
 70
     0
  3
______  __  __  ______  __  __  
 72
    65
 73
     6
 40
2.5
 49
1.25
 74
     0
 49
-0.25
 74
     0
 49
0.25
 74
     0
 49
-0.25
 74
     0
 49
0.25
 74
     0
 49
-0.25
 74
     0
  0
LTYPE
  5
38
330
5
100
AcDbSymbolTableRecord
100
AcDbLinetypeTableRecord
  2
PHANTOM2
 70
     0
  3
___ _ _ ___ _ _ ___ _ _ ___ _ _ 
 72
    65
 73
     6
 40
1.25
 49
0.625
 74
     0
 49
-0.125
 74
     0
 49
0.125
 74
     0
 49
-0.125
 74
     0
 49
0.125
 74
     0
 49
-0.125
 74
     0
  0
LTYPE
  5
39
330
5
100
AcDbSymbolTableRecord
100
AcDbLinetypeTableRecord
  2
PHANTOMX2
 70
     0
  3
___ _ _ ___ _ _ ___ _ _ ___ _ _ 
 72
    65
 73
     6
 40
5.0
 49
2.5
 74
     0
 49
-0.5
 74
     0
 49
0.5
 74
     0
 49
-0.5
 74
     0
 49
0.5
 74
     0
 49
-0.5
 74
     0
  0
ENDTAB
  0
TABLE
  2
LAYER
  5
2
330
0
100
AcDbSymbolTable
 70
   256
  0
LAYER
  5
10
330
2
100
AcDbSymbolTableRecord
100
AcDbLayerTableRecord
  2
0
 70
     0
 62
     7
  6
CONTINUOUS
  0
LAYER
  5
3A
330
2
100
AcDbSymbolTableRecord
100
AcDbLayerTableRecord
  2
1
 70
     0
 62
     1
  6
CONTINUOUS
  0
LAYER
  5
3B
330
2
100
AcDbSymbolTableRecord
100
AcDbLayerTableRecord
  2
2
 70
     0
 62
     2
  6
CONTINUOUS
  0
LAYER
  5
3C
330
2
100
AcDbSymbolTableRecord
100
AcDbLayerTableRecord
  2
3
 70
     0
 62
     3
  6
CONTINUOUS
  0
LAYER
  5
3D
330
2
100
AcDbSymbolTableRecord
100
AcDbLayerTableRecord
  2
4
 70
     0
 62
     4
  6
CONTINUOUS
  0
LAYER
  5
3E
330
2
100
AcDbSymbolTableRecord
100
AcDbLayerTableRecord
  2
5
 70
     0
 62
     5
  6
CONTINUOUS
  0
LAYER
  5
3F
330
2
100
AcDbSymbolTableRecord
100
AcDbLayerTableRecord
  2
6
 70
     0
 62
     6
  6
CONTINUOUS
  0
LAYER
  5
40
330
2
100
AcDbSymbolTableRecord
100
AcDbLayerTableRecord
  2
7
 70
     0
 62
     7
  6
CONTINUOUS
  0
LAYER
  5
41
330
2
100
AcDbSymbolTableRecord
100
AcDbLayerTableRecord
  2
8
 70
     0
 62
     8
  6
CONTINUOUS
  0
LAYER
  5
42
330
2
100
AcDbSymbolTableRecord
100
AcDbLayerTableRecord
  2
9
 70
     0
 62
     9
  6
CONTINUOUS
  0
LAYER
  5
43
330
2
100
AcDbSymbolTableRecord
100
AcDbLayerTableRecord
  2
10
 70
     0
 62
    10
  6
CONTINUOUS
  0
LAYER
  5
44
330
2
100
AcDbSymbolTableRecord
100
AcDbLayerTableRecord
  2
11
 70
     0
 62
    11
  6
CONTINUOUS
  0
LAYER
  5
45
330
2
100
AcDbSymbolTableRecord
100
AcDbLayerTableRecord
  2
12
 70
     0
 62
    12
  6
CONTINUOUS
  0
LAYER
  5
46
330
2
100
AcDbSymbolTableRecord
100
AcDbLayerTableRecord
  2
13
 70
     0
 62
    13
  6
CONTINUOUS
  0
LAYER
  5
47
330
2
100
AcDbSymbolTableRecord
100
AcDbLayerTableRecord
  2
14
 70
     0
 62
    14
  6
CONTINUOUS
  0
LAYER
  5
48
330
2
100
AcDbSymbolTableRecord
100
AcDbLayerTableRecord
  2
15
 70
     0
 62
    15
  6
CONTINUOUS
  0
LAYER
  5
49
330
2
100
AcDbSymbolTableRecord
100
AcDbLayerTableRecord
  2
16
 70
     0
 62
    16
  6
CONTINUOUS
  0
LAYER
  5
4A
330
2
100
AcDbSymbolTableRecord
100
AcDbLayerTableRecord
  2
17
 70
     0
 62
    17
  6
CONTINUOUS
  0
LAYER
  5
4B
330
2
100
AcDbSymbolTableRecord
100
AcDbLayerTableRecord
  2
18
 70
     0
 62
    18
  6
CONTINUOUS
  0
LAYER
  5
4C
330
2
100
AcDbSymbolTableRecord
100
AcDbLayerTableRecord
  2
19
 70
     0
 62
    19
  6
CONTINUOUS
  0
LAYER
  5
4D
330
2
100
AcDbSymbolTableRecord
100
AcDbLayerTableRecord
  2
20
 70
     0
 62
    20
  6
CONTINUOUS
  0
LAYER
  5
4E
330
2
100
AcDbSymbolTableRecord
100
AcDbLayerTableRecord
  2
21
 70
     0
 62
    21
  6
CONTINUOUS
  0
LAYER
  5
4F
330
2
100
AcDbSymbolTableRecord
100
AcDbLayerTableRecord
  2
22
 70
     0
 62
    22
  6
CONTINUOUS
  0
LAYER
  5
50
330
2
100
AcDbSymbolTableRecord
100
AcDbLayerTableRecord
  2
23
 70
     0
 62
    23
  6
CONTINUOUS
  0
LAYER
  5
51
330
2
100
AcDbSymbolTableRecord
100
AcDbLayerTableRecord
  2
24
 70
     0
 62
    24
  6
CONTINUOUS
  0
LAYER
  5
52
330
2
100
AcDbSymbolTableRecord
100
AcDbLayerTableRecord
  2
25
 70
     0
 62
    25
  6
CONTINUOUS
  0
LAYER
  5
53
330
2
100
AcDbSymbolTableRecord
100
AcDbLayerTableRecord
  2
26
 70
     0
 62
    26
  6
CONTINUOUS
  0
LAYER
  5
54
330
2
100
AcDbSymbolTableRecord
100
AcDbLayerTableRecord
  2
27
 70
     0
 62
    27
  6
CONTINUOUS
  0
LAYER
  5
55
330
2
100
AcDbSymbolTableRecord
100
AcDbLayerTableRecord
  2
28
 70
     0
 62
    28
  6
CONTINUOUS
  0
LAYER
  5
56
330
2
100
AcDbSymbolTableRecord
100
AcDbLayerTableRecord
  2
29
 70
     0
 62
    29
  6
CONTINUOUS
  0
LAYER
  5
57
330
2
100
AcDbSymbolTableRecord
100
AcDbLayerTableRecord
  2
30
 70
     0
 62
    30
  6
CONTINUOUS
  0
LAYER
  5
58
330
2
100
AcDbSymbolTableRecord
100
AcDbLayerTableRecord
  2
31
 70
     0
 62
    31
  6
CONTINUOUS
  0
LAYER
  5
59
330
2
100
AcDbSymbolTableRecord
100
AcDbLayerTableRecord
  2
32
 70
     0
 62
    32
  6
CONTINUOUS
  0
LAYER
  5
5A
330
2
100
AcDbSymbolTableRecord
100
AcDbLayerTableRecord
  2
33
 70
     0
 62
    33
  6
CONTINUOUS
  0
LAYER
  5
5B
330
2
100
AcDbSymbolTableRecord
100
AcDbLayerTableRecord
  2
34
 70
     0
 62
    34
  6
CONTINUOUS
  0
LAYER
  5
5C
330
2
100
AcDbSymbolTableRecord
100
AcDbLayerTableRecord
  2
35
 70
     0
 62
    35
  6
CONTINUOUS
  0
LAYER
  5
5D
330
2
100
AcDbSymbolTableRecord
100
AcDbLayerTableRecord
  2
36
 70
     0
 62
    36
  6
CONTINUOUS
  0
LAYER
  5
5E
330
2
100
AcDbSymbolTableRecord
100
AcDbLayerTableRecord
  2
37
 70
     0
 62
    37
  6
CONTINUOUS
  0
LAYER
  5
5F
330
2
100
AcDbSymbolTableRecord
100
AcDbLayerTableRecord
  2
38
 70
     0
 62
    38
  6
CONTINUOUS
  0
LAYER
  5
60
330
2
100
AcDbSymbolTableRecord
100
AcDbLayerTableRecord
  2
39
 70
     0
 62
    39
  6
CONTINUOUS
  0
LAYER
  5
61
330
2
100
AcDbSymbolTableRecord
100
AcDbLayerTableRecord
  2
40
 70
     0
 62
    40
  6
CONTINUOUS
  0
LAYER
  5
62
330
2
100
AcDbSymbolTableRecord
100
AcDbLayerTableRecord
  2
41
 70
     0
 62
    41
  6
CONTINUOUS
  0
LAYER
  5
63
330
2
100
AcDbSymbolTableRecord
100
AcDbLayerTableRecord
  2
42
 70
     0
 62
    42
  6
CONTINUOUS
  0
LAYER
  5
64
330
2
100
AcDbSymbolTableRecord
100
AcDbLayerTableRecord
  2
43
 70
     0
 62
    43
  6
CONTINUOUS
  0
LAYER
  5
65
330
2
100
AcDbSymbolTableRecord
100
AcDbLayerTableRecord
  2
44
 70
     0
 62
    44
  6
CONTINUOUS
  0
LAYER
  5
66
330
2
100
AcDbSymbolTableRecord
100
AcDbLayerTableRecord
  2
45
 70
     0
 62
    45
  6
CONTINUOUS
  0
LAYER
  5
67
330
2
100
AcDbSymbolTableRecord
100
AcDbLayerTableRecord
  2
46
 70
     0
 62
    46
  6
CONTINUOUS
  0
LAYER
  5
68
330
2
100
AcDbSymbolTableRecord
100
AcDbLayerTableRecord
  2
47
 70
     0
 62
    47
  6
CONTINUOUS
  0
LAYER
  5
69
330
2
100
AcDbSymbolTableRecord
100
AcDbLayerTableRecord
  2
48
 70
     0
 62
    48
  6
CONTINUOUS
  0
LAYER
  5
6A
330
2
100
AcDbSymbolTableRecord
100
AcDbLayerTableRecord
  2
49
 70
     0
 62
    49
  6
CONTINUOUS
  0
LAYER
  5
6B
330
2
100
AcDbSymbolTableRecord
100
AcDbLayerTableRecord
  2
50
 70
     0
 62
    50
  6
CONTINUOUS
  0
LAYER
  5
6C
330
2
100
AcDbSymbolTableRecord
100
AcDbLayerTableRecord
  2
51
 70
     0
 62
    51
  6
CONTINUOUS
  0
LAYER
  5
6D
330
2
100
AcDbSymbolTableRecord
100
AcDbLayerTableRecord
  2
52
 70
     0
 62
    52
  6
CONTINUOUS
  0
LAYER
  5
6E
330
2
100
AcDbSymbolTableRecord
100
AcDbLayerTableRecord
  2
53
 70
     0
 62
    53
  6
CONTINUOUS
  0
LAYER
  5
6F
330
2
100
AcDbSymbolTableRecord
100
AcDbLayerTableRecord
  2
54
 70
     0
 62
    54
  6
CONTINUOUS
  0
LAYER
  5
70
330
2
100
AcDbSymbolTableRecord
100
AcDbLayerTableRecord
  2
55
 70
     0
 62
    55
  6
CONTINUOUS
  0
LAYER
  5
71
330
2
100
AcDbSymbolTableRecord
100
AcDbLayerTableRecord
  2
56
 70
     0
 62
    56
  6
CONTINUOUS
  0
LAYER
  5
72
330
2
100
AcDbSymbolTableRecord
100
AcDbLayerTableRecord
  2
57
 70
     0
 62
    57
  6
CONTINUOUS
  0
LAYER
  5
73
330
2
100
AcDbSymbolTableRecord
100
AcDbLayerTableRecord
  2
58
 70
     0
 62
    58
  6
CONTINUOUS
  0
LAYER
  5
74
330
2
100
AcDbSymbolTableRecord
100
AcDbLayerTableRecord
  2
59
 70
     0
 62
    59
  6
CONTINUOUS
  0
LAYER
  5
75
330
2
100
AcDbSymbolTableRecord
100
AcDbLayerTableRecord
  2
60
 70
     0
 62
    60
  6
CONTINUOUS
  0
LAYER
  5
76
330
2
100
AcDbSymbolTableRecord
100
AcDbLayerTableRecord
  2
61
 70
     0
 62
    61
  6
CONTINUOUS
  0
LAYER
  5
77
330
2
100
AcDbSymbolTableRecord
100
AcDbLayerTableRecord
  2
62
 70
     0
 62
    62
  6
CONTINUOUS
  0
LAYER
  5
78
330
2
100
AcDbSymbolTableRecord
100
AcDbLayerTableRecord
  2
63
 70
     0
 62
    63
  6
CONTINUOUS
  0
LAYER
  5
79
330
2
100
AcDbSymbolTableRecord
100
AcDbLayerTableRecord
  2
64
 70
     0
 62
    64
  6
CONTINUOUS
  0
LAYER
  5
7A
330
2
100
AcDbSymbolTableRecord
100
AcDbLayerTableRecord
  2
65
 70
     0
 62
    65
  6
CONTINUOUS
  0
LAYER
  5
7B
330
2
100
AcDbSymbolTableRecord
100
AcDbLayerTableRecord
  2
66
 70
     0
 62
    66
  6
CONTINUOUS
  0
LAYER
  5
7C
330
2
100
AcDbSymbolTableRecord
100
AcDbLayerTableRecord
  2
67
 70
     0
 62
    67
  6
CONTINUOUS
  0
LAYER
  5
7D
330
2
100
AcDbSymbolTableRecord
100
AcDbLayerTableRecord
  2
68
 70
     0
 62
    68
  6
CONTINUOUS
  0
LAYER
  5
7E
330
2
100
AcDbSymbolTableRecord
100
AcDbLayerTableRecord
  2
69
 70
     0
 62
    69
  6
CONTINUOUS
  0
LAYER
  5
7F
330
2
100
AcDbSymbolTableRecord
100
AcDbLayerTableRecord
  2
70
 70
     0
 62
    70
  6
CONTINUOUS
  0
LAYER
  5
80
330
2
100
AcDbSymbolTableRecord
100
AcDbLayerTableRecord
  2
71
 70
     0
 62
    71
  6
CONTINUOUS
  0
LAYER
  5
81
330
2
100
AcDbSymbolTableRecord
100
AcDbLayerTableRecord
  2
72
 70
     0
 62
    72
  6
CONTINUOUS
  0
LAYER
  5
82
330
2
100
AcDbSymbolTableRecord
100
AcDbLayerTableRecord
  2
73
 70
     0
 62
    73
  6
CONTINUOUS
  0
LAYER
  5
83
330
2
100
AcDbSymbolTableRecord
100
AcDbLayerTableRecord
  2
74
 70
     0
 62
    74
  6
CONTINUOUS
  0
LAYER
  5
84
330
2
100
AcDbSymbolTableRecord
100
AcDbLayerTableRecord
  2
75
 70
     0
 62
    75
  6
CONTINUOUS
  0
LAYER
  5
85
330
2
100
AcDbSymbolTableRecord
100
AcDbLayerTableRecord
  2
76
 70
     0
 62
    76
  6
CONTINUOUS
  0
LAYER
  5
86
330
2
100
AcDbSymbolTableRecord
100
AcDbLayerTableRecord
  2
77
 70
     0
 62
    77
  6
CONTINUOUS
  0
LAYER
  5
87
330
2
100
AcDbSymbolTableRecord
100
AcDbLayerTableRecord
  2
78
 70
     0
 62
    78
  6
CONTINUOUS
  0
LAYER
  5
88
330
2
100
AcDbSymbolTableRecord
100
AcDbLayerTableRecord
  2
79
 70
     0
 62
    79
  6
CONTINUOUS
  0
LAYER
  5
89
330
2
100
AcDbSymbolTableRecord
100
AcDbLayerTableRecord
  2
80
 70
     0
 62
    80
  6
CONTINUOUS
  0
LAYER
  5
8A
330
2
100
AcDbSymbolTableRecord
100
AcDbLayerTableRecord
  2
81
 70
     0
 62
    81
  6
CONTINUOUS
  0
LAYER
  5
8B
330
2
100
AcDbSymbolTableRecord
100
AcDbLayerTableRecord
  2
82
 70
     0
 62
    82
  6
CONTINUOUS
  0
LAYER
  5
8C
330
2
100
AcDbSymbolTableRecord
100
AcDbLayerTableRecord
  2
83
 70
     0
 62
    83
  6
CONTINUOUS
  0
LAYER
  5
8D
330
2
100
AcDbSymbolTableRecord
100
AcDbLayerTableRecord
  2
84
 70
     0
 62
    84
  6
CONTINUOUS
  0
LAYER
  5
8E
330
2
100
AcDbSymbolTableRecord
100
AcDbLayerTableRecord
  2
85
 70
     0
 62
    85
  6
CONTINUOUS
  0
LAYER
  5
8F
330
2
100
AcDbSymbolTableRecord
100
AcDbLayerTableRecord
  2
86
 70
     0
 62
    86
  6
CONTINUOUS
  0
LAYER
  5
90
330
2
100
AcDbSymbolTableRecord
100
AcDbLayerTableRecord
  2
87
 70
     0
 62
    87
  6
CONTINUOUS
  0
LAYER
  5
91
330
2
100
AcDbSymbolTableRecord
100
AcDbLayerTableRecord
  2
88
 70
     0
 62
    88
  6
CONTINUOUS
  0
LAYER
  5
92
330
2
100
AcDbSymbolTableRecord
100
AcDbLayerTableRecord
  2
89
 70
     0
 62
    89
  6
CONTINUOUS
  0
LAYER
  5
93
330
2
100
AcDbSymbolTableRecord
100
AcDbLayerTableRecord
  2
90
 70
     0
 62
    90
  6
CONTINUOUS
  0
LAYER
  5
94
330
2
100
AcDbSymbolTableRecord
100
AcDbLayerTableRecord
  2
91
 70
     0
 62
    91
  6
CONTINUOUS
  0
LAYER
  5
95
330
2
100
AcDbSymbolTableRecord
100
AcDbLayerTableRecord
  2
92
 70
     0
 62
    92
  6
CONTINUOUS
  0
LAYER
  5
96
330
2
100
AcDbSymbolTableRecord
100
AcDbLayerTableRecord
  2
93
 70
     0
 62
    93
  6
CONTINUOUS
  0
LAYER
  5
97
330
2
100
AcDbSymbolTableRecord
100
AcDbLayerTableRecord
  2
94
 70
     0
 62
    94
  6
CONTINUOUS
  0
LAYER
  5
98
330
2
100
AcDbSymbolTableRecord
100
AcDbLayerTableRecord
  2
95
 70
     0
 62
    95
  6
CONTINUOUS
  0
LAYER
  5
99
330
2
100
AcDbSymbolTableRecord
100
AcDbLayerTableRecord
  2
96
 70
     0
 62
    96
  6
CONTINUOUS
  0
LAYER
  5
9A
330
2
100
AcDbSymbolTableRecord
100
AcDbLayerTableRecord
  2
97
 70
     0
 62
    97
  6
CONTINUOUS
  0
LAYER
  5
9B
330
2
100
AcDbSymbolTableRecord
100
AcDbLayerTableRecord
  2
98
 70
     0
 62
    98
  6
CONTINUOUS
  0
LAYER
  5
9C
330
2
100
AcDbSymbolTableRecord
100
AcDbLayerTableRecord
  2
99
 70
     0
 62
    99
  6
CONTINUOUS
  0
LAYER
  5
9D
330
2
100
AcDbSymbolTableRecord
100
AcDbLayerTableRecord
  2
100
 70
     0
 62
   100
  6
CONTINUOUS
  0
LAYER
  5
9E
330
2
100
AcDbSymbolTableRecord
100
AcDbLayerTableRecord
  2
101
 70
     0
 62
   101
  6
CONTINUOUS
  0
LAYER
  5
9F
330
2
100
AcDbSymbolTableRecord
100
AcDbLayerTableRecord
  2
102
 70
     0
 62
   102
  6
CONTINUOUS
  0
LAYER
  5
A0
330
2
100
AcDbSymbolTableRecord
100
AcDbLayerTableRecord
  2
103
 70
     0
 62
   103
  6
CONTINUOUS
  0
LAYER
  5
A1
330
2
100
AcDbSymbolTableRecord
100
AcDbLayerTableRecord
  2
104
 70
     0
 62
   104
  6
CONTINUOUS
  0
LAYER
  5
A2
330
2
100
AcDbSymbolTableRecord
100
AcDbLayerTableRecord
  2
105
 70
     0
 62
   105
  6
CONTINUOUS
  0
LAYER
  5
A3
330
2
100
AcDbSymbolTableRecord
100
AcDbLayerTableRecord
  2
106
 70
     0
 62
   106
  6
CONTINUOUS
  0
LAYER
  5
A4
330
2
100
AcDbSymbolTableRecord
100
AcDbLayerTableRecord
  2
107
 70
     0
 62
   107
  6
CONTINUOUS
  0
LAYER
  5
A5
330
2
100
AcDbSymbolTableRecord
100
AcDbLayerTableRecord
  2
108
 70
     0
 62
   108
  6
CONTINUOUS
  0
LAYER
  5
A6
330
2
100
AcDbSymbolTableRecord
100
AcDbLayerTableRecord
  2
109
 70
     0
 62
   109
  6
CONTINUOUS
  0
LAYER
  5
A7
330
2
100
AcDbSymbolTableRecord
100
AcDbLayerTableRecord
  2
110
 70
     0
 62
   110
  6
CONTINUOUS
  0
LAYER
  5
A8
330
2
100
AcDbSymbolTableRecord
100
AcDbLayerTableRecord
  2
111
 70
     0
 62
   111
  6
CONTINUOUS
  0
LAYER
  5
A9
330
2
100
AcDbSymbolTableRecord
100
AcDbLayerTableRecord
  2
112
 70
     0
 62
   112
  6
CONTINUOUS
  0
LAYER
  5
AA
330
2
100
AcDbSymbolTableRecord
100
AcDbLayerTableRecord
  2
113
 70
     0
 62
   113
  6
CONTINUOUS
  0
LAYER
  5
AB
330
2
100
AcDbSymbolTableRecord
100
AcDbLayerTableRecord
  2
114
 70
     0
 62
   114
  6
CONTINUOUS
  0
LAYER
  5
AC
330
2
100
AcDbSymbolTableRecord
100
AcDbLayerTableRecord
  2
115
 70
     0
 62
   115
  6
CONTINUOUS
  0
LAYER
  5
AD
330
2
100
AcDbSymbolTableRecord
100
AcDbLayerTableRecord
  2
116
 70
     0
 62
   116
  6
CONTINUOUS
  0
LAYER
  5
AE
330
2
100
AcDbSymbolTableRecord
100
AcDbLayerTableRecord
  2
117
 70
     0
 62
   117
  6
CONTINUOUS
  0
LAYER
  5
AF
330
2
100
AcDbSymbolTableRecord
100
AcDbLayerTableRecord
  2
118
 70
     0
 62
   118
  6
CONTINUOUS
  0
LAYER
  5
B0
330
2
100
AcDbSymbolTableRecord
100
AcDbLayerTableRecord
  2
119
 70
     0
 62
   119
  6
CONTINUOUS
  0
LAYER
  5
B1
330
2
100
AcDbSymbolTableRecord
100
AcDbLayerTableRecord
  2
120
 70
     0
 62
   120
  6
CONTINUOUS
  0
LAYER
  5
B2
330
2
100
AcDbSymbolTableRecord
100
AcDbLayerTableRecord
  2
121
 70
     0
 62
   121
  6
CONTINUOUS
  0
LAYER
  5
B3
330
2
100
AcDbSymbolTableRecord
100
AcDbLayerTableRecord
  2
122
 70
     0
 62
   122
  6
CONTINUOUS
  0
LAYER
  5
B4
330
2
100
AcDbSymbolTableRecord
100
AcDbLayerTableRecord
  2
123
 70
     0
 62
   123
  6
CONTINUOUS
  0
LAYER
  5
B5
330
2
100
AcDbSymbolTableRecord
100
AcDbLayerTableRecord
  2
124
 70
     0
 62
   124
  6
CONTINUOUS
  0
LAYER
  5
B6
330
2
100
AcDbSymbolTableRecord
100
AcDbLayerTableRecord
  2
125
 70
     0
 62
   125
  6
CONTINUOUS
  0
LAYER
  5
B7
330
2
100
AcDbSymbolTableRecord
100
AcDbLayerTableRecord
  2
126
 70
     0
 62
   126
  6
CONTINUOUS
  0
LAYER
  5
B8
330
2
100
AcDbSymbolTableRecord
100
AcDbLayerTableRecord
  2
127
 70
     0
 62
   127
  6
CONTINUOUS
  0
LAYER
  5
B9
330
2
100
AcDbSymbolTableRecord
100
AcDbLayerTableRecord
  2
128
 70
     0
 62
   128
  6
CONTINUOUS
  0
LAYER
  5
BA
330
2
100
AcDbSymbolTableRecord
100
AcDbLayerTableRecord
  2
129
 70
     0
 62
   129
  6
CONTINUOUS
  0
LAYER
  5
BB
330
2
100
AcDbSymbolTableRecord
100
AcDbLayerTableRecord
  2
130
 70
     0
 62
   130
  6
CONTINUOUS
  0
LAYER
  5
BC
330
2
100
AcDbSymbolTableRecord
100
AcDbLayerTableRecord
  2
131
 70
     0
 62
   131
  6
CONTINUOUS
  0
LAYER
  5
BD
330
2
100
AcDbSymbolTableRecord
100
AcDbLayerTableRecord
  2
132
 70
     0
 62
   132
  6
CONTINUOUS
  0
LAYER
  5
BE
330
2
100
AcDbSymbolTableRecord
100
AcDbLayerTableRecord
  2
133
 70
     0
 62
   133
  6
CONTINUOUS
  0
LAYER
  5
BF
330
2
100
AcDbSymbolTableRecord
100
AcDbLayerTableRecord
  2
134
 70
     0
 62
   134
  6
CONTINUOUS
  0
LAYER
  5
C0
330
2
100
AcDbSymbolTableRecord
100
AcDbLayerTableRecord
  2
135
 70
     0
 62
   135
  6
CONTINUOUS
  0
LAYER
  5
C1
330
2
100
AcDbSymbolTableRecord
100
AcDbLayerTableRecord
  2
136
 70
     0
 62
   136
  6
CONTINUOUS
  0
LAYER
  5
C2
330
2
100
AcDbSymbolTableRecord
100
AcDbLayerTableRecord
  2
137
 70
     0
 62
   137
  6
CONTINUOUS
  0
LAYER
  5
C3
330
2
100
AcDbSymbolTableRecord
100
AcDbLayerTableRecord
  2
138
 70
     0
 62
   138
  6
CONTINUOUS
  0
LAYER
  5
C4
330
2
100
AcDbSymbolTableRecord
100
AcDbLayerTableRecord
  2
139
 70
     0
 62
   139
  6
CONTINUOUS
  0
LAYER
  5
C5
330
2
100
AcDbSymbolTableRecord
100
AcDbLayerTableRecord
  2
140
 70
     0
 62
   140
  6
CONTINUOUS
  0
LAYER
  5
C6
330
2
100
AcDbSymbolTableRecord
100
AcDbLayerTableRecord
  2
141
 70
     0
 62
   141
  6
CONTINUOUS
  0
LAYER
  5
C7
330
2
100
AcDbSymbolTableRecord
100
AcDbLayerTableRecord
  2
142
 70
     0
 62
   142
  6
CONTINUOUS
  0
LAYER
  5
C8
330
2
100
AcDbSymbolTableRecord
100
AcDbLayerTableRecord
  2
143
 70
     0
 62
   143
  6
CONTINUOUS
  0
LAYER
  5
C9
330
2
100
AcDbSymbolTableRecord
100
AcDbLayerTableRecord
  2
144
 70
     0
 62
   144
  6
CONTINUOUS
  0
LAYER
  5
CA
330
2
100
AcDbSymbolTableRecord
100
AcDbLayerTableRecord
  2
145
 70
     0
 62
   145
  6
CONTINUOUS
  0
LAYER
  5
CB
330
2
100
AcDbSymbolTableRecord
100
AcDbLayerTableRecord
  2
146
 70
     0
 62
   146
  6
CONTINUOUS
  0
LAYER
  5
CC
330
2
100
AcDbSymbolTableRecord
100
AcDbLayerTableRecord
  2
147
 70
     0
 62
   147
  6
CONTINUOUS
  0
LAYER
  5
CD
330
2
100
AcDbSymbolTableRecord
100
AcDbLayerTableRecord
  2
148
 70
     0
 62
   148
  6
CONTINUOUS
  0
LAYER
  5
CE
330
2
100
AcDbSymbolTableRecord
100
AcDbLayerTableRecord
  2
149
 70
     0
 62
   149
  6
CONTINUOUS
  0
LAYER
  5
CF
330
2
100
AcDbSymbolTableRecord
100
AcDbLayerTableRecord
  2
150
 70
     0
 62
   150
  6
CONTINUOUS
  0
LAYER
  5
D0
330
2
100
AcDbSymbolTableRecord
100
AcDbLayerTableRecord
  2
151
 70
     0
 62
   151
  6
CONTINUOUS
  0
LAYER
  5
D1
330
2
100
AcDbSymbolTableRecord
100
AcDbLayerTableRecord
  2
152
 70
     0
 62
   152
  6
CONTINUOUS
  0
LAYER
  5
D2
330
2
100
AcDbSymbolTableRecord
100
AcDbLayerTableRecord
  2
153
 70
     0
 62
   153
  6
CONTINUOUS
  0
LAYER
  5
D3
330
2
100
AcDbSymbolTableRecord
100
AcDbLayerTableRecord
  2
154
 70
     0
 62
   154
  6
CONTINUOUS
  0
LAYER
  5
D4
330
2
100
AcDbSymbolTableRecord
100
AcDbLayerTableRecord
  2
155
 70
     0
 62
   155
  6
CONTINUOUS
  0
LAYER
  5
D5
330
2
100
AcDbSymbolTableRecord
100
AcDbLayerTableRecord
  2
156
 70
     0
 62
   156
  6
CONTINUOUS
  0
LAYER
  5
D6
330
2
100
AcDbSymbolTableRecord
100
AcDbLayerTableRecord
  2
157
 70
     0
 62
   157
  6
CONTINUOUS
  0
LAYER
  5
D7
330
2
100
AcDbSymbolTableRecord
100
AcDbLayerTableRecord
  2
158
 70
     0
 62
   158
  6
CONTINUOUS
  0
LAYER
  5
D8
330
2
100
AcDbSymbolTableRecord
100
AcDbLayerTableRecord
  2
159
 70
     0
 62
   159
  6
CONTINUOUS
  0
LAYER
  5
D9
330
2
100
AcDbSymbolTableRecord
100
AcDbLayerTableRecord
  2
160
 70
     0
 62
   160
  6
CONTINUOUS
  0
LAYER
  5
DA
330
2
100
AcDbSymbolTableRecord
100
AcDbLayerTableRecord
  2
161
 70
     0
 62
   161
  6
CONTINUOUS
  0
LAYER
  5
DB
330
2
100
AcDbSymbolTableRecord
100
AcDbLayerTableRecord
  2
162
 70
     0
 62
   162
  6
CONTINUOUS
  0
LAYER
  5
DC
330
2
100
AcDbSymbolTableRecord
100
AcDbLayerTableRecord
  2
163
 70
     0
 62
   163
  6
CONTINUOUS
  0
LAYER
  5
DD
330
2
100
AcDbSymbolTableRecord
100
AcDbLayerTableRecord
  2
164
 70
     0
 62
   164
  6
CONTINUOUS
  0
LAYER
  5
DE
330
2
100
AcDbSymbolTableRecord
100
AcDbLayerTableRecord
  2
165
 70
     0
 62
   165
  6
CONTINUOUS
  0
LAYER
  5
DF
330
2
100
AcDbSymbolTableRecord
100
AcDbLayerTableRecord
  2
166
 70
     0
 62
   166
  6
CONTINUOUS
  0
LAYER
  5
E0
330
2
100
AcDbSymbolTableRecord
100
AcDbLayerTableRecord
  2
167
 70
     0
 62
   167
  6
CONTINUOUS
  0
LAYER
  5
E1
330
2
100
AcDbSymbolTableRecord
100
AcDbLayerTableRecord
  2
168
 70
     0
 62
   168
  6
CONTINUOUS
  0
LAYER
  5
E2
330
2
100
AcDbSymbolTableRecord
100
AcDbLayerTableRecord
  2
169
 70
     0
 62
   169
  6
CONTINUOUS
  0
LAYER
  5
E3
330
2
100
AcDbSymbolTableRecord
100
AcDbLayerTableRecord
  2
170
 70
     0
 62
   170
  6
CONTINUOUS
  0
LAYER
  5
E4
330
2
100
AcDbSymbolTableRecord
100
AcDbLayerTableRecord
  2
171
 70
     0
 62
   171
  6
CONTINUOUS
  0
LAYER
  5
E5
330
2
100
AcDbSymbolTableRecord
100
AcDbLayerTableRecord
  2
172
 70
     0
 62
   172
  6
CONTINUOUS
  0
LAYER
  5
E6
330
2
100
AcDbSymbolTableRecord
100
AcDbLayerTableRecord
  2
173
 70
     0
 62
   173
  6
CONTINUOUS
  0
LAYER
  5
E7
330
2
100
AcDbSymbolTableRecord
100
AcDbLayerTableRecord
  2
174
 70
     0
 62
   174
  6
CONTINUOUS
  0
LAYER
  5
E8
330
2
100
AcDbSymbolTableRecord
100
AcDbLayerTableRecord
  2
175
 70
     0
 62
   175
  6
CONTINUOUS
  0
LAYER
  5
E9
330
2
100
AcDbSymbolTableRecord
100
AcDbLayerTableRecord
  2
176
 70
     0
 62
   176
  6
CONTINUOUS
  0
LAYER
  5
EA
330
2
100
AcDbSymbolTableRecord
100
AcDbLayerTableRecord
  2
177
 70
     0
 62
   177
  6
CONTINUOUS
  0
LAYER
  5
EB
330
2
100
AcDbSymbolTableRecord
100
AcDbLayerTableRecord
  2
178
 70
     0
 62
   178
  6
CONTINUOUS
  0
LAYER
  5
EC
330
2
100
AcDbSymbolTableRecord
100
AcDbLayerTableRecord
  2
179
 70
     0
 62
   179
  6
CONTINUOUS
  0
LAYER
  5
ED
330
2
100
AcDbSymbolTableRecord
100
AcDbLayerTableRecord
  2
180
 70
     0
 62
   180
  6
CONTINUOUS
  0
LAYER
  5
EE
330
2
100
AcDbSymbolTableRecord
100
AcDbLayerTableRecord
  2
181
 70
     0
 62
   181
  6
CONTINUOUS
  0
LAYER
  5
EF
330
2
100
AcDbSymbolTableRecord
100
AcDbLayerTableRecord
  2
182
 70
     0
 62
   182
  6
CONTINUOUS
  0
LAYER
  5
F0
330
2
100
AcDbSymbolTableRecord
100
AcDbLayerTableRecord
  2
183
 70
     0
 62
   183
  6
CONTINUOUS
  0
LAYER
  5
F1
330
2
100
AcDbSymbolTableRecord
100
AcDbLayerTableRecord
  2
184
 70
     0
 62
   184
  6
CONTINUOUS
  0
LAYER
  5
F2
330
2
100
AcDbSymbolTableRecord
100
AcDbLayerTableRecord
  2
185
 70
     0
 62
   185
  6
CONTINUOUS
  0
LAYER
  5
F3
330
2
100
AcDbSymbolTableRecord
100
AcDbLayerTableRecord
  2
186
 70
     0
 62
   186
  6
CONTINUOUS
  0
LAYER
  5
F4
330
2
100
AcDbSymbolTableRecord
100
AcDbLayerTableRecord
  2
187
 70
     0
 62
   187
  6
CONTINUOUS
  0
LAYER
  5
F5
330
2
100
AcDbSymbolTableRecord
100
AcDbLayerTableRecord
  2
188
 70
     0
 62
   188
  6
CONTINUOUS
  0
LAYER
  5
F6
330
2
100
AcDbSymbolTableRecord
100
AcDbLayerTableRecord
  2
189
 70
     0
 62
   189
  6
CONTINUOUS
  0
LAYER
  5
F7
330
2
100
AcDbSymbolTableRecord
100
AcDbLayerTableRecord
  2
190
 70
     0
 62
   190
  6
CONTINUOUS
  0
LAYER
  5
F8
330
2
100
AcDbSymbolTableRecord
100
AcDbLayerTableRecord
  2
191
 70
     0
 62
   191
  6
CONTINUOUS
  0
LAYER
  5
F9
330
2
100
AcDbSymbolTableRecord
100
AcDbLayerTableRecord
  2
192
 70
     0
 62
   192
  6
CONTINUOUS
  0
LAYER
  5
FA
330
2
100
AcDbSymbolTableRecord
100
AcDbLayerTableRecord
  2
193
 70
     0
 62
   193
  6
CONTINUOUS
  0
LAYER
  5
FB
330
2
100
AcDbSymbolTableRecord
100
AcDbLayerTableRecord
  2
194
 70
     0
 62
   194
  6
CONTINUOUS
  0
LAYER
  5
FC
330
2
100
AcDbSymbolTableRecord
100
AcDbLayerTableRecord
  2
195
 70
     0
 62
   195
  6
CONTINUOUS
  0
LAYER
  5
FD
330
2
100
AcDbSymbolTableRecord
100
AcDbLayerTableRecord
  2
196
 70
     0
 62
   196
  6
CONTINUOUS
  0
LAYER
  5
FE
330
2
100
AcDbSymbolTableRecord
100
AcDbLayerTableRecord
  2
197
 70
     0
 62
   197
  6
CONTINUOUS
  0
LAYER
  5
FF
330
2
100
AcDbSymbolTableRecord
100
AcDbLayerTableRecord
  2
198
 70
     0
 62
   198
  6
CONTINUOUS
  0
LAYER
  5
100
330
2
100
AcDbSymbolTableRecord
100
AcDbLayerTableRecord
  2
199
 70
     0
 62
   199
  6
CONTINUOUS
  0
LAYER
  5
101
330
2
100
AcDbSymbolTableRecord
100
AcDbLayerTableRecord
  2
200
 70
     0
 62
   200
  6
CONTINUOUS
  0
LAYER
  5
102
330
2
100
AcDbSymbolTableRecord
100
AcDbLayerTableRecord
  2
201
 70
     0
 62
   201
  6
CONTINUOUS
  0
LAYER
  5
103
330
2
100
AcDbSymbolTableRecord
100
AcDbLayerTableRecord
  2
202
 70
     0
 62
   202
  6
CONTINUOUS
  0
LAYER
  5
104
330
2
100
AcDbSymbolTableRecord
100
AcDbLayerTableRecord
  2
203
 70
     0
 62
   203
  6
CONTINUOUS
  0
LAYER
  5
105
330
2
100
AcDbSymbolTableRecord
100
AcDbLayerTableRecord
  2
204
 70
     0
 62
   204
  6
CONTINUOUS
  0
LAYER
  5
106
330
2
100
AcDbSymbolTableRecord
100
AcDbLayerTableRecord
  2
205
 70
     0
 62
   205
  6
CONTINUOUS
  0
LAYER
  5
107
330
2
100
AcDbSymbolTableRecord
100
AcDbLayerTableRecord
  2
206
 70
     0
 62
   206
  6
CONTINUOUS
  0
LAYER
  5
108
330
2
100
AcDbSymbolTableRecord
100
AcDbLayerTableRecord
  2
207
 70
     0
 62
   207
  6
CONTINUOUS
  0
LAYER
  5
109
330
2
100
AcDbSymbolTableRecord
100
AcDbLayerTableRecord
  2
208
 70
     0
 62
   208
  6
CONTINUOUS
  0
LAYER
  5
10A
330
2
100
AcDbSymbolTableRecord
100
AcDbLayerTableRecord
  2
209
 70
     0
 62
   209
  6
CONTINUOUS
  0
LAYER
  5
10B
330
2
100
AcDbSymbolTableRecord
100
AcDbLayerTableRecord
  2
210
 70
     0
 62
   210
  6
CONTINUOUS
  0
LAYER
  5
10C
330
2
100
AcDbSymbolTableRecord
100
AcDbLayerTableRecord
  2
211
 70
     0
 62
   211
  6
CONTINUOUS
  0
LAYER
  5
10D
330
2
100
AcDbSymbolTableRecord
100
AcDbLayerTableRecord
  2
212
 70
     0
 62
   212
  6
CONTINUOUS
  0
LAYER
  5
10E
330
2
100
AcDbSymbolTableRecord
100
AcDbLayerTableRecord
  2
213
 70
     0
 62
   213
  6
CONTINUOUS
  0
LAYER
  5
10F
330
2
100
AcDbSymbolTableRecord
100
AcDbLayerTableRecord
  2
214
 70
     0
 62
   214
  6
CONTINUOUS
  0
LAYER
  5
110
330
2
100
AcDbSymbolTableRecord
100
AcDbLayerTableRecord
  2
215
 70
     0
 62
   215
  6
CONTINUOUS
  0
LAYER
  5
111
330
2
100
AcDbSymbolTableRecord
100
AcDbLayerTableRecord
  2
216
 70
     0
 62
   216
  6
CONTINUOUS
  0
LAYER
  5
112
330
2
100
AcDbSymbolTableRecord
100
AcDbLayerTableRecord
  2
217
 70
     0
 62
   217
  6
CONTINUOUS
  0
LAYER
  5
113
330
2
100
AcDbSymbolTableRecord
100
AcDbLayerTableRecord
  2
218
 70
     0
 62
   218
  6
CONTINUOUS
  0
LAYER
  5
114
330
2
100
AcDbSymbolTableRecord
100
AcDbLayerTableRecord
  2
219
 70
     0
 62
   219
  6
CONTINUOUS
  0
LAYER
  5
115
330
2
100
AcDbSymbolTableRecord
100
AcDbLayerTableRecord
  2
220
 70
     0
 62
   220
  6
CONTINUOUS
  0
LAYER
  5
116
330
2
100
AcDbSymbolTableRecord
100
AcDbLayerTableRecord
  2
221
 70
     0
 62
   221
  6
CONTINUOUS
  0
LAYER
  5
117
330
2
100
AcDbSymbolTableRecord
100
AcDbLayerTableRecord
  2
222
 70
     0
 62
   222
  6
CONTINUOUS
  0
LAYER
  5
118
330
2
100
AcDbSymbolTableRecord
100
AcDbLayerTableRecord
  2
223
 70
     0
 62
   223
  6
CONTINUOUS
  0
LAYER
  5
119
330
2
100
AcDbSymbolTableRecord
100
AcDbLayerTableRecord
  2
224
 70
     0
 62
   224
  6
CONTINUOUS
  0
LAYER
  5
11A
330
2
100
AcDbSymbolTableRecord
100
AcDbLayerTableRecord
  2
225
 70
     0
 62
   225
  6
CONTINUOUS
  0
LAYER
  5
11B
330
2
100
AcDbSymbolTableRecord
100
AcDbLayerTableRecord
  2
226
 70
     0
 62
   226
  6
CONTINUOUS
  0
LAYER
  5
11C
330
2
100
AcDbSymbolTableRecord
100
AcDbLayerTableRecord
  2
227
 70
     0
 62
   227
  6
CONTINUOUS
  0
LAYER
  5
11D
330
2
100
AcDbSymbolTableRecord
100
AcDbLayerTableRecord
  2
228
 70
     0
 62
   228
  6
CONTINUOUS
  0
LAYER
  5
11E
330
2
100
AcDbSymbolTableRecord
100
AcDbLayerTableRecord
  2
229
 70
     0
 62
   229
  6
CONTINUOUS
  0
LAYER
  5
11F
330
2
100
AcDbSymbolTableRecord
100
AcDbLayerTableRecord
  2
230
 70
     0
 62
   230
  6
CONTINUOUS
  0
LAYER
  5
120
330
2
100
AcDbSymbolTableRecord
100
AcDbLayerTableRecord
  2
231
 70
     0
 62
   231
  6
CONTINUOUS
  0
LAYER
  5
121
330
2
100
AcDbSymbolTableRecord
100
AcDbLayerTableRecord
  2
232
 70
     0
 62
   232
  6
CONTINUOUS
  0
LAYER
  5
122
330
2
100
AcDbSymbolTableRecord
100
AcDbLayerTableRecord
  2
233
 70
     0
 62
   233
  6
CONTINUOUS
  0
LAYER
  5
123
330
2
100
AcDbSymbolTableRecord
100
AcDbLayerTableRecord
  2
234
 70
     0
 62
   234
  6
CONTINUOUS
  0
LAYER
  5
124
330
2
100
AcDbSymbolTableRecord
100
AcDbLayerTableRecord
  2
235
 70
     0
 62
   235
  6
CONTINUOUS
  0
LAYER
  5
125
330
2
100
AcDbSymbolTableRecord
100
AcDbLayerTableRecord
  2
236
 70
     0
 62
   236
  6
CONTINUOUS
  0
LAYER
  5
126
330
2
100
AcDbSymbolTableRecord
100
AcDbLayerTableRecord
  2
237
 70
     0
 62
   237
  6
CONTINUOUS
  0
LAYER
  5
127
330
2
100
AcDbSymbolTableRecord
100
AcDbLayerTableRecord
  2
238
 70
     0
 62
   238
  6
CONTINUOUS
  0
LAYER
  5
128
330
2
100
AcDbSymbolTableRecord
100
AcDbLayerTableRecord
  2
239
 70
     0
 62
   239
  6
CONTINUOUS
  0
LAYER
  5
129
330
2
100
AcDbSymbolTableRecord
100
AcDbLayerTableRecord
  2
240
 70
     0
 62
   240
  6
CONTINUOUS
  0
LAYER
  5
12A
330
2
100
AcDbSymbolTableRecord
100
AcDbLayerTableRecord
  2
241
 70
     0
 62
   241
  6
CONTINUOUS
  0
LAYER
  5
12B
330
2
100
AcDbSymbolTableRecord
100
AcDbLayerTableRecord
  2
242
 70
     0
 62
   242
  6
CONTINUOUS
  0
LAYER
  5
12C
330
2
100
AcDbSymbolTableRecord
100
AcDbLayerTableRecord
  2
243
 70
     0
 62
   243
  6
CONTINUOUS
  0
LAYER
  5
12D
330
2
100
AcDbSymbolTableRecord
100
AcDbLayerTableRecord
  2
244
 70
     0
 62
   244
  6
CONTINUOUS
  0
LAYER
  5
12E
330
2
100
AcDbSymbolTableRecord
100
AcDbLayerTableRecord
  2
245
 70
     0
 62
   245
  6
CONTINUOUS
  0
LAYER
  5
12F
330
2
100
AcDbSymbolTableRecord
100
AcDbLayerTableRecord
  2
246
 70
     0
 62
   246
  6
CONTINUOUS
  0
LAYER
  5
130
330
2
100
AcDbSymbolTableRecord
100
AcDbLayerTableRecord
  2
247
 70
     0
 62
   247
  6
CONTINUOUS
  0
LAYER
  5
131
330
2
100
AcDbSymbolTableRecord
100
AcDbLayerTableRecord
  2
248
 70
     0
 62
   248
  6
CONTINUOUS
  0
LAYER
  5
132
330
2
100
AcDbSymbolTableRecord
100
AcDbLayerTableRecord
  2
249
 70
     0
 62
   249
  6
CONTINUOUS
  0
LAYER
  5
133
330
2
100
AcDbSymbolTableRecord
100
AcDbLayerTableRecord
  2
250
 70
     0
 62
   250
  6
CONTINUOUS
  0
LAYER
  5
134
330
2
100
AcDbSymbolTableRecord
100
AcDbLayerTableRecord
  2
251
 70
     0
 62
   251
  6
CONTINUOUS
  0
LAYER
  5
135
330
2
100
AcDbSymbolTableRecord
100
AcDbLayerTableRecord
  2
252
 70
     0
 62
   252
  6
CONTINUOUS
  0
LAYER
  5
136
330
2
100
AcDbSymbolTableRecord
100
AcDbLayerTableRecord
  2
253
 70
     0
 62
   253
  6
CONTINUOUS
  0
LAYER
  5
137
330
2
100
AcDbSymbolTableRecord
100
AcDbLayerTableRecord
  2
254
 70
     0
 62
   254
  6
CONTINUOUS
  0
LAYER
  5
138
330
2
100
AcDbSymbolTableRecord
100
AcDbLayerTableRecord
  2
255
 70
     0
 62
   255
  6
CONTINUOUS
  0
ENDTAB
  0
TABLE
  2
STYLE
  5
3
330
0
100
AcDbSymbolTable
 70
     1
  0
STYLE
  5
11
330
3
100
AcDbSymbolTableRecord
100
AcDbTextStyleTableRecord
  2
STANDARD
 70
     0
 40
0.0
 41
1.0
 50
0.0
 71
     0
 42
0.2
  3
monotxt
  4

  0
ENDTAB
  0
TABLE
  2
VIEW
  5
6
330
0
100
AcDbSymbolTable
 70
     0
  0
ENDTAB
  0
TABLE
  2
UCS
  5
7
330
0
100
AcDbSymbolTable
 70
     0
  0
ENDTAB
  0
TABLE
  2
APPID
  5
9
330
0
100
AcDbSymbolTable
 70
     1
  0
APPID
  5
12
330
9
100
AcDbSymbolTableRecord
100
AcDbRegAppTableRecord
  2
ACAD
 70
     0
  0
ENDTAB
  0
TABLE
  2
DIMSTYLE
  5
A
330
0
100
AcDbSymbolTable
 70
     1
  0
DIMSTYLE
105
3683
330
A
100
AcDbSymbolTableRecord
100
AcDbDimStyleTableRecord
  2
STANDARD
 70
     0
  3

  4

  5

  6

  7

 40
1.0
 41
0.18
 42
0.0625
 43
0.38
 44
0.18
 45
0.0
 46
0.0
 47
0.0
 48
0.0
140
0.18
141
0.09
142
0.0
143
25.4
144
1.0
145
0.0
146
1.0
147
0.09
 71
     0
 72
     0
 73
     1
 74
     1
 75
     0
 76
     0
 77
     0
 78
     0
170
     0
171
     2
172
     0
173
     0
174
     0
175
     0
176
     0
177
     0
178
     0
270
     2
271
     4
272
     4
273
     2
274
     2
340
11
275
     0
280
     0
281
     0
282
     0
283
     1
284
     0
285
     0
286
     0
287
     3
288
     0
  0
ENDTAB
  0
TABLE
  2
BLOCK_RECORD
  5
1
330
0
100
AcDbSymbolTable
 70
     0
  0
BLOCK_RECORD
  5
1E
102
{ACAD_XDICTIONARY
360
4D93
102
}
330
1
100
AcDbSymbolTableRecord
100
AcDbBlockTableRecord
  2
*MODEL_SPACE
  0
BLOCK_RECORD
  5
1A
102
{ACAD_XDICTIONARY
360
4D91
102
}
330
1
100
AcDbSymbolTableRecord
100
AcDbBlockTableRecord
  2
*PAPER_SPACE
  0
ENDTAB
  0
ENDSEC
  0
SECTION
  2
BLOCKS
  0
BLOCK
  5
13B
330
1E
100
AcDbEntity
  8
0
100
AcDbBlockBegin
  2
*MODEL_SPACE
 70
     0
 10
0.0
 20
0.0
 30
0.0
  3
*MODEL_SPACE
  1

  0
ENDBLK
  5
13C
330
1E
100
AcDbEntity
  8
0
100
AcDbBlockEnd
  0
BLOCK
  5
139
330
1A
100
AcDbEntity
 67
     1
  8
0
100
AcDbBlockBegin
  2
*PAPER_SPACE
 70
     0
 10
0.0
 20
0.0
 30
0.0
  3
*PAPER_SPACE
  1

  0
ENDBLK
  5
13A
330
1A
100
AcDbEntity
 67
     1
  8
0
100
AcDbBlockEnd
  0
ENDSEC
  0
SECTION
  2
ENTITIES
  0
LINE
  5
2AFF
330
1E
100
AcDbEntity
  8
7
100
AcDbLine
 10
2.18011811023622
 20
4.43011811023622
 30
0.0
 11
2.18011811023622
 21
4.470472440944881
 31
0.0
  0
LINE
  5
2B00
330
1E
100
AcDbEntity
  8
7
100
AcDbLine
 10
1.699803149606299
 20
4.519685039370078
 30
0.0
 11
1.758858267716535
 21
4.421259842519684
 31
0.0
  0
LINE
  5
2B01
330
1E
100
AcDbEntity
  8
7
100
AcDbLine
 10
2.095472440944881
 20
4.519685039370078
 30
0.0
 11
2.036417322834645
 21
4.519685039370078
 31
0.0
  0
LINE
  5
2B02
330
1E
100
AcDbEntity
  8
7
100
AcDbLine
 10
1.926181102362204
 20
4.440944881889762
 30
0.0
 11
1.911417322834645
 21
4.421259842519684
 31
0.0
  0
LINE
  5
2B03
330
1E
100
AcDbEntity
  8
7
100
AcDbLine
 10
1.699803149606299
 20
4.421259842519684
 30
0.0
 11
1.699803149606299
 21
4.519685039370078
 31
0.0
  0
LINE
  5
2B04
330
1E
100
AcDbEntity
  8
7
100
AcDbLine
 10
2.12007874015748
 20
4.519685039370078
 30
0.0
 11
2.18011811023622
 21
4.519685039370078
 31
0.0
  0
LINE
  5
2B05
330
1E
100
AcDbEntity
  8
7
100
AcDbLine
 10
1.531496062992125
 20
4.519685039370078
 30
0.0
 11
1.531496062992125
 21
4.421259842519684
 31
0.0
  0
LINE
  5
2B06
330
1E
100
AcDbEntity
  8
7
100
AcDbLine
 10
2.065944881889763
 20
4.519685039370078
 30
0.0
 11
2.065944881889763
 21
4.421259842519684
 31
0.0
  0
LINE
  5
2B07
330
1E
100
AcDbEntity
  8
7
100
AcDbLine
 10
1.61515748031496
 20
4.421259842519684
 30
0.0
 11
1.644685039370078
 21
4.519685039370078
 31
0.0
  0
LINE
  5
2B08
330
1E
100
AcDbEntity
  8
7
100
AcDbLine
 10
2.204724409448818
 20
4.519685039370078
 30
0.0
 11
2.263779527559055
 21
4.519685039370078
 31
0.0
  0
LINE
  5
2B09
330
1E
100
AcDbEntity
  8
7
100
AcDbLine
 10
2.249015748031495
 20
4.471456692913385
 30
0.0
 11
2.204724409448818
 21
4.471456692913385
 31
0.0
  0
LINE
  5
2B0A
330
1E
100
AcDbEntity
  8
7
100
AcDbLine
 10
1.982283464566929
 20
4.519685039370078
 30
0.0
 11
2.011811023622047
 21
4.421259842519684
 31
0.0
  0
LINE
  5
2B0B
330
1E
100
AcDbEntity
  8
7
100
AcDbLine
 10
1.629921259842519
 20
4.471456692913385
 30
0.0
 11
1.659448818897637
 21
4.471456692913385
 31
0.0
  0
LINE
  5
2B0C
330
1E
100
AcDbEntity
  8
7
100
AcDbLine
 10
1.843503937007874
 20
4.519685039370078
 30
0.0
 11
1.783464566929133
 21
4.421259842519684
 31
0.0
  0
LINE
  5
2B0D
330
1E
100
AcDbEntity
  8
7
100
AcDbLine
 10
1.882874015748031
 20
4.421259842519684
 30
0.0
 11
1.868110236220472
 21
4.440944881889762
 31
0.0
  0
LINE
  5
2B0E
330
1E
100
AcDbEntity
  8
7
100
AcDbLine
 10
2.134842519685039
 20
4.480314960629921
 30
0.0
 11
2.12007874015748
 21
4.471456692913385
 31
0.0
  0
LINE
  5
2B0F
330
1E
100
AcDbEntity
  8
7
100
AcDbLine
 10
1.911417322834645
 20
4.421259842519684
 30
0.0
 11
1.882874015748031
 21
4.421259842519684
 31
0.0
  0
LINE
  5
2B10
330
1E
100
AcDbEntity
  8
7
100
AcDbLine
 10
2.12007874015748
 20
4.43011811023622
 30
0.0
 11
2.134842519685039
 21
4.421259842519684
 31
0.0
  0
LINE
  5
2B11
330
1E
100
AcDbEntity
  8
7
100
AcDbLine
 10
1.531496062992125
 20
4.421259842519684
 30
0.0
 11
1.590551181102362
 21
4.421259842519684
 31
0.0
  0
LINE
  5
2B12
330
1E
100
AcDbEntity
  8
7
100
AcDbLine
 10
1.912401574803149
 20
4.519685039370078
 30
0.0
 11
1.927165354330708
 21
4.5
 31
0.0
  0
LINE
  5
2B13
330
1E
100
AcDbEntity
  8
7
100
AcDbLine
 10
2.134842519685039
 20
4.421259842519684
 30
0.0
 11
2.165354330708661
 21
4.421259842519684
 31
0.0
  0
LINE
  5
2B14
330
1E
100
AcDbEntity
  8
7
100
AcDbLine
 10
1.644685039370078
 20
4.519685039370078
 30
0.0
 11
1.674212598425196
 21
4.421259842519684
 31
0.0
  0
LINE
  5
2B15
330
1E
100
AcDbEntity
  8
7
100
AcDbLine
 10
2.12007874015748
 20
4.471456692913385
 30
0.0
 11
2.12007874015748
 21
4.519685039370078
 31
0.0
  0
LINE
  5
2B16
330
1E
100
AcDbEntity
  8
7
100
AcDbLine
 10
2.165354330708661
 20
4.480314960629921
 30
0.0
 11
2.134842519685039
 21
4.480314960629921
 31
0.0
  0
LINE
  5
2B17
330
1E
100
AcDbEntity
  8
7
100
AcDbLine
 10
1.951771653543307
 20
4.421259842519684
 30
0.0
 11
1.982283464566929
 21
4.519685039370078
 31
0.0
  0
LINE
  5
2B18
330
1E
100
AcDbEntity
  8
7
100
AcDbLine
 10
1.758858267716535
 20
4.421259842519684
 30
0.0
 11
1.758858267716535
 21
4.519685039370078
 31
0.0
  0
LINE
  5
2B19
330
1E
100
AcDbEntity
  8
7
100
AcDbLine
 10
1.966535433070866
 20
4.471456692913385
 30
0.0
 11
1.997047244094487
 21
4.471456692913385
 31
0.0
  0
LINE
  5
2B1A
330
1E
100
AcDbEntity
  8
7
100
AcDbLine
 10
2.204724409448818
 20
4.421259842519684
 30
0.0
 11
2.204724409448818
 21
4.519685039370078
 31
0.0
  0
LINE
  5
2B1B
330
1E
100
AcDbEntity
  8
7
100
AcDbLine
 10
2.18011811023622
 20
4.470472440944881
 30
0.0
 11
2.165354330708661
 21
4.480314960629921
 31
0.0
  0
LINE
  5
2B1C
330
1E
100
AcDbEntity
  8
7
100
AcDbLine
 10
2.263779527559055
 20
4.421259842519684
 30
0.0
 11
2.204724409448818
 21
4.421259842519684
 31
0.0
  0
LINE
  5
2B1D
330
1E
100
AcDbEntity
  8
7
100
AcDbLine
 10
1.868110236220472
 20
4.5
 30
0.0
 11
1.882874015748031
 21
4.519685039370078
 31
0.0
  0
LINE
  5
2B1E
330
1E
100
AcDbEntity
  8
7
100
AcDbLine
 10
1.868110236220472
 20
4.440944881889762
 30
0.0
 11
1.868110236220472
 21
4.5
 31
0.0
  0
LINE
  5
2B1F
330
1E
100
AcDbEntity
  8
7
100
AcDbLine
 10
2.165354330708661
 20
4.421259842519684
 30
0.0
 11
2.18011811023622
 21
4.43011811023622
 31
0.0
  0
LINE
  5
2B20
330
1E
100
AcDbEntity
  8
7
100
AcDbLine
 10
1.882874015748031
 20
4.519685039370078
 30
0.0
 11
1.912401574803149
 21
4.519685039370078
 31
0.0
  0
LINE
  5
2B21
330
1E
100
AcDbEntity
  8
7
100
AcDbLine
 10
2.448818897637795
 20
3.89271653543307
 30
0.0
 11
2.448818897637795
 21
3.99015748031496
 31
0.0
  0
LINE
  5
2B22
330
1E
100
AcDbEntity
  8
7
100
AcDbLine
 10
2.448818897637795
 20
4.287401574803149
 30
0.0
 11
2.448818897637795
 21
4.384842519685038
 31
0.0
  0
LINE
  5
2B23
330
1E
100
AcDbEntity
  8
7
100
AcDbLine
 10
1.344488188976378
 20
4.384842519685038
 30
0.0
 11
1.344488188976378
 21
4.287401574803149
 31
0.0
  0
LINE
  5
2B24
330
1E
100
AcDbEntity
  8
7
100
AcDbLine
 10
1.344488188976378
 20
3.99015748031496
 30
0.0
 11
1.344488188976378
 21
3.89271653543307
 31
0.0
  0
LINE
  5
2B2B
330
1E
100
AcDbEntity
  8
7
100
AcDbLine
 10
2.442913385826771
 20
4.578740157480314
 30
0.0
 11
2.428149606299212
 21
4.585629921259842
 31
0.0
  0
LINE
  5
2B2C
330
1E
100
AcDbEntity
  8
7
100
AcDbLine
 10
2.428149606299212
 20
4.585629921259842
 30
0.0
 11
2.216535433070866
 21
4.585629921259842
 31
0.0
  0
LINE
  5
2B32
330
1E
100
AcDbEntity
  8
7
100
AcDbLine
 10
1.58267716535433
 20
4.58759842519685
 30
0.0
 11
1.58267716535433
 21
4.585629921259842
 31
0.0
  0
LINE
  5
2B33
330
1E
100
AcDbEntity
  8
7
100
AcDbLine
 10
1.58267716535433
 20
4.58759842519685
 30
0.0
 11
1.576771653543306
 21
4.585629921259842
 31
0.0
  0
LINE
  5
2B34
330
1E
100
AcDbEntity
  8
7
100
AcDbLine
 10
2.211614173228346
 20
4.585629921259842
 30
0.0
 11
2.211614173228346
 21
4.58759842519685
 31
0.0
  0
LINE
  5
2B35
330
1E
100
AcDbEntity
  8
7
100
AcDbLine
 10
2.216535433070866
 20
4.585629921259842
 30
0.0
 11
2.211614173228346
 21
4.58759842519685
 31
0.0
  0
LINE
  5
2B36
330
1E
100
AcDbEntity
  8
7
100
AcDbLine
 10
1.553149606299212
 20
3.688976377952756
 30
0.0
 11
2.216535433070866
 21
3.688976377952756
 31
0.0
  0
LINE
  5
2B37
330
1E
100
AcDbEntity
  8
7
100
AcDbLine
 10
1.553149606299212
 20
3.688976377952756
 30
0.0
 11
1.362204724409448
 21
3.688976377952756
 31
0.0
  0
LINE
  5
2B3D
330
1E
100
AcDbEntity
  8
7
100
AcDbLine
 10
1.36515748031496
 20
3.691929133858268
 30
0.0
 11
1.362204724409448
 21
3.688976377952756
 31
0.0
  0
LINE
  5
2B3E
330
1E
100
AcDbEntity
  8
7
100
AcDbLine
 10
2.432086614173228
 20
3.688976377952756
 30
0.0
 11
2.428149606299212
 21
3.691929133858268
 31
0.0
  0
LINE
  5
2B44
330
1E
100
AcDbEntity
  8
7
100
AcDbLine
 10
2.503937007874015
 20
4.426181102362204
 30
0.0
 11
2.499015748031495
 21
4.431102362204724
 31
0.0
  0
LINE
  5
2B50
330
1E
100
AcDbEntity
  8
7
100
AcDbLine
 10
2.503937007874015
 20
3.851377952755905
 30
0.0
 11
2.503937007874015
 21
4.426181102362204
 31
0.0
  0
LINE
  5
2B56
330
1E
100
AcDbEntity
  8
7
100
AcDbLine
 10
2.524606299212598
 20
4.426181102362204
 30
0.0
 11
2.524606299212598
 21
3.851377952755905
 31
0.0
  0
LINE
  5
2B57
330
1E
100
AcDbEntity
  8
7
100
AcDbLine
 10
2.499015748031495
 20
3.846456692913385
 30
0.0
 11
2.503937007874015
 21
3.851377952755905
 31
0.0
  0
LINE
  5
2B63
330
1E
100
AcDbEntity
  8
7
100
AcDbLine
 10
2.525590551181102
 20
4.280511811023621
 30
0.0
 11
2.525590551181102
 21
3.997047244094488
 31
0.0
  0
LINE
  5
2B64
330
1E
100
AcDbEntity
  8
7
100
AcDbLine
 10
2.499015748031495
 20
4.451771653543306
 30
0.0
 11
2.501968503937007
 21
4.453740157480314
 31
0.0
  0
LINE
  5
2B65
330
1E
100
AcDbEntity
  8
7
100
AcDbLine
 10
2.526574803149606
 20
4.429133858267715
 30
0.0
 11
2.524606299212598
 21
4.426181102362204
 31
0.0
  0
LINE
  5
2B6B
330
1E
100
AcDbEntity
  8
7
100
AcDbLine
 10
2.523622047244094
 20
4.440944881889762
 30
0.0
 11
2.526574803149606
 21
4.429133858267715
 31
0.0
  0
LINE
  5
2B6C
330
1E
100
AcDbEntity
  8
7
100
AcDbLine
 10
2.733267716535432
 20
4.463582677165353
 30
0.0
 11
2.751968503937007
 21
4.463582677165353
 31
0.0
  0
LINE
  5
2B72
330
1E
100
AcDbEntity
  8
7
100
AcDbLine
 10
2.761811023622047
 20
4.453740157480314
 30
0.0
 11
2.761811023622047
 21
4.356299212598425
 31
0.0
  0
LINE
  5
2B78
330
1E
100
AcDbEntity
  8
7
100
AcDbLine
 10
2.751968503937007
 20
4.345472440944881
 30
0.0
 11
2.733267716535432
 21
4.345472440944881
 31
0.0
  0
LINE
  5
2B79
330
1E
100
AcDbEntity
  8
7
100
AcDbLine
 10
2.733267716535432
 20
3.932086614173228
 30
0.0
 11
2.751968503937007
 21
3.932086614173228
 31
0.0
  0
LINE
  5
2B7F
330
1E
100
AcDbEntity
  8
7
100
AcDbLine
 10
2.761811023622047
 20
3.922244094488189
 30
0.0
 11
2.761811023622047
 21
3.823818897637795
 31
0.0
  0
LINE
  5
2B85
330
1E
100
AcDbEntity
  8
7
100
AcDbLine
 10
2.751968503937007
 20
3.813976377952755
 30
0.0
 11
2.733267716535432
 21
3.813976377952755
 31
0.0
  0
LINE
  5
2B86
330
1E
100
AcDbEntity
  8
7
100
AcDbLine
 10
2.524606299212598
 20
3.851377952755905
 30
0.0
 11
2.526574803149606
 21
3.848425196850394
 31
0.0
  0
LINE
  5
2B87
330
1E
100
AcDbEntity
  8
7
100
AcDbLine
 10
2.501968503937007
 20
3.823818897637795
 30
0.0
 11
2.499015748031495
 21
3.825787401574803
 31
0.0
  0
LINE
  5
2B8E
330
1E
100
AcDbEntity
  8
7
100
AcDbLine
 10
2.526574803149606
 20
3.848425196850394
 30
0.0
 11
2.526574803149606
 21
3.996062992125984
 31
0.0
  0
LINE
  5
2B8F
330
1E
100
AcDbEntity
  8
7
100
AcDbLine
 10
2.525590551181102
 20
3.997047244094488
 30
0.0
 11
2.526574803149606
 21
3.996062992125984
 31
0.0
  0
LINE
  5
2B90
330
1E
100
AcDbEntity
  8
7
100
AcDbLine
 10
2.526574803149606
 20
4.281496062992125
 30
0.0
 11
2.525590551181102
 21
4.280511811023621
 31
0.0
  0
LINE
  5
2B91
330
1E
100
AcDbEntity
  8
7
100
AcDbLine
 10
2.526574803149606
 20
4.281496062992125
 30
0.0
 11
2.526574803149606
 21
4.429133858267715
 31
0.0
  0
LINE
  5
2B97
330
1E
100
AcDbEntity
  8
7
100
AcDbLine
 10
2.499015748031495
 20
4.431102362204724
 30
0.0
 11
2.448818897637795
 21
4.431102362204724
 31
0.0
  0
LINE
  5
2B98
330
1E
100
AcDbEntity
  8
7
100
AcDbLine
 10
2.449803149606299
 20
4.451771653543306
 30
0.0
 11
2.499015748031495
 21
4.451771653543306
 31
0.0
  0
LINE
  5
2B99
330
1E
100
AcDbEntity
  8
7
100
AcDbLine
 10
2.451771653543306
 20
4.453740157480314
 30
0.0
 11
2.449803149606299
 21
4.451771653543306
 31
0.0
  0
LINE
  5
2B9A
330
1E
100
AcDbEntity
  8
7
100
AcDbLine
 10
2.501968503937007
 20
4.453740157480314
 30
0.0
 11
2.451771653543306
 21
4.453740157480314
 31
0.0
  0
LINE
  5
2B9B
330
1E
100
AcDbEntity
  8
7
100
AcDbLine
 10
2.499015748031495
 20
3.825787401574803
 30
0.0
 11
2.449803149606299
 21
3.825787401574803
 31
0.0
  0
LINE
  5
2B9C
330
1E
100
AcDbEntity
  8
7
100
AcDbLine
 10
2.451771653543306
 20
3.823818897637795
 30
0.0
 11
2.449803149606299
 21
3.825787401574803
 31
0.0
  0
LINE
  5
2B9D
330
1E
100
AcDbEntity
  8
7
100
AcDbLine
 10
2.451771653543306
 20
3.823818897637795
 30
0.0
 11
2.501968503937007
 21
3.823818897637795
 31
0.0
  0
LINE
  5
2B9E
330
1E
100
AcDbEntity
  8
7
100
AcDbLine
 10
2.448818897637795
 20
3.846456692913385
 30
0.0
 11
2.448818897637795
 21
3.89271653543307
 31
0.0
  0
LINE
  5
2B9F
330
1E
100
AcDbEntity
  8
7
100
AcDbLine
 10
2.448818897637795
 20
3.846456692913385
 30
0.0
 11
2.499015748031495
 21
3.846456692913385
 31
0.0
  0
LINE
  5
2BA0
330
1E
100
AcDbEntity
  8
7
100
AcDbLine
 10
2.448818897637795
 20
4.384842519685038
 30
0.0
 11
2.448818897637795
 21
4.431102362204724
 31
0.0
  0
LINE
  5
2BA1
330
1E
100
AcDbEntity
  8
7
100
AcDbLine
 10
2.448818897637795
 20
3.99015748031496
 30
0.0
 11
2.448818897637795
 21
4.287401574803149
 31
0.0
  0
LINE
  5
2BAC
330
1E
100
AcDbEntity
  8
7
100
AcDbLine
 10
2.723425196850393
 20
3.804133858267716
 30
0.0
 11
2.726377952755905
 21
3.811023622047244
 31
0.0
  0
LINE
  5
2BAD
330
1E
100
AcDbEntity
  8
7
100
AcDbLine
 10
2.726377952755905
 20
3.811023622047244
 30
0.0
 11
2.733267716535432
 21
3.813976377952755
 31
0.0
  0
LINE
  5
2BB8
330
1E
100
AcDbEntity
  8
7
100
AcDbLine
 10
2.526574803149606
 20
3.996062992125984
 30
0.0
 11
2.546259842519685
 21
3.996062992125984
 31
0.0
  0
LINE
  5
2BB9
330
1E
100
AcDbEntity
  8
7
100
AcDbLine
 10
2.546259842519685
 20
4.281496062992125
 30
0.0
 11
2.526574803149606
 21
4.281496062992125
 31
0.0
  0
LINE
  5
2BBA
330
1E
100
AcDbEntity
  8
7
100
AcDbLine
 10
2.451771653543306
 20
3.725393700787401
 30
0.0
 11
2.451771653543306
 21
3.823818897637795
 31
0.0
  0
LINE
  5
2BBB
330
1E
100
AcDbEntity
  8
7
100
AcDbLine
 10
2.663385826771653
 20
3.725393700787401
 30
0.0
 11
2.451771653543306
 21
3.725393700787401
 31
0.0
  0
LINE
  5
2BC3
330
1E
100
AcDbEntity
  8
7
100
AcDbLine
 10
2.723425196850393
 20
3.804133858267716
 30
0.0
 11
2.723425196850393
 21
3.785433070866142
 31
0.0
  0
LINE
  5
2BC4
330
1E
100
AcDbEntity
  8
7
100
AcDbLine
 10
2.723425196850393
 20
3.961614173228346
 30
0.0
 11
2.723425196850393
 21
3.941929133858268
 31
0.0
  0
LINE
  5
2BD5
330
1E
100
AcDbEntity
  8
7
100
AcDbLine
 10
2.723425196850393
 20
4.335629921259842
 30
0.0
 11
2.723425196850393
 21
4.315944881889762
 31
0.0
  0
LINE
  5
2BD6
330
1E
100
AcDbEntity
  8
7
100
AcDbLine
 10
2.723425196850393
 20
4.492125984251968
 30
0.0
 11
2.723425196850393
 21
4.473425196850393
 31
0.0
  0
LINE
  5
2BDE
330
1E
100
AcDbEntity
  8
7
100
AcDbLine
 10
2.451771653543306
 20
4.552165354330708
 30
0.0
 11
2.663385826771653
 21
4.552165354330708
 31
0.0
  0
LINE
  5
2BDF
330
1E
100
AcDbEntity
  8
7
100
AcDbLine
 10
2.451771653543306
 20
4.453740157480314
 30
0.0
 11
2.451771653543306
 21
4.552165354330708
 31
0.0
  0
LINE
  5
2BE0
330
1E
100
AcDbEntity
  8
7
100
AcDbLine
 10
2.546259842519685
 20
3.996062992125984
 30
0.0
 11
2.546259842519685
 21
4.281496062992125
 31
0.0
  0
LINE
  5
2BE7
330
1E
100
AcDbEntity
  8
7
100
AcDbLine
 10
2.451771653543306
 20
4.568897637795275
 30
0.0
 11
2.448818897637795
 21
4.565944881889762
 31
0.0
  0
LINE
  5
2BED
330
1E
100
AcDbEntity
  8
7
100
AcDbLine
 10
2.428149606299212
 20
4.585629921259842
 30
0.0
 11
2.432086614173228
 21
4.588582677165353
 31
0.0
  0
LINE
  5
2BEE
330
1E
100
AcDbEntity
  8
7
100
AcDbLine
 10
2.448818897637795
 20
4.565944881889762
 30
0.0
 11
2.448818897637795
 21
4.431102362204724
 31
0.0
  0
LINE
  5
2BEF
330
1E
100
AcDbEntity
  8
7
100
AcDbLine
 10
2.451771653543306
 20
4.568897637795275
 30
0.0
 11
2.451771653543306
 21
4.552165354330708
 31
0.0
  0
LINE
  5
2BF5
330
1E
100
AcDbEntity
  8
7
100
AcDbLine
 10
2.451771653543306
 20
3.725393700787401
 30
0.0
 11
2.451771653543306
 21
3.708661417322834
 31
0.0
  0
LINE
  5
2C01
330
1E
100
AcDbEntity
  8
7
100
AcDbLine
 10
1.362204724409448
 20
4.588582677165353
 30
0.0
 11
2.432086614173228
 21
4.588582677165353
 31
0.0
  0
LINE
  5
2C02
330
1E
100
AcDbEntity
  8
7
100
AcDbLine
 10
1.362204724409448
 20
4.588582677165353
 30
0.0
 11
1.36515748031496
 21
4.585629921259842
 31
0.0
  0
LINE
  5
2C03
330
1E
100
AcDbEntity
  8
7
100
AcDbLine
 10
1.58267716535433
 20
4.58759842519685
 30
0.0
 11
2.211614173228346
 21
4.58759842519685
 31
0.0
  0
LINE
  5
2C04
330
1E
100
AcDbEntity
  8
7
100
AcDbLine
 10
1.26771653543307
 20
3.997047244094488
 30
0.0
 11
1.26771653543307
 21
4.280511811023621
 31
0.0
  0
LINE
  5
2C0A
330
1E
100
AcDbEntity
  8
7
100
AcDbLine
 10
1.06003937007874
 20
3.813976377952755
 30
0.0
 11
1.041338582677165
 21
3.813976377952755
 31
0.0
  0
LINE
  5
2C10
330
1E
100
AcDbEntity
  8
7
100
AcDbLine
 10
1.031496062992125
 20
3.823818897637795
 30
0.0
 11
1.031496062992125
 21
3.922244094488189
 31
0.0
  0
LINE
  5
2C11
330
1E
100
AcDbEntity
  8
7
100
AcDbLine
 10
1.041338582677165
 20
3.932086614173228
 30
0.0
 11
1.034448818897637
 21
3.929133858267716
 31
0.0
  0
LINE
  5
2C12
330
1E
100
AcDbEntity
  8
7
100
AcDbLine
 10
1.034448818897637
 20
3.929133858267716
 30
0.0
 11
1.031496062992125
 21
3.922244094488189
 31
0.0
  0
LINE
  5
2C13
330
1E
100
AcDbEntity
  8
7
100
AcDbLine
 10
1.041338582677165
 20
3.932086614173228
 30
0.0
 11
1.06003937007874
 21
3.932086614173228
 31
0.0
  0
LINE
  5
2C1E
330
1E
100
AcDbEntity
  8
7
100
AcDbLine
 10
1.06003937007874
 20
4.345472440944881
 30
0.0
 11
1.041338582677165
 21
4.345472440944881
 31
0.0
  0
LINE
  5
2C1F
330
1E
100
AcDbEntity
  8
7
100
AcDbLine
 10
1.031496062992125
 20
4.356299212598425
 30
0.0
 11
1.034448818897637
 21
4.348425196850393
 31
0.0
  0
LINE
  5
2C20
330
1E
100
AcDbEntity
  8
7
100
AcDbLine
 10
1.034448818897637
 20
4.348425196850393
 30
0.0
 11
1.041338582677165
 21
4.345472440944881
 31
0.0
  0
LINE
  5
2C21
330
1E
100
AcDbEntity
  8
7
100
AcDbLine
 10
1.031496062992125
 20
4.356299212598425
 30
0.0
 11
1.031496062992125
 21
4.453740157480314
 31
0.0
  0
LINE
  5
2C27
330
1E
100
AcDbEntity
  8
7
100
AcDbLine
 10
1.041338582677165
 20
4.463582677165353
 30
0.0
 11
1.06003937007874
 21
4.463582677165353
 31
0.0
  0
LINE
  5
2C2D
330
1E
100
AcDbEntity
  8
7
100
AcDbLine
 10
1.268700787401574
 20
4.426181102362204
 30
0.0
 11
1.266732283464566
 21
4.429133858267715
 31
0.0
  0
LINE
  5
2C34
330
1E
100
AcDbEntity
  8
7
100
AcDbLine
 10
1.291338582677165
 20
4.453740157480314
 30
0.0
 11
1.294291338582677
 21
4.451771653543306
 31
0.0
  0
LINE
  5
2C4A
330
1E
100
AcDbEntity
  8
7
100
AcDbLine
 10
1.266732283464566
 20
4.429133858267715
 30
0.0
 11
1.266732283464566
 21
4.281496062992125
 31
0.0
  0
LINE
  5
2C4B
330
1E
100
AcDbEntity
  8
7
100
AcDbLine
 10
1.266732283464566
 20
3.996062992125984
 30
0.0
 11
1.266732283464566
 21
3.848425196850394
 31
0.0
  0
LINE
  5
2C4C
330
1E
100
AcDbEntity
  8
7
100
AcDbLine
 10
1.294291338582677
 20
3.825787401574803
 30
0.0
 11
1.291338582677165
 21
3.823818897637795
 31
0.0
  0
LINE
  5
2C63
330
1E
100
AcDbEntity
  8
7
100
AcDbLine
 10
1.289370078740157
 20
4.426181102362204
 30
0.0
 11
1.289370078740157
 21
3.851377952755905
 31
0.0
  0
LINE
  5
2C69
330
1E
100
AcDbEntity
  8
7
100
AcDbLine
 10
1.289370078740157
 20
3.851377952755905
 30
0.0
 11
1.294291338582677
 21
3.846456692913385
 31
0.0
  0
LINE
  5
2C6F
330
1E
100
AcDbEntity
  8
7
100
AcDbLine
 10
1.294291338582677
 20
4.431102362204724
 30
0.0
 11
1.289370078740157
 21
4.426181102362204
 31
0.0
  0
LINE
  5
2C70
330
1E
100
AcDbEntity
  8
7
100
AcDbLine
 10
1.247047244094488
 20
4.281496062992125
 30
0.0
 11
1.247047244094488
 21
3.996062992125984
 31
0.0
  0
LINE
  5
2C71
330
1E
100
AcDbEntity
  8
7
100
AcDbLine
 10
1.129921259842519
 20
4.552165354330708
 30
0.0
 11
1.341535433070866
 21
4.552165354330708
 31
0.0
  0
LINE
  5
2C79
330
1E
100
AcDbEntity
  8
7
100
AcDbLine
 10
1.069881889763779
 20
4.473425196850393
 30
0.0
 11
1.069881889763779
 21
4.492125984251968
 31
0.0
  0
LINE
  5
2C7A
330
1E
100
AcDbEntity
  8
7
100
AcDbLine
 10
1.069881889763779
 20
4.315944881889762
 30
0.0
 11
1.069881889763779
 21
4.335629921259842
 31
0.0
  0
LINE
  5
2C8E
330
1E
100
AcDbEntity
  8
7
100
AcDbLine
 10
1.069881889763779
 20
3.941929133858268
 30
0.0
 11
1.069881889763779
 21
3.961614173228346
 31
0.0
  0
LINE
  5
2C8F
330
1E
100
AcDbEntity
  8
7
100
AcDbLine
 10
1.069881889763779
 20
3.785433070866142
 30
0.0
 11
1.069881889763779
 21
3.804133858267716
 31
0.0
  0
LINE
  5
2C97
330
1E
100
AcDbEntity
  8
7
100
AcDbLine
 10
1.341535433070866
 20
3.725393700787401
 30
0.0
 11
1.129921259842519
 21
3.725393700787401
 31
0.0
  0
LINE
  5
2C98
330
1E
100
AcDbEntity
  8
7
100
AcDbLine
 10
1.341535433070866
 20
3.708661417322834
 30
0.0
 11
1.341535433070866
 21
3.725393700787401
 31
0.0
  0
LINE
  5
2C9E
330
1E
100
AcDbEntity
  8
7
100
AcDbLine
 10
1.291338582677165
 20
3.823818897637795
 30
0.0
 11
1.341535433070866
 21
3.823818897637795
 31
0.0
  0
LINE
  5
2CA4
330
1E
100
AcDbEntity
  8
7
100
AcDbLine
 10
1.294291338582677
 20
3.846456692913385
 30
0.0
 11
1.344488188976378
 21
3.846456692913385
 31
0.0
  0
LINE
  5
2CA5
330
1E
100
AcDbEntity
  8
7
100
AcDbLine
 10
1.294291338582677
 20
4.451771653543306
 30
0.0
 11
1.344488188976378
 21
4.451771653543306
 31
0.0
  0
LINE
  5
2CA6
330
1E
100
AcDbEntity
  8
7
100
AcDbLine
 10
1.341535433070866
 20
4.453740157480314
 30
0.0
 11
1.344488188976378
 21
4.451771653543306
 31
0.0
  0
LINE
  5
2CA7
330
1E
100
AcDbEntity
  8
7
100
AcDbLine
 10
1.341535433070866
 20
4.453740157480314
 30
0.0
 11
1.291338582677165
 21
4.453740157480314
 31
0.0
  0
LINE
  5
2CA8
330
1E
100
AcDbEntity
  8
7
100
AcDbLine
 10
1.341535433070866
 20
3.823818897637795
 30
0.0
 11
1.341535433070866
 21
3.725393700787401
 31
0.0
  0
LINE
  5
2CA9
330
1E
100
AcDbEntity
  8
7
100
AcDbLine
 10
1.341535433070866
 20
4.552165354330708
 30
0.0
 11
1.341535433070866
 21
4.453740157480314
 31
0.0
  0
LINE
  5
2CAA
330
1E
100
AcDbEntity
  8
7
100
AcDbLine
 10
1.341535433070866
 20
4.552165354330708
 30
0.0
 11
1.341535433070866
 21
4.568897637795275
 31
0.0
  0
LINE
  5
2CAB
330
1E
100
AcDbEntity
  8
7
100
AcDbLine
 10
1.344488188976378
 20
3.89271653543307
 30
0.0
 11
1.344488188976378
 21
3.846456692913385
 31
0.0
  0
LINE
  5
2CAC
330
1E
100
AcDbEntity
  8
7
100
AcDbLine
 10
1.344488188976378
 20
4.287401574803149
 30
0.0
 11
1.344488188976378
 21
3.99015748031496
 31
0.0
  0
LINE
  5
2CAD
330
1E
100
AcDbEntity
  8
7
100
AcDbLine
 10
1.344488188976378
 20
4.431102362204724
 30
0.0
 11
1.344488188976378
 21
4.384842519685038
 31
0.0
  0
LINE
  5
2CAE
330
1E
100
AcDbEntity
  8
7
100
AcDbLine
 10
1.344488188976378
 20
4.431102362204724
 30
0.0
 11
1.294291338582677
 21
4.431102362204724
 31
0.0
  0
LINE
  5
2CBE
330
1E
100
AcDbEntity
  8
7
100
AcDbLine
 10
1.344488188976378
 20
3.846456692913385
 30
0.0
 11
1.344488188976378
 21
3.711614173228346
 31
0.0
  0
LINE
  5
2CBF
330
1E
100
AcDbEntity
  8
7
100
AcDbLine
 10
1.341535433070866
 20
3.708661417322834
 30
0.0
 11
1.344488188976378
 21
3.711614173228346
 31
0.0
  0
LINE
  5
2CC0
330
1E
100
AcDbEntity
  8
7
100
AcDbLine
 10
1.344488188976378
 20
4.565944881889762
 30
0.0
 11
1.344488188976378
 21
4.431102362204724
 31
0.0
  0
LINE
  5
2CC1
330
1E
100
AcDbEntity
  8
7
100
AcDbLine
 10
1.344488188976378
 20
4.565944881889762
 30
0.0
 11
1.341535433070866
 21
4.568897637795275
 31
0.0
  0
LINE
  5
2CCE
330
1E
100
AcDbEntity
  8
7
100
AcDbLine
 10
1.344488188976378
 20
4.384842519685038
 30
0.0
 11
1.345472440944881
 21
4.384842519685038
 31
0.0
  0
LINE
  5
2CCF
330
1E
100
AcDbEntity
  8
7
100
AcDbLine
 10
1.344488188976378
 20
3.89271653543307
 30
0.0
 11
1.345472440944881
 21
3.89271653543307
 31
0.0
  0
LINE
  5
2CD0
330
1E
100
AcDbEntity
  8
7
100
AcDbLine
 10
1.344488188976378
 20
4.287401574803149
 30
0.0
 11
1.345472440944881
 21
4.287401574803149
 31
0.0
  0
LINE
  5
2CD1
330
1E
100
AcDbEntity
  8
7
100
AcDbLine
 10
1.344488188976378
 20
3.99015748031496
 30
0.0
 11
1.345472440944881
 21
3.99015748031496
 31
0.0
  0
LINE
  5
2CD2
330
1E
100
AcDbEntity
  8
7
100
AcDbLine
 10
2.448818897637795
 20
3.989173228346457
 30
0.0
 11
2.448818897637795
 21
4.288385826771652
 31
0.0
  0
LINE
  5
2CD3
330
1E
100
AcDbEntity
  8
7
100
AcDbLine
 10
2.448818897637795
 20
3.71259842519685
 30
0.0
 11
2.448818897637795
 21
3.893700787401574
 31
0.0
  0
LINE
  5
2CD9
330
1E
100
AcDbEntity
  8
7
100
AcDbLine
 10
1.36515748031496
 20
3.691929133858268
 30
0.0
 11
2.428149606299212
 21
3.691929133858268
 31
0.0
  0
LINE
  5
2CDF
330
1E
100
AcDbEntity
  8
7
100
AcDbLine
 10
1.345472440944881
 20
3.893700787401574
 30
0.0
 11
1.345472440944881
 21
3.71259842519685
 31
0.0
  0
LINE
  5
2CE0
330
1E
100
AcDbEntity
  8
7
100
AcDbLine
 10
1.345472440944881
 20
4.288385826771652
 30
0.0
 11
1.345472440944881
 21
3.989173228346457
 31
0.0
  0
LINE
  5
2CE1
330
1E
100
AcDbEntity
  8
7
100
AcDbLine
 10
2.428149606299212
 20
4.585629921259842
 30
0.0
 11
2.211614173228346
 21
4.585629921259842
 31
0.0
  0
LINE
  5
2CE7
330
1E
100
AcDbEntity
  8
7
100
AcDbLine
 10
2.448818897637795
 20
4.383858267716535
 30
0.0
 11
2.448818897637795
 21
4.565944881889762
 31
0.0
  0
LINE
  5
2CE8
330
1E
100
AcDbEntity
  8
7
100
AcDbLine
 10
1.572834645669291
 20
4.341535433070865
 30
0.0
 11
2.220472440944881
 21
4.341535433070865
 31
0.0
  0
LINE
  5
2CE9
330
1E
100
AcDbEntity
  8
7
100
AcDbLine
 10
1.577755905511811
 20
4.292322834645668
 30
0.0
 11
1.572834645669291
 21
4.341535433070865
 31
0.0
  0
LINE
  5
2CEA
330
1E
100
AcDbEntity
  8
7
100
AcDbLine
 10
2.215551181102362
 20
4.292322834645668
 30
0.0
 11
1.577755905511811
 21
4.292322834645668
 31
0.0
  0
LINE
  5
2CEB
330
1E
100
AcDbEntity
  8
7
100
AcDbLine
 10
2.215551181102362
 20
4.292322834645668
 30
0.0
 11
2.220472440944881
 21
4.341535433070865
 31
0.0
  0
LINE
  5
2CFB
330
1E
100
AcDbEntity
  8
7
100
AcDbLine
 10
1.362204724409448
 20
3.714566929133858
 30
0.0
 11
1.367125984251968
 21
3.708661417322834
 31
0.0
  0
LINE
  5
2D01
330
1E
100
AcDbEntity
  8
7
100
AcDbLine
 10
1.367125984251968
 20
4.568897637795275
 30
0.0
 11
1.362204724409448
 21
4.563976377952755
 31
0.0
  0
LINE
  5
2D0C
330
1E
100
AcDbEntity
  8
7
100
AcDbLine
 10
1.362204724409448
 20
4.563976377952755
 30
0.0
 11
1.362204724409448
 21
3.714566929133858
 31
0.0
  0
LINE
  5
2D0D
330
1E
100
AcDbEntity
  8
7
100
AcDbLine
 10
1.347440944881889
 20
3.714566929133858
 30
0.0
 11
1.347440944881889
 21
4.563976377952755
 31
0.0
  0
LINE
  5
2D0E
330
1E
100
AcDbEntity
  8
7
100
AcDbLine
 10
1.367125984251968
 20
4.583661417322834
 30
0.0
 11
2.426181102362204
 21
4.583661417322834
 31
0.0
  0
LINE
  5
2D0F
330
1E
100
AcDbEntity
  8
7
100
AcDbLine
 10
2.426181102362204
 20
4.568897637795275
 30
0.0
 11
1.367125984251968
 21
4.568897637795275
 31
0.0
  0
LINE
  5
2D1F
330
1E
100
AcDbEntity
  8
7
100
AcDbLine
 10
2.431102362204724
 20
4.563976377952755
 30
0.0
 11
2.426181102362204
 21
4.568897637795275
 31
0.0
  0
LINE
  5
2D20
330
1E
100
AcDbEntity
  8
7
100
AcDbLine
 10
1.367125984251968
 20
3.708661417322834
 30
0.0
 11
2.426181102362204
 21
3.708661417322834
 31
0.0
  0
LINE
  5
2D21
330
1E
100
AcDbEntity
  8
7
100
AcDbLine
 10
2.426181102362204
 20
3.693897637795275
 30
0.0
 11
1.367125984251968
 21
3.693897637795275
 31
0.0
  0
LINE
  5
2D31
330
1E
100
AcDbEntity
  8
7
100
AcDbLine
 10
2.426181102362204
 20
3.708661417322834
 30
0.0
 11
2.431102362204724
 21
3.714566929133858
 31
0.0
  0
LINE
  5
2D32
330
1E
100
AcDbEntity
  8
7
100
AcDbLine
 10
2.215551181102362
 20
4.292322834645668
 30
0.0
 11
2.215551181102362
 21
4.057086614173227
 31
0.0
  0
LINE
  5
2D33
330
1E
100
AcDbEntity
  8
7
100
AcDbLine
 10
1.577755905511811
 20
4.292322834645668
 30
0.0
 11
1.577755905511811
 21
4.057086614173227
 31
0.0
  0
LINE
  5
2D34
330
1E
100
AcDbEntity
  8
7
100
AcDbLine
 10
2.431102362204724
 20
3.714566929133858
 30
0.0
 11
2.431102362204724
 21
4.563976377952755
 31
0.0
  0
LINE
  5
2D35
330
1E
100
AcDbEntity
  8
7
100
AcDbLine
 10
2.220472440944881
 20
4.341535433070865
 30
0.0
 11
2.220472440944881
 21
3.792322834645668
 31
0.0
  0
LINE
  5
2D36
330
1E
100
AcDbEntity
  8
7
100
AcDbLine
 10
1.572834645669291
 20
3.792322834645668
 30
0.0
 11
1.825787401574803
 21
3.792322834645668
 31
0.0
  0
LINE
  5
2D37
330
1E
100
AcDbEntity
  8
7
100
AcDbLine
 10
1.96751968503937
 20
3.792322834645668
 30
0.0
 11
2.220472440944881
 21
3.792322834645668
 31
0.0
  0
LINE
  5
2D38
330
1E
100
AcDbEntity
  8
7
100
AcDbLine
 10
1.572834645669291
 20
4.341535433070865
 30
0.0
 11
1.572834645669291
 21
3.792322834645668
 31
0.0
  0
LINE
  5
2D39
330
1E
100
AcDbEntity
  8
7
100
AcDbLine
 10
2.215551181102362
 20
4.057086614173227
 30
0.0
 11
2.215551181102362
 21
3.792322834645668
 31
0.0
  0
LINE
  5
2D3A
330
1E
100
AcDbEntity
  8
7
100
AcDbLine
 10
1.577755905511811
 20
4.057086614173227
 30
0.0
 11
1.577755905511811
 21
3.792322834645668
 31
0.0
  0
LINE
  5
2D3B
330
1E
100
AcDbEntity
  8
7
100
AcDbLine
 10
2.446850393700787
 20
4.563976377952755
 30
0.0
 11
2.446850393700787
 21
3.714566929133858
 31
0.0
  0
LINE
  5
2D41
330
1E
100
AcDbEntity
  8
7
100
AcDbLine
 10
1.344488188976378
 20
4.382874015748031
 30
0.0
 11
1.345472440944881
 21
4.383858267716535
 31
0.0
  0
LINE
  5
2D42
330
1E
100
AcDbEntity
  8
7
100
AcDbLine
 10
1.344488188976378
 20
4.289370078740157
 30
0.0
 11
1.345472440944881
 21
4.288385826771652
 31
0.0
  0
LINE
  5
2D43
330
1E
100
AcDbEntity
  8
7
100
AcDbLine
 10
1.344488188976378
 20
3.988188976377953
 30
0.0
 11
1.345472440944881
 21
3.989173228346457
 31
0.0
  0
LINE
  5
2D44
330
1E
100
AcDbEntity
  8
7
100
AcDbLine
 10
1.344488188976378
 20
3.895669291338582
 30
0.0
 11
1.345472440944881
 21
3.893700787401574
 31
0.0
  0
LINE
  5
2D45
330
1E
100
AcDbEntity
  8
7
100
AcDbLine
 10
1.345472440944881
 20
3.71259842519685
 30
0.0
 11
1.347440944881889
 21
3.714566929133858
 31
0.0
  0
LINE
  5
2D46
330
1E
100
AcDbEntity
  8
7
100
AcDbLine
 10
2.446850393700787
 20
3.714566929133858
 30
0.0
 11
2.448818897637795
 21
3.71259842519685
 31
0.0
  0
LINE
  5
2D47
330
1E
100
AcDbEntity
  8
7
100
AcDbLine
 10
2.448818897637795
 20
3.893700787401574
 30
0.0
 11
2.448818897637795
 21
3.895669291338582
 31
0.0
  0
LINE
  5
2D48
330
1E
100
AcDbEntity
  8
7
100
AcDbLine
 10
2.448818897637795
 20
3.989173228346457
 30
0.0
 11
2.448818897637795
 21
3.988188976377953
 31
0.0
  0
LINE
  5
2D49
330
1E
100
AcDbEntity
  8
7
100
AcDbLine
 10
2.448818897637795
 20
4.288385826771652
 30
0.0
 11
2.448818897637795
 21
4.289370078740157
 31
0.0
  0
LINE
  5
2D4A
330
1E
100
AcDbEntity
  8
7
100
AcDbLine
 10
2.448818897637795
 20
4.383858267716535
 30
0.0
 11
2.448818897637795
 21
4.382874015748031
 31
0.0
  0
LINE
  5
2D4B
330
1E
100
AcDbEntity
  8
7
100
AcDbLine
 10
2.448818897637795
 20
4.565944881889762
 30
0.0
 11
2.446850393700787
 21
4.563976377952755
 31
0.0
  0
LINE
  5
2D4C
330
1E
100
AcDbEntity
  8
7
100
AcDbLine
 10
2.428149606299212
 20
3.691929133858268
 30
0.0
 11
2.426181102362204
 21
3.693897637795275
 31
0.0
  0
LINE
  5
2D4D
330
1E
100
AcDbEntity
  8
7
100
AcDbLine
 10
1.367125984251968
 20
3.693897637795275
 30
0.0
 11
1.36515748031496
 21
3.691929133858268
 31
0.0
  0
LINE
  5
2D4E
330
1E
100
AcDbEntity
  8
7
100
AcDbLine
 10
2.426181102362204
 20
4.583661417322834
 30
0.0
 11
2.428149606299212
 21
4.585629921259842
 31
0.0
  0
LINE
  5
2D55
330
1E
100
AcDbEntity
  8
7
100
AcDbLine
 10
1.36515748031496
 20
4.585629921259842
 30
0.0
 11
1.351377952755905
 21
4.579724409448818
 31
0.0
  0
LINE
  5
2D56
330
1E
100
AcDbEntity
  8
7
100
AcDbLine
 10
1.351377952755905
 20
4.579724409448818
 30
0.0
 11
1.345472440944881
 21
4.565944881889762
 31
0.0
  0
LINE
  5
2D57
330
1E
100
AcDbEntity
  8
7
100
AcDbLine
 10
1.980314960629921
 20
3.802165354330708
 30
0.0
 11
1.980314960629921
 21
3.826771653543307
 31
0.0
  0
LINE
  5
2D5E
330
1E
100
AcDbEntity
  8
7
100
AcDbLine
 10
1.970472440944881
 20
3.836614173228346
 30
0.0
 11
2.187007874015748
 21
3.836614173228346
 31
0.0
  0
LINE
  5
2D73
330
1E
100
AcDbEntity
  8
7
100
AcDbLine
 10
2.187007874015748
 20
3.836614173228346
 30
0.0
 11
2.187007874015748
 21
3.792322834645668
 31
0.0
  0
LINE
  5
2D74
330
1E
100
AcDbEntity
  8
7
100
AcDbLine
 10
1.822834645669291
 20
3.836614173228346
 30
0.0
 11
1.825787401574803
 21
3.836614173228346
 31
0.0
  0
LINE
  5
2D7A
330
1E
100
AcDbEntity
  8
7
100
AcDbLine
 10
1.606299212598425
 20
3.836614173228346
 30
0.0
 11
1.822834645669291
 21
3.836614173228346
 31
0.0
  0
LINE
  5
2D7B
330
1E
100
AcDbEntity
  8
7
100
AcDbLine
 10
1.812992125984251
 20
3.826771653543307
 30
0.0
 11
1.812992125984251
 21
3.802165354330708
 31
0.0
  0
LINE
  5
2D82
330
1E
100
AcDbEntity
  8
7
100
AcDbLine
 10
1.968503937007874
 20
3.792322834645668
 30
0.0
 11
1.96751968503937
 21
3.792322834645668
 31
0.0
  0
LINE
  5
2D88
330
1E
100
AcDbEntity
  8
7
100
AcDbLine
 10
1.606299212598425
 20
3.792322834645668
 30
0.0
 11
1.606299212598425
 21
3.836614173228346
 31
0.0
  0
LINE
  5
2DAA
330
1E
100
AcDbEntity
  8
7
100
AcDbLine
 10
1.812992125984251
 20
3.802165354330708
 30
0.0
 11
1.815944881889763
 21
3.802165354330708
 31
0.0
  0
LINE
  5
2DD8
330
1E
100
AcDbEntity
  8
7
100
AcDbLine
 10
1.825787401574803
 20
3.802165354330708
 30
0.0
 11
1.818897637795275
 21
3.802165354330708
 31
0.0
  0
LINE
  5
2DD9
330
1E
100
AcDbEntity
  8
7
100
AcDbLine
 10
1.818897637795275
 20
3.802165354330708
 30
0.0
 11
1.815944881889763
 21
3.802165354330708
 31
0.0
  0
LINE
  5
2DE9
330
1E
100
AcDbEntity
  8
7
100
AcDbLine
 10
2.215551181102362
 20
4.059055118110236
 30
0.0
 11
1.577755905511811
 21
4.059055118110236
 31
0.0
  0
LINE
  5
2DEA
330
1E
100
AcDbEntity
  8
7
100
AcDbLine
 10
1.699803149606299
 20
5.264763779527558
 30
0.0
 11
1.758858267716535
 21
5.264763779527558
 31
0.0
  0
LINE
  5
2DEB
330
1E
100
AcDbEntity
  8
7
100
AcDbLine
 10
2.095472440944881
 20
5.264763779527558
 30
0.0
 11
2.036417322834645
 21
5.264763779527558
 31
0.0
  0
LINE
  5
2DEC
330
1E
100
AcDbEntity
  8
7
100
AcDbLine
 10
1.926181102362204
 20
5.264763779527558
 30
0.0
 11
1.911417322834645
 21
5.264763779527558
 31
0.0
  0
LINE
  5
2DED
330
1E
100
AcDbEntity
  8
7
100
AcDbLine
 10
2.12007874015748
 20
5.264763779527558
 30
0.0
 11
2.18011811023622
 21
5.264763779527558
 31
0.0
  0
LINE
  5
2DEE
330
1E
100
AcDbEntity
  8
7
100
AcDbLine
 10
1.61515748031496
 20
5.264763779527558
 30
0.0
 11
1.644685039370078
 21
5.264763779527558
 31
0.0
  0
LINE
  5
2DEF
330
1E
100
AcDbEntity
  8
7
100
AcDbLine
 10
2.204724409448818
 20
5.264763779527558
 30
0.0
 11
2.263779527559055
 21
5.264763779527558
 31
0.0
  0
LINE
  5
2DF0
330
1E
100
AcDbEntity
  8
7
100
AcDbLine
 10
2.249015748031495
 20
5.264763779527558
 30
0.0
 11
2.204724409448818
 21
5.264763779527558
 31
0.0
  0
LINE
  5
2DF1
330
1E
100
AcDbEntity
  8
7
100
AcDbLine
 10
1.982283464566929
 20
5.264763779527558
 30
0.0
 11
2.011811023622047
 21
5.264763779527558
 31
0.0
  0
LINE
  5
2DF2
330
1E
100
AcDbEntity
  8
7
100
AcDbLine
 10
1.629921259842519
 20
5.264763779527558
 30
0.0
 11
1.659448818897637
 21
5.264763779527558
 31
0.0
  0
LINE
  5
2DF3
330
1E
100
AcDbEntity
  8
7
100
AcDbLine
 10
1.843503937007874
 20
5.264763779527558
 30
0.0
 11
1.783464566929133
 21
5.264763779527558
 31
0.0
  0
LINE
  5
2DF4
330
1E
100
AcDbEntity
  8
7
100
AcDbLine
 10
1.882874015748031
 20
5.264763779527558
 30
0.0
 11
1.868110236220472
 21
5.264763779527558
 31
0.0
  0
LINE
  5
2DF5
330
1E
100
AcDbEntity
  8
7
100
AcDbLine
 10
2.134842519685039
 20
5.264763779527558
 30
0.0
 11
2.12007874015748
 21
5.264763779527558
 31
0.0
  0
LINE
  5
2DF6
330
1E
100
AcDbEntity
  8
7
100
AcDbLine
 10
1.911417322834645
 20
5.264763779527558
 30
0.0
 11
1.882874015748031
 21
5.264763779527558
 31
0.0
  0
LINE
  5
2DF7
330
1E
100
AcDbEntity
  8
7
100
AcDbLine
 10
2.12007874015748
 20
5.264763779527558
 30
0.0
 11
2.134842519685039
 21
5.264763779527558
 31
0.0
  0
LINE
  5
2DF8
330
1E
100
AcDbEntity
  8
7
100
AcDbLine
 10
1.531496062992125
 20
5.264763779527558
 30
0.0
 11
1.590551181102362
 21
5.264763779527558
 31
0.0
  0
LINE
  5
2DF9
330
1E
100
AcDbEntity
  8
7
100
AcDbLine
 10
1.912401574803149
 20
5.264763779527558
 30
0.0
 11
1.927165354330708
 21
5.264763779527558
 31
0.0
  0
LINE
  5
2DFA
330
1E
100
AcDbEntity
  8
7
100
AcDbLine
 10
2.134842519685039
 20
5.264763779527558
 30
0.0
 11
2.165354330708661
 21
5.264763779527558
 31
0.0
  0
LINE
  5
2DFB
330
1E
100
AcDbEntity
  8
7
100
AcDbLine
 10
1.644685039370078
 20
5.264763779527558
 30
0.0
 11
1.674212598425196
 21
5.264763779527558
 31
0.0
  0
LINE
  5
2DFC
330
1E
100
AcDbEntity
  8
7
100
AcDbLine
 10
2.165354330708661
 20
5.264763779527558
 30
0.0
 11
2.134842519685039
 21
5.264763779527558
 31
0.0
  0
LINE
  5
2DFD
330
1E
100
AcDbEntity
  8
7
100
AcDbLine
 10
1.951771653543307
 20
5.264763779527558
 30
0.0
 11
1.982283464566929
 21
5.264763779527558
 31
0.0
  0
LINE
  5
2DFE
330
1E
100
AcDbEntity
  8
7
100
AcDbLine
 10
1.966535433070866
 20
5.264763779527558
 30
0.0
 11
1.997047244094487
 21
5.264763779527558
 31
0.0
  0
LINE
  5
2DFF
330
1E
100
AcDbEntity
  8
7
100
AcDbLine
 10
2.18011811023622
 20
5.264763779527558
 30
0.0
 11
2.165354330708661
 21
5.264763779527558
 31
0.0
  0
LINE
  5
2E00
330
1E
100
AcDbEntity
  8
7
100
AcDbLine
 10
2.263779527559055
 20
5.264763779527558
 30
0.0
 11
2.204724409448818
 21
5.264763779527558
 31
0.0
  0
LINE
  5
2E01
330
1E
100
AcDbEntity
  8
7
100
AcDbLine
 10
1.868110236220472
 20
5.264763779527558
 30
0.0
 11
1.882874015748031
 21
5.264763779527558
 31
0.0
  0
LINE
  5
2E02
330
1E
100
AcDbEntity
  8
7
100
AcDbLine
 10
2.165354330708661
 20
5.264763779527558
 30
0.0
 11
2.18011811023622
 21
5.264763779527558
 31
0.0
  0
LINE
  5
2E03
330
1E
100
AcDbEntity
  8
7
100
AcDbLine
 10
1.882874015748031
 20
5.264763779527558
 30
0.0
 11
1.912401574803149
 21
5.264763779527558
 31
0.0
  0
LINE
  5
2E0E
330
1E
100
AcDbEntity
  8
7
100
AcDbLine
 10
1.581692913385826
 20
5.492125984251968
 30
0.0
 11
2.211614173228346
 21
5.492125984251968
 31
0.0
  0
LINE
  5
2E0F
330
1E
100
AcDbEntity
  8
7
100
AcDbLine
 10
1.58267716535433
 20
5.494094488188975
 30
0.0
 11
1.576771653543306
 21
5.388779527559054
 31
0.0
  0
LINE
  5
2E10
330
1E
100
AcDbEntity
  8
7
100
AcDbLine
 10
2.216535433070866
 20
5.388779527559054
 30
0.0
 11
2.211614173228346
 21
5.494094488188975
 31
0.0
  0
LINE
  5
2E11
330
1E
100
AcDbEntity
  8
7
100
AcDbLine
 10
2.204724409448818
 20
5.699803149606299
 30
0.0
 11
2.220472440944881
 21
5.699803149606299
 31
0.0
  0
LINE
  5
2E12
330
1E
100
AcDbEntity
  8
7
100
AcDbLine
 10
2.43011811023622
 20
5.699803149606299
 30
0.0
 11
2.220472440944881
 21
5.699803149606299
 31
0.0
  0
LINE
  5
2E18
330
1E
100
AcDbEntity
  8
7
100
AcDbLine
 10
2.661417322834645
 20
5.699803149606299
 30
0.0
 11
2.449803149606299
 21
5.699803149606299
 31
0.0
  0
LINE
  5
2E27
330
1E
100
AcDbEntity
  8
7
100
AcDbLine
 10
1.343503937007874
 20
5.699803149606299
 30
0.0
 11
1.131889763779527
 21
5.699803149606299
 31
0.0
  0
LINE
  5
2E2D
330
1E
100
AcDbEntity
  8
7
100
AcDbLine
 10
1.572834645669291
 20
5.699803149606299
 30
0.0
 11
1.364173228346456
 21
5.699803149606299
 31
0.0
  0
LINE
  5
2E2E
330
1E
100
AcDbEntity
  8
7
100
AcDbLine
 10
1.572834645669291
 20
5.699803149606299
 30
0.0
 11
1.588582677165354
 21
5.699803149606299
 31
0.0
  0
LINE
  5
2E34
330
1E
100
AcDbEntity
  8
7
100
AcDbLine
 10
2.503937007874015
 20
5.422244094488188
 30
0.0
 11
2.499015748031495
 21
5.422244094488188
 31
0.0
  0
LINE
  5
2E40
330
1E
100
AcDbEntity
  8
7
100
AcDbLine
 10
2.729330708661417
 20
5.617125984251968
 30
0.0
 11
2.732283464566929
 21
5.616141732283463
 31
0.0
  0
LINE
  5
2E41
330
1E
100
AcDbEntity
  8
7
100
AcDbLine
 10
2.751968503937007
 20
5.613188976377952
 30
0.0
 11
2.732283464566929
 21
5.616141732283463
 31
0.0
  0
LINE
  5
2E47
330
1E
100
AcDbEntity
  8
7
100
AcDbLine
 10
2.499015748031495
 20
5.441929133858267
 30
0.0
 11
2.501968503937007
 21
5.579724409448818
 31
0.0
  0
LINE
  5
2E48
330
1E
100
AcDbEntity
  8
7
100
AcDbLine
 10
2.526574803149606
 20
5.579724409448818
 30
0.0
 11
2.524606299212598
 21
5.441929133858267
 31
0.0
  0
LINE
  5
2E4E
330
1E
100
AcDbEntity
  8
7
100
AcDbLine
 10
2.732283464566929
 20
5.616141732283463
 30
0.0
 11
2.733267716535432
 21
5.579724409448818
 31
0.0
  0
LINE
  5
2E54
330
1E
100
AcDbEntity
  8
7
100
AcDbLine
 10
2.761811023622047
 20
5.611220472440944
 30
0.0
 11
2.761811023622047
 21
5.579724409448818
 31
0.0
  0
LINE
  5
2E55
330
1E
100
AcDbEntity
  8
7
100
AcDbLine
 10
2.499015748031495
 20
5.422244094488188
 30
0.0
 11
2.448818897637795
 21
5.422244094488188
 31
0.0
  0
LINE
  5
2E56
330
1E
100
AcDbEntity
  8
7
100
AcDbLine
 10
2.449803149606299
 20
5.441929133858267
 30
0.0
 11
2.499015748031495
 21
5.441929133858267
 31
0.0
  0
LINE
  5
2E6A
330
1E
100
AcDbEntity
  8
7
100
AcDbLine
 10
2.451771653543306
 20
5.579724409448818
 30
0.0
 11
2.663385826771653
 21
5.579724409448818
 31
0.0
  0
LINE
  5
2E71
330
1E
100
AcDbEntity
  8
7
100
AcDbLine
 10
2.451771653543306
 20
5.579724409448818
 30
0.0
 11
2.448818897637795
 21
5.422244094488188
 31
0.0
  0
LINE
  5
2E72
330
1E
100
AcDbEntity
  8
7
100
AcDbLine
 10
2.451771653543306
 20
5.579724409448818
 30
0.0
 11
2.445866141732283
 21
5.579724409448818
 31
0.0
  0
LINE
  5
2E73
330
1E
100
AcDbEntity
  8
7
100
AcDbLine
 10
2.445866141732283
 20
5.579724409448818
 30
0.0
 11
2.432086614173228
 21
5.579724409448818
 31
0.0
  0
LINE
  5
2E74
330
1E
100
AcDbEntity
  8
7
100
AcDbLine
 10
2.428149606299212
 20
5.388779527559054
 30
0.0
 11
2.432086614173228
 21
5.579724409448818
 31
0.0
  0
LINE
  5
2E75
330
1E
100
AcDbEntity
  8
7
100
AcDbLine
 10
2.721456692913385
 20
5.699803149606299
 30
0.0
 11
2.723425196850393
 21
5.579724409448818
 31
0.0
  0
LINE
  5
2E76
330
1E
100
AcDbEntity
  8
7
100
AcDbLine
 10
2.663385826771653
 20
5.579724409448818
 30
0.0
 11
2.661417322834645
 21
5.699803149606299
 31
0.0
  0
LINE
  5
2E77
330
1E
100
AcDbEntity
  8
7
100
AcDbLine
 10
2.449803149606299
 20
5.699803149606299
 30
0.0
 11
2.451771653543306
 21
5.579724409448818
 31
0.0
  0
LINE
  5
2E78
330
1E
100
AcDbEntity
  8
7
100
AcDbLine
 10
2.432086614173228
 20
5.579724409448818
 30
0.0
 11
2.43011811023622
 21
5.699803149606299
 31
0.0
  0
LINE
  5
2E79
330
1E
100
AcDbEntity
  8
7
100
AcDbLine
 10
2.220472440944881
 20
5.699803149606299
 30
0.0
 11
2.220472440944881
 21
5.653543307086613
 31
0.0
  0
LINE
  5
2E7A
330
1E
100
AcDbEntity
  8
7
100
AcDbLine
 10
1.573818897637795
 20
5.653543307086613
 30
0.0
 11
2.220472440944881
 21
5.653543307086613
 31
0.0
  0
LINE
  5
2E7B
330
1E
100
AcDbEntity
  8
7
100
AcDbLine
 10
1.362204724409448
 20
5.579724409448818
 30
0.0
 11
2.432086614173228
 21
5.579724409448818
 31
0.0
  0
LINE
  5
2E7C
330
1E
100
AcDbEntity
  8
7
100
AcDbLine
 10
1.572834645669291
 20
5.699803149606299
 30
0.0
 11
1.573818897637795
 21
5.653543307086613
 31
0.0
  0
LINE
  5
2E7D
330
1E
100
AcDbEntity
  8
7
100
AcDbLine
 10
1.364173228346456
 20
5.699803149606299
 30
0.0
 11
1.362204724409448
 21
5.579724409448818
 31
0.0
  0
LINE
  5
2E7E
330
1E
100
AcDbEntity
  8
7
100
AcDbLine
 10
1.362204724409448
 20
5.579724409448818
 30
0.0
 11
1.36515748031496
 21
5.388779527559054
 31
0.0
  0
LINE
  5
2E7F
330
1E
100
AcDbEntity
  8
7
100
AcDbLine
 10
1.58267716535433
 20
5.494094488188975
 30
0.0
 11
2.211614173228346
 21
5.494094488188975
 31
0.0
  0
LINE
  5
2E80
330
1E
100
AcDbEntity
  8
7
100
AcDbLine
 10
1.061023622047243
 20
5.616141732283463
 30
0.0
 11
1.063976377952755
 21
5.617125984251968
 31
0.0
  0
LINE
  5
2E86
330
1E
100
AcDbEntity
  8
7
100
AcDbLine
 10
1.061023622047243
 20
5.616141732283463
 30
0.0
 11
1.041338582677165
 21
5.613188976377952
 31
0.0
  0
LINE
  5
2E87
330
1E
100
AcDbEntity
  8
7
100
AcDbLine
 10
1.031496062992125
 20
5.579724409448818
 30
0.0
 11
1.031496062992125
 21
5.611220472440944
 31
0.0
  0
LINE
  5
2E9E
330
1E
100
AcDbEntity
  8
7
100
AcDbLine
 10
1.066929133858267
 20
5.618110236220472
 30
0.0
 11
1.063976377952755
 21
5.617125984251968
 31
0.0
  0
LINE
  5
2E9F
330
1E
100
AcDbEntity
  8
7
100
AcDbLine
 10
1.268700787401574
 20
5.441929133858267
 30
0.0
 11
1.266732283464566
 21
5.579724409448818
 31
0.0
  0
LINE
  5
2EA6
330
1E
100
AcDbEntity
  8
7
100
AcDbLine
 10
1.291338582677165
 20
5.579724409448818
 30
0.0
 11
1.294291338582677
 21
5.441929133858267
 31
0.0
  0
LINE
  5
2EB1
330
1E
100
AcDbEntity
  8
7
100
AcDbLine
 10
1.294291338582677
 20
5.422244094488188
 30
0.0
 11
1.289370078740157
 21
5.422244094488188
 31
0.0
  0
LINE
  5
2EB2
330
1E
100
AcDbEntity
  8
7
100
AcDbLine
 10
1.129921259842519
 20
5.579724409448818
 30
0.0
 11
1.341535433070866
 21
5.579724409448818
 31
0.0
  0
LINE
  5
2EB3
330
1E
100
AcDbEntity
  8
7
100
AcDbLine
 10
1.131889763779527
 20
5.699803149606299
 30
0.0
 11
1.129921259842519
 21
5.579724409448818
 31
0.0
  0
LINE
  5
2EB4
330
1E
100
AcDbEntity
  8
7
100
AcDbLine
 10
1.069881889763779
 20
5.579724409448818
 30
0.0
 11
1.071850393700787
 21
5.699803149606299
 31
0.0
  0
LINE
  5
2EBC
330
1E
100
AcDbEntity
  8
7
100
AcDbLine
 10
1.294291338582677
 20
5.441929133858267
 30
0.0
 11
1.344488188976378
 21
5.441929133858267
 31
0.0
  0
LINE
  5
2EBD
330
1E
100
AcDbEntity
  8
7
100
AcDbLine
 10
1.341535433070866
 20
5.579724409448818
 30
0.0
 11
1.343503937007874
 21
5.699803149606299
 31
0.0
  0
LINE
  5
2EBE
330
1E
100
AcDbEntity
  8
7
100
AcDbLine
 10
1.344488188976378
 20
5.422244094488188
 30
0.0
 11
1.294291338582677
 21
5.422244094488188
 31
0.0
  0
LINE
  5
2EC4
330
1E
100
AcDbEntity
  8
7
100
AcDbLine
 10
1.344488188976378
 20
5.422244094488188
 30
0.0
 11
1.341535433070866
 21
5.579724409448818
 31
0.0
  0
LINE
  5
2ECB
330
1E
100
AcDbEntity
  8
7
100
AcDbLine
 10
2.428149606299212
 20
5.388779527559054
 30
0.0
 11
2.211614173228346
 21
5.388779527559054
 31
0.0
  0
LINE
  5
2ECC
330
1E
100
AcDbEntity
  8
7
100
AcDbLine
 10
2.448818897637795
 20
5.388779527559054
 30
0.0
 11
2.442913385826771
 21
5.388779527559054
 31
0.0
  0
LINE
  5
2ECD
330
1E
100
AcDbEntity
  8
7
100
AcDbLine
 10
2.442913385826771
 20
5.388779527559054
 30
0.0
 11
2.428149606299212
 21
5.388779527559054
 31
0.0
  0
LINE
  5
2ED3
330
1E
100
AcDbEntity
  8
7
100
AcDbLine
 10
1.367125984251968
 20
5.264763779527558
 30
0.0
 11
1.362204724409448
 21
5.264763779527558
 31
0.0
  0
LINE
  5
2ED9
330
1E
100
AcDbEntity
  8
7
100
AcDbLine
 10
1.347440944881889
 20
5.279527559055117
 30
0.0
 11
1.352362204724409
 21
5.279527559055117
 31
0.0
  0
LINE
  5
2EDF
330
1E
100
AcDbEntity
  8
7
100
AcDbLine
 10
2.426181102362204
 20
5.264763779527558
 30
0.0
 11
1.367125984251968
 21
5.264763779527558
 31
0.0
  0
LINE
  5
2EEF
330
1E
100
AcDbEntity
  8
7
100
AcDbLine
 10
2.431102362204724
 20
5.264763779527558
 30
0.0
 11
2.426181102362204
 21
5.264763779527558
 31
0.0
  0
LINE
  5
2EF0
330
1E
100
AcDbEntity
  8
7
100
AcDbLine
 10
1.347440944881889
 20
5.279527559055117
 30
0.0
 11
1.345472440944881
 21
5.388779527559054
 31
0.0
  0
LINE
  5
2EF1
330
1E
100
AcDbEntity
  8
7
100
AcDbLine
 10
1.344488188976378
 20
5.422244094488188
 30
0.0
 11
1.345472440944881
 21
5.388779527559054
 31
0.0
  0
LINE
  5
2EF2
330
1E
100
AcDbEntity
  8
7
100
AcDbLine
 10
2.448818897637795
 20
5.388779527559054
 30
0.0
 11
2.448818897637795
 21
5.422244094488188
 31
0.0
  0
LINE
  5
2EF3
330
1E
100
AcDbEntity
  8
7
100
AcDbLine
 10
2.448818897637795
 20
5.388779527559054
 30
0.0
 11
2.446850393700787
 21
5.279527559055117
 31
0.0
  0
LINE
  5
2EF4
330
1E
100
AcDbEntity
  8
7
100
AcDbLine
 10
2.426181102362204
 20
5.279527559055117
 30
0.0
 11
2.428149606299212
 21
5.388779527559054
 31
0.0
  0
LINE
  5
2F00
330
1E
100
AcDbEntity
  8
7
100
AcDbLine
 10
2.208661417322834
 20
5.479330708661416
 30
0.0
 11
2.211614173228346
 21
5.388779527559054
 31
0.0
  0
LINE
  5
2F01
330
1E
100
AcDbEntity
  8
7
100
AcDbLine
 10
1.594488188976377
 20
5.489173228346456
 30
0.0
 11
2.198818897637795
 21
5.489173228346456
 31
0.0
  0
LINE
  5
2F0C
330
1E
100
AcDbEntity
  8
7
100
AcDbLine
 10
1.581692913385826
 20
5.388779527559054
 30
0.0
 11
1.584645669291338
 21
5.479330708661416
 31
0.0
  0
LINE
  5
2F12
330
1E
100
AcDbEntity
  8
7
100
AcDbLine
 10
1.96751968503937
 20
5.245078740157479
 30
0.0
 11
1.968503937007874
 21
5.264763779527558
 31
0.0
  0
LINE
  5
2F13
330
1E
100
AcDbEntity
  8
7
100
AcDbLine
 10
1.96751968503937
 20
5.23523622047244
 30
0.0
 11
1.825787401574803
 21
5.23523622047244
 31
0.0
  0
LINE
  5
2F14
330
1E
100
AcDbEntity
  8
7
100
AcDbLine
 10
1.978346456692913
 20
5.264763779527558
 30
0.0
 11
1.977362204724409
 21
5.244094488188975
 31
0.0
  0
LINE
  5
2F15
330
1E
100
AcDbEntity
  8
7
100
AcDbLine
 10
1.815944881889763
 20
5.244094488188975
 30
0.0
 11
1.814960629921259
 21
5.264763779527558
 31
0.0
  0
LINE
  5
2F1B
330
1E
100
AcDbEntity
  8
7
100
AcDbLine
 10
1.815944881889763
 20
5.244094488188975
 30
0.0
 11
1.818897637795275
 21
5.245078740157479
 31
0.0
  0
LINE
  5
2F1C
330
1E
100
AcDbEntity
  8
7
100
AcDbLine
 10
1.818897637795275
 20
5.245078740157479
 30
0.0
 11
1.825787401574803
 21
5.245078740157479
 31
0.0
  0
LINE
  5
2F31
330
1E
100
AcDbEntity
  8
7
100
AcDbLine
 10
1.584645669291338
 20
5.937992125984251
 30
0.0
 11
1.589566929133858
 21
5.653543307086613
 31
0.0
  0
LINE
  5
2F32
330
1E
100
AcDbEntity
  8
7
100
AcDbLine
 10
2.209645669291338
 20
5.937992125984251
 30
0.0
 11
2.204724409448818
 21
5.653543307086613
 31
0.0
  0
LINE
  5
2F33
330
1E
100
AcDbEntity
  8
7
100
AcDbLine
 10
2.196850393700787
 20
6.437007874015747
 30
0.0
 11
1.596456692913385
 21
6.437007874015747
 31
0.0
  0
LINE
  5
2F39
330
1E
100
AcDbEntity
  8
7
100
AcDbLine
 10
1.584645669291338
 20
5.937992125984251
 30
0.0
 11
1.592519685039369
 21
6.421259842519684
 31
0.0
  0
LINE
  5
2F3A
330
1E
100
AcDbEntity
  8
7
100
AcDbLine
 10
2.200787401574803
 20
6.421259842519684
 30
0.0
 11
2.209645669291338
 21
5.937992125984251
 31
0.0
  0
LINE
  5
2F40
330
1E
100
AcDbEntity
  8
7
100
AcDbLine
 10
1.796259842519685
 20
6.42027559055118
 30
0.0
 11
1.796259842519685
 21
6.265748031496062
 31
0.0
  0
LINE
  5
2F41
330
1E
100
AcDbEntity
  8
7
100
AcDbLine
 10
1.997047244094487
 20
6.42027559055118
 30
0.0
 11
1.796259842519685
 21
6.42027559055118
 31
0.0
  0
LINE
  5
2F47
330
1E
100
AcDbEntity
  8
7
100
AcDbLine
 10
2.072834645669291
 20
6.431102362204724
 30
0.0
 11
2.072834645669291
 21
6.270669291338582
 31
0.0
  0
LINE
  5
2F48
330
1E
100
AcDbEntity
  8
7
100
AcDbLine
 10
2.072834645669291
 20
6.431102362204724
 30
0.0
 11
2.151574803149606
 21
6.431102362204724
 31
0.0
  0
LINE
  5
2F49
330
1E
100
AcDbEntity
  8
7
100
AcDbLine
 10
2.151574803149606
 20
6.270669291338582
 30
0.0
 11
2.151574803149606
 21
6.431102362204724
 31
0.0
  0
LINE
  5
2F4A
330
1E
100
AcDbEntity
  8
7
100
AcDbLine
 10
2.072834645669291
 20
6.270669291338582
 30
0.0
 11
2.151574803149606
 21
6.270669291338582
 31
0.0
  0
LINE
  5
2F51
330
1E
100
AcDbEntity
  8
7
100
AcDbLine
 10
1.720472440944881
 20
6.431102362204724
 30
0.0
 11
1.64271653543307
 21
6.431102362204724
 31
0.0
  0
LINE
  5
2F58
330
1E
100
AcDbEntity
  8
7
100
AcDbLine
 10
1.791338582677165
 20
6.104330708661416
 30
0.0
 11
1.64271653543307
 21
6.104330708661416
 31
0.0
  0
LINE
  5
2F7B
330
1E
100
AcDbEntity
  8
7
100
AcDbLine
 10
1.83267716535433
 20
5.942913385826771
 30
0.0
 11
1.83267716535433
 21
6.062992125984251
 31
0.0
  0
LINE
  5
2F82
330
1E
100
AcDbEntity
  8
7
100
AcDbLine
 10
1.997047244094487
 20
6.378937007874015
 30
0.0
 11
1.996062992125984
 21
6.378937007874015
 31
0.0
  0
LINE
  5
2F83
330
1E
100
AcDbEntity
  8
7
100
AcDbLine
 10
1.798228346456693
 20
6.378937007874015
 30
0.0
 11
1.796259842519685
 21
6.378937007874015
 31
0.0
  0
LINE
  5
2F84
330
1E
100
AcDbEntity
  8
7
100
AcDbLine
 10
1.997047244094487
 20
6.268700787401574
 30
0.0
 11
1.796259842519685
 21
6.268700787401574
 31
0.0
  0
LINE
  5
2F85
330
1E
100
AcDbEntity
  8
7
100
AcDbLine
 10
1.717519685039369
 20
6.273622047244094
 30
0.0
 11
1.716535433070866
 21
6.273622047244094
 31
0.0
  0
LINE
  5
2F86
330
1E
100
AcDbEntity
  8
7
100
AcDbLine
 10
1.648622047244094
 20
6.273622047244094
 30
0.0
 11
1.644685039370078
 21
6.273622047244094
 31
0.0
  0
LINE
  5
2F87
330
1E
100
AcDbEntity
  8
7
100
AcDbLine
 10
1.717519685039369
 20
6.428149606299212
 30
0.0
 11
1.717519685039369
 21
6.273622047244094
 31
0.0
  0
LINE
  5
2F88
330
1E
100
AcDbEntity
  8
7
100
AcDbLine
 10
1.717519685039369
 20
6.428149606299212
 30
0.0
 11
1.644685039370078
 21
6.428149606299212
 31
0.0
  0
LINE
  5
2F89
330
1E
100
AcDbEntity
  8
7
100
AcDbLine
 10
1.644685039370078
 20
6.273622047244094
 30
0.0
 11
1.644685039370078
 21
6.376968503937007
 31
0.0
  0
LINE
  5
2F8A
330
1E
100
AcDbEntity
  8
7
100
AcDbLine
 10
1.644685039370078
 20
6.4251968503937
 30
0.0
 11
1.644685039370078
 21
6.428149606299212
 31
0.0
  0
LINE
  5
2F8B
330
1E
100
AcDbEntity
  8
7
100
AcDbLine
 10
2.075787401574803
 20
6.428149606299212
 30
0.0
 11
2.148622047244094
 21
6.428149606299212
 31
0.0
  0
LINE
  5
2F96
330
1E
100
AcDbEntity
  8
7
100
AcDbLine
 10
2.148622047244094
 20
6.4251968503937
 30
0.0
 11
2.148622047244094
 21
6.428149606299212
 31
0.0
  0
LINE
  5
2F97
330
1E
100
AcDbEntity
  8
7
100
AcDbLine
 10
1.643700787401574
 20
5.899606299212598
 30
0.0
 11
1.64271653543307
 21
5.901574803149605
 31
0.0
  0
LINE
  5
2F98
330
1E
100
AcDbEntity
  8
7
100
AcDbLine
 10
1.643700787401574
 20
5.653543307086613
 30
0.0
 11
1.643700787401574
 21
5.899606299212598
 31
0.0
  0
LINE
  5
2F99
330
1E
100
AcDbEntity
  8
7
100
AcDbLine
 10
2.149606299212598
 20
5.899606299212598
 30
0.0
 11
2.151574803149606
 21
5.901574803149605
 31
0.0
  0
LINE
  5
2F9F
330
1E
100
AcDbEntity
  8
7
100
AcDbLine
 10
1.997047244094487
 20
6.379921259842519
 30
0.0
 11
1.996062992125984
 21
6.379921259842519
 31
0.0
  0
LINE
  5
2FA0
330
1E
100
AcDbEntity
  8
7
100
AcDbLine
 10
1.798228346456693
 20
6.379921259842519
 30
0.0
 11
1.796259842519685
 21
6.379921259842519
 31
0.0
  0
LINE
  5
2FA1
330
1E
100
AcDbEntity
  8
7
100
AcDbLine
 10
1.720472440944881
 20
6.270669291338582
 30
0.0
 11
1.717519685039369
 21
6.273622047244094
 31
0.0
  0
LINE
  5
2FA2
330
1E
100
AcDbEntity
  8
7
100
AcDbLine
 10
1.64271653543307
 20
6.270669291338582
 30
0.0
 11
1.644685039370078
 21
6.273622047244094
 31
0.0
  0
LINE
  5
2FA3
330
1E
100
AcDbEntity
  8
7
100
AcDbLine
 10
1.64271653543307
 20
6.431102362204724
 30
0.0
 11
1.644685039370078
 21
6.428149606299212
 31
0.0
  0
LINE
  5
2FA4
330
1E
100
AcDbEntity
  8
7
100
AcDbLine
 10
1.720472440944881
 20
6.431102362204724
 30
0.0
 11
1.717519685039369
 21
6.428149606299212
 31
0.0
  0
LINE
  5
2FA5
330
1E
100
AcDbEntity
  8
7
100
AcDbLine
 10
2.072834645669291
 20
6.270669291338582
 30
0.0
 11
2.075787401574803
 21
6.273622047244094
 31
0.0
  0
LINE
  5
2FA6
330
1E
100
AcDbEntity
  8
7
100
AcDbLine
 10
2.072834645669291
 20
6.431102362204724
 30
0.0
 11
2.075787401574803
 21
6.428149606299212
 31
0.0
  0
LINE
  5
2FA7
330
1E
100
AcDbEntity
  8
7
100
AcDbLine
 10
2.151574803149606
 20
6.270669291338582
 30
0.0
 11
2.148622047244094
 21
6.273622047244094
 31
0.0
  0
LINE
  5
2FA8
330
1E
100
AcDbEntity
  8
7
100
AcDbLine
 10
2.151574803149606
 20
6.431102362204724
 30
0.0
 11
2.148622047244094
 21
6.428149606299212
 31
0.0
  0
LINE
  5
2FA9
330
1E
100
AcDbEntity
  8
7
100
AcDbLine
 10
1.796259842519685
 20
6.418307086614173
 30
0.0
 11
1.997047244094487
 21
6.418307086614173
 31
0.0
  0
LINE
  5
2FAA
330
1E
100
AcDbEntity
  8
7
100
AcDbLine
 10
1.791338582677165
 20
6.2253937007874
 30
0.0
 11
1.789370078740157
 21
6.223425196850393
 31
0.0
  0
LINE
  5
2FB0
330
1E
100
AcDbEntity
  8
7
100
AcDbLine
 10
1.791338582677165
 20
6.104330708661416
 30
0.0
 11
1.789370078740157
 21
6.106299212598425
 31
0.0
  0
LINE
  5
2FB1
330
1E
100
AcDbEntity
  8
7
100
AcDbLine
 10
1.789370078740157
 20
6.223425196850393
 30
0.0
 11
1.789370078740157
 21
6.106299212598425
 31
0.0
  0
LINE
  5
2FB2
330
1E
100
AcDbEntity
  8
7
100
AcDbLine
 10
1.64271653543307
 20
6.104330708661416
 30
0.0
 11
1.643700787401574
 21
6.106299212598425
 31
0.0
  0
LINE
  5
2FB8
330
1E
100
AcDbEntity
  8
7
100
AcDbLine
 10
1.791338582677165
 20
6.062992125984251
 30
0.0
 11
1.789370078740157
 21
6.061023622047243
 31
0.0
  0
LINE
  5
2FB9
330
1E
100
AcDbEntity
  8
7
100
AcDbLine
 10
1.64271653543307
 20
6.062992125984251
 30
0.0
 11
1.643700787401574
 21
6.061023622047243
 31
0.0
  0
LINE
  5
2FBA
330
1E
100
AcDbEntity
  8
7
100
AcDbLine
 10
1.643700787401574
 20
6.061023622047243
 30
0.0
 11
1.789370078740157
 21
6.061023622047243
 31
0.0
  0
LINE
  5
2FBB
330
1E
100
AcDbEntity
  8
7
100
AcDbLine
 10
1.791338582677165
 20
5.942913385826771
 30
0.0
 11
1.789370078740157
 21
5.944881889763778
 31
0.0
  0
LINE
  5
2FBC
330
1E
100
AcDbEntity
  8
7
100
AcDbLine
 10
1.789370078740157
 20
6.061023622047243
 30
0.0
 11
1.789370078740157
 21
5.944881889763778
 31
0.0
  0
LINE
  5
2FBD
330
1E
100
AcDbEntity
  8
7
100
AcDbLine
 10
1.64271653543307
 20
5.942913385826771
 30
0.0
 11
1.643700787401574
 21
5.944881889763778
 31
0.0
  0
LINE
  5
2FC3
330
1E
100
AcDbEntity
  8
7
100
AcDbLine
 10
2.151574803149606
 20
6.2253937007874
 30
0.0
 11
2.149606299212598
 21
6.223425196850393
 31
0.0
  0
LINE
  5
2FC9
330
1E
100
AcDbEntity
  8
7
100
AcDbLine
 10
2.151574803149606
 20
6.104330708661416
 30
0.0
 11
2.149606299212598
 21
6.106299212598425
 31
0.0
  0
LINE
  5
2FCA
330
1E
100
AcDbEntity
  8
7
100
AcDbLine
 10
2.149606299212598
 20
6.223425196850393
 30
0.0
 11
2.149606299212598
 21
6.106299212598425
 31
0.0
  0
LINE
  5
2FCB
330
1E
100
AcDbEntity
  8
7
100
AcDbLine
 10
2.001968503937007
 20
6.104330708661416
 30
0.0
 11
2.003937007874015
 21
6.106299212598425
 31
0.0
  0
LINE
  5
2FD1
330
1E
100
AcDbEntity
  8
7
100
AcDbLine
 10
2.151574803149606
 20
6.062992125984251
 30
0.0
 11
2.149606299212598
 21
6.061023622047243
 31
0.0
  0
LINE
  5
2FD7
330
1E
100
AcDbEntity
  8
7
100
AcDbLine
 10
2.151574803149606
 20
5.942913385826771
 30
0.0
 11
2.149606299212598
 21
5.944881889763778
 31
0.0
  0
LINE
  5
2FD8
330
1E
100
AcDbEntity
  8
7
100
AcDbLine
 10
2.149606299212598
 20
6.061023622047243
 30
0.0
 11
2.149606299212598
 21
5.944881889763778
 31
0.0
  0
LINE
  5
2FD9
330
1E
100
AcDbEntity
  8
7
100
AcDbLine
 10
2.001968503937007
 20
5.942913385826771
 30
0.0
 11
2.003937007874015
 21
5.944881889763778
 31
0.0
  0
LINE
  5
2FDF
330
1E
100
AcDbEntity
  8
7
100
AcDbLine
 10
1.961614173228346
 20
6.104330708661416
 30
0.0
 11
1.959645669291338
 21
6.106299212598425
 31
0.0
  0
LINE
  5
2FE5
330
1E
100
AcDbEntity
  8
7
100
AcDbLine
 10
1.83267716535433
 20
6.104330708661416
 30
0.0
 11
1.834645669291338
 21
6.106299212598425
 31
0.0
  0
LINE
  5
2FE6
330
1E
100
AcDbEntity
  8
7
100
AcDbLine
 10
1.959645669291338
 20
6.106299212598425
 30
0.0
 11
1.834645669291338
 21
6.106299212598425
 31
0.0
  0
LINE
  5
2FE7
330
1E
100
AcDbEntity
  8
7
100
AcDbLine
 10
1.83267716535433
 20
6.2253937007874
 30
0.0
 11
1.834645669291338
 21
6.223425196850393
 31
0.0
  0
LINE
  5
2FED
330
1E
100
AcDbEntity
  8
7
100
AcDbLine
 10
1.961614173228346
 20
5.942913385826771
 30
0.0
 11
1.959645669291338
 21
5.944881889763778
 31
0.0
  0
LINE
  5
2FF3
330
1E
100
AcDbEntity
  8
7
100
AcDbLine
 10
1.83267716535433
 20
5.942913385826771
 30
0.0
 11
1.834645669291338
 21
5.944881889763778
 31
0.0
  0
LINE
  5
2FF4
330
1E
100
AcDbEntity
  8
7
100
AcDbLine
 10
1.959645669291338
 20
5.944881889763778
 30
0.0
 11
1.834645669291338
 21
5.944881889763778
 31
0.0
  0
LINE
  5
2FF5
330
1E
100
AcDbEntity
  8
7
100
AcDbLine
 10
1.83267716535433
 20
6.062992125984251
 30
0.0
 11
1.834645669291338
 21
6.061023622047243
 31
0.0
  0
LINE
  5
2FFB
330
1E
100
AcDbEntity
  8
7
100
AcDbLine
 10
1.634842519685039
 20
6.46259842519685
 30
0.0
 11
2.158464566929133
 21
6.46259842519685
 31
0.0
  0
LINE
  5
3001
330
1E
100
AcDbEntity
  8
7
100
AcDbLine
 10
1.605314960629921
 20
6.450787401574802
 30
0.0
 11
1.596456692913385
 21
6.437007874015747
 31
0.0
  0
LINE
  5
3008
330
1E
100
AcDbEntity
  8
3
100
AcDbLine
 10
2.209645669291338
 20
6.117125984251968
 30
0.0
 11
2.209645669291338
 21
6.223425196850393
 31
0.0
  0
LINE
  5
3009
330
1E
100
AcDbEntity
  8
3
100
AcDbLine
 10
2.148622047244094
 20
6.376968503937007
 30
0.0
 11
2.148622047244094
 21
6.273622047244094
 31
0.0
  0
LINE
  5
300A
330
1E
100
AcDbEntity
  8
3
100
AcDbLine
 10
2.148622047244094
 20
6.376968503937007
 30
0.0
 11
2.075787401574803
 21
6.376968503937007
 31
0.0
  0
LINE
  5
300B
330
1E
100
AcDbEntity
  8
3
100
AcDbLine
 10
1.997047244094487
 20
6.378937007874015
 30
0.0
 11
1.997047244094487
 21
6.270669291338582
 31
0.0
  0
LINE
  5
300C
330
1E
100
AcDbEntity
  8
3
100
AcDbLine
 10
2.075787401574803
 20
6.376968503937007
 30
0.0
 11
2.075787401574803
 21
6.273622047244094
 31
0.0
  0
LINE
  5
3012
330
1E
100
AcDbEntity
  8
3
100
AcDbLine
 10
1.590551181102362
 20
6.291338582677164
 30
0.0
 11
1.584645669291338
 21
6.291338582677164
 31
0.0
  0
LINE
  5
3013
330
1E
100
AcDbEntity
  8
3
100
AcDbLine
 10
2.204724409448818
 20
6.223425196850393
 30
0.0
 11
2.209645669291338
 21
6.223425196850393
 31
0.0
  0
LINE
  5
3023
330
1E
100
AcDbEntity
  8
3
100
AcDbLine
 10
1.590551181102362
 20
6.290354330708661
 30
0.0
 11
1.584645669291338
 21
6.290354330708661
 31
0.0
  0
LINE
  5
3029
330
1E
100
AcDbEntity
  8
3
100
AcDbLine
 10
2.208661417322834
 20
6.104330708661416
 30
0.0
 11
2.208661417322834
 21
6.222440944881889
 31
0.0
  0
LINE
  5
302F
330
1E
100
AcDbEntity
  8
3
100
AcDbLine
 10
2.206692913385826
 20
6.104330708661416
 30
0.0
 11
2.208661417322834
 21
6.104330708661416
 31
0.0
  0
LINE
  5
3030
330
1E
100
AcDbEntity
  8
3
100
AcDbLine
 10
2.206692913385826
 20
6.103346456692912
 30
0.0
 11
2.209645669291338
 21
6.103346456692912
 31
0.0
  0
LINE
  5
3036
330
1E
100
AcDbEntity
  8
3
100
AcDbLine
 10
1.644685039370078
 20
6.376968503937007
 30
0.0
 11
1.644685039370078
 21
6.273622047244094
 31
0.0
  0
LINE
  5
3037
330
1E
100
AcDbEntity
  8
3
100
AcDbLine
 10
1.997047244094487
 20
6.270669291338582
 30
0.0
 11
1.796259842519685
 21
6.270669291338582
 31
0.0
  0
LINE
  5
3038
330
1E
100
AcDbEntity
  8
3
100
AcDbLine
 10
1.796259842519685
 20
6.378937007874015
 30
0.0
 11
1.796259842519685
 21
6.270669291338582
 31
0.0
  0
LINE
  5
3039
330
1E
100
AcDbEntity
  8
3
100
AcDbLine
 10
2.076771653543306
 20
6.4251968503937
 30
0.0
 11
2.076771653543306
 21
6.400590551181101
 31
0.0
  0
LINE
  5
303A
330
1E
100
AcDbEntity
  8
3
100
AcDbLine
 10
2.14763779527559
 20
6.400590551181101
 30
0.0
 11
2.076771653543306
 21
6.400590551181101
 31
0.0
  0
LINE
  5
303B
330
1E
100
AcDbEntity
  8
3
100
AcDbLine
 10
2.14763779527559
 20
6.4251968503937
 30
0.0
 11
2.14763779527559
 21
6.400590551181101
 31
0.0
  0
LINE
  5
303C
330
1E
100
AcDbEntity
  8
3
100
AcDbLine
 10
2.14763779527559
 20
6.4251968503937
 30
0.0
 11
2.076771653543306
 21
6.4251968503937
 31
0.0
  0
LINE
  5
303D
330
1E
100
AcDbEntity
  8
3
100
AcDbLine
 10
1.645669291338582
 20
6.4251968503937
 30
0.0
 11
1.645669291338582
 21
6.400590551181101
 31
0.0
  0
LINE
  5
303E
330
1E
100
AcDbEntity
  8
3
100
AcDbLine
 10
1.716535433070866
 20
6.400590551181101
 30
0.0
 11
1.645669291338582
 21
6.400590551181101
 31
0.0
  0
LINE
  5
303F
330
1E
100
AcDbEntity
  8
3
100
AcDbLine
 10
1.716535433070866
 20
6.4251968503937
 30
0.0
 11
1.716535433070866
 21
6.400590551181101
 31
0.0
  0
LINE
  5
3040
330
1E
100
AcDbEntity
  8
3
100
AcDbLine
 10
1.716535433070866
 20
6.4251968503937
 30
0.0
 11
1.645669291338582
 21
6.4251968503937
 31
0.0
  0
LINE
  5
3041
330
1E
100
AcDbEntity
  8
3
100
AcDbLine
 10
2.076771653543306
 20
6.4251968503937
 30
0.0
 11
2.075787401574803
 21
6.4251968503937
 31
0.0
  0
LINE
  5
3042
330
1E
100
AcDbEntity
  8
3
100
AcDbLine
 10
2.14763779527559
 20
6.4251968503937
 30
0.0
 11
2.148622047244094
 21
6.4251968503937
 31
0.0
  0
LINE
  5
3051
330
1E
100
AcDbEntity
  8
3
100
AcDbLine
 10
1.645669291338582
 20
6.4251968503937
 30
0.0
 11
1.644685039370078
 21
6.4251968503937
 31
0.0
  0
LINE
  5
3052
330
1E
100
AcDbEntity
  8
3
100
AcDbLine
 10
1.716535433070866
 20
6.4251968503937
 30
0.0
 11
1.717519685039369
 21
6.4251968503937
 31
0.0
  0
LINE
  5
3067
330
1E
100
AcDbEntity
  8
7
100
AcDbLine
 10
2.198818897637795
 20
6.443897637795275
 30
0.0
 11
2.198818897637795
 21
6.434055118110236
 31
0.0
  0
LINE
  5
3068
330
1E
100
AcDbEntity
  8
7
100
AcDbLine
 10
2.197834645669291
 20
6.534448818897637
 30
0.0
 11
2.197834645669291
 21
6.474409448818897
 31
0.0
  0
LINE
  5
3077
330
1E
100
AcDbEntity
  8
7
100
AcDbLine
 10
2.156496062992125
 20
6.46259842519685
 30
0.0
 11
2.156496062992125
 21
6.474409448818897
 31
0.0
  0
LINE
  5
307D
330
1E
100
AcDbEntity
  8
7
100
AcDbLine
 10
1.638779527559055
 20
6.46259842519685
 30
0.0
 11
1.638779527559055
 21
6.474409448818897
 31
0.0
  0
LINE
  5
3088
330
1E
100
AcDbEntity
  8
7
100
AcDbLine
 10
1.600393700787401
 20
6.443897637795275
 30
0.0
 11
1.596456692913385
 21
6.443897637795275
 31
0.0
  0
LINE
  5
3089
330
1E
100
AcDbEntity
  8
7
100
AcDbLine
 10
2.209645669291338
 20
6.103346456692912
 30
0.0
 11
2.209645669291338
 21
6.223425196850393
 31
0.0
  0
LINE
  5
308A
330
1E
100
AcDbEntity
  8
7
100
AcDbLine
 10
2.198818897637795
 20
6.443897637795275
 30
0.0
 11
2.192913385826771
 21
6.443897637795275
 31
0.0
  0
LINE
  5
3090
330
1E
100
AcDbEntity
  8
7
100
AcDbLine
 10
1.64763779527559
 20
6.374015748031495
 30
0.0
 11
1.64763779527559
 21
6.273622047244094
 31
0.0
  0
LINE
  5
3091
330
1E
100
AcDbEntity
  8
7
100
AcDbLine
 10
1.64763779527559
 20
6.374015748031495
 30
0.0
 11
1.644685039370078
 21
6.374015748031495
 31
0.0
  0
LINE
  5
3092
330
1E
100
AcDbEntity
  8
7
100
AcDbLine
 10
1.996062992125984
 20
6.409448818897637
 30
0.0
 11
1.799212598425196
 21
6.409448818897637
 31
0.0
  0
LINE
  5
3093
330
1E
100
AcDbEntity
  8
7
100
AcDbLine
 10
1.799212598425196
 20
6.408464566929133
 30
0.0
 11
1.799212598425196
 21
6.409448818897637
 31
0.0
  0
LINE
  5
3094
330
1E
100
AcDbEntity
  8
7
100
AcDbLine
 10
1.996062992125984
 20
6.408464566929133
 30
0.0
 11
1.799212598425196
 21
6.408464566929133
 31
0.0
  0
LINE
  5
3095
330
1E
100
AcDbEntity
  8
7
100
AcDbLine
 10
1.996062992125984
 20
6.408464566929133
 30
0.0
 11
1.996062992125984
 21
6.409448818897637
 31
0.0
  0
LINE
  5
3096
330
1E
100
AcDbEntity
  8
7
100
AcDbLine
 10
1.996062992125984
 20
6.380905511811023
 30
0.0
 11
1.997047244094487
 21
6.374015748031495
 31
0.0
  0
LINE
  5
3097
330
1E
100
AcDbEntity
  8
7
100
AcDbLine
 10
1.996062992125984
 20
6.380905511811023
 30
0.0
 11
1.996062992125984
 21
6.408464566929133
 31
0.0
  0
LINE
  5
30A2
330
1E
100
AcDbEntity
  8
7
100
AcDbLine
 10
1.984251968503937
 20
6.374015748031495
 30
0.0
 11
1.811023622047244
 21
6.374015748031495
 31
0.0
  0
LINE
  5
30A8
330
1E
100
AcDbEntity
  8
7
100
AcDbLine
 10
1.997047244094487
 20
6.374015748031495
 30
0.0
 11
1.997047244094487
 21
6.319881889763778
 31
0.0
  0
LINE
  5
30A9
330
1E
100
AcDbEntity
  8
7
100
AcDbLine
 10
1.984251968503937
 20
6.320866141732283
 30
0.0
 11
1.984251968503937
 21
6.374015748031495
 31
0.0
  0
LINE
  5
30AF
330
1E
100
AcDbEntity
  8
7
100
AcDbLine
 10
1.811023622047244
 20
6.374015748031495
 30
0.0
 11
1.811023622047244
 21
6.320866141732283
 31
0.0
  0
LINE
  5
30B0
330
1E
100
AcDbEntity
  8
7
100
AcDbLine
 10
1.798228346456693
 20
6.319881889763778
 30
0.0
 11
1.798228346456693
 21
6.374015748031495
 31
0.0
  0
LINE
  5
30B1
330
1E
100
AcDbEntity
  8
7
100
AcDbLine
 10
1.811023622047244
 20
6.320866141732283
 30
0.0
 11
1.802165354330708
 21
6.319881889763778
 31
0.0
  0
LINE
  5
30B2
330
1E
100
AcDbEntity
  8
7
100
AcDbLine
 10
1.802165354330708
 20
6.319881889763778
 30
0.0
 11
1.798228346456693
 21
6.319881889763778
 31
0.0
  0
LINE
  5
30B8
330
1E
100
AcDbEntity
  8
7
100
AcDbLine
 10
1.798228346456693
 20
6.319881889763778
 30
0.0
 11
1.798228346456693
 21
6.3001968503937
 31
0.0
  0
LINE
  5
30BF
330
1E
100
AcDbEntity
  8
7
100
AcDbLine
 10
1.984251968503937
 20
6.320866141732283
 30
0.0
 11
1.811023622047244
 21
6.320866141732283
 31
0.0
  0
LINE
  5
30C0
330
1E
100
AcDbEntity
  8
7
100
AcDbLine
 10
1.997047244094487
 20
6.3001968503937
 30
0.0
 11
1.798228346456693
 21
6.3001968503937
 31
0.0
  0
LINE
  5
30C1
330
1E
100
AcDbEntity
  8
7
100
AcDbLine
 10
1.997047244094487
 20
6.288385826771652
 30
0.0
 11
1.798228346456693
 21
6.288385826771652
 31
0.0
  0
LINE
  5
30C8
330
1E
100
AcDbEntity
  8
7
100
AcDbLine
 10
2.099409448818897
 20
6.374015748031495
 30
0.0
 11
2.099409448818897
 21
6.273622047244094
 31
0.0
  0
LINE
  5
30CE
330
1E
100
AcDbEntity
  8
7
100
AcDbLine
 10
2.077755905511811
 20
6.374015748031495
 30
0.0
 11
2.077755905511811
 21
6.273622047244094
 31
0.0
  0
LINE
  5
30CF
330
1E
100
AcDbEntity
  8
7
100
AcDbLine
 10
2.078740157480314
 20
6.273622047244094
 30
0.0
 11
2.079724409448818
 21
6.273622047244094
 31
0.0
  0
LINE
  5
30D0
330
1E
100
AcDbEntity
  8
7
100
AcDbLine
 10
2.077755905511811
 20
6.374015748031495
 30
0.0
 11
2.079724409448818
 21
6.374015748031495
 31
0.0
  0
LINE
  5
30D1
330
1E
100
AcDbEntity
  8
7
100
AcDbLine
 10
2.145669291338582
 20
6.374015748031495
 30
0.0
 11
2.145669291338582
 21
6.273622047244094
 31
0.0
  0
LINE
  5
30D2
330
1E
100
AcDbEntity
  8
7
100
AcDbLine
 10
2.146653543307086
 20
6.273622047244094
 30
0.0
 11
2.145669291338582
 21
6.273622047244094
 31
0.0
  0
LINE
  5
30D3
330
1E
100
AcDbEntity
  8
7
100
AcDbLine
 10
2.14763779527559
 20
6.374015748031495
 30
0.0
 11
2.145669291338582
 21
6.374015748031495
 31
0.0
  0
LINE
  5
30DF
330
1E
100
AcDbEntity
  8
7
100
AcDbLine
 10
2.125984251968503
 20
6.273622047244094
 30
0.0
 11
2.099409448818897
 21
6.273622047244094
 31
0.0
  0
LINE
  5
30E0
330
1E
100
AcDbEntity
  8
7
100
AcDbLine
 10
2.125984251968503
 20
6.374015748031495
 30
0.0
 11
2.099409448818897
 21
6.374015748031495
 31
0.0
  0
LINE
  5
30E1
330
1E
100
AcDbEntity
  8
7
100
AcDbLine
 10
1.796259842519685
 20
6.273622047244094
 30
0.0
 11
1.997047244094487
 21
6.273622047244094
 31
0.0
  0
LINE
  5
30E2
330
1E
100
AcDbEntity
  8
7
100
AcDbLine
 10
2.077755905511811
 20
6.374015748031495
 30
0.0
 11
2.075787401574803
 21
6.374015748031495
 31
0.0
  0
LINE
  5
30E3
330
1E
100
AcDbEntity
  8
7
100
AcDbLine
 10
1.798228346456693
 20
6.374015748031495
 30
0.0
 11
1.796259842519685
 21
6.374015748031495
 31
0.0
  0
LINE
  5
30EA
330
1E
100
AcDbEntity
  8
7
100
AcDbLine
 10
1.669291338582677
 20
6.374015748031495
 30
0.0
 11
1.669291338582677
 21
6.273622047244094
 31
0.0
  0
LINE
  5
30EB
330
1E
100
AcDbEntity
  8
7
100
AcDbLine
 10
1.649606299212598
 20
6.374015748031495
 30
0.0
 11
1.655511811023622
 21
6.374015748031495
 31
0.0
  0
LINE
  5
30EC
330
1E
100
AcDbEntity
  8
7
100
AcDbLine
 10
1.655511811023622
 20
6.374015748031495
 30
0.0
 11
1.669291338582677
 21
6.374015748031495
 31
0.0
  0
LINE
  5
30ED
330
1E
100
AcDbEntity
  8
7
100
AcDbLine
 10
1.648622047244094
 20
6.273622047244094
 30
0.0
 11
1.649606299212598
 21
6.273622047244094
 31
0.0
  0
LINE
  5
30EE
330
1E
100
AcDbEntity
  8
7
100
AcDbLine
 10
1.64763779527559
 20
6.374015748031495
 30
0.0
 11
1.649606299212598
 21
6.374015748031495
 31
0.0
  0
LINE
  5
30EF
330
1E
100
AcDbEntity
  8
7
100
AcDbLine
 10
1.715551181102362
 20
6.374015748031495
 30
0.0
 11
1.715551181102362
 21
6.273622047244094
 31
0.0
  0
LINE
  5
30F0
330
1E
100
AcDbEntity
  8
7
100
AcDbLine
 10
1.716535433070866
 20
6.273622047244094
 30
0.0
 11
1.715551181102362
 21
6.273622047244094
 31
0.0
  0
LINE
  5
30F1
330
1E
100
AcDbEntity
  8
7
100
AcDbLine
 10
1.717519685039369
 20
6.374015748031495
 30
0.0
 11
1.715551181102362
 21
6.374015748031495
 31
0.0
  0
LINE
  5
30FD
330
1E
100
AcDbEntity
  8
7
100
AcDbLine
 10
1.695866141732283
 20
6.273622047244094
 30
0.0
 11
1.669291338582677
 21
6.273622047244094
 31
0.0
  0
LINE
  5
30FE
330
1E
100
AcDbEntity
  8
7
100
AcDbLine
 10
1.695866141732283
 20
6.374015748031495
 30
0.0
 11
1.669291338582677
 21
6.374015748031495
 31
0.0
  0
LINE
  5
30FF
330
1E
100
AcDbEntity
  8
7
100
AcDbLine
 10
1.597440944881889
 20
6.474409448818897
 30
0.0
 11
1.623031496062992
 21
6.474409448818897
 31
0.0
  0
LINE
  5
3100
330
1E
100
AcDbEntity
  8
7
100
AcDbLine
 10
2.172244094488188
 20
6.474409448818897
 30
0.0
 11
2.197834645669291
 21
6.474409448818897
 31
0.0
  0
LINE
  5
3101
330
1E
100
AcDbEntity
  8
7
100
AcDbLine
 10
3.816929133858268
 20
4.43011811023622
 30
0.0
 11
3.816929133858268
 21
4.470472440944881
 31
0.0
  0
LINE
  5
3102
330
1E
100
AcDbEntity
  8
7
100
AcDbLine
 10
3.816929133858268
 20
4.519685039370078
 30
0.0
 11
3.816929133858268
 21
4.421259842519684
 31
0.0
  0
LINE
  5
310E
330
1E
100
AcDbEntity
  8
7
100
AcDbLine
 10
3.816929133858268
 20
4.519685039370078
 30
0.0
 11
3.816929133858268
 21
4.421259842519684
 31
0.0
  0
LINE
  5
3114
330
1E
100
AcDbEntity
  8
7
100
AcDbLine
 10
3.816929133858268
 20
4.480314960629921
 30
0.0
 11
3.816929133858268
 21
4.471456692913385
 31
0.0
  0
LINE
  5
3115
330
1E
100
AcDbEntity
  8
7
100
AcDbLine
 10
3.816929133858268
 20
4.43011811023622
 30
0.0
 11
3.816929133858268
 21
4.421259842519684
 31
0.0
  0
LINE
  5
3116
330
1E
100
AcDbEntity
  8
7
100
AcDbLine
 10
3.816929133858268
 20
4.519685039370078
 30
0.0
 11
3.816929133858268
 21
4.5
 31
0.0
  0
LINE
  5
3117
330
1E
100
AcDbEntity
  8
7
100
AcDbLine
 10
3.816929133858268
 20
4.519685039370078
 30
0.0
 11
3.816929133858268
 21
4.421259842519684
 31
0.0
  0
LINE
  5
3118
330
1E
100
AcDbEntity
  8
7
100
AcDbLine
 10
3.816929133858268
 20
4.471456692913385
 30
0.0
 11
3.816929133858268
 21
4.519685039370078
 31
0.0
  0
LINE
  5
3119
330
1E
100
AcDbEntity
  8
7
100
AcDbLine
 10
3.816929133858268
 20
4.421259842519684
 30
0.0
 11
3.816929133858268
 21
4.519685039370078
 31
0.0
  0
LINE
  5
311A
330
1E
100
AcDbEntity
  8
7
100
AcDbLine
 10
3.816929133858268
 20
4.421259842519684
 30
0.0
 11
3.816929133858268
 21
4.519685039370078
 31
0.0
  0
LINE
  5
311B
330
1E
100
AcDbEntity
  8
7
100
AcDbLine
 10
3.816929133858268
 20
4.421259842519684
 30
0.0
 11
3.816929133858268
 21
4.519685039370078
 31
0.0
  0
LINE
  5
311C
330
1E
100
AcDbEntity
  8
7
100
AcDbLine
 10
3.816929133858268
 20
4.470472440944881
 30
0.0
 11
3.816929133858268
 21
4.480314960629921
 31
0.0
  0
LINE
  5
311D
330
1E
100
AcDbEntity
  8
7
100
AcDbLine
 10
3.816929133858268
 20
4.5
 30
0.0
 11
3.816929133858268
 21
4.519685039370078
 31
0.0
  0
LINE
  5
311E
330
1E
100
AcDbEntity
  8
7
100
AcDbLine
 10
3.816929133858268
 20
4.440944881889762
 30
0.0
 11
3.816929133858268
 21
4.5
 31
0.0
  0
LINE
  5
311F
330
1E
100
AcDbEntity
  8
7
100
AcDbLine
 10
3.816929133858268
 20
4.421259842519684
 30
0.0
 11
3.816929133858268
 21
4.43011811023622
 31
0.0
  0
LINE
  5
3128
330
1E
100
AcDbEntity
  8
7
100
AcDbLine
 10
4.534448818897637
 20
3.83759842519685
 30
0.0
 11
4.596456692913385
 21
3.775590551181102
 31
0.0
  0
LINE
  5
3129
330
1E
100
AcDbEntity
  8
7
100
AcDbLine
 10
4.534448818897637
 20
3.83759842519685
 30
0.0
 11
4.513779527559055
 21
3.853346456692913
 31
0.0
  0
LINE
  5
312A
330
1E
100
AcDbEntity
  8
7
100
AcDbLine
 10
4.513779527559055
 20
3.853346456692913
 30
0.0
 11
4.490157480314961
 21
3.863188976377953
 31
0.0
  0
LINE
  5
312B
330
1E
100
AcDbEntity
  8
7
100
AcDbLine
 10
4.251968503937007
 20
3.763779527559055
 30
0.0
 11
4.321850393700787
 21
3.765748031496063
 31
0.0
  0
LINE
  5
3131
330
1E
100
AcDbEntity
  8
7
100
AcDbLine
 10
3.940944881889763
 20
3.691929133858268
 30
0.0
 11
3.940944881889763
 21
3.698818897637795
 31
0.0
  0
LINE
  5
3132
330
1E
100
AcDbEntity
  8
7
100
AcDbLine
 10
3.940944881889763
 20
4.578740157480314
 30
0.0
 11
3.940944881889763
 21
4.585629921259842
 31
0.0
  0
LINE
  5
3133
330
1E
100
AcDbEntity
  8
7
100
AcDbLine
 10
4.251968503937007
 20
4.586614173228346
 30
0.0
 11
4.251968503937007
 21
4.580708661417322
 31
0.0
  0
LINE
  5
3134
330
1E
100
AcDbEntity
  8
7
100
AcDbLine
 10
4.251968503937007
 20
4.580708661417322
 30
0.0
 11
4.251968503937007
 21
4.566929133858267
 31
0.0
  0
LINE
  5
3135
330
1E
100
AcDbEntity
  8
7
100
AcDbLine
 10
4.251968503937007
 20
4.5501968503937
 30
0.0
 11
4.251968503937007
 21
4.566929133858267
 31
0.0
  0
LINE
  5
313D
330
1E
100
AcDbEntity
  8
7
100
AcDbLine
 10
4.251968503937007
 20
4.318897637795275
 30
0.0
 11
4.251968503937007
 21
4.49015748031496
 31
0.0
  0
LINE
  5
3151
330
1E
100
AcDbEntity
  8
7
100
AcDbLine
 10
4.251968503937007
 20
3.787401574803149
 30
0.0
 11
4.251968503937007
 21
3.959645669291338
 31
0.0
  0
LINE
  5
3159
330
1E
100
AcDbEntity
  8
7
100
AcDbLine
 10
4.251968503937007
 20
3.710629921259843
 30
0.0
 11
4.251968503937007
 21
3.727362204724409
 31
0.0
  0
LINE
  5
3166
330
1E
100
AcDbEntity
  8
7
100
AcDbLine
 10
3.974409448818897
 20
4.426181102362204
 30
0.0
 11
3.974409448818897
 21
4.431102362204724
 31
0.0
  0
LINE
  5
3172
330
1E
100
AcDbEntity
  8
7
100
AcDbLine
 10
3.974409448818897
 20
3.851377952755905
 30
0.0
 11
3.974409448818897
 21
4.426181102362204
 31
0.0
  0
LINE
  5
3178
330
1E
100
AcDbEntity
  8
7
100
AcDbLine
 10
3.994094488188976
 20
4.426181102362204
 30
0.0
 11
3.994094488188976
 21
3.851377952755905
 31
0.0
  0
LINE
  5
3179
330
1E
100
AcDbEntity
  8
7
100
AcDbLine
 10
3.974409448818897
 20
3.846456692913385
 30
0.0
 11
3.974409448818897
 21
3.851377952755905
 31
0.0
  0
LINE
  5
318B
330
1E
100
AcDbEntity
  8
7
100
AcDbLine
 10
4.165354330708661
 20
3.931102362204724
 30
0.0
 11
4.168307086614174
 21
3.931102362204724
 31
0.0
  0
LINE
  5
3191
330
1E
100
AcDbEntity
  8
7
100
AcDbLine
 10
4.163385826771653
 20
3.824803149606299
 30
0.0
 11
4.163385826771653
 21
3.921259842519684
 31
0.0
  0
LINE
  5
3197
330
1E
100
AcDbEntity
  8
7
100
AcDbLine
 10
4.168307086614174
 20
3.814960629921259
 30
0.0
 11
4.165354330708661
 21
3.813976377952755
 31
0.0
  0
LINE
  5
319E
330
1E
100
AcDbEntity
  8
7
100
AcDbLine
 10
4.165354330708661
 20
4.463582677165353
 30
0.0
 11
4.168307086614174
 21
4.463582677165353
 31
0.0
  0
LINE
  5
319F
330
1E
100
AcDbEntity
  8
7
100
AcDbLine
 10
4.165354330708661
 20
4.463582677165353
 30
0.0
 11
4.163385826771653
 21
4.460629921259842
 31
0.0
  0
LINE
  5
31A0
330
1E
100
AcDbEntity
  8
7
100
AcDbLine
 10
4.163385826771653
 20
4.460629921259842
 30
0.0
 11
4.163385826771653
 21
4.453740157480314
 31
0.0
  0
LINE
  5
31A1
330
1E
100
AcDbEntity
  8
7
100
AcDbLine
 10
4.163385826771653
 20
4.356299212598425
 30
0.0
 11
4.163385826771653
 21
4.453740157480314
 31
0.0
  0
LINE
  5
31A7
330
1E
100
AcDbEntity
  8
7
100
AcDbLine
 10
4.168307086614174
 20
4.346456692913385
 30
0.0
 11
4.165354330708661
 21
4.346456692913385
 31
0.0
  0
LINE
  5
31A8
330
1E
100
AcDbEntity
  8
7
100
AcDbLine
 10
4.073818897637794
 20
4.280511811023621
 30
0.0
 11
4.073818897637794
 21
3.997047244094488
 31
0.0
  0
LINE
  5
31A9
330
1E
100
AcDbEntity
  8
7
100
AcDbLine
 10
3.994094488188976
 20
4.451771653543306
 30
0.0
 11
4.131889763779527
 21
4.453740157480314
 31
0.0
  0
LINE
  5
31AA
330
1E
100
AcDbEntity
  8
7
100
AcDbLine
 10
4.131889763779527
 20
4.429133858267715
 30
0.0
 11
3.994094488188976
 21
4.426181102362204
 31
0.0
  0
LINE
  5
31AB
330
1E
100
AcDbEntity
  8
7
100
AcDbLine
 10
4.131889763779527
 20
4.463582677165353
 30
0.0
 11
4.165354330708661
 21
4.463582677165353
 31
0.0
  0
LINE
  5
31B7
330
1E
100
AcDbEntity
  8
7
100
AcDbLine
 10
4.131889763779527
 20
4.345472440944881
 30
0.0
 11
4.131889763779527
 21
4.348425196850393
 31
0.0
  0
LINE
  5
31B8
330
1E
100
AcDbEntity
  8
7
100
AcDbLine
 10
4.131889763779527
 20
4.348425196850393
 30
0.0
 11
4.131889763779527
 21
4.356299212598425
 31
0.0
  0
LINE
  5
31B9
330
1E
100
AcDbEntity
  8
7
100
AcDbLine
 10
4.165354330708661
 20
4.346456692913385
 30
0.0
 11
4.131889763779527
 21
4.345472440944881
 31
0.0
  0
LINE
  5
31BA
330
1E
100
AcDbEntity
  8
7
100
AcDbLine
 10
4.131889763779527
 20
3.932086614173228
 30
0.0
 11
4.165354330708661
 21
3.931102362204724
 31
0.0
  0
LINE
  5
31CB
330
1E
100
AcDbEntity
  8
7
100
AcDbLine
 10
4.165354330708661
 20
3.813976377952755
 30
0.0
 11
4.131889763779527
 21
3.813976377952755
 31
0.0
  0
LINE
  5
31CC
330
1E
100
AcDbEntity
  8
7
100
AcDbLine
 10
3.994094488188976
 20
3.851377952755905
 30
0.0
 11
4.131889763779527
 21
3.848425196850394
 31
0.0
  0
LINE
  5
31CD
330
1E
100
AcDbEntity
  8
7
100
AcDbLine
 10
4.131889763779527
 20
3.823818897637795
 30
0.0
 11
3.994094488188976
 21
3.825787401574803
 31
0.0
  0
LINE
  5
31CE
330
1E
100
AcDbEntity
  8
7
100
AcDbLine
 10
4.073818897637794
 20
3.997047244094488
 30
0.0
 11
4.131889763779527
 21
3.996062992125984
 31
0.0
  0
LINE
  5
31CF
330
1E
100
AcDbEntity
  8
7
100
AcDbLine
 10
4.131889763779527
 20
4.281496062992125
 30
0.0
 11
4.073818897637794
 21
4.280511811023621
 31
0.0
  0
LINE
  5
31D8
330
1E
100
AcDbEntity
  8
7
100
AcDbLine
 10
4.131889763779527
 20
3.941929133858268
 30
0.0
 11
4.177165354330709
 21
3.940944881889763
 31
0.0
  0
LINE
  5
31E3
330
1E
100
AcDbEntity
  8
7
100
AcDbLine
 10
4.177165354330709
 20
3.80511811023622
 30
0.0
 11
4.131889763779527
 21
3.804133858267716
 31
0.0
  0
LINE
  5
31F4
330
1E
100
AcDbEntity
  8
7
100
AcDbLine
 10
4.131889763779527
 20
4.473425196850393
 30
0.0
 11
4.177165354330709
 21
4.473425196850393
 31
0.0
  0
LINE
  5
31FF
330
1E
100
AcDbEntity
  8
7
100
AcDbLine
 10
4.177165354330709
 20
4.336614173228346
 30
0.0
 11
4.131889763779527
 21
4.335629921259842
 31
0.0
  0
LINE
  5
320F
330
1E
100
AcDbEntity
  8
7
100
AcDbLine
 10
4.131889763779527
 20
3.804133858267716
 30
0.0
 11
4.131889763779527
 21
3.785433070866142
 31
0.0
  0
LINE
  5
3210
330
1E
100
AcDbEntity
  8
7
100
AcDbLine
 10
4.131889763779527
 20
3.961614173228346
 30
0.0
 11
4.131889763779527
 21
3.941929133858268
 31
0.0
  0
LINE
  5
3224
330
1E
100
AcDbEntity
  8
7
100
AcDbLine
 10
4.131889763779527
 20
4.335629921259842
 30
0.0
 11
4.131889763779527
 21
4.315944881889762
 31
0.0
  0
LINE
  5
3225
330
1E
100
AcDbEntity
  8
7
100
AcDbLine
 10
4.131889763779527
 20
4.492125984251968
 30
0.0
 11
4.131889763779527
 21
4.473425196850393
 31
0.0
  0
LINE
  5
3233
330
1E
100
AcDbEntity
  8
7
100
AcDbLine
 10
4.131889763779527
 20
4.568897637795275
 30
0.0
 11
3.974409448818897
 21
4.565944881889762
 31
0.0
  0
LINE
  5
3239
330
1E
100
AcDbEntity
  8
7
100
AcDbLine
 10
3.940944881889763
 20
4.585629921259842
 30
0.0
 11
4.131889763779527
 21
4.588582677165353
 31
0.0
  0
LINE
  5
323A
330
1E
100
AcDbEntity
  8
7
100
AcDbLine
 10
3.974409448818897
 20
4.565944881889762
 30
0.0
 11
3.974409448818897
 21
4.431102362204724
 31
0.0
  0
LINE
  5
323B
330
1E
100
AcDbEntity
  8
7
100
AcDbLine
 10
4.131889763779527
 20
4.568897637795275
 30
0.0
 11
4.131889763779527
 21
4.552165354330708
 31
0.0
  0
LINE
  5
3241
330
1E
100
AcDbEntity
  8
7
100
AcDbLine
 10
4.131889763779527
 20
3.725393700787401
 30
0.0
 11
4.131889763779527
 21
3.708661417322834
 31
0.0
  0
LINE
  5
324E
330
1E
100
AcDbEntity
  8
7
100
AcDbLine
 10
4.251968503937007
 20
3.727362204724409
 30
0.0
 11
4.131889763779527
 21
3.725393700787401
 31
0.0
  0
LINE
  5
324F
330
1E
100
AcDbEntity
  8
7
100
AcDbLine
 10
4.131889763779527
 20
3.785433070866142
 30
0.0
 11
4.251968503937007
 21
3.787401574803149
 31
0.0
  0
LINE
  5
3250
330
1E
100
AcDbEntity
  8
7
100
AcDbLine
 10
4.177165354330709
 20
3.940944881889763
 30
0.0
 11
4.177165354330709
 21
3.80511811023622
 31
0.0
  0
LINE
  5
3251
330
1E
100
AcDbEntity
  8
7
100
AcDbLine
 10
4.251968503937007
 20
3.959645669291338
 30
0.0
 11
4.131889763779527
 21
3.961614173228346
 31
0.0
  0
LINE
  5
3252
330
1E
100
AcDbEntity
  8
7
100
AcDbLine
 10
4.131889763779527
 20
3.991141732283464
 30
0.0
 11
4.251968503937007
 21
3.989173228346457
 31
0.0
  0
LINE
  5
3253
330
1E
100
AcDbEntity
  8
7
100
AcDbLine
 10
4.131889763779527
 20
4.021653543307086
 30
0.0
 11
4.251968503937007
 21
4.019685039370078
 31
0.0
  0
LINE
  5
3254
330
1E
100
AcDbEntity
  8
7
100
AcDbLine
 10
4.251968503937007
 20
4.258858267716535
 30
0.0
 11
4.131889763779527
 21
4.255905511811023
 31
0.0
  0
LINE
  5
3255
330
1E
100
AcDbEntity
  8
7
100
AcDbLine
 10
4.251968503937007
 20
4.288385826771652
 30
0.0
 11
4.131889763779527
 21
4.286417322834645
 31
0.0
  0
LINE
  5
3256
330
1E
100
AcDbEntity
  8
7
100
AcDbLine
 10
4.131889763779527
 20
4.315944881889762
 30
0.0
 11
4.251968503937007
 21
4.318897637795275
 31
0.0
  0
LINE
  5
3257
330
1E
100
AcDbEntity
  8
7
100
AcDbLine
 10
4.177165354330709
 20
4.473425196850393
 30
0.0
 11
4.177165354330709
 21
4.336614173228346
 31
0.0
  0
LINE
  5
3258
330
1E
100
AcDbEntity
  8
7
100
AcDbLine
 10
4.251968503937007
 20
4.49015748031496
 30
0.0
 11
4.131889763779527
 21
4.492125984251968
 31
0.0
  0
LINE
  5
3259
330
1E
100
AcDbEntity
  8
7
100
AcDbLine
 10
4.131889763779527
 20
4.552165354330708
 30
0.0
 11
4.251968503937007
 21
4.5501968503937
 31
0.0
  0
LINE
  5
325A
330
1E
100
AcDbEntity
  8
7
100
AcDbLine
 10
4.251968503937007
 20
4.566929133858267
 30
0.0
 11
4.131889763779527
 21
4.568897637795275
 31
0.0
  0
LINE
  5
325B
330
1E
100
AcDbEntity
  8
7
100
AcDbLine
 10
4.131889763779527
 20
4.588582677165353
 30
0.0
 11
4.251968503937007
 21
4.586614173228346
 31
0.0
  0
LINE
  5
325C
330
1E
100
AcDbEntity
  8
7
100
AcDbLine
 10
3.974409448818897
 20
3.89271653543307
 30
0.0
 11
3.940944881889763
 21
3.893700787401574
 31
0.0
  0
LINE
  5
325D
330
1E
100
AcDbEntity
  8
7
100
AcDbLine
 10
3.974409448818897
 20
3.99015748031496
 30
0.0
 11
3.940944881889763
 21
3.989173228346457
 31
0.0
  0
LINE
  5
325E
330
1E
100
AcDbEntity
  8
7
100
AcDbLine
 10
3.974409448818897
 20
4.287401574803149
 30
0.0
 11
3.940944881889763
 21
4.288385826771652
 31
0.0
  0
LINE
  5
325F
330
1E
100
AcDbEntity
  8
7
100
AcDbLine
 10
3.974409448818897
 20
4.384842519685038
 30
0.0
 11
3.940944881889763
 21
4.383858267716535
 31
0.0
  0
LINE
  5
3260
330
1E
100
AcDbEntity
  8
7
100
AcDbLine
 10
4.716535433070866
 20
3.721456692913385
 30
0.0
 11
4.716535433070866
 21
3.742125984251968
 31
0.0
  0
LINE
  5
326B
330
1E
100
AcDbEntity
  8
7
100
AcDbLine
 10
3.940944881889763
 20
3.989173228346457
 30
0.0
 11
3.940944881889763
 21
4.288385826771652
 31
0.0
  0
LINE
  5
326C
330
1E
100
AcDbEntity
  8
7
100
AcDbLine
 10
3.940944881889763
 20
3.71259842519685
 30
0.0
 11
3.940944881889763
 21
3.893700787401574
 31
0.0
  0
LINE
  5
3277
330
1E
100
AcDbEntity
  8
7
100
AcDbLine
 10
3.940944881889763
 20
4.383858267716535
 30
0.0
 11
3.940944881889763
 21
4.565944881889762
 31
0.0
  0
LINE
  5
3287
330
1E
100
AcDbEntity
  8
7
100
AcDbLine
 10
3.816929133858268
 20
4.563976377952755
 30
0.0
 11
3.816929133858268
 21
4.568897637795275
 31
0.0
  0
LINE
  5
3292
330
1E
100
AcDbEntity
  8
7
100
AcDbLine
 10
3.816929133858268
 20
3.714566929133858
 30
0.0
 11
3.820866141732283
 21
3.714566929133858
 31
0.0
  0
LINE
  5
3293
330
1E
100
AcDbEntity
  8
7
100
AcDbLine
 10
3.820866141732283
 20
3.714566929133858
 30
0.0
 11
3.831692913385826
 21
3.714566929133858
 31
0.0
  0
LINE
  5
329E
330
1E
100
AcDbEntity
  8
7
100
AcDbLine
 10
3.940944881889763
 20
3.893700787401574
 30
0.0
 11
3.974409448818897
 21
3.895669291338582
 31
0.0
  0
LINE
  5
329F
330
1E
100
AcDbEntity
  8
7
100
AcDbLine
 10
3.940944881889763
 20
3.989173228346457
 30
0.0
 11
3.974409448818897
 21
3.988188976377953
 31
0.0
  0
LINE
  5
32A0
330
1E
100
AcDbEntity
  8
7
100
AcDbLine
 10
3.940944881889763
 20
4.288385826771652
 30
0.0
 11
3.974409448818897
 21
4.289370078740157
 31
0.0
  0
LINE
  5
32A1
330
1E
100
AcDbEntity
  8
7
100
AcDbLine
 10
3.940944881889763
 20
4.383858267716535
 30
0.0
 11
3.974409448818897
 21
4.382874015748031
 31
0.0
  0
LINE
  5
32A2
330
1E
100
AcDbEntity
  8
7
100
AcDbLine
 10
3.940944881889763
 20
4.565944881889762
 30
0.0
 11
3.831692913385826
 21
4.563976377952755
 31
0.0
  0
LINE
  5
32A3
330
1E
100
AcDbEntity
  8
7
100
AcDbLine
 10
3.940944881889763
 20
3.691929133858268
 30
0.0
 11
3.831692913385826
 21
3.693897637795275
 31
0.0
  0
LINE
  5
32A4
330
1E
100
AcDbEntity
  8
7
100
AcDbLine
 10
3.831692913385826
 20
4.583661417322834
 30
0.0
 11
3.940944881889763
 21
4.585629921259842
 31
0.0
  0
LINE
  5
32A5
330
1E
100
AcDbEntity
  8
7
100
AcDbLine
 10
3.797244094488189
 20
3.836614173228346
 30
0.0
 11
3.816929133858268
 21
3.836614173228346
 31
0.0
  0
LINE
  5
32A6
330
1E
100
AcDbEntity
  8
7
100
AcDbLine
 10
3.816929133858268
 20
3.792322834645668
 30
0.0
 11
3.797244094488189
 21
3.792322834645668
 31
0.0
  0
LINE
  5
32A7
330
1E
100
AcDbEntity
  8
7
100
AcDbLine
 10
3.787401574803149
 20
3.802165354330708
 30
0.0
 11
3.787401574803149
 21
3.826771653543307
 31
0.0
  0
LINE
  5
32CC
330
1E
100
AcDbEntity
  8
7
100
AcDbLine
 10
4.490157480314961
 20
3.762795275590551
 30
0.0
 11
4.251968503937007
 21
3.766732283464567
 31
0.0
  0
LINE
  5
32CD
330
1E
100
AcDbEntity
  8
7
100
AcDbLine
 10
4.490157480314961
 20
3.76771653543307
 30
0.0
 11
4.490157480314961
 21
3.762795275590551
 31
0.0
  0
LINE
  5
32D3
330
1E
100
AcDbEntity
  8
7
100
AcDbLine
 10
4.490157480314961
 20
4.482283464566928
 30
0.0
 11
4.490157480314961
 21
4.321850393700787
 31
0.0
  0
LINE
  5
32D4
330
1E
100
AcDbEntity
  8
7
100
AcDbLine
 10
4.490157480314961
 20
4.482283464566928
 30
0.0
 11
4.251968503937007
 21
4.482283464566928
 31
0.0
  0
LINE
  5
32D5
330
1E
100
AcDbEntity
  8
7
100
AcDbLine
 10
4.973425196850394
 20
4.482283464566928
 30
0.0
 11
4.490157480314961
 21
4.482283464566928
 31
0.0
  0
LINE
  5
32E2
330
1E
100
AcDbEntity
  8
7
100
AcDbLine
 10
4.656496062992125
 20
4.321850393700787
 30
0.0
 11
4.490157480314961
 21
4.321850393700787
 31
0.0
  0
LINE
  5
32E3
330
1E
100
AcDbEntity
  8
7
100
AcDbLine
 10
4.973425196850394
 20
4.321850393700787
 30
0.0
 11
4.973425196850394
 21
4.482283464566928
 31
0.0
  0
LINE
  5
32E4
330
1E
100
AcDbEntity
  8
7
100
AcDbLine
 10
5.013779527559055
 20
4.45767716535433
 30
0.0
 11
5.013779527559055
 21
4.321850393700787
 31
0.0
  0
LINE
  5
32EB
330
1E
100
AcDbEntity
  8
3
100
AcDbLine
 10
5.009842519685038
 20
4.321850393700787
 30
0.0
 11
5.010826771653542
 21
4.276574803149605
 31
0.0
  0
LINE
  5
32EC
330
1E
100
AcDbEntity
  8
3
100
AcDbLine
 10
4.98031496062992
 20
4.222440944881889
 30
0.0
 11
4.98031496062992
 21
4.276574803149605
 31
0.0
  0
LINE
  5
32ED
330
1E
100
AcDbEntity
  8
3
100
AcDbLine
 10
4.775590551181101
 20
4.276574803149605
 30
0.0
 11
4.98031496062992
 21
4.276574803149605
 31
0.0
  0
LINE
  5
32F3
330
1E
100
AcDbEntity
  8
3
100
AcDbLine
 10
4.98031496062992
 20
4.276574803149605
 30
0.0
 11
4.98031496062992
 21
4.321850393700787
 31
0.0
  0
LINE
  5
32F4
330
1E
100
AcDbEntity
  8
3
100
AcDbLine
 10
4.5
 20
4.222440944881889
 30
0.0
 11
4.5
 21
4.276574803149605
 31
0.0
  0
LINE
  5
32F5
330
1E
100
AcDbEntity
  8
3
100
AcDbLine
 10
4.5
 20
4.321850393700787
 30
0.0
 11
4.5
 21
4.276574803149605
 31
0.0
  0
LINE
  5
32F6
330
1E
100
AcDbEntity
  8
3
100
AcDbLine
 10
4.775590551181101
 20
4.222440944881889
 30
0.0
 11
4.775590551181101
 21
4.276574803149605
 31
0.0
  0
LINE
  5
32FC
330
1E
100
AcDbEntity
  8
3
100
AcDbLine
 10
4.774606299212598
 20
4.321850393700787
 30
0.0
 11
4.775590551181101
 21
4.276574803149605
 31
0.0
  0
LINE
  5
32FD
330
1E
100
AcDbEntity
  8
3
100
AcDbLine
 10
4.656496062992125
 20
4.321850393700787
 30
0.0
 11
4.774606299212598
 21
4.321850393700787
 31
0.0
  0
LINE
  5
3303
330
1E
100
AcDbEntity
  8
3
100
AcDbLine
 10
4.5
 20
4.276574803149605
 30
0.0
 11
4.655511811023622
 21
4.276574803149605
 31
0.0
  0
LINE
  5
3304
330
1E
100
AcDbEntity
  8
3
100
AcDbLine
 10
4.490157480314961
 20
4.276574803149605
 30
0.0
 11
4.5
 21
4.276574803149605
 31
0.0
  0
LINE
  5
3305
330
1E
100
AcDbEntity
  8
3
100
AcDbLine
 10
5.010826771653542
 20
4.276574803149605
 30
0.0
 11
5.010826771653542
 21
4.321850393700787
 31
0.0
  0
LINE
  5
3306
330
1E
100
AcDbEntity
  8
3
100
AcDbLine
 10
5.010826771653542
 20
4.276574803149605
 30
0.0
 11
5.009842519685038
 21
4.222440944881889
 31
0.0
  0
LINE
  5
3307
330
1E
100
AcDbEntity
  8
3
100
AcDbLine
 10
4.98031496062992
 20
4.276574803149605
 30
0.0
 11
4.996062992125983
 21
4.276574803149605
 31
0.0
  0
LINE
  5
331B
330
1E
100
AcDbEntity
  8
7
100
AcDbLine
 10
5.085629921259842
 20
4.036417322834645
 30
0.0
 11
5.085629921259842
 21
4.056102362204724
 31
0.0
  0
LINE
  5
331C
330
1E
100
AcDbEntity
  8
7
100
AcDbLine
 10
4.655511811023622
 20
4.222440944881889
 30
0.0
 11
4.5
 21
4.222440944881889
 31
0.0
  0
LINE
  5
331D
330
1E
100
AcDbEntity
  8
7
100
AcDbLine
 10
4.655511811023622
 20
4.222440944881889
 30
0.0
 11
4.775590551181101
 21
4.222440944881889
 31
0.0
  0
LINE
  5
3329
330
1E
100
AcDbEntity
  8
7
100
AcDbLine
 10
4.5
 20
4.222440944881889
 30
0.0
 11
4.5
 21
4.0501968503937
 31
0.0
  0
LINE
  5
332A
330
1E
100
AcDbEntity
  8
7
100
AcDbLine
 10
4.655511811023622
 20
4.062007874015747
 30
0.0
 11
4.775590551181101
 21
4.062007874015747
 31
0.0
  0
LINE
  5
332B
330
1E
100
AcDbEntity
  8
7
100
AcDbLine
 10
4.775590551181101
 20
4.222440944881889
 30
0.0
 11
4.775590551181101
 21
4.062007874015747
 31
0.0
  0
LINE
  5
3332
330
1E
100
AcDbEntity
  8
7
100
AcDbLine
 10
4.5
 20
4.0501968503937
 30
0.0
 11
4.655511811023622
 21
4.0501968503937
 31
0.0
  0
LINE
  5
3333
330
1E
100
AcDbEntity
  8
7
100
AcDbLine
 10
4.726377952755905
 20
4.019685039370078
 30
0.0
 11
4.505905511811024
 21
4.019685039370078
 31
0.0
  0
LINE
  5
3334
330
1E
100
AcDbEntity
  8
7
100
AcDbLine
 10
4.655511811023622
 20
4.038385826771652
 30
0.0
 11
4.726377952755905
 21
4.038385826771652
 31
0.0
  0
LINE
  5
3340
330
1E
100
AcDbEntity
  8
7
100
AcDbLine
 10
5.075787401574803
 20
4.025590551181101
 30
0.0
 11
4.726377952755905
 21
4.019685039370078
 31
0.0
  0
LINE
  5
374D
330
1E
100
AcDbEntity
  8
7
100
AcDbLine
 10
5.075787401574803
 20
4.025590551181101
 30
0.0
 11
5.076771653543307
 21
4.025590551181101
 31
0.0
  0
LINE
  5
374E
330
1E
100
AcDbEntity
  8
7
100
AcDbLine
 10
5.076771653543307
 20
4.025590551181101
 30
0.0
 11
5.081692913385825
 21
4.02755905511811
 31
0.0
  0
LINE
  5
374F
330
1E
100
AcDbEntity
  8
7
100
AcDbLine
 10
5.081692913385825
 20
4.02755905511811
 30
0.0
 11
5.085629921259842
 21
4.031496062992125
 31
0.0
  0
LINE
  5
3750
330
1E
100
AcDbEntity
  8
7
100
AcDbLine
 10
5.085629921259842
 20
4.031496062992125
 30
0.0
 11
5.085629921259842
 21
4.036417322834645
 31
0.0
  0
LINE
  5
3751
330
1E
100
AcDbEntity
  8
7
100
AcDbLine
 10
4.775590551181101
 20
4.062007874015747
 30
0.0
 11
4.775590551181101
 21
4.048228346456692
 31
0.0
  0
LINE
  5
3752
330
1E
100
AcDbEntity
  8
7
100
AcDbLine
 10
4.775590551181101
 20
4.048228346456692
 30
0.0
 11
4.775590551181101
 21
4.037401574803149
 31
0.0
  0
LINE
  5
3753
330
1E
100
AcDbEntity
  8
7
100
AcDbLine
 10
4.726377952755905
 20
4.019685039370078
 30
0.0
 11
4.726377952755905
 21
4.024606299212598
 31
0.0
  0
LINE
  5
3754
330
1E
100
AcDbEntity
  8
7
100
AcDbLine
 10
4.726377952755905
 20
4.024606299212598
 30
0.0
 11
4.726377952755905
 21
4.038385826771652
 31
0.0
  0
LINE
  5
3755
330
1E
100
AcDbEntity
  8
7
100
AcDbLine
 10
4.726377952755905
 20
4.038385826771652
 30
0.0
 11
4.775590551181101
 21
4.037401574803149
 31
0.0
  0
LINE
  5
3756
330
1E
100
AcDbEntity
  8
7
100
AcDbLine
 10
4.655511811023622
 20
4.222440944881889
 30
0.0
 11
4.655511811023622
 21
4.062007874015747
 31
0.0
  0
LINE
  5
3757
330
1E
100
AcDbEntity
  8
7
100
AcDbLine
 10
4.655511811023622
 20
4.062007874015747
 30
0.0
 11
4.655511811023622
 21
4.048228346456692
 31
0.0
  0
LINE
  5
3758
330
1E
100
AcDbEntity
  8
7
100
AcDbLine
 10
4.655511811023622
 20
4.048228346456692
 30
0.0
 11
4.655511811023622
 21
4.038385826771652
 31
0.0
  0
LINE
  5
3759
330
1E
100
AcDbEntity
  8
7
100
AcDbLine
 10
4.5
 20
4.019685039370078
 30
0.0
 11
4.501968503937007
 21
4.019685039370078
 31
0.0
  0
LINE
  5
375A
330
1E
100
AcDbEntity
  8
7
100
AcDbLine
 10
4.501968503937007
 20
4.019685039370078
 30
0.0
 11
4.505905511811024
 21
4.019685039370078
 31
0.0
  0
LINE
  5
375B
330
1E
100
AcDbEntity
  8
7
100
AcDbLine
 10
4.505905511811024
 20
4.019685039370078
 30
0.0
 11
4.503937007874014
 21
4.019685039370078
 31
0.0
  0
LINE
  5
375C
330
1E
100
AcDbEntity
  8
7
100
AcDbLine
 10
4.503937007874014
 20
4.019685039370078
 30
0.0
 11
4.501968503937007
 21
4.019685039370078
 31
0.0
  0
LINE
  5
375D
330
1E
100
AcDbEntity
  8
7
100
AcDbLine
 10
4.501968503937007
 20
4.019685039370078
 30
0.0
 11
4.500984251968503
 21
4.020669291338582
 31
0.0
  0
LINE
  5
375E
330
1E
100
AcDbEntity
  8
7
100
AcDbLine
 10
4.500984251968503
 20
4.020669291338582
 30
0.0
 11
4.5
 21
4.020669291338582
 31
0.0
  0
LINE
  5
375F
330
1E
100
AcDbEntity
  8
7
100
AcDbLine
 10
4.5
 20
4.020669291338582
 30
0.0
 11
4.5
 21
4.031496062992125
 31
0.0
  0
LINE
  5
3760
330
1E
100
AcDbEntity
  8
7
100
AcDbLine
 10
4.5
 20
4.031496062992125
 30
0.0
 11
4.5
 21
4.0501968503937
 31
0.0
  0
LINE
  5
3761
330
1E
100
AcDbEntity
  8
7
100
AcDbLine
 10
4.775590551181101
 20
4.051181102362204
 30
0.0
 11
5.085629921259842
 21
4.056102362204724
 31
0.0
  0
LINE
  5
3762
330
1E
100
AcDbEntity
  8
7
100
AcDbLine
 10
5.085629921259842
 20
4.056102362204724
 30
0.0
 11
5.085629921259842
 21
4.095472440944881
 31
0.0
  0
LINE
  5
3763
330
1E
100
AcDbEntity
  8
7
100
AcDbLine
 10
5.085629921259842
 20
4.095472440944881
 30
0.0
 11
5.026574803149605
 21
4.1003937007874
 31
0.0
  0
LINE
  5
3764
330
1E
100
AcDbEntity
  8
7
100
AcDbLine
 10
5.026574803149605
 20
4.1003937007874
 30
0.0
 11
5.026574803149605
 21
4.191929133858267
 31
0.0
  0
LINE
  5
3765
330
1E
100
AcDbEntity
  8
7
100
AcDbLine
 10
5.026574803149605
 20
4.191929133858267
 30
0.0
 11
5.021653543307087
 21
4.206692913385826
 31
0.0
  0
LINE
  5
3766
330
1E
100
AcDbEntity
  8
7
100
AcDbLine
 10
5.021653543307087
 20
4.206692913385826
 30
0.0
 11
5.010826771653542
 21
4.217519685039369
 31
0.0
  0
LINE
  5
3767
330
1E
100
AcDbEntity
  8
7
100
AcDbLine
 10
5.010826771653542
 20
4.217519685039369
 30
0.0
 11
4.996062992125983
 21
4.222440944881889
 31
0.0
  0
LINE
  5
3768
330
1E
100
AcDbEntity
  8
7
100
AcDbLine
 10
4.996062992125983
 20
4.222440944881889
 30
0.0
 11
4.775590551181101
 21
4.222440944881889
 31
0.0
  0
LINE
  5
3769
330
1E
100
AcDbEntity
  8
3
100
AcDbLine
 10
4.996062992125983
 20
4.276574803149605
 30
0.0
 11
5.006889763779527
 21
4.276574803149605
 31
0.0
  0
LINE
  5
376A
330
1E
100
AcDbEntity
  8
3
100
AcDbLine
 10
5.006889763779527
 20
4.276574803149605
 30
0.0
 11
5.010826771653542
 21
4.276574803149605
 31
0.0
  0
LINE
  5
376B
330
1E
100
AcDbEntity
  8
3
100
AcDbLine
 10
4.656496062992125
 20
4.321850393700787
 30
0.0
 11
4.655511811023622
 21
4.276574803149605
 31
0.0
  0
LINE
  5
376C
330
1E
100
AcDbEntity
  8
3
100
AcDbLine
 10
4.655511811023622
 20
4.276574803149605
 30
0.0
 11
4.664370078740157
 21
4.276574803149605
 31
0.0
  0
LINE
  5
376D
330
1E
100
AcDbEntity
  8
3
100
AcDbLine
 10
4.669291338582677
 20
4.222440944881889
 30
0.0
 11
4.664370078740157
 21
4.276574803149605
 31
0.0
  0
LINE
  5
376E
330
1E
100
AcDbEntity
  8
3
100
AcDbLine
 10
4.664370078740157
 20
4.276574803149605
 30
0.0
 11
4.775590551181101
 21
4.276574803149605
 31
0.0
  0
LINE
  5
376F
330
1E
100
AcDbEntity
  8
3
100
AcDbLine
 10
4.490157480314961
 20
4.199803149606299
 30
0.0
 11
4.490157480314961
 21
4.221456692913385
 31
0.0
  0
LINE
  5
3770
330
1E
100
AcDbEntity
  8
3
100
AcDbLine
 10
4.490157480314961
 20
4.221456692913385
 30
0.0
 11
4.5
 21
4.222440944881889
 31
0.0
  0
LINE
  5
3771
330
1E
100
AcDbEntity
  8
7
100
AcDbLine
 10
4.989173228346457
 20
4.482283464566928
 30
0.0
 11
5.001968503937007
 21
4.469488188976377
 31
0.0
  0
LINE
  5
3772
330
1E
100
AcDbEntity
  8
7
100
AcDbLine
 10
5.001968503937007
 20
4.469488188976377
 30
0.0
 11
5.010826771653542
 21
4.460629921259842
 31
0.0
  0
LINE
  5
3773
330
1E
100
AcDbEntity
  8
7
100
AcDbLine
 10
5.010826771653542
 20
4.460629921259842
 30
0.0
 11
5.013779527559055
 21
4.45767716535433
 31
0.0
  0
LINE
  5
3774
330
1E
100
AcDbEntity
  8
7
100
AcDbLine
 10
5.013779527559055
 20
4.321850393700787
 30
0.0
 11
5.008858267716535
 21
4.321850393700787
 31
0.0
  0
LINE
  5
3775
330
1E
100
AcDbEntity
  8
7
100
AcDbLine
 10
5.008858267716535
 20
4.321850393700787
 30
0.0
 11
4.994094488188975
 21
4.321850393700787
 31
0.0
  0
LINE
  5
3776
330
1E
100
AcDbEntity
  8
7
100
AcDbLine
 10
4.994094488188975
 20
4.321850393700787
 30
0.0
 11
4.973425196850394
 21
4.321850393700787
 31
0.0
  0
LINE
  5
3777
330
1E
100
AcDbEntity
  8
7
100
AcDbLine
 10
4.973425196850394
 20
4.321850393700787
 30
0.0
 11
4.774606299212598
 21
4.321850393700787
 31
0.0
  0
LINE
  5
3778
330
1E
100
AcDbEntity
  8
7
100
AcDbLine
 10
4.973425196850394
 20
4.482283464566928
 30
0.0
 11
4.981299212598425
 21
4.482283464566928
 31
0.0
  0
LINE
  5
3779
330
1E
100
AcDbEntity
  8
7
100
AcDbLine
 10
4.981299212598425
 20
4.482283464566928
 30
0.0
 11
4.989173228346457
 21
4.482283464566928
 31
0.0
  0
LINE
  5
377A
330
1E
100
AcDbEntity
  8
7
100
AcDbLine
 10
4.251968503937007
 20
3.771653543307086
 30
0.0
 11
4.490157480314961
 21
3.76771653543307
 31
0.0
  0
LINE
  5
377B
330
1E
100
AcDbEntity
  8
7
100
AcDbLine
 10
4.490157480314961
 20
3.76771653543307
 30
0.0
 11
4.490157480314961
 21
4.321850393700787
 31
0.0
  0
LINE
  5
377C
330
1E
100
AcDbEntity
  8
7
100
AcDbLine
 10
3.787401574803149
 20
3.802165354330708
 30
0.0
 11
3.790354330708661
 21
3.795275590551181
 31
0.0
  0
LINE
  5
377D
330
1E
100
AcDbEntity
  8
7
100
AcDbLine
 10
3.790354330708661
 20
3.795275590551181
 30
0.0
 11
3.797244094488189
 21
3.792322834645668
 31
0.0
  0
LINE
  5
377E
330
1E
100
AcDbEntity
  8
7
100
AcDbLine
 10
3.796259842519684
 20
3.802165354330708
 30
0.0
 11
3.789370078740157
 21
3.802165354330708
 31
0.0
  0
LINE
  5
377F
330
1E
100
AcDbEntity
  8
7
100
AcDbLine
 10
3.789370078740157
 20
3.802165354330708
 30
0.0
 11
3.787401574803149
 21
3.802165354330708
 31
0.0
  0
LINE
  5
3780
330
1E
100
AcDbEntity
  8
7
100
AcDbLine
 10
3.796259842519684
 20
3.826771653543307
 30
0.0
 11
3.789370078740157
 21
3.826771653543307
 31
0.0
  0
LINE
  5
3781
330
1E
100
AcDbEntity
  8
7
100
AcDbLine
 10
3.789370078740157
 20
3.826771653543307
 30
0.0
 11
3.787401574803149
 21
3.826771653543307
 31
0.0
  0
LINE
  5
3782
330
1E
100
AcDbEntity
  8
7
100
AcDbLine
 10
3.797244094488189
 20
3.836614173228346
 30
0.0
 11
3.790354330708661
 21
3.833661417322834
 31
0.0
  0
LINE
  5
3783
330
1E
100
AcDbEntity
  8
7
100
AcDbLine
 10
3.790354330708661
 20
3.833661417322834
 30
0.0
 11
3.787401574803149
 21
3.826771653543307
 31
0.0
  0
LINE
  5
3784
330
1E
100
AcDbEntity
  8
7
100
AcDbLine
 10
3.797244094488189
 20
3.836614173228346
 30
0.0
 11
3.796259842519684
 21
3.833661417322834
 31
0.0
  0
LINE
  5
3785
330
1E
100
AcDbEntity
  8
7
100
AcDbLine
 10
3.796259842519684
 20
3.833661417322834
 30
0.0
 11
3.796259842519684
 21
3.826771653543307
 31
0.0
  0
LINE
  5
3786
330
1E
100
AcDbEntity
  8
7
100
AcDbLine
 10
3.796259842519684
 20
3.802165354330708
 30
0.0
 11
3.796259842519684
 21
3.794291338582677
 31
0.0
  0
LINE
  5
3787
330
1E
100
AcDbEntity
  8
7
100
AcDbLine
 10
3.796259842519684
 20
3.794291338582677
 30
0.0
 11
3.797244094488189
 21
3.792322834645668
 31
0.0
  0
LINE
  5
3788
330
1E
100
AcDbEntity
  8
7
100
AcDbLine
 10
3.816929133858268
 20
3.826771653543307
 30
0.0
 11
3.796259842519684
 21
3.826771653543307
 31
0.0
  0
LINE
  5
3789
330
1E
100
AcDbEntity
  8
7
100
AcDbLine
 10
3.796259842519684
 20
3.826771653543307
 30
0.0
 11
3.796259842519684
 21
3.802165354330708
 31
0.0
  0
LINE
  5
378A
330
1E
100
AcDbEntity
  8
7
100
AcDbLine
 10
3.796259842519684
 20
3.802165354330708
 30
0.0
 11
3.816929133858268
 21
3.802165354330708
 31
0.0
  0
LINE
  5
378B
330
1E
100
AcDbEntity
  8
7
100
AcDbLine
 10
3.831692913385826
 20
4.563976377952755
 30
0.0
 11
3.831692913385826
 21
3.714566929133858
 31
0.0
  0
LINE
  5
378C
330
1E
100
AcDbEntity
  8
7
100
AcDbLine
 10
3.831692913385826
 20
3.714566929133858
 30
0.0
 11
3.940944881889763
 21
3.71259842519685
 31
0.0
  0
LINE
  5
378D
330
1E
100
AcDbEntity
  8
7
100
AcDbLine
 10
3.816929133858268
 20
3.708661417322834
 30
0.0
 11
3.816929133858268
 21
3.714566929133858
 31
0.0
  0
LINE
  5
378E
330
1E
100
AcDbEntity
  8
7
100
AcDbLine
 10
3.816929133858268
 20
3.714566929133858
 30
0.0
 11
3.816929133858268
 21
4.563976377952755
 31
0.0
  0
LINE
  5
378F
330
1E
100
AcDbEntity
  8
7
100
AcDbLine
 10
3.831692913385826
 20
3.714566929133858
 30
0.0
 11
3.831692913385826
 21
3.699803149606299
 31
0.0
  0
LINE
  5
3790
330
1E
100
AcDbEntity
  8
7
100
AcDbLine
 10
3.831692913385826
 20
3.699803149606299
 30
0.0
 11
3.831692913385826
 21
3.693897637795275
 31
0.0
  0
LINE
  5
3791
330
1E
100
AcDbEntity
  8
7
100
AcDbLine
 10
3.816929133858268
 20
3.708661417322834
 30
0.0
 11
3.820866141732283
 21
3.697834645669291
 31
0.0
  0
LINE
  5
3792
330
1E
100
AcDbEntity
  8
7
100
AcDbLine
 10
3.820866141732283
 20
3.697834645669291
 30
0.0
 11
3.831692913385826
 21
3.693897637795275
 31
0.0
  0
LINE
  5
3793
330
1E
100
AcDbEntity
  8
7
100
AcDbLine
 10
3.831692913385826
 20
4.583661417322834
 30
0.0
 11
3.831692913385826
 21
4.577755905511811
 31
0.0
  0
LINE
  5
3794
330
1E
100
AcDbEntity
  8
7
100
AcDbLine
 10
3.831692913385826
 20
4.577755905511811
 30
0.0
 11
3.831692913385826
 21
4.563976377952755
 31
0.0
  0
LINE
  5
3795
330
1E
100
AcDbEntity
  8
7
100
AcDbLine
 10
3.816929133858268
 20
4.563976377952755
 30
0.0
 11
3.820866141732283
 21
4.563976377952755
 31
0.0
  0
LINE
  5
3796
330
1E
100
AcDbEntity
  8
7
100
AcDbLine
 10
3.820866141732283
 20
4.563976377952755
 30
0.0
 11
3.831692913385826
 21
4.563976377952755
 31
0.0
  0
LINE
  5
3797
330
1E
100
AcDbEntity
  8
7
100
AcDbLine
 10
3.831692913385826
 20
4.583661417322834
 30
0.0
 11
3.820866141732283
 21
4.579724409448818
 31
0.0
  0
LINE
  5
3798
330
1E
100
AcDbEntity
  8
7
100
AcDbLine
 10
3.820866141732283
 20
4.579724409448818
 30
0.0
 11
3.816929133858268
 21
4.568897637795275
 31
0.0
  0
LINE
  5
3799
330
1E
100
AcDbEntity
  8
7
100
AcDbLine
 10
3.940944881889763
 20
4.565944881889762
 30
0.0
 11
3.940944881889763
 21
4.579724409448818
 31
0.0
  0
LINE
  5
379A
330
1E
100
AcDbEntity
  8
7
100
AcDbLine
 10
3.940944881889763
 20
4.579724409448818
 30
0.0
 11
3.940944881889763
 21
4.585629921259842
 31
0.0
  0
LINE
  5
379B
330
1E
100
AcDbEntity
  8
7
100
AcDbLine
 10
3.940944881889763
 20
3.691929133858268
 30
0.0
 11
3.940944881889763
 21
3.697834645669291
 31
0.0
  0
LINE
  5
379C
330
1E
100
AcDbEntity
  8
7
100
AcDbLine
 10
3.940944881889763
 20
3.697834645669291
 30
0.0
 11
3.940944881889763
 21
3.71259842519685
 31
0.0
  0
LINE
  5
379D
330
1E
100
AcDbEntity
  8
7
100
AcDbLine
 10
4.708661417322835
 20
3.708661417322834
 30
0.0
 11
4.714566929133857
 21
3.713582677165354
 31
0.0
  0
LINE
  5
379E
330
1E
100
AcDbEntity
  8
7
100
AcDbLine
 10
4.714566929133857
 20
3.713582677165354
 30
0.0
 11
4.716535433070866
 21
3.721456692913385
 31
0.0
  0
LINE
  5
379F
330
1E
100
AcDbEntity
  8
7
100
AcDbLine
 10
4.716535433070866
 20
3.742125984251968
 30
0.0
 11
4.714566929133857
 21
3.75
 31
0.0
  0
LINE
  5
37A0
330
1E
100
AcDbEntity
  8
7
100
AcDbLine
 10
4.714566929133857
 20
3.75
 30
0.0
 11
4.708661417322835
 21
3.754921259842519
 31
0.0
  0
LINE
  5
37A1
330
1E
100
AcDbEntity
  8
7
100
AcDbLine
 10
4.131889763779527
 20
3.688976377952756
 30
0.0
 11
4.131889763779527
 21
3.694881889763779
 31
0.0
  0
LINE
  5
37A2
330
1E
100
AcDbEntity
  8
7
100
AcDbLine
 10
4.131889763779527
 20
3.694881889763779
 30
0.0
 11
4.131889763779527
 21
3.708661417322834
 31
0.0
  0
LINE
  5
37A3
330
1E
100
AcDbEntity
  8
7
100
AcDbLine
 10
4.131889763779527
 20
3.708661417322834
 30
0.0
 11
4.251968503937007
 21
3.710629921259843
 31
0.0
  0
LINE
  5
37A4
330
1E
100
AcDbEntity
  8
7
100
AcDbLine
 10
3.940944881889763
 20
3.698818897637795
 30
0.0
 11
3.958661417322834
 21
3.702755905511811
 31
0.0
  0
LINE
  5
37A5
330
1E
100
AcDbEntity
  8
7
100
AcDbLine
 10
3.958661417322834
 20
3.702755905511811
 30
0.0
 11
3.970472440944881
 21
3.706692913385827
 31
0.0
  0
LINE
  5
37A6
330
1E
100
AcDbEntity
  8
7
100
AcDbLine
 10
3.970472440944881
 20
3.706692913385827
 30
0.0
 11
3.974409448818897
 21
3.711614173228346
 31
0.0
  0
LINE
  5
37A7
330
1E
100
AcDbEntity
  8
7
100
AcDbLine
 10
3.974409448818897
 20
3.846456692913385
 30
0.0
 11
3.974409448818897
 21
3.711614173228346
 31
0.0
  0
LINE
  5
37A8
330
1E
100
AcDbEntity
  8
7
100
AcDbLine
 10
3.974409448818897
 20
3.711614173228346
 30
0.0
 11
4.131889763779527
 21
3.708661417322834
 31
0.0
  0
LINE
  5
37A9
330
1E
100
AcDbEntity
  8
7
100
AcDbLine
 10
4.131889763779527
 20
4.568897637795275
 30
0.0
 11
4.131889763779527
 21
4.58267716535433
 31
0.0
  0
LINE
  5
37AA
330
1E
100
AcDbEntity
  8
7
100
AcDbLine
 10
4.131889763779527
 20
4.58267716535433
 30
0.0
 11
4.131889763779527
 21
4.588582677165353
 31
0.0
  0
LINE
  5
37AB
330
1E
100
AcDbEntity
  8
7
100
AcDbLine
 10
3.974409448818897
 20
4.565944881889762
 30
0.0
 11
3.970472440944881
 21
4.570866141732283
 31
0.0
  0
LINE
  5
37AC
330
1E
100
AcDbEntity
  8
7
100
AcDbLine
 10
3.970472440944881
 20
4.570866141732283
 30
0.0
 11
3.958661417322834
 21
4.575787401574802
 31
0.0
  0
LINE
  5
37AD
330
1E
100
AcDbEntity
  8
7
100
AcDbLine
 10
3.958661417322834
 20
4.575787401574802
 30
0.0
 11
3.940944881889763
 21
4.578740157480314
 31
0.0
  0
LINE
  5
37AE
330
1E
100
AcDbEntity
  8
7
100
AcDbLine
 10
4.131889763779527
 20
4.492125984251968
 30
0.0
 11
4.131889763779527
 21
4.515748031496062
 31
0.0
  0
LINE
  5
37AF
330
1E
100
AcDbEntity
  8
7
100
AcDbLine
 10
4.131889763779527
 20
4.515748031496062
 30
0.0
 11
4.131889763779527
 21
4.534448818897637
 31
0.0
  0
LINE
  5
37B0
330
1E
100
AcDbEntity
  8
7
100
AcDbLine
 10
4.131889763779527
 20
4.534448818897637
 30
0.0
 11
4.131889763779527
 21
4.548228346456692
 31
0.0
  0
LINE
  5
37B1
330
1E
100
AcDbEntity
  8
7
100
AcDbLine
 10
4.131889763779527
 20
4.548228346456692
 30
0.0
 11
4.131889763779527
 21
4.552165354330708
 31
0.0
  0
LINE
  5
37B2
330
1E
100
AcDbEntity
  8
7
100
AcDbLine
 10
4.131889763779527
 20
4.021653543307086
 30
0.0
 11
4.131889763779527
 21
4.255905511811023
 31
0.0
  0
LINE
  5
37B3
330
1E
100
AcDbEntity
  8
7
100
AcDbLine
 10
4.131889763779527
 20
4.255905511811023
 30
0.0
 11
4.131889763779527
 21
4.271653543307086
 31
0.0
  0
LINE
  5
37B4
330
1E
100
AcDbEntity
  8
7
100
AcDbLine
 10
4.131889763779527
 20
4.271653543307086
 30
0.0
 11
4.131889763779527
 21
4.282480314960629
 31
0.0
  0
LINE
  5
37B5
330
1E
100
AcDbEntity
  8
7
100
AcDbLine
 10
4.131889763779527
 20
4.282480314960629
 30
0.0
 11
4.131889763779527
 21
4.286417322834645
 31
0.0
  0
LINE
  5
37B6
330
1E
100
AcDbEntity
  8
7
100
AcDbLine
 10
4.131889763779527
 20
4.286417322834645
 30
0.0
 11
4.131889763779527
 21
4.290354330708661
 31
0.0
  0
LINE
  5
37B7
330
1E
100
AcDbEntity
  8
7
100
AcDbLine
 10
4.131889763779527
 20
4.290354330708661
 30
0.0
 11
4.131889763779527
 21
4.301181102362204
 31
0.0
  0
LINE
  5
37B8
330
1E
100
AcDbEntity
  8
7
100
AcDbLine
 10
4.131889763779527
 20
4.301181102362204
 30
0.0
 11
4.131889763779527
 21
4.315944881889762
 31
0.0
  0
LINE
  5
37B9
330
1E
100
AcDbEntity
  8
7
100
AcDbLine
 10
4.131889763779527
 20
3.961614173228346
 30
0.0
 11
4.131889763779527
 21
3.976377952755905
 31
0.0
  0
LINE
  5
37BA
330
1E
100
AcDbEntity
  8
7
100
AcDbLine
 10
4.131889763779527
 20
3.976377952755905
 30
0.0
 11
4.131889763779527
 21
3.987204724409448
 31
0.0
  0
LINE
  5
37BB
330
1E
100
AcDbEntity
  8
7
100
AcDbLine
 10
4.131889763779527
 20
3.987204724409448
 30
0.0
 11
4.131889763779527
 21
3.991141732283464
 31
0.0
  0
LINE
  5
37BC
330
1E
100
AcDbEntity
  8
7
100
AcDbLine
 10
4.131889763779527
 20
3.991141732283464
 30
0.0
 11
4.131889763779527
 21
3.99507874015748
 31
0.0
  0
LINE
  5
37BD
330
1E
100
AcDbEntity
  8
7
100
AcDbLine
 10
4.131889763779527
 20
3.99507874015748
 30
0.0
 11
4.131889763779527
 21
4.005905511811023
 31
0.0
  0
LINE
  5
37BE
330
1E
100
AcDbEntity
  8
7
100
AcDbLine
 10
4.131889763779527
 20
4.005905511811023
 30
0.0
 11
4.131889763779527
 21
4.021653543307086
 31
0.0
  0
LINE
  5
37BF
330
1E
100
AcDbEntity
  8
7
100
AcDbLine
 10
4.131889763779527
 20
3.725393700787401
 30
0.0
 11
4.131889763779527
 21
3.730314960629921
 31
0.0
  0
LINE
  5
37C0
330
1E
100
AcDbEntity
  8
7
100
AcDbLine
 10
4.131889763779527
 20
3.730314960629921
 30
0.0
 11
4.131889763779527
 21
3.743110236220472
 31
0.0
  0
LINE
  5
37C1
330
1E
100
AcDbEntity
  8
7
100
AcDbLine
 10
4.131889763779527
 20
3.743110236220472
 30
0.0
 11
4.131889763779527
 21
3.762795275590551
 31
0.0
  0
LINE
  5
37C2
330
1E
100
AcDbEntity
  8
7
100
AcDbLine
 10
4.131889763779527
 20
3.762795275590551
 30
0.0
 11
4.131889763779527
 21
3.785433070866142
 31
0.0
  0
LINE
  5
37C3
330
1E
100
AcDbEntity
  8
7
100
AcDbLine
 10
4.177165354330709
 20
4.336614173228346
 30
0.0
 11
4.176181102362205
 21
4.336614173228346
 31
0.0
  0
LINE
  5
37C4
330
1E
100
AcDbEntity
  8
7
100
AcDbLine
 10
4.176181102362205
 20
4.336614173228346
 30
0.0
 11
4.174212598425196
 21
4.338582677165353
 31
0.0
  0
LINE
  5
37C5
330
1E
100
AcDbEntity
  8
7
100
AcDbLine
 10
4.174212598425196
 20
4.338582677165353
 30
0.0
 11
4.171259842519685
 21
4.342519685039369
 31
0.0
  0
LINE
  5
37C6
330
1E
100
AcDbEntity
  8
7
100
AcDbLine
 10
4.171259842519685
 20
4.342519685039369
 30
0.0
 11
4.170275590551181
 21
4.344488188976377
 31
0.0
  0
LINE
  5
37C7
330
1E
100
AcDbEntity
  8
7
100
AcDbLine
 10
4.170275590551181
 20
4.344488188976377
 30
0.0
 11
4.169291338582677
 21
4.345472440944881
 31
0.0
  0
LINE
  5
37C8
330
1E
100
AcDbEntity
  8
7
100
AcDbLine
 10
4.131889763779527
 20
4.335629921259842
 30
0.0
 11
4.131889763779527
 21
4.342519685039369
 31
0.0
  0
LINE
  5
37C9
330
1E
100
AcDbEntity
  8
7
100
AcDbLine
 10
4.131889763779527
 20
4.342519685039369
 30
0.0
 11
4.131889763779527
 21
4.345472440944881
 31
0.0
  0
LINE
  5
37CA
330
1E
100
AcDbEntity
  8
7
100
AcDbLine
 10
4.131889763779527
 20
4.463582677165353
 30
0.0
 11
4.131889763779527
 21
4.466535433070865
 31
0.0
  0
LINE
  5
37CB
330
1E
100
AcDbEntity
  8
7
100
AcDbLine
 10
4.131889763779527
 20
4.466535433070865
 30
0.0
 11
4.131889763779527
 21
4.473425196850393
 31
0.0
  0
LINE
  5
37CC
330
1E
100
AcDbEntity
  8
7
100
AcDbLine
 10
4.169291338582677
 20
4.463582677165353
 30
0.0
 11
4.170275590551181
 21
4.465551181102362
 31
0.0
  0
LINE
  5
37CD
330
1E
100
AcDbEntity
  8
7
100
AcDbLine
 10
4.170275590551181
 20
4.465551181102362
 30
0.0
 11
4.171259842519685
 21
4.467519685039369
 31
0.0
  0
LINE
  5
37CE
330
1E
100
AcDbEntity
  8
7
100
AcDbLine
 10
4.171259842519685
 20
4.467519685039369
 30
0.0
 11
4.174212598425196
 21
4.470472440944881
 31
0.0
  0
LINE
  5
37CF
330
1E
100
AcDbEntity
  8
7
100
AcDbLine
 10
4.174212598425196
 20
4.470472440944881
 30
0.0
 11
4.176181102362205
 21
4.473425196850393
 31
0.0
  0
LINE
  5
37D0
330
1E
100
AcDbEntity
  8
7
100
AcDbLine
 10
4.176181102362205
 20
4.473425196850393
 30
0.0
 11
4.177165354330709
 21
4.473425196850393
 31
0.0
  0
LINE
  5
37D1
330
1E
100
AcDbEntity
  8
7
100
AcDbLine
 10
4.177165354330709
 20
3.80511811023622
 30
0.0
 11
4.176181102362205
 21
3.80511811023622
 31
0.0
  0
LINE
  5
37D2
330
1E
100
AcDbEntity
  8
7
100
AcDbLine
 10
4.176181102362205
 20
3.80511811023622
 30
0.0
 11
4.174212598425196
 21
3.807086614173228
 31
0.0
  0
LINE
  5
37D3
330
1E
100
AcDbEntity
  8
7
100
AcDbLine
 10
4.174212598425196
 20
3.807086614173228
 30
0.0
 11
4.171259842519685
 21
3.81003937007874
 31
0.0
  0
LINE
  5
37D4
330
1E
100
AcDbEntity
  8
7
100
AcDbLine
 10
4.171259842519685
 20
3.81003937007874
 30
0.0
 11
4.170275590551181
 21
3.812992125984252
 31
0.0
  0
LINE
  5
37D5
330
1E
100
AcDbEntity
  8
7
100
AcDbLine
 10
4.170275590551181
 20
3.812992125984252
 30
0.0
 11
4.169291338582677
 21
3.813976377952755
 31
0.0
  0
LINE
  5
37D6
330
1E
100
AcDbEntity
  8
7
100
AcDbLine
 10
4.131889763779527
 20
3.804133858267716
 30
0.0
 11
4.131889763779527
 21
3.811023622047244
 31
0.0
  0
LINE
  5
37D7
330
1E
100
AcDbEntity
  8
7
100
AcDbLine
 10
4.131889763779527
 20
3.811023622047244
 30
0.0
 11
4.131889763779527
 21
3.813976377952755
 31
0.0
  0
LINE
  5
37D8
330
1E
100
AcDbEntity
  8
7
100
AcDbLine
 10
4.131889763779527
 20
3.932086614173228
 30
0.0
 11
4.131889763779527
 21
3.93503937007874
 31
0.0
  0
LINE
  5
37D9
330
1E
100
AcDbEntity
  8
7
100
AcDbLine
 10
4.131889763779527
 20
3.93503937007874
 30
0.0
 11
4.131889763779527
 21
3.941929133858268
 31
0.0
  0
LINE
  5
37DA
330
1E
100
AcDbEntity
  8
7
100
AcDbLine
 10
4.169291338582677
 20
3.932086614173228
 30
0.0
 11
4.170275590551181
 21
3.933070866141731
 31
0.0
  0
LINE
  5
37DB
330
1E
100
AcDbEntity
  8
7
100
AcDbLine
 10
4.170275590551181
 20
3.933070866141731
 30
0.0
 11
4.171259842519685
 21
3.93503937007874
 31
0.0
  0
LINE
  5
37DC
330
1E
100
AcDbEntity
  8
7
100
AcDbLine
 10
4.171259842519685
 20
3.93503937007874
 30
0.0
 11
4.174212598425196
 21
3.938976377952755
 31
0.0
  0
LINE
  5
37DD
330
1E
100
AcDbEntity
  8
7
100
AcDbLine
 10
4.174212598425196
 20
3.938976377952755
 30
0.0
 11
4.176181102362205
 21
3.940944881889763
 31
0.0
  0
LINE
  5
37DE
330
1E
100
AcDbEntity
  8
7
100
AcDbLine
 10
4.176181102362205
 20
3.940944881889763
 30
0.0
 11
4.177165354330709
 21
3.940944881889763
 31
0.0
  0
LINE
  5
37DF
330
1E
100
AcDbEntity
  8
7
100
AcDbLine
 10
4.131889763779527
 20
3.813976377952755
 30
0.0
 11
4.131889763779527
 21
3.816929133858268
 31
0.0
  0
LINE
  5
37E0
330
1E
100
AcDbEntity
  8
7
100
AcDbLine
 10
4.131889763779527
 20
3.816929133858268
 30
0.0
 11
4.131889763779527
 21
3.823818897637795
 31
0.0
  0
LINE
  5
37E1
330
1E
100
AcDbEntity
  8
7
100
AcDbLine
 10
4.163385826771653
 20
3.921259842519684
 30
0.0
 11
4.131889763779527
 21
3.922244094488189
 31
0.0
  0
LINE
  5
37E2
330
1E
100
AcDbEntity
  8
7
100
AcDbLine
 10
4.131889763779527
 20
3.922244094488189
 30
0.0
 11
4.131889763779527
 21
3.823818897637795
 31
0.0
  0
LINE
  5
37E3
330
1E
100
AcDbEntity
  8
7
100
AcDbLine
 10
4.131889763779527
 20
3.823818897637795
 30
0.0
 11
4.163385826771653
 21
3.824803149606299
 31
0.0
  0
LINE
  5
37E4
330
1E
100
AcDbEntity
  8
7
100
AcDbLine
 10
4.131889763779527
 20
3.922244094488189
 30
0.0
 11
4.131889763779527
 21
3.929133858267716
 31
0.0
  0
LINE
  5
37E5
330
1E
100
AcDbEntity
  8
7
100
AcDbLine
 10
4.131889763779527
 20
3.929133858267716
 30
0.0
 11
4.131889763779527
 21
3.932086614173228
 31
0.0
  0
LINE
  5
37E6
330
1E
100
AcDbEntity
  8
7
100
AcDbLine
 10
4.163385826771653
 20
4.453740157480314
 30
0.0
 11
4.131889763779527
 21
4.453740157480314
 31
0.0
  0
LINE
  5
37E7
330
1E
100
AcDbEntity
  8
7
100
AcDbLine
 10
4.131889763779527
 20
4.453740157480314
 30
0.0
 11
4.131889763779527
 21
4.356299212598425
 31
0.0
  0
LINE
  5
37E8
330
1E
100
AcDbEntity
  8
7
100
AcDbLine
 10
4.131889763779527
 20
4.356299212598425
 30
0.0
 11
4.163385826771653
 21
4.356299212598425
 31
0.0
  0
LINE
  5
37E9
330
1E
100
AcDbEntity
  8
7
100
AcDbLine
 10
4.131889763779527
 20
4.453740157480314
 30
0.0
 11
4.131889763779527
 21
4.460629921259842
 31
0.0
  0
LINE
  5
37EA
330
1E
100
AcDbEntity
  8
7
100
AcDbLine
 10
4.131889763779527
 20
4.460629921259842
 30
0.0
 11
4.131889763779527
 21
4.463582677165353
 31
0.0
  0
LINE
  5
37EB
330
1E
100
AcDbEntity
  8
7
100
AcDbLine
 10
4.163385826771653
 20
4.356299212598425
 30
0.0
 11
4.163385826771653
 21
4.349409448818897
 31
0.0
  0
LINE
  5
37EC
330
1E
100
AcDbEntity
  8
7
100
AcDbLine
 10
4.163385826771653
 20
4.349409448818897
 30
0.0
 11
4.165354330708661
 21
4.346456692913385
 31
0.0
  0
LINE
  5
37ED
330
1E
100
AcDbEntity
  8
7
100
AcDbLine
 10
4.168307086614174
 20
4.346456692913385
 30
0.0
 11
4.169291338582677
 21
4.345472440944881
 31
0.0
  0
LINE
  5
37EE
330
1E
100
AcDbEntity
  8
7
100
AcDbLine
 10
4.169291338582677
 20
4.345472440944881
 30
0.0
 11
4.169291338582677
 21
4.463582677165353
 31
0.0
  0
LINE
  5
37EF
330
1E
100
AcDbEntity
  8
7
100
AcDbLine
 10
4.169291338582677
 20
4.463582677165353
 30
0.0
 11
4.168307086614174
 21
4.463582677165353
 31
0.0
  0
LINE
  5
37F0
330
1E
100
AcDbEntity
  8
7
100
AcDbLine
 10
4.163385826771653
 20
3.824803149606299
 30
0.0
 11
4.163385826771653
 21
3.816929133858268
 31
0.0
  0
LINE
  5
37F1
330
1E
100
AcDbEntity
  8
7
100
AcDbLine
 10
4.163385826771653
 20
3.816929133858268
 30
0.0
 11
4.165354330708661
 21
3.813976377952755
 31
0.0
  0
LINE
  5
37F2
330
1E
100
AcDbEntity
  8
7
100
AcDbLine
 10
4.165354330708661
 20
3.931102362204724
 30
0.0
 11
4.163385826771653
 21
3.928149606299212
 31
0.0
  0
LINE
  5
37F3
330
1E
100
AcDbEntity
  8
7
100
AcDbLine
 10
4.163385826771653
 20
3.928149606299212
 30
0.0
 11
4.163385826771653
 21
3.921259842519684
 31
0.0
  0
LINE
  5
37F4
330
1E
100
AcDbEntity
  8
7
100
AcDbLine
 10
4.168307086614174
 20
3.814960629921259
 30
0.0
 11
4.169291338582677
 21
3.813976377952755
 31
0.0
  0
LINE
  5
37F5
330
1E
100
AcDbEntity
  8
7
100
AcDbLine
 10
4.169291338582677
 20
3.813976377952755
 30
0.0
 11
4.169291338582677
 21
3.932086614173228
 31
0.0
  0
LINE
  5
37F6
330
1E
100
AcDbEntity
  8
7
100
AcDbLine
 10
4.169291338582677
 20
3.932086614173228
 30
0.0
 11
4.168307086614174
 21
3.931102362204724
 31
0.0
  0
LINE
  5
37F7
330
1E
100
AcDbEntity
  8
7
100
AcDbLine
 10
3.994094488188976
 20
3.851377952755905
 30
0.0
 11
3.994094488188976
 21
3.838582677165354
 31
0.0
  0
LINE
  5
37F8
330
1E
100
AcDbEntity
  8
7
100
AcDbLine
 10
3.994094488188976
 20
3.838582677165354
 30
0.0
 11
3.994094488188976
 21
3.829724409448818
 31
0.0
  0
LINE
  5
37F9
330
1E
100
AcDbEntity
  8
7
100
AcDbLine
 10
3.994094488188976
 20
3.829724409448818
 30
0.0
 11
3.994094488188976
 21
3.825787401574803
 31
0.0
  0
LINE
  5
37FA
330
1E
100
AcDbEntity
  8
7
100
AcDbLine
 10
3.974409448818897
 20
3.846456692913385
 30
0.0
 11
3.98031496062992
 21
3.832677165354331
 31
0.0
  0
LINE
  5
37FB
330
1E
100
AcDbEntity
  8
7
100
AcDbLine
 10
3.98031496062992
 20
3.832677165354331
 30
0.0
 11
3.994094488188976
 21
3.826771653543307
 31
0.0
  0
LINE
  5
37FC
330
1E
100
AcDbEntity
  8
7
100
AcDbLine
 10
3.994094488188976
 20
3.851377952755905
 30
0.0
 11
3.98031496062992
 21
3.851377952755905
 31
0.0
  0
LINE
  5
37FD
330
1E
100
AcDbEntity
  8
7
100
AcDbLine
 10
3.98031496062992
 20
3.851377952755905
 30
0.0
 11
3.974409448818897
 21
3.851377952755905
 31
0.0
  0
LINE
  5
37FE
330
1E
100
AcDbEntity
  8
7
100
AcDbLine
 10
3.994094488188976
 20
4.451771653543306
 30
0.0
 11
3.994094488188976
 21
4.44783464566929
 31
0.0
  0
LINE
  5
37FF
330
1E
100
AcDbEntity
  8
7
100
AcDbLine
 10
3.994094488188976
 20
4.44783464566929
 30
0.0
 11
3.994094488188976
 21
4.438976377952755
 31
0.0
  0
LINE
  5
3800
330
1E
100
AcDbEntity
  8
7
100
AcDbLine
 10
3.994094488188976
 20
4.438976377952755
 30
0.0
 11
3.994094488188976
 21
4.426181102362204
 31
0.0
  0
LINE
  5
3801
330
1E
100
AcDbEntity
  8
7
100
AcDbLine
 10
3.994094488188976
 20
4.426181102362204
 30
0.0
 11
3.98031496062992
 21
4.426181102362204
 31
0.0
  0
LINE
  5
3802
330
1E
100
AcDbEntity
  8
7
100
AcDbLine
 10
3.98031496062992
 20
4.426181102362204
 30
0.0
 11
3.974409448818897
 21
4.426181102362204
 31
0.0
  0
LINE
  5
3803
330
1E
100
AcDbEntity
  8
7
100
AcDbLine
 10
3.994094488188976
 20
4.450787401574802
 30
0.0
 11
3.98031496062992
 21
4.444881889763778
 31
0.0
  0
LINE
  5
3804
330
1E
100
AcDbEntity
  8
7
100
AcDbLine
 10
3.98031496062992
 20
4.444881889763778
 30
0.0
 11
3.974409448818897
 21
4.431102362204724
 31
0.0
  0
LINE
  5
3805
330
1E
100
AcDbEntity
  8
7
100
AcDbLine
 10
4.251968503937007
 20
3.710629921259843
 30
0.0
 11
4.251968503937007
 21
3.696850393700787
 31
0.0
  0
LINE
  5
3806
330
1E
100
AcDbEntity
  8
7
100
AcDbLine
 10
4.251968503937007
 20
3.696850393700787
 30
0.0
 11
4.251968503937007
 21
3.690944881889763
 31
0.0
  0
LINE
  5
3807
330
1E
100
AcDbEntity
  8
7
100
AcDbLine
 10
4.251968503937007
 20
3.690944881889763
 30
0.0
 11
4.131889763779527
 21
3.688976377952756
 31
0.0
  0
LINE
  5
3808
330
1E
100
AcDbEntity
  8
7
100
AcDbLine
 10
4.131889763779527
 20
3.688976377952756
 30
0.0
 11
3.940944881889763
 21
3.691929133858268
 31
0.0
  0
LINE
  5
3809
330
1E
100
AcDbEntity
  8
7
100
AcDbLine
 10
4.251968503937007
 20
3.787401574803149
 30
0.0
 11
4.251968503937007
 21
3.764763779527558
 31
0.0
  0
LINE
  5
380A
330
1E
100
AcDbEntity
  8
7
100
AcDbLine
 10
4.251968503937007
 20
3.764763779527558
 30
0.0
 11
4.251968503937007
 21
3.74507874015748
 31
0.0
  0
LINE
  5
380B
330
1E
100
AcDbEntity
  8
7
100
AcDbLine
 10
4.251968503937007
 20
3.74507874015748
 30
0.0
 11
4.251968503937007
 21
3.732283464566929
 31
0.0
  0
LINE
  5
380C
330
1E
100
AcDbEntity
  8
7
100
AcDbLine
 10
4.251968503937007
 20
3.732283464566929
 30
0.0
 11
4.251968503937007
 21
3.727362204724409
 31
0.0
  0
LINE
  5
380D
330
1E
100
AcDbEntity
  8
7
100
AcDbLine
 10
4.251968503937007
 20
4.292322834645668
 30
0.0
 11
4.251968503937007
 21
4.288385826771652
 31
0.0
  0
LINE
  5
380E
330
1E
100
AcDbEntity
  8
7
100
AcDbLine
 10
4.251968503937007
 20
4.288385826771652
 30
0.0
 11
4.251968503937007
 21
4.284448818897637
 31
0.0
  0
LINE
  5
380F
330
1E
100
AcDbEntity
  8
7
100
AcDbLine
 10
4.251968503937007
 20
4.284448818897637
 30
0.0
 11
4.251968503937007
 21
4.273622047244094
 31
0.0
  0
LINE
  5
3810
330
1E
100
AcDbEntity
  8
7
100
AcDbLine
 10
4.251968503937007
 20
4.273622047244094
 30
0.0
 11
4.251968503937007
 21
4.258858267716535
 31
0.0
  0
LINE
  5
3811
330
1E
100
AcDbEntity
  8
7
100
AcDbLine
 10
4.251968503937007
 20
4.258858267716535
 30
0.0
 11
4.251968503937007
 21
4.019685039370078
 31
0.0
  0
LINE
  5
3812
330
1E
100
AcDbEntity
  8
7
100
AcDbLine
 10
4.251968503937007
 20
4.019685039370078
 30
0.0
 11
4.251968503937007
 21
4.003937007874015
 31
0.0
  0
LINE
  5
3813
330
1E
100
AcDbEntity
  8
7
100
AcDbLine
 10
4.251968503937007
 20
4.003937007874015
 30
0.0
 11
4.251968503937007
 21
3.993110236220472
 31
0.0
  0
LINE
  5
3814
330
1E
100
AcDbEntity
  8
7
100
AcDbLine
 10
4.251968503937007
 20
3.993110236220472
 30
0.0
 11
4.251968503937007
 21
3.989173228346457
 31
0.0
  0
LINE
  5
3815
330
1E
100
AcDbEntity
  8
7
100
AcDbLine
 10
4.251968503937007
 20
3.989173228346457
 30
0.0
 11
4.251968503937007
 21
3.985236220472441
 31
0.0
  0
LINE
  5
3816
330
1E
100
AcDbEntity
  8
7
100
AcDbLine
 10
4.251968503937007
 20
3.985236220472441
 30
0.0
 11
4.251968503937007
 21
3.974409448818897
 31
0.0
  0
LINE
  5
3817
330
1E
100
AcDbEntity
  8
7
100
AcDbLine
 10
4.251968503937007
 20
3.974409448818897
 30
0.0
 11
4.251968503937007
 21
3.959645669291338
 31
0.0
  0
LINE
  5
3818
330
1E
100
AcDbEntity
  8
7
100
AcDbLine
 10
4.251968503937007
 20
4.318897637795275
 30
0.0
 11
4.251968503937007
 21
4.303149606299212
 31
0.0
  0
LINE
  5
3819
330
1E
100
AcDbEntity
  8
7
100
AcDbLine
 10
4.251968503937007
 20
4.303149606299212
 30
0.0
 11
4.251968503937007
 21
4.292322834645668
 31
0.0
  0
LINE
  5
381A
330
1E
100
AcDbEntity
  8
7
100
AcDbLine
 10
4.251968503937007
 20
4.5501968503937
 30
0.0
 11
4.251968503937007
 21
4.54527559055118
 31
0.0
  0
LINE
  5
381B
330
1E
100
AcDbEntity
  8
7
100
AcDbLine
 10
4.251968503937007
 20
4.54527559055118
 30
0.0
 11
4.251968503937007
 21
4.532480314960629
 31
0.0
  0
LINE
  5
381C
330
1E
100
AcDbEntity
  8
7
100
AcDbLine
 10
4.251968503937007
 20
4.532480314960629
 30
0.0
 11
4.251968503937007
 21
4.51279527559055
 31
0.0
  0
LINE
  5
381D
330
1E
100
AcDbEntity
  8
7
100
AcDbLine
 10
4.251968503937007
 20
4.51279527559055
 30
0.0
 11
4.251968503937007
 21
4.49015748031496
 31
0.0
  0
LINE
  5
381E
330
1E
100
AcDbEntity
  8
7
100
AcDbLine
 10
4.251968503937007
 20
3.690944881889763
 30
0.0
 11
4.702755905511811
 21
3.706692913385827
 31
0.0
  0
LINE
  5
381F
330
1E
100
AcDbEntity
  8
7
100
AcDbLine
 10
4.702755905511811
 20
3.706692913385827
 30
0.0
 11
4.708661417322835
 21
3.708661417322834
 31
0.0
  0
LINE
  5
3820
330
1E
100
AcDbEntity
  8
7
100
AcDbLine
 10
4.708661417322835
 20
3.708661417322834
 30
0.0
 11
4.708661417322835
 21
3.754921259842519
 31
0.0
  0
LINE
  5
3821
330
1E
100
AcDbEntity
  8
7
100
AcDbLine
 10
4.708661417322835
 20
3.754921259842519
 30
0.0
 11
4.701771653543307
 21
3.756889763779527
 31
0.0
  0
LINE
  5
3822
330
1E
100
AcDbEntity
  8
7
100
AcDbLine
 10
4.701771653543307
 20
3.756889763779527
 30
0.0
 11
4.637795275590551
 21
3.757874015748031
 31
0.0
  0
LINE
  5
3823
330
1E
100
AcDbEntity
  8
7
100
AcDbLine
 10
4.637795275590551
 20
3.757874015748031
 30
0.0
 11
4.615157480314961
 21
3.762795275590551
 31
0.0
  0
LINE
  5
3824
330
1E
100
AcDbEntity
  8
7
100
AcDbLine
 10
4.615157480314961
 20
3.762795275590551
 30
0.0
 11
4.596456692913385
 21
3.775590551181102
 31
0.0
  0
LINE
  5
3825
330
1E
100
AcDbEntity
  8
7
100
AcDbLine
 10
3.816929133858268
 20
4.519685039370078
 30
0.0
 11
3.816929133858268
 21
4.421259842519684
 31
0.0
  0
LINE
  5
3826
330
1E
100
AcDbEntity
  8
7
100
AcDbLine
 10
3.816929133858268
 20
4.421259842519684
 30
0.0
 11
3.816929133858268
 21
4.440944881889762
 31
0.0
  0
LINE
  5
3827
330
1E
100
AcDbEntity
  8
7
100
AcDbLine
 10
3.816929133858268
 20
4.519685039370078
 30
0.0
 11
3.816929133858268
 21
4.421259842519684
 31
0.0
  0
LINE
  5
3828
330
1E
100
AcDbEntity
  8
7
100
AcDbLine
 10
3.816929133858268
 20
4.421259842519684
 30
0.0
 11
3.816929133858268
 21
4.519685039370078
 31
0.0
  0
LINE
  5
3829
330
1E
100
AcDbEntity
  8
7
100
AcDbLine
 10
3.816929133858268
 20
4.440944881889762
 30
0.0
 11
3.816929133858268
 21
4.421259842519684
 31
0.0
  0
LINE
  5
382A
330
1E
100
AcDbEntity
  8
7
100
AcDbLine
 10
3.816929133858268
 20
4.421259842519684
 30
0.0
 11
3.816929133858268
 21
4.519685039370078
 31
0.0
  0
LINE
  5
382B
330
1E
100
AcDbEntity
  8
7
100
AcDbLine
 10
3.816929133858268
 20
4.519685039370078
 30
0.0
 11
3.816929133858268
 21
4.421259842519684
 31
0.0
  0
LINE
  5
382C
330
1E
100
AcDbEntity
  8
7
100
AcDbLine
 10
1.695866141732283
 20
6.374015748031495
 30
0.0
 11
1.709645669291338
 21
6.374015748031495
 31
0.0
  0
LINE
  5
382D
330
1E
100
AcDbEntity
  8
7
100
AcDbLine
 10
1.709645669291338
 20
6.374015748031495
 30
0.0
 11
1.715551181102362
 21
6.374015748031495
 31
0.0
  0
LINE
  5
382E
330
1E
100
AcDbEntity
  8
7
100
AcDbLine
 10
1.695866141732283
 20
6.374015748031495
 30
0.0
 11
1.695866141732283
 21
6.273622047244094
 31
0.0
  0
LINE
  5
382F
330
1E
100
AcDbEntity
  8
7
100
AcDbLine
 10
1.695866141732283
 20
6.273622047244094
 30
0.0
 11
1.709645669291338
 21
6.273622047244094
 31
0.0
  0
LINE
  5
3830
330
1E
100
AcDbEntity
  8
7
100
AcDbLine
 10
1.709645669291338
 20
6.273622047244094
 30
0.0
 11
1.715551181102362
 21
6.273622047244094
 31
0.0
  0
LINE
  5
3831
330
1E
100
AcDbEntity
  8
7
100
AcDbLine
 10
1.649606299212598
 20
6.374015748031495
 30
0.0
 11
1.649606299212598
 21
6.273622047244094
 31
0.0
  0
LINE
  5
3832
330
1E
100
AcDbEntity
  8
7
100
AcDbLine
 10
1.649606299212598
 20
6.273622047244094
 30
0.0
 11
1.655511811023622
 21
6.273622047244094
 31
0.0
  0
LINE
  5
3833
330
1E
100
AcDbEntity
  8
7
100
AcDbLine
 10
1.655511811023622
 20
6.273622047244094
 30
0.0
 11
1.669291338582677
 21
6.273622047244094
 31
0.0
  0
LINE
  5
3834
330
1E
100
AcDbEntity
  8
7
100
AcDbLine
 10
2.125984251968503
 20
6.374015748031495
 30
0.0
 11
2.139763779527558
 21
6.374015748031495
 31
0.0
  0
LINE
  5
3835
330
1E
100
AcDbEntity
  8
7
100
AcDbLine
 10
2.139763779527558
 20
6.374015748031495
 30
0.0
 11
2.145669291338582
 21
6.374015748031495
 31
0.0
  0
LINE
  5
3836
330
1E
100
AcDbEntity
  8
7
100
AcDbLine
 10
2.125984251968503
 20
6.374015748031495
 30
0.0
 11
2.125984251968503
 21
6.273622047244094
 31
0.0
  0
LINE
  5
3837
330
1E
100
AcDbEntity
  8
7
100
AcDbLine
 10
2.125984251968503
 20
6.273622047244094
 30
0.0
 11
2.139763779527558
 21
6.273622047244094
 31
0.0
  0
LINE
  5
3838
330
1E
100
AcDbEntity
  8
7
100
AcDbLine
 10
2.139763779527558
 20
6.273622047244094
 30
0.0
 11
2.145669291338582
 21
6.273622047244094
 31
0.0
  0
LINE
  5
3839
330
1E
100
AcDbEntity
  8
7
100
AcDbLine
 10
2.079724409448818
 20
6.374015748031495
 30
0.0
 11
2.085629921259842
 21
6.374015748031495
 31
0.0
  0
LINE
  5
383A
330
1E
100
AcDbEntity
  8
7
100
AcDbLine
 10
2.085629921259842
 20
6.374015748031495
 30
0.0
 11
2.099409448818897
 21
6.374015748031495
 31
0.0
  0
LINE
  5
383B
330
1E
100
AcDbEntity
  8
7
100
AcDbLine
 10
2.079724409448818
 20
6.374015748031495
 30
0.0
 11
2.079724409448818
 21
6.273622047244094
 31
0.0
  0
LINE
  5
383C
330
1E
100
AcDbEntity
  8
7
100
AcDbLine
 10
2.079724409448818
 20
6.273622047244094
 30
0.0
 11
2.085629921259842
 21
6.273622047244094
 31
0.0
  0
LINE
  5
383D
330
1E
100
AcDbEntity
  8
7
100
AcDbLine
 10
2.085629921259842
 20
6.273622047244094
 30
0.0
 11
2.099409448818897
 21
6.273622047244094
 31
0.0
  0
LINE
  5
383E
330
1E
100
AcDbEntity
  8
7
100
AcDbLine
 10
1.997047244094487
 20
6.319881889763778
 30
0.0
 11
1.997047244094487
 21
6.3001968503937
 31
0.0
  0
LINE
  5
383F
330
1E
100
AcDbEntity
  8
7
100
AcDbLine
 10
1.997047244094487
 20
6.3001968503937
 30
0.0
 11
1.997047244094487
 21
6.296259842519684
 31
0.0
  0
LINE
  5
3840
330
1E
100
AcDbEntity
  8
7
100
AcDbLine
 10
1.997047244094487
 20
6.296259842519684
 30
0.0
 11
1.997047244094487
 21
6.288385826771652
 31
0.0
  0
LINE
  5
3841
330
1E
100
AcDbEntity
  8
7
100
AcDbLine
 10
1.798228346456693
 20
6.3001968503937
 30
0.0
 11
1.798228346456693
 21
6.296259842519684
 31
0.0
  0
LINE
  5
3842
330
1E
100
AcDbEntity
  8
7
100
AcDbLine
 10
1.798228346456693
 20
6.296259842519684
 30
0.0
 11
1.798228346456693
 21
6.288385826771652
 31
0.0
  0
LINE
  5
3843
330
1E
100
AcDbEntity
  8
7
100
AcDbLine
 10
1.997047244094487
 20
6.319881889763778
 30
0.0
 11
1.993110236220472
 21
6.319881889763778
 31
0.0
  0
LINE
  5
3844
330
1E
100
AcDbEntity
  8
7
100
AcDbLine
 10
1.993110236220472
 20
6.319881889763778
 30
0.0
 11
1.984251968503937
 21
6.320866141732283
 31
0.0
  0
LINE
  5
3845
330
1E
100
AcDbEntity
  8
7
100
AcDbLine
 10
1.984251968503937
 20
6.374015748031495
 30
0.0
 11
1.992125984251968
 21
6.375984251968503
 31
0.0
  0
LINE
  5
3846
330
1E
100
AcDbEntity
  8
7
100
AcDbLine
 10
1.992125984251968
 20
6.375984251968503
 30
0.0
 11
1.996062992125984
 21
6.380905511811023
 31
0.0
  0
LINE
  5
3847
330
1E
100
AcDbEntity
  8
7
100
AcDbLine
 10
1.798228346456693
 20
6.380905511811023
 30
0.0
 11
1.803149606299212
 21
6.375984251968503
 31
0.0
  0
LINE
  5
3848
330
1E
100
AcDbEntity
  8
7
100
AcDbLine
 10
1.803149606299212
 20
6.375984251968503
 30
0.0
 11
1.811023622047244
 21
6.374015748031495
 31
0.0
  0
LINE
  5
3849
330
1E
100
AcDbEntity
  8
7
100
AcDbLine
 10
1.798228346456693
 20
6.374015748031495
 30
0.0
 11
1.798228346456693
 21
6.380905511811023
 31
0.0
  0
LINE
  5
384A
330
1E
100
AcDbEntity
  8
7
100
AcDbLine
 10
1.798228346456693
 20
6.380905511811023
 30
0.0
 11
1.799212598425196
 21
6.408464566929133
 31
0.0
  0
LINE
  5
384B
330
1E
100
AcDbEntity
  8
7
100
AcDbLine
 10
2.148622047244094
 20
6.374015748031495
 30
0.0
 11
2.14763779527559
 21
6.374015748031495
 31
0.0
  0
LINE
  5
384C
330
1E
100
AcDbEntity
  8
7
100
AcDbLine
 10
2.14763779527559
 20
6.374015748031495
 30
0.0
 11
2.14763779527559
 21
6.273622047244094
 31
0.0
  0
LINE
  5
384D
330
1E
100
AcDbEntity
  8
7
100
AcDbLine
 10
1.623031496062992
 20
6.474409448818897
 30
0.0
 11
1.623031496062992
 21
6.470472440944881
 31
0.0
  0
LINE
  5
384E
330
1E
100
AcDbEntity
  8
7
100
AcDbLine
 10
1.623031496062992
 20
6.470472440944881
 30
0.0
 11
1.624015748031495
 21
6.460629921259841
 31
0.0
  0
LINE
  5
384F
330
1E
100
AcDbEntity
  8
7
100
AcDbLine
 10
2.171259842519685
 20
6.460629921259841
 30
0.0
 11
2.171259842519685
 21
6.470472440944881
 31
0.0
  0
LINE
  5
3850
330
1E
100
AcDbEntity
  8
7
100
AcDbLine
 10
2.171259842519685
 20
6.470472440944881
 30
0.0
 11
2.172244094488188
 21
6.474409448818897
 31
0.0
  0
LINE
  5
3851
330
1E
100
AcDbEntity
  8
7
100
AcDbLine
 10
1.623031496062992
 20
6.474409448818897
 30
0.0
 11
1.627952755905511
 21
6.474409448818897
 31
0.0
  0
LINE
  5
3852
330
1E
100
AcDbEntity
  8
7
100
AcDbLine
 10
1.627952755905511
 20
6.474409448818897
 30
0.0
 11
1.638779527559055
 21
6.474409448818897
 31
0.0
  0
LINE
  5
3853
330
1E
100
AcDbEntity
  8
7
100
AcDbLine
 10
2.156496062992125
 20
6.474409448818897
 30
0.0
 11
2.167322834645669
 21
6.474409448818897
 31
0.0
  0
LINE
  5
3854
330
1E
100
AcDbEntity
  8
7
100
AcDbLine
 10
2.167322834645669
 20
6.474409448818897
 30
0.0
 11
2.172244094488188
 21
6.474409448818897
 31
0.0
  0
LINE
  5
3855
330
1E
100
AcDbEntity
  8
7
100
AcDbLine
 10
1.596456692913385
 20
6.437992125984251
 30
0.0
 11
1.596456692913385
 21
6.443897637795275
 31
0.0
  0
LINE
  5
3856
330
1E
100
AcDbEntity
  8
7
100
AcDbLine
 10
1.596456692913385
 20
6.443897637795275
 30
0.0
 11
1.596456692913385
 21
6.458661417322834
 31
0.0
  0
LINE
  5
3857
330
1E
100
AcDbEntity
  8
7
100
AcDbLine
 10
1.596456692913385
 20
6.458661417322834
 30
0.0
 11
1.597440944881889
 21
6.470472440944881
 31
0.0
  0
LINE
  5
3858
330
1E
100
AcDbEntity
  8
7
100
AcDbLine
 10
1.597440944881889
 20
6.470472440944881
 30
0.0
 11
1.597440944881889
 21
6.474409448818897
 31
0.0
  0
LINE
  5
3859
330
1E
100
AcDbEntity
  8
7
100
AcDbLine
 10
1.597440944881889
 20
6.474409448818897
 30
0.0
 11
1.597440944881889
 21
6.534448818897637
 31
0.0
  0
LINE
  5
385A
330
1E
100
AcDbEntity
  8
7
100
AcDbLine
 10
1.597440944881889
 20
6.534448818897637
 30
0.0
 11
2.197834645669291
 21
6.534448818897637
 31
0.0
  0
LINE
  5
385B
330
1E
100
AcDbEntity
  8
7
100
AcDbLine
 10
2.197834645669291
 20
6.474409448818897
 30
0.0
 11
2.197834645669291
 21
6.470472440944881
 31
0.0
  0
LINE
  5
385C
330
1E
100
AcDbEntity
  8
7
100
AcDbLine
 10
2.197834645669291
 20
6.470472440944881
 30
0.0
 11
2.197834645669291
 21
6.458661417322834
 31
0.0
  0
LINE
  5
385D
330
1E
100
AcDbEntity
  8
7
100
AcDbLine
 10
2.197834645669291
 20
6.458661417322834
 30
0.0
 11
2.198818897637795
 21
6.443897637795275
 31
0.0
  0
LINE
  5
385E
330
1E
100
AcDbEntity
  8
3
100
AcDbLine
 10
1.717519685039369
 20
6.4251968503937
 30
0.0
 11
1.717519685039369
 21
6.376968503937007
 31
0.0
  0
LINE
  5
385F
330
1E
100
AcDbEntity
  8
3
100
AcDbLine
 10
1.717519685039369
 20
6.376968503937007
 30
0.0
 11
1.716535433070866
 21
6.379921259842519
 31
0.0
  0
LINE
  5
3860
330
1E
100
AcDbEntity
  8
3
100
AcDbLine
 10
1.716535433070866
 20
6.379921259842519
 30
0.0
 11
1.716535433070866
 21
6.388779527559054
 31
0.0
  0
LINE
  5
3861
330
1E
100
AcDbEntity
  8
3
100
AcDbLine
 10
1.716535433070866
 20
6.388779527559054
 30
0.0
 11
1.716535433070866
 21
6.400590551181101
 31
0.0
  0
LINE
  5
3862
330
1E
100
AcDbEntity
  8
3
100
AcDbLine
 10
1.644685039370078
 20
6.4251968503937
 30
0.0
 11
1.644685039370078
 21
6.376968503937007
 31
0.0
  0
LINE
  5
3863
330
1E
100
AcDbEntity
  8
3
100
AcDbLine
 10
1.644685039370078
 20
6.376968503937007
 30
0.0
 11
1.645669291338582
 21
6.379921259842519
 31
0.0
  0
LINE
  5
3864
330
1E
100
AcDbEntity
  8
3
100
AcDbLine
 10
1.645669291338582
 20
6.379921259842519
 30
0.0
 11
1.645669291338582
 21
6.388779527559054
 31
0.0
  0
LINE
  5
3865
330
1E
100
AcDbEntity
  8
3
100
AcDbLine
 10
1.645669291338582
 20
6.388779527559054
 30
0.0
 11
1.645669291338582
 21
6.400590551181101
 31
0.0
  0
LINE
  5
3866
330
1E
100
AcDbEntity
  8
3
100
AcDbLine
 10
2.148622047244094
 20
6.4251968503937
 30
0.0
 11
2.148622047244094
 21
6.376968503937007
 31
0.0
  0
LINE
  5
3867
330
1E
100
AcDbEntity
  8
3
100
AcDbLine
 10
2.148622047244094
 20
6.376968503937007
 30
0.0
 11
2.148622047244094
 21
6.379921259842519
 31
0.0
  0
LINE
  5
3868
330
1E
100
AcDbEntity
  8
3
100
AcDbLine
 10
2.148622047244094
 20
6.379921259842519
 30
0.0
 11
2.14763779527559
 21
6.388779527559054
 31
0.0
  0
LINE
  5
3869
330
1E
100
AcDbEntity
  8
3
100
AcDbLine
 10
2.14763779527559
 20
6.388779527559054
 30
0.0
 11
2.14763779527559
 21
6.400590551181101
 31
0.0
  0
LINE
  5
386A
330
1E
100
AcDbEntity
  8
3
100
AcDbLine
 10
2.075787401574803
 20
6.4251968503937
 30
0.0
 11
2.075787401574803
 21
6.376968503937007
 31
0.0
  0
LINE
  5
386B
330
1E
100
AcDbEntity
  8
3
100
AcDbLine
 10
2.075787401574803
 20
6.376968503937007
 30
0.0
 11
2.076771653543306
 21
6.379921259842519
 31
0.0
  0
LINE
  5
386C
330
1E
100
AcDbEntity
  8
3
100
AcDbLine
 10
2.076771653543306
 20
6.379921259842519
 30
0.0
 11
2.076771653543306
 21
6.388779527559054
 31
0.0
  0
LINE
  5
386D
330
1E
100
AcDbEntity
  8
3
100
AcDbLine
 10
2.076771653543306
 20
6.388779527559054
 30
0.0
 11
2.076771653543306
 21
6.400590551181101
 31
0.0
  0
LINE
  5
386E
330
1E
100
AcDbEntity
  8
3
100
AcDbLine
 10
1.644685039370078
 20
6.376968503937007
 30
0.0
 11
1.717519685039369
 21
6.376968503937007
 31
0.0
  0
LINE
  5
386F
330
1E
100
AcDbEntity
  8
3
100
AcDbLine
 10
1.717519685039369
 20
6.376968503937007
 30
0.0
 11
1.717519685039369
 21
6.273622047244094
 31
0.0
  0
LINE
  5
3870
330
1E
100
AcDbEntity
  8
3
100
AcDbLine
 10
2.208661417322834
 20
6.104330708661416
 30
0.0
 11
2.209645669291338
 21
6.103346456692912
 31
0.0
  0
LINE
  5
3871
330
1E
100
AcDbEntity
  8
3
100
AcDbLine
 10
2.209645669291338
 20
6.103346456692912
 30
0.0
 11
2.209645669291338
 21
6.112204724409448
 31
0.0
  0
LINE
  5
3872
330
1E
100
AcDbEntity
  8
3
100
AcDbLine
 10
2.204724409448818
 20
6.222440944881889
 30
0.0
 11
2.208661417322834
 21
6.222440944881889
 31
0.0
  0
LINE
  5
3873
330
1E
100
AcDbEntity
  8
3
100
AcDbLine
 10
2.208661417322834
 20
6.222440944881889
 30
0.0
 11
2.209645669291338
 21
6.223425196850393
 31
0.0
  0
LINE
  5
3874
330
1E
100
AcDbEntity
  8
3
100
AcDbLine
 10
1.584645669291338
 20
6.1751968503937
 30
0.0
 11
1.584645669291338
 21
6.290354330708661
 31
0.0
  0
LINE
  5
3875
330
1E
100
AcDbEntity
  8
3
100
AcDbLine
 10
1.584645669291338
 20
6.290354330708661
 30
0.0
 11
1.584645669291338
 21
6.291338582677164
 31
0.0
  0
LINE
  5
3876
330
1E
100
AcDbEntity
  8
3
100
AcDbLine
 10
1.588582677165354
 20
6.1751968503937
 30
0.0
 11
1.584645669291338
 21
6.1751968503937
 31
0.0
  0
LINE
  5
3877
330
1E
100
AcDbEntity
  8
3
100
AcDbLine
 10
1.584645669291338
 20
6.1751968503937
 30
0.0
 11
1.584645669291338
 21
6.174212598425196
 31
0.0
  0
LINE
  5
3878
330
1E
100
AcDbEntity
  8
3
100
AcDbLine
 10
2.209645669291338
 20
6.117125984251968
 30
0.0
 11
2.209645669291338
 21
6.112204724409448
 31
0.0
  0
LINE
  5
3879
330
1E
100
AcDbEntity
  8
3
100
AcDbLine
 10
2.209645669291338
 20
6.112204724409448
 30
0.0
 11
2.209645669291338
 21
6.223425196850393
 31
0.0
  0
LINE
  5
387A
330
1E
100
AcDbEntity
  8
3
100
AcDbLine
 10
1.588582677165354
 20
6.174212598425196
 30
0.0
 11
1.584645669291338
 21
6.174212598425196
 31
0.0
  0
LINE
  5
387B
330
1E
100
AcDbEntity
  8
3
100
AcDbLine
 10
1.584645669291338
 20
6.174212598425196
 30
0.0
 11
1.584645669291338
 21
6.291338582677164
 31
0.0
  0
LINE
  5
387C
330
1E
100
AcDbEntity
  8
7
100
AcDbLine
 10
2.196850393700787
 20
6.437007874015747
 30
0.0
 11
2.187992125984251
 21
6.450787401574802
 31
0.0
  0
LINE
  5
387D
330
1E
100
AcDbEntity
  8
7
100
AcDbLine
 10
2.187992125984251
 20
6.450787401574802
 30
0.0
 11
2.174212598425196
 21
6.458661417322834
 31
0.0
  0
LINE
  5
387E
330
1E
100
AcDbEntity
  8
7
100
AcDbLine
 10
2.174212598425196
 20
6.458661417322834
 30
0.0
 11
2.158464566929133
 21
6.46259842519685
 31
0.0
  0
LINE
  5
387F
330
1E
100
AcDbEntity
  8
7
100
AcDbLine
 10
1.634842519685039
 20
6.46259842519685
 30
0.0
 11
1.619094488188976
 21
6.458661417322834
 31
0.0
  0
LINE
  5
3880
330
1E
100
AcDbEntity
  8
7
100
AcDbLine
 10
1.619094488188976
 20
6.458661417322834
 30
0.0
 11
1.605314960629921
 21
6.450787401574802
 31
0.0
  0
LINE
  5
3881
330
1E
100
AcDbEntity
  8
7
100
AcDbLine
 10
1.834645669291338
 20
5.944881889763778
 30
0.0
 11
1.834645669291338
 21
6.061023622047243
 31
0.0
  0
LINE
  5
3882
330
1E
100
AcDbEntity
  8
7
100
AcDbLine
 10
1.834645669291338
 20
6.061023622047243
 30
0.0
 11
1.959645669291338
 21
6.061023622047243
 31
0.0
  0
LINE
  5
3883
330
1E
100
AcDbEntity
  8
7
100
AcDbLine
 10
1.961614173228346
 20
6.062992125984251
 30
0.0
 11
1.959645669291338
 21
6.061023622047243
 31
0.0
  0
LINE
  5
3884
330
1E
100
AcDbEntity
  8
7
100
AcDbLine
 10
1.959645669291338
 20
6.061023622047243
 30
0.0
 11
1.959645669291338
 21
5.944881889763778
 31
0.0
  0
LINE
  5
3885
330
1E
100
AcDbEntity
  8
7
100
AcDbLine
 10
1.834645669291338
 20
6.106299212598425
 30
0.0
 11
1.834645669291338
 21
6.223425196850393
 31
0.0
  0
LINE
  5
3886
330
1E
100
AcDbEntity
  8
7
100
AcDbLine
 10
1.834645669291338
 20
6.223425196850393
 30
0.0
 11
1.959645669291338
 21
6.223425196850393
 31
0.0
  0
LINE
  5
3887
330
1E
100
AcDbEntity
  8
7
100
AcDbLine
 10
1.961614173228346
 20
6.2253937007874
 30
0.0
 11
1.959645669291338
 21
6.223425196850393
 31
0.0
  0
LINE
  5
3888
330
1E
100
AcDbEntity
  8
7
100
AcDbLine
 10
1.959645669291338
 20
6.223425196850393
 30
0.0
 11
1.959645669291338
 21
6.106299212598425
 31
0.0
  0
LINE
  5
3889
330
1E
100
AcDbEntity
  8
7
100
AcDbLine
 10
2.149606299212598
 20
5.944881889763778
 30
0.0
 11
2.003937007874015
 21
5.944881889763778
 31
0.0
  0
LINE
  5
388A
330
1E
100
AcDbEntity
  8
7
100
AcDbLine
 10
2.003937007874015
 20
5.944881889763778
 30
0.0
 11
2.003937007874015
 21
6.061023622047243
 31
0.0
  0
LINE
  5
388B
330
1E
100
AcDbEntity
  8
7
100
AcDbLine
 10
2.001968503937007
 20
6.062992125984251
 30
0.0
 11
2.003937007874015
 21
6.061023622047243
 31
0.0
  0
LINE
  5
388C
330
1E
100
AcDbEntity
  8
7
100
AcDbLine
 10
2.003937007874015
 20
6.061023622047243
 30
0.0
 11
2.149606299212598
 21
6.061023622047243
 31
0.0
  0
LINE
  5
388D
330
1E
100
AcDbEntity
  8
7
100
AcDbLine
 10
2.149606299212598
 20
6.106299212598425
 30
0.0
 11
2.003937007874015
 21
6.106299212598425
 31
0.0
  0
LINE
  5
388E
330
1E
100
AcDbEntity
  8
7
100
AcDbLine
 10
2.003937007874015
 20
6.106299212598425
 30
0.0
 11
2.003937007874015
 21
6.223425196850393
 31
0.0
  0
LINE
  5
388F
330
1E
100
AcDbEntity
  8
7
100
AcDbLine
 10
2.001968503937007
 20
6.2253937007874
 30
0.0
 11
2.003937007874015
 21
6.223425196850393
 31
0.0
  0
LINE
  5
3890
330
1E
100
AcDbEntity
  8
7
100
AcDbLine
 10
2.003937007874015
 20
6.223425196850393
 30
0.0
 11
2.149606299212598
 21
6.223425196850393
 31
0.0
  0
LINE
  5
3891
330
1E
100
AcDbEntity
  8
7
100
AcDbLine
 10
1.789370078740157
 20
5.944881889763778
 30
0.0
 11
1.643700787401574
 21
5.944881889763778
 31
0.0
  0
LINE
  5
3892
330
1E
100
AcDbEntity
  8
7
100
AcDbLine
 10
1.643700787401574
 20
5.944881889763778
 30
0.0
 11
1.643700787401574
 21
6.061023622047243
 31
0.0
  0
LINE
  5
3893
330
1E
100
AcDbEntity
  8
7
100
AcDbLine
 10
1.789370078740157
 20
6.106299212598425
 30
0.0
 11
1.643700787401574
 21
6.106299212598425
 31
0.0
  0
LINE
  5
3894
330
1E
100
AcDbEntity
  8
7
100
AcDbLine
 10
1.643700787401574
 20
6.106299212598425
 30
0.0
 11
1.643700787401574
 21
6.223425196850393
 31
0.0
  0
LINE
  5
3895
330
1E
100
AcDbEntity
  8
7
100
AcDbLine
 10
1.64271653543307
 20
6.2253937007874
 30
0.0
 11
1.643700787401574
 21
6.223425196850393
 31
0.0
  0
LINE
  5
3896
330
1E
100
AcDbEntity
  8
7
100
AcDbLine
 10
1.643700787401574
 20
6.223425196850393
 30
0.0
 11
1.789370078740157
 21
6.223425196850393
 31
0.0
  0
LINE
  5
3897
330
1E
100
AcDbEntity
  8
7
100
AcDbLine
 10
1.643700787401574
 20
5.899606299212598
 30
0.0
 11
2.149606299212598
 21
5.899606299212598
 31
0.0
  0
LINE
  5
3898
330
1E
100
AcDbEntity
  8
7
100
AcDbLine
 10
2.149606299212598
 20
5.899606299212598
 30
0.0
 11
2.149606299212598
 21
5.653543307086613
 31
0.0
  0
LINE
  5
3899
330
1E
100
AcDbEntity
  8
7
100
AcDbLine
 10
2.146653543307086
 20
6.273622047244094
 30
0.0
 11
2.148622047244094
 21
6.273622047244094
 31
0.0
  0
LINE
  5
389A
330
1E
100
AcDbEntity
  8
7
100
AcDbLine
 10
2.148622047244094
 20
6.273622047244094
 30
0.0
 11
2.148622047244094
 21
6.376968503937007
 31
0.0
  0
LINE
  5
389B
330
1E
100
AcDbEntity
  8
7
100
AcDbLine
 10
2.075787401574803
 20
6.428149606299212
 30
0.0
 11
2.075787401574803
 21
6.273622047244094
 31
0.0
  0
LINE
  5
389C
330
1E
100
AcDbEntity
  8
7
100
AcDbLine
 10
2.075787401574803
 20
6.273622047244094
 30
0.0
 11
2.078740157480314
 21
6.273622047244094
 31
0.0
  0
LINE
  5
389D
330
1E
100
AcDbEntity
  8
7
100
AcDbLine
 10
1.64271653543307
 20
5.653543307086613
 30
0.0
 11
1.64271653543307
 21
5.901574803149605
 31
0.0
  0
LINE
  5
389E
330
1E
100
AcDbEntity
  8
7
100
AcDbLine
 10
1.64271653543307
 20
5.901574803149605
 30
0.0
 11
2.151574803149606
 21
5.901574803149605
 31
0.0
  0
LINE
  5
389F
330
1E
100
AcDbEntity
  8
7
100
AcDbLine
 10
2.151574803149606
 20
5.901574803149605
 30
0.0
 11
2.151574803149606
 21
5.653543307086613
 31
0.0
  0
LINE
  5
38A0
330
1E
100
AcDbEntity
  8
7
100
AcDbLine
 10
1.83267716535433
 20
6.062992125984251
 30
0.0
 11
1.961614173228346
 21
6.062992125984251
 31
0.0
  0
LINE
  5
38A1
330
1E
100
AcDbEntity
  8
7
100
AcDbLine
 10
1.961614173228346
 20
6.062992125984251
 30
0.0
 11
1.961614173228346
 21
5.942913385826771
 31
0.0
  0
LINE
  5
38A2
330
1E
100
AcDbEntity
  8
7
100
AcDbLine
 10
1.961614173228346
 20
5.942913385826771
 30
0.0
 11
1.83267716535433
 21
5.942913385826771
 31
0.0
  0
LINE
  5
38A3
330
1E
100
AcDbEntity
  8
7
100
AcDbLine
 10
1.83267716535433
 20
6.2253937007874
 30
0.0
 11
1.961614173228346
 21
6.2253937007874
 31
0.0
  0
LINE
  5
38A4
330
1E
100
AcDbEntity
  8
7
100
AcDbLine
 10
1.961614173228346
 20
6.2253937007874
 30
0.0
 11
1.961614173228346
 21
6.104330708661416
 31
0.0
  0
LINE
  5
38A5
330
1E
100
AcDbEntity
  8
7
100
AcDbLine
 10
1.961614173228346
 20
6.104330708661416
 30
0.0
 11
1.83267716535433
 21
6.104330708661416
 31
0.0
  0
LINE
  5
38A6
330
1E
100
AcDbEntity
  8
7
100
AcDbLine
 10
1.83267716535433
 20
6.104330708661416
 30
0.0
 11
1.83267716535433
 21
6.2253937007874
 31
0.0
  0
LINE
  5
38A7
330
1E
100
AcDbEntity
  8
7
100
AcDbLine
 10
2.001968503937007
 20
5.942913385826771
 30
0.0
 11
2.001968503937007
 21
6.062992125984251
 31
0.0
  0
LINE
  5
38A8
330
1E
100
AcDbEntity
  8
7
100
AcDbLine
 10
2.001968503937007
 20
6.062992125984251
 30
0.0
 11
2.151574803149606
 21
6.062992125984251
 31
0.0
  0
LINE
  5
38A9
330
1E
100
AcDbEntity
  8
7
100
AcDbLine
 10
2.151574803149606
 20
6.062992125984251
 30
0.0
 11
2.151574803149606
 21
5.942913385826771
 31
0.0
  0
LINE
  5
38AA
330
1E
100
AcDbEntity
  8
7
100
AcDbLine
 10
2.151574803149606
 20
5.942913385826771
 30
0.0
 11
2.001968503937007
 21
5.942913385826771
 31
0.0
  0
LINE
  5
38AB
330
1E
100
AcDbEntity
  8
7
100
AcDbLine
 10
2.001968503937007
 20
6.104330708661416
 30
0.0
 11
2.001968503937007
 21
6.2253937007874
 31
0.0
  0
LINE
  5
38AC
330
1E
100
AcDbEntity
  8
7
100
AcDbLine
 10
2.001968503937007
 20
6.2253937007874
 30
0.0
 11
2.151574803149606
 21
6.2253937007874
 31
0.0
  0
LINE
  5
38AD
330
1E
100
AcDbEntity
  8
7
100
AcDbLine
 10
2.151574803149606
 20
6.2253937007874
 30
0.0
 11
2.151574803149606
 21
6.104330708661416
 31
0.0
  0
LINE
  5
38AE
330
1E
100
AcDbEntity
  8
7
100
AcDbLine
 10
2.151574803149606
 20
6.104330708661416
 30
0.0
 11
2.001968503937007
 21
6.104330708661416
 31
0.0
  0
LINE
  5
38AF
330
1E
100
AcDbEntity
  8
7
100
AcDbLine
 10
1.64271653543307
 20
5.942913385826771
 30
0.0
 11
1.64271653543307
 21
6.062992125984251
 31
0.0
  0
LINE
  5
38B0
330
1E
100
AcDbEntity
  8
7
100
AcDbLine
 10
1.64271653543307
 20
6.062992125984251
 30
0.0
 11
1.791338582677165
 21
6.062992125984251
 31
0.0
  0
LINE
  5
38B1
330
1E
100
AcDbEntity
  8
7
100
AcDbLine
 10
1.791338582677165
 20
6.062992125984251
 30
0.0
 11
1.791338582677165
 21
5.942913385826771
 31
0.0
  0
LINE
  5
38B2
330
1E
100
AcDbEntity
  8
7
100
AcDbLine
 10
1.791338582677165
 20
5.942913385826771
 30
0.0
 11
1.64271653543307
 21
5.942913385826771
 31
0.0
  0
LINE
  5
38B3
330
1E
100
AcDbEntity
  8
7
100
AcDbLine
 10
1.64271653543307
 20
6.104330708661416
 30
0.0
 11
1.64271653543307
 21
6.2253937007874
 31
0.0
  0
LINE
  5
38B4
330
1E
100
AcDbEntity
  8
7
100
AcDbLine
 10
1.64271653543307
 20
6.2253937007874
 30
0.0
 11
1.791338582677165
 21
6.2253937007874
 31
0.0
  0
LINE
  5
38B5
330
1E
100
AcDbEntity
  8
7
100
AcDbLine
 10
1.791338582677165
 20
6.2253937007874
 30
0.0
 11
1.791338582677165
 21
6.104330708661416
 31
0.0
  0
LINE
  5
38B6
330
1E
100
AcDbEntity
  8
7
100
AcDbLine
 10
1.720472440944881
 20
6.431102362204724
 30
0.0
 11
1.720472440944881
 21
6.270669291338582
 31
0.0
  0
LINE
  5
38B7
330
1E
100
AcDbEntity
  8
7
100
AcDbLine
 10
1.720472440944881
 20
6.270669291338582
 30
0.0
 11
1.64271653543307
 21
6.270669291338582
 31
0.0
  0
LINE
  5
38B8
330
1E
100
AcDbEntity
  8
7
100
AcDbLine
 10
1.64271653543307
 20
6.270669291338582
 30
0.0
 11
1.64271653543307
 21
6.431102362204724
 31
0.0
  0
LINE
  5
38B9
330
1E
100
AcDbEntity
  8
7
100
AcDbLine
 10
1.997047244094487
 20
6.42027559055118
 30
0.0
 11
1.997047244094487
 21
6.265748031496062
 31
0.0
  0
LINE
  5
38BA
330
1E
100
AcDbEntity
  8
7
100
AcDbLine
 10
1.997047244094487
 20
6.265748031496062
 30
0.0
 11
1.796259842519685
 21
6.265748031496062
 31
0.0
  0
LINE
  5
38BB
330
1E
100
AcDbEntity
  8
7
100
AcDbLine
 10
2.199803149606299
 20
6.421259842519684
 30
0.0
 11
2.198818897637795
 21
6.429133858267715
 31
0.0
  0
LINE
  5
38BC
330
1E
100
AcDbEntity
  8
7
100
AcDbLine
 10
2.198818897637795
 20
6.429133858267715
 30
0.0
 11
2.195866141732283
 21
6.437007874015747
 31
0.0
  0
LINE
  5
38BD
330
1E
100
AcDbEntity
  8
7
100
AcDbLine
 10
1.597440944881889
 20
6.437007874015747
 30
0.0
 11
1.594488188976377
 21
6.429133858267715
 31
0.0
  0
LINE
  5
38BE
330
1E
100
AcDbEntity
  8
7
100
AcDbLine
 10
1.594488188976377
 20
6.429133858267715
 30
0.0
 11
1.593503937007874
 21
6.421259842519684
 31
0.0
  0
LINE
  5
38BF
330
1E
100
AcDbEntity
  8
7
100
AcDbLine
 10
1.96751968503937
 20
5.23523622047244
 30
0.0
 11
1.974409448818897
 21
5.238188976377952
 31
0.0
  0
LINE
  5
38C0
330
1E
100
AcDbEntity
  8
7
100
AcDbLine
 10
1.974409448818897
 20
5.238188976377952
 30
0.0
 11
1.977362204724409
 21
5.245078740157479
 31
0.0
  0
LINE
  5
38C1
330
1E
100
AcDbEntity
  8
7
100
AcDbLine
 10
1.815944881889763
 20
5.245078740157479
 30
0.0
 11
1.818897637795275
 21
5.238188976377952
 31
0.0
  0
LINE
  5
38C2
330
1E
100
AcDbEntity
  8
7
100
AcDbLine
 10
1.818897637795275
 20
5.238188976377952
 30
0.0
 11
1.825787401574803
 21
5.23523622047244
 31
0.0
  0
LINE
  5
38C3
330
1E
100
AcDbEntity
  8
7
100
AcDbLine
 10
1.825787401574803
 20
5.23523622047244
 30
0.0
 11
1.825787401574803
 21
5.238188976377952
 31
0.0
  0
LINE
  5
38C4
330
1E
100
AcDbEntity
  8
7
100
AcDbLine
 10
1.825787401574803
 20
5.238188976377952
 30
0.0
 11
1.825787401574803
 21
5.245078740157479
 31
0.0
  0
LINE
  5
38C5
330
1E
100
AcDbEntity
  8
7
100
AcDbLine
 10
1.96751968503937
 20
5.245078740157479
 30
0.0
 11
1.96751968503937
 21
5.238188976377952
 31
0.0
  0
LINE
  5
38C6
330
1E
100
AcDbEntity
  8
7
100
AcDbLine
 10
1.96751968503937
 20
5.238188976377952
 30
0.0
 11
1.96751968503937
 21
5.23523622047244
 31
0.0
  0
LINE
  5
38C7
330
1E
100
AcDbEntity
  8
7
100
AcDbLine
 10
1.96751968503937
 20
5.245078740157479
 30
0.0
 11
1.974409448818897
 21
5.245078740157479
 31
0.0
  0
LINE
  5
38C8
330
1E
100
AcDbEntity
  8
7
100
AcDbLine
 10
1.974409448818897
 20
5.245078740157479
 30
0.0
 11
1.977362204724409
 21
5.244094488188975
 31
0.0
  0
LINE
  5
38C9
330
1E
100
AcDbEntity
  8
7
100
AcDbLine
 10
1.824803149606299
 20
5.264763779527558
 30
0.0
 11
1.825787401574803
 21
5.245078740157479
 31
0.0
  0
LINE
  5
38CA
330
1E
100
AcDbEntity
  8
7
100
AcDbLine
 10
1.825787401574803
 20
5.245078740157479
 30
0.0
 11
1.96751968503937
 21
5.245078740157479
 31
0.0
  0
LINE
  5
38CB
330
1E
100
AcDbEntity
  8
7
100
AcDbLine
 10
1.594488188976377
 20
5.489173228346456
 30
0.0
 11
1.58759842519685
 21
5.486220472440944
 31
0.0
  0
LINE
  5
38CC
330
1E
100
AcDbEntity
  8
7
100
AcDbLine
 10
1.58759842519685
 20
5.486220472440944
 30
0.0
 11
1.584645669291338
 21
5.479330708661416
 31
0.0
  0
LINE
  5
38CD
330
1E
100
AcDbEntity
  8
7
100
AcDbLine
 10
2.208661417322834
 20
5.479330708661416
 30
0.0
 11
2.205708661417322
 21
5.486220472440944
 31
0.0
  0
LINE
  5
38CE
330
1E
100
AcDbEntity
  8
7
100
AcDbLine
 10
2.205708661417322
 20
5.486220472440944
 30
0.0
 11
2.198818897637795
 21
5.489173228346456
 31
0.0
  0
LINE
  5
38CF
330
1E
100
AcDbEntity
  8
7
100
AcDbLine
 10
1.36515748031496
 20
5.388779527559054
 30
0.0
 11
1.351377952755905
 21
5.388779527559054
 31
0.0
  0
LINE
  5
38D0
330
1E
100
AcDbEntity
  8
7
100
AcDbLine
 10
1.351377952755905
 20
5.388779527559054
 30
0.0
 11
1.345472440944881
 21
5.388779527559054
 31
0.0
  0
LINE
  5
38D1
330
1E
100
AcDbEntity
  8
7
100
AcDbLine
 10
2.211614173228346
 20
5.388779527559054
 30
0.0
 11
1.581692913385826
 21
5.388779527559054
 31
0.0
  0
LINE
  5
38D2
330
1E
100
AcDbEntity
  8
7
100
AcDbLine
 10
1.581692913385826
 20
5.388779527559054
 30
0.0
 11
1.36515748031496
 21
5.388779527559054
 31
0.0
  0
LINE
  5
38D3
330
1E
100
AcDbEntity
  8
7
100
AcDbLine
 10
1.36515748031496
 20
5.388779527559054
 30
0.0
 11
1.367125984251968
 21
5.279527559055117
 31
0.0
  0
LINE
  5
38D4
330
1E
100
AcDbEntity
  8
7
100
AcDbLine
 10
2.426181102362204
 20
5.279527559055117
 30
0.0
 11
2.440944881889763
 21
5.279527559055117
 31
0.0
  0
LINE
  5
38D5
330
1E
100
AcDbEntity
  8
7
100
AcDbLine
 10
2.440944881889763
 20
5.279527559055117
 30
0.0
 11
2.446850393700787
 21
5.279527559055117
 31
0.0
  0
LINE
  5
38D6
330
1E
100
AcDbEntity
  8
7
100
AcDbLine
 10
2.431102362204724
 20
5.264763779527558
 30
0.0
 11
2.441929133858267
 21
5.268700787401574
 31
0.0
  0
LINE
  5
38D7
330
1E
100
AcDbEntity
  8
7
100
AcDbLine
 10
2.441929133858267
 20
5.268700787401574
 30
0.0
 11
2.445866141732283
 21
5.279527559055117
 31
0.0
  0
LINE
  5
38D8
330
1E
100
AcDbEntity
  8
7
100
AcDbLine
 10
2.426181102362204
 20
5.279527559055117
 30
0.0
 11
2.426181102362204
 21
5.268700787401574
 31
0.0
  0
LINE
  5
38D9
330
1E
100
AcDbEntity
  8
7
100
AcDbLine
 10
2.426181102362204
 20
5.268700787401574
 30
0.0
 11
2.426181102362204
 21
5.264763779527558
 31
0.0
  0
LINE
  5
38DA
330
1E
100
AcDbEntity
  8
7
100
AcDbLine
 10
1.352362204724409
 20
5.279527559055117
 30
0.0
 11
1.367125984251968
 21
5.279527559055117
 31
0.0
  0
LINE
  5
38DB
330
1E
100
AcDbEntity
  8
7
100
AcDbLine
 10
1.367125984251968
 20
5.279527559055117
 30
0.0
 11
2.426181102362204
 21
5.279527559055117
 31
0.0
  0
LINE
  5
38DC
330
1E
100
AcDbEntity
  8
7
100
AcDbLine
 10
1.367125984251968
 20
5.279527559055117
 30
0.0
 11
1.367125984251968
 21
5.268700787401574
 31
0.0
  0
LINE
  5
38DD
330
1E
100
AcDbEntity
  8
7
100
AcDbLine
 10
1.367125984251968
 20
5.268700787401574
 30
0.0
 11
1.367125984251968
 21
5.264763779527558
 31
0.0
  0
LINE
  5
38DE
330
1E
100
AcDbEntity
  8
7
100
AcDbLine
 10
1.347440944881889
 20
5.279527559055117
 30
0.0
 11
1.351377952755905
 21
5.268700787401574
 31
0.0
  0
LINE
  5
38DF
330
1E
100
AcDbEntity
  8
7
100
AcDbLine
 10
1.351377952755905
 20
5.268700787401574
 30
0.0
 11
1.362204724409448
 21
5.264763779527558
 31
0.0
  0
LINE
  5
38E0
330
1E
100
AcDbEntity
  8
7
100
AcDbLine
 10
1.350393700787401
 20
5.388779527559054
 30
0.0
 11
1.347440944881889
 21
5.406496062992125
 31
0.0
  0
LINE
  5
38E1
330
1E
100
AcDbEntity
  8
7
100
AcDbLine
 10
1.347440944881889
 20
5.406496062992125
 30
0.0
 11
1.345472440944881
 21
5.418307086614173
 31
0.0
  0
LINE
  5
38E2
330
1E
100
AcDbEntity
  8
7
100
AcDbLine
 10
1.345472440944881
 20
5.418307086614173
 30
0.0
 11
1.344488188976378
 21
5.422244094488188
 31
0.0
  0
LINE
  5
38E3
330
1E
100
AcDbEntity
  8
7
100
AcDbLine
 10
1.362204724409448
 20
5.579724409448818
 30
0.0
 11
1.347440944881889
 21
5.579724409448818
 31
0.0
  0
LINE
  5
38E4
330
1E
100
AcDbEntity
  8
7
100
AcDbLine
 10
1.347440944881889
 20
5.579724409448818
 30
0.0
 11
1.341535433070866
 21
5.579724409448818
 31
0.0
  0
LINE
  5
38E5
330
1E
100
AcDbEntity
  8
7
100
AcDbLine
 10
1.129921259842519
 20
5.579724409448818
 30
0.0
 11
1.107283464566929
 21
5.579724409448818
 31
0.0
  0
LINE
  5
38E6
330
1E
100
AcDbEntity
  8
7
100
AcDbLine
 10
1.107283464566929
 20
5.579724409448818
 30
0.0
 11
1.08759842519685
 21
5.579724409448818
 31
0.0
  0
LINE
  5
38E7
330
1E
100
AcDbEntity
  8
7
100
AcDbLine
 10
1.08759842519685
 20
5.579724409448818
 30
0.0
 11
1.074803149606299
 21
5.579724409448818
 31
0.0
  0
LINE
  5
38E8
330
1E
100
AcDbEntity
  8
7
100
AcDbLine
 10
1.074803149606299
 20
5.579724409448818
 30
0.0
 11
1.069881889763779
 21
5.579724409448818
 31
0.0
  0
LINE
  5
38E9
330
1E
100
AcDbEntity
  8
7
100
AcDbLine
 10
1.294291338582677
 20
5.422244094488188
 30
0.0
 11
1.294291338582677
 21
5.428149606299212
 31
0.0
  0
LINE
  5
38EA
330
1E
100
AcDbEntity
  8
7
100
AcDbLine
 10
1.294291338582677
 20
5.428149606299212
 30
0.0
 11
1.294291338582677
 21
5.441929133858267
 31
0.0
  0
LINE
  5
38EB
330
1E
100
AcDbEntity
  8
7
100
AcDbLine
 10
1.269685039370078
 20
5.441929133858267
 30
0.0
 11
1.275590551181102
 21
5.428149606299212
 31
0.0
  0
LINE
  5
38EC
330
1E
100
AcDbEntity
  8
7
100
AcDbLine
 10
1.275590551181102
 20
5.428149606299212
 30
0.0
 11
1.289370078740157
 21
5.422244094488188
 31
0.0
  0
LINE
  5
38ED
330
1E
100
AcDbEntity
  8
7
100
AcDbLine
 10
1.268700787401574
 20
5.441929133858267
 30
0.0
 11
1.27263779527559
 21
5.441929133858267
 31
0.0
  0
LINE
  5
38EE
330
1E
100
AcDbEntity
  8
7
100
AcDbLine
 10
1.27263779527559
 20
5.441929133858267
 30
0.0
 11
1.281496062992125
 21
5.441929133858267
 31
0.0
  0
LINE
  5
38EF
330
1E
100
AcDbEntity
  8
7
100
AcDbLine
 10
1.281496062992125
 20
5.441929133858267
 30
0.0
 11
1.294291338582677
 21
5.441929133858267
 31
0.0
  0
LINE
  5
38F0
330
1E
100
AcDbEntity
  8
7
100
AcDbLine
 10
1.070866141732283
 20
5.625
 30
0.0
 11
1.070866141732283
 21
5.623031496062991
 31
0.0
  0
LINE
  5
38F1
330
1E
100
AcDbEntity
  8
7
100
AcDbLine
 10
1.070866141732283
 20
5.623031496062991
 30
0.0
 11
1.068897637795275
 21
5.619094488188975
 31
0.0
  0
LINE
  5
38F2
330
1E
100
AcDbEntity
  8
7
100
AcDbLine
 10
1.068897637795275
 20
5.619094488188975
 30
0.0
 11
1.066929133858267
 21
5.618110236220472
 31
0.0
  0
LINE
  5
38F3
330
1E
100
AcDbEntity
  8
7
100
AcDbLine
 10
1.069881889763779
 20
5.579724409448818
 30
0.0
 11
1.066929133858267
 21
5.579724409448818
 31
0.0
  0
LINE
  5
38F4
330
1E
100
AcDbEntity
  8
7
100
AcDbLine
 10
1.066929133858267
 20
5.579724409448818
 30
0.0
 11
1.06003937007874
 21
5.579724409448818
 31
0.0
  0
LINE
  5
38F5
330
1E
100
AcDbEntity
  8
7
100
AcDbLine
 10
1.041338582677165
 20
5.613188976377952
 30
0.0
 11
1.041338582677165
 21
5.579724409448818
 31
0.0
  0
LINE
  5
38F6
330
1E
100
AcDbEntity
  8
7
100
AcDbLine
 10
1.041338582677165
 20
5.579724409448818
 30
0.0
 11
1.06003937007874
 21
5.579724409448818
 31
0.0
  0
LINE
  5
38F7
330
1E
100
AcDbEntity
  8
7
100
AcDbLine
 10
1.06003937007874
 20
5.579724409448818
 30
0.0
 11
1.061023622047243
 21
5.616141732283463
 31
0.0
  0
LINE
  5
38F8
330
1E
100
AcDbEntity
  8
7
100
AcDbLine
 10
1.041338582677165
 20
5.579724409448818
 30
0.0
 11
1.034448818897637
 21
5.579724409448818
 31
0.0
  0
LINE
  5
38F9
330
1E
100
AcDbEntity
  8
7
100
AcDbLine
 10
1.034448818897637
 20
5.579724409448818
 30
0.0
 11
1.031496062992125
 21
5.579724409448818
 31
0.0
  0
LINE
  5
38FA
330
1E
100
AcDbEntity
  8
7
100
AcDbLine
 10
1.031496062992125
 20
5.611220472440944
 30
0.0
 11
1.034448818897637
 21
5.611220472440944
 31
0.0
  0
LINE
  5
38FB
330
1E
100
AcDbEntity
  8
7
100
AcDbLine
 10
1.034448818897637
 20
5.611220472440944
 30
0.0
 11
1.041338582677165
 21
5.613188976377952
 31
0.0
  0
LINE
  5
38FC
330
1E
100
AcDbEntity
  8
7
100
AcDbLine
 10
2.448818897637795
 20
5.422244094488188
 30
0.0
 11
2.447834645669291
 21
5.418307086614173
 31
0.0
  0
LINE
  5
38FD
330
1E
100
AcDbEntity
  8
7
100
AcDbLine
 10
2.447834645669291
 20
5.418307086614173
 30
0.0
 11
2.445866141732283
 21
5.406496062992125
 31
0.0
  0
LINE
  5
38FE
330
1E
100
AcDbEntity
  8
7
100
AcDbLine
 10
2.445866141732283
 20
5.406496062992125
 30
0.0
 11
2.442913385826771
 21
5.388779527559054
 31
0.0
  0
LINE
  5
38FF
330
1E
100
AcDbEntity
  8
7
100
AcDbLine
 10
2.705708661417322
 20
5.579724409448818
 30
0.0
 11
2.686023622047243
 21
5.579724409448818
 31
0.0
  0
LINE
  5
3900
330
1E
100
AcDbEntity
  8
7
100
AcDbLine
 10
2.686023622047243
 20
5.579724409448818
 30
0.0
 11
2.663385826771653
 21
5.579724409448818
 31
0.0
  0
LINE
  5
3901
330
1E
100
AcDbEntity
  8
7
100
AcDbLine
 10
2.733267716535432
 20
5.579724409448818
 30
0.0
 11
2.726377952755905
 21
5.579724409448818
 31
0.0
  0
LINE
  5
3902
330
1E
100
AcDbEntity
  8
7
100
AcDbLine
 10
2.726377952755905
 20
5.579724409448818
 30
0.0
 11
2.723425196850393
 21
5.579724409448818
 31
0.0
  0
LINE
  5
3903
330
1E
100
AcDbEntity
  8
7
100
AcDbLine
 10
2.723425196850393
 20
5.579724409448818
 30
0.0
 11
2.718503937007874
 21
5.579724409448818
 31
0.0
  0
LINE
  5
3904
330
1E
100
AcDbEntity
  8
7
100
AcDbLine
 10
2.718503937007874
 20
5.579724409448818
 30
0.0
 11
2.705708661417322
 21
5.579724409448818
 31
0.0
  0
LINE
  5
3905
330
1E
100
AcDbEntity
  8
7
100
AcDbLine
 10
2.729330708661417
 20
5.617125984251968
 30
0.0
 11
2.726377952755905
 21
5.618110236220472
 31
0.0
  0
LINE
  5
3906
330
1E
100
AcDbEntity
  8
7
100
AcDbLine
 10
2.726377952755905
 20
5.618110236220472
 30
0.0
 11
2.724409448818897
 21
5.619094488188975
 31
0.0
  0
LINE
  5
3907
330
1E
100
AcDbEntity
  8
7
100
AcDbLine
 10
2.724409448818897
 20
5.619094488188975
 30
0.0
 11
2.722440944881889
 21
5.623031496062991
 31
0.0
  0
LINE
  5
3908
330
1E
100
AcDbEntity
  8
7
100
AcDbLine
 10
2.722440944881889
 20
5.623031496062991
 30
0.0
 11
2.722440944881889
 21
5.625
 31
0.0
  0
LINE
  5
3909
330
1E
100
AcDbEntity
  8
7
100
AcDbLine
 10
2.761811023622047
 20
5.579724409448818
 30
0.0
 11
2.758858267716535
 21
5.579724409448818
 31
0.0
  0
LINE
  5
390A
330
1E
100
AcDbEntity
  8
7
100
AcDbLine
 10
2.758858267716535
 20
5.579724409448818
 30
0.0
 11
2.751968503937007
 21
5.579724409448818
 31
0.0
  0
LINE
  5
390B
330
1E
100
AcDbEntity
  8
7
100
AcDbLine
 10
2.733267716535432
 20
5.579724409448818
 30
0.0
 11
2.751968503937007
 21
5.579724409448818
 31
0.0
  0
LINE
  5
390C
330
1E
100
AcDbEntity
  8
7
100
AcDbLine
 10
2.751968503937007
 20
5.579724409448818
 30
0.0
 11
2.751968503937007
 21
5.613188976377952
 31
0.0
  0
LINE
  5
390D
330
1E
100
AcDbEntity
  8
7
100
AcDbLine
 10
2.751968503937007
 20
5.613188976377952
 30
0.0
 11
2.758858267716535
 21
5.611220472440944
 31
0.0
  0
LINE
  5
390E
330
1E
100
AcDbEntity
  8
7
100
AcDbLine
 10
2.758858267716535
 20
5.611220472440944
 30
0.0
 11
2.761811023622047
 21
5.611220472440944
 31
0.0
  0
LINE
  5
390F
330
1E
100
AcDbEntity
  8
7
100
AcDbLine
 10
2.499015748031495
 20
5.441929133858267
 30
0.0
 11
2.511811023622047
 21
5.441929133858267
 31
0.0
  0
LINE
  5
3910
330
1E
100
AcDbEntity
  8
7
100
AcDbLine
 10
2.511811023622047
 20
5.441929133858267
 30
0.0
 11
2.520669291338582
 21
5.441929133858267
 31
0.0
  0
LINE
  5
3911
330
1E
100
AcDbEntity
  8
7
100
AcDbLine
 10
2.520669291338582
 20
5.441929133858267
 30
0.0
 11
2.524606299212598
 21
5.441929133858267
 31
0.0
  0
LINE
  5
3912
330
1E
100
AcDbEntity
  8
7
100
AcDbLine
 10
2.503937007874015
 20
5.422244094488188
 30
0.0
 11
2.51771653543307
 21
5.428149606299212
 31
0.0
  0
LINE
  5
3913
330
1E
100
AcDbEntity
  8
7
100
AcDbLine
 10
2.51771653543307
 20
5.428149606299212
 30
0.0
 11
2.523622047244094
 21
5.441929133858267
 31
0.0
  0
LINE
  5
3914
330
1E
100
AcDbEntity
  8
7
100
AcDbLine
 10
2.499015748031495
 20
5.441929133858267
 30
0.0
 11
2.499015748031495
 21
5.428149606299212
 31
0.0
  0
LINE
  5
3915
330
1E
100
AcDbEntity
  8
7
100
AcDbLine
 10
2.499015748031495
 20
5.428149606299212
 30
0.0
 11
2.499015748031495
 21
5.422244094488188
 31
0.0
  0
LINE
  5
3916
330
1E
100
AcDbEntity
  8
7
100
AcDbLine
 10
1.343503937007874
 20
5.699803149606299
 30
0.0
 11
1.349409448818897
 21
5.699803149606299
 31
0.0
  0
LINE
  5
3917
330
1E
100
AcDbEntity
  8
7
100
AcDbLine
 10
1.349409448818897
 20
5.699803149606299
 30
0.0
 11
1.364173228346456
 21
5.699803149606299
 31
0.0
  0
LINE
  5
3918
330
1E
100
AcDbEntity
  8
7
100
AcDbLine
 10
1.071850393700787
 20
5.699803149606299
 30
0.0
 11
1.076771653543306
 21
5.699803149606299
 31
0.0
  0
LINE
  5
3919
330
1E
100
AcDbEntity
  8
7
100
AcDbLine
 10
1.076771653543306
 20
5.699803149606299
 30
0.0
 11
1.089566929133858
 21
5.699803149606299
 31
0.0
  0
LINE
  5
391A
330
1E
100
AcDbEntity
  8
7
100
AcDbLine
 10
1.089566929133858
 20
5.699803149606299
 30
0.0
 11
1.109251968503937
 21
5.699803149606299
 31
0.0
  0
LINE
  5
391B
330
1E
100
AcDbEntity
  8
7
100
AcDbLine
 10
1.109251968503937
 20
5.699803149606299
 30
0.0
 11
1.131889763779527
 21
5.699803149606299
 31
0.0
  0
LINE
  5
391C
330
1E
100
AcDbEntity
  8
7
100
AcDbLine
 10
2.661417322834645
 20
5.699803149606299
 30
0.0
 11
2.684055118110236
 21
5.699803149606299
 31
0.0
  0
LINE
  5
391D
330
1E
100
AcDbEntity
  8
7
100
AcDbLine
 10
2.684055118110236
 20
5.699803149606299
 30
0.0
 11
2.703740157480314
 21
5.699803149606299
 31
0.0
  0
LINE
  5
391E
330
1E
100
AcDbEntity
  8
7
100
AcDbLine
 10
2.703740157480314
 20
5.699803149606299
 30
0.0
 11
2.716535433070866
 21
5.699803149606299
 31
0.0
  0
LINE
  5
391F
330
1E
100
AcDbEntity
  8
7
100
AcDbLine
 10
2.716535433070866
 20
5.699803149606299
 30
0.0
 11
2.721456692913385
 21
5.699803149606299
 31
0.0
  0
LINE
  5
3920
330
1E
100
AcDbEntity
  8
7
100
AcDbLine
 10
2.43011811023622
 20
5.699803149606299
 30
0.0
 11
2.443897637795275
 21
5.699803149606299
 31
0.0
  0
LINE
  5
3921
330
1E
100
AcDbEntity
  8
7
100
AcDbLine
 10
2.443897637795275
 20
5.699803149606299
 30
0.0
 11
2.449803149606299
 21
5.699803149606299
 31
0.0
  0
LINE
  5
3922
330
1E
100
AcDbEntity
  8
7
100
AcDbLine
 10
1.576771653543306
 20
5.388779527559054
 30
0.0
 11
1.36515748031496
 21
5.388779527559054
 31
0.0
  0
LINE
  5
3923
330
1E
100
AcDbEntity
  8
7
100
AcDbLine
 10
1.36515748031496
 20
5.388779527559054
 30
0.0
 11
1.350393700787401
 21
5.388779527559054
 31
0.0
  0
LINE
  5
3924
330
1E
100
AcDbEntity
  8
7
100
AcDbLine
 10
2.442913385826771
 20
5.388779527559054
 30
0.0
 11
2.428149606299212
 21
5.388779527559054
 31
0.0
  0
LINE
  5
3925
330
1E
100
AcDbEntity
  8
7
100
AcDbLine
 10
2.428149606299212
 20
5.388779527559054
 30
0.0
 11
2.216535433070866
 21
5.388779527559054
 31
0.0
  0
LINE
  5
3926
330
1E
100
AcDbEntity
  8
7
100
AcDbLine
 10
1.96751968503937
 20
3.792322834645668
 30
0.0
 11
1.96751968503937
 21
3.794291338582677
 31
0.0
  0
LINE
  5
3927
330
1E
100
AcDbEntity
  8
7
100
AcDbLine
 10
1.96751968503937
 20
3.794291338582677
 30
0.0
 11
1.96751968503937
 21
3.802165354330708
 31
0.0
  0
LINE
  5
3928
330
1E
100
AcDbEntity
  8
7
100
AcDbLine
 10
1.825787401574803
 20
3.802165354330708
 30
0.0
 11
1.825787401574803
 21
3.794291338582677
 31
0.0
  0
LINE
  5
3929
330
1E
100
AcDbEntity
  8
7
100
AcDbLine
 10
1.825787401574803
 20
3.794291338582677
 30
0.0
 11
1.825787401574803
 21
3.792322834645668
 31
0.0
  0
LINE
  5
392A
330
1E
100
AcDbEntity
  8
7
100
AcDbLine
 10
1.977362204724409
 20
3.802165354330708
 30
0.0
 11
1.974409448818897
 21
3.802165354330708
 31
0.0
  0
LINE
  5
392B
330
1E
100
AcDbEntity
  8
7
100
AcDbLine
 10
1.974409448818897
 20
3.802165354330708
 30
0.0
 11
1.96751968503937
 21
3.802165354330708
 31
0.0
  0
LINE
  5
392C
330
1E
100
AcDbEntity
  8
7
100
AcDbLine
 10
1.977362204724409
 20
3.826771653543307
 30
0.0
 11
1.974409448818897
 21
3.826771653543307
 31
0.0
  0
LINE
  5
392D
330
1E
100
AcDbEntity
  8
7
100
AcDbLine
 10
1.974409448818897
 20
3.826771653543307
 30
0.0
 11
1.96751968503937
 21
3.826771653543307
 31
0.0
  0
LINE
  5
392E
330
1E
100
AcDbEntity
  8
7
100
AcDbLine
 10
1.825787401574803
 20
3.826771653543307
 30
0.0
 11
1.818897637795275
 21
3.826771653543307
 31
0.0
  0
LINE
  5
392F
330
1E
100
AcDbEntity
  8
7
100
AcDbLine
 10
1.818897637795275
 20
3.826771653543307
 30
0.0
 11
1.815944881889763
 21
3.826771653543307
 31
0.0
  0
LINE
  5
3930
330
1E
100
AcDbEntity
  8
7
100
AcDbLine
 10
1.825787401574803
 20
3.826771653543307
 30
0.0
 11
1.825787401574803
 21
3.833661417322834
 31
0.0
  0
LINE
  5
3931
330
1E
100
AcDbEntity
  8
7
100
AcDbLine
 10
1.825787401574803
 20
3.833661417322834
 30
0.0
 11
1.825787401574803
 21
3.836614173228346
 31
0.0
  0
LINE
  5
3932
330
1E
100
AcDbEntity
  8
7
100
AcDbLine
 10
1.96751968503937
 20
3.836614173228346
 30
0.0
 11
1.96751968503937
 21
3.833661417322834
 31
0.0
  0
LINE
  5
3933
330
1E
100
AcDbEntity
  8
7
100
AcDbLine
 10
1.96751968503937
 20
3.833661417322834
 30
0.0
 11
1.96751968503937
 21
3.826771653543307
 31
0.0
  0
LINE
  5
3934
330
1E
100
AcDbEntity
  8
7
100
AcDbLine
 10
1.825787401574803
 20
3.792322834645668
 30
0.0
 11
1.818897637795275
 21
3.794291338582677
 31
0.0
  0
LINE
  5
3935
330
1E
100
AcDbEntity
  8
7
100
AcDbLine
 10
1.818897637795275
 20
3.794291338582677
 30
0.0
 11
1.815944881889763
 21
3.802165354330708
 31
0.0
  0
LINE
  5
3936
330
1E
100
AcDbEntity
  8
7
100
AcDbLine
 10
1.815944881889763
 20
3.826771653543307
 30
0.0
 11
1.818897637795275
 21
3.833661417322834
 31
0.0
  0
LINE
  5
3937
330
1E
100
AcDbEntity
  8
7
100
AcDbLine
 10
1.818897637795275
 20
3.833661417322834
 30
0.0
 11
1.825787401574803
 21
3.836614173228346
 31
0.0
  0
LINE
  5
3938
330
1E
100
AcDbEntity
  8
7
100
AcDbLine
 10
1.96751968503937
 20
3.836614173228346
 30
0.0
 11
1.974409448818897
 21
3.833661417322834
 31
0.0
  0
LINE
  5
3939
330
1E
100
AcDbEntity
  8
7
100
AcDbLine
 10
1.974409448818897
 20
3.833661417322834
 30
0.0
 11
1.977362204724409
 21
3.826771653543307
 31
0.0
  0
LINE
  5
393A
330
1E
100
AcDbEntity
  8
7
100
AcDbLine
 10
1.977362204724409
 20
3.802165354330708
 30
0.0
 11
1.974409448818897
 21
3.794291338582677
 31
0.0
  0
LINE
  5
393B
330
1E
100
AcDbEntity
  8
7
100
AcDbLine
 10
1.974409448818897
 20
3.794291338582677
 30
0.0
 11
1.96751968503937
 21
3.792322834645668
 31
0.0
  0
LINE
  5
393C
330
1E
100
AcDbEntity
  8
7
100
AcDbLine
 10
1.815944881889763
 20
3.802165354330708
 30
0.0
 11
1.815944881889763
 21
3.826771653543307
 31
0.0
  0
LINE
  5
393D
330
1E
100
AcDbEntity
  8
7
100
AcDbLine
 10
1.815944881889763
 20
3.826771653543307
 30
0.0
 11
1.812992125984251
 21
3.826771653543307
 31
0.0
  0
LINE
  5
393E
330
1E
100
AcDbEntity
  8
7
100
AcDbLine
 10
1.980314960629921
 20
3.826771653543307
 30
0.0
 11
1.977362204724409
 21
3.826771653543307
 31
0.0
  0
LINE
  5
393F
330
1E
100
AcDbEntity
  8
7
100
AcDbLine
 10
1.977362204724409
 20
3.826771653543307
 30
0.0
 11
1.977362204724409
 21
3.802165354330708
 31
0.0
  0
LINE
  5
3940
330
1E
100
AcDbEntity
  8
7
100
AcDbLine
 10
1.977362204724409
 20
3.802165354330708
 30
0.0
 11
1.980314960629921
 21
3.802165354330708
 31
0.0
  0
LINE
  5
3941
330
1E
100
AcDbEntity
  8
7
100
AcDbLine
 10
1.825787401574803
 20
3.826771653543307
 30
0.0
 11
1.825787401574803
 21
3.802165354330708
 31
0.0
  0
LINE
  5
3942
330
1E
100
AcDbEntity
  8
7
100
AcDbLine
 10
1.825787401574803
 20
3.802165354330708
 30
0.0
 11
1.96751968503937
 21
3.802165354330708
 31
0.0
  0
LINE
  5
3943
330
1E
100
AcDbEntity
  8
7
100
AcDbLine
 10
1.96751968503937
 20
3.802165354330708
 30
0.0
 11
1.96751968503937
 21
3.826771653543307
 31
0.0
  0
LINE
  5
3944
330
1E
100
AcDbEntity
  8
7
100
AcDbLine
 10
1.96751968503937
 20
3.826771653543307
 30
0.0
 11
1.825787401574803
 21
3.826771653543307
 31
0.0
  0
LINE
  5
3945
330
1E
100
AcDbEntity
  8
7
100
AcDbLine
 10
1.606299212598425
 20
3.792322834645668
 30
0.0
 11
1.609251968503937
 21
3.794291338582677
 31
0.0
  0
LINE
  5
3946
330
1E
100
AcDbEntity
  8
7
100
AcDbLine
 10
1.609251968503937
 20
3.794291338582677
 30
0.0
 11
1.617125984251968
 21
3.802165354330708
 31
0.0
  0
LINE
  5
3947
330
1E
100
AcDbEntity
  8
7
100
AcDbLine
 10
1.822834645669291
 20
3.792322834645668
 30
0.0
 11
1.815944881889763
 21
3.794291338582677
 31
0.0
  0
LINE
  5
3948
330
1E
100
AcDbEntity
  8
7
100
AcDbLine
 10
1.815944881889763
 20
3.794291338582677
 30
0.0
 11
1.812992125984251
 21
3.802165354330708
 31
0.0
  0
LINE
  5
3949
330
1E
100
AcDbEntity
  8
7
100
AcDbLine
 10
1.617125984251968
 20
3.826771653543307
 30
0.0
 11
1.609251968503937
 21
3.833661417322834
 31
0.0
  0
LINE
  5
394A
330
1E
100
AcDbEntity
  8
7
100
AcDbLine
 10
1.609251968503937
 20
3.833661417322834
 30
0.0
 11
1.606299212598425
 21
3.836614173228346
 31
0.0
  0
LINE
  5
394B
330
1E
100
AcDbEntity
  8
7
100
AcDbLine
 10
1.812992125984251
 20
3.826771653543307
 30
0.0
 11
1.815944881889763
 21
3.833661417322834
 31
0.0
  0
LINE
  5
394C
330
1E
100
AcDbEntity
  8
7
100
AcDbLine
 10
1.815944881889763
 20
3.833661417322834
 30
0.0
 11
1.822834645669291
 21
3.836614173228346
 31
0.0
  0
LINE
  5
394D
330
1E
100
AcDbEntity
  8
7
100
AcDbLine
 10
1.96751968503937
 20
3.792322834645668
 30
0.0
 11
1.825787401574803
 21
3.792322834645668
 31
0.0
  0
LINE
  5
394E
330
1E
100
AcDbEntity
  8
7
100
AcDbLine
 10
1.825787401574803
 20
3.792322834645668
 30
0.0
 11
1.824803149606299
 21
3.792322834645668
 31
0.0
  0
LINE
  5
394F
330
1E
100
AcDbEntity
  8
7
100
AcDbLine
 10
1.812992125984251
 20
3.826771653543307
 30
0.0
 11
1.617125984251968
 21
3.826771653543307
 31
0.0
  0
LINE
  5
3950
330
1E
100
AcDbEntity
  8
7
100
AcDbLine
 10
1.617125984251968
 20
3.826771653543307
 30
0.0
 11
1.617125984251968
 21
3.802165354330708
 31
0.0
  0
LINE
  5
3951
330
1E
100
AcDbEntity
  8
7
100
AcDbLine
 10
1.617125984251968
 20
3.802165354330708
 30
0.0
 11
1.812992125984251
 21
3.802165354330708
 31
0.0
  0
LINE
  5
3952
330
1E
100
AcDbEntity
  8
7
100
AcDbLine
 10
1.825787401574803
 20
3.836614173228346
 30
0.0
 11
1.96751968503937
 21
3.836614173228346
 31
0.0
  0
LINE
  5
3953
330
1E
100
AcDbEntity
  8
7
100
AcDbLine
 10
1.96751968503937
 20
3.836614173228346
 30
0.0
 11
1.970472440944881
 21
3.836614173228346
 31
0.0
  0
LINE
  5
3954
330
1E
100
AcDbEntity
  8
7
100
AcDbLine
 10
2.187007874015748
 20
3.792322834645668
 30
0.0
 11
2.184055118110236
 21
3.794291338582677
 31
0.0
  0
LINE
  5
3955
330
1E
100
AcDbEntity
  8
7
100
AcDbLine
 10
2.184055118110236
 20
3.794291338582677
 30
0.0
 11
2.177165354330708
 21
3.802165354330708
 31
0.0
  0
LINE
  5
3956
330
1E
100
AcDbEntity
  8
7
100
AcDbLine
 10
1.980314960629921
 20
3.802165354330708
 30
0.0
 11
1.977362204724409
 21
3.794291338582677
 31
0.0
  0
LINE
  5
3957
330
1E
100
AcDbEntity
  8
7
100
AcDbLine
 10
1.977362204724409
 20
3.794291338582677
 30
0.0
 11
1.970472440944881
 21
3.792322834645668
 31
0.0
  0
LINE
  5
3958
330
1E
100
AcDbEntity
  8
7
100
AcDbLine
 10
2.177165354330708
 20
3.826771653543307
 30
0.0
 11
2.184055118110236
 21
3.833661417322834
 31
0.0
  0
LINE
  5
3959
330
1E
100
AcDbEntity
  8
7
100
AcDbLine
 10
2.184055118110236
 20
3.833661417322834
 30
0.0
 11
2.187007874015748
 21
3.836614173228346
 31
0.0
  0
LINE
  5
395A
330
1E
100
AcDbEntity
  8
7
100
AcDbLine
 10
1.970472440944881
 20
3.836614173228346
 30
0.0
 11
1.977362204724409
 21
3.833661417322834
 31
0.0
  0
LINE
  5
395B
330
1E
100
AcDbEntity
  8
7
100
AcDbLine
 10
1.977362204724409
 20
3.833661417322834
 30
0.0
 11
1.980314960629921
 21
3.826771653543307
 31
0.0
  0
LINE
  5
395C
330
1E
100
AcDbEntity
  8
7
100
AcDbLine
 10
1.980314960629921
 20
3.802165354330708
 30
0.0
 11
2.177165354330708
 21
3.802165354330708
 31
0.0
  0
LINE
  5
395D
330
1E
100
AcDbEntity
  8
7
100
AcDbLine
 10
2.177165354330708
 20
3.802165354330708
 30
0.0
 11
2.177165354330708
 21
3.826771653543307
 31
0.0
  0
LINE
  5
395E
330
1E
100
AcDbEntity
  8
7
100
AcDbLine
 10
2.177165354330708
 20
3.826771653543307
 30
0.0
 11
1.980314960629921
 21
3.826771653543307
 31
0.0
  0
LINE
  5
395F
330
1E
100
AcDbEntity
  8
7
100
AcDbLine
 10
2.211614173228346
 20
4.585629921259842
 30
0.0
 11
1.581692913385826
 21
4.585629921259842
 31
0.0
  0
LINE
  5
3960
330
1E
100
AcDbEntity
  8
7
100
AcDbLine
 10
1.581692913385826
 20
4.585629921259842
 30
0.0
 11
1.36515748031496
 21
4.585629921259842
 31
0.0
  0
LINE
  5
3961
330
1E
100
AcDbEntity
  8
7
100
AcDbLine
 10
1.36515748031496
 20
4.585629921259842
 30
0.0
 11
1.367125984251968
 21
4.583661417322834
 31
0.0
  0
LINE
  5
3962
330
1E
100
AcDbEntity
  8
7
100
AcDbLine
 10
1.347440944881889
 20
4.563976377952755
 30
0.0
 11
1.345472440944881
 21
4.565944881889762
 31
0.0
  0
LINE
  5
3963
330
1E
100
AcDbEntity
  8
7
100
AcDbLine
 10
1.345472440944881
 20
4.565944881889762
 30
0.0
 11
1.345472440944881
 21
4.383858267716535
 31
0.0
  0
LINE
  5
3964
330
1E
100
AcDbEntity
  8
7
100
AcDbLine
 10
2.431102362204724
 20
3.714566929133858
 30
0.0
 11
2.441929133858267
 21
3.714566929133858
 31
0.0
  0
LINE
  5
3965
330
1E
100
AcDbEntity
  8
7
100
AcDbLine
 10
2.441929133858267
 20
3.714566929133858
 30
0.0
 11
2.446850393700787
 21
3.714566929133858
 31
0.0
  0
LINE
  5
3966
330
1E
100
AcDbEntity
  8
7
100
AcDbLine
 10
2.446850393700787
 20
3.714566929133858
 30
0.0
 11
2.440944881889763
 21
3.699803149606299
 31
0.0
  0
LINE
  5
3967
330
1E
100
AcDbEntity
  8
7
100
AcDbLine
 10
2.440944881889763
 20
3.699803149606299
 30
0.0
 11
2.426181102362204
 21
3.693897637795275
 31
0.0
  0
LINE
  5
3968
330
1E
100
AcDbEntity
  8
7
100
AcDbLine
 10
2.426181102362204
 20
3.708661417322834
 30
0.0
 11
2.426181102362204
 21
3.698818897637795
 31
0.0
  0
LINE
  5
3969
330
1E
100
AcDbEntity
  8
7
100
AcDbLine
 10
2.426181102362204
 20
3.698818897637795
 30
0.0
 11
2.426181102362204
 21
3.693897637795275
 31
0.0
  0
LINE
  5
396A
330
1E
100
AcDbEntity
  8
7
100
AcDbLine
 10
2.426181102362204
 20
4.583661417322834
 30
0.0
 11
2.440944881889763
 21
4.577755905511811
 31
0.0
  0
LINE
  5
396B
330
1E
100
AcDbEntity
  8
7
100
AcDbLine
 10
2.440944881889763
 20
4.577755905511811
 30
0.0
 11
2.446850393700787
 21
4.563976377952755
 31
0.0
  0
LINE
  5
396C
330
1E
100
AcDbEntity
  8
7
100
AcDbLine
 10
2.431102362204724
 20
4.563976377952755
 30
0.0
 11
2.441929133858267
 21
4.563976377952755
 31
0.0
  0
LINE
  5
396D
330
1E
100
AcDbEntity
  8
7
100
AcDbLine
 10
2.441929133858267
 20
4.563976377952755
 30
0.0
 11
2.446850393700787
 21
4.563976377952755
 31
0.0
  0
LINE
  5
396E
330
1E
100
AcDbEntity
  8
7
100
AcDbLine
 10
2.426181102362204
 20
4.583661417322834
 30
0.0
 11
2.426181102362204
 21
4.578740157480314
 31
0.0
  0
LINE
  5
396F
330
1E
100
AcDbEntity
  8
7
100
AcDbLine
 10
2.426181102362204
 20
4.578740157480314
 30
0.0
 11
2.426181102362204
 21
4.568897637795275
 31
0.0
  0
LINE
  5
3970
330
1E
100
AcDbEntity
  8
7
100
AcDbLine
 10
1.347440944881889
 20
4.563976377952755
 30
0.0
 11
1.352362204724409
 21
4.577755905511811
 31
0.0
  0
LINE
  5
3971
330
1E
100
AcDbEntity
  8
7
100
AcDbLine
 10
1.352362204724409
 20
4.577755905511811
 30
0.0
 11
1.367125984251968
 21
4.583661417322834
 31
0.0
  0
LINE
  5
3972
330
1E
100
AcDbEntity
  8
7
100
AcDbLine
 10
1.367125984251968
 20
4.583661417322834
 30
0.0
 11
1.367125984251968
 21
4.578740157480314
 31
0.0
  0
LINE
  5
3973
330
1E
100
AcDbEntity
  8
7
100
AcDbLine
 10
1.367125984251968
 20
4.578740157480314
 30
0.0
 11
1.367125984251968
 21
4.568897637795275
 31
0.0
  0
LINE
  5
3974
330
1E
100
AcDbEntity
  8
7
100
AcDbLine
 10
1.347440944881889
 20
4.563976377952755
 30
0.0
 11
1.351377952755905
 21
4.563976377952755
 31
0.0
  0
LINE
  5
3975
330
1E
100
AcDbEntity
  8
7
100
AcDbLine
 10
1.351377952755905
 20
4.563976377952755
 30
0.0
 11
1.362204724409448
 21
4.563976377952755
 31
0.0
  0
LINE
  5
3976
330
1E
100
AcDbEntity
  8
7
100
AcDbLine
 10
1.367125984251968
 20
3.708661417322834
 30
0.0
 11
1.367125984251968
 21
3.698818897637795
 31
0.0
  0
LINE
  5
3977
330
1E
100
AcDbEntity
  8
7
100
AcDbLine
 10
1.367125984251968
 20
3.698818897637795
 30
0.0
 11
1.367125984251968
 21
3.693897637795275
 31
0.0
  0
LINE
  5
3978
330
1E
100
AcDbEntity
  8
7
100
AcDbLine
 10
1.367125984251968
 20
3.693897637795275
 30
0.0
 11
1.352362204724409
 21
3.699803149606299
 31
0.0
  0
LINE
  5
3979
330
1E
100
AcDbEntity
  8
7
100
AcDbLine
 10
1.352362204724409
 20
3.699803149606299
 30
0.0
 11
1.347440944881889
 21
3.714566929133858
 31
0.0
  0
LINE
  5
397A
330
1E
100
AcDbEntity
  8
7
100
AcDbLine
 10
1.347440944881889
 20
3.714566929133858
 30
0.0
 11
1.351377952755905
 21
3.714566929133858
 31
0.0
  0
LINE
  5
397B
330
1E
100
AcDbEntity
  8
7
100
AcDbLine
 10
1.351377952755905
 20
3.714566929133858
 30
0.0
 11
1.362204724409448
 21
3.714566929133858
 31
0.0
  0
LINE
  5
397C
330
1E
100
AcDbEntity
  8
7
100
AcDbLine
 10
2.448818897637795
 20
4.565944881889762
 30
0.0
 11
2.442913385826771
 21
4.579724409448818
 31
0.0
  0
LINE
  5
397D
330
1E
100
AcDbEntity
  8
7
100
AcDbLine
 10
2.442913385826771
 20
4.579724409448818
 30
0.0
 11
2.428149606299212
 21
4.585629921259842
 31
0.0
  0
LINE
  5
397E
330
1E
100
AcDbEntity
  8
7
100
AcDbLine
 10
1.345472440944881
 20
3.71259842519685
 30
0.0
 11
1.351377952755905
 21
3.697834645669291
 31
0.0
  0
LINE
  5
397F
330
1E
100
AcDbEntity
  8
7
100
AcDbLine
 10
1.351377952755905
 20
3.697834645669291
 30
0.0
 11
1.36515748031496
 21
3.691929133858268
 31
0.0
  0
LINE
  5
3980
330
1E
100
AcDbEntity
  8
7
100
AcDbLine
 10
2.428149606299212
 20
3.691929133858268
 30
0.0
 11
2.442913385826771
 21
3.697834645669291
 31
0.0
  0
LINE
  5
3981
330
1E
100
AcDbEntity
  8
7
100
AcDbLine
 10
2.442913385826771
 20
3.697834645669291
 30
0.0
 11
2.448818897637795
 21
3.71259842519685
 31
0.0
  0
LINE
  5
3982
330
1E
100
AcDbEntity
  8
7
100
AcDbLine
 10
1.350393700787401
 20
4.578740157480314
 30
0.0
 11
1.347440944881889
 21
4.575787401574802
 31
0.0
  0
LINE
  5
3983
330
1E
100
AcDbEntity
  8
7
100
AcDbLine
 10
1.347440944881889
 20
4.575787401574802
 30
0.0
 11
1.345472440944881
 21
4.570866141732283
 31
0.0
  0
LINE
  5
3984
330
1E
100
AcDbEntity
  8
7
100
AcDbLine
 10
1.345472440944881
 20
4.570866141732283
 30
0.0
 11
1.344488188976378
 21
4.565944881889762
 31
0.0
  0
LINE
  5
3985
330
1E
100
AcDbEntity
  8
7
100
AcDbLine
 10
1.344488188976378
 20
3.711614173228346
 30
0.0
 11
1.345472440944881
 21
3.706692913385827
 31
0.0
  0
LINE
  5
3986
330
1E
100
AcDbEntity
  8
7
100
AcDbLine
 10
1.345472440944881
 20
3.706692913385827
 30
0.0
 11
1.347440944881889
 21
3.702755905511811
 31
0.0
  0
LINE
  5
3987
330
1E
100
AcDbEntity
  8
7
100
AcDbLine
 10
1.347440944881889
 20
3.702755905511811
 30
0.0
 11
1.350393700787401
 21
3.698818897637795
 31
0.0
  0
LINE
  5
3988
330
1E
100
AcDbEntity
  8
7
100
AcDbLine
 10
1.341535433070866
 20
3.708661417322834
 30
0.0
 11
1.347440944881889
 21
3.694881889763779
 31
0.0
  0
LINE
  5
3989
330
1E
100
AcDbEntity
  8
7
100
AcDbLine
 10
1.347440944881889
 20
3.694881889763779
 30
0.0
 11
1.362204724409448
 21
3.688976377952756
 31
0.0
  0
LINE
  5
398A
330
1E
100
AcDbEntity
  8
7
100
AcDbLine
 10
1.362204724409448
 20
4.588582677165353
 30
0.0
 11
1.347440944881889
 21
4.58267716535433
 31
0.0
  0
LINE
  5
398B
330
1E
100
AcDbEntity
  8
7
100
AcDbLine
 10
1.347440944881889
 20
4.58267716535433
 30
0.0
 11
1.341535433070866
 21
4.568897637795275
 31
0.0
  0
LINE
  5
398C
330
1E
100
AcDbEntity
  8
7
100
AcDbLine
 10
1.344488188976378
 20
4.451771653543306
 30
0.0
 11
1.344488188976378
 21
4.445866141732283
 31
0.0
  0
LINE
  5
398D
330
1E
100
AcDbEntity
  8
7
100
AcDbLine
 10
1.344488188976378
 20
4.445866141732283
 30
0.0
 11
1.344488188976378
 21
4.431102362204724
 31
0.0
  0
LINE
  5
398E
330
1E
100
AcDbEntity
  8
7
100
AcDbLine
 10
1.344488188976378
 20
3.825787401574803
 30
0.0
 11
1.344488188976378
 21
3.832677165354331
 31
0.0
  0
LINE
  5
398F
330
1E
100
AcDbEntity
  8
7
100
AcDbLine
 10
1.344488188976378
 20
3.832677165354331
 30
0.0
 11
1.344488188976378
 21
3.846456692913385
 31
0.0
  0
LINE
  5
3990
330
1E
100
AcDbEntity
  8
7
100
AcDbLine
 10
1.341535433070866
 20
3.823818897637795
 30
0.0
 11
1.344488188976378
 21
3.825787401574803
 31
0.0
  0
LINE
  5
3991
330
1E
100
AcDbEntity
  8
7
100
AcDbLine
 10
1.344488188976378
 20
3.825787401574803
 30
0.0
 11
1.294291338582677
 21
3.825787401574803
 31
0.0
  0
LINE
  5
3992
330
1E
100
AcDbEntity
  8
7
100
AcDbLine
 10
1.069881889763779
 20
3.785433070866142
 30
0.0
 11
1.074803149606299
 21
3.762795275590551
 31
0.0
  0
LINE
  5
3993
330
1E
100
AcDbEntity
  8
7
100
AcDbLine
 10
1.074803149606299
 20
3.762795275590551
 30
0.0
 11
1.08759842519685
 21
3.743110236220472
 31
0.0
  0
LINE
  5
3994
330
1E
100
AcDbEntity
  8
7
100
AcDbLine
 10
1.08759842519685
 20
3.743110236220472
 30
0.0
 11
1.107283464566929
 21
3.730314960629921
 31
0.0
  0
LINE
  5
3995
330
1E
100
AcDbEntity
  8
7
100
AcDbLine
 10
1.107283464566929
 20
3.730314960629921
 30
0.0
 11
1.129921259842519
 21
3.725393700787401
 31
0.0
  0
LINE
  5
3996
330
1E
100
AcDbEntity
  8
7
100
AcDbLine
 10
1.085629921259842
 20
3.987204724409448
 30
0.0
 11
1.073818897637795
 21
3.976377952755905
 31
0.0
  0
LINE
  5
3997
330
1E
100
AcDbEntity
  8
7
100
AcDbLine
 10
1.073818897637795
 20
3.976377952755905
 30
0.0
 11
1.069881889763779
 21
3.961614173228346
 31
0.0
  0
LINE
  5
3998
330
1E
100
AcDbEntity
  8
7
100
AcDbLine
 10
1.069881889763779
 20
4.315944881889762
 30
0.0
 11
1.073818897637795
 21
4.301181102362204
 31
0.0
  0
LINE
  5
3999
330
1E
100
AcDbEntity
  8
7
100
AcDbLine
 10
1.073818897637795
 20
4.301181102362204
 30
0.0
 11
1.085629921259842
 21
4.290354330708661
 31
0.0
  0
LINE
  5
399A
330
1E
100
AcDbEntity
  8
7
100
AcDbLine
 10
1.085629921259842
 20
4.290354330708661
 30
0.0
 11
1.100393700787401
 21
4.286417322834645
 31
0.0
  0
LINE
  5
399B
330
1E
100
AcDbEntity
  8
7
100
AcDbLine
 10
1.100393700787401
 20
4.286417322834645
 30
0.0
 11
1.11515748031496
 21
4.282480314960629
 31
0.0
  0
LINE
  5
399C
330
1E
100
AcDbEntity
  8
7
100
AcDbLine
 10
1.11515748031496
 20
4.282480314960629
 30
0.0
 11
1.125984251968503
 21
4.271653543307086
 31
0.0
  0
LINE
  5
399D
330
1E
100
AcDbEntity
  8
7
100
AcDbLine
 10
1.125984251968503
 20
4.271653543307086
 30
0.0
 11
1.129921259842519
 21
4.255905511811023
 31
0.0
  0
LINE
  5
399E
330
1E
100
AcDbEntity
  8
7
100
AcDbLine
 10
1.129921259842519
 20
4.255905511811023
 30
0.0
 11
1.129921259842519
 21
4.021653543307086
 31
0.0
  0
LINE
  5
399F
330
1E
100
AcDbEntity
  8
7
100
AcDbLine
 10
1.129921259842519
 20
4.021653543307086
 30
0.0
 11
1.125984251968503
 21
4.005905511811023
 31
0.0
  0
LINE
  5
39A0
330
1E
100
AcDbEntity
  8
7
100
AcDbLine
 10
1.125984251968503
 20
4.005905511811023
 30
0.0
 11
1.11515748031496
 21
3.99507874015748
 31
0.0
  0
LINE
  5
39A1
330
1E
100
AcDbEntity
  8
7
100
AcDbLine
 10
1.11515748031496
 20
3.99507874015748
 30
0.0
 11
1.100393700787401
 21
3.991141732283464
 31
0.0
  0
LINE
  5
39A2
330
1E
100
AcDbEntity
  8
7
100
AcDbLine
 10
1.100393700787401
 20
3.991141732283464
 30
0.0
 11
1.085629921259842
 21
3.987204724409448
 31
0.0
  0
LINE
  5
39A3
330
1E
100
AcDbEntity
  8
7
100
AcDbLine
 10
1.129921259842519
 20
4.552165354330708
 30
0.0
 11
1.107283464566929
 21
4.548228346456692
 31
0.0
  0
LINE
  5
39A4
330
1E
100
AcDbEntity
  8
7
100
AcDbLine
 10
1.107283464566929
 20
4.548228346456692
 30
0.0
 11
1.08759842519685
 21
4.534448818897637
 31
0.0
  0
LINE
  5
39A5
330
1E
100
AcDbEntity
  8
7
100
AcDbLine
 10
1.08759842519685
 20
4.534448818897637
 30
0.0
 11
1.074803149606299
 21
4.515748031496062
 31
0.0
  0
LINE
  5
39A6
330
1E
100
AcDbEntity
  8
7
100
AcDbLine
 10
1.074803149606299
 20
4.515748031496062
 30
0.0
 11
1.069881889763779
 21
4.492125984251968
 31
0.0
  0
LINE
  5
39A7
330
1E
100
AcDbEntity
  8
7
100
AcDbLine
 10
1.294291338582677
 20
4.431102362204724
 30
0.0
 11
1.294291338582677
 21
4.445866141732283
 31
0.0
  0
LINE
  5
39A8
330
1E
100
AcDbEntity
  8
7
100
AcDbLine
 10
1.294291338582677
 20
4.445866141732283
 30
0.0
 11
1.294291338582677
 21
4.451771653543306
 31
0.0
  0
LINE
  5
39A9
330
1E
100
AcDbEntity
  8
7
100
AcDbLine
 10
1.294291338582677
 20
3.846456692913385
 30
0.0
 11
1.294291338582677
 21
3.832677165354331
 31
0.0
  0
LINE
  5
39AA
330
1E
100
AcDbEntity
  8
7
100
AcDbLine
 10
1.294291338582677
 20
3.832677165354331
 30
0.0
 11
1.294291338582677
 21
3.825787401574803
 31
0.0
  0
LINE
  5
39AB
330
1E
100
AcDbEntity
  8
7
100
AcDbLine
 10
1.289370078740157
 20
3.851377952755905
 30
0.0
 11
1.275590551181102
 21
3.851377952755905
 31
0.0
  0
LINE
  5
39AC
330
1E
100
AcDbEntity
  8
7
100
AcDbLine
 10
1.275590551181102
 20
3.851377952755905
 30
0.0
 11
1.268700787401574
 21
3.851377952755905
 31
0.0
  0
LINE
  5
39AD
330
1E
100
AcDbEntity
  8
7
100
AcDbLine
 10
1.289370078740157
 20
4.426181102362204
 30
0.0
 11
1.275590551181102
 21
4.426181102362204
 31
0.0
  0
LINE
  5
39AE
330
1E
100
AcDbEntity
  8
7
100
AcDbLine
 10
1.275590551181102
 20
4.426181102362204
 30
0.0
 11
1.268700787401574
 21
4.426181102362204
 31
0.0
  0
LINE
  5
39AF
330
1E
100
AcDbEntity
  8
7
100
AcDbLine
 10
1.291338582677165
 20
3.823818897637795
 30
0.0
 11
1.279527559055118
 21
3.826771653543307
 31
0.0
  0
LINE
  5
39B0
330
1E
100
AcDbEntity
  8
7
100
AcDbLine
 10
1.279527559055118
 20
3.826771653543307
 30
0.0
 11
1.269685039370078
 21
3.836614173228346
 31
0.0
  0
LINE
  5
39B1
330
1E
100
AcDbEntity
  8
7
100
AcDbLine
 10
1.269685039370078
 20
3.836614173228346
 30
0.0
 11
1.266732283464566
 21
3.848425196850394
 31
0.0
  0
LINE
  5
39B2
330
1E
100
AcDbEntity
  8
7
100
AcDbLine
 10
1.294291338582677
 20
3.825787401574803
 30
0.0
 11
1.281496062992125
 21
3.829724409448818
 31
0.0
  0
LINE
  5
39B3
330
1E
100
AcDbEntity
  8
7
100
AcDbLine
 10
1.281496062992125
 20
3.829724409448818
 30
0.0
 11
1.27263779527559
 21
3.838582677165354
 31
0.0
  0
LINE
  5
39B4
330
1E
100
AcDbEntity
  8
7
100
AcDbLine
 10
1.27263779527559
 20
3.838582677165354
 30
0.0
 11
1.268700787401574
 21
3.851377952755905
 31
0.0
  0
LINE
  5
39B5
330
1E
100
AcDbEntity
  8
7
100
AcDbLine
 10
1.266732283464566
 20
3.848425196850394
 30
0.0
 11
1.268700787401574
 21
3.851377952755905
 31
0.0
  0
LINE
  5
39B6
330
1E
100
AcDbEntity
  8
7
100
AcDbLine
 10
1.268700787401574
 20
3.851377952755905
 30
0.0
 11
1.268700787401574
 21
4.426181102362204
 31
0.0
  0
LINE
  5
39B7
330
1E
100
AcDbEntity
  8
7
100
AcDbLine
 10
1.247047244094488
 20
3.996062992125984
 30
0.0
 11
1.266732283464566
 21
3.996062992125984
 31
0.0
  0
LINE
  5
39B8
330
1E
100
AcDbEntity
  8
7
100
AcDbLine
 10
1.266732283464566
 20
3.996062992125984
 30
0.0
 11
1.26771653543307
 21
3.997047244094488
 31
0.0
  0
LINE
  5
39B9
330
1E
100
AcDbEntity
  8
7
100
AcDbLine
 10
1.26771653543307
 20
4.280511811023621
 30
0.0
 11
1.266732283464566
 21
4.281496062992125
 31
0.0
  0
LINE
  5
39BA
330
1E
100
AcDbEntity
  8
7
100
AcDbLine
 10
1.266732283464566
 20
4.281496062992125
 30
0.0
 11
1.247047244094488
 21
4.281496062992125
 31
0.0
  0
LINE
  5
39BB
330
1E
100
AcDbEntity
  8
7
100
AcDbLine
 10
1.266732283464566
 20
4.429133858267715
 30
0.0
 11
1.269685039370078
 21
4.440944881889762
 31
0.0
  0
LINE
  5
39BC
330
1E
100
AcDbEntity
  8
7
100
AcDbLine
 10
1.269685039370078
 20
4.440944881889762
 30
0.0
 11
1.279527559055118
 21
4.450787401574802
 31
0.0
  0
LINE
  5
39BD
330
1E
100
AcDbEntity
  8
7
100
AcDbLine
 10
1.279527559055118
 20
4.450787401574802
 30
0.0
 11
1.291338582677165
 21
4.453740157480314
 31
0.0
  0
LINE
  5
39BE
330
1E
100
AcDbEntity
  8
7
100
AcDbLine
 10
1.268700787401574
 20
4.426181102362204
 30
0.0
 11
1.27263779527559
 21
4.438976377952755
 31
0.0
  0
LINE
  5
39BF
330
1E
100
AcDbEntity
  8
7
100
AcDbLine
 10
1.27263779527559
 20
4.438976377952755
 30
0.0
 11
1.281496062992125
 21
4.44783464566929
 31
0.0
  0
LINE
  5
39C0
330
1E
100
AcDbEntity
  8
7
100
AcDbLine
 10
1.281496062992125
 20
4.44783464566929
 30
0.0
 11
1.294291338582677
 21
4.451771653543306
 31
0.0
  0
LINE
  5
39C1
330
1E
100
AcDbEntity
  8
7
100
AcDbLine
 10
1.069881889763779
 20
4.473425196850393
 30
0.0
 11
1.066929133858267
 21
4.466535433070865
 31
0.0
  0
LINE
  5
39C2
330
1E
100
AcDbEntity
  8
7
100
AcDbLine
 10
1.066929133858267
 20
4.466535433070865
 30
0.0
 11
1.06003937007874
 21
4.463582677165353
 31
0.0
  0
LINE
  5
39C3
330
1E
100
AcDbEntity
  8
7
100
AcDbLine
 10
1.041338582677165
 20
4.463582677165353
 30
0.0
 11
1.034448818897637
 21
4.460629921259842
 31
0.0
  0
LINE
  5
39C4
330
1E
100
AcDbEntity
  8
7
100
AcDbLine
 10
1.034448818897637
 20
4.460629921259842
 30
0.0
 11
1.031496062992125
 21
4.453740157480314
 31
0.0
  0
LINE
  5
39C5
330
1E
100
AcDbEntity
  8
7
100
AcDbLine
 10
1.06003937007874
 20
4.345472440944881
 30
0.0
 11
1.066929133858267
 21
4.342519685039369
 31
0.0
  0
LINE
  5
39C6
330
1E
100
AcDbEntity
  8
7
100
AcDbLine
 10
1.066929133858267
 20
4.342519685039369
 30
0.0
 11
1.069881889763779
 21
4.335629921259842
 31
0.0
  0
LINE
  5
39C7
330
1E
100
AcDbEntity
  8
7
100
AcDbLine
 10
1.069881889763779
 20
3.941929133858268
 30
0.0
 11
1.066929133858267
 21
3.93503937007874
 31
0.0
  0
LINE
  5
39C8
330
1E
100
AcDbEntity
  8
7
100
AcDbLine
 10
1.066929133858267
 20
3.93503937007874
 30
0.0
 11
1.06003937007874
 21
3.932086614173228
 31
0.0
  0
LINE
  5
39C9
330
1E
100
AcDbEntity
  8
7
100
AcDbLine
 10
1.031496062992125
 20
3.823818897637795
 30
0.0
 11
1.034448818897637
 21
3.816929133858268
 31
0.0
  0
LINE
  5
39CA
330
1E
100
AcDbEntity
  8
7
100
AcDbLine
 10
1.034448818897637
 20
3.816929133858268
 30
0.0
 11
1.041338582677165
 21
3.813976377952755
 31
0.0
  0
LINE
  5
39CB
330
1E
100
AcDbEntity
  8
7
100
AcDbLine
 10
1.06003937007874
 20
3.813976377952755
 30
0.0
 11
1.066929133858267
 21
3.811023622047244
 31
0.0
  0
LINE
  5
39CC
330
1E
100
AcDbEntity
  8
7
100
AcDbLine
 10
1.066929133858267
 20
3.811023622047244
 30
0.0
 11
1.069881889763779
 21
3.804133858267716
 31
0.0
  0
LINE
  5
39CD
330
1E
100
AcDbEntity
  8
7
100
AcDbLine
 10
2.432086614173228
 20
3.688976377952756
 30
0.0
 11
2.445866141732283
 21
3.694881889763779
 31
0.0
  0
LINE
  5
39CE
330
1E
100
AcDbEntity
  8
7
100
AcDbLine
 10
2.445866141732283
 20
3.694881889763779
 30
0.0
 11
2.451771653543306
 21
3.708661417322834
 31
0.0
  0
LINE
  5
39CF
330
1E
100
AcDbEntity
  8
7
100
AcDbLine
 10
2.442913385826771
 20
3.698818897637795
 30
0.0
 11
2.445866141732283
 21
3.702755905511811
 31
0.0
  0
LINE
  5
39D0
330
1E
100
AcDbEntity
  8
7
100
AcDbLine
 10
2.445866141732283
 20
3.702755905511811
 30
0.0
 11
2.447834645669291
 21
3.706692913385827
 31
0.0
  0
LINE
  5
39D1
330
1E
100
AcDbEntity
  8
7
100
AcDbLine
 10
2.447834645669291
 20
3.706692913385827
 30
0.0
 11
2.448818897637795
 21
3.711614173228346
 31
0.0
  0
LINE
  5
39D2
330
1E
100
AcDbEntity
  8
7
100
AcDbLine
 10
2.448818897637795
 20
3.846456692913385
 30
0.0
 11
2.448818897637795
 21
3.711614173228346
 31
0.0
  0
LINE
  5
39D3
330
1E
100
AcDbEntity
  8
7
100
AcDbLine
 10
2.448818897637795
 20
3.711614173228346
 30
0.0
 11
2.451771653543306
 21
3.708661417322834
 31
0.0
  0
LINE
  5
39D4
330
1E
100
AcDbEntity
  8
7
100
AcDbLine
 10
2.451771653543306
 20
4.568897637795275
 30
0.0
 11
2.445866141732283
 21
4.58267716535433
 31
0.0
  0
LINE
  5
39D5
330
1E
100
AcDbEntity
  8
7
100
AcDbLine
 10
2.445866141732283
 20
4.58267716535433
 30
0.0
 11
2.432086614173228
 21
4.588582677165353
 31
0.0
  0
LINE
  5
39D6
330
1E
100
AcDbEntity
  8
7
100
AcDbLine
 10
2.448818897637795
 20
4.565944881889762
 30
0.0
 11
2.447834645669291
 21
4.570866141732283
 31
0.0
  0
LINE
  5
39D7
330
1E
100
AcDbEntity
  8
7
100
AcDbLine
 10
2.447834645669291
 20
4.570866141732283
 30
0.0
 11
2.445866141732283
 21
4.575787401574802
 31
0.0
  0
LINE
  5
39D8
330
1E
100
AcDbEntity
  8
7
100
AcDbLine
 10
2.445866141732283
 20
4.575787401574802
 30
0.0
 11
2.442913385826771
 21
4.578740157480314
 31
0.0
  0
LINE
  5
39D9
330
1E
100
AcDbEntity
  8
7
100
AcDbLine
 10
2.723425196850393
 20
4.492125984251968
 30
0.0
 11
2.718503937007874
 21
4.515748031496062
 31
0.0
  0
LINE
  5
39DA
330
1E
100
AcDbEntity
  8
7
100
AcDbLine
 10
2.718503937007874
 20
4.515748031496062
 30
0.0
 11
2.705708661417322
 21
4.534448818897637
 31
0.0
  0
LINE
  5
39DB
330
1E
100
AcDbEntity
  8
7
100
AcDbLine
 10
2.705708661417322
 20
4.534448818897637
 30
0.0
 11
2.686023622047243
 21
4.548228346456692
 31
0.0
  0
LINE
  5
39DC
330
1E
100
AcDbEntity
  8
7
100
AcDbLine
 10
2.686023622047243
 20
4.548228346456692
 30
0.0
 11
2.663385826771653
 21
4.552165354330708
 31
0.0
  0
LINE
  5
39DD
330
1E
100
AcDbEntity
  8
7
100
AcDbLine
 10
2.723425196850393
 20
3.961614173228346
 30
0.0
 11
2.719488188976377
 21
3.976377952755905
 31
0.0
  0
LINE
  5
39DE
330
1E
100
AcDbEntity
  8
7
100
AcDbLine
 10
2.719488188976377
 20
3.976377952755905
 30
0.0
 11
2.708661417322834
 21
3.987204724409448
 31
0.0
  0
LINE
  5
39DF
330
1E
100
AcDbEntity
  8
7
100
AcDbLine
 10
2.708661417322834
 20
3.987204724409448
 30
0.0
 11
2.692913385826771
 21
3.991141732283464
 31
0.0
  0
LINE
  5
39E0
330
1E
100
AcDbEntity
  8
7
100
AcDbLine
 10
2.692913385826771
 20
3.991141732283464
 30
0.0
 11
2.678149606299212
 21
3.99507874015748
 31
0.0
  0
LINE
  5
39E1
330
1E
100
AcDbEntity
  8
7
100
AcDbLine
 10
2.678149606299212
 20
3.99507874015748
 30
0.0
 11
2.667322834645669
 21
4.005905511811023
 31
0.0
  0
LINE
  5
39E2
330
1E
100
AcDbEntity
  8
7
100
AcDbLine
 10
2.667322834645669
 20
4.005905511811023
 30
0.0
 11
2.663385826771653
 21
4.021653543307086
 31
0.0
  0
LINE
  5
39E3
330
1E
100
AcDbEntity
  8
7
100
AcDbLine
 10
2.663385826771653
 20
4.021653543307086
 30
0.0
 11
2.663385826771653
 21
4.255905511811023
 31
0.0
  0
LINE
  5
39E4
330
1E
100
AcDbEntity
  8
7
100
AcDbLine
 10
2.663385826771653
 20
4.255905511811023
 30
0.0
 11
2.667322834645669
 21
4.271653543307086
 31
0.0
  0
LINE
  5
39E5
330
1E
100
AcDbEntity
  8
7
100
AcDbLine
 10
2.667322834645669
 20
4.271653543307086
 30
0.0
 11
2.678149606299212
 21
4.282480314960629
 31
0.0
  0
LINE
  5
39E6
330
1E
100
AcDbEntity
  8
7
100
AcDbLine
 10
2.678149606299212
 20
4.282480314960629
 30
0.0
 11
2.692913385826771
 21
4.286417322834645
 31
0.0
  0
LINE
  5
39E7
330
1E
100
AcDbEntity
  8
7
100
AcDbLine
 10
2.692913385826771
 20
4.286417322834645
 30
0.0
 11
2.708661417322834
 21
4.290354330708661
 31
0.0
  0
LINE
  5
39E8
330
1E
100
AcDbEntity
  8
7
100
AcDbLine
 10
2.708661417322834
 20
4.290354330708661
 30
0.0
 11
2.719488188976377
 21
4.301181102362204
 31
0.0
  0
LINE
  5
39E9
330
1E
100
AcDbEntity
  8
7
100
AcDbLine
 10
2.719488188976377
 20
4.301181102362204
 30
0.0
 11
2.723425196850393
 21
4.315944881889762
 31
0.0
  0
LINE
  5
39EA
330
1E
100
AcDbEntity
  8
7
100
AcDbLine
 10
2.663385826771653
 20
3.725393700787401
 30
0.0
 11
2.686023622047243
 21
3.730314960629921
 31
0.0
  0
LINE
  5
39EB
330
1E
100
AcDbEntity
  8
7
100
AcDbLine
 10
2.686023622047243
 20
3.730314960629921
 30
0.0
 11
2.705708661417322
 21
3.743110236220472
 31
0.0
  0
LINE
  5
39EC
330
1E
100
AcDbEntity
  8
7
100
AcDbLine
 10
2.705708661417322
 20
3.743110236220472
 30
0.0
 11
2.718503937007874
 21
3.762795275590551
 31
0.0
  0
LINE
  5
39ED
330
1E
100
AcDbEntity
  8
7
100
AcDbLine
 10
2.718503937007874
 20
3.762795275590551
 30
0.0
 11
2.723425196850393
 21
3.785433070866142
 31
0.0
  0
LINE
  5
39EE
330
1E
100
AcDbEntity
  8
7
100
AcDbLine
 10
2.723425196850393
 20
4.335629921259842
 30
0.0
 11
2.726377952755905
 21
4.342519685039369
 31
0.0
  0
LINE
  5
39EF
330
1E
100
AcDbEntity
  8
7
100
AcDbLine
 10
2.726377952755905
 20
4.342519685039369
 30
0.0
 11
2.733267716535432
 21
4.345472440944881
 31
0.0
  0
LINE
  5
39F0
330
1E
100
AcDbEntity
  8
7
100
AcDbLine
 10
2.733267716535432
 20
4.463582677165353
 30
0.0
 11
2.726377952755905
 21
4.466535433070865
 31
0.0
  0
LINE
  5
39F1
330
1E
100
AcDbEntity
  8
7
100
AcDbLine
 10
2.726377952755905
 20
4.466535433070865
 30
0.0
 11
2.723425196850393
 21
4.473425196850393
 31
0.0
  0
LINE
  5
39F2
330
1E
100
AcDbEntity
  8
7
100
AcDbLine
 10
2.733267716535432
 20
3.932086614173228
 30
0.0
 11
2.726377952755905
 21
3.93503937007874
 31
0.0
  0
LINE
  5
39F3
330
1E
100
AcDbEntity
  8
7
100
AcDbLine
 10
2.726377952755905
 20
3.93503937007874
 30
0.0
 11
2.723425196850393
 21
3.941929133858268
 31
0.0
  0
LINE
  5
39F4
330
1E
100
AcDbEntity
  8
7
100
AcDbLine
 10
2.449803149606299
 20
3.825787401574803
 30
0.0
 11
2.448818897637795
 21
3.832677165354331
 31
0.0
  0
LINE
  5
39F5
330
1E
100
AcDbEntity
  8
7
100
AcDbLine
 10
2.448818897637795
 20
3.832677165354331
 30
0.0
 11
2.448818897637795
 21
3.846456692913385
 31
0.0
  0
LINE
  5
39F6
330
1E
100
AcDbEntity
  8
7
100
AcDbLine
 10
2.448818897637795
 20
4.431102362204724
 30
0.0
 11
2.448818897637795
 21
4.445866141732283
 31
0.0
  0
LINE
  5
39F7
330
1E
100
AcDbEntity
  8
7
100
AcDbLine
 10
2.448818897637795
 20
4.445866141732283
 30
0.0
 11
2.449803149606299
 21
4.451771653543306
 31
0.0
  0
LINE
  5
39F8
330
1E
100
AcDbEntity
  8
7
100
AcDbLine
 10
2.526574803149606
 20
3.848425196850394
 30
0.0
 11
2.523622047244094
 21
3.836614173228346
 31
0.0
  0
LINE
  5
39F9
330
1E
100
AcDbEntity
  8
7
100
AcDbLine
 10
2.523622047244094
 20
3.836614173228346
 30
0.0
 11
2.513779527559055
 21
3.826771653543307
 31
0.0
  0
LINE
  5
39FA
330
1E
100
AcDbEntity
  8
7
100
AcDbLine
 10
2.513779527559055
 20
3.826771653543307
 30
0.0
 11
2.501968503937007
 21
3.823818897637795
 31
0.0
  0
LINE
  5
39FB
330
1E
100
AcDbEntity
  8
7
100
AcDbLine
 10
2.751968503937007
 20
3.813976377952755
 30
0.0
 11
2.758858267716535
 21
3.816929133858268
 31
0.0
  0
LINE
  5
39FC
330
1E
100
AcDbEntity
  8
7
100
AcDbLine
 10
2.758858267716535
 20
3.816929133858268
 30
0.0
 11
2.761811023622047
 21
3.823818897637795
 31
0.0
  0
LINE
  5
39FD
330
1E
100
AcDbEntity
  8
7
100
AcDbLine
 10
2.761811023622047
 20
3.922244094488189
 30
0.0
 11
2.758858267716535
 21
3.929133858267716
 31
0.0
  0
LINE
  5
39FE
330
1E
100
AcDbEntity
  8
7
100
AcDbLine
 10
2.758858267716535
 20
3.929133858267716
 30
0.0
 11
2.751968503937007
 21
3.932086614173228
 31
0.0
  0
LINE
  5
39FF
330
1E
100
AcDbEntity
  8
7
100
AcDbLine
 10
2.751968503937007
 20
4.345472440944881
 30
0.0
 11
2.758858267716535
 21
4.348425196850393
 31
0.0
  0
LINE
  5
3A00
330
1E
100
AcDbEntity
  8
7
100
AcDbLine
 10
2.758858267716535
 20
4.348425196850393
 30
0.0
 11
2.761811023622047
 21
4.356299212598425
 31
0.0
  0
LINE
  5
3A01
330
1E
100
AcDbEntity
  8
7
100
AcDbLine
 10
2.761811023622047
 20
4.453740157480314
 30
0.0
 11
2.758858267716535
 21
4.460629921259842
 31
0.0
  0
LINE
  5
3A02
330
1E
100
AcDbEntity
  8
7
100
AcDbLine
 10
2.758858267716535
 20
4.460629921259842
 30
0.0
 11
2.751968503937007
 21
4.463582677165353
 31
0.0
  0
LINE
  5
3A03
330
1E
100
AcDbEntity
  8
7
100
AcDbLine
 10
2.501968503937007
 20
4.453740157480314
 30
0.0
 11
2.513779527559055
 21
4.450787401574802
 31
0.0
  0
LINE
  5
3A04
330
1E
100
AcDbEntity
  8
7
100
AcDbLine
 10
2.513779527559055
 20
4.450787401574802
 30
0.0
 11
2.523622047244094
 21
4.440944881889762
 31
0.0
  0
LINE
  5
3A05
330
1E
100
AcDbEntity
  8
7
100
AcDbLine
 10
2.524606299212598
 20
3.851377952755905
 30
0.0
 11
2.520669291338582
 21
3.838582677165354
 31
0.0
  0
LINE
  5
3A06
330
1E
100
AcDbEntity
  8
7
100
AcDbLine
 10
2.520669291338582
 20
3.838582677165354
 30
0.0
 11
2.511811023622047
 21
3.829724409448818
 31
0.0
  0
LINE
  5
3A07
330
1E
100
AcDbEntity
  8
7
100
AcDbLine
 10
2.511811023622047
 20
3.829724409448818
 30
0.0
 11
2.499015748031495
 21
3.825787401574803
 31
0.0
  0
LINE
  5
3A08
330
1E
100
AcDbEntity
  8
7
100
AcDbLine
 10
2.499015748031495
 20
3.825787401574803
 30
0.0
 11
2.499015748031495
 21
3.832677165354331
 31
0.0
  0
LINE
  5
3A09
330
1E
100
AcDbEntity
  8
7
100
AcDbLine
 10
2.499015748031495
 20
3.832677165354331
 30
0.0
 11
2.499015748031495
 21
3.846456692913385
 31
0.0
  0
LINE
  5
3A0A
330
1E
100
AcDbEntity
  8
7
100
AcDbLine
 10
2.524606299212598
 20
3.851377952755905
 30
0.0
 11
2.518700787401574
 21
3.851377952755905
 31
0.0
  0
LINE
  5
3A0B
330
1E
100
AcDbEntity
  8
7
100
AcDbLine
 10
2.518700787401574
 20
3.851377952755905
 30
0.0
 11
2.503937007874015
 21
3.851377952755905
 31
0.0
  0
LINE
  5
3A0C
330
1E
100
AcDbEntity
  8
7
100
AcDbLine
 10
2.499015748031495
 20
4.451771653543306
 30
0.0
 11
2.511811023622047
 21
4.44783464566929
 31
0.0
  0
LINE
  5
3A0D
330
1E
100
AcDbEntity
  8
7
100
AcDbLine
 10
2.511811023622047
 20
4.44783464566929
 30
0.0
 11
2.520669291338582
 21
4.438976377952755
 31
0.0
  0
LINE
  5
3A0E
330
1E
100
AcDbEntity
  8
7
100
AcDbLine
 10
2.520669291338582
 20
4.438976377952755
 30
0.0
 11
2.524606299212598
 21
4.426181102362204
 31
0.0
  0
LINE
  5
3A0F
330
1E
100
AcDbEntity
  8
7
100
AcDbLine
 10
2.524606299212598
 20
4.426181102362204
 30
0.0
 11
2.518700787401574
 21
4.426181102362204
 31
0.0
  0
LINE
  5
3A10
330
1E
100
AcDbEntity
  8
7
100
AcDbLine
 10
2.518700787401574
 20
4.426181102362204
 30
0.0
 11
2.503937007874015
 21
4.426181102362204
 31
0.0
  0
LINE
  5
3A11
330
1E
100
AcDbEntity
  8
7
100
AcDbLine
 10
2.499015748031495
 20
4.451771653543306
 30
0.0
 11
2.499015748031495
 21
4.445866141732283
 31
0.0
  0
LINE
  5
3A12
330
1E
100
AcDbEntity
  8
7
100
AcDbLine
 10
2.499015748031495
 20
4.445866141732283
 30
0.0
 11
2.499015748031495
 21
4.431102362204724
 31
0.0
  0
LINE
  5
3A13
330
1E
100
AcDbEntity
  8
7
100
AcDbLine
 10
2.432086614173228
 20
3.688976377952756
 30
0.0
 11
2.24015748031496
 21
3.688976377952756
 31
0.0
  0
LINE
  5
3A14
330
1E
100
AcDbEntity
  8
7
100
AcDbLine
 10
2.24015748031496
 20
3.688976377952756
 30
0.0
 11
2.216535433070866
 21
3.688976377952756
 31
0.0
  0
LINE
  5
3A15
330
1E
100
AcDbEntity
  8
7
100
AcDbLine
 10
1.576771653543306
 20
4.585629921259842
 30
0.0
 11
1.36515748031496
 21
4.585629921259842
 31
0.0
  0
LINE
  5
3A16
330
1E
100
AcDbEntity
  8
7
100
AcDbLine
 10
1.36515748031496
 20
4.585629921259842
 30
0.0
 11
1.350393700787401
 21
4.578740157480314
 31
0.0
  0
LINE
  5
3A17
330
1E
100
AcDbEntity
  8
7
100
AcDbLine
 10
1.350393700787401
 20
3.698818897637795
 30
0.0
 11
1.36515748031496
 21
3.691929133858268
 31
0.0
  0
LINE
  5
3A18
330
1E
100
AcDbEntity
  8
7
100
AcDbLine
 10
1.36515748031496
 20
3.691929133858268
 30
0.0
 11
2.428149606299212
 21
3.691929133858268
 31
0.0
  0
LINE
  5
3A19
330
1E
100
AcDbEntity
  8
7
100
AcDbLine
 10
2.428149606299212
 20
3.691929133858268
 30
0.0
 11
2.442913385826771
 21
3.698818897637795
 31
0.0
  0
ENDSEC
  0
SECTION
  2
OBJECTS
  0
DICTIONARY
  5
C
330
0
100
AcDbDictionary
  3
ACAD_GROUP
350
D
  3
ACAD_MLINESTYLE
350
16
  3
ACAD_PLOTSETTINGS
350
18
  3
ACAD_LAYOUT
350
19
1001
ACAD
1000
TREAT_AS_HARD
1070
     0
  0
DICTIONARY
  5
4D93
330
1E
100
AcDbDictionary
  3
ACAD_LAYOUTSELFREF
350
4D94
  0
DICTIONARY
  5
4D91
330
1A
100
AcDbDictionary
  3
ACAD_LAYOUTSELFREF
350
4D92
  0
DICTIONARY
  5
D
102
{ACAD_REACTORS
330
C
102
}
330
C
100
AcDbDictionary
1001
ACAD
1000
TREAT_AS_HARD
1070
     0
  0
DICTIONARY
  5
16
102
{ACAD_REACTORS
330
C
102
}
330
C
100
AcDbDictionary
  3
STANDARD
350
17
1001
ACAD
1000
TREAT_AS_HARD
1070
     0
  0
DICTIONARY
  5
18
102
{ACAD_REACTORS
330
C
102
}
330
C
100
AcDbDictionary
1001
ACAD
1000
TREAT_AS_HARD
1070
     0
  0
DICTIONARY
  5
19
102
{ACAD_REACTORS
330
C
102
}
330
C
100
AcDbDictionary
1001
ACAD
1000
TREAT_AS_HARD
1070
     0
  0
XRECORD
  5
4D94
102
{ACAD_REACTORS
330
4D93
102
}
330
4D93
100
AcDbXrecord
340
1E
  0
XRECORD
  5
4D92
102
{ACAD_REACTORS
330
4D91
102
}
330
4D91
100
AcDbXrecord
340
1A
  0
MLINESTYLE
  5
17
102
{ACAD_REACTORS
330
16
102
}
330
16
100
AcDbMlineStyle
  2
STANDARD
 70
     0
  3

 62
   256
 51
90.0
 52
90.0
 71
     2
 49
0.5
 62
   256
  6
BYLAYER
 49
-0.5
 62
   256
  6
BYLAYER
  0
ENDSEC
  0
EOF
