ISO-10303-21;
HEADER;
/* Generated by software containing ST-Developer
 * from STEP Tools, Inc. (www.steptools.com) 
 */
/* OPTION: using custom schema-name function */

FILE_DESCRIPTION(
/* description */ (''),
/* implementation_level */ '2;1');

FILE_NAME(
/* name */ 'PAO.stp',
/* time_stamp */ '2016-10-25T16:12:54-04:00',
/* author */ (''),
/* organization */ (''),
/* preprocessor_version */ 'ST-DEVELOPER v15',
/* originating_system */ 'SIEMENS PLM Software NX 8.5',
/* authorisation */ '');

FILE_SCHEMA (('AP203_CONFIGURATION_CONTROLLED_3D_DESIGN_OF_MECHANICAL_PARTS_AND_ASSEMBLIES_MIM_LF { 1 0 10303 403 2 1 2}'));
ENDSEC;

DATA;
#10=PROPERTY_DEFINITION_REPRESENTATION(#14,#12);
#11=PROPERTY_DEFINITION_REPRESENTATION(#15,#13);
#12=REPRESENTATION('',(#16),#595);
#13=REPRESENTATION('',(#17),#595);
#14=PROPERTY_DEFINITION('pmi validation property','',#89);
#15=PROPERTY_DEFINITION('pmi validation property','',#89);
#16=VALUE_REPRESENTATION_ITEM('number of annotations',COUNT_MEASURE(0.));
#17=VALUE_REPRESENTATION_ITEM('number of views',COUNT_MEASURE(0.));
#18=SHAPE_REPRESENTATION_RELATIONSHIP('None',
'relationship between jhac1C345AF2m8b1-None and jhac1C345AF2m8b1-None',
#100,#19);
#19=ADVANCED_BREP_SHAPE_REPRESENTATION('jhac1C345AF2m8b1-None',(#101),#595);
#20=CC_DESIGN_APPROVAL(#32,(#90));
#21=CC_DESIGN_APPROVAL(#33,(#92));
#22=CC_DESIGN_APPROVAL(#34,(#39));
#23=APPROVAL_PERSON_ORGANIZATION(#77,#32,#26);
#24=APPROVAL_PERSON_ORGANIZATION(#78,#33,#27);
#25=APPROVAL_PERSON_ORGANIZATION(#79,#34,#28);
#26=APPROVAL_ROLE('approver');
#27=APPROVAL_ROLE('approver');
#28=APPROVAL_ROLE('approver');
#29=APPROVAL_DATE_TIME(#47,#32);
#30=APPROVAL_DATE_TIME(#48,#33);
#31=APPROVAL_DATE_TIME(#49,#34);
#32=APPROVAL(#35,' ');
#33=APPROVAL(#36,' ');
#34=APPROVAL(#37,' ');
#35=APPROVAL_STATUS('not_yet_approved');
#36=APPROVAL_STATUS('not_yet_approved');
#37=APPROVAL_STATUS('not_yet_approved');
#38=CC_DESIGN_SECURITY_CLASSIFICATION(#39,(#92));
#39=SECURITY_CLASSIFICATION(' ',' ',#40);
#40=SECURITY_CLASSIFICATION_LEVEL('confidential');
#41=CC_DESIGN_DATE_AND_TIME_ASSIGNMENT(#45,#43,(#90));
#42=CC_DESIGN_DATE_AND_TIME_ASSIGNMENT(#46,#44,(#39));
#43=DATE_TIME_ROLE('creation_date');
#44=DATE_TIME_ROLE('classification_date');
#45=DATE_AND_TIME(#60,#50);
#46=DATE_AND_TIME(#61,#51);
#47=DATE_AND_TIME(#62,#52);
#48=DATE_AND_TIME(#63,#53);
#49=DATE_AND_TIME(#64,#54);
#50=LOCAL_TIME(0,0,0.,#55);
#51=LOCAL_TIME(0,0,0.,#56);
#52=LOCAL_TIME(0,0,0.,#57);
#53=LOCAL_TIME(0,0,0.,#58);
#54=LOCAL_TIME(0,0,0.,#59);
#55=COORDINATED_UNIVERSAL_TIME_OFFSET(0,0,.BEHIND.);
#56=COORDINATED_UNIVERSAL_TIME_OFFSET(0,0,.BEHIND.);
#57=COORDINATED_UNIVERSAL_TIME_OFFSET(0,0,.BEHIND.);
#58=COORDINATED_UNIVERSAL_TIME_OFFSET(0,0,.BEHIND.);
#59=COORDINATED_UNIVERSAL_TIME_OFFSET(0,0,.BEHIND.);
#60=CALENDAR_DATE(0,1,1);
#61=CALENDAR_DATE(0,1,1);
#62=CALENDAR_DATE(0,1,1);
#63=CALENDAR_DATE(0,1,1);
#64=CALENDAR_DATE(0,1,1);
#65=CC_DESIGN_PERSON_AND_ORGANIZATION_ASSIGNMENT(#73,#69,(#90,#92));
#66=CC_DESIGN_PERSON_AND_ORGANIZATION_ASSIGNMENT(#74,#70,(#94));
#67=CC_DESIGN_PERSON_AND_ORGANIZATION_ASSIGNMENT(#75,#71,(#92));
#68=CC_DESIGN_PERSON_AND_ORGANIZATION_ASSIGNMENT(#76,#72,(#39));
#69=PERSON_AND_ORGANIZATION_ROLE('creator');
#70=PERSON_AND_ORGANIZATION_ROLE('design_owner');
#71=PERSON_AND_ORGANIZATION_ROLE('design_supplier');
#72=PERSON_AND_ORGANIZATION_ROLE('classification_officer');
#73=PERSON_AND_ORGANIZATION(#87,#80);
#74=PERSON_AND_ORGANIZATION(#87,#81);
#75=PERSON_AND_ORGANIZATION(#87,#82);
#76=PERSON_AND_ORGANIZATION(#87,#83);
#77=PERSON_AND_ORGANIZATION(#87,#84);
#78=PERSON_AND_ORGANIZATION(#87,#85);
#79=PERSON_AND_ORGANIZATION(#87,#86);
#80=ORGANIZATION(' ',' ',' ');
#81=ORGANIZATION(' ',' ',' ');
#82=ORGANIZATION(' ',' ',' ');
#83=ORGANIZATION(' ',' ',' ');
#84=ORGANIZATION(' ',' ',' ');
#85=ORGANIZATION(' ',' ',' ');
#86=ORGANIZATION(' ',' ',' ');
#87=PERSON(' ',' ',' ',(' '),$,$);
#88=SHAPE_DEFINITION_REPRESENTATION(#89,#100);
#89=PRODUCT_DEFINITION_SHAPE('','',#90);
#90=PRODUCT_DEFINITION(' ','',#92,#91);
#91=DESIGN_CONTEXT('',#99,'design');
#92=PRODUCT_DEFINITION_FORMATION_WITH_SPECIFIED_SOURCE(' ',' ',#94,
 .NOT_KNOWN.);
#93=PRODUCT_RELATED_PRODUCT_CATEGORY('detail','',(#94));
#94=PRODUCT('jhac1C345AF2m8b1','jhac1C345AF2m8b1',' ',(#97));
#95=PRODUCT_CATEGORY('part',' ');
#96=PRODUCT_CATEGORY(' ','');
#97=MECHANICAL_CONTEXT(' ',#99,'mechanical');
#98=APPLICATION_PROTOCOL_DEFINITION('international standard',
'config_control_design',2010,#99);
#99=APPLICATION_CONTEXT(
'configuration controlled 3D designs of mechanical parts and assemblie
s');
#100=SHAPE_REPRESENTATION('jhac1C345AF2m8b1-None',(#395),#595);
#101=MANIFOLD_SOLID_BREP('',#102);
#102=CLOSED_SHELL('',(#119,#120,#121,#122,#123,#124,#125,#126,#127,#128,
#129,#130,#131,#132,#133,#134));
#103=CYLINDRICAL_SURFACE('',#413,0.146);
#104=CYLINDRICAL_SURFACE('',#414,0.073);
#105=CYLINDRICAL_SURFACE('',#420,0.146);
#106=CYLINDRICAL_SURFACE('',#421,0.073);
#107=CYLINDRICAL_SURFACE('',#422,0.14);
#108=CYLINDRICAL_SURFACE('',#423,0.14);
#109=FACE_OUTER_BOUND('',#171,.T.);
#110=FACE_OUTER_BOUND('',#172,.T.);
#111=FACE_OUTER_BOUND('',#173,.T.);
#112=FACE_OUTER_BOUND('',#176,.T.);
#113=FACE_OUTER_BOUND('',#177,.T.);
#114=FACE_OUTER_BOUND('',#178,.T.);
#115=FACE_OUTER_BOUND('',#179,.T.);
#116=FACE_OUTER_BOUND('',#184,.T.);
#117=FACE_OUTER_BOUND('',#185,.T.);
#118=FACE_OUTER_BOUND('',#186,.T.);
#119=ADVANCED_FACE('',(#157,#158),#135,.F.);
#120=ADVANCED_FACE('',(#109),#136,.T.);
#121=ADVANCED_FACE('',(#110),#137,.T.);
#122=ADVANCED_FACE('',(#111),#138,.T.);
#123=ADVANCED_FACE('',(#159,#160),#139,.T.);
#124=ADVANCED_FACE('',(#112),#140,.T.);
#125=ADVANCED_FACE('',(#113),#141,.F.);
#126=ADVANCED_FACE('',(#114),#103,.T.);
#127=ADVANCED_FACE('',(#115),#104,.F.);
#128=ADVANCED_FACE('',(#161,#162),#142,.F.);
#129=ADVANCED_FACE('',(#163,#164),#143,.T.);
#130=ADVANCED_FACE('',(#116),#144,.T.);
#131=ADVANCED_FACE('',(#117),#105,.T.);
#132=ADVANCED_FACE('',(#118),#106,.F.);
#133=ADVANCED_FACE('',(#165,#166),#107,.F.);
#134=ADVANCED_FACE('',(#167,#168),#108,.F.);
#135=PLANE('',#397);
#136=PLANE('',#402);
#137=PLANE('',#407);
#138=PLANE('',#408);
#139=PLANE('',#410);
#140=PLANE('',#411);
#141=PLANE('',#412);
#142=PLANE('',#416);
#143=PLANE('',#418);
#144=PLANE('',#419);
#145=CIRCLE('',#396,0.14);
#146=CIRCLE('',#398,0.073);
#147=CIRCLE('',#399,0.146);
#148=CIRCLE('',#400,0.073);
#149=CIRCLE('',#401,0.146);
#150=CIRCLE('',#403,0.146);
#151=CIRCLE('',#404,0.073);
#152=CIRCLE('',#405,0.146);
#153=CIRCLE('',#406,0.073);
#154=CIRCLE('',#409,0.14);
#155=CIRCLE('',#415,0.14);
#156=CIRCLE('',#417,0.14);
#157=FACE_BOUND('',#169,.T.);
#158=FACE_BOUND('',#170,.T.);
#159=FACE_BOUND('',#174,.T.);
#160=FACE_BOUND('',#175,.T.);
#161=FACE_BOUND('',#180,.T.);
#162=FACE_BOUND('',#181,.T.);
#163=FACE_BOUND('',#182,.T.);
#164=FACE_BOUND('',#183,.T.);
#165=FACE_BOUND('',#187,.T.);
#166=FACE_BOUND('',#188,.T.);
#167=FACE_BOUND('',#189,.T.);
#168=FACE_BOUND('',#190,.T.);
#169=EDGE_LOOP('',(#191,#192,#193,#194));
#170=EDGE_LOOP('',(#195));
#171=EDGE_LOOP('',(#196,#197,#198,#199,#200,#201,#202,#203,#204,#205,#206,
#207));
#172=EDGE_LOOP('',(#208,#209,#210,#211,#212,#213,#214,#215,#216,#217,#218,
#219));
#173=EDGE_LOOP('',(#220,#221,#222,#223));
#174=EDGE_LOOP('',(#224));
#175=EDGE_LOOP('',(#225,#226,#227,#228));
#176=EDGE_LOOP('',(#229,#230,#231,#232));
#177=EDGE_LOOP('',(#233,#234,#235,#236));
#178=EDGE_LOOP('',(#237,#238,#239,#240));
#179=EDGE_LOOP('',(#241,#242,#243,#244));
#180=EDGE_LOOP('',(#245));
#181=EDGE_LOOP('',(#246,#247,#248,#249));
#182=EDGE_LOOP('',(#250));
#183=EDGE_LOOP('',(#251,#252,#253,#254));
#184=EDGE_LOOP('',(#255,#256,#257,#258));
#185=EDGE_LOOP('',(#259,#260,#261,#262));
#186=EDGE_LOOP('',(#263,#264,#265,#266));
#187=EDGE_LOOP('',(#267));
#188=EDGE_LOOP('',(#268));
#189=EDGE_LOOP('',(#269));
#190=EDGE_LOOP('',(#270));
#191=ORIENTED_EDGE('',*,*,#299,.F.);
#192=ORIENTED_EDGE('',*,*,#300,.T.);
#193=ORIENTED_EDGE('',*,*,#301,.F.);
#194=ORIENTED_EDGE('',*,*,#302,.F.);
#195=ORIENTED_EDGE('',*,*,#303,.F.);
#196=ORIENTED_EDGE('',*,*,#304,.F.);
#197=ORIENTED_EDGE('',*,*,#305,.F.);
#198=ORIENTED_EDGE('',*,*,#306,.T.);
#199=ORIENTED_EDGE('',*,*,#307,.T.);
#200=ORIENTED_EDGE('',*,*,#308,.T.);
#201=ORIENTED_EDGE('',*,*,#309,.T.);
#202=ORIENTED_EDGE('',*,*,#310,.F.);
#203=ORIENTED_EDGE('',*,*,#311,.F.);
#204=ORIENTED_EDGE('',*,*,#312,.F.);
#205=ORIENTED_EDGE('',*,*,#313,.T.);
#206=ORIENTED_EDGE('',*,*,#299,.T.);
#207=ORIENTED_EDGE('',*,*,#314,.T.);
#208=ORIENTED_EDGE('',*,*,#301,.T.);
#209=ORIENTED_EDGE('',*,*,#315,.T.);
#210=ORIENTED_EDGE('',*,*,#316,.F.);
#211=ORIENTED_EDGE('',*,*,#317,.F.);
#212=ORIENTED_EDGE('',*,*,#318,.F.);
#213=ORIENTED_EDGE('',*,*,#319,.F.);
#214=ORIENTED_EDGE('',*,*,#320,.T.);
#215=ORIENTED_EDGE('',*,*,#321,.T.);
#216=ORIENTED_EDGE('',*,*,#322,.T.);
#217=ORIENTED_EDGE('',*,*,#323,.F.);
#218=ORIENTED_EDGE('',*,*,#324,.F.);
#219=ORIENTED_EDGE('',*,*,#325,.F.);
#220=ORIENTED_EDGE('',*,*,#326,.F.);
#221=ORIENTED_EDGE('',*,*,#314,.F.);
#222=ORIENTED_EDGE('',*,*,#302,.T.);
#223=ORIENTED_EDGE('',*,*,#325,.T.);
#224=ORIENTED_EDGE('',*,*,#327,.F.);
#225=ORIENTED_EDGE('',*,*,#328,.F.);
#226=ORIENTED_EDGE('',*,*,#304,.T.);
#227=ORIENTED_EDGE('',*,*,#326,.T.);
#228=ORIENTED_EDGE('',*,*,#324,.T.);
#229=ORIENTED_EDGE('',*,*,#316,.T.);
#230=ORIENTED_EDGE('',*,*,#329,.T.);
#231=ORIENTED_EDGE('',*,*,#312,.T.);
#232=ORIENTED_EDGE('',*,*,#330,.F.);
#233=ORIENTED_EDGE('',*,*,#331,.F.);
#234=ORIENTED_EDGE('',*,*,#322,.F.);
#235=ORIENTED_EDGE('',*,*,#332,.T.);
#236=ORIENTED_EDGE('',*,*,#306,.F.);
#237=ORIENTED_EDGE('',*,*,#315,.F.);
#238=ORIENTED_EDGE('',*,*,#300,.F.);
#239=ORIENTED_EDGE('',*,*,#313,.F.);
#240=ORIENTED_EDGE('',*,*,#329,.F.);
#241=ORIENTED_EDGE('',*,*,#323,.T.);
#242=ORIENTED_EDGE('',*,*,#331,.T.);
#243=ORIENTED_EDGE('',*,*,#305,.T.);
#244=ORIENTED_EDGE('',*,*,#328,.T.);
#245=ORIENTED_EDGE('',*,*,#333,.T.);
#246=ORIENTED_EDGE('',*,*,#334,.T.);
#247=ORIENTED_EDGE('',*,*,#320,.F.);
#248=ORIENTED_EDGE('',*,*,#335,.F.);
#249=ORIENTED_EDGE('',*,*,#308,.F.);
#250=ORIENTED_EDGE('',*,*,#336,.F.);
#251=ORIENTED_EDGE('',*,*,#318,.T.);
#252=ORIENTED_EDGE('',*,*,#337,.F.);
#253=ORIENTED_EDGE('',*,*,#310,.T.);
#254=ORIENTED_EDGE('',*,*,#338,.T.);
#255=ORIENTED_EDGE('',*,*,#338,.F.);
#256=ORIENTED_EDGE('',*,*,#309,.F.);
#257=ORIENTED_EDGE('',*,*,#335,.T.);
#258=ORIENTED_EDGE('',*,*,#319,.T.);
#259=ORIENTED_EDGE('',*,*,#321,.F.);
#260=ORIENTED_EDGE('',*,*,#334,.F.);
#261=ORIENTED_EDGE('',*,*,#307,.F.);
#262=ORIENTED_EDGE('',*,*,#332,.F.);
#263=ORIENTED_EDGE('',*,*,#317,.T.);
#264=ORIENTED_EDGE('',*,*,#330,.T.);
#265=ORIENTED_EDGE('',*,*,#311,.T.);
#266=ORIENTED_EDGE('',*,*,#337,.T.);
#267=ORIENTED_EDGE('',*,*,#327,.T.);
#268=ORIENTED_EDGE('',*,*,#303,.T.);
#269=ORIENTED_EDGE('',*,*,#336,.T.);
#270=ORIENTED_EDGE('',*,*,#333,.F.);
#271=VERTEX_POINT('',#512);
#272=VERTEX_POINT('',#513);
#273=VERTEX_POINT('',#515);
#274=VERTEX_POINT('',#517);
#275=VERTEX_POINT('',#520);
#276=VERTEX_POINT('',#523);
#277=VERTEX_POINT('',#524);
#278=VERTEX_POINT('',#526);
#279=VERTEX_POINT('',#528);
#280=VERTEX_POINT('',#530);
#281=VERTEX_POINT('',#532);
#282=VERTEX_POINT('',#534);
#283=VERTEX_POINT('',#536);
#284=VERTEX_POINT('',#538);
#285=VERTEX_POINT('',#540);
#286=VERTEX_POINT('',#545);
#287=VERTEX_POINT('',#547);
#288=VERTEX_POINT('',#549);
#289=VERTEX_POINT('',#551);
#290=VERTEX_POINT('',#553);
#291=VERTEX_POINT('',#555);
#292=VERTEX_POINT('',#557);
#293=VERTEX_POINT('',#559);
#294=VERTEX_POINT('',#561);
#295=VERTEX_POINT('',#563);
#296=VERTEX_POINT('',#569);
#297=VERTEX_POINT('',#581);
#298=VERTEX_POINT('',#586);
#299=EDGE_CURVE('',#271,#272,#339,.T.);
#300=EDGE_CURVE('',#271,#273,#340,.T.);
#301=EDGE_CURVE('',#274,#273,#341,.T.);
#302=EDGE_CURVE('',#272,#274,#342,.T.);
#303=EDGE_CURVE('',#275,#275,#145,.T.);
#304=EDGE_CURVE('',#276,#277,#343,.T.);
#305=EDGE_CURVE('',#278,#276,#146,.T.);
#306=EDGE_CURVE('',#278,#279,#344,.T.);
#307=EDGE_CURVE('',#279,#280,#147,.T.);
#308=EDGE_CURVE('',#280,#281,#345,.T.);
#309=EDGE_CURVE('',#281,#282,#346,.T.);
#310=EDGE_CURVE('',#283,#282,#347,.T.);
#311=EDGE_CURVE('',#284,#283,#148,.T.);
#312=EDGE_CURVE('',#285,#284,#348,.T.);
#313=EDGE_CURVE('',#285,#271,#149,.T.);
#314=EDGE_CURVE('',#272,#277,#349,.T.);
#315=EDGE_CURVE('',#273,#286,#150,.T.);
#316=EDGE_CURVE('',#287,#286,#350,.T.);
#317=EDGE_CURVE('',#288,#287,#151,.T.);
#318=EDGE_CURVE('',#289,#288,#351,.T.);
#319=EDGE_CURVE('',#290,#289,#352,.T.);
#320=EDGE_CURVE('',#290,#291,#353,.T.);
#321=EDGE_CURVE('',#291,#292,#152,.T.);
#322=EDGE_CURVE('',#292,#293,#354,.T.);
#323=EDGE_CURVE('',#294,#293,#153,.T.);
#324=EDGE_CURVE('',#295,#294,#355,.T.);
#325=EDGE_CURVE('',#274,#295,#356,.T.);
#326=EDGE_CURVE('',#277,#295,#357,.T.);
#327=EDGE_CURVE('',#296,#296,#154,.T.);
#328=EDGE_CURVE('',#276,#294,#358,.T.);
#329=EDGE_CURVE('',#286,#285,#359,.T.);
#330=EDGE_CURVE('',#287,#284,#360,.T.);
#331=EDGE_CURVE('',#293,#278,#361,.T.);
#332=EDGE_CURVE('',#292,#279,#362,.T.);
#333=EDGE_CURVE('',#297,#297,#155,.T.);
#334=EDGE_CURVE('',#280,#291,#363,.T.);
#335=EDGE_CURVE('',#281,#290,#364,.T.);
#336=EDGE_CURVE('',#298,#298,#156,.T.);
#337=EDGE_CURVE('',#283,#288,#365,.T.);
#338=EDGE_CURVE('',#282,#289,#366,.T.);
#339=LINE('',#511,#367);
#340=LINE('',#514,#368);
#341=LINE('',#516,#369);
#342=LINE('',#518,#370);
#343=LINE('',#522,#371);
#344=LINE('',#527,#372);
#345=LINE('',#531,#373);
#346=LINE('',#533,#374);
#347=LINE('',#535,#375);
#348=LINE('',#539,#376);
#349=LINE('',#542,#377);
#350=LINE('',#546,#378);
#351=LINE('',#550,#379);
#352=LINE('',#552,#380);
#353=LINE('',#554,#381);
#354=LINE('',#558,#382);
#355=LINE('',#562,#383);
#356=LINE('',#564,#384);
#357=LINE('',#566,#385);
#358=LINE('',#570,#386);
#359=LINE('',#572,#387);
#360=LINE('',#573,#388);
#361=LINE('',#575,#389);
#362=LINE('',#576,#390);
#363=LINE('',#582,#391);
#364=LINE('',#583,#392);
#365=LINE('',#587,#393);
#366=LINE('',#588,#394);
#367=VECTOR('',#426,1.);
#368=VECTOR('',#427,1.);
#369=VECTOR('',#428,1.);
#370=VECTOR('',#429,1.);
#371=VECTOR('',#434,1.);
#372=VECTOR('',#437,1.);
#373=VECTOR('',#440,1.);
#374=VECTOR('',#441,1.);
#375=VECTOR('',#442,1.);
#376=VECTOR('',#445,1.);
#377=VECTOR('',#448,1.);
#378=VECTOR('',#453,1.);
#379=VECTOR('',#456,1.);
#380=VECTOR('',#457,1.);
#381=VECTOR('',#458,1.);
#382=VECTOR('',#461,1.);
#383=VECTOR('',#464,1.);
#384=VECTOR('',#465,1.);
#385=VECTOR('',#468,1.);
#386=VECTOR('',#473,1.);
#387=VECTOR('',#476,1.);
#388=VECTOR('',#477,1.);
#389=VECTOR('',#480,1.);
#390=VECTOR('',#481,1.);
#391=VECTOR('',#490,1.);
#392=VECTOR('',#491,1.);
#393=VECTOR('',#496,1.);
#394=VECTOR('',#497,1.);
#395=AXIS2_PLACEMENT_3D('',#510,#424,#425);
#396=AXIS2_PLACEMENT_3D('',#519,#430,#431);
#397=AXIS2_PLACEMENT_3D('',#521,#432,#433);
#398=AXIS2_PLACEMENT_3D('',#525,#435,#436);
#399=AXIS2_PLACEMENT_3D('',#529,#438,#439);
#400=AXIS2_PLACEMENT_3D('',#537,#443,#444);
#401=AXIS2_PLACEMENT_3D('',#541,#446,#447);
#402=AXIS2_PLACEMENT_3D('',#543,#449,#450);
#403=AXIS2_PLACEMENT_3D('',#544,#451,#452);
#404=AXIS2_PLACEMENT_3D('',#548,#454,#455);
#405=AXIS2_PLACEMENT_3D('',#556,#459,#460);
#406=AXIS2_PLACEMENT_3D('',#560,#462,#463);
#407=AXIS2_PLACEMENT_3D('',#565,#466,#467);
#408=AXIS2_PLACEMENT_3D('',#567,#469,#470);
#409=AXIS2_PLACEMENT_3D('',#568,#471,#472);
#410=AXIS2_PLACEMENT_3D('',#571,#474,#475);
#411=AXIS2_PLACEMENT_3D('',#574,#478,#479);
#412=AXIS2_PLACEMENT_3D('',#577,#482,#483);
#413=AXIS2_PLACEMENT_3D('',#578,#484,#485);
#414=AXIS2_PLACEMENT_3D('',#579,#486,#487);
#415=AXIS2_PLACEMENT_3D('',#580,#488,#489);
#416=AXIS2_PLACEMENT_3D('',#584,#492,#493);
#417=AXIS2_PLACEMENT_3D('',#585,#494,#495);
#418=AXIS2_PLACEMENT_3D('',#589,#498,#499);
#419=AXIS2_PLACEMENT_3D('',#590,#500,#501);
#420=AXIS2_PLACEMENT_3D('',#591,#502,#503);
#421=AXIS2_PLACEMENT_3D('',#592,#504,#505);
#422=AXIS2_PLACEMENT_3D('',#593,#506,#507);
#423=AXIS2_PLACEMENT_3D('',#594,#508,#509);
#424=DIRECTION('',(0.,0.,1.));
#425=DIRECTION('',(1.,0.,0.));
#426=DIRECTION('',(0.,1.,0.));
#427=DIRECTION('',(1.,0.,0.));
#428=DIRECTION('',(0.,-1.,0.));
#429=DIRECTION('',(1.,-9.10615997888088E-017,0.));
#430=DIRECTION('',(0.,0.,1.));
#431=DIRECTION('',(-1.83697019872103E-016,-1.,0.));
#432=DIRECTION('',(0.,0.,-1.));
#433=DIRECTION('',(-1.,0.,0.));
#434=DIRECTION('',(0.,1.,0.));
#435=DIRECTION('',(-1.,0.,0.));
#436=DIRECTION('',(0.,0.,-1.));
#437=DIRECTION('',(0.,0.,-1.));
#438=DIRECTION('',(-1.,1.82123199577618E-016,2.13109346099539E-017));
#439=DIRECTION('',(0.,-1.,0.));
#440=DIRECTION('',(0.,-1.,-5.78603215069633E-016));
#441=DIRECTION('',(-2.00335519535379E-015,-5.78603215069633E-016,1.));
#442=DIRECTION('',(0.,-1.,-5.78603215069633E-016));
#443=DIRECTION('',(-1.,1.82123199577618E-016,2.13109346099539E-017));
#444=DIRECTION('',(0.,1.,0.));
#445=DIRECTION('',(0.,0.,-1.));
#446=DIRECTION('',(-1.,0.,0.));
#447=DIRECTION('',(0.,0.,-1.));
#448=DIRECTION('',(0.,0.,-1.));
#449=DIRECTION('',(-1.,0.,0.));
#450=DIRECTION('',(0.,0.,1.));
#451=DIRECTION('',(1.,0.,0.));
#452=DIRECTION('',(0.,0.,-1.));
#453=DIRECTION('',(0.,0.,1.));
#454=DIRECTION('',(1.,-1.82123199577618E-016,-2.13109346099539E-017));
#455=DIRECTION('',(0.,1.,0.));
#456=DIRECTION('',(8.26576021528048E-017,1.,5.78603215069633E-016));
#457=DIRECTION('',(-2.00335519535379E-015,-5.78603215069633E-016,1.));
#458=DIRECTION('',(8.26576021528048E-017,1.,5.78603215069633E-016));
#459=DIRECTION('',(1.,-1.82123199577618E-016,-2.13109346099539E-017));
#460=DIRECTION('',(0.,-1.,0.));
#461=DIRECTION('',(0.,0.,1.));
#462=DIRECTION('',(1.,0.,0.));
#463=DIRECTION('',(0.,0.,-1.));
#464=DIRECTION('',(0.,-1.,0.));
#465=DIRECTION('',(0.,0.,-1.));
#466=DIRECTION('',(1.,0.,0.));
#467=DIRECTION('',(0.,0.,-1.));
#468=DIRECTION('',(1.,-9.10615997888088E-017,0.));
#469=DIRECTION('',(9.10615997888088E-017,1.,0.));
#470=DIRECTION('',(-1.,9.0205620750794E-017,0.));
#471=DIRECTION('',(0.,0.,-1.));
#472=DIRECTION('',(-1.,0.,0.));
#473=DIRECTION('',(1.,0.,0.));
#474=DIRECTION('',(0.,0.,-1.));
#475=DIRECTION('',(-1.,0.,0.));
#476=DIRECTION('',(-1.,9.10615997888088E-017,2.27653999472022E-017));
#477=DIRECTION('',(-1.,1.82123199577618E-016,-2.73184799366426E-016));
#478=DIRECTION('',(-1.82123199577618E-016,-1.,0.));
#479=DIRECTION('',(1.,-1.82145964977565E-016,0.));
#480=DIRECTION('',(-1.,9.10615997888088E-017,2.27653999472022E-017));
#481=DIRECTION('',(-1.,1.82123199577618E-016,-2.73184799366426E-016));
#482=DIRECTION('',(-1.82123199577618E-016,-1.,0.));
#483=DIRECTION('',(1.,-1.82145964977565E-016,0.));
#484=DIRECTION('',(1.,0.,0.));
#485=DIRECTION('',(0.,0.,-1.));
#486=DIRECTION('',(1.,0.,0.));
#487=DIRECTION('',(0.,0.,-1.));
#488=DIRECTION('',(-2.00335519535379E-015,-5.78603215069633E-016,1.));
#489=DIRECTION('',(1.,0.,1.95131999547447E-015));
#490=DIRECTION('',(1.,-9.10615997888088E-017,1.09273919746571E-015));
#491=DIRECTION('',(1.,0.,2.00335519535379E-015));
#492=DIRECTION('',(-2.00335519535379E-015,-5.78603215069633E-016,1.));
#493=DIRECTION('',(1.,0.,2.00360561475321E-015));
#494=DIRECTION('',(-2.00335519535379E-015,-5.78603215069633E-016,1.));
#495=DIRECTION('',(1.,0.,1.95131999547447E-015));
#496=DIRECTION('',(1.,-9.10615997888088E-017,1.09273919746571E-015));
#497=DIRECTION('',(1.,0.,2.00335519535379E-015));
#498=DIRECTION('',(-2.00335519535379E-015,-5.78603215069633E-016,1.));
#499=DIRECTION('',(1.,0.,2.00360561475321E-015));
#500=DIRECTION('',(1.15914775695816E-030,-1.,-5.78603215069633E-016));
#501=DIRECTION('',(0.,5.759281940243E-016,-1.));
#502=DIRECTION('',(1.,-1.82123199577618E-016,-2.13109346099539E-017));
#503=DIRECTION('',(0.,-1.,0.));
#504=DIRECTION('',(1.,-1.82123199577618E-016,-2.13109346099539E-017));
#505=DIRECTION('',(0.,-1.,0.));
#506=DIRECTION('',(0.,0.,1.));
#507=DIRECTION('',(1.,0.,0.));
#508=DIRECTION('',(0.,0.,1.));
#509=DIRECTION('',(1.,0.,0.));
#510=CARTESIAN_POINT('',(0.,0.,0.));
#511=CARTESIAN_POINT('',(-0.375,-0.4115,0.073));
#512=CARTESIAN_POINT('',(-0.375,-0.3385,0.073));
#513=CARTESIAN_POINT('',(-0.375,0.4115,0.073));
#514=CARTESIAN_POINT('',(-0.375,-0.3385,0.073));
#515=CARTESIAN_POINT('',(0.375,-0.3385,0.073));
#516=CARTESIAN_POINT('',(0.375,0.4115,0.073));
#517=CARTESIAN_POINT('',(0.375,0.4115,0.073));
#518=CARTESIAN_POINT('',(-0.375,0.4115,0.073));
#519=CARTESIAN_POINT('',(-5.54906623713054E-017,0.0364999999999998,0.073));
#520=CARTESIAN_POINT('',(-8.12082451533998E-017,-0.1035,0.073));
#521=CARTESIAN_POINT('',(0.,0.,0.073));
#522=CARTESIAN_POINT('',(-0.375,-0.4115,0.));
#523=CARTESIAN_POINT('',(-0.375,-0.3385,0.));
#524=CARTESIAN_POINT('',(-0.375,0.4115,0.));
#525=CARTESIAN_POINT('',(-0.375,-0.3385,-0.073));
#526=CARTESIAN_POINT('',(-0.375,-0.4115,-0.073));
#527=CARTESIAN_POINT('',(-0.375,-0.4115,0.00325430768425827));
#528=CARTESIAN_POINT('',(-0.375,-0.4115,-0.401000000000001));
#529=CARTESIAN_POINT('',(-0.375,-0.5575,-0.401));
#530=CARTESIAN_POINT('',(-0.375,-0.5575,-0.547));
#531=CARTESIAN_POINT('',(-0.375,-0.481245692315742,-0.547000000000001));
#532=CARTESIAN_POINT('',(-0.375,-1.3075,-0.547000000000001));
#533=CARTESIAN_POINT('',(-0.375,-1.3075,-0.547000000000001));
#534=CARTESIAN_POINT('',(-0.375,-1.3075,-0.474000000000001));
#535=CARTESIAN_POINT('',(-0.375,-0.481245692315742,-0.474000000000001));
#536=CARTESIAN_POINT('',(-0.375,-0.5575,-0.474000000000001));
#537=CARTESIAN_POINT('',(-0.375,-0.5575,-0.401));
#538=CARTESIAN_POINT('',(-0.375,-0.4845,-0.401));
#539=CARTESIAN_POINT('',(-0.375,-0.4845,0.00325430768425827));
#540=CARTESIAN_POINT('',(-0.375,-0.4845,-0.073));
#541=CARTESIAN_POINT('',(-0.375,-0.3385,-0.073));
#542=CARTESIAN_POINT('',(-0.375,0.4115,0.073));
#543=CARTESIAN_POINT('',(-0.375,-0.4115,0.073));
#544=CARTESIAN_POINT('',(0.375,-0.3385,-0.073));
#545=CARTESIAN_POINT('',(0.375,-0.4845,-0.073));
#546=CARTESIAN_POINT('',(0.375,-0.4845,-0.401));
#547=CARTESIAN_POINT('',(0.375,-0.4845,-0.401));
#548=CARTESIAN_POINT('',(0.375,-0.5575,-0.401));
#549=CARTESIAN_POINT('',(0.375,-0.5575,-0.473999999999999));
#550=CARTESIAN_POINT('',(0.375,-1.3075,-0.474));
#551=CARTESIAN_POINT('',(0.375,-1.3075,-0.474));
#552=CARTESIAN_POINT('',(0.375,-1.3075,-0.547));
#553=CARTESIAN_POINT('',(0.375,-1.3075,-0.547));
#554=CARTESIAN_POINT('',(0.375,-1.3075,-0.547));
#555=CARTESIAN_POINT('',(0.375,-0.557499999999999,-0.547));
#556=CARTESIAN_POINT('',(0.375,-0.5575,-0.401));
#557=CARTESIAN_POINT('',(0.375,-0.4115,-0.401));
#558=CARTESIAN_POINT('',(0.375,-0.4115,-0.401));
#559=CARTESIAN_POINT('',(0.375,-0.4115,-0.073));
#560=CARTESIAN_POINT('',(0.375,-0.3385,-0.073));
#561=CARTESIAN_POINT('',(0.375,-0.3385,0.));
#562=CARTESIAN_POINT('',(0.375,0.4115,0.));
#563=CARTESIAN_POINT('',(0.375,0.4115,0.));
#564=CARTESIAN_POINT('',(0.375,0.4115,0.073));
#565=CARTESIAN_POINT('',(0.375,0.4115,0.073));
#566=CARTESIAN_POINT('',(-0.375,0.4115,0.));
#567=CARTESIAN_POINT('',(-0.375,0.4115,0.073));
#568=CARTESIAN_POINT('',(-5.54906623713054E-017,0.0364999999999998,0.));
#569=CARTESIAN_POINT('',(-0.14,0.0364999999999998,0.));
#570=CARTESIAN_POINT('',(-0.375,-0.3385,0.));
#571=CARTESIAN_POINT('',(0.,0.,0.));
#572=CARTESIAN_POINT('',(0.375,-0.4845,-0.073));
#573=CARTESIAN_POINT('',(-0.375,-0.4845,-0.401));
#574=CARTESIAN_POINT('',(-8.82386901953558E-017,-0.4845,0.));
#575=CARTESIAN_POINT('',(0.375,-0.4115,-0.073));
#576=CARTESIAN_POINT('',(-0.375,-0.4115,-0.401));
#577=CARTESIAN_POINT('',(-7.49436966261897E-017,-0.4115,0.));
#578=CARTESIAN_POINT('',(-0.375,-0.3385,-0.073));
#579=CARTESIAN_POINT('',(-0.375,-0.3385,-0.073));
#580=CARTESIAN_POINT('',(0.,-0.9325,-0.547));
#581=CARTESIAN_POINT('',(0.14,-0.9325,-0.547));
#582=CARTESIAN_POINT('',(-0.375,-0.5575,-0.547));
#583=CARTESIAN_POINT('',(-0.375,-1.3075,-0.547000000000001));
#584=CARTESIAN_POINT('',(1.09583529185852E-015,3.16495958643089E-016,-0.547));
#585=CARTESIAN_POINT('',(0.,-0.9325,-0.474));
#586=CARTESIAN_POINT('',(0.14,-0.9325,-0.474));
#587=CARTESIAN_POINT('',(-0.375,-0.5575,-0.474));
#588=CARTESIAN_POINT('',(-0.375,-1.3075,-0.474000000000001));
#589=CARTESIAN_POINT('',(9.49590362597697E-016,2.74257923943006E-016,-0.474));
#590=CARTESIAN_POINT('',(-0.375,-1.3075,-0.547000000000001));
#591=CARTESIAN_POINT('',(-0.375,-0.5575,-0.401));
#592=CARTESIAN_POINT('',(-0.375,-0.5575,-0.401));
#593=CARTESIAN_POINT('',(-5.54906623713054E-017,0.0364999999999998,-1.927));
#594=CARTESIAN_POINT('',(0.,-0.9325,-1.927));
#595=(
GEOMETRIC_REPRESENTATION_CONTEXT(3)
GLOBAL_UNCERTAINTY_ASSIGNED_CONTEXT((#596))
GLOBAL_UNIT_ASSIGNED_CONTEXT((#601,#598,#597))
REPRESENTATION_CONTEXT('PAO','TOP_LEVEL_ASSEMBLY_PART')
);
#596=UNCERTAINTY_MEASURE_WITH_UNIT(LENGTH_MEASURE(7.8740157480315E-007),
#601,'DISTANCE_ACCURACY_VALUE','Maximum Tolerance applied to model');
#597=(
NAMED_UNIT(*)
SI_UNIT($,.STERADIAN.)
SOLID_ANGLE_UNIT()
);
#598=(
CONVERSION_BASED_UNIT('DEGREE',#599)
NAMED_UNIT(#603)
PLANE_ANGLE_UNIT()
);
#599=PLANE_ANGLE_MEASURE_WITH_UNIT(PLANE_ANGLE_MEASURE(0.0174532925),#600);
#600=(
NAMED_UNIT(*)
PLANE_ANGLE_UNIT()
SI_UNIT($,.RADIAN.)
);
#601=(
CONVERSION_BASED_UNIT('INCH',#604)
LENGTH_UNIT()
NAMED_UNIT(#602)
);
#602=DIMENSIONAL_EXPONENTS(1.,0.,0.,0.,0.,0.,0.);
#603=DIMENSIONAL_EXPONENTS(0.,0.,0.,0.,0.,0.,0.);
#604=LENGTH_MEASURE_WITH_UNIT(LENGTH_MEASURE(25.4),#605);
#605=(
LENGTH_UNIT()
NAMED_UNIT(*)
SI_UNIT(.MILLI.,.METRE.)
);
ENDSEC;
END-ISO-10303-21;
