  0
SECTION
  2
HEADER
  9
$ACADVER
  1
AC1014
  9
$ACADMAINTVER
 70
     9
  9
$DWGCODEPAGE
  3
ANSI_1252
  9
$INSBASE
 10
0.0
 20
0.0
 30
0.0
  9
$EXTMIN
 10
-14.6039428601553
 20
-8.805129994178575
 30
-0.0015258207003583
  9
$EXTMAX
 10
18.31018069934819
 20
10.41957094545891
 30
0.0000000349246037
  9
$LIMMIN
 10
0.0
 20
0.0
  9
$LIMMAX
 10
12.0
 20
9.0
  9
$ORTHOMODE
 70
     0
  9
$REGENMODE
 70
     1
  9
$FILLMODE
 70
     1
  9
$QTEXTMODE
 70
     0
  9
$MIRRTEXT
 70
     1
  9
$DRAGMODE
 70
     2
  9
$LTSCALE
 40
1.0
  9
$OSMODE
 70
    37
  9
$ATTMODE
 70
     1
  9
$TEXTSIZE
 40
0.2
  9
$TRACEWID
 40
0.05
  9
$TEXTSTYLE
  7
STANDARD
  9
$CLAYER
  8
0
  9
$CELTYPE
  6
BYLAYER
  9
$CECOLOR
 62
   256
  9
$CELTSCALE
 40
1.0
  9
$DELOBJ
 70
     1
  9
$DISPSILH
 70
     0
  9
$DIMSCALE
 40
1.0
  9
$DIMASZ
 40
0.18
  9
$DIMEXO
 40
0.0625
  9
$DIMDLI
 40
0.38
  9
$DIMRND
 40
0.0
  9
$DIMDLE
 40
0.0
  9
$DIMEXE
 40
0.18
  9
$DIMTP
 40
0.0
  9
$DIMTM
 40
0.0
  9
$DIMTXT
 40
0.18
  9
$DIMCEN
 40
0.09
  9
$DIMTSZ
 40
0.0
  9
$DIMTOL
 70
     0
  9
$DIMLIM
 70
     0
  9
$DIMTIH
 70
     1
  9
$DIMTOH
 70
     1
  9
$DIMSE1
 70
     0
  9
$DIMSE2
 70
     0
  9
$DIMTAD
 70
     0
  9
$DIMZIN
 70
     0
  9
$DIMBLK
  1

  9
$DIMASO
 70
     1
  9
$DIMSHO
 70
     1
  9
$DIMPOST
  1

  9
$DIMAPOST
  1

  9
$DIMALT
 70
     0
  9
$DIMALTD
 70
     2
  9
$DIMALTF
 40
25.4
  9
$DIMLFAC
 40
1.0
  9
$DIMTOFL
 70
     0
  9
$DIMTVP
 40
0.0
  9
$DIMTIX
 70
     0
  9
$DIMSOXD
 70
     0
  9
$DIMSAH
 70
     0
  9
$DIMBLK1
  1

  9
$DIMBLK2
  1

  9
$DIMSTYLE
  2
STANDARD
  9
$DIMCLRD
 70
     0
  9
$DIMCLRE
 70
     0
  9
$DIMCLRT
 70
     0
  9
$DIMTFAC
 40
1.0
  9
$DIMGAP
 40
0.09
  9
$DIMJUST
 70
     0
  9
$DIMSD1
 70
     0
  9
$DIMSD2
 70
     0
  9
$DIMTOLJ
 70
     1
  9
$DIMTZIN
 70
     0
  9
$DIMALTZ
 70
     0
  9
$DIMALTTZ
 70
     0
  9
$DIMFIT
 70
     5
  9
$DIMUPT
 70
     0
  9
$DIMUNIT
 70
     2
  9
$DIMDEC
 70
     4
  9
$DIMTDEC
 70
     4
  9
$DIMALTU
 70
     2
  9
$DIMALTTD
 70
     2
  9
$DIMTXSTY
  7
STANDARD
  9
$DIMAUNIT
 70
     0
  9
$LUNITS
 70
     2
  9
$LUPREC
 70
     4
  9
$SKETCHINC
 40
0.1
  9
$FILLETRAD
 40
0.0
  9
$AUNITS
 70
     0
  9
$AUPREC
 70
     0
  9
$MENU
  1
acad
  9
$ELEVATION
 40
0.0
  9
$PELEVATION
 40
0.0
  9
$THICKNESS
 40
0.0
  9
$LIMCHECK
 70
     0
  9
$BLIPMODE
 70
     0
  9
$CHAMFERA
 40
0.0
  9
$CHAMFERB
 40
0.0
  9
$CHAMFERC
 40
0.0
  9
$CHAMFERD
 40
0.0
  9
$SKPOLY
 70
     0
  9
$TDCREATE
 40
2452692.429768518
  9
$TDUPDATE
 40
2452692.468762291
  9
$TDINDWG
 40
0.0077886343
  9
$TDUSRTIMER
 40
0.0077886343
  9
$USRTIMER
 70
     1
  9
$ANGBASE
 50
0.0
  9
$ANGDIR
 70
     0
  9
$PDMODE
 70
     0
  9
$PDSIZE
 40
0.0
  9
$PLINEWID
 40
0.0
  9
$COORDS
 70
     1
  9
$SPLFRAME
 70
     0
  9
$SPLINETYPE
 70
     6
  9
$SPLINESEGS
 70
     8
  9
$ATTDIA
 70
     0
  9
$ATTREQ
 70
     1
  9
$HANDLING
 70
-16383
  9
$HANDSEED
  5
25E9
  9
$SURFTAB1
 70
     6
  9
$SURFTAB2
 70
     6
  9
$SURFTYPE
 70
     6
  9
$SURFU
 70
     6
  9
$SURFV
 70
     6
  9
$UCSNAME
  2

  9
$UCSORG
 10
0.0
 20
0.0
 30
0.0
  9
$UCSXDIR
 10
1.0
 20
0.0
 30
0.0
  9
$UCSYDIR
 10
0.0
 20
1.0
 30
0.0
  9
$PUCSNAME
  2

  9
$PUCSORG
 10
0.0
 20
0.0
 30
0.0
  9
$PUCSXDIR
 10
1.0
 20
0.0
 30
0.0
  9
$PUCSYDIR
 10
0.0
 20
1.0
 30
0.0
  9
$USERI1
 70
     0
  9
$USERI2
 70
     0
  9
$USERI3
 70
     0
  9
$USERI4
 70
     0
  9
$USERI5
 70
     0
  9
$USERR1
 40
0.0
  9
$USERR2
 40
0.0
  9
$USERR3
 40
0.0
  9
$USERR4
 40
0.0
  9
$USERR5
 40
0.0
  9
$WORLDVIEW
 70
     1
  9
$SHADEDGE
 70
     3
  9
$SHADEDIF
 70
    70
  9
$TILEMODE
 70
     1
  9
$MAXACTVP
 70
    16
  9
$PINSBASE
 10
0.0
 20
0.0
 30
0.0
  9
$PLIMCHECK
 70
     0
  9
$PEXTMIN
 10
1.000000000000000E+20
 20
1.000000000000000E+20
 30
1.000000000000000E+20
  9
$PEXTMAX
 10
-1.000000000000000E+20
 20
-1.000000000000000E+20
 30
-1.000000000000000E+20
  9
$PLIMMIN
 10
0.0
 20
0.0
  9
$PLIMMAX
 10
12.0
 20
9.0
  9
$UNITMODE
 70
     0
  9
$VISRETAIN
 70
     0
  9
$PLINEGEN
 70
     0
  9
$PSLTSCALE
 70
     1
  9
$TREEDEPTH
 70
  3020
  9
$PICKSTYLE
 70
     1
  9
$CMLSTYLE
  2
STANDARD
  9
$CMLJUST
 70
     0
  9
$CMLSCALE
 40
1.0
  9
$PROXYGRAPHICS
 70
     1
  9
$MEASUREMENT
 70
     0
  0
ENDSEC
  0
SECTION
  2
CLASSES
  0
CLASS
  1
ACDBDICTIONARYWDFLT
  2
AcDbDictionaryWithDefault
  3
AutoCAD 2000
 90
        0
280
     0
281
     0
  0
CLASS
  1
ACDBPLACEHOLDER
  2
AcDbPlaceHolder
  3
AutoCAD 2000
 90
        0
280
     0
281
     0
  0
CLASS
  1
LAYOUT
  2
AcDbLayout
  3
AutoCAD 2000
 90
        0
280
     0
281
     0
  0
CLASS
  1
LONG_TRANSACTION
  2
AcDbLongTransaction
  3
AutoCAD 2000
 90
        0
280
     0
281
     0
  0
CLASS
  1
LWPOLYLINE
  2
AcDbPolyline
  3
AutoCAD 2000
 90
        0
280
     0
281
     1
  0
CLASS
  1
HATCH
  2
AcDbHatch
  3
AutoCAD 2000
 90
        0
280
     0
281
     1
  0
CLASS
  1
XRECORD
  2
AcDbXrecord
  3
AutoCAD 2000
 90
        0
280
     0
281
     0
  0
ENDSEC
  0
SECTION
  2
TABLES
  0
TABLE
  2
VPORT
  5
8
330
0
100
AcDbSymbolTable
 70
     3
  0
VPORT
  5
25C3
330
8
100
AcDbSymbolTableRecord
100
AcDbViewportTableRecord
  2
*ACTIVE
 70
     0
 10
0.0
 20
0.0
 11
1.0
 21
1.0
 12
1.853118919596445
 22
0.8072204756401717
 13
0.0
 23
0.0
 14
1.0
 24
1.0
 15
0.0
 25
0.0
 16
0.0
 26
0.0
 36
1.0
 17
0.0
 27
0.0
 37
0.0
 40
21.33305198751668
 41
1.550724637681159
 42
50.0
 43
0.0
 44
0.0
 50
0.0
 51
0.0
 71
     0
 72
   100
 73
     1
 74
     1
 75
     0
 76
     0
 77
     0
 78
     0
  0
ENDTAB
  0
TABLE
  2
LTYPE
  5
5
330
0
100
AcDbSymbolTable
 70
    25
  0
LTYPE
  5
13
330
5
100
AcDbSymbolTableRecord
100
AcDbLinetypeTableRecord
  2
BYBLOCK
 70
     0
  3

 72
    65
 73
     0
 40
0.0
  0
LTYPE
  5
14
330
5
100
AcDbSymbolTableRecord
100
AcDbLinetypeTableRecord
  2
BYLAYER
 70
     0
  3

 72
    65
 73
     0
 40
0.0
  0
LTYPE
  5
15
330
5
100
AcDbSymbolTableRecord
100
AcDbLinetypeTableRecord
  2
CONTINUOUS
 70
     0
  3
Solid line
 72
    65
 73
     0
 40
0.0
  0
LTYPE
  5
22
330
5
100
AcDbSymbolTableRecord
100
AcDbLinetypeTableRecord
  2
BORDER
 70
     0
  3
__ __ . __ __ . __ __ . __ __ . __ __ . __ __ .
 72
    65
 73
     6
 40
1.75
 49
0.5
 74
     0
 49
-0.25
 74
     0
 49
0.5
 74
     0
 49
-0.25
 74
     0
 49
0.5
 74
     0
 49
-0.25
 74
     0
  0
LTYPE
  5
23
330
5
100
AcDbSymbolTableRecord
100
AcDbLinetypeTableRecord
  2
BORDER2
 70
     0
  3
__.__.__.__.__.__.__.__.__.__.__.__.__.__.__.__
 72
    65
 73
     6
 40
0.875
 49
0.25
 74
     0
 49
-0.125
 74
     0
 49
0.25
 74
     0
 49
-0.125
 74
     0
 49
0.25
 74
     0
 49
-0.125
 74
     0
  0
LTYPE
  5
24
330
5
100
AcDbSymbolTableRecord
100
AcDbLinetypeTableRecord
  2
BORDERX2
 70
     0
  3
____  ____  .  ____  ____  .  
 72
    65
 73
     6
 40
3.5
 49
1.0
 74
     0
 49
-0.5
 74
     0
 49
1.0
 74
     0
 49
-0.5
 74
     0
 49
1.0
 74
     0
 49
-0.5
 74
     0
  0
LTYPE
  5
25
330
5
100
AcDbSymbolTableRecord
100
AcDbLinetypeTableRecord
  2
CENTER
 70
     0
  3
____ _ ____ _ ____ _ ____ _ ____ _ ____ _ ____
 72
    65
 73
     4
 40
2.0
 49
1.25
 74
     0
 49
-0.25
 74
     0
 49
0.25
 74
     0
 49
-0.25
 74
     0
  0
LTYPE
  5
26
330
5
100
AcDbSymbolTableRecord
100
AcDbLinetypeTableRecord
  2
CENTER2
 70
     0
  3
____ _ ____ _ ____ _ ____ _ ____ _ ____ _ ____
 72
    65
 73
     4
 40
1.125
 49
0.75
 74
     0
 49
-0.125
 74
     0
 49
0.125
 74
     0
 49
-0.125
 74
     0
  0
LTYPE
  5
27
330
5
100
AcDbSymbolTableRecord
100
AcDbLinetypeTableRecord
  2
CENTERX2
 70
     0
  3
________  __  ________  __  ________  __  
 72
    65
 73
     4
 40
4.0
 49
2.5
 74
     0
 49
-0.5
 74
     0
 49
0.5
 74
     0
 49
-0.5
 74
     0
  0
LTYPE
  5
28
330
5
100
AcDbSymbolTableRecord
100
AcDbLinetypeTableRecord
  2
DASHDOT
 70
     0
  3
__ . __ . __ . __ . __ . __ . __ . 
 72
    65
 73
     4
 40
1.0
 49
0.5
 74
     0
 49
-0.25
 74
     0
 49
0.0
 74
     0
 49
-0.25
 74
     0
  0
LTYPE
  5
29
330
5
100
AcDbSymbolTableRecord
100
AcDbLinetypeTableRecord
  2
DASHDOT2
 70
     0
  3
_._._._._._._._._._._._._._._._.
 72
    65
 73
     4
 40
0.5
 49
0.25
 74
     0
 49
-0.125
 74
     0
 49
0.0
 74
     0
 49
-0.125
 74
     0
  0
LTYPE
  5
2A
330
5
100
AcDbSymbolTableRecord
100
AcDbLinetypeTableRecord
  2
DASHDOTX2
 70
     0
  3
____  .  ____  .  ____  .  ____  .  
 72
    65
 73
     4
 40
2.0
 49
1.0
 74
     0
 49
-0.5
 74
     0
 49
0.0
 74
     0
 49
-0.5
 74
     0
  0
LTYPE
  5
2B
330
5
100
AcDbSymbolTableRecord
100
AcDbLinetypeTableRecord
  2
DASHED
 70
     0
  3
__ __ __ __ __ __ __ __ __ __ __ __ 
 72
    65
 73
     2
 40
0.75
 49
0.5
 74
     0
 49
-0.25
 74
     0
  0
LTYPE
  5
2C
330
5
100
AcDbSymbolTableRecord
100
AcDbLinetypeTableRecord
  2
DASHED2
 70
     0
  3
_ _ _ _ _ _ _ _ _ _ _ _ _ _ _ _ _ _ 
 72
    65
 73
     2
 40
0.375
 49
0.25
 74
     0
 49
-0.125
 74
     0
  0
LTYPE
  5
2D
330
5
100
AcDbSymbolTableRecord
100
AcDbLinetypeTableRecord
  2
DASHEDX2
 70
     0
  3
____  ____  ____  ____  ____  ____  
 72
    65
 73
     2
 40
1.5
 49
1.0
 74
     0
 49
-0.5
 74
     0
  0
LTYPE
  5
2E
330
5
100
AcDbSymbolTableRecord
100
AcDbLinetypeTableRecord
  2
DIVIDE
 70
     0
  3
____ . . ____ . . ____ . . ____ . . 
 72
    65
 73
     6
 40
1.25
 49
0.5
 74
     0
 49
-0.25
 74
     0
 49
0.0
 74
     0
 49
-0.25
 74
     0
 49
0.0
 74
     0
 49
-0.25
 74
     0
  0
LTYPE
  5
2F
330
5
100
AcDbSymbolTableRecord
100
AcDbLinetypeTableRecord
  2
DIVIDE2
 70
     0
  3
__..__..__..__..__..__..__..__..__..
 72
    65
 73
     6
 40
0.625
 49
0.25
 74
     0
 49
-0.125
 74
     0
 49
0.0
 74
     0
 49
-0.125
 74
     0
 49
0.0
 74
     0
 49
-0.125
 74
     0
  0
LTYPE
  5
30
330
5
100
AcDbSymbolTableRecord
100
AcDbLinetypeTableRecord
  2
DIVIDEX2
 70
     0
  3
________  .  .  ________  .  .  ________  .  . 
 72
    65
 73
     6
 40
2.5
 49
1.0
 74
     0
 49
-0.5
 74
     0
 49
0.0
 74
     0
 49
-0.5
 74
     0
 49
0.0
 74
     0
 49
-0.5
 74
     0
  0
LTYPE
  5
31
330
5
100
AcDbSymbolTableRecord
100
AcDbLinetypeTableRecord
  2
DOT
 70
     0
  3
. . . . . . . . . . . . . . . . . . 
 72
    65
 73
     2
 40
0.25
 49
0.0
 74
     0
 49
-0.25
 74
     0
  0
LTYPE
  5
32
330
5
100
AcDbSymbolTableRecord
100
AcDbLinetypeTableRecord
  2
DOT2
 70
     0
  3
....................................
 72
    65
 73
     2
 40
0.125
 49
0.0
 74
     0
 49
-0.125
 74
     0
  0
LTYPE
  5
33
330
5
100
AcDbSymbolTableRecord
100
AcDbLinetypeTableRecord
  2
DOTX2
 70
     0
  3
.  .  .  .  .  .  .  .  .  .  .  .  .  
 72
    65
 73
     2
 40
0.5
 49
0.0
 74
     0
 49
-0.5
 74
     0
  0
LTYPE
  5
34
330
5
100
AcDbSymbolTableRecord
100
AcDbLinetypeTableRecord
  2
HIDDEN
 70
     0
  3
__ __ __ __ __ __ __ __ __ __ __ __ 
 72
    65
 73
     2
 40
0.375
 49
0.25
 74
     0
 49
-0.125
 74
     0
  0
LTYPE
  5
35
330
5
100
AcDbSymbolTableRecord
100
AcDbLinetypeTableRecord
  2
HIDDEN2
 70
     0
  3
_ _ _ _ _ _ _ _ _ _ _ _ _ _ _ _ _ _ 
 72
    65
 73
     2
 40
0.1875
 49
0.125
 74
     0
 49
-0.0625
 74
     0
  0
LTYPE
  5
36
330
5
100
AcDbSymbolTableRecord
100
AcDbLinetypeTableRecord
  2
HIDDENX2
 70
     0
  3
____ ____ ____ ____ ____ ____ ____ 
 72
    65
 73
     2
 40
0.75
 49
0.5
 74
     0
 49
-0.25
 74
     0
  0
LTYPE
  5
37
330
5
100
AcDbSymbolTableRecord
100
AcDbLinetypeTableRecord
  2
PHANTOM
 70
     0
  3
______  __  __  ______  __  __  
 72
    65
 73
     6
 40
2.5
 49
1.25
 74
     0
 49
-0.25
 74
     0
 49
0.25
 74
     0
 49
-0.25
 74
     0
 49
0.25
 74
     0
 49
-0.25
 74
     0
  0
LTYPE
  5
38
330
5
100
AcDbSymbolTableRecord
100
AcDbLinetypeTableRecord
  2
PHANTOM2
 70
     0
  3
___ _ _ ___ _ _ ___ _ _ ___ _ _ 
 72
    65
 73
     6
 40
1.25
 49
0.625
 74
     0
 49
-0.125
 74
     0
 49
0.125
 74
     0
 49
-0.125
 74
     0
 49
0.125
 74
     0
 49
-0.125
 74
     0
  0
LTYPE
  5
39
330
5
100
AcDbSymbolTableRecord
100
AcDbLinetypeTableRecord
  2
PHANTOMX2
 70
     0
  3
___ _ _ ___ _ _ ___ _ _ ___ _ _ 
 72
    65
 73
     6
 40
5.0
 49
2.5
 74
     0
 49
-0.5
 74
     0
 49
0.5
 74
     0
 49
-0.5
 74
     0
 49
0.5
 74
     0
 49
-0.5
 74
     0
  0
ENDTAB
  0
TABLE
  2
LAYER
  5
2
330
0
100
AcDbSymbolTable
 70
   256
  0
LAYER
  5
10
330
2
100
AcDbSymbolTableRecord
100
AcDbLayerTableRecord
  2
0
 70
     0
 62
     7
  6
CONTINUOUS
  0
LAYER
  5
3A
330
2
100
AcDbSymbolTableRecord
100
AcDbLayerTableRecord
  2
1
 70
     0
 62
     1
  6
CONTINUOUS
  0
LAYER
  5
3B
330
2
100
AcDbSymbolTableRecord
100
AcDbLayerTableRecord
  2
2
 70
     0
 62
     2
  6
CONTINUOUS
  0
LAYER
  5
3C
330
2
100
AcDbSymbolTableRecord
100
AcDbLayerTableRecord
  2
3
 70
     0
 62
     3
  6
CONTINUOUS
  0
LAYER
  5
3D
330
2
100
AcDbSymbolTableRecord
100
AcDbLayerTableRecord
  2
4
 70
     0
 62
     4
  6
CONTINUOUS
  0
LAYER
  5
3E
330
2
100
AcDbSymbolTableRecord
100
AcDbLayerTableRecord
  2
5
 70
     0
 62
     5
  6
CONTINUOUS
  0
LAYER
  5
3F
330
2
100
AcDbSymbolTableRecord
100
AcDbLayerTableRecord
  2
6
 70
     0
 62
     6
  6
CONTINUOUS
  0
LAYER
  5
40
330
2
100
AcDbSymbolTableRecord
100
AcDbLayerTableRecord
  2
7
 70
     0
 62
     7
  6
CONTINUOUS
  0
LAYER
  5
41
330
2
100
AcDbSymbolTableRecord
100
AcDbLayerTableRecord
  2
8
 70
     0
 62
     8
  6
CONTINUOUS
  0
LAYER
  5
42
330
2
100
AcDbSymbolTableRecord
100
AcDbLayerTableRecord
  2
9
 70
     0
 62
     9
  6
CONTINUOUS
  0
LAYER
  5
43
330
2
100
AcDbSymbolTableRecord
100
AcDbLayerTableRecord
  2
10
 70
     0
 62
    10
  6
CONTINUOUS
  0
LAYER
  5
44
330
2
100
AcDbSymbolTableRecord
100
AcDbLayerTableRecord
  2
11
 70
     0
 62
    11
  6
CONTINUOUS
  0
LAYER
  5
45
330
2
100
AcDbSymbolTableRecord
100
AcDbLayerTableRecord
  2
12
 70
     0
 62
    12
  6
CONTINUOUS
  0
LAYER
  5
46
330
2
100
AcDbSymbolTableRecord
100
AcDbLayerTableRecord
  2
13
 70
     0
 62
    13
  6
CONTINUOUS
  0
LAYER
  5
47
330
2
100
AcDbSymbolTableRecord
100
AcDbLayerTableRecord
  2
14
 70
     0
 62
    14
  6
CONTINUOUS
  0
LAYER
  5
48
330
2
100
AcDbSymbolTableRecord
100
AcDbLayerTableRecord
  2
15
 70
     0
 62
    15
  6
CONTINUOUS
  0
LAYER
  5
49
330
2
100
AcDbSymbolTableRecord
100
AcDbLayerTableRecord
  2
16
 70
     0
 62
    16
  6
CONTINUOUS
  0
LAYER
  5
4A
330
2
100
AcDbSymbolTableRecord
100
AcDbLayerTableRecord
  2
17
 70
     0
 62
    17
  6
CONTINUOUS
  0
LAYER
  5
4B
330
2
100
AcDbSymbolTableRecord
100
AcDbLayerTableRecord
  2
18
 70
     0
 62
    18
  6
CONTINUOUS
  0
LAYER
  5
4C
330
2
100
AcDbSymbolTableRecord
100
AcDbLayerTableRecord
  2
19
 70
     0
 62
    19
  6
CONTINUOUS
  0
LAYER
  5
4D
330
2
100
AcDbSymbolTableRecord
100
AcDbLayerTableRecord
  2
20
 70
     0
 62
    20
  6
CONTINUOUS
  0
LAYER
  5
4E
330
2
100
AcDbSymbolTableRecord
100
AcDbLayerTableRecord
  2
21
 70
     0
 62
    21
  6
CONTINUOUS
  0
LAYER
  5
4F
330
2
100
AcDbSymbolTableRecord
100
AcDbLayerTableRecord
  2
22
 70
     0
 62
    22
  6
CONTINUOUS
  0
LAYER
  5
50
330
2
100
AcDbSymbolTableRecord
100
AcDbLayerTableRecord
  2
23
 70
     0
 62
    23
  6
CONTINUOUS
  0
LAYER
  5
51
330
2
100
AcDbSymbolTableRecord
100
AcDbLayerTableRecord
  2
24
 70
     0
 62
    24
  6
CONTINUOUS
  0
LAYER
  5
52
330
2
100
AcDbSymbolTableRecord
100
AcDbLayerTableRecord
  2
25
 70
     0
 62
    25
  6
CONTINUOUS
  0
LAYER
  5
53
330
2
100
AcDbSymbolTableRecord
100
AcDbLayerTableRecord
  2
26
 70
     0
 62
    26
  6
CONTINUOUS
  0
LAYER
  5
54
330
2
100
AcDbSymbolTableRecord
100
AcDbLayerTableRecord
  2
27
 70
     0
 62
    27
  6
CONTINUOUS
  0
LAYER
  5
55
330
2
100
AcDbSymbolTableRecord
100
AcDbLayerTableRecord
  2
28
 70
     0
 62
    28
  6
CONTINUOUS
  0
LAYER
  5
56
330
2
100
AcDbSymbolTableRecord
100
AcDbLayerTableRecord
  2
29
 70
     0
 62
    29
  6
CONTINUOUS
  0
LAYER
  5
57
330
2
100
AcDbSymbolTableRecord
100
AcDbLayerTableRecord
  2
30
 70
     0
 62
    30
  6
CONTINUOUS
  0
LAYER
  5
58
330
2
100
AcDbSymbolTableRecord
100
AcDbLayerTableRecord
  2
31
 70
     0
 62
    31
  6
CONTINUOUS
  0
LAYER
  5
59
330
2
100
AcDbSymbolTableRecord
100
AcDbLayerTableRecord
  2
32
 70
     0
 62
    32
  6
CONTINUOUS
  0
LAYER
  5
5A
330
2
100
AcDbSymbolTableRecord
100
AcDbLayerTableRecord
  2
33
 70
     0
 62
    33
  6
CONTINUOUS
  0
LAYER
  5
5B
330
2
100
AcDbSymbolTableRecord
100
AcDbLayerTableRecord
  2
34
 70
     0
 62
    34
  6
CONTINUOUS
  0
LAYER
  5
5C
330
2
100
AcDbSymbolTableRecord
100
AcDbLayerTableRecord
  2
35
 70
     0
 62
    35
  6
CONTINUOUS
  0
LAYER
  5
5D
330
2
100
AcDbSymbolTableRecord
100
AcDbLayerTableRecord
  2
36
 70
     0
 62
    36
  6
CONTINUOUS
  0
LAYER
  5
5E
330
2
100
AcDbSymbolTableRecord
100
AcDbLayerTableRecord
  2
37
 70
     0
 62
    37
  6
CONTINUOUS
  0
LAYER
  5
5F
330
2
100
AcDbSymbolTableRecord
100
AcDbLayerTableRecord
  2
38
 70
     0
 62
    38
  6
CONTINUOUS
  0
LAYER
  5
60
330
2
100
AcDbSymbolTableRecord
100
AcDbLayerTableRecord
  2
39
 70
     0
 62
    39
  6
CONTINUOUS
  0
LAYER
  5
61
330
2
100
AcDbSymbolTableRecord
100
AcDbLayerTableRecord
  2
40
 70
     0
 62
    40
  6
CONTINUOUS
  0
LAYER
  5
62
330
2
100
AcDbSymbolTableRecord
100
AcDbLayerTableRecord
  2
41
 70
     0
 62
    41
  6
CONTINUOUS
  0
LAYER
  5
63
330
2
100
AcDbSymbolTableRecord
100
AcDbLayerTableRecord
  2
42
 70
     0
 62
    42
  6
CONTINUOUS
  0
LAYER
  5
64
330
2
100
AcDbSymbolTableRecord
100
AcDbLayerTableRecord
  2
43
 70
     0
 62
    43
  6
CONTINUOUS
  0
LAYER
  5
65
330
2
100
AcDbSymbolTableRecord
100
AcDbLayerTableRecord
  2
44
 70
     0
 62
    44
  6
CONTINUOUS
  0
LAYER
  5
66
330
2
100
AcDbSymbolTableRecord
100
AcDbLayerTableRecord
  2
45
 70
     0
 62
    45
  6
CONTINUOUS
  0
LAYER
  5
67
330
2
100
AcDbSymbolTableRecord
100
AcDbLayerTableRecord
  2
46
 70
     0
 62
    46
  6
CONTINUOUS
  0
LAYER
  5
68
330
2
100
AcDbSymbolTableRecord
100
AcDbLayerTableRecord
  2
47
 70
     0
 62
    47
  6
CONTINUOUS
  0
LAYER
  5
69
330
2
100
AcDbSymbolTableRecord
100
AcDbLayerTableRecord
  2
48
 70
     0
 62
    48
  6
CONTINUOUS
  0
LAYER
  5
6A
330
2
100
AcDbSymbolTableRecord
100
AcDbLayerTableRecord
  2
49
 70
     0
 62
    49
  6
CONTINUOUS
  0
LAYER
  5
6B
330
2
100
AcDbSymbolTableRecord
100
AcDbLayerTableRecord
  2
50
 70
     0
 62
    50
  6
CONTINUOUS
  0
LAYER
  5
6C
330
2
100
AcDbSymbolTableRecord
100
AcDbLayerTableRecord
  2
51
 70
     0
 62
    51
  6
CONTINUOUS
  0
LAYER
  5
6D
330
2
100
AcDbSymbolTableRecord
100
AcDbLayerTableRecord
  2
52
 70
     0
 62
    52
  6
CONTINUOUS
  0
LAYER
  5
6E
330
2
100
AcDbSymbolTableRecord
100
AcDbLayerTableRecord
  2
53
 70
     0
 62
    53
  6
CONTINUOUS
  0
LAYER
  5
6F
330
2
100
AcDbSymbolTableRecord
100
AcDbLayerTableRecord
  2
54
 70
     0
 62
    54
  6
CONTINUOUS
  0
LAYER
  5
70
330
2
100
AcDbSymbolTableRecord
100
AcDbLayerTableRecord
  2
55
 70
     0
 62
    55
  6
CONTINUOUS
  0
LAYER
  5
71
330
2
100
AcDbSymbolTableRecord
100
AcDbLayerTableRecord
  2
56
 70
     0
 62
    56
  6
CONTINUOUS
  0
LAYER
  5
72
330
2
100
AcDbSymbolTableRecord
100
AcDbLayerTableRecord
  2
57
 70
     0
 62
    57
  6
CONTINUOUS
  0
LAYER
  5
73
330
2
100
AcDbSymbolTableRecord
100
AcDbLayerTableRecord
  2
58
 70
     0
 62
    58
  6
CONTINUOUS
  0
LAYER
  5
74
330
2
100
AcDbSymbolTableRecord
100
AcDbLayerTableRecord
  2
59
 70
     0
 62
    59
  6
CONTINUOUS
  0
LAYER
  5
75
330
2
100
AcDbSymbolTableRecord
100
AcDbLayerTableRecord
  2
60
 70
     0
 62
    60
  6
CONTINUOUS
  0
LAYER
  5
76
330
2
100
AcDbSymbolTableRecord
100
AcDbLayerTableRecord
  2
61
 70
     0
 62
    61
  6
CONTINUOUS
  0
LAYER
  5
77
330
2
100
AcDbSymbolTableRecord
100
AcDbLayerTableRecord
  2
62
 70
     0
 62
    62
  6
CONTINUOUS
  0
LAYER
  5
78
330
2
100
AcDbSymbolTableRecord
100
AcDbLayerTableRecord
  2
63
 70
     0
 62
    63
  6
CONTINUOUS
  0
LAYER
  5
79
330
2
100
AcDbSymbolTableRecord
100
AcDbLayerTableRecord
  2
64
 70
     0
 62
    64
  6
CONTINUOUS
  0
LAYER
  5
7A
330
2
100
AcDbSymbolTableRecord
100
AcDbLayerTableRecord
  2
65
 70
     0
 62
    65
  6
CONTINUOUS
  0
LAYER
  5
7B
330
2
100
AcDbSymbolTableRecord
100
AcDbLayerTableRecord
  2
66
 70
     0
 62
    66
  6
CONTINUOUS
  0
LAYER
  5
7C
330
2
100
AcDbSymbolTableRecord
100
AcDbLayerTableRecord
  2
67
 70
     0
 62
    67
  6
CONTINUOUS
  0
LAYER
  5
7D
330
2
100
AcDbSymbolTableRecord
100
AcDbLayerTableRecord
  2
68
 70
     0
 62
    68
  6
CONTINUOUS
  0
LAYER
  5
7E
330
2
100
AcDbSymbolTableRecord
100
AcDbLayerTableRecord
  2
69
 70
     0
 62
    69
  6
CONTINUOUS
  0
LAYER
  5
7F
330
2
100
AcDbSymbolTableRecord
100
AcDbLayerTableRecord
  2
70
 70
     0
 62
    70
  6
CONTINUOUS
  0
LAYER
  5
80
330
2
100
AcDbSymbolTableRecord
100
AcDbLayerTableRecord
  2
71
 70
     0
 62
    71
  6
CONTINUOUS
  0
LAYER
  5
81
330
2
100
AcDbSymbolTableRecord
100
AcDbLayerTableRecord
  2
72
 70
     0
 62
    72
  6
CONTINUOUS
  0
LAYER
  5
82
330
2
100
AcDbSymbolTableRecord
100
AcDbLayerTableRecord
  2
73
 70
     0
 62
    73
  6
CONTINUOUS
  0
LAYER
  5
83
330
2
100
AcDbSymbolTableRecord
100
AcDbLayerTableRecord
  2
74
 70
     0
 62
    74
  6
CONTINUOUS
  0
LAYER
  5
84
330
2
100
AcDbSymbolTableRecord
100
AcDbLayerTableRecord
  2
75
 70
     0
 62
    75
  6
CONTINUOUS
  0
LAYER
  5
85
330
2
100
AcDbSymbolTableRecord
100
AcDbLayerTableRecord
  2
76
 70
     0
 62
    76
  6
CONTINUOUS
  0
LAYER
  5
86
330
2
100
AcDbSymbolTableRecord
100
AcDbLayerTableRecord
  2
77
 70
     0
 62
    77
  6
CONTINUOUS
  0
LAYER
  5
87
330
2
100
AcDbSymbolTableRecord
100
AcDbLayerTableRecord
  2
78
 70
     0
 62
    78
  6
CONTINUOUS
  0
LAYER
  5
88
330
2
100
AcDbSymbolTableRecord
100
AcDbLayerTableRecord
  2
79
 70
     0
 62
    79
  6
CONTINUOUS
  0
LAYER
  5
89
330
2
100
AcDbSymbolTableRecord
100
AcDbLayerTableRecord
  2
80
 70
     0
 62
    80
  6
CONTINUOUS
  0
LAYER
  5
8A
330
2
100
AcDbSymbolTableRecord
100
AcDbLayerTableRecord
  2
81
 70
     0
 62
    81
  6
CONTINUOUS
  0
LAYER
  5
8B
330
2
100
AcDbSymbolTableRecord
100
AcDbLayerTableRecord
  2
82
 70
     0
 62
    82
  6
CONTINUOUS
  0
LAYER
  5
8C
330
2
100
AcDbSymbolTableRecord
100
AcDbLayerTableRecord
  2
83
 70
     0
 62
    83
  6
CONTINUOUS
  0
LAYER
  5
8D
330
2
100
AcDbSymbolTableRecord
100
AcDbLayerTableRecord
  2
84
 70
     0
 62
    84
  6
CONTINUOUS
  0
LAYER
  5
8E
330
2
100
AcDbSymbolTableRecord
100
AcDbLayerTableRecord
  2
85
 70
     0
 62
    85
  6
CONTINUOUS
  0
LAYER
  5
8F
330
2
100
AcDbSymbolTableRecord
100
AcDbLayerTableRecord
  2
86
 70
     0
 62
    86
  6
CONTINUOUS
  0
LAYER
  5
90
330
2
100
AcDbSymbolTableRecord
100
AcDbLayerTableRecord
  2
87
 70
     0
 62
    87
  6
CONTINUOUS
  0
LAYER
  5
91
330
2
100
AcDbSymbolTableRecord
100
AcDbLayerTableRecord
  2
88
 70
     0
 62
    88
  6
CONTINUOUS
  0
LAYER
  5
92
330
2
100
AcDbSymbolTableRecord
100
AcDbLayerTableRecord
  2
89
 70
     0
 62
    89
  6
CONTINUOUS
  0
LAYER
  5
93
330
2
100
AcDbSymbolTableRecord
100
AcDbLayerTableRecord
  2
90
 70
     0
 62
    90
  6
CONTINUOUS
  0
LAYER
  5
94
330
2
100
AcDbSymbolTableRecord
100
AcDbLayerTableRecord
  2
91
 70
     0
 62
    91
  6
CONTINUOUS
  0
LAYER
  5
95
330
2
100
AcDbSymbolTableRecord
100
AcDbLayerTableRecord
  2
92
 70
     0
 62
    92
  6
CONTINUOUS
  0
LAYER
  5
96
330
2
100
AcDbSymbolTableRecord
100
AcDbLayerTableRecord
  2
93
 70
     0
 62
    93
  6
CONTINUOUS
  0
LAYER
  5
97
330
2
100
AcDbSymbolTableRecord
100
AcDbLayerTableRecord
  2
94
 70
     0
 62
    94
  6
CONTINUOUS
  0
LAYER
  5
98
330
2
100
AcDbSymbolTableRecord
100
AcDbLayerTableRecord
  2
95
 70
     0
 62
    95
  6
CONTINUOUS
  0
LAYER
  5
99
330
2
100
AcDbSymbolTableRecord
100
AcDbLayerTableRecord
  2
96
 70
     0
 62
    96
  6
CONTINUOUS
  0
LAYER
  5
9A
330
2
100
AcDbSymbolTableRecord
100
AcDbLayerTableRecord
  2
97
 70
     0
 62
    97
  6
CONTINUOUS
  0
LAYER
  5
9B
330
2
100
AcDbSymbolTableRecord
100
AcDbLayerTableRecord
  2
98
 70
     0
 62
    98
  6
CONTINUOUS
  0
LAYER
  5
9C
330
2
100
AcDbSymbolTableRecord
100
AcDbLayerTableRecord
  2
99
 70
     0
 62
    99
  6
CONTINUOUS
  0
LAYER
  5
9D
330
2
100
AcDbSymbolTableRecord
100
AcDbLayerTableRecord
  2
100
 70
     0
 62
   100
  6
CONTINUOUS
  0
LAYER
  5
9E
330
2
100
AcDbSymbolTableRecord
100
AcDbLayerTableRecord
  2
101
 70
     0
 62
   101
  6
CONTINUOUS
  0
LAYER
  5
9F
330
2
100
AcDbSymbolTableRecord
100
AcDbLayerTableRecord
  2
102
 70
     0
 62
   102
  6
CONTINUOUS
  0
LAYER
  5
A0
330
2
100
AcDbSymbolTableRecord
100
AcDbLayerTableRecord
  2
103
 70
     0
 62
   103
  6
CONTINUOUS
  0
LAYER
  5
A1
330
2
100
AcDbSymbolTableRecord
100
AcDbLayerTableRecord
  2
104
 70
     0
 62
   104
  6
CONTINUOUS
  0
LAYER
  5
A2
330
2
100
AcDbSymbolTableRecord
100
AcDbLayerTableRecord
  2
105
 70
     0
 62
   105
  6
CONTINUOUS
  0
LAYER
  5
A3
330
2
100
AcDbSymbolTableRecord
100
AcDbLayerTableRecord
  2
106
 70
     0
 62
   106
  6
CONTINUOUS
  0
LAYER
  5
A4
330
2
100
AcDbSymbolTableRecord
100
AcDbLayerTableRecord
  2
107
 70
     0
 62
   107
  6
CONTINUOUS
  0
LAYER
  5
A5
330
2
100
AcDbSymbolTableRecord
100
AcDbLayerTableRecord
  2
108
 70
     0
 62
   108
  6
CONTINUOUS
  0
LAYER
  5
A6
330
2
100
AcDbSymbolTableRecord
100
AcDbLayerTableRecord
  2
109
 70
     0
 62
   109
  6
CONTINUOUS
  0
LAYER
  5
A7
330
2
100
AcDbSymbolTableRecord
100
AcDbLayerTableRecord
  2
110
 70
     0
 62
   110
  6
CONTINUOUS
  0
LAYER
  5
A8
330
2
100
AcDbSymbolTableRecord
100
AcDbLayerTableRecord
  2
111
 70
     0
 62
   111
  6
CONTINUOUS
  0
LAYER
  5
A9
330
2
100
AcDbSymbolTableRecord
100
AcDbLayerTableRecord
  2
112
 70
     0
 62
   112
  6
CONTINUOUS
  0
LAYER
  5
AA
330
2
100
AcDbSymbolTableRecord
100
AcDbLayerTableRecord
  2
113
 70
     0
 62
   113
  6
CONTINUOUS
  0
LAYER
  5
AB
330
2
100
AcDbSymbolTableRecord
100
AcDbLayerTableRecord
  2
114
 70
     0
 62
   114
  6
CONTINUOUS
  0
LAYER
  5
AC
330
2
100
AcDbSymbolTableRecord
100
AcDbLayerTableRecord
  2
115
 70
     0
 62
   115
  6
CONTINUOUS
  0
LAYER
  5
AD
330
2
100
AcDbSymbolTableRecord
100
AcDbLayerTableRecord
  2
116
 70
     0
 62
   116
  6
CONTINUOUS
  0
LAYER
  5
AE
330
2
100
AcDbSymbolTableRecord
100
AcDbLayerTableRecord
  2
117
 70
     0
 62
   117
  6
CONTINUOUS
  0
LAYER
  5
AF
330
2
100
AcDbSymbolTableRecord
100
AcDbLayerTableRecord
  2
118
 70
     0
 62
   118
  6
CONTINUOUS
  0
LAYER
  5
B0
330
2
100
AcDbSymbolTableRecord
100
AcDbLayerTableRecord
  2
119
 70
     0
 62
   119
  6
CONTINUOUS
  0
LAYER
  5
B1
330
2
100
AcDbSymbolTableRecord
100
AcDbLayerTableRecord
  2
120
 70
     0
 62
   120
  6
CONTINUOUS
  0
LAYER
  5
B2
330
2
100
AcDbSymbolTableRecord
100
AcDbLayerTableRecord
  2
121
 70
     0
 62
   121
  6
CONTINUOUS
  0
LAYER
  5
B3
330
2
100
AcDbSymbolTableRecord
100
AcDbLayerTableRecord
  2
122
 70
     0
 62
   122
  6
CONTINUOUS
  0
LAYER
  5
B4
330
2
100
AcDbSymbolTableRecord
100
AcDbLayerTableRecord
  2
123
 70
     0
 62
   123
  6
CONTINUOUS
  0
LAYER
  5
B5
330
2
100
AcDbSymbolTableRecord
100
AcDbLayerTableRecord
  2
124
 70
     0
 62
   124
  6
CONTINUOUS
  0
LAYER
  5
B6
330
2
100
AcDbSymbolTableRecord
100
AcDbLayerTableRecord
  2
125
 70
     0
 62
   125
  6
CONTINUOUS
  0
LAYER
  5
B7
330
2
100
AcDbSymbolTableRecord
100
AcDbLayerTableRecord
  2
126
 70
     0
 62
   126
  6
CONTINUOUS
  0
LAYER
  5
B8
330
2
100
AcDbSymbolTableRecord
100
AcDbLayerTableRecord
  2
127
 70
     0
 62
   127
  6
CONTINUOUS
  0
LAYER
  5
B9
330
2
100
AcDbSymbolTableRecord
100
AcDbLayerTableRecord
  2
128
 70
     0
 62
   128
  6
CONTINUOUS
  0
LAYER
  5
BA
330
2
100
AcDbSymbolTableRecord
100
AcDbLayerTableRecord
  2
129
 70
     0
 62
   129
  6
CONTINUOUS
  0
LAYER
  5
BB
330
2
100
AcDbSymbolTableRecord
100
AcDbLayerTableRecord
  2
130
 70
     0
 62
   130
  6
CONTINUOUS
  0
LAYER
  5
BC
330
2
100
AcDbSymbolTableRecord
100
AcDbLayerTableRecord
  2
131
 70
     0
 62
   131
  6
CONTINUOUS
  0
LAYER
  5
BD
330
2
100
AcDbSymbolTableRecord
100
AcDbLayerTableRecord
  2
132
 70
     0
 62
   132
  6
CONTINUOUS
  0
LAYER
  5
BE
330
2
100
AcDbSymbolTableRecord
100
AcDbLayerTableRecord
  2
133
 70
     0
 62
   133
  6
CONTINUOUS
  0
LAYER
  5
BF
330
2
100
AcDbSymbolTableRecord
100
AcDbLayerTableRecord
  2
134
 70
     0
 62
   134
  6
CONTINUOUS
  0
LAYER
  5
C0
330
2
100
AcDbSymbolTableRecord
100
AcDbLayerTableRecord
  2
135
 70
     0
 62
   135
  6
CONTINUOUS
  0
LAYER
  5
C1
330
2
100
AcDbSymbolTableRecord
100
AcDbLayerTableRecord
  2
136
 70
     0
 62
   136
  6
CONTINUOUS
  0
LAYER
  5
C2
330
2
100
AcDbSymbolTableRecord
100
AcDbLayerTableRecord
  2
137
 70
     0
 62
   137
  6
CONTINUOUS
  0
LAYER
  5
C3
330
2
100
AcDbSymbolTableRecord
100
AcDbLayerTableRecord
  2
138
 70
     0
 62
   138
  6
CONTINUOUS
  0
LAYER
  5
C4
330
2
100
AcDbSymbolTableRecord
100
AcDbLayerTableRecord
  2
139
 70
     0
 62
   139
  6
CONTINUOUS
  0
LAYER
  5
C5
330
2
100
AcDbSymbolTableRecord
100
AcDbLayerTableRecord
  2
140
 70
     0
 62
   140
  6
CONTINUOUS
  0
LAYER
  5
C6
330
2
100
AcDbSymbolTableRecord
100
AcDbLayerTableRecord
  2
141
 70
     0
 62
   141
  6
CONTINUOUS
  0
LAYER
  5
C7
330
2
100
AcDbSymbolTableRecord
100
AcDbLayerTableRecord
  2
142
 70
     0
 62
   142
  6
CONTINUOUS
  0
LAYER
  5
C8
330
2
100
AcDbSymbolTableRecord
100
AcDbLayerTableRecord
  2
143
 70
     0
 62
   143
  6
CONTINUOUS
  0
LAYER
  5
C9
330
2
100
AcDbSymbolTableRecord
100
AcDbLayerTableRecord
  2
144
 70
     0
 62
   144
  6
CONTINUOUS
  0
LAYER
  5
CA
330
2
100
AcDbSymbolTableRecord
100
AcDbLayerTableRecord
  2
145
 70
     0
 62
   145
  6
CONTINUOUS
  0
LAYER
  5
CB
330
2
100
AcDbSymbolTableRecord
100
AcDbLayerTableRecord
  2
146
 70
     0
 62
   146
  6
CONTINUOUS
  0
LAYER
  5
CC
330
2
100
AcDbSymbolTableRecord
100
AcDbLayerTableRecord
  2
147
 70
     0
 62
   147
  6
CONTINUOUS
  0
LAYER
  5
CD
330
2
100
AcDbSymbolTableRecord
100
AcDbLayerTableRecord
  2
148
 70
     0
 62
   148
  6
CONTINUOUS
  0
LAYER
  5
CE
330
2
100
AcDbSymbolTableRecord
100
AcDbLayerTableRecord
  2
149
 70
     0
 62
   149
  6
CONTINUOUS
  0
LAYER
  5
CF
330
2
100
AcDbSymbolTableRecord
100
AcDbLayerTableRecord
  2
150
 70
     0
 62
   150
  6
CONTINUOUS
  0
LAYER
  5
D0
330
2
100
AcDbSymbolTableRecord
100
AcDbLayerTableRecord
  2
151
 70
     0
 62
   151
  6
CONTINUOUS
  0
LAYER
  5
D1
330
2
100
AcDbSymbolTableRecord
100
AcDbLayerTableRecord
  2
152
 70
     0
 62
   152
  6
CONTINUOUS
  0
LAYER
  5
D2
330
2
100
AcDbSymbolTableRecord
100
AcDbLayerTableRecord
  2
153
 70
     0
 62
   153
  6
CONTINUOUS
  0
LAYER
  5
D3
330
2
100
AcDbSymbolTableRecord
100
AcDbLayerTableRecord
  2
154
 70
     0
 62
   154
  6
CONTINUOUS
  0
LAYER
  5
D4
330
2
100
AcDbSymbolTableRecord
100
AcDbLayerTableRecord
  2
155
 70
     0
 62
   155
  6
CONTINUOUS
  0
LAYER
  5
D5
330
2
100
AcDbSymbolTableRecord
100
AcDbLayerTableRecord
  2
156
 70
     0
 62
   156
  6
CONTINUOUS
  0
LAYER
  5
D6
330
2
100
AcDbSymbolTableRecord
100
AcDbLayerTableRecord
  2
157
 70
     0
 62
   157
  6
CONTINUOUS
  0
LAYER
  5
D7
330
2
100
AcDbSymbolTableRecord
100
AcDbLayerTableRecord
  2
158
 70
     0
 62
   158
  6
CONTINUOUS
  0
LAYER
  5
D8
330
2
100
AcDbSymbolTableRecord
100
AcDbLayerTableRecord
  2
159
 70
     0
 62
   159
  6
CONTINUOUS
  0
LAYER
  5
D9
330
2
100
AcDbSymbolTableRecord
100
AcDbLayerTableRecord
  2
160
 70
     0
 62
   160
  6
CONTINUOUS
  0
LAYER
  5
DA
330
2
100
AcDbSymbolTableRecord
100
AcDbLayerTableRecord
  2
161
 70
     0
 62
   161
  6
CONTINUOUS
  0
LAYER
  5
DB
330
2
100
AcDbSymbolTableRecord
100
AcDbLayerTableRecord
  2
162
 70
     0
 62
   162
  6
CONTINUOUS
  0
LAYER
  5
DC
330
2
100
AcDbSymbolTableRecord
100
AcDbLayerTableRecord
  2
163
 70
     0
 62
   163
  6
CONTINUOUS
  0
LAYER
  5
DD
330
2
100
AcDbSymbolTableRecord
100
AcDbLayerTableRecord
  2
164
 70
     0
 62
   164
  6
CONTINUOUS
  0
LAYER
  5
DE
330
2
100
AcDbSymbolTableRecord
100
AcDbLayerTableRecord
  2
165
 70
     0
 62
   165
  6
CONTINUOUS
  0
LAYER
  5
DF
330
2
100
AcDbSymbolTableRecord
100
AcDbLayerTableRecord
  2
166
 70
     0
 62
   166
  6
CONTINUOUS
  0
LAYER
  5
E0
330
2
100
AcDbSymbolTableRecord
100
AcDbLayerTableRecord
  2
167
 70
     0
 62
   167
  6
CONTINUOUS
  0
LAYER
  5
E1
330
2
100
AcDbSymbolTableRecord
100
AcDbLayerTableRecord
  2
168
 70
     0
 62
   168
  6
CONTINUOUS
  0
LAYER
  5
E2
330
2
100
AcDbSymbolTableRecord
100
AcDbLayerTableRecord
  2
169
 70
     0
 62
   169
  6
CONTINUOUS
  0
LAYER
  5
E3
330
2
100
AcDbSymbolTableRecord
100
AcDbLayerTableRecord
  2
170
 70
     0
 62
   170
  6
CONTINUOUS
  0
LAYER
  5
E4
330
2
100
AcDbSymbolTableRecord
100
AcDbLayerTableRecord
  2
171
 70
     0
 62
   171
  6
CONTINUOUS
  0
LAYER
  5
E5
330
2
100
AcDbSymbolTableRecord
100
AcDbLayerTableRecord
  2
172
 70
     0
 62
   172
  6
CONTINUOUS
  0
LAYER
  5
E6
330
2
100
AcDbSymbolTableRecord
100
AcDbLayerTableRecord
  2
173
 70
     0
 62
   173
  6
CONTINUOUS
  0
LAYER
  5
E7
330
2
100
AcDbSymbolTableRecord
100
AcDbLayerTableRecord
  2
174
 70
     0
 62
   174
  6
CONTINUOUS
  0
LAYER
  5
E8
330
2
100
AcDbSymbolTableRecord
100
AcDbLayerTableRecord
  2
175
 70
     0
 62
   175
  6
CONTINUOUS
  0
LAYER
  5
E9
330
2
100
AcDbSymbolTableRecord
100
AcDbLayerTableRecord
  2
176
 70
     0
 62
   176
  6
CONTINUOUS
  0
LAYER
  5
EA
330
2
100
AcDbSymbolTableRecord
100
AcDbLayerTableRecord
  2
177
 70
     0
 62
   177
  6
CONTINUOUS
  0
LAYER
  5
EB
330
2
100
AcDbSymbolTableRecord
100
AcDbLayerTableRecord
  2
178
 70
     0
 62
   178
  6
CONTINUOUS
  0
LAYER
  5
EC
330
2
100
AcDbSymbolTableRecord
100
AcDbLayerTableRecord
  2
179
 70
     0
 62
   179
  6
CONTINUOUS
  0
LAYER
  5
ED
330
2
100
AcDbSymbolTableRecord
100
AcDbLayerTableRecord
  2
180
 70
     0
 62
   180
  6
CONTINUOUS
  0
LAYER
  5
EE
330
2
100
AcDbSymbolTableRecord
100
AcDbLayerTableRecord
  2
181
 70
     0
 62
   181
  6
CONTINUOUS
  0
LAYER
  5
EF
330
2
100
AcDbSymbolTableRecord
100
AcDbLayerTableRecord
  2
182
 70
     0
 62
   182
  6
CONTINUOUS
  0
LAYER
  5
F0
330
2
100
AcDbSymbolTableRecord
100
AcDbLayerTableRecord
  2
183
 70
     0
 62
   183
  6
CONTINUOUS
  0
LAYER
  5
F1
330
2
100
AcDbSymbolTableRecord
100
AcDbLayerTableRecord
  2
184
 70
     0
 62
   184
  6
CONTINUOUS
  0
LAYER
  5
F2
330
2
100
AcDbSymbolTableRecord
100
AcDbLayerTableRecord
  2
185
 70
     0
 62
   185
  6
CONTINUOUS
  0
LAYER
  5
F3
330
2
100
AcDbSymbolTableRecord
100
AcDbLayerTableRecord
  2
186
 70
     0
 62
   186
  6
CONTINUOUS
  0
LAYER
  5
F4
330
2
100
AcDbSymbolTableRecord
100
AcDbLayerTableRecord
  2
187
 70
     0
 62
   187
  6
CONTINUOUS
  0
LAYER
  5
F5
330
2
100
AcDbSymbolTableRecord
100
AcDbLayerTableRecord
  2
188
 70
     0
 62
   188
  6
CONTINUOUS
  0
LAYER
  5
F6
330
2
100
AcDbSymbolTableRecord
100
AcDbLayerTableRecord
  2
189
 70
     0
 62
   189
  6
CONTINUOUS
  0
LAYER
  5
F7
330
2
100
AcDbSymbolTableRecord
100
AcDbLayerTableRecord
  2
190
 70
     0
 62
   190
  6
CONTINUOUS
  0
LAYER
  5
F8
330
2
100
AcDbSymbolTableRecord
100
AcDbLayerTableRecord
  2
191
 70
     0
 62
   191
  6
CONTINUOUS
  0
LAYER
  5
F9
330
2
100
AcDbSymbolTableRecord
100
AcDbLayerTableRecord
  2
192
 70
     0
 62
   192
  6
CONTINUOUS
  0
LAYER
  5
FA
330
2
100
AcDbSymbolTableRecord
100
AcDbLayerTableRecord
  2
193
 70
     0
 62
   193
  6
CONTINUOUS
  0
LAYER
  5
FB
330
2
100
AcDbSymbolTableRecord
100
AcDbLayerTableRecord
  2
194
 70
     0
 62
   194
  6
CONTINUOUS
  0
LAYER
  5
FC
330
2
100
AcDbSymbolTableRecord
100
AcDbLayerTableRecord
  2
195
 70
     0
 62
   195
  6
CONTINUOUS
  0
LAYER
  5
FD
330
2
100
AcDbSymbolTableRecord
100
AcDbLayerTableRecord
  2
196
 70
     0
 62
   196
  6
CONTINUOUS
  0
LAYER
  5
FE
330
2
100
AcDbSymbolTableRecord
100
AcDbLayerTableRecord
  2
197
 70
     0
 62
   197
  6
CONTINUOUS
  0
LAYER
  5
FF
330
2
100
AcDbSymbolTableRecord
100
AcDbLayerTableRecord
  2
198
 70
     0
 62
   198
  6
CONTINUOUS
  0
LAYER
  5
100
330
2
100
AcDbSymbolTableRecord
100
AcDbLayerTableRecord
  2
199
 70
     0
 62
   199
  6
CONTINUOUS
  0
LAYER
  5
101
330
2
100
AcDbSymbolTableRecord
100
AcDbLayerTableRecord
  2
200
 70
     0
 62
   200
  6
CONTINUOUS
  0
LAYER
  5
102
330
2
100
AcDbSymbolTableRecord
100
AcDbLayerTableRecord
  2
201
 70
     0
 62
   201
  6
CONTINUOUS
  0
LAYER
  5
103
330
2
100
AcDbSymbolTableRecord
100
AcDbLayerTableRecord
  2
202
 70
     0
 62
   202
  6
CONTINUOUS
  0
LAYER
  5
104
330
2
100
AcDbSymbolTableRecord
100
AcDbLayerTableRecord
  2
203
 70
     0
 62
   203
  6
CONTINUOUS
  0
LAYER
  5
105
330
2
100
AcDbSymbolTableRecord
100
AcDbLayerTableRecord
  2
204
 70
     0
 62
   204
  6
CONTINUOUS
  0
LAYER
  5
106
330
2
100
AcDbSymbolTableRecord
100
AcDbLayerTableRecord
  2
205
 70
     0
 62
   205
  6
CONTINUOUS
  0
LAYER
  5
107
330
2
100
AcDbSymbolTableRecord
100
AcDbLayerTableRecord
  2
206
 70
     0
 62
   206
  6
CONTINUOUS
  0
LAYER
  5
108
330
2
100
AcDbSymbolTableRecord
100
AcDbLayerTableRecord
  2
207
 70
     0
 62
   207
  6
CONTINUOUS
  0
LAYER
  5
109
330
2
100
AcDbSymbolTableRecord
100
AcDbLayerTableRecord
  2
208
 70
     0
 62
   208
  6
CONTINUOUS
  0
LAYER
  5
10A
330
2
100
AcDbSymbolTableRecord
100
AcDbLayerTableRecord
  2
209
 70
     0
 62
   209
  6
CONTINUOUS
  0
LAYER
  5
10B
330
2
100
AcDbSymbolTableRecord
100
AcDbLayerTableRecord
  2
210
 70
     0
 62
   210
  6
CONTINUOUS
  0
LAYER
  5
10C
330
2
100
AcDbSymbolTableRecord
100
AcDbLayerTableRecord
  2
211
 70
     0
 62
   211
  6
CONTINUOUS
  0
LAYER
  5
10D
330
2
100
AcDbSymbolTableRecord
100
AcDbLayerTableRecord
  2
212
 70
     0
 62
   212
  6
CONTINUOUS
  0
LAYER
  5
10E
330
2
100
AcDbSymbolTableRecord
100
AcDbLayerTableRecord
  2
213
 70
     0
 62
   213
  6
CONTINUOUS
  0
LAYER
  5
10F
330
2
100
AcDbSymbolTableRecord
100
AcDbLayerTableRecord
  2
214
 70
     0
 62
   214
  6
CONTINUOUS
  0
LAYER
  5
110
330
2
100
AcDbSymbolTableRecord
100
AcDbLayerTableRecord
  2
215
 70
     0
 62
   215
  6
CONTINUOUS
  0
LAYER
  5
111
330
2
100
AcDbSymbolTableRecord
100
AcDbLayerTableRecord
  2
216
 70
     0
 62
   216
  6
CONTINUOUS
  0
LAYER
  5
112
330
2
100
AcDbSymbolTableRecord
100
AcDbLayerTableRecord
  2
217
 70
     0
 62
   217
  6
CONTINUOUS
  0
LAYER
  5
113
330
2
100
AcDbSymbolTableRecord
100
AcDbLayerTableRecord
  2
218
 70
     0
 62
   218
  6
CONTINUOUS
  0
LAYER
  5
114
330
2
100
AcDbSymbolTableRecord
100
AcDbLayerTableRecord
  2
219
 70
     0
 62
   219
  6
CONTINUOUS
  0
LAYER
  5
115
330
2
100
AcDbSymbolTableRecord
100
AcDbLayerTableRecord
  2
220
 70
     0
 62
   220
  6
CONTINUOUS
  0
LAYER
  5
116
330
2
100
AcDbSymbolTableRecord
100
AcDbLayerTableRecord
  2
221
 70
     0
 62
   221
  6
CONTINUOUS
  0
LAYER
  5
117
330
2
100
AcDbSymbolTableRecord
100
AcDbLayerTableRecord
  2
222
 70
     0
 62
   222
  6
CONTINUOUS
  0
LAYER
  5
118
330
2
100
AcDbSymbolTableRecord
100
AcDbLayerTableRecord
  2
223
 70
     0
 62
   223
  6
CONTINUOUS
  0
LAYER
  5
119
330
2
100
AcDbSymbolTableRecord
100
AcDbLayerTableRecord
  2
224
 70
     0
 62
   224
  6
CONTINUOUS
  0
LAYER
  5
11A
330
2
100
AcDbSymbolTableRecord
100
AcDbLayerTableRecord
  2
225
 70
     0
 62
   225
  6
CONTINUOUS
  0
LAYER
  5
11B
330
2
100
AcDbSymbolTableRecord
100
AcDbLayerTableRecord
  2
226
 70
     0
 62
   226
  6
CONTINUOUS
  0
LAYER
  5
11C
330
2
100
AcDbSymbolTableRecord
100
AcDbLayerTableRecord
  2
227
 70
     0
 62
   227
  6
CONTINUOUS
  0
LAYER
  5
11D
330
2
100
AcDbSymbolTableRecord
100
AcDbLayerTableRecord
  2
228
 70
     0
 62
   228
  6
CONTINUOUS
  0
LAYER
  5
11E
330
2
100
AcDbSymbolTableRecord
100
AcDbLayerTableRecord
  2
229
 70
     0
 62
   229
  6
CONTINUOUS
  0
LAYER
  5
11F
330
2
100
AcDbSymbolTableRecord
100
AcDbLayerTableRecord
  2
230
 70
     0
 62
   230
  6
CONTINUOUS
  0
LAYER
  5
120
330
2
100
AcDbSymbolTableRecord
100
AcDbLayerTableRecord
  2
231
 70
     0
 62
   231
  6
CONTINUOUS
  0
LAYER
  5
121
330
2
100
AcDbSymbolTableRecord
100
AcDbLayerTableRecord
  2
232
 70
     0
 62
   232
  6
CONTINUOUS
  0
LAYER
  5
122
330
2
100
AcDbSymbolTableRecord
100
AcDbLayerTableRecord
  2
233
 70
     0
 62
   233
  6
CONTINUOUS
  0
LAYER
  5
123
330
2
100
AcDbSymbolTableRecord
100
AcDbLayerTableRecord
  2
234
 70
     0
 62
   234
  6
CONTINUOUS
  0
LAYER
  5
124
330
2
100
AcDbSymbolTableRecord
100
AcDbLayerTableRecord
  2
235
 70
     0
 62
   235
  6
CONTINUOUS
  0
LAYER
  5
125
330
2
100
AcDbSymbolTableRecord
100
AcDbLayerTableRecord
  2
236
 70
     0
 62
   236
  6
CONTINUOUS
  0
LAYER
  5
126
330
2
100
AcDbSymbolTableRecord
100
AcDbLayerTableRecord
  2
237
 70
     0
 62
   237
  6
CONTINUOUS
  0
LAYER
  5
127
330
2
100
AcDbSymbolTableRecord
100
AcDbLayerTableRecord
  2
238
 70
     0
 62
   238
  6
CONTINUOUS
  0
LAYER
  5
128
330
2
100
AcDbSymbolTableRecord
100
AcDbLayerTableRecord
  2
239
 70
     0
 62
   239
  6
CONTINUOUS
  0
LAYER
  5
129
330
2
100
AcDbSymbolTableRecord
100
AcDbLayerTableRecord
  2
240
 70
     0
 62
   240
  6
CONTINUOUS
  0
LAYER
  5
12A
330
2
100
AcDbSymbolTableRecord
100
AcDbLayerTableRecord
  2
241
 70
     0
 62
   241
  6
CONTINUOUS
  0
LAYER
  5
12B
330
2
100
AcDbSymbolTableRecord
100
AcDbLayerTableRecord
  2
242
 70
     0
 62
   242
  6
CONTINUOUS
  0
LAYER
  5
12C
330
2
100
AcDbSymbolTableRecord
100
AcDbLayerTableRecord
  2
243
 70
     0
 62
   243
  6
CONTINUOUS
  0
LAYER
  5
12D
330
2
100
AcDbSymbolTableRecord
100
AcDbLayerTableRecord
  2
244
 70
     0
 62
   244
  6
CONTINUOUS
  0
LAYER
  5
12E
330
2
100
AcDbSymbolTableRecord
100
AcDbLayerTableRecord
  2
245
 70
     0
 62
   245
  6
CONTINUOUS
  0
LAYER
  5
12F
330
2
100
AcDbSymbolTableRecord
100
AcDbLayerTableRecord
  2
246
 70
     0
 62
   246
  6
CONTINUOUS
  0
LAYER
  5
130
330
2
100
AcDbSymbolTableRecord
100
AcDbLayerTableRecord
  2
247
 70
     0
 62
   247
  6
CONTINUOUS
  0
LAYER
  5
131
330
2
100
AcDbSymbolTableRecord
100
AcDbLayerTableRecord
  2
248
 70
     0
 62
   248
  6
CONTINUOUS
  0
LAYER
  5
132
330
2
100
AcDbSymbolTableRecord
100
AcDbLayerTableRecord
  2
249
 70
     0
 62
   249
  6
CONTINUOUS
  0
LAYER
  5
133
330
2
100
AcDbSymbolTableRecord
100
AcDbLayerTableRecord
  2
250
 70
     0
 62
   250
  6
CONTINUOUS
  0
LAYER
  5
134
330
2
100
AcDbSymbolTableRecord
100
AcDbLayerTableRecord
  2
251
 70
     0
 62
   251
  6
CONTINUOUS
  0
LAYER
  5
135
330
2
100
AcDbSymbolTableRecord
100
AcDbLayerTableRecord
  2
252
 70
     0
 62
   252
  6
CONTINUOUS
  0
LAYER
  5
136
330
2
100
AcDbSymbolTableRecord
100
AcDbLayerTableRecord
  2
253
 70
     0
 62
   253
  6
CONTINUOUS
  0
LAYER
  5
137
330
2
100
AcDbSymbolTableRecord
100
AcDbLayerTableRecord
  2
254
 70
     0
 62
   254
  6
CONTINUOUS
  0
LAYER
  5
138
330
2
100
AcDbSymbolTableRecord
100
AcDbLayerTableRecord
  2
255
 70
     0
 62
   255
  6
CONTINUOUS
  0
ENDTAB
  0
TABLE
  2
STYLE
  5
3
330
0
100
AcDbSymbolTable
 70
     1
  0
STYLE
  5
11
330
3
100
AcDbSymbolTableRecord
100
AcDbTextStyleTableRecord
  2
STANDARD
 70
     0
 40
0.0
 41
1.0
 50
0.0
 71
     0
 42
0.2
  3
monotxt
  4

  0
ENDTAB
  0
TABLE
  2
VIEW
  5
6
330
0
100
AcDbSymbolTable
 70
     0
  0
ENDTAB
  0
TABLE
  2
UCS
  5
7
330
0
100
AcDbSymbolTable
 70
     0
  0
ENDTAB
  0
TABLE
  2
APPID
  5
9
330
0
100
AcDbSymbolTable
 70
     1
  0
APPID
  5
12
330
9
100
AcDbSymbolTableRecord
100
AcDbRegAppTableRecord
  2
ACAD
 70
     0
  0
ENDTAB
  0
TABLE
  2
DIMSTYLE
  5
A
330
0
100
AcDbSymbolTable
 70
     1
  0
DIMSTYLE
105
243F
330
A
100
AcDbSymbolTableRecord
100
AcDbDimStyleTableRecord
  2
STANDARD
 70
     0
  3

  4

  5

  6

  7

 40
1.0
 41
0.18
 42
0.0625
 43
0.38
 44
0.18
 45
0.0
 46
0.0
 47
0.0
 48
0.0
140
0.18
141
0.09
142
0.0
143
25.4
144
1.0
145
0.0
146
1.0
147
0.09
 71
     0
 72
     0
 73
     1
 74
     1
 75
     0
 76
     0
 77
     0
 78
     0
170
     0
171
     2
172
     0
173
     0
174
     0
175
     0
176
     0
177
     0
178
     0
270
     2
271
     4
272
     4
273
     2
274
     2
340
11
275
     0
280
     0
281
     0
282
     0
283
     1
284
     0
285
     0
286
     0
287
     3
288
     0
  0
ENDTAB
  0
TABLE
  2
BLOCK_RECORD
  5
1
330
0
100
AcDbSymbolTable
 70
     0
  0
BLOCK_RECORD
  5
1E
102
{ACAD_XDICTIONARY
360
25E7
102
}
330
1
100
AcDbSymbolTableRecord
100
AcDbBlockTableRecord
  2
*MODEL_SPACE
  0
BLOCK_RECORD
  5
1A
102
{ACAD_XDICTIONARY
360
25E5
102
}
330
1
100
AcDbSymbolTableRecord
100
AcDbBlockTableRecord
  2
*PAPER_SPACE
  0
ENDTAB
  0
ENDSEC
  0
SECTION
  2
BLOCKS
  0
BLOCK
  5
13B
330
1E
100
AcDbEntity
  8
0
100
AcDbBlockBegin
  2
*MODEL_SPACE
 70
     0
 10
0.0
 20
0.0
 30
0.0
  3
*MODEL_SPACE
  1

  0
ENDBLK
  5
13C
330
1E
100
AcDbEntity
  8
0
100
AcDbBlockEnd
  0
BLOCK
  5
139
330
1A
100
AcDbEntity
 67
     1
  8
0
100
AcDbBlockBegin
  2
*PAPER_SPACE
 70
     0
 10
0.0
 20
0.0
 30
0.0
  3
*PAPER_SPACE
  1

  0
ENDBLK
  5
13A
330
1A
100
AcDbEntity
 67
     1
  8
0
100
AcDbBlockEnd
  0
ENDSEC
  0
SECTION
  2
ENTITIES
  0
LINE
  5
1F64
330
1E
100
AcDbEntity
  8
3
100
AcDbLine
 10
-12.07222612308661
 20
-7.182042271748029
 30
0.0
 11
-12.13523691892913
 21
-7.182042271748029
 31
0.0
  0
LINE
  5
1F65
330
1E
100
AcDbEntity
  8
3
100
AcDbLine
 10
-12.26125851061417
 20
-7.182042271748029
 30
0.0
 11
-12.32426930645669
 21
-7.182042271748029
 31
0.0
  0
LINE
  5
1F66
330
1E
100
AcDbEntity
  8
3
100
AcDbLine
 10
-12.07222612308661
 20
-7.182042271748029
 30
0.0
 11
-12.04597162481889
 21
-7.182042271748029
 31
0.0
  0
LINE
  5
1F67
330
1E
100
AcDbEntity
  8
3
100
AcDbLine
 10
-11.98296082897637
 20
-7.182042271748029
 30
0.0
 11
-11.95145543105512
 21
-7.182042271748029
 31
0.0
  0
LINE
  5
1F68
330
1E
100
AcDbEntity
  8
3
100
AcDbLine
 10
-11.95145543105512
 20
-7.182042271748029
 30
0.0
 11
-11.82018293971653
 21
-7.182042271748029
 31
0.0
  0
LINE
  5
1F69
330
1E
100
AcDbEntity
  8
3
100
AcDbLine
 10
-11.55763795703937
 20
-7.182042271748029
 30
0.0
 11
-11.28984207470866
 21
-7.182042271748029
 31
0.0
  0
LINE
  5
1F6A
330
1E
100
AcDbEntity
  8
3
100
AcDbLine
 10
-11.02729709203149
 20
-7.182042271748029
 30
0.0
 11
-10.76475210935433
 21
-7.182042271748029
 31
0.0
  0
LINE
  5
1F6B
330
1E
100
AcDbEntity
  8
3
100
AcDbLine
 10
-10.49695622702362
 20
-7.182042271748029
 30
0.0
 11
-10.23441124434645
 21
-7.182042271748029
 31
0.0
  0
LINE
  5
1F6C
330
1E
100
AcDbEntity
  8
3
100
AcDbLine
 10
-9.966615362015748
 20
-7.182042271748029
 30
0.0
 11
-9.704070379338583
 21
-7.182042271748029
 31
0.0
  0
LINE
  5
1F6D
330
1E
100
AcDbEntity
  8
3
100
AcDbLine
 10
-9.441525396661418
 20
-7.182042271748029
 30
0.0
 11
-9.173729514330709
 21
-7.182042271748029
 31
0.0
  0
LINE
  5
1F6E
330
1E
100
AcDbEntity
  8
3
100
AcDbLine
 10
-8.911184531653544
 20
-7.182042271748029
 30
0.0
 11
-8.643388649322835
 21
-7.182042271748029
 31
0.0
  0
LINE
  5
1F6F
330
1E
100
AcDbEntity
  8
3
100
AcDbLine
 10
-8.380843666645667
 20
-7.182042271748029
 30
0.0
 11
-8.113047784314961
 21
-7.182042271748029
 31
0.0
  0
LINE
  5
1F70
330
1E
100
AcDbEntity
  8
3
100
AcDbLine
 10
-7.850502801637796
 20
-7.182042271748029
 30
0.0
 11
-7.58795781896063
 21
-7.182042271748029
 31
0.0
  0
LINE
  5
1F71
330
1E
100
AcDbEntity
  8
3
100
AcDbLine
 10
-7.320161936629922
 20
-7.182042271748029
 30
0.0
 11
-7.057616953952754
 21
-7.182042271748029
 31
0.0
  0
LINE
  5
1F72
330
1E
100
AcDbEntity
  8
3
100
AcDbLine
 10
-6.789821071622048
 20
-7.182042271748029
 30
0.0
 11
-6.527276088944883
 21
-7.182042271748029
 31
0.0
  0
LINE
  5
1F73
330
1E
100
AcDbEntity
  8
3
100
AcDbLine
 10
-6.264731106267715
 20
-7.182042271748029
 30
0.0
 11
-5.996935223937008
 21
-7.182042271748029
 31
0.0
  0
LINE
  5
1F74
330
1E
100
AcDbEntity
  8
3
100
AcDbLine
 10
-5.734390241259843
 20
-7.182042271748029
 30
0.0
 11
-5.466594358929135
 21
-7.182042271748029
 31
0.0
  0
LINE
  5
1F75
330
1E
100
AcDbEntity
  8
3
100
AcDbLine
 10
-5.204049376251969
 20
-7.182042271748029
 30
0.0
 11
-4.941504393574802
 21
-7.182042271748029
 31
0.0
  0
LINE
  5
1F76
330
1E
100
AcDbEntity
  8
3
100
AcDbLine
 10
-4.673708511244095
 20
-7.182042271748029
 30
0.0
 11
-4.41116352856693
 21
-7.182042271748029
 31
0.0
  0
LINE
  5
1F77
330
1E
100
AcDbEntity
  8
3
100
AcDbLine
 10
-4.143367646236221
 20
-7.182042271748029
 30
0.0
 11
-3.880822663559056
 21
-7.182042271748029
 31
0.0
  0
LINE
  5
1F78
330
1E
100
AcDbEntity
  8
3
100
AcDbLine
 10
-3.618277680881889
 20
-7.182042271748029
 30
0.0
 11
-3.350481798551181
 21
-7.182042271748029
 31
0.0
  0
LINE
  5
1F79
330
1E
100
AcDbEntity
  8
3
100
AcDbLine
 10
-3.087936815874017
 20
-7.182042271748029
 30
0.0
 11
-2.820140933543307
 21
-7.182042271748029
 31
0.0
  0
LINE
  5
1F7A
330
1E
100
AcDbEntity
  8
3
100
AcDbLine
 10
-2.557595950866143
 20
-7.182042271748029
 30
0.0
 11
-2.289800068535433
 21
-7.182042271748029
 31
0.0
  0
LINE
  5
1F7B
330
1E
100
AcDbEntity
  8
3
100
AcDbLine
 10
-2.027255085858269
 20
-7.182042271748029
 30
0.0
 11
-1.764710103181103
 21
-7.182042271748029
 31
0.0
  0
LINE
  5
1F7C
330
1E
100
AcDbEntity
  8
3
100
AcDbLine
 10
-1.496914220850394
 20
-7.182042271748029
 30
0.0
 11
-1.234369238173229
 21
-7.182042271748029
 31
0.0
  0
LINE
  5
1F7D
330
1E
100
AcDbEntity
  8
3
100
AcDbLine
 10
-0.9665733558425202
 20
-7.182042271748029
 30
0.0
 11
-0.7040283731653556
 21
-7.182042271748029
 31
0.0
  0
LINE
  5
1F7E
330
1E
100
AcDbEntity
  8
3
100
AcDbLine
 10
-0.4414833904881906
 20
-7.182042271748029
 30
0.0
 11
-0.1736875081574811
 21
-7.182042271748029
 31
0.0
  0
LINE
  5
1F7F
330
1E
100
AcDbEntity
  8
3
100
AcDbLine
 10
0.0888574745196849
 20
-7.182042271748029
 30
0.0
 11
0.3566533568503942
 21
-7.182042271748029
 31
0.0
  0
LINE
  5
1F80
330
1E
100
AcDbEntity
  8
3
100
AcDbLine
 10
0.6191983395275567
 20
-7.182042271748029
 30
0.0
 11
0.8817433222047238
 21
-7.182042271748029
 31
0.0
  0
LINE
  5
1F81
330
1E
100
AcDbEntity
  8
3
100
AcDbLine
 10
1.149539204535433
 20
-7.182042271748029
 30
0.0
 11
1.412084187212595
 21
-7.182042271748029
 31
0.0
  0
LINE
  5
1F82
330
1E
100
AcDbEntity
  8
3
100
AcDbLine
 10
1.679880069543305
 20
-7.182042271748029
 30
0.0
 11
1.811152560881891
 21
-7.182042271748029
 31
0.0
  0
LINE
  5
1F83
330
1E
100
AcDbEntity
  8
3
100
AcDbLine
 10
1.811152560881891
 20
-7.182042271748029
 30
0.0
 11
1.842657958803148
 21
-7.182042271748029
 31
0.0
  0
LINE
  5
1F84
330
1E
100
AcDbEntity
  8
3
100
AcDbLine
 10
1.900417854992126
 20
-7.182042271748029
 30
0.0
 11
1.931923252913383
 21
-7.182042271748029
 31
0.0
  0
LINE
  5
1F85
330
1E
100
AcDbEntity
  8
3
100
AcDbLine
 10
2.178715536629919
 20
-7.182042271748029
 30
0.0
 11
2.1157047407874
 21
-7.182042271748029
 31
0.0
  0
LINE
  5
1F86
330
1E
100
AcDbEntity
  8
3
100
AcDbLine
 10
1.994934048755903
 20
-7.182042271748029
 30
0.0
 11
1.931923252913383
 21
-7.182042271748029
 31
0.0
  0
LINE
  5
1F87
330
1E
100
AcDbEntity
  8
3
100
AcDbLine
 10
3.480938650708657
 20
-8.542025282015744
 30
0.0
 11
3.480938650708657
 21
-8.526272583055115
 31
0.0
  0
LINE
  5
1F88
330
1E
100
AcDbEntity
  8
3
100
AcDbLine
 10
3.480938650708657
 20
-8.494767185133856
 30
0.0
 11
3.480938650708657
 21
-8.479014486173225
 31
0.0
  0
LINE
  5
1F89
330
1E
100
AcDbEntity
  8
3
100
AcDbLine
 10
2.178715536629919
 20
-7.182042271748029
 30
0.0
 11
2.309988027968501
 21
-7.192544071055117
 31
0.0
  0
LINE
  5
1F99
330
1E
100
AcDbEntity
  8
3
100
AcDbLine
 10
3.470436851401573
 20
-8.352992894488187
 30
0.0
 11
3.480938650708657
 21
-8.479014486173225
 31
0.0
  0
LINE
  5
1F9A
330
1E
100
AcDbEntity
  8
3
100
AcDbLine
 10
-13.62649242053543
 20
-8.542025282015744
 30
0.0
 11
-13.62649242053543
 21
-8.526272583055115
 31
0.0
  0
LINE
  5
1F9B
330
1E
100
AcDbEntity
  8
3
100
AcDbLine
 10
-13.62649242053543
 20
-8.494767185133856
 30
0.0
 11
-13.62649242053543
 21
-8.479014486173225
 31
0.0
  0
LINE
  5
1F9C
330
1E
100
AcDbEntity
  8
3
100
AcDbLine
 10
-12.32426930645669
 20
-7.182042271748029
 30
0.0
 11
-12.45029089814173
 21
-7.192544071055117
 31
0.0
  0
LINE
  5
1FAC
330
1E
100
AcDbEntity
  8
3
100
AcDbLine
 10
-13.6107397215748
 20
-8.352992894488187
 30
0.0
 11
-13.62649242053543
 21
-8.479014486173225
 31
0.0
  0
LINE
  5
1FAD
330
1E
100
AcDbEntity
  8
3
100
AcDbLine
 10
3.480938650708657
 20
-8.542025282015744
 30
0.0
 11
3.480938650708657
 21
-8.557777980976375
 31
0.0
  0
LINE
  5
1FAE
330
1E
100
AcDbEntity
  8
3
100
AcDbLine
 10
3.480938650708657
 20
-8.584032479244092
 30
0.0
 11
3.480938650708657
 21
-8.599785178204722
 31
0.0
  0
LINE
  5
1FAF
330
1E
100
AcDbEntity
  8
3
100
AcDbLine
 10
-13.62649242053543
 20
-8.599785178204722
 30
0.0
 11
-13.62649242053543
 21
-8.584032479244092
 31
0.0
  0
LINE
  5
1FB0
330
1E
100
AcDbEntity
  8
3
100
AcDbLine
 10
-13.62649242053543
 20
-8.557777980976375
 30
0.0
 11
-13.62649242053543
 21
-8.542025282015744
 31
0.0
  0
LINE
  5
1FB1
330
1E
100
AcDbEntity
  8
3
100
AcDbLine
 10
-13.62649242053543
 20
-8.599785178204722
 30
0.0
 11
-13.62124152088189
 21
-8.615537877165351
 31
0.0
  0
LINE
  5
1FB2
330
1E
100
AcDbEntity
  8
3
100
AcDbLine
 10
-13.6107397215748
 20
-8.636541475779525
 30
0.0
 11
-13.60548882192126
 21
-8.652294174740156
 31
0.0
  0
LINE
  5
1FB8
330
1E
100
AcDbEntity
  8
3
100
AcDbLine
 10
-13.573983424
 20
-8.673297773354327
 30
0.0
 11
-13.56873252434645
 21
-8.67854867300787
 31
0.0
  0
LINE
  5
1FB9
330
1E
100
AcDbEntity
  8
3
100
AcDbLine
 10
-13.55297982538583
 20
-8.67854867300787
 30
0.0
 11
-13.54247802607874
 21
-8.67854867300787
 31
0.0
  0
LINE
  5
1FBA
330
1E
100
AcDbEntity
  8
3
100
AcDbLine
 10
3.402175155905511
 20
-8.67854867300787
 30
0.0
 11
3.407426055559053
 21
-8.67854867300787
 31
0.0
  0
LINE
  5
1FBB
330
1E
100
AcDbEntity
  8
3
100
AcDbLine
 10
3.423178754519685
 20
-8.67854867300787
 30
0.0
 11
3.428429654173227
 21
-8.673297773354327
 31
0.0
  0
LINE
  5
1FC1
330
1E
100
AcDbEntity
  8
3
100
AcDbLine
 10
3.465185951748031
 20
-8.652294174740156
 30
0.0
 11
3.470436851401573
 21
-8.636541475779525
 31
0.0
  0
LINE
  5
1FC2
330
1E
100
AcDbEntity
  8
3
100
AcDbLine
 10
3.480938650708657
 20
-8.615537877165351
 30
0.0
 11
3.480938650708657
 21
-8.599785178204722
 31
0.0
  0
LINE
  5
1FC3
330
1E
100
AcDbEntity
  8
3
100
AcDbLine
 10
-11.573390656
 20
-7.418332756157477
 30
0.0
 11
-11.59964515426771
 21
-7.434085455118108
 31
0.0
  0
LINE
  5
1FCE
330
1E
100
AcDbEntity
  8
3
100
AcDbLine
 10
-11.54713615773228
 20
-7.434085455118108
 30
0.0
 11
-11.573390656
 21
-7.418332756157477
 31
0.0
  0
LINE
  5
2001
330
1E
100
AcDbEntity
  8
7
100
AcDbLine
 10
4.17930830462992
 20
-5.28121659716535
 30
0.0
 11
2.478016816881886
 21
-5.28121659716535
 31
0.0
  0
LINE
  5
2002
330
1E
100
AcDbEntity
  8
7
100
AcDbLine
 10
-12.62357058670866
 20
-5.28121659716535
 30
0.0
 11
-14.32486207445669
 21
-5.28121659716535
 31
0.0
  0
LINE
  5
2003
330
1E
100
AcDbEntity
  8
7
100
AcDbLine
 10
-14.32486207445669
 20
-8.405501891023618
 30
0.0
 11
-14.13582968692913
 21
-8.405501891023618
 31
0.0
  0
LINE
  5
2004
330
1E
100
AcDbEntity
  8
7
100
AcDbLine
 10
-14.13582968692913
 20
-8.652294174740156
 30
0.0
 11
-14.06231709177952
 21
-8.631290576125982
 31
0.0
  0
LINE
  5
200C
330
1E
100
AcDbEntity
  8
7
100
AcDbLine
 10
-14.32486207445669
 20
-8.657545074393697
 30
0.0
 11
-14.13582968692913
 21
-8.657545074393697
 31
0.0
  0
LINE
  5
2015
330
1E
100
AcDbEntity
  8
7
100
AcDbLine
 10
-14.32486207445669
 20
-5.40723818885039
 30
0.0
 11
-14.13582968692913
 21
-5.40723818885039
 31
0.0
  0
LINE
  5
201E
330
1E
100
AcDbEntity
  8
7
100
AcDbLine
 10
-14.32486207445669
 20
-5.654030472566926
 30
0.0
 11
-14.13582968692913
 21
-5.654030472566926
 31
0.0
  0
LINE
  5
2027
330
1E
100
AcDbEntity
  8
7
100
AcDbLine
 10
3.99027591710236
 20
-8.405501891023618
 30
0.0
 11
4.17930830462992
 21
-8.405501891023618
 31
0.0
  0
LINE
  5
202F
330
1E
100
AcDbEntity
  8
7
100
AcDbLine
 10
4.252820899779523
 20
-8.431756389291336
 30
0.0
 11
4.17930830462992
 21
-8.410752790677163
 31
0.0
  0
LINE
  5
2030
330
1E
100
AcDbEntity
  8
7
100
AcDbLine
 10
3.99027591710236
 20
-8.657545074393697
 30
0.0
 11
4.17930830462992
 21
-8.657545074393697
 31
0.0
  0
LINE
  5
2039
330
1E
100
AcDbEntity
  8
7
100
AcDbLine
 10
3.99027591710236
 20
-5.40723818885039
 30
0.0
 11
4.17930830462992
 21
-5.40723818885039
 31
0.0
  0
LINE
  5
2042
330
1E
100
AcDbEntity
  8
7
100
AcDbLine
 10
3.99027591710236
 20
-5.654030472566926
 30
0.0
 11
4.17930830462992
 21
-5.654030472566926
 31
0.0
  0
LINE
  5
2043
330
1E
100
AcDbEntity
  8
7
100
AcDbLine
 10
3.99027591710236
 20
-5.40723818885039
 30
0.0
 11
3.916763321952752
 21
-5.428241787464564
 31
0.0
  0
LINE
  5
204B
330
1E
100
AcDbEntity
  8
7
100
AcDbLine
 10
-14.57690525782677
 20
-8.531523482708658
 30
0.0
 11
-14.57690525782677
 21
-5.528008880881888
 31
0.0
  0
LINE
  5
2057
330
1E
100
AcDbEntity
  8
3
100
AcDbLine
 10
-13.573983424
 20
-8.652294174740156
 30
0.0
 11
-13.59498702261417
 21
-8.615537877165351
 31
0.0
  0
LINE
  5
2058
330
1E
100
AcDbEntity
  8
3
100
AcDbLine
 10
-13.66849961776377
 20
-8.605036077858263
 30
0.0
 11
-13.69475411603149
 21
-8.641792375433068
 31
0.0
  0
LINE
  5
2063
330
1E
100
AcDbEntity
  8
3
100
AcDbLine
 10
3.549200346204723
 20
-8.641792375433068
 30
0.0
 11
3.522945847937004
 21
-8.605036077858263
 31
0.0
  0
LINE
  5
2064
330
1E
100
AcDbEntity
  8
3
100
AcDbLine
 10
3.449433252787399
 20
-8.615537877165351
 30
0.0
 11
3.428429654173227
 21
-8.652294174740156
 31
0.0
  0
LINE
  5
2065
330
1E
100
AcDbEntity
  8
7
100
AcDbLine
 10
3.549200346204723
 20
-8.778315766425194
 30
0.0
 11
3.549200346204723
 21
-8.652294174740156
 31
0.0
  0
LINE
  5
2066
330
1E
100
AcDbEntity
  8
7
100
AcDbLine
 10
3.549200346204723
 20
-8.778315766425194
 30
0.0
 11
4.17930830462992
 21
-8.778315766425194
 31
0.0
  0
LINE
  5
206D
330
1E
100
AcDbEntity
  8
7
100
AcDbLine
 10
4.431351487999998
 20
-8.531523482708658
 30
0.0
 11
4.431351487999998
 21
-5.528008880881888
 31
0.0
  0
LINE
  5
207A
330
1E
100
AcDbEntity
  8
7
100
AcDbLine
 10
3.428429654173227
 20
-8.778315766425194
 30
0.0
 11
-13.573983424
 21
-8.778315766425194
 31
0.0
  0
LINE
  5
207B
330
1E
100
AcDbEntity
  8
3
100
AcDbLine
 10
-13.573983424
 20
-8.67854867300787
 30
0.0
 11
-13.44271093266141
 21
-8.67854867300787
 31
0.0
  0
LINE
  5
207C
330
1E
100
AcDbEntity
  8
3
100
AcDbLine
 10
-13.1749150503307
 20
-8.67854867300787
 30
0.0
 11
-12.91237006765354
 21
-8.67854867300787
 31
0.0
  0
LINE
  5
207D
330
1E
100
AcDbEntity
  8
3
100
AcDbLine
 10
-12.64457418532283
 20
-8.67854867300787
 30
0.0
 11
-12.37677830299212
 21
-8.67854867300787
 31
0.0
  0
LINE
  5
207E
330
1E
100
AcDbEntity
  8
3
100
AcDbLine
 10
-12.11423332031496
 20
-8.67854867300787
 30
0.0
 11
-11.84643743798425
 21
-8.67854867300787
 31
0.0
  0
LINE
  5
207F
330
1E
100
AcDbEntity
  8
3
100
AcDbLine
 10
-11.58389245530708
 20
-8.67854867300787
 30
0.0
 11
-11.31609657297637
 21
-8.67854867300787
 31
0.0
  0
LINE
  5
2080
330
1E
100
AcDbEntity
  8
3
100
AcDbLine
 10
-11.04830069064566
 20
-8.67854867300787
 30
0.0
 11
-10.7857557079685
 21
-8.67854867300787
 31
0.0
  0
LINE
  5
2081
330
1E
100
AcDbEntity
  8
3
100
AcDbLine
 10
-10.51795982563779
 20
-8.67854867300787
 30
0.0
 11
-10.25541484296063
 21
-8.67854867300787
 31
0.0
  0
LINE
  5
2082
330
1E
100
AcDbEntity
  8
3
100
AcDbLine
 10
-9.987618960629921
 20
-8.67854867300787
 30
0.0
 11
-9.719823078299214
 21
-8.67854867300787
 31
0.0
  0
LINE
  5
2083
330
1E
100
AcDbEntity
  8
3
100
AcDbLine
 10
-9.457278095622047
 20
-8.67854867300787
 30
0.0
 11
-9.189482213291338
 21
-8.67854867300787
 31
0.0
  0
LINE
  5
2084
330
1E
100
AcDbEntity
  8
3
100
AcDbLine
 10
-8.92168633096063
 20
-8.67854867300787
 30
0.0
 11
-8.659141348283466
 21
-8.67854867300787
 31
0.0
  0
LINE
  5
2085
330
1E
100
AcDbEntity
  8
3
100
AcDbLine
 10
-8.391345465952756
 20
-8.67854867300787
 30
0.0
 11
-8.12880048327559
 21
-8.67854867300787
 31
0.0
  0
LINE
  5
2086
330
1E
100
AcDbEntity
  8
3
100
AcDbLine
 10
-7.861004600944882
 20
-8.67854867300787
 30
0.0
 11
-7.593208718614173
 21
-8.67854867300787
 31
0.0
  0
LINE
  5
2087
330
1E
100
AcDbEntity
  8
3
100
AcDbLine
 10
-7.330663735937008
 20
-8.67854867300787
 30
0.0
 11
-7.062867853606299
 21
-8.67854867300787
 31
0.0
  0
LINE
  5
2088
330
1E
100
AcDbEntity
  8
3
100
AcDbLine
 10
-6.800322870929134
 20
-8.67854867300787
 30
0.0
 11
-6.532526988598425
 21
-8.67854867300787
 31
0.0
  0
LINE
  5
2089
330
1E
100
AcDbEntity
  8
3
100
AcDbLine
 10
-6.264731106267715
 20
-8.67854867300787
 30
0.0
 11
-6.002186123590551
 21
-8.67854867300787
 31
0.0
  0
LINE
  5
208A
330
1E
100
AcDbEntity
  8
3
100
AcDbLine
 10
-5.734390241259843
 20
-8.67854867300787
 30
0.0
 11
-5.471845258582677
 21
-8.67854867300787
 31
0.0
  0
LINE
  5
208B
330
1E
100
AcDbEntity
  8
3
100
AcDbLine
 10
-5.204049376251969
 20
-8.67854867300787
 30
0.0
 11
-4.93625349392126
 21
-8.67854867300787
 31
0.0
  0
LINE
  5
208C
330
1E
100
AcDbEntity
  8
3
100
AcDbLine
 10
-4.673708511244095
 20
-8.67854867300787
 30
0.0
 11
-4.405912628913386
 21
-8.67854867300787
 31
0.0
  0
LINE
  5
208D
330
1E
100
AcDbEntity
  8
3
100
AcDbLine
 10
-4.143367646236221
 20
-8.67854867300787
 30
0.0
 11
-3.875571763905512
 21
-8.67854867300787
 31
0.0
  0
LINE
  5
208E
330
1E
100
AcDbEntity
  8
3
100
AcDbLine
 10
-3.607775881574802
 20
-8.67854867300787
 30
0.0
 11
-3.345230898897638
 21
-8.67854867300787
 31
0.0
  0
LINE
  5
208F
330
1E
100
AcDbEntity
  8
3
100
AcDbLine
 10
-3.07743501656693
 20
-8.67854867300787
 30
0.0
 11
-2.814890033889763
 21
-8.67854867300787
 31
0.0
  0
LINE
  5
2090
330
1E
100
AcDbEntity
  8
3
100
AcDbLine
 10
-2.547094151559056
 20
-8.67854867300787
 30
0.0
 11
-2.279298269228346
 21
-8.67854867300787
 31
0.0
  0
LINE
  5
2091
330
1E
100
AcDbEntity
  8
3
100
AcDbLine
 10
-2.016753286551182
 20
-8.67854867300787
 30
0.0
 11
-1.748957404220472
 21
-8.67854867300787
 31
0.0
  0
LINE
  5
2092
330
1E
100
AcDbEntity
  8
3
100
AcDbLine
 10
-1.486412421543307
 20
-8.67854867300787
 30
0.0
 11
-1.218616539212598
 21
-8.67854867300787
 31
0.0
  0
LINE
  5
2093
330
1E
100
AcDbEntity
  8
3
100
AcDbLine
 10
-0.9508206568818891
 20
-8.67854867300787
 30
0.0
 11
-0.6882756742047245
 21
-8.67854867300787
 31
0.0
  0
LINE
  5
2094
330
1E
100
AcDbEntity
  8
3
100
AcDbLine
 10
-0.4204797918740173
 20
-8.67854867300787
 30
0.0
 11
-0.15793480919685
 21
-8.67854867300787
 31
0.0
  0
LINE
  5
2095
330
1E
100
AcDbEntity
  8
3
100
AcDbLine
 10
0.1098610731338581
 20
-8.67854867300787
 30
0.0
 11
0.3776569554645675
 21
-8.67854867300787
 31
0.0
  0
LINE
  5
2096
330
1E
100
AcDbEntity
  8
3
100
AcDbLine
 10
0.6402019381417299
 20
-8.67854867300787
 30
0.0
 11
0.9079978204724392
 21
-8.67854867300787
 31
0.0
  0
LINE
  5
2097
330
1E
100
AcDbEntity
  8
3
100
AcDbLine
 10
1.170542803149606
 20
-8.67854867300787
 30
0.0
 11
1.438338685480315
 21
-8.67854867300787
 31
0.0
  0
LINE
  5
2098
330
1E
100
AcDbEntity
  8
3
100
AcDbLine
 10
1.706134567811025
 20
-8.67854867300787
 30
0.0
 11
1.968679550488187
 21
-8.67854867300787
 31
0.0
  0
LINE
  5
2099
330
1E
100
AcDbEntity
  8
3
100
AcDbLine
 10
2.236475432818897
 20
-8.67854867300787
 30
0.0
 11
2.499020415496059
 21
-8.67854867300787
 31
0.0
  0
LINE
  5
209A
330
1E
100
AcDbEntity
  8
3
100
AcDbLine
 10
2.766816297826768
 20
-8.67854867300787
 30
0.0
 11
3.034612180157478
 21
-8.67854867300787
 31
0.0
  0
LINE
  5
209B
330
1E
100
AcDbEntity
  8
3
100
AcDbLine
 10
3.297157162834645
 20
-8.67854867300787
 30
0.0
 11
3.428429654173227
 21
-8.67854867300787
 31
0.0
  0
LINE
  5
20A6
330
1E
100
AcDbEntity
  8
3
100
AcDbLine
 10
-11.573390656
 20
-7.54960524749606
 30
0.0
 11
-11.60489605392125
 21
-7.533852548535429
 31
0.0
  0
LINE
  5
20B1
330
1E
100
AcDbEntity
  8
3
100
AcDbLine
 10
-11.54188525807873
 20
-7.533852548535429
 30
0.0
 11
-11.573390656
 21
-7.54960524749606
 31
0.0
  0
LINE
  5
20B2
330
1E
100
AcDbEntity
  8
3
100
AcDbLine
 10
1.427836886173226
 20
-7.54960524749606
 30
0.0
 11
1.401582387905511
 21
-7.533852548535429
 31
0.0
  0
LINE
  5
20BD
330
1E
100
AcDbEntity
  8
3
100
AcDbLine
 10
1.459342284094489
 20
-7.533852548535429
 30
0.0
 11
1.427836886173226
 21
-7.54960524749606
 31
0.0
  0
LINE
  5
20BE
330
1E
100
AcDbEntity
  8
7
100
AcDbLine
 10
2.483267716535433
 20
-5.28121659716535
 30
0.0
 11
-12.62357058670866
 21
-5.28121659716535
 31
0.0
  0
LINE
  5
20CA
330
1E
100
AcDbEntity
  8
7
100
AcDbLine
 10
-13.87328470425196
 20
-6.530930714708658
 30
0.0
 11
-13.87328470425196
 21
-8.400250991370077
 31
0.0
  0
LINE
  5
20D1
330
1E
100
AcDbEntity
  8
7
100
AcDbLine
 10
-13.62649242053543
 20
-8.652294174740156
 30
0.0
 11
-13.573983424
 21
-8.652294174740156
 31
0.0
  0
LINE
  5
20D2
330
1E
100
AcDbEntity
  8
7
100
AcDbLine
 10
3.480938650708657
 20
-8.652294174740156
 30
0.0
 11
3.428429654173227
 21
-8.652294174740156
 31
0.0
  0
LINE
  5
20D9
330
1E
100
AcDbEntity
  8
7
100
AcDbLine
 10
3.73298183407874
 20
-6.530930714708658
 30
0.0
 11
3.73298183407874
 21
-8.400250991370077
 31
0.0
  0
LINE
  5
20E8
330
1E
100
AcDbEntity
  8
7
100
AcDbLine
 10
1.307066194141729
 20
10.3664643703937
 30
0.0
 11
1.307066194141729
 21
10.35596257108661
 31
0.0
  0
LINE
  5
20E9
330
1E
100
AcDbEntity
  8
7
100
AcDbLine
 10
1.553858477858265
 20
10.35596257108661
 30
0.0
 11
1.553858477858265
 21
10.3664643703937
 31
0.0
  0
LINE
  5
20EA
330
1E
100
AcDbEntity
  8
7
100
AcDbLine
 10
1.370076989984249
 20
10.25619547766928
 30
0.0
 11
1.370076989984249
 21
10.23519187905512
 31
0.0
  0
LINE
  5
20EB
330
1E
100
AcDbEntity
  8
7
100
AcDbLine
 10
1.490847682015746
 20
10.23519187905512
 30
0.0
 11
1.490847682015746
 21
10.25619547766928
 31
0.0
  0
LINE
  5
20EC
330
1E
100
AcDbEntity
  8
7
100
AcDbLine
 10
-11.69941224768504
 20
10.3664643703937
 30
0.0
 11
-11.69941224768504
 21
10.35596257108661
 31
0.0
  0
LINE
  5
20ED
330
1E
100
AcDbEntity
  8
7
100
AcDbLine
 10
-11.44736906431496
 20
10.35596257108661
 30
0.0
 11
-11.44736906431496
 21
10.3664643703937
 31
0.0
  0
LINE
  5
20EE
330
1E
100
AcDbEntity
  8
7
100
AcDbLine
 10
-11.63640145184252
 20
10.25619547766928
 30
0.0
 11
-11.63640145184252
 21
10.23519187905512
 31
0.0
  0
LINE
  5
20EF
330
1E
100
AcDbEntity
  8
7
100
AcDbLine
 10
-11.51037986015748
 20
10.23519187905512
 30
0.0
 11
-11.51037986015748
 21
10.25619547766928
 31
0.0
  0
LINE
  5
20F0
330
1E
100
AcDbEntity
  8
7
100
AcDbLine
 10
1.553858477858265
 20
5.845439768692918
 30
0.0
 11
1.553858477858265
 21
5.855941568000003
 31
0.0
  0
LINE
  5
20F1
330
1E
100
AcDbEntity
  8
7
100
AcDbLine
 10
1.307066194141729
 20
5.855941568000003
 30
0.0
 11
1.307066194141729
 21
5.845439768692918
 31
0.0
  0
LINE
  5
20F2
330
1E
100
AcDbEntity
  8
7
100
AcDbLine
 10
-11.44736906431496
 20
5.845439768692918
 30
0.0
 11
-11.44736906431496
 21
5.855941568000003
 31
0.0
  0
LINE
  5
20F3
330
1E
100
AcDbEntity
  8
7
100
AcDbLine
 10
-11.69941224768504
 20
5.855941568000003
 30
0.0
 11
-11.69941224768504
 21
5.845439768692918
 31
0.0
  0
LINE
  5
211C
330
1E
100
AcDbEntity
  8
7
100
AcDbLine
 10
-12.32426930645669
 20
10.23519187905512
 30
0.0
 11
-12.07222612308661
 21
10.23519187905512
 31
0.0
  0
LINE
  5
2129
330
1E
100
AcDbEntity
  8
7
100
AcDbLine
 10
-12.07222612308661
 20
10.23519187905512
 30
0.0
 11
-12.07222612308661
 21
10.15642838425197
 31
0.0
  0
LINE
  5
212A
330
1E
100
AcDbEntity
  8
7
100
AcDbLine
 10
-12.07222612308661
 20
6.034472156220473
 30
0.0
 11
-12.07222612308661
 21
5.955708661417322
 31
0.0
  0
LINE
  5
2131
330
1E
100
AcDbEntity
  8
7
100
AcDbLine
 10
1.926672353259841
 20
6.034472156220473
 30
0.0
 11
1.900417854992126
 21
6.086981152755903
 31
0.0
  0
LINE
  5
2137
330
1E
100
AcDbEntity
  8
7
100
AcDbLine
 10
1.931923252913383
 20
6.034472156220473
 30
0.0
 11
1.931923252913383
 21
5.955708661417322
 31
0.0
  0
LINE
  5
2138
330
1E
100
AcDbEntity
  8
7
100
AcDbLine
 10
1.931923252913383
 20
10.23519187905512
 30
0.0
 11
2.178715536629919
 21
10.23519187905512
 31
0.0
  0
LINE
  5
2139
330
1E
100
AcDbEntity
  8
7
100
AcDbLine
 10
1.931923252913383
 20
10.23519187905512
 30
0.0
 11
1.931923252913383
 21
10.15642838425197
 31
0.0
  0
LINE
  5
2148
330
1E
100
AcDbEntity
  8
7
100
AcDbLine
 10
3.480938650708657
 20
5.955708661417322
 30
0.0
 11
3.480938650708657
 21
10.23519187905512
 31
0.0
  0
LINE
  5
2154
330
1E
100
AcDbEntity
  8
7
100
AcDbLine
 10
-13.62649242053543
 20
10.23519187905512
 30
0.0
 11
-13.62649242053543
 21
5.955708661417322
 31
0.0
  0
LINE
  5
2169
330
1E
100
AcDbEntity
  8
7
100
AcDbLine
 10
1.811152560881891
 20
10.23519187905512
 30
0.0
 11
-11.95145543105512
 21
10.23519187905512
 31
0.0
  0
LINE
  5
2179
330
1E
100
AcDbEntity
  8
7
100
AcDbLine
 10
1.52760397959055
 20
5.813934370771656
 30
0.0
 11
1.496098581669288
 21
5.813934370771656
 31
0.0
  0
LINE
  5
217A
330
1E
100
AcDbEntity
  8
7
100
AcDbLine
 10
1.496098581669288
 20
5.813934370771656
 30
0.0
 11
1.427836886173226
 21
5.813934370771656
 31
0.0
  0
LINE
  5
2189
330
1E
100
AcDbEntity
  8
7
100
AcDbLine
 10
-14.32486207445669
 20
10.35596257108661
 30
0.0
 11
4.17930830462992
 21
10.35596257108661
 31
0.0
  0
LINE
  5
218A
330
1E
100
AcDbEntity
  8
7
100
AcDbLine
 10
4.17930830462992
 20
10.25619547766928
 30
0.0
 11
-14.32486207445669
 21
10.25619547766928
 31
0.0
  0
LINE
  5
21C5
330
1E
100
AcDbEntity
  8
7
100
AcDbLine
 10
2.724809100598422
 20
5.855941568000003
 30
0.0
 11
2.483267716535433
 21
5.855941568000003
 31
0.0
  0
LINE
  5
21DE
330
1E
100
AcDbEntity
  8
7
100
AcDbLine
 10
-13.87328470425196
 20
5.855941568000003
 30
0.0
 11
-13.87328470425196
 21
5.955708661417322
 31
0.0
  0
LINE
  5
21DF
330
1E
100
AcDbEntity
  8
7
100
AcDbLine
 10
18.25171937612598
 20
-7.355321960314958
 30
0.0
 11
18.24121757681889
 21
-7.355321960314958
 31
0.0
  0
LINE
  5
21E0
330
1E
100
AcDbEntity
  8
7
100
AcDbLine
 10
18.24121757681889
 20
-7.607365143685035
 30
0.0
 11
18.25171937612598
 21
-7.607365143685035
 31
0.0
  0
LINE
  5
21E1
330
1E
100
AcDbEntity
  8
7
100
AcDbLine
 10
18.14145048340157
 20
-7.418332756157477
 30
0.0
 11
18.12569778444094
 21
-7.418332756157477
 31
0.0
  0
LINE
  5
21E2
330
1E
100
AcDbEntity
  8
7
100
AcDbLine
 10
18.12569778444094
 20
-7.544354347842515
 30
0.0
 11
18.14145048340157
 21
-7.544354347842515
 31
0.0
  0
LINE
  5
21E3
330
1E
100
AcDbEntity
  8
7
100
AcDbLine
 10
13.73069477442519
 20
-7.607365143685035
 30
0.0
 11
13.74119657373228
 21
-7.607365143685035
 31
0.0
  0
LINE
  5
21E4
330
1E
100
AcDbEntity
  8
7
100
AcDbLine
 10
13.74119657373228
 20
-7.355321960314958
 30
0.0
 11
13.73069477442519
 21
-7.355321960314958
 31
0.0
  0
LINE
  5
21F9
330
1E
100
AcDbEntity
  8
7
100
AcDbLine
 10
18.12569778444094
 20
-7.182042271748029
 30
0.0
 11
13.8409636671496
 21
-7.182042271748029
 31
0.0
  0
LINE
  5
21FA
330
1E
100
AcDbEntity
  8
7
100
AcDbLine
 10
18.12569778444094
 20
-8.542025282015744
 30
0.0
 11
18.12569778444094
 21
-8.479014486173225
 31
0.0
  0
LINE
  5
2228
330
1E
100
AcDbEntity
  8
7
100
AcDbLine
 10
18.14145048340157
 20
-5.28121659716535
 30
0.0
 11
18.24121757681889
 21
-5.28121659716535
 31
0.0
  0
LINE
  5
2239
330
1E
100
AcDbEntity
  8
7
100
AcDbLine
 10
18.24121757681889
 20
-8.531523482708658
 30
0.0
 11
18.24121757681889
 21
-5.528008880881888
 31
0.0
  0
LINE
  5
224A
330
1E
100
AcDbEntity
  8
7
100
AcDbLine
 10
18.11519598513386
 20
-8.778315766425194
 30
0.0
 11
13.87246906507086
 21
-8.778315766425194
 31
0.0
  0
LINE
  5
224B
330
1E
100
AcDbEntity
  8
7
100
AcDbLine
 10
18.11519598513386
 20
-8.67854867300787
 30
0.0
 11
13.87246906507086
 21
-8.67854867300787
 31
0.0
  0
LINE
  5
225C
330
1E
100
AcDbEntity
  8
7
100
AcDbLine
 10
13.74119657373228
 20
-6.530930714708658
 30
0.0
 11
13.74119657373228
 21
-8.400250991370077
 31
0.0
  0
LINE
  5
2276
330
1E
100
AcDbEntity
  8
7
100
AcDbLine
 10
13.8409636671496
 20
-8.400250991370077
 30
0.0
 11
13.8409636671496
 21
-6.530930714708658
 31
0.0
  0
LINE
  5
227D
330
1E
100
AcDbEntity
  8
7
100
AcDbLine
 10
13.74119657373228
 20
-5.28121659716535
 30
0.0
 11
13.8409636671496
 21
-5.28121659716535
 31
0.0
  0
LINE
  5
227E
330
1E
100
AcDbEntity
  8
7
100
AcDbLine
 10
13.8409636671496
 20
-8.652294174740156
 30
0.0
 11
13.74119657373228
 21
-8.652294174740156
 31
0.0
  0
LINE
  5
227F
330
1E
100
AcDbEntity
  8
7
100
AcDbLine
 10
18.24121757681889
 20
-8.778315766425194
 30
0.0
 11
18.14145048340157
 21
-8.778315766425194
 31
0.0
  0
LINE
  5
2442
330
1E
100
AcDbEntity
  8
7
100
AcDbLine
 10
13.8409636671496
 20
-8.400250991370079
 30
0.0
 11
13.8409636671496
 21
-8.526272583055117
 31
0.0
  0
LINE
  5
2443
330
1E
100
AcDbEntity
  8
7
100
AcDbLine
 10
13.8409636671496
 20
-8.526272583055117
 30
0.0
 11
13.8409636671496
 21
-8.615537877165351
 31
0.0
  0
LINE
  5
2444
330
1E
100
AcDbEntity
  8
7
100
AcDbLine
 10
13.8409636671496
 20
-8.615537877165351
 30
0.0
 11
13.8409636671496
 21
-8.652294174740156
 31
0.0
  0
LINE
  5
2445
330
1E
100
AcDbEntity
  8
7
100
AcDbLine
 10
13.8409636671496
 20
-5.28121659716535
 30
0.0
 11
13.8409636671496
 21
-5.302220195779526
 31
0.0
  0
LINE
  5
2446
330
1E
100
AcDbEntity
  8
7
100
AcDbLine
 10
13.8409636671496
 20
-5.302220195779526
 30
0.0
 11
13.8409636671496
 21
-5.375732790929134
 31
0.0
  0
LINE
  5
2447
330
1E
100
AcDbEntity
  8
7
100
AcDbLine
 10
13.8409636671496
 20
-5.375732790929134
 30
0.0
 11
13.8409636671496
 21
-5.491252583307083
 31
0.0
  0
LINE
  5
2448
330
1E
100
AcDbEntity
  8
7
100
AcDbLine
 10
13.8409636671496
 20
-5.491252583307083
 30
0.0
 11
13.8409636671496
 21
-5.643528673259837
 31
0.0
  0
LINE
  5
2449
330
1E
100
AcDbEntity
  8
7
100
AcDbLine
 10
13.8409636671496
 20
-5.643528673259837
 30
0.0
 11
13.8409636671496
 21
-5.837811960440944
 31
0.0
  0
LINE
  5
244A
330
1E
100
AcDbEntity
  8
7
100
AcDbLine
 10
13.8409636671496
 20
-5.837811960440944
 30
0.0
 11
13.8409636671496
 21
-6.053098846236217
 31
0.0
  0
LINE
  5
244B
330
1E
100
AcDbEntity
  8
7
100
AcDbLine
 10
13.8409636671496
 20
-6.053098846236217
 30
0.0
 11
13.8409636671496
 21
-6.284138430992122
 31
0.0
  0
LINE
  5
244C
330
1E
100
AcDbEntity
  8
7
100
AcDbLine
 10
13.8409636671496
 20
-6.284138430992122
 30
0.0
 11
13.8409636671496
 21
-6.530930714708659
 31
0.0
  0
LINE
  5
244D
330
1E
100
AcDbEntity
  8
7
100
AcDbLine
 10
13.74119657373228
 20
-5.491252583307083
 30
0.0
 11
13.74119657373228
 21
-5.375732790929134
 31
0.0
  0
LINE
  5
244E
330
1E
100
AcDbEntity
  8
7
100
AcDbLine
 10
13.74119657373228
 20
-5.375732790929134
 30
0.0
 11
13.74119657373228
 21
-5.302220195779526
 31
0.0
  0
LINE
  5
244F
330
1E
100
AcDbEntity
  8
7
100
AcDbLine
 10
13.74119657373228
 20
-5.302220195779526
 30
0.0
 11
13.74119657373228
 21
-5.28121659716535
 31
0.0
  0
LINE
  5
2450
330
1E
100
AcDbEntity
  8
7
100
AcDbLine
 10
13.74119657373228
 20
-6.530930714708659
 30
0.0
 11
13.74119657373228
 21
-6.284138430992122
 31
0.0
  0
LINE
  5
2451
330
1E
100
AcDbEntity
  8
7
100
AcDbLine
 10
13.74119657373228
 20
-6.284138430992122
 30
0.0
 11
13.74119657373228
 21
-6.053098846236217
 31
0.0
  0
LINE
  5
2452
330
1E
100
AcDbEntity
  8
7
100
AcDbLine
 10
13.74119657373228
 20
-6.053098846236217
 30
0.0
 11
13.74119657373228
 21
-5.837811960440944
 31
0.0
  0
LINE
  5
2453
330
1E
100
AcDbEntity
  8
7
100
AcDbLine
 10
13.74119657373228
 20
-5.837811960440944
 30
0.0
 11
13.74119657373228
 21
-5.643528673259837
 31
0.0
  0
LINE
  5
2454
330
1E
100
AcDbEntity
  8
7
100
AcDbLine
 10
13.74119657373228
 20
-5.643528673259837
 30
0.0
 11
13.74119657373228
 21
-5.491252583307083
 31
0.0
  0
LINE
  5
2455
330
1E
100
AcDbEntity
  8
7
100
AcDbLine
 10
13.74119657373228
 20
-8.652294174740156
 30
0.0
 11
13.74119657373228
 21
-8.615537877165351
 31
0.0
  0
LINE
  5
2456
330
1E
100
AcDbEntity
  8
7
100
AcDbLine
 10
13.74119657373228
 20
-8.615537877165351
 30
0.0
 11
13.74119657373228
 21
-8.526272583055117
 31
0.0
  0
LINE
  5
2457
330
1E
100
AcDbEntity
  8
7
100
AcDbLine
 10
13.74119657373228
 20
-8.526272583055117
 30
0.0
 11
13.74119657373228
 21
-8.400250991370079
 31
0.0
  0
LINE
  5
2458
330
1E
100
AcDbEntity
  8
7
100
AcDbLine
 10
13.84621456680314
 20
-8.652294174740156
 30
0.0
 11
13.85146546645668
 21
-8.673297773354327
 31
0.0
  0
LINE
  5
2459
330
1E
100
AcDbEntity
  8
7
100
AcDbLine
 10
13.85146546645668
 20
-8.673297773354327
 30
0.0
 11
13.87246906507086
 21
-8.67854867300787
 31
0.0
  0
LINE
  5
245A
330
1E
100
AcDbEntity
  8
7
100
AcDbLine
 10
13.74644747338582
 20
-8.652294174740156
 30
0.0
 11
13.78320377096062
 21
-8.74155946885039
 31
0.0
  0
LINE
  5
245B
330
1E
100
AcDbEntity
  8
7
100
AcDbLine
 10
13.78320377096062
 20
-8.74155946885039
 30
0.0
 11
13.87246906507086
 21
-8.778315766425194
 31
0.0
  0
LINE
  5
245C
330
1E
100
AcDbEntity
  8
7
100
AcDbLine
 10
18.11519598513386
 20
-8.67854867300787
 30
0.0
 11
18.13619958374803
 21
-8.673297773354327
 31
0.0
  0
LINE
  5
245D
330
1E
100
AcDbEntity
  8
7
100
AcDbLine
 10
18.13619958374803
 20
-8.673297773354327
 30
0.0
 11
18.14145048340157
 21
-8.652294174740156
 31
0.0
  0
LINE
  5
245E
330
1E
100
AcDbEntity
  8
7
100
AcDbLine
 10
18.11519598513386
 20
-8.778315766425194
 30
0.0
 11
18.13094868409448
 21
-8.778315766425194
 31
0.0
  0
LINE
  5
245F
330
1E
100
AcDbEntity
  8
7
100
AcDbLine
 10
18.13094868409448
 20
-8.778315766425194
 30
0.0
 11
18.14670138305511
 21
-8.773064866771651
 31
0.0
  0
LINE
  5
2460
330
1E
100
AcDbEntity
  8
7
100
AcDbLine
 10
18.24121757681889
 20
-8.53152348270866
 30
0.0
 11
18.24121757681889
 21
-8.657545074393699
 31
0.0
  0
LINE
  5
2461
330
1E
100
AcDbEntity
  8
7
100
AcDbLine
 10
18.24121757681889
 20
-8.657545074393699
 30
0.0
 11
18.24121757681889
 21
-8.746810368503936
 31
0.0
  0
LINE
  5
2462
330
1E
100
AcDbEntity
  8
7
100
AcDbLine
 10
18.24121757681889
 20
-8.746810368503936
 30
0.0
 11
18.24121757681889
 21
-8.778315766425194
 31
0.0
  0
LINE
  5
2463
330
1E
100
AcDbEntity
  8
7
100
AcDbLine
 10
18.24121757681889
 20
-5.28121659716535
 30
0.0
 11
18.24121757681889
 21
-5.312721995086615
 31
0.0
  0
LINE
  5
2464
330
1E
100
AcDbEntity
  8
7
100
AcDbLine
 10
18.24121757681889
 20
-5.312721995086615
 30
0.0
 11
18.24121757681889
 21
-5.407238188850392
 31
0.0
  0
LINE
  5
2465
330
1E
100
AcDbEntity
  8
7
100
AcDbLine
 10
18.24121757681889
 20
-5.407238188850392
 30
0.0
 11
18.24121757681889
 21
-5.528008880881888
 31
0.0
  0
LINE
  5
2466
330
1E
100
AcDbEntity
  8
7
100
AcDbLine
 10
18.14145048340157
 20
-8.778315766425194
 30
0.0
 11
18.14145048340157
 21
-8.746810368503936
 31
0.0
  0
LINE
  5
2467
330
1E
100
AcDbEntity
  8
7
100
AcDbLine
 10
18.14145048340157
 20
-8.746810368503936
 30
0.0
 11
18.14145048340157
 21
-8.657545074393699
 31
0.0
  0
LINE
  5
2468
330
1E
100
AcDbEntity
  8
7
100
AcDbLine
 10
18.14145048340157
 20
-8.657545074393699
 30
0.0
 11
18.14145048340157
 21
-8.53152348270866
 31
0.0
  0
LINE
  5
2469
330
1E
100
AcDbEntity
  8
7
100
AcDbLine
 10
18.14145048340157
 20
-8.53152348270866
 30
0.0
 11
18.14145048340157
 21
-5.528008880881888
 31
0.0
  0
LINE
  5
246A
330
1E
100
AcDbEntity
  8
7
100
AcDbLine
 10
18.14145048340157
 20
-5.528008880881888
 30
0.0
 11
18.14145048340157
 21
-5.407238188850392
 31
0.0
  0
LINE
  5
246B
330
1E
100
AcDbEntity
  8
7
100
AcDbLine
 10
18.14145048340157
 20
-5.407238188850392
 30
0.0
 11
18.14145048340157
 21
-5.312721995086615
 31
0.0
  0
LINE
  5
246C
330
1E
100
AcDbEntity
  8
7
100
AcDbLine
 10
18.14145048340157
 20
-5.312721995086615
 30
0.0
 11
18.14145048340157
 21
-5.28121659716535
 31
0.0
  0
LINE
  5
246D
330
1E
100
AcDbEntity
  8
7
100
AcDbLine
 10
18.28322477404724
 20
-7.386827358236217
 30
0.0
 11
18.28322477404724
 21
-7.413081856503936
 31
0.0
  0
LINE
  5
246E
330
1E
100
AcDbEntity
  8
7
100
AcDbLine
 10
18.28322477404724
 20
-7.413081856503936
 30
0.0
 11
18.28322477404724
 21
-7.481343551999998
 31
0.0
  0
LINE
  5
246F
330
1E
100
AcDbEntity
  8
7
100
AcDbLine
 10
18.28322477404724
 20
-7.481343551999998
 30
0.0
 11
18.28322477404724
 21
-7.54960524749606
 31
0.0
  0
LINE
  5
2470
330
1E
100
AcDbEntity
  8
7
100
AcDbLine
 10
18.28322477404724
 20
-7.54960524749606
 30
0.0
 11
18.28322477404724
 21
-7.575859745763775
 31
0.0
  0
LINE
  5
2471
330
1E
100
AcDbEntity
  8
7
100
AcDbLine
 10
13.70444027615747
 20
-7.575859745763775
 30
0.0
 11
13.70444027615747
 21
-7.54960524749606
 31
0.0
  0
LINE
  5
2472
330
1E
100
AcDbEntity
  8
7
100
AcDbLine
 10
13.70444027615747
 20
-7.54960524749606
 30
0.0
 11
13.70444027615747
 21
-7.481343551999998
 31
0.0
  0
LINE
  5
2473
330
1E
100
AcDbEntity
  8
7
100
AcDbLine
 10
13.70444027615747
 20
-7.481343551999998
 30
0.0
 11
13.70444027615747
 21
-7.413081856503936
 31
0.0
  0
LINE
  5
2474
330
1E
100
AcDbEntity
  8
7
100
AcDbLine
 10
13.70444027615747
 20
-7.413081856503936
 30
0.0
 11
13.70444027615747
 21
-7.386827358236217
 31
0.0
  0
LINE
  5
2475
330
1E
100
AcDbEntity
  8
7
100
AcDbLine
 10
13.90397446299212
 20
-8.67854867300787
 30
0.0
 11
13.90397446299212
 21
-8.657545074393699
 31
0.0
  0
LINE
  5
2476
330
1E
100
AcDbEntity
  8
7
100
AcDbLine
 10
13.90397446299212
 20
-8.657545074393699
 30
0.0
 11
13.90397446299212
 21
-8.599785178204722
 31
0.0
  0
LINE
  5
2477
330
1E
100
AcDbEntity
  8
7
100
AcDbLine
 10
18.06268698859842
 20
-8.599785178204722
 30
0.0
 11
18.06268698859842
 21
-8.657545074393699
 31
0.0
  0
LINE
  5
2478
330
1E
100
AcDbEntity
  8
7
100
AcDbLine
 10
18.06268698859842
 20
-8.657545074393699
 30
0.0
 11
18.06268698859842
 21
-8.67854867300787
 31
0.0
  0
LINE
  5
2479
330
1E
100
AcDbEntity
  8
7
100
AcDbLine
 10
13.84621456680314
 20
-8.542025282015746
 30
0.0
 11
13.86196726576377
 21
-8.58403247924409
 31
0.0
  0
LINE
  5
247A
330
1E
100
AcDbEntity
  8
7
100
AcDbLine
 10
13.86196726576377
 20
-8.58403247924409
 30
0.0
 11
13.90397446299212
 21
-8.599785178204722
 31
0.0
  0
LINE
  5
247B
330
1E
100
AcDbEntity
  8
7
100
AcDbLine
 10
18.06268698859842
 20
-8.599785178204722
 30
0.0
 11
18.10469418582676
 21
-8.58403247924409
 31
0.0
  0
LINE
  5
247C
330
1E
100
AcDbEntity
  8
7
100
AcDbLine
 10
18.10469418582676
 20
-8.58403247924409
 30
0.0
 11
18.1204468847874
 21
-8.542025282015746
 31
0.0
  0
LINE
  5
247D
330
1E
100
AcDbEntity
  8
7
100
AcDbLine
 10
18.12569778444094
 20
-7.182042271748031
 30
0.0
 11
18.12569778444094
 21
-7.203045870362203
 31
0.0
  0
LINE
  5
247E
330
1E
100
AcDbEntity
  8
7
100
AcDbLine
 10
18.12569778444094
 20
-7.203045870362203
 30
0.0
 11
18.12569778444094
 21
-7.281809365165351
 31
0.0
  0
LINE
  5
247F
330
1E
100
AcDbEntity
  8
7
100
AcDbLine
 10
18.12569778444094
 20
-7.281809365165351
 30
0.0
 11
18.12569778444094
 21
-7.397329157543303
 31
0.0
  0
LINE
  5
2480
330
1E
100
AcDbEntity
  8
7
100
AcDbLine
 10
18.12569778444094
 20
-7.397329157543303
 30
0.0
 11
18.12569778444094
 21
-7.560107046803146
 31
0.0
  0
LINE
  5
2481
330
1E
100
AcDbEntity
  8
7
100
AcDbLine
 10
18.12569778444094
 20
-7.560107046803146
 30
0.0
 11
18.12569778444094
 21
-7.759641233637793
 31
0.0
  0
LINE
  5
2482
330
1E
100
AcDbEntity
  8
7
100
AcDbLine
 10
18.12569778444094
 20
-7.759641233637793
 30
0.0
 11
18.12569778444094
 21
-7.985429918740155
 31
0.0
  0
LINE
  5
2483
330
1E
100
AcDbEntity
  8
7
100
AcDbLine
 10
18.12569778444094
 20
-7.985429918740155
 30
0.0
 11
18.12569778444094
 21
-8.226971302803146
 31
0.0
  0
LINE
  5
2484
330
1E
100
AcDbEntity
  8
7
100
AcDbLine
 10
18.12569778444094
 20
-8.226971302803146
 30
0.0
 11
18.12569778444094
 21
-8.479014486173227
 31
0.0
  0
LINE
  5
2485
330
1E
100
AcDbEntity
  8
7
100
AcDbLine
 10
13.73069477442519
 20
-7.360572859968502
 30
0.0
 11
13.70969117581102
 21
-7.365823759622045
 31
0.0
  0
LINE
  5
2486
330
1E
100
AcDbEntity
  8
7
100
AcDbLine
 10
13.70969117581102
 20
-7.365823759622045
 30
0.0
 11
13.70444027615747
 21
-7.386827358236217
 31
0.0
  0
LINE
  5
2487
330
1E
100
AcDbEntity
  8
7
100
AcDbLine
 10
13.70444027615747
 20
-7.575859745763775
 30
0.0
 11
13.70969117581102
 21
-7.59686334437795
 31
0.0
  0
LINE
  5
2488
330
1E
100
AcDbEntity
  8
7
100
AcDbLine
 10
13.70969117581102
 20
-7.59686334437795
 30
0.0
 11
13.73069477442519
 21
-7.602114244031493
 31
0.0
  0
LINE
  5
2489
330
1E
100
AcDbEntity
  8
7
100
AcDbLine
 10
18.25171937612598
 20
-7.602114244031493
 30
0.0
 11
18.27272297474015
 21
-7.59686334437795
 31
0.0
  0
LINE
  5
248A
330
1E
100
AcDbEntity
  8
7
100
AcDbLine
 10
18.27272297474015
 20
-7.59686334437795
 30
0.0
 11
18.27797387439369
 21
-7.575859745763775
 31
0.0
  0
LINE
  5
248B
330
1E
100
AcDbEntity
  8
7
100
AcDbLine
 10
18.27797387439369
 20
-7.386827358236217
 30
0.0
 11
18.27272297474015
 21
-7.365823759622045
 31
0.0
  0
LINE
  5
248C
330
1E
100
AcDbEntity
  8
7
100
AcDbLine
 10
18.27272297474015
 20
-7.365823759622045
 30
0.0
 11
18.25171937612598
 21
-7.360572859968502
 31
0.0
  0
LINE
  5
248D
330
1E
100
AcDbEntity
  8
7
100
AcDbLine
 10
3.638465640314958
 20
5.955708661417322
 30
0.0
 11
3.70672733581102
 21
5.955708661417322
 31
0.0
  0
LINE
  5
248E
330
1E
100
AcDbEntity
  8
7
100
AcDbLine
 10
3.70672733581102
 20
5.955708661417322
 30
0.0
 11
3.73298183407874
 21
5.955708661417322
 31
0.0
  0
LINE
  5
248F
330
1E
100
AcDbEntity
  8
7
100
AcDbLine
 10
3.73298183407874
 20
5.955708661417322
 30
0.0
 11
3.73298183407874
 21
5.855941568000002
 31
0.0
  0
LINE
  5
2490
330
1E
100
AcDbEntity
  8
7
100
AcDbLine
 10
-13.87328470425196
 20
5.955708661417322
 30
0.0
 11
-13.85228110563779
 21
5.955708661417322
 31
0.0
  0
LINE
  5
2491
330
1E
100
AcDbEntity
  8
7
100
AcDbLine
 10
-13.85228110563779
 20
5.955708661417322
 30
0.0
 11
-13.77876851048818
 21
5.955708661417322
 31
0.0
  0
LINE
  5
2492
330
1E
100
AcDbEntity
  8
7
100
AcDbLine
 10
-13.77876851048818
 20
5.955708661417322
 30
0.0
 11
-13.66324871811023
 21
5.955708661417322
 31
0.0
  0
LINE
  5
2493
330
1E
100
AcDbEntity
  8
7
100
AcDbLine
 10
-13.66324871811023
 20
5.955708661417322
 30
0.0
 11
-13.50572172850393
 21
5.955708661417322
 31
0.0
  0
LINE
  5
2494
330
1E
100
AcDbEntity
  8
7
100
AcDbLine
 10
-13.50572172850393
 20
5.955708661417322
 30
0.0
 11
-13.31668934097637
 21
5.955708661417322
 31
0.0
  0
LINE
  5
2495
330
1E
100
AcDbEntity
  8
7
100
AcDbLine
 10
-13.31668934097637
 20
5.955708661417322
 30
0.0
 11
-13.1014024551811
 21
5.955708661417322
 31
0.0
  0
LINE
  5
2496
330
1E
100
AcDbEntity
  8
7
100
AcDbLine
 10
-13.1014024551811
 20
5.955708661417322
 30
0.0
 11
-12.87036287042519
 21
5.955708661417322
 31
0.0
  0
LINE
  5
2497
330
1E
100
AcDbEntity
  8
7
100
AcDbLine
 10
-12.87036287042519
 20
5.955708661417322
 30
0.0
 11
-12.62357058670866
 21
5.955708661417322
 31
0.0
  0
LINE
  5
2498
330
1E
100
AcDbEntity
  8
7
100
AcDbLine
 10
-12.62357058670866
 20
5.955708661417322
 30
0.0
 11
2.483267716535433
 21
5.955708661417322
 31
0.0
  0
LINE
  5
2499
330
1E
100
AcDbEntity
  8
7
100
AcDbLine
 10
2.483267716535433
 20
5.955708661417322
 30
0.0
 11
2.724809100598422
 21
5.955708661417322
 31
0.0
  0
LINE
  5
249A
330
1E
100
AcDbEntity
  8
7
100
AcDbLine
 10
2.724809100598422
 20
5.955708661417322
 30
0.0
 11
2.96109958500787
 21
5.955708661417322
 31
0.0
  0
LINE
  5
249B
330
1E
100
AcDbEntity
  8
7
100
AcDbLine
 10
2.96109958500787
 20
5.955708661417322
 30
0.0
 11
3.176386470803148
 21
5.955708661417322
 31
0.0
  0
LINE
  5
249C
330
1E
100
AcDbEntity
  8
7
100
AcDbLine
 10
3.176386470803148
 20
5.955708661417322
 30
0.0
 11
3.365418858330707
 21
5.955708661417322
 31
0.0
  0
LINE
  5
249D
330
1E
100
AcDbEntity
  8
7
100
AcDbLine
 10
3.365418858330707
 20
5.955708661417322
 30
0.0
 11
3.517694948283461
 21
5.955708661417322
 31
0.0
  0
LINE
  5
249E
330
1E
100
AcDbEntity
  8
7
100
AcDbLine
 10
3.517694948283461
 20
5.955708661417322
 30
0.0
 11
3.638465640314958
 21
5.955708661417322
 31
0.0
  0
LINE
  5
249F
330
1E
100
AcDbEntity
  8
7
100
AcDbLine
 10
3.73298183407874
 20
5.855941568000002
 30
0.0
 11
3.70672733581102
 21
5.855941568000002
 31
0.0
  0
LINE
  5
24A0
330
1E
100
AcDbEntity
  8
7
100
AcDbLine
 10
3.70672733581102
 20
5.855941568000002
 30
0.0
 11
3.638465640314958
 21
5.855941568000002
 31
0.0
  0
LINE
  5
24A1
330
1E
100
AcDbEntity
  8
7
100
AcDbLine
 10
3.638465640314958
 20
5.855941568000002
 30
0.0
 11
3.517694948283461
 21
5.855941568000002
 31
0.0
  0
LINE
  5
24A2
330
1E
100
AcDbEntity
  8
7
100
AcDbLine
 10
3.517694948283461
 20
5.855941568000002
 30
0.0
 11
3.365418858330707
 21
5.855941568000002
 31
0.0
  0
LINE
  5
24A3
330
1E
100
AcDbEntity
  8
7
100
AcDbLine
 10
3.365418858330707
 20
5.855941568000002
 30
0.0
 11
3.176386470803148
 21
5.855941568000002
 31
0.0
  0
LINE
  5
24A4
330
1E
100
AcDbEntity
  8
7
100
AcDbLine
 10
3.176386470803148
 20
5.855941568000002
 30
0.0
 11
2.96109958500787
 21
5.855941568000002
 31
0.0
  0
LINE
  5
24A5
330
1E
100
AcDbEntity
  8
7
100
AcDbLine
 10
2.96109958500787
 20
5.855941568000002
 30
0.0
 11
2.724809100598422
 21
5.855941568000002
 31
0.0
  0
LINE
  5
24A6
330
1E
100
AcDbEntity
  8
7
100
AcDbLine
 10
-12.87036287042519
 20
5.855941568000002
 30
0.0
 11
-13.1014024551811
 21
5.855941568000002
 31
0.0
  0
LINE
  5
24A7
330
1E
100
AcDbEntity
  8
7
100
AcDbLine
 10
-13.1014024551811
 20
5.855941568000002
 30
0.0
 11
-13.31668934097637
 21
5.855941568000002
 31
0.0
  0
LINE
  5
24A8
330
1E
100
AcDbEntity
  8
7
100
AcDbLine
 10
-13.31668934097637
 20
5.855941568000002
 30
0.0
 11
-13.50572172850393
 21
5.855941568000002
 31
0.0
  0
LINE
  5
24A9
330
1E
100
AcDbEntity
  8
7
100
AcDbLine
 10
-13.50572172850393
 20
5.855941568000002
 30
0.0
 11
-13.66324871811023
 21
5.855941568000002
 31
0.0
  0
LINE
  5
24AA
330
1E
100
AcDbEntity
  8
7
100
AcDbLine
 10
-13.66324871811023
 20
5.855941568000002
 30
0.0
 11
-13.77876851048818
 21
5.855941568000002
 31
0.0
  0
LINE
  5
24AB
330
1E
100
AcDbEntity
  8
7
100
AcDbLine
 10
-13.77876851048818
 20
5.855941568000002
 30
0.0
 11
-13.85228110563779
 21
5.855941568000002
 31
0.0
  0
LINE
  5
24AC
330
1E
100
AcDbEntity
  8
7
100
AcDbLine
 10
-13.85228110563779
 20
5.855941568000002
 30
0.0
 11
-13.87328470425196
 21
5.855941568000002
 31
0.0
  0
LINE
  5
24AD
330
1E
100
AcDbEntity
  8
7
100
AcDbLine
 10
2.483267716535433
 20
5.855941568000002
 30
0.0
 11
-12.62357058670866
 21
5.855941568000002
 31
0.0
  0
LINE
  5
24AE
330
1E
100
AcDbEntity
  8
7
100
AcDbLine
 10
-12.62357058670866
 20
5.855941568000002
 30
0.0
 11
-12.87036287042519
 21
5.855941568000002
 31
0.0
  0
LINE
  5
24AF
330
1E
100
AcDbEntity
  8
7
100
AcDbLine
 10
3.428429654173227
 20
10.23519187905512
 30
0.0
 11
3.428429654173227
 21
10.25094457801574
 31
0.0
  0
LINE
  5
24B0
330
1E
100
AcDbEntity
  8
7
100
AcDbLine
 10
3.428429654173227
 20
10.25094457801574
 30
0.0
 11
3.428429654173227
 21
10.25619547766928
 31
0.0
  0
LINE
  5
24B1
330
1E
100
AcDbEntity
  8
7
100
AcDbLine
 10
-13.573983424
 20
10.25619547766928
 30
0.0
 11
-13.573983424
 21
10.25094457801574
 31
0.0
  0
LINE
  5
24B2
330
1E
100
AcDbEntity
  8
7
100
AcDbLine
 10
-13.573983424
 20
10.25094457801574
 30
0.0
 11
-13.573983424
 21
10.23519187905512
 31
0.0
  0
LINE
  5
24B3
330
1E
100
AcDbEntity
  8
7
100
AcDbLine
 10
4.17930830462992
 20
10.35596257108661
 30
0.0
 11
4.305329896314958
 21
10.35596257108661
 31
0.0
  0
LINE
  5
24B4
330
1E
100
AcDbEntity
  8
7
100
AcDbLine
 10
4.305329896314958
 20
10.35596257108661
 30
0.0
 11
4.399846090078741
 21
10.35596257108661
 31
0.0
  0
LINE
  5
24B5
330
1E
100
AcDbEntity
  8
7
100
AcDbLine
 10
4.399846090078741
 20
10.35596257108661
 30
0.0
 11
4.431351487999998
 21
10.35596257108661
 31
0.0
  0
LINE
  5
24B6
330
1E
100
AcDbEntity
  8
7
100
AcDbLine
 10
4.431351487999998
 20
10.35596257108661
 30
0.0
 11
4.431351487999998
 21
10.25619547766928
 31
0.0
  0
LINE
  5
24B7
330
1E
100
AcDbEntity
  8
7
100
AcDbLine
 10
-14.32486207445669
 20
10.25619547766928
 30
0.0
 11
-14.45088366614173
 21
10.25619547766928
 31
0.0
  0
LINE
  5
24B8
330
1E
100
AcDbEntity
  8
7
100
AcDbLine
 10
-14.45088366614173
 20
10.25619547766928
 30
0.0
 11
-14.54014896025197
 21
10.25619547766928
 31
0.0
  0
LINE
  5
24B9
330
1E
100
AcDbEntity
  8
7
100
AcDbLine
 10
-14.54014896025197
 20
10.25619547766928
 30
0.0
 11
-14.57690525782677
 21
10.25619547766928
 31
0.0
  0
LINE
  5
24BA
330
1E
100
AcDbEntity
  8
7
100
AcDbLine
 10
-14.57690525782677
 20
10.25619547766928
 30
0.0
 11
-14.57690525782677
 21
10.35596257108661
 31
0.0
  0
LINE
  5
24BB
330
1E
100
AcDbEntity
  8
7
100
AcDbLine
 10
-14.57690525782677
 20
10.35596257108661
 30
0.0
 11
-14.54014896025197
 21
10.35596257108661
 31
0.0
  0
LINE
  5
24BC
330
1E
100
AcDbEntity
  8
7
100
AcDbLine
 10
-14.54014896025197
 20
10.35596257108661
 30
0.0
 11
-14.45088366614173
 21
10.35596257108661
 31
0.0
  0
LINE
  5
24BD
330
1E
100
AcDbEntity
  8
7
100
AcDbLine
 10
-14.45088366614173
 20
10.35596257108661
 30
0.0
 11
-14.32486207445669
 21
10.35596257108661
 31
0.0
  0
LINE
  5
24BE
330
1E
100
AcDbEntity
  8
7
100
AcDbLine
 10
4.431351487999998
 20
10.25619547766928
 30
0.0
 11
4.399846090078741
 21
10.25619547766928
 31
0.0
  0
LINE
  5
24BF
330
1E
100
AcDbEntity
  8
7
100
AcDbLine
 10
4.399846090078741
 20
10.25619547766928
 30
0.0
 11
4.305329896314958
 21
10.25619547766928
 31
0.0
  0
LINE
  5
24C0
330
1E
100
AcDbEntity
  8
7
100
AcDbLine
 10
4.305329896314958
 20
10.25619547766928
 30
0.0
 11
4.17930830462992
 21
10.25619547766928
 31
0.0
  0
LINE
  5
24C1
330
1E
100
AcDbEntity
  8
7
100
AcDbLine
 10
1.333320692409449
 20
10.39271886866141
 30
0.0
 11
1.364826090330707
 21
10.39271886866141
 31
0.0
  0
LINE
  5
24C2
330
1E
100
AcDbEntity
  8
7
100
AcDbLine
 10
1.364826090330707
 20
10.39271886866141
 30
0.0
 11
1.427836886173226
 21
10.39271886866141
 31
0.0
  0
LINE
  5
24C3
330
1E
100
AcDbEntity
  8
7
100
AcDbLine
 10
1.427836886173226
 20
10.39271886866141
 30
0.0
 11
1.496098581669288
 21
10.39271886866141
 31
0.0
  0
LINE
  5
24C4
330
1E
100
AcDbEntity
  8
7
100
AcDbLine
 10
1.496098581669288
 20
10.39271886866141
 30
0.0
 11
1.52760397959055
 21
10.39271886866141
 31
0.0
  0
LINE
  5
24C5
330
1E
100
AcDbEntity
  8
7
100
AcDbLine
 10
-11.66790684976378
 20
10.39271886866141
 30
0.0
 11
-11.64165235149606
 21
10.39271886866141
 31
0.0
  0
LINE
  5
24C6
330
1E
100
AcDbEntity
  8
7
100
AcDbLine
 10
-11.64165235149606
 20
10.39271886866141
 30
0.0
 11
-11.573390656
 21
10.39271886866141
 31
0.0
  0
LINE
  5
24C7
330
1E
100
AcDbEntity
  8
7
100
AcDbLine
 10
-11.573390656
 20
10.39271886866141
 30
0.0
 11
-11.50512896050393
 21
10.39271886866141
 31
0.0
  0
LINE
  5
24C8
330
1E
100
AcDbEntity
  8
7
100
AcDbLine
 10
-11.50512896050393
 20
10.39271886866141
 30
0.0
 11
-11.47887446223622
 21
10.39271886866141
 31
0.0
  0
LINE
  5
24C9
330
1E
100
AcDbEntity
  8
7
100
AcDbLine
 10
1.427836886173226
 20
5.813934370771654
 30
0.0
 11
1.364826090330707
 21
5.813934370771654
 31
0.0
  0
LINE
  5
24CA
330
1E
100
AcDbEntity
  8
7
100
AcDbLine
 10
1.364826090330707
 20
5.813934370771654
 30
0.0
 11
1.333320692409449
 21
5.813934370771654
 31
0.0
  0
LINE
  5
24CB
330
1E
100
AcDbEntity
  8
7
100
AcDbLine
 10
-11.47887446223622
 20
5.813934370771654
 30
0.0
 11
-11.50512896050393
 21
5.813934370771654
 31
0.0
  0
LINE
  5
24CC
330
1E
100
AcDbEntity
  8
7
100
AcDbLine
 10
-11.50512896050393
 20
5.813934370771654
 30
0.0
 11
-11.573390656
 21
5.813934370771654
 31
0.0
  0
LINE
  5
24CD
330
1E
100
AcDbEntity
  8
7
100
AcDbLine
 10
-11.573390656
 20
5.813934370771654
 30
0.0
 11
-11.64165235149606
 21
5.813934370771654
 31
0.0
  0
LINE
  5
24CE
330
1E
100
AcDbEntity
  8
7
100
AcDbLine
 10
-11.64165235149606
 20
5.813934370771654
 30
0.0
 11
-11.66790684976378
 21
5.813934370771654
 31
0.0
  0
LINE
  5
24CF
330
1E
100
AcDbEntity
  8
7
100
AcDbLine
 10
-11.95145543105511
 20
10.15642838425196
 30
0.0
 11
-11.95145543105511
 21
10.20893738078739
 31
0.0
  0
LINE
  5
24D0
330
1E
100
AcDbEntity
  8
7
100
AcDbLine
 10
-11.95145543105511
 20
10.20893738078739
 30
0.0
 11
-11.95145543105511
 21
10.23519187905512
 31
0.0
  0
LINE
  5
24D1
330
1E
100
AcDbEntity
  8
7
100
AcDbLine
 10
1.811152560881891
 20
10.15642838425196
 30
0.0
 11
1.811152560881891
 21
10.20893738078739
 31
0.0
  0
LINE
  5
24D2
330
1E
100
AcDbEntity
  8
7
100
AcDbLine
 10
1.811152560881891
 20
10.20893738078739
 30
0.0
 11
1.811152560881891
 21
10.23519187905512
 31
0.0
  0
LINE
  5
24D3
330
1E
100
AcDbEntity
  8
7
100
AcDbLine
 10
1.811152560881891
 20
6.034472156220473
 30
0.0
 11
1.811152560881891
 21
5.976712260031501
 31
0.0
  0
LINE
  5
24D4
330
1E
100
AcDbEntity
  8
7
100
AcDbLine
 10
1.811152560881891
 20
5.976712260031501
 30
0.0
 11
1.811152560881891
 21
5.955708661417322
 31
0.0
  0
LINE
  5
24D5
330
1E
100
AcDbEntity
  8
7
100
AcDbLine
 10
-11.95145543105511
 20
6.034472156220473
 30
0.0
 11
-11.95145543105511
 21
5.976712260031501
 31
0.0
  0
LINE
  5
24D6
330
1E
100
AcDbEntity
  8
7
100
AcDbLine
 10
-11.95145543105511
 20
5.976712260031501
 30
0.0
 11
-11.95145543105511
 21
5.955708661417322
 31
0.0
  0
LINE
  5
24D7
330
1E
100
AcDbEntity
  8
7
100
AcDbLine
 10
-12.32426930645669
 20
10.23519187905512
 30
0.0
 11
-12.57631248982677
 21
10.23519187905512
 31
0.0
  0
LINE
  5
24D8
330
1E
100
AcDbEntity
  8
7
100
AcDbLine
 10
-12.57631248982677
 20
10.23519187905512
 30
0.0
 11
-12.82310477354331
 21
10.23519187905512
 31
0.0
  0
LINE
  5
24D9
330
1E
100
AcDbEntity
  8
7
100
AcDbLine
 10
-12.82310477354331
 20
10.23519187905512
 30
0.0
 11
-13.04364255899212
 21
10.23519187905512
 31
0.0
  0
LINE
  5
24DA
330
1E
100
AcDbEntity
  8
7
100
AcDbLine
 10
-13.04364255899212
 20
10.23519187905512
 30
0.0
 11
-13.24317674582677
 21
10.23519187905512
 31
0.0
  0
LINE
  5
24DB
330
1E
100
AcDbEntity
  8
7
100
AcDbLine
 10
-13.24317674582677
 20
10.23519187905512
 30
0.0
 11
-13.40595463508661
 21
10.23519187905512
 31
0.0
  0
LINE
  5
24DC
330
1E
100
AcDbEntity
  8
7
100
AcDbLine
 10
-13.40595463508661
 20
10.23519187905512
 30
0.0
 11
-13.52672532711811
 21
10.23519187905512
 31
0.0
  0
LINE
  5
24DD
330
1E
100
AcDbEntity
  8
7
100
AcDbLine
 10
-13.52672532711811
 20
10.23519187905512
 30
0.0
 11
-13.60023792226771
 21
10.23519187905512
 31
0.0
  0
LINE
  5
24DE
330
1E
100
AcDbEntity
  8
7
100
AcDbLine
 10
-13.60023792226771
 20
10.23519187905512
 30
0.0
 11
-13.62649242053543
 21
10.23519187905512
 31
0.0
  0
LINE
  5
24DF
330
1E
100
AcDbEntity
  8
7
100
AcDbLine
 10
3.097622975999998
 20
10.23519187905512
 30
0.0
 11
3.260400865259841
 21
10.23519187905512
 31
0.0
  0
LINE
  5
24E0
330
1E
100
AcDbEntity
  8
7
100
AcDbLine
 10
3.260400865259841
 20
10.23519187905512
 30
0.0
 11
3.381171557291338
 21
10.23519187905512
 31
0.0
  0
LINE
  5
24E1
330
1E
100
AcDbEntity
  8
7
100
AcDbLine
 10
3.381171557291338
 20
10.23519187905512
 30
0.0
 11
3.454684152440941
 21
10.23519187905512
 31
0.0
  0
LINE
  5
24E2
330
1E
100
AcDbEntity
  8
7
100
AcDbLine
 10
3.454684152440941
 20
10.23519187905512
 30
0.0
 11
3.480938650708656
 21
10.23519187905512
 31
0.0
  0
LINE
  5
24E3
330
1E
100
AcDbEntity
  8
7
100
AcDbLine
 10
2.178715536629919
 20
10.23519187905512
 30
0.0
 11
2.436009619653539
 21
10.23519187905512
 31
0.0
  0
LINE
  5
24E4
330
1E
100
AcDbEntity
  8
7
100
AcDbLine
 10
2.436009619653539
 20
10.23519187905512
 30
0.0
 11
2.677551003716533
 21
10.23519187905512
 31
0.0
  0
LINE
  5
24E5
330
1E
100
AcDbEntity
  8
7
100
AcDbLine
 10
2.677551003716533
 20
10.23519187905512
 30
0.0
 11
2.903339688818897
 21
10.23519187905512
 31
0.0
  0
LINE
  5
24E6
330
1E
100
AcDbEntity
  8
7
100
AcDbLine
 10
2.903339688818897
 20
10.23519187905512
 30
0.0
 11
3.097622975999998
 21
10.23519187905512
 31
0.0
  0
LINE
  5
24E7
330
1E
100
AcDbEntity
  8
7
100
AcDbLine
 10
1.900417854992126
 20
6.086981152755903
 30
0.0
 11
1.842657958803147
 21
6.086981152755903
 31
0.0
  0
LINE
  5
24E8
330
1E
100
AcDbEntity
  8
7
100
AcDbLine
 10
1.842657958803147
 20
6.086981152755903
 30
0.0
 11
1.811152560881891
 21
6.034472156220473
 31
0.0
  0
LINE
  5
24E9
330
1E
100
AcDbEntity
  8
7
100
AcDbLine
 10
-11.95670633070866
 20
6.034472156220473
 30
0.0
 11
-11.98296082897637
 21
6.086981152755903
 31
0.0
  0
LINE
  5
24EA
330
1E
100
AcDbEntity
  8
7
100
AcDbLine
 10
-11.98296082897637
 20
6.086981152755903
 30
0.0
 11
-12.04072072516535
 21
6.086981152755903
 31
0.0
  0
LINE
  5
24EB
330
1E
100
AcDbEntity
  8
7
100
AcDbLine
 10
-12.04072072516535
 20
6.086981152755903
 30
0.0
 11
-12.07222612308661
 21
6.034472156220473
 31
0.0
  0
LINE
  5
24EC
330
1E
100
AcDbEntity
  8
7
100
AcDbLine
 10
-12.07222612308661
 20
10.15642838425196
 30
0.0
 11
-12.04597162481889
 21
10.10391938771653
 31
0.0
  0
LINE
  5
24ED
330
1E
100
AcDbEntity
  8
7
100
AcDbLine
 10
-12.04597162481889
 20
10.10391938771653
 30
0.0
 11
-11.98821172862992
 21
10.10391938771653
 31
0.0
  0
LINE
  5
24EE
330
1E
100
AcDbEntity
  8
7
100
AcDbLine
 10
-11.98821172862992
 20
10.10391938771653
 30
0.0
 11
-11.95670633070866
 21
10.15642838425196
 31
0.0
  0
LINE
  5
24EF
330
1E
100
AcDbEntity
  8
7
100
AcDbLine
 10
1.811152560881891
 20
10.15642838425196
 30
0.0
 11
1.837407059149606
 21
10.10391938771653
 31
0.0
  0
LINE
  5
24F0
330
1E
100
AcDbEntity
  8
7
100
AcDbLine
 10
1.837407059149606
 20
10.10391938771653
 30
0.0
 11
1.895166955338584
 21
10.10391938771653
 31
0.0
  0
LINE
  5
24F1
330
1E
100
AcDbEntity
  8
7
100
AcDbLine
 10
1.895166955338584
 20
10.10391938771653
 30
0.0
 11
1.92667235325984
 21
10.15642838425196
 31
0.0
  0
LINE
  5
24F2
330
1E
100
AcDbEntity
  8
7
100
AcDbLine
 10
-11.69416134803149
 20
5.845439768692919
 30
0.0
 11
-11.68891044837795
 21
5.82443617007874
 31
0.0
  0
LINE
  5
24F3
330
1E
100
AcDbEntity
  8
7
100
AcDbLine
 10
-11.68891044837795
 20
5.82443617007874
 30
0.0
 11
-11.66790684976378
 21
5.819185270425197
 31
0.0
  0
LINE
  5
24F4
330
1E
100
AcDbEntity
  8
7
100
AcDbLine
 10
-11.47887446223622
 20
5.819185270425197
 30
0.0
 11
-11.45787086362204
 21
5.82443617007874
 31
0.0
  0
LINE
  5
24F5
330
1E
100
AcDbEntity
  8
7
100
AcDbLine
 10
-11.45787086362204
 20
5.82443617007874
 30
0.0
 11
-11.4526199639685
 21
5.845439768692919
 31
0.0
  0
LINE
  5
24F6
330
1E
100
AcDbEntity
  8
7
100
AcDbLine
 10
1.307066194141729
 20
5.845439768692919
 30
0.0
 11
1.312317093795277
 21
5.82443617007874
 31
0.0
  0
LINE
  5
24F7
330
1E
100
AcDbEntity
  8
7
100
AcDbLine
 10
1.312317093795277
 20
5.82443617007874
 30
0.0
 11
1.333320692409449
 21
5.819185270425197
 31
0.0
  0
LINE
  5
24F8
330
1E
100
AcDbEntity
  8
7
100
AcDbLine
 10
1.52760397959055
 20
5.819185270425197
 30
0.0
 11
1.548607578204723
 21
5.82443617007874
 31
0.0
  0
LINE
  5
24F9
330
1E
100
AcDbEntity
  8
7
100
AcDbLine
 10
1.548607578204723
 20
5.82443617007874
 30
0.0
 11
1.553858477858266
 21
5.845439768692919
 31
0.0
  0
LINE
  5
24FA
330
1E
100
AcDbEntity
  8
7
100
AcDbLine
 10
-11.4526199639685
 20
10.36646437039369
 30
0.0
 11
-11.45787086362204
 21
10.38746796900787
 31
0.0
  0
LINE
  5
24FB
330
1E
100
AcDbEntity
  8
7
100
AcDbLine
 10
-11.45787086362204
 20
10.38746796900787
 30
0.0
 11
-11.47887446223622
 21
10.39271886866141
 31
0.0
  0
LINE
  5
24FC
330
1E
100
AcDbEntity
  8
7
100
AcDbLine
 10
-11.66790684976378
 20
10.39271886866141
 30
0.0
 11
-11.68891044837795
 21
10.38746796900787
 31
0.0
  0
LINE
  5
24FD
330
1E
100
AcDbEntity
  8
7
100
AcDbLine
 10
-11.68891044837795
 20
10.38746796900787
 30
0.0
 11
-11.69416134803149
 21
10.36646437039369
 31
0.0
  0
LINE
  5
24FE
330
1E
100
AcDbEntity
  8
7
100
AcDbLine
 10
1.553858477858266
 20
10.36646437039369
 30
0.0
 11
1.548607578204723
 21
10.38746796900787
 31
0.0
  0
LINE
  5
24FF
330
1E
100
AcDbEntity
  8
7
100
AcDbLine
 10
1.548607578204723
 20
10.38746796900787
 30
0.0
 11
1.52760397959055
 21
10.39271886866141
 31
0.0
  0
LINE
  5
2500
330
1E
100
AcDbEntity
  8
7
100
AcDbLine
 10
1.333320692409449
 20
10.39271886866141
 30
0.0
 11
1.312317093795277
 21
10.38746796900787
 31
0.0
  0
LINE
  5
2501
330
1E
100
AcDbEntity
  8
7
100
AcDbLine
 10
1.312317093795277
 20
10.38746796900787
 30
0.0
 11
1.307066194141729
 21
10.36646437039369
 31
0.0
  0
LINE
  5
2502
330
1E
100
AcDbEntity
  8
7
100
AcDbLine
 10
3.522945847937004
 20
-5.837811960440944
 30
0.0
 11
3.365418858330707
 21
-5.648779572913383
 31
0.0
  0
LINE
  5
2503
330
1E
100
AcDbEntity
  8
7
100
AcDbLine
 10
3.365418858330707
 20
-5.648779572913383
 30
0.0
 11
3.176386470803148
 21
-5.491252583307083
 31
0.0
  0
LINE
  5
2504
330
1E
100
AcDbEntity
  8
7
100
AcDbLine
 10
3.176386470803148
 20
-5.491252583307083
 30
0.0
 11
2.96109958500787
 21
-5.375732790929134
 31
0.0
  0
LINE
  5
2505
330
1E
100
AcDbEntity
  8
7
100
AcDbLine
 10
2.96109958500787
 20
-5.375732790929134
 30
0.0
 11
2.724809100598422
 21
-5.307471095433065
 31
0.0
  0
LINE
  5
2506
330
1E
100
AcDbEntity
  8
7
100
AcDbLine
 10
2.724809100598422
 20
-5.307471095433065
 30
0.0
 11
2.483267716535433
 21
-5.28121659716535
 31
0.0
  0
LINE
  5
2507
330
1E
100
AcDbEntity
  8
7
100
AcDbLine
 10
3.73298183407874
 20
-6.530930714708659
 30
0.0
 11
3.70672733581102
 21
-6.289389330645668
 31
0.0
  0
LINE
  5
2508
330
1E
100
AcDbEntity
  8
7
100
AcDbLine
 10
3.70672733581102
 20
-6.289389330645668
 30
0.0
 11
3.638465640314958
 21
-6.053098846236217
 31
0.0
  0
LINE
  5
2509
330
1E
100
AcDbEntity
  8
7
100
AcDbLine
 10
3.638465640314958
 20
-6.053098846236217
 30
0.0
 11
3.522945847937004
 21
-5.837811960440944
 31
0.0
  0
LINE
  5
250A
330
1E
100
AcDbEntity
  8
7
100
AcDbLine
 10
3.480938650708656
 20
-8.647043275086613
 30
0.0
 11
3.601709342740154
 21
-8.615537877165351
 31
0.0
  0
LINE
  5
250B
330
1E
100
AcDbEntity
  8
7
100
AcDbLine
 10
3.601709342740154
 20
-8.615537877165351
 30
0.0
 11
3.696225536503936
 21
-8.526272583055117
 31
0.0
  0
LINE
  5
250C
330
1E
100
AcDbEntity
  8
7
100
AcDbLine
 10
3.696225536503936
 20
-8.526272583055117
 30
0.0
 11
3.727730934425194
 21
-8.400250991370079
 31
0.0
  0
LINE
  5
250D
330
1E
100
AcDbEntity
  8
7
100
AcDbLine
 10
-13.87328470425196
 20
-8.400250991370079
 30
0.0
 11
-13.84177930633071
 21
-8.521021683401571
 31
0.0
  0
LINE
  5
250E
330
1E
100
AcDbEntity
  8
7
100
AcDbLine
 10
-13.84177930633071
 20
-8.521021683401571
 30
0.0
 11
-13.75251401222047
 21
-8.615537877165351
 31
0.0
  0
LINE
  5
250F
330
1E
100
AcDbEntity
  8
7
100
AcDbLine
 10
-13.75251401222047
 20
-8.615537877165351
 30
0.0
 11
-13.62649242053543
 21
-8.647043275086613
 31
0.0
  0
LINE
  5
2510
330
1E
100
AcDbEntity
  8
7
100
AcDbLine
 10
-12.62357058670866
 20
-5.28121659716535
 30
0.0
 11
-12.86511197077165
 21
-5.307471095433065
 31
0.0
  0
LINE
  5
2511
330
1E
100
AcDbEntity
  8
7
100
AcDbLine
 10
-12.86511197077165
 20
-5.307471095433065
 30
0.0
 11
-13.1014024551811
 21
-5.375732790929134
 31
0.0
  0
LINE
  5
2512
330
1E
100
AcDbEntity
  8
7
100
AcDbLine
 10
-13.1014024551811
 20
-5.375732790929134
 30
0.0
 11
-13.31668934097637
 21
-5.491252583307083
 31
0.0
  0
LINE
  5
2513
330
1E
100
AcDbEntity
  8
7
100
AcDbLine
 10
-13.31668934097637
 20
-5.491252583307083
 30
0.0
 11
-13.50572172850393
 21
-5.648779572913383
 31
0.0
  0
LINE
  5
2514
330
1E
100
AcDbEntity
  8
7
100
AcDbLine
 10
-13.50572172850393
 20
-5.648779572913383
 30
0.0
 11
-13.66324871811023
 21
-5.837811960440944
 31
0.0
  0
LINE
  5
2515
330
1E
100
AcDbEntity
  8
7
100
AcDbLine
 10
-13.66324871811023
 20
-5.837811960440944
 30
0.0
 11
-13.77876851048818
 21
-6.053098846236217
 31
0.0
  0
LINE
  5
2516
330
1E
100
AcDbEntity
  8
7
100
AcDbLine
 10
-13.77876851048818
 20
-6.053098846236217
 30
0.0
 11
-13.84703020598425
 21
-6.289389330645668
 31
0.0
  0
LINE
  5
2517
330
1E
100
AcDbEntity
  8
7
100
AcDbLine
 10
-13.84703020598425
 20
-6.289389330645668
 30
0.0
 11
-13.87328470425196
 21
-6.530930714708659
 31
0.0
  0
LINE
  5
2518
330
1E
100
AcDbEntity
  8
3
100
AcDbLine
 10
1.46459318374803
 20
-7.423583655811022
 30
0.0
 11
1.496098581669288
 21
-7.465590853039369
 31
0.0
  0
LINE
  5
2519
330
1E
100
AcDbEntity
  8
3
100
AcDbLine
 10
1.496098581669288
 20
-7.465590853039369
 30
0.0
 11
1.490847682015747
 21
-7.481343551999998
 31
0.0
  0
LINE
  5
251A
330
1E
100
AcDbEntity
  8
3
100
AcDbLine
 10
1.364826090330707
 20
-7.481343551999998
 30
0.0
 11
1.364826090330707
 21
-7.465590853039369
 31
0.0
  0
LINE
  5
251B
330
1E
100
AcDbEntity
  8
3
100
AcDbLine
 10
1.364826090330707
 20
-7.465590853039369
 30
0.0
 11
1.39633148825197
 21
-7.423583655811022
 31
0.0
  0
LINE
  5
251C
330
1E
100
AcDbEntity
  8
3
100
AcDbLine
 10
-11.54188525807874
 20
-7.423583655811022
 30
0.0
 11
-11.50512896050393
 21
-7.465590853039369
 31
0.0
  0
LINE
  5
251D
330
1E
100
AcDbEntity
  8
3
100
AcDbLine
 10
-11.50512896050393
 20
-7.465590853039369
 30
0.0
 11
-11.51037986015748
 21
-7.481343551999998
 31
0.0
  0
LINE
  5
251E
330
1E
100
AcDbEntity
  8
3
100
AcDbLine
 10
-11.63640145184251
 20
-7.481343551999998
 30
0.0
 11
-11.64165235149606
 21
-7.465590853039369
 31
0.0
  0
LINE
  5
251F
330
1E
100
AcDbEntity
  8
3
100
AcDbLine
 10
-11.64165235149606
 20
-7.465590853039369
 30
0.0
 11
-11.60489605392126
 21
-7.423583655811022
 31
0.0
  0
LINE
  5
2520
330
1E
100
AcDbEntity
  8
7
100
AcDbLine
 10
3.428429654173227
 20
-8.652294174740156
 30
0.0
 11
3.428429654173227
 21
-8.74155946885039
 31
0.0
  0
LINE
  5
2521
330
1E
100
AcDbEntity
  8
7
100
AcDbLine
 10
3.428429654173227
 20
-8.74155946885039
 30
0.0
 11
3.428429654173227
 21
-8.778315766425194
 31
0.0
  0
LINE
  5
2522
330
1E
100
AcDbEntity
  8
7
100
AcDbLine
 10
-13.573983424
 20
-8.778315766425194
 30
0.0
 11
-13.573983424
 21
-8.74155946885039
 31
0.0
  0
LINE
  5
2523
330
1E
100
AcDbEntity
  8
7
100
AcDbLine
 10
-13.573983424
 20
-8.74155946885039
 30
0.0
 11
-13.573983424
 21
-8.652294174740156
 31
0.0
  0
LINE
  5
2524
330
1E
100
AcDbEntity
  8
7
100
AcDbLine
 10
-14.32486207445669
 20
-5.28121659716535
 30
0.0
 11
-14.44563276648819
 21
-5.312721995086615
 31
0.0
  0
LINE
  5
2525
330
1E
100
AcDbEntity
  8
7
100
AcDbLine
 10
-14.44563276648819
 20
-5.312721995086615
 30
0.0
 11
-14.54014896025197
 21
-5.401987289196849
 31
0.0
  0
LINE
  5
2526
330
1E
100
AcDbEntity
  8
7
100
AcDbLine
 10
-14.54014896025197
 20
-5.401987289196849
 30
0.0
 11
-14.57165435817322
 21
-5.528008880881888
 31
0.0
  0
LINE
  5
2527
330
1E
100
AcDbEntity
  8
7
100
AcDbLine
 10
4.426100588346455
 20
-5.528008880881888
 30
0.0
 11
4.394595190425194
 21
-5.407238188850392
 31
0.0
  0
LINE
  5
2528
330
1E
100
AcDbEntity
  8
7
100
AcDbLine
 10
4.394595190425194
 20
-5.407238188850392
 30
0.0
 11
4.305329896314958
 21
-5.312721995086615
 31
0.0
  0
LINE
  5
2529
330
1E
100
AcDbEntity
  8
7
100
AcDbLine
 10
4.305329896314958
 20
-5.312721995086615
 30
0.0
 11
4.17930830462992
 21
-5.28121659716535
 31
0.0
  0
LINE
  5
252A
330
1E
100
AcDbEntity
  8
7
100
AcDbLine
 10
4.17930830462992
 20
-8.778315766425194
 30
0.0
 11
4.300078996661417
 21
-8.746810368503936
 31
0.0
  0
LINE
  5
252B
330
1E
100
AcDbEntity
  8
7
100
AcDbLine
 10
4.300078996661417
 20
-8.746810368503936
 30
0.0
 11
4.394595190425194
 21
-8.657545074393699
 31
0.0
  0
LINE
  5
252C
330
1E
100
AcDbEntity
  8
7
100
AcDbLine
 10
4.394595190425194
 20
-8.657545074393699
 30
0.0
 11
4.426100588346455
 21
-8.53152348270866
 31
0.0
  0
LINE
  5
252D
330
1E
100
AcDbEntity
  8
7
100
AcDbLine
 10
3.549200346204724
 20
-8.652294174740156
 30
0.0
 11
3.549200346204724
 21
-8.647043275086613
 31
0.0
  0
LINE
  5
252E
330
1E
100
AcDbEntity
  8
7
100
AcDbLine
 10
3.549200346204724
 20
-8.647043275086613
 30
0.0
 11
3.549200346204724
 21
-8.64179237543307
 31
0.0
  0
LINE
  5
252F
330
1E
100
AcDbEntity
  8
7
100
AcDbLine
 10
-13.68950321637795
 20
-8.64179237543307
 30
0.0
 11
-13.68950321637795
 21
-8.647043275086613
 31
0.0
  0
LINE
  5
2530
330
1E
100
AcDbEntity
  8
7
100
AcDbLine
 10
-13.68950321637795
 20
-8.647043275086613
 30
0.0
 11
-13.68950321637795
 21
-8.652294174740156
 31
0.0
  0
LINE
  5
2531
330
1E
100
AcDbEntity
  8
7
100
AcDbLine
 10
-14.32486207445669
 20
-8.778315766425194
 30
0.0
 11
-13.69475411603149
 21
-8.778315766425194
 31
0.0
  0
LINE
  5
2532
330
1E
100
AcDbEntity
  8
7
100
AcDbLine
 10
-13.69475411603149
 20
-8.778315766425194
 30
0.0
 11
-13.69475411603149
 21
-8.652294174740156
 31
0.0
  0
LINE
  5
2533
330
1E
100
AcDbEntity
  8
7
100
AcDbLine
 10
-14.57165435817322
 20
-8.53152348270866
 30
0.0
 11
-14.54014896025197
 21
-8.652294174740156
 31
0.0
  0
LINE
  5
2534
330
1E
100
AcDbEntity
  8
7
100
AcDbLine
 10
-14.54014896025197
 20
-8.652294174740156
 30
0.0
 11
-14.45088366614173
 21
-8.746810368503936
 31
0.0
  0
LINE
  5
2535
330
1E
100
AcDbEntity
  8
7
100
AcDbLine
 10
-14.45088366614173
 20
-8.746810368503936
 30
0.0
 11
-14.32486207445669
 21
-8.778315766425194
 31
0.0
  0
LINE
  5
2536
330
1E
100
AcDbEntity
  8
7
100
AcDbLine
 10
3.916763321952752
 20
-5.428241787464564
 30
0.0
 11
3.874756124724406
 21
-5.491252583307083
 31
0.0
  0
LINE
  5
2537
330
1E
100
AcDbEntity
  8
7
100
AcDbLine
 10
3.874756124724406
 20
-5.491252583307083
 30
0.0
 11
3.874756124724406
 21
-5.564765178456692
 31
0.0
  0
LINE
  5
2538
330
1E
100
AcDbEntity
  8
7
100
AcDbLine
 10
3.874756124724406
 20
-5.564765178456692
 30
0.0
 11
3.916763321952752
 21
-5.627775974299211
 31
0.0
  0
LINE
  5
2539
330
1E
100
AcDbEntity
  8
7
100
AcDbLine
 10
3.916763321952752
 20
-5.627775974299211
 30
0.0
 11
3.99027591710236
 21
-5.648779572913383
 31
0.0
  0
LINE
  5
253A
330
1E
100
AcDbEntity
  8
7
100
AcDbLine
 10
4.17930830462992
 20
-5.648779572913383
 30
0.0
 11
4.252820899779523
 21
-5.627775974299211
 31
0.0
  0
LINE
  5
253B
330
1E
100
AcDbEntity
  8
7
100
AcDbLine
 10
4.252820899779523
 20
-5.627775974299211
 30
0.0
 11
4.294828097007869
 21
-5.564765178456692
 31
0.0
  0
LINE
  5
253C
330
1E
100
AcDbEntity
  8
7
100
AcDbLine
 10
4.294828097007869
 20
-5.564765178456692
 30
0.0
 11
4.294828097007869
 21
-5.491252583307083
 31
0.0
  0
LINE
  5
253D
330
1E
100
AcDbEntity
  8
7
100
AcDbLine
 10
4.294828097007869
 20
-5.491252583307083
 30
0.0
 11
4.252820899779523
 21
-5.428241787464564
 31
0.0
  0
LINE
  5
253E
330
1E
100
AcDbEntity
  8
7
100
AcDbLine
 10
4.252820899779523
 20
-5.428241787464564
 30
0.0
 11
4.17930830462992
 21
-5.407238188850392
 31
0.0
  0
LINE
  5
253F
330
1E
100
AcDbEntity
  8
7
100
AcDbLine
 10
3.99027591710236
 20
-8.410752790677165
 30
0.0
 11
3.916763321952752
 21
-8.431756389291336
 31
0.0
  0
LINE
  5
2540
330
1E
100
AcDbEntity
  8
7
100
AcDbLine
 10
3.916763321952752
 20
-8.431756389291336
 30
0.0
 11
3.874756124724406
 21
-8.494767185133856
 31
0.0
  0
LINE
  5
2541
330
1E
100
AcDbEntity
  8
7
100
AcDbLine
 10
3.874756124724406
 20
-8.494767185133856
 30
0.0
 11
3.874756124724406
 21
-8.568279780283464
 31
0.0
  0
LINE
  5
2542
330
1E
100
AcDbEntity
  8
7
100
AcDbLine
 10
3.874756124724406
 20
-8.568279780283464
 30
0.0
 11
3.916763321952752
 21
-8.631290576125984
 31
0.0
  0
LINE
  5
2543
330
1E
100
AcDbEntity
  8
7
100
AcDbLine
 10
3.916763321952752
 20
-8.631290576125984
 30
0.0
 11
3.99027591710236
 21
-8.652294174740156
 31
0.0
  0
LINE
  5
2544
330
1E
100
AcDbEntity
  8
7
100
AcDbLine
 10
4.17930830462992
 20
-8.652294174740156
 30
0.0
 11
4.252820899779523
 21
-8.631290576125984
 31
0.0
  0
LINE
  5
2545
330
1E
100
AcDbEntity
  8
7
100
AcDbLine
 10
4.252820899779523
 20
-8.631290576125984
 30
0.0
 11
4.294828097007869
 21
-8.568279780283464
 31
0.0
  0
LINE
  5
2546
330
1E
100
AcDbEntity
  8
7
100
AcDbLine
 10
4.294828097007869
 20
-8.568279780283464
 30
0.0
 11
4.294828097007869
 21
-8.494767185133856
 31
0.0
  0
LINE
  5
2547
330
1E
100
AcDbEntity
  8
7
100
AcDbLine
 10
4.294828097007869
 20
-8.494767185133856
 30
0.0
 11
4.252820899779523
 21
-8.431756389291336
 31
0.0
  0
LINE
  5
2548
330
1E
100
AcDbEntity
  8
7
100
AcDbLine
 10
-14.32486207445669
 20
-5.407238188850392
 30
0.0
 11
-14.39837466960629
 21
-5.428241787464564
 31
0.0
  0
LINE
  5
2549
330
1E
100
AcDbEntity
  8
7
100
AcDbLine
 10
-14.39837466960629
 20
-5.428241787464564
 30
0.0
 11
-14.44038186683464
 21
-5.491252583307083
 31
0.0
  0
LINE
  5
254A
330
1E
100
AcDbEntity
  8
7
100
AcDbLine
 10
-14.44038186683464
 20
-5.491252583307083
 30
0.0
 11
-14.44038186683464
 21
-5.564765178456692
 31
0.0
  0
LINE
  5
254B
330
1E
100
AcDbEntity
  8
7
100
AcDbLine
 10
-14.44038186683464
 20
-5.564765178456692
 30
0.0
 11
-14.39837466960629
 21
-5.627775974299211
 31
0.0
  0
LINE
  5
254C
330
1E
100
AcDbEntity
  8
7
100
AcDbLine
 10
-14.39837466960629
 20
-5.627775974299211
 30
0.0
 11
-14.32486207445669
 21
-5.648779572913383
 31
0.0
  0
LINE
  5
254D
330
1E
100
AcDbEntity
  8
7
100
AcDbLine
 10
-14.13582968692913
 20
-5.648779572913383
 30
0.0
 11
-14.06231709177952
 21
-5.627775974299211
 31
0.0
  0
LINE
  5
254E
330
1E
100
AcDbEntity
  8
7
100
AcDbLine
 10
-14.06231709177952
 20
-5.627775974299211
 30
0.0
 11
-14.02030989455118
 21
-5.564765178456692
 31
0.0
  0
LINE
  5
254F
330
1E
100
AcDbEntity
  8
7
100
AcDbLine
 10
-14.02030989455118
 20
-5.564765178456692
 30
0.0
 11
-14.02030989455118
 21
-5.491252583307083
 31
0.0
  0
LINE
  5
2550
330
1E
100
AcDbEntity
  8
7
100
AcDbLine
 10
-14.02030989455118
 20
-5.491252583307083
 30
0.0
 11
-14.06231709177952
 21
-5.428241787464564
 31
0.0
  0
LINE
  5
2551
330
1E
100
AcDbEntity
  8
7
100
AcDbLine
 10
-14.06231709177952
 20
-5.428241787464564
 30
0.0
 11
-14.13582968692913
 21
-5.407238188850392
 31
0.0
  0
LINE
  5
2552
330
1E
100
AcDbEntity
  8
7
100
AcDbLine
 10
-14.32486207445669
 20
-8.410752790677165
 30
0.0
 11
-14.39837466960629
 21
-8.431756389291336
 31
0.0
  0
LINE
  5
2553
330
1E
100
AcDbEntity
  8
7
100
AcDbLine
 10
-14.39837466960629
 20
-8.431756389291336
 30
0.0
 11
-14.44038186683464
 21
-8.494767185133856
 31
0.0
  0
LINE
  5
2554
330
1E
100
AcDbEntity
  8
7
100
AcDbLine
 10
-14.44038186683464
 20
-8.494767185133856
 30
0.0
 11
-14.44038186683464
 21
-8.568279780283464
 31
0.0
  0
LINE
  5
2555
330
1E
100
AcDbEntity
  8
7
100
AcDbLine
 10
-14.44038186683464
 20
-8.568279780283464
 30
0.0
 11
-14.39837466960629
 21
-8.631290576125984
 31
0.0
  0
LINE
  5
2556
330
1E
100
AcDbEntity
  8
7
100
AcDbLine
 10
-14.39837466960629
 20
-8.631290576125984
 30
0.0
 11
-14.32486207445669
 21
-8.652294174740156
 31
0.0
  0
LINE
  5
2557
330
1E
100
AcDbEntity
  8
7
100
AcDbLine
 10
-14.06231709177952
 20
-8.631290576125984
 30
0.0
 11
-14.02030989455118
 21
-8.568279780283464
 31
0.0
  0
LINE
  5
2558
330
1E
100
AcDbEntity
  8
7
100
AcDbLine
 10
-14.02030989455118
 20
-8.568279780283464
 30
0.0
 11
-14.02030989455118
 21
-8.494767185133856
 31
0.0
  0
LINE
  5
2559
330
1E
100
AcDbEntity
  8
7
100
AcDbLine
 10
-14.02030989455118
 20
-8.494767185133856
 30
0.0
 11
-14.06231709177952
 21
-8.431756389291336
 31
0.0
  0
LINE
  5
255A
330
1E
100
AcDbEntity
  8
7
100
AcDbLine
 10
-14.06231709177952
 20
-8.431756389291336
 30
0.0
 11
-14.13582968692913
 21
-8.410752790677165
 31
0.0
  0
LINE
  5
255B
330
1E
100
AcDbEntity
  8
7
100
AcDbLine
 10
1.427836886173226
 20
-7.523350749228342
 30
0.0
 11
1.46459318374803
 21
-7.50234715061417
 31
0.0
  0
LINE
  5
255C
330
1E
100
AcDbEntity
  8
7
100
AcDbLine
 10
1.46459318374803
 20
-7.50234715061417
 30
0.0
 11
1.46459318374803
 21
-7.460339953385823
 31
0.0
  0
LINE
  5
255D
330
1E
100
AcDbEntity
  8
7
100
AcDbLine
 10
1.46459318374803
 20
-7.460339953385823
 30
0.0
 11
1.427836886173226
 21
-7.439336354771651
 31
0.0
  0
LINE
  5
255E
330
1E
100
AcDbEntity
  8
7
100
AcDbLine
 10
1.427836886173226
 20
-7.439336354771651
 30
0.0
 11
1.391080588598422
 21
-7.460339953385823
 31
0.0
  0
LINE
  5
255F
330
1E
100
AcDbEntity
  8
7
100
AcDbLine
 10
1.391080588598422
 20
-7.460339953385823
 30
0.0
 11
1.391080588598422
 21
-7.50234715061417
 31
0.0
  0
LINE
  5
2560
330
1E
100
AcDbEntity
  8
7
100
AcDbLine
 10
1.391080588598422
 20
-7.50234715061417
 30
0.0
 11
1.427836886173226
 21
-7.523350749228342
 31
0.0
  0
LINE
  5
2561
330
1E
100
AcDbEntity
  8
7
100
AcDbLine
 10
1.427836886173226
 20
-7.602114244031493
 30
0.0
 11
1.501349481322835
 21
-7.581110645417322
 31
0.0
  0
LINE
  5
2562
330
1E
100
AcDbEntity
  8
7
100
AcDbLine
 10
1.501349481322835
 20
-7.581110645417322
 30
0.0
 11
1.543356678551182
 21
-7.518099849574802
 31
0.0
  0
LINE
  5
2563
330
1E
100
AcDbEntity
  8
7
100
AcDbLine
 10
1.543356678551182
 20
-7.518099849574802
 30
0.0
 11
1.543356678551182
 21
-7.444587254425194
 31
0.0
  0
LINE
  5
2564
330
1E
100
AcDbEntity
  8
7
100
AcDbLine
 10
1.543356678551182
 20
-7.444587254425194
 30
0.0
 11
1.501349481322835
 21
-7.381576458582674
 31
0.0
  0
LINE
  5
2565
330
1E
100
AcDbEntity
  8
7
100
AcDbLine
 10
1.501349481322835
 20
-7.381576458582674
 30
0.0
 11
1.427836886173226
 21
-7.360572859968502
 31
0.0
  0
LINE
  5
2566
330
1E
100
AcDbEntity
  8
7
100
AcDbLine
 10
1.427836886173226
 20
-7.360572859968502
 30
0.0
 11
1.354324291023623
 21
-7.381576458582674
 31
0.0
  0
LINE
  5
2567
330
1E
100
AcDbEntity
  8
7
100
AcDbLine
 10
1.354324291023623
 20
-7.381576458582674
 30
0.0
 11
1.312317093795277
 21
-7.444587254425194
 31
0.0
  0
LINE
  5
2568
330
1E
100
AcDbEntity
  8
7
100
AcDbLine
 10
1.312317093795277
 20
-7.444587254425194
 30
0.0
 11
1.312317093795277
 21
-7.518099849574802
 31
0.0
  0
LINE
  5
2569
330
1E
100
AcDbEntity
  8
7
100
AcDbLine
 10
1.312317093795277
 20
-7.518099849574802
 30
0.0
 11
1.354324291023623
 21
-7.581110645417322
 31
0.0
  0
LINE
  5
256A
330
1E
100
AcDbEntity
  8
7
100
AcDbLine
 10
1.354324291023623
 20
-7.581110645417322
 30
0.0
 11
1.427836886173226
 21
-7.602114244031493
 31
0.0
  0
LINE
  5
256B
330
1E
100
AcDbEntity
  8
7
100
AcDbLine
 10
-11.573390656
 20
-7.439336354771651
 30
0.0
 11
-11.6101469535748
 21
-7.460339953385823
 31
0.0
  0
LINE
  5
256C
330
1E
100
AcDbEntity
  8
7
100
AcDbLine
 10
-11.6101469535748
 20
-7.460339953385823
 30
0.0
 11
-11.6101469535748
 21
-7.50234715061417
 31
0.0
  0
LINE
  5
256D
330
1E
100
AcDbEntity
  8
7
100
AcDbLine
 10
-11.6101469535748
 20
-7.50234715061417
 30
0.0
 11
-11.573390656
 21
-7.523350749228342
 31
0.0
  0
LINE
  5
256E
330
1E
100
AcDbEntity
  8
7
100
AcDbLine
 10
-11.573390656
 20
-7.523350749228342
 30
0.0
 11
-11.53663435842519
 21
-7.50234715061417
 31
0.0
  0
LINE
  5
256F
330
1E
100
AcDbEntity
  8
7
100
AcDbLine
 10
-11.53663435842519
 20
-7.50234715061417
 30
0.0
 11
-11.53663435842519
 21
-7.460339953385823
 31
0.0
  0
LINE
  5
2570
330
1E
100
AcDbEntity
  8
7
100
AcDbLine
 10
-11.53663435842519
 20
-7.460339953385823
 30
0.0
 11
-11.573390656
 21
-7.439336354771651
 31
0.0
  0
LINE
  5
2571
330
1E
100
AcDbEntity
  8
7
100
AcDbLine
 10
-11.49987806085039
 20
-7.381576458582674
 30
0.0
 11
-11.573390656
 21
-7.360572859968502
 31
0.0
  0
LINE
  5
2572
330
1E
100
AcDbEntity
  8
7
100
AcDbLine
 10
-11.573390656
 20
-7.360572859968502
 30
0.0
 11
-11.6469032511496
 21
-7.381576458582674
 31
0.0
  0
LINE
  5
2573
330
1E
100
AcDbEntity
  8
7
100
AcDbLine
 10
-11.6469032511496
 20
-7.381576458582674
 30
0.0
 11
-11.68891044837795
 21
-7.444587254425194
 31
0.0
  0
LINE
  5
2574
330
1E
100
AcDbEntity
  8
7
100
AcDbLine
 10
-11.68891044837795
 20
-7.444587254425194
 30
0.0
 11
-11.68891044837795
 21
-7.518099849574802
 31
0.0
  0
LINE
  5
2575
330
1E
100
AcDbEntity
  8
7
100
AcDbLine
 10
-11.68891044837795
 20
-7.518099849574802
 30
0.0
 11
-11.6469032511496
 21
-7.581110645417322
 31
0.0
  0
LINE
  5
2576
330
1E
100
AcDbEntity
  8
7
100
AcDbLine
 10
-11.6469032511496
 20
-7.581110645417322
 30
0.0
 11
-11.573390656
 21
-7.602114244031493
 31
0.0
  0
LINE
  5
2577
330
1E
100
AcDbEntity
  8
7
100
AcDbLine
 10
-11.573390656
 20
-7.602114244031493
 30
0.0
 11
-11.49987806085039
 21
-7.581110645417322
 31
0.0
  0
LINE
  5
2578
330
1E
100
AcDbEntity
  8
7
100
AcDbLine
 10
-11.49987806085039
 20
-7.581110645417322
 30
0.0
 11
-11.45787086362204
 21
-7.518099849574802
 31
0.0
  0
LINE
  5
2579
330
1E
100
AcDbEntity
  8
7
100
AcDbLine
 10
-11.45787086362204
 20
-7.518099849574802
 30
0.0
 11
-11.45787086362204
 21
-7.444587254425194
 31
0.0
  0
LINE
  5
257A
330
1E
100
AcDbEntity
  8
7
100
AcDbLine
 10
-11.45787086362204
 20
-7.444587254425194
 30
0.0
 11
-11.49987806085039
 21
-7.381576458582674
 31
0.0
  0
LINE
  5
257B
330
1E
100
AcDbEntity
  8
3
100
AcDbLine
 10
-11.54188525807874
 20
-7.533852548535431
 30
0.0
 11
-11.51037986015748
 21
-7.491845351307084
 31
0.0
  0
LINE
  5
257C
330
1E
100
AcDbEntity
  8
3
100
AcDbLine
 10
-11.51037986015748
 20
-7.491845351307084
 30
0.0
 11
-11.51563075981102
 21
-7.481343551999998
 31
0.0
  0
LINE
  5
257D
330
1E
100
AcDbEntity
  8
3
100
AcDbLine
 10
-11.63115055218897
 20
-7.481343551999998
 30
0.0
 11
-11.63640145184251
 21
-7.491845351307084
 31
0.0
  0
LINE
  5
257E
330
1E
100
AcDbEntity
  8
3
100
AcDbLine
 10
-11.63640145184251
 20
-7.491845351307084
 30
0.0
 11
-11.60489605392126
 21
-7.533852548535431
 31
0.0
  0
LINE
  5
257F
330
1E
100
AcDbEntity
  8
7
100
AcDbLine
 10
3.433680553826768
 20
-8.673297773354327
 30
0.0
 11
3.4494332527874
 21
-8.662795974047241
 31
0.0
  0
LINE
  5
2580
330
1E
100
AcDbEntity
  8
7
100
AcDbLine
 10
3.4494332527874
 20
-8.662795974047241
 30
0.0
 11
3.465185951748031
 21
-8.647043275086613
 31
0.0
  0
LINE
  5
2581
330
1E
100
AcDbEntity
  8
7
100
AcDbLine
 10
-13.60548882192126
 20
-8.647043275086613
 30
0.0
 11
-13.58973612296063
 21
-8.662795974047241
 31
0.0
  0
LINE
  5
2582
330
1E
100
AcDbEntity
  8
7
100
AcDbLine
 10
-13.58973612296063
 20
-8.662795974047241
 30
0.0
 11
-13.573983424
 21
-8.673297773354327
 31
0.0
  0
LINE
  5
2583
330
1E
100
AcDbEntity
  8
3
100
AcDbLine
 10
-13.46371453127559
 20
-7.869910126362203
 30
0.0
 11
-13.52672532711811
 21
-7.985429918740155
 31
0.0
  0
LINE
  5
2584
330
1E
100
AcDbEntity
  8
3
100
AcDbLine
 10
-13.52672532711811
 20
-7.985429918740155
 30
0.0
 11
-13.56348162469291
 21
-8.106200610771651
 31
0.0
  0
LINE
  5
2585
330
1E
100
AcDbEntity
  8
3
100
AcDbLine
 10
-13.14340965240945
 20
-7.481343551999998
 30
0.0
 11
-13.24317674582677
 21
-7.560107046803146
 31
0.0
  0
LINE
  5
2586
330
1E
100
AcDbEntity
  8
3
100
AcDbLine
 10
-13.24317674582677
 20
-7.560107046803146
 30
0.0
 11
-13.32194024062992
 21
-7.65987414022047
 31
0.0
  0
LINE
  5
2587
330
1E
100
AcDbEntity
  8
3
100
AcDbLine
 10
-12.69708318185826
 20
-7.239802167937003
 30
0.0
 11
-12.82310477354331
 21
-7.281809365165351
 31
0.0
  0
LINE
  5
2588
330
1E
100
AcDbEntity
  8
3
100
AcDbLine
 10
-12.82310477354331
 20
-7.281809365165351
 30
0.0
 11
-12.93337366626771
 21
-7.339569261354327
 31
0.0
  0
LINE
  5
2589
330
1E
100
AcDbEntity
  8
3
100
AcDbLine
 10
3.32341166110236
 20
-7.869910126362203
 30
0.0
 11
3.381171557291338
 21
-7.985429918740155
 31
0.0
  0
LINE
  5
258A
330
1E
100
AcDbEntity
  8
3
100
AcDbLine
 10
3.381171557291338
 20
-7.985429918740155
 30
0.0
 11
3.417927854866137
 21
-8.106200610771651
 31
0.0
  0
LINE
  5
258B
330
1E
100
AcDbEntity
  8
3
100
AcDbLine
 10
3.003106782236216
 20
-7.481343551999998
 30
0.0
 11
3.097622975999998
 21
-7.560107046803146
 31
0.0
  0
LINE
  5
258C
330
1E
100
AcDbEntity
  8
3
100
AcDbLine
 10
3.097622975999998
 20
-7.560107046803146
 30
0.0
 11
3.181637370456691
 21
-7.65987414022047
 31
0.0
  0
LINE
  5
258D
330
1E
100
AcDbEntity
  8
3
100
AcDbLine
 10
2.556780311685036
 20
-7.239802167937003
 30
0.0
 11
2.677551003716533
 21
-7.281809365165351
 31
0.0
  0
LINE
  5
258E
330
1E
100
AcDbEntity
  8
3
100
AcDbLine
 10
2.677551003716533
 20
-7.281809365165351
 30
0.0
 11
2.793070796094484
 21
-7.339569261354327
 31
0.0
  0
ENDSEC
  0
SECTION
  2
OBJECTS
  0
DICTIONARY
  5
C
330
0
100
AcDbDictionary
  3
ACAD_GROUP
350
D
  3
ACAD_LAYOUT
350
19
  3
ACAD_MLINESTYLE
350
16
  3
ACAD_PLOTSETTINGS
350
18
  3
ACAD_PLOTSTYLENAME
350
E
  3
ACDBHEADERROUNDTRIPXREC
350
25C4
  0
DICTIONARY
  5
25E7
330
1E
100
AcDbDictionary
280
     1
  3
ACAD_LAYOUTSELFREF
360
25E8
  0
DICTIONARY
  5
25E5
330
1A
100
AcDbDictionary
280
     1
  3
ACAD_LAYOUTSELFREF
360
25E6
  0
DICTIONARY
  5
D
102
{ACAD_REACTORS
330
C
102
}
330
C
100
AcDbDictionary
  0
DICTIONARY
  5
19
102
{ACAD_REACTORS
330
C
102
}
330
C
100
AcDbDictionary
  0
DICTIONARY
  5
16
102
{ACAD_REACTORS
330
C
102
}
330
C
100
AcDbDictionary
  3
STANDARD
350
17
  0
DICTIONARY
  5
18
102
{ACAD_REACTORS
330
C
102
}
330
C
100
AcDbDictionary
  0
ACDBDICTIONARYWDFLT
  5
E
102
{ACAD_REACTORS
330
C
102
}
330
C
100
AcDbDictionary
281
     1
  3
Normal
350
F
100
AcDbDictionaryWithDefault
340
F
  0
DICTIONARY
  5
25C4
102
{ACAD_REACTORS
330
C
102
}
330
C
100
AcDbDictionary
  3
CEPSNTYPE
350
25CE
  3
DIMSTYLEDATA
350
25D2
  3
FINGERPRINTGUID
350
25CF
  3
HYPERLINKBASE
350
25C7
  3
INSUNITS
350
25CD
  3
LAYOUTDICT
350
25C9
  3
LWETCUNION
350
25CC
  3
PLOTSETDICT
350
25CA
  3
PLOTSTYLNAMDICT
350
25CB
  3
PSVPSCALE
350
25D1
  3
PUCSBASE
350
25D5
  3
PUCSORGBACK
350
25DB
  3
PUCSORGBOTTOM
350
25D7
  3
PUCSORGFRONT
350
25DA
  3
PUCSORGLEFT
350
25D8
  3
PUCSORGRIGHT
350
25D9
  3
PUCSORGTOP
350
25D6
  3
PUCSORTHOREF
350
25D3
  3
PUCSORTHOVIEW
350
25D4
  3
STYLESHEET
350
25C8
  3
TSTACKALIGN
350
25C5
  3
TSTACKSIZE
350
25C6
  3
UCSBASE
350
25DE
  3
UCSORGBACK
350
25E4
  3
UCSORGBOTTOM
350
25E0
  3
UCSORGFRONT
350
25E3
  3
UCSORGLEFT
350
25E1
  3
UCSORGRIGHT
350
25E2
  3
UCSORGTOP
350
25DF
  3
UCSORTHOREF
350
25DC
  3
UCSORTHOVIEW
350
25DD
  3
VERSIONGUID
350
25D0
  0
XRECORD
  5
25E8
102
{ACAD_REACTORS
330
25E7
102
}
330
25E7
100
AcDbXrecord
340
1E
  0
XRECORD
  5
25E6
102
{ACAD_REACTORS
330
25E5
102
}
330
25E5
100
AcDbXrecord
340
1A
  0
MLINESTYLE
  5
17
102
{ACAD_REACTORS
330
16
102
}
330
16
100
AcDbMlineStyle
  2
STANDARD
 70
     0
  3

 62
   256
 51
90.0
 52
90.0
 71
     2
 49
0.5
 62
   256
  6
BYLAYER
 49
-0.5
 62
   256
  6
BYLAYER
  0
ACDBPLACEHOLDER
  5
F
102
{ACAD_REACTORS
330
E
102
}
330
E
100
AcDbPlaceHolder
280
     0
  0
XRECORD
  5
25CE
102
{ACAD_REACTORS
330
25C4
102
}
330
25C4
100
AcDbXrecord
 90
        0
  0
XRECORD
  5
25D2
102
{ACAD_REACTORS
330
25C4
102
}
330
25C4
100
AcDbXrecord
1000
DSTYLE
1002
{
1070
   279
 70
     2
1002
}
  0
XRECORD
  5
25CF
102
{ACAD_REACTORS
330
25C4
102
}
330
25C4
100
AcDbXrecord
  1
{718CCE38-45BE-11D7-B380-0007E9D963DD}
  0
XRECORD
  5
25C7
102
{ACAD_REACTORS
330
25C4
102
}
330
25C4
100
AcDbXrecord
  1

  0
XRECORD
  5
25CD
102
{ACAD_REACTORS
330
25C4
102
}
330
25C4
100
AcDbXrecord
 90
        0
  0
XRECORD
  5
25C9
102
{ACAD_REACTORS
330
25C4
102
}
330
25C4
100
AcDbXrecord
340
19
  0
XRECORD
  5
25CC
102
{ACAD_REACTORS
330
25C4
102
}
330
25C4
100
AcDbXrecord
 90
    14877
  0
XRECORD
  5
25CA
102
{ACAD_REACTORS
330
25C4
102
}
330
25C4
100
AcDbXrecord
340
18
  0
XRECORD
  5
25CB
102
{ACAD_REACTORS
330
25C4
102
}
330
25C4
100
AcDbXrecord
340
E
  0
XRECORD
  5
25D1
102
{ACAD_REACTORS
330
25C4
102
}
330
25C4
100
AcDbXrecord
 40
0.0
  0
XRECORD
  5
25D5
102
{ACAD_REACTORS
330
25C4
102
}
330
25C4
100
AcDbXrecord
340
0
  0
XRECORD
  5
25DB
102
{ACAD_REACTORS
330
25C4
102
}
330
25C4
100
AcDbXrecord
 10
0.0
 20
0.0
 30
0.0
  0
XRECORD
  5
25D7
102
{ACAD_REACTORS
330
25C4
102
}
330
25C4
100
AcDbXrecord
 10
0.0
 20
0.0
 30
0.0
  0
XRECORD
  5
25DA
102
{ACAD_REACTORS
330
25C4
102
}
330
25C4
100
AcDbXrecord
 10
0.0
 20
0.0
 30
0.0
  0
XRECORD
  5
25D8
102
{ACAD_REACTORS
330
25C4
102
}
330
25C4
100
AcDbXrecord
 10
0.0
 20
0.0
 30
0.0
  0
XRECORD
  5
25D9
102
{ACAD_REACTORS
330
25C4
102
}
330
25C4
100
AcDbXrecord
 10
0.0
 20
0.0
 30
0.0
  0
XRECORD
  5
25D6
102
{ACAD_REACTORS
330
25C4
102
}
330
25C4
100
AcDbXrecord
 10
0.0
 20
0.0
 30
0.0
  0
XRECORD
  5
25D3
102
{ACAD_REACTORS
330
25C4
102
}
330
25C4
100
AcDbXrecord
340
0
  0
XRECORD
  5
25D4
102
{ACAD_REACTORS
330
25C4
102
}
330
25C4
100
AcDbXrecord
 70
     0
  0
XRECORD
  5
25C8
102
{ACAD_REACTORS
330
25C4
102
}
330
25C4
100
AcDbXrecord
  1

  0
XRECORD
  5
25C5
102
{ACAD_REACTORS
330
25C4
102
}
330
25C4
100
AcDbXrecord
 90
        1
  0
XRECORD
  5
25C6
102
{ACAD_REACTORS
330
25C4
102
}
330
25C4
100
AcDbXrecord
 90
       70
  0
XRECORD
  5
25DE
102
{ACAD_REACTORS
330
25C4
102
}
330
25C4
100
AcDbXrecord
340
0
  0
XRECORD
  5
25E4
102
{ACAD_REACTORS
330
25C4
102
}
330
25C4
100
AcDbXrecord
 10
0.0
 20
0.0
 30
0.0
  0
XRECORD
  5
25E0
102
{ACAD_REACTORS
330
25C4
102
}
330
25C4
100
AcDbXrecord
 10
0.0
 20
0.0
 30
0.0
  0
XRECORD
  5
25E3
102
{ACAD_REACTORS
330
25C4
102
}
330
25C4
100
AcDbXrecord
 10
0.0
 20
0.0
 30
0.0
  0
XRECORD
  5
25E1
102
{ACAD_REACTORS
330
25C4
102
}
330
25C4
100
AcDbXrecord
 10
0.0
 20
0.0
 30
0.0
  0
XRECORD
  5
25E2
102
{ACAD_REACTORS
330
25C4
102
}
330
25C4
100
AcDbXrecord
 10
0.0
 20
0.0
 30
0.0
  0
XRECORD
  5
25DF
102
{ACAD_REACTORS
330
25C4
102
}
330
25C4
100
AcDbXrecord
 10
0.0
 20
0.0
 30
0.0
  0
XRECORD
  5
25DC
102
{ACAD_REACTORS
330
25C4
102
}
330
25C4
100
AcDbXrecord
340
0
  0
XRECORD
  5
25DD
102
{ACAD_REACTORS
330
25C4
102
}
330
25C4
100
AcDbXrecord
 70
     0
  0
XRECORD
  5
25D0
102
{ACAD_REACTORS
330
25C4
102
}
330
25C4
100
AcDbXrecord
  1
{718CCE3C-45BE-11D7-B380-0007E9D963DD}
  0
ENDSEC
  0
EOF
