  0
SECTION
  2
HEADER
  9
$ACADVER
  1
AC1012
  9
$DWGCODEPAGE
  3
ANSI_1252
  9
$INSBASE
 10
0.0
 20
0.0
 30
0.0
  9
$EXTMIN
 10
1.646561654857659
 20
4.102852704652327
 30
-0.0000000349181948
  9
$EXTMAX
 10
8.787822425540724
 20
9.321859494291683
 30
0.0000000814935746
  9
$LIMMIN
 10
0.0
 20
0.0
  9
$LIMMAX
 10
12.0
 20
9.0
  9
$ORTHOMODE
 70
     0
  9
$REGENMODE
 70
     1
  9
$FILLMODE
 70
     1
  9
$QTEXTMODE
 70
     0
  9
$MIRRTEXT
 70
     1
  9
$DRAGMODE
 70
     2
  9
$LTSCALE
 40
1.0
  9
$OSMODE
 70
    33
  9
$ATTMODE
 70
     1
  9
$TEXTSIZE
 40
0.2
  9
$TRACEWID
 40
0.05
  9
$TEXTSTYLE
  7
STANDARD
  9
$CLAYER
  8
0
  9
$CELTYPE
  6
BYLAYER
  9
$CECOLOR
 62
   256
  9
$CELTSCALE
 40
1.0
  9
$DELOBJ
 70
     1
  9
$DISPSILH
 70
     0
  9
$DIMSCALE
 40
1.0
  9
$DIMASZ
 40
0.18
  9
$DIMEXO
 40
0.0625
  9
$DIMDLI
 40
0.38
  9
$DIMRND
 40
0.0
  9
$DIMDLE
 40
0.0
  9
$DIMEXE
 40
0.18
  9
$DIMTP
 40
0.0
  9
$DIMTM
 40
0.0
  9
$DIMTXT
 40
0.18
  9
$DIMCEN
 40
0.09
  9
$DIMTSZ
 40
0.0
  9
$DIMTOL
 70
     0
  9
$DIMLIM
 70
     0
  9
$DIMTIH
 70
     1
  9
$DIMTOH
 70
     1
  9
$DIMSE1
 70
     0
  9
$DIMSE2
 70
     0
  9
$DIMTAD
 70
     0
  9
$DIMZIN
 70
     0
  9
$DIMBLK
  1

  9
$DIMASO
 70
     1
  9
$DIMSHO
 70
     1
  9
$DIMPOST
  1

  9
$DIMAPOST
  1

  9
$DIMALT
 70
     0
  9
$DIMALTD
 70
     2
  9
$DIMALTF
 40
25.4
  9
$DIMLFAC
 40
1.0
  9
$DIMTOFL
 70
     0
  9
$DIMTVP
 40
0.0
  9
$DIMTIX
 70
     0
  9
$DIMSOXD
 70
     0
  9
$DIMSAH
 70
     0
  9
$DIMBLK1
  1

  9
$DIMBLK2
  1

  9
$DIMSTYLE
  2
STANDARD
  9
$DIMCLRD
 70
     0
  9
$DIMCLRE
 70
     0
  9
$DIMCLRT
 70
     0
  9
$DIMTFAC
 40
1.0
  9
$DIMGAP
 40
0.09
  9
$DIMJUST
 70
     0
  9
$DIMSD1
 70
     0
  9
$DIMSD2
 70
     0
  9
$DIMTOLJ
 70
     1
  9
$DIMTZIN
 70
     0
  9
$DIMALTZ
 70
     0
  9
$DIMALTTZ
 70
     0
  9
$DIMFIT
 70
     5
  9
$DIMUPT
 70
     0
  9
$DIMUNIT
 70
     2
  9
$DIMDEC
 70
     4
  9
$DIMTDEC
 70
     4
  9
$DIMALTU
 70
     2
  9
$DIMALTTD
 70
     2
  9
$DIMTXSTY
  7
STANDARD
  9
$DIMAUNIT
 70
     0
  9
$LUNITS
 70
     2
  9
$LUPREC
 70
     4
  9
$SKETCHINC
 40
0.1
  9
$FILLETRAD
 40
0.0
  9
$AUNITS
 70
     0
  9
$AUPREC
 70
     0
  9
$MENU
  1
acad
  9
$ELEVATION
 40
0.0
  9
$PELEVATION
 40
0.0
  9
$THICKNESS
 40
0.0
  9
$LIMCHECK
 70
     0
  9
$BLIPMODE
 70
     0
  9
$CHAMFERA
 40
0.0
  9
$CHAMFERB
 40
0.0
  9
$CHAMFERC
 40
0.0
  9
$CHAMFERD
 40
0.0
  9
$SKPOLY
 70
     0
  9
$TDCREATE
 40
2451906.319016203
  9
$TDUPDATE
 40
2452338.603231574
  9
$TDINDWG
 40
0.0016261574
  9
$TDUSRTIMER
 40
0.0016261574
  9
$USRTIMER
 70
     1
  9
$ANGBASE
 50
0.0
  9
$ANGDIR
 70
     0
  9
$PDMODE
 70
     0
  9
$PDSIZE
 40
0.0
  9
$PLINEWID
 40
0.0
  9
$COORDS
 70
     2
  9
$SPLFRAME
 70
     0
  9
$SPLINETYPE
 70
     6
  9
$SPLINESEGS
 70
     8
  9
$ATTDIA
 70
     0
  9
$ATTREQ
 70
     1
  9
$HANDLING
 70
  4097
  9
$HANDSEED
  5
31C6
  9
$SURFTAB1
 70
     6
  9
$SURFTAB2
 70
     6
  9
$SURFTYPE
 70
     6
  9
$SURFU
 70
     6
  9
$SURFV
 70
     6
  9
$UCSNAME
  2

  9
$UCSORG
 10
0.0
 20
0.0
 30
0.0
  9
$UCSXDIR
 10
1.0
 20
0.0
 30
0.0
  9
$UCSYDIR
 10
0.0
 20
1.0
 30
0.0
  9
$PUCSNAME
  2

  9
$PUCSORG
 10
0.0
 20
0.0
 30
0.0
  9
$PUCSXDIR
 10
1.0
 20
0.0
 30
0.0
  9
$PUCSYDIR
 10
0.0
 20
1.0
 30
0.0
  9
$USERI1
 70
     0
  9
$USERI2
 70
     0
  9
$USERI3
 70
     0
  9
$USERI4
 70
     0
  9
$USERI5
 70
     0
  9
$USERR1
 40
0.0
  9
$USERR2
 40
0.0
  9
$USERR3
 40
0.0
  9
$USERR4
 40
0.0
  9
$USERR5
 40
0.0
  9
$WORLDVIEW
 70
     1
  9
$SHADEDGE
 70
     3
  9
$SHADEDIF
 70
    70
  9
$TILEMODE
 70
     1
  9
$MAXACTVP
 70
    16
  9
$PINSBASE
 10
0.0
 20
0.0
 30
0.0
  9
$PLIMCHECK
 70
     0
  9
$PEXTMIN
 10
1.000000000000000E+20
 20
1.000000000000000E+20
 30
1.000000000000000E+20
  9
$PEXTMAX
 10
-1.000000000000000E+20
 20
-1.000000000000000E+20
 30
-1.000000000000000E+20
  9
$PLIMMIN
 10
0.0
 20
0.0
  9
$PLIMMAX
 10
12.0
 20
9.0
  9
$UNITMODE
 70
     0
  9
$VISRETAIN
 70
     0
  9
$PLINEGEN
 70
     0
  9
$PSLTSCALE
 70
     1
  9
$TREEDEPTH
 70
  3020
  9
$PICKSTYLE
 70
     1
  9
$CMLSTYLE
  2
STANDARD
  9
$CMLJUST
 70
     0
  9
$CMLSCALE
 40
1.0
  9
$SAVEIMAGES
 70
     1
  0
ENDSEC
  0
SECTION
  2
CLASSES
  0
CLASS
  1
ACDBDICTIONARYWDFLT
  2
AcDbDictionaryWithDefault
  3
AutoCAD 2000
 90
    32768
280
     0
281
     0
  0
CLASS
  1
ACDBPLACEHOLDER
  2
AcDbPlaceHolder
  3
AutoCAD 2000
 90
    32768
280
     0
281
     0
  0
CLASS
  1
LAYOUT
  2
AcDbLayout
  3
AutoCAD 2000
 90
    32768
280
     0
281
     0
  0
CLASS
  1
LONG_TRANSACTION
  2
AcDbLongTransaction
  3
AutoCAD 2000
 90
    32768
280
     0
281
     0
  0
CLASS
  1
LWPOLYLINE
  2
AcDbPolyline
  3
AutoCAD 2000
 90
    32768
280
     0
281
     1
  0
CLASS
  1
HATCH
  2
AcDbHatch
  3
AutoCAD 2000
 90
    32768
280
     0
281
     1
  0
CLASS
  1
XRECORD
  2
AcDbXrecord
  3
AutoCAD 2000
 90
    32768
280
     0
281
     0
  0
ENDSEC
  0
SECTION
  2
TABLES
  0
TABLE
  2
VPORT
  5
8
330
0
100
AcDbSymbolTable
 70
     3
  0
VPORT
  5
31C1
330
8
100
AcDbSymbolTableRecord
100
AcDbViewportTableRecord
  2
*ACTIVE
 70
     0
 10
0.0
 20
0.0
 11
1.0
 21
1.0
 12
5.217192040199192
 22
6.712356099472005
 13
0.0
 23
0.0
 14
1.0
 24
1.0
 15
0.0
 25
0.0
 16
0.0
 26
0.0
 36
1.0
 17
0.0
 27
0.0
 37
0.0
 40
5.260101331290059
 41
1.601839684625492
 42
50.0
 43
0.0
 44
0.0
 50
0.0
 51
0.0
 71
     0
 72
   100
 73
     1
 74
     1
 75
     0
 76
     0
 77
     0
 78
     0
  0
ENDTAB
  0
TABLE
  2
LTYPE
  5
5
330
0
100
AcDbSymbolTable
 70
    25
  0
LTYPE
  5
13
330
5
100
AcDbSymbolTableRecord
100
AcDbLinetypeTableRecord
  2
BYBLOCK
 70
     0
  3

 72
    65
 73
     0
 40
0.0
  0
LTYPE
  5
14
330
5
100
AcDbSymbolTableRecord
100
AcDbLinetypeTableRecord
  2
BYLAYER
 70
     0
  3

 72
    65
 73
     0
 40
0.0
  0
LTYPE
  5
15
330
5
100
AcDbSymbolTableRecord
100
AcDbLinetypeTableRecord
  2
CONTINUOUS
 70
     0
  3
Solid line
 72
    65
 73
     0
 40
0.0
  0
LTYPE
  5
22
330
5
100
AcDbSymbolTableRecord
100
AcDbLinetypeTableRecord
  2
BORDER
 70
     0
  3
__ __ . __ __ . __ __ . __ __ . __ __ . __ __ .
 72
    65
 73
     6
 40
1.75
 49
0.5
 74
     0
 49
-0.25
 74
     0
 49
0.5
 74
     0
 49
-0.25
 74
     0
 49
0.5
 74
     0
 49
-0.25
 74
     0
  0
LTYPE
  5
23
330
5
100
AcDbSymbolTableRecord
100
AcDbLinetypeTableRecord
  2
BORDER2
 70
     0
  3
__.__.__.__.__.__.__.__.__.__.__.__.__.__.__.__
 72
    65
 73
     6
 40
0.875
 49
0.25
 74
     0
 49
-0.125
 74
     0
 49
0.25
 74
     0
 49
-0.125
 74
     0
 49
0.25
 74
     0
 49
-0.125
 74
     0
  0
LTYPE
  5
24
330
5
100
AcDbSymbolTableRecord
100
AcDbLinetypeTableRecord
  2
BORDERX2
 70
     0
  3
____  ____  .  ____  ____  .  
 72
    65
 73
     6
 40
3.5
 49
1.0
 74
     0
 49
-0.5
 74
     0
 49
1.0
 74
     0
 49
-0.5
 74
     0
 49
1.0
 74
     0
 49
-0.5
 74
     0
  0
LTYPE
  5
25
330
5
100
AcDbSymbolTableRecord
100
AcDbLinetypeTableRecord
  2
CENTER
 70
     0
  3
____ _ ____ _ ____ _ ____ _ ____ _ ____ _ ____
 72
    65
 73
     4
 40
2.0
 49
1.25
 74
     0
 49
-0.25
 74
     0
 49
0.25
 74
     0
 49
-0.25
 74
     0
  0
LTYPE
  5
26
330
5
100
AcDbSymbolTableRecord
100
AcDbLinetypeTableRecord
  2
CENTER2
 70
     0
  3
____ _ ____ _ ____ _ ____ _ ____ _ ____ _ ____
 72
    65
 73
     4
 40
1.125
 49
0.75
 74
     0
 49
-0.125
 74
     0
 49
0.125
 74
     0
 49
-0.125
 74
     0
  0
LTYPE
  5
27
330
5
100
AcDbSymbolTableRecord
100
AcDbLinetypeTableRecord
  2
CENTERX2
 70
     0
  3
________  __  ________  __  ________  __  
 72
    65
 73
     4
 40
4.0
 49
2.5
 74
     0
 49
-0.5
 74
     0
 49
0.5
 74
     0
 49
-0.5
 74
     0
  0
LTYPE
  5
28
330
5
100
AcDbSymbolTableRecord
100
AcDbLinetypeTableRecord
  2
DASHDOT
 70
     0
  3
__ . __ . __ . __ . __ . __ . __ . 
 72
    65
 73
     4
 40
1.0
 49
0.5
 74
     0
 49
-0.25
 74
     0
 49
0.0
 74
     0
 49
-0.25
 74
     0
  0
LTYPE
  5
29
330
5
100
AcDbSymbolTableRecord
100
AcDbLinetypeTableRecord
  2
DASHDOT2
 70
     0
  3
_._._._._._._._._._._._._._._._.
 72
    65
 73
     4
 40
0.5
 49
0.25
 74
     0
 49
-0.125
 74
     0
 49
0.0
 74
     0
 49
-0.125
 74
     0
  0
LTYPE
  5
2A
330
5
100
AcDbSymbolTableRecord
100
AcDbLinetypeTableRecord
  2
DASHDOTX2
 70
     0
  3
____  .  ____  .  ____  .  ____  .  
 72
    65
 73
     4
 40
2.0
 49
1.0
 74
     0
 49
-0.5
 74
     0
 49
0.0
 74
     0
 49
-0.5
 74
     0
  0
LTYPE
  5
2B
330
5
100
AcDbSymbolTableRecord
100
AcDbLinetypeTableRecord
  2
DASHED
 70
     0
  3
__ __ __ __ __ __ __ __ __ __ __ __ 
 72
    65
 73
     2
 40
0.75
 49
0.5
 74
     0
 49
-0.25
 74
     0
  0
LTYPE
  5
2C
330
5
100
AcDbSymbolTableRecord
100
AcDbLinetypeTableRecord
  2
DASHED2
 70
     0
  3
_ _ _ _ _ _ _ _ _ _ _ _ _ _ _ _ _ _ 
 72
    65
 73
     2
 40
0.375
 49
0.25
 74
     0
 49
-0.125
 74
     0
  0
LTYPE
  5
2D
330
5
100
AcDbSymbolTableRecord
100
AcDbLinetypeTableRecord
  2
DASHEDX2
 70
     0
  3
____  ____  ____  ____  ____  ____  
 72
    65
 73
     2
 40
1.5
 49
1.0
 74
     0
 49
-0.5
 74
     0
  0
LTYPE
  5
2E
330
5
100
AcDbSymbolTableRecord
100
AcDbLinetypeTableRecord
  2
DIVIDE
 70
     0
  3
____ . . ____ . . ____ . . ____ . . 
 72
    65
 73
     6
 40
1.25
 49
0.5
 74
     0
 49
-0.25
 74
     0
 49
0.0
 74
     0
 49
-0.25
 74
     0
 49
0.0
 74
     0
 49
-0.25
 74
     0
  0
LTYPE
  5
2F
330
5
100
AcDbSymbolTableRecord
100
AcDbLinetypeTableRecord
  2
DIVIDE2
 70
     0
  3
__..__..__..__..__..__..__..__..__..
 72
    65
 73
     6
 40
0.625
 49
0.25
 74
     0
 49
-0.125
 74
     0
 49
0.0
 74
     0
 49
-0.125
 74
     0
 49
0.0
 74
     0
 49
-0.125
 74
     0
  0
LTYPE
  5
30
330
5
100
AcDbSymbolTableRecord
100
AcDbLinetypeTableRecord
  2
DIVIDEX2
 70
     0
  3
________  .  .  ________  .  .  ________  .  . 
 72
    65
 73
     6
 40
2.5
 49
1.0
 74
     0
 49
-0.5
 74
     0
 49
0.0
 74
     0
 49
-0.5
 74
     0
 49
0.0
 74
     0
 49
-0.5
 74
     0
  0
LTYPE
  5
31
330
5
100
AcDbSymbolTableRecord
100
AcDbLinetypeTableRecord
  2
DOT
 70
     0
  3
. . . . . . . . . . . . . . . . . . 
 72
    65
 73
     2
 40
0.25
 49
0.0
 74
     0
 49
-0.25
 74
     0
  0
LTYPE
  5
32
330
5
100
AcDbSymbolTableRecord
100
AcDbLinetypeTableRecord
  2
DOT2
 70
     0
  3
....................................
 72
    65
 73
     2
 40
0.125
 49
0.0
 74
     0
 49
-0.125
 74
     0
  0
LTYPE
  5
33
330
5
100
AcDbSymbolTableRecord
100
AcDbLinetypeTableRecord
  2
DOTX2
 70
     0
  3
.  .  .  .  .  .  .  .  .  .  .  .  .  
 72
    65
 73
     2
 40
0.5
 49
0.0
 74
     0
 49
-0.5
 74
     0
  0
LTYPE
  5
34
330
5
100
AcDbSymbolTableRecord
100
AcDbLinetypeTableRecord
  2
HIDDEN
 70
     0
  3
__ __ __ __ __ __ __ __ __ __ __ __ 
 72
    65
 73
     2
 40
0.375
 49
0.25
 74
     0
 49
-0.125
 74
     0
  0
LTYPE
  5
35
330
5
100
AcDbSymbolTableRecord
100
AcDbLinetypeTableRecord
  2
HIDDEN2
 70
     0
  3
_ _ _ _ _ _ _ _ _ _ _ _ _ _ _ _ _ _ 
 72
    65
 73
     2
 40
0.1875
 49
0.125
 74
     0
 49
-0.0625
 74
     0
  0
LTYPE
  5
36
330
5
100
AcDbSymbolTableRecord
100
AcDbLinetypeTableRecord
  2
HIDDENX2
 70
     0
  3
____ ____ ____ ____ ____ ____ ____ 
 72
    65
 73
     2
 40
0.75
 49
0.5
 74
     0
 49
-0.25
 74
     0
  0
LTYPE
  5
37
330
5
100
AcDbSymbolTableRecord
100
AcDbLinetypeTableRecord
  2
PHANTOM
 70
     0
  3
______  __  __  ______  __  __  
 72
    65
 73
     6
 40
2.5
 49
1.25
 74
     0
 49
-0.25
 74
     0
 49
0.25
 74
     0
 49
-0.25
 74
     0
 49
0.25
 74
     0
 49
-0.25
 74
     0
  0
LTYPE
  5
38
330
5
100
AcDbSymbolTableRecord
100
AcDbLinetypeTableRecord
  2
PHANTOM2
 70
     0
  3
___ _ _ ___ _ _ ___ _ _ ___ _ _ 
 72
    65
 73
     6
 40
1.25
 49
0.625
 74
     0
 49
-0.125
 74
     0
 49
0.125
 74
     0
 49
-0.125
 74
     0
 49
0.125
 74
     0
 49
-0.125
 74
     0
  0
LTYPE
  5
39
330
5
100
AcDbSymbolTableRecord
100
AcDbLinetypeTableRecord
  2
PHANTOMX2
 70
     0
  3
___ _ _ ___ _ _ ___ _ _ ___ _ _ 
 72
    65
 73
     6
 40
5.0
 49
2.5
 74
     0
 49
-0.5
 74
     0
 49
0.5
 74
     0
 49
-0.5
 74
     0
 49
0.5
 74
     0
 49
-0.5
 74
     0
  0
ENDTAB
  0
TABLE
  2
LAYER
  5
2
330
0
100
AcDbSymbolTable
 70
   257
  0
LAYER
  5
10
330
2
100
AcDbSymbolTableRecord
100
AcDbLayerTableRecord
  2
0
 70
     0
 62
     7
  6
CONTINUOUS
  0
LAYER
  5
3A
330
2
100
AcDbSymbolTableRecord
100
AcDbLayerTableRecord
  2
1
 70
     0
 62
     1
  6
CONTINUOUS
  0
LAYER
  5
3B
330
2
100
AcDbSymbolTableRecord
100
AcDbLayerTableRecord
  2
2
 70
     0
 62
     2
  6
CONTINUOUS
  0
LAYER
  5
3C
330
2
100
AcDbSymbolTableRecord
100
AcDbLayerTableRecord
  2
3
 70
     0
 62
     3
  6
CONTINUOUS
  0
LAYER
  5
3D
330
2
100
AcDbSymbolTableRecord
100
AcDbLayerTableRecord
  2
4
 70
     0
 62
     4
  6
CONTINUOUS
  0
LAYER
  5
3E
330
2
100
AcDbSymbolTableRecord
100
AcDbLayerTableRecord
  2
5
 70
     0
 62
     5
  6
CONTINUOUS
  0
LAYER
  5
3F
330
2
100
AcDbSymbolTableRecord
100
AcDbLayerTableRecord
  2
6
 70
     0
 62
     6
  6
CONTINUOUS
  0
LAYER
  5
40
330
2
100
AcDbSymbolTableRecord
100
AcDbLayerTableRecord
  2
7
 70
     0
 62
     7
  6
CONTINUOUS
  0
LAYER
  5
41
330
2
100
AcDbSymbolTableRecord
100
AcDbLayerTableRecord
  2
8
 70
     0
 62
     8
  6
CONTINUOUS
  0
LAYER
  5
42
330
2
100
AcDbSymbolTableRecord
100
AcDbLayerTableRecord
  2
9
 70
     0
 62
     9
  6
CONTINUOUS
  0
LAYER
  5
43
330
2
100
AcDbSymbolTableRecord
100
AcDbLayerTableRecord
  2
10
 70
     0
 62
    10
  6
CONTINUOUS
  0
LAYER
  5
44
330
2
100
AcDbSymbolTableRecord
100
AcDbLayerTableRecord
  2
11
 70
     0
 62
    11
  6
CONTINUOUS
  0
LAYER
  5
45
330
2
100
AcDbSymbolTableRecord
100
AcDbLayerTableRecord
  2
12
 70
     0
 62
    12
  6
CONTINUOUS
  0
LAYER
  5
46
330
2
100
AcDbSymbolTableRecord
100
AcDbLayerTableRecord
  2
13
 70
     0
 62
    13
  6
CONTINUOUS
  0
LAYER
  5
47
330
2
100
AcDbSymbolTableRecord
100
AcDbLayerTableRecord
  2
14
 70
     0
 62
    14
  6
CONTINUOUS
  0
LAYER
  5
48
330
2
100
AcDbSymbolTableRecord
100
AcDbLayerTableRecord
  2
15
 70
     0
 62
    15
  6
CONTINUOUS
  0
LAYER
  5
49
330
2
100
AcDbSymbolTableRecord
100
AcDbLayerTableRecord
  2
16
 70
     0
 62
    16
  6
CONTINUOUS
  0
LAYER
  5
4A
330
2
100
AcDbSymbolTableRecord
100
AcDbLayerTableRecord
  2
17
 70
     0
 62
    17
  6
CONTINUOUS
  0
LAYER
  5
4B
330
2
100
AcDbSymbolTableRecord
100
AcDbLayerTableRecord
  2
18
 70
     0
 62
    18
  6
CONTINUOUS
  0
LAYER
  5
4C
330
2
100
AcDbSymbolTableRecord
100
AcDbLayerTableRecord
  2
19
 70
     0
 62
    19
  6
CONTINUOUS
  0
LAYER
  5
4D
330
2
100
AcDbSymbolTableRecord
100
AcDbLayerTableRecord
  2
20
 70
     0
 62
    20
  6
CONTINUOUS
  0
LAYER
  5
4E
330
2
100
AcDbSymbolTableRecord
100
AcDbLayerTableRecord
  2
21
 70
     0
 62
    21
  6
CONTINUOUS
  0
LAYER
  5
4F
330
2
100
AcDbSymbolTableRecord
100
AcDbLayerTableRecord
  2
22
 70
     0
 62
    22
  6
CONTINUOUS
  0
LAYER
  5
50
330
2
100
AcDbSymbolTableRecord
100
AcDbLayerTableRecord
  2
23
 70
     0
 62
    23
  6
CONTINUOUS
  0
LAYER
  5
51
330
2
100
AcDbSymbolTableRecord
100
AcDbLayerTableRecord
  2
24
 70
     0
 62
    24
  6
CONTINUOUS
  0
LAYER
  5
52
330
2
100
AcDbSymbolTableRecord
100
AcDbLayerTableRecord
  2
25
 70
     0
 62
    25
  6
CONTINUOUS
  0
LAYER
  5
53
330
2
100
AcDbSymbolTableRecord
100
AcDbLayerTableRecord
  2
26
 70
     0
 62
    26
  6
CONTINUOUS
  0
LAYER
  5
54
330
2
100
AcDbSymbolTableRecord
100
AcDbLayerTableRecord
  2
27
 70
     0
 62
    27
  6
CONTINUOUS
  0
LAYER
  5
55
330
2
100
AcDbSymbolTableRecord
100
AcDbLayerTableRecord
  2
28
 70
     0
 62
    28
  6
CONTINUOUS
  0
LAYER
  5
56
330
2
100
AcDbSymbolTableRecord
100
AcDbLayerTableRecord
  2
29
 70
     0
 62
    29
  6
CONTINUOUS
  0
LAYER
  5
57
330
2
100
AcDbSymbolTableRecord
100
AcDbLayerTableRecord
  2
30
 70
     0
 62
    30
  6
CONTINUOUS
  0
LAYER
  5
58
330
2
100
AcDbSymbolTableRecord
100
AcDbLayerTableRecord
  2
31
 70
     0
 62
    31
  6
CONTINUOUS
  0
LAYER
  5
59
330
2
100
AcDbSymbolTableRecord
100
AcDbLayerTableRecord
  2
32
 70
     0
 62
    32
  6
CONTINUOUS
  0
LAYER
  5
5A
330
2
100
AcDbSymbolTableRecord
100
AcDbLayerTableRecord
  2
33
 70
     0
 62
    33
  6
CONTINUOUS
  0
LAYER
  5
5B
330
2
100
AcDbSymbolTableRecord
100
AcDbLayerTableRecord
  2
34
 70
     0
 62
    34
  6
CONTINUOUS
  0
LAYER
  5
5C
330
2
100
AcDbSymbolTableRecord
100
AcDbLayerTableRecord
  2
35
 70
     0
 62
    35
  6
CONTINUOUS
  0
LAYER
  5
5D
330
2
100
AcDbSymbolTableRecord
100
AcDbLayerTableRecord
  2
36
 70
     0
 62
    36
  6
CONTINUOUS
  0
LAYER
  5
5E
330
2
100
AcDbSymbolTableRecord
100
AcDbLayerTableRecord
  2
37
 70
     0
 62
    37
  6
CONTINUOUS
  0
LAYER
  5
5F
330
2
100
AcDbSymbolTableRecord
100
AcDbLayerTableRecord
  2
38
 70
     0
 62
    38
  6
CONTINUOUS
  0
LAYER
  5
60
330
2
100
AcDbSymbolTableRecord
100
AcDbLayerTableRecord
  2
39
 70
     0
 62
    39
  6
CONTINUOUS
  0
LAYER
  5
61
330
2
100
AcDbSymbolTableRecord
100
AcDbLayerTableRecord
  2
40
 70
     0
 62
    40
  6
CONTINUOUS
  0
LAYER
  5
62
330
2
100
AcDbSymbolTableRecord
100
AcDbLayerTableRecord
  2
41
 70
     0
 62
    41
  6
CONTINUOUS
  0
LAYER
  5
63
330
2
100
AcDbSymbolTableRecord
100
AcDbLayerTableRecord
  2
42
 70
     0
 62
    42
  6
CONTINUOUS
  0
LAYER
  5
64
330
2
100
AcDbSymbolTableRecord
100
AcDbLayerTableRecord
  2
43
 70
     0
 62
    43
  6
CONTINUOUS
  0
LAYER
  5
65
330
2
100
AcDbSymbolTableRecord
100
AcDbLayerTableRecord
  2
44
 70
     0
 62
    44
  6
CONTINUOUS
  0
LAYER
  5
66
330
2
100
AcDbSymbolTableRecord
100
AcDbLayerTableRecord
  2
45
 70
     0
 62
    45
  6
CONTINUOUS
  0
LAYER
  5
67
330
2
100
AcDbSymbolTableRecord
100
AcDbLayerTableRecord
  2
46
 70
     0
 62
    46
  6
CONTINUOUS
  0
LAYER
  5
68
330
2
100
AcDbSymbolTableRecord
100
AcDbLayerTableRecord
  2
47
 70
     0
 62
    47
  6
CONTINUOUS
  0
LAYER
  5
69
330
2
100
AcDbSymbolTableRecord
100
AcDbLayerTableRecord
  2
48
 70
     0
 62
    48
  6
CONTINUOUS
  0
LAYER
  5
6A
330
2
100
AcDbSymbolTableRecord
100
AcDbLayerTableRecord
  2
49
 70
     0
 62
    49
  6
CONTINUOUS
  0
LAYER
  5
6B
330
2
100
AcDbSymbolTableRecord
100
AcDbLayerTableRecord
  2
50
 70
     0
 62
    50
  6
CONTINUOUS
  0
LAYER
  5
6C
330
2
100
AcDbSymbolTableRecord
100
AcDbLayerTableRecord
  2
51
 70
     0
 62
    51
  6
CONTINUOUS
  0
LAYER
  5
6D
330
2
100
AcDbSymbolTableRecord
100
AcDbLayerTableRecord
  2
52
 70
     0
 62
    52
  6
CONTINUOUS
  0
LAYER
  5
6E
330
2
100
AcDbSymbolTableRecord
100
AcDbLayerTableRecord
  2
53
 70
     0
 62
    53
  6
CONTINUOUS
  0
LAYER
  5
6F
330
2
100
AcDbSymbolTableRecord
100
AcDbLayerTableRecord
  2
54
 70
     0
 62
    54
  6
CONTINUOUS
  0
LAYER
  5
70
330
2
100
AcDbSymbolTableRecord
100
AcDbLayerTableRecord
  2
55
 70
     0
 62
    55
  6
CONTINUOUS
  0
LAYER
  5
71
330
2
100
AcDbSymbolTableRecord
100
AcDbLayerTableRecord
  2
56
 70
     0
 62
    56
  6
CONTINUOUS
  0
LAYER
  5
72
330
2
100
AcDbSymbolTableRecord
100
AcDbLayerTableRecord
  2
57
 70
     0
 62
    57
  6
CONTINUOUS
  0
LAYER
  5
73
330
2
100
AcDbSymbolTableRecord
100
AcDbLayerTableRecord
  2
58
 70
     0
 62
    58
  6
CONTINUOUS
  0
LAYER
  5
74
330
2
100
AcDbSymbolTableRecord
100
AcDbLayerTableRecord
  2
59
 70
     0
 62
    59
  6
CONTINUOUS
  0
LAYER
  5
75
330
2
100
AcDbSymbolTableRecord
100
AcDbLayerTableRecord
  2
60
 70
     0
 62
    60
  6
CONTINUOUS
  0
LAYER
  5
76
330
2
100
AcDbSymbolTableRecord
100
AcDbLayerTableRecord
  2
61
 70
     0
 62
    61
  6
CONTINUOUS
  0
LAYER
  5
77
330
2
100
AcDbSymbolTableRecord
100
AcDbLayerTableRecord
  2
62
 70
     0
 62
    62
  6
CONTINUOUS
  0
LAYER
  5
78
330
2
100
AcDbSymbolTableRecord
100
AcDbLayerTableRecord
  2
63
 70
     0
 62
    63
  6
CONTINUOUS
  0
LAYER
  5
79
330
2
100
AcDbSymbolTableRecord
100
AcDbLayerTableRecord
  2
64
 70
     0
 62
    64
  6
CONTINUOUS
  0
LAYER
  5
7A
330
2
100
AcDbSymbolTableRecord
100
AcDbLayerTableRecord
  2
65
 70
     0
 62
    65
  6
CONTINUOUS
  0
LAYER
  5
7B
330
2
100
AcDbSymbolTableRecord
100
AcDbLayerTableRecord
  2
66
 70
     0
 62
    66
  6
CONTINUOUS
  0
LAYER
  5
7C
330
2
100
AcDbSymbolTableRecord
100
AcDbLayerTableRecord
  2
67
 70
     0
 62
    67
  6
CONTINUOUS
  0
LAYER
  5
7D
330
2
100
AcDbSymbolTableRecord
100
AcDbLayerTableRecord
  2
68
 70
     0
 62
    68
  6
CONTINUOUS
  0
LAYER
  5
7E
330
2
100
AcDbSymbolTableRecord
100
AcDbLayerTableRecord
  2
69
 70
     0
 62
    69
  6
CONTINUOUS
  0
LAYER
  5
7F
330
2
100
AcDbSymbolTableRecord
100
AcDbLayerTableRecord
  2
70
 70
     0
 62
    70
  6
CONTINUOUS
  0
LAYER
  5
80
330
2
100
AcDbSymbolTableRecord
100
AcDbLayerTableRecord
  2
71
 70
     0
 62
    71
  6
CONTINUOUS
  0
LAYER
  5
81
330
2
100
AcDbSymbolTableRecord
100
AcDbLayerTableRecord
  2
72
 70
     0
 62
    72
  6
CONTINUOUS
  0
LAYER
  5
82
330
2
100
AcDbSymbolTableRecord
100
AcDbLayerTableRecord
  2
73
 70
     0
 62
    73
  6
CONTINUOUS
  0
LAYER
  5
83
330
2
100
AcDbSymbolTableRecord
100
AcDbLayerTableRecord
  2
74
 70
     0
 62
    74
  6
CONTINUOUS
  0
LAYER
  5
84
330
2
100
AcDbSymbolTableRecord
100
AcDbLayerTableRecord
  2
75
 70
     0
 62
    75
  6
CONTINUOUS
  0
LAYER
  5
85
330
2
100
AcDbSymbolTableRecord
100
AcDbLayerTableRecord
  2
76
 70
     0
 62
    76
  6
CONTINUOUS
  0
LAYER
  5
86
330
2
100
AcDbSymbolTableRecord
100
AcDbLayerTableRecord
  2
77
 70
     0
 62
    77
  6
CONTINUOUS
  0
LAYER
  5
87
330
2
100
AcDbSymbolTableRecord
100
AcDbLayerTableRecord
  2
78
 70
     0
 62
    78
  6
CONTINUOUS
  0
LAYER
  5
88
330
2
100
AcDbSymbolTableRecord
100
AcDbLayerTableRecord
  2
79
 70
     0
 62
    79
  6
CONTINUOUS
  0
LAYER
  5
89
330
2
100
AcDbSymbolTableRecord
100
AcDbLayerTableRecord
  2
80
 70
     0
 62
    80
  6
CONTINUOUS
  0
LAYER
  5
8A
330
2
100
AcDbSymbolTableRecord
100
AcDbLayerTableRecord
  2
81
 70
     0
 62
    81
  6
CONTINUOUS
  0
LAYER
  5
8B
330
2
100
AcDbSymbolTableRecord
100
AcDbLayerTableRecord
  2
82
 70
     0
 62
    82
  6
CONTINUOUS
  0
LAYER
  5
8C
330
2
100
AcDbSymbolTableRecord
100
AcDbLayerTableRecord
  2
83
 70
     0
 62
    83
  6
CONTINUOUS
  0
LAYER
  5
8D
330
2
100
AcDbSymbolTableRecord
100
AcDbLayerTableRecord
  2
84
 70
     0
 62
    84
  6
CONTINUOUS
  0
LAYER
  5
8E
330
2
100
AcDbSymbolTableRecord
100
AcDbLayerTableRecord
  2
85
 70
     0
 62
    85
  6
CONTINUOUS
  0
LAYER
  5
8F
330
2
100
AcDbSymbolTableRecord
100
AcDbLayerTableRecord
  2
86
 70
     0
 62
    86
  6
CONTINUOUS
  0
LAYER
  5
90
330
2
100
AcDbSymbolTableRecord
100
AcDbLayerTableRecord
  2
87
 70
     0
 62
    87
  6
CONTINUOUS
  0
LAYER
  5
91
330
2
100
AcDbSymbolTableRecord
100
AcDbLayerTableRecord
  2
88
 70
     0
 62
    88
  6
CONTINUOUS
  0
LAYER
  5
92
330
2
100
AcDbSymbolTableRecord
100
AcDbLayerTableRecord
  2
89
 70
     0
 62
    89
  6
CONTINUOUS
  0
LAYER
  5
93
330
2
100
AcDbSymbolTableRecord
100
AcDbLayerTableRecord
  2
90
 70
     0
 62
    90
  6
CONTINUOUS
  0
LAYER
  5
94
330
2
100
AcDbSymbolTableRecord
100
AcDbLayerTableRecord
  2
91
 70
     0
 62
    91
  6
CONTINUOUS
  0
LAYER
  5
95
330
2
100
AcDbSymbolTableRecord
100
AcDbLayerTableRecord
  2
92
 70
     0
 62
    92
  6
CONTINUOUS
  0
LAYER
  5
96
330
2
100
AcDbSymbolTableRecord
100
AcDbLayerTableRecord
  2
93
 70
     0
 62
    93
  6
CONTINUOUS
  0
LAYER
  5
97
330
2
100
AcDbSymbolTableRecord
100
AcDbLayerTableRecord
  2
94
 70
     0
 62
    94
  6
CONTINUOUS
  0
LAYER
  5
98
330
2
100
AcDbSymbolTableRecord
100
AcDbLayerTableRecord
  2
95
 70
     0
 62
    95
  6
CONTINUOUS
  0
LAYER
  5
99
330
2
100
AcDbSymbolTableRecord
100
AcDbLayerTableRecord
  2
96
 70
     0
 62
    96
  6
CONTINUOUS
  0
LAYER
  5
9A
330
2
100
AcDbSymbolTableRecord
100
AcDbLayerTableRecord
  2
97
 70
     0
 62
    97
  6
CONTINUOUS
  0
LAYER
  5
9B
330
2
100
AcDbSymbolTableRecord
100
AcDbLayerTableRecord
  2
98
 70
     0
 62
    98
  6
CONTINUOUS
  0
LAYER
  5
9C
330
2
100
AcDbSymbolTableRecord
100
AcDbLayerTableRecord
  2
99
 70
     0
 62
    99
  6
CONTINUOUS
  0
LAYER
  5
9D
330
2
100
AcDbSymbolTableRecord
100
AcDbLayerTableRecord
  2
100
 70
     0
 62
   100
  6
CONTINUOUS
  0
LAYER
  5
9E
330
2
100
AcDbSymbolTableRecord
100
AcDbLayerTableRecord
  2
101
 70
     0
 62
   101
  6
CONTINUOUS
  0
LAYER
  5
9F
330
2
100
AcDbSymbolTableRecord
100
AcDbLayerTableRecord
  2
102
 70
     0
 62
   102
  6
CONTINUOUS
  0
LAYER
  5
A0
330
2
100
AcDbSymbolTableRecord
100
AcDbLayerTableRecord
  2
103
 70
     0
 62
   103
  6
CONTINUOUS
  0
LAYER
  5
A1
330
2
100
AcDbSymbolTableRecord
100
AcDbLayerTableRecord
  2
104
 70
     0
 62
   104
  6
CONTINUOUS
  0
LAYER
  5
A2
330
2
100
AcDbSymbolTableRecord
100
AcDbLayerTableRecord
  2
105
 70
     0
 62
   105
  6
CONTINUOUS
  0
LAYER
  5
A3
330
2
100
AcDbSymbolTableRecord
100
AcDbLayerTableRecord
  2
106
 70
     0
 62
   106
  6
CONTINUOUS
  0
LAYER
  5
A4
330
2
100
AcDbSymbolTableRecord
100
AcDbLayerTableRecord
  2
107
 70
     0
 62
   107
  6
CONTINUOUS
  0
LAYER
  5
A5
330
2
100
AcDbSymbolTableRecord
100
AcDbLayerTableRecord
  2
108
 70
     0
 62
   108
  6
CONTINUOUS
  0
LAYER
  5
A6
330
2
100
AcDbSymbolTableRecord
100
AcDbLayerTableRecord
  2
109
 70
     0
 62
   109
  6
CONTINUOUS
  0
LAYER
  5
A7
330
2
100
AcDbSymbolTableRecord
100
AcDbLayerTableRecord
  2
110
 70
     0
 62
   110
  6
CONTINUOUS
  0
LAYER
  5
A8
330
2
100
AcDbSymbolTableRecord
100
AcDbLayerTableRecord
  2
111
 70
     0
 62
   111
  6
CONTINUOUS
  0
LAYER
  5
A9
330
2
100
AcDbSymbolTableRecord
100
AcDbLayerTableRecord
  2
112
 70
     0
 62
   112
  6
CONTINUOUS
  0
LAYER
  5
AA
330
2
100
AcDbSymbolTableRecord
100
AcDbLayerTableRecord
  2
113
 70
     0
 62
   113
  6
CONTINUOUS
  0
LAYER
  5
AB
330
2
100
AcDbSymbolTableRecord
100
AcDbLayerTableRecord
  2
114
 70
     0
 62
   114
  6
CONTINUOUS
  0
LAYER
  5
AC
330
2
100
AcDbSymbolTableRecord
100
AcDbLayerTableRecord
  2
115
 70
     0
 62
   115
  6
CONTINUOUS
  0
LAYER
  5
AD
330
2
100
AcDbSymbolTableRecord
100
AcDbLayerTableRecord
  2
116
 70
     0
 62
   116
  6
CONTINUOUS
  0
LAYER
  5
AE
330
2
100
AcDbSymbolTableRecord
100
AcDbLayerTableRecord
  2
117
 70
     0
 62
   117
  6
CONTINUOUS
  0
LAYER
  5
AF
330
2
100
AcDbSymbolTableRecord
100
AcDbLayerTableRecord
  2
118
 70
     0
 62
   118
  6
CONTINUOUS
  0
LAYER
  5
B0
330
2
100
AcDbSymbolTableRecord
100
AcDbLayerTableRecord
  2
119
 70
     0
 62
   119
  6
CONTINUOUS
  0
LAYER
  5
B1
330
2
100
AcDbSymbolTableRecord
100
AcDbLayerTableRecord
  2
120
 70
     0
 62
   120
  6
CONTINUOUS
  0
LAYER
  5
B2
330
2
100
AcDbSymbolTableRecord
100
AcDbLayerTableRecord
  2
121
 70
     0
 62
   121
  6
CONTINUOUS
  0
LAYER
  5
B3
330
2
100
AcDbSymbolTableRecord
100
AcDbLayerTableRecord
  2
122
 70
     0
 62
   122
  6
CONTINUOUS
  0
LAYER
  5
B4
330
2
100
AcDbSymbolTableRecord
100
AcDbLayerTableRecord
  2
123
 70
     0
 62
   123
  6
CONTINUOUS
  0
LAYER
  5
B5
330
2
100
AcDbSymbolTableRecord
100
AcDbLayerTableRecord
  2
124
 70
     0
 62
   124
  6
CONTINUOUS
  0
LAYER
  5
B6
330
2
100
AcDbSymbolTableRecord
100
AcDbLayerTableRecord
  2
125
 70
     0
 62
   125
  6
CONTINUOUS
  0
LAYER
  5
B7
330
2
100
AcDbSymbolTableRecord
100
AcDbLayerTableRecord
  2
126
 70
     0
 62
   126
  6
CONTINUOUS
  0
LAYER
  5
B8
330
2
100
AcDbSymbolTableRecord
100
AcDbLayerTableRecord
  2
127
 70
     0
 62
   127
  6
CONTINUOUS
  0
LAYER
  5
B9
330
2
100
AcDbSymbolTableRecord
100
AcDbLayerTableRecord
  2
128
 70
     0
 62
   128
  6
CONTINUOUS
  0
LAYER
  5
BA
330
2
100
AcDbSymbolTableRecord
100
AcDbLayerTableRecord
  2
129
 70
     0
 62
   129
  6
CONTINUOUS
  0
LAYER
  5
BB
330
2
100
AcDbSymbolTableRecord
100
AcDbLayerTableRecord
  2
130
 70
     0
 62
   130
  6
CONTINUOUS
  0
LAYER
  5
BC
330
2
100
AcDbSymbolTableRecord
100
AcDbLayerTableRecord
  2
131
 70
     0
 62
   131
  6
CONTINUOUS
  0
LAYER
  5
BD
330
2
100
AcDbSymbolTableRecord
100
AcDbLayerTableRecord
  2
132
 70
     0
 62
   132
  6
CONTINUOUS
  0
LAYER
  5
BE
330
2
100
AcDbSymbolTableRecord
100
AcDbLayerTableRecord
  2
133
 70
     0
 62
   133
  6
CONTINUOUS
  0
LAYER
  5
BF
330
2
100
AcDbSymbolTableRecord
100
AcDbLayerTableRecord
  2
134
 70
     0
 62
   134
  6
CONTINUOUS
  0
LAYER
  5
C0
330
2
100
AcDbSymbolTableRecord
100
AcDbLayerTableRecord
  2
135
 70
     0
 62
   135
  6
CONTINUOUS
  0
LAYER
  5
C1
330
2
100
AcDbSymbolTableRecord
100
AcDbLayerTableRecord
  2
136
 70
     0
 62
   136
  6
CONTINUOUS
  0
LAYER
  5
C2
330
2
100
AcDbSymbolTableRecord
100
AcDbLayerTableRecord
  2
137
 70
     0
 62
   137
  6
CONTINUOUS
  0
LAYER
  5
C3
330
2
100
AcDbSymbolTableRecord
100
AcDbLayerTableRecord
  2
138
 70
     0
 62
   138
  6
CONTINUOUS
  0
LAYER
  5
C4
330
2
100
AcDbSymbolTableRecord
100
AcDbLayerTableRecord
  2
139
 70
     0
 62
   139
  6
CONTINUOUS
  0
LAYER
  5
C5
330
2
100
AcDbSymbolTableRecord
100
AcDbLayerTableRecord
  2
140
 70
     0
 62
   140
  6
CONTINUOUS
  0
LAYER
  5
C6
330
2
100
AcDbSymbolTableRecord
100
AcDbLayerTableRecord
  2
141
 70
     0
 62
   141
  6
CONTINUOUS
  0
LAYER
  5
C7
330
2
100
AcDbSymbolTableRecord
100
AcDbLayerTableRecord
  2
142
 70
     0
 62
   142
  6
CONTINUOUS
  0
LAYER
  5
C8
330
2
100
AcDbSymbolTableRecord
100
AcDbLayerTableRecord
  2
143
 70
     0
 62
   143
  6
CONTINUOUS
  0
LAYER
  5
C9
330
2
100
AcDbSymbolTableRecord
100
AcDbLayerTableRecord
  2
144
 70
     0
 62
   144
  6
CONTINUOUS
  0
LAYER
  5
CA
330
2
100
AcDbSymbolTableRecord
100
AcDbLayerTableRecord
  2
145
 70
     0
 62
   145
  6
CONTINUOUS
  0
LAYER
  5
CB
330
2
100
AcDbSymbolTableRecord
100
AcDbLayerTableRecord
  2
146
 70
     0
 62
   146
  6
CONTINUOUS
  0
LAYER
  5
CC
330
2
100
AcDbSymbolTableRecord
100
AcDbLayerTableRecord
  2
147
 70
     0
 62
   147
  6
CONTINUOUS
  0
LAYER
  5
CD
330
2
100
AcDbSymbolTableRecord
100
AcDbLayerTableRecord
  2
148
 70
     0
 62
   148
  6
CONTINUOUS
  0
LAYER
  5
CE
330
2
100
AcDbSymbolTableRecord
100
AcDbLayerTableRecord
  2
149
 70
     0
 62
   149
  6
CONTINUOUS
  0
LAYER
  5
CF
330
2
100
AcDbSymbolTableRecord
100
AcDbLayerTableRecord
  2
150
 70
     0
 62
   150
  6
CONTINUOUS
  0
LAYER
  5
D0
330
2
100
AcDbSymbolTableRecord
100
AcDbLayerTableRecord
  2
151
 70
     0
 62
   151
  6
CONTINUOUS
  0
LAYER
  5
D1
330
2
100
AcDbSymbolTableRecord
100
AcDbLayerTableRecord
  2
152
 70
     0
 62
   152
  6
CONTINUOUS
  0
LAYER
  5
D2
330
2
100
AcDbSymbolTableRecord
100
AcDbLayerTableRecord
  2
153
 70
     0
 62
   153
  6
CONTINUOUS
  0
LAYER
  5
D3
330
2
100
AcDbSymbolTableRecord
100
AcDbLayerTableRecord
  2
154
 70
     0
 62
   154
  6
CONTINUOUS
  0
LAYER
  5
D4
330
2
100
AcDbSymbolTableRecord
100
AcDbLayerTableRecord
  2
155
 70
     0
 62
   155
  6
CONTINUOUS
  0
LAYER
  5
D5
330
2
100
AcDbSymbolTableRecord
100
AcDbLayerTableRecord
  2
156
 70
     0
 62
   156
  6
CONTINUOUS
  0
LAYER
  5
D6
330
2
100
AcDbSymbolTableRecord
100
AcDbLayerTableRecord
  2
157
 70
     0
 62
   157
  6
CONTINUOUS
  0
LAYER
  5
D7
330
2
100
AcDbSymbolTableRecord
100
AcDbLayerTableRecord
  2
158
 70
     0
 62
   158
  6
CONTINUOUS
  0
LAYER
  5
D8
330
2
100
AcDbSymbolTableRecord
100
AcDbLayerTableRecord
  2
159
 70
     0
 62
   159
  6
CONTINUOUS
  0
LAYER
  5
D9
330
2
100
AcDbSymbolTableRecord
100
AcDbLayerTableRecord
  2
160
 70
     0
 62
   160
  6
CONTINUOUS
  0
LAYER
  5
DA
330
2
100
AcDbSymbolTableRecord
100
AcDbLayerTableRecord
  2
161
 70
     0
 62
   161
  6
CONTINUOUS
  0
LAYER
  5
DB
330
2
100
AcDbSymbolTableRecord
100
AcDbLayerTableRecord
  2
162
 70
     0
 62
   162
  6
CONTINUOUS
  0
LAYER
  5
DC
330
2
100
AcDbSymbolTableRecord
100
AcDbLayerTableRecord
  2
163
 70
     0
 62
   163
  6
CONTINUOUS
  0
LAYER
  5
DD
330
2
100
AcDbSymbolTableRecord
100
AcDbLayerTableRecord
  2
164
 70
     0
 62
   164
  6
CONTINUOUS
  0
LAYER
  5
DE
330
2
100
AcDbSymbolTableRecord
100
AcDbLayerTableRecord
  2
165
 70
     0
 62
   165
  6
CONTINUOUS
  0
LAYER
  5
DF
330
2
100
AcDbSymbolTableRecord
100
AcDbLayerTableRecord
  2
166
 70
     0
 62
   166
  6
CONTINUOUS
  0
LAYER
  5
E0
330
2
100
AcDbSymbolTableRecord
100
AcDbLayerTableRecord
  2
167
 70
     0
 62
   167
  6
CONTINUOUS
  0
LAYER
  5
E1
330
2
100
AcDbSymbolTableRecord
100
AcDbLayerTableRecord
  2
168
 70
     0
 62
   168
  6
CONTINUOUS
  0
LAYER
  5
E2
330
2
100
AcDbSymbolTableRecord
100
AcDbLayerTableRecord
  2
169
 70
     0
 62
   169
  6
CONTINUOUS
  0
LAYER
  5
E3
330
2
100
AcDbSymbolTableRecord
100
AcDbLayerTableRecord
  2
170
 70
     0
 62
   170
  6
CONTINUOUS
  0
LAYER
  5
E4
330
2
100
AcDbSymbolTableRecord
100
AcDbLayerTableRecord
  2
171
 70
     0
 62
   171
  6
CONTINUOUS
  0
LAYER
  5
E5
330
2
100
AcDbSymbolTableRecord
100
AcDbLayerTableRecord
  2
172
 70
     0
 62
   172
  6
CONTINUOUS
  0
LAYER
  5
E6
330
2
100
AcDbSymbolTableRecord
100
AcDbLayerTableRecord
  2
173
 70
     0
 62
   173
  6
CONTINUOUS
  0
LAYER
  5
E7
330
2
100
AcDbSymbolTableRecord
100
AcDbLayerTableRecord
  2
174
 70
     0
 62
   174
  6
CONTINUOUS
  0
LAYER
  5
E8
330
2
100
AcDbSymbolTableRecord
100
AcDbLayerTableRecord
  2
175
 70
     0
 62
   175
  6
CONTINUOUS
  0
LAYER
  5
E9
330
2
100
AcDbSymbolTableRecord
100
AcDbLayerTableRecord
  2
176
 70
     0
 62
   176
  6
CONTINUOUS
  0
LAYER
  5
EA
330
2
100
AcDbSymbolTableRecord
100
AcDbLayerTableRecord
  2
177
 70
     0
 62
   177
  6
CONTINUOUS
  0
LAYER
  5
EB
330
2
100
AcDbSymbolTableRecord
100
AcDbLayerTableRecord
  2
178
 70
     0
 62
   178
  6
CONTINUOUS
  0
LAYER
  5
EC
330
2
100
AcDbSymbolTableRecord
100
AcDbLayerTableRecord
  2
179
 70
     0
 62
   179
  6
CONTINUOUS
  0
LAYER
  5
ED
330
2
100
AcDbSymbolTableRecord
100
AcDbLayerTableRecord
  2
180
 70
     0
 62
   180
  6
CONTINUOUS
  0
LAYER
  5
EE
330
2
100
AcDbSymbolTableRecord
100
AcDbLayerTableRecord
  2
181
 70
     0
 62
   181
  6
CONTINUOUS
  0
LAYER
  5
EF
330
2
100
AcDbSymbolTableRecord
100
AcDbLayerTableRecord
  2
182
 70
     0
 62
   182
  6
CONTINUOUS
  0
LAYER
  5
F0
330
2
100
AcDbSymbolTableRecord
100
AcDbLayerTableRecord
  2
183
 70
     0
 62
   183
  6
CONTINUOUS
  0
LAYER
  5
F1
330
2
100
AcDbSymbolTableRecord
100
AcDbLayerTableRecord
  2
184
 70
     0
 62
   184
  6
CONTINUOUS
  0
LAYER
  5
F2
330
2
100
AcDbSymbolTableRecord
100
AcDbLayerTableRecord
  2
185
 70
     0
 62
   185
  6
CONTINUOUS
  0
LAYER
  5
F3
330
2
100
AcDbSymbolTableRecord
100
AcDbLayerTableRecord
  2
186
 70
     0
 62
   186
  6
CONTINUOUS
  0
LAYER
  5
F4
330
2
100
AcDbSymbolTableRecord
100
AcDbLayerTableRecord
  2
187
 70
     0
 62
   187
  6
CONTINUOUS
  0
LAYER
  5
F5
330
2
100
AcDbSymbolTableRecord
100
AcDbLayerTableRecord
  2
188
 70
     0
 62
   188
  6
CONTINUOUS
  0
LAYER
  5
F6
330
2
100
AcDbSymbolTableRecord
100
AcDbLayerTableRecord
  2
189
 70
     0
 62
   189
  6
CONTINUOUS
  0
LAYER
  5
F7
330
2
100
AcDbSymbolTableRecord
100
AcDbLayerTableRecord
  2
190
 70
     0
 62
   190
  6
CONTINUOUS
  0
LAYER
  5
F8
330
2
100
AcDbSymbolTableRecord
100
AcDbLayerTableRecord
  2
191
 70
     0
 62
   191
  6
CONTINUOUS
  0
LAYER
  5
F9
330
2
100
AcDbSymbolTableRecord
100
AcDbLayerTableRecord
  2
192
 70
     0
 62
   192
  6
CONTINUOUS
  0
LAYER
  5
FA
330
2
100
AcDbSymbolTableRecord
100
AcDbLayerTableRecord
  2
193
 70
     0
 62
   193
  6
CONTINUOUS
  0
LAYER
  5
FB
330
2
100
AcDbSymbolTableRecord
100
AcDbLayerTableRecord
  2
194
 70
     0
 62
   194
  6
CONTINUOUS
  0
LAYER
  5
FC
330
2
100
AcDbSymbolTableRecord
100
AcDbLayerTableRecord
  2
195
 70
     0
 62
   195
  6
CONTINUOUS
  0
LAYER
  5
FD
330
2
100
AcDbSymbolTableRecord
100
AcDbLayerTableRecord
  2
196
 70
     0
 62
   196
  6
CONTINUOUS
  0
LAYER
  5
FE
330
2
100
AcDbSymbolTableRecord
100
AcDbLayerTableRecord
  2
197
 70
     0
 62
   197
  6
CONTINUOUS
  0
LAYER
  5
FF
330
2
100
AcDbSymbolTableRecord
100
AcDbLayerTableRecord
  2
198
 70
     0
 62
   198
  6
CONTINUOUS
  0
LAYER
  5
100
330
2
100
AcDbSymbolTableRecord
100
AcDbLayerTableRecord
  2
199
 70
     0
 62
   199
  6
CONTINUOUS
  0
LAYER
  5
101
330
2
100
AcDbSymbolTableRecord
100
AcDbLayerTableRecord
  2
200
 70
     0
 62
   200
  6
CONTINUOUS
  0
LAYER
  5
102
330
2
100
AcDbSymbolTableRecord
100
AcDbLayerTableRecord
  2
201
 70
     0
 62
   201
  6
CONTINUOUS
  0
LAYER
  5
103
330
2
100
AcDbSymbolTableRecord
100
AcDbLayerTableRecord
  2
202
 70
     0
 62
   202
  6
CONTINUOUS
  0
LAYER
  5
104
330
2
100
AcDbSymbolTableRecord
100
AcDbLayerTableRecord
  2
203
 70
     0
 62
   203
  6
CONTINUOUS
  0
LAYER
  5
105
330
2
100
AcDbSymbolTableRecord
100
AcDbLayerTableRecord
  2
204
 70
     0
 62
   204
  6
CONTINUOUS
  0
LAYER
  5
106
330
2
100
AcDbSymbolTableRecord
100
AcDbLayerTableRecord
  2
205
 70
     0
 62
   205
  6
CONTINUOUS
  0
LAYER
  5
107
330
2
100
AcDbSymbolTableRecord
100
AcDbLayerTableRecord
  2
206
 70
     0
 62
   206
  6
CONTINUOUS
  0
LAYER
  5
108
330
2
100
AcDbSymbolTableRecord
100
AcDbLayerTableRecord
  2
207
 70
     0
 62
   207
  6
CONTINUOUS
  0
LAYER
  5
109
330
2
100
AcDbSymbolTableRecord
100
AcDbLayerTableRecord
  2
208
 70
     0
 62
   208
  6
CONTINUOUS
  0
LAYER
  5
10A
330
2
100
AcDbSymbolTableRecord
100
AcDbLayerTableRecord
  2
209
 70
     0
 62
   209
  6
CONTINUOUS
  0
LAYER
  5
10B
330
2
100
AcDbSymbolTableRecord
100
AcDbLayerTableRecord
  2
210
 70
     0
 62
   210
  6
CONTINUOUS
  0
LAYER
  5
10C
330
2
100
AcDbSymbolTableRecord
100
AcDbLayerTableRecord
  2
211
 70
     0
 62
   211
  6
CONTINUOUS
  0
LAYER
  5
10D
330
2
100
AcDbSymbolTableRecord
100
AcDbLayerTableRecord
  2
212
 70
     0
 62
   212
  6
CONTINUOUS
  0
LAYER
  5
10E
330
2
100
AcDbSymbolTableRecord
100
AcDbLayerTableRecord
  2
213
 70
     0
 62
   213
  6
CONTINUOUS
  0
LAYER
  5
10F
330
2
100
AcDbSymbolTableRecord
100
AcDbLayerTableRecord
  2
214
 70
     0
 62
   214
  6
CONTINUOUS
  0
LAYER
  5
110
330
2
100
AcDbSymbolTableRecord
100
AcDbLayerTableRecord
  2
215
 70
     0
 62
   215
  6
CONTINUOUS
  0
LAYER
  5
111
330
2
100
AcDbSymbolTableRecord
100
AcDbLayerTableRecord
  2
216
 70
     0
 62
   216
  6
CONTINUOUS
  0
LAYER
  5
112
330
2
100
AcDbSymbolTableRecord
100
AcDbLayerTableRecord
  2
217
 70
     0
 62
   217
  6
CONTINUOUS
  0
LAYER
  5
113
330
2
100
AcDbSymbolTableRecord
100
AcDbLayerTableRecord
  2
218
 70
     0
 62
   218
  6
CONTINUOUS
  0
LAYER
  5
114
330
2
100
AcDbSymbolTableRecord
100
AcDbLayerTableRecord
  2
219
 70
     0
 62
   219
  6
CONTINUOUS
  0
LAYER
  5
115
330
2
100
AcDbSymbolTableRecord
100
AcDbLayerTableRecord
  2
220
 70
     0
 62
   220
  6
CONTINUOUS
  0
LAYER
  5
116
330
2
100
AcDbSymbolTableRecord
100
AcDbLayerTableRecord
  2
221
 70
     0
 62
   221
  6
CONTINUOUS
  0
LAYER
  5
117
330
2
100
AcDbSymbolTableRecord
100
AcDbLayerTableRecord
  2
222
 70
     0
 62
   222
  6
CONTINUOUS
  0
LAYER
  5
118
330
2
100
AcDbSymbolTableRecord
100
AcDbLayerTableRecord
  2
223
 70
     0
 62
   223
  6
CONTINUOUS
  0
LAYER
  5
119
330
2
100
AcDbSymbolTableRecord
100
AcDbLayerTableRecord
  2
224
 70
     0
 62
   224
  6
CONTINUOUS
  0
LAYER
  5
11A
330
2
100
AcDbSymbolTableRecord
100
AcDbLayerTableRecord
  2
225
 70
     0
 62
   225
  6
CONTINUOUS
  0
LAYER
  5
11B
330
2
100
AcDbSymbolTableRecord
100
AcDbLayerTableRecord
  2
226
 70
     0
 62
   226
  6
CONTINUOUS
  0
LAYER
  5
11C
330
2
100
AcDbSymbolTableRecord
100
AcDbLayerTableRecord
  2
227
 70
     0
 62
   227
  6
CONTINUOUS
  0
LAYER
  5
11D
330
2
100
AcDbSymbolTableRecord
100
AcDbLayerTableRecord
  2
228
 70
     0
 62
   228
  6
CONTINUOUS
  0
LAYER
  5
11E
330
2
100
AcDbSymbolTableRecord
100
AcDbLayerTableRecord
  2
229
 70
     0
 62
   229
  6
CONTINUOUS
  0
LAYER
  5
11F
330
2
100
AcDbSymbolTableRecord
100
AcDbLayerTableRecord
  2
230
 70
     0
 62
   230
  6
CONTINUOUS
  0
LAYER
  5
120
330
2
100
AcDbSymbolTableRecord
100
AcDbLayerTableRecord
  2
231
 70
     0
 62
   231
  6
CONTINUOUS
  0
LAYER
  5
121
330
2
100
AcDbSymbolTableRecord
100
AcDbLayerTableRecord
  2
232
 70
     0
 62
   232
  6
CONTINUOUS
  0
LAYER
  5
122
330
2
100
AcDbSymbolTableRecord
100
AcDbLayerTableRecord
  2
233
 70
     0
 62
   233
  6
CONTINUOUS
  0
LAYER
  5
123
330
2
100
AcDbSymbolTableRecord
100
AcDbLayerTableRecord
  2
234
 70
     0
 62
   234
  6
CONTINUOUS
  0
LAYER
  5
124
330
2
100
AcDbSymbolTableRecord
100
AcDbLayerTableRecord
  2
235
 70
     0
 62
   235
  6
CONTINUOUS
  0
LAYER
  5
125
330
2
100
AcDbSymbolTableRecord
100
AcDbLayerTableRecord
  2
236
 70
     0
 62
   236
  6
CONTINUOUS
  0
LAYER
  5
126
330
2
100
AcDbSymbolTableRecord
100
AcDbLayerTableRecord
  2
237
 70
     0
 62
   237
  6
CONTINUOUS
  0
LAYER
  5
127
330
2
100
AcDbSymbolTableRecord
100
AcDbLayerTableRecord
  2
238
 70
     0
 62
   238
  6
CONTINUOUS
  0
LAYER
  5
128
330
2
100
AcDbSymbolTableRecord
100
AcDbLayerTableRecord
  2
239
 70
     0
 62
   239
  6
CONTINUOUS
  0
LAYER
  5
129
330
2
100
AcDbSymbolTableRecord
100
AcDbLayerTableRecord
  2
240
 70
     0
 62
   240
  6
CONTINUOUS
  0
LAYER
  5
12A
330
2
100
AcDbSymbolTableRecord
100
AcDbLayerTableRecord
  2
241
 70
     0
 62
   241
  6
CONTINUOUS
  0
LAYER
  5
12B
330
2
100
AcDbSymbolTableRecord
100
AcDbLayerTableRecord
  2
242
 70
     0
 62
   242
  6
CONTINUOUS
  0
LAYER
  5
12C
330
2
100
AcDbSymbolTableRecord
100
AcDbLayerTableRecord
  2
243
 70
     0
 62
   243
  6
CONTINUOUS
  0
LAYER
  5
12D
330
2
100
AcDbSymbolTableRecord
100
AcDbLayerTableRecord
  2
244
 70
     0
 62
   244
  6
CONTINUOUS
  0
LAYER
  5
12E
330
2
100
AcDbSymbolTableRecord
100
AcDbLayerTableRecord
  2
245
 70
     0
 62
   245
  6
CONTINUOUS
  0
LAYER
  5
12F
330
2
100
AcDbSymbolTableRecord
100
AcDbLayerTableRecord
  2
246
 70
     0
 62
   246
  6
CONTINUOUS
  0
LAYER
  5
130
330
2
100
AcDbSymbolTableRecord
100
AcDbLayerTableRecord
  2
247
 70
     0
 62
   247
  6
CONTINUOUS
  0
LAYER
  5
131
330
2
100
AcDbSymbolTableRecord
100
AcDbLayerTableRecord
  2
248
 70
     0
 62
   248
  6
CONTINUOUS
  0
LAYER
  5
132
330
2
100
AcDbSymbolTableRecord
100
AcDbLayerTableRecord
  2
249
 70
     0
 62
   249
  6
CONTINUOUS
  0
LAYER
  5
133
330
2
100
AcDbSymbolTableRecord
100
AcDbLayerTableRecord
  2
250
 70
     0
 62
   250
  6
CONTINUOUS
  0
LAYER
  5
134
330
2
100
AcDbSymbolTableRecord
100
AcDbLayerTableRecord
  2
251
 70
     0
 62
   251
  6
CONTINUOUS
  0
LAYER
  5
135
330
2
100
AcDbSymbolTableRecord
100
AcDbLayerTableRecord
  2
252
 70
     0
 62
   252
  6
CONTINUOUS
  0
LAYER
  5
136
330
2
100
AcDbSymbolTableRecord
100
AcDbLayerTableRecord
  2
253
 70
     0
 62
   253
  6
CONTINUOUS
  0
LAYER
  5
137
330
2
100
AcDbSymbolTableRecord
100
AcDbLayerTableRecord
  2
254
 70
     0
 62
   254
  6
CONTINUOUS
  0
LAYER
  5
138
330
2
100
AcDbSymbolTableRecord
100
AcDbLayerTableRecord
  2
255
 70
     0
 62
   255
  6
CONTINUOUS
  0
LAYER
  5
3173
330
2
100
AcDbSymbolTableRecord
100
AcDbLayerTableRecord
  2
DEFPOINTS
 70
     0
 62
     7
  6
CONTINUOUS
  0
ENDTAB
  0
TABLE
  2
STYLE
  5
3
330
0
100
AcDbSymbolTable
 70
     1
  0
STYLE
  5
11
330
3
100
AcDbSymbolTableRecord
100
AcDbTextStyleTableRecord
  2
STANDARD
 70
     0
 40
0.0
 41
1.0
 50
0.0
 71
     0
 42
0.2
  3
monotxt
  4

  0
ENDTAB
  0
TABLE
  2
VIEW
  5
6
330
0
100
AcDbSymbolTable
 70
     0
  0
ENDTAB
  0
TABLE
  2
UCS
  5
7
330
0
100
AcDbSymbolTable
 70
     0
  0
ENDTAB
  0
TABLE
  2
APPID
  5
9
330
0
100
AcDbSymbolTable
 70
     1
  0
APPID
  5
12
330
9
100
AcDbSymbolTableRecord
100
AcDbRegAppTableRecord
  2
ACAD
 70
     0
  0
ENDTAB
  0
TABLE
  2
DIMSTYLE
  5
A
330
0
100
AcDbSymbolTable
 70
     1
  0
DIMSTYLE
105
2A98
102
{ACAD_REACTORS
330
3172
102
}
330
A
100
AcDbSymbolTableRecord
100
AcDbDimStyleTableRecord
  2
STANDARD
 70
     0
  3

  4

  5

  6

  7

 40
1.0
 41
0.18
 42
0.0625
 43
0.38
 44
0.18
 45
0.0
 46
0.0
 47
0.0
 48
0.0
140
0.18
141
0.09
142
0.0
143
25.4
144
1.0
145
0.0
146
1.0
147
0.09
 71
     0
 72
     0
 73
     1
 74
     1
 75
     0
 76
     0
 77
     0
 78
     0
170
     0
171
     2
172
     0
173
     0
174
     0
175
     0
176
     0
177
     0
178
     0
270
     2
271
     4
272
     4
273
     2
274
     2
340
11
275
     0
280
     0
281
     0
282
     0
283
     1
284
     0
285
     0
286
     0
287
     3
288
     0
  0
ENDTAB
  0
TABLE
  2
BLOCK_RECORD
  5
1
330
0
100
AcDbSymbolTable
 70
     1
  0
BLOCK_RECORD
  5
1E
102
{ACAD_XDICTIONARY
360
31C4
102
}
330
1
100
AcDbSymbolTableRecord
100
AcDbBlockTableRecord
  2
*MODEL_SPACE
  0
BLOCK_RECORD
  5
1A
102
{ACAD_XDICTIONARY
360
31C2
102
}
330
1
100
AcDbSymbolTableRecord
100
AcDbBlockTableRecord
  2
*PAPER_SPACE
  0
BLOCK_RECORD
  5
3174
330
1
100
AcDbSymbolTableRecord
100
AcDbBlockTableRecord
  2
*D0
  0
ENDTAB
  0
ENDSEC
  0
SECTION
  2
BLOCKS
  0
BLOCK
  5
13B
330
1E
100
AcDbEntity
  8
0
100
AcDbBlockBegin
  2
*MODEL_SPACE
 70
     0
 10
0.0
 20
0.0
 30
0.0
  3
*MODEL_SPACE
  1

  0
ENDBLK
  5
13C
330
1E
100
AcDbEntity
  8
0
100
AcDbBlockEnd
  0
BLOCK
  5
139
330
1A
100
AcDbEntity
 67
     1
  8
0
100
AcDbBlockBegin
  2
*PAPER_SPACE
 70
     0
 10
0.0
 20
0.0
 30
0.0
  3
*PAPER_SPACE
  1

  0
ENDBLK
  5
13A
330
1A
100
AcDbEntity
 67
     1
  8
0
100
AcDbBlockEnd
  0
BLOCK
  5
317F
330
3174
100
AcDbEntity
  8
0
100
AcDbBlockBegin
  2
*D0
 70
     1
 10
0.0
 20
0.0
 30
0.0
  3
*D0
  1

  0
LINE
  5
3181
330
3174
100
AcDbEntity
  8
0
 62
     0
100
AcDbLine
 10
1.647424185317533
 20
10.54472478933285
 30
0.0
 11
1.647424185317533
 21
11.08887836960269
 31
0.0
  0
LINE
  5
3182
330
3174
100
AcDbEntity
  8
0
 62
     0
100
AcDbLine
 10
5.357348488524226
 20
10.54472478933285
 30
0.0
 11
5.357348488524226
 21
11.08887836960269
 31
0.0
  0
LINE
  5
3183
330
3174
100
AcDbEntity
  8
0
 62
     0
100
AcDbLine
 10
1.827424185317533
 20
10.90887836960269
 30
0.0
 11
2.90238633692088
 21
10.90887836960269
 31
0.0
  0
LINE
  5
3184
330
3174
100
AcDbEntity
  8
0
 62
     0
100
AcDbLine
 10
5.177348488524226
 20
10.90887836960269
 30
0.0
 11
4.102386336920879
 21
10.90887836960269
 31
0.0
  0
SOLID
  5
3185
330
3174
100
AcDbEntity
  8
0
 62
     0
100
AcDbTrace
 10
1.827424185317533
 20
10.93887836960269
 30
0.0
 11
1.827424185317533
 21
10.87887836960269
 31
0.0
 12
1.647424185317533
 22
10.90887836960269
 32
0.0
 13
1.647424185317533
 23
10.90887836960269
 33
0.0
  0
SOLID
  5
3186
330
3174
100
AcDbEntity
  8
0
 62
     0
100
AcDbTrace
 10
5.177348488524226
 20
10.93887836960269
 30
0.0
 11
5.177348488524226
 21
10.87887836960269
 31
0.0
 12
5.357348488524226
 22
10.90887836960269
 32
0.0
 13
5.357348488524226
 23
10.90887836960269
 33
0.0
  0
MTEXT
  5
3187
330
3174
100
AcDbEntity
  8
0
 62
     0
100
AcDbMText
 10
3.50238633692088
 20
10.90887836960269
 30
0.0
 40
0.18
 41
0.0
 71
     5
 72
     1
  1
\A1;3.7099
1001
ACAD
1000
MTEXTBEGIN
1070
    73
1070
     1
1070
    44
1040
1.0
1070
    74
1070
     0
1000
MTEXTEND
  0
POINT
  5
3188
330
3174
100
AcDbEntity
  8
DEFPOINTS
 62
     0
100
AcDbPoint
 10
1.647424185317533
 20
10.48222478933285
 30
0.0
  0
POINT
  5
3189
330
3174
100
AcDbEntity
  8
DEFPOINTS
 62
     0
100
AcDbPoint
 10
5.357348488524226
 20
10.48222478933285
 30
0.0
  0
POINT
  5
318A
330
3174
100
AcDbEntity
  8
DEFPOINTS
 62
     0
100
AcDbPoint
 10
5.357348488524226
 20
10.90887836960269
 30
0.0
  0
ENDBLK
  5
3180
330
3174
100
AcDbEntity
  8
0
100
AcDbBlockEnd
  0
ENDSEC
  0
SECTION
  2
ENTITIES
  0
LINE
  5
24C5
330
1E
100
AcDbEntity
  8
7
100
AcDbLine
 10
3.328914849842139
 20
6.66782334049919
 30
0.0
 11
3.669944023303754
 21
6.66782334049919
 31
0.0
  0
LINE
  5
24C6
330
1E
100
AcDbEntity
  8
7
100
AcDbLine
 10
4.413111644084266
 20
7.95703189219801
 30
0.0
 11
4.493933586927769
 21
7.95703189219801
 31
0.0
  0
LINE
  5
24C7
330
1E
100
AcDbEntity
  8
7
100
AcDbLine
 10
4.413111644084266
 20
7.95703189219801
 30
0.0
 11
4.493933586927769
 21
7.95703189219801
 31
0.0
  0
LINE
  5
24C8
330
1E
100
AcDbEntity
  8
7
100
AcDbLine
 10
4.413111644084266
 20
8.012227365359425
 30
0.0
 11
4.493933586927769
 21
8.012227365359425
 31
0.0
  0
LINE
  5
24C9
330
1E
100
AcDbEntity
  8
7
100
AcDbLine
 10
4.413111644084266
 20
8.012227365359425
 30
0.0
 11
4.407197843388399
 21
8.010256098460803
 31
0.0
  0
LINE
  5
24CA
330
1E
100
AcDbEntity
  8
7
100
AcDbLine
 10
4.407197843388399
 20
8.010256098460803
 30
0.0
 11
4.405226576489777
 21
8.00631356466356
 31
0.0
  0
LINE
  5
24CB
330
1E
100
AcDbEntity
  8
7
100
AcDbLine
 10
4.405226576489777
 20
7.964916959792496
 30
0.0
 11
4.413111644084266
 21
7.95703189219801
 31
0.0
  0
LINE
  5
24CC
330
1E
100
AcDbEntity
  8
7
100
AcDbLine
 10
4.413111644084266
 20
8.03391130124427
 30
0.0
 11
4.493933586927769
 21
8.03391130124427
 31
0.0
  0
LINE
  5
24CD
330
1E
100
AcDbEntity
  8
7
100
AcDbLine
 10
4.413111644084266
 20
8.03391130124427
 30
0.0
 11
4.413111644084266
 21
8.012227365359425
 31
0.0
  0
LINE
  5
24CE
330
1E
100
AcDbEntity
  8
7
100
AcDbLine
 10
3.776392435829343
 20
7.95703189219801
 30
0.0
 11
3.85918564557147
 21
7.95703189219801
 31
0.0
  0
LINE
  5
24CF
330
1E
100
AcDbEntity
  8
7
100
AcDbLine
 10
3.776392435829343
 20
7.95703189219801
 30
0.0
 11
3.85918564557147
 21
7.95703189219801
 31
0.0
  0
LINE
  5
24D0
330
1E
100
AcDbEntity
  8
7
100
AcDbLine
 10
3.776392435829343
 20
8.012227365359425
 30
0.0
 11
3.85918564557147
 21
8.012227365359425
 31
0.0
  0
LINE
  5
24D6
330
1E
100
AcDbEntity
  8
7
100
AcDbLine
 10
3.768507368234855
 20
7.964916959792496
 30
0.0
 11
3.776392435829343
 21
7.95703189219801
 31
0.0
  0
LINE
  5
24D7
330
1E
100
AcDbEntity
  8
7
100
AcDbLine
 10
3.776392435829343
 20
8.03391130124427
 30
0.0
 11
3.85918564557147
 21
8.03391130124427
 31
0.0
  0
LINE
  5
24D8
330
1E
100
AcDbEntity
  8
7
100
AcDbLine
 10
3.776392435829343
 20
8.03391130124427
 30
0.0
 11
3.776392435829343
 21
8.012227365359425
 31
0.0
  0
LINE
  5
24D9
330
1E
100
AcDbEntity
  8
7
100
AcDbLine
 10
3.04110988264332
 20
7.95703189219801
 30
0.0
 11
3.121931825486825
 21
7.95703189219801
 31
0.0
  0
LINE
  5
24DA
330
1E
100
AcDbEntity
  8
7
100
AcDbLine
 10
3.04110988264332
 20
7.95703189219801
 30
0.0
 11
3.121931825486825
 21
7.95703189219801
 31
0.0
  0
LINE
  5
24DB
330
1E
100
AcDbEntity
  8
7
100
AcDbLine
 10
3.04110988264332
 20
8.012227365359425
 30
0.0
 11
3.121931825486825
 21
8.012227365359425
 31
0.0
  0
LINE
  5
24E1
330
1E
100
AcDbEntity
  8
7
100
AcDbLine
 10
3.033224815048832
 20
7.964916959792496
 30
0.0
 11
3.04110988264332
 21
7.95703189219801
 31
0.0
  0
LINE
  5
24E2
330
1E
100
AcDbEntity
  8
7
100
AcDbLine
 10
3.04110988264332
 20
8.03391130124427
 30
0.0
 11
3.121931825486825
 21
8.03391130124427
 31
0.0
  0
LINE
  5
24E3
330
1E
100
AcDbEntity
  8
7
100
AcDbLine
 10
3.04110988264332
 20
8.03391130124427
 30
0.0
 11
3.04110988264332
 21
8.012227365359425
 31
0.0
  0
LINE
  5
24E4
330
1E
100
AcDbEntity
  8
7
100
AcDbLine
 10
2.404390674388399
 20
7.95703189219801
 30
0.0
 11
2.487183884130526
 21
7.95703189219801
 31
0.0
  0
LINE
  5
24E5
330
1E
100
AcDbEntity
  8
7
100
AcDbLine
 10
2.404390674388399
 20
7.95703189219801
 30
0.0
 11
2.487183884130526
 21
7.95703189219801
 31
0.0
  0
LINE
  5
24E6
330
1E
100
AcDbEntity
  8
7
100
AcDbLine
 10
2.404390674388399
 20
8.012227365359425
 30
0.0
 11
2.487183884130526
 21
8.012227365359425
 31
0.0
  0
LINE
  5
24EC
330
1E
100
AcDbEntity
  8
7
100
AcDbLine
 10
2.396505606793911
 20
7.964916959792496
 30
0.0
 11
2.404390674388399
 21
7.95703189219801
 31
0.0
  0
LINE
  5
24ED
330
1E
100
AcDbEntity
  8
7
100
AcDbLine
 10
2.404390674388399
 20
8.03391130124427
 30
0.0
 11
2.487183884130526
 21
8.03391130124427
 31
0.0
  0
LINE
  5
24EE
330
1E
100
AcDbEntity
  8
7
100
AcDbLine
 10
2.404390674388399
 20
8.03391130124427
 30
0.0
 11
2.404390674388399
 21
8.012227365359425
 31
0.0
  0
LINE
  5
24EF
330
1E
100
AcDbEntity
  8
7
100
AcDbLine
 10
3.037167348846077
 20
6.760472884734425
 30
0.0
 11
3.961691524299816
 21
6.760472884734425
 31
0.0
  0
LINE
  5
24FF
330
1E
100
AcDbEntity
  8
7
100
AcDbLine
 10
4.911842169435642
 20
7.25526087628856
 30
0.0
 11
4.911842169435642
 21
8.786935256517891
 31
0.0
  0
LINE
  5
2506
330
1E
100
AcDbEntity
  8
7
100
AcDbLine
 10
4.752169550647257
 20
7.18626653483679
 30
0.0
 11
4.862560496970091
 21
7.18626653483679
 31
0.0
  0
LINE
  5
2507
330
1E
100
AcDbEntity
  8
7
100
AcDbLine
 10
4.261324092890367
 20
7.18626653483679
 30
0.0
 11
4.752169550647257
 21
7.18626653483679
 31
0.0
  0
LINE
  5
2508
330
1E
100
AcDbEntity
  8
7
100
AcDbLine
 10
4.115450342392337
 20
7.18626653483679
 30
0.0
 11
4.261324092890367
 21
7.18626653483679
 31
0.0
  0
LINE
  5
2509
330
1E
100
AcDbEntity
  8
7
100
AcDbLine
 10
3.626576151534068
 20
7.18626653483679
 30
0.0
 11
4.115450342392337
 21
7.18626653483679
 31
0.0
  0
LINE
  5
250A
330
1E
100
AcDbEntity
  8
7
100
AcDbLine
 10
3.380167789206313
 20
7.18626653483679
 30
0.0
 11
3.626576151534068
 21
7.18626653483679
 31
0.0
  0
LINE
  5
250B
330
1E
100
AcDbEntity
  8
7
100
AcDbLine
 10
2.889322331449423
 20
7.18626653483679
 30
0.0
 11
3.380167789206313
 21
7.18626653483679
 31
0.0
  0
LINE
  5
250C
330
1E
100
AcDbEntity
  8
7
100
AcDbLine
 10
2.743448580951391
 20
7.18626653483679
 30
0.0
 11
2.889322331449423
 21
7.18626653483679
 31
0.0
  0
LINE
  5
250D
330
1E
100
AcDbEntity
  8
7
100
AcDbLine
 10
2.254574390093124
 20
7.18626653483679
 30
0.0
 11
2.743448580951391
 21
7.18626653483679
 31
0.0
  0
LINE
  5
250E
330
1E
100
AcDbEntity
  8
7
100
AcDbLine
 10
2.142212176871666
 20
7.18626653483679
 30
0.0
 11
2.254574390093124
 21
7.18626653483679
 31
0.0
  0
LINE
  5
2519
330
1E
100
AcDbEntity
  8
7
100
AcDbLine
 10
2.124470774784068
 20
8.883527334550372
 30
0.0
 11
2.142212176871666
 21
8.891412402144862
 31
0.0
  0
LINE
  5
251A
330
1E
100
AcDbEntity
  8
7
100
AcDbLine
 10
1.747958797147257
 20
6.756530350937182
 30
0.0
 11
3.037167348846077
 21
6.756530350937182
 31
0.0
  0
LINE
  5
2522
330
1E
100
AcDbEntity
  8
7
100
AcDbLine
 10
1.647424185317532
 20
9.222585241113364
 30
0.0
 11
1.647424185317532
 21
6.855093695868283
 31
0.0
  0
LINE
  5
2534
330
1E
100
AcDbEntity
  8
7
100
AcDbLine
 10
3.961691524299816
 20
6.756530350937182
 30
0.0
 11
5.258785143593124
 21
6.756530350937182
 31
0.0
  0
LINE
  5
253A
330
1E
100
AcDbEntity
  8
7
100
AcDbLine
 10
5.357348488524225
 20
9.222585241113364
 30
0.0
 11
5.353405954726982
 21
9.216671440417496
 31
0.0
  0
LINE
  5
2541
330
1E
100
AcDbEntity
  8
7
100
AcDbLine
 10
3.669944023303754
 20
6.693449810181276
 30
0.0
 11
3.669944023303754
 21
6.760472884734425
 31
0.0
  0
LINE
  5
2553
330
1E
100
AcDbEntity
  8
7
100
AcDbLine
 10
1.651366719114777
 20
6.861007496564152
 30
0.0
 11
1.651366719114777
 21
9.216671440417496
 31
0.0
  0
LINE
  5
2560
330
1E
100
AcDbEntity
  8
7
100
AcDbLine
 10
1.647424185317532
 20
6.855093695868283
 30
0.0
 11
1.651366719114777
 21
6.861007496564152
 31
0.0
  0
LINE
  5
2561
330
1E
100
AcDbEntity
  8
7
100
AcDbLine
 10
1.651366719114777
 20
9.216671440417496
 30
0.0
 11
1.647424185317532
 21
9.222585241113364
 31
0.0
  0
LINE
  5
2562
330
1E
100
AcDbEntity
  8
7
100
AcDbLine
 10
3.328914849842139
 20
6.693449810181276
 30
0.0
 11
3.669944023303754
 21
6.693449810181276
 31
0.0
  0
LINE
  5
2563
330
1E
100
AcDbEntity
  8
7
100
AcDbLine
 10
4.762025885140367
 20
8.53461309349427
 30
0.0
 11
4.762025885140367
 21
8.211325322120252
 31
0.0
  0
LINE
  5
2564
330
1E
100
AcDbEntity
  8
7
100
AcDbLine
 10
4.762025885140367
 20
8.53461309349427
 30
0.0
 11
4.752169550647257
 21
8.542498161088756
 31
0.0
  0
LINE
  5
2565
330
1E
100
AcDbEntity
  8
7
100
AcDbLine
 10
4.712744212674817
 20
8.542498161088756
 30
0.0
 11
4.752169550647257
 21
8.542498161088756
 31
0.0
  0
LINE
  5
2566
330
1E
100
AcDbEntity
  8
7
100
AcDbLine
 10
4.762025885140367
 20
8.211325322120252
 30
0.0
 11
4.712744212674817
 21
8.211325322120252
 31
0.0
  0
LINE
  5
2567
330
1E
100
AcDbEntity
  8
7
100
AcDbLine
 10
2.252603123194502
 20
8.542498161088756
 30
0.0
 11
2.242746788701391
 21
8.53461309349427
 31
0.0
  0
LINE
  5
2568
330
1E
100
AcDbEntity
  8
7
100
AcDbLine
 10
2.242746788701391
 20
8.211325322120252
 30
0.0
 11
2.242746788701391
 21
8.53461309349427
 31
0.0
  0
LINE
  5
2569
330
1E
100
AcDbEntity
  8
7
100
AcDbLine
 10
2.242746788701391
 20
8.211325322120252
 30
0.0
 11
2.293999728065565
 21
8.211325322120252
 31
0.0
  0
LINE
  5
256A
330
1E
100
AcDbEntity
  8
7
100
AcDbLine
 10
2.252603123194502
 20
8.542498161088756
 30
0.0
 11
2.293999728065565
 21
8.542498161088756
 31
0.0
  0
LINE
  5
256B
330
1E
100
AcDbEntity
  8
7
100
AcDbLine
 10
4.519560056609855
 20
7.95703189219801
 30
0.0
 11
4.60038199945336
 21
7.95703189219801
 31
0.0
  0
LINE
  5
2578
330
1E
100
AcDbEntity
  8
7
100
AcDbLine
 10
4.493933586927769
 20
7.95703189219801
 30
0.0
 11
4.493933586927769
 21
8.03391130124427
 31
0.0
  0
LINE
  5
2579
330
1E
100
AcDbEntity
  8
7
100
AcDbLine
 10
4.413111644084266
 20
7.95703189219801
 30
0.0
 11
4.405226576489777
 21
7.964916959792496
 31
0.0
  0
LINE
  5
257A
330
1E
100
AcDbEntity
  8
7
100
AcDbLine
 10
4.405226576489777
 20
8.02602623364978
 30
0.0
 11
4.405226576489777
 21
7.964916959792496
 31
0.0
  0
LINE
  5
2580
330
1E
100
AcDbEntity
  8
7
100
AcDbLine
 10
3.882840848354935
 20
7.95703189219801
 30
0.0
 11
3.965634058097061
 21
7.95703189219801
 31
0.0
  0
LINE
  5
258A
330
1E
100
AcDbEntity
  8
7
100
AcDbLine
 10
3.85918564557147
 20
7.95703189219801
 30
0.0
 11
3.85918564557147
 21
8.03391130124427
 31
0.0
  0
LINE
  5
258B
330
1E
100
AcDbEntity
  8
7
100
AcDbLine
 10
3.776392435829343
 20
7.95703189219801
 30
0.0
 11
3.768507368234855
 21
7.964916959792496
 31
0.0
  0
LINE
  5
258C
330
1E
100
AcDbEntity
  8
7
100
AcDbLine
 10
3.768507368234855
 20
8.02602623364978
 30
0.0
 11
3.768507368234855
 21
7.964916959792496
 31
0.0
  0
LINE
  5
2592
330
1E
100
AcDbEntity
  8
7
100
AcDbLine
 10
3.147558295168911
 20
7.95703189219801
 30
0.0
 11
3.228380238012414
 21
7.95703189219801
 31
0.0
  0
LINE
  5
259C
330
1E
100
AcDbEntity
  8
7
100
AcDbLine
 10
3.121931825486825
 20
7.95703189219801
 30
0.0
 11
3.121931825486825
 21
8.03391130124427
 31
0.0
  0
LINE
  5
259D
330
1E
100
AcDbEntity
  8
7
100
AcDbLine
 10
3.04110988264332
 20
7.95703189219801
 30
0.0
 11
3.033224815048832
 21
7.964916959792496
 31
0.0
  0
LINE
  5
259E
330
1E
100
AcDbEntity
  8
7
100
AcDbLine
 10
3.033224815048832
 20
8.02602623364978
 30
0.0
 11
3.033224815048832
 21
7.964916959792496
 31
0.0
  0
LINE
  5
25A4
330
1E
100
AcDbEntity
  8
7
100
AcDbLine
 10
2.51083908691399
 20
7.95703189219801
 30
0.0
 11
2.593632296656116
 21
7.95703189219801
 31
0.0
  0
LINE
  5
25B1
330
1E
100
AcDbEntity
  8
7
100
AcDbLine
 10
2.487183884130526
 20
7.95703189219801
 30
0.0
 11
2.487183884130526
 21
8.03391130124427
 31
0.0
  0
LINE
  5
25B2
330
1E
100
AcDbEntity
  8
7
100
AcDbLine
 10
2.404390674388399
 20
7.95703189219801
 30
0.0
 11
2.396505606793911
 21
7.964916959792496
 31
0.0
  0
LINE
  5
25B3
330
1E
100
AcDbEntity
  8
7
100
AcDbLine
 10
2.396505606793911
 20
8.02602623364978
 30
0.0
 11
2.396505606793911
 21
7.964916959792496
 31
0.0
  0
LINE
  5
25C4
330
1E
100
AcDbEntity
  8
7
100
AcDbLine
 10
2.242746788701391
 20
8.211325322120252
 30
0.0
 11
4.76399715203899
 21
8.211325322120252
 31
0.0
  0
LINE
  5
25CA
330
1E
100
AcDbEntity
  8
7
100
AcDbLine
 10
2.252603123194502
 20
8.558268296277733
 30
0.0
 11
4.754140817545879
 21
8.558268296277733
 31
0.0
  0
LINE
  5
25CB
330
1E
100
AcDbEntity
  8
7
100
AcDbLine
 10
2.295970994964186
 20
8.52672802589978
 30
0.0
 11
2.295970994964186
 21
8.211325322120252
 31
0.0
  0
LINE
  5
25CC
330
1E
100
AcDbEntity
  8
7
100
AcDbLine
 10
2.293999728065565
 20
8.542498161088756
 30
0.0
 11
2.295970994964186
 21
8.52672802589978
 31
0.0
  0
LINE
  5
25CD
330
1E
100
AcDbEntity
  8
7
100
AcDbLine
 10
2.295970994964186
 20
8.211325322120252
 30
0.0
 11
2.293999728065565
 21
8.211325322120252
 31
0.0
  0
LINE
  5
25CE
330
1E
100
AcDbEntity
  8
7
100
AcDbLine
 10
4.708801678877573
 20
8.52672802589978
 30
0.0
 11
4.712744212674817
 21
8.542498161088756
 31
0.0
  0
LINE
  5
25CF
330
1E
100
AcDbEntity
  8
7
100
AcDbLine
 10
4.708801678877573
 20
8.211325322120252
 30
0.0
 11
4.708801678877573
 21
8.52672802589978
 31
0.0
  0
LINE
  5
25D0
330
1E
100
AcDbEntity
  8
7
100
AcDbLine
 10
4.712744212674817
 20
8.211325322120252
 30
0.0
 11
4.708801678877573
 21
8.211325322120252
 31
0.0
  0
LINE
  5
25E4
330
1E
100
AcDbEntity
  8
7
100
AcDbLine
 10
1.751901330944502
 20
9.317206052247222
 30
0.0
 11
5.254842609795879
 21
9.317206052247222
 31
0.0
  0
LINE
  5
25EC
330
1E
100
AcDbEntity
  8
7
100
AcDbLine
 10
2.102786838899225
 20
7.795388006511003
 30
0.0
 11
2.092930504406115
 21
8.786935256517891
 31
0.0
  0
LINE
  5
2600
330
1E
100
AcDbEntity
  8
7
100
AcDbLine
 10
4.911842169435642
 20
8.786935256517891
 30
0.0
 11
4.901985834942532
 21
7.795388006511003
 31
0.0
  0
LINE
  5
2601
330
1E
100
AcDbEntity
  8
7
100
AcDbLine
 10
4.708801678877573
 20
8.211325322120252
 30
0.0
 11
2.295970994964186
 21
8.211325322120252
 31
0.0
  0
LINE
  5
2602
330
1E
100
AcDbEntity
  8
7
100
AcDbLine
 10
4.708801678877573
 20
8.52672802589978
 30
0.0
 11
2.295970994964186
 21
8.52672802589978
 31
0.0
  0
LINE
  5
2603
330
1E
100
AcDbEntity
  8
7
100
AcDbLine
 10
2.242746788701391
 20
8.53461309349427
 30
0.0
 11
2.242746788701391
 21
8.548411961784625
 31
0.0
  0
LINE
  5
2604
330
1E
100
AcDbEntity
  8
7
100
AcDbLine
 10
2.400448140591154
 20
7.556864711777732
 30
0.0
 11
2.378764204706313
 21
7.253289609389939
 31
0.0
  0
LINE
  5
2605
330
1E
100
AcDbEntity
  8
7
100
AcDbLine
 10
2.400448140591154
 20
7.556864711777732
 30
0.0
 11
2.400448140591154
 21
7.576577380763955
 31
0.0
  0
LINE
  5
2606
330
1E
100
AcDbEntity
  8
7
100
AcDbLine
 10
2.400448140591154
 20
7.584462448358442
 30
0.0
 11
2.400448140591154
 21
7.576577380763955
 31
0.0
  0
LINE
  5
2607
330
1E
100
AcDbEntity
  8
7
100
AcDbLine
 10
2.400448140591154
 20
7.60220385044604
 30
0.0
 11
2.400448140591154
 21
7.584462448358442
 31
0.0
  0
LINE
  5
2608
330
1E
100
AcDbEntity
  8
7
100
AcDbLine
 10
2.400448140591154
 20
7.60220385044604
 30
0.0
 11
2.400448140591154
 21
7.604175117344661
 31
0.0
  0
LINE
  5
2609
330
1E
100
AcDbEntity
  8
7
100
AcDbLine
 10
2.400448140591154
 20
7.612060184939151
 30
0.0
 11
2.400448140591154
 21
7.604175117344661
 31
0.0
  0
LINE
  5
260A
330
1E
100
AcDbEntity
  8
7
100
AcDbLine
 10
2.400448140591154
 20
7.612060184939151
 30
0.0
 11
2.402419407489778
 21
7.639657921519861
 31
0.0
  0
LINE
  5
260B
330
1E
100
AcDbEntity
  8
7
100
AcDbLine
 10
2.597574830453361
 20
7.556864711777732
 30
0.0
 11
2.619258766338202
 21
7.253289609389939
 31
0.0
  0
LINE
  5
260C
330
1E
100
AcDbEntity
  8
7
100
AcDbLine
 10
2.597574830453361
 20
7.556864711777732
 30
0.0
 11
2.400448140591154
 21
7.556864711777732
 31
0.0
  0
LINE
  5
260D
330
1E
100
AcDbEntity
  8
7
100
AcDbLine
 10
2.254574390093124
 20
7.253289609389939
 30
0.0
 11
2.378764204706313
 21
7.253289609389939
 31
0.0
  0
LINE
  5
260E
330
1E
100
AcDbEntity
  8
7
100
AcDbLine
 10
2.254574390093124
 20
7.253289609389939
 30
0.0
 11
2.254574390093124
 21
7.18626653483679
 31
0.0
  0
LINE
  5
260F
330
1E
100
AcDbEntity
  8
7
100
AcDbLine
 10
2.743448580951391
 20
7.253289609389939
 30
0.0
 11
2.743448580951391
 21
7.18626653483679
 31
0.0
  0
LINE
  5
2610
330
1E
100
AcDbEntity
  8
7
100
AcDbLine
 10
2.619258766338202
 20
7.253289609389939
 30
0.0
 11
2.743448580951391
 21
7.253289609389939
 31
0.0
  0
LINE
  5
2611
330
1E
100
AcDbEntity
  8
7
100
AcDbLine
 10
3.234294038708281
 20
7.556864711777732
 30
0.0
 11
3.255977974593124
 21
7.253289609389939
 31
0.0
  0
LINE
  5
2617
330
1E
100
AcDbEntity
  8
7
100
AcDbLine
 10
2.891293598348045
 20
7.253289609389939
 30
0.0
 11
3.015483412961234
 21
7.253289609389939
 31
0.0
  0
LINE
  5
2618
330
1E
100
AcDbEntity
  8
7
100
AcDbLine
 10
2.891293598348045
 20
7.253289609389939
 30
0.0
 11
2.889322331449423
 21
7.18626653483679
 31
0.0
  0
LINE
  5
2619
330
1E
100
AcDbEntity
  8
7
100
AcDbLine
 10
3.37819652230769
 20
7.253289609389939
 30
0.0
 11
3.380167789206313
 21
7.18626653483679
 31
0.0
  0
LINE
  5
261A
330
1E
100
AcDbEntity
  8
7
100
AcDbLine
 10
3.37819652230769
 20
7.253289609389939
 30
0.0
 11
3.255977974593124
 21
7.253289609389939
 31
0.0
  0
LINE
  5
261B
330
1E
100
AcDbEntity
  8
7
100
AcDbLine
 10
3.232322771809659
 20
7.612060184939151
 30
0.0
 11
3.230351504911038
 21
7.639657921519861
 31
0.0
  0
LINE
  5
261C
330
1E
100
AcDbEntity
  8
7
100
AcDbLine
 10
3.232322771809659
 20
7.612060184939151
 30
0.0
 11
3.232322771809659
 21
7.604175117344661
 31
0.0
  0
LINE
  5
261D
330
1E
100
AcDbEntity
  8
7
100
AcDbLine
 10
3.232322771809659
 20
7.60220385044604
 30
0.0
 11
3.232322771809659
 21
7.604175117344661
 31
0.0
  0
LINE
  5
2623
330
1E
100
AcDbEntity
  8
7
100
AcDbLine
 10
3.234294038708281
 20
7.556864711777732
 30
0.0
 11
3.232322771809659
 21
7.576577380763955
 31
0.0
  0
LINE
  5
2624
330
1E
100
AcDbEntity
  8
7
100
AcDbLine
 10
3.7724499020321
 20
7.556864711777732
 30
0.0
 11
3.750765966147257
 21
7.253289609389939
 31
0.0
  0
LINE
  5
2625
330
1E
100
AcDbEntity
  8
7
100
AcDbLine
 10
3.7724499020321
 20
7.556864711777732
 30
0.0
 11
3.7724499020321
 21
7.576577380763955
 31
0.0
  0
LINE
  5
2626
330
1E
100
AcDbEntity
  8
7
100
AcDbLine
 10
3.7724499020321
 20
7.584462448358442
 30
0.0
 11
3.7724499020321
 21
7.576577380763955
 31
0.0
  0
LINE
  5
2627
330
1E
100
AcDbEntity
  8
7
100
AcDbLine
 10
3.7724499020321
 20
7.60220385044604
 30
0.0
 11
3.7724499020321
 21
7.584462448358442
 31
0.0
  0
LINE
  5
2628
330
1E
100
AcDbEntity
  8
7
100
AcDbLine
 10
3.7724499020321
 20
7.60220385044604
 30
0.0
 11
3.7724499020321
 21
7.604175117344661
 31
0.0
  0
LINE
  5
2629
330
1E
100
AcDbEntity
  8
7
100
AcDbLine
 10
3.7724499020321
 20
7.612060184939151
 30
0.0
 11
3.7724499020321
 21
7.604175117344661
 31
0.0
  0
LINE
  5
262A
330
1E
100
AcDbEntity
  8
7
100
AcDbLine
 10
3.7724499020321
 20
7.612060184939151
 30
0.0
 11
3.774421168930722
 21
7.639657921519861
 31
0.0
  0
LINE
  5
262B
330
1E
100
AcDbEntity
  8
7
100
AcDbLine
 10
3.969576591894305
 20
7.556864711777732
 30
0.0
 11
3.991260527779147
 21
7.253289609389939
 31
0.0
  0
LINE
  5
262C
330
1E
100
AcDbEntity
  8
7
100
AcDbLine
 10
3.969576591894305
 20
7.556864711777732
 30
0.0
 11
3.7724499020321
 21
7.556864711777732
 31
0.0
  0
LINE
  5
262D
330
1E
100
AcDbEntity
  8
7
100
AcDbLine
 10
3.626576151534068
 20
7.253289609389939
 30
0.0
 11
3.750765966147257
 21
7.253289609389939
 31
0.0
  0
LINE
  5
262E
330
1E
100
AcDbEntity
  8
7
100
AcDbLine
 10
3.626576151534068
 20
7.253289609389939
 30
0.0
 11
3.626576151534068
 21
7.18626653483679
 31
0.0
  0
LINE
  5
262F
330
1E
100
AcDbEntity
  8
7
100
AcDbLine
 10
4.115450342392337
 20
7.253289609389939
 30
0.0
 11
4.115450342392337
 21
7.18626653483679
 31
0.0
  0
LINE
  5
2630
330
1E
100
AcDbEntity
  8
7
100
AcDbLine
 10
4.115450342392337
 20
7.253289609389939
 30
0.0
 11
3.991260527779147
 21
7.253289609389939
 31
0.0
  0
LINE
  5
2631
330
1E
100
AcDbEntity
  8
7
100
AcDbLine
 10
2.597574830453361
 20
7.612060184939151
 30
0.0
 11
2.595603563554737
 21
7.639657921519861
 31
0.0
  0
LINE
  5
2632
330
1E
100
AcDbEntity
  8
7
100
AcDbLine
 10
2.597574830453361
 20
7.612060184939151
 30
0.0
 11
2.597574830453361
 21
7.604175117344661
 31
0.0
  0
LINE
  5
2633
330
1E
100
AcDbEntity
  8
7
100
AcDbLine
 10
2.597574830453361
 20
7.60220385044604
 30
0.0
 11
2.597574830453361
 21
7.604175117344661
 31
0.0
  0
LINE
  5
2639
330
1E
100
AcDbEntity
  8
7
100
AcDbLine
 10
2.597574830453361
 20
7.556864711777732
 30
0.0
 11
2.597574830453361
 21
7.576577380763955
 31
0.0
  0
LINE
  5
263A
330
1E
100
AcDbEntity
  8
7
100
AcDbLine
 10
3.037167348846077
 20
7.556864711777732
 30
0.0
 11
3.037167348846077
 21
7.576577380763955
 31
0.0
  0
LINE
  5
263B
330
1E
100
AcDbEntity
  8
7
100
AcDbLine
 10
3.037167348846077
 20
7.584462448358442
 30
0.0
 11
3.037167348846077
 21
7.576577380763955
 31
0.0
  0
LINE
  5
263C
330
1E
100
AcDbEntity
  8
7
100
AcDbLine
 10
3.037167348846077
 20
7.60220385044604
 30
0.0
 11
3.037167348846077
 21
7.584462448358442
 31
0.0
  0
LINE
  5
263D
330
1E
100
AcDbEntity
  8
7
100
AcDbLine
 10
3.037167348846077
 20
7.60220385044604
 30
0.0
 11
3.037167348846077
 21
7.604175117344661
 31
0.0
  0
LINE
  5
263E
330
1E
100
AcDbEntity
  8
7
100
AcDbLine
 10
3.037167348846077
 20
7.612060184939151
 30
0.0
 11
3.037167348846077
 21
7.604175117344661
 31
0.0
  0
LINE
  5
263F
330
1E
100
AcDbEntity
  8
7
100
AcDbLine
 10
3.037167348846077
 20
7.612060184939151
 30
0.0
 11
3.039138615744698
 21
7.639657921519861
 31
0.0
  0
LINE
  5
2640
330
1E
100
AcDbEntity
  8
7
100
AcDbLine
 10
3.969576591894305
 20
7.612060184939151
 30
0.0
 11
3.967605324995683
 21
7.639657921519861
 31
0.0
  0
LINE
  5
2641
330
1E
100
AcDbEntity
  8
7
100
AcDbLine
 10
3.969576591894305
 20
7.612060184939151
 30
0.0
 11
3.969576591894305
 21
7.604175117344661
 31
0.0
  0
LINE
  5
2642
330
1E
100
AcDbEntity
  8
7
100
AcDbLine
 10
3.969576591894305
 20
7.60220385044604
 30
0.0
 11
3.969576591894305
 21
7.604175117344661
 31
0.0
  0
LINE
  5
2648
330
1E
100
AcDbEntity
  8
7
100
AcDbLine
 10
3.969576591894305
 20
7.556864711777732
 30
0.0
 11
3.969576591894305
 21
7.576577380763955
 31
0.0
  0
LINE
  5
2649
330
1E
100
AcDbEntity
  8
7
100
AcDbLine
 10
4.40916911028702
 20
7.556864711777732
 30
0.0
 11
4.387485174402177
 21
7.253289609389939
 31
0.0
  0
LINE
  5
264A
330
1E
100
AcDbEntity
  8
7
100
AcDbLine
 10
4.40916911028702
 20
7.576577380763955
 30
0.0
 11
4.40916911028702
 21
7.556864711777732
 31
0.0
  0
LINE
  5
264B
330
1E
100
AcDbEntity
  8
7
100
AcDbLine
 10
4.40916911028702
 20
7.584462448358442
 30
0.0
 11
4.40916911028702
 21
7.576577380763955
 31
0.0
  0
LINE
  5
264C
330
1E
100
AcDbEntity
  8
7
100
AcDbLine
 10
4.40916911028702
 20
7.60220385044604
 30
0.0
 11
4.40916911028702
 21
7.584462448358442
 31
0.0
  0
LINE
  5
264D
330
1E
100
AcDbEntity
  8
7
100
AcDbLine
 10
4.40916911028702
 20
7.60220385044604
 30
0.0
 11
4.40916911028702
 21
7.604175117344661
 31
0.0
  0
LINE
  5
264E
330
1E
100
AcDbEntity
  8
7
100
AcDbLine
 10
4.40916911028702
 20
7.612060184939151
 30
0.0
 11
4.40916911028702
 21
7.604175117344661
 31
0.0
  0
LINE
  5
264F
330
1E
100
AcDbEntity
  8
7
100
AcDbLine
 10
4.40916911028702
 20
7.612060184939151
 30
0.0
 11
4.411140377185642
 21
7.639657921519861
 31
0.0
  0
LINE
  5
2650
330
1E
100
AcDbEntity
  8
7
100
AcDbLine
 10
4.604324533250603
 20
7.556864711777732
 30
0.0
 11
4.627979736034069
 21
7.253289609389939
 31
0.0
  0
LINE
  5
2651
330
1E
100
AcDbEntity
  8
7
100
AcDbLine
 10
4.40916911028702
 20
7.556864711777732
 30
0.0
 11
4.604324533250603
 21
7.556864711777732
 31
0.0
  0
LINE
  5
2657
330
1E
100
AcDbEntity
  8
7
100
AcDbLine
 10
4.750198283748636
 20
7.253289609389939
 30
0.0
 11
4.752169550647257
 21
7.18626653483679
 31
0.0
  0
LINE
  5
2658
330
1E
100
AcDbEntity
  8
7
100
AcDbLine
 10
4.750198283748636
 20
7.253289609389939
 30
0.0
 11
4.627979736034069
 21
7.253289609389939
 31
0.0
  0
LINE
  5
2659
330
1E
100
AcDbEntity
  8
7
100
AcDbLine
 10
4.604324533250603
 20
7.612060184939151
 30
0.0
 11
4.602353266351982
 21
7.639657921519861
 31
0.0
  0
LINE
  5
265A
330
1E
100
AcDbEntity
  8
7
100
AcDbLine
 10
4.604324533250603
 20
7.612060184939151
 30
0.0
 11
4.604324533250603
 21
7.604175117344661
 31
0.0
  0
LINE
  5
265B
330
1E
100
AcDbEntity
  8
7
100
AcDbLine
 10
4.604324533250603
 20
7.60220385044604
 30
0.0
 11
4.604324533250603
 21
7.604175117344661
 31
0.0
  0
LINE
  5
2661
330
1E
100
AcDbEntity
  8
7
100
AcDbLine
 10
4.604324533250603
 20
7.556864711777732
 30
0.0
 11
4.604324533250603
 21
7.576577380763955
 31
0.0
  0
LINE
  5
2667
330
1E
100
AcDbEntity
  8
7
100
AcDbLine
 10
2.102786838899225
 20
7.78356040511927
 30
0.0
 11
2.102786838899225
 21
7.795388006511003
 31
0.0
  0
LINE
  5
2668
330
1E
100
AcDbEntity
  8
7
100
AcDbLine
 10
2.092930504406115
 20
7.25526087628856
 30
0.0
 11
2.102786838899225
 21
7.78356040511927
 31
0.0
  0
LINE
  5
2669
330
1E
100
AcDbEntity
  8
7
100
AcDbLine
 10
2.585747229061627
 20
7.708652262971631
 30
0.0
 11
2.412275741982887
 21
7.708652262971631
 31
0.0
  0
LINE
  5
266A
330
1E
100
AcDbEntity
  8
7
100
AcDbLine
 10
3.222466437316549
 20
7.708652262971631
 30
0.0
 11
3.047023683339186
 21
7.708652262971631
 31
0.0
  0
LINE
  5
266B
330
1E
100
AcDbEntity
  8
7
100
AcDbLine
 10
3.222466437316549
 20
7.736249999552341
 30
0.0
 11
3.222466437316549
 21
7.708652262971631
 31
0.0
  0
LINE
  5
266C
330
1E
100
AcDbEntity
  8
7
100
AcDbLine
 10
3.047023683339186
 20
7.736249999552341
 30
0.0
 11
3.222466437316549
 21
7.736249999552341
 31
0.0
  0
LINE
  5
266D
330
1E
100
AcDbEntity
  8
7
100
AcDbLine
 10
3.047023683339186
 20
7.736249999552341
 30
0.0
 11
3.047023683339186
 21
7.708652262971631
 31
0.0
  0
LINE
  5
266E
330
1E
100
AcDbEntity
  8
7
100
AcDbLine
 10
2.585747229061627
 20
7.736249999552341
 30
0.0
 11
2.585747229061627
 21
7.708652262971631
 31
0.0
  0
LINE
  5
266F
330
1E
100
AcDbEntity
  8
7
100
AcDbLine
 10
2.412275741982887
 20
7.736249999552341
 30
0.0
 11
2.585747229061627
 21
7.736249999552341
 31
0.0
  0
LINE
  5
2670
330
1E
100
AcDbEntity
  8
7
100
AcDbLine
 10
2.412275741982887
 20
7.736249999552341
 30
0.0
 11
2.412275741982887
 21
7.708652262971631
 31
0.0
  0
LINE
  5
267B
330
1E
100
AcDbEntity
  8
7
100
AcDbLine
 10
3.238236572505526
 20
7.69879592847852
 30
0.0
 11
3.238236572505526
 21
7.736249999552341
 31
0.0
  0
LINE
  5
2682
330
1E
100
AcDbEntity
  8
7
100
AcDbLine
 10
3.238236572505526
 20
7.736249999552341
 30
0.0
 11
3.222466437316549
 21
7.736249999552341
 31
0.0
  0
LINE
  5
2683
330
1E
100
AcDbEntity
  8
7
100
AcDbLine
 10
3.03125354815021
 20
7.69879592847852
 30
0.0
 11
3.03125354815021
 21
7.738221266450962
 31
0.0
  0
LINE
  5
2684
330
1E
100
AcDbEntity
  8
7
100
AcDbLine
 10
3.03125354815021
 20
7.69879592847852
 30
0.0
 11
3.033224815048832
 21
7.736249999552341
 31
0.0
  0
LINE
  5
2696
330
1E
100
AcDbEntity
  8
7
100
AcDbLine
 10
2.396505606793911
 20
7.69879592847852
 30
0.0
 11
2.394534339895289
 21
7.738221266450962
 31
0.0
  0
LINE
  5
2697
330
1E
100
AcDbEntity
  8
7
100
AcDbLine
 10
2.396505606793911
 20
7.69879592847852
 30
0.0
 11
2.396505606793911
 21
7.736249999552341
 31
0.0
  0
LINE
  5
2698
330
1E
100
AcDbEntity
  8
7
100
AcDbLine
 10
2.396505606793911
 20
7.69879592847852
 30
0.0
 11
2.189522582438597
 21
7.69879592847852
 31
0.0
  0
LINE
  5
2699
330
1E
100
AcDbEntity
  8
7
100
AcDbLine
 10
2.189522582438597
 20
7.231605673505097
 30
0.0
 11
2.189522582438597
 21
7.69879592847852
 31
0.0
  0
LINE
  5
269A
330
1E
100
AcDbEntity
  8
7
100
AcDbLine
 10
2.254574390093124
 20
7.231605673505097
 30
0.0
 11
2.254574390093124
 21
7.296657481159624
 31
0.0
  0
LINE
  5
26A0
330
1E
100
AcDbEntity
  8
7
100
AcDbLine
 10
3.447190863759462
 20
7.69879592847852
 30
0.0
 11
3.238236572505526
 21
7.69879592847852
 31
0.0
  0
LINE
  5
26A1
330
1E
100
AcDbEntity
  8
7
100
AcDbLine
 10
3.447190863759462
 20
7.231605673505097
 30
0.0
 11
3.447190863759462
 21
7.69879592847852
 31
0.0
  0
LINE
  5
26A2
330
1E
100
AcDbEntity
  8
7
100
AcDbLine
 10
3.447190863759462
 20
7.296657481159624
 30
0.0
 11
3.447190863759462
 21
7.69879592847852
 31
0.0
  0
LINE
  5
26A3
330
1E
100
AcDbEntity
  8
7
100
AcDbLine
 10
3.447190863759462
 20
7.296657481159624
 30
0.0
 11
3.447190863759462
 21
7.231605673505097
 31
0.0
  0
LINE
  5
26A4
330
1E
100
AcDbEntity
  8
7
100
AcDbLine
 10
3.380167789206313
 20
7.231605673505097
 30
0.0
 11
3.447190863759462
 21
7.231605673505097
 31
0.0
  0
LINE
  5
26A5
330
1E
100
AcDbEntity
  8
7
100
AcDbLine
 10
3.37819652230769
 20
7.296657481159624
 30
0.0
 11
3.447190863759462
 21
7.296657481159624
 31
0.0
  0
LINE
  5
26AB
330
1E
100
AcDbEntity
  8
7
100
AcDbLine
 10
3.37819652230769
 20
7.296657481159624
 30
0.0
 11
3.37819652230769
 21
7.253289609389939
 31
0.0
  0
LINE
  5
26AC
330
1E
100
AcDbEntity
  8
7
100
AcDbLine
 10
3.626576151534068
 20
7.296657481159624
 30
0.0
 11
3.626576151534068
 21
7.253289609389939
 31
0.0
  0
LINE
  5
26B2
330
1E
100
AcDbEntity
  8
7
100
AcDbLine
 10
3.55955307698092
 20
7.296657481159624
 30
0.0
 11
3.626576151534068
 21
7.296657481159624
 31
0.0
  0
LINE
  5
26B3
330
1E
100
AcDbEntity
  8
7
100
AcDbLine
 10
3.557581810082296
 20
7.231605673505097
 30
0.0
 11
3.55955307698092
 21
7.296657481159624
 31
0.0
  0
LINE
  5
26B4
330
1E
100
AcDbEntity
  8
7
100
AcDbLine
 10
3.557581810082296
 20
7.231605673505097
 30
0.0
 11
3.626576151534068
 21
7.231605673505097
 31
0.0
  0
LINE
  5
26B5
330
1E
100
AcDbEntity
  8
7
100
AcDbLine
 10
3.55955307698092
 20
7.296657481159624
 30
0.0
 11
3.55955307698092
 21
7.69879592847852
 31
0.0
  0
LINE
  5
26B6
330
1E
100
AcDbEntity
  8
7
100
AcDbLine
 10
3.557581810082296
 20
7.231605673505097
 30
0.0
 11
3.557581810082296
 21
7.69879592847852
 31
0.0
  0
LINE
  5
26BC
330
1E
100
AcDbEntity
  8
7
100
AcDbLine
 10
4.852704162476982
 20
7.748077600944074
 30
0.0
 11
2.152068511364777
 21
7.748077600944074
 31
0.0
  0
LINE
  5
26C2
330
1E
100
AcDbEntity
  8
7
100
AcDbLine
 10
2.152068511364777
 20
7.748077600944074
 30
0.0
 11
2.142212176871666
 21
7.18626653483679
 31
0.0
  0
LINE
  5
26C3
330
1E
100
AcDbEntity
  8
7
100
AcDbLine
 10
3.768507368234855
 20
7.69879592847852
 30
0.0
 11
3.557581810082296
 21
7.69879592847852
 31
0.0
  0
LINE
  5
26C4
330
1E
100
AcDbEntity
  8
7
100
AcDbLine
 10
3.768507368234855
 20
7.69879592847852
 30
0.0
 11
3.766536101336233
 21
7.738221266450962
 31
0.0
  0
LINE
  5
26C5
330
1E
100
AcDbEntity
  8
7
100
AcDbLine
 10
3.975490392590171
 20
7.738221266450962
 30
0.0
 11
3.766536101336233
 21
7.738221266450962
 31
0.0
  0
LINE
  5
26C6
330
1E
100
AcDbEntity
  8
7
100
AcDbLine
 10
3.97351912569155
 20
7.69879592847852
 30
0.0
 11
3.975490392590171
 21
7.738221266450962
 31
0.0
  0
LINE
  5
26CC
330
1E
100
AcDbEntity
  8
7
100
AcDbLine
 10
4.61023833394647
 20
7.738221266450962
 30
0.0
 11
4.403255309591154
 21
7.738221266450962
 31
0.0
  0
LINE
  5
26CD
330
1E
100
AcDbEntity
  8
7
100
AcDbLine
 10
4.61023833394647
 20
7.69879592847852
 30
0.0
 11
4.61023833394647
 21
7.738221266450962
 31
0.0
  0
LINE
  5
26CE
330
1E
100
AcDbEntity
  8
7
100
AcDbLine
 10
4.61023833394647
 20
7.69879592847852
 30
0.0
 11
4.817221358301784
 21
7.69879592847852
 31
0.0
  0
LINE
  5
26CF
330
1E
100
AcDbEntity
  8
7
100
AcDbLine
 10
4.817221358301784
 20
7.231605673505097
 30
0.0
 11
4.817221358301784
 21
7.69879592847852
 31
0.0
  0
LINE
  5
26D5
330
1E
100
AcDbEntity
  8
7
100
AcDbLine
 10
4.862560496970091
 20
7.18626653483679
 30
0.0
 11
4.852704162476982
 21
7.748077600944074
 31
0.0
  0
LINE
  5
26D6
330
1E
100
AcDbEntity
  8
7
100
AcDbLine
 10
3.768507368234855
 20
7.736249999552341
 30
0.0
 11
3.784277503423831
 21
7.736249999552341
 31
0.0
  0
LINE
  5
26D7
330
1E
100
AcDbEntity
  8
7
100
AcDbLine
 10
3.768507368234855
 20
7.69879592847852
 30
0.0
 11
3.768507368234855
 21
7.736249999552341
 31
0.0
  0
LINE
  5
26D8
330
1E
100
AcDbEntity
  8
7
100
AcDbLine
 10
2.743448580951391
 20
7.231605673505097
 30
0.0
 11
2.743448580951391
 21
7.18626653483679
 31
0.0
  0
LINE
  5
26D9
330
1E
100
AcDbEntity
  8
7
100
AcDbLine
 10
2.743448580951391
 20
7.296657481159624
 30
0.0
 11
2.743448580951391
 21
7.231605673505097
 31
0.0
  0
LINE
  5
26DA
330
1E
100
AcDbEntity
  8
7
100
AcDbLine
 10
2.743448580951391
 20
7.296657481159624
 30
0.0
 11
2.743448580951391
 21
7.253289609389939
 31
0.0
  0
LINE
  5
26DB
330
1E
100
AcDbEntity
  8
7
100
AcDbLine
 10
2.889322331449423
 20
7.231605673505097
 30
0.0
 11
2.743448580951391
 21
7.231605673505097
 31
0.0
  0
LINE
  5
26DC
330
1E
100
AcDbEntity
  8
7
100
AcDbLine
 10
2.891293598348045
 20
7.296657481159624
 30
0.0
 11
2.889322331449423
 21
7.231605673505097
 31
0.0
  0
LINE
  5
26DD
330
1E
100
AcDbEntity
  8
7
100
AcDbLine
 10
2.891293598348045
 20
7.296657481159624
 30
0.0
 11
2.743448580951391
 21
7.296657481159624
 31
0.0
  0
LINE
  5
26DE
330
1E
100
AcDbEntity
  8
7
100
AcDbLine
 10
2.889322331449423
 20
7.231605673505097
 30
0.0
 11
2.889322331449423
 21
7.18626653483679
 31
0.0
  0
LINE
  5
26DF
330
1E
100
AcDbEntity
  8
7
100
AcDbLine
 10
2.891293598348045
 20
7.296657481159624
 30
0.0
 11
2.891293598348045
 21
7.253289609389939
 31
0.0
  0
LINE
  5
26E0
330
1E
100
AcDbEntity
  8
7
100
AcDbLine
 10
4.115450342392337
 20
7.231605673505097
 30
0.0
 11
4.115450342392337
 21
7.18626653483679
 31
0.0
  0
LINE
  5
26E1
330
1E
100
AcDbEntity
  8
7
100
AcDbLine
 10
4.115450342392337
 20
7.296657481159624
 30
0.0
 11
4.115450342392337
 21
7.231605673505097
 31
0.0
  0
LINE
  5
26E2
330
1E
100
AcDbEntity
  8
7
100
AcDbLine
 10
4.115450342392337
 20
7.296657481159624
 30
0.0
 11
4.115450342392337
 21
7.253289609389939
 31
0.0
  0
LINE
  5
26E3
330
1E
100
AcDbEntity
  8
7
100
AcDbLine
 10
4.115450342392337
 20
7.231605673505097
 30
0.0
 11
4.261324092890367
 21
7.231605673505097
 31
0.0
  0
LINE
  5
26E4
330
1E
100
AcDbEntity
  8
7
100
AcDbLine
 10
4.26329535978899
 20
7.296657481159624
 30
0.0
 11
4.261324092890367
 21
7.231605673505097
 31
0.0
  0
LINE
  5
26E5
330
1E
100
AcDbEntity
  8
7
100
AcDbLine
 10
4.115450342392337
 20
7.296657481159624
 30
0.0
 11
4.26329535978899
 21
7.296657481159624
 31
0.0
  0
LINE
  5
26E6
330
1E
100
AcDbEntity
  8
7
100
AcDbLine
 10
4.261324092890367
 20
7.231605673505097
 30
0.0
 11
4.261324092890367
 21
7.18626653483679
 31
0.0
  0
LINE
  5
26E7
330
1E
100
AcDbEntity
  8
7
100
AcDbLine
 10
4.26329535978899
 20
7.296657481159624
 30
0.0
 11
4.26329535978899
 21
7.253289609389939
 31
0.0
  0
LINE
  5
26ED
330
1E
100
AcDbEntity
  8
7
100
AcDbLine
 10
4.750198283748636
 20
7.296657481159624
 30
0.0
 11
4.750198283748636
 21
7.253289609389939
 31
0.0
  0
LINE
  5
26EE
330
1E
100
AcDbEntity
  8
7
100
AcDbLine
 10
4.817221358301784
 20
7.296657481159624
 30
0.0
 11
4.750198283748636
 21
7.296657481159624
 31
0.0
  0
LINE
  5
26EF
330
1E
100
AcDbEntity
  8
7
100
AcDbLine
 10
4.752169550647257
 20
7.231605673505097
 30
0.0
 11
4.750198283748636
 21
7.296657481159624
 31
0.0
  0
LINE
  5
26F0
330
1E
100
AcDbEntity
  8
7
100
AcDbLine
 10
3.957748990502573
 20
7.708652262971631
 30
0.0
 11
3.784277503423831
 21
7.708652262971631
 31
0.0
  0
LINE
  5
26F1
330
1E
100
AcDbEntity
  8
7
100
AcDbLine
 10
3.957748990502573
 20
7.736249999552341
 30
0.0
 11
3.957748990502573
 21
7.708652262971631
 31
0.0
  0
LINE
  5
26F2
330
1E
100
AcDbEntity
  8
7
100
AcDbLine
 10
3.784277503423831
 20
7.736249999552341
 30
0.0
 11
3.957748990502573
 21
7.736249999552341
 31
0.0
  0
LINE
  5
26F3
330
1E
100
AcDbEntity
  8
7
100
AcDbLine
 10
3.784277503423831
 20
7.736249999552341
 30
0.0
 11
3.784277503423831
 21
7.708652262971631
 31
0.0
  0
LINE
  5
26F4
330
1E
100
AcDbEntity
  8
7
100
AcDbLine
 10
3.975490392590171
 20
7.738221266450962
 30
0.0
 11
3.97351912569155
 21
7.736249999552341
 31
0.0
  0
LINE
  5
26F5
330
1E
100
AcDbEntity
  8
7
100
AcDbLine
 10
3.97351912569155
 20
7.69879592847852
 30
0.0
 11
3.97351912569155
 21
7.736249999552341
 31
0.0
  0
LINE
  5
26F6
330
1E
100
AcDbEntity
  8
7
100
AcDbLine
 10
3.766536101336233
 20
7.738221266450962
 30
0.0
 11
3.768507368234855
 21
7.736249999552341
 31
0.0
  0
LINE
  5
26F7
330
1E
100
AcDbEntity
  8
7
100
AcDbLine
 10
3.97351912569155
 20
7.736249999552341
 30
0.0
 11
3.957748990502573
 21
7.736249999552341
 31
0.0
  0
LINE
  5
26F8
330
1E
100
AcDbEntity
  8
7
100
AcDbLine
 10
4.403255309591154
 20
7.736249999552341
 30
0.0
 11
4.419025444780131
 21
7.736249999552341
 31
0.0
  0
LINE
  5
26F9
330
1E
100
AcDbEntity
  8
7
100
AcDbLine
 10
4.403255309591154
 20
7.69879592847852
 30
0.0
 11
4.403255309591154
 21
7.736249999552341
 31
0.0
  0
LINE
  5
26FA
330
1E
100
AcDbEntity
  8
7
100
AcDbLine
 10
4.594468198757494
 20
7.708652262971631
 30
0.0
 11
4.419025444780131
 21
7.708652262971631
 31
0.0
  0
LINE
  5
26FB
330
1E
100
AcDbEntity
  8
7
100
AcDbLine
 10
4.594468198757494
 20
7.736249999552341
 30
0.0
 11
4.594468198757494
 21
7.708652262971631
 31
0.0
  0
LINE
  5
26FC
330
1E
100
AcDbEntity
  8
7
100
AcDbLine
 10
4.419025444780131
 20
7.736249999552341
 30
0.0
 11
4.594468198757494
 21
7.736249999552341
 31
0.0
  0
LINE
  5
26FD
330
1E
100
AcDbEntity
  8
7
100
AcDbLine
 10
4.419025444780131
 20
7.736249999552341
 30
0.0
 11
4.419025444780131
 21
7.708652262971631
 31
0.0
  0
LINE
  5
26FE
330
1E
100
AcDbEntity
  8
7
100
AcDbLine
 10
4.61023833394647
 20
7.738221266450962
 30
0.0
 11
4.61023833394647
 21
7.736249999552341
 31
0.0
  0
LINE
  5
26FF
330
1E
100
AcDbEntity
  8
7
100
AcDbLine
 10
4.403255309591154
 20
7.738221266450962
 30
0.0
 11
4.403255309591154
 21
7.736249999552341
 31
0.0
  0
LINE
  5
270A
330
1E
100
AcDbEntity
  8
7
100
AcDbLine
 10
2.400448140591154
 20
7.576577380763955
 30
0.0
 11
2.597574830453361
 21
7.576577380763955
 31
0.0
  0
LINE
  5
270B
330
1E
100
AcDbEntity
  8
7
100
AcDbLine
 10
2.400448140591154
 20
7.584462448358442
 30
0.0
 11
2.597574830453361
 21
7.584462448358442
 31
0.0
  0
LINE
  5
270C
330
1E
100
AcDbEntity
  8
7
100
AcDbLine
 10
2.400448140591154
 20
7.60220385044604
 30
0.0
 11
2.597574830453361
 21
7.60220385044604
 31
0.0
  0
LINE
  5
270D
330
1E
100
AcDbEntity
  8
7
100
AcDbLine
 10
2.400448140591154
 20
7.604175117344661
 30
0.0
 11
2.597574830453361
 21
7.604175117344661
 31
0.0
  0
LINE
  5
270E
330
1E
100
AcDbEntity
  8
7
100
AcDbLine
 10
2.400448140591154
 20
7.612060184939151
 30
0.0
 11
2.597574830453361
 21
7.612060184939151
 31
0.0
  0
LINE
  5
270F
330
1E
100
AcDbEntity
  8
7
100
AcDbLine
 10
2.402419407489778
 20
7.639657921519861
 30
0.0
 11
2.595603563554737
 21
7.639657921519861
 31
0.0
  0
LINE
  5
2710
330
1E
100
AcDbEntity
  8
7
100
AcDbLine
 10
3.039138615744698
 20
7.639657921519861
 30
0.0
 11
3.230351504911038
 21
7.639657921519861
 31
0.0
  0
LINE
  5
2711
330
1E
100
AcDbEntity
  8
7
100
AcDbLine
 10
3.037167348846077
 20
7.612060184939151
 30
0.0
 11
3.232322771809659
 21
7.612060184939151
 31
0.0
  0
LINE
  5
2712
330
1E
100
AcDbEntity
  8
7
100
AcDbLine
 10
3.037167348846077
 20
7.604175117344661
 30
0.0
 11
3.232322771809659
 21
7.604175117344661
 31
0.0
  0
LINE
  5
2713
330
1E
100
AcDbEntity
  8
7
100
AcDbLine
 10
3.037167348846077
 20
7.60220385044604
 30
0.0
 11
3.232322771809659
 21
7.60220385044604
 31
0.0
  0
LINE
  5
2714
330
1E
100
AcDbEntity
  8
7
100
AcDbLine
 10
3.037167348846077
 20
7.584462448358442
 30
0.0
 11
3.232322771809659
 21
7.584462448358442
 31
0.0
  0
LINE
  5
2715
330
1E
100
AcDbEntity
  8
7
100
AcDbLine
 10
3.037167348846077
 20
7.576577380763955
 30
0.0
 11
3.232322771809659
 21
7.576577380763955
 31
0.0
  0
LINE
  5
2716
330
1E
100
AcDbEntity
  8
7
100
AcDbLine
 10
3.7724499020321
 20
7.576577380763955
 30
0.0
 11
3.969576591894305
 21
7.576577380763955
 31
0.0
  0
LINE
  5
2717
330
1E
100
AcDbEntity
  8
7
100
AcDbLine
 10
3.7724499020321
 20
7.584462448358442
 30
0.0
 11
3.969576591894305
 21
7.584462448358442
 31
0.0
  0
LINE
  5
2718
330
1E
100
AcDbEntity
  8
7
100
AcDbLine
 10
3.7724499020321
 20
7.60220385044604
 30
0.0
 11
3.969576591894305
 21
7.60220385044604
 31
0.0
  0
LINE
  5
2719
330
1E
100
AcDbEntity
  8
7
100
AcDbLine
 10
3.7724499020321
 20
7.604175117344661
 30
0.0
 11
3.969576591894305
 21
7.604175117344661
 31
0.0
  0
LINE
  5
271A
330
1E
100
AcDbEntity
  8
7
100
AcDbLine
 10
3.7724499020321
 20
7.612060184939151
 30
0.0
 11
3.969576591894305
 21
7.612060184939151
 31
0.0
  0
LINE
  5
271B
330
1E
100
AcDbEntity
  8
7
100
AcDbLine
 10
3.774421168930722
 20
7.639657921519861
 30
0.0
 11
3.967605324995683
 21
7.639657921519861
 31
0.0
  0
LINE
  5
271C
330
1E
100
AcDbEntity
  8
7
100
AcDbLine
 10
4.604324533250603
 20
7.576577380763955
 30
0.0
 11
4.40916911028702
 21
7.576577380763955
 31
0.0
  0
LINE
  5
271D
330
1E
100
AcDbEntity
  8
7
100
AcDbLine
 10
4.604324533250603
 20
7.584462448358442
 30
0.0
 11
4.40916911028702
 21
7.584462448358442
 31
0.0
  0
LINE
  5
271E
330
1E
100
AcDbEntity
  8
7
100
AcDbLine
 10
4.604324533250603
 20
7.60220385044604
 30
0.0
 11
4.40916911028702
 21
7.60220385044604
 31
0.0
  0
LINE
  5
271F
330
1E
100
AcDbEntity
  8
7
100
AcDbLine
 10
4.604324533250603
 20
7.604175117344661
 30
0.0
 11
4.40916911028702
 21
7.604175117344661
 31
0.0
  0
LINE
  5
2720
330
1E
100
AcDbEntity
  8
7
100
AcDbLine
 10
4.604324533250603
 20
7.612060184939151
 30
0.0
 11
4.40916911028702
 21
7.612060184939151
 31
0.0
  0
LINE
  5
2721
330
1E
100
AcDbEntity
  8
7
100
AcDbLine
 10
4.602353266351982
 20
7.639657921519861
 30
0.0
 11
4.411140377185642
 21
7.639657921519861
 31
0.0
  0
LINE
  5
2722
330
1E
100
AcDbEntity
  8
7
100
AcDbLine
 10
4.76399715203899
 20
8.211325322120252
 30
0.0
 11
4.762025885140367
 21
8.211325322120252
 31
0.0
  0
LINE
  5
2723
330
1E
100
AcDbEntity
  8
7
100
AcDbLine
 10
4.76399715203899
 20
8.548411961784625
 30
0.0
 11
4.762025885140367
 21
8.53461309349427
 31
0.0
  0
LINE
  5
2724
330
1E
100
AcDbEntity
  8
7
100
AcDbLine
 10
2.252603123194502
 20
8.558268296277733
 30
0.0
 11
2.252603123194502
 21
8.542498161088756
 31
0.0
  0
LINE
  5
2725
330
1E
100
AcDbEntity
  8
7
100
AcDbLine
 10
4.752169550647257
 20
8.542498161088756
 30
0.0
 11
4.754140817545879
 21
8.558268296277733
 31
0.0
  0
LINE
  5
2726
330
1E
100
AcDbEntity
  8
7
100
AcDbLine
 10
2.51083908691399
 20
7.95703189219801
 30
0.0
 11
2.593632296656116
 21
7.95703189219801
 31
0.0
  0
LINE
  5
2727
330
1E
100
AcDbEntity
  8
7
100
AcDbLine
 10
2.51083908691399
 20
8.012227365359425
 30
0.0
 11
2.593632296656116
 21
8.012227365359425
 31
0.0
  0
LINE
  5
2728
330
1E
100
AcDbEntity
  8
7
100
AcDbLine
 10
2.593632296656116
 20
7.95703189219801
 30
0.0
 11
2.601517364250604
 21
7.964916959792496
 31
0.0
  0
LINE
  5
272F
330
1E
100
AcDbEntity
  8
7
100
AcDbLine
 10
3.882840848354935
 20
7.95703189219801
 30
0.0
 11
3.965634058097061
 21
7.95703189219801
 31
0.0
  0
LINE
  5
2730
330
1E
100
AcDbEntity
  8
7
100
AcDbLine
 10
3.882840848354935
 20
8.012227365359425
 30
0.0
 11
3.965634058097061
 21
8.012227365359425
 31
0.0
  0
LINE
  5
2731
330
1E
100
AcDbEntity
  8
7
100
AcDbLine
 10
3.965634058097061
 20
7.95703189219801
 30
0.0
 11
3.97351912569155
 21
7.964916959792496
 31
0.0
  0
LINE
  5
2738
330
1E
100
AcDbEntity
  8
7
100
AcDbLine
 10
3.147558295168911
 20
7.95703189219801
 30
0.0
 11
3.228380238012414
 21
7.95703189219801
 31
0.0
  0
LINE
  5
2739
330
1E
100
AcDbEntity
  8
7
100
AcDbLine
 10
3.147558295168911
 20
8.012227365359425
 30
0.0
 11
3.228380238012414
 21
8.012227365359425
 31
0.0
  0
LINE
  5
273A
330
1E
100
AcDbEntity
  8
7
100
AcDbLine
 10
3.228380238012414
 20
7.95703189219801
 30
0.0
 11
3.238236572505526
 21
7.964916959792496
 31
0.0
  0
LINE
  5
2741
330
1E
100
AcDbEntity
  8
7
100
AcDbLine
 10
4.519560056609855
 20
7.95703189219801
 30
0.0
 11
4.60038199945336
 21
7.95703189219801
 31
0.0
  0
LINE
  5
2742
330
1E
100
AcDbEntity
  8
7
100
AcDbLine
 10
4.519560056609855
 20
8.012227365359425
 30
0.0
 11
4.60038199945336
 21
8.012227365359425
 31
0.0
  0
LINE
  5
2743
330
1E
100
AcDbEntity
  8
7
100
AcDbLine
 10
4.60038199945336
 20
7.95703189219801
 30
0.0
 11
4.608267067047848
 21
7.964916959792496
 31
0.0
  0
LINE
  5
274A
330
1E
100
AcDbEntity
  8
7
100
AcDbLine
 10
5.254842609795879
 20
6.760472884734425
 30
0.0
 11
3.961691524299816
 21
6.760472884734425
 31
0.0
  0
LINE
  5
2757
330
1E
100
AcDbEntity
  8
7
100
AcDbLine
 10
3.037167348846077
 20
6.760472884734425
 30
0.0
 11
1.751901330944502
 21
6.760472884734425
 31
0.0
  0
LINE
  5
2758
330
1E
100
AcDbEntity
  8
7
100
AcDbLine
 10
1.751901330944502
 20
6.760472884734425
 30
0.0
 11
1.747958797147257
 21
6.756530350937182
 31
0.0
  0
LINE
  5
2759
330
1E
100
AcDbEntity
  8
7
100
AcDbLine
 10
3.037167348846077
 20
6.756530350937182
 30
0.0
 11
3.037167348846077
 21
6.760472884734425
 31
0.0
  0
LINE
  5
275A
330
1E
100
AcDbEntity
  8
7
100
AcDbLine
 10
3.961691524299816
 20
6.760472884734425
 30
0.0
 11
3.961691524299816
 21
6.756530350937182
 31
0.0
  0
LINE
  5
2768
330
1E
100
AcDbEntity
  8
7
100
AcDbLine
 10
3.043081149541943
 20
4.26090645728167
 30
0.0
 11
3.09827662270336
 21
4.26090645728167
 31
0.0
  0
LINE
  5
2769
330
1E
100
AcDbEntity
  8
7
100
AcDbLine
 10
3.904524784239778
 20
4.26090645728167
 30
0.0
 11
3.961691524299816
 21
4.26090645728167
 31
0.0
  0
LINE
  5
276A
330
1E
100
AcDbEntity
  8
7
100
AcDbLine
 10
4.539272725596076
 20
4.26090645728167
 30
0.0
 11
4.598410732554737
 21
4.26090645728167
 31
0.0
  0
LINE
  5
276B
330
1E
100
AcDbEntity
  8
7
100
AcDbLine
 10
2.408333208185642
 20
4.26090645728167
 30
0.0
 11
2.465499948245683
 21
4.26090645728167
 31
0.0
  0
LINE
  5
276C
330
1E
100
AcDbEntity
  8
7
100
AcDbLine
 10
2.532523022798832
 20
4.26090645728167
 30
0.0
 11
2.589689762858872
 21
4.26090645728167
 31
0.0
  0
LINE
  5
276D
330
1E
100
AcDbEntity
  8
7
100
AcDbLine
 10
4.415082910982888
 20
4.26090645728167
 30
0.0
 11
4.47422091794155
 21
4.26090645728167
 31
0.0
  0
LINE
  5
276E
330
1E
100
AcDbEntity
  8
7
100
AcDbLine
 10
3.900582250442533
 20
4.266820257977537
 30
0.0
 11
3.902553517341154
 21
4.266820257977537
 31
0.0
  0
LINE
  5
276F
330
1E
100
AcDbEntity
  8
7
100
AcDbLine
 10
2.465499948245683
 20
4.266820257977537
 30
0.0
 11
2.532523022798832
 21
4.266820257977537
 31
0.0
  0
LINE
  5
2770
330
1E
100
AcDbEntity
  8
7
100
AcDbLine
 10
4.47422091794155
 20
4.266820257977537
 30
0.0
 11
4.539272725596076
 21
4.266820257977537
 31
0.0
  0
LINE
  5
2771
330
1E
100
AcDbEntity
  8
7
100
AcDbLine
 10
4.852704162476982
 20
5.32933311633482
 30
0.0
 11
2.152068511364777
 21
5.32933311633482
 31
0.0
  0
LINE
  5
2772
330
1E
100
AcDbEntity
  8
7
100
AcDbLine
 10
4.419025444780131
 20
5.157832896154702
 30
0.0
 11
4.594468198757494
 21
5.157832896154702
 31
0.0
  0
LINE
  5
2773
330
1E
100
AcDbEntity
  8
7
100
AcDbLine
 10
3.784277503423831
 20
5.157832896154702
 30
0.0
 11
3.957748990502573
 21
5.157832896154702
 31
0.0
  0
LINE
  5
2774
330
1E
100
AcDbEntity
  8
7
100
AcDbLine
 10
2.412275741982887
 20
5.157832896154702
 30
0.0
 11
2.585747229061627
 21
5.157832896154702
 31
0.0
  0
LINE
  5
2775
330
1E
100
AcDbEntity
  8
7
100
AcDbLine
 10
3.047023683339186
 20
5.157832896154702
 30
0.0
 11
3.222466437316549
 21
5.157832896154702
 31
0.0
  0
LINE
  5
2784
330
1E
100
AcDbEntity
  8
7
100
AcDbLine
 10
3.157414629662021
 20
4.314130663544466
 30
0.0
 11
3.208667569026195
 21
4.314130663544466
 31
0.0
  0
LINE
  5
2785
330
1E
100
AcDbEntity
  8
7
100
AcDbLine
 10
3.208667569026195
 20
4.440291745056276
 30
0.0
 11
3.157414629662021
 21
4.440291745056276
 31
0.0
  0
LINE
  5
2786
330
1E
100
AcDbEntity
  8
7
100
AcDbLine
 10
3.790191304119698
 20
4.314130663544466
 30
0.0
 11
3.841444243483872
 21
4.314130663544466
 31
0.0
  0
LINE
  5
2787
330
1E
100
AcDbEntity
  8
7
100
AcDbLine
 10
3.841444243483872
 20
4.440291745056276
 30
0.0
 11
3.790191304119698
 21
4.440291745056276
 31
0.0
  0
LINE
  5
2798
330
1E
100
AcDbEntity
  8
7
100
AcDbLine
 10
3.413679326482887
 20
4.21162478481612
 30
0.0
 11
3.413679326482887
 21
4.385096271894859
 31
0.0
  0
LINE
  5
2799
330
1E
100
AcDbEntity
  8
7
100
AcDbLine
 10
3.413679326482887
 20
4.21162478481612
 30
0.0
 11
3.328914849842139
 21
4.21162478481612
 31
0.0
  0
LINE
  5
27A1
330
1E
100
AcDbEntity
  8
7
100
AcDbLine
 10
3.267805575984855
 20
4.655159837006081
 30
0.0
 11
3.267805575984855
 21
4.241193788295451
 31
0.0
  0
LINE
  5
27A2
330
1E
100
AcDbEntity
  8
7
100
AcDbLine
 10
3.09827662270336
 20
4.655159837006081
 30
0.0
 11
3.09827662270336
 21
4.253021389687182
 31
0.0
  0
LINE
  5
27AD
330
1E
100
AcDbEntity
  8
7
100
AcDbLine
 10
3.248092906998636
 20
4.103205105391906
 30
0.0
 11
3.750765966147257
 21
4.103205105391906
 31
0.0
  0
LINE
  5
27B5
330
1E
100
AcDbEntity
  8
7
100
AcDbLine
 10
3.900582250442533
 20
4.655159837006081
 30
0.0
 11
3.900582250442533
 21
4.253021389687182
 31
0.0
  0
LINE
  5
27B6
330
1E
100
AcDbEntity
  8
7
100
AcDbLine
 10
3.731053297161038
 20
4.655159837006081
 30
0.0
 11
3.731053297161038
 21
4.241193788295451
 31
0.0
  0
LINE
  5
27B7
330
1E
100
AcDbEntity
  8
7
100
AcDbLine
 10
3.037167348846077
 20
4.655159837006081
 30
0.0
 11
3.961691524299816
 21
4.655159837006081
 31
0.0
  0
LINE
  5
27B8
330
1E
100
AcDbEntity
  8
7
100
AcDbLine
 10
1.751901330944502
 20
4.747809381241317
 30
0.0
 11
5.254842609795879
 21
4.747809381241317
 31
0.0
  0
LINE
  5
27B9
330
1E
100
AcDbEntity
  8
7
100
AcDbLine
 10
1.747958797147257
 20
4.40480894088108
 30
0.0
 11
3.037167348846077
 21
4.40480894088108
 31
0.0
  0
LINE
  5
27BA
330
1E
100
AcDbEntity
  8
7
100
AcDbLine
 10
1.747958797147257
 20
4.40480894088108
 30
0.0
 11
1.708533459174816
 21
4.40480894088108
 31
0.0
  0
LINE
  5
27C8
330
1E
100
AcDbEntity
  8
7
100
AcDbLine
 10
3.961691524299816
 20
4.40480894088108
 30
0.0
 11
5.258785143593124
 21
4.40480894088108
 31
0.0
  0
LINE
  5
27C9
330
1E
100
AcDbEntity
  8
7
100
AcDbLine
 10
3.267805575984855
 20
4.40480894088108
 30
0.0
 11
3.328914849842139
 21
4.40480894088108
 31
0.0
  0
LINE
  5
27CA
330
1E
100
AcDbEntity
  8
7
100
AcDbLine
 10
3.669944023303754
 20
4.40480894088108
 30
0.0
 11
3.731053297161038
 21
4.40480894088108
 31
0.0
  0
LINE
  5
27CB
330
1E
100
AcDbEntity
  8
7
100
AcDbLine
 10
5.353405954726982
 20
4.649246036310214
 30
0.0
 11
5.357348488524225
 21
4.40480894088108
 31
0.0
  0
LINE
  5
27D1
330
1E
100
AcDbEntity
  8
7
100
AcDbLine
 10
3.328914849842139
 20
4.306245595949977
 30
0.0
 11
3.328914849842139
 21
4.217538585511986
 31
0.0
  0
LINE
  5
27DB
330
1E
100
AcDbEntity
  8
7
100
AcDbLine
 10
3.328914849842139
 20
4.426492876765923
 30
0.0
 11
3.328914849842139
 21
4.40480894088108
 31
0.0
  0
LINE
  5
27ED
330
1E
100
AcDbEntity
  8
7
100
AcDbLine
 10
3.669944023303754
 20
4.343699667023797
 30
0.0
 11
3.669944023303754
 21
4.40480894088108
 31
0.0
  0
LINE
  5
27F3
330
1E
100
AcDbEntity
  8
7
100
AcDbLine
 10
3.669944023303754
 20
4.314130663544466
 30
0.0
 11
3.669944023303754
 21
4.339757133226552
 31
0.0
  0
LINE
  5
2808
330
1E
100
AcDbEntity
  8
7
100
AcDbLine
 10
1.647424185317532
 20
4.40480894088108
 30
0.0
 11
1.651366719114777
 21
4.649246036310214
 31
0.0
  0
LINE
  5
2809
330
1E
100
AcDbEntity
  8
7
100
AcDbLine
 10
3.328914849842139
 20
4.534912556190135
 30
0.0
 11
3.669944023303754
 21
4.534912556190135
 31
0.0
  0
LINE
  5
280A
330
1E
100
AcDbEntity
  8
7
100
AcDbLine
 10
4.762025885140367
 20
4.90551073313108
 30
0.0
 11
4.762025885140367
 21
5.015901679453914
 31
0.0
  0
LINE
  5
280B
330
1E
100
AcDbEntity
  8
7
100
AcDbLine
 10
4.762025885140367
 20
4.90551073313108
 30
0.0
 11
4.752169550647257
 21
4.901568199333835
 31
0.0
  0
LINE
  5
280C
330
1E
100
AcDbEntity
  8
7
100
AcDbLine
 10
4.712744212674817
 20
4.901568199333835
 30
0.0
 11
4.752169550647257
 21
4.901568199333835
 31
0.0
  0
LINE
  5
2812
330
1E
100
AcDbEntity
  8
7
100
AcDbLine
 10
2.252603123194502
 20
4.901568199333835
 30
0.0
 11
2.242746788701391
 21
4.90551073313108
 31
0.0
  0
LINE
  5
2813
330
1E
100
AcDbEntity
  8
7
100
AcDbLine
 10
2.242746788701391
 20
5.015901679453914
 30
0.0
 11
2.242746788701391
 21
4.90551073313108
 31
0.0
  0
LINE
  5
2819
330
1E
100
AcDbEntity
  8
7
100
AcDbLine
 10
2.252603123194502
 20
4.901568199333835
 30
0.0
 11
2.293999728065565
 21
4.901568199333835
 31
0.0
  0
LINE
  5
281A
330
1E
100
AcDbEntity
  8
7
100
AcDbLine
 10
4.754140817545879
 20
4.927194669015923
 30
0.0
 11
4.762025885140367
 21
4.929165935914545
 31
0.0
  0
LINE
  5
2820
330
1E
100
AcDbEntity
  8
7
100
AcDbLine
 10
4.708801678877573
 20
4.927194669015923
 30
0.0
 11
4.754140817545879
 21
4.927194669015923
 31
0.0
  0
LINE
  5
2821
330
1E
100
AcDbEntity
  8
7
100
AcDbLine
 10
2.295970994964186
 20
4.870027928955883
 30
0.0
 11
2.295970994964186
 21
5.015901679453914
 31
0.0
  0
LINE
  5
2822
330
1E
100
AcDbEntity
  8
7
100
AcDbLine
 10
2.293999728065565
 20
4.901568199333835
 30
0.0
 11
2.295970994964186
 21
4.870027928955883
 31
0.0
  0
LINE
  5
2823
330
1E
100
AcDbEntity
  8
7
100
AcDbLine
 10
2.293999728065565
 20
4.899596932435214
 30
0.0
 11
2.299913528761431
 21
4.826660057186199
 31
0.0
  0
LINE
  5
2824
330
1E
100
AcDbEntity
  8
7
100
AcDbLine
 10
2.299913528761431
 20
4.818774989591711
 30
0.0
 11
2.299913528761431
 21
4.826660057186199
 31
0.0
  0
LINE
  5
2825
330
1E
100
AcDbEntity
  8
7
100
AcDbLine
 10
2.299913528761431
 20
4.818774989591711
 30
0.0
 11
2.303856062558674
 21
4.767522050227537
 31
0.0
  0
LINE
  5
2826
330
1E
100
AcDbEntity
  8
7
100
AcDbLine
 10
2.303856062558674
 20
4.976476341481474
 30
0.0
 11
2.303856062558674
 21
4.767522050227537
 31
0.0
  0
LINE
  5
2827
330
1E
100
AcDbEntity
  8
7
100
AcDbLine
 10
2.299913528761431
 20
5.039556882237379
 30
0.0
 11
2.303856062558674
 21
4.976476341481474
 31
0.0
  0
LINE
  5
2828
330
1E
100
AcDbEntity
  8
7
100
AcDbLine
 10
2.299913528761431
 20
5.015901679453914
 30
0.0
 11
2.299913528761431
 21
5.039556882237379
 31
0.0
  0
LINE
  5
2829
330
1E
100
AcDbEntity
  8
7
100
AcDbLine
 10
4.708801678877573
 20
4.870027928955883
 30
0.0
 11
4.712744212674817
 21
4.901568199333835
 31
0.0
  0
LINE
  5
282A
330
1E
100
AcDbEntity
  8
7
100
AcDbLine
 10
4.708801678877573
 20
5.015901679453914
 30
0.0
 11
4.708801678877573
 21
4.870027928955883
 31
0.0
  0
LINE
  5
282B
330
1E
100
AcDbEntity
  8
7
100
AcDbLine
 10
4.70683041197895
 20
5.039556882237379
 30
0.0
 11
4.70683041197895
 21
5.015901679453914
 31
0.0
  0
LINE
  5
282C
330
1E
100
AcDbEntity
  8
7
100
AcDbLine
 10
4.700916611283085
 20
4.976476341481474
 30
0.0
 11
4.70683041197895
 21
5.039556882237379
 31
0.0
  0
LINE
  5
282D
330
1E
100
AcDbEntity
  8
7
100
AcDbLine
 10
4.700916611283085
 20
4.767522050227537
 30
0.0
 11
4.700916611283085
 21
4.976476341481474
 31
0.0
  0
LINE
  5
282E
330
1E
100
AcDbEntity
  8
7
100
AcDbLine
 10
4.700916611283085
 20
4.767522050227537
 30
0.0
 11
4.70683041197895
 21
4.818774989591711
 31
0.0
  0
LINE
  5
282F
330
1E
100
AcDbEntity
  8
7
100
AcDbLine
 10
4.70683041197895
 20
4.826660057186199
 30
0.0
 11
4.70683041197895
 21
4.818774989591711
 31
0.0
  0
LINE
  5
2830
330
1E
100
AcDbEntity
  8
7
100
AcDbLine
 10
4.70683041197895
 20
4.826660057186199
 30
0.0
 11
4.712744212674817
 21
4.899596932435214
 31
0.0
  0
LINE
  5
2831
330
1E
100
AcDbEntity
  8
7
100
AcDbLine
 10
4.817221358301784
 20
5.015901679453914
 30
0.0
 11
4.70683041197895
 21
5.015901679453914
 31
0.0
  0
LINE
  5
2832
330
1E
100
AcDbEntity
  8
7
100
AcDbLine
 10
4.616152134642337
 20
5.147976561661592
 30
0.0
 11
4.618123401540959
 21
5.197258234127144
 31
0.0
  0
LINE
  5
2833
330
1E
100
AcDbEntity
  8
7
100
AcDbLine
 10
4.578698063568517
 20
5.147976561661592
 30
0.0
 11
4.616152134642337
 21
5.147976561661592
 31
0.0
  0
LINE
  5
2834
330
1E
100
AcDbEntity
  8
7
100
AcDbLine
 10
4.578698063568517
 20
5.147976561661592
 30
0.0
 11
4.578698063568517
 21
5.157832896154702
 31
0.0
  0
LINE
  5
2835
330
1E
100
AcDbEntity
  8
7
100
AcDbLine
 10
4.434795579969107
 20
5.157832896154702
 30
0.0
 11
4.434795579969107
 21
5.147976561661592
 31
0.0
  0
LINE
  5
2836
330
1E
100
AcDbEntity
  8
7
100
AcDbLine
 10
4.397341508895289
 20
5.147976561661592
 30
0.0
 11
4.434795579969107
 21
5.147976561661592
 31
0.0
  0
LINE
  5
2837
330
1E
100
AcDbEntity
  8
7
100
AcDbLine
 10
4.397341508895289
 20
5.197258234127144
 30
0.0
 11
4.397341508895289
 21
5.147976561661592
 31
0.0
  0
LINE
  5
2838
330
1E
100
AcDbEntity
  8
7
100
AcDbLine
 10
3.981404193286038
 20
5.147976561661592
 30
0.0
 11
3.981404193286038
 21
5.197258234127144
 31
0.0
  0
LINE
  5
2839
330
1E
100
AcDbEntity
  8
7
100
AcDbLine
 10
3.941978855313597
 20
5.147976561661592
 30
0.0
 11
3.981404193286038
 21
5.147976561661592
 31
0.0
  0
LINE
  5
283A
330
1E
100
AcDbEntity
  8
7
100
AcDbLine
 10
3.941978855313597
 20
5.147976561661592
 30
0.0
 11
3.941978855313597
 21
5.157832896154702
 31
0.0
  0
LINE
  5
283B
330
1E
100
AcDbEntity
  8
7
100
AcDbLine
 10
3.800047638612808
 20
5.157832896154702
 30
0.0
 11
3.800047638612808
 21
5.147976561661592
 31
0.0
  0
LINE
  5
283C
330
1E
100
AcDbEntity
  8
7
100
AcDbLine
 10
3.760622300640367
 20
5.147976561661592
 30
0.0
 11
3.800047638612808
 21
5.147976561661592
 31
0.0
  0
LINE
  5
283D
330
1E
100
AcDbEntity
  8
7
100
AcDbLine
 10
3.760622300640367
 20
5.197258234127144
 30
0.0
 11
3.760622300640367
 21
5.147976561661592
 31
0.0
  0
LINE
  5
283E
330
1E
100
AcDbEntity
  8
7
100
AcDbLine
 10
3.244150373201391
 20
5.147976561661592
 30
0.0
 11
3.246121640100014
 21
5.197258234127144
 31
0.0
  0
LINE
  5
283F
330
1E
100
AcDbEntity
  8
7
100
AcDbLine
 10
3.206696302127573
 20
5.147976561661592
 30
0.0
 11
3.244150373201391
 21
5.147976561661592
 31
0.0
  0
LINE
  5
2840
330
1E
100
AcDbEntity
  8
7
100
AcDbLine
 10
3.206696302127573
 20
5.147976561661592
 30
0.0
 11
3.206696302127573
 21
5.157832896154702
 31
0.0
  0
LINE
  5
2841
330
1E
100
AcDbEntity
  8
7
100
AcDbLine
 10
3.062793818528163
 20
5.157832896154702
 30
0.0
 11
3.062793818528163
 21
5.147976561661592
 31
0.0
  0
LINE
  5
2842
330
1E
100
AcDbEntity
  8
7
100
AcDbLine
 10
3.025339747454343
 20
5.147976561661592
 30
0.0
 11
3.062793818528163
 21
5.147976561661592
 31
0.0
  0
LINE
  5
2843
330
1E
100
AcDbEntity
  8
7
100
AcDbLine
 10
3.025339747454343
 20
5.197258234127144
 30
0.0
 11
3.025339747454343
 21
5.147976561661592
 31
0.0
  0
LINE
  5
2844
330
1E
100
AcDbEntity
  8
7
100
AcDbLine
 10
2.609402431845092
 20
5.147976561661592
 30
0.0
 11
2.609402431845092
 21
5.197258234127144
 31
0.0
  0
LINE
  5
2845
330
1E
100
AcDbEntity
  8
7
100
AcDbLine
 10
2.569977093872651
 20
5.147976561661592
 30
0.0
 11
2.609402431845092
 21
5.147976561661592
 31
0.0
  0
LINE
  5
2846
330
1E
100
AcDbEntity
  8
7
100
AcDbLine
 10
2.569977093872651
 20
5.147976561661592
 30
0.0
 11
2.569977093872651
 21
5.157832896154702
 31
0.0
  0
LINE
  5
2847
330
1E
100
AcDbEntity
  8
7
100
AcDbLine
 10
2.428045877171864
 20
5.157832896154702
 30
0.0
 11
2.428045877171864
 21
5.147976561661592
 31
0.0
  0
LINE
  5
2848
330
1E
100
AcDbEntity
  8
7
100
AcDbLine
 10
2.388620539199423
 20
5.147976561661592
 30
0.0
 11
2.428045877171864
 21
5.147976561661592
 31
0.0
  0
LINE
  5
2849
330
1E
100
AcDbEntity
  8
7
100
AcDbLine
 10
2.388620539199423
 20
5.197258234127144
 30
0.0
 11
2.388620539199423
 21
5.147976561661592
 31
0.0
  0
LINE
  5
284A
330
1E
100
AcDbEntity
  8
7
100
AcDbLine
 10
2.299913528761431
 20
5.015901679453914
 30
0.0
 11
2.189522582438597
 21
5.015901679453914
 31
0.0
  0
LINE
  5
284B
330
1E
100
AcDbEntity
  8
7
100
AcDbLine
 10
4.70683041197895
 20
5.039556882237379
 30
0.0
 11
3.55955307698092
 21
5.039556882237379
 31
0.0
  0
LINE
  5
284C
330
1E
100
AcDbEntity
  8
7
100
AcDbLine
 10
3.447190863759462
 20
5.039556882237379
 30
0.0
 11
2.299913528761431
 21
5.039556882237379
 31
0.0
  0
LINE
  5
284D
330
1E
100
AcDbEntity
  8
7
100
AcDbLine
 10
2.431988410969109
 20
4.249078855889939
 30
0.0
 11
2.431988410969109
 21
4.26090645728167
 31
0.0
  0
LINE
  5
284E
330
1E
100
AcDbEntity
  8
7
100
AcDbLine
 10
2.964230473597061
 20
4.40480894088108
 30
0.0
 11
2.962259206698438
 21
4.249078855889939
 31
0.0
  0
LINE
  5
284F
330
1E
100
AcDbEntity
  8
7
100
AcDbLine
 10
4.052369801636431
 20
4.249078855889939
 30
0.0
 11
4.050398534737808
 21
4.40480894088108
 31
0.0
  0
LINE
  5
2855
330
1E
100
AcDbEntity
  8
7
100
AcDbLine
 10
2.962259206698438
 20
4.249078855889939
 30
0.0
 11
2.431988410969109
 21
4.249078855889939
 31
0.0
  0
LINE
  5
2856
330
1E
100
AcDbEntity
  8
7
100
AcDbLine
 10
3.731053297161038
 20
4.454090613346631
 30
0.0
 11
3.669944023303754
 21
4.454090613346631
 31
0.0
  0
LINE
  5
2857
330
1E
100
AcDbEntity
  8
7
100
AcDbLine
 10
3.328914849842139
 20
4.454090613346631
 30
0.0
 11
3.267805575984855
 21
4.454090613346631
 31
0.0
  0
LINE
  5
285E
330
1E
100
AcDbEntity
  8
7
100
AcDbLine
 10
1.933257885617731
 20
4.40480894088108
 30
0.0
 11
1.87609114555769
 21
4.304274329051356
 31
0.0
  0
LINE
  5
2864
330
1E
100
AcDbEntity
  8
7
100
AcDbLine
 10
5.195704602837219
 20
4.39495260638797
 30
0.0
 11
5.195704602837219
 21
4.304274329051356
 31
0.0
  0
LINE
  5
2865
330
1E
100
AcDbEntity
  8
7
100
AcDbLine
 10
5.195704602837219
 20
4.39495260638797
 30
0.0
 11
5.205560937330329
 21
4.40480894088108
 31
0.0
  0
LINE
  5
2866
330
1E
100
AcDbEntity
  8
7
100
AcDbLine
 10
4.700916611283085
 20
4.767522050227537
 30
0.0
 11
4.261324092890367
 21
4.767522050227537
 31
0.0
  0
LINE
  5
2867
330
1E
100
AcDbEntity
  8
7
100
AcDbLine
 10
4.115450342392337
 20
4.767522050227537
 30
0.0
 11
3.626576151534068
 21
4.767522050227537
 31
0.0
  0
LINE
  5
2868
330
1E
100
AcDbEntity
  8
7
100
AcDbLine
 10
3.380167789206313
 20
4.767522050227537
 30
0.0
 11
2.889322331449423
 21
4.767522050227537
 31
0.0
  0
LINE
  5
2869
330
1E
100
AcDbEntity
  8
7
100
AcDbLine
 10
2.743448580951391
 20
4.767522050227537
 30
0.0
 11
2.303856062558674
 21
4.767522050227537
 31
0.0
  0
LINE
  5
286A
330
1E
100
AcDbEntity
  8
7
100
AcDbLine
 10
2.303856062558674
 20
4.976476341481474
 30
0.0
 11
3.447190863759462
 21
4.976476341481474
 31
0.0
  0
LINE
  5
286B
330
1E
100
AcDbEntity
  8
7
100
AcDbLine
 10
3.55955307698092
 20
4.976476341481474
 30
0.0
 11
4.700916611283085
 21
4.976476341481474
 31
0.0
  0
LINE
  5
286C
330
1E
100
AcDbEntity
  8
7
100
AcDbLine
 10
4.70683041197895
 20
4.826660057186199
 30
0.0
 11
4.817221358301784
 21
4.826660057186199
 31
0.0
  0
LINE
  5
286D
330
1E
100
AcDbEntity
  8
7
100
AcDbLine
 10
2.189522582438597
 20
4.826660057186199
 30
0.0
 11
2.299913528761431
 21
4.826660057186199
 31
0.0
  0
LINE
  5
286E
330
1E
100
AcDbEntity
  8
7
100
AcDbLine
 10
2.408333208185642
 20
4.26090645728167
 30
0.0
 11
2.406361941287021
 21
4.266820257977537
 31
0.0
  0
LINE
  5
286F
330
1E
100
AcDbEntity
  8
7
100
AcDbLine
 10
2.396505606793911
 20
4.40480894088108
 30
0.0
 11
2.406361941287021
 21
4.266820257977537
 31
0.0
  0
LINE
  5
2870
330
1E
100
AcDbEntity
  8
7
100
AcDbLine
 10
2.601517364250604
 20
4.40480894088108
 30
0.0
 11
2.591661029757494
 21
4.266820257977537
 31
0.0
  0
LINE
  5
2871
330
1E
100
AcDbEntity
  8
7
100
AcDbLine
 10
2.589689762858872
 20
4.26090645728167
 30
0.0
 11
2.591661029757494
 21
4.266820257977537
 31
0.0
  0
LINE
  5
2872
330
1E
100
AcDbEntity
  8
7
100
AcDbLine
 10
3.043081149541943
 20
4.26090645728167
 30
0.0
 11
3.043081149541943
 21
4.266820257977537
 31
0.0
  0
LINE
  5
2873
330
1E
100
AcDbEntity
  8
7
100
AcDbLine
 10
3.03125354815021
 20
4.40480894088108
 30
0.0
 11
3.043081149541943
 21
4.266820257977537
 31
0.0
  0
LINE
  5
2874
330
1E
100
AcDbEntity
  8
7
100
AcDbLine
 10
3.97351912569155
 20
4.40480894088108
 30
0.0
 11
3.963662791198438
 21
4.266820257977537
 31
0.0
  0
LINE
  5
2875
330
1E
100
AcDbEntity
  8
7
100
AcDbLine
 10
3.961691524299816
 20
4.26090645728167
 30
0.0
 11
3.963662791198438
 21
4.266820257977537
 31
0.0
  0
LINE
  5
2876
330
1E
100
AcDbEntity
  8
7
100
AcDbLine
 10
4.415082910982888
 20
4.26090645728167
 30
0.0
 11
4.415082910982888
 21
4.266820257977537
 31
0.0
  0
LINE
  5
2877
330
1E
100
AcDbEntity
  8
7
100
AcDbLine
 10
4.403255309591154
 20
4.40480894088108
 30
0.0
 11
4.415082910982888
 21
4.266820257977537
 31
0.0
  0
LINE
  5
2878
330
1E
100
AcDbEntity
  8
7
100
AcDbLine
 10
4.61023833394647
 20
4.40480894088108
 30
0.0
 11
4.598410732554737
 21
4.266820257977537
 31
0.0
  0
LINE
  5
2879
330
1E
100
AcDbEntity
  8
7
100
AcDbLine
 10
4.598410732554737
 20
4.26090645728167
 30
0.0
 11
4.598410732554737
 21
4.266820257977537
 31
0.0
  0
LINE
  5
287F
330
1E
100
AcDbEntity
  8
7
100
AcDbLine
 10
2.102786838899225
 20
5.276108910072025
 30
0.0
 11
2.102786838899225
 21
5.28005144386927
 31
0.0
  0
LINE
  5
2880
330
1E
100
AcDbEntity
  8
7
100
AcDbLine
 10
2.092930504406115
 20
4.747809381241317
 30
0.0
 11
2.102786838899225
 21
5.276108910072025
 31
0.0
  0
LINE
  5
2886
330
1E
100
AcDbEntity
  8
7
100
AcDbLine
 10
2.585747229061627
 20
5.199229501025765
 30
0.0
 11
2.585747229061627
 21
5.159804163053324
 31
0.0
  0
LINE
  5
2887
330
1E
100
AcDbEntity
  8
7
100
AcDbLine
 10
2.585747229061627
 20
5.199229501025765
 30
0.0
 11
2.412275741982887
 21
5.199229501025765
 31
0.0
  0
LINE
  5
2888
330
1E
100
AcDbEntity
  8
7
100
AcDbLine
 10
2.585747229061627
 20
5.159804163053324
 30
0.0
 11
2.585747229061627
 21
5.157832896154702
 31
0.0
  0
LINE
  5
2889
330
1E
100
AcDbEntity
  8
7
100
AcDbLine
 10
2.412275741982887
 20
5.159804163053324
 30
0.0
 11
2.412275741982887
 21
5.157832896154702
 31
0.0
  0
LINE
  5
288A
330
1E
100
AcDbEntity
  8
7
100
AcDbLine
 10
3.222466437316549
 20
5.159804163053324
 30
0.0
 11
3.222466437316549
 21
5.157832896154702
 31
0.0
  0
LINE
  5
288B
330
1E
100
AcDbEntity
  8
7
100
AcDbLine
 10
3.047023683339186
 20
5.159804163053324
 30
0.0
 11
3.222466437316549
 21
5.159804163053324
 31
0.0
  0
LINE
  5
288C
330
1E
100
AcDbEntity
  8
7
100
AcDbLine
 10
3.047023683339186
 20
5.159804163053324
 30
0.0
 11
3.047023683339186
 21
5.157832896154702
 31
0.0
  0
LINE
  5
288D
330
1E
100
AcDbEntity
  8
7
100
AcDbLine
 10
3.047023683339186
 20
5.199229501025765
 30
0.0
 11
3.047023683339186
 21
5.159804163053324
 31
0.0
  0
LINE
  5
288E
330
1E
100
AcDbEntity
  8
7
100
AcDbLine
 10
3.222466437316549
 20
5.199229501025765
 30
0.0
 11
3.222466437316549
 21
5.159804163053324
 31
0.0
  0
LINE
  5
288F
330
1E
100
AcDbEntity
  8
7
100
AcDbLine
 10
3.222466437316549
 20
5.199229501025765
 30
0.0
 11
3.047023683339186
 21
5.199229501025765
 31
0.0
  0
LINE
  5
2890
330
1E
100
AcDbEntity
  8
7
100
AcDbLine
 10
3.222466437316549
 20
5.224855970707853
 30
0.0
 11
3.222466437316549
 21
5.199229501025765
 31
0.0
  0
LINE
  5
2891
330
1E
100
AcDbEntity
  8
7
100
AcDbLine
 10
3.047023683339186
 20
5.224855970707853
 30
0.0
 11
3.222466437316549
 21
5.224855970707853
 31
0.0
  0
LINE
  5
2892
330
1E
100
AcDbEntity
  8
7
100
AcDbLine
 10
3.047023683339186
 20
5.224855970707853
 30
0.0
 11
3.047023683339186
 21
5.199229501025765
 31
0.0
  0
LINE
  5
2893
330
1E
100
AcDbEntity
  8
7
100
AcDbLine
 10
2.585747229061627
 20
5.224855970707853
 30
0.0
 11
2.585747229061627
 21
5.199229501025765
 31
0.0
  0
LINE
  5
2894
330
1E
100
AcDbEntity
  8
7
100
AcDbLine
 10
2.412275741982887
 20
5.224855970707853
 30
0.0
 11
2.585747229061627
 21
5.224855970707853
 31
0.0
  0
LINE
  5
2895
330
1E
100
AcDbEntity
  8
7
100
AcDbLine
 10
2.412275741982887
 20
5.224855970707853
 30
0.0
 11
2.412275741982887
 21
5.199229501025765
 31
0.0
  0
LINE
  5
2896
330
1E
100
AcDbEntity
  8
7
100
AcDbLine
 10
2.388620539199423
 20
5.197258234127144
 30
0.0
 11
2.189522582438597
 21
5.197258234127144
 31
0.0
  0
LINE
  5
2897
330
1E
100
AcDbEntity
  8
7
100
AcDbLine
 10
2.388620539199423
 20
5.177545565140923
 30
0.0
 11
2.388620539199423
 21
5.147976561661592
 31
0.0
  0
LINE
  5
2898
330
1E
100
AcDbEntity
  8
7
100
AcDbLine
 10
2.388620539199423
 20
5.197258234127144
 30
0.0
 11
2.388620539199423
 21
5.177545565140923
 31
0.0
  0
LINE
  5
2899
330
1E
100
AcDbEntity
  8
7
100
AcDbLine
 10
2.428045877171864
 20
5.157832896154702
 30
0.0
 11
2.428045877171864
 21
5.147976561661592
 31
0.0
  0
LINE
  5
289A
330
1E
100
AcDbEntity
  8
7
100
AcDbLine
 10
2.569977093872651
 20
5.147976561661592
 30
0.0
 11
2.569977093872651
 21
5.157832896154702
 31
0.0
  0
LINE
  5
289B
330
1E
100
AcDbEntity
  8
7
100
AcDbLine
 10
3.025339747454343
 20
5.197258234127144
 30
0.0
 11
2.609402431845092
 21
5.197258234127144
 31
0.0
  0
LINE
  5
289C
330
1E
100
AcDbEntity
  8
7
100
AcDbLine
 10
2.609402431845092
 20
5.147976561661592
 30
0.0
 11
2.609402431845092
 21
5.177545565140923
 31
0.0
  0
LINE
  5
289D
330
1E
100
AcDbEntity
  8
7
100
AcDbLine
 10
2.609402431845092
 20
5.197258234127144
 30
0.0
 11
2.609402431845092
 21
5.177545565140923
 31
0.0
  0
LINE
  5
289E
330
1E
100
AcDbEntity
  8
7
100
AcDbLine
 10
3.025339747454343
 20
5.177545565140923
 30
0.0
 11
3.025339747454343
 21
5.147976561661592
 31
0.0
  0
LINE
  5
289F
330
1E
100
AcDbEntity
  8
7
100
AcDbLine
 10
3.025339747454343
 20
5.197258234127144
 30
0.0
 11
3.025339747454343
 21
5.177545565140923
 31
0.0
  0
LINE
  5
28A0
330
1E
100
AcDbEntity
  8
7
100
AcDbLine
 10
3.062793818528163
 20
5.157832896154702
 30
0.0
 11
3.062793818528163
 21
5.147976561661592
 31
0.0
  0
LINE
  5
28A1
330
1E
100
AcDbEntity
  8
7
100
AcDbLine
 10
3.206696302127573
 20
5.147976561661592
 30
0.0
 11
3.206696302127573
 21
5.157832896154702
 31
0.0
  0
LINE
  5
28A2
330
1E
100
AcDbEntity
  8
7
100
AcDbLine
 10
3.238236572505526
 20
5.260338774883049
 30
0.0
 11
3.238236572505526
 21
5.299764112855489
 31
0.0
  0
LINE
  5
28A3
330
1E
100
AcDbEntity
  8
7
100
AcDbLine
 10
3.238236572505526
 20
5.260338774883049
 30
0.0
 11
3.238236572505526
 21
5.224855970707853
 31
0.0
  0
LINE
  5
28A4
330
1E
100
AcDbEntity
  8
7
100
AcDbLine
 10
3.238236572505526
 20
5.299764112855489
 30
0.0
 11
3.03125354815021
 21
5.299764112855489
 31
0.0
  0
LINE
  5
28A5
330
1E
100
AcDbEntity
  8
7
100
AcDbLine
 10
3.033224815048832
 20
5.224855970707853
 30
0.0
 11
3.047023683339186
 21
5.224855970707853
 31
0.0
  0
LINE
  5
28A6
330
1E
100
AcDbEntity
  8
7
100
AcDbLine
 10
3.238236572505526
 20
5.224855970707853
 30
0.0
 11
3.222466437316549
 21
5.224855970707853
 31
0.0
  0
LINE
  5
28A7
330
1E
100
AcDbEntity
  8
7
100
AcDbLine
 10
3.03125354815021
 20
5.260338774883049
 30
0.0
 11
3.03125354815021
 21
5.299764112855489
 31
0.0
  0
LINE
  5
28A8
330
1E
100
AcDbEntity
  8
7
100
AcDbLine
 10
3.03125354815021
 20
5.260338774883049
 30
0.0
 11
3.033224815048832
 21
5.224855970707853
 31
0.0
  0
LINE
  5
28A9
330
1E
100
AcDbEntity
  8
7
100
AcDbLine
 10
3.025339747454343
 20
5.177545565140923
 30
0.0
 11
3.047023683339186
 21
5.177545565140923
 31
0.0
  0
LINE
  5
28B0
330
1E
100
AcDbEntity
  8
7
100
AcDbLine
 10
2.585747229061627
 20
5.177545565140923
 30
0.0
 11
2.609402431845092
 21
5.177545565140923
 31
0.0
  0
LINE
  5
28B6
330
1E
100
AcDbEntity
  8
7
100
AcDbLine
 10
2.396505606793911
 20
5.224855970707853
 30
0.0
 11
2.412275741982887
 21
5.224855970707853
 31
0.0
  0
LINE
  5
28B7
330
1E
100
AcDbEntity
  8
7
100
AcDbLine
 10
2.396505606793911
 20
5.260338774883049
 30
0.0
 11
2.394534339895289
 21
5.299764112855489
 31
0.0
  0
LINE
  5
28B8
330
1E
100
AcDbEntity
  8
7
100
AcDbLine
 10
2.396505606793911
 20
5.260338774883049
 30
0.0
 11
2.396505606793911
 21
5.224855970707853
 31
0.0
  0
LINE
  5
28B9
330
1E
100
AcDbEntity
  8
7
100
AcDbLine
 10
2.388620539199423
 20
5.177545565140923
 30
0.0
 11
2.412275741982887
 21
5.177545565140923
 31
0.0
  0
LINE
  5
28BA
330
1E
100
AcDbEntity
  8
7
100
AcDbLine
 10
2.396505606793911
 20
5.260338774883049
 30
0.0
 11
2.189522582438597
 21
5.260338774883049
 31
0.0
  0
LINE
  5
28BB
330
1E
100
AcDbEntity
  8
7
100
AcDbLine
 10
2.189522582438597
 20
4.793148519909623
 30
0.0
 11
2.189522582438597
 21
5.260338774883049
 31
0.0
  0
LINE
  5
28BC
330
1E
100
AcDbEntity
  8
7
100
AcDbLine
 10
2.254574390093124
 20
4.793148519909623
 30
0.0
 11
2.254574390093124
 21
4.747809381241317
 31
0.0
  0
LINE
  5
28C2
330
1E
100
AcDbEntity
  8
7
100
AcDbLine
 10
3.244150373201391
 20
5.147976561661592
 30
0.0
 11
3.244150373201391
 21
5.177545565140923
 31
0.0
  0
LINE
  5
28C3
330
1E
100
AcDbEntity
  8
7
100
AcDbLine
 10
3.244150373201391
 20
5.197258234127144
 30
0.0
 11
3.244150373201391
 21
5.177545565140923
 31
0.0
  0
LINE
  5
28C4
330
1E
100
AcDbEntity
  8
7
100
AcDbLine
 10
3.447190863759462
 20
5.197258234127144
 30
0.0
 11
3.244150373201391
 21
5.197258234127144
 31
0.0
  0
LINE
  5
28C5
330
1E
100
AcDbEntity
  8
7
100
AcDbLine
 10
3.447190863759462
 20
5.260338774883049
 30
0.0
 11
3.447190863759462
 21
5.197258234127144
 31
0.0
  0
LINE
  5
28C6
330
1E
100
AcDbEntity
  8
7
100
AcDbLine
 10
3.447190863759462
 20
5.260338774883049
 30
0.0
 11
3.238236572505526
 21
5.260338774883049
 31
0.0
  0
LINE
  5
28C7
330
1E
100
AcDbEntity
  8
7
100
AcDbLine
 10
3.222466437316549
 20
5.177545565140923
 30
0.0
 11
3.244150373201391
 21
5.177545565140923
 31
0.0
  0
LINE
  5
28C8
330
1E
100
AcDbEntity
  8
7
100
AcDbLine
 10
3.447190863759462
 20
4.793148519909623
 30
0.0
 11
3.447190863759462
 21
5.260338774883049
 31
0.0
  0
LINE
  5
28C9
330
1E
100
AcDbEntity
  8
7
100
AcDbLine
 10
3.447190863759462
 20
4.793148519909623
 30
0.0
 11
3.447190863759462
 21
5.197258234127144
 31
0.0
  0
LINE
  5
28CA
330
1E
100
AcDbEntity
  8
7
100
AcDbLine
 10
3.380167789206313
 20
4.793148519909623
 30
0.0
 11
3.447190863759462
 21
4.793148519909623
 31
0.0
  0
LINE
  5
28D5
330
1E
100
AcDbEntity
  8
7
100
AcDbLine
 10
3.557581810082296
 20
4.793148519909623
 30
0.0
 11
3.626576151534068
 21
4.793148519909623
 31
0.0
  0
LINE
  5
28DB
330
1E
100
AcDbEntity
  8
7
100
AcDbLine
 10
3.557581810082296
 20
4.793148519909623
 30
0.0
 11
3.557581810082296
 21
5.260338774883049
 31
0.0
  0
LINE
  5
28E1
330
1E
100
AcDbEntity
  8
7
100
AcDbLine
 10
4.852704162476982
 20
5.309620447348599
 30
0.0
 11
2.152068511364777
 21
5.309620447348599
 31
0.0
  0
LINE
  5
28E7
330
1E
100
AcDbEntity
  8
7
100
AcDbLine
 10
2.152068511364777
 20
5.309620447348599
 30
0.0
 11
2.142212176871666
 21
4.747809381241317
 31
0.0
  0
LINE
  5
28E8
330
1E
100
AcDbEntity
  8
7
100
AcDbLine
 10
3.768507368234855
 20
5.260338774883049
 30
0.0
 11
3.557581810082296
 21
5.260338774883049
 31
0.0
  0
LINE
  5
28E9
330
1E
100
AcDbEntity
  8
7
100
AcDbLine
 10
3.768507368234855
 20
5.260338774883049
 30
0.0
 11
3.766536101336233
 21
5.299764112855489
 31
0.0
  0
LINE
  5
28EA
330
1E
100
AcDbEntity
  8
7
100
AcDbLine
 10
3.975490392590171
 20
5.299764112855489
 30
0.0
 11
3.766536101336233
 21
5.299764112855489
 31
0.0
  0
LINE
  5
28EB
330
1E
100
AcDbEntity
  8
7
100
AcDbLine
 10
3.97351912569155
 20
5.260338774883049
 30
0.0
 11
3.975490392590171
 21
5.299764112855489
 31
0.0
  0
LINE
  5
28F1
330
1E
100
AcDbEntity
  8
7
100
AcDbLine
 10
4.61023833394647
 20
5.299764112855489
 30
0.0
 11
4.403255309591154
 21
5.299764112855489
 31
0.0
  0
LINE
  5
28F2
330
1E
100
AcDbEntity
  8
7
100
AcDbLine
 10
4.61023833394647
 20
5.260338774883049
 30
0.0
 11
4.61023833394647
 21
5.299764112855489
 31
0.0
  0
LINE
  5
28F3
330
1E
100
AcDbEntity
  8
7
100
AcDbLine
 10
4.61023833394647
 20
5.260338774883049
 30
0.0
 11
4.817221358301784
 21
5.260338774883049
 31
0.0
  0
LINE
  5
28F4
330
1E
100
AcDbEntity
  8
7
100
AcDbLine
 10
4.817221358301784
 20
4.793148519909623
 30
0.0
 11
4.817221358301784
 21
5.260338774883049
 31
0.0
  0
LINE
  5
28FA
330
1E
100
AcDbEntity
  8
7
100
AcDbLine
 10
4.862560496970091
 20
4.747809381241317
 30
0.0
 11
4.852704162476982
 21
5.309620447348599
 31
0.0
  0
LINE
  5
28FB
330
1E
100
AcDbEntity
  8
7
100
AcDbLine
 10
3.760622300640367
 20
5.197258234127144
 30
0.0
 11
3.55955307698092
 21
5.197258234127144
 31
0.0
  0
LINE
  5
2901
330
1E
100
AcDbEntity
  8
7
100
AcDbLine
 10
3.768507368234855
 20
5.224855970707853
 30
0.0
 11
3.784277503423831
 21
5.224855970707853
 31
0.0
  0
LINE
  5
2902
330
1E
100
AcDbEntity
  8
7
100
AcDbLine
 10
3.768507368234855
 20
5.260338774883049
 30
0.0
 11
3.768507368234855
 21
5.224855970707853
 31
0.0
  0
LINE
  5
2903
330
1E
100
AcDbEntity
  8
7
100
AcDbLine
 10
3.760622300640367
 20
5.177545565140923
 30
0.0
 11
3.760622300640367
 21
5.147976561661592
 31
0.0
  0
LINE
  5
2909
330
1E
100
AcDbEntity
  8
7
100
AcDbLine
 10
2.889322331449423
 20
4.793148519909623
 30
0.0
 11
2.743448580951391
 21
4.793148519909623
 31
0.0
  0
LINE
  5
2915
330
1E
100
AcDbEntity
  8
7
100
AcDbLine
 10
4.26329535978899
 20
4.747809381241317
 30
0.0
 11
4.261324092890367
 21
4.793148519909623
 31
0.0
  0
LINE
  5
2916
330
1E
100
AcDbEntity
  8
7
100
AcDbLine
 10
4.261324092890367
 20
4.793148519909623
 30
0.0
 11
4.261324092890367
 21
4.747809381241317
 31
0.0
  0
LINE
  5
291C
330
1E
100
AcDbEntity
  8
7
100
AcDbLine
 10
4.594468198757494
 20
5.177545565140923
 30
0.0
 11
4.616152134642337
 21
5.177545565140923
 31
0.0
  0
LINE
  5
291D
330
1E
100
AcDbEntity
  8
7
100
AcDbLine
 10
4.616152134642337
 20
5.197258234127144
 30
0.0
 11
4.616152134642337
 21
5.177545565140923
 31
0.0
  0
LINE
  5
291E
330
1E
100
AcDbEntity
  8
7
100
AcDbLine
 10
4.616152134642337
 20
5.197258234127144
 30
0.0
 11
4.817221358301784
 21
5.197258234127144
 31
0.0
  0
LINE
  5
291F
330
1E
100
AcDbEntity
  8
7
100
AcDbLine
 10
4.616152134642337
 20
5.147976561661592
 30
0.0
 11
4.616152134642337
 21
5.177545565140923
 31
0.0
  0
LINE
  5
2920
330
1E
100
AcDbEntity
  8
7
100
AcDbLine
 10
4.752169550647257
 20
4.793148519909623
 30
0.0
 11
4.750198283748636
 21
4.747809381241317
 31
0.0
  0
LINE
  5
2921
330
1E
100
AcDbEntity
  8
7
100
AcDbLine
 10
3.957748990502573
 20
5.159804163053324
 30
0.0
 11
3.957748990502573
 21
5.157832896154702
 31
0.0
  0
LINE
  5
2922
330
1E
100
AcDbEntity
  8
7
100
AcDbLine
 10
3.784277503423831
 20
5.159804163053324
 30
0.0
 11
3.957748990502573
 21
5.159804163053324
 31
0.0
  0
LINE
  5
2923
330
1E
100
AcDbEntity
  8
7
100
AcDbLine
 10
3.784277503423831
 20
5.159804163053324
 30
0.0
 11
3.784277503423831
 21
5.157832896154702
 31
0.0
  0
LINE
  5
2924
330
1E
100
AcDbEntity
  8
7
100
AcDbLine
 10
3.784277503423831
 20
5.199229501025765
 30
0.0
 11
3.784277503423831
 21
5.159804163053324
 31
0.0
  0
LINE
  5
2925
330
1E
100
AcDbEntity
  8
7
100
AcDbLine
 10
3.957748990502573
 20
5.199229501025765
 30
0.0
 11
3.957748990502573
 21
5.159804163053324
 31
0.0
  0
LINE
  5
2926
330
1E
100
AcDbEntity
  8
7
100
AcDbLine
 10
3.957748990502573
 20
5.199229501025765
 30
0.0
 11
3.784277503423831
 21
5.199229501025765
 31
0.0
  0
LINE
  5
2927
330
1E
100
AcDbEntity
  8
7
100
AcDbLine
 10
3.957748990502573
 20
5.224855970707853
 30
0.0
 11
3.957748990502573
 21
5.199229501025765
 31
0.0
  0
LINE
  5
2928
330
1E
100
AcDbEntity
  8
7
100
AcDbLine
 10
3.784277503423831
 20
5.224855970707853
 30
0.0
 11
3.957748990502573
 21
5.224855970707853
 31
0.0
  0
LINE
  5
2929
330
1E
100
AcDbEntity
  8
7
100
AcDbLine
 10
3.784277503423831
 20
5.224855970707853
 30
0.0
 11
3.784277503423831
 21
5.199229501025765
 31
0.0
  0
LINE
  5
292A
330
1E
100
AcDbEntity
  8
7
100
AcDbLine
 10
3.800047638612808
 20
5.157832896154702
 30
0.0
 11
3.800047638612808
 21
5.147976561661592
 31
0.0
  0
LINE
  5
292B
330
1E
100
AcDbEntity
  8
7
100
AcDbLine
 10
3.941978855313597
 20
5.147976561661592
 30
0.0
 11
3.941978855313597
 21
5.157832896154702
 31
0.0
  0
LINE
  5
2931
330
1E
100
AcDbEntity
  8
7
100
AcDbLine
 10
3.981404193286038
 20
5.147976561661592
 30
0.0
 11
3.981404193286038
 21
5.177545565140923
 31
0.0
  0
LINE
  5
2932
330
1E
100
AcDbEntity
  8
7
100
AcDbLine
 10
3.957748990502573
 20
5.177545565140923
 30
0.0
 11
3.981404193286038
 21
5.177545565140923
 31
0.0
  0
LINE
  5
2939
330
1E
100
AcDbEntity
  8
7
100
AcDbLine
 10
4.403255309591154
 20
5.224855970707853
 30
0.0
 11
4.419025444780131
 21
5.224855970707853
 31
0.0
  0
LINE
  5
293A
330
1E
100
AcDbEntity
  8
7
100
AcDbLine
 10
4.403255309591154
 20
5.260338774883049
 30
0.0
 11
4.403255309591154
 21
5.224855970707853
 31
0.0
  0
LINE
  5
293B
330
1E
100
AcDbEntity
  8
7
100
AcDbLine
 10
3.981404193286038
 20
5.197258234127144
 30
0.0
 11
3.981404193286038
 21
5.177545565140923
 31
0.0
  0
LINE
  5
293C
330
1E
100
AcDbEntity
  8
7
100
AcDbLine
 10
4.397341508895289
 20
5.177545565140923
 30
0.0
 11
4.397341508895289
 21
5.147976561661592
 31
0.0
  0
LINE
  5
293D
330
1E
100
AcDbEntity
  8
7
100
AcDbLine
 10
4.594468198757494
 20
5.159804163053324
 30
0.0
 11
4.594468198757494
 21
5.157832896154702
 31
0.0
  0
LINE
  5
293E
330
1E
100
AcDbEntity
  8
7
100
AcDbLine
 10
4.419025444780131
 20
5.159804163053324
 30
0.0
 11
4.594468198757494
 21
5.159804163053324
 31
0.0
  0
LINE
  5
293F
330
1E
100
AcDbEntity
  8
7
100
AcDbLine
 10
4.419025444780131
 20
5.159804163053324
 30
0.0
 11
4.419025444780131
 21
5.157832896154702
 31
0.0
  0
LINE
  5
2940
330
1E
100
AcDbEntity
  8
7
100
AcDbLine
 10
4.419025444780131
 20
5.199229501025765
 30
0.0
 11
4.419025444780131
 21
5.159804163053324
 31
0.0
  0
LINE
  5
2941
330
1E
100
AcDbEntity
  8
7
100
AcDbLine
 10
4.594468198757494
 20
5.199229501025765
 30
0.0
 11
4.594468198757494
 21
5.159804163053324
 31
0.0
  0
LINE
  5
2942
330
1E
100
AcDbEntity
  8
7
100
AcDbLine
 10
4.594468198757494
 20
5.199229501025765
 30
0.0
 11
4.419025444780131
 21
5.199229501025765
 31
0.0
  0
LINE
  5
2943
330
1E
100
AcDbEntity
  8
7
100
AcDbLine
 10
4.594468198757494
 20
5.224855970707853
 30
0.0
 11
4.594468198757494
 21
5.199229501025765
 31
0.0
  0
LINE
  5
2944
330
1E
100
AcDbEntity
  8
7
100
AcDbLine
 10
4.419025444780131
 20
5.224855970707853
 30
0.0
 11
4.594468198757494
 21
5.224855970707853
 31
0.0
  0
LINE
  5
2945
330
1E
100
AcDbEntity
  8
7
100
AcDbLine
 10
4.419025444780131
 20
5.224855970707853
 30
0.0
 11
4.419025444780131
 21
5.199229501025765
 31
0.0
  0
LINE
  5
2946
330
1E
100
AcDbEntity
  8
7
100
AcDbLine
 10
4.434795579969107
 20
5.157832896154702
 30
0.0
 11
4.434795579969107
 21
5.147976561661592
 31
0.0
  0
LINE
  5
2947
330
1E
100
AcDbEntity
  8
7
100
AcDbLine
 10
4.578698063568517
 20
5.147976561661592
 30
0.0
 11
4.578698063568517
 21
5.157832896154702
 31
0.0
  0
LINE
  5
2952
330
1E
100
AcDbEntity
  8
7
100
AcDbLine
 10
2.532523022798832
 20
4.266820257977537
 30
0.0
 11
2.532523022798832
 21
4.26090645728167
 31
0.0
  0
LINE
  5
2953
330
1E
100
AcDbEntity
  8
7
100
AcDbLine
 10
2.465499948245683
 20
4.266820257977537
 30
0.0
 11
2.465499948245683
 21
4.26090645728167
 31
0.0
  0
LINE
  5
2954
330
1E
100
AcDbEntity
  8
7
100
AcDbLine
 10
2.591661029757494
 20
4.266820257977537
 30
0.0
 11
2.532523022798832
 21
4.266820257977537
 31
0.0
  0
LINE
  5
2955
330
1E
100
AcDbEntity
  8
7
100
AcDbLine
 10
2.465499948245683
 20
4.266820257977537
 30
0.0
 11
2.532523022798832
 21
4.266820257977537
 31
0.0
  0
LINE
  5
2956
330
1E
100
AcDbEntity
  8
7
100
AcDbLine
 10
2.406361941287021
 20
4.266820257977537
 30
0.0
 11
2.465499948245683
 21
4.266820257977537
 31
0.0
  0
LINE
  5
2957
330
1E
100
AcDbEntity
  8
7
100
AcDbLine
 10
3.043081149541943
 20
4.266820257977537
 30
0.0
 11
3.09827662270336
 21
4.266820257977537
 31
0.0
  0
LINE
  5
2958
330
1E
100
AcDbEntity
  8
7
100
AcDbLine
 10
3.902553517341154
 20
4.266820257977537
 30
0.0
 11
3.904524784239778
 21
4.26090645728167
 31
0.0
  0
LINE
  5
2959
330
1E
100
AcDbEntity
  8
7
100
AcDbLine
 10
3.963662791198438
 20
4.266820257977537
 30
0.0
 11
3.902553517341154
 21
4.266820257977537
 31
0.0
  0
LINE
  5
295A
330
1E
100
AcDbEntity
  8
7
100
AcDbLine
 10
3.900582250442533
 20
4.266820257977537
 30
0.0
 11
3.902553517341154
 21
4.266820257977537
 31
0.0
  0
LINE
  5
295B
330
1E
100
AcDbEntity
  8
7
100
AcDbLine
 10
4.539272725596076
 20
4.266820257977537
 30
0.0
 11
4.539272725596076
 21
4.26090645728167
 31
0.0
  0
LINE
  5
295C
330
1E
100
AcDbEntity
  8
7
100
AcDbLine
 10
4.47422091794155
 20
4.266820257977537
 30
0.0
 11
4.47422091794155
 21
4.26090645728167
 31
0.0
  0
LINE
  5
2962
330
1E
100
AcDbEntity
  8
7
100
AcDbLine
 10
4.415082910982888
 20
4.266820257977537
 30
0.0
 11
4.47422091794155
 21
4.266820257977537
 31
0.0
  0
LINE
  5
2963
330
1E
100
AcDbEntity
  8
7
100
AcDbLine
 10
2.252603123194502
 20
4.927194669015923
 30
0.0
 11
2.252603123194502
 21
4.901568199333835
 31
0.0
  0
LINE
  5
2964
330
1E
100
AcDbEntity
  8
7
100
AcDbLine
 10
4.752169550647257
 20
4.901568199333835
 30
0.0
 11
4.754140817545879
 21
4.927194669015923
 31
0.0
  0
LINE
  5
2965
330
1E
100
AcDbEntity
  8
7
100
AcDbLine
 10
5.254842609795879
 20
4.649246036310214
 30
0.0
 11
3.961691524299816
 21
4.649246036310214
 31
0.0
  0
LINE
  5
2972
330
1E
100
AcDbEntity
  8
7
100
AcDbLine
 10
3.037167348846077
 20
4.649246036310214
 30
0.0
 11
1.751901330944502
 21
4.649246036310214
 31
0.0
  0
LINE
  5
297D
330
1E
100
AcDbEntity
  8
7
100
AcDbLine
 10
1.751901330944502
 20
4.649246036310214
 30
0.0
 11
1.747958797147257
 21
4.40480894088108
 31
0.0
  0
LINE
  5
297E
330
1E
100
AcDbEntity
  8
7
100
AcDbLine
 10
3.037167348846077
 20
4.40480894088108
 30
0.0
 11
3.037167348846077
 21
4.649246036310214
 31
0.0
  0
LINE
  5
297F
330
1E
100
AcDbEntity
  8
7
100
AcDbLine
 10
3.961691524299816
 20
4.649246036310214
 30
0.0
 11
3.961691524299816
 21
4.40480894088108
 31
0.0
  0
LINE
  5
298D
330
1E
100
AcDbEntity
  8
7
100
AcDbLine
 10
3.403822991989778
 20
4.426492876765923
 30
0.0
 11
3.403822991989778
 21
4.40480894088108
 31
0.0
  0
LINE
  5
298E
330
1E
100
AcDbEntity
  8
7
100
AcDbLine
 10
3.403822991989778
 20
4.426492876765923
 30
0.0
 11
3.328914849842139
 21
4.426492876765923
 31
0.0
  0
LINE
  5
298F
330
1E
100
AcDbEntity
  8
7
100
AcDbLine
 10
3.328914849842139
 20
4.40480894088108
 30
0.0
 11
3.403822991989778
 21
4.40480894088108
 31
0.0
  0
LINE
  5
2995
330
1E
100
AcDbEntity
  8
7
100
AcDbLine
 10
3.403822991989778
 20
4.343699667023797
 30
0.0
 11
3.328914849842139
 21
4.343699667023797
 31
0.0
  0
LINE
  5
2996
330
1E
100
AcDbEntity
  8
7
100
AcDbLine
 10
3.328914849842139
 20
4.343699667023797
 30
0.0
 11
3.403822991989778
 21
4.343699667023797
 31
0.0
  0
LINE
  5
2997
330
1E
100
AcDbEntity
  8
7
100
AcDbLine
 10
3.403822991989778
 20
4.314130663544466
 30
0.0
 11
3.403822991989778
 21
4.339757133226552
 31
0.0
  0
LINE
  5
2998
330
1E
100
AcDbEntity
  8
7
100
AcDbLine
 10
3.403822991989778
 20
4.339757133226552
 30
0.0
 11
3.328914849842139
 21
4.339757133226552
 31
0.0
  0
LINE
  5
2999
330
1E
100
AcDbEntity
  8
7
100
AcDbLine
 10
3.328914849842139
 20
4.314130663544466
 30
0.0
 11
3.403822991989778
 21
4.314130663544466
 31
0.0
  0
LINE
  5
299A
330
1E
100
AcDbEntity
  8
7
100
AcDbLine
 10
3.403822991989778
 20
4.306245595949977
 30
0.0
 11
3.328914849842139
 21
4.306245595949977
 31
0.0
  0
LINE
  5
29A5
330
1E
100
AcDbEntity
  8
7
100
AcDbLine
 10
3.669944023303754
 20
4.306245595949977
 30
0.0
 11
3.595035881156115
 21
4.306245595949977
 31
0.0
  0
LINE
  5
29A6
330
1E
100
AcDbEntity
  8
7
100
AcDbLine
 10
3.595035881156115
 20
4.314130663544466
 30
0.0
 11
3.669944023303754
 21
4.314130663544466
 31
0.0
  0
LINE
  5
29A7
330
1E
100
AcDbEntity
  8
7
100
AcDbLine
 10
3.669944023303754
 20
4.339757133226552
 30
0.0
 11
3.595035881156115
 21
4.339757133226552
 31
0.0
  0
LINE
  5
29A8
330
1E
100
AcDbEntity
  8
7
100
AcDbLine
 10
3.595035881156115
 20
4.314130663544466
 30
0.0
 11
3.595035881156115
 21
4.339757133226552
 31
0.0
  0
LINE
  5
29B4
330
1E
100
AcDbEntity
  8
7
100
AcDbLine
 10
3.669944023303754
 20
4.426492876765923
 30
0.0
 11
3.595035881156115
 21
4.426492876765923
 31
0.0
  0
LINE
  5
29B5
330
1E
100
AcDbEntity
  8
7
100
AcDbLine
 10
3.595035881156115
 20
4.426492876765923
 30
0.0
 11
3.595035881156115
 21
4.40480894088108
 31
0.0
  0
LINE
  5
29B6
330
1E
100
AcDbEntity
  8
7
100
AcDbLine
 10
3.669944023303754
 20
4.483659616825962
 30
0.0
 11
3.328914849842139
 21
4.483659616825962
 31
0.0
  0
LINE
  5
29BC
330
1E
100
AcDbEntity
  8
7
100
AcDbLine
 10
3.595035881156115
 20
4.227394920005096
 30
0.0
 11
3.595035881156115
 21
4.306245595949977
 31
0.0
  0
LINE
  5
29C7
330
1E
100
AcDbEntity
  8
7
100
AcDbLine
 10
3.403822991989778
 20
4.306245595949977
 30
0.0
 11
3.403822991989778
 21
4.227394920005096
 31
0.0
  0
LINE
  5
29CD
330
1E
100
AcDbEntity
  8
7
100
AcDbLine
 10
3.413679326482887
 20
4.21162478481612
 30
0.0
 11
3.407765525787021
 21
4.217538585511986
 31
0.0
  0
LINE
  5
29D8
330
1E
100
AcDbEntity
  8
7
100
AcDbLine
 10
3.591093347358872
 20
4.217538585511986
 30
0.0
 11
3.585179546663006
 21
4.21162478481612
 31
0.0
  0
LINE
  5
29D9
330
1E
100
AcDbEntity
  8
7
100
AcDbLine
 10
3.841444243483872
 20
4.33778586632793
 30
0.0
 11
3.790191304119698
 21
4.33778586632793
 31
0.0
  0
LINE
  5
29DF
330
1E
100
AcDbEntity
  8
7
100
AcDbLine
 10
3.790191304119698
 20
4.33778586632793
 30
0.0
 11
3.790191304119698
 21
4.416636542272811
 31
0.0
  0
LINE
  5
29E0
330
1E
100
AcDbEntity
  8
7
100
AcDbLine
 10
3.841444243483872
 20
4.314130663544466
 30
0.0
 11
3.841444243483872
 21
4.33778586632793
 31
0.0
  0
LINE
  5
29E1
330
1E
100
AcDbEntity
  8
7
100
AcDbLine
 10
3.790191304119698
 20
4.314130663544466
 30
0.0
 11
3.790191304119698
 21
4.33778586632793
 31
0.0
  0
LINE
  5
29E2
330
1E
100
AcDbEntity
  8
7
100
AcDbLine
 10
3.790191304119698
 20
4.440291745056276
 30
0.0
 11
3.790191304119698
 21
4.416636542272811
 31
0.0
  0
LINE
  5
29E3
330
1E
100
AcDbEntity
  8
7
100
AcDbLine
 10
3.841444243483872
 20
4.440291745056276
 30
0.0
 11
3.841444243483872
 21
4.416636542272811
 31
0.0
  0
LINE
  5
29E4
330
1E
100
AcDbEntity
  8
7
100
AcDbLine
 10
3.208667569026195
 20
4.33778586632793
 30
0.0
 11
3.157414629662021
 21
4.33778586632793
 31
0.0
  0
LINE
  5
29EA
330
1E
100
AcDbEntity
  8
7
100
AcDbLine
 10
3.157414629662021
 20
4.33778586632793
 30
0.0
 11
3.157414629662021
 21
4.416636542272811
 31
0.0
  0
LINE
  5
29EB
330
1E
100
AcDbEntity
  8
7
100
AcDbLine
 10
3.208667569026195
 20
4.314130663544466
 30
0.0
 11
3.208667569026195
 21
4.33778586632793
 31
0.0
  0
LINE
  5
29EC
330
1E
100
AcDbEntity
  8
7
100
AcDbLine
 10
3.157414629662021
 20
4.314130663544466
 30
0.0
 11
3.157414629662021
 21
4.33778586632793
 31
0.0
  0
LINE
  5
29ED
330
1E
100
AcDbEntity
  8
7
100
AcDbLine
 10
3.157414629662021
 20
4.440291745056276
 30
0.0
 11
3.157414629662021
 21
4.416636542272811
 31
0.0
  0
LINE
  5
29EE
330
1E
100
AcDbEntity
  8
7
100
AcDbLine
 10
3.208667569026195
 20
4.440291745056276
 30
0.0
 11
3.208667569026195
 21
4.416636542272811
 31
0.0
  0
LINE
  5
29F6
330
1E
100
AcDbEntity
  8
7
100
AcDbLine
 10
8.485749056637414
 20
6.884662699347614
 30
0.0
 11
8.637536607831313
 21
6.884662699347614
 31
0.0
  0
LINE
  5
29F7
330
1E
100
AcDbEntity
  8
7
100
AcDbLine
 10
8.142748616277177
 20
6.861007496564152
 30
0.0
 11
8.142748616277177
 21
9.216671440417496
 31
0.0
  0
LINE
  5
2A0C
330
1E
100
AcDbEntity
  8
7
100
AcDbLine
 10
8.485749056637414
 20
9.222585241113364
 30
0.0
 11
8.241311961208282
 21
9.216671440417496
 31
0.0
  0
LINE
  5
2A0D
330
1E
100
AcDbEntity
  8
7
100
AcDbLine
 10
8.355645441328361
 20
6.693449810181276
 30
0.0
 11
8.355645441328361
 21
6.758501617835803
 31
0.0
  0
LINE
  5
2A14
330
1E
100
AcDbEntity
  8
7
100
AcDbLine
 10
8.404927113793911
 20
6.756530350937182
 30
0.0
 11
8.404927113793911
 21
6.693449810181276
 31
0.0
  0
LINE
  5
2A15
330
1E
100
AcDbEntity
  8
7
100
AcDbLine
 10
8.544887063596076
 20
6.833409759983442
 30
0.0
 11
8.485749056637414
 21
6.833409759983442
 31
0.0
  0
LINE
  5
2A16
330
1E
100
AcDbEntity
  8
7
100
AcDbLine
 10
8.544887063596076
 20
6.833409759983442
 30
0.0
 11
8.544887063596076
 21
6.829467226186198
 31
0.0
  0
LINE
  5
2A17
330
1E
100
AcDbEntity
  8
7
100
AcDbLine
 10
8.544887063596076
 20
6.829467226186198
 30
0.0
 11
8.546858330494698
 21
6.807783290301354
 31
0.0
  0
LINE
  5
2A1D
330
1E
100
AcDbEntity
  8
7
100
AcDbLine
 10
8.576427333974029
 20
6.803840756504111
 30
0.0
 11
8.550800864291943
 21
6.803840756504111
 31
0.0
  0
LINE
  5
2A23
330
1E
100
AcDbEntity
  8
7
100
AcDbLine
 10
8.584312401568517
 20
6.807783290301354
 30
0.0
 11
8.671048145107887
 21
6.880720165550371
 31
0.0
  0
LINE
  5
2A3D
330
1E
100
AcDbEntity
  8
7
100
AcDbLine
 10
7.565167414980919
 20
7.817071942395844
 30
0.0
 11
8.142748616277177
 21
8.891412402144862
 31
0.0
  0
LINE
  5
2A3E
330
1E
100
AcDbEntity
  8
7
100
AcDbLine
 10
8.641479141628556
 20
9.279751981173401
 30
0.0
 11
8.584312401568517
 21
9.281723248072026
 31
0.0
  0
LINE
  5
2A44
330
1E
100
AcDbEntity
  8
7
100
AcDbLine
 10
8.485749056637414
 20
9.232441575606472
 30
0.0
 11
8.493634124231903
 21
9.224556508011986
 31
0.0
  0
LINE
  5
2A4A
330
1E
100
AcDbEntity
  8
7
100
AcDbLine
 10
8.566570999480919
 20
9.228499041809229
 30
0.0
 11
8.584312401568517
 21
9.281723248072026
 31
0.0
  0
LINE
  5
2A4B
330
1E
100
AcDbEntity
  8
7
100
AcDbLine
 10
8.546858330494698
 20
6.953657040799388
 30
0.0
 11
8.485749056637414
 21
7.014766314656672
 31
0.0
  0
LINE
  5
2A4C
330
1E
100
AcDbEntity
  8
7
100
AcDbLine
 10
8.637536607831313
 20
6.884662699347614
 30
0.0
 11
8.637536607831313
 21
6.953657040799388
 31
0.0
  0
LINE
  5
2A4D
330
1E
100
AcDbEntity
  8
7
100
AcDbLine
 10
8.495605391130526
 20
8.658802908107459
 30
0.0
 11
8.586283668467139
 21
8.66077417500608
 31
0.0
  0
LINE
  5
2A4E
330
1E
100
AcDbEntity
  8
7
100
AcDbLine
 10
8.495605391130526
 20
8.658802908107459
 30
0.0
 11
8.485749056637414
 21
8.658802908107459
 31
0.0
  0
LINE
  5
2A54
330
1E
100
AcDbEntity
  8
7
100
AcDbLine
 10
8.495605391130526
 20
8.712027114370252
 30
0.0
 11
8.495605391130526
 21
8.658802908107459
 31
0.0
  0
LINE
  5
2A55
330
1E
100
AcDbEntity
  8
7
100
AcDbLine
 10
8.586283668467139
 20
8.710055847471631
 30
0.0
 11
8.586283668467139
 21
8.66077417500608
 31
0.0
  0
LINE
  5
2A6B
330
1E
100
AcDbEntity
  8
7
100
AcDbLine
 10
7.608535286750603
 20
7.797359273409624
 30
0.0
 11
7.610506553649225
 21
7.795388006511003
 31
0.0
  0
LINE
  5
2A6C
330
1E
100
AcDbEntity
  8
7
100
AcDbLine
 10
8.142748616277177
 20
8.786935256517891
 30
0.0
 11
7.610506553649225
 21
7.795388006511003
 31
0.0
  0
LINE
  5
2A6D
330
1E
100
AcDbEntity
  8
7
100
AcDbLine
 10
8.493634124231903
 20
7.556864711777732
 30
0.0
 11
8.485749056637414
 21
7.547008377284624
 31
0.0
  0
LINE
  5
2A6E
330
1E
100
AcDbEntity
  8
7
100
AcDbLine
 10
8.485749056637414
 20
7.438588697860412
 30
0.0
 11
8.621766472642336
 21
7.594318782851553
 31
0.0
  0
LINE
  5
2A75
330
1E
100
AcDbEntity
  8
7
100
AcDbLine
 10
8.604025070554737
 20
7.635715387722614
 30
0.0
 11
8.485749056637414
 21
7.637686654621239
 31
0.0
  0
LINE
  5
2A76
330
1E
100
AcDbEntity
  8
7
100
AcDbLine
 10
8.485749056637414
 20
7.584462448358442
 30
0.0
 11
8.493634124231903
 21
7.576577380763955
 31
0.0
  0
LINE
  5
2A77
330
1E
100
AcDbEntity
  8
7
100
AcDbLine
 10
8.493634124231903
 20
7.556864711777732
 30
0.0
 11
8.493634124231903
 21
7.576577380763955
 31
0.0
  0
LINE
  5
2A88
330
1E
100
AcDbEntity
  8
7
100
AcDbLine
 10
8.787352892126587
 20
6.953657040799388
 30
0.0
 11
8.787352892126587
 21
6.884662699347614
 31
0.0
  0
LINE
  5
2A96
330
1E
100
AcDbEntity
  8
7
100
AcDbLine
 10
8.552772131190565
 20
6.861007496564152
 30
0.0
 11
8.485749056637414
 21
6.861007496564152
 31
0.0
  0
LINE
  5
2A97
330
1E
100
AcDbEntity
  8
7
100
AcDbLine
 10
8.576427333974029
 20
6.884662699347614
 30
0.0
 11
8.552772131190565
 21
6.861007496564152
 31
0.0
  0
LINE
  5
2A9F
330
1E
100
AcDbEntity
  8
7
100
AcDbLine
 10
8.485749056637414
 20
6.756530350937182
 30
0.0
 11
8.241311961208282
 21
6.760472884734425
 31
0.0
  0
LINE
  5
2AA0
330
1E
100
AcDbEntity
  8
7
100
AcDbLine
 10
8.241311961208282
 20
6.760472884734425
 30
0.0
 11
8.23934069430966
 21
6.77427175302478
 31
0.0
  0
LINE
  5
2AA1
330
1E
100
AcDbEntity
  8
7
100
AcDbLine
 10
8.23934069430966
 20
6.77427175302478
 30
0.0
 11
8.23934069430966
 21
6.809754557199979
 31
0.0
  0
LINE
  5
2AA2
330
1E
100
AcDbEntity
  8
7
100
AcDbLine
 10
8.23934069430966
 20
6.809754557199979
 30
0.0
 11
8.241311961208282
 21
6.861007496564152
 31
0.0
  0
LINE
  5
2AA3
330
1E
100
AcDbEntity
  8
7
100
AcDbLine
 10
8.144719883175801
 20
6.861007496564152
 30
0.0
 11
8.158518751466154
 21
6.8117258240986
 31
0.0
  0
LINE
  5
2AA4
330
1E
100
AcDbEntity
  8
7
100
AcDbLine
 10
8.158518751466154
 20
6.8117258240986
 30
0.0
 11
8.192030288742731
 21
6.776243019923401
 31
0.0
  0
LINE
  5
2AA5
330
1E
100
AcDbEntity
  8
7
100
AcDbLine
 10
8.192030288742731
 20
6.776243019923401
 30
0.0
 11
8.241311961208282
 21
6.76244415163305
 31
0.0
  0
LINE
  5
2AA6
330
1E
100
AcDbEntity
  8
7
100
AcDbLine
 10
8.142748616277177
 20
7.18626653483679
 30
0.0
 11
7.578966283271272
 21
7.748077600944074
 31
0.0
  0
LINE
  5
2AA7
330
1E
100
AcDbEntity
  8
7
100
AcDbLine
 10
7.578966283271272
 20
7.748077600944074
 30
0.0
 11
7.588822617764384
 21
7.759905202335803
 31
0.0
  0
LINE
  5
2AA8
330
1E
100
AcDbEntity
  8
7
100
AcDbLine
 10
7.588822617764384
 20
7.759905202335803
 30
0.0
 11
7.61444908744647
 21
7.78356040511927
 31
0.0
  0
LINE
  5
2AA9
330
1E
100
AcDbEntity
  8
7
100
AcDbLine
 10
7.578966283271272
 20
7.748077600944074
 30
0.0
 11
7.563196148082296
 21
7.781589138220648
 31
0.0
  0
LINE
  5
2AAA
330
1E
100
AcDbEntity
  8
7
100
AcDbLine
 10
7.563196148082296
 20
7.781589138220648
 30
0.0
 11
7.565167414980919
 21
7.817071942395844
 31
0.0
  0
LINE
  5
2AAB
330
1E
100
AcDbEntity
  8
7
100
AcDbLine
 10
7.610506553649225
 20
7.795388006511003
 30
0.0
 11
7.61444908744647
 21
7.78356040511927
 31
0.0
  0
LINE
  5
2AAC
330
1E
100
AcDbEntity
  8
7
100
AcDbLine
 10
7.61444908744647
 20
7.78356040511927
 30
0.0
 11
8.142748616277177
 21
7.25526087628856
 31
0.0
  0
LINE
  5
2AAD
330
1E
100
AcDbEntity
  8
7
100
AcDbLine
 10
8.604025070554737
 20
7.635715387722614
 30
0.0
 11
8.621766472642336
 21
7.629801587026749
 31
0.0
  0
LINE
  5
2AAE
330
1E
100
AcDbEntity
  8
7
100
AcDbLine
 10
8.621766472642336
 20
7.629801587026749
 30
0.0
 11
8.627680273338201
 21
7.612060184939151
 31
0.0
  0
LINE
  5
2AAF
330
1E
100
AcDbEntity
  8
7
100
AcDbLine
 10
8.627680273338201
 20
7.612060184939151
 30
0.0
 11
8.621766472642336
 21
7.594318782851553
 31
0.0
  0
LINE
  5
2AB0
330
1E
100
AcDbEntity
  8
7
100
AcDbLine
 10
7.565167414980919
 20
7.817071942395844
 30
0.0
 11
7.569109948778162
 21
7.815100675497222
 31
0.0
  0
LINE
  5
2AB1
330
1E
100
AcDbEntity
  8
7
100
AcDbLine
 10
7.569109948778162
 20
7.815100675497222
 30
0.0
 11
7.575023749474029
 21
7.811158141699979
 31
0.0
  0
LINE
  5
2AB2
330
1E
100
AcDbEntity
  8
7
100
AcDbLine
 10
7.575023749474029
 20
7.811158141699979
 30
0.0
 11
7.58685135086576
 21
7.807215607902732
 31
0.0
  0
LINE
  5
2AB3
330
1E
100
AcDbEntity
  8
7
100
AcDbLine
 10
7.58685135086576
 20
7.807215607902732
 30
0.0
 11
7.600650219156115
 21
7.799330540308246
 31
0.0
  0
LINE
  5
2AB4
330
1E
100
AcDbEntity
  8
7
100
AcDbLine
 10
7.600650219156115
 20
7.799330540308246
 30
0.0
 11
7.608535286750603
 21
7.797359273409624
 31
0.0
  0
LINE
  5
2AB5
330
1E
100
AcDbEntity
  8
7
100
AcDbLine
 10
8.241311961208282
 20
9.216671440417496
 30
0.0
 11
8.23934069430966
 21
9.267924379781671
 31
0.0
  0
LINE
  5
2AB6
330
1E
100
AcDbEntity
  8
7
100
AcDbLine
 10
8.23934069430966
 20
9.267924379781671
 30
0.0
 11
8.23934069430966
 21
9.303407183956867
 31
0.0
  0
LINE
  5
2AB7
330
1E
100
AcDbEntity
  8
7
100
AcDbLine
 10
8.23934069430966
 20
9.303407183956867
 30
0.0
 11
8.241311961208282
 21
9.317206052247222
 31
0.0
  0
LINE
  5
2AB8
330
1E
100
AcDbEntity
  8
7
100
AcDbLine
 10
8.241311961208282
 20
9.317206052247222
 30
0.0
 11
8.485749056637414
 21
9.321148586044465
 31
0.0
  0
LINE
  5
2AB9
330
1E
100
AcDbEntity
  8
7
100
AcDbLine
 10
8.241311961208282
 20
9.3152347853486
 30
0.0
 11
8.192030288742731
 21
9.301435917058245
 31
0.0
  0
LINE
  5
2ABA
330
1E
100
AcDbEntity
  8
7
100
AcDbLine
 10
8.192030288742731
 20
9.301435917058245
 30
0.0
 11
8.158518751466154
 21
9.26595311288305
 31
0.0
  0
LINE
  5
2ABB
330
1E
100
AcDbEntity
  8
7
100
AcDbLine
 10
8.158518751466154
 20
9.26595311288305
 30
0.0
 11
8.144719883175801
 21
9.216671440417496
 31
0.0
  0
LINE
  5
2ABC
330
1E
100
AcDbEntity
  8
7
100
AcDbLine
 10
8.485749056637414
 20
8.712027114370252
 30
0.0
 11
8.495605391130526
 21
8.712027114370252
 31
0.0
  0
LINE
  5
2ABD
330
1E
100
AcDbEntity
  8
7
100
AcDbLine
 10
8.495605391130526
 20
8.712027114370252
 30
0.0
 11
8.586283668467139
 21
8.710055847471631
 31
0.0
  0
LINE
  5
2ABE
330
1E
100
AcDbEntity
  8
7
100
AcDbLine
 10
8.485749056637414
 20
9.141763298269861
 30
0.0
 11
8.641479141628556
 21
9.145705832067104
 31
0.0
  0
LINE
  5
2ABF
330
1E
100
AcDbEntity
  8
7
100
AcDbLine
 10
8.641479141628556
 20
9.145705832067104
 30
0.0
 11
8.641479141628556
 21
9.279751981173401
 31
0.0
  0
LINE
  5
2AC0
330
1E
100
AcDbEntity
  8
7
100
AcDbLine
 10
8.566570999480919
 20
9.228499041809229
 30
0.0
 11
8.560657198785053
 21
9.224556508011986
 31
0.0
  0
LINE
  5
2AC1
330
1E
100
AcDbEntity
  8
7
100
AcDbLine
 10
8.560657198785053
 20
9.224556508011986
 30
0.0
 11
8.493634124231903
 21
9.224556508011986
 31
0.0
  0
LINE
  5
2AC2
330
1E
100
AcDbEntity
  8
7
100
AcDbLine
 10
8.485749056637414
 20
6.953657040799388
 30
0.0
 11
8.637536607831313
 21
6.953657040799388
 31
0.0
  0
LINE
  5
2AC3
330
1E
100
AcDbEntity
  8
7
100
AcDbLine
 10
8.637536607831313
 20
6.953657040799388
 30
0.0
 11
8.694703347891351
 21
6.953657040799388
 31
0.0
  0
LINE
  5
2AC4
330
1E
100
AcDbEntity
  8
7
100
AcDbLine
 10
8.694703347891351
 20
6.953657040799388
 30
0.0
 11
8.743985020356902
 21
6.953657040799388
 31
0.0
  0
LINE
  5
2AC5
330
1E
100
AcDbEntity
  8
7
100
AcDbLine
 10
8.743985020356902
 20
6.953657040799388
 30
0.0
 11
8.775525290734854
 21
6.953657040799388
 31
0.0
  0
LINE
  5
2AC6
330
1E
100
AcDbEntity
  8
7
100
AcDbLine
 10
8.775525290734854
 20
6.953657040799388
 30
0.0
 11
8.787352892126587
 21
6.953657040799388
 31
0.0
  0
LINE
  5
2AC7
330
1E
100
AcDbEntity
  8
7
100
AcDbLine
 10
8.241311961208282
 20
9.216671440417496
 30
0.0
 11
8.192030288742731
 21
9.216671440417496
 31
0.0
  0
LINE
  5
2AC8
330
1E
100
AcDbEntity
  8
7
100
AcDbLine
 10
8.192030288742731
 20
9.216671440417496
 30
0.0
 11
8.15457621766891
 21
9.216671440417496
 31
0.0
  0
LINE
  5
2AC9
330
1E
100
AcDbEntity
  8
7
100
AcDbLine
 10
8.15457621766891
 20
9.216671440417496
 30
0.0
 11
8.142748616277177
 21
9.216671440417496
 31
0.0
  0
LINE
  5
2ACA
330
1E
100
AcDbEntity
  8
7
100
AcDbLine
 10
8.142748616277177
 20
6.861007496564152
 30
0.0
 11
8.15457621766891
 21
6.861007496564152
 31
0.0
  0
LINE
  5
2ACB
330
1E
100
AcDbEntity
  8
7
100
AcDbLine
 10
8.15457621766891
 20
6.861007496564152
 30
0.0
 11
8.192030288742731
 21
6.861007496564152
 31
0.0
  0
LINE
  5
2ACC
330
1E
100
AcDbEntity
  8
7
100
AcDbLine
 10
8.192030288742731
 20
6.861007496564152
 30
0.0
 11
8.241311961208282
 21
6.861007496564152
 31
0.0
  0
LINE
  5
2ACD
330
1E
100
AcDbEntity
  8
7
100
AcDbLine
 10
8.678933212702375
 20
6.884662699347614
 30
0.0
 11
8.67499067890513
 21
6.884662699347614
 31
0.0
  0
LINE
  5
2ACE
330
1E
100
AcDbEntity
  8
7
100
AcDbLine
 10
8.67499067890513
 20
6.884662699347614
 30
0.0
 11
8.673019412006508
 21
6.882691432448993
 31
0.0
  0
LINE
  5
2ACF
330
1E
100
AcDbEntity
  8
7
100
AcDbLine
 10
8.576427333974029
 20
6.803840756504111
 30
0.0
 11
8.580369867771272
 21
6.805812023402732
 31
0.0
  0
LINE
  5
2AD0
330
1E
100
AcDbEntity
  8
7
100
AcDbLine
 10
8.580369867771272
 20
6.805812023402732
 30
0.0
 11
8.584312401568517
 21
6.807783290301354
 31
0.0
  0
LINE
  5
2AD1
330
1E
100
AcDbEntity
  8
7
100
AcDbLine
 10
8.546858330494698
 20
6.807783290301354
 30
0.0
 11
8.54882959739332
 21
6.805812023402732
 31
0.0
  0
LINE
  5
2AD2
330
1E
100
AcDbEntity
  8
7
100
AcDbLine
 10
8.54882959739332
 20
6.805812023402732
 30
0.0
 11
8.550800864291943
 21
6.803840756504111
 31
0.0
  0
LINE
  5
2AD3
330
1E
100
AcDbEntity
  8
7
100
AcDbLine
 10
8.357616708226982
 20
6.693449810181276
 30
0.0
 11
8.369444309618714
 21
6.673737141195057
 31
0.0
  0
LINE
  5
2AD4
330
1E
100
AcDbEntity
  8
7
100
AcDbLine
 10
8.369444309618714
 20
6.673737141195057
 30
0.0
 11
8.393099512402178
 21
6.673737141195057
 31
0.0
  0
LINE
  5
2AD5
330
1E
100
AcDbEntity
  8
7
100
AcDbLine
 10
8.393099512402178
 20
6.673737141195057
 30
0.0
 11
8.404927113793911
 21
6.693449810181276
 31
0.0
  0
LINE
  5
2AD6
330
1E
100
AcDbEntity
  8
7
100
AcDbLine
 10
8.241311961208282
 20
9.216671440417496
 30
0.0
 11
8.241311961208282
 21
6.861007496564152
 31
0.0
  0
LINE
  5
2AD7
330
1E
100
AcDbEntity
  8
7
100
AcDbLine
 10
8.241311961208282
 20
6.861007496564152
 30
0.0
 11
8.485749056637414
 21
6.855093695868283
 31
0.0
  0
LINE
  5
2AD8
330
1E
100
AcDbEntity
  8
7
100
AcDbLine
 10
8.485749056637414
 20
9.260039312187181
 30
0.0
 11
8.485749056637414
 21
9.222585241113364
 31
0.0
  0
LINE
  5
2AD9
330
1E
100
AcDbEntity
  8
7
100
AcDbLine
 10
8.485749056637414
 20
9.222585241113364
 30
0.0
 11
8.485749056637414
 21
6.855093695868283
 31
0.0
  0
LINE
  5
2ADA
330
1E
100
AcDbEntity
  8
7
100
AcDbLine
 10
8.485749056637414
 20
6.855093695868283
 30
0.0
 11
8.485749056637414
 21
6.817639624794465
 31
0.0
  0
LINE
  5
2ADB
330
1E
100
AcDbEntity
  8
7
100
AcDbLine
 10
8.485749056637414
 20
6.817639624794465
 30
0.0
 11
8.485749056637414
 21
6.786099354416513
 31
0.0
  0
LINE
  5
2ADC
330
1E
100
AcDbEntity
  8
7
100
AcDbLine
 10
8.485749056637414
 20
6.786099354416513
 30
0.0
 11
8.485749056637414
 21
6.764415418531672
 31
0.0
  0
LINE
  5
2ADD
330
1E
100
AcDbEntity
  8
7
100
AcDbLine
 10
8.485749056637414
 20
6.764415418531672
 30
0.0
 11
8.485749056637414
 21
6.756530350937182
 31
0.0
  0
LINE
  5
2ADE
330
1E
100
AcDbEntity
  8
7
100
AcDbLine
 10
8.485749056637414
 20
9.321148586044465
 30
0.0
 11
8.485749056637414
 21
9.313263518449979
 31
0.0
  0
LINE
  5
2ADF
330
1E
100
AcDbEntity
  8
7
100
AcDbLine
 10
8.485749056637414
 20
9.313263518449979
 30
0.0
 11
8.485749056637414
 21
9.291579582565134
 31
0.0
  0
LINE
  5
2AE0
330
1E
100
AcDbEntity
  8
7
100
AcDbLine
 10
8.485749056637414
 20
9.291579582565134
 30
0.0
 11
8.485749056637414
 21
9.260039312187181
 31
0.0
  0
LINE
  5
2AE1
330
1E
100
AcDbEntity
  8
7
100
AcDbLine
 10
8.787352892126587
 20
6.884662699347614
 30
0.0
 11
8.775525290734854
 21
6.884662699347614
 31
0.0
  0
LINE
  5
2AE2
330
1E
100
AcDbEntity
  8
7
100
AcDbLine
 10
8.775525290734854
 20
6.884662699347614
 30
0.0
 11
8.743985020356902
 21
6.884662699347614
 31
0.0
  0
LINE
  5
2AE3
330
1E
100
AcDbEntity
  8
7
100
AcDbLine
 10
8.743985020356902
 20
6.884662699347614
 30
0.0
 11
8.694703347891351
 21
6.884662699347614
 31
0.0
  0
LINE
  5
2AE4
330
1E
100
AcDbEntity
  8
7
100
AcDbLine
 10
8.694703347891351
 20
6.884662699347614
 30
0.0
 11
8.637536607831313
 21
6.884662699347614
 31
0.0
  0
LINE
  5
2AE5
330
1E
100
AcDbEntity
  8
7
100
AcDbLine
 10
3.208667569026195
 20
4.33778586632793
 30
0.0
 11
3.208667569026195
 21
4.416636542272811
 31
0.0
  0
LINE
  5
2AE6
330
1E
100
AcDbEntity
  8
7
100
AcDbLine
 10
3.208667569026195
 20
4.416636542272811
 30
0.0
 11
3.157414629662021
 21
4.416636542272811
 31
0.0
  0
LINE
  5
2AE7
330
1E
100
AcDbEntity
  8
7
100
AcDbLine
 10
3.841444243483872
 20
4.33778586632793
 30
0.0
 11
3.841444243483872
 21
4.416636542272811
 31
0.0
  0
LINE
  5
2AE8
330
1E
100
AcDbEntity
  8
7
100
AcDbLine
 10
3.841444243483872
 20
4.416636542272811
 30
0.0
 11
3.790191304119698
 21
4.416636542272811
 31
0.0
  0
LINE
  5
2AE9
330
1E
100
AcDbEntity
  8
7
100
AcDbLine
 10
3.585179546663006
 20
4.385096271894859
 30
0.0
 11
3.593064614257494
 21
4.406780207779702
 31
0.0
  0
LINE
  5
2AEA
330
1E
100
AcDbEntity
  8
7
100
AcDbLine
 10
3.593064614257494
 20
4.406780207779702
 30
0.0
 11
3.595035881156115
 21
4.426492876765923
 31
0.0
  0
LINE
  5
2AEB
330
1E
100
AcDbEntity
  8
7
100
AcDbLine
 10
3.403822991989778
 20
4.426492876765923
 30
0.0
 11
3.405794258888399
 21
4.406780207779702
 31
0.0
  0
LINE
  5
2AEC
330
1E
100
AcDbEntity
  8
7
100
AcDbLine
 10
3.405794258888399
 20
4.406780207779702
 30
0.0
 11
3.413679326482887
 21
4.385096271894859
 31
0.0
  0
LINE
  5
2AED
330
1E
100
AcDbEntity
  8
7
100
AcDbLine
 10
3.403822991989778
 20
4.343699667023797
 30
0.0
 11
3.403822991989778
 21
4.341728400125175
 31
0.0
  0
LINE
  5
2AEE
330
1E
100
AcDbEntity
  8
7
100
AcDbLine
 10
3.403822991989778
 20
4.341728400125175
 30
0.0
 11
3.403822991989778
 21
4.339757133226552
 31
0.0
  0
LINE
  5
2AEF
330
1E
100
AcDbEntity
  8
7
100
AcDbLine
 10
3.328914849842139
 20
4.217538585511986
 30
0.0
 11
3.407765525787021
 21
4.217538585511986
 31
0.0
  0
LINE
  5
2AF0
330
1E
100
AcDbEntity
  8
7
100
AcDbLine
 10
3.407765525787021
 20
4.217538585511986
 30
0.0
 11
3.403822991989778
 21
4.227394920005096
 31
0.0
  0
LINE
  5
2AF1
330
1E
100
AcDbEntity
  8
7
100
AcDbLine
 10
3.595035881156115
 20
4.227394920005096
 30
0.0
 11
3.591093347358872
 21
4.217538585511986
 31
0.0
  0
LINE
  5
2AF2
330
1E
100
AcDbEntity
  8
7
100
AcDbLine
 10
3.591093347358872
 20
4.217538585511986
 30
0.0
 11
3.669944023303754
 21
4.217538585511986
 31
0.0
  0
LINE
  5
2AF3
330
1E
100
AcDbEntity
  8
7
100
AcDbLine
 10
3.595035881156115
 20
4.339757133226552
 30
0.0
 11
3.595035881156115
 21
4.341728400125175
 31
0.0
  0
LINE
  5
2AF4
330
1E
100
AcDbEntity
  8
7
100
AcDbLine
 10
3.595035881156115
 20
4.341728400125175
 30
0.0
 11
3.595035881156115
 21
4.343699667023797
 31
0.0
  0
LINE
  5
2AF5
330
1E
100
AcDbEntity
  8
7
100
AcDbLine
 10
3.595035881156115
 20
4.343699667023797
 30
0.0
 11
3.595035881156115
 21
4.40480894088108
 31
0.0
  0
LINE
  5
2AF6
330
1E
100
AcDbEntity
  8
7
100
AcDbLine
 10
3.595035881156115
 20
4.40480894088108
 30
0.0
 11
3.669944023303754
 21
4.40480894088108
 31
0.0
  0
LINE
  5
2AF7
330
1E
100
AcDbEntity
  8
7
100
AcDbLine
 10
3.595035881156115
 20
4.343699667023797
 30
0.0
 11
3.669944023303754
 21
4.343699667023797
 31
0.0
  0
LINE
  5
2AF8
330
1E
100
AcDbEntity
  8
7
100
AcDbLine
 10
3.669944023303754
 20
4.343699667023797
 30
0.0
 11
3.595035881156115
 21
4.343699667023797
 31
0.0
  0
LINE
  5
2AF9
330
1E
100
AcDbEntity
  8
7
100
AcDbLine
 10
3.595035881156115
 20
4.343699667023797
 30
0.0
 11
3.669944023303754
 21
4.343699667023797
 31
0.0
  0
LINE
  5
2AFA
330
1E
100
AcDbEntity
  8
7
100
AcDbLine
 10
3.595035881156115
 20
4.306245595949977
 30
0.0
 11
3.595035881156115
 21
4.310188129747222
 31
0.0
  0
LINE
  5
2AFB
330
1E
100
AcDbEntity
  8
7
100
AcDbLine
 10
3.595035881156115
 20
4.310188129747222
 30
0.0
 11
3.595035881156115
 21
4.314130663544466
 31
0.0
  0
LINE
  5
2AFC
330
1E
100
AcDbEntity
  8
7
100
AcDbLine
 10
3.403822991989778
 20
4.314130663544466
 30
0.0
 11
3.403822991989778
 21
4.310188129747222
 31
0.0
  0
LINE
  5
2AFD
330
1E
100
AcDbEntity
  8
7
100
AcDbLine
 10
3.403822991989778
 20
4.310188129747222
 30
0.0
 11
3.403822991989778
 21
4.306245595949977
 31
0.0
  0
LINE
  5
2AFE
330
1E
100
AcDbEntity
  8
7
100
AcDbLine
 10
3.328914849842139
 20
4.343699667023797
 30
0.0
 11
3.403822991989778
 21
4.343699667023797
 31
0.0
  0
LINE
  5
2AFF
330
1E
100
AcDbEntity
  8
7
100
AcDbLine
 10
3.403822991989778
 20
4.343699667023797
 30
0.0
 11
3.403822991989778
 21
4.40480894088108
 31
0.0
  0
LINE
  5
2B00
330
1E
100
AcDbEntity
  8
7
100
AcDbLine
 10
1.651366719114777
 20
4.649246036310214
 30
0.0
 11
1.66516558740513
 21
4.649246036310214
 31
0.0
  0
LINE
  5
2B01
330
1E
100
AcDbEntity
  8
7
100
AcDbLine
 10
1.66516558740513
 20
4.649246036310214
 30
0.0
 11
1.70261965847895
 21
4.649246036310214
 31
0.0
  0
LINE
  5
2B02
330
1E
100
AcDbEntity
  8
7
100
AcDbLine
 10
1.70261965847895
 20
4.649246036310214
 30
0.0
 11
1.751901330944502
 21
4.649246036310214
 31
0.0
  0
LINE
  5
2B03
330
1E
100
AcDbEntity
  8
7
100
AcDbLine
 10
5.258785143593124
 20
4.40480894088108
 30
0.0
 11
5.254842609795879
 21
4.649246036310214
 31
0.0
  0
LINE
  5
2B04
330
1E
100
AcDbEntity
  8
7
100
AcDbLine
 10
5.254842609795879
 20
4.649246036310214
 30
0.0
 11
5.304124282261431
 21
4.649246036310214
 31
0.0
  0
LINE
  5
2B05
330
1E
100
AcDbEntity
  8
7
100
AcDbLine
 10
5.304124282261431
 20
4.649246036310214
 30
0.0
 11
5.341578353335249
 21
4.649246036310214
 31
0.0
  0
LINE
  5
2B06
330
1E
100
AcDbEntity
  8
7
100
AcDbLine
 10
5.341578353335249
 20
4.649246036310214
 30
0.0
 11
5.353405954726982
 21
4.649246036310214
 31
0.0
  0
LINE
  5
2B07
330
1E
100
AcDbEntity
  8
7
100
AcDbLine
 10
3.961691524299816
 20
4.649246036310214
 30
0.0
 11
3.961691524299816
 21
4.651217303208836
 31
0.0
  0
LINE
  5
2B08
330
1E
100
AcDbEntity
  8
7
100
AcDbLine
 10
3.961691524299816
 20
4.651217303208836
 30
0.0
 11
3.961691524299816
 21
4.655159837006081
 31
0.0
  0
LINE
  5
2B09
330
1E
100
AcDbEntity
  8
7
100
AcDbLine
 10
3.037167348846077
 20
4.655159837006081
 30
0.0
 11
3.037167348846077
 21
4.651217303208836
 31
0.0
  0
LINE
  5
2B0A
330
1E
100
AcDbEntity
  8
7
100
AcDbLine
 10
3.037167348846077
 20
4.651217303208836
 30
0.0
 11
3.037167348846077
 21
4.649246036310214
 31
0.0
  0
LINE
  5
2B0B
330
1E
100
AcDbEntity
  8
7
100
AcDbLine
 10
1.751901330944502
 20
4.747809381241317
 30
0.0
 11
1.751901330944502
 21
4.734010512950963
 31
0.0
  0
LINE
  5
2B0C
330
1E
100
AcDbEntity
  8
7
100
AcDbLine
 10
1.751901330944502
 20
4.734010512950963
 30
0.0
 11
1.751901330944502
 21
4.698527708775765
 31
0.0
  0
LINE
  5
2B0D
330
1E
100
AcDbEntity
  8
7
100
AcDbLine
 10
1.751901330944502
 20
4.698527708775765
 30
0.0
 11
1.751901330944502
 21
4.649246036310214
 31
0.0
  0
LINE
  5
2B0E
330
1E
100
AcDbEntity
  8
7
100
AcDbLine
 10
5.254842609795879
 20
4.649246036310214
 30
0.0
 11
5.254842609795879
 21
4.698527708775765
 31
0.0
  0
LINE
  5
2B0F
330
1E
100
AcDbEntity
  8
7
100
AcDbLine
 10
5.254842609795879
 20
4.698527708775765
 30
0.0
 11
5.254842609795879
 21
4.734010512950963
 31
0.0
  0
LINE
  5
2B10
330
1E
100
AcDbEntity
  8
7
100
AcDbLine
 10
5.254842609795879
 20
4.734010512950963
 30
0.0
 11
5.254842609795879
 21
4.747809381241317
 31
0.0
  0
LINE
  5
2B11
330
1E
100
AcDbEntity
  8
7
100
AcDbLine
 10
4.598410732554737
 20
4.266820257977537
 30
0.0
 11
4.539272725596076
 21
4.266820257977537
 31
0.0
  0
LINE
  5
2B12
330
1E
100
AcDbEntity
  8
7
100
AcDbLine
 10
4.539272725596076
 20
4.266820257977537
 30
0.0
 11
4.47422091794155
 21
4.266820257977537
 31
0.0
  0
LINE
  5
2B13
330
1E
100
AcDbEntity
  8
7
100
AcDbLine
 10
4.852704162476982
 20
5.309620447348599
 30
0.0
 11
4.888186966652178
 21
5.299764112855489
 31
0.0
  0
LINE
  5
2B14
330
1E
100
AcDbEntity
  8
7
100
AcDbLine
 10
4.888186966652178
 20
5.299764112855489
 30
0.0
 11
4.901985834942532
 21
5.276108910072025
 31
0.0
  0
LINE
  5
2B15
330
1E
100
AcDbEntity
  8
7
100
AcDbLine
 10
2.102786838899225
 20
5.276108910072025
 30
0.0
 11
2.118556974088201
 21
5.299764112855489
 31
0.0
  0
LINE
  5
2B16
330
1E
100
AcDbEntity
  8
7
100
AcDbLine
 10
2.118556974088201
 20
5.299764112855489
 30
0.0
 11
2.152068511364777
 21
5.309620447348599
 31
0.0
  0
LINE
  5
2B17
330
1E
100
AcDbEntity
  8
7
100
AcDbLine
 10
3.981404193286038
 20
5.197258234127144
 30
0.0
 11
4.397341508895289
 21
5.197258234127144
 31
0.0
  0
LINE
  5
2B18
330
1E
100
AcDbEntity
  8
7
100
AcDbLine
 10
4.397341508895289
 20
5.197258234127144
 30
0.0
 11
4.397341508895289
 21
5.177545565140923
 31
0.0
  0
LINE
  5
2B19
330
1E
100
AcDbEntity
  8
7
100
AcDbLine
 10
4.397341508895289
 20
5.177545565140923
 30
0.0
 11
4.419025444780131
 21
5.177545565140923
 31
0.0
  0
LINE
  5
2B1A
330
1E
100
AcDbEntity
  8
7
100
AcDbLine
 10
3.97351912569155
 20
5.260338774883049
 30
0.0
 11
3.97351912569155
 21
5.224855970707853
 31
0.0
  0
LINE
  5
2B1B
330
1E
100
AcDbEntity
  8
7
100
AcDbLine
 10
3.97351912569155
 20
5.224855970707853
 30
0.0
 11
3.957748990502573
 21
5.224855970707853
 31
0.0
  0
LINE
  5
2B1C
330
1E
100
AcDbEntity
  8
7
100
AcDbLine
 10
4.61023833394647
 20
5.260338774883049
 30
0.0
 11
4.61023833394647
 21
5.224855970707853
 31
0.0
  0
LINE
  5
2B1D
330
1E
100
AcDbEntity
  8
7
100
AcDbLine
 10
4.61023833394647
 20
5.224855970707853
 30
0.0
 11
4.594468198757494
 21
5.224855970707853
 31
0.0
  0
LINE
  5
2B1E
330
1E
100
AcDbEntity
  8
7
100
AcDbLine
 10
4.115450342392337
 20
4.793148519909623
 30
0.0
 11
4.115450342392337
 21
4.747809381241317
 31
0.0
  0
LINE
  5
2B1F
330
1E
100
AcDbEntity
  8
7
100
AcDbLine
 10
4.115450342392337
 20
4.747809381241317
 30
0.0
 11
4.115450342392337
 21
4.793148519909623
 31
0.0
  0
LINE
  5
2B20
330
1E
100
AcDbEntity
  8
7
100
AcDbLine
 10
4.115450342392337
 20
4.793148519909623
 30
0.0
 11
4.261324092890367
 21
4.793148519909623
 31
0.0
  0
LINE
  5
2B21
330
1E
100
AcDbEntity
  8
7
100
AcDbLine
 10
2.891293598348045
 20
4.747809381241317
 30
0.0
 11
2.889322331449423
 21
4.793148519909623
 31
0.0
  0
LINE
  5
2B22
330
1E
100
AcDbEntity
  8
7
100
AcDbLine
 10
2.889322331449423
 20
4.793148519909623
 30
0.0
 11
2.889322331449423
 21
4.747809381241317
 31
0.0
  0
LINE
  5
2B23
330
1E
100
AcDbEntity
  8
7
100
AcDbLine
 10
2.743448580951391
 20
4.793148519909623
 30
0.0
 11
2.743448580951391
 21
4.747809381241317
 31
0.0
  0
LINE
  5
2B24
330
1E
100
AcDbEntity
  8
7
100
AcDbLine
 10
2.743448580951391
 20
4.747809381241317
 30
0.0
 11
2.743448580951391
 21
4.793148519909623
 31
0.0
  0
LINE
  5
2B25
330
1E
100
AcDbEntity
  8
7
100
AcDbLine
 10
3.760622300640367
 20
5.197258234127144
 30
0.0
 11
3.760622300640367
 21
5.177545565140923
 31
0.0
  0
LINE
  5
2B26
330
1E
100
AcDbEntity
  8
7
100
AcDbLine
 10
3.760622300640367
 20
5.177545565140923
 30
0.0
 11
3.784277503423831
 21
5.177545565140923
 31
0.0
  0
LINE
  5
2B27
330
1E
100
AcDbEntity
  8
7
100
AcDbLine
 10
4.817221358301784
 20
4.793148519909623
 30
0.0
 11
4.752169550647257
 21
4.793148519909623
 31
0.0
  0
LINE
  5
2B28
330
1E
100
AcDbEntity
  8
7
100
AcDbLine
 10
4.752169550647257
 20
4.793148519909623
 30
0.0
 11
4.752169550647257
 21
4.747809381241317
 31
0.0
  0
LINE
  5
2B29
330
1E
100
AcDbEntity
  8
7
100
AcDbLine
 10
3.97351912569155
 20
5.260338774883049
 30
0.0
 11
4.403255309591154
 21
5.260338774883049
 31
0.0
  0
LINE
  5
2B2A
330
1E
100
AcDbEntity
  8
7
100
AcDbLine
 10
4.403255309591154
 20
5.260338774883049
 30
0.0
 11
4.403255309591154
 21
5.299764112855489
 31
0.0
  0
LINE
  5
2B2B
330
1E
100
AcDbEntity
  8
7
100
AcDbLine
 10
4.852704162476982
 20
5.309620447348599
 30
0.0
 11
4.852704162476982
 21
5.323419315638954
 31
0.0
  0
LINE
  5
2B2C
330
1E
100
AcDbEntity
  8
7
100
AcDbLine
 10
4.852704162476982
 20
5.323419315638954
 30
0.0
 11
4.852704162476982
 21
5.32933311633482
 31
0.0
  0
LINE
  5
2B2D
330
1E
100
AcDbEntity
  8
7
100
AcDbLine
 10
2.152068511364777
 20
5.32933311633482
 30
0.0
 11
2.152068511364777
 21
5.323419315638954
 31
0.0
  0
LINE
  5
2B2E
330
1E
100
AcDbEntity
  8
7
100
AcDbLine
 10
2.152068511364777
 20
5.323419315638954
 30
0.0
 11
2.152068511364777
 21
5.309620447348599
 31
0.0
  0
LINE
  5
2B2F
330
1E
100
AcDbEntity
  8
7
100
AcDbLine
 10
3.55955307698092
 20
4.793148519909623
 30
0.0
 11
3.55955307698092
 21
5.197258234127144
 31
0.0
  0
LINE
  5
2B30
330
1E
100
AcDbEntity
  8
7
100
AcDbLine
 10
3.55955307698092
 20
5.197258234127144
 30
0.0
 11
3.557581810082296
 21
5.260338774883049
 31
0.0
  0
LINE
  5
2B31
330
1E
100
AcDbEntity
  8
7
100
AcDbLine
 10
3.626576151534068
 20
4.747809381241317
 30
0.0
 11
3.626576151534068
 21
4.793148519909623
 31
0.0
  0
LINE
  5
2B32
330
1E
100
AcDbEntity
  8
7
100
AcDbLine
 10
3.626576151534068
 20
4.793148519909623
 30
0.0
 11
3.626576151534068
 21
4.747809381241317
 31
0.0
  0
LINE
  5
2B33
330
1E
100
AcDbEntity
  8
7
100
AcDbLine
 10
3.37819652230769
 20
4.747809381241317
 30
0.0
 11
3.380167789206313
 21
4.793148519909623
 31
0.0
  0
LINE
  5
2B34
330
1E
100
AcDbEntity
  8
7
100
AcDbLine
 10
3.380167789206313
 20
4.793148519909623
 30
0.0
 11
3.380167789206313
 21
4.747809381241317
 31
0.0
  0
LINE
  5
2B35
330
1E
100
AcDbEntity
  8
7
100
AcDbLine
 10
2.189522582438597
 20
4.793148519909623
 30
0.0
 11
2.254574390093124
 21
4.793148519909623
 31
0.0
  0
LINE
  5
2B36
330
1E
100
AcDbEntity
  8
7
100
AcDbLine
 10
2.254574390093124
 20
4.793148519909623
 30
0.0
 11
2.254574390093124
 21
4.747809381241317
 31
0.0
  0
LINE
  5
2B37
330
1E
100
AcDbEntity
  8
7
100
AcDbLine
 10
2.601517364250604
 20
5.260338774883049
 30
0.0
 11
2.603488631149225
 21
5.299764112855489
 31
0.0
  0
LINE
  5
2B38
330
1E
100
AcDbEntity
  8
7
100
AcDbLine
 10
2.603488631149225
 20
5.299764112855489
 30
0.0
 11
2.394534339895289
 21
5.299764112855489
 31
0.0
  0
LINE
  5
2B39
330
1E
100
AcDbEntity
  8
7
100
AcDbLine
 10
3.03125354815021
 20
5.260338774883049
 30
0.0
 11
2.601517364250604
 21
5.260338774883049
 31
0.0
  0
LINE
  5
2B3A
330
1E
100
AcDbEntity
  8
7
100
AcDbLine
 10
2.601517364250604
 20
5.260338774883049
 30
0.0
 11
2.601517364250604
 21
5.224855970707853
 31
0.0
  0
LINE
  5
2B3B
330
1E
100
AcDbEntity
  8
7
100
AcDbLine
 10
2.601517364250604
 20
5.224855970707853
 30
0.0
 11
2.585747229061627
 21
5.224855970707853
 31
0.0
  0
LINE
  5
2B3C
330
1E
100
AcDbEntity
  8
7
100
AcDbLine
 10
2.412275741982887
 20
5.199229501025765
 30
0.0
 11
2.412275741982887
 21
5.159804163053324
 31
0.0
  0
LINE
  5
2B3D
330
1E
100
AcDbEntity
  8
7
100
AcDbLine
 10
2.412275741982887
 20
5.159804163053324
 30
0.0
 11
2.585747229061627
 21
5.159804163053324
 31
0.0
  0
LINE
  5
2B3E
330
1E
100
AcDbEntity
  8
7
100
AcDbLine
 10
4.901985834942532
 20
5.28005144386927
 30
0.0
 11
4.901985834942532
 21
5.276108910072025
 31
0.0
  0
LINE
  5
2B3F
330
1E
100
AcDbEntity
  8
7
100
AcDbLine
 10
4.901985834942532
 20
5.276108910072025
 30
0.0
 11
4.911842169435642
 21
4.747809381241317
 31
0.0
  0
LINE
  5
2B40
330
1E
100
AcDbEntity
  8
7
100
AcDbLine
 10
5.071514788224029
 20
4.40480894088108
 30
0.0
 11
5.130652795182689
 21
4.304274329051356
 31
0.0
  0
LINE
  5
2B41
330
1E
100
AcDbEntity
  8
7
100
AcDbLine
 10
5.130652795182689
 20
4.304274329051356
 30
0.0
 11
5.195704602837219
 21
4.304274329051356
 31
0.0
  0
LINE
  5
2B42
330
1E
100
AcDbEntity
  8
7
100
AcDbLine
 10
1.801183003410053
 20
4.40480894088108
 30
0.0
 11
1.811039337903163
 21
4.39495260638797
 31
0.0
  0
LINE
  5
2B43
330
1E
100
AcDbEntity
  8
7
100
AcDbLine
 10
1.811039337903163
 20
4.39495260638797
 30
0.0
 11
1.811039337903163
 21
4.304274329051356
 31
0.0
  0
LINE
  5
2B44
330
1E
100
AcDbEntity
  8
7
100
AcDbLine
 10
1.811039337903163
 20
4.304274329051356
 30
0.0
 11
1.87609114555769
 21
4.304274329051356
 31
0.0
  0
LINE
  5
2B45
330
1E
100
AcDbEntity
  8
7
100
AcDbLine
 10
4.58264059736576
 20
4.26090645728167
 30
0.0
 11
4.58264059736576
 21
4.249078855889939
 31
0.0
  0
LINE
  5
2B46
330
1E
100
AcDbEntity
  8
7
100
AcDbLine
 10
4.58264059736576
 20
4.249078855889939
 30
0.0
 11
4.052369801636431
 21
4.249078855889939
 31
0.0
  0
LINE
  5
2B47
330
1E
100
AcDbEntity
  8
7
100
AcDbLine
 10
2.242746788701391
 20
4.929165935914545
 30
0.0
 11
2.252603123194502
 21
4.927194669015923
 31
0.0
  0
LINE
  5
2B48
330
1E
100
AcDbEntity
  8
7
100
AcDbLine
 10
2.252603123194502
 20
4.927194669015923
 30
0.0
 11
2.295970994964186
 21
4.927194669015923
 31
0.0
  0
LINE
  5
2B49
330
1E
100
AcDbEntity
  8
7
100
AcDbLine
 10
2.189522582438597
 20
4.899596932435214
 30
0.0
 11
2.293999728065565
 21
4.899596932435214
 31
0.0
  0
LINE
  5
2B4A
330
1E
100
AcDbEntity
  8
7
100
AcDbLine
 10
2.293999728065565
 20
4.899596932435214
 30
0.0
 11
2.293999728065565
 21
4.901568199333835
 31
0.0
  0
LINE
  5
2B4B
330
1E
100
AcDbEntity
  8
7
100
AcDbLine
 10
4.712744212674817
 20
4.901568199333835
 30
0.0
 11
4.712744212674817
 21
4.899596932435214
 31
0.0
  0
LINE
  5
2B4C
330
1E
100
AcDbEntity
  8
7
100
AcDbLine
 10
4.712744212674817
 20
4.899596932435214
 30
0.0
 11
4.817221358301784
 21
4.899596932435214
 31
0.0
  0
LINE
  5
2B4D
330
1E
100
AcDbEntity
  8
7
100
AcDbLine
 10
1.751901330944502
 20
4.745838114342694
 30
0.0
 11
1.70261965847895
 21
4.732039246052341
 31
0.0
  0
LINE
  5
2B4E
330
1E
100
AcDbEntity
  8
7
100
AcDbLine
 10
1.70261965847895
 20
4.732039246052341
 30
0.0
 11
1.667136854303754
 21
4.698527708775765
 31
0.0
  0
LINE
  5
2B4F
330
1E
100
AcDbEntity
  8
7
100
AcDbLine
 10
1.667136854303754
 20
4.698527708775765
 30
0.0
 11
1.653337986013399
 21
4.649246036310214
 31
0.0
  0
LINE
  5
2B50
330
1E
100
AcDbEntity
  8
7
100
AcDbLine
 10
5.353405954726982
 20
4.649246036310214
 30
0.0
 11
5.339607086436627
 21
4.698527708775765
 31
0.0
  0
LINE
  5
2B51
330
1E
100
AcDbEntity
  8
7
100
AcDbLine
 10
5.339607086436627
 20
4.698527708775765
 30
0.0
 11
5.304124282261431
 21
4.732039246052341
 31
0.0
  0
LINE
  5
2B52
330
1E
100
AcDbEntity
  8
7
100
AcDbLine
 10
5.304124282261431
 20
4.732039246052341
 30
0.0
 11
5.254842609795879
 21
4.745838114342694
 31
0.0
  0
LINE
  5
2B53
330
1E
100
AcDbEntity
  8
7
100
AcDbLine
 10
3.669944023303754
 20
4.314130663544466
 30
0.0
 11
3.669944023303754
 21
4.310188129747222
 31
0.0
  0
LINE
  5
2B54
330
1E
100
AcDbEntity
  8
7
100
AcDbLine
 10
3.669944023303754
 20
4.310188129747222
 30
0.0
 11
3.669944023303754
 21
4.306245595949977
 31
0.0
  0
LINE
  5
2B55
330
1E
100
AcDbEntity
  8
7
100
AcDbLine
 10
3.669944023303754
 20
4.306245595949977
 30
0.0
 11
3.669944023303754
 21
4.217538585511986
 31
0.0
  0
LINE
  5
2B56
330
1E
100
AcDbEntity
  8
7
100
AcDbLine
 10
3.669944023303754
 20
4.217538585511986
 30
0.0
 11
3.669944023303754
 21
4.215567318613365
 31
0.0
  0
LINE
  5
2B57
330
1E
100
AcDbEntity
  8
7
100
AcDbLine
 10
3.669944023303754
 20
4.215567318613365
 30
0.0
 11
3.669944023303754
 21
4.21162478481612
 31
0.0
  0
LINE
  5
2B58
330
1E
100
AcDbEntity
  8
7
100
AcDbLine
 10
3.669944023303754
 20
4.343699667023797
 30
0.0
 11
3.669944023303754
 21
4.341728400125175
 31
0.0
  0
LINE
  5
2B59
330
1E
100
AcDbEntity
  8
7
100
AcDbLine
 10
3.669944023303754
 20
4.341728400125175
 30
0.0
 11
3.669944023303754
 21
4.339757133226552
 31
0.0
  0
LINE
  5
2B5A
330
1E
100
AcDbEntity
  8
7
100
AcDbLine
 10
3.669944023303754
 20
4.534912556190135
 30
0.0
 11
3.669944023303754
 21
4.521113687899782
 31
0.0
  0
LINE
  5
2B5B
330
1E
100
AcDbEntity
  8
7
100
AcDbLine
 10
3.669944023303754
 20
4.521113687899782
 30
0.0
 11
3.669944023303754
 21
4.497458485116316
 31
0.0
  0
LINE
  5
2B5C
330
1E
100
AcDbEntity
  8
7
100
AcDbLine
 10
3.669944023303754
 20
4.497458485116316
 30
0.0
 11
3.669944023303754
 21
4.483659616825962
 31
0.0
  0
LINE
  5
2B5D
330
1E
100
AcDbEntity
  8
7
100
AcDbLine
 10
3.669944023303754
 20
4.483659616825962
 30
0.0
 11
3.669944023303754
 21
4.467889481636985
 31
0.0
  0
LINE
  5
2B5E
330
1E
100
AcDbEntity
  8
7
100
AcDbLine
 10
3.669944023303754
 20
4.467889481636985
 30
0.0
 11
3.669944023303754
 21
4.426492876765923
 31
0.0
  0
LINE
  5
2B5F
330
1E
100
AcDbEntity
  8
7
100
AcDbLine
 10
3.669944023303754
 20
4.426492876765923
 30
0.0
 11
3.669944023303754
 21
4.40480894088108
 31
0.0
  0
LINE
  5
2B60
330
1E
100
AcDbEntity
  8
7
100
AcDbLine
 10
3.328914849842139
 20
4.426492876765923
 30
0.0
 11
3.328914849842139
 21
4.467889481636985
 31
0.0
  0
LINE
  5
2B61
330
1E
100
AcDbEntity
  8
7
100
AcDbLine
 10
3.328914849842139
 20
4.467889481636985
 30
0.0
 11
3.328914849842139
 21
4.483659616825962
 31
0.0
  0
LINE
  5
2B62
330
1E
100
AcDbEntity
  8
7
100
AcDbLine
 10
3.328914849842139
 20
4.483659616825962
 30
0.0
 11
3.328914849842139
 21
4.497458485116316
 31
0.0
  0
LINE
  5
2B63
330
1E
100
AcDbEntity
  8
7
100
AcDbLine
 10
3.328914849842139
 20
4.497458485116316
 30
0.0
 11
3.328914849842139
 21
4.521113687899782
 31
0.0
  0
LINE
  5
2B64
330
1E
100
AcDbEntity
  8
7
100
AcDbLine
 10
3.328914849842139
 20
4.521113687899782
 30
0.0
 11
3.328914849842139
 21
4.534912556190135
 31
0.0
  0
LINE
  5
2B65
330
1E
100
AcDbEntity
  8
7
100
AcDbLine
 10
3.328914849842139
 20
4.306245595949977
 30
0.0
 11
3.328914849842139
 21
4.310188129747222
 31
0.0
  0
LINE
  5
2B66
330
1E
100
AcDbEntity
  8
7
100
AcDbLine
 10
3.328914849842139
 20
4.310188129747222
 30
0.0
 11
3.328914849842139
 21
4.314130663544466
 31
0.0
  0
LINE
  5
2B67
330
1E
100
AcDbEntity
  8
7
100
AcDbLine
 10
3.328914849842139
 20
4.314130663544466
 30
0.0
 11
3.328914849842139
 21
4.339757133226552
 31
0.0
  0
LINE
  5
2B68
330
1E
100
AcDbEntity
  8
7
100
AcDbLine
 10
3.328914849842139
 20
4.339757133226552
 30
0.0
 11
3.328914849842139
 21
4.341728400125175
 31
0.0
  0
LINE
  5
2B69
330
1E
100
AcDbEntity
  8
7
100
AcDbLine
 10
3.328914849842139
 20
4.341728400125175
 30
0.0
 11
3.328914849842139
 21
4.343699667023797
 31
0.0
  0
LINE
  5
2B6A
330
1E
100
AcDbEntity
  8
7
100
AcDbLine
 10
3.328914849842139
 20
4.343699667023797
 30
0.0
 11
3.328914849842139
 21
4.40480894088108
 31
0.0
  0
LINE
  5
2B6B
330
1E
100
AcDbEntity
  8
7
100
AcDbLine
 10
3.328914849842139
 20
4.21162478481612
 30
0.0
 11
3.328914849842139
 21
4.215567318613365
 31
0.0
  0
LINE
  5
2B6C
330
1E
100
AcDbEntity
  8
7
100
AcDbLine
 10
3.328914849842139
 20
4.215567318613365
 30
0.0
 11
3.328914849842139
 21
4.217538585511986
 31
0.0
  0
LINE
  5
2B6D
330
1E
100
AcDbEntity
  8
7
100
AcDbLine
 10
5.357348488524225
 20
4.40480894088108
 30
0.0
 11
5.35143468782836
 21
4.40480894088108
 31
0.0
  0
LINE
  5
2B6E
330
1E
100
AcDbEntity
  8
7
100
AcDbLine
 10
5.35143468782836
 20
4.40480894088108
 30
0.0
 11
5.329750751943517
 21
4.40480894088108
 31
0.0
  0
LINE
  5
2B6F
330
1E
100
AcDbEntity
  8
7
100
AcDbLine
 10
5.329750751943517
 20
4.40480894088108
 30
0.0
 11
5.296239214666943
 21
4.40480894088108
 31
0.0
  0
LINE
  5
2B70
330
1E
100
AcDbEntity
  8
7
100
AcDbLine
 10
5.296239214666943
 20
4.40480894088108
 30
0.0
 11
5.258785143593124
 21
4.40480894088108
 31
0.0
  0
LINE
  5
2B71
330
1E
100
AcDbEntity
  8
7
100
AcDbLine
 10
1.708533459174816
 20
4.40480894088108
 30
0.0
 11
1.676993188796863
 21
4.40480894088108
 31
0.0
  0
LINE
  5
2B72
330
1E
100
AcDbEntity
  8
7
100
AcDbLine
 10
1.676993188796863
 20
4.40480894088108
 30
0.0
 11
1.655309252912021
 21
4.40480894088108
 31
0.0
  0
LINE
  5
2B73
330
1E
100
AcDbEntity
  8
7
100
AcDbLine
 10
1.655309252912021
 20
4.40480894088108
 30
0.0
 11
1.647424185317532
 21
4.40480894088108
 31
0.0
  0
LINE
  5
2B74
330
1E
100
AcDbEntity
  8
7
100
AcDbLine
 10
3.750765966147257
 20
4.103205105391906
 30
0.0
 11
3.807932706207296
 21
4.115032706783639
 31
0.0
  0
LINE
  5
2B75
330
1E
100
AcDbEntity
  8
7
100
AcDbLine
 10
3.807932706207296
 20
4.115032706783639
 30
0.0
 11
3.857214378672848
 21
4.146572977161593
 31
0.0
  0
LINE
  5
2B76
330
1E
100
AcDbEntity
  8
7
100
AcDbLine
 10
3.857214378672848
 20
4.146572977161593
 30
0.0
 11
3.888754649050802
 21
4.195854649627143
 31
0.0
  0
LINE
  5
2B77
330
1E
100
AcDbEntity
  8
7
100
AcDbLine
 10
3.888754649050802
 20
4.195854649627143
 30
0.0
 11
3.900582250442533
 21
4.253021389687182
 31
0.0
  0
LINE
  5
2B78
330
1E
100
AcDbEntity
  8
7
100
AcDbLine
 10
3.141644494473045
 20
4.146572977161593
 30
0.0
 11
3.190926166938597
 21
4.115032706783639
 31
0.0
  0
LINE
  5
2B79
330
1E
100
AcDbEntity
  8
7
100
AcDbLine
 10
3.190926166938597
 20
4.115032706783639
 30
0.0
 11
3.248092906998636
 21
4.103205105391906
 31
0.0
  0
LINE
  5
2B7A
330
1E
100
AcDbEntity
  8
7
100
AcDbLine
 10
3.09827662270336
 20
4.253021389687182
 30
0.0
 11
3.110104224095092
 21
4.195854649627143
 31
0.0
  0
LINE
  5
2B7B
330
1E
100
AcDbEntity
  8
7
100
AcDbLine
 10
3.110104224095092
 20
4.195854649627143
 30
0.0
 11
3.141644494473045
 21
4.146572977161593
 31
0.0
  0
LINE
  5
2B7C
330
1E
100
AcDbEntity
  8
7
100
AcDbLine
 10
3.269776842883479
 20
4.241193788295451
 30
0.0
 11
3.277661910477967
 21
4.219509852410608
 31
0.0
  0
LINE
  5
2B7D
330
1E
100
AcDbEntity
  8
7
100
AcDbLine
 10
3.277661910477967
 20
4.219509852410608
 30
0.0
 11
3.299345846362808
 21
4.21162478481612
 31
0.0
  0
LINE
  5
2B7E
330
1E
100
AcDbEntity
  8
7
100
AcDbLine
 10
3.299345846362808
 20
4.21162478481612
 30
0.0
 11
3.321029782247651
 21
4.219509852410608
 31
0.0
  0
LINE
  5
2B7F
330
1E
100
AcDbEntity
  8
7
100
AcDbLine
 10
3.321029782247651
 20
4.219509852410608
 30
0.0
 11
3.328914849842139
 21
4.241193788295451
 31
0.0
  0
LINE
  5
2B80
330
1E
100
AcDbEntity
  8
7
100
AcDbLine
 10
3.669944023303754
 20
4.21162478481612
 30
0.0
 11
3.585179546663006
 21
4.21162478481612
 31
0.0
  0
LINE
  5
2B81
330
1E
100
AcDbEntity
  8
7
100
AcDbLine
 10
3.585179546663006
 20
4.21162478481612
 30
0.0
 11
3.585179546663006
 21
4.385096271894859
 31
0.0
  0
LINE
  5
2B82
330
1E
100
AcDbEntity
  8
7
100
AcDbLine
 10
3.585179546663006
 20
4.385096271894859
 30
0.0
 11
3.413679326482887
 21
4.385096271894859
 31
0.0
  0
LINE
  5
2B83
330
1E
100
AcDbEntity
  8
7
100
AcDbLine
 10
3.699513026783085
 20
4.21162478481612
 30
0.0
 11
3.721196962667926
 21
4.219509852410608
 31
0.0
  0
LINE
  5
2B84
330
1E
100
AcDbEntity
  8
7
100
AcDbLine
 10
3.721196962667926
 20
4.219509852410608
 30
0.0
 11
3.729082030262414
 21
4.241193788295451
 31
0.0
  0
LINE
  5
2B85
330
1E
100
AcDbEntity
  8
7
100
AcDbLine
 10
3.669944023303754
 20
4.241193788295451
 30
0.0
 11
3.677829090898242
 21
4.219509852410608
 31
0.0
  0
LINE
  5
2B86
330
1E
100
AcDbEntity
  8
7
100
AcDbLine
 10
3.677829090898242
 20
4.219509852410608
 30
0.0
 11
3.699513026783085
 21
4.21162478481612
 31
0.0
  0
LINE
  5
2B87
330
1E
100
AcDbEntity
  8
7
100
AcDbLine
 10
2.152068511364777
 20
5.32933311633482
 30
0.0
 11
2.134327109277178
 21
5.325390582537576
 31
0.0
  0
LINE
  5
2B88
330
1E
100
AcDbEntity
  8
7
100
AcDbLine
 10
2.134327109277178
 20
5.325390582537576
 30
0.0
 11
2.118556974088201
 21
5.313562981145844
 31
0.0
  0
LINE
  5
2B89
330
1E
100
AcDbEntity
  8
7
100
AcDbLine
 10
2.118556974088201
 20
5.313562981145844
 30
0.0
 11
2.10672937269647
 21
5.297792845956868
 31
0.0
  0
LINE
  5
2B8A
330
1E
100
AcDbEntity
  8
7
100
AcDbLine
 10
2.10672937269647
 20
5.297792845956868
 30
0.0
 11
2.102786838899225
 21
5.28005144386927
 31
0.0
  0
LINE
  5
2B8B
330
1E
100
AcDbEntity
  8
7
100
AcDbLine
 10
4.901985834942532
 20
5.28005144386927
 30
0.0
 11
4.898043301145289
 21
5.297792845956868
 31
0.0
  0
LINE
  5
2B8C
330
1E
100
AcDbEntity
  8
7
100
AcDbLine
 10
4.898043301145289
 20
5.297792845956868
 30
0.0
 11
4.888186966652178
 21
5.315534248044466
 31
0.0
  0
LINE
  5
2B8D
330
1E
100
AcDbEntity
  8
7
100
AcDbLine
 10
4.888186966652178
 20
5.315534248044466
 30
0.0
 11
4.872416831463201
 21
5.325390582537576
 31
0.0
  0
LINE
  5
2B8E
330
1E
100
AcDbEntity
  8
7
100
AcDbLine
 10
4.872416831463201
 20
5.325390582537576
 30
0.0
 11
4.852704162476982
 21
5.32933311633482
 31
0.0
  0
LINE
  5
2B8F
330
1E
100
AcDbEntity
  8
7
100
AcDbLine
 10
1.651366719114777
 20
6.861007496564152
 30
0.0
 11
1.66516558740513
 21
6.809754557199979
 31
0.0
  0
LINE
  5
2B90
330
1E
100
AcDbEntity
  8
7
100
AcDbLine
 10
1.66516558740513
 20
6.809754557199979
 30
0.0
 11
1.70261965847895
 21
6.77427175302478
 31
0.0
  0
LINE
  5
2B91
330
1E
100
AcDbEntity
  8
7
100
AcDbLine
 10
1.70261965847895
 20
6.77427175302478
 30
0.0
 11
1.751901330944502
 21
6.760472884734425
 31
0.0
  0
LINE
  5
2B92
330
1E
100
AcDbEntity
  8
7
100
AcDbLine
 10
5.258785143593124
 20
6.756530350937182
 30
0.0
 11
5.254842609795879
 21
6.760472884734425
 31
0.0
  0
LINE
  5
2B93
330
1E
100
AcDbEntity
  8
7
100
AcDbLine
 10
5.254842609795879
 20
6.760472884734425
 30
0.0
 11
5.304124282261431
 21
6.77427175302478
 31
0.0
  0
LINE
  5
2B94
330
1E
100
AcDbEntity
  8
7
100
AcDbLine
 10
5.304124282261431
 20
6.77427175302478
 30
0.0
 11
5.341578353335249
 21
6.809754557199979
 31
0.0
  0
LINE
  5
2B95
330
1E
100
AcDbEntity
  8
7
100
AcDbLine
 10
5.341578353335249
 20
6.809754557199979
 30
0.0
 11
5.353405954726982
 21
6.861007496564152
 31
0.0
  0
LINE
  5
2B96
330
1E
100
AcDbEntity
  8
7
100
AcDbLine
 10
1.751901330944502
 20
6.861007496564152
 30
0.0
 11
1.751901330944502
 21
6.809754557199979
 31
0.0
  0
LINE
  5
2B97
330
1E
100
AcDbEntity
  8
7
100
AcDbLine
 10
1.751901330944502
 20
6.809754557199979
 30
0.0
 11
1.751901330944502
 21
6.77427175302478
 31
0.0
  0
LINE
  5
2B98
330
1E
100
AcDbEntity
  8
7
100
AcDbLine
 10
1.751901330944502
 20
6.77427175302478
 30
0.0
 11
1.751901330944502
 21
6.760472884734425
 31
0.0
  0
LINE
  5
2B99
330
1E
100
AcDbEntity
  8
7
100
AcDbLine
 10
5.254842609795879
 20
6.760472884734425
 30
0.0
 11
5.254842609795879
 21
6.77427175302478
 31
0.0
  0
LINE
  5
2B9A
330
1E
100
AcDbEntity
  8
7
100
AcDbLine
 10
5.254842609795879
 20
6.77427175302478
 30
0.0
 11
5.254842609795879
 21
6.809754557199979
 31
0.0
  0
LINE
  5
2B9B
330
1E
100
AcDbEntity
  8
7
100
AcDbLine
 10
5.254842609795879
 20
6.809754557199979
 30
0.0
 11
5.254842609795879
 21
6.861007496564152
 31
0.0
  0
LINE
  5
2B9C
330
1E
100
AcDbEntity
  8
7
100
AcDbLine
 10
4.608267067047848
 20
8.00631356466356
 30
0.0
 11
4.606295800149225
 21
8.010256098460803
 31
0.0
  0
LINE
  5
2B9D
330
1E
100
AcDbEntity
  8
7
100
AcDbLine
 10
4.606295800149225
 20
8.010256098460803
 30
0.0
 11
4.60038199945336
 21
8.012227365359425
 31
0.0
  0
LINE
  5
2B9E
330
1E
100
AcDbEntity
  8
7
100
AcDbLine
 10
4.60038199945336
 20
8.012227365359425
 30
0.0
 11
4.60038199945336
 21
8.03391130124427
 31
0.0
  0
LINE
  5
2B9F
330
1E
100
AcDbEntity
  8
7
100
AcDbLine
 10
3.238236572505526
 20
8.00631356466356
 30
0.0
 11
3.234294038708281
 21
8.010256098460803
 31
0.0
  0
LINE
  5
2BA0
330
1E
100
AcDbEntity
  8
7
100
AcDbLine
 10
3.234294038708281
 20
8.010256098460803
 30
0.0
 11
3.228380238012414
 21
8.012227365359425
 31
0.0
  0
LINE
  5
2BA1
330
1E
100
AcDbEntity
  8
7
100
AcDbLine
 10
3.228380238012414
 20
8.012227365359425
 30
0.0
 11
3.228380238012414
 21
8.03391130124427
 31
0.0
  0
LINE
  5
2BA2
330
1E
100
AcDbEntity
  8
7
100
AcDbLine
 10
3.97351912569155
 20
8.00631356466356
 30
0.0
 11
3.971547858792926
 21
8.010256098460803
 31
0.0
  0
LINE
  5
2BA3
330
1E
100
AcDbEntity
  8
7
100
AcDbLine
 10
3.971547858792926
 20
8.010256098460803
 30
0.0
 11
3.965634058097061
 21
8.012227365359425
 31
0.0
  0
LINE
  5
2BA4
330
1E
100
AcDbEntity
  8
7
100
AcDbLine
 10
3.965634058097061
 20
8.012227365359425
 30
0.0
 11
3.965634058097061
 21
8.03391130124427
 31
0.0
  0
LINE
  5
2BA5
330
1E
100
AcDbEntity
  8
7
100
AcDbLine
 10
2.601517364250604
 20
8.00631356466356
 30
0.0
 11
2.599546097351982
 21
8.010256098460803
 31
0.0
  0
LINE
  5
2BA6
330
1E
100
AcDbEntity
  8
7
100
AcDbLine
 10
2.599546097351982
 20
8.010256098460803
 30
0.0
 11
2.593632296656116
 21
8.012227365359425
 31
0.0
  0
LINE
  5
2BA7
330
1E
100
AcDbEntity
  8
7
100
AcDbLine
 10
2.593632296656116
 20
8.012227365359425
 30
0.0
 11
2.593632296656116
 21
8.03391130124427
 31
0.0
  0
LINE
  5
2BA8
330
1E
100
AcDbEntity
  8
7
100
AcDbLine
 10
4.852704162476982
 20
7.748077600944074
 30
0.0
 11
4.888186966652178
 21
7.759905202335803
 31
0.0
  0
LINE
  5
2BA9
330
1E
100
AcDbEntity
  8
7
100
AcDbLine
 10
4.888186966652178
 20
7.759905202335803
 30
0.0
 11
4.901985834942532
 21
7.78356040511927
 31
0.0
  0
LINE
  5
2BAA
330
1E
100
AcDbEntity
  8
7
100
AcDbLine
 10
2.102786838899225
 20
7.78356040511927
 30
0.0
 11
2.118556974088201
 21
7.759905202335803
 31
0.0
  0
LINE
  5
2BAB
330
1E
100
AcDbEntity
  8
7
100
AcDbLine
 10
2.118556974088201
 20
7.759905202335803
 30
0.0
 11
2.152068511364777
 21
7.748077600944074
 31
0.0
  0
LINE
  5
2BAC
330
1E
100
AcDbEntity
  8
7
100
AcDbLine
 10
4.61023833394647
 20
7.69879592847852
 30
0.0
 11
4.61023833394647
 21
7.736249999552341
 31
0.0
  0
LINE
  5
2BAD
330
1E
100
AcDbEntity
  8
7
100
AcDbLine
 10
4.61023833394647
 20
7.736249999552341
 30
0.0
 11
4.594468198757494
 21
7.736249999552341
 31
0.0
  0
LINE
  5
2BAE
330
1E
100
AcDbEntity
  8
7
100
AcDbLine
 10
4.817221358301784
 20
7.231605673505097
 30
0.0
 11
4.752169550647257
 21
7.231605673505097
 31
0.0
  0
LINE
  5
2BAF
330
1E
100
AcDbEntity
  8
7
100
AcDbLine
 10
4.752169550647257
 20
7.231605673505097
 30
0.0
 11
4.752169550647257
 21
7.18626653483679
 31
0.0
  0
LINE
  5
2BB0
330
1E
100
AcDbEntity
  8
7
100
AcDbLine
 10
3.97351912569155
 20
7.69879592847852
 30
0.0
 11
4.403255309591154
 21
7.69879592847852
 31
0.0
  0
LINE
  5
2BB1
330
1E
100
AcDbEntity
  8
7
100
AcDbLine
 10
4.403255309591154
 20
7.69879592847852
 30
0.0
 11
4.403255309591154
 21
7.738221266450962
 31
0.0
  0
LINE
  5
2BB2
330
1E
100
AcDbEntity
  8
7
100
AcDbLine
 10
4.852704162476982
 20
7.748077600944074
 30
0.0
 11
4.852704162476982
 21
7.781589138220648
 31
0.0
  0
LINE
  5
2BB3
330
1E
100
AcDbEntity
  8
7
100
AcDbLine
 10
4.852704162476982
 20
7.781589138220648
 30
0.0
 11
4.852704162476982
 21
7.817071942395844
 31
0.0
  0
LINE
  5
2BB4
330
1E
100
AcDbEntity
  8
7
100
AcDbLine
 10
2.152068511364777
 20
7.817071942395844
 30
0.0
 11
2.152068511364777
 21
7.781589138220648
 31
0.0
  0
LINE
  5
2BB5
330
1E
100
AcDbEntity
  8
7
100
AcDbLine
 10
2.152068511364777
 20
7.781589138220648
 30
0.0
 11
2.152068511364777
 21
7.748077600944074
 31
0.0
  0
LINE
  5
2BB6
330
1E
100
AcDbEntity
  8
7
100
AcDbLine
 10
3.626576151534068
 20
7.296657481159624
 30
0.0
 11
3.626576151534068
 21
7.231605673505097
 31
0.0
  0
LINE
  5
2BB7
330
1E
100
AcDbEntity
  8
7
100
AcDbLine
 10
3.626576151534068
 20
7.231605673505097
 30
0.0
 11
3.626576151534068
 21
7.18626653483679
 31
0.0
  0
LINE
  5
2BB8
330
1E
100
AcDbEntity
  8
7
100
AcDbLine
 10
3.37819652230769
 20
7.296657481159624
 30
0.0
 11
3.380167789206313
 21
7.231605673505097
 31
0.0
  0
LINE
  5
2BB9
330
1E
100
AcDbEntity
  8
7
100
AcDbLine
 10
3.380167789206313
 20
7.231605673505097
 30
0.0
 11
3.380167789206313
 21
7.18626653483679
 31
0.0
  0
LINE
  5
2BBA
330
1E
100
AcDbEntity
  8
7
100
AcDbLine
 10
2.189522582438597
 20
7.231605673505097
 30
0.0
 11
2.254574390093124
 21
7.231605673505097
 31
0.0
  0
LINE
  5
2BBB
330
1E
100
AcDbEntity
  8
7
100
AcDbLine
 10
2.254574390093124
 20
7.231605673505097
 30
0.0
 11
2.254574390093124
 21
7.18626653483679
 31
0.0
  0
LINE
  5
2BBC
330
1E
100
AcDbEntity
  8
7
100
AcDbLine
 10
2.603488631149225
 20
7.738221266450962
 30
0.0
 11
2.394534339895289
 21
7.738221266450962
 31
0.0
  0
LINE
  5
2BBD
330
1E
100
AcDbEntity
  8
7
100
AcDbLine
 10
2.394534339895289
 20
7.738221266450962
 30
0.0
 11
2.396505606793911
 21
7.736249999552341
 31
0.0
  0
LINE
  5
2BBE
330
1E
100
AcDbEntity
  8
7
100
AcDbLine
 10
2.396505606793911
 20
7.736249999552341
 30
0.0
 11
2.412275741982887
 21
7.736249999552341
 31
0.0
  0
LINE
  5
2BBF
330
1E
100
AcDbEntity
  8
7
100
AcDbLine
 10
2.601517364250604
 20
7.69879592847852
 30
0.0
 11
2.603488631149225
 21
7.738221266450962
 31
0.0
  0
LINE
  5
2BC0
330
1E
100
AcDbEntity
  8
7
100
AcDbLine
 10
2.603488631149225
 20
7.738221266450962
 30
0.0
 11
2.601517364250604
 21
7.736249999552341
 31
0.0
  0
LINE
  5
2BC1
330
1E
100
AcDbEntity
  8
7
100
AcDbLine
 10
3.03125354815021
 20
7.69879592847852
 30
0.0
 11
2.601517364250604
 21
7.69879592847852
 31
0.0
  0
LINE
  5
2BC2
330
1E
100
AcDbEntity
  8
7
100
AcDbLine
 10
2.601517364250604
 20
7.69879592847852
 30
0.0
 11
2.601517364250604
 21
7.736249999552341
 31
0.0
  0
LINE
  5
2BC3
330
1E
100
AcDbEntity
  8
7
100
AcDbLine
 10
2.601517364250604
 20
7.736249999552341
 30
0.0
 11
2.585747229061627
 21
7.736249999552341
 31
0.0
  0
LINE
  5
2BC4
330
1E
100
AcDbEntity
  8
7
100
AcDbLine
 10
3.238236572505526
 20
7.738221266450962
 30
0.0
 11
3.03125354815021
 21
7.738221266450962
 31
0.0
  0
LINE
  5
2BC5
330
1E
100
AcDbEntity
  8
7
100
AcDbLine
 10
3.03125354815021
 20
7.738221266450962
 30
0.0
 11
3.033224815048832
 21
7.736249999552341
 31
0.0
  0
LINE
  5
2BC6
330
1E
100
AcDbEntity
  8
7
100
AcDbLine
 10
3.033224815048832
 20
7.736249999552341
 30
0.0
 11
3.047023683339186
 21
7.736249999552341
 31
0.0
  0
LINE
  5
2BC7
330
1E
100
AcDbEntity
  8
7
100
AcDbLine
 10
3.238236572505526
 20
7.69879592847852
 30
0.0
 11
3.238236572505526
 21
7.738221266450962
 31
0.0
  0
LINE
  5
2BC8
330
1E
100
AcDbEntity
  8
7
100
AcDbLine
 10
3.238236572505526
 20
7.738221266450962
 30
0.0
 11
3.238236572505526
 21
7.736249999552341
 31
0.0
  0
LINE
  5
2BC9
330
1E
100
AcDbEntity
  8
7
100
AcDbLine
 10
2.189522582438597
 20
7.296657481159624
 30
0.0
 11
2.254574390093124
 21
7.296657481159624
 31
0.0
  0
LINE
  5
2BCA
330
1E
100
AcDbEntity
  8
7
100
AcDbLine
 10
2.254574390093124
 20
7.296657481159624
 30
0.0
 11
2.254574390093124
 21
7.253289609389939
 31
0.0
  0
LINE
  5
2BCB
330
1E
100
AcDbEntity
  8
7
100
AcDbLine
 10
4.901985834942532
 20
7.795388006511003
 30
0.0
 11
4.901985834942532
 21
7.78356040511927
 31
0.0
  0
LINE
  5
2BCC
330
1E
100
AcDbEntity
  8
7
100
AcDbLine
 10
4.901985834942532
 20
7.78356040511927
 30
0.0
 11
4.911842169435642
 21
7.25526087628856
 31
0.0
  0
LINE
  5
2BCD
330
1E
100
AcDbEntity
  8
7
100
AcDbLine
 10
4.604324533250603
 20
7.60220385044604
 30
0.0
 11
4.604324533250603
 21
7.584462448358442
 31
0.0
  0
LINE
  5
2BCE
330
1E
100
AcDbEntity
  8
7
100
AcDbLine
 10
4.604324533250603
 20
7.584462448358442
 30
0.0
 11
4.604324533250603
 21
7.576577380763955
 31
0.0
  0
LINE
  5
2BCF
330
1E
100
AcDbEntity
  8
7
100
AcDbLine
 10
4.387485174402177
 20
7.253289609389939
 30
0.0
 11
4.26329535978899
 21
7.253289609389939
 31
0.0
  0
LINE
  5
2BD0
330
1E
100
AcDbEntity
  8
7
100
AcDbLine
 10
4.26329535978899
 20
7.253289609389939
 30
0.0
 11
4.261324092890367
 21
7.18626653483679
 31
0.0
  0
LINE
  5
2BD1
330
1E
100
AcDbEntity
  8
7
100
AcDbLine
 10
3.969576591894305
 20
7.60220385044604
 30
0.0
 11
3.969576591894305
 21
7.584462448358442
 31
0.0
  0
LINE
  5
2BD2
330
1E
100
AcDbEntity
  8
7
100
AcDbLine
 10
3.969576591894305
 20
7.584462448358442
 30
0.0
 11
3.969576591894305
 21
7.576577380763955
 31
0.0
  0
LINE
  5
2BD3
330
1E
100
AcDbEntity
  8
7
100
AcDbLine
 10
2.597574830453361
 20
7.60220385044604
 30
0.0
 11
2.597574830453361
 21
7.584462448358442
 31
0.0
  0
LINE
  5
2BD4
330
1E
100
AcDbEntity
  8
7
100
AcDbLine
 10
2.597574830453361
 20
7.584462448358442
 30
0.0
 11
2.597574830453361
 21
7.576577380763955
 31
0.0
  0
LINE
  5
2BD5
330
1E
100
AcDbEntity
  8
7
100
AcDbLine
 10
3.232322771809659
 20
7.60220385044604
 30
0.0
 11
3.232322771809659
 21
7.584462448358442
 31
0.0
  0
LINE
  5
2BD6
330
1E
100
AcDbEntity
  8
7
100
AcDbLine
 10
3.232322771809659
 20
7.584462448358442
 30
0.0
 11
3.232322771809659
 21
7.576577380763955
 31
0.0
  0
LINE
  5
2BD7
330
1E
100
AcDbEntity
  8
7
100
AcDbLine
 10
3.234294038708281
 20
7.556864711777732
 30
0.0
 11
3.037167348846077
 21
7.556864711777732
 31
0.0
  0
LINE
  5
2BD8
330
1E
100
AcDbEntity
  8
7
100
AcDbLine
 10
3.037167348846077
 20
7.556864711777732
 30
0.0
 11
3.015483412961234
 21
7.253289609389939
 31
0.0
  0
LINE
  5
2BD9
330
1E
100
AcDbEntity
  8
7
100
AcDbLine
 10
4.852704162476982
 20
7.817071942395844
 30
0.0
 11
4.868474297665958
 21
7.815100675497222
 31
0.0
  0
LINE
  5
2BDA
330
1E
100
AcDbEntity
  8
7
100
AcDbLine
 10
4.868474297665958
 20
7.815100675497222
 30
0.0
 11
4.884244432854934
 21
7.811158141699979
 31
0.0
  0
LINE
  5
2BDB
330
1E
100
AcDbEntity
  8
7
100
AcDbLine
 10
4.884244432854934
 20
7.811158141699979
 30
0.0
 11
4.896072034246666
 21
7.807215607902732
 31
0.0
  0
LINE
  5
2BDC
330
1E
100
AcDbEntity
  8
7
100
AcDbLine
 10
4.896072034246666
 20
7.807215607902732
 30
0.0
 11
4.901985834942532
 21
7.799330540308246
 31
0.0
  0
LINE
  5
2BDD
330
1E
100
AcDbEntity
  8
7
100
AcDbLine
 10
4.901985834942532
 20
7.799330540308246
 30
0.0
 11
4.901985834942532
 21
7.797359273409624
 31
0.0
  0
LINE
  5
2BDE
330
1E
100
AcDbEntity
  8
7
100
AcDbLine
 10
4.901985834942532
 20
7.797359273409624
 30
0.0
 11
4.901985834942532
 21
7.795388006511003
 31
0.0
  0
LINE
  5
2BDF
330
1E
100
AcDbEntity
  8
7
100
AcDbLine
 10
2.102786838899225
 20
7.795388006511003
 30
0.0
 11
2.102786838899225
 21
7.797359273409624
 31
0.0
  0
LINE
  5
2BE0
330
1E
100
AcDbEntity
  8
7
100
AcDbLine
 10
2.102786838899225
 20
7.797359273409624
 30
0.0
 11
2.104758105797849
 21
7.799330540308246
 31
0.0
  0
LINE
  5
2BE1
330
1E
100
AcDbEntity
  8
7
100
AcDbLine
 10
2.104758105797849
 20
7.799330540308246
 30
0.0
 11
2.110671906493713
 21
7.807215607902732
 31
0.0
  0
LINE
  5
2BE2
330
1E
100
AcDbEntity
  8
7
100
AcDbLine
 10
2.110671906493713
 20
7.807215607902732
 30
0.0
 11
2.122499507885446
 21
7.811158141699979
 31
0.0
  0
LINE
  5
2BE3
330
1E
100
AcDbEntity
  8
7
100
AcDbLine
 10
2.122499507885446
 20
7.811158141699979
 30
0.0
 11
2.136298376175801
 21
7.815100675497222
 31
0.0
  0
LINE
  5
2BE4
330
1E
100
AcDbEntity
  8
7
100
AcDbLine
 10
2.136298376175801
 20
7.815100675497222
 30
0.0
 11
2.152068511364777
 21
7.817071942395844
 31
0.0
  0
LINE
  5
2BE5
330
1E
100
AcDbEntity
  8
7
100
AcDbLine
 10
2.152068511364777
 20
7.817071942395844
 30
0.0
 11
2.154039778263399
 21
7.817071942395844
 31
0.0
  0
LINE
  5
2BE6
330
1E
100
AcDbEntity
  8
7
100
AcDbLine
 10
5.353405954726982
 20
9.216671440417496
 30
0.0
 11
5.341578353335249
 21
9.267924379781671
 31
0.0
  0
LINE
  5
2BE7
330
1E
100
AcDbEntity
  8
7
100
AcDbLine
 10
5.341578353335249
 20
9.267924379781671
 30
0.0
 11
5.304124282261431
 21
9.303407183956867
 31
0.0
  0
LINE
  5
2BE8
330
1E
100
AcDbEntity
  8
7
100
AcDbLine
 10
5.304124282261431
 20
9.303407183956867
 30
0.0
 11
5.254842609795879
 21
9.317206052247222
 31
0.0
  0
LINE
  5
2BE9
330
1E
100
AcDbEntity
  8
7
100
AcDbLine
 10
5.254842609795879
 20
9.317206052247222
 30
0.0
 11
5.258785143593124
 21
9.321148586044465
 31
0.0
  0
LINE
  5
2BEA
330
1E
100
AcDbEntity
  8
7
100
AcDbLine
 10
5.254842609795879
 20
9.216671440417496
 30
0.0
 11
5.254842609795879
 21
9.267924379781671
 31
0.0
  0
LINE
  5
2BEB
330
1E
100
AcDbEntity
  8
7
100
AcDbLine
 10
5.254842609795879
 20
9.267924379781671
 30
0.0
 11
5.254842609795879
 21
9.303407183956867
 31
0.0
  0
LINE
  5
2BEC
330
1E
100
AcDbEntity
  8
7
100
AcDbLine
 10
5.254842609795879
 20
9.303407183956867
 30
0.0
 11
5.254842609795879
 21
9.317206052247222
 31
0.0
  0
LINE
  5
2BED
330
1E
100
AcDbEntity
  8
7
100
AcDbLine
 10
1.747958797147257
 20
9.321148586044465
 30
0.0
 11
1.751901330944502
 21
9.317206052247222
 31
0.0
  0
LINE
  5
2BEE
330
1E
100
AcDbEntity
  8
7
100
AcDbLine
 10
1.751901330944502
 20
9.317206052247222
 30
0.0
 11
1.751901330944502
 21
9.303407183956867
 31
0.0
  0
LINE
  5
2BEF
330
1E
100
AcDbEntity
  8
7
100
AcDbLine
 10
1.751901330944502
 20
9.303407183956867
 30
0.0
 11
1.751901330944502
 21
9.267924379781671
 31
0.0
  0
LINE
  5
2BF0
330
1E
100
AcDbEntity
  8
7
100
AcDbLine
 10
1.751901330944502
 20
9.267924379781671
 30
0.0
 11
1.751901330944502
 21
9.216671440417496
 31
0.0
  0
LINE
  5
2BF1
330
1E
100
AcDbEntity
  8
7
100
AcDbLine
 10
1.751901330944502
 20
9.317206052247222
 30
0.0
 11
1.70261965847895
 21
9.303407183956867
 31
0.0
  0
LINE
  5
2BF2
330
1E
100
AcDbEntity
  8
7
100
AcDbLine
 10
1.70261965847895
 20
9.303407183956867
 30
0.0
 11
1.66516558740513
 21
9.267924379781671
 31
0.0
  0
LINE
  5
2BF3
330
1E
100
AcDbEntity
  8
7
100
AcDbLine
 10
1.66516558740513
 20
9.267924379781671
 30
0.0
 11
1.651366719114777
 21
9.216671440417496
 31
0.0
  0
LINE
  5
2BF4
330
1E
100
AcDbEntity
  8
7
100
AcDbLine
 10
2.242746788701391
 20
8.211325322120252
 30
0.0
 11
2.242746788701391
 21
8.548411961784625
 31
0.0
  0
LINE
  5
2BF5
330
1E
100
AcDbEntity
  8
7
100
AcDbLine
 10
2.242746788701391
 20
8.548411961784625
 30
0.0
 11
2.252603123194502
 21
8.558268296277733
 31
0.0
  0
LINE
  5
2BF6
330
1E
100
AcDbEntity
  8
7
100
AcDbLine
 10
4.754140817545879
 20
8.558268296277733
 30
0.0
 11
4.76399715203899
 21
8.548411961784625
 31
0.0
  0
LINE
  5
2BF7
330
1E
100
AcDbEntity
  8
7
100
AcDbLine
 10
4.76399715203899
 20
8.548411961784625
 30
0.0
 11
4.76399715203899
 21
8.211325322120252
 31
0.0
  0
LINE
  5
2BF8
330
1E
100
AcDbEntity
  8
7
100
AcDbLine
 10
2.142212176871666
 20
8.891412402144862
 30
0.0
 11
2.154039778263399
 21
7.817071942395844
 31
0.0
  0
LINE
  5
2BF9
330
1E
100
AcDbEntity
  8
7
100
AcDbLine
 10
2.154039778263399
 20
7.817071942395844
 30
0.0
 11
4.852704162476982
 21
7.817071942395844
 31
0.0
  0
LINE
  5
2BFA
330
1E
100
AcDbEntity
  8
7
100
AcDbLine
 10
4.852704162476982
 20
7.817071942395844
 30
0.0
 11
4.862560496970091
 21
8.891412402144862
 31
0.0
  0
LINE
  5
2BFB
330
1E
100
AcDbEntity
  8
7
100
AcDbLine
 10
2.396505606793911
 20
8.02602623364978
 30
0.0
 11
2.398476873692533
 21
8.031940034345648
 31
0.0
  0
LINE
  5
2BFC
330
1E
100
AcDbEntity
  8
7
100
AcDbLine
 10
2.398476873692533
 20
8.031940034345648
 30
0.0
 11
2.404390674388399
 21
8.03391130124427
 31
0.0
  0
LINE
  5
2BFD
330
1E
100
AcDbEntity
  8
7
100
AcDbLine
 10
2.593632296656116
 20
8.03391130124427
 30
0.0
 11
2.599546097351982
 21
8.031940034345648
 31
0.0
  0
LINE
  5
2BFE
330
1E
100
AcDbEntity
  8
7
100
AcDbLine
 10
2.599546097351982
 20
8.031940034345648
 30
0.0
 11
2.601517364250604
 21
8.02602623364978
 31
0.0
  0
LINE
  5
2BFF
330
1E
100
AcDbEntity
  8
7
100
AcDbLine
 10
2.601517364250604
 20
8.02602623364978
 30
0.0
 11
2.601517364250604
 21
7.964916959792496
 31
0.0
  0
LINE
  5
2C00
330
1E
100
AcDbEntity
  8
7
100
AcDbLine
 10
2.601517364250604
 20
7.964916959792496
 30
0.0
 11
2.593632296656116
 21
7.95703189219801
 31
0.0
  0
LINE
  5
2C01
330
1E
100
AcDbEntity
  8
7
100
AcDbLine
 10
2.51083908691399
 20
7.95703189219801
 30
0.0
 11
2.51083908691399
 21
8.03391130124427
 31
0.0
  0
LINE
  5
2C02
330
1E
100
AcDbEntity
  8
7
100
AcDbLine
 10
2.51083908691399
 20
8.03391130124427
 30
0.0
 11
2.593632296656116
 21
8.03391130124427
 31
0.0
  0
LINE
  5
2C03
330
1E
100
AcDbEntity
  8
7
100
AcDbLine
 10
3.033224815048832
 20
8.02602623364978
 30
0.0
 11
3.035196081947455
 21
8.031940034345648
 31
0.0
  0
LINE
  5
2C04
330
1E
100
AcDbEntity
  8
7
100
AcDbLine
 10
3.035196081947455
 20
8.031940034345648
 30
0.0
 11
3.04110988264332
 21
8.03391130124427
 31
0.0
  0
LINE
  5
2C05
330
1E
100
AcDbEntity
  8
7
100
AcDbLine
 10
3.147558295168911
 20
7.95703189219801
 30
0.0
 11
3.147558295168911
 21
8.03391130124427
 31
0.0
  0
LINE
  5
2C06
330
1E
100
AcDbEntity
  8
7
100
AcDbLine
 10
3.147558295168911
 20
8.03391130124427
 30
0.0
 11
3.228380238012414
 21
8.03391130124427
 31
0.0
  0
LINE
  5
2C07
330
1E
100
AcDbEntity
  8
7
100
AcDbLine
 10
3.228380238012414
 20
8.03391130124427
 30
0.0
 11
3.234294038708281
 21
8.031940034345648
 31
0.0
  0
LINE
  5
2C08
330
1E
100
AcDbEntity
  8
7
100
AcDbLine
 10
3.234294038708281
 20
8.031940034345648
 30
0.0
 11
3.238236572505526
 21
8.02602623364978
 31
0.0
  0
LINE
  5
2C09
330
1E
100
AcDbEntity
  8
7
100
AcDbLine
 10
3.238236572505526
 20
8.02602623364978
 30
0.0
 11
3.238236572505526
 21
7.964916959792496
 31
0.0
  0
LINE
  5
2C0A
330
1E
100
AcDbEntity
  8
7
100
AcDbLine
 10
3.238236572505526
 20
7.964916959792496
 30
0.0
 11
3.228380238012414
 21
7.95703189219801
 31
0.0
  0
LINE
  5
2C0B
330
1E
100
AcDbEntity
  8
7
100
AcDbLine
 10
3.768507368234855
 20
8.02602623364978
 30
0.0
 11
3.770478635133478
 21
8.031940034345648
 31
0.0
  0
LINE
  5
2C0C
330
1E
100
AcDbEntity
  8
7
100
AcDbLine
 10
3.770478635133478
 20
8.031940034345648
 30
0.0
 11
3.776392435829343
 21
8.03391130124427
 31
0.0
  0
LINE
  5
2C0D
330
1E
100
AcDbEntity
  8
7
100
AcDbLine
 10
3.882840848354935
 20
7.95703189219801
 30
0.0
 11
3.882840848354935
 21
8.03391130124427
 31
0.0
  0
LINE
  5
2C0E
330
1E
100
AcDbEntity
  8
7
100
AcDbLine
 10
3.882840848354935
 20
8.03391130124427
 30
0.0
 11
3.965634058097061
 21
8.03391130124427
 31
0.0
  0
LINE
  5
2C0F
330
1E
100
AcDbEntity
  8
7
100
AcDbLine
 10
3.965634058097061
 20
8.03391130124427
 30
0.0
 11
3.971547858792926
 21
8.031940034345648
 31
0.0
  0
LINE
  5
2C10
330
1E
100
AcDbEntity
  8
7
100
AcDbLine
 10
3.971547858792926
 20
8.031940034345648
 30
0.0
 11
3.97351912569155
 21
8.02602623364978
 31
0.0
  0
LINE
  5
2C11
330
1E
100
AcDbEntity
  8
7
100
AcDbLine
 10
3.97351912569155
 20
8.02602623364978
 30
0.0
 11
3.97351912569155
 21
7.964916959792496
 31
0.0
  0
LINE
  5
2C12
330
1E
100
AcDbEntity
  8
7
100
AcDbLine
 10
3.97351912569155
 20
7.964916959792496
 30
0.0
 11
3.965634058097061
 21
7.95703189219801
 31
0.0
  0
LINE
  5
2C13
330
1E
100
AcDbEntity
  8
7
100
AcDbLine
 10
4.405226576489777
 20
8.02602623364978
 30
0.0
 11
4.407197843388399
 21
8.031940034345648
 31
0.0
  0
LINE
  5
2C14
330
1E
100
AcDbEntity
  8
7
100
AcDbLine
 10
4.407197843388399
 20
8.031940034345648
 30
0.0
 11
4.413111644084266
 21
8.03391130124427
 31
0.0
  0
LINE
  5
2C15
330
1E
100
AcDbEntity
  8
7
100
AcDbLine
 10
4.60038199945336
 20
8.03391130124427
 30
0.0
 11
4.606295800149225
 21
8.031940034345648
 31
0.0
  0
LINE
  5
2C16
330
1E
100
AcDbEntity
  8
7
100
AcDbLine
 10
4.606295800149225
 20
8.031940034345648
 30
0.0
 11
4.608267067047848
 21
8.02602623364978
 31
0.0
  0
LINE
  5
2C17
330
1E
100
AcDbEntity
  8
7
100
AcDbLine
 10
4.608267067047848
 20
8.02602623364978
 30
0.0
 11
4.608267067047848
 21
7.964916959792496
 31
0.0
  0
LINE
  5
2C18
330
1E
100
AcDbEntity
  8
7
100
AcDbLine
 10
4.608267067047848
 20
7.964916959792496
 30
0.0
 11
4.60038199945336
 21
7.95703189219801
 31
0.0
  0
LINE
  5
2C19
330
1E
100
AcDbEntity
  8
7
100
AcDbLine
 10
4.519560056609855
 20
7.95703189219801
 30
0.0
 11
4.519560056609855
 21
8.03391130124427
 31
0.0
  0
LINE
  5
2C1A
330
1E
100
AcDbEntity
  8
7
100
AcDbLine
 10
4.519560056609855
 20
8.03391130124427
 30
0.0
 11
4.60038199945336
 21
8.03391130124427
 31
0.0
  0
LINE
  5
2C1B
330
1E
100
AcDbEntity
  8
7
100
AcDbLine
 10
1.751901330944502
 20
9.216671440417496
 30
0.0
 11
1.70261965847895
 21
9.216671440417496
 31
0.0
  0
LINE
  5
2C1C
330
1E
100
AcDbEntity
  8
7
100
AcDbLine
 10
1.70261965847895
 20
9.216671440417496
 30
0.0
 11
1.66516558740513
 21
9.216671440417496
 31
0.0
  0
LINE
  5
2C1D
330
1E
100
AcDbEntity
  8
7
100
AcDbLine
 10
1.66516558740513
 20
9.216671440417496
 30
0.0
 11
1.651366719114777
 21
9.216671440417496
 31
0.0
  0
LINE
  5
2C1E
330
1E
100
AcDbEntity
  8
7
100
AcDbLine
 10
1.651366719114777
 20
6.861007496564152
 30
0.0
 11
1.66516558740513
 21
6.861007496564152
 31
0.0
  0
LINE
  5
2C1F
330
1E
100
AcDbEntity
  8
7
100
AcDbLine
 10
1.66516558740513
 20
6.861007496564152
 30
0.0
 11
1.70261965847895
 21
6.861007496564152
 31
0.0
  0
LINE
  5
2C20
330
1E
100
AcDbEntity
  8
7
100
AcDbLine
 10
1.70261965847895
 20
6.861007496564152
 30
0.0
 11
1.751901330944502
 21
6.861007496564152
 31
0.0
  0
LINE
  5
2C21
330
1E
100
AcDbEntity
  8
7
100
AcDbLine
 10
5.353405954726982
 20
9.216671440417496
 30
0.0
 11
5.339607086436627
 21
9.216671440417496
 31
0.0
  0
LINE
  5
2C22
330
1E
100
AcDbEntity
  8
7
100
AcDbLine
 10
5.339607086436627
 20
9.216671440417496
 30
0.0
 11
5.304124282261431
 21
9.216671440417496
 31
0.0
  0
LINE
  5
2C23
330
1E
100
AcDbEntity
  8
7
100
AcDbLine
 10
5.304124282261431
 20
9.216671440417496
 30
0.0
 11
5.254842609795879
 21
9.216671440417496
 31
0.0
  0
LINE
  5
2C24
330
1E
100
AcDbEntity
  8
7
100
AcDbLine
 10
5.254842609795879
 20
6.861007496564152
 30
0.0
 11
5.304124282261431
 21
6.861007496564152
 31
0.0
  0
LINE
  5
2C25
330
1E
100
AcDbEntity
  8
7
100
AcDbLine
 10
5.304124282261431
 20
6.861007496564152
 30
0.0
 11
5.339607086436627
 21
6.861007496564152
 31
0.0
  0
LINE
  5
2C26
330
1E
100
AcDbEntity
  8
7
100
AcDbLine
 10
5.339607086436627
 20
6.861007496564152
 30
0.0
 11
5.353405954726982
 21
6.861007496564152
 31
0.0
  0
LINE
  5
2C27
330
1E
100
AcDbEntity
  8
7
100
AcDbLine
 10
3.669944023303754
 20
6.693449810181276
 30
0.0
 11
3.669944023303754
 21
6.675708408093679
 31
0.0
  0
LINE
  5
2C28
330
1E
100
AcDbEntity
  8
7
100
AcDbLine
 10
3.669944023303754
 20
6.675708408093679
 30
0.0
 11
3.669944023303754
 21
6.66782334049919
 31
0.0
  0
LINE
  5
2C29
330
1E
100
AcDbEntity
  8
7
100
AcDbLine
 10
3.328914849842139
 20
6.66782334049919
 30
0.0
 11
3.328914849842139
 21
6.675708408093679
 31
0.0
  0
LINE
  5
2C2A
330
1E
100
AcDbEntity
  8
7
100
AcDbLine
 10
3.328914849842139
 20
6.675708408093679
 30
0.0
 11
3.328914849842139
 21
6.693449810181276
 31
0.0
  0
LINE
  5
2C2B
330
1E
100
AcDbEntity
  8
7
100
AcDbLine
 10
3.328914849842139
 20
6.693449810181276
 30
0.0
 11
3.328914849842139
 21
6.760472884734425
 31
0.0
  0
LINE
  5
2C2C
330
1E
100
AcDbEntity
  8
7
100
AcDbLine
 10
5.353405954726982
 20
9.216671440417496
 30
0.0
 11
5.353405954726982
 21
6.861007496564152
 31
0.0
  0
LINE
  5
2C2D
330
1E
100
AcDbEntity
  8
7
100
AcDbLine
 10
5.353405954726982
 20
6.861007496564152
 30
0.0
 11
5.357348488524225
 21
6.855093695868283
 31
0.0
  0
LINE
  5
2C2E
330
1E
100
AcDbEntity
  8
7
100
AcDbLine
 10
1.647424185317532
 20
9.222585241113364
 30
0.0
 11
1.655309252912021
 21
9.260039312187181
 31
0.0
  0
LINE
  5
2C2F
330
1E
100
AcDbEntity
  8
7
100
AcDbLine
 10
1.655309252912021
 20
9.260039312187181
 30
0.0
 11
1.676993188796863
 21
9.291579582565134
 31
0.0
  0
LINE
  5
2C30
330
1E
100
AcDbEntity
  8
7
100
AcDbLine
 10
1.676993188796863
 20
9.291579582565134
 30
0.0
 11
1.708533459174816
 21
9.313263518449979
 31
0.0
  0
LINE
  5
2C31
330
1E
100
AcDbEntity
  8
7
100
AcDbLine
 10
1.708533459174816
 20
9.313263518449979
 30
0.0
 11
1.747958797147257
 21
9.321148586044465
 31
0.0
  0
LINE
  5
2C32
330
1E
100
AcDbEntity
  8
7
100
AcDbLine
 10
1.747958797147257
 20
9.321148586044465
 30
0.0
 11
5.258785143593124
 21
9.321148586044465
 31
0.0
  0
LINE
  5
2C33
330
1E
100
AcDbEntity
  8
7
100
AcDbLine
 10
5.258785143593124
 20
9.321148586044465
 30
0.0
 11
5.296239214666943
 21
9.313263518449979
 31
0.0
  0
LINE
  5
2C34
330
1E
100
AcDbEntity
  8
7
100
AcDbLine
 10
5.296239214666943
 20
9.313263518449979
 30
0.0
 11
5.329750751943517
 21
9.291579582565134
 31
0.0
  0
LINE
  5
2C35
330
1E
100
AcDbEntity
  8
7
100
AcDbLine
 10
5.329750751943517
 20
9.291579582565134
 30
0.0
 11
5.35143468782836
 21
9.260039312187181
 31
0.0
  0
LINE
  5
2C36
330
1E
100
AcDbEntity
  8
7
100
AcDbLine
 10
5.35143468782836
 20
9.260039312187181
 30
0.0
 11
5.357348488524225
 21
9.222585241113364
 31
0.0
  0
LINE
  5
2C37
330
1E
100
AcDbEntity
  8
7
100
AcDbLine
 10
5.357348488524225
 20
9.222585241113364
 30
0.0
 11
5.357348488524225
 21
6.855093695868283
 31
0.0
  0
LINE
  5
2C38
330
1E
100
AcDbEntity
  8
7
100
AcDbLine
 10
5.357348488524225
 20
6.855093695868283
 30
0.0
 11
5.35143468782836
 21
6.817639624794465
 31
0.0
  0
LINE
  5
2C39
330
1E
100
AcDbEntity
  8
7
100
AcDbLine
 10
5.35143468782836
 20
6.817639624794465
 30
0.0
 11
5.329750751943517
 21
6.786099354416513
 31
0.0
  0
LINE
  5
2C3A
330
1E
100
AcDbEntity
  8
7
100
AcDbLine
 10
5.329750751943517
 20
6.786099354416513
 30
0.0
 11
5.296239214666943
 21
6.764415418531672
 31
0.0
  0
LINE
  5
2C3B
330
1E
100
AcDbEntity
  8
7
100
AcDbLine
 10
5.296239214666943
 20
6.764415418531672
 30
0.0
 11
5.258785143593124
 21
6.756530350937182
 31
0.0
  0
LINE
  5
2C3C
330
1E
100
AcDbEntity
  8
7
100
AcDbLine
 10
1.747958797147257
 20
6.756530350937182
 30
0.0
 11
1.708533459174816
 21
6.764415418531672
 31
0.0
  0
LINE
  5
2C3D
330
1E
100
AcDbEntity
  8
7
100
AcDbLine
 10
1.708533459174816
 20
6.764415418531672
 30
0.0
 11
1.676993188796863
 21
6.786099354416513
 31
0.0
  0
LINE
  5
2C3E
330
1E
100
AcDbEntity
  8
7
100
AcDbLine
 10
1.676993188796863
 20
6.786099354416513
 30
0.0
 11
1.655309252912021
 21
6.817639624794465
 31
0.0
  0
LINE
  5
2C3F
330
1E
100
AcDbEntity
  8
7
100
AcDbLine
 10
1.655309252912021
 20
6.817639624794465
 30
0.0
 11
1.647424185317532
 21
6.855093695868283
 31
0.0
  0
LINE
  5
2C40
330
1E
100
AcDbEntity
  8
7
100
AcDbLine
 10
2.142212176871666
 20
7.18626653483679
 30
0.0
 11
2.118556974088201
 21
7.196122869329898
 31
0.0
  0
LINE
  5
2C41
330
1E
100
AcDbEntity
  8
7
100
AcDbLine
 10
2.118556974088201
 20
7.196122869329898
 30
0.0
 11
2.100815572000604
 21
7.221749339011986
 31
0.0
  0
LINE
  5
2C42
330
1E
100
AcDbEntity
  8
7
100
AcDbLine
 10
2.100815572000604
 20
7.221749339011986
 30
0.0
 11
2.092930504406115
 21
7.25526087628856
 31
0.0
  0
LINE
  5
2C43
330
1E
100
AcDbEntity
  8
7
100
AcDbLine
 10
2.092930504406115
 20
7.25526087628856
 30
0.0
 11
2.092930504406115
 21
8.786935256517891
 31
0.0
  0
LINE
  5
2C44
330
1E
100
AcDbEntity
  8
7
100
AcDbLine
 10
2.092930504406115
 20
8.786935256517891
 30
0.0
 11
2.09687303820336
 21
8.828331861388956
 31
0.0
  0
LINE
  5
2C45
330
1E
100
AcDbEntity
  8
7
100
AcDbLine
 10
2.09687303820336
 20
8.828331861388956
 30
0.0
 11
2.108700639595092
 21
8.861843398665531
 31
0.0
  0
LINE
  5
2C46
330
1E
100
AcDbEntity
  8
7
100
AcDbLine
 10
2.108700639595092
 20
8.861843398665531
 30
0.0
 11
2.124470774784068
 21
8.883527334550372
 31
0.0
  0
LINE
  5
2C47
330
1E
100
AcDbEntity
  8
7
100
AcDbLine
 10
4.911842169435642
 20
7.25526087628856
 30
0.0
 11
4.905928368739777
 21
7.221749339011986
 31
0.0
  0
LINE
  5
2C48
330
1E
100
AcDbEntity
  8
7
100
AcDbLine
 10
4.905928368739777
 20
7.221749339011986
 30
0.0
 11
4.888186966652178
 21
7.196122869329898
 31
0.0
  0
LINE
  5
2C49
330
1E
100
AcDbEntity
  8
7
100
AcDbLine
 10
4.888186966652178
 20
7.196122869329898
 30
0.0
 11
4.862560496970091
 21
7.18626653483679
 31
0.0
  0
LINE
  5
2C4A
330
1E
100
AcDbEntity
  8
7
100
AcDbLine
 10
2.142212176871666
 20
8.891412402144862
 30
0.0
 11
4.862560496970091
 21
8.891412402144862
 31
0.0
  0
LINE
  5
2C4B
330
1E
100
AcDbEntity
  8
7
100
AcDbLine
 10
4.862560496970091
 20
8.891412402144862
 30
0.0
 11
4.882273165956313
 21
8.883527334550372
 31
0.0
  0
LINE
  5
2C4C
330
1E
100
AcDbEntity
  8
7
100
AcDbLine
 10
4.882273165956313
 20
8.883527334550372
 30
0.0
 11
4.898043301145289
 21
8.861843398665531
 31
0.0
  0
LINE
  5
2C4D
330
1E
100
AcDbEntity
  8
7
100
AcDbLine
 10
4.898043301145289
 20
8.861843398665531
 30
0.0
 11
4.907899635638399
 21
8.828331861388956
 31
0.0
  0
LINE
  5
2C4E
330
1E
100
AcDbEntity
  8
7
100
AcDbLine
 10
4.907899635638399
 20
8.828331861388956
 30
0.0
 11
4.911842169435642
 21
8.786935256517891
 31
0.0
  0
LINE
  5
2C4F
330
1E
100
AcDbEntity
  8
7
100
AcDbLine
 10
1.751901330944502
 20
9.216671440417496
 30
0.0
 11
1.751901330944502
 21
6.861007496564152
 31
0.0
  0
LINE
  5
2C50
330
1E
100
AcDbEntity
  8
7
100
AcDbLine
 10
1.751901330944502
 20
6.861007496564152
 30
0.0
 11
5.254842609795879
 21
6.861007496564152
 31
0.0
  0
LINE
  5
2C51
330
1E
100
AcDbEntity
  8
7
100
AcDbLine
 10
5.254842609795879
 20
6.861007496564152
 30
0.0
 11
5.254842609795879
 21
9.216671440417496
 31
0.0
  0
LINE
  5
2C52
330
1E
100
AcDbEntity
  8
7
100
AcDbLine
 10
5.254842609795879
 20
9.216671440417496
 30
0.0
 11
1.751901330944502
 21
9.216671440417496
 31
0.0
  0
LINE
  5
2C53
330
1E
100
AcDbEntity
  8
7
100
AcDbLine
 10
2.404390674388399
 20
8.012227365359425
 30
0.0
 11
2.398476873692533
 21
8.010256098460803
 31
0.0
  0
LINE
  5
2C54
330
1E
100
AcDbEntity
  8
7
100
AcDbLine
 10
2.398476873692533
 20
8.010256098460803
 30
0.0
 11
2.396505606793911
 21
8.00631356466356
 31
0.0
  0
LINE
  5
2C55
330
1E
100
AcDbEntity
  8
7
100
AcDbLine
 10
3.04110988264332
 20
8.012227365359425
 30
0.0
 11
3.035196081947455
 21
8.010256098460803
 31
0.0
  0
LINE
  5
2C56
330
1E
100
AcDbEntity
  8
7
100
AcDbLine
 10
3.035196081947455
 20
8.010256098460803
 30
0.0
 11
3.033224815048832
 21
8.00631356466356
 31
0.0
  0
LINE
  5
2C57
330
1E
100
AcDbEntity
  8
7
100
AcDbLine
 10
3.776392435829343
 20
8.012227365359425
 30
0.0
 11
3.770478635133478
 21
8.010256098460803
 31
0.0
  0
LINE
  5
2C58
330
1E
100
AcDbEntity
  8
7
100
AcDbLine
 10
3.770478635133478
 20
8.010256098460803
 30
0.0
 11
3.768507368234855
 21
8.00631356466356
 31
0.0
  0
ENDSEC
  0
SECTION
  2
OBJECTS
  0
DICTIONARY
  5
C
330
0
100
AcDbDictionary
  3
ACAD_GROUP
350
D
  3
ACAD_LAYOUT
350
19
  3
ACAD_MLINESTYLE
350
16
  3
ACAD_PLOTSETTINGS
350
18
1001
ACAD
1000
TREAT_AS_HARD
1070
     0
  0
DICTIONARY
  5
31C4
330
1E
100
AcDbDictionary
  3
ACAD_LAYOUTSELFREF
350
31C5
  0
DICTIONARY
  5
31C2
330
1A
100
AcDbDictionary
  3
ACAD_LAYOUTSELFREF
350
31C3
  0
DICTIONARY
  5
D
102
{ACAD_REACTORS
330
C
102
}
330
C
100
AcDbDictionary
1001
ACAD
1000
TREAT_AS_HARD
1070
     0
  0
DICTIONARY
  5
19
102
{ACAD_REACTORS
330
C
102
}
330
C
100
AcDbDictionary
1001
ACAD
1000
TREAT_AS_HARD
1070
     0
  0
DICTIONARY
  5
16
102
{ACAD_REACTORS
330
C
102
}
330
C
100
AcDbDictionary
  3
STANDARD
350
17
1001
ACAD
1000
TREAT_AS_HARD
1070
     0
  0
DICTIONARY
  5
18
102
{ACAD_REACTORS
330
C
102
}
330
C
100
AcDbDictionary
1001
ACAD
1000
TREAT_AS_HARD
1070
     0
  0
XRECORD
  5
31C5
102
{ACAD_REACTORS
330
31C4
102
}
330
31C4
100
AcDbXrecord
340
1E
  0
XRECORD
  5
31C3
102
{ACAD_REACTORS
330
31C2
102
}
330
31C2
100
AcDbXrecord
340
1A
  0
MLINESTYLE
  5
17
102
{ACAD_REACTORS
330
16
102
}
330
16
100
AcDbMlineStyle
  2
STANDARD
 70
     0
  3

 62
   256
 51
90.0
 52
90.0
 71
     2
 49
0.5
 62
   256
  6
BYLAYER
 49
-0.5
 62
   256
  6
BYLAYER
  0
ENDSEC
  0
EOF
