  0
SECTION
  2
HEADER
  9
$ACADVER
  1
AC1015
  9
$ACADMAINTVER
 70
    10
  9
$DWGCODEPAGE
  3
ANSI_1252
  9
$INSBASE
 10
0.0
 20
0.0
 30
0.0
  9
$EXTMIN
 10
5.221801791831154
 20
9.355957063096525
 30
-0.0015258207003583
  9
$EXTMAX
 10
8.898559594641625
 20
12.48706057188923
 30
0.0000000349246037
  9
$LIMMIN
 10
0.0
 20
0.0
  9
$LIMMAX
 10
12.0
 20
9.0
  9
$ORTHOMODE
 70
     0
  9
$REGENMODE
 70
     1
  9
$FILLMODE
 70
     1
  9
$QTEXTMODE
 70
     0
  9
$MIRRTEXT
 70
     1
  9
$LTSCALE
 40
1.0
  9
$ATTMODE
 70
     1
  9
$TEXTSIZE
 40
0.2
  9
$TRACEWID
 40
0.05
  9
$TEXTSTYLE
  7
STANDARD
  9
$CLAYER
  8
0
  9
$CELTYPE
  6
ByLayer
  9
$CECOLOR
 62
   256
  9
$CELTSCALE
 40
1.0
  9
$DISPSILH
 70
     0
  9
$DIMSCALE
 40
1.0
  9
$DIMASZ
 40
0.18
  9
$DIMEXO
 40
0.0625
  9
$DIMDLI
 40
0.38
  9
$DIMRND
 40
0.0
  9
$DIMDLE
 40
0.0
  9
$DIMEXE
 40
0.18
  9
$DIMTP
 40
0.0
  9
$DIMTM
 40
0.0
  9
$DIMTXT
 40
0.18
  9
$DIMCEN
 40
0.09
  9
$DIMTSZ
 40
0.0
  9
$DIMTOL
 70
     0
  9
$DIMLIM
 70
     0
  9
$DIMTIH
 70
     1
  9
$DIMTOH
 70
     1
  9
$DIMSE1
 70
     0
  9
$DIMSE2
 70
     0
  9
$DIMTAD
 70
     0
  9
$DIMZIN
 70
     0
  9
$DIMBLK
  1

  9
$DIMASO
 70
     1
  9
$DIMSHO
 70
     1
  9
$DIMPOST
  1

  9
$DIMAPOST
  1

  9
$DIMALT
 70
     0
  9
$DIMALTD
 70
     2
  9
$DIMALTF
 40
25.4
  9
$DIMLFAC
 40
1.0
  9
$DIMTOFL
 70
     0
  9
$DIMTVP
 40
0.0
  9
$DIMTIX
 70
     0
  9
$DIMSOXD
 70
     0
  9
$DIMSAH
 70
     0
  9
$DIMBLK1
  1

  9
$DIMBLK2
  1

  9
$DIMSTYLE
  2
Standard
  9
$DIMCLRD
 70
     0
  9
$DIMCLRE
 70
     0
  9
$DIMCLRT
 70
     0
  9
$DIMTFAC
 40
1.0
  9
$DIMGAP
 40
0.09
  9
$DIMJUST
 70
     0
  9
$DIMSD1
 70
     0
  9
$DIMSD2
 70
     0
  9
$DIMTOLJ
 70
     1
  9
$DIMTZIN
 70
     0
  9
$DIMALTZ
 70
     0
  9
$DIMALTTZ
 70
     0
  9
$DIMUPT
 70
     0
  9
$DIMDEC
 70
     4
  9
$DIMTDEC
 70
     4
  9
$DIMALTU
 70
     2
  9
$DIMALTTD
 70
     2
  9
$DIMTXSTY
  7
STANDARD
  9
$DIMAUNIT
 70
     0
  9
$DIMADEC
 70
     0
  9
$DIMALTRND
 40
0.0
  9
$DIMAZIN
 70
     0
  9
$DIMDSEP
 70
    46
  9
$DIMATFIT
 70
     3
  9
$DIMFRAC
 70
     0
  9
$DIMLDRBLK
  1

  9
$DIMLUNIT
 70
     2
  9
$DIMLWD
 70
    -2
  9
$DIMLWE
 70
    -2
  9
$DIMTMOVE
 70
     2
  9
$LUNITS
 70
     2
  9
$LUPREC
 70
     4
  9
$SKETCHINC
 40
0.1
  9
$FILLETRAD
 40
0.0
  9
$AUNITS
 70
     0
  9
$AUPREC
 70
     0
  9
$MENU
  1
acad
  9
$ELEVATION
 40
0.0
  9
$PELEVATION
 40
0.0
  9
$THICKNESS
 40
0.0
  9
$LIMCHECK
 70
     0
  9
$CHAMFERA
 40
0.0
  9
$CHAMFERB
 40
0.0
  9
$CHAMFERC
 40
0.0
  9
$CHAMFERD
 40
0.0
  9
$SKPOLY
 70
     0
  9
$TDCREATE
 40
2454153.473148148
  9
$TDUCREATE
 40
2454153.723148148
  9
$TDUPDATE
 40
2454153.539582291
  9
$TDUUPDATE
 40
2454153.789582291
  9
$TDINDWG
 40
0.0217051157
  9
$TDUSRTIMER
 40
0.0217051157
  9
$USRTIMER
 70
     1
  9
$ANGBASE
 50
0.0
  9
$ANGDIR
 70
     0
  9
$PDMODE
 70
     0
  9
$PDSIZE
 40
0.0
  9
$PLINEWID
 40
0.0
  9
$SPLFRAME
 70
     0
  9
$SPLINETYPE
 70
     6
  9
$SPLINESEGS
 70
     8
  9
$HANDSEED
  5
2A54
  9
$SURFTAB1
 70
     6
  9
$SURFTAB2
 70
     6
  9
$SURFTYPE
 70
     6
  9
$SURFU
 70
     6
  9
$SURFV
 70
     6
  9
$UCSBASE
  2

  9
$UCSNAME
  2

  9
$UCSORG
 10
0.0
 20
0.0
 30
0.0
  9
$UCSXDIR
 10
1.0
 20
0.0
 30
0.0
  9
$UCSYDIR
 10
0.0
 20
1.0
 30
0.0
  9
$UCSORTHOREF
  2

  9
$UCSORTHOVIEW
 70
     0
  9
$UCSORGTOP
 10
0.0
 20
0.0
 30
0.0
  9
$UCSORGBOTTOM
 10
0.0
 20
0.0
 30
0.0
  9
$UCSORGLEFT
 10
0.0
 20
0.0
 30
0.0
  9
$UCSORGRIGHT
 10
0.0
 20
0.0
 30
0.0
  9
$UCSORGFRONT
 10
0.0
 20
0.0
 30
0.0
  9
$UCSORGBACK
 10
0.0
 20
0.0
 30
0.0
  9
$PUCSBASE
  2

  9
$PUCSNAME
  2

  9
$PUCSORG
 10
0.0
 20
0.0
 30
0.0
  9
$PUCSXDIR
 10
1.0
 20
0.0
 30
0.0
  9
$PUCSYDIR
 10
0.0
 20
1.0
 30
0.0
  9
$PUCSORTHOREF
  2

  9
$PUCSORTHOVIEW
 70
     0
  9
$PUCSORGTOP
 10
0.0
 20
0.0
 30
0.0
  9
$PUCSORGBOTTOM
 10
0.0
 20
0.0
 30
0.0
  9
$PUCSORGLEFT
 10
0.0
 20
0.0
 30
0.0
  9
$PUCSORGRIGHT
 10
0.0
 20
0.0
 30
0.0
  9
$PUCSORGFRONT
 10
0.0
 20
0.0
 30
0.0
  9
$PUCSORGBACK
 10
0.0
 20
0.0
 30
0.0
  9
$USERI1
 70
     0
  9
$USERI2
 70
     0
  9
$USERI3
 70
     0
  9
$USERI4
 70
     0
  9
$USERI5
 70
     0
  9
$USERR1
 40
0.0
  9
$USERR2
 40
0.0
  9
$USERR3
 40
0.0
  9
$USERR4
 40
0.0
  9
$USERR5
 40
0.0
  9
$WORLDVIEW
 70
     1
  9
$SHADEDGE
 70
     3
  9
$SHADEDIF
 70
    70
  9
$TILEMODE
 70
     1
  9
$MAXACTVP
 70
    16
  9
$PINSBASE
 10
0.0
 20
0.0
 30
0.0
  9
$PLIMCHECK
 70
     0
  9
$PEXTMIN
 10
1.000000000000000E+20
 20
1.000000000000000E+20
 30
1.000000000000000E+20
  9
$PEXTMAX
 10
-1.000000000000000E+20
 20
-1.000000000000000E+20
 30
-1.000000000000000E+20
  9
$PLIMMIN
 10
0.0
 20
0.0
  9
$PLIMMAX
 10
12.0
 20
9.0
  9
$UNITMODE
 70
     0
  9
$VISRETAIN
 70
     0
  9
$PLINEGEN
 70
     0
  9
$PSLTSCALE
 70
     1
  9
$TREEDEPTH
 70
  3020
  9
$CMLSTYLE
  2
Standard
  9
$CMLJUST
 70
     0
  9
$CMLSCALE
 40
1.0
  9
$PROXYGRAPHICS
 70
     1
  9
$MEASUREMENT
 70
     0
  9
$CELWEIGHT
370
    -1
  9
$ENDCAPS
280
     0
  9
$JOINSTYLE
280
     0
  9
$LWDISPLAY
290
     0
  9
$INSUNITS
 70
     0
  9
$HYPERLINKBASE
  1

  9
$STYLESHEET
  1

  9
$XEDIT
290
     1
  9
$CEPSNTYPE
380
     0
  9
$PSTYLEMODE
290
     1
  9
$FINGERPRINTGUID
  2
{C973CEFF-4028-43DA-993A-BF1F55C6353D}
  9
$VERSIONGUID
  2
{E6789FA1-5117-4D44-853F-AD66924C7B79}
  9
$EXTNAMES
290
     1
  9
$PSVPSCALE
 40
0.0
  9
$OLESTARTUP
290
     0
  0
ENDSEC
  0
SECTION
  2
CLASSES
  0
CLASS
  1
ACDBDICTIONARYWDFLT
  2
AcDbDictionaryWithDefault
  3
AutoCAD 2000
 90
        0
280
     0
281
     0
  0
CLASS
  1
ACDBPLACEHOLDER
  2
AcDbPlaceHolder
  3
AutoCAD 2000
 90
        0
280
     0
281
     0
  0
CLASS
  1
LAYOUT
  2
AcDbLayout
  3
AutoCAD 2000
 90
        0
280
     0
281
     0
  0
ENDSEC
  0
SECTION
  2
TABLES
  0
TABLE
  2
VPORT
  5
8
330
0
100
AcDbSymbolTable
 70
     4
  0
VPORT
  5
2A53
330
8
100
AcDbSymbolTableRecord
100
AcDbViewportTableRecord
  2
*Active
 70
     0
 10
0.0
 20
0.0
 11
1.0
 21
1.0
 12
7.060180693236389
 22
10.92150881749287
 13
0.0
 23
0.0
 14
1.0
 24
1.0
 15
0.0
 25
0.0
 16
0.0
 26
0.0
 36
1.0
 17
0.0
 27
0.0
 37
0.0
 40
3.154440926249545
 41
1.498756218905472
 42
50.0
 43
0.0
 44
0.0
 50
0.0
 51
0.0
 71
     0
 72
   100
 73
     1
 74
     1
 75
     0
 76
     0
 77
     0
 78
     0
281
     0
 65
     1
110
0.0
120
0.0
130
0.0
111
1.0
121
0.0
131
0.0
112
0.0
122
1.0
132
0.0
 79
     0
146
0.0
  0
ENDTAB
  0
TABLE
  2
LTYPE
  5
5
330
0
100
AcDbSymbolTable
 70
    25
  0
LTYPE
  5
13
330
5
100
AcDbSymbolTableRecord
100
AcDbLinetypeTableRecord
  2
ByBlock
 70
     0
  3

 72
    65
 73
     0
 40
0.0
  0
LTYPE
  5
14
330
5
100
AcDbSymbolTableRecord
100
AcDbLinetypeTableRecord
  2
ByLayer
 70
     0
  3

 72
    65
 73
     0
 40
0.0
  0
LTYPE
  5
15
330
5
100
AcDbSymbolTableRecord
100
AcDbLinetypeTableRecord
  2
CONTINUOUS
 70
     0
  3
Solid line
 72
    65
 73
     0
 40
0.0
  0
LTYPE
  5
22
330
5
100
AcDbSymbolTableRecord
100
AcDbLinetypeTableRecord
  2
BORDER
 70
     0
  3
__ __ . __ __ . __ __ . __ __ . __ __ . __ __ .
 72
    65
 73
     6
 40
1.75
 49
0.5
 74
     0
 49
-0.25
 74
     0
 49
0.5
 74
     0
 49
-0.25
 74
     0
 49
0.5
 74
     0
 49
-0.25
 74
     0
  0
LTYPE
  5
23
330
5
100
AcDbSymbolTableRecord
100
AcDbLinetypeTableRecord
  2
BORDER2
 70
     0
  3
__.__.__.__.__.__.__.__.
 72
    65
 73
     6
 40
0.875
 49
0.25
 74
     0
 49
-0.125
 74
     0
 49
0.25
 74
     0
 49
-0.125
 74
     0
 49
0.25
 74
     0
 49
-0.125
 74
     0
  0
LTYPE
  5
24
330
5
100
AcDbSymbolTableRecord
100
AcDbLinetypeTableRecord
  2
BORDERX2
 70
     0
  3
____  ____  .  
 72
    65
 73
     6
 40
3.5
 49
1.0
 74
     0
 49
-0.5
 74
     0
 49
1.0
 74
     0
 49
-0.5
 74
     0
 49
1.0
 74
     0
 49
-0.5
 74
     0
  0
LTYPE
  5
25
330
5
100
AcDbSymbolTableRecord
100
AcDbLinetypeTableRecord
  2
CENTER
 70
     0
  3
____ _ ____ _ ____ _ 
 72
    65
 73
     4
 40
2.0
 49
1.25
 74
     0
 49
-0.25
 74
     0
 49
0.25
 74
     0
 49
-0.25
 74
     0
  0
LTYPE
  5
26
330
5
100
AcDbSymbolTableRecord
100
AcDbLinetypeTableRecord
  2
CENTER2
 70
     0
  3
____ _ ____ _ ____ _ 
 72
    65
 73
     4
 40
1.125
 49
0.75
 74
     0
 49
-0.125
 74
     0
 49
0.125
 74
     0
 49
-0.125
 74
     0
  0
LTYPE
  5
27
330
5
100
AcDbSymbolTableRecord
100
AcDbLinetypeTableRecord
  2
CENTERX2
 70
     0
  3
________  __  
 72
    65
 73
     4
 40
4.0
 49
2.5
 74
     0
 49
-0.5
 74
     0
 49
0.5
 74
     0
 49
-0.5
 74
     0
  0
LTYPE
  5
28
330
5
100
AcDbSymbolTableRecord
100
AcDbLinetypeTableRecord
  2
DASHDOT
 70
     0
  3
__ . __ . __ . __ . 
 72
    65
 73
     4
 40
1.0
 49
0.5
 74
     0
 49
-0.25
 74
     0
 49
0.0
 74
     0
 49
-0.25
 74
     0
  0
LTYPE
  5
29
330
5
100
AcDbSymbolTableRecord
100
AcDbLinetypeTableRecord
  2
DASHDOT2
 70
     0
  3
_._._._._._._._._.
 72
    65
 73
     4
 40
0.5
 49
0.25
 74
     0
 49
-0.125
 74
     0
 49
0.0
 74
     0
 49
-0.125
 74
     0
  0
LTYPE
  5
2A
330
5
100
AcDbSymbolTableRecord
100
AcDbLinetypeTableRecord
  2
DASHDOTX2
 70
     0
  3
____  .  ____  .  
 72
    65
 73
     4
 40
2.0
 49
1.0
 74
     0
 49
-0.5
 74
     0
 49
0.0
 74
     0
 49
-0.5
 74
     0
  0
LTYPE
  5
2B
330
5
100
AcDbSymbolTableRecord
100
AcDbLinetypeTableRecord
  2
DASHED
 70
     0
  3
__ __ __ __ __ __ __ 
 72
    65
 73
     2
 40
0.75
 49
0.5
 74
     0
 49
-0.25
 74
     0
  0
LTYPE
  5
2C
330
5
100
AcDbSymbolTableRecord
100
AcDbLinetypeTableRecord
  2
DASHED2
 70
     0
  3
_ _ _ _ _ _ _ _ _ _ 
 72
    65
 73
     2
 40
0.375
 49
0.25
 74
     0
 49
-0.125
 74
     0
  0
LTYPE
  5
2D
330
5
100
AcDbSymbolTableRecord
100
AcDbLinetypeTableRecord
  2
DASHEDX2
 70
     0
  3
____  ____  ____  
 72
    65
 73
     2
 40
1.5
 49
1.0
 74
     0
 49
-0.5
 74
     0
  0
LTYPE
  5
2E
330
5
100
AcDbSymbolTableRecord
100
AcDbLinetypeTableRecord
  2
DIVIDE
 70
     0
  3
____ . . ____ . . 
 72
    65
 73
     6
 40
1.25
 49
0.5
 74
     0
 49
-0.25
 74
     0
 49
0.0
 74
     0
 49
-0.25
 74
     0
 49
0.0
 74
     0
 49
-0.25
 74
     0
  0
LTYPE
  5
2F
330
5
100
AcDbSymbolTableRecord
100
AcDbLinetypeTableRecord
  2
DIVIDE2
 70
     0
  3
__..__..__..__..__..
 72
    65
 73
     6
 40
0.625
 49
0.25
 74
     0
 49
-0.125
 74
     0
 49
0.0
 74
     0
 49
-0.125
 74
     0
 49
0.0
 74
     0
 49
-0.125
 74
     0
  0
LTYPE
  5
30
330
5
100
AcDbSymbolTableRecord
100
AcDbLinetypeTableRecord
  2
DIVIDEX2
 70
     0
  3
________  .  .  
 72
    65
 73
     6
 40
2.5
 49
1.0
 74
     0
 49
-0.5
 74
     0
 49
0.0
 74
     0
 49
-0.5
 74
     0
 49
0.0
 74
     0
 49
-0.5
 74
     0
  0
LTYPE
  5
31
330
5
100
AcDbSymbolTableRecord
100
AcDbLinetypeTableRecord
  2
DOT
 70
     0
  3
. . . . . . . . . 
 72
    65
 73
     2
 40
0.25
 49
0.0
 74
     0
 49
-0.25
 74
     0
  0
LTYPE
  5
32
330
5
100
AcDbSymbolTableRecord
100
AcDbLinetypeTableRecord
  2
DOT2
 70
     0
  3
..................
 72
    65
 73
     2
 40
0.125
 49
0.0
 74
     0
 49
-0.125
 74
     0
  0
LTYPE
  5
33
330
5
100
AcDbSymbolTableRecord
100
AcDbLinetypeTableRecord
  2
DOTX2
 70
     0
  3
.  .  .  .  .  .  
 72
    65
 73
     2
 40
0.5
 49
0.0
 74
     0
 49
-0.5
 74
     0
  0
LTYPE
  5
34
330
5
100
AcDbSymbolTableRecord
100
AcDbLinetypeTableRecord
  2
HIDDEN
 70
     0
  3
__ __ __ __ __ __ 
 72
    65
 73
     2
 40
0.375
 49
0.25
 74
     0
 49
-0.125
 74
     0
  0
LTYPE
  5
35
330
5
100
AcDbSymbolTableRecord
100
AcDbLinetypeTableRecord
  2
HIDDEN2
 70
     0
  3
_ _ _ _ _ _ _ _ _ 
 72
    65
 73
     2
 40
0.1875
 49
0.125
 74
     0
 49
-0.0625
 74
     0
  0
LTYPE
  5
36
330
5
100
AcDbSymbolTableRecord
100
AcDbLinetypeTableRecord
  2
HIDDENX2
 70
     0
  3
____ ____ ____ ____ 
 72
    65
 73
     2
 40
0.75
 49
0.5
 74
     0
 49
-0.25
 74
     0
  0
LTYPE
  5
37
330
5
100
AcDbSymbolTableRecord
100
AcDbLinetypeTableRecord
  2
PHANTOM
 70
     0
  3
______  __  __  
 72
    65
 73
     6
 40
2.5
 49
1.25
 74
     0
 49
-0.25
 74
     0
 49
0.25
 74
     0
 49
-0.25
 74
     0
 49
0.25
 74
     0
 49
-0.25
 74
     0
  0
LTYPE
  5
38
330
5
100
AcDbSymbolTableRecord
100
AcDbLinetypeTableRecord
  2
PHANTOM2
 70
     0
  3
___ _ _ ___ _ _ 
 72
    65
 73
     6
 40
1.25
 49
0.625
 74
     0
 49
-0.125
 74
     0
 49
0.125
 74
     0
 49
-0.125
 74
     0
 49
0.125
 74
     0
 49
-0.125
 74
     0
  0
LTYPE
  5
39
330
5
100
AcDbSymbolTableRecord
100
AcDbLinetypeTableRecord
  2
PHANTOMX2
 70
     0
  3
___ _ _ ___ _ _ 
 72
    65
 73
     6
 40
5.0
 49
2.5
 74
     0
 49
-0.5
 74
     0
 49
0.5
 74
     0
 49
-0.5
 74
     0
 49
0.5
 74
     0
 49
-0.5
 74
     0
  0
ENDTAB
  0
TABLE
  2
LAYER
  5
2
330
0
100
AcDbSymbolTable
 70
   257
  0
LAYER
  5
10
330
2
100
AcDbSymbolTableRecord
100
AcDbLayerTableRecord
  2
0
 70
     0
 62
     7
  6
CONTINUOUS
370
    -3
390
F
  0
LAYER
  5
3A
330
2
100
AcDbSymbolTableRecord
100
AcDbLayerTableRecord
  2
1
 70
     0
 62
     1
  6
CONTINUOUS
370
    -3
390
F
  0
LAYER
  5
3B
330
2
100
AcDbSymbolTableRecord
100
AcDbLayerTableRecord
  2
2
 70
     0
 62
     2
  6
CONTINUOUS
370
    -3
390
F
  0
LAYER
  5
3C
330
2
100
AcDbSymbolTableRecord
100
AcDbLayerTableRecord
  2
3
 70
     0
 62
     3
  6
CONTINUOUS
370
    -3
390
F
  0
LAYER
  5
3D
330
2
100
AcDbSymbolTableRecord
100
AcDbLayerTableRecord
  2
4
 70
     0
 62
     4
  6
CONTINUOUS
370
    -3
390
F
  0
LAYER
  5
3E
330
2
100
AcDbSymbolTableRecord
100
AcDbLayerTableRecord
  2
5
 70
     0
 62
     5
  6
CONTINUOUS
370
    -3
390
F
  0
LAYER
  5
3F
330
2
100
AcDbSymbolTableRecord
100
AcDbLayerTableRecord
  2
6
 70
     0
 62
     6
  6
CONTINUOUS
370
    -3
390
F
  0
LAYER
  5
40
330
2
100
AcDbSymbolTableRecord
100
AcDbLayerTableRecord
  2
7
 70
     0
 62
     7
  6
CONTINUOUS
370
    -3
390
F
  0
LAYER
  5
41
330
2
100
AcDbSymbolTableRecord
100
AcDbLayerTableRecord
  2
8
 70
     0
 62
     8
  6
CONTINUOUS
370
    -3
390
F
  0
LAYER
  5
42
330
2
100
AcDbSymbolTableRecord
100
AcDbLayerTableRecord
  2
9
 70
     0
 62
     9
  6
CONTINUOUS
370
    -3
390
F
  0
LAYER
  5
43
330
2
100
AcDbSymbolTableRecord
100
AcDbLayerTableRecord
  2
10
 70
     0
 62
    10
  6
CONTINUOUS
370
    -3
390
F
  0
LAYER
  5
44
330
2
100
AcDbSymbolTableRecord
100
AcDbLayerTableRecord
  2
11
 70
     0
 62
    11
  6
CONTINUOUS
370
    -3
390
F
  0
LAYER
  5
45
330
2
100
AcDbSymbolTableRecord
100
AcDbLayerTableRecord
  2
12
 70
     0
 62
    12
  6
CONTINUOUS
370
    -3
390
F
  0
LAYER
  5
46
330
2
100
AcDbSymbolTableRecord
100
AcDbLayerTableRecord
  2
13
 70
     0
 62
    13
  6
CONTINUOUS
370
    -3
390
F
  0
LAYER
  5
47
330
2
100
AcDbSymbolTableRecord
100
AcDbLayerTableRecord
  2
14
 70
     0
 62
    14
  6
CONTINUOUS
370
    -3
390
F
  0
LAYER
  5
48
330
2
100
AcDbSymbolTableRecord
100
AcDbLayerTableRecord
  2
15
 70
     0
 62
    15
  6
CONTINUOUS
370
    -3
390
F
  0
LAYER
  5
49
330
2
100
AcDbSymbolTableRecord
100
AcDbLayerTableRecord
  2
16
 70
     0
 62
    16
  6
CONTINUOUS
370
    -3
390
F
  0
LAYER
  5
4A
330
2
100
AcDbSymbolTableRecord
100
AcDbLayerTableRecord
  2
17
 70
     0
 62
    17
  6
CONTINUOUS
370
    -3
390
F
  0
LAYER
  5
4B
330
2
100
AcDbSymbolTableRecord
100
AcDbLayerTableRecord
  2
18
 70
     0
 62
    18
  6
CONTINUOUS
370
    -3
390
F
  0
LAYER
  5
4C
330
2
100
AcDbSymbolTableRecord
100
AcDbLayerTableRecord
  2
19
 70
     0
 62
    19
  6
CONTINUOUS
370
    -3
390
F
  0
LAYER
  5
4D
330
2
100
AcDbSymbolTableRecord
100
AcDbLayerTableRecord
  2
20
 70
     0
 62
    20
  6
CONTINUOUS
370
    -3
390
F
  0
LAYER
  5
4E
330
2
100
AcDbSymbolTableRecord
100
AcDbLayerTableRecord
  2
21
 70
     0
 62
    21
  6
CONTINUOUS
370
    -3
390
F
  0
LAYER
  5
4F
330
2
100
AcDbSymbolTableRecord
100
AcDbLayerTableRecord
  2
22
 70
     0
 62
    22
  6
CONTINUOUS
370
    -3
390
F
  0
LAYER
  5
50
330
2
100
AcDbSymbolTableRecord
100
AcDbLayerTableRecord
  2
23
 70
     0
 62
    23
  6
CONTINUOUS
370
    -3
390
F
  0
LAYER
  5
51
330
2
100
AcDbSymbolTableRecord
100
AcDbLayerTableRecord
  2
24
 70
     0
 62
    24
  6
CONTINUOUS
370
    -3
390
F
  0
LAYER
  5
52
330
2
100
AcDbSymbolTableRecord
100
AcDbLayerTableRecord
  2
25
 70
     0
 62
    25
  6
CONTINUOUS
370
    -3
390
F
  0
LAYER
  5
53
330
2
100
AcDbSymbolTableRecord
100
AcDbLayerTableRecord
  2
26
 70
     0
 62
    26
  6
CONTINUOUS
370
    -3
390
F
  0
LAYER
  5
54
330
2
100
AcDbSymbolTableRecord
100
AcDbLayerTableRecord
  2
27
 70
     0
 62
    27
  6
CONTINUOUS
370
    -3
390
F
  0
LAYER
  5
55
330
2
100
AcDbSymbolTableRecord
100
AcDbLayerTableRecord
  2
28
 70
     0
 62
    28
  6
CONTINUOUS
370
    -3
390
F
  0
LAYER
  5
56
330
2
100
AcDbSymbolTableRecord
100
AcDbLayerTableRecord
  2
29
 70
     0
 62
    29
  6
CONTINUOUS
370
    -3
390
F
  0
LAYER
  5
57
330
2
100
AcDbSymbolTableRecord
100
AcDbLayerTableRecord
  2
30
 70
     0
 62
    30
  6
CONTINUOUS
370
    -3
390
F
  0
LAYER
  5
58
330
2
100
AcDbSymbolTableRecord
100
AcDbLayerTableRecord
  2
31
 70
     0
 62
    31
  6
CONTINUOUS
370
    -3
390
F
  0
LAYER
  5
59
330
2
100
AcDbSymbolTableRecord
100
AcDbLayerTableRecord
  2
32
 70
     0
 62
    32
  6
CONTINUOUS
370
    -3
390
F
  0
LAYER
  5
5A
330
2
100
AcDbSymbolTableRecord
100
AcDbLayerTableRecord
  2
33
 70
     0
 62
    33
  6
CONTINUOUS
370
    -3
390
F
  0
LAYER
  5
5B
330
2
100
AcDbSymbolTableRecord
100
AcDbLayerTableRecord
  2
34
 70
     0
 62
    34
  6
CONTINUOUS
370
    -3
390
F
  0
LAYER
  5
5C
330
2
100
AcDbSymbolTableRecord
100
AcDbLayerTableRecord
  2
35
 70
     0
 62
    35
  6
CONTINUOUS
370
    -3
390
F
  0
LAYER
  5
5D
330
2
100
AcDbSymbolTableRecord
100
AcDbLayerTableRecord
  2
36
 70
     0
 62
    36
  6
CONTINUOUS
370
    -3
390
F
  0
LAYER
  5
5E
330
2
100
AcDbSymbolTableRecord
100
AcDbLayerTableRecord
  2
37
 70
     0
 62
    37
  6
CONTINUOUS
370
    -3
390
F
  0
LAYER
  5
5F
330
2
100
AcDbSymbolTableRecord
100
AcDbLayerTableRecord
  2
38
 70
     0
 62
    38
  6
CONTINUOUS
370
    -3
390
F
  0
LAYER
  5
60
330
2
100
AcDbSymbolTableRecord
100
AcDbLayerTableRecord
  2
39
 70
     0
 62
    39
  6
CONTINUOUS
370
    -3
390
F
  0
LAYER
  5
61
330
2
100
AcDbSymbolTableRecord
100
AcDbLayerTableRecord
  2
40
 70
     0
 62
    40
  6
CONTINUOUS
370
    -3
390
F
  0
LAYER
  5
62
330
2
100
AcDbSymbolTableRecord
100
AcDbLayerTableRecord
  2
41
 70
     0
 62
    41
  6
CONTINUOUS
370
    -3
390
F
  0
LAYER
  5
63
330
2
100
AcDbSymbolTableRecord
100
AcDbLayerTableRecord
  2
42
 70
     0
 62
    42
  6
CONTINUOUS
370
    -3
390
F
  0
LAYER
  5
64
330
2
100
AcDbSymbolTableRecord
100
AcDbLayerTableRecord
  2
43
 70
     0
 62
    43
  6
CONTINUOUS
370
    -3
390
F
  0
LAYER
  5
65
330
2
100
AcDbSymbolTableRecord
100
AcDbLayerTableRecord
  2
44
 70
     0
 62
    44
  6
CONTINUOUS
370
    -3
390
F
  0
LAYER
  5
66
330
2
100
AcDbSymbolTableRecord
100
AcDbLayerTableRecord
  2
45
 70
     0
 62
    45
  6
CONTINUOUS
370
    -3
390
F
  0
LAYER
  5
67
330
2
100
AcDbSymbolTableRecord
100
AcDbLayerTableRecord
  2
46
 70
     0
 62
    46
  6
CONTINUOUS
370
    -3
390
F
  0
LAYER
  5
68
330
2
100
AcDbSymbolTableRecord
100
AcDbLayerTableRecord
  2
47
 70
     0
 62
    47
  6
CONTINUOUS
370
    -3
390
F
  0
LAYER
  5
69
330
2
100
AcDbSymbolTableRecord
100
AcDbLayerTableRecord
  2
48
 70
     0
 62
    48
  6
CONTINUOUS
370
    -3
390
F
  0
LAYER
  5
6A
330
2
100
AcDbSymbolTableRecord
100
AcDbLayerTableRecord
  2
49
 70
     0
 62
    49
  6
CONTINUOUS
370
    -3
390
F
  0
LAYER
  5
6B
330
2
100
AcDbSymbolTableRecord
100
AcDbLayerTableRecord
  2
50
 70
     0
 62
    50
  6
CONTINUOUS
370
    -3
390
F
  0
LAYER
  5
6C
330
2
100
AcDbSymbolTableRecord
100
AcDbLayerTableRecord
  2
51
 70
     0
 62
    51
  6
CONTINUOUS
370
    -3
390
F
  0
LAYER
  5
6D
330
2
100
AcDbSymbolTableRecord
100
AcDbLayerTableRecord
  2
52
 70
     0
 62
    52
  6
CONTINUOUS
370
    -3
390
F
  0
LAYER
  5
6E
330
2
100
AcDbSymbolTableRecord
100
AcDbLayerTableRecord
  2
53
 70
     0
 62
    53
  6
CONTINUOUS
370
    -3
390
F
  0
LAYER
  5
6F
330
2
100
AcDbSymbolTableRecord
100
AcDbLayerTableRecord
  2
54
 70
     0
 62
    54
  6
CONTINUOUS
370
    -3
390
F
  0
LAYER
  5
70
330
2
100
AcDbSymbolTableRecord
100
AcDbLayerTableRecord
  2
55
 70
     0
 62
    55
  6
CONTINUOUS
370
    -3
390
F
  0
LAYER
  5
71
330
2
100
AcDbSymbolTableRecord
100
AcDbLayerTableRecord
  2
56
 70
     0
 62
    56
  6
CONTINUOUS
370
    -3
390
F
  0
LAYER
  5
72
330
2
100
AcDbSymbolTableRecord
100
AcDbLayerTableRecord
  2
57
 70
     0
 62
    57
  6
CONTINUOUS
370
    -3
390
F
  0
LAYER
  5
73
330
2
100
AcDbSymbolTableRecord
100
AcDbLayerTableRecord
  2
58
 70
     0
 62
    58
  6
CONTINUOUS
370
    -3
390
F
  0
LAYER
  5
74
330
2
100
AcDbSymbolTableRecord
100
AcDbLayerTableRecord
  2
59
 70
     0
 62
    59
  6
CONTINUOUS
370
    -3
390
F
  0
LAYER
  5
75
330
2
100
AcDbSymbolTableRecord
100
AcDbLayerTableRecord
  2
60
 70
     0
 62
    60
  6
CONTINUOUS
370
    -3
390
F
  0
LAYER
  5
76
330
2
100
AcDbSymbolTableRecord
100
AcDbLayerTableRecord
  2
61
 70
     0
 62
    61
  6
CONTINUOUS
370
    -3
390
F
  0
LAYER
  5
77
330
2
100
AcDbSymbolTableRecord
100
AcDbLayerTableRecord
  2
62
 70
     0
 62
    62
  6
CONTINUOUS
370
    -3
390
F
  0
LAYER
  5
78
330
2
100
AcDbSymbolTableRecord
100
AcDbLayerTableRecord
  2
63
 70
     0
 62
    63
  6
CONTINUOUS
370
    -3
390
F
  0
LAYER
  5
79
330
2
100
AcDbSymbolTableRecord
100
AcDbLayerTableRecord
  2
64
 70
     0
 62
    64
  6
CONTINUOUS
370
    -3
390
F
  0
LAYER
  5
7A
330
2
100
AcDbSymbolTableRecord
100
AcDbLayerTableRecord
  2
65
 70
     0
 62
    65
  6
CONTINUOUS
370
    -3
390
F
  0
LAYER
  5
7B
330
2
100
AcDbSymbolTableRecord
100
AcDbLayerTableRecord
  2
66
 70
     0
 62
    66
  6
CONTINUOUS
370
    -3
390
F
  0
LAYER
  5
7C
330
2
100
AcDbSymbolTableRecord
100
AcDbLayerTableRecord
  2
67
 70
     0
 62
    67
  6
CONTINUOUS
370
    -3
390
F
  0
LAYER
  5
7D
330
2
100
AcDbSymbolTableRecord
100
AcDbLayerTableRecord
  2
68
 70
     0
 62
    68
  6
CONTINUOUS
370
    -3
390
F
  0
LAYER
  5
7E
330
2
100
AcDbSymbolTableRecord
100
AcDbLayerTableRecord
  2
69
 70
     0
 62
    69
  6
CONTINUOUS
370
    -3
390
F
  0
LAYER
  5
7F
330
2
100
AcDbSymbolTableRecord
100
AcDbLayerTableRecord
  2
70
 70
     0
 62
    70
  6
CONTINUOUS
370
    -3
390
F
  0
LAYER
  5
80
330
2
100
AcDbSymbolTableRecord
100
AcDbLayerTableRecord
  2
71
 70
     0
 62
    71
  6
CONTINUOUS
370
    -3
390
F
  0
LAYER
  5
81
330
2
100
AcDbSymbolTableRecord
100
AcDbLayerTableRecord
  2
72
 70
     0
 62
    72
  6
CONTINUOUS
370
    -3
390
F
  0
LAYER
  5
82
330
2
100
AcDbSymbolTableRecord
100
AcDbLayerTableRecord
  2
73
 70
     0
 62
    73
  6
CONTINUOUS
370
    -3
390
F
  0
LAYER
  5
83
330
2
100
AcDbSymbolTableRecord
100
AcDbLayerTableRecord
  2
74
 70
     0
 62
    74
  6
CONTINUOUS
370
    -3
390
F
  0
LAYER
  5
84
330
2
100
AcDbSymbolTableRecord
100
AcDbLayerTableRecord
  2
75
 70
     0
 62
    75
  6
CONTINUOUS
370
    -3
390
F
  0
LAYER
  5
85
330
2
100
AcDbSymbolTableRecord
100
AcDbLayerTableRecord
  2
76
 70
     0
 62
    76
  6
CONTINUOUS
370
    -3
390
F
  0
LAYER
  5
86
330
2
100
AcDbSymbolTableRecord
100
AcDbLayerTableRecord
  2
77
 70
     0
 62
    77
  6
CONTINUOUS
370
    -3
390
F
  0
LAYER
  5
87
330
2
100
AcDbSymbolTableRecord
100
AcDbLayerTableRecord
  2
78
 70
     0
 62
    78
  6
CONTINUOUS
370
    -3
390
F
  0
LAYER
  5
88
330
2
100
AcDbSymbolTableRecord
100
AcDbLayerTableRecord
  2
79
 70
     0
 62
    79
  6
CONTINUOUS
370
    -3
390
F
  0
LAYER
  5
89
330
2
100
AcDbSymbolTableRecord
100
AcDbLayerTableRecord
  2
80
 70
     0
 62
    80
  6
CONTINUOUS
370
    -3
390
F
  0
LAYER
  5
8A
330
2
100
AcDbSymbolTableRecord
100
AcDbLayerTableRecord
  2
81
 70
     0
 62
    81
  6
CONTINUOUS
370
    -3
390
F
  0
LAYER
  5
8B
330
2
100
AcDbSymbolTableRecord
100
AcDbLayerTableRecord
  2
82
 70
     0
 62
    82
  6
CONTINUOUS
370
    -3
390
F
  0
LAYER
  5
8C
330
2
100
AcDbSymbolTableRecord
100
AcDbLayerTableRecord
  2
83
 70
     0
 62
    83
  6
CONTINUOUS
370
    -3
390
F
  0
LAYER
  5
8D
330
2
100
AcDbSymbolTableRecord
100
AcDbLayerTableRecord
  2
84
 70
     0
 62
    84
  6
CONTINUOUS
370
    -3
390
F
  0
LAYER
  5
8E
330
2
100
AcDbSymbolTableRecord
100
AcDbLayerTableRecord
  2
85
 70
     0
 62
    85
  6
CONTINUOUS
370
    -3
390
F
  0
LAYER
  5
8F
330
2
100
AcDbSymbolTableRecord
100
AcDbLayerTableRecord
  2
86
 70
     0
 62
    86
  6
CONTINUOUS
370
    -3
390
F
  0
LAYER
  5
90
330
2
100
AcDbSymbolTableRecord
100
AcDbLayerTableRecord
  2
87
 70
     0
 62
    87
  6
CONTINUOUS
370
    -3
390
F
  0
LAYER
  5
91
330
2
100
AcDbSymbolTableRecord
100
AcDbLayerTableRecord
  2
88
 70
     0
 62
    88
  6
CONTINUOUS
370
    -3
390
F
  0
LAYER
  5
92
330
2
100
AcDbSymbolTableRecord
100
AcDbLayerTableRecord
  2
89
 70
     0
 62
    89
  6
CONTINUOUS
370
    -3
390
F
  0
LAYER
  5
93
330
2
100
AcDbSymbolTableRecord
100
AcDbLayerTableRecord
  2
90
 70
     0
 62
    90
  6
CONTINUOUS
370
    -3
390
F
  0
LAYER
  5
94
330
2
100
AcDbSymbolTableRecord
100
AcDbLayerTableRecord
  2
91
 70
     0
 62
    91
  6
CONTINUOUS
370
    -3
390
F
  0
LAYER
  5
95
330
2
100
AcDbSymbolTableRecord
100
AcDbLayerTableRecord
  2
92
 70
     0
 62
    92
  6
CONTINUOUS
370
    -3
390
F
  0
LAYER
  5
96
330
2
100
AcDbSymbolTableRecord
100
AcDbLayerTableRecord
  2
93
 70
     0
 62
    93
  6
CONTINUOUS
370
    -3
390
F
  0
LAYER
  5
97
330
2
100
AcDbSymbolTableRecord
100
AcDbLayerTableRecord
  2
94
 70
     0
 62
    94
  6
CONTINUOUS
370
    -3
390
F
  0
LAYER
  5
98
330
2
100
AcDbSymbolTableRecord
100
AcDbLayerTableRecord
  2
95
 70
     0
 62
    95
  6
CONTINUOUS
370
    -3
390
F
  0
LAYER
  5
99
330
2
100
AcDbSymbolTableRecord
100
AcDbLayerTableRecord
  2
96
 70
     0
 62
    96
  6
CONTINUOUS
370
    -3
390
F
  0
LAYER
  5
9A
330
2
100
AcDbSymbolTableRecord
100
AcDbLayerTableRecord
  2
97
 70
     0
 62
    97
  6
CONTINUOUS
370
    -3
390
F
  0
LAYER
  5
9B
330
2
100
AcDbSymbolTableRecord
100
AcDbLayerTableRecord
  2
98
 70
     0
 62
    98
  6
CONTINUOUS
370
    -3
390
F
  0
LAYER
  5
9C
330
2
100
AcDbSymbolTableRecord
100
AcDbLayerTableRecord
  2
99
 70
     0
 62
    99
  6
CONTINUOUS
370
    -3
390
F
  0
LAYER
  5
9D
330
2
100
AcDbSymbolTableRecord
100
AcDbLayerTableRecord
  2
100
 70
     0
 62
   100
  6
CONTINUOUS
370
    -3
390
F
  0
LAYER
  5
9E
330
2
100
AcDbSymbolTableRecord
100
AcDbLayerTableRecord
  2
101
 70
     0
 62
   101
  6
CONTINUOUS
370
    -3
390
F
  0
LAYER
  5
9F
330
2
100
AcDbSymbolTableRecord
100
AcDbLayerTableRecord
  2
102
 70
     0
 62
   102
  6
CONTINUOUS
370
    -3
390
F
  0
LAYER
  5
A0
330
2
100
AcDbSymbolTableRecord
100
AcDbLayerTableRecord
  2
103
 70
     0
 62
   103
  6
CONTINUOUS
370
    -3
390
F
  0
LAYER
  5
A1
330
2
100
AcDbSymbolTableRecord
100
AcDbLayerTableRecord
  2
104
 70
     0
 62
   104
  6
CONTINUOUS
370
    -3
390
F
  0
LAYER
  5
A2
330
2
100
AcDbSymbolTableRecord
100
AcDbLayerTableRecord
  2
105
 70
     0
 62
   105
  6
CONTINUOUS
370
    -3
390
F
  0
LAYER
  5
A3
330
2
100
AcDbSymbolTableRecord
100
AcDbLayerTableRecord
  2
106
 70
     0
 62
   106
  6
CONTINUOUS
370
    -3
390
F
  0
LAYER
  5
A4
330
2
100
AcDbSymbolTableRecord
100
AcDbLayerTableRecord
  2
107
 70
     0
 62
   107
  6
CONTINUOUS
370
    -3
390
F
  0
LAYER
  5
A5
330
2
100
AcDbSymbolTableRecord
100
AcDbLayerTableRecord
  2
108
 70
     0
 62
   108
  6
CONTINUOUS
370
    -3
390
F
  0
LAYER
  5
A6
330
2
100
AcDbSymbolTableRecord
100
AcDbLayerTableRecord
  2
109
 70
     0
 62
   109
  6
CONTINUOUS
370
    -3
390
F
  0
LAYER
  5
A7
330
2
100
AcDbSymbolTableRecord
100
AcDbLayerTableRecord
  2
110
 70
     0
 62
   110
  6
CONTINUOUS
370
    -3
390
F
  0
LAYER
  5
A8
330
2
100
AcDbSymbolTableRecord
100
AcDbLayerTableRecord
  2
111
 70
     0
 62
   111
  6
CONTINUOUS
370
    -3
390
F
  0
LAYER
  5
A9
330
2
100
AcDbSymbolTableRecord
100
AcDbLayerTableRecord
  2
112
 70
     0
 62
   112
  6
CONTINUOUS
370
    -3
390
F
  0
LAYER
  5
AA
330
2
100
AcDbSymbolTableRecord
100
AcDbLayerTableRecord
  2
113
 70
     0
 62
   113
  6
CONTINUOUS
370
    -3
390
F
  0
LAYER
  5
AB
330
2
100
AcDbSymbolTableRecord
100
AcDbLayerTableRecord
  2
114
 70
     0
 62
   114
  6
CONTINUOUS
370
    -3
390
F
  0
LAYER
  5
AC
330
2
100
AcDbSymbolTableRecord
100
AcDbLayerTableRecord
  2
115
 70
     0
 62
   115
  6
CONTINUOUS
370
    -3
390
F
  0
LAYER
  5
AD
330
2
100
AcDbSymbolTableRecord
100
AcDbLayerTableRecord
  2
116
 70
     0
 62
   116
  6
CONTINUOUS
370
    -3
390
F
  0
LAYER
  5
AE
330
2
100
AcDbSymbolTableRecord
100
AcDbLayerTableRecord
  2
117
 70
     0
 62
   117
  6
CONTINUOUS
370
    -3
390
F
  0
LAYER
  5
AF
330
2
100
AcDbSymbolTableRecord
100
AcDbLayerTableRecord
  2
118
 70
     0
 62
   118
  6
CONTINUOUS
370
    -3
390
F
  0
LAYER
  5
B0
330
2
100
AcDbSymbolTableRecord
100
AcDbLayerTableRecord
  2
119
 70
     0
 62
   119
  6
CONTINUOUS
370
    -3
390
F
  0
LAYER
  5
B1
330
2
100
AcDbSymbolTableRecord
100
AcDbLayerTableRecord
  2
120
 70
     0
 62
   120
  6
CONTINUOUS
370
    -3
390
F
  0
LAYER
  5
B2
330
2
100
AcDbSymbolTableRecord
100
AcDbLayerTableRecord
  2
121
 70
     0
 62
   121
  6
CONTINUOUS
370
    -3
390
F
  0
LAYER
  5
B3
330
2
100
AcDbSymbolTableRecord
100
AcDbLayerTableRecord
  2
122
 70
     0
 62
   122
  6
CONTINUOUS
370
    -3
390
F
  0
LAYER
  5
B4
330
2
100
AcDbSymbolTableRecord
100
AcDbLayerTableRecord
  2
123
 70
     0
 62
   123
  6
CONTINUOUS
370
    -3
390
F
  0
LAYER
  5
B5
330
2
100
AcDbSymbolTableRecord
100
AcDbLayerTableRecord
  2
124
 70
     0
 62
   124
  6
CONTINUOUS
370
    -3
390
F
  0
LAYER
  5
B6
330
2
100
AcDbSymbolTableRecord
100
AcDbLayerTableRecord
  2
125
 70
     0
 62
   125
  6
CONTINUOUS
370
    -3
390
F
  0
LAYER
  5
B7
330
2
100
AcDbSymbolTableRecord
100
AcDbLayerTableRecord
  2
126
 70
     0
 62
   126
  6
CONTINUOUS
370
    -3
390
F
  0
LAYER
  5
B8
330
2
100
AcDbSymbolTableRecord
100
AcDbLayerTableRecord
  2
127
 70
     0
 62
   127
  6
CONTINUOUS
370
    -3
390
F
  0
LAYER
  5
B9
330
2
100
AcDbSymbolTableRecord
100
AcDbLayerTableRecord
  2
128
 70
     0
 62
   128
  6
CONTINUOUS
370
    -3
390
F
  0
LAYER
  5
BA
330
2
100
AcDbSymbolTableRecord
100
AcDbLayerTableRecord
  2
129
 70
     0
 62
   129
  6
CONTINUOUS
370
    -3
390
F
  0
LAYER
  5
BB
330
2
100
AcDbSymbolTableRecord
100
AcDbLayerTableRecord
  2
130
 70
     0
 62
   130
  6
CONTINUOUS
370
    -3
390
F
  0
LAYER
  5
BC
330
2
100
AcDbSymbolTableRecord
100
AcDbLayerTableRecord
  2
131
 70
     0
 62
   131
  6
CONTINUOUS
370
    -3
390
F
  0
LAYER
  5
BD
330
2
100
AcDbSymbolTableRecord
100
AcDbLayerTableRecord
  2
132
 70
     0
 62
   132
  6
CONTINUOUS
370
    -3
390
F
  0
LAYER
  5
BE
330
2
100
AcDbSymbolTableRecord
100
AcDbLayerTableRecord
  2
133
 70
     0
 62
   133
  6
CONTINUOUS
370
    -3
390
F
  0
LAYER
  5
BF
330
2
100
AcDbSymbolTableRecord
100
AcDbLayerTableRecord
  2
134
 70
     0
 62
   134
  6
CONTINUOUS
370
    -3
390
F
  0
LAYER
  5
C0
330
2
100
AcDbSymbolTableRecord
100
AcDbLayerTableRecord
  2
135
 70
     0
 62
   135
  6
CONTINUOUS
370
    -3
390
F
  0
LAYER
  5
C1
330
2
100
AcDbSymbolTableRecord
100
AcDbLayerTableRecord
  2
136
 70
     0
 62
   136
  6
CONTINUOUS
370
    -3
390
F
  0
LAYER
  5
C2
330
2
100
AcDbSymbolTableRecord
100
AcDbLayerTableRecord
  2
137
 70
     0
 62
   137
  6
CONTINUOUS
370
    -3
390
F
  0
LAYER
  5
C3
330
2
100
AcDbSymbolTableRecord
100
AcDbLayerTableRecord
  2
138
 70
     0
 62
   138
  6
CONTINUOUS
370
    -3
390
F
  0
LAYER
  5
C4
330
2
100
AcDbSymbolTableRecord
100
AcDbLayerTableRecord
  2
139
 70
     0
 62
   139
  6
CONTINUOUS
370
    -3
390
F
  0
LAYER
  5
C5
330
2
100
AcDbSymbolTableRecord
100
AcDbLayerTableRecord
  2
140
 70
     0
 62
   140
  6
CONTINUOUS
370
    -3
390
F
  0
LAYER
  5
C6
330
2
100
AcDbSymbolTableRecord
100
AcDbLayerTableRecord
  2
141
 70
     0
 62
   141
  6
CONTINUOUS
370
    -3
390
F
  0
LAYER
  5
C7
330
2
100
AcDbSymbolTableRecord
100
AcDbLayerTableRecord
  2
142
 70
     0
 62
   142
  6
CONTINUOUS
370
    -3
390
F
  0
LAYER
  5
C8
330
2
100
AcDbSymbolTableRecord
100
AcDbLayerTableRecord
  2
143
 70
     0
 62
   143
  6
CONTINUOUS
370
    -3
390
F
  0
LAYER
  5
C9
330
2
100
AcDbSymbolTableRecord
100
AcDbLayerTableRecord
  2
144
 70
     0
 62
   144
  6
CONTINUOUS
370
    -3
390
F
  0
LAYER
  5
CA
330
2
100
AcDbSymbolTableRecord
100
AcDbLayerTableRecord
  2
145
 70
     0
 62
   145
  6
CONTINUOUS
370
    -3
390
F
  0
LAYER
  5
CB
330
2
100
AcDbSymbolTableRecord
100
AcDbLayerTableRecord
  2
146
 70
     0
 62
   146
  6
CONTINUOUS
370
    -3
390
F
  0
LAYER
  5
CC
330
2
100
AcDbSymbolTableRecord
100
AcDbLayerTableRecord
  2
147
 70
     0
 62
   147
  6
CONTINUOUS
370
    -3
390
F
  0
LAYER
  5
CD
330
2
100
AcDbSymbolTableRecord
100
AcDbLayerTableRecord
  2
148
 70
     0
 62
   148
  6
CONTINUOUS
370
    -3
390
F
  0
LAYER
  5
CE
330
2
100
AcDbSymbolTableRecord
100
AcDbLayerTableRecord
  2
149
 70
     0
 62
   149
  6
CONTINUOUS
370
    -3
390
F
  0
LAYER
  5
CF
330
2
100
AcDbSymbolTableRecord
100
AcDbLayerTableRecord
  2
150
 70
     0
 62
   150
  6
CONTINUOUS
370
    -3
390
F
  0
LAYER
  5
D0
330
2
100
AcDbSymbolTableRecord
100
AcDbLayerTableRecord
  2
151
 70
     0
 62
   151
  6
CONTINUOUS
370
    -3
390
F
  0
LAYER
  5
D1
330
2
100
AcDbSymbolTableRecord
100
AcDbLayerTableRecord
  2
152
 70
     0
 62
   152
  6
CONTINUOUS
370
    -3
390
F
  0
LAYER
  5
D2
330
2
100
AcDbSymbolTableRecord
100
AcDbLayerTableRecord
  2
153
 70
     0
 62
   153
  6
CONTINUOUS
370
    -3
390
F
  0
LAYER
  5
D3
330
2
100
AcDbSymbolTableRecord
100
AcDbLayerTableRecord
  2
154
 70
     0
 62
   154
  6
CONTINUOUS
370
    -3
390
F
  0
LAYER
  5
D4
330
2
100
AcDbSymbolTableRecord
100
AcDbLayerTableRecord
  2
155
 70
     0
 62
   155
  6
CONTINUOUS
370
    -3
390
F
  0
LAYER
  5
D5
330
2
100
AcDbSymbolTableRecord
100
AcDbLayerTableRecord
  2
156
 70
     0
 62
   156
  6
CONTINUOUS
370
    -3
390
F
  0
LAYER
  5
D6
330
2
100
AcDbSymbolTableRecord
100
AcDbLayerTableRecord
  2
157
 70
     0
 62
   157
  6
CONTINUOUS
370
    -3
390
F
  0
LAYER
  5
D7
330
2
100
AcDbSymbolTableRecord
100
AcDbLayerTableRecord
  2
158
 70
     0
 62
   158
  6
CONTINUOUS
370
    -3
390
F
  0
LAYER
  5
D8
330
2
100
AcDbSymbolTableRecord
100
AcDbLayerTableRecord
  2
159
 70
     0
 62
   159
  6
CONTINUOUS
370
    -3
390
F
  0
LAYER
  5
D9
330
2
100
AcDbSymbolTableRecord
100
AcDbLayerTableRecord
  2
160
 70
     0
 62
   160
  6
CONTINUOUS
370
    -3
390
F
  0
LAYER
  5
DA
330
2
100
AcDbSymbolTableRecord
100
AcDbLayerTableRecord
  2
161
 70
     0
 62
   161
  6
CONTINUOUS
370
    -3
390
F
  0
LAYER
  5
DB
330
2
100
AcDbSymbolTableRecord
100
AcDbLayerTableRecord
  2
162
 70
     0
 62
   162
  6
CONTINUOUS
370
    -3
390
F
  0
LAYER
  5
DC
330
2
100
AcDbSymbolTableRecord
100
AcDbLayerTableRecord
  2
163
 70
     0
 62
   163
  6
CONTINUOUS
370
    -3
390
F
  0
LAYER
  5
DD
330
2
100
AcDbSymbolTableRecord
100
AcDbLayerTableRecord
  2
164
 70
     0
 62
   164
  6
CONTINUOUS
370
    -3
390
F
  0
LAYER
  5
DE
330
2
100
AcDbSymbolTableRecord
100
AcDbLayerTableRecord
  2
165
 70
     0
 62
   165
  6
CONTINUOUS
370
    -3
390
F
  0
LAYER
  5
DF
330
2
100
AcDbSymbolTableRecord
100
AcDbLayerTableRecord
  2
166
 70
     0
 62
   166
  6
CONTINUOUS
370
    -3
390
F
  0
LAYER
  5
E0
330
2
100
AcDbSymbolTableRecord
100
AcDbLayerTableRecord
  2
167
 70
     0
 62
   167
  6
CONTINUOUS
370
    -3
390
F
  0
LAYER
  5
E1
330
2
100
AcDbSymbolTableRecord
100
AcDbLayerTableRecord
  2
168
 70
     0
 62
   168
  6
CONTINUOUS
370
    -3
390
F
  0
LAYER
  5
E2
330
2
100
AcDbSymbolTableRecord
100
AcDbLayerTableRecord
  2
169
 70
     0
 62
   169
  6
CONTINUOUS
370
    -3
390
F
  0
LAYER
  5
E3
330
2
100
AcDbSymbolTableRecord
100
AcDbLayerTableRecord
  2
170
 70
     0
 62
   170
  6
CONTINUOUS
370
    -3
390
F
  0
LAYER
  5
E4
330
2
100
AcDbSymbolTableRecord
100
AcDbLayerTableRecord
  2
171
 70
     0
 62
   171
  6
CONTINUOUS
370
    -3
390
F
  0
LAYER
  5
E5
330
2
100
AcDbSymbolTableRecord
100
AcDbLayerTableRecord
  2
172
 70
     0
 62
   172
  6
CONTINUOUS
370
    -3
390
F
  0
LAYER
  5
E6
330
2
100
AcDbSymbolTableRecord
100
AcDbLayerTableRecord
  2
173
 70
     0
 62
   173
  6
CONTINUOUS
370
    -3
390
F
  0
LAYER
  5
E7
330
2
100
AcDbSymbolTableRecord
100
AcDbLayerTableRecord
  2
174
 70
     0
 62
   174
  6
CONTINUOUS
370
    -3
390
F
  0
LAYER
  5
E8
330
2
100
AcDbSymbolTableRecord
100
AcDbLayerTableRecord
  2
175
 70
     0
 62
   175
  6
CONTINUOUS
370
    -3
390
F
  0
LAYER
  5
E9
330
2
100
AcDbSymbolTableRecord
100
AcDbLayerTableRecord
  2
176
 70
     0
 62
   176
  6
CONTINUOUS
370
    -3
390
F
  0
LAYER
  5
EA
330
2
100
AcDbSymbolTableRecord
100
AcDbLayerTableRecord
  2
177
 70
     0
 62
   177
  6
CONTINUOUS
370
    -3
390
F
  0
LAYER
  5
EB
330
2
100
AcDbSymbolTableRecord
100
AcDbLayerTableRecord
  2
178
 70
     0
 62
   178
  6
CONTINUOUS
370
    -3
390
F
  0
LAYER
  5
EC
330
2
100
AcDbSymbolTableRecord
100
AcDbLayerTableRecord
  2
179
 70
     0
 62
   179
  6
CONTINUOUS
370
    -3
390
F
  0
LAYER
  5
ED
330
2
100
AcDbSymbolTableRecord
100
AcDbLayerTableRecord
  2
180
 70
     0
 62
   180
  6
CONTINUOUS
370
    -3
390
F
  0
LAYER
  5
EE
330
2
100
AcDbSymbolTableRecord
100
AcDbLayerTableRecord
  2
181
 70
     0
 62
   181
  6
CONTINUOUS
370
    -3
390
F
  0
LAYER
  5
EF
330
2
100
AcDbSymbolTableRecord
100
AcDbLayerTableRecord
  2
182
 70
     0
 62
   182
  6
CONTINUOUS
370
    -3
390
F
  0
LAYER
  5
F0
330
2
100
AcDbSymbolTableRecord
100
AcDbLayerTableRecord
  2
183
 70
     0
 62
   183
  6
CONTINUOUS
370
    -3
390
F
  0
LAYER
  5
F1
330
2
100
AcDbSymbolTableRecord
100
AcDbLayerTableRecord
  2
184
 70
     0
 62
   184
  6
CONTINUOUS
370
    -3
390
F
  0
LAYER
  5
F2
330
2
100
AcDbSymbolTableRecord
100
AcDbLayerTableRecord
  2
185
 70
     0
 62
   185
  6
CONTINUOUS
370
    -3
390
F
  0
LAYER
  5
F3
330
2
100
AcDbSymbolTableRecord
100
AcDbLayerTableRecord
  2
186
 70
     0
 62
   186
  6
CONTINUOUS
370
    -3
390
F
  0
LAYER
  5
F4
330
2
100
AcDbSymbolTableRecord
100
AcDbLayerTableRecord
  2
187
 70
     0
 62
   187
  6
CONTINUOUS
370
    -3
390
F
  0
LAYER
  5
F5
330
2
100
AcDbSymbolTableRecord
100
AcDbLayerTableRecord
  2
188
 70
     0
 62
   188
  6
CONTINUOUS
370
    -3
390
F
  0
LAYER
  5
F6
330
2
100
AcDbSymbolTableRecord
100
AcDbLayerTableRecord
  2
189
 70
     0
 62
   189
  6
CONTINUOUS
370
    -3
390
F
  0
LAYER
  5
F7
330
2
100
AcDbSymbolTableRecord
100
AcDbLayerTableRecord
  2
190
 70
     0
 62
   190
  6
CONTINUOUS
370
    -3
390
F
  0
LAYER
  5
F8
330
2
100
AcDbSymbolTableRecord
100
AcDbLayerTableRecord
  2
191
 70
     0
 62
   191
  6
CONTINUOUS
370
    -3
390
F
  0
LAYER
  5
F9
330
2
100
AcDbSymbolTableRecord
100
AcDbLayerTableRecord
  2
192
 70
     0
 62
   192
  6
CONTINUOUS
370
    -3
390
F
  0
LAYER
  5
FA
330
2
100
AcDbSymbolTableRecord
100
AcDbLayerTableRecord
  2
193
 70
     0
 62
   193
  6
CONTINUOUS
370
    -3
390
F
  0
LAYER
  5
FB
330
2
100
AcDbSymbolTableRecord
100
AcDbLayerTableRecord
  2
194
 70
     0
 62
   194
  6
CONTINUOUS
370
    -3
390
F
  0
LAYER
  5
FC
330
2
100
AcDbSymbolTableRecord
100
AcDbLayerTableRecord
  2
195
 70
     0
 62
   195
  6
CONTINUOUS
370
    -3
390
F
  0
LAYER
  5
FD
330
2
100
AcDbSymbolTableRecord
100
AcDbLayerTableRecord
  2
196
 70
     0
 62
   196
  6
CONTINUOUS
370
    -3
390
F
  0
LAYER
  5
FE
330
2
100
AcDbSymbolTableRecord
100
AcDbLayerTableRecord
  2
197
 70
     0
 62
   197
  6
CONTINUOUS
370
    -3
390
F
  0
LAYER
  5
FF
330
2
100
AcDbSymbolTableRecord
100
AcDbLayerTableRecord
  2
198
 70
     0
 62
   198
  6
CONTINUOUS
370
    -3
390
F
  0
LAYER
  5
100
330
2
100
AcDbSymbolTableRecord
100
AcDbLayerTableRecord
  2
199
 70
     0
 62
   199
  6
CONTINUOUS
370
    -3
390
F
  0
LAYER
  5
101
330
2
100
AcDbSymbolTableRecord
100
AcDbLayerTableRecord
  2
200
 70
     0
 62
   200
  6
CONTINUOUS
370
    -3
390
F
  0
LAYER
  5
102
330
2
100
AcDbSymbolTableRecord
100
AcDbLayerTableRecord
  2
201
 70
     0
 62
   201
  6
CONTINUOUS
370
    -3
390
F
  0
LAYER
  5
103
330
2
100
AcDbSymbolTableRecord
100
AcDbLayerTableRecord
  2
202
 70
     0
 62
   202
  6
CONTINUOUS
370
    -3
390
F
  0
LAYER
  5
104
330
2
100
AcDbSymbolTableRecord
100
AcDbLayerTableRecord
  2
203
 70
     0
 62
   203
  6
CONTINUOUS
370
    -3
390
F
  0
LAYER
  5
105
330
2
100
AcDbSymbolTableRecord
100
AcDbLayerTableRecord
  2
204
 70
     0
 62
   204
  6
CONTINUOUS
370
    -3
390
F
  0
LAYER
  5
106
330
2
100
AcDbSymbolTableRecord
100
AcDbLayerTableRecord
  2
205
 70
     0
 62
   205
  6
CONTINUOUS
370
    -3
390
F
  0
LAYER
  5
107
330
2
100
AcDbSymbolTableRecord
100
AcDbLayerTableRecord
  2
206
 70
     0
 62
   206
  6
CONTINUOUS
370
    -3
390
F
  0
LAYER
  5
108
330
2
100
AcDbSymbolTableRecord
100
AcDbLayerTableRecord
  2
207
 70
     0
 62
   207
  6
CONTINUOUS
370
    -3
390
F
  0
LAYER
  5
109
330
2
100
AcDbSymbolTableRecord
100
AcDbLayerTableRecord
  2
208
 70
     0
 62
   208
  6
CONTINUOUS
370
    -3
390
F
  0
LAYER
  5
10A
330
2
100
AcDbSymbolTableRecord
100
AcDbLayerTableRecord
  2
209
 70
     0
 62
   209
  6
CONTINUOUS
370
    -3
390
F
  0
LAYER
  5
10B
330
2
100
AcDbSymbolTableRecord
100
AcDbLayerTableRecord
  2
210
 70
     0
 62
   210
  6
CONTINUOUS
370
    -3
390
F
  0
LAYER
  5
10C
330
2
100
AcDbSymbolTableRecord
100
AcDbLayerTableRecord
  2
211
 70
     0
 62
   211
  6
CONTINUOUS
370
    -3
390
F
  0
LAYER
  5
10D
330
2
100
AcDbSymbolTableRecord
100
AcDbLayerTableRecord
  2
212
 70
     0
 62
   212
  6
CONTINUOUS
370
    -3
390
F
  0
LAYER
  5
10E
330
2
100
AcDbSymbolTableRecord
100
AcDbLayerTableRecord
  2
213
 70
     0
 62
   213
  6
CONTINUOUS
370
    -3
390
F
  0
LAYER
  5
10F
330
2
100
AcDbSymbolTableRecord
100
AcDbLayerTableRecord
  2
214
 70
     0
 62
   214
  6
CONTINUOUS
370
    -3
390
F
  0
LAYER
  5
110
330
2
100
AcDbSymbolTableRecord
100
AcDbLayerTableRecord
  2
215
 70
     0
 62
   215
  6
CONTINUOUS
370
    -3
390
F
  0
LAYER
  5
111
330
2
100
AcDbSymbolTableRecord
100
AcDbLayerTableRecord
  2
216
 70
     0
 62
   216
  6
CONTINUOUS
370
    -3
390
F
  0
LAYER
  5
112
330
2
100
AcDbSymbolTableRecord
100
AcDbLayerTableRecord
  2
217
 70
     0
 62
   217
  6
CONTINUOUS
370
    -3
390
F
  0
LAYER
  5
113
330
2
100
AcDbSymbolTableRecord
100
AcDbLayerTableRecord
  2
218
 70
     0
 62
   218
  6
CONTINUOUS
370
    -3
390
F
  0
LAYER
  5
114
330
2
100
AcDbSymbolTableRecord
100
AcDbLayerTableRecord
  2
219
 70
     0
 62
   219
  6
CONTINUOUS
370
    -3
390
F
  0
LAYER
  5
115
330
2
100
AcDbSymbolTableRecord
100
AcDbLayerTableRecord
  2
220
 70
     0
 62
   220
  6
CONTINUOUS
370
    -3
390
F
  0
LAYER
  5
116
330
2
100
AcDbSymbolTableRecord
100
AcDbLayerTableRecord
  2
221
 70
     0
 62
   221
  6
CONTINUOUS
370
    -3
390
F
  0
LAYER
  5
117
330
2
100
AcDbSymbolTableRecord
100
AcDbLayerTableRecord
  2
222
 70
     0
 62
   222
  6
CONTINUOUS
370
    -3
390
F
  0
LAYER
  5
118
330
2
100
AcDbSymbolTableRecord
100
AcDbLayerTableRecord
  2
223
 70
     0
 62
   223
  6
CONTINUOUS
370
    -3
390
F
  0
LAYER
  5
119
330
2
100
AcDbSymbolTableRecord
100
AcDbLayerTableRecord
  2
224
 70
     0
 62
   224
  6
CONTINUOUS
370
    -3
390
F
  0
LAYER
  5
11A
330
2
100
AcDbSymbolTableRecord
100
AcDbLayerTableRecord
  2
225
 70
     0
 62
   225
  6
CONTINUOUS
370
    -3
390
F
  0
LAYER
  5
11B
330
2
100
AcDbSymbolTableRecord
100
AcDbLayerTableRecord
  2
226
 70
     0
 62
   226
  6
CONTINUOUS
370
    -3
390
F
  0
LAYER
  5
11C
330
2
100
AcDbSymbolTableRecord
100
AcDbLayerTableRecord
  2
227
 70
     0
 62
   227
  6
CONTINUOUS
370
    -3
390
F
  0
LAYER
  5
11D
330
2
100
AcDbSymbolTableRecord
100
AcDbLayerTableRecord
  2
228
 70
     0
 62
   228
  6
CONTINUOUS
370
    -3
390
F
  0
LAYER
  5
11E
330
2
100
AcDbSymbolTableRecord
100
AcDbLayerTableRecord
  2
229
 70
     0
 62
   229
  6
CONTINUOUS
370
    -3
390
F
  0
LAYER
  5
11F
330
2
100
AcDbSymbolTableRecord
100
AcDbLayerTableRecord
  2
230
 70
     0
 62
   230
  6
CONTINUOUS
370
    -3
390
F
  0
LAYER
  5
120
330
2
100
AcDbSymbolTableRecord
100
AcDbLayerTableRecord
  2
231
 70
     0
 62
   231
  6
CONTINUOUS
370
    -3
390
F
  0
LAYER
  5
121
330
2
100
AcDbSymbolTableRecord
100
AcDbLayerTableRecord
  2
232
 70
     0
 62
   232
  6
CONTINUOUS
370
    -3
390
F
  0
LAYER
  5
122
330
2
100
AcDbSymbolTableRecord
100
AcDbLayerTableRecord
  2
233
 70
     0
 62
   233
  6
CONTINUOUS
370
    -3
390
F
  0
LAYER
  5
123
330
2
100
AcDbSymbolTableRecord
100
AcDbLayerTableRecord
  2
234
 70
     0
 62
   234
  6
CONTINUOUS
370
    -3
390
F
  0
LAYER
  5
124
330
2
100
AcDbSymbolTableRecord
100
AcDbLayerTableRecord
  2
235
 70
     0
 62
   235
  6
CONTINUOUS
370
    -3
390
F
  0
LAYER
  5
125
330
2
100
AcDbSymbolTableRecord
100
AcDbLayerTableRecord
  2
236
 70
     0
 62
   236
  6
CONTINUOUS
370
    -3
390
F
  0
LAYER
  5
126
330
2
100
AcDbSymbolTableRecord
100
AcDbLayerTableRecord
  2
237
 70
     0
 62
   237
  6
CONTINUOUS
370
    -3
390
F
  0
LAYER
  5
127
330
2
100
AcDbSymbolTableRecord
100
AcDbLayerTableRecord
  2
238
 70
     0
 62
   238
  6
CONTINUOUS
370
    -3
390
F
  0
LAYER
  5
128
330
2
100
AcDbSymbolTableRecord
100
AcDbLayerTableRecord
  2
239
 70
     0
 62
   239
  6
CONTINUOUS
370
    -3
390
F
  0
LAYER
  5
129
330
2
100
AcDbSymbolTableRecord
100
AcDbLayerTableRecord
  2
240
 70
     0
 62
   240
  6
CONTINUOUS
370
    -3
390
F
  0
LAYER
  5
12A
330
2
100
AcDbSymbolTableRecord
100
AcDbLayerTableRecord
  2
241
 70
     0
 62
   241
  6
CONTINUOUS
370
    -3
390
F
  0
LAYER
  5
12B
330
2
100
AcDbSymbolTableRecord
100
AcDbLayerTableRecord
  2
242
 70
     0
 62
   242
  6
CONTINUOUS
370
    -3
390
F
  0
LAYER
  5
12C
330
2
100
AcDbSymbolTableRecord
100
AcDbLayerTableRecord
  2
243
 70
     0
 62
   243
  6
CONTINUOUS
370
    -3
390
F
  0
LAYER
  5
12D
330
2
100
AcDbSymbolTableRecord
100
AcDbLayerTableRecord
  2
244
 70
     0
 62
   244
  6
CONTINUOUS
370
    -3
390
F
  0
LAYER
  5
12E
330
2
100
AcDbSymbolTableRecord
100
AcDbLayerTableRecord
  2
245
 70
     0
 62
   245
  6
CONTINUOUS
370
    -3
390
F
  0
LAYER
  5
12F
330
2
100
AcDbSymbolTableRecord
100
AcDbLayerTableRecord
  2
246
 70
     0
 62
   246
  6
CONTINUOUS
370
    -3
390
F
  0
LAYER
  5
130
330
2
100
AcDbSymbolTableRecord
100
AcDbLayerTableRecord
  2
247
 70
     0
 62
   247
  6
CONTINUOUS
370
    -3
390
F
  0
LAYER
  5
131
330
2
100
AcDbSymbolTableRecord
100
AcDbLayerTableRecord
  2
248
 70
     0
 62
   248
  6
CONTINUOUS
370
    -3
390
F
  0
LAYER
  5
132
330
2
100
AcDbSymbolTableRecord
100
AcDbLayerTableRecord
  2
249
 70
     0
 62
   249
  6
CONTINUOUS
370
    -3
390
F
  0
LAYER
  5
133
330
2
100
AcDbSymbolTableRecord
100
AcDbLayerTableRecord
  2
250
 70
     0
 62
   250
  6
CONTINUOUS
370
    -3
390
F
  0
LAYER
  5
134
330
2
100
AcDbSymbolTableRecord
100
AcDbLayerTableRecord
  2
251
 70
     0
 62
   251
  6
CONTINUOUS
370
    -3
390
F
  0
LAYER
  5
135
330
2
100
AcDbSymbolTableRecord
100
AcDbLayerTableRecord
  2
252
 70
     0
 62
   252
  6
CONTINUOUS
370
    -3
390
F
  0
LAYER
  5
136
330
2
100
AcDbSymbolTableRecord
100
AcDbLayerTableRecord
  2
253
 70
     0
 62
   253
  6
CONTINUOUS
370
    -3
390
F
  0
LAYER
  5
137
330
2
100
AcDbSymbolTableRecord
100
AcDbLayerTableRecord
  2
254
 70
     0
 62
   254
  6
CONTINUOUS
370
    -3
390
F
  0
LAYER
  5
138
330
2
100
AcDbSymbolTableRecord
100
AcDbLayerTableRecord
  2
255
 70
     0
 62
   255
  6
CONTINUOUS
370
    -3
390
F
  0
LAYER
  5
2A39
330
2
100
AcDbSymbolTableRecord
100
AcDbLayerTableRecord
  2
Defpoints
 70
     0
 62
     7
  6
CONTINUOUS
290
     0
370
    -3
390
F
  0
ENDTAB
  0
TABLE
  2
STYLE
  5
3
330
0
100
AcDbSymbolTable
 70
     1
  0
STYLE
  5
11
330
3
100
AcDbSymbolTableRecord
100
AcDbTextStyleTableRecord
  2
STANDARD
 70
     0
 40
0.0
 41
1.0
 50
0.0
 71
     0
 42
0.2
  3
txt
  4

  0
ENDTAB
  0
TABLE
  2
VIEW
  5
6
330
0
100
AcDbSymbolTable
 70
     0
  0
ENDTAB
  0
TABLE
  2
UCS
  5
7
330
0
100
AcDbSymbolTable
 70
     0
  0
ENDTAB
  0
TABLE
  2
APPID
  5
9
330
0
100
AcDbSymbolTable
 70
     1
  0
APPID
  5
12
330
9
100
AcDbSymbolTableRecord
100
AcDbRegAppTableRecord
  2
ACAD
 70
     0
  0
ENDTAB
  0
TABLE
  2
DIMSTYLE
  5
A
330
0
100
AcDbSymbolTable
 70
     1
100
AcDbDimStyleTable
 71
     1
340
2A05
  0
DIMSTYLE
105
2A05
330
A
100
AcDbSymbolTableRecord
100
AcDbDimStyleTableRecord
  2
Standard
 70
     0
340
11
  0
ENDTAB
  0
TABLE
  2
BLOCK_RECORD
  5
1
330
0
100
AcDbSymbolTable
 70
     1
  0
BLOCK_RECORD
  5
1E
330
1
100
AcDbSymbolTableRecord
100
AcDbBlockTableRecord
  2
*Model_Space
340
21
  0
BLOCK_RECORD
  5
1A
330
1
100
AcDbSymbolTableRecord
100
AcDbBlockTableRecord
  2
*Paper_Space
340
1D
  0
BLOCK_RECORD
  5
2A3A
330
1
100
AcDbSymbolTableRecord
100
AcDbBlockTableRecord
  2
*D0
340
0
  0
ENDTAB
  0
ENDSEC
  0
SECTION
  2
BLOCKS
  0
BLOCK
  5
13B
330
1E
100
AcDbEntity
  8
0
100
AcDbBlockBegin
  2
*Model_Space
 70
     0
 10
0.0
 20
0.0
 30
0.0
  3
*Model_Space
  1

  0
ENDBLK
  5
13C
330
1E
100
AcDbEntity
  8
0
100
AcDbBlockEnd
  0
BLOCK
  5
139
330
1A
100
AcDbEntity
 67
     1
  8
0
100
AcDbBlockBegin
  2
*Paper_Space
 70
     0
 10
0.0
 20
0.0
 30
0.0
  3
*Paper_Space
  1

  0
ENDBLK
  5
13A
330
1A
100
AcDbEntity
 67
     1
  8
0
100
AcDbBlockEnd
  0
BLOCK
  5
2A45
330
2A3A
100
AcDbEntity
  8
0
100
AcDbBlockBegin
  2
*D0
 70
     1
 10
0.0
 20
0.0
 30
0.0
  3
*D0
  1

  0
LINE
  5
2A47
330
2A3A
100
AcDbEntity
  8
0
 62
     0
370
    -2
100
AcDbLine
 10
6.705765505845683
 20
10.33779657200676
 30
0.0
 11
6.705765505845683
 21
11.3717463898063
 31
0.0
  0
LINE
  5
2A48
330
2A3A
100
AcDbEntity
  8
0
 62
     0
370
    -2
100
AcDbLine
 10
8.235984169378971
 20
10.30531551546949
 30
0.0
 11
8.235984169378971
 21
11.3717463898063
 31
0.0
  0
LINE
  5
2A49
330
2A3A
100
AcDbEntity
  8
0
 62
     0
370
    -2
100
AcDbLine
 10
6.885765505845682
 20
11.1917463898063
 30
0.0
 11
6.975874837612327
 21
11.1917463898063
 31
0.0
  0
LINE
  5
2A4A
330
2A3A
100
AcDbEntity
  8
0
 62
     0
370
    -2
100
AcDbLine
 10
8.055984169378971
 20
11.1917463898063
 30
0.0
 11
7.965874837612327
 21
11.1917463898063
 31
0.0
  0
SOLID
  5
2A4B
330
2A3A
100
AcDbEntity
  8
0
 62
     0
100
AcDbTrace
 10
6.885765505845682
 20
11.2217463898063
 30
0.0
 11
6.885765505845682
 21
11.1617463898063
 31
0.0
 12
6.705765505845683
 22
11.1917463898063
 32
0.0
 13
6.705765505845683
 23
11.1917463898063
 33
0.0
  0
SOLID
  5
2A4C
330
2A3A
100
AcDbEntity
  8
0
 62
     0
100
AcDbTrace
 10
8.055984169378971
 20
11.2217463898063
 30
0.0
 11
8.055984169378971
 21
11.1617463898063
 31
0.0
 12
8.235984169378971
 22
11.1917463898063
 32
0.0
 13
8.235984169378971
 23
11.1917463898063
 33
0.0
  0
MTEXT
  5
2A4D
330
2A3A
100
AcDbEntity
  8
0
 62
     0
100
AcDbMText
 10
7.470874837612327
 20
11.1917463898063
 30
0.0
 40
0.18
 41
0.0
 71
     5
 72
     1
  1
\A1;1.5302
 73
     1
 44
1.0
  0
POINT
  5
2A4E
330
2A3A
100
AcDbEntity
  8
Defpoints
 62
     0
100
AcDbPoint
 10
6.705765505845683
 20
10.27529657200676
 30
0.0
  0
POINT
  5
2A4F
330
2A3A
100
AcDbEntity
  8
Defpoints
 62
     0
100
AcDbPoint
 10
8.235984169378971
 20
10.2428155154695
 30
0.0
  0
POINT
  5
2A50
330
2A3A
100
AcDbEntity
  8
Defpoints
 62
     0
100
AcDbPoint
 10
8.235984169378971
 20
11.1917463898063
 30
0.0
  0
ENDBLK
  5
2A46
330
2A3A
100
AcDbEntity
  8
0
100
AcDbBlockEnd
  0
ENDSEC
  0
SECTION
  2
ENTITIES
  0
LWPOLYLINE
  5
1D9F
330
1E
100
AcDbEntity
  8
0
100
AcDbPolyline
 90
        7
 70
     0
 43
0.0
 10
7.352676704104792
 20
10.73899594128665
 10
7.352676704104792
 20
10.79838049919821
 10
7.388110583963625
 20
10.79838049919821
 10
7.399921877249902
 20
10.79280294403525
 10
7.399921877249902
 20
10.77475791262566
 10
7.387454401003276
 20
10.76918035746269
 10
7.352676704104792
 20
10.76918035746269
  0
LWPOLYLINE
  5
1DA8
330
1E
100
AcDbEntity
  8
0
100
AcDbPolyline
 90
        4
 70
     0
 43
0.0
 10
7.465540173284777
 20
10.73899594128665
 10
7.417966908659494
 20
10.73899594128665
 10
7.465540173284777
 20
10.79838049919821
 10
7.417966908659494
 20
10.79838049919821
  0
LWPOLYLINE
  5
1DAE
330
1E
100
AcDbEntity
  8
0
100
AcDbPolyline
 90
        4
 70
     0
 43
0.0
 10
7.483257113214193
 20
10.73899594128665
 10
7.483257113214193
 20
10.79838049919821
 10
7.530830377839478
 20
10.73899594128665
 10
7.530830377839478
 20
10.79838049919821
  0
LWPOLYLINE
  5
1DB4
330
1E
100
AcDbEntity
  8
0
100
AcDbPolyline
 90
        3
 70
     0
 43
0.0
 10
7.548547317768894
 20
10.73899594128665
 10
7.548547317768894
 20
10.79838049919821
 10
7.596120582394178
 20
10.79838049919821
  0
LINE
  5
1DB9
330
1E
100
AcDbEntity
  8
0
100
AcDbLine
 10
7.578075550984589
 20
10.77475791262566
 30
0.0
 11
7.548547317768894
 21
10.77475791262566
 31
0.0
  0
LWPOLYLINE
  5
1DBA
330
1E
100
AcDbEntity
  8
0
100
AcDbPolyline
 90
        7
 70
     0
 43
0.0
 10
7.61416561380377
 20
10.74490158792979
 10
7.6253207241297
 20
10.73899594128665
 10
7.649599493662602
 20
10.73899594128665
 10
7.661410786948881
 20
10.74490158792979
 10
7.661410786948881
 20
10.76294661933938
 10
7.649599493662602
 20
10.76918035746269
 10
7.631554462253012
 20
10.76918035746269
  0
LWPOLYLINE
  5
1DC3
330
1E
100
AcDbEntity
  8
0
100
AcDbPolyline
 90
        6
 70
     0
 43
0.0
 10
7.649599493662602
 20
10.76918035746269
 10
7.661410786948881
 20
10.77475791262566
 10
7.661410786948881
 20
10.79280294403525
 10
7.649599493662602
 20
10.79838049919821
 10
7.6253207241297
 20
10.79838049919821
 10
7.613509430843421
 20
10.79280294403525
  0
LINE
  5
1DCB
330
1E
100
AcDbEntity
  8
0
100
AcDbLine
 10
7.177232962856261
 20
11.60045806043106
 30
0.0
 11
7.183138609499399
 21
11.62244018960275
 31
0.0
  0
LINE
  5
1DCC
330
1E
100
AcDbEntity
  8
0
100
AcDbLine
 10
6.960364494460998
 20
11.53582403883671
 30
0.0
 11
6.966270141104137
 21
11.55747807652822
 31
0.0
  0
LINE
  5
1DCD
330
1E
100
AcDbEntity
  8
0
100
AcDbLine
 10
7.090288720610051
 20
11.57453883349729
 30
0.0
 11
7.09619436725319
 21
11.59652096266897
 31
0.0
  0
LINE
  5
1DCE
330
1E
100
AcDbEntity
  8
0
100
AcDbLine
 10
7.003672569844016
 20
11.54861960656351
 30
0.0
 11
7.009578216487155
 21
11.57060173573519
 31
0.0
  0
LINE
  5
1DCF
330
1E
100
AcDbEntity
  8
0
100
AcDbLine
 10
6.984315172513728
 20
12.13065389239285
 30
0.0
 11
6.96725441554466
 21
12.14574610048088
 31
0.0
  0
LINE
  5
1DD0
330
1E
100
AcDbEntity
  8
0
100
AcDbLine
 10
6.8540628548845
 20
12.09193909773228
 30
0.0
 11
6.837002097915433
 21
12.1070313058203
 31
0.0
  0
LINE
  5
1DD1
330
1E
100
AcDbEntity
  8
0
100
AcDbLine
 10
7.133924887473243
 20
11.58766249270426
 30
0.0
 11
7.139830534116382
 21
11.60931653039577
 31
0.0
  0
LINE
  5
1DD2
330
1E
100
AcDbEntity
  8
0
100
AcDbLine
 10
6.00299355531217
 20
11.05845093518299
 30
0.0
 11
6.095843444201518
 21
11.08633871099782
 31
0.0
  0
LINE
  5
1DD3
330
1E
100
AcDbEntity
  8
0
100
AcDbLine
 10
7.046980645227034
 20
11.56174326577049
 30
0.0
 11
7.052886291870172
 21
11.58339730346199
 31
0.0
  0
LINE
  5
1DD4
330
1E
100
AcDbEntity
  8
0
100
AcDbLine
 10
7.027623247896745
 20
12.14377755159983
 30
0.0
 11
7.010890582407852
 21
12.15854166820768
 31
0.0
  0
LINE
  5
1DD5
330
1E
100
AcDbEntity
  8
0
100
AcDbLine
 10
6.897370930267518
 20
12.10473466545908
 30
0.0
 11
6.880638264778625
 21
12.1198268735471
 31
0.0
  0
LINE
  5
1DD6
330
1E
100
AcDbEntity
  8
0
100
AcDbLine
 10
5.824511790097309
 20
11.99679256848171
 30
0.0
 11
5.731333809727787
 21
11.96890479266689
 31
0.0
  0
LINE
  5
1DD7
330
1E
100
AcDbEntity
  8
0
100
AcDbLine
 10
6.94100709713071
 20
12.11785832466605
 30
0.0
 11
6.923946340161642
 21
12.13295053275407
 31
0.0
  0
LWPOLYLINE
  5
1DD8
330
1E
100
AcDbEntity
  8
0
100
AcDbPolyline
 90
       63
 70
     0
 43
0.0
 10
5.551867770072403
 20
11.41967965485498
 10
5.55613295931467
 20
11.40688408712818
 10
5.560398148556937
 20
11.39376042792121
 10
5.562038605957809
 20
11.38851096423842
 10
5.564007154838855
 20
11.38326150055563
 10
5.566959978160425
 20
11.37473112207109
 10
5.570240892962168
 20
11.36620074358656
 10
5.573849899244086
 20
11.35734227362185
 10
5.577458905526005
 20
11.34848380365714
 10
5.581396003288097
 20
11.33896915073208
 10
5.585661192530364
 20
11.3297825892872
 10
5.589926381772631
 20
11.31993984488197
 10
5.594519662495072
 20
11.31042519195692
 10
5.599441034697687
 20
11.30091053903186
 10
5.604362406900303
 20
11.29106779462663
 10
5.609611870583093
 20
11.28155314170157
 10
5.615189425746057
 20
11.27171039729634
 10
5.620766980909022
 20
11.26219574437128
 10
5.626672627552161
 20
11.25268109144623
 10
5.632578274195299
 20
11.24316643852117
 10
5.638812012318613
 20
11.23397987707628
 10
5.645045750441926
 20
11.22446522415123
 10
5.651607580045413
 20
11.21560675418652
 10
5.658497501129075
 20
11.20642019274164
 10
5.665387422212737
 20
11.19756172277693
 10
5.672605434776573
 20
11.1890313442924
 10
5.679823447340409
 20
11.18050096580786
 10
5.687041459904246
 20
11.17197058732333
 10
5.694587563948257
 20
11.16376830031897
 10
5.702461759472441
 20
11.15589410479478
 10
5.710335954996627
 20
11.1480199092706
 10
5.718210150520811
 20
11.14047380522659
 10
5.726412437525171
 20
11.13325579266275
 10
5.734942816009705
 20
11.12636587157909
 10
5.743145103014065
 20
11.11947595049543
 10
5.752003572978773
 20
11.11291412089194
 10
5.760533951463306
 20
11.10668038276863
 10
5.769392421428015
 20
11.10077473612549
 10
5.778250891392723
 20
11.09486908948235
 10
5.787437452837605
 20
11.08961962579956
 10
5.796624014282487
 20
11.08437016211677
 10
5.80581057572737
 20
11.07977688139433
 10
5.814997137172253
 20
11.07518360067189
 10
5.824511790097309
 20
11.07091841142962
 10
5.833698351542192
 20
11.0673094051477
 10
5.843213004467249
 20
11.06370039886579
 10
5.852727657392306
 20
11.06074757554422
 10
5.862242310317363
 20
11.05779475222264
 10
5.87175696324242
 20
11.05549811186142
 10
5.881599707647651
 20
11.05352956298038
 10
5.891114360572708
 20
11.05156101409933
 10
5.900629013497765
 20
11.05024864817863
 10
5.910471757902996
 20
11.04926437373811
 10
5.919986410828053
 20
11.04860819077776
 10
5.92950106375311
 20
11.04828009929759
 10
5.939015716678166
 20
11.04828009929759
 10
5.948530369603224
 20
11.04893628225794
 10
5.95804502252828
 20
11.04959246521829
 10
5.967559675453337
 20
11.05090483113898
 10
5.977074328378394
 20
11.05221719705968
 10
5.986260889823276
 20
11.05418574594073
 10
5.994463176827636
 20
11.05615429482177
 10
6.002665463831996
 20
11.05845093518299
  0
LWPOLYLINE
  5
1E19
330
1E
100
AcDbEntity
  8
0
100
AcDbPolyline
 90
       15
 70
     0
 43
0.0
 10
7.725801917707817
 20
11.60308279227246
 10
7.726458100668166
 20
11.60373897523281
 10
7.72678619214834
 20
11.60472324967333
 10
7.731707564350956
 20
11.61358171963804
 10
7.736300845073397
 20
11.62276828108292
 10
7.740566034315664
 20
11.63228293400798
 10
7.74483122355793
 20
11.64212567841321
 10
7.748768321320023
 20
11.65196842281844
 10
7.752377327601942
 20
11.66213925870384
 10
7.75598633388386
 20
11.67263818606943
 10
7.759267248685603
 20
11.683137113435
 10
7.762220072007172
 20
11.69363604080059
 10
7.765172895328742
 20
11.70479115112651
 10
7.76648526124944
 20
11.71135298073
 10
7.768125718650312
 20
11.71791481033349
  0
LWPOLYLINE
  5
1E2A
330
1E
100
AcDbEntity
  8
0
100
AcDbPolyline
 90
       63
 70
     0
 43
0.0
 10
5.731333809727787
 20
11.96890479266689
 10
5.730349535287263
 20
11.96857670118671
 10
5.729365260846741
 20
11.96824860970654
 10
5.720506790882033
 20
11.96529578638497
 10
5.71132022943715
 20
11.96201487158322
 10
5.702461759472441
 20
11.95807777382113
 10
5.693603289507733
 20
11.95414067605904
 10
5.685072911023199
 20
11.9495473953366
 10
5.676542532538666
 20
11.94495411461416
 10
5.668012154054133
 20
11.93970465093137
 10
5.659809867049773
 20
11.9341270957684
 10
5.651607580045413
 20
11.92789335764509
 10
5.643733384521229
 20
11.92165961952178
 10
5.635859188997043
 20
11.91509778991829
 10
5.628313084953033
 20
11.90787977735445
 10
5.620766980909022
 20
11.90033367331044
 10
5.613548968345186
 20
11.89245947778626
 10
5.606330955781349
 20
11.8842571907819
 10
5.599441034697687
 20
11.87539872081719
 10
5.593535388054549
 20
11.86752452529301
 10
5.587957832891585
 20
11.85899414680847
 10
5.58238027772862
 20
11.85046376832394
 10
5.576802722565656
 20
11.84160529835923
 10
5.57188135036304
 20
11.83209064543417
 10
5.566959978160425
 20
11.82290408398929
 10
5.562366697437983
 20
11.81306133958406
 10
5.558101508195717
 20
11.80321859517883
 10
5.553836318953449
 20
11.79304775929342
 10
5.549899221191357
 20
11.78287692340802
 10
5.546290214909439
 20
11.77204990456226
 10
5.543009300107695
 20
11.76155097719668
 10
5.540056476786126
 20
11.75072395835093
 10
5.537103653464557
 20
11.739568848025
 10
5.534478921623161
 20
11.72841373769907
 10
5.53218228126194
 20
11.71693053589297
 10
5.530213732380894
 20
11.70544733408686
 10
5.528245183499848
 20
11.69396413228076
 10
5.526604726098977
 20
11.68215283899448
 10
5.525620451658453
 20
11.6703415457082
 10
5.524308085737756
 20
11.65853025242193
 10
5.523651902777407
 20
11.64671895913565
 10
5.522995719817058
 20
11.63490766584937
 10
5.522667628336884
 20
11.62276828108292
 10
5.522667628336884
 20
11.61062889631647
 10
5.522995719817058
 20
11.59881760303019
 10
5.523323811297233
 20
11.58667821826374
 10
5.523979994257581
 20
11.57453883349729
 10
5.524964268698104
 20
11.56239944873084
 10
5.525948543138627
 20
11.55026006396438
 10
5.527260909059325
 20
11.53844877067811
 10
5.528901366460197
 20
11.52663747739183
 10
5.530541823861069
 20
11.51482618410555
 10
5.532510372742115
 20
11.50334298229945
 10
5.534478921623161
 20
11.49251596345369
 10
5.536447470504207
 20
11.48136085312776
 10
5.538416019385254
 20
11.47250238316306
 10
5.5403845682663
 20
11.46331582171818
 10
5.542353117147346
 20
11.45576971767416
 10
5.543993574548219
 20
11.44855170511033
 10
5.546290214909439
 20
11.43969323514562
 10
5.548914946750834
 20
11.43083476518091
 10
5.550555404151706
 20
11.42525721001794
 10
5.551867770072403
 20
11.41967965485498
  0
LWPOLYLINE
  5
1E6B
330
1E
100
AcDbEntity
  8
0
100
AcDbPolyline
 90
        3
 70
     0
 43
0.0
 10
7.755658242403685
 20
12.04272537570612
 10
7.751393053161418
 20
12.05847376675449
 10
7.746799772438977
 20
12.07422215780286
  0
LINE
  5
1E70
330
1E
100
AcDbEntity
  8
0
100
AcDbLine
 10
7.473499569453721
 20
12.45579254924566
 30
0.0
 11
7.471202929092502
 21
12.45710491516636
 31
0.0
  0
LWPOLYLINE
  5
1E71
330
1E
100
AcDbEntity
  8
0
100
AcDbPolyline
 90
       10
 70
     0
 43
0.0
 10
7.468578197251106
 20
12.45841728108706
 10
7.457094995445003
 20
12.46399483625002
 10
7.448236525480295
 20
12.46826002549229
 10
7.439378055515587
 20
12.4718690317742
 10
7.430519585550879
 20
12.47514994657595
 10
7.421333024105996
 20
12.47810276989752
 10
7.412474554141288
 20
12.48072750173891
 10
7.403287992696405
 20
12.48302414210013
 10
7.394757614211872
 20
12.48499269098118
 10
7.386227235727337
 20
12.48663314838205
  0
LWPOLYLINE
  5
1E7D
330
1E
100
AcDbEntity
  8
0
100
AcDbPolyline
 90
       17
 70
     0
 43
0.0
 10
7.746799772438977
 20
12.07422215780286
 10
7.742534583196711
 20
12.08800199997019
 10
7.738269393954443
 20
12.10178184213751
 10
7.736300845073397
 20
12.10735939730047
 10
7.73433229619235
 20
12.11293695246344
 10
7.731051381390606
 20
12.12179542242814
 10
7.727770466588863
 20
12.13098198387303
 10
7.724161460306945
 20
12.14016854531791
 10
7.720552454025026
 20
12.14968319824297
 10
7.716615356262934
 20
12.1595259426482
 10
7.712350167020668
 20
12.16936868705343
 10
7.707756886298226
 20
12.17953952293884
 10
7.703163605575785
 20
12.18938226734407
 10
7.69824223337317
 20
12.19988119470965
 10
7.693320861170554
 20
12.21005203059505
 10
7.690368037848985
 20
12.21595767723819
 10
7.687087123047241
 20
12.22186332388133
  0
LWPOLYLINE
  5
1E90
330
1E
100
AcDbEntity
  8
0
100
AcDbPolyline
 90
       30
 70
     0
 43
0.0
 10
5.731333809727787
 20
11.96890479266689
 10
5.761190134423655
 20
11.97481043931003
 10
5.792030733560046
 20
11.97546662227037
 10
5.823855607136961
 20
11.97054525006776
 10
5.856336663674223
 20
11.96037441418235
 10
5.888817720211487
 20
11.94495411461416
 10
5.920970685268576
 20
11.92428435136317
 10
5.95279555884549
 20
11.89902130738975
 10
5.983308066501708
 20
11.86916498269388
 10
6.012508208237226
 20
11.83537156023592
 10
6.040067892571874
 20
11.79731294853569
 10
6.065659028025476
 20
11.75630151351389
 10
6.088953523117856
 20
11.71233725517053
 10
6.109295194888668
 20
11.66607635646594
 10
6.127012134818084
 20
11.6178469088803
 10
6.14177625142593
 20
11.56863318685415
 10
6.153259453232034
 20
11.51876328186764
 10
6.161461740236394
 20
11.46889337688114
 10
6.166055020958834
 20
11.41935156337481
 10
6.167367386879532
 20
11.370794024309
 10
6.164742655038137
 20
11.32420503412424
 10
6.159165099875172
 20
11.2799126843007
 10
6.149650446950116
 20
11.23791697483838
 10
6.13718297070349
 20
11.19953027165798
 10
6.12143457965512
 20
11.16475257475949
 10
6.10273336528518
 20
11.1339119756231
 10
6.081079327593672
 20
11.10766465720915
 10
6.057128649540942
 20
11.08633871099782
 10
6.030881331126992
 20
11.0699341369891
 10
6.002665463831996
 20
11.05845093518299
  0
LWPOLYLINE
  5
1EB0
330
1E
100
AcDbEntity
  8
0
100
AcDbPolyline
 90
       17
 70
     0
 43
0.0
 10
5.757253036661563
 20
11.82323217546946
 10
5.792030733560046
 20
11.80715569294092
 10
5.828120796379227
 20
11.78254883192784
 10
5.86355467623806
 20
11.74908350095006
 10
5.896691915735672
 20
11.70774397444809
 10
5.92654824043154
 20
11.65984261834263
 10
5.951811284404968
 20
11.6076760729949
 10
5.971824864695604
 20
11.5538690702463
 10
5.985932798343102
 20
11.50039015897788
 10
5.99479126830781
 20
11.44691124770946
 10
5.998400274589728
 20
11.39179187904016
 10
5.996103634228508
 20
11.33798487629156
 10
5.9872451642638
 20
11.28745878834471
 10
5.972481047655953
 20
11.24251025556082
 10
5.952139375885142
 20
11.20543591830112
 10
5.927860606352238
 20
11.17656386804577
 10
5.900629013497765
 20
11.15655028775513
  0
LWPOLYLINE
  5
1EC3
330
1E
100
AcDbEntity
  8
0
100
AcDbPolyline
 90
        5
 70
     0
 43
0.0
 10
5.900629013497765
 20
11.15655028775513
 10
5.875694061004512
 20
11.14572326890938
 10
5.848462468150039
 20
11.14080189670676
 10
5.819918509374868
 20
11.14211426262746
 10
5.791046459119523
 20
11.14900418371112
  0
LWPOLYLINE
  5
1ECA
330
1E
100
AcDbEntity
  8
0
100
AcDbPolyline
 90
       29
 70
     0
 43
0.0
 10
5.791046459119523
 20
11.14900418371112
 10
5.764142957745225
 20
11.16048738551722
 10
5.735927090450228
 20
11.17754814248629
 10
5.707711223155231
 20
11.20018645461833
 10
5.686385276943897
 20
11.22118430934949
 10
5.666043605173086
 20
11.24513498740221
 10
5.646358116362623
 20
11.27171039729634
 10
5.627984993472859
 20
11.30091053903186
 10
5.611252327983965
 20
11.33207922964842
 10
5.596160119895944
 20
11.36456028618569
 10
5.583364552169143
 20
11.39802561716347
 10
5.572537533323389
 20
11.43181903962143
 10
5.56138242299746
 20
11.47676757240532
 10
5.554164410433624
 20
11.52007564778834
 10
5.550555404151706
 20
11.56141517429031
 10
5.549899221191357
 20
11.60144233487159
 10
5.553180135993101
 20
11.64146949545286
 10
5.559741965596588
 20
11.68018429011344
 10
5.567616161120773
 20
11.70774397444809
 10
5.577458905526005
 20
11.73333510990169
 10
5.589598290292457
 20
11.75695769647424
 10
5.604034315420129
 20
11.77762745972523
 10
5.619782706468499
 20
11.79501630817447
 10
5.637499646397915
 20
11.80945233330214
 10
5.656200860767855
 20
11.81995126066772
 10
5.675886349578317
 20
11.82716927323156
 10
5.703117942432791
 20
11.83110637099365
 10
5.730349535287263
 20
11.82979400507295
 10
5.757253036661563
 20
11.82323217546946
  0
LWPOLYLINE
  5
1EE9
330
1E
100
AcDbEntity
  8
0
100
AcDbPolyline
 90
       43
 70
     0
 43
0.0
 10
5.786125086916907
 20
11.25104063404535
 10
5.762502500344353
 20
11.26153956141093
 10
5.739536096732146
 20
11.27695986097913
 10
5.717225876080289
 20
11.29697344126977
 10
5.695899929868954
 20
11.32125221080267
 10
5.676870624018841
 20
11.34946807809766
 10
5.659481775569599
 20
11.38063676871423
 10
5.645045750441926
 20
11.41410209969202
 10
5.633234457155649
 20
11.4488797965905
 10
5.624704078671115
 20
11.48496985940968
 10
5.619454614988325
 20
11.52073183074869
 10
5.617814157587453
 20
11.55583761912735
 10
5.619454614988325
 20
11.58930295010514
 10
5.624704078671115
 20
11.62079973220187
 10
5.633234457155649
 20
11.64901559949687
 10
5.644717658961751
 20
11.67362246050995
 10
5.659481775569599
 20
11.69396413228076
 10
5.676542532538666
 20
11.70971252332913
 10
5.695899929868954
 20
11.72053954217489
 10
5.716897784600114
 20
11.72611709733785
 10
5.739208005251971
 20
11.72611709733785
 10
5.762174408864178
 20
11.72086763365506
 10
5.785796995436733
 20
11.71069679776965
 10
5.808763399048939
 20
11.69494840672128
 10
5.831073619700797
 20
11.67493482643065
 10
5.852071474431957
 20
11.65065605689774
 10
5.871428871762245
 20
11.62244018960275
 10
5.888817720211487
 20
11.59159959046635
 10
5.90325374533916
 20
11.55813425948857
 10
5.915065038625437
 20
11.52302847110991
 10
5.923595417109971
 20
11.4872664997709
 10
5.928844880792761
 20
11.45117643695172
 10
5.930485338193633
 20
11.41607064857306
 10
5.928844880792761
 20
11.38260531759528
 10
5.923595417109971
 20
11.35110853549854
 10
5.915065038625437
 20
11.32289266820354
 10
5.903581836819334
 20
11.29828580719046
 10
5.888817720211487
 20
11.27794413541965
 10
5.87175696324242
 20
11.26219574437128
 10
5.852399565912131
 20
11.25136872552553
 10
5.831401711180971
 20
11.24579117036256
 10
5.809091490529114
 20
11.24579117036256
 10
5.786125086916907
 20
11.25104063404535
  0
LWPOLYLINE
  5
1F16
330
1E
100
AcDbEntity
  8
0
100
AcDbPolyline
 90
        7
 70
     0
 43
0.0
 10
6.230689042553187
 20
11.22873041339349
 10
6.214940651504816
 20
11.19362462501484
 10
6.196239437134877
 20
11.16245593439827
 10
6.174585399443369
 20
11.13588052450415
 10
6.150634721390639
 20
11.11422648681264
 10
6.124059311496514
 20
11.09749382132374
 10
6.095843444201518
 20
11.08633871099782
  0
LWPOLYLINE
  5
1F1F
330
1E
100
AcDbEntity
  8
0
100
AcDbPolyline
 90
       10
 70
     0
 43
0.0
 10
6.208050730421154
 20
11.67985619863326
 10
6.226095761830745
 20
11.62768965328554
 10
6.240203695478244
 20
11.57421074201711
 10
6.251030714323998
 20
11.52040373926852
 10
6.257592543927485
 20
11.46725291948027
 10
6.26021727576888
 20
11.41475828265237
 10
6.258904909848183
 20
11.36390410322534
 10
6.253327354685218
 20
11.3156746556397
 10
6.243812701760162
 20
11.27039803137564
 10
6.230689042553187
 20
11.22873041339349
  0
LWPOLYLINE
  5
1F2B
330
1E
100
AcDbEntity
  8
0
100
AcDbPolyline
 90
       10
 70
     0
 43
0.0
 10
5.937375259277295
 20
11.99252737923944
 10
5.972152956175778
 20
11.97776326263159
 10
6.006930653074262
 20
11.95709349938061
 10
6.041052167012398
 20
11.93084618096666
 10
6.07418940651001
 20
11.89934939886992
 10
6.10568618860675
 20
11.86293124457056
 10
6.135214421822443
 20
11.82224790102894
 10
6.162117923196742
 20
11.77762745972523
 10
6.18672478420982
 20
11.73005419509994
 10
6.208050730421154
 20
11.67985619863326
  0
LWPOLYLINE
  5
1F37
330
1E
100
AcDbEntity
  8
0
100
AcDbPolyline
 90
        4
 70
     0
 43
0.0
 10
5.824511790097309
 20
11.99679256848171
 10
5.860601852916491
 20
12.00302630660502
 10
5.898332373136544
 20
12.00171394068433
 10
5.937375259277295
 20
11.99252737923944
  0
LWPOLYLINE
  5
1F3D
330
1E
100
AcDbEntity
  8
0
100
AcDbPolyline
 90
       23
 70
     0
 43
0.0
 10
5.802201569445452
 20
11.27761604393948
 10
5.779563257313419
 20
11.28778687982488
 10
5.757253036661563
 20
11.30320717939308
 10
5.735598998970053
 20
11.32354885116389
 10
5.715585418679417
 20
11.34815571217697
 10
5.697540387269826
 20
11.37637157947196
 10
5.681791996221456
 20
11.40754027008853
 10
5.668668337014481
 20
11.44067750958614
 10
5.658825592609249
 20
11.47545520648463
 10
5.652591854485937
 20
11.51023290338311
 10
5.649639031164367
 20
11.54468250880142
 10
5.650295214124716
 20
11.57781974829903
 10
5.654560403366983
 20
11.60866034743542
 10
5.662434598891167
 20
11.63654812325024
 10
5.673589709217097
 20
11.66082689278315
 10
5.687697642864595
 20
11.68084047307379
 10
5.704430308353488
 20
11.69560458968163
 10
5.723459614203601
 20
11.70544733408686
 10
5.744129377454587
 20
11.7100406148093
 10
5.766111506626271
 20
11.70872824888861
 10
5.788749818758303
 20
11.70183832780494
 10
5.811388130890335
 20
11.68969894303849
 10
5.833370260062018
 20
11.67263818606943
  0
LWPOLYLINE
  5
1F56
330
1E
100
AcDbEntity
  8
0
100
AcDbPolyline
 90
        8
 70
     0
 43
0.0
 10
5.925892057471191
 20
11.36226364582447
 10
5.916377404546135
 20
11.33503205296999
 10
5.903581836819334
 20
11.31173755787761
 10
5.887505354290789
 20
11.29336443498785
 10
5.86880413992085
 20
11.28056886726105
 10
5.84780628518969
 20
11.27367894617739
 10
5.825496064537833
 20
11.27269467173686
 10
5.802201569445452
 20
11.27761604393948
  0
LWPOLYLINE
  5
1F60
330
1E
100
AcDbEntity
  8
0
100
AcDbPolyline
 90
        5
 70
     0
 43
0.0
 10
5.82155896677574
 20
12.04502201606734
 10
5.846165827788818
 20
12.03091408241984
 10
5.873397420643291
 20
12.0174623317327
 10
5.903909928299508
 20
12.0046667640059
 10
5.937375259277295
 20
11.99252737923944
  0
LWPOLYLINE
  5
1F67
330
1E
100
AcDbEntity
  8
0
100
AcDbPolyline
 90
        3
 70
     0
 43
0.0
 10
5.770376695868537
 20
12.01647805729217
 10
5.794983556881616
 20
12.03288263130089
 10
5.82155896677574
 20
12.04502201606734
  0
LWPOLYLINE
  5
1F6C
330
1E
100
AcDbEntity
  8
0
100
AcDbPolyline
 90
        3
 70
     0
 43
0.0
 10
5.745441743375285
 20
11.97316998190915
 10
5.746426017815808
 20
11.97481043931003
 10
5.770376695868537
 20
12.01647805729217
  0
LWPOLYLINE
  5
1F71
330
1E
100
AcDbEntity
  8
0
100
AcDbPolyline
 90
        5
 70
     0
 43
0.0
 10
6.151618995831162
 20
11.88819428854399
 10
6.161789831716568
 20
11.83602774319626
 10
6.174257307963194
 20
11.78386119784854
 10
6.18967760753139
 20
11.73169465250081
 10
6.208050730421154
 20
11.67985619863326
  0
LWPOLYLINE
  5
1F78
330
1E
100
AcDbEntity
  8
0
100
AcDbPolyline
 90
        3
 70
     0
 43
0.0
 10
6.095843444201518
 20
11.95282831013834
 10
6.124387402976688
 20
11.92198771100195
 10
6.151618995831162
 20
11.88819428854399
  0
LWPOLYLINE
  5
1F7D
330
1E
100
AcDbEntity
  8
0
100
AcDbPolyline
 90
        5
 70
     0
 43
0.0
 10
5.937375259277295
 20
11.99252737923944
 10
5.973137230616302
 20
11.98137226891351
 10
6.011523933796704
 20
11.97120143302811
 10
6.0525353688185
 20
11.96135868862288
 10
6.095843444201518
 20
11.95282831013834
  0
LWPOLYLINE
  5
1F84
330
1E
100
AcDbEntity
  8
0
100
AcDbPolyline
 90
        5
 70
     0
 43
0.0
 10
6.311399546676083
 20
11.39080760459963
 10
6.288105051583702
 20
11.35012426105801
 10
6.266451013892194
 20
11.30944091751639
 10
6.24742170804208
 20
11.26875757397477
 10
6.230689042553187
 20
11.22873041339349
  0
LWPOLYLINE
  5
1F8B
330
1E
100
AcDbEntity
  8
0
100
AcDbPolyline
 90
        3
 70
     0
 43
0.0
 10
6.306806265953642
 20
11.48398558496916
 10
6.310743363715735
 20
11.43706850330422
 10
6.311399546676083
 20
11.39080760459963
  0
LWPOLYLINE
  5
1F90
330
1E
100
AcDbEntity
  8
0
100
AcDbPolyline
 90
        5
 70
     0
 43
0.0
 10
6.208050730421154
 20
11.67985619863326
 10
6.22872049367214
 20
11.62965820216658
 10
6.252343080244695
 20
11.58044448014043
 10
6.278590398658645
 20
11.53155884959444
 10
6.306806265953642
 20
11.48398558496916
  0
LWPOLYLINE
  5
1F97
330
1E
100
AcDbEntity
  8
0
100
AcDbPolyline
 90
        5
 70
     0
 43
0.0
 10
6.230689042553187
 20
11.22873041339349
 10
6.217237291866037
 20
11.19001561873292
 10
6.206410273020283
 20
11.15228509851287
 10
6.198207986015924
 20
11.11521076125316
 10
6.192302339372785
 20
11.07912069843398
  0
LWPOLYLINE
  5
1F9E
330
1E
100
AcDbEntity
  8
0
100
AcDbPolyline
 90
        3
 70
     0
 43
0.0
 10
6.141448159945756
 20
11.05057673965881
 10
6.098796267523088
 20
11.05910711814334
 10
6.046957813655536
 20
11.07157459438997
  0
LWPOLYLINE
  5
1FA3
330
1E
100
AcDbEntity
  8
0
100
AcDbPolyline
 90
        3
 70
     0
 43
0.0
 10
6.192302339372785
 20
11.07912069843398
 10
6.167695478359706
 20
11.06271612442526
 10
6.141448159945756
 20
11.05057673965881
  0
LINE
  5
1FA8
330
1E
100
AcDbEntity
  8
0
100
AcDbLine
 10
6.492177952252164
 20
11.15523792183443
 30
0.0
 11
6.141448159945756
 21
11.05057673965881
 31
0.0
  0
LWPOLYLINE
  5
1FA9
330
1E
100
AcDbEntity
  8
0
100
AcDbPolyline
 90
        3
 70
     0
 43
0.0
 10
6.543032131679192
 20
11.18378188060961
 10
6.518425270666114
 20
11.16737730660089
 10
6.492177952252164
 20
11.15523792183443
  0
LINE
  5
1FAE
330
1E
100
AcDbEntity
  8
0
100
AcDbLine
 10
6.192302339372784
 20
11.07912069843398
 30
0.0
 11
6.543032131679192
 21
11.18378188060961
 31
0.0
  0
LINE
  5
1FAF
330
1E
100
AcDbEntity
  8
0
100
AcDbLine
 10
6.172288759082148
 20
12.14968319824297
 30
0.0
 11
5.821558966775739
 21
12.04502201606734
 31
0.0
  0
LINE
  5
1FB0
330
1E
100
AcDbEntity
  8
0
100
AcDbLine
 10
6.446573236507926
 20
12.0571614008338
 30
0.0
 11
6.095843444201518
 21
11.95282831013834
 31
0.0
  0
LINE
  5
1FB1
330
1E
100
AcDbEntity
  8
0
100
AcDbLine
 10
6.172288759082148
 20
12.14968319824297
 30
0.0
 11
6.446573236507926
 21
12.0571614008338
 31
0.0
  0
LINE
  5
1FB2
330
1E
100
AcDbEntity
  8
0
100
AcDbLine
 10
6.502348788137569
 20
11.99285547071962
 30
0.0
 11
6.151618995831162
 21
11.88819428854399
 31
0.0
  0
LWPOLYLINE
  5
1FB3
330
1E
100
AcDbEntity
  8
0
100
AcDbPolyline
 90
        3
 70
     0
 43
0.0
 10
6.446573236507926
 20
12.0571614008338
 10
6.475117195283097
 20
12.02664889317758
 10
6.502348788137569
 20
11.99285547071962
  0
LINE
  5
1FB8
330
1E
100
AcDbEntity
  8
0
100
AcDbLine
 10
6.657536058260049
 20
11.58864676714479
 30
0.0
 11
6.306806265953642
 21
11.48398558496916
 31
0.0
  0
LINE
  5
1FB9
330
1E
100
AcDbEntity
  8
0
100
AcDbLine
 10
6.502348788137569
 20
11.99285547071962
 30
0.0
 11
6.657536058260049
 21
11.58864676714479
 31
0.0
  0
LINE
  5
1FBA
330
1E
100
AcDbEntity
  8
0
100
AcDbLine
 10
6.662129338982491
 20
11.49546878677526
 30
0.0
 11
6.311399546676083
 21
11.39080760459963
 31
0.0
  0
LWPOLYLINE
  5
1FBB
330
1E
100
AcDbEntity
  8
0
100
AcDbPolyline
 90
        3
 70
     0
 43
0.0
 10
6.657536058260049
 20
11.58864676714479
 10
6.661473156022141
 20
11.54172968547985
 10
6.662129338982491
 20
11.49546878677526
  0
LINE
  5
1FC0
330
1E
100
AcDbEntity
  8
0
100
AcDbLine
 10
6.662129338982491
 20
11.49546878677526
 30
0.0
 11
6.543032131679192
 21
11.18378188060961
 31
0.0
  0
LWPOLYLINE
  5
1FC1
330
1E
100
AcDbEntity
  8
0
100
AcDbPolyline
 90
       14
 70
     0
 43
0.0
 10
6.897370930267518
 20
12.10473466545908
 10
6.92525870608234
 20
12.07750307260461
 10
6.95150602449629
 20
12.04567819902769
 10
6.975784794029194
 20
12.00991622768868
 10
6.998095014681052
 20
11.97120143302811
 10
7.01745241201134
 20
11.92953381504596
 10
7.033856986020058
 20
11.88622573966294
 10
7.047308736707208
 20
11.84127720687905
 10
7.057479572592614
 20
11.79567249113482
 10
7.063713310715927
 20
11.75039586687075
 10
7.066666134037497
 20
11.70577542556704
 10
7.065681859596973
 20
11.66279544166419
 10
7.061088578874532
 20
11.6217840066424
 10
7.052886291870173
 20
11.58339730346199
  0
LWPOLYLINE
  5
1FD1
330
1E
100
AcDbEntity
  8
0
100
AcDbPolyline
 90
        4
 70
     0
 43
0.0
 10
6.7887726503298
 20
12.17560242517675
 10
6.751370221589921
 20
12.1838047121811
 10
6.715608250250914
 20
12.1838047121811
 10
6.681486736312779
 20
12.1749462422164
  0
LWPOLYLINE
  5
1FD7
330
1E
100
AcDbEntity
  8
0
100
AcDbPolyline
 90
       25
 70
     0
 43
0.0
 10
6.902292302470134
 20
11.40524362972731
 10
6.929523895324606
 20
11.4118054593308
 10
6.954786939298034
 20
11.42361675261707
 10
6.978409525870588
 20
11.44100560106632
 10
6.999407380601748
 20
11.462987730238
 10
7.01745241201134
 20
11.48956314013212
 10
7.032872711579535
 20
11.52073183074869
 10
7.045340187826162
 20
11.55550952764717
 10
7.05419865779087
 20
11.5935681393474
 10
7.059776212953834
 20
11.6345795743692
 10
7.06174476183488
 20
11.67755955827204
 10
7.060104304434009
 20
11.72250809105593
 10
7.055182932231393
 20
11.76811280680017
 10
7.046652553746859
 20
11.81437370550476
 10
7.034841260460582
 20
11.85997842124899
 10
7.01974905237256
 20
11.90492695403288
 10
7.00170402096297
 20
11.94856312089607
 10
6.981362349192158
 20
11.98957455591787
 10
6.958067854099778
 20
12.02828935057845
 10
6.933132901606525
 20
12.06339513895711
 10
6.906229400232226
 20
12.09489192105385
 10
6.877685441457055
 20
12.12212351390832
 10
6.848485299721536
 20
12.14508991752053
 10
6.818628975025668
 20
12.16280685744994
 10
6.7887726503298
 20
12.17560242517675
  0
LWPOLYLINE
  5
1FF2
330
1E
100
AcDbEntity
  8
0
100
AcDbPolyline
 90
       29
 70
     0
 43
0.0
 10
6.715608250250914
 20
12.1838047121811
 10
6.741855568664864
 20
12.19331936510616
 10
6.769743344479686
 20
12.19758455434843
 10
6.798943486215206
 20
12.19627218842773
 10
6.828799810911074
 20
12.18971035882424
 10
6.858984227087116
 20
12.17724288257762
 10
6.889168643263159
 20
12.15985403412837
 10
6.918696876478852
 20
12.13754381347652
 10
6.947240835254024
 20
12.11031222062204
 10
6.974472428108496
 20
12.0788154385253
 10
7.000063563562098
 20
12.04370965014665
 10
7.023358058654478
 20
12.00499485548607
 10
7.044355913385638
 20
11.9636553289841
 10
7.062400944795228
 20
11.9200191621209
 10
7.077821244363425
 20
11.87474253785684
 10
7.089632537649702
 20
11.82848163915225
 10
7.098491007614411
 20
11.78222074044767
 10
7.103412379817026
 20
11.73595984174308
 10
7.105052837217899
 20
11.69068321747902
 10
7.103084288336852
 20
11.647375142096
 10
7.097506733173887
 20
11.60603561559403
 10
7.088648263209179
 20
11.56764891241363
 10
7.076180786962553
 20
11.53287121551514
 10
7.060432395914183
 20
11.50170252489858
 10
7.042059273024419
 20
11.47512711500445
 10
7.020733326813084
 20
11.45281689435259
 10
6.997110740240529
 20
11.43575613738353
 10
6.971191513306752
 20
11.42427293557742
 10
6.943959920452279
 20
11.41771110597394
  0
LWPOLYLINE
  5
2011
330
1E
100
AcDbEntity
  8
0
100
AcDbPolyline
 90
       14
 70
     0
 43
0.0
 10
7.009578216487154
 20
11.57060173573519
 10
7.017780503491514
 20
11.60866034743542
 10
7.022373784213955
 20
11.64967178245722
 10
7.023029967174304
 20
11.69265176636006
 10
7.020405235332908
 20
11.73727220766378
 10
7.013843405729422
 20
11.78287692340802
 10
7.00400066132419
 20
11.82815354767208
 10
6.990548910637041
 20
11.87310208045597
 10
6.974144336628322
 20
11.91673824731916
 10
6.954458847817859
 20
11.95807777382113
 10
6.932476718646176
 20
11.99712065996188
 10
6.908197949113272
 20
12.03255453982072
 10
6.881950630699323
 20
12.06437941339763
 10
6.8540628548845
 20
12.09193909773228
  0
LWPOLYLINE
  5
2021
330
1E
100
AcDbEntity
  8
0
100
AcDbPolyline
 90
       14
 70
     0
 43
0.0
 10
6.940679005650536
 20
12.11785832466605
 10
6.968566781465358
 20
12.09029864033141
 10
6.994814099879308
 20
12.05847376675449
 10
7.019092869412212
 20
12.02303988689566
 10
7.041403090064068
 20
11.98399700075491
 10
7.060760487394357
 20
11.94265747425294
 10
7.077493152883251
 20
11.89902130738975
 10
7.090616812090225
 20
11.85407277460586
 10
7.100787647975631
 20
11.80879615034179
 10
7.107021386098944
 20
11.76319143459755
 10
7.109974209420514
 20
11.71857099329384
 10
7.108989934979991
 20
11.67559100939099
 10
7.104396654257549
 20
11.6345795743692
 10
7.09619436725319
 20
11.59652096266897
  0
LWPOLYLINE
  5
2031
330
1E
100
AcDbEntity
  8
0
100
AcDbPolyline
 90
        3
 70
     0
 43
0.0
 10
6.745464574946782
 20
12.16247876596977
 10
6.71757679913196
 20
12.1696967785336
 10
6.690345206277488
 20
12.17199341889482
  0
LWPOLYLINE
  5
2036
330
1E
100
AcDbEntity
  8
0
100
AcDbPolyline
 90
       23
 70
     0
 43
0.0
 10
6.902620393950309
 20
11.40589981268766
 10
6.927227254963386
 20
11.42164820373603
 10
6.949537475615244
 20
11.44231796698701
 10
6.968894872945532
 20
11.46823719392079
 10
6.98529944695425
 20
11.49842161009683
 10
6.9987511976414
 20
11.53254312403497
 10
7.008922033526806
 20
11.57060173573519
 10
7.015155771650119
 20
11.61128507927682
 10
7.018108594971689
 20
11.65459315465984
 10
7.01745241201134
 20
11.6998697789239
 10
7.012859131288898
 20
11.74613067762849
 10
7.004984935764714
 20
11.79304775929342
 10
6.99350173395861
 20
11.83996484095836
 10
6.978737617350764
 20
11.88556955670259
 10
6.961020677421347
 20
11.92986190652614
 10
6.940350914170362
 20
11.97218570746863
 10
6.917056419077981
 20
12.01155668508955
 10
6.891793375104554
 20
12.04764674790874
 10
6.86456178225008
 20
12.080127804446
 10
6.835689731994735
 20
12.10801558026082
 10
6.806161498779042
 20
12.1313100753532
 10
6.775977082602999
 20
12.14968319824297
 10
6.745464574946782
 20
12.16247876596977
  0
LWPOLYLINE
  5
204F
330
1E
100
AcDbEntity
  8
0
100
AcDbPolyline
 90
       29
 70
     0
 43
0.0
 10
6.758916325633931
 20
12.1966002799079
 10
6.785163644047882
 20
12.20644302431313
 10
6.813379511342878
 20
12.2107082135554
 10
6.842251561598223
 20
12.2093958476347
 10
6.872107886294092
 20
12.20250592655104
 10
6.902292302470134
 20
12.19036654178459
 10
6.932476718646176
 20
12.17297769333535
 10
6.96200495186187
 20
12.15033938120332
 10
6.990548910637041
 20
12.12310778834884
 10
7.017780503491514
 20
12.09193909773228
 10
7.043371638945115
 20
12.05650521787345
 10
7.066666134037497
 20
12.01779042321287
 10
7.087663988768657
 20
11.9764508967109
 10
7.106037111658421
 20
11.9328147298477
 10
7.121129319746442
 20
11.88753810558364
 10
7.133268704512895
 20
11.84160529835923
 10
7.141799082997428
 20
11.79501630817447
 10
7.147048546680219
 20
11.74875540946988
 10
7.14868900408109
 20
11.70380687668599
 10
7.146392363719869
 20
11.6601707098228
 10
7.140814808556905
 20
11.619159274801
 10
7.131956338592197
 20
11.5807725716206
 10
7.119488862345571
 20
11.54566678324194
 10
7.1037404712972
 20
11.51482618410555
 10
7.085367348407435
 20
11.48792268273125
 10
7.064041402196101
 20
11.46594055355957
 10
7.040418815623546
 20
11.4488797965905
 10
7.014827680169945
 20
11.43706850330422
 10
6.987267995835297
 20
11.43083476518091
  0
LWPOLYLINE
  5
206E
330
1E
100
AcDbEntity
  8
0
100
AcDbPolyline
 90
       14
 70
     0
 43
0.0
 10
6.966270141104137
 20
11.55747807652822
 10
6.974144336628322
 20
11.59520859674827
 10
6.978737617350764
 20
11.63523575732954
 10
6.979721891791287
 20
11.67755955827204
 10
6.977425251430066
 20
11.72119572513523
 10
6.971191513306752
 20
11.76581616643895
 10
6.961676860381696
 20
11.81076469922284
 10
6.948881292654895
 20
11.8547289575662
 10
6.933132901606525
 20
11.89770894146905
 10
6.914431687236586
 20
11.93904846797102
 10
6.893105741025252
 20
11.97743517115142
 10
6.869483154452696
 20
12.01319714249043
 10
6.843892018999095
 20
12.04535010754752
 10
6.816988517624796
 20
12.07323788336234
  0
LWPOLYLINE
  5
207E
330
1E
100
AcDbEntity
  8
0
100
AcDbPolyline
 90
       14
 70
     0
 43
0.0
 10
6.984315172513728
 20
12.13065389239285
 10
7.011874856848375
 20
12.10342229953838
 10
7.038122175262325
 20
12.07159742596147
 10
7.062729036275404
 20
12.03583545462246
 10
7.084711165447087
 20
11.99712065996188
 10
7.104068562777374
 20
11.95545304197974
 10
7.120801228266268
 20
11.91214496659672
 10
7.134252978953417
 20
11.86719643381283
 10
7.144095723358649
 20
11.82159171806859
 10
7.150657552962137
 20
11.77631509380453
 10
7.153282284803531
 20
11.73169465250081
 10
7.152626101843182
 20
11.68838657711779
 10
7.148032821120741
 20
11.64770323357617
 10
7.139830534116383
 20
11.60931653039577
  0
LWPOLYLINE
  5
208E
330
1E
100
AcDbEntity
  8
0
100
AcDbPolyline
 90
        5
 70
     0
 43
0.0
 10
6.916728327597806
 20
11.44264605846719
 10
6.934773359007397
 20
11.47119001724236
 10
6.949865567095418
 20
11.5039991652598
 10
6.961676860381696
 20
11.54074541103933
 10
6.969551055905881
 20
11.58110066310077
  0
LWPOLYLINE
  5
2095
330
1E
100
AcDbEntity
  8
0
100
AcDbPolyline
 90
       12
 70
     0
 43
0.0
 10
6.972175787747276
 20
11.60242660931211
 10
6.97480051958867
 20
11.6460627761753
 10
6.973816245148148
 20
11.69133940043937
 10
6.968894872945532
 20
11.73792839062413
 10
6.960692585941172
 20
11.78484547228906
 10
6.948881292654895
 20
11.83143446247382
 10
6.933789084566874
 20
11.87703917821806
 10
6.915744053157284
 20
11.9213315280416
 10
6.894746198426124
 20
11.96332723750392
 10
6.871123611853568
 20
12.00269821512485
 10
6.845532476399966
 20
12.03846018646385
 10
6.817972792065319
 20
12.07028506004077
  0
LWPOLYLINE
  5
20A3
330
1E
100
AcDbEntity
  8
0
100
AcDbPolyline
 90
       29
 70
     0
 43
0.0
 10
6.80222440101695
 20
12.20972393911488
 10
6.828799810911074
 20
12.21923859203994
 10
6.856687586725895
 20
12.2235037812822
 10
6.885887728461415
 20
12.2221914153615
 10
6.915744053157284
 20
12.21530149427785
 10
6.945928469333326
 20
12.20316210951139
 10
6.975784794029194
 20
12.18577326106215
 10
7.005313027244888
 20
12.16346304041029
 10
7.034185077500233
 20
12.13623144755582
 10
7.061088578874532
 20
12.10473466545908
 10
7.086679714328133
 20
12.06962887708042
 10
7.109974209420514
 20
12.03091408241984
 10
7.130972064151674
 20
11.98957455591787
 10
7.149345187041438
 20
11.94593838905468
 10
7.164437395129461
 20
11.90066176479062
 10
7.176576779895912
 20
11.85440086608603
 10
7.185107158380446
 20
11.80781187590127
 10
7.190356622063236
 20
11.76187906867686
 10
7.191997079464108
 20
11.71660244441279
 10
7.190028530583061
 20
11.67329436902978
 10
7.184450975420097
 20
11.6319548425278
 10
7.175264413975215
 20
11.5935681393474
 10
7.162796937728588
 20
11.55879044244892
 10
7.147376638160393
 20
11.52762175183235
 10
7.128675423790453
 20
11.50071825045805
 10
7.107349477579118
 20
11.47873612128637
 10
7.083726891006564
 20
11.4616753643173
 10
7.058135755552962
 20
11.44986407103103
 10
7.030576071218314
 20
11.44363033290771
  0
LWPOLYLINE
  5
20C2
330
1E
100
AcDbEntity
  8
0
100
AcDbPolyline
 90
        3
 70
     0
 43
0.0
 10
6.903932759871006
 20
11.84685476204202
 10
6.895074289906298
 20
11.87113353157492
 10
6.88555963698124
 20
11.89475611814748
  0
LWPOLYLINE
  5
20C7
330
1E
100
AcDbEntity
  8
0
100
AcDbPolyline
 90
       14
 70
     0
 43
0.0
 10
7.183138609499399
 20
11.62211209812257
 10
7.191340896503758
 20
11.66049880130297
 10
7.195934177226201
 20
11.70151023632477
 10
7.196918451666723
 20
11.74449022022761
 10
7.193965628345154
 20
11.78911066153133
 10
7.187403798741666
 20
11.83471537727557
 10
7.177561054336435
 20
11.87999200153963
 10
7.164109303649285
 20
11.92494053432352
 10
7.147704729640567
 20
11.96857670118671
 10
7.128019240830104
 20
12.00991622768868
 10
7.106037111658421
 20
12.04863102234926
 10
7.081758342125517
 20
12.08439299368827
 10
7.055511023711567
 20
12.11621786726518
 10
7.027623247896745
 20
12.14377755159983
  0
LWPOLYLINE
  5
20D7
330
1E
100
AcDbEntity
  8
0
100
AcDbPolyline
 90
       14
 70
     0
 43
0.0
 10
7.325202220414904
 20
11.65492124614001
 10
7.296986353119908
 20
11.6844494793557
 10
7.270739034705957
 20
11.71791481033349
 10
7.246132173692879
 20
11.75498914759319
 10
7.223821953041023
 20
11.79501630817447
 10
7.204136464230559
 20
11.83766820059714
 10
7.187403798741666
 20
11.88228864190085
 10
7.173623956574343
 20
11.92822144912526
 10
7.163125029208762
 20
11.97481043931003
 10
7.1562351081251
 20
12.02139942949479
 10
7.152954193323357
 20
12.0673322367192
 10
7.153282284803531
 20
12.11162458654274
 10
7.156891291085449
 20
12.15427647896541
 10
7.164437395129461
 20
12.19397554806651
  0
LWPOLYLINE
  5
20E7
330
1E
100
AcDbEntity
  8
0
100
AcDbPolyline
 90
       23
 70
     0
 43
0.0
 10
7.236289429287648
 20
12.30487046836545
 10
7.214635391596139
 20
12.28551307103516
 10
7.195606085746026
 20
12.26123430150225
 10
7.179201511737307
 20
12.23269034272709
 10
7.166077852530332
 20
12.19955310322947
 10
7.156563199605275
 20
12.16313494893012
 10
7.150329461481963
 20
12.12376397130919
 10
7.147704729640567
 20
12.08176826184687
 10
7.14868900408109
 20
12.03813209498368
 10
7.153282284803531
 20
11.99318356219979
 10
7.161484571807891
 20
11.9482350294159
 10
7.173295865094168
 20
11.90328649663201
 10
7.188059981702015
 20
11.85932223828864
 10
7.206105013111606
 20
11.81699843734615
 10
7.226774776362592
 20
11.77697127676488
 10
7.249741179974797
 20
11.73989693950517
 10
7.275004223948225
 20
11.70610351704721
 10
7.301579633842349
 20
11.67657528383152
 10
7.329795501137345
 20
11.65131223985809
 10
7.358667551392691
 20
11.63097056808728
 10
7.388195784608384
 20
11.61555026851908
 10
7.417395926343903
 20
11.60603561559403
 10
7.445939885119075
 20
11.60144233487159
  0
LWPOLYLINE
  5
2100
330
1E
100
AcDbEntity
  8
0
100
AcDbPolyline
 90
       21
 70
     0
 43
0.0
 10
7.445939885119075
 20
11.62309637256309
 10
7.417067834863729
 20
11.63523575732954
 10
7.388523876088559
 20
11.65262460577879
 10
7.360308008793563
 20
11.67493482643065
 10
7.333404507419263
 20
11.70183832780494
 10
7.307485280485488
 20
11.73267892694134
 10
7.283862693912933
 20
11.76712853235964
 10
7.261880564741249
 20
11.80453096109953
 10
7.242523167410961
 20
11.84488621316097
 10
7.226118593402243
 20
11.88721001410347
 10
7.212666842715093
 20
11.93051808948649
 10
7.202167915349513
 20
11.97481043931003
 10
7.194949902785677
 20
12.01910278913357
 10
7.191668987983933
 20
12.06306704747693
 10
7.191340896503758
 20
12.10539084841943
 10
7.194949902785677
 20
12.14607419196105
 10
7.201839823869338
 20
12.18446089514145
 10
7.212010659754744
 20
12.21956668352011
 10
7.225462410441894
 20
12.25106346561685
 10
7.241866984450613
 20
12.2786231499515
 10
7.260896290300727
 20
12.3015895535637
  0
LWPOLYLINE
  5
2117
330
1E
100
AcDbEntity
  8
0
100
AcDbPolyline
 90
        3
 70
     0
 43
0.0
 10
7.464969190969188
 20
11.6178469088803
 10
7.455454538044131
 20
11.62014354924153
 10
7.445939885119075
 20
11.62309637256309
  0
LWPOLYLINE
  5
211C
330
1E
100
AcDbEntity
  8
0
100
AcDbPolyline
 90
        4
 70
     0
 43
0.0
 10
7.121129319746442
 20
12.18117998033971
 10
7.113255124222257
 20
12.13754381347652
 10
7.109318026460165
 20
12.09095482329176
 10
7.109974209420514
 20
12.04239728422595
  0
LWPOLYLINE
  5
2122
330
1E
100
AcDbEntity
  8
0
100
AcDbPolyline
 90
        4
 70
     0
 43
0.0
 10
7.196590360186549
 20
11.7523644157518
 10
7.222837678600498
 20
11.71102488924983
 10
7.251381637375669
 20
11.6742786434703
 10
7.281894145031887
 20
11.64212567841321
  0
LWPOLYLINE
  5
2128
330
1E
100
AcDbEntity
  8
0
100
AcDbPolyline
 90
       14
 70
     0
 43
0.0
 10
7.368510295797921
 20
11.66804490534698
 10
7.340622519983099
 20
11.6972450470825
 10
7.314047110088976
 20
11.73071037806029
 10
7.289440249075897
 20
11.76778471531999
 10
7.267130028424039
 20
11.80813996738144
 10
7.247444539613577
 20
11.85079185980411
 10
7.230711874124684
 20
11.89541230110783
 10
7.216932031957361
 20
11.94134510833224
 10
7.206433104591781
 20
11.987934098517
 10
7.199543183508119
 20
12.03419499722159
 10
7.196262268706375
 20
12.080127804446
 10
7.196590360186549
 20
12.12474824574972
 10
7.200527457948641
 20
12.16707204669221
 10
7.207745470512477
 20
12.20709920727348
  0
LWPOLYLINE
  5
2138
330
1E
100
AcDbEntity
  8
0
100
AcDbPolyline
 90
        9
 70
     0
 43
0.0
 10
7.212994934195268
 20
12.3042142854051
 10
7.188716164662364
 20
12.2887939858369
 10
7.16673403549068
 20
12.26779613110574
 10
7.147704729640567
 20
12.24154881269179
 10
7.131956338592197
 20
12.2107082135554
 10
7.119488862345571
 20
12.17593051665692
 10
7.110630392380862
 20
12.13721572199634
 10
7.105380928698073
 20
12.0955481040142
 10
7.104396654257549
 20
12.05158384567083
  0
LWPOLYLINE
  5
2143
330
1E
100
AcDbEntity
  8
0
100
AcDbPolyline
 90
        9
 70
     0
 43
0.0
 10
7.196918451666723
 20
11.74120930542587
 10
7.221853404159976
 20
11.70511924260669
 10
7.249084997014449
 20
11.67329436902978
 10
7.277628955789619
 20
11.64573468469513
 10
7.307157189005313
 20
11.62309637256309
 10
7.337341605181356
 20
11.60603561559403
 10
7.367526021357399
 20
11.59455241378792
 10
7.397382346053267
 20
11.58897485862496
 10
7.426254396308612
 20
11.58930295010514
  0
LWPOLYLINE
  5
214E
330
1E
100
AcDbEntity
  8
0
100
AcDbPolyline
 90
       20
 70
     0
 43
0.0
 10
7.48235803941843
 20
11.63851667213129
 10
7.45381408064326
 20
11.65196842281844
 10
7.425270121868089
 20
11.6703415457082
 10
7.397710437533442
 20
11.69363604080059
 10
7.371135027639317
 20
11.72086763365506
 10
7.34587198366589
 20
11.7523644157518
 10
7.322577488573509
 20
11.78714211265028
 10
7.301579633842349
 20
11.82520072435051
 10
7.28287841947241
 20
11.86522788493178
 10
7.266801936943865
 20
11.90755168587428
 10
7.254006369217064
 20
11.9508597612573
 10
7.244163624811833
 20
11.99482401960066
 10
7.237601795208346
 20
12.03878827794403
 10
7.234648971886777
 20
12.08209635332705
 10
7.234977063366951
 20
12.12409206278937
 10
7.238914161129043
 20
12.16411922337064
 10
7.246132173692879
 20
12.20152165211052
 10
7.256631101058459
 20
12.23597125752883
 10
7.270410943225783
 20
12.2671399481454
 10
7.286815517234503
 20
12.29404344951969
  0
LWPOLYLINE
  5
2164
330
1E
100
AcDbEntity
  8
0
100
AcDbPolyline
 90
        3
 70
     0
 43
0.0
 10
7.077493152883251
 20
12.16805632113273
 10
7.071259414759937
 20
12.13623144755582
 10
7.067322316997845
 20
12.10243802509786
  0
LWPOLYLINE
  5
2169
330
1E
100
AcDbEntity
  8
0
100
AcDbPolyline
 90
        3
 70
     0
 43
0.0
 10
7.193965628345154
 20
11.67854383271257
 10
7.215619666036663
 20
11.65262460577879
 10
7.238586069648869
 20
11.62900201920623
  0
LWPOLYLINE
  5
216E
330
1E
100
AcDbEntity
  8
0
100
AcDbPolyline
 90
       12
 70
     0
 43
0.0
 10
7.279925596150841
 20
12.29634008988091
 10
7.251709728855844
 20
12.30323001096458
 10
7.224150044521197
 20
12.30519855984562
 10
7.197902726107246
 20
12.3015895535637
 10
7.172967773613994
 20
12.29305917507917
 10
7.149673278521613
 20
12.27927933291185
 10
7.128675423790453
 20
12.26057811854191
 10
7.109974209420514
 20
12.23728362344953
 10
7.093897726891968
 20
12.20972393911488
 10
7.081102159165169
 20
12.17855524849831
 10
7.071259414759937
 20
12.14377755159983
 10
7.064369493676275
 20
12.10604703137978
  0
LWPOLYLINE
  5
217C
330
1E
100
AcDbEntity
  8
0
100
AcDbPolyline
 90
       14
 70
     0
 43
0.0
 10
7.193309445384805
 20
11.67395055199012
 10
7.221197221199627
 20
11.64442231877443
 10
7.250069271454972
 20
11.61981545776135
 10
7.279925596150841
 20
11.60045806043106
 10
7.309781920846708
 20
11.58635012678356
 10
7.339966337022751
 20
11.5781478397792
 10
7.369166478758271
 20
11.57552310793781
 10
7.397054254573093
 20
11.57880402273955
 10
7.423629664467217
 20
11.58799058418444
 10
7.447908434000121
 20
11.60308279227246
 10
7.469890563171803
 20
11.62342446404327
 10
7.489247960502092
 20
11.64868750801669
 10
7.505324443030636
 20
11.67887192419274
 10
7.518120010757437
 20
11.71332152961105
  0
LWPOLYLINE
  5
218C
330
1E
100
AcDbEntity
  8
0
100
AcDbPolyline
 90
        3
 70
     0
 43
0.0
 10
7.357683276952167
 20
12.25106346561685
 10
7.319296573771765
 20
12.27829505847132
 10
7.279925596150841
 20
12.29634008988091
  0
LWPOLYLINE
  5
2191
330
1E
100
AcDbEntity
  8
0
100
AcDbPolyline
 90
       20
 70
     0
 43
0.0
 10
7.742534583196711
 20
11.6729662775496
 10
7.748112138359674
 20
11.67624719235134
 10
7.754017785002814
 20
11.68248093047466
 10
7.76123579756665
 20
11.69494840672128
 10
7.76582907828909
 20
11.70840015740843
 10
7.769109993090834
 20
11.72217999957576
 10
7.773703273813276
 20
11.75991051979581
 10
7.774359456773625
 20
11.79796913149604
 10
7.773375182333102
 20
11.83504346875574
 10
7.770750450491707
 20
11.89147520334573
 10
7.768125718650312
 20
11.93872037649085
 10
7.764516712368394
 20
11.98596554963595
 10
7.760579614606301
 20
12.01811851469304
 10
7.754017785002814
 20
12.04863102234926
 10
7.748112138359674
 20
12.06503559635798
 10
7.742862674676885
 20
12.07487834076321
 10
7.736300845073397
 20
12.08275253628739
 10
7.730395198430258
 20
12.08603345108914
 10
7.723505277346596
 20
12.08701772552966
 10
7.721536728465551
 20
12.08636154256931
  0
LWPOLYLINE
  5
21A7
330
1E
100
AcDbEntity
  8
0
100
AcDbPolyline
 90
        3
 70
     0
 43
0.0
 10
7.715631081822412
 20
11.60308279227246
 10
7.730395198430258
 20
11.63654812325024
 10
7.742534583196711
 20
11.6729662775496
  0
LWPOLYLINE
  5
21AC
330
1E
100
AcDbEntity
  8
0
100
AcDbPolyline
 90
       20
 70
     0
 43
0.0
 10
7.488591777541743
 20
11.47611138944497
 10
7.494825515665056
 20
11.47840802980619
 10
7.503683985629765
 20
11.48168894460794
 10
7.51680764483674
 20
11.48693840829073
 10
7.528618938123017
 20
11.49218787197352
 10
7.539445956968771
 20
11.49710924417614
 10
7.565693275382722
 20
11.51023290338311
 10
7.588659678994928
 20
11.52237228814956
 10
7.609657533726088
 20
11.53385548995567
 10
7.63459248621934
 20
11.54763533212299
 10
7.659855530192768
 20
11.56141517429031
 10
7.683478116765322
 20
11.57453883349729
 10
7.704147880016308
 20
11.58700630974391
 10
7.720552454025026
 20
11.59783332858967
 10
7.725145734747468
 20
11.60177042635176
 10
7.726458100668166
 20
11.60373897523281
 10
7.725473826227642
 20
11.60472324967333
 10
7.722521002906074
 20
11.60472324967333
 10
7.717271539223283
 20
11.60341088375263
 10
7.715631081822412
 20
11.60308279227246
  0
LWPOLYLINE
  5
21C7
330
1E
100
AcDbEntity
  8
0
100
AcDbPolyline
 90
        3
 70
     0
 43
0.0
 10
7.438721872555237
 20
12.46399483625002
 10
7.407553181938673
 20
12.47679040397682
 10
7.377040674282456
 20
12.48499269098118
  0
LWPOLYLINE
  5
21CC
330
1E
100
AcDbEntity
  8
0
100
AcDbPolyline
 90
       20
 70
     0
 43
0.0
 10
7.686759031567066
 20
12.17757097405779
 10
7.691680403769682
 20
12.18019570589919
 10
7.6952894100516
 20
12.1851170781018
 10
7.696601775972297
 20
12.19430363954669
 10
7.694633227091252
 20
12.20414638395191
 10
7.691024220809334
 20
12.21398912835715
 10
7.675932012721312
 20
12.24089262973144
 10
7.65624652391085
 20
12.26746803962557
 10
7.634920577699515
 20
12.29338726655935
 10
7.609657533726088
 20
12.32389977421556
 10
7.584066398272486
 20
12.35474037335195
 10
7.557490988378362
 20
12.384924789528
 10
7.528290846642843
 20
12.41412493126351
 10
7.49580979010558
 20
12.44135652411799
 10
7.480389490537383
 20
12.45218354296374
 10
7.469234380211455
 20
12.45808918960688
 10
7.457423086925178
 20
12.46268247032932
 10
7.448892708440643
 20
12.46465101921037
 10
7.44036232995611
 20
12.46465101921037
 10
7.438721872555237
 20
12.46399483625002
  0
LWPOLYLINE
  5
21E2
330
1E
100
AcDbEntity
  8
0
100
AcDbPolyline
 90
        3
 70
     0
 43
0.0
 10
7.721536728465551
 20
12.08636154256931
 10
7.705460245937006
 20
12.1326224412739
 10
7.686759031567066
 20
12.17757097405779
  0
LWPOLYLINE
  5
21E7
330
1E
100
AcDbEntity
  8
0
100
AcDbPolyline
 90
        4
 70
     0
 43
0.0
 10
7.296658261639733
 20
11.55485334468683
 10
7.258927741419681
 20
11.57191410165589
 10
7.221197221199627
 20
11.59717714562932
 10
7.185107158380446
 20
11.62998629364676
  0
LWPOLYLINE
  5
21ED
330
1E
100
AcDbEntity
  8
0
100
AcDbPolyline
 90
       38
 70
     0
 43
0.0
 10
7.033528894539884
 20
12.13852808791704
 10
7.042715455984767
 20
12.17593051665692
 10
7.055182932231393
 20
12.21038012207523
 10
7.070931323279763
 20
12.24089262973144
 10
7.089632537649702
 20
12.26681185666522
 10
7.110630392380862
 20
12.28846589435673
 10
7.134252978953417
 20
12.30487046836545
 10
7.159844114407018
 20
12.31602557869138
 10
7.187075707261492
 20
12.32225931681469
 10
7.215619666036663
 20
12.32258740829486
 10
7.244819807772183
 20
12.31766603609225
 10
7.27467613246805
 20
12.30749520020684
 10
7.304532457163919
 20
12.29207490063865
 10
7.334060690379613
 20
12.27173322886784
 10
7.362604649154783
 20
12.24647018489441
 10
7.390164333489431
 20
12.21694195167872
 10
7.416083560423206
 20
12.18347662070093
 10
7.440034238475936
 20
12.14640228344123
 10
7.461688276167445
 20
12.10637512285995
 10
7.481045673497733
 20
12.06405132191746
 10
7.497122156026277
 20
12.01975897209392
 10
7.510245815233252
 20
11.97448234782985
 10
7.520416651118658
 20
11.92854954060544
 10
7.526978480722146
 20
11.88261673338103
 10
7.529931304043715
 20
11.83734010911696
 10
7.52960321256354
 20
11.79370394225377
 10
7.525666114801448
 20
11.75170823279145
 10
7.518120010757437
 20
11.7126653466507
 10
7.507292991911683
 20
11.67657528383152
 10
7.493185058264185
 20
11.64376613581408
 10
7.476124301295117
 20
11.61555026851908
 10
7.456438812484655
 20
11.59127149898618
 10
7.434128591832797
 20
11.57224219313607
 10
7.409521730819719
 20
11.55813425948857
 10
7.383274412405769
 20
11.54894769804369
 10
7.355386636590947
 20
11.54566678324194
 10
7.326514586335601
 20
11.54763533212299
 10
7.296658261639733
 20
11.55485334468683
  0
LINE
  5
2215
330
1E
100
AcDbEntity
  8
0
100
AcDbLine
 10
7.531571761444586
 20
12.1313100753532
 30
0.0
 11
7.686759031567066
 21
12.17757097405779
 31
0.0
  0
LWPOLYLINE
  5
2216
330
1E
100
AcDbEntity
  8
0
100
AcDbPolyline
 90
        3
 70
     0
 43
0.0
 10
7.566677549823245
 20
12.0404287353449
 10
7.550272975814526
 20
12.08636154256931
 10
7.531571761444586
 20
12.1313100753532
  0
LINE
  5
221B
330
1E
100
AcDbEntity
  8
0
100
AcDbLine
 10
7.72153672846555
 20
12.08636154256931
 30
0.0
 11
7.566677549823245
 21
12.0404287353449
 31
0.0
  0
LINE
  5
221C
330
1E
100
AcDbEntity
  8
0
100
AcDbLine
 10
7.283534602432759
 20
12.41806202902561
 30
0.0
 11
7.438721872555238
 21
12.46399483625002
 31
0.0
  0
LINE
  5
221D
330
1E
100
AcDbEntity
  8
0
100
AcDbLine
 10
7.531571761444586
 20
12.1313100753532
 30
0.0
 11
7.283534602432759
 21
12.41806202902561
 31
0.0
  0
LINE
  5
221E
330
1E
100
AcDbEntity
  8
0
100
AcDbLine
 10
7.221853404159976
 20
12.43873179227659
 30
0.0
 11
7.377040674282455
 21
12.48499269098118
 31
0.0
  0
LWPOLYLINE
  5
221F
330
1E
100
AcDbEntity
  8
0
100
AcDbPolyline
 90
        3
 70
     0
 43
0.0
 10
7.283534602432759
 20
12.41806202902561
 10
7.252694003296367
 20
12.43052950527223
 10
7.221853404159976
 20
12.4387317922766
  0
LINE
  5
2224
330
1E
100
AcDbEntity
  8
0
100
AcDbLine
 10
7.221853404159976
 20
12.43873179227659
 30
0.0
 11
6.994814099879308
 21
12.31208848092928
 31
0.0
  0
LWPOLYLINE
  5
2225
330
1E
100
AcDbEntity
  8
0
100
AcDbPolyline
 90
        3
 70
     0
 43
0.0
 10
6.994814099879308
 20
12.31208848092928
 10
6.980049983271461
 20
12.27829505847132
 10
6.967910598505008
 20
12.24187690417197
  0
LINE
  5
222A
330
1E
100
AcDbEntity
  8
0
100
AcDbLine
 10
6.967910598505009
 20
12.24187690417197
 30
0.0
 11
6.970535330346404
 21
12.18938226734407
 31
0.0
  0
LINE
  5
222B
330
1E
100
AcDbEntity
  8
0
100
AcDbLine
 10
7.167718309931204
 20
11.57092982721537
 30
0.0
 11
7.271723309146481
 21
11.45084834547155
 31
0.0
  0
LINE
  5
222C
330
1E
100
AcDbEntity
  8
0
100
AcDbLine
 10
7.333404507419263
 20
11.42985049074039
 30
0.0
 11
7.488591777541743
 21
11.47611138944497
 31
0.0
  0
LWPOLYLINE
  5
222D
330
1E
100
AcDbEntity
  8
0
100
AcDbPolyline
 90
        3
 70
     0
 43
0.0
 10
7.271723309146481
 20
11.45084834547155
 10
7.302563908282872
 20
11.43805277774475
 10
7.333404507419263
 20
11.42985049074039
  0
LINE
  5
2232
330
1E
100
AcDbEntity
  8
0
100
AcDbLine
 10
7.560443811699932
 20
11.55682189356787
 30
0.0
 11
7.715631081822411
 21
11.60308279227246
 31
0.0
  0
LINE
  5
2233
330
1E
100
AcDbEntity
  8
0
100
AcDbLine
 10
7.333404507419263
 20
11.42985049074039
 30
0.0
 11
7.560443811699932
 21
11.55682189356787
 31
0.0
  0
LINE
  5
2234
330
1E
100
AcDbEntity
  8
0
100
AcDbLine
 10
7.58734731307423
 20
11.62703347032519
 30
0.0
 11
7.74253458319671
 21
11.6729662775496
 31
0.0
  0
LWPOLYLINE
  5
2235
330
1E
100
AcDbEntity
  8
0
100
AcDbPolyline
 90
        3
 70
     0
 43
0.0
 10
7.560443811699931
 20
11.55682189356787
 10
7.575207928307779
 20
11.59028722454566
 10
7.58734731307423
 20
11.62703347032519
  0
LINE
  5
223A
330
1E
100
AcDbEntity
  8
0
100
AcDbLine
 10
7.58734731307423
 20
11.62703347032519
 30
0.0
 11
7.566677549823245
 21
12.0404287353449
 31
0.0
  0
LINE
  5
223B
330
1E
100
AcDbEntity
  8
0
100
AcDbLine
 10
6.756619685272711
 20
12.14968319824297
 30
0.0
 11
6.482335207846933
 21
12.24187690417197
 31
0.0
  0
LWPOLYLINE
  5
223C
330
1E
100
AcDbEntity
  8
0
100
AcDbPolyline
 90
        3
 70
     0
 43
0.0
 10
6.812395236902355
 20
12.08504917664862
 10
6.785163644047882
 20
12.11917069058675
 10
6.756619685272711
 20
12.14968319824297
  0
LINE
  5
2241
330
1E
100
AcDbEntity
  8
0
100
AcDbLine
 10
6.967582507024834
 20
11.68116856455396
 30
0.0
 11
6.812395236902355
 21
12.08504917664862
 31
0.0
  0
LWPOLYLINE
  5
2242
330
1E
100
AcDbEntity
  8
0
100
AcDbPolyline
 90
        3
 70
     0
 43
0.0
 10
6.972175787747276
 20
11.58799058418444
 10
6.971519604786927
 20
11.63392339140885
 10
6.967582507024834
 20
11.68116856455396
  0
LINE
  5
2247
330
1E
100
AcDbEntity
  8
0
100
AcDbLine
 10
6.853078580443978
 20
11.27630367801878
 30
0.0
 11
6.972175787747276
 21
11.58799058418444
 31
0.0
  0
LWPOLYLINE
  5
2248
330
1E
100
AcDbEntity
  8
0
100
AcDbPolyline
 90
        3
 70
     0
 43
0.0
 10
6.801896309536775
 20
11.24775971924361
 10
6.828471719430899
 20
11.25989910401006
 10
6.853078580443978
 20
11.27630367801878
  0
LINE
  5
224D
330
1E
100
AcDbEntity
  8
0
100
AcDbLine
 10
6.967582507024834
 20
11.68116856455396
 30
0.0
 11
6.81272332838253
 21
11.63490766584937
 31
0.0
  0
LINE
  5
224E
330
1E
100
AcDbEntity
  8
0
100
AcDbLine
 10
6.657536058260049
 20
12.0391163694242
 30
0.0
 11
6.812395236902355
 21
12.08504917664862
 31
0.0
  0
LINE
  5
224F
330
1E
100
AcDbEntity
  8
0
100
AcDbLine
 10
6.657536058260049
 20
12.0391163694242
 30
0.0
 11
6.81272332838253
 21
11.63490766584937
 31
0.0
  0
LINE
  5
2250
330
1E
100
AcDbEntity
  8
0
100
AcDbLine
 10
6.972175787747276
 20
11.58799058418444
 30
0.0
 11
6.81731660910497
 21
11.54172968547985
 31
0.0
  0
LWPOLYLINE
  5
2251
330
1E
100
AcDbEntity
  8
0
100
AcDbPolyline
 90
        3
 70
     0
 43
0.0
 10
6.81272332838253
 20
11.63490766584937
 10
6.816332334664448
 20
11.58766249270426
 10
6.81731660910497
 20
11.54172968547985
  0
LINE
  5
2256
330
1E
100
AcDbEntity
  8
0
100
AcDbLine
 10
6.853078580443978
 20
11.27630367801878
 30
0.0
 11
6.698219401801672
 21
11.23004277931419
 31
0.0
  0
LINE
  5
2257
330
1E
100
AcDbEntity
  8
0
100
AcDbLine
 10
6.81731660910497
 20
11.54172968547985
 30
0.0
 11
6.698219401801672
 21
11.23004277931419
 31
0.0
  0
LINE
  5
2258
330
1E
100
AcDbEntity
  8
0
100
AcDbLine
 10
6.801896309536775
 20
11.24775971924361
 30
0.0
 11
6.647037130894469
 21
11.20149882053902
 31
0.0
  0
LWPOLYLINE
  5
2259
330
1E
100
AcDbEntity
  8
0
100
AcDbPolyline
 90
        3
 70
     0
 43
0.0
 10
6.698219401801672
 20
11.23004277931419
 10
6.673284449308419
 20
11.21363820530547
 10
6.647037130894469
 20
11.20149882053902
  0
LINE
  5
225E
330
1E
100
AcDbEntity
  8
0
100
AcDbLine
 10
6.647037130894469
 20
11.20149882053902
 30
0.0
 11
6.561077163088783
 21
11.23037087079437
 31
0.0
  0
LINE
  5
225F
330
1E
100
AcDbEntity
  8
0
100
AcDbLine
 10
6.258248726887834
 20
12.12048305650745
 30
0.0
 11
6.27596566681725
 21
12.16740013817238
 31
0.0
  0
LWPOLYLINE
  5
2260
330
1E
100
AcDbEntity
  8
0
100
AcDbPolyline
 90
        3
 70
     0
 43
0.0
 10
6.27596566681725
 20
12.16740013817239
 10
6.300900619310503
 20
12.1838047121811
 10
6.327147937724453
 20
12.19594409694756
  0
LINE
  5
2265
330
1E
100
AcDbEntity
  8
0
100
AcDbLine
 10
6.482335207846933
 20
12.24187690417197
 30
0.0
 11
6.327147937724453
 21
12.19594409694755
 31
0.0
  0
LINE
  5
2266
330
1E
100
AcDbEntity
  8
0
100
AcDbLine
 10
6.327147937724453
 20
12.19594409694755
 30
0.0
 11
6.601432415150231
 21
12.10342229953838
 31
0.0
  0
LINE
  5
2267
330
1E
100
AcDbEntity
  8
0
100
AcDbLine
 10
6.756619685272711
 20
12.14968319824297
 30
0.0
 11
6.601432415150231
 21
12.10342229953838
 31
0.0
  0
LWPOLYLINE
  5
2268
330
1E
100
AcDbEntity
  8
0
100
AcDbPolyline
 90
        3
 70
     0
 43
0.0
 10
6.601432415150231
 20
12.10342229953838
 10
6.629976373925401
 20
12.07290979188216
 10
6.657536058260049
 20
12.0391163694242
  0
LWPOLYLINE
  5
226D
330
1E
100
AcDbEntity
  8
0
100
AcDbPolyline
 90
        3
 70
     0
 43
0.0
 10
6.593886311106221
 20
11.75433296463284
 10
6.585027841141513
 20
11.77861173416575
 10
6.575513188216455
 20
11.8022343207383
  0
LWPOLYLINE
  5
2272
330
1E
100
AcDbEntity
  8
0
100
AcDbPolyline
 90
        9
 70
     0
 43
0.0
 10
6.518753362146289
 20
11.95020357829695
 10
6.545000680560239
 20
11.91476969843811
 10
6.569279450093143
 20
11.87572681229736
 10
6.590933487784651
 20
11.83405919431522
 10
6.609962793634765
 20
11.78976684449168
 10
6.625711184683135
 20
11.74350594578709
 10
6.638178660929762
 20
11.69658886412215
 10
6.647037130894469
 20
11.64901559949687
 10
6.652286594577259
 20
11.60209851783194
  0
LWPOLYLINE
  5
227D
330
1E
100
AcDbEntity
  8
0
100
AcDbPolyline
 90
        3
 70
     0
 43
0.0
 10
6.631288739846099
 20
11.41475828265237
 10
6.628992099484879
 20
11.40852454452905
 10
6.626695459123658
 20
11.40229080640574
  0
LWPOLYLINE
  5
2282
330
1E
100
AcDbEntity
  8
0
100
AcDbPolyline
 90
       12
 70
     0
 43
0.0
 10
6.507926343300534
 20
11.97776326263159
 10
6.535486027635181
 20
11.94593838905468
 10
6.561077163088783
 20
11.91017641771567
 10
6.584699749661337
 20
11.87113353157492
 10
6.605697604392498
 20
11.8291378221126
 10
6.623742635802089
 20
11.78484547228906
 10
6.63883484389011
 20
11.73891266506465
 10
6.650646137176387
 20
11.69232367487989
 10
6.658848424180747
 20
11.64540659321495
 10
6.663769796383363
 20
11.59881760303019
 10
6.664754070823886
 20
11.55354097876613
 10
6.662457430462665
 20
11.50990481190294
  0
LWPOLYLINE
  5
2290
330
1E
100
AcDbEntity
  8
0
100
AcDbPolyline
 90
        5
 70
     0
 43
0.0
 10
6.659504607141096
 20
11.4885788656916
 10
6.651630411616911
 20
11.44855170511033
 10
6.639819118330633
 20
11.41147736785062
 10
6.625055001722786
 20
11.37866821983319
 10
6.606681878833021
 20
11.35012426105801
  0
LWPOLYLINE
  5
2297
330
1E
100
AcDbEntity
  8
0
100
AcDbPolyline
 90
       14
 70
     0
 43
0.0
 10
6.506942068860011
 20
11.98071608595316
 10
6.534501753194659
 20
11.952172127178
 10
6.560420980128434
 20
11.91936297916056
 10
6.584699749661337
 20
11.88261673338103
 10
6.606025695872673
 20
11.84291766427993
 10
6.625055001722786
 20
11.80059386333743
 10
6.640803392771156
 20
11.75630151351389
 10
6.653598960497957
 20
11.71102488924983
 10
6.662457430462665
 20
11.66542017350559
 10
6.668034985625629
 20
11.61981545776135
 10
6.670003534506676
 20
11.57519501645764
 10
6.668034985625629
 20
11.53254312403497
 10
6.662457430462665
 20
11.49185978049334
 10
6.652942777537608
 20
11.45445735175347
  0
LWPOLYLINE
  5
22A7
330
1E
100
AcDbEntity
  8
0
100
AcDbPolyline
 90
       24
 70
     0
 43
0.0
 10
6.397031423001595
 20
12.07389406632269
 10
6.426559656217289
 20
12.06634796227868
 10
6.456087889432983
 20
12.0532243030717
 10
6.485616122648677
 20
12.03550736314229
 10
6.514488172904021
 20
12.01254095953008
 10
6.542704040199017
 20
11.98563745815578
 10
6.569279450093143
 20
11.95414067605904
 10
6.594214402586395
 20
11.91936297916056
 10
6.616852714718427
 20
11.88097627598015
 10
6.637522477969413
 20
11.84029293243853
 10
6.655239417898829
 20
11.79731294853569
 10
6.670003534506676
 20
11.75269250723197
 10
6.681814827792953
 20
11.70741588296791
 10
6.690673297757662
 20
11.66181116722367
 10
6.695594669960277
 20
11.61653454295961
 10
6.697563218841324
 20
11.57191410165589
 10
6.695594669960277
 20
11.52926220923322
 10
6.690673297757662
 20
11.48825077421143
 10
6.682142919273127
 20
11.45052025399137
 10
6.67033162598685
 20
11.41541446561272
 10
6.655239417898829
 20
11.38457386647632
 10
6.637522477969413
 20
11.35734227362185
 10
6.617180806198601
 20
11.33503205296999
 10
6.594214402586395
 20
11.31731511304058
  0
LWPOLYLINE
  5
22C1
330
1E
100
AcDbEntity
  8
0
100
AcDbPolyline
 90
       25
 70
     0
 43
0.0
 10
6.380298757512702
 20
12.07947162148565
 10
6.409826990728396
 20
12.07684688964426
 10
6.439683315424264
 20
12.0686446026399
 10
6.470195823080481
 20
12.05486476047257
 10
6.500052147776349
 20
12.03616354610264
 10
6.529580380992043
 20
12.01254095953008
 10
6.557796248287039
 20
11.98399700075491
 10
6.584699749661337
 20
11.95151594421765
 10
6.609634702154591
 20
11.91509778991829
 10
6.632273014286623
 20
11.87572681229736
 10
6.652614686057434
 20
11.83340301135487
 10
6.670003534506676
 20
11.7894387530115
 10
6.684439559634348
 20
11.74383403726727
 10
6.695594669960277
 20
11.6972450470825
 10
6.703468865484462
 20
11.65065605689774
 10
6.707405963246555
 20
11.60472324967333
 10
6.708062146206904
 20
11.56010280836961
 10
6.705109322885334
 20
11.51712282446677
 10
6.698547493281846
 20
11.47643948092515
 10
6.688376657396441
 20
11.43903705218527
 10
6.674924906709291
 20
11.40491553824714
 10
6.658520332700573
 20
11.37505921355127
 10
6.639162935370285
 20
11.34979616957784
 10
6.617180806198601
 20
11.32912640632685
 10
6.592902036665698
 20
11.31337801527848
  0
LWPOLYLINE
  5
22DC
330
1E
100
AcDbEntity
  8
0
100
AcDbPolyline
 90
       15
 70
     0
 43
0.0
 10
6.535814119115356
 20
12.00663531288694
 10
6.563045711969829
 20
11.98137226891351
 10
6.588964938903605
 20
11.95184403569782
 10
6.613243708436509
 20
11.91870679620021
 10
6.635882020568541
 20
11.88196055042068
 10
6.655895600859178
 20
11.84291766427993
 10
6.673284449308419
 20
11.80125004629778
 10
6.687720474436092
 20
11.75827006239494
 10
6.699203676242195
 20
11.71463389553175
 10
6.70707787176638
 20
11.6703415457082
 10
6.711999243968996
 20
11.62637728736484
 10
6.713311609889693
 20
11.58372539494217
 10
6.711014969528473
 20
11.5423858684402
 10
6.705437414365508
 20
11.50367107377962
 10
6.6965789444008
 20
11.46758101096044
  0
LWPOLYLINE
  5
22ED
330
1E
100
AcDbEntity
  8
0
100
AcDbPolyline
 90
        4
 70
     0
 43
0.0
 10
6.467899182719261
 20
12.07979971296583
 10
6.434433851741474
 20
12.08767390849001
 10
6.401624703724037
 20
12.08865818293054
 10
6.370456013107471
 20
12.08275253628739
  0
LWPOLYLINE
  5
22F3
330
1E
100
AcDbEntity
  8
0
100
AcDbPolyline
 90
       25
 70
     0
 43
0.0
 10
6.591917762225175
 20
11.31140946639744
 10
6.618165080639125
 20
11.3196117534018
 10
6.642443850172028
 20
11.33339159556912
 10
6.664754070823886
 20
11.35176471845889
 10
6.684439559634348
 20
11.37505921355127
 10
6.701500316603416
 20
11.40261889788591
 10
6.715936341731088
 20
11.43444377146283
 10
6.727091452057017
 20
11.46954955984149
 10
6.734965647581202
 20
11.50793626302189
 10
6.739558928303644
 20
11.54861960656351
 10
6.740871294224341
 20
11.59159959046635
 10
6.73857465386312
 20
11.63589194028989
 10
6.732997098700156
 20
11.68116856455396
 10
6.724138628735448
 20
11.72644518881802
 10
6.711671152488822
 20
11.77139372160191
 10
6.6965789444008
 20
11.81568607142545
 10
6.67853391299121
 20
11.85800987236795
 10
6.657864149740224
 20
11.89836512442939
 10
6.634897746128018
 20
11.93609564464945
 10
6.609962793634765
 20
11.97021715858759
 10
6.583387383740641
 20
12.00105775772398
 10
6.555499607925819
 20
12.0276331676181
 10
6.526627557670474
 20
12.04994338826996
 10
6.497427415934954
 20
12.0673322367192
 10
6.467899182719261
 20
12.07979971296583
  0
LINE
  5
230E
330
1E
100
AcDbEntity
  8
0
100
AcDbLine
 10
7.955794045310055
 20
9.503625410636631
 30
0.0
 11
7.984009912605051
 21
9.477050000742506
 31
0.0
  0
LINE
  5
230F
330
1E
100
AcDbEntity
  8
0
100
AcDbLine
 10
7.825869819161002
 20
9.486564653667564
 30
0.0
 11
7.843914850570593
 21
9.503625410636631
 31
0.0
  0
LINE
  5
2310
330
1E
100
AcDbEntity
  8
0
100
AcDbLine
 10
8.039785464234695
 20
9.477050000742506
 30
0.0
 11
8.068001331529691
 21
9.503625410636631
 31
0.0
  0
LINE
  5
2311
330
1E
100
AcDbEntity
  8
0
100
AcDbLine
 10
7.527962755162668
 20
9.477050000742506
 30
0.0
 11
7.541742597329992
 21
9.503625410636631
 31
0.0
  0
LINE
  5
2312
330
1E
100
AcDbEntity
  8
0
100
AcDbLine
 10
7.541742597329992
 20
10.25364253431525
 30
0.0
 11
7.527962755162668
 21
10.28021794420937
 31
0.0
  0
LINE
  5
2313
330
1E
100
AcDbEntity
  8
0
100
AcDbLine
 10
7.55585053097749
 20
9.503625410636631
 30
0.0
 11
7.569958464624988
 21
9.477050000742506
 31
0.0
  0
LINE
  5
2314
330
1E
100
AcDbEntity
  8
0
100
AcDbLine
 10
7.499746887867672
 20
9.503625410636631
 30
0.0
 11
7.51385482151517
 21
9.477050000742506
 31
0.0
  0
LINE
  5
2315
330
1E
100
AcDbEntity
  8
0
100
AcDbLine
 10
7.51385482151517
 20
9.477050000742506
 30
0.0
 11
7.527962755162668
 21
9.477050000742506
 31
0.0
  0
LINE
  5
2316
330
1E
100
AcDbEntity
  8
0
100
AcDbLine
 10
8.011897688419873
 20
9.503625410636631
 30
0.0
 11
8.039785464234695
 21
9.477050000742506
 31
0.0
  0
LINE
  5
2317
330
1E
100
AcDbEntity
  8
0
100
AcDbLine
 10
7.569958464624988
 20
9.477050000742506
 30
0.0
 11
7.583738306792312
 21
9.477050000742506
 31
0.0
  0
LINE
  5
2318
330
1E
100
AcDbEntity
  8
0
100
AcDbLine
 10
7.425926304828437
 20
9.496079306592621
 30
0.0
 11
7.42986340259053
 21
9.503625410636631
 31
0.0
  0
LINE
  5
2319
330
1E
100
AcDbEntity
  8
0
100
AcDbLine
 10
7.485967045700348
 20
9.503625410636631
 30
0.0
 11
7.499746887867672
 21
9.503625410636631
 31
0.0
  0
LINE
  5
231A
330
1E
100
AcDbEntity
  8
0
100
AcDbLine
 10
7.871802626385414
 20
9.477050000742506
 30
0.0
 11
7.90001849368041
 21
9.503625410636631
 31
0.0
  0
LINE
  5
231B
330
1E
100
AcDbEntity
  8
0
100
AcDbLine
 10
7.47185911205285
 20
10.28021794420937
 30
0.0
 11
7.457751178405351
 21
10.28021794420937
 31
0.0
  0
LINE
  5
231C
330
1E
100
AcDbEntity
  8
0
100
AcDbLine
 10
8.068001331529691
 20
9.503625410636631
 30
0.0
 11
8.095889107344513
 21
9.477050000742506
 31
0.0
  0
LINE
  5
231D
330
1E
100
AcDbEntity
  8
0
100
AcDbLine
 10
7.59784624043981
 20
10.25364253431525
 30
0.0
 11
7.583738306792312
 21
10.28021794420937
 31
0.0
  0
LINE
  5
231E
330
1E
100
AcDbEntity
  8
0
100
AcDbLine
 10
7.42986340259053
 20
9.503625410636631
 30
0.0
 11
7.443971336238028
 21
9.503625410636631
 31
0.0
  0
LINE
  5
231F
330
1E
100
AcDbEntity
  8
0
100
AcDbLine
 10
8.151992750454331
 20
9.477050000742506
 30
0.0
 11
8.179880526269153
 21
9.503625410636631
 31
0.0
  0
LINE
  5
2320
330
1E
100
AcDbEntity
  8
0
100
AcDbLine
 10
7.485967045700348
 20
10.25364253431525
 30
0.0
 11
7.47185911205285
 21
10.28021794420937
 31
0.0
  0
LINE
  5
2321
330
1E
100
AcDbEntity
  8
0
100
AcDbLine
 10
7.843914850570593
 20
9.503625410636631
 30
0.0
 11
7.871802626385414
 21
9.477050000742506
 31
0.0
  0
LINE
  5
2322
330
1E
100
AcDbEntity
  8
0
100
AcDbLine
 10
8.845906231023136
 20
10.40128370039372
 30
0.0
 11
8.645770428116767
 21
10.40128370039372
 31
0.0
  0
LINE
  5
2323
330
1E
100
AcDbEntity
  8
0
100
AcDbLine
 10
7.457751178405351
 20
9.477050000742506
 30
0.0
 11
7.47185911205285
 21
9.477050000742506
 31
0.0
  0
LINE
  5
2324
330
1E
100
AcDbEntity
  8
0
100
AcDbLine
 10
7.527962755162668
 20
10.28021794420937
 30
0.0
 11
7.51385482151517
 21
10.28021794420937
 31
0.0
  0
LINE
  5
2325
330
1E
100
AcDbEntity
  8
0
100
AcDbLine
 10
7.984009912605051
 20
9.477050000742506
 30
0.0
 11
8.011897688419873
 21
9.503625410636631
 31
0.0
  0
LINE
  5
2326
330
1E
100
AcDbEntity
  8
0
100
AcDbLine
 10
8.179880526269153
 20
9.503625410636631
 30
0.0
 11
8.207768302083975
 21
9.477050000742506
 31
0.0
  0
LINE
  5
2327
330
1E
100
AcDbEntity
  8
0
100
AcDbLine
 10
8.123776883159335
 20
9.503625410636631
 30
0.0
 11
8.151992750454331
 21
9.477050000742506
 31
0.0
  0
LINE
  5
2328
330
1E
100
AcDbEntity
  8
0
100
AcDbLine
 10
7.55585053097749
 20
10.25364253431525
 30
0.0
 11
7.541742597329992
 21
10.25364253431525
 31
0.0
  0
LINE
  5
2329
330
1E
100
AcDbEntity
  8
0
100
AcDbLine
 10
8.645770428116767
 20
9.356312336038337
 30
0.0
 11
8.845906231023136
 21
9.356312336038337
 31
0.0
  0
LINE
  5
232A
330
1E
100
AcDbEntity
  8
0
100
AcDbLine
 10
8.068001331529691
 20
10.25364253431525
 30
0.0
 11
8.039785464234695
 21
10.28021794420937
 31
0.0
  0
LINE
  5
232B
330
1E
100
AcDbEntity
  8
0
100
AcDbLine
 10
8.095889107344513
 20
9.477050000742506
 30
0.0
 11
8.123776883159335
 21
9.503625410636631
 31
0.0
  0
LINE
  5
232C
330
1E
100
AcDbEntity
  8
0
100
AcDbLine
 10
7.955794045310055
 20
10.25364253431525
 30
0.0
 11
7.927906269495233
 21
10.28021794420937
 31
0.0
  0
LINE
  5
232D
330
1E
100
AcDbEntity
  8
0
100
AcDbLine
 10
7.843914850570593
 20
10.25364253431525
 30
0.0
 11
7.825869819161002
 21
10.27070329128432
 31
0.0
  0
LINE
  5
232E
330
1E
100
AcDbEntity
  8
0
100
AcDbLine
 10
7.457751178405351
 20
10.28021794420937
 30
0.0
 11
7.443971336238028
 21
10.25364253431525
 31
0.0
  0
LINE
  5
232F
330
1E
100
AcDbEntity
  8
0
100
AcDbLine
 10
7.625734016254632
 20
10.28021794420937
 30
0.0
 11
7.611954174087308
 21
10.25364253431525
 31
0.0
  0
LINE
  5
2330
330
1E
100
AcDbEntity
  8
0
100
AcDbLine
 10
7.59784624043981
 20
9.503625410636631
 30
0.0
 11
7.611954174087308
 21
9.503625410636631
 31
0.0
  0
LINE
  5
2331
330
1E
100
AcDbEntity
  8
0
100
AcDbLine
 10
8.207768302083975
 20
9.477050000742506
 30
0.0
 11
8.235984169378971
 21
9.503625410636631
 31
0.0
  0
LINE
  5
2332
330
1E
100
AcDbEntity
  8
0
100
AcDbLine
 10
7.90001849368041
 20
9.503625410636631
 30
0.0
 11
7.927906269495233
 21
9.477050000742506
 31
0.0
  0
LINE
  5
2333
330
1E
100
AcDbEntity
  8
0
100
AcDbLine
 10
8.207768302083975
 20
10.28021794420937
 30
0.0
 11
8.179880526269153
 21
10.25364253431525
 31
0.0
  0
LINE
  5
2334
330
1E
100
AcDbEntity
  8
0
100
AcDbLine
 10
7.583738306792312
 20
10.28021794420937
 30
0.0
 11
7.569958464624988
 21
10.28021794420937
 31
0.0
  0
LINE
  5
2335
330
1E
100
AcDbEntity
  8
0
100
AcDbLine
 10
7.42986340259053
 20
10.25364253431525
 30
0.0
 11
7.425926304828437
 21
10.26118863835926
 31
0.0
  0
LINE
  5
2336
330
1E
100
AcDbEntity
  8
0
100
AcDbLine
 10
8.011897688419873
 20
10.25364253431525
 30
0.0
 11
7.984009912605051
 21
10.28021794420937
 31
0.0
  0
LINE
  5
2337
330
1E
100
AcDbEntity
  8
0
100
AcDbLine
 10
7.984009912605051
 20
10.28021794420937
 30
0.0
 11
7.955794045310055
 21
10.25364253431525
 31
0.0
  0
LINE
  5
2338
330
1E
100
AcDbEntity
  8
0
100
AcDbLine
 10
7.90001849368041
 20
10.25364253431525
 30
0.0
 11
7.871802626385414
 21
10.28021794420937
 31
0.0
  0
LINE
  5
2339
330
1E
100
AcDbEntity
  8
0
100
AcDbLine
 10
8.039785464234695
 20
10.28021794420937
 30
0.0
 11
8.011897688419873
 21
10.25364253431525
 31
0.0
  0
LINE
  5
233A
330
1E
100
AcDbEntity
  8
0
100
AcDbLine
 10
8.179880526269153
 20
10.25364253431525
 30
0.0
 11
8.151992750454331
 21
10.28021794420937
 31
0.0
  0
LINE
  5
233B
330
1E
100
AcDbEntity
  8
0
100
AcDbLine
 10
7.47185911205285
 20
9.477050000742506
 30
0.0
 11
7.485967045700348
 21
9.503625410636631
 31
0.0
  0
LINE
  5
233C
330
1E
100
AcDbEntity
  8
0
100
AcDbLine
 10
7.499746887867672
 20
10.25364253431525
 30
0.0
 11
7.485967045700348
 21
10.25364253431525
 31
0.0
  0
LINE
  5
233D
330
1E
100
AcDbEntity
  8
0
100
AcDbLine
 10
8.095889107344513
 20
10.28021794420937
 30
0.0
 11
8.068001331529691
 21
10.25364253431525
 31
0.0
  0
LINE
  5
233E
330
1E
100
AcDbEntity
  8
0
100
AcDbLine
 10
7.871802626385414
 20
10.28021794420937
 30
0.0
 11
7.843914850570593
 21
10.25364253431525
 31
0.0
  0
LINE
  5
233F
330
1E
100
AcDbEntity
  8
0
100
AcDbLine
 10
7.583738306792312
 20
9.477050000742506
 30
0.0
 11
7.59784624043981
 21
9.503625410636631
 31
0.0
  0
LINE
  5
2340
330
1E
100
AcDbEntity
  8
0
100
AcDbLine
 10
7.443971336238028
 20
10.25364253431525
 30
0.0
 11
7.42986340259053
 21
10.25364253431525
 31
0.0
  0
LINE
  5
2341
330
1E
100
AcDbEntity
  8
0
100
AcDbLine
 10
6.945928469333326
 20
10.35371043576843
 30
0.0
 11
6.825846987589504
 21
10.35371043576843
 31
0.0
  0
LINE
  5
2342
330
1E
100
AcDbEntity
  8
0
100
AcDbLine
 10
7.611954174087308
 20
10.25364253431525
 30
0.0
 11
7.59784624043981
 21
10.25364253431525
 31
0.0
  0
LINE
  5
2343
330
1E
100
AcDbEntity
  8
0
100
AcDbLine
 10
7.569958464624988
 20
10.28021794420937
 30
0.0
 11
7.55585053097749
 21
10.25364253431525
 31
0.0
  0
LINE
  5
2344
330
1E
100
AcDbEntity
  8
0
100
AcDbLine
 10
7.541742597329992
 20
9.503625410636631
 30
0.0
 11
7.55585053097749
 21
9.503625410636631
 31
0.0
  0
LINE
  5
2345
330
1E
100
AcDbEntity
  8
0
100
AcDbLine
 10
8.123776883159335
 20
10.25364253431525
 30
0.0
 11
8.095889107344513
 21
10.28021794420937
 31
0.0
  0
LINE
  5
2346
330
1E
100
AcDbEntity
  8
0
100
AcDbLine
 10
7.443971336238028
 20
9.503625410636631
 30
0.0
 11
7.457751178405351
 21
9.477050000742506
 31
0.0
  0
LINE
  5
2347
330
1E
100
AcDbEntity
  8
0
100
AcDbLine
 10
7.611954174087308
 20
9.503625410636631
 30
0.0
 11
7.625734016254632
 21
9.477050000742506
 31
0.0
  0
LINE
  5
2348
330
1E
100
AcDbEntity
  8
0
100
AcDbLine
 10
7.927906269495233
 20
9.477050000742506
 30
0.0
 11
7.955794045310055
 21
9.503625410636631
 31
0.0
  0
LINE
  5
2349
330
1E
100
AcDbEntity
  8
0
100
AcDbLine
 10
7.927906269495233
 20
10.28021794420937
 30
0.0
 11
7.90001849368041
 21
10.25364253431525
 31
0.0
  0
LINE
  5
234A
330
1E
100
AcDbEntity
  8
0
100
AcDbLine
 10
8.151992750454331
 20
10.28021794420937
 30
0.0
 11
8.123776883159335
 21
10.25364253431525
 31
0.0
  0
LINE
  5
234B
330
1E
100
AcDbEntity
  8
0
100
AcDbLine
 10
8.235984169378971
 20
10.25364253431525
 30
0.0
 11
8.207768302083975
 21
10.28021794420937
 31
0.0
  0
LINE
  5
234C
330
1E
100
AcDbEntity
  8
0
100
AcDbLine
 10
6.825846987589504
 20
9.403557509183446
 30
0.0
 11
6.945928469333326
 21
9.403557509183446
 31
0.0
  0
LINE
  5
234D
330
1E
100
AcDbEntity
  8
0
100
AcDbLine
 10
7.51385482151517
 20
10.28021794420937
 30
0.0
 11
7.499746887867672
 21
10.25364253431525
 31
0.0
  0
LINE
  5
234E
330
1E
100
AcDbEntity
  8
0
100
AcDbLine
 10
8.645770428116767
 20
9.356312336038337
 30
0.0
 11
8.845906231023136
 21
9.356312336038337
 31
0.0
  0
LINE
  5
234F
330
1E
100
AcDbEntity
  8
0
100
AcDbLine
 10
8.845906231023136
 20
10.40128370039372
 30
0.0
 11
8.645770428116767
 21
10.40128370039372
 31
0.0
  0
LINE
  5
2350
330
1E
100
AcDbEntity
  8
0
100
AcDbLine
 10
8.645770428116767
 20
9.661109321120331
 30
0.0
 11
8.645770428116767
 21
10.09648671531172
 31
0.0
  0
LINE
  5
2351
330
1E
100
AcDbEntity
  8
0
100
AcDbLine
 10
8.645770428116767
 20
9.358608976399557
 30
0.0
 11
8.645770428116767
 21
9.576133627755169
 31
0.0
  0
LINE
  5
2352
330
1E
100
AcDbEntity
  8
0
100
AcDbLine
 10
8.645770428116767
 20
10.18113431719671
 30
0.0
 11
8.645770428116767
 21
10.3989870600325
 31
0.0
  0
LINE
  5
2353
330
1E
100
AcDbEntity
  8
0
100
AcDbLine
 10
8.645770428116767
 20
9.661109321120331
 30
0.0
 11
8.845906231023136
 21
9.661109321120331
 31
0.0
  0
LINE
  5
2354
330
1E
100
AcDbEntity
  8
0
100
AcDbLine
 10
8.845906231023136
 20
10.09648671531172
 30
0.0
 11
8.645770428116767
 21
10.09648671531172
 31
0.0
  0
LINE
  5
2355
330
1E
100
AcDbEntity
  8
0
100
AcDbLine
 10
8.645770428116767
 20
9.576133627755169
 30
0.0
 11
8.845906231023136
 21
9.576133627755169
 31
0.0
  0
LINE
  5
2356
330
1E
100
AcDbEntity
  8
0
100
AcDbLine
 10
8.645770428116767
 20
9.358608976399557
 30
0.0
 11
8.845906231023136
 21
9.358608976399557
 31
0.0
  0
LINE
  5
2357
330
1E
100
AcDbEntity
  8
0
100
AcDbLine
 10
8.645770428116767
 20
10.3989870600325
 30
0.0
 11
8.845906231023136
 21
10.3989870600325
 31
0.0
  0
LINE
  5
2358
330
1E
100
AcDbEntity
  8
0
100
AcDbLine
 10
8.645770428116767
 20
10.18113431719671
 30
0.0
 11
8.845906231023136
 21
10.18113431719671
 31
0.0
  0
LINE
  5
2359
330
1E
100
AcDbEntity
  8
0
100
AcDbLine
 10
8.039785464234695
 20
9.477050000742506
 30
0.0
 11
8.068001331529691
 21
9.503625410636631
 31
0.0
  0
LINE
  5
235A
330
1E
100
AcDbEntity
  8
0
100
AcDbLine
 10
8.068001331529691
 20
10.25364253431525
 30
0.0
 11
8.039785464234695
 21
10.28021794420937
 31
0.0
  0
LINE
  5
235B
330
1E
100
AcDbEntity
  8
0
100
AcDbLine
 10
8.039785464234695
 20
10.28021794420937
 30
0.0
 11
8.011897688419873
 21
10.25364253431525
 31
0.0
  0
LINE
  5
235C
330
1E
100
AcDbEntity
  8
0
100
AcDbLine
 10
8.011897688419873
 20
9.503625410636631
 30
0.0
 11
8.039785464234695
 21
9.477050000742506
 31
0.0
  0
LINE
  5
235D
330
1E
100
AcDbEntity
  8
0
100
AcDbLine
 10
7.984009912605051
 20
9.477050000742506
 30
0.0
 11
8.011897688419873
 21
9.503625410636631
 31
0.0
  0
LINE
  5
235E
330
1E
100
AcDbEntity
  8
0
100
AcDbLine
 10
8.011897688419873
 20
10.25364253431525
 30
0.0
 11
7.984009912605051
 21
10.28021794420937
 31
0.0
  0
LINE
  5
235F
330
1E
100
AcDbEntity
  8
0
100
AcDbLine
 10
8.151992750454331
 20
10.28021794420937
 30
0.0
 11
8.123776883159335
 21
10.25364253431525
 31
0.0
  0
LINE
  5
2360
330
1E
100
AcDbEntity
  8
0
100
AcDbLine
 10
8.123776883159335
 20
9.503625410636631
 30
0.0
 11
8.151992750454331
 21
9.477050000742506
 31
0.0
  0
LINE
  5
2361
330
1E
100
AcDbEntity
  8
0
100
AcDbLine
 10
7.984009912605051
 20
10.28021794420937
 30
0.0
 11
7.955794045310055
 21
10.25364253431525
 31
0.0
  0
LINE
  5
2362
330
1E
100
AcDbEntity
  8
0
100
AcDbLine
 10
7.955794045310055
 20
9.503625410636631
 30
0.0
 11
7.984009912605051
 21
9.477050000742506
 31
0.0
  0
LINE
  5
2363
330
1E
100
AcDbEntity
  8
0
100
AcDbLine
 10
8.151992750454331
 20
9.477050000742506
 30
0.0
 11
8.179880526269153
 21
9.503625410636631
 31
0.0
  0
LINE
  5
2364
330
1E
100
AcDbEntity
  8
0
100
AcDbLine
 10
8.179880526269153
 20
10.25364253431525
 30
0.0
 11
8.151992750454331
 21
10.28021794420937
 31
0.0
  0
LINE
  5
2365
330
1E
100
AcDbEntity
  8
0
100
AcDbLine
 10
8.207768302083975
 20
10.28021794420937
 30
0.0
 11
8.179880526269153
 21
10.25364253431525
 31
0.0
  0
LINE
  5
2366
330
1E
100
AcDbEntity
  8
0
100
AcDbLine
 10
8.179880526269153
 20
9.503625410636631
 30
0.0
 11
8.207768302083975
 21
9.477050000742506
 31
0.0
  0
LINE
  5
2367
330
1E
100
AcDbEntity
  8
0
100
AcDbLine
 10
8.207768302083975
 20
9.477050000742506
 30
0.0
 11
8.235984169378971
 21
9.503625410636631
 31
0.0
  0
LINE
  5
2368
330
1E
100
AcDbEntity
  8
0
100
AcDbLine
 10
8.235984169378971
 20
10.25364253431525
 30
0.0
 11
8.207768302083975
 21
10.28021794420937
 31
0.0
  0
LINE
  5
2369
330
1E
100
AcDbEntity
  8
0
100
AcDbLine
 10
7.871802626385414
 20
9.477050000742506
 30
0.0
 11
7.90001849368041
 21
9.503625410636631
 31
0.0
  0
LINE
  5
236A
330
1E
100
AcDbEntity
  8
0
100
AcDbLine
 10
7.90001849368041
 20
10.25364253431525
 30
0.0
 11
7.871802626385414
 21
10.28021794420937
 31
0.0
  0
LINE
  5
236B
330
1E
100
AcDbEntity
  8
0
100
AcDbLine
 10
7.871802626385414
 20
10.28021794420937
 30
0.0
 11
7.843914850570593
 21
10.25364253431525
 31
0.0
  0
LINE
  5
236C
330
1E
100
AcDbEntity
  8
0
100
AcDbLine
 10
7.843914850570593
 20
9.503625410636631
 30
0.0
 11
7.871802626385414
 21
9.477050000742506
 31
0.0
  0
LINE
  5
236D
330
1E
100
AcDbEntity
  8
0
100
AcDbLine
 10
8.095889107344513
 20
9.477050000742506
 30
0.0
 11
8.123776883159335
 21
9.503625410636631
 31
0.0
  0
LINE
  5
236E
330
1E
100
AcDbEntity
  8
0
100
AcDbLine
 10
8.123776883159335
 20
10.25364253431525
 30
0.0
 11
8.095889107344513
 21
10.28021794420937
 31
0.0
  0
LINE
  5
236F
330
1E
100
AcDbEntity
  8
0
100
AcDbLine
 10
7.927906269495233
 20
10.28021794420937
 30
0.0
 11
7.90001849368041
 21
10.25364253431525
 31
0.0
  0
LINE
  5
2370
330
1E
100
AcDbEntity
  8
0
100
AcDbLine
 10
7.90001849368041
 20
9.503625410636631
 30
0.0
 11
7.927906269495233
 21
9.477050000742506
 31
0.0
  0
LINE
  5
2371
330
1E
100
AcDbEntity
  8
0
100
AcDbLine
 10
8.095889107344513
 20
10.28021794420937
 30
0.0
 11
8.068001331529691
 21
10.25364253431525
 31
0.0
  0
LINE
  5
2372
330
1E
100
AcDbEntity
  8
0
100
AcDbLine
 10
8.068001331529691
 20
9.503625410636631
 30
0.0
 11
8.095889107344513
 21
9.477050000742506
 31
0.0
  0
LINE
  5
2373
330
1E
100
AcDbEntity
  8
0
100
AcDbLine
 10
7.927906269495233
 20
9.477050000742506
 30
0.0
 11
7.955794045310055
 21
9.503625410636631
 31
0.0
  0
LINE
  5
2374
330
1E
100
AcDbEntity
  8
0
100
AcDbLine
 10
7.955794045310055
 20
10.25364253431525
 30
0.0
 11
7.927906269495233
 21
10.28021794420937
 31
0.0
  0
LINE
  5
2375
330
1E
100
AcDbEntity
  8
0
100
AcDbLine
 10
7.825869819161002
 20
9.486564653667564
 30
0.0
 11
7.843914850570593
 21
9.503625410636631
 31
0.0
  0
LINE
  5
2376
330
1E
100
AcDbEntity
  8
0
100
AcDbLine
 10
7.843914850570593
 20
10.25364253431525
 30
0.0
 11
7.825869819161002
 21
10.27070329128432
 31
0.0
  0
LINE
  5
2377
330
1E
100
AcDbEntity
  8
0
100
AcDbLine
 10
6.825846987589504
 20
9.403557509183446
 30
0.0
 11
6.945928469333326
 21
9.403557509183446
 31
0.0
  0
LINE
  5
2378
330
1E
100
AcDbEntity
  8
0
100
AcDbLine
 10
6.945928469333326
 20
10.35371043576843
 30
0.0
 11
6.825846987589504
 21
10.35371043576843
 31
0.0
  0
LINE
  5
2379
330
1E
100
AcDbEntity
  8
0
100
AcDbLine
 10
7.425926304828437
 20
9.82974834192996
 30
0.0
 11
7.425926304828437
 21
9.452771231209602
 31
0.0
  0
LINE
  5
237A
330
1E
100
AcDbEntity
  8
0
100
AcDbLine
 10
7.425926304828437
 20
10.30482480522245
 30
0.0
 11
7.425926304828437
 21
9.927519603021924
 31
0.0
  0
LINE
  5
237B
330
1E
100
AcDbEntity
  8
0
100
AcDbLine
 10
7.425926304828437
 20
9.82974834192996
 30
0.0
 11
6.973160062187799
 21
9.82974834192996
 31
0.0
  0
LINE
  5
237C
330
1E
100
AcDbEntity
  8
0
100
AcDbLine
 10
6.973160062187799
 20
9.452771231209602
 30
0.0
 11
7.425926304828437
 21
9.452771231209602
 31
0.0
  0
LINE
  5
237D
330
1E
100
AcDbEntity
  8
0
100
AcDbLine
 10
7.425926304828437
 20
9.927519603021924
 30
0.0
 11
6.973160062187799
 21
9.927519603021924
 31
0.0
  0
LINE
  5
237E
330
1E
100
AcDbEntity
  8
0
100
AcDbLine
 10
7.425926304828437
 20
10.30482480522245
 30
0.0
 11
6.973160062187799
 21
10.30482480522245
 31
0.0
  0
LINE
  5
237F
330
1E
100
AcDbEntity
  8
0
100
AcDbLine
 10
7.425926304828437
 20
10.35371043576843
 30
0.0
 11
6.973160062187799
 21
10.35371043576843
 31
0.0
  0
LINE
  5
2380
330
1E
100
AcDbEntity
  8
0
100
AcDbLine
 10
7.425926304828437
 20
9.403557509183446
 30
0.0
 11
6.973160062187799
 21
9.403557509183446
 31
0.0
  0
LINE
  5
2381
330
1E
100
AcDbEntity
  8
0
100
AcDbLine
 10
7.457751178405351
 20
9.477050000742506
 30
0.0
 11
7.47185911205285
 21
9.477050000742506
 31
0.0
  0
LINE
  5
2382
330
1E
100
AcDbEntity
  8
0
100
AcDbLine
 10
7.47185911205285
 20
10.28021794420937
 30
0.0
 11
7.457751178405351
 21
10.28021794420937
 31
0.0
  0
LINE
  5
2383
330
1E
100
AcDbEntity
  8
0
100
AcDbLine
 10
7.47185911205285
 20
9.477050000742506
 30
0.0
 11
7.485967045700348
 21
9.503625410636631
 31
0.0
  0
LINE
  5
2384
330
1E
100
AcDbEntity
  8
0
100
AcDbLine
 10
7.485967045700348
 20
10.25364253431525
 30
0.0
 11
7.47185911205285
 21
10.28021794420937
 31
0.0
  0
LINE
  5
2385
330
1E
100
AcDbEntity
  8
0
100
AcDbLine
 10
7.527962755162668
 20
9.477050000742506
 30
0.0
 11
7.541742597329992
 21
9.503625410636631
 31
0.0
  0
LINE
  5
2386
330
1E
100
AcDbEntity
  8
0
100
AcDbLine
 10
7.541742597329992
 20
10.25364253431525
 30
0.0
 11
7.527962755162668
 21
10.28021794420937
 31
0.0
  0
LINE
  5
2387
330
1E
100
AcDbEntity
  8
0
100
AcDbLine
 10
7.569958464624988
 20
10.28021794420937
 30
0.0
 11
7.55585053097749
 21
10.25364253431525
 31
0.0
  0
LINE
  5
2388
330
1E
100
AcDbEntity
  8
0
100
AcDbLine
 10
7.55585053097749
 20
9.503625410636631
 30
0.0
 11
7.569958464624988
 21
9.477050000742506
 31
0.0
  0
LINE
  5
2389
330
1E
100
AcDbEntity
  8
0
100
AcDbLine
 10
7.51385482151517
 20
10.28021794420937
 30
0.0
 11
7.499746887867672
 21
10.25364253431525
 31
0.0
  0
LINE
  5
238A
330
1E
100
AcDbEntity
  8
0
100
AcDbLine
 10
7.499746887867672
 20
9.503625410636631
 30
0.0
 11
7.51385482151517
 21
9.477050000742506
 31
0.0
  0
LINE
  5
238B
330
1E
100
AcDbEntity
  8
0
100
AcDbLine
 10
7.51385482151517
 20
9.477050000742506
 30
0.0
 11
7.527962755162668
 21
9.477050000742506
 31
0.0
  0
LINE
  5
238C
330
1E
100
AcDbEntity
  8
0
100
AcDbLine
 10
7.527962755162668
 20
10.28021794420937
 30
0.0
 11
7.51385482151517
 21
10.28021794420937
 31
0.0
  0
LINE
  5
238D
330
1E
100
AcDbEntity
  8
0
100
AcDbLine
 10
7.457751178405351
 20
10.28021794420937
 30
0.0
 11
7.443971336238028
 21
10.25364253431525
 31
0.0
  0
LINE
  5
238E
330
1E
100
AcDbEntity
  8
0
100
AcDbLine
 10
7.443971336238028
 20
9.503625410636631
 30
0.0
 11
7.457751178405351
 21
9.477050000742506
 31
0.0
  0
LINE
  5
238F
330
1E
100
AcDbEntity
  8
0
100
AcDbLine
 10
7.569958464624988
 20
9.477050000742506
 30
0.0
 11
7.583738306792312
 21
9.477050000742506
 31
0.0
  0
LINE
  5
2390
330
1E
100
AcDbEntity
  8
0
100
AcDbLine
 10
7.583738306792312
 20
10.28021794420937
 30
0.0
 11
7.569958464624988
 21
10.28021794420937
 31
0.0
  0
LINE
  5
2391
330
1E
100
AcDbEntity
  8
0
100
AcDbLine
 10
7.583738306792312
 20
9.477050000742506
 30
0.0
 11
7.59784624043981
 21
9.503625410636631
 31
0.0
  0
LINE
  5
2392
330
1E
100
AcDbEntity
  8
0
100
AcDbLine
 10
7.59784624043981
 20
10.25364253431525
 30
0.0
 11
7.583738306792312
 21
10.28021794420937
 31
0.0
  0
LINE
  5
2393
330
1E
100
AcDbEntity
  8
0
100
AcDbLine
 10
7.625734016254632
 20
10.28021794420937
 30
0.0
 11
7.611954174087308
 21
10.25364253431525
 31
0.0
  0
LINE
  5
2394
330
1E
100
AcDbEntity
  8
0
100
AcDbLine
 10
7.611954174087308
 20
9.503625410636631
 30
0.0
 11
7.625734016254632
 21
9.477050000742506
 31
0.0
  0
LINE
  5
2395
330
1E
100
AcDbEntity
  8
0
100
AcDbLine
 10
7.425926304828437
 20
9.496079306592621
 30
0.0
 11
7.42986340259053
 21
9.503625410636631
 31
0.0
  0
LINE
  5
2396
330
1E
100
AcDbEntity
  8
0
100
AcDbLine
 10
7.42986340259053
 20
10.25364253431525
 30
0.0
 11
7.425926304828437
 21
10.26118863835926
 31
0.0
  0
LINE
  5
2397
330
1E
100
AcDbEntity
  8
0
100
AcDbLine
 10
7.443971336238028
 20
10.25364253431525
 30
0.0
 11
7.42986340259053
 21
10.25364253431525
 31
0.0
  0
LINE
  5
2398
330
1E
100
AcDbEntity
  8
0
100
AcDbLine
 10
7.42986340259053
 20
9.503625410636631
 30
0.0
 11
7.443971336238028
 21
9.503625410636631
 31
0.0
  0
LINE
  5
2399
330
1E
100
AcDbEntity
  8
0
100
AcDbLine
 10
7.55585053097749
 20
10.25364253431525
 30
0.0
 11
7.541742597329992
 21
10.25364253431525
 31
0.0
  0
LINE
  5
239A
330
1E
100
AcDbEntity
  8
0
100
AcDbLine
 10
7.541742597329992
 20
9.503625410636631
 30
0.0
 11
7.55585053097749
 21
9.503625410636631
 31
0.0
  0
LINE
  5
239B
330
1E
100
AcDbEntity
  8
0
100
AcDbLine
 10
7.611954174087308
 20
10.25364253431525
 30
0.0
 11
7.59784624043981
 21
10.25364253431525
 31
0.0
  0
LINE
  5
239C
330
1E
100
AcDbEntity
  8
0
100
AcDbLine
 10
7.59784624043981
 20
9.503625410636631
 30
0.0
 11
7.611954174087308
 21
9.503625410636631
 31
0.0
  0
LINE
  5
239D
330
1E
100
AcDbEntity
  8
0
100
AcDbLine
 10
7.499746887867672
 20
10.25364253431525
 30
0.0
 11
7.485967045700348
 21
10.25364253431525
 31
0.0
  0
LINE
  5
239E
330
1E
100
AcDbEntity
  8
0
100
AcDbLine
 10
7.485967045700348
 20
9.503625410636631
 30
0.0
 11
7.499746887867672
 21
9.503625410636631
 31
0.0
  0
LINE
  5
239F
330
1E
100
AcDbEntity
  8
0
100
AcDbLine
 10
7.625734016254632
 20
9.82974834192996
 30
0.0
 11
7.625734016254632
 21
9.452771231209602
 31
0.0
  0
LINE
  5
23A0
330
1E
100
AcDbEntity
  8
0
100
AcDbLine
 10
7.625734016254632
 20
10.30482480522245
 30
0.0
 11
7.625734016254632
 21
9.927519603021924
 31
0.0
  0
LINE
  5
23A1
330
1E
100
AcDbEntity
  8
0
100
AcDbLine
 10
7.625734016254632
 20
10.30482480522245
 30
0.0
 11
7.825869819161002
 21
10.30482480522245
 31
0.0
  0
LINE
  5
23A2
330
1E
100
AcDbEntity
  8
0
100
AcDbLine
 10
7.825869819161002
 20
10.35371043576843
 30
0.0
 11
7.625734016254632
 21
10.35371043576843
 31
0.0
  0
LINE
  5
23A3
330
1E
100
AcDbEntity
  8
0
100
AcDbLine
 10
7.825869819161002
 20
9.403557509183446
 30
0.0
 11
7.625734016254632
 21
9.403557509183446
 31
0.0
  0
LINE
  5
23A4
330
1E
100
AcDbEntity
  8
0
100
AcDbLine
 10
7.825869819161002
 20
9.452771231209602
 30
0.0
 11
7.625734016254632
 21
9.452771231209602
 31
0.0
  0
LINE
  5
23A5
330
1E
100
AcDbEntity
  8
0
100
AcDbLine
 10
7.825869819161002
 20
9.452771231209602
 30
0.0
 11
7.825869819161002
 21
9.82974834192996
 31
0.0
  0
LINE
  5
23A6
330
1E
100
AcDbEntity
  8
0
100
AcDbLine
 10
7.825869819161002
 20
9.82974834192996
 30
0.0
 11
7.625734016254632
 21
9.82974834192996
 31
0.0
  0
LINE
  5
23A7
330
1E
100
AcDbEntity
  8
0
100
AcDbLine
 10
7.825869819161002
 20
9.927519603021924
 30
0.0
 11
7.625734016254632
 21
9.927519603021924
 31
0.0
  0
LINE
  5
23A8
330
1E
100
AcDbEntity
  8
0
100
AcDbLine
 10
7.825869819161002
 20
9.927519603021924
 30
0.0
 11
7.825869819161002
 21
10.30482480522245
 31
0.0
  0
LINE
  5
23A9
330
1E
100
AcDbEntity
  8
0
100
AcDbLine
 10
8.645770428116767
 20
9.356312336038337
 30
0.0
 11
8.845906231023136
 21
9.356312336038337
 31
0.0
  0
LINE
  5
23AA
330
1E
100
AcDbEntity
  8
0
100
AcDbLine
 10
8.845906231023136
 20
10.40128370039372
 30
0.0
 11
8.645770428116767
 21
10.40128370039372
 31
0.0
  0
LINE
  5
23AB
330
1E
100
AcDbEntity
  8
0
100
AcDbLine
 10
8.645770428116767
 20
9.661109321120331
 30
0.0
 11
8.645770428116767
 21
10.09648671531172
 31
0.0
  0
LINE
  5
23AC
330
1E
100
AcDbEntity
  8
0
100
AcDbLine
 10
8.645770428116767
 20
9.358608976399557
 30
0.0
 11
8.645770428116767
 21
9.576133627755169
 31
0.0
  0
LINE
  5
23AD
330
1E
100
AcDbEntity
  8
0
100
AcDbLine
 10
8.645770428116767
 20
10.18113431719671
 30
0.0
 11
8.645770428116767
 21
10.3989870600325
 31
0.0
  0
LINE
  5
23AE
330
1E
100
AcDbEntity
  8
0
100
AcDbLine
 10
8.645770428116767
 20
9.661109321120331
 30
0.0
 11
8.845906231023136
 21
9.661109321120331
 31
0.0
  0
LINE
  5
23AF
330
1E
100
AcDbEntity
  8
0
100
AcDbLine
 10
8.845906231023136
 20
10.09648671531172
 30
0.0
 11
8.645770428116767
 21
10.09648671531172
 31
0.0
  0
LINE
  5
23B0
330
1E
100
AcDbEntity
  8
0
100
AcDbLine
 10
8.645770428116767
 20
9.576133627755169
 30
0.0
 11
8.845906231023136
 21
9.576133627755169
 31
0.0
  0
LINE
  5
23B1
330
1E
100
AcDbEntity
  8
0
100
AcDbLine
 10
8.645770428116767
 20
9.358608976399557
 30
0.0
 11
8.845906231023136
 21
9.358608976399557
 31
0.0
  0
LINE
  5
23B2
330
1E
100
AcDbEntity
  8
0
100
AcDbLine
 10
8.645770428116767
 20
10.3989870600325
 30
0.0
 11
8.845906231023136
 21
10.3989870600325
 31
0.0
  0
LINE
  5
23B3
330
1E
100
AcDbEntity
  8
0
100
AcDbLine
 10
8.645770428116767
 20
10.18113431719671
 30
0.0
 11
8.845906231023136
 21
10.18113431719671
 31
0.0
  0
LINE
  5
23B4
330
1E
100
AcDbEntity
  8
0
100
AcDbLine
 10
8.039785464234695
 20
9.477050000742506
 30
0.0
 11
8.068001331529691
 21
9.503625410636631
 31
0.0
  0
LINE
  5
23B5
330
1E
100
AcDbEntity
  8
0
100
AcDbLine
 10
8.068001331529691
 20
10.25364253431525
 30
0.0
 11
8.039785464234695
 21
10.28021794420937
 31
0.0
  0
LINE
  5
23B6
330
1E
100
AcDbEntity
  8
0
100
AcDbLine
 10
8.039785464234695
 20
10.28021794420937
 30
0.0
 11
8.011897688419873
 21
10.25364253431525
 31
0.0
  0
LINE
  5
23B7
330
1E
100
AcDbEntity
  8
0
100
AcDbLine
 10
8.011897688419873
 20
9.503625410636631
 30
0.0
 11
8.039785464234695
 21
9.477050000742506
 31
0.0
  0
LINE
  5
23B8
330
1E
100
AcDbEntity
  8
0
100
AcDbLine
 10
7.984009912605051
 20
9.477050000742506
 30
0.0
 11
8.011897688419873
 21
9.503625410636631
 31
0.0
  0
LINE
  5
23B9
330
1E
100
AcDbEntity
  8
0
100
AcDbLine
 10
8.011897688419873
 20
10.25364253431525
 30
0.0
 11
7.984009912605051
 21
10.28021794420937
 31
0.0
  0
LINE
  5
23BA
330
1E
100
AcDbEntity
  8
0
100
AcDbLine
 10
8.151992750454331
 20
10.28021794420937
 30
0.0
 11
8.123776883159335
 21
10.25364253431525
 31
0.0
  0
LINE
  5
23BB
330
1E
100
AcDbEntity
  8
0
100
AcDbLine
 10
8.123776883159335
 20
9.503625410636631
 30
0.0
 11
8.151992750454331
 21
9.477050000742506
 31
0.0
  0
LINE
  5
23BC
330
1E
100
AcDbEntity
  8
0
100
AcDbLine
 10
7.984009912605051
 20
10.28021794420937
 30
0.0
 11
7.955794045310055
 21
10.25364253431525
 31
0.0
  0
LINE
  5
23BD
330
1E
100
AcDbEntity
  8
0
100
AcDbLine
 10
7.955794045310055
 20
9.503625410636631
 30
0.0
 11
7.984009912605051
 21
9.477050000742506
 31
0.0
  0
LINE
  5
23BE
330
1E
100
AcDbEntity
  8
0
100
AcDbLine
 10
8.151992750454331
 20
9.477050000742506
 30
0.0
 11
8.179880526269153
 21
9.503625410636631
 31
0.0
  0
LINE
  5
23BF
330
1E
100
AcDbEntity
  8
0
100
AcDbLine
 10
8.179880526269153
 20
10.25364253431525
 30
0.0
 11
8.151992750454331
 21
10.28021794420937
 31
0.0
  0
LINE
  5
23C0
330
1E
100
AcDbEntity
  8
0
100
AcDbLine
 10
8.207768302083975
 20
10.28021794420937
 30
0.0
 11
8.179880526269153
 21
10.25364253431525
 31
0.0
  0
LINE
  5
23C1
330
1E
100
AcDbEntity
  8
0
100
AcDbLine
 10
8.179880526269153
 20
9.503625410636631
 30
0.0
 11
8.207768302083975
 21
9.477050000742506
 31
0.0
  0
LINE
  5
23C2
330
1E
100
AcDbEntity
  8
0
100
AcDbLine
 10
8.207768302083975
 20
9.477050000742506
 30
0.0
 11
8.235984169378971
 21
9.503625410636631
 31
0.0
  0
LINE
  5
23C3
330
1E
100
AcDbEntity
  8
0
100
AcDbLine
 10
8.235984169378971
 20
10.25364253431525
 30
0.0
 11
8.207768302083975
 21
10.28021794420937
 31
0.0
  0
LINE
  5
23C4
330
1E
100
AcDbEntity
  8
0
100
AcDbLine
 10
7.871802626385414
 20
9.477050000742506
 30
0.0
 11
7.90001849368041
 21
9.503625410636631
 31
0.0
  0
LINE
  5
23C5
330
1E
100
AcDbEntity
  8
0
100
AcDbLine
 10
7.90001849368041
 20
10.25364253431525
 30
0.0
 11
7.871802626385414
 21
10.28021794420937
 31
0.0
  0
LINE
  5
23C6
330
1E
100
AcDbEntity
  8
0
100
AcDbLine
 10
7.871802626385414
 20
10.28021794420937
 30
0.0
 11
7.843914850570593
 21
10.25364253431525
 31
0.0
  0
LINE
  5
23C7
330
1E
100
AcDbEntity
  8
0
100
AcDbLine
 10
7.843914850570593
 20
9.503625410636631
 30
0.0
 11
7.871802626385414
 21
9.477050000742506
 31
0.0
  0
LINE
  5
23C8
330
1E
100
AcDbEntity
  8
0
100
AcDbLine
 10
8.095889107344513
 20
9.477050000742506
 30
0.0
 11
8.123776883159335
 21
9.503625410636631
 31
0.0
  0
LINE
  5
23C9
330
1E
100
AcDbEntity
  8
0
100
AcDbLine
 10
8.123776883159335
 20
10.25364253431525
 30
0.0
 11
8.095889107344513
 21
10.28021794420937
 31
0.0
  0
LINE
  5
23CA
330
1E
100
AcDbEntity
  8
0
100
AcDbLine
 10
7.927906269495233
 20
10.28021794420937
 30
0.0
 11
7.90001849368041
 21
10.25364253431525
 31
0.0
  0
LINE
  5
23CB
330
1E
100
AcDbEntity
  8
0
100
AcDbLine
 10
7.90001849368041
 20
9.503625410636631
 30
0.0
 11
7.927906269495233
 21
9.477050000742506
 31
0.0
  0
LINE
  5
23CC
330
1E
100
AcDbEntity
  8
0
100
AcDbLine
 10
8.095889107344513
 20
10.28021794420937
 30
0.0
 11
8.068001331529691
 21
10.25364253431525
 31
0.0
  0
LINE
  5
23CD
330
1E
100
AcDbEntity
  8
0
100
AcDbLine
 10
8.068001331529691
 20
9.503625410636631
 30
0.0
 11
8.095889107344513
 21
9.477050000742506
 31
0.0
  0
LINE
  5
23CE
330
1E
100
AcDbEntity
  8
0
100
AcDbLine
 10
7.927906269495233
 20
9.477050000742506
 30
0.0
 11
7.955794045310055
 21
9.503625410636631
 31
0.0
  0
LINE
  5
23CF
330
1E
100
AcDbEntity
  8
0
100
AcDbLine
 10
7.955794045310055
 20
10.25364253431525
 30
0.0
 11
7.927906269495233
 21
10.28021794420937
 31
0.0
  0
LINE
  5
23D0
330
1E
100
AcDbEntity
  8
0
100
AcDbLine
 10
7.825869819161002
 20
9.486564653667564
 30
0.0
 11
7.843914850570593
 21
9.503625410636631
 31
0.0
  0
LINE
  5
23D1
330
1E
100
AcDbEntity
  8
0
100
AcDbLine
 10
7.843914850570593
 20
10.25364253431525
 30
0.0
 11
7.825869819161002
 21
10.27070329128432
 31
0.0
  0
LINE
  5
23D2
330
1E
100
AcDbEntity
  8
0
100
AcDbLine
 10
6.825846987589504
 20
9.403557509183446
 30
0.0
 11
6.945928469333326
 21
9.403557509183446
 31
0.0
  0
LINE
  5
23D3
330
1E
100
AcDbEntity
  8
0
100
AcDbLine
 10
6.945928469333326
 20
10.35371043576843
 30
0.0
 11
6.825846987589504
 21
10.35371043576843
 31
0.0
  0
LINE
  5
23D4
330
1E
100
AcDbEntity
  8
0
100
AcDbLine
 10
7.425926304828437
 20
9.82974834192996
 30
0.0
 11
7.425926304828437
 21
9.452771231209602
 31
0.0
  0
LINE
  5
23D5
330
1E
100
AcDbEntity
  8
0
100
AcDbLine
 10
7.425926304828437
 20
10.30482480522245
 30
0.0
 11
7.425926304828437
 21
9.927519603021924
 31
0.0
  0
LINE
  5
23D6
330
1E
100
AcDbEntity
  8
0
100
AcDbLine
 10
7.425926304828437
 20
9.82974834192996
 30
0.0
 11
6.973160062187799
 21
9.82974834192996
 31
0.0
  0
LINE
  5
23D7
330
1E
100
AcDbEntity
  8
0
100
AcDbLine
 10
6.973160062187799
 20
9.452771231209602
 30
0.0
 11
7.425926304828437
 21
9.452771231209602
 31
0.0
  0
LINE
  5
23D8
330
1E
100
AcDbEntity
  8
0
100
AcDbLine
 10
7.425926304828437
 20
9.927519603021924
 30
0.0
 11
6.973160062187799
 21
9.927519603021924
 31
0.0
  0
LINE
  5
23D9
330
1E
100
AcDbEntity
  8
0
100
AcDbLine
 10
7.425926304828437
 20
10.30482480522245
 30
0.0
 11
6.973160062187799
 21
10.30482480522245
 31
0.0
  0
LINE
  5
23DA
330
1E
100
AcDbEntity
  8
0
100
AcDbLine
 10
7.425926304828437
 20
10.35371043576843
 30
0.0
 11
6.973160062187799
 21
10.35371043576843
 31
0.0
  0
LINE
  5
23DB
330
1E
100
AcDbEntity
  8
0
100
AcDbLine
 10
7.425926304828437
 20
9.403557509183446
 30
0.0
 11
6.973160062187799
 21
9.403557509183446
 31
0.0
  0
LINE
  5
23DC
330
1E
100
AcDbEntity
  8
0
100
AcDbLine
 10
7.457751178405351
 20
9.477050000742506
 30
0.0
 11
7.47185911205285
 21
9.477050000742506
 31
0.0
  0
LINE
  5
23DD
330
1E
100
AcDbEntity
  8
0
100
AcDbLine
 10
7.47185911205285
 20
10.28021794420937
 30
0.0
 11
7.457751178405351
 21
10.28021794420937
 31
0.0
  0
LINE
  5
23DE
330
1E
100
AcDbEntity
  8
0
100
AcDbLine
 10
7.47185911205285
 20
9.477050000742506
 30
0.0
 11
7.485967045700348
 21
9.503625410636631
 31
0.0
  0
LINE
  5
23DF
330
1E
100
AcDbEntity
  8
0
100
AcDbLine
 10
7.485967045700348
 20
10.25364253431525
 30
0.0
 11
7.47185911205285
 21
10.28021794420937
 31
0.0
  0
LINE
  5
23E0
330
1E
100
AcDbEntity
  8
0
100
AcDbLine
 10
7.527962755162668
 20
9.477050000742506
 30
0.0
 11
7.541742597329992
 21
9.503625410636631
 31
0.0
  0
LINE
  5
23E1
330
1E
100
AcDbEntity
  8
0
100
AcDbLine
 10
7.541742597329992
 20
10.25364253431525
 30
0.0
 11
7.527962755162668
 21
10.28021794420937
 31
0.0
  0
LINE
  5
23E2
330
1E
100
AcDbEntity
  8
0
100
AcDbLine
 10
7.569958464624988
 20
10.28021794420937
 30
0.0
 11
7.55585053097749
 21
10.25364253431525
 31
0.0
  0
LINE
  5
23E3
330
1E
100
AcDbEntity
  8
0
100
AcDbLine
 10
7.55585053097749
 20
9.503625410636631
 30
0.0
 11
7.569958464624988
 21
9.477050000742506
 31
0.0
  0
LINE
  5
23E4
330
1E
100
AcDbEntity
  8
0
100
AcDbLine
 10
7.51385482151517
 20
10.28021794420937
 30
0.0
 11
7.499746887867672
 21
10.25364253431525
 31
0.0
  0
LINE
  5
23E5
330
1E
100
AcDbEntity
  8
0
100
AcDbLine
 10
7.499746887867672
 20
9.503625410636631
 30
0.0
 11
7.51385482151517
 21
9.477050000742506
 31
0.0
  0
LINE
  5
23E6
330
1E
100
AcDbEntity
  8
0
100
AcDbLine
 10
7.51385482151517
 20
9.477050000742506
 30
0.0
 11
7.527962755162668
 21
9.477050000742506
 31
0.0
  0
LINE
  5
23E7
330
1E
100
AcDbEntity
  8
0
100
AcDbLine
 10
7.527962755162668
 20
10.28021794420937
 30
0.0
 11
7.51385482151517
 21
10.28021794420937
 31
0.0
  0
LINE
  5
23E8
330
1E
100
AcDbEntity
  8
0
100
AcDbLine
 10
7.457751178405351
 20
10.28021794420937
 30
0.0
 11
7.443971336238028
 21
10.25364253431525
 31
0.0
  0
LINE
  5
23E9
330
1E
100
AcDbEntity
  8
0
100
AcDbLine
 10
7.443971336238028
 20
9.503625410636631
 30
0.0
 11
7.457751178405351
 21
9.477050000742506
 31
0.0
  0
LINE
  5
23EA
330
1E
100
AcDbEntity
  8
0
100
AcDbLine
 10
7.569958464624988
 20
9.477050000742506
 30
0.0
 11
7.583738306792312
 21
9.477050000742506
 31
0.0
  0
LINE
  5
23EB
330
1E
100
AcDbEntity
  8
0
100
AcDbLine
 10
7.583738306792312
 20
10.28021794420937
 30
0.0
 11
7.569958464624988
 21
10.28021794420937
 31
0.0
  0
LINE
  5
23EC
330
1E
100
AcDbEntity
  8
0
100
AcDbLine
 10
7.583738306792312
 20
9.477050000742506
 30
0.0
 11
7.59784624043981
 21
9.503625410636631
 31
0.0
  0
LINE
  5
23ED
330
1E
100
AcDbEntity
  8
0
100
AcDbLine
 10
7.59784624043981
 20
10.25364253431525
 30
0.0
 11
7.583738306792312
 21
10.28021794420937
 31
0.0
  0
LINE
  5
23EE
330
1E
100
AcDbEntity
  8
0
100
AcDbLine
 10
7.625734016254632
 20
10.28021794420937
 30
0.0
 11
7.611954174087308
 21
10.25364253431525
 31
0.0
  0
LINE
  5
23EF
330
1E
100
AcDbEntity
  8
0
100
AcDbLine
 10
7.611954174087308
 20
9.503625410636631
 30
0.0
 11
7.625734016254632
 21
9.477050000742506
 31
0.0
  0
LINE
  5
23F0
330
1E
100
AcDbEntity
  8
0
100
AcDbLine
 10
7.425926304828437
 20
9.496079306592621
 30
0.0
 11
7.42986340259053
 21
9.503625410636631
 31
0.0
  0
LINE
  5
23F1
330
1E
100
AcDbEntity
  8
0
100
AcDbLine
 10
7.42986340259053
 20
10.25364253431525
 30
0.0
 11
7.425926304828437
 21
10.26118863835926
 31
0.0
  0
LINE
  5
23F2
330
1E
100
AcDbEntity
  8
0
100
AcDbLine
 10
7.443971336238028
 20
10.25364253431525
 30
0.0
 11
7.42986340259053
 21
10.25364253431525
 31
0.0
  0
LINE
  5
23F3
330
1E
100
AcDbEntity
  8
0
100
AcDbLine
 10
7.42986340259053
 20
9.503625410636631
 30
0.0
 11
7.443971336238028
 21
9.503625410636631
 31
0.0
  0
LINE
  5
23F4
330
1E
100
AcDbEntity
  8
0
100
AcDbLine
 10
7.55585053097749
 20
10.25364253431525
 30
0.0
 11
7.541742597329992
 21
10.25364253431525
 31
0.0
  0
LINE
  5
23F5
330
1E
100
AcDbEntity
  8
0
100
AcDbLine
 10
7.541742597329992
 20
9.503625410636631
 30
0.0
 11
7.55585053097749
 21
9.503625410636631
 31
0.0
  0
LINE
  5
23F6
330
1E
100
AcDbEntity
  8
0
100
AcDbLine
 10
7.611954174087308
 20
10.25364253431525
 30
0.0
 11
7.59784624043981
 21
10.25364253431525
 31
0.0
  0
LINE
  5
23F7
330
1E
100
AcDbEntity
  8
0
100
AcDbLine
 10
7.59784624043981
 20
9.503625410636631
 30
0.0
 11
7.611954174087308
 21
9.503625410636631
 31
0.0
  0
LINE
  5
23F8
330
1E
100
AcDbEntity
  8
0
100
AcDbLine
 10
7.499746887867672
 20
10.25364253431525
 30
0.0
 11
7.485967045700348
 21
10.25364253431525
 31
0.0
  0
LINE
  5
23F9
330
1E
100
AcDbEntity
  8
0
100
AcDbLine
 10
7.485967045700348
 20
9.503625410636631
 30
0.0
 11
7.499746887867672
 21
9.503625410636631
 31
0.0
  0
LINE
  5
23FA
330
1E
100
AcDbEntity
  8
0
100
AcDbLine
 10
7.625734016254632
 20
9.82974834192996
 30
0.0
 11
7.625734016254632
 21
9.452771231209602
 31
0.0
  0
LINE
  5
23FB
330
1E
100
AcDbEntity
  8
0
100
AcDbLine
 10
7.625734016254632
 20
10.30482480522245
 30
0.0
 11
7.625734016254632
 21
9.927519603021924
 31
0.0
  0
LINE
  5
23FC
330
1E
100
AcDbEntity
  8
0
100
AcDbLine
 10
7.625734016254632
 20
10.30482480522245
 30
0.0
 11
7.825869819161002
 21
10.30482480522245
 31
0.0
  0
LINE
  5
23FD
330
1E
100
AcDbEntity
  8
0
100
AcDbLine
 10
7.825869819161002
 20
10.35371043576843
 30
0.0
 11
7.625734016254632
 21
10.35371043576843
 31
0.0
  0
LINE
  5
23FE
330
1E
100
AcDbEntity
  8
0
100
AcDbLine
 10
7.825869819161002
 20
9.403557509183446
 30
0.0
 11
7.625734016254632
 21
9.403557509183446
 31
0.0
  0
LINE
  5
23FF
330
1E
100
AcDbEntity
  8
0
100
AcDbLine
 10
7.825869819161002
 20
9.452771231209602
 30
0.0
 11
7.625734016254632
 21
9.452771231209602
 31
0.0
  0
LINE
  5
2400
330
1E
100
AcDbEntity
  8
0
100
AcDbLine
 10
7.825869819161002
 20
9.452771231209602
 30
0.0
 11
7.825869819161002
 21
9.82974834192996
 31
0.0
  0
LINE
  5
2401
330
1E
100
AcDbEntity
  8
0
100
AcDbLine
 10
7.825869819161002
 20
9.82974834192996
 30
0.0
 11
7.625734016254632
 21
9.82974834192996
 31
0.0
  0
LINE
  5
2402
330
1E
100
AcDbEntity
  8
0
100
AcDbLine
 10
7.825869819161002
 20
9.927519603021924
 30
0.0
 11
7.625734016254632
 21
9.927519603021924
 31
0.0
  0
LINE
  5
2403
330
1E
100
AcDbEntity
  8
0
100
AcDbLine
 10
7.825869819161002
 20
9.927519603021924
 30
0.0
 11
7.825869819161002
 21
10.30482480522245
 31
0.0
  0
LWPOLYLINE
  5
2404
330
1E
100
AcDbEntity
  8
0
100
AcDbPolyline
 90
        8
 70
     0
 43
0.0
 10
6.705765505845683
 20
9.523638990927269
 10
6.709046420647426
 20
9.497063581033144
 10
6.717904890612135
 20
9.471472445579543
 10
6.732012824259633
 20
9.44883413344751
 10
6.751042130109746
 20
9.429804827597397
 10
6.773680442241778
 20
9.415696893949899
 10
6.79927157769538
 20
9.40683842398519
 10
6.825846987589504
 20
9.403557509183446
  0
LWPOLYLINE
  5
240E
330
1E
100
AcDbEntity
  8
0
100
AcDbPolyline
 90
        5
 70
     0
 43
0.0
 10
8.845906231023136
 20
9.356312336038337
 10
8.86493553687325
 20
9.359921342320255
 10
8.881340110881968
 20
9.370748361166009
 10
8.892167129727724
 20
9.387152935174729
 10
8.89577613600964
 20
9.406182241024842
  0
LWPOLYLINE
  5
2415
330
1E
100
AcDbEntity
  8
0
100
AcDbPolyline
 90
        8
 70
     0
 43
0.0
 10
6.825846987589504
 20
10.35371043576843
 10
6.79927157769538
 20
10.35075761244687
 10
6.773680442241778
 20
10.34189914248216
 10
6.751042130109746
 20
10.32746311735449
 10
6.732012824259633
 20
10.30843381150437
 10
6.717904890612135
 20
10.28579549937234
 10
6.709046420647426
 20
10.26053245539891
 10
6.705765505845683
 20
10.23362895402461
  0
LWPOLYLINE
  5
241F
330
1E
100
AcDbEntity
  8
0
100
AcDbPolyline
 90
        5
 70
     0
 43
0.0
 10
8.89577613600964
 20
10.35108570392704
 10
8.892167129727724
 20
10.37044310125733
 10
8.881340110881968
 20
10.38651958378587
 10
8.86493553687325
 20
10.39734660263163
 10
8.845906231023136
 20
10.40128370039372
  0
LWPOLYLINE
  5
2426
330
1E
100
AcDbEntity
  8
0
100
AcDbPolyline
 90
        5
 70
     0
 43
0.0
 10
8.845906231023136
 20
9.356312336038337
 10
8.86493553687325
 20
9.359921342320255
 10
8.881340110881968
 20
9.370748361166009
 10
8.892167129727724
 20
9.387152935174729
 10
8.89577613600964
 20
9.406182241024842
  0
LWPOLYLINE
  5
242D
330
1E
100
AcDbEntity
  8
0
100
AcDbPolyline
 90
        5
 70
     0
 43
0.0
 10
8.89577613600964
 20
10.35108570392704
 10
8.892167129727724
 20
10.37044310125733
 10
8.881340110881968
 20
10.38651958378587
 10
8.86493553687325
 20
10.39734660263163
 10
8.845906231023136
 20
10.40128370039372
  0
LWPOLYLINE
  5
2434
330
1E
100
AcDbEntity
  8
0
100
AcDbPolyline
 90
        3
 70
     0
 43
0.0
 10
8.645770428116767
 20
9.576133627755169
 10
8.645770428116767
 20
9.61747315425714
 10
8.645770428116767
 20
9.661109321120331
  0
LWPOLYLINE
  5
2439
330
1E
100
AcDbEntity
  8
0
100
AcDbPolyline
 90
        3
 70
     0
 43
0.0
 10
8.645770428116767
 20
9.356312336038337
 10
8.645770428116767
 20
9.356640427518511
 10
8.645770428116767
 20
9.358608976399558
  0
LWPOLYLINE
  5
243E
330
1E
100
AcDbEntity
  8
0
100
AcDbPolyline
 90
        3
 70
     0
 43
0.0
 10
8.645770428116767
 20
10.3989870600325
 10
8.645770428116767
 20
10.40062751743337
 10
8.645770428116767
 20
10.40128370039372
  0
LWPOLYLINE
  5
2443
330
1E
100
AcDbEntity
  8
0
100
AcDbPolyline
 90
        3
 70
     0
 43
0.0
 10
8.645770428116767
 20
10.09648671531172
 10
8.645770428116767
 20
10.13979479069474
 10
8.645770428116767
 20
10.18113431719671
  0
LWPOLYLINE
  5
2448
330
1E
100
AcDbEntity
  8
0
100
AcDbPolyline
 90
        3
 70
     0
 43
0.0
 10
8.845906231023136
 20
9.576133627755169
 10
8.845906231023136
 20
9.61747315425714
 10
8.845906231023136
 20
9.661109321120331
  0
LWPOLYLINE
  5
244D
330
1E
100
AcDbEntity
  8
0
100
AcDbPolyline
 90
        3
 70
     0
 43
0.0
 10
8.845906231023136
 20
9.356312336038337
 10
8.845906231023136
 20
9.356640427518511
 10
8.845906231023136
 20
9.358608976399558
  0
LWPOLYLINE
  5
2452
330
1E
100
AcDbEntity
  8
0
100
AcDbPolyline
 90
        3
 70
     0
 43
0.0
 10
8.845906231023136
 20
10.3989870600325
 10
8.845906231023136
 20
10.40062751743337
 10
8.845906231023136
 20
10.40128370039372
  0
LWPOLYLINE
  5
2457
330
1E
100
AcDbEntity
  8
0
100
AcDbPolyline
 90
        3
 70
     0
 43
0.0
 10
8.845906231023136
 20
10.09648671531172
 10
8.845906231023136
 20
10.13979479069474
 10
8.845906231023136
 20
10.18113431719671
  0
LWPOLYLINE
  5
245C
330
1E
100
AcDbEntity
  8
0
100
AcDbPolyline
 90
       14
 70
     0
 43
0.0
 10
8.235984169378971
 20
9.878633972475943
 10
8.235984169378971
 20
9.923910596740007
 10
8.235984169378971
 20
9.968531038043721
 10
8.235984169378971
 20
10.01151102194656
 10
8.235984169378971
 20
10.05285054844853
 10
8.235984169378971
 20
10.09156534310911
 10
8.235984169378971
 20
10.12732731444812
 10
8.235984169378971
 20
10.1594802795052
 10
8.235984169378971
 20
10.18736805532003
 10
8.235984169378971
 20
10.21066255041241
 10
8.235984169378971
 20
10.22936376478235
 10
8.235984169378971
 20
10.2428155154695
 10
8.235984169378971
 20
10.25101780247386
 10
8.235984169378971
 20
10.25364253431525
  0
LWPOLYLINE
  5
246C
330
1E
100
AcDbEntity
  8
0
100
AcDbPolyline
 90
       14
 70
     0
 43
0.0
 10
8.235984169378971
 20
9.503625410636631
 10
8.235984169378971
 20
9.506250142478027
 10
8.235984169378971
 20
9.514452429482386
 10
8.235984169378971
 20
9.527904180169535
 10
8.235984169378971
 20
9.546605394539476
 10
8.235984169378971
 20
9.569899889631855
 10
8.235984169378971
 20
9.598115756926851
 10
8.235984169378971
 20
9.629940630503766
 10
8.235984169378971
 20
9.665702601842774
 10
8.235984169378971
 20
9.70441739650335
 10
8.235984169378971
 20
9.74575692300532
 10
8.235984169378971
 20
9.789064998388338
 10
8.235984169378971
 20
9.83335734821188
 10
8.235984169378971
 20
9.878633972475943
  0
LWPOLYLINE
  5
247C
330
1E
100
AcDbEntity
  8
0
100
AcDbPolyline
 90
        8
 70
     0
 43
0.0
 10
6.705765505845683
 20
9.523638990927269
 10
6.709046420647426
 20
9.497063581033144
 10
6.717904890612135
 20
9.471472445579543
 10
6.732012824259633
 20
9.44883413344751
 10
6.751042130109746
 20
9.429804827597397
 10
6.773680442241778
 20
9.415696893949899
 10
6.79927157769538
 20
9.40683842398519
 10
6.825846987589504
 20
9.403557509183446
  0
LWPOLYLINE
  5
2486
330
1E
100
AcDbEntity
  8
0
100
AcDbPolyline
 90
        8
 70
     0
 43
0.0
 10
6.825846987589504
 20
10.35371043576843
 10
6.79927157769538
 20
10.35075761244687
 10
6.773680442241778
 20
10.34189914248216
 10
6.751042130109746
 20
10.32746311735449
 10
6.732012824259633
 20
10.30843381150437
 10
6.717904890612135
 20
10.28579549937234
 10
6.709046420647426
 20
10.26053245539891
 10
6.705765505845683
 20
10.23362895402461
  0
LWPOLYLINE
  5
2490
330
1E
100
AcDbEntity
  8
0
100
AcDbPolyline
 90
        3
 70
     0
 43
0.0
 10
7.425926304828438
 20
9.927519603021924
 10
7.425926304828438
 20
9.878633972475943
 10
7.425926304828438
 20
9.829748341929962
  0
LWPOLYLINE
  5
2495
330
1E
100
AcDbEntity
  8
0
100
AcDbPolyline
 90
        3
 70
     0
 43
0.0
 10
7.425926304828438
 20
10.35371043576843
 10
7.425926304828438
 20
10.3310721236364
 10
7.425926304828438
 20
10.30482480522245
  0
LWPOLYLINE
  5
249A
330
1E
100
AcDbEntity
  8
0
100
AcDbPolyline
 90
        3
 70
     0
 43
0.0
 10
7.425926304828438
 20
9.452771231209602
 10
7.425926304828438
 20
9.426195821315479
 10
7.425926304828438
 20
9.403557509183446
  0
LWPOLYLINE
  5
249F
330
1E
100
AcDbEntity
  8
0
100
AcDbPolyline
 90
        3
 70
     0
 43
0.0
 10
6.973160062187799
 20
9.927519603021924
 10
6.973160062187799
 20
9.878633972475943
 10
6.973160062187799
 20
9.829748341929962
  0
LWPOLYLINE
  5
24A4
330
1E
100
AcDbEntity
  8
0
100
AcDbPolyline
 90
        3
 70
     0
 43
0.0
 10
6.973160062187799
 20
10.35371043576843
 10
6.973160062187799
 20
10.3310721236364
 10
6.973160062187799
 20
10.30482480522245
  0
LWPOLYLINE
  5
24A9
330
1E
100
AcDbEntity
  8
0
100
AcDbPolyline
 90
        3
 70
     0
 43
0.0
 10
6.973160062187799
 20
9.452771231209602
 10
6.973160062187799
 20
9.426195821315479
 10
6.973160062187799
 20
9.403557509183446
  0
LWPOLYLINE
  5
24AE
330
1E
100
AcDbEntity
  8
0
100
AcDbPolyline
 90
       10
 70
     0
 43
0.0
 10
6.945928469333326
 20
9.641095740829694
 10
6.945928469333326
 20
9.595162933605282
 10
6.945928469333326
 20
9.552839132662787
 10
6.945928469333326
 20
9.51478052096256
 10
6.945928469333326
 20
9.481971372945123
 10
6.945928469333326
 20
9.454083597130301
 10
6.945928469333326
 20
9.432429559438791
 10
6.945928469333326
 20
9.416353076910247
 10
6.945928469333326
 20
9.40683842398519
 10
6.945928469333326
 20
9.403557509183446
  0
LWPOLYLINE
  5
24BA
330
1E
100
AcDbEntity
  8
0
100
AcDbPolyline
 90
       10
 70
     0
 43
0.0
 10
6.945928469333326
 20
10.11617220412219
 10
6.945928469333326
 20
10.06695848209603
 10
6.945928469333326
 20
10.01479193674831
 10
6.945928469333326
 20
9.961313025479885
 10
6.945928469333326
 20
9.906193656810589
 10
6.945928469333326
 20
9.851074288141296
 10
6.945928469333326
 20
9.796283010952175
 10
6.945928469333326
 20
9.742476008203578
 10
6.945928469333326
 20
9.690637554336026
 10
6.945928469333326
 20
9.641095740829694
  0
LWPOLYLINE
  5
24C6
330
1E
100
AcDbEntity
  8
0
100
AcDbPolyline
 90
       10
 70
     0
 43
0.0
 10
6.945928469333326
 20
10.35371043576843
 10
6.945928469333326
 20
10.35042952096669
 10
6.945928469333326
 20
10.34091486804163
 10
6.945928469333326
 20
10.32516647699327
 10
6.945928469333326
 20
10.30318434782158
 10
6.945928469333326
 20
10.27562466348693
 10
6.945928469333326
 20
10.24248742398932
 10
6.945928469333326
 20
10.20475690376927
 10
6.945928469333326
 20
10.16243310282677
 10
6.945928469333326
 20
10.11617220412219
  0
LWPOLYLINE
  5
24D2
330
1E
100
AcDbEntity
  8
0
100
AcDbPolyline
 90
       15
 70
     0
 43
0.0
 10
6.825846987589504
 20
9.878633972475943
 10
6.825846987589504
 20
9.825483152687695
 10
6.825846987589504
 20
9.772988515859793
 10
6.825846987589504
 20
9.721806244952592
 10
6.825846987589504
 20
9.672592522926436
 10
6.825846987589504
 20
9.626003532741673
 10
6.825846987589504
 20
9.582367365878482
 10
6.825846987589504
 20
9.542668296777382
 10
6.825846987589504
 20
9.507234416918549
 10
6.825846987589504
 20
9.476393817782158
 10
6.825846987589504
 20
9.450802682328557
 10
6.825846987589504
 20
9.430461010557745
 10
6.825846987589504
 20
9.415696893949899
 10
6.825846987589504
 20
9.406510332505016
 10
6.825846987589504
 20
9.403557509183446
  0
LWPOLYLINE
  5
24E3
330
1E
100
AcDbEntity
  8
0
100
AcDbPolyline
 90
       15
 70
     0
 43
0.0
 10
6.825846987589504
 20
10.35371043576843
 10
6.825846987589504
 20
10.35075761244687
 10
6.825846987589504
 20
10.34189914248216
 10
6.825846987589504
 20
10.32713502587431
 10
6.825846987589504
 20
10.3067933541035
 10
6.825846987589504
 20
10.28087412716972
 10
6.825846987589504
 20
10.25003352803333
 10
6.825846987589504
 20
10.2145996481745
 10
6.825846987589504
 20
10.1749005790734
 10
6.825846987589504
 20
10.13126441221021
 10
6.825846987589504
 20
10.08467542202545
 10
6.825846987589504
 20
10.03546169999929
 10
6.825846987589504
 20
9.984279429092092
 10
6.825846987589504
 20
9.931784792264192
 10
6.825846987589504
 20
9.878633972475943
  0
LWPOLYLINE
  5
24F4
330
1E
100
AcDbEntity
  8
0
100
AcDbPolyline
 90
       14
 70
     0
 43
0.0
 10
7.569958464624988
 20
9.878633972475943
 10
7.569958464624988
 20
9.83040452489031
 10
7.569958464624988
 20
9.782503168784851
 10
7.569958464624988
 20
9.736242270080264
 10
7.569958464624988
 20
9.691949920256723
 10
7.569958464624988
 20
9.650610393754751
 10
7.569958464624988
 20
9.612551782054524
 10
7.569958464624988
 20
9.578102176636214
 10
7.569958464624988
 20
9.548245851940347
 10
7.569958464624988
 20
9.523310899447094
 10
7.569958464624988
 20
9.503297319156457
 10
7.569958464624988
 20
9.488861294028785
 10
7.569958464624988
 20
9.480002824064076
 10
7.569958464624988
 20
9.477050000742508
  0
LWPOLYLINE
  5
2504
330
1E
100
AcDbEntity
  8
0
100
AcDbPolyline
 90
       14
 70
     0
 43
0.0
 10
7.569958464624988
 20
10.28021794420937
 10
7.569958464624988
 20
10.27726512088781
 10
7.569958464624988
 20
10.2684066509231
 10
7.569958464624988
 20
10.25397062579542
 10
7.569958464624988
 20
10.23428513698496
 10
7.569958464624988
 20
10.20902209301153
 10
7.569958464624988
 20
10.17916576831567
 10
7.569958464624988
 20
10.14504425437753
 10
7.569958464624988
 20
10.10665755119713
 10
7.569958464624988
 20
10.06531802469516
 10
7.569958464624988
 20
10.02102567487162
 10
7.569958464624988
 20
9.974764776167035
 10
7.569958464624988
 20
9.927191511541749
 10
7.569958464624988
 20
9.878633972475943
  0
LWPOLYLINE
  5
2514
330
1E
100
AcDbEntity
  8
0
100
AcDbPolyline
 90
       14
 70
     0
 43
0.0
 10
7.47185911205285
 20
9.878633972475943
 10
7.47185911205285
 20
9.927191511541749
 10
7.47185911205285
 20
9.974764776167035
 10
7.47185911205285
 20
10.02102567487162
 10
7.47185911205285
 20
10.06531802469516
 10
7.47185911205285
 20
10.10665755119713
 10
7.47185911205285
 20
10.14504425437753
 10
7.47185911205285
 20
10.17916576831567
 10
7.47185911205285
 20
10.20902209301153
 10
7.47185911205285
 20
10.23428513698496
 10
7.47185911205285
 20
10.25397062579542
 10
7.47185911205285
 20
10.2684066509231
 10
7.47185911205285
 20
10.27726512088781
 10
7.47185911205285
 20
10.28021794420937
  0
LWPOLYLINE
  5
2524
330
1E
100
AcDbEntity
  8
0
100
AcDbPolyline
 90
       14
 70
     0
 43
0.0
 10
7.47185911205285
 20
9.477050000742508
 10
7.47185911205285
 20
9.480002824064076
 10
7.47185911205285
 20
9.488861294028785
 10
7.47185911205285
 20
9.503297319156457
 10
7.47185911205285
 20
9.523310899447094
 10
7.47185911205285
 20
9.548245851940347
 10
7.47185911205285
 20
9.578102176636214
 10
7.47185911205285
 20
9.612551782054524
 10
7.47185911205285
 20
9.650610393754751
 10
7.47185911205285
 20
9.691949920256723
 10
7.47185911205285
 20
9.736242270080264
 10
7.47185911205285
 20
9.782503168784851
 10
7.47185911205285
 20
9.83040452489031
 10
7.47185911205285
 20
9.878633972475943
  0
LWPOLYLINE
  5
2534
330
1E
100
AcDbEntity
  8
0
100
AcDbPolyline
 90
       14
 70
     0
 43
0.0
 10
7.51385482151517
 20
9.878633972475943
 10
7.51385482151517
 20
9.83040452489031
 10
7.51385482151517
 20
9.782503168784851
 10
7.51385482151517
 20
9.736242270080264
 10
7.51385482151517
 20
9.691949920256723
 10
7.51385482151517
 20
9.650610393754751
 10
7.51385482151517
 20
9.612551782054524
 10
7.51385482151517
 20
9.578102176636214
 10
7.51385482151517
 20
9.548245851940347
 10
7.51385482151517
 20
9.523310899447094
 10
7.51385482151517
 20
9.503297319156457
 10
7.51385482151517
 20
9.488861294028785
 10
7.51385482151517
 20
9.480002824064076
 10
7.51385482151517
 20
9.477050000742508
  0
LWPOLYLINE
  5
2544
330
1E
100
AcDbEntity
  8
0
100
AcDbPolyline
 90
       14
 70
     0
 43
0.0
 10
7.51385482151517
 20
10.28021794420937
 10
7.51385482151517
 20
10.27726512088781
 10
7.51385482151517
 20
10.2684066509231
 10
7.51385482151517
 20
10.25397062579542
 10
7.51385482151517
 20
10.23428513698496
 10
7.51385482151517
 20
10.20902209301153
 10
7.51385482151517
 20
10.17916576831567
 10
7.51385482151517
 20
10.14504425437753
 10
7.51385482151517
 20
10.10665755119713
 10
7.51385482151517
 20
10.06531802469516
 10
7.51385482151517
 20
10.02102567487162
 10
7.51385482151517
 20
9.974764776167035
 10
7.51385482151517
 20
9.927191511541749
 10
7.51385482151517
 20
9.878633972475943
  0
LWPOLYLINE
  5
2554
330
1E
100
AcDbEntity
  8
0
100
AcDbPolyline
 90
        3
 70
     0
 43
0.0
 10
7.625734016254632
 20
10.35371043576843
 10
7.625734016254632
 20
10.3310721236364
 10
7.625734016254632
 20
10.30482480522245
  0
LWPOLYLINE
  5
2559
330
1E
100
AcDbEntity
  8
0
100
AcDbPolyline
 90
        3
 70
     0
 43
0.0
 10
7.625734016254632
 20
9.452771231209602
 10
7.625734016254632
 20
9.426195821315479
 10
7.625734016254632
 20
9.403557509183446
  0
LWPOLYLINE
  5
255E
330
1E
100
AcDbEntity
  8
0
100
AcDbPolyline
 90
        3
 70
     0
 43
0.0
 10
7.625734016254632
 20
9.927519603021924
 10
7.625734016254632
 20
9.878633972475943
 10
7.625734016254632
 20
9.829748341929962
  0
LWPOLYLINE
  5
2563
330
1E
100
AcDbEntity
  8
0
100
AcDbPolyline
 90
        3
 70
     0
 43
0.0
 10
7.825869819161002
 20
10.30482480522245
 10
7.825869819161002
 20
10.3310721236364
 10
7.825869819161002
 20
10.35371043576843
  0
LWPOLYLINE
  5
2568
330
1E
100
AcDbEntity
  8
0
100
AcDbPolyline
 90
        3
 70
     0
 43
0.0
 10
7.825869819161002
 20
9.403557509183446
 10
7.825869819161002
 20
9.426195821315479
 10
7.825869819161002
 20
9.452771231209602
  0
LWPOLYLINE
  5
256D
330
1E
100
AcDbEntity
  8
0
100
AcDbPolyline
 90
        3
 70
     0
 43
0.0
 10
7.825869819161002
 20
9.829748341929962
 10
7.825869819161002
 20
9.878633972475943
 10
7.825869819161002
 20
9.927519603021924
  0
LWPOLYLINE
  5
2572
330
1E
100
AcDbEntity
  8
0
100
AcDbPolyline
 90
        5
 70
     0
 43
0.0
 10
8.845906231023136
 20
9.356312336038337
 10
8.86493553687325
 20
9.359921342320255
 10
8.881340110881968
 20
9.370748361166009
 10
8.892167129727724
 20
9.387152935174729
 10
8.89577613600964
 20
9.406182241024842
  0
LWPOLYLINE
  5
2579
330
1E
100
AcDbEntity
  8
0
100
AcDbPolyline
 90
        5
 70
     0
 43
0.0
 10
8.89577613600964
 20
10.35108570392704
 10
8.892167129727724
 20
10.37044310125733
 10
8.881340110881968
 20
10.38651958378587
 10
8.86493553687325
 20
10.39734660263163
 10
8.845906231023136
 20
10.40128370039372
  0
LWPOLYLINE
  5
2580
330
1E
100
AcDbEntity
  8
0
100
AcDbPolyline
 90
        3
 70
     0
 43
0.0
 10
8.645770428116767
 20
9.576133627755169
 10
8.645770428116767
 20
9.61747315425714
 10
8.645770428116767
 20
9.661109321120331
  0
LWPOLYLINE
  5
2585
330
1E
100
AcDbEntity
  8
0
100
AcDbPolyline
 90
        3
 70
     0
 43
0.0
 10
8.645770428116767
 20
9.356312336038337
 10
8.645770428116767
 20
9.356640427518511
 10
8.645770428116767
 20
9.358608976399558
  0
LWPOLYLINE
  5
258A
330
1E
100
AcDbEntity
  8
0
100
AcDbPolyline
 90
        3
 70
     0
 43
0.0
 10
8.645770428116767
 20
10.3989870600325
 10
8.645770428116767
 20
10.40062751743337
 10
8.645770428116767
 20
10.40128370039372
  0
LWPOLYLINE
  5
258F
330
1E
100
AcDbEntity
  8
0
100
AcDbPolyline
 90
        3
 70
     0
 43
0.0
 10
8.645770428116767
 20
10.09648671531172
 10
8.645770428116767
 20
10.13979479069474
 10
8.645770428116767
 20
10.18113431719671
  0
LWPOLYLINE
  5
2594
330
1E
100
AcDbEntity
  8
0
100
AcDbPolyline
 90
        3
 70
     0
 43
0.0
 10
8.845906231023136
 20
9.576133627755169
 10
8.845906231023136
 20
9.61747315425714
 10
8.845906231023136
 20
9.661109321120331
  0
LWPOLYLINE
  5
2599
330
1E
100
AcDbEntity
  8
0
100
AcDbPolyline
 90
        3
 70
     0
 43
0.0
 10
8.845906231023136
 20
9.356312336038337
 10
8.845906231023136
 20
9.356640427518511
 10
8.845906231023136
 20
9.358608976399558
  0
LWPOLYLINE
  5
259E
330
1E
100
AcDbEntity
  8
0
100
AcDbPolyline
 90
        3
 70
     0
 43
0.0
 10
8.845906231023136
 20
10.3989870600325
 10
8.845906231023136
 20
10.40062751743337
 10
8.845906231023136
 20
10.40128370039372
  0
LWPOLYLINE
  5
25A3
330
1E
100
AcDbEntity
  8
0
100
AcDbPolyline
 90
        3
 70
     0
 43
0.0
 10
8.845906231023136
 20
10.09648671531172
 10
8.845906231023136
 20
10.13979479069474
 10
8.845906231023136
 20
10.18113431719671
  0
LWPOLYLINE
  5
25A8
330
1E
100
AcDbEntity
  8
0
100
AcDbPolyline
 90
       14
 70
     0
 43
0.0
 10
8.235984169378971
 20
9.878633972475943
 10
8.235984169378971
 20
9.923910596740007
 10
8.235984169378971
 20
9.968531038043721
 10
8.235984169378971
 20
10.01151102194656
 10
8.235984169378971
 20
10.05285054844853
 10
8.235984169378971
 20
10.09156534310911
 10
8.235984169378971
 20
10.12732731444812
 10
8.235984169378971
 20
10.1594802795052
 10
8.235984169378971
 20
10.18736805532003
 10
8.235984169378971
 20
10.21066255041241
 10
8.235984169378971
 20
10.22936376478235
 10
8.235984169378971
 20
10.2428155154695
 10
8.235984169378971
 20
10.25101780247386
 10
8.235984169378971
 20
10.25364253431525
  0
LWPOLYLINE
  5
25B8
330
1E
100
AcDbEntity
  8
0
100
AcDbPolyline
 90
       14
 70
     0
 43
0.0
 10
8.235984169378971
 20
9.503625410636631
 10
8.235984169378971
 20
9.506250142478027
 10
8.235984169378971
 20
9.514452429482386
 10
8.235984169378971
 20
9.527904180169535
 10
8.235984169378971
 20
9.546605394539476
 10
8.235984169378971
 20
9.569899889631855
 10
8.235984169378971
 20
9.598115756926851
 10
8.235984169378971
 20
9.629940630503766
 10
8.235984169378971
 20
9.665702601842774
 10
8.235984169378971
 20
9.70441739650335
 10
8.235984169378971
 20
9.74575692300532
 10
8.235984169378971
 20
9.789064998388338
 10
8.235984169378971
 20
9.83335734821188
 10
8.235984169378971
 20
9.878633972475943
  0
LWPOLYLINE
  5
25C8
330
1E
100
AcDbEntity
  8
0
100
AcDbPolyline
 90
        8
 70
     0
 43
0.0
 10
6.705765505845683
 20
9.523638990927269
 10
6.709046420647426
 20
9.497063581033144
 10
6.717904890612135
 20
9.471472445579543
 10
6.732012824259633
 20
9.44883413344751
 10
6.751042130109746
 20
9.429804827597397
 10
6.773680442241778
 20
9.415696893949899
 10
6.79927157769538
 20
9.40683842398519
 10
6.825846987589504
 20
9.403557509183446
  0
LWPOLYLINE
  5
25D2
330
1E
100
AcDbEntity
  8
0
100
AcDbPolyline
 90
        8
 70
     0
 43
0.0
 10
6.825846987589504
 20
10.35371043576843
 10
6.79927157769538
 20
10.35075761244687
 10
6.773680442241778
 20
10.34189914248216
 10
6.751042130109746
 20
10.32746311735449
 10
6.732012824259633
 20
10.30843381150437
 10
6.717904890612135
 20
10.28579549937234
 10
6.709046420647426
 20
10.26053245539891
 10
6.705765505845683
 20
10.23362895402461
  0
LWPOLYLINE
  5
25DC
330
1E
100
AcDbEntity
  8
0
100
AcDbPolyline
 90
        3
 70
     0
 43
0.0
 10
7.425926304828438
 20
9.927519603021924
 10
7.425926304828438
 20
9.878633972475943
 10
7.425926304828438
 20
9.829748341929962
  0
LWPOLYLINE
  5
25E1
330
1E
100
AcDbEntity
  8
0
100
AcDbPolyline
 90
        3
 70
     0
 43
0.0
 10
7.425926304828438
 20
10.35371043576843
 10
7.425926304828438
 20
10.3310721236364
 10
7.425926304828438
 20
10.30482480522245
  0
LWPOLYLINE
  5
25E6
330
1E
100
AcDbEntity
  8
0
100
AcDbPolyline
 90
        3
 70
     0
 43
0.0
 10
7.425926304828438
 20
9.452771231209602
 10
7.425926304828438
 20
9.426195821315479
 10
7.425926304828438
 20
9.403557509183446
  0
LWPOLYLINE
  5
25EB
330
1E
100
AcDbEntity
  8
0
100
AcDbPolyline
 90
        3
 70
     0
 43
0.0
 10
6.973160062187799
 20
9.927519603021924
 10
6.973160062187799
 20
9.878633972475943
 10
6.973160062187799
 20
9.829748341929962
  0
LWPOLYLINE
  5
25F0
330
1E
100
AcDbEntity
  8
0
100
AcDbPolyline
 90
        3
 70
     0
 43
0.0
 10
6.973160062187799
 20
10.35371043576843
 10
6.973160062187799
 20
10.3310721236364
 10
6.973160062187799
 20
10.30482480522245
  0
LWPOLYLINE
  5
25F5
330
1E
100
AcDbEntity
  8
0
100
AcDbPolyline
 90
        3
 70
     0
 43
0.0
 10
6.973160062187799
 20
9.452771231209602
 10
6.973160062187799
 20
9.426195821315479
 10
6.973160062187799
 20
9.403557509183446
  0
LWPOLYLINE
  5
25FA
330
1E
100
AcDbEntity
  8
0
100
AcDbPolyline
 90
       10
 70
     0
 43
0.0
 10
6.945928469333326
 20
9.641095740829694
 10
6.945928469333326
 20
9.595162933605282
 10
6.945928469333326
 20
9.552839132662787
 10
6.945928469333326
 20
9.51478052096256
 10
6.945928469333326
 20
9.481971372945123
 10
6.945928469333326
 20
9.454083597130301
 10
6.945928469333326
 20
9.432429559438791
 10
6.945928469333326
 20
9.416353076910247
 10
6.945928469333326
 20
9.40683842398519
 10
6.945928469333326
 20
9.403557509183446
  0
LWPOLYLINE
  5
2606
330
1E
100
AcDbEntity
  8
0
100
AcDbPolyline
 90
       10
 70
     0
 43
0.0
 10
6.945928469333326
 20
10.11617220412219
 10
6.945928469333326
 20
10.06695848209603
 10
6.945928469333326
 20
10.01479193674831
 10
6.945928469333326
 20
9.961313025479885
 10
6.945928469333326
 20
9.906193656810589
 10
6.945928469333326
 20
9.851074288141296
 10
6.945928469333326
 20
9.796283010952175
 10
6.945928469333326
 20
9.742476008203578
 10
6.945928469333326
 20
9.690637554336026
 10
6.945928469333326
 20
9.641095740829694
  0
LWPOLYLINE
  5
2612
330
1E
100
AcDbEntity
  8
0
100
AcDbPolyline
 90
       10
 70
     0
 43
0.0
 10
6.945928469333326
 20
10.35371043576843
 10
6.945928469333326
 20
10.35042952096669
 10
6.945928469333326
 20
10.34091486804163
 10
6.945928469333326
 20
10.32516647699327
 10
6.945928469333326
 20
10.30318434782158
 10
6.945928469333326
 20
10.27562466348693
 10
6.945928469333326
 20
10.24248742398932
 10
6.945928469333326
 20
10.20475690376927
 10
6.945928469333326
 20
10.16243310282677
 10
6.945928469333326
 20
10.11617220412219
  0
LWPOLYLINE
  5
261E
330
1E
100
AcDbEntity
  8
0
100
AcDbPolyline
 90
       15
 70
     0
 43
0.0
 10
6.825846987589504
 20
9.878633972475943
 10
6.825846987589504
 20
9.825483152687695
 10
6.825846987589504
 20
9.772988515859793
 10
6.825846987589504
 20
9.721806244952592
 10
6.825846987589504
 20
9.672592522926436
 10
6.825846987589504
 20
9.626003532741673
 10
6.825846987589504
 20
9.582367365878482
 10
6.825846987589504
 20
9.542668296777382
 10
6.825846987589504
 20
9.507234416918549
 10
6.825846987589504
 20
9.476393817782158
 10
6.825846987589504
 20
9.450802682328557
 10
6.825846987589504
 20
9.430461010557745
 10
6.825846987589504
 20
9.415696893949899
 10
6.825846987589504
 20
9.406510332505016
 10
6.825846987589504
 20
9.403557509183446
  0
LWPOLYLINE
  5
262F
330
1E
100
AcDbEntity
  8
0
100
AcDbPolyline
 90
       15
 70
     0
 43
0.0
 10
6.825846987589504
 20
10.35371043576843
 10
6.825846987589504
 20
10.35075761244687
 10
6.825846987589504
 20
10.34189914248216
 10
6.825846987589504
 20
10.32713502587431
 10
6.825846987589504
 20
10.3067933541035
 10
6.825846987589504
 20
10.28087412716972
 10
6.825846987589504
 20
10.25003352803333
 10
6.825846987589504
 20
10.2145996481745
 10
6.825846987589504
 20
10.1749005790734
 10
6.825846987589504
 20
10.13126441221021
 10
6.825846987589504
 20
10.08467542202545
 10
6.825846987589504
 20
10.03546169999929
 10
6.825846987589504
 20
9.984279429092092
 10
6.825846987589504
 20
9.931784792264192
 10
6.825846987589504
 20
9.878633972475943
  0
LWPOLYLINE
  5
2640
330
1E
100
AcDbEntity
  8
0
100
AcDbPolyline
 90
       14
 70
     0
 43
0.0
 10
7.569958464624988
 20
9.878633972475943
 10
7.569958464624988
 20
9.83040452489031
 10
7.569958464624988
 20
9.782503168784851
 10
7.569958464624988
 20
9.736242270080264
 10
7.569958464624988
 20
9.691949920256723
 10
7.569958464624988
 20
9.650610393754751
 10
7.569958464624988
 20
9.612551782054524
 10
7.569958464624988
 20
9.578102176636214
 10
7.569958464624988
 20
9.548245851940347
 10
7.569958464624988
 20
9.523310899447094
 10
7.569958464624988
 20
9.503297319156457
 10
7.569958464624988
 20
9.488861294028785
 10
7.569958464624988
 20
9.480002824064076
 10
7.569958464624988
 20
9.477050000742508
  0
LWPOLYLINE
  5
2650
330
1E
100
AcDbEntity
  8
0
100
AcDbPolyline
 90
       14
 70
     0
 43
0.0
 10
7.569958464624988
 20
10.28021794420937
 10
7.569958464624988
 20
10.27726512088781
 10
7.569958464624988
 20
10.2684066509231
 10
7.569958464624988
 20
10.25397062579542
 10
7.569958464624988
 20
10.23428513698496
 10
7.569958464624988
 20
10.20902209301153
 10
7.569958464624988
 20
10.17916576831567
 10
7.569958464624988
 20
10.14504425437753
 10
7.569958464624988
 20
10.10665755119713
 10
7.569958464624988
 20
10.06531802469516
 10
7.569958464624988
 20
10.02102567487162
 10
7.569958464624988
 20
9.974764776167035
 10
7.569958464624988
 20
9.927191511541749
 10
7.569958464624988
 20
9.878633972475943
  0
LWPOLYLINE
  5
2660
330
1E
100
AcDbEntity
  8
0
100
AcDbPolyline
 90
       14
 70
     0
 43
0.0
 10
7.47185911205285
 20
9.878633972475943
 10
7.47185911205285
 20
9.927191511541749
 10
7.47185911205285
 20
9.974764776167035
 10
7.47185911205285
 20
10.02102567487162
 10
7.47185911205285
 20
10.06531802469516
 10
7.47185911205285
 20
10.10665755119713
 10
7.47185911205285
 20
10.14504425437753
 10
7.47185911205285
 20
10.17916576831567
 10
7.47185911205285
 20
10.20902209301153
 10
7.47185911205285
 20
10.23428513698496
 10
7.47185911205285
 20
10.25397062579542
 10
7.47185911205285
 20
10.2684066509231
 10
7.47185911205285
 20
10.27726512088781
 10
7.47185911205285
 20
10.28021794420937
  0
LWPOLYLINE
  5
2670
330
1E
100
AcDbEntity
  8
0
100
AcDbPolyline
 90
       14
 70
     0
 43
0.0
 10
7.47185911205285
 20
9.477050000742508
 10
7.47185911205285
 20
9.480002824064076
 10
7.47185911205285
 20
9.488861294028785
 10
7.47185911205285
 20
9.503297319156457
 10
7.47185911205285
 20
9.523310899447094
 10
7.47185911205285
 20
9.548245851940347
 10
7.47185911205285
 20
9.578102176636214
 10
7.47185911205285
 20
9.612551782054524
 10
7.47185911205285
 20
9.650610393754751
 10
7.47185911205285
 20
9.691949920256723
 10
7.47185911205285
 20
9.736242270080264
 10
7.47185911205285
 20
9.782503168784851
 10
7.47185911205285
 20
9.83040452489031
 10
7.47185911205285
 20
9.878633972475943
  0
LWPOLYLINE
  5
2680
330
1E
100
AcDbEntity
  8
0
100
AcDbPolyline
 90
       14
 70
     0
 43
0.0
 10
7.51385482151517
 20
9.878633972475943
 10
7.51385482151517
 20
9.83040452489031
 10
7.51385482151517
 20
9.782503168784851
 10
7.51385482151517
 20
9.736242270080264
 10
7.51385482151517
 20
9.691949920256723
 10
7.51385482151517
 20
9.650610393754751
 10
7.51385482151517
 20
9.612551782054524
 10
7.51385482151517
 20
9.578102176636214
 10
7.51385482151517
 20
9.548245851940347
 10
7.51385482151517
 20
9.523310899447094
 10
7.51385482151517
 20
9.503297319156457
 10
7.51385482151517
 20
9.488861294028785
 10
7.51385482151517
 20
9.480002824064076
 10
7.51385482151517
 20
9.477050000742508
  0
LWPOLYLINE
  5
2690
330
1E
100
AcDbEntity
  8
0
100
AcDbPolyline
 90
       14
 70
     0
 43
0.0
 10
7.51385482151517
 20
10.28021794420937
 10
7.51385482151517
 20
10.27726512088781
 10
7.51385482151517
 20
10.2684066509231
 10
7.51385482151517
 20
10.25397062579542
 10
7.51385482151517
 20
10.23428513698496
 10
7.51385482151517
 20
10.20902209301153
 10
7.51385482151517
 20
10.17916576831567
 10
7.51385482151517
 20
10.14504425437753
 10
7.51385482151517
 20
10.10665755119713
 10
7.51385482151517
 20
10.06531802469516
 10
7.51385482151517
 20
10.02102567487162
 10
7.51385482151517
 20
9.974764776167035
 10
7.51385482151517
 20
9.927191511541749
 10
7.51385482151517
 20
9.878633972475943
  0
LWPOLYLINE
  5
26A0
330
1E
100
AcDbEntity
  8
0
100
AcDbPolyline
 90
        3
 70
     0
 43
0.0
 10
7.625734016254632
 20
10.35371043576843
 10
7.625734016254632
 20
10.3310721236364
 10
7.625734016254632
 20
10.30482480522245
  0
LWPOLYLINE
  5
26A5
330
1E
100
AcDbEntity
  8
0
100
AcDbPolyline
 90
        3
 70
     0
 43
0.0
 10
7.625734016254632
 20
9.452771231209602
 10
7.625734016254632
 20
9.426195821315479
 10
7.625734016254632
 20
9.403557509183446
  0
LWPOLYLINE
  5
26AA
330
1E
100
AcDbEntity
  8
0
100
AcDbPolyline
 90
        3
 70
     0
 43
0.0
 10
7.625734016254632
 20
9.927519603021924
 10
7.625734016254632
 20
9.878633972475943
 10
7.625734016254632
 20
9.829748341929962
  0
LWPOLYLINE
  5
26AF
330
1E
100
AcDbEntity
  8
0
100
AcDbPolyline
 90
        3
 70
     0
 43
0.0
 10
7.825869819161002
 20
10.30482480522245
 10
7.825869819161002
 20
10.3310721236364
 10
7.825869819161002
 20
10.35371043576843
  0
LWPOLYLINE
  5
26B4
330
1E
100
AcDbEntity
  8
0
100
AcDbPolyline
 90
        3
 70
     0
 43
0.0
 10
7.825869819161002
 20
9.403557509183446
 10
7.825869819161002
 20
9.426195821315479
 10
7.825869819161002
 20
9.452771231209602
  0
LWPOLYLINE
  5
26B9
330
1E
100
AcDbEntity
  8
0
100
AcDbPolyline
 90
        3
 70
     0
 43
0.0
 10
7.825869819161002
 20
9.829748341929962
 10
7.825869819161002
 20
9.878633972475943
 10
7.825869819161002
 20
9.927519603021924
  0
LWPOLYLINE
  5
26BE
330
1E
100
AcDbEntity
  8
0
100
AcDbPolyline
 90
       25
 70
     0
 43
0.0
 10
8.845906231023136
 20
9.661109321120331
 10
8.853124243586972
 20
9.66242168704103
 10
8.860014164670634
 20
9.665702601842774
 10
8.865591719833599
 20
9.670623974045389
 10
8.870185000556039
 20
9.676529620688528
 10
8.877403013119877
 20
9.689653279895502
 10
8.882652476802666
 20
9.703433122062826
 10
8.889542397886327
 20
9.732305172318172
 10
8.893151404168246
 20
9.761177222573516
 10
8.894791861569117
 20
9.790705455789211
 10
8.895448044529466
 20
9.81990559752473
 10
8.89577613600964
 20
9.849433830740423
 10
8.89577613600964
 20
9.878962063956118
 10
8.89577613600964
 20
9.908490297171811
 10
8.895448044529466
 20
9.937690438907331
 10
8.894791861569117
 20
9.967218672123024
 10
8.892823312688072
 20
9.996746905338717
 10
8.889542397886327
 20
10.02594704707423
 10
8.882652476802666
 20
10.0544910058494
 10
8.877403013119877
 20
10.06827084801673
 10
8.870185000556039
 20
10.08106641574353
 10
8.865263628353424
 20
10.08664397090649
 10
8.859686073190459
 20
10.09156534310911
 10
8.853124243586972
 20
10.09517434939103
 10
8.845906231023136
 20
10.09648671531172
  0
LWPOLYLINE
  5
26D9
330
1E
100
AcDbEntity
  8
0
100
AcDbPolyline
 90
       25
 70
     0
 43
0.0
 10
8.845906231023136
 20
9.358608976399558
 10
8.853124243586972
 20
9.359265159359907
 10
8.859686073190459
 20
9.360905616760778
 10
8.865591719833599
 20
9.363202257121999
 10
8.870185000556039
 20
9.366155080443569
 10
8.877403013119877
 20
9.372716910047056
 10
8.882652476802666
 20
9.379606831130718
 10
8.889542397886327
 20
9.394042856258391
 10
8.893151404168246
 20
9.408478881386063
 10
8.894791861569117
 20
9.422914906513735
 10
8.895448044529466
 20
9.437679023121582
 10
8.89577613600964
 20
9.452443139729428
 10
8.89577613600964
 20
9.467207256337275
 10
8.89577613600964
 20
9.481643281464949
 10
8.895448044529466
 20
9.496407398072795
 10
8.894791861569117
 20
9.511171514680642
 10
8.893151404168246
 20
9.525607539808316
 10
8.889542397886327
 20
9.540371656416162
 10
8.882980568282841
 20
9.554807681543834
 10
8.877731104600051
 20
9.561697602627496
 10
8.870185000556039
 20
9.568259432230984
 10
8.865591719833599
 20
9.571212255552552
 10
8.860014164670634
 20
9.573836987393947
 10
8.853452335067146
 20
9.57547744479482
 10
8.845906231023136
 20
9.576133627755169
  0
LWPOLYLINE
  5
26F4
330
1E
100
AcDbEntity
  8
0
100
AcDbPolyline
 90
       25
 70
     0
 43
0.0
 10
8.845906231023136
 20
10.18113431719671
 10
8.853124243586972
 20
10.18179050015706
 10
8.859686073190459
 20
10.18375904903811
 10
8.865591719833599
 20
10.18605568939933
 10
8.870185000556039
 20
10.1890085127209
 10
8.877403013119877
 20
10.19557034232439
 10
8.882652476802666
 20
10.20246026340805
 10
8.889542397886327
 20
10.21656819705555
 10
8.893151404168246
 20
10.23133231366339
 10
8.894791861569117
 20
10.24576833879107
 10
8.895448044529466
 20
10.26053245539891
 10
8.89577613600964
 20
10.27529657200676
 10
8.89577613600964
 20
10.28973259713443
 10
8.89577613600964
 20
10.30449671374228
 10
8.895448044529466
 20
10.31926083035012
 10
8.894791861569117
 20
10.3336968554778
 10
8.893151404168246
 20
10.34846097208565
 10
8.889542397886327
 20
10.36322508869349
 10
8.882980568282841
 20
10.37766111382117
 10
8.877731104600051
 20
10.38455103490483
 10
8.870185000556039
 20
10.39111286450831
 10
8.865591719833599
 20
10.39406568782988
 10
8.860014164670634
 20
10.3963623281911
 10
8.853452335067146
 20
10.39833087707215
 10
8.845906231023136
 20
10.3989870600325
  0
LWPOLYLINE
  5
270F
330
1E
100
AcDbEntity
  8
0
100
AcDbPolyline
 90
       16
 70
     0
 43
0.0
 10
8.89577613600964
 20
9.878633972475943
 10
8.89577613600964
 20
9.923910596740007
 10
8.89577613600964
 20
9.970499586924768
 10
8.89577613600964
 20
10.0174166685897
 10
8.89577613600964
 20
10.06433375025464
 10
8.89577613600964
 20
10.1096103745187
 10
8.89577613600964
 20
10.15324654138189
 10
8.89577613600964
 20
10.19392988492351
 10
8.89577613600964
 20
10.23067613070304
 10
8.89577613600964
 20
10.26315718724031
 10
8.89577613600964
 20
10.29071687157496
 10
8.89577613600964
 20
10.31335518370699
 10
8.89577613600964
 20
10.33041594067605
 10
8.89577613600964
 20
10.34222723396233
 10
8.89577613600964
 20
10.34911715504599
 10
8.89577613600964
 20
10.35108570392704
  0
LWPOLYLINE
  5
2721
330
1E
100
AcDbEntity
  8
0
100
AcDbPolyline
 90
        5
 70
     0
 43
0.0
 10
6.945928469333326
 20
9.641095740829694
 10
6.947568926734198
 20
9.593522476204411
 10
6.953146481897162
 20
9.5462773030593
 10
6.961676860381696
 20
9.499360221394365
 10
6.973160062187799
 20
9.452771231209602
  0
LWPOLYLINE
  5
2728
330
1E
100
AcDbEntity
  8
0
100
AcDbPolyline
 90
        5
 70
     0
 43
0.0
 10
6.973160062187799
 20
9.829748341929962
 10
6.961676860381696
 20
9.783159351745199
 10
6.953146481897162
 20
9.736242270080264
 10
6.947568926734198
 20
9.688997096935153
 10
6.945928469333326
 20
9.641095740829694
  0
LWPOLYLINE
  5
272F
330
1E
100
AcDbEntity
  8
0
100
AcDbPolyline
 90
        5
 70
     0
 43
0.0
 10
6.945928469333326
 20
10.11617220412219
 10
6.947568926734198
 20
10.0685989394969
 10
6.953146481897162
 20
10.02135376635179
 10
6.961676860381696
 20
9.97443668468686
 10
6.973160062187799
 20
9.927519603021924
  0
LWPOLYLINE
  5
2736
330
1E
100
AcDbEntity
  8
0
100
AcDbPolyline
 90
        5
 70
     0
 43
0.0
 10
6.973160062187799
 20
10.30482480522245
 10
6.961676860381696
 20
10.25823581503769
 10
6.953146481897162
 20
10.21131873337276
 10
6.947568926734198
 20
10.16374546874747
 10
6.945928469333326
 20
10.11617220412219
  0
LWPOLYLINE
  5
273D
330
1E
100
AcDbEntity
  8
0
100
AcDbPolyline
 90
        4
 70
     0
 43
0.0
 10
6.945928469333326
 20
10.35371043576843
 10
6.94920938413507
 20
10.35371043576843
 10
6.958395945579952
 20
10.35371043576843
 10
6.973160062187799
 20
10.35371043576843
  0
LWPOLYLINE
  5
2743
330
1E
100
AcDbEntity
  8
0
100
AcDbPolyline
 90
        4
 70
     0
 43
0.0
 10
6.973160062187799
 20
9.403557509183446
 10
6.958395945579952
 20
9.403557509183446
 10
6.94920938413507
 20
9.403557509183446
 10
6.945928469333326
 20
9.403557509183446
  0
LWPOLYLINE
  5
2749
330
1E
100
AcDbEntity
  8
0
100
AcDbPolyline
 90
        5
 70
     0
 43
0.0
 10
6.705765505845683
 20
9.571212255552552
 10
6.705765505845683
 20
9.55087058378174
 10
6.705765505845683
 20
9.53577837569372
 10
6.705765505845683
 20
9.526591814248838
 10
6.705765505845683
 20
9.523638990927269
  0
LWPOLYLINE
  5
2750
330
1E
100
AcDbEntity
  8
0
100
AcDbPolyline
 90
       25
 70
     0
 43
0.0
 10
8.845906231023136
 20
9.661109321120331
 10
8.853124243586972
 20
9.66242168704103
 10
8.860014164670634
 20
9.665702601842774
 10
8.865591719833599
 20
9.670623974045389
 10
8.870185000556039
 20
9.676529620688528
 10
8.877403013119877
 20
9.689653279895502
 10
8.882652476802666
 20
9.703433122062826
 10
8.889542397886327
 20
9.732305172318172
 10
8.893151404168246
 20
9.761177222573516
 10
8.894791861569117
 20
9.790705455789211
 10
8.895448044529466
 20
9.81990559752473
 10
8.89577613600964
 20
9.849433830740423
 10
8.89577613600964
 20
9.878962063956118
 10
8.89577613600964
 20
9.908490297171811
 10
8.895448044529466
 20
9.937690438907331
 10
8.894791861569117
 20
9.967218672123024
 10
8.892823312688072
 20
9.996746905338717
 10
8.889542397886327
 20
10.02594704707423
 10
8.882652476802666
 20
10.0544910058494
 10
8.877403013119877
 20
10.06827084801673
 10
8.870185000556039
 20
10.08106641574353
 10
8.865263628353424
 20
10.08664397090649
 10
8.859686073190459
 20
10.09156534310911
 10
8.853124243586972
 20
10.09517434939103
 10
8.845906231023136
 20
10.09648671531172
  0
LWPOLYLINE
  5
276B
330
1E
100
AcDbEntity
  8
0
100
AcDbPolyline
 90
       25
 70
     0
 43
0.0
 10
8.845906231023136
 20
9.358608976399558
 10
8.853124243586972
 20
9.359265159359907
 10
8.859686073190459
 20
9.360905616760778
 10
8.865591719833599
 20
9.363202257121999
 10
8.870185000556039
 20
9.366155080443569
 10
8.877403013119877
 20
9.372716910047056
 10
8.882652476802666
 20
9.379606831130718
 10
8.889542397886327
 20
9.394042856258391
 10
8.893151404168246
 20
9.408478881386063
 10
8.894791861569117
 20
9.422914906513735
 10
8.895448044529466
 20
9.437679023121582
 10
8.89577613600964
 20
9.452443139729428
 10
8.89577613600964
 20
9.467207256337275
 10
8.89577613600964
 20
9.481643281464949
 10
8.895448044529466
 20
9.496407398072795
 10
8.894791861569117
 20
9.511171514680642
 10
8.893151404168246
 20
9.525607539808316
 10
8.889542397886327
 20
9.540371656416162
 10
8.882980568282841
 20
9.554807681543834
 10
8.877731104600051
 20
9.561697602627496
 10
8.870185000556039
 20
9.568259432230984
 10
8.865591719833599
 20
9.571212255552552
 10
8.860014164670634
 20
9.573836987393947
 10
8.853452335067146
 20
9.57547744479482
 10
8.845906231023136
 20
9.576133627755169
  0
LWPOLYLINE
  5
2786
330
1E
100
AcDbEntity
  8
0
100
AcDbPolyline
 90
       25
 70
     0
 43
0.0
 10
8.845906231023136
 20
10.18113431719671
 10
8.853124243586972
 20
10.18179050015706
 10
8.859686073190459
 20
10.18375904903811
 10
8.865591719833599
 20
10.18605568939933
 10
8.870185000556039
 20
10.1890085127209
 10
8.877403013119877
 20
10.19557034232439
 10
8.882652476802666
 20
10.20246026340805
 10
8.889542397886327
 20
10.21656819705555
 10
8.893151404168246
 20
10.23133231366339
 10
8.894791861569117
 20
10.24576833879107
 10
8.895448044529466
 20
10.26053245539891
 10
8.89577613600964
 20
10.27529657200676
 10
8.89577613600964
 20
10.28973259713443
 10
8.89577613600964
 20
10.30449671374228
 10
8.895448044529466
 20
10.31926083035012
 10
8.894791861569117
 20
10.3336968554778
 10
8.893151404168246
 20
10.34846097208565
 10
8.889542397886327
 20
10.36322508869349
 10
8.882980568282841
 20
10.37766111382117
 10
8.877731104600051
 20
10.38455103490483
 10
8.870185000556039
 20
10.39111286450831
 10
8.865591719833599
 20
10.39406568782988
 10
8.860014164670634
 20
10.3963623281911
 10
8.853452335067146
 20
10.39833087707215
 10
8.845906231023136
 20
10.3989870600325
  0
LWPOLYLINE
  5
27A1
330
1E
100
AcDbEntity
  8
0
100
AcDbPolyline
 90
       16
 70
     0
 43
0.0
 10
8.89577613600964
 20
9.878633972475943
 10
8.89577613600964
 20
9.923910596740007
 10
8.89577613600964
 20
9.970499586924768
 10
8.89577613600964
 20
10.0174166685897
 10
8.89577613600964
 20
10.06433375025464
 10
8.89577613600964
 20
10.1096103745187
 10
8.89577613600964
 20
10.15324654138189
 10
8.89577613600964
 20
10.19392988492351
 10
8.89577613600964
 20
10.23067613070304
 10
8.89577613600964
 20
10.26315718724031
 10
8.89577613600964
 20
10.29071687157496
 10
8.89577613600964
 20
10.31335518370699
 10
8.89577613600964
 20
10.33041594067605
 10
8.89577613600964
 20
10.34222723396233
 10
8.89577613600964
 20
10.34911715504599
 10
8.89577613600964
 20
10.35108570392704
  0
LWPOLYLINE
  5
27B3
330
1E
100
AcDbEntity
  8
0
100
AcDbPolyline
 90
        5
 70
     0
 43
0.0
 10
6.945928469333326
 20
9.641095740829694
 10
6.947568926734198
 20
9.593522476204411
 10
6.953146481897162
 20
9.5462773030593
 10
6.961676860381696
 20
9.499360221394365
 10
6.973160062187799
 20
9.452771231209602
  0
LWPOLYLINE
  5
27BA
330
1E
100
AcDbEntity
  8
0
100
AcDbPolyline
 90
        5
 70
     0
 43
0.0
 10
6.973160062187799
 20
9.829748341929962
 10
6.961676860381696
 20
9.783159351745199
 10
6.953146481897162
 20
9.736242270080264
 10
6.947568926734198
 20
9.688997096935153
 10
6.945928469333326
 20
9.641095740829694
  0
LWPOLYLINE
  5
27C1
330
1E
100
AcDbEntity
  8
0
100
AcDbPolyline
 90
        5
 70
     0
 43
0.0
 10
6.945928469333326
 20
10.11617220412219
 10
6.947568926734198
 20
10.0685989394969
 10
6.953146481897162
 20
10.02135376635179
 10
6.961676860381696
 20
9.97443668468686
 10
6.973160062187799
 20
9.927519603021924
  0
LWPOLYLINE
  5
27C8
330
1E
100
AcDbEntity
  8
0
100
AcDbPolyline
 90
        5
 70
     0
 43
0.0
 10
6.973160062187799
 20
10.30482480522245
 10
6.961676860381696
 20
10.25823581503769
 10
6.953146481897162
 20
10.21131873337276
 10
6.947568926734198
 20
10.16374546874747
 10
6.945928469333326
 20
10.11617220412219
  0
LWPOLYLINE
  5
27CF
330
1E
100
AcDbEntity
  8
0
100
AcDbPolyline
 90
        4
 70
     0
 43
0.0
 10
6.945928469333326
 20
10.35371043576843
 10
6.94920938413507
 20
10.35371043576843
 10
6.958395945579952
 20
10.35371043576843
 10
6.973160062187799
 20
10.35371043576843
  0
LWPOLYLINE
  5
27D5
330
1E
100
AcDbEntity
  8
0
100
AcDbPolyline
 90
        4
 70
     0
 43
0.0
 10
6.973160062187799
 20
9.403557509183446
 10
6.958395945579952
 20
9.403557509183446
 10
6.94920938413507
 20
9.403557509183446
 10
6.945928469333326
 20
9.403557509183446
  0
LWPOLYLINE
  5
27DB
330
1E
100
AcDbEntity
  8
0
100
AcDbPolyline
 90
        5
 70
     0
 43
0.0
 10
6.705765505845683
 20
9.571212255552552
 10
6.705765505845683
 20
9.55087058378174
 10
6.705765505845683
 20
9.53577837569372
 10
6.705765505845683
 20
9.526591814248838
 10
6.705765505845683
 20
9.523638990927269
  0
LWPOLYLINE
  5
27E2
330
1E
100
AcDbEntity
  8
0
100
AcDbPolyline
 90
       17
 70
     0
 43
0.0
 10
6.705765505845683
 20
10.23362895402461
 10
6.705765505845683
 20
10.22936376478235
 10
6.705765505845683
 20
10.2159120140952
 10
6.705765505845683
 20
10.19261751900282
 10
6.705765505845683
 20
10.16046455394573
 10
6.705765505845683
 20
10.11978121040411
 10
6.705765505845683
 20
10.07319222021934
 10
6.705765505845683
 20
10.02266613227249
 10
6.705765505845683
 20
9.970499586924768
 10
6.705765505845683
 20
9.916364492695997
 10
6.705765505845683
 20
9.858620392185306
 10
6.705765505845683
 20
9.799892017234093
 10
6.705765505845683
 20
9.742804099683752
 10
6.705765505845683
 20
9.689653279895502
 10
6.705765505845683
 20
9.642080015270218
 10
6.705765505845683
 20
9.60238094616912
 10
6.705765505845683
 20
9.571212255552552
  0
LWPOLYLINE
  5
27F5
330
1E
100
AcDbEntity
  8
0
100
AcDbPolyline
 90
        5
 70
     0
 43
0.0
 10
6.705765505845683
 20
9.571212255552552
 10
6.705765505845683
 20
9.55087058378174
 10
6.705765505845683
 20
9.53577837569372
 10
6.705765505845683
 20
9.526591814248838
 10
6.705765505845683
 20
9.523638990927269
  0
LWPOLYLINE
  5
27FC
330
1E
100
AcDbEntity
  8
0
100
AcDbPolyline
 90
       10
 70
     0
 43
0.0
 10
6.945928469333326
 20
9.641095740829694
 10
6.945928469333326
 20
9.595162933605282
 10
6.945928469333326
 20
9.552839132662787
 10
6.945928469333326
 20
9.51478052096256
 10
6.945928469333326
 20
9.481971372945123
 10
6.945928469333326
 20
9.454083597130301
 10
6.945928469333326
 20
9.432429559438791
 10
6.945928469333326
 20
9.416353076910247
 10
6.945928469333326
 20
9.40683842398519
 10
6.945928469333326
 20
9.403557509183446
  0
LWPOLYLINE
  5
2808
330
1E
100
AcDbEntity
  8
0
100
AcDbPolyline
 90
       10
 70
     0
 43
0.0
 10
6.945928469333326
 20
10.11617220412219
 10
6.945928469333326
 20
10.06695848209603
 10
6.945928469333326
 20
10.01479193674831
 10
6.945928469333326
 20
9.961313025479885
 10
6.945928469333326
 20
9.906193656810589
 10
6.945928469333326
 20
9.851074288141296
 10
6.945928469333326
 20
9.796283010952175
 10
6.945928469333326
 20
9.742476008203578
 10
6.945928469333326
 20
9.690637554336026
 10
6.945928469333326
 20
9.641095740829694
  0
LWPOLYLINE
  5
2814
330
1E
100
AcDbEntity
  8
0
100
AcDbPolyline
 90
       10
 70
     0
 43
0.0
 10
6.945928469333326
 20
10.35371043576843
 10
6.945928469333326
 20
10.35042952096669
 10
6.945928469333326
 20
10.34091486804163
 10
6.945928469333326
 20
10.32516647699327
 10
6.945928469333326
 20
10.30318434782158
 10
6.945928469333326
 20
10.27562466348693
 10
6.945928469333326
 20
10.24248742398932
 10
6.945928469333326
 20
10.20475690376927
 10
6.945928469333326
 20
10.16243310282677
 10
6.945928469333326
 20
10.11617220412219
  0
LWPOLYLINE
  5
2820
330
1E
100
AcDbEntity
  8
0
100
AcDbPolyline
 90
        5
 70
     0
 43
0.0
 10
6.973160062187799
 20
10.30482480522245
 10
6.961676860381696
 20
10.25856390651787
 10
6.953146481897162
 20
10.21164682485293
 10
6.947897018214372
 20
10.16407356022764
 10
6.945928469333326
 20
10.11617220412219
  0
LWPOLYLINE
  5
2827
330
1E
100
AcDbEntity
  8
0
100
AcDbPolyline
 90
        3
 70
     0
 43
0.0
 10
6.973160062187799
 20
10.35371043576843
 10
6.973160062187799
 20
10.3310721236364
 10
6.973160062187799
 20
10.30482480522245
  0
LWPOLYLINE
  5
282C
330
1E
100
AcDbEntity
  8
0
100
AcDbPolyline
 90
        5
 70
     0
 43
0.0
 10
6.945928469333326
 20
10.35371043576843
 10
6.947568926734198
 20
10.35371043576843
 10
6.953146481897162
 20
10.35371043576843
 10
6.961676860381696
 20
10.35371043576843
 10
6.973160062187799
 20
10.35371043576843
  0
LWPOLYLINE
  5
2833
330
1E
100
AcDbEntity
  8
0
100
AcDbPolyline
 90
        5
 70
     0
 43
0.0
 10
6.973160062187799
 20
9.829748341929962
 10
6.961676860381696
 20
9.783487443225375
 10
6.953146481897162
 20
9.736898453040613
 10
6.947897018214372
 20
9.689325188415327
 10
6.945928469333326
 20
9.641095740829694
  0
LWPOLYLINE
  5
283A
330
1E
100
AcDbEntity
  8
0
100
AcDbPolyline
 90
        3
 70
     0
 43
0.0
 10
6.973160062187799
 20
9.927519603021924
 10
6.973160062187799
 20
9.878633972475943
 10
6.973160062187799
 20
9.829748341929962
  0
LWPOLYLINE
  5
283F
330
1E
100
AcDbEntity
  8
0
100
AcDbPolyline
 90
        5
 70
     0
 43
0.0
 10
6.945928469333326
 20
10.11617220412219
 10
6.947568926734198
 20
10.06892703097708
 10
6.953146481897162
 20
10.02200994931214
 10
6.961676860381696
 20
9.974764776167035
 10
6.973160062187799
 20
9.927519603021924
  0
LWPOLYLINE
  5
2846
330
1E
100
AcDbEntity
  8
0
100
AcDbPolyline
 90
        5
 70
     0
 43
0.0
 10
6.945928469333326
 20
9.641095740829694
 10
6.947568926734198
 20
9.594178659164759
 10
6.953146481897162
 20
9.54693348601965
 10
6.961676860381696
 20
9.499688312874539
 10
6.973160062187799
 20
9.452771231209602
  0
LWPOLYLINE
  5
284D
330
1E
100
AcDbEntity
  8
0
100
AcDbPolyline
 90
        5
 70
     0
 43
0.0
 10
6.973160062187799
 20
9.403557509183446
 10
6.961676860381696
 20
9.403557509183446
 10
6.953146481897162
 20
9.403557509183446
 10
6.947897018214372
 20
9.403557509183446
 10
6.945928469333326
 20
9.403557509183446
  0
LWPOLYLINE
  5
2854
330
1E
100
AcDbEntity
  8
0
100
AcDbPolyline
 90
        3
 70
     0
 43
0.0
 10
6.973160062187799
 20
9.452771231209602
 10
6.973160062187799
 20
9.426195821315479
 10
6.973160062187799
 20
9.403557509183446
  0
LINE
  5
2859
330
1E
100
AcDbEntity
  8
0
100
AcDbLine
 10
7.425926304828437
 20
9.403557509183446
 30
0.0
 11
6.973160062187799
 21
9.403557509183446
 31
0.0
  0
LWPOLYLINE
  5
285A
330
1E
100
AcDbEntity
  8
0
100
AcDbPolyline
 90
        3
 70
     0
 43
0.0
 10
7.425926304828438
 20
9.452771231209602
 10
7.425926304828438
 20
9.426195821315479
 10
7.425926304828438
 20
9.403557509183446
  0
LINE
  5
285F
330
1E
100
AcDbEntity
  8
0
100
AcDbLine
 10
6.973160062187799
 20
9.452771231209602
 30
0.0
 11
7.425926304828437
 21
9.452771231209602
 31
0.0
  0
LINE
  5
2860
330
1E
100
AcDbEntity
  8
0
100
AcDbLine
 10
7.425926304828437
 20
10.35371043576843
 30
0.0
 11
6.973160062187799
 21
10.35371043576843
 31
0.0
  0
LINE
  5
2861
330
1E
100
AcDbEntity
  8
0
100
AcDbLine
 10
7.425926304828437
 20
10.30482480522245
 30
0.0
 11
6.973160062187799
 21
10.30482480522245
 31
0.0
  0
LWPOLYLINE
  5
2862
330
1E
100
AcDbEntity
  8
0
100
AcDbPolyline
 90
        3
 70
     0
 43
0.0
 10
7.425926304828438
 20
10.35371043576843
 10
7.425926304828438
 20
10.3310721236364
 10
7.425926304828438
 20
10.30482480522245
  0
LINE
  5
2867
330
1E
100
AcDbEntity
  8
0
100
AcDbLine
 10
7.425926304828437
 20
9.927519603021924
 30
0.0
 11
6.973160062187799
 21
9.927519603021924
 31
0.0
  0
LINE
  5
2868
330
1E
100
AcDbEntity
  8
0
100
AcDbLine
 10
7.425926304828437
 20
10.30482480522245
 30
0.0
 11
7.425926304828437
 21
9.927519603021924
 31
0.0
  0
LINE
  5
2869
330
1E
100
AcDbEntity
  8
0
100
AcDbLine
 10
7.425926304828437
 20
9.82974834192996
 30
0.0
 11
6.973160062187799
 21
9.82974834192996
 31
0.0
  0
LWPOLYLINE
  5
286A
330
1E
100
AcDbEntity
  8
0
100
AcDbPolyline
 90
        3
 70
     0
 43
0.0
 10
7.425926304828438
 20
9.927519603021924
 10
7.425926304828438
 20
9.878633972475943
 10
7.425926304828438
 20
9.829748341929962
  0
LINE
  5
286F
330
1E
100
AcDbEntity
  8
0
100
AcDbLine
 10
7.425926304828437
 20
9.82974834192996
 30
0.0
 11
7.425926304828437
 21
9.452771231209602
 31
0.0
  0
LWPOLYLINE
  5
2870
330
1E
100
AcDbEntity
  8
0
100
AcDbPolyline
 90
       15
 70
     0
 43
0.0
 10
8.89577613600964
 20
9.406182241024842
 10
8.89577613600964
 20
9.40979124730676
 10
8.89577613600964
 20
9.420618266152514
 10
8.89577613600964
 20
9.439319480522454
 10
8.89577613600964
 20
9.459004969332916
 10
8.89577613600964
 20
9.48328373886582
 10
8.89577613600964
 20
9.51182769764099
 10
8.89577613600964
 20
9.544636845658429
 10
8.89577613600964
 20
9.580726908477609
 10
8.89577613600964
 20
9.620097886098534
 10
8.89577613600964
 20
9.66176550408068
 10
8.89577613600964
 20
9.704745487983524
 10
8.89577613600964
 20
9.763145771454563
 10
8.89577613600964
 20
9.821546054925601
 10
8.89577613600964
 20
9.878633972475943
  0
LWPOLYLINE
  5
2881
330
1E
100
AcDbEntity
  8
0
100
AcDbPolyline
 90
       15
 70
     0
 43
0.0
 10
8.89577613600964
 20
9.878633972475943
 10
8.89577613600964
 20
9.935721890026284
 10
8.89577613600964
 20
9.994122173497324
 10
8.89577613600964
 20
10.05252245696836
 10
8.89577613600964
 20
10.09583053235137
 10
8.89577613600964
 20
10.13717005885335
 10
8.89577613600964
 20
10.17654103647427
 10
8.89577613600964
 20
10.21295919077363
 10
8.89577613600964
 20
10.24544024731089
 10
8.89577613600964
 20
10.27431229756624
 10
8.89577613600964
 20
10.29826297561897
 10
8.89577613600964
 20
10.31794846442943
 10
8.89577613600964
 20
10.33697777027954
 10
8.89577613600964
 20
10.3478047891253
 10
8.89577613600964
 20
10.35108570392704
  0
LWPOLYLINE
  5
2892
330
1E
100
AcDbEntity
  8
0
100
AcDbPolyline
 90
       20
 70
     0
 43
0.0
 10
8.845906231023136
 20
9.661109321120331
 10
8.853452335067146
 20
9.66242168704103
 10
8.86132653059133
 20
9.667014967763471
 10
8.871169274996564
 20
9.677841986609225
 10
8.877731104600051
 20
9.69030946285585
 10
8.882980568282841
 20
9.703761213543
 10
8.891182855287199
 20
9.741491733763053
 10
8.894463770088943
 20
9.780534619903804
 10
8.895448044529466
 20
9.819577506044556
 10
8.89577613600964
 20
9.878633972475943
 10
8.89577613600964
 20
9.928831968942622
 10
8.894135678608769
 20
9.978701873929129
 10
8.891182855287199
 20
10.01315147934743
 10
8.884621025683712
 20
10.04727299328557
 10
8.8783872875604
 20
10.06597420765551
 10
8.872481640917261
 20
10.07745740946161
 10
8.864279353912902
 20
10.08762824534702
 10
8.857061341349066
 20
10.09320580050998
 10
8.848530962864531
 20
10.09615862383155
 10
8.845906231023136
 20
10.09648671531172
  0
LWPOLYLINE
  5
28A8
330
1E
100
AcDbEntity
  8
0
100
AcDbPolyline
 90
        3
 70
     0
 43
0.0
 10
8.845906231023136
 20
9.576133627755169
 10
8.845906231023136
 20
9.61747315425714
 10
8.845906231023136
 20
9.661109321120331
  0
LWPOLYLINE
  5
28AD
330
1E
100
AcDbEntity
  8
0
100
AcDbPolyline
 90
       20
 70
     0
 43
0.0
 10
8.845906231023136
 20
9.358608976399558
 10
8.853452335067146
 20
9.359265159359907
 10
8.86132653059133
 20
9.361561799721126
 10
8.871169274996564
 20
9.366811263403917
 10
8.877731104600051
 20
9.373045001527231
 10
8.882980568282841
 20
9.379934922610893
 10
8.891182855287199
 20
9.398636136980831
 10
8.894463770088943
 20
9.418321625791294
 10
8.895448044529466
 20
9.437679023121582
 10
8.896760410450164
 20
9.460645426733789
 10
8.898072776370861
 20
9.48393992182617
 10
8.897416593410513
 20
9.506906325438375
 10
8.893479495648421
 20
9.52987272905058
 10
8.884292934203537
 20
9.552182949702439
 10
8.878059196080226
 20
9.561369511147322
 10
8.872153549437086
 20
9.566947066310286
 10
8.864279353912902
 20
9.5718684385129
 10
8.857061341349066
 20
9.574821261834472
 10
8.848202871384355
 20
9.576133627755169
 10
8.845906231023136
 20
9.576133627755169
  0
LWPOLYLINE
  5
28C3
330
1E
100
AcDbEntity
  8
0
100
AcDbPolyline
 90
        3
 70
     0
 43
0.0
 10
8.845906231023136
 20
9.356312336038337
 10
8.845906231023136
 20
9.356640427518511
 10
8.845906231023136
 20
9.358608976399558
  0
LWPOLYLINE
  5
28C8
330
1E
100
AcDbEntity
  8
0
100
AcDbPolyline
 90
        3
 70
     0
 43
0.0
 10
8.845906231023136
 20
10.3989870600325
 10
8.845906231023136
 20
10.40062751743337
 10
8.845906231023136
 20
10.40128370039372
  0
LWPOLYLINE
  5
28CD
330
1E
100
AcDbEntity
  8
0
100
AcDbPolyline
 90
       20
 70
     0
 43
0.0
 10
8.845906231023136
 20
10.18113431719671
 10
8.853452335067146
 20
10.18179050015706
 10
8.86132653059133
 20
10.18408714051828
 10
8.871169274996564
 20
10.18966469568125
 10
8.877731104600051
 20
10.19589843380456
 10
8.882980568282841
 20
10.20246026340805
 10
8.891182855287199
 20
10.22148956925816
 10
8.894463770088943
 20
10.24084696658845
 10
8.895448044529466
 20
10.26053245539891
 10
8.896760410450164
 20
10.28349885901112
 10
8.898072776370861
 20
10.3067933541035
 10
8.897416593410513
 20
10.32975975771571
 10
8.893479495648421
 20
10.35272616132791
 10
8.884292934203537
 20
10.37503638197977
 10
8.878059196080226
 20
10.38422294342465
 10
8.872153549437086
 20
10.38980049858762
 10
8.864279353912902
 20
10.39472187079023
 10
8.857061341349066
 20
10.39734660263163
 10
8.848202871384355
 20
10.3989870600325
 10
8.845906231023136
 20
10.3989870600325
  0
LWPOLYLINE
  5
28E3
330
1E
100
AcDbEntity
  8
0
100
AcDbPolyline
 90
        3
 70
     0
 43
0.0
 10
8.845906231023136
 20
10.09648671531172
 10
8.845906231023136
 20
10.13979479069474
 10
8.845906231023136
 20
10.18113431719671
  0
LINE
  5
28E8
330
1E
100
AcDbEntity
  8
0
100
AcDbLine
 10
8.645770428116767
 20
10.18113431719671
 30
0.0
 11
8.845906231023136
 21
10.18113431719671
 31
0.0
  0
LWPOLYLINE
  5
28E9
330
1E
100
AcDbEntity
  8
0
100
AcDbPolyline
 90
        3
 70
     0
 43
0.0
 10
8.645770428116767
 20
10.09648671531172
 10
8.645770428116767
 20
10.13979479069474
 10
8.645770428116767
 20
10.18113431719671
  0
LINE
  5
28EE
330
1E
100
AcDbEntity
  8
0
100
AcDbLine
 10
8.845906231023136
 20
10.09648671531172
 30
0.0
 11
8.645770428116767
 21
10.09648671531172
 31
0.0
  0
LINE
  5
28EF
330
1E
100
AcDbEntity
  8
0
100
AcDbLine
 10
8.645770428116767
 20
10.3989870600325
 30
0.0
 11
8.845906231023136
 21
10.3989870600325
 31
0.0
  0
LINE
  5
28F0
330
1E
100
AcDbEntity
  8
0
100
AcDbLine
 10
8.645770428116767
 20
10.18113431719671
 30
0.0
 11
8.645770428116767
 21
10.3989870600325
 31
0.0
  0
LWPOLYLINE
  5
28F1
330
1E
100
AcDbEntity
  8
0
100
AcDbPolyline
 90
        3
 70
     0
 43
0.0
 10
8.645770428116767
 20
10.3989870600325
 10
8.645770428116767
 20
10.40062751743337
 10
8.645770428116767
 20
10.40128370039372
  0
LINE
  5
28F6
330
1E
100
AcDbEntity
  8
0
100
AcDbLine
 10
8.645770428116767
 20
9.358608976399557
 30
0.0
 11
8.845906231023136
 21
9.358608976399557
 31
0.0
  0
LWPOLYLINE
  5
28F7
330
1E
100
AcDbEntity
  8
0
100
AcDbPolyline
 90
        3
 70
     0
 43
0.0
 10
8.645770428116767
 20
9.356312336038337
 10
8.645770428116767
 20
9.356640427518511
 10
8.645770428116767
 20
9.358608976399558
  0
LINE
  5
28FC
330
1E
100
AcDbEntity
  8
0
100
AcDbLine
 10
8.645770428116767
 20
9.576133627755169
 30
0.0
 11
8.845906231023136
 21
9.576133627755169
 31
0.0
  0
LINE
  5
28FD
330
1E
100
AcDbEntity
  8
0
100
AcDbLine
 10
8.645770428116767
 20
9.358608976399557
 30
0.0
 11
8.645770428116767
 21
9.576133627755169
 31
0.0
  0
LINE
  5
28FE
330
1E
100
AcDbEntity
  8
0
100
AcDbLine
 10
8.645770428116767
 20
9.661109321120331
 30
0.0
 11
8.845906231023136
 21
9.661109321120331
 31
0.0
  0
LWPOLYLINE
  5
28FF
330
1E
100
AcDbEntity
  8
0
100
AcDbPolyline
 90
        3
 70
     0
 43
0.0
 10
8.645770428116767
 20
9.576133627755169
 10
8.645770428116767
 20
9.61747315425714
 10
8.645770428116767
 20
9.661109321120331
  0
LINE
  5
2904
330
1E
100
AcDbEntity
  8
0
100
AcDbLine
 10
8.645770428116767
 20
9.661109321120331
 30
0.0
 11
8.645770428116767
 21
10.09648671531172
 31
0.0
  0
LWPOLYLINE
  5
2905
330
1E
100
AcDbEntity
  8
0
100
AcDbPolyline
 90
        3
 70
     0
 43
0.0
 10
7.825869819161002
 20
10.30482480522245
 10
7.825869819161002
 20
10.3310721236364
 10
7.825869819161002
 20
10.35371043576843
  0
LINE
  5
290A
330
1E
100
AcDbEntity
  8
0
100
AcDbLine
 10
7.825869819161002
 20
9.927519603021924
 30
0.0
 11
7.825869819161002
 21
10.30482480522245
 31
0.0
  0
LWPOLYLINE
  5
290B
330
1E
100
AcDbEntity
  8
0
100
AcDbPolyline
 90
        3
 70
     0
 43
0.0
 10
7.825869819161002
 20
9.829748341929962
 10
7.825869819161002
 20
9.878633972475943
 10
7.825869819161002
 20
9.927519603021924
  0
LINE
  5
2910
330
1E
100
AcDbEntity
  8
0
100
AcDbLine
 10
7.825869819161002
 20
9.452771231209602
 30
0.0
 11
7.825869819161002
 21
9.82974834192996
 31
0.0
  0
LWPOLYLINE
  5
2911
330
1E
100
AcDbEntity
  8
0
100
AcDbPolyline
 90
        3
 70
     0
 43
0.0
 10
7.825869819161002
 20
9.403557509183446
 10
7.825869819161002
 20
9.426195821315479
 10
7.825869819161002
 20
9.452771231209602
  0
LINE
  5
2916
330
1E
100
AcDbEntity
  8
0
100
AcDbLine
 10
7.825869819161002
 20
9.927519603021924
 30
0.0
 11
7.625734016254632
 21
9.927519603021924
 31
0.0
  0
LINE
  5
2917
330
1E
100
AcDbEntity
  8
0
100
AcDbLine
 10
7.625734016254632
 20
10.30482480522245
 30
0.0
 11
7.825869819161002
 21
10.30482480522245
 31
0.0
  0
LINE
  5
2918
330
1E
100
AcDbEntity
  8
0
100
AcDbLine
 10
7.625734016254632
 20
10.30482480522245
 30
0.0
 11
7.625734016254632
 21
9.927519603021924
 31
0.0
  0
LINE
  5
2919
330
1E
100
AcDbEntity
  8
0
100
AcDbLine
 10
7.825869819161002
 20
9.82974834192996
 30
0.0
 11
7.625734016254632
 21
9.82974834192996
 31
0.0
  0
LWPOLYLINE
  5
291A
330
1E
100
AcDbEntity
  8
0
100
AcDbPolyline
 90
        3
 70
     0
 43
0.0
 10
7.625734016254632
 20
9.927519603021924
 10
7.625734016254632
 20
9.878633972475943
 10
7.625734016254632
 20
9.829748341929962
  0
LINE
  5
291F
330
1E
100
AcDbEntity
  8
0
100
AcDbLine
 10
7.825869819161002
 20
9.452771231209602
 30
0.0
 11
7.625734016254632
 21
9.452771231209602
 31
0.0
  0
LINE
  5
2920
330
1E
100
AcDbEntity
  8
0
100
AcDbLine
 10
7.625734016254632
 20
9.82974834192996
 30
0.0
 11
7.625734016254632
 21
9.452771231209602
 31
0.0
  0
LINE
  5
2921
330
1E
100
AcDbEntity
  8
0
100
AcDbLine
 10
7.825869819161002
 20
9.403557509183446
 30
0.0
 11
7.625734016254632
 21
9.403557509183446
 31
0.0
  0
LWPOLYLINE
  5
2922
330
1E
100
AcDbEntity
  8
0
100
AcDbPolyline
 90
        3
 70
     0
 43
0.0
 10
7.625734016254632
 20
9.452771231209602
 10
7.625734016254632
 20
9.426195821315479
 10
7.625734016254632
 20
9.403557509183446
  0
LINE
  5
2927
330
1E
100
AcDbEntity
  8
0
100
AcDbLine
 10
7.825869819161002
 20
10.35371043576843
 30
0.0
 11
7.625734016254632
 21
10.35371043576843
 31
0.0
  0
LWPOLYLINE
  5
2928
330
1E
100
AcDbEntity
  8
0
100
AcDbPolyline
 90
        3
 70
     0
 43
0.0
 10
7.625734016254632
 20
10.35371043576843
 10
7.625734016254632
 20
10.3310721236364
 10
7.625734016254632
 20
10.30482480522245
  0
CIRCLE
  5
292D
330
1E
100
AcDbEntity
  8
0
100
AcDbCircle
 10
5.744785560414936
 20
9.878305880995768
 30
0.0
 40
0.4747483718123217
  0
LWPOLYLINE
  5
292E
330
1E
100
AcDbEntity
  8
0
100
AcDbPolyline
 90
       17
 70
     0
 43
0.0
 10
5.744785560414936
 20
10.23362895402461
 10
5.799904929084231
 20
10.22936376478235
 10
5.856008572194049
 20
10.2159120140952
 10
5.910471757902996
 20
10.19261751900282
 10
5.96099784584985
 20
10.16046455394573
 10
6.00529019567339
 20
10.11978121040411
 10
6.041708349972746
 20
10.07319222021934
 10
6.069268034307394
 20
10.02266613227249
 10
6.087641157197158
 20
9.970499586924768
 10
6.097811993082564
 20
9.916364492695997
 10
6.099124359003262
 20
9.858620392185306
 10
6.090922071998902
 20
9.799892017234093
 10
6.072877040589312
 20
9.742804099683752
 10
6.045317356254664
 20
9.689653279895502
 10
6.009555384915658
 20
9.642080015270218
 10
5.967887766933512
 20
9.60238094616912
 10
5.922283051189273
 20
9.571212255552552
  0
LWPOLYLINE
  5
2941
330
1E
100
AcDbEntity
  8
0
100
AcDbPolyline
 90
        5
 70
     0
 43
0.0
 10
5.922283051189273
 20
9.571212255552552
 10
5.880943524687302
 20
9.55087058378174
 10
5.836651174863761
 20
9.53577837569372
 10
5.791046459119523
 20
9.526591814248838
 10
5.744785560414936
 20
9.523638990927269
  0
LWPOLYLINE
  5
2948
330
1E
100
AcDbEntity
  8
0
100
AcDbPolyline
 90
       29
 70
     0
 43
0.0
 10
5.744785560414936
 20
9.523638990927269
 10
5.701805576512093
 20
9.526263722768664
 10
5.658169409648901
 20
9.534466009773023
 10
5.614205151305535
 20
9.548573943420521
 10
5.581724094768271
 20
9.563338060028367
 10
5.550555404151706
 20
9.581711182918134
 10
5.521027170936012
 20
9.603037129129468
 10
5.493795578081538
 20
9.627643990142544
 10
5.46918871706846
 20
9.654875582997018
 10
5.447534679376952
 20
9.684403816212713
 10
5.429489647967361
 20
9.715572506829278
 10
5.414725531359514
 20
9.748053563366541
 10
5.400617597712016
 20
9.792017821709908
 10
5.392415310707656
 20
9.835982080053273
 10
5.389790578866262
 20
9.878633972475943
 10
5.392415310707656
 20
9.921613956378786
 10
5.400617597712016
 20
9.965578214722153
 10
5.414725531359514
 20
10.00921438158534
 10
5.429489647967361
 20
10.0416954381226
 10
5.447534679376952
 20
10.07286412873917
 10
5.46918871706846
 20
10.10239236195486
 10
5.493795578081538
 20
10.12962395480934
 10
5.521027170936012
 20
10.15423081582242
 10
5.550555404151706
 20
10.17588485351392
 10
5.581724094768271
 20
10.19392988492351
 10
5.614205151305535
 20
10.20869400153136
 10
5.658169409648901
 20
10.22280193517886
 10
5.701805576512093
 20
10.23100422218322
 10
5.744785560414936
 20
10.23362895402461
  0
CIRCLE
  5
2967
330
1E
100
AcDbEntity
  8
0
100
AcDbCircle
 10
5.744785560414936
 20
9.878798018216031
 30
0.0
 40
0.2475450217915665
  0
CIRCLE
  5
2968
330
1E
100
AcDbEntity
  8
0
100
AcDbCircle
 10
5.744785560414936
 20
9.878633972475942
 30
0.0
 40
0.2250707553996218
  0
LWPOLYLINE
  5
2969
330
1E
100
AcDbEntity
  8
0
100
AcDbPolyline
 90
        5
 70
     0
 43
0.0
 10
5.442285215694162
 20
9.452771231209602
 10
5.415709805800037
 20
9.498704038434016
 10
5.388478212945564
 20
9.545621120098951
 10
5.36124662009109
 20
9.593194384724236
 10
5.333358844276268
 20
9.641095740829694
  0
LWPOLYLINE
  5
2970
330
1E
100
AcDbEntity
  8
0
100
AcDbPolyline
 90
        3
 70
     0
 43
0.0
 10
5.526932817579151
 20
9.403557509183446
 10
5.483624742196133
 20
9.426195821315479
 10
5.442285215694162
 20
9.452771231209602
  0
LWPOLYLINE
  5
2975
330
1E
100
AcDbEntity
  8
0
100
AcDbPolyline
 90
        5
 70
     0
 43
0.0
 10
5.744785560414936
 20
9.403557509183446
 10
5.690322374705989
 20
9.403557509183446
 10
5.635859188997043
 20
9.403557509183446
 10
5.581396003288097
 20
9.403557509183446
 10
5.526932817579151
 20
9.403557509183446
  0
LWPOLYLINE
  5
297C
330
1E
100
AcDbEntity
  8
0
100
AcDbPolyline
 90
        5
 70
     0
 43
0.0
 10
5.224432472858376
 20
9.927519603021924
 10
5.251335974232675
 20
9.973780501726512
 10
5.278239475606974
 20
10.02069758339144
 10
5.305799159941622
 20
10.06827084801673
 10
5.333358844276268
 20
10.11617220412219
  0
LWPOLYLINE
  5
2983
330
1E
100
AcDbEntity
  8
0
100
AcDbPolyline
 90
        3
 70
     0
 43
0.0
 10
5.224432472858376
 20
9.829748341929962
 10
5.222135832497156
 20
9.878633972475943
 10
5.224432472858376
 20
9.927519603021924
  0
LWPOLYLINE
  5
2988
330
1E
100
AcDbEntity
  8
0
100
AcDbPolyline
 90
        5
 70
     0
 43
0.0
 10
5.333358844276268
 20
9.641095740829694
 10
5.306127251421796
 20
9.688340913974805
 10
5.278895658567322
 20
9.735586087119916
 10
5.25166406571285
 20
9.782831260265025
 10
5.224432472858376
 20
9.829748341929962
  0
LWPOLYLINE
  5
298F
330
1E
100
AcDbEntity
  8
0
100
AcDbPolyline
 90
        5
 70
     0
 43
0.0
 10
5.526932817579151
 20
10.35371043576843
 10
5.580411728847574
 20
10.35371043576843
 10
5.634546823076346
 20
10.35371043576843
 10
5.689338100265467
 20
10.35371043576843
 10
5.744785560414936
 20
10.35371043576843
  0
LWPOLYLINE
  5
2996
330
1E
100
AcDbEntity
  8
0
100
AcDbPolyline
 90
        3
 70
     0
 43
0.0
 10
5.442285215694162
 20
10.30482480522245
 10
5.483624742196133
 20
10.3310721236364
 10
5.526932817579151
 20
10.35371043576843
  0
LWPOLYLINE
  5
299B
330
1E
100
AcDbEntity
  8
0
100
AcDbPolyline
 90
        5
 70
     0
 43
0.0
 10
5.333358844276268
 20
10.11617220412219
 10
5.360590437130742
 20
10.1634173772673
 10
5.387822029985215
 20
10.21033445893223
 10
5.415053622839688
 20
10.25790772355752
 10
5.442285215694162
 20
10.30482480522245
  0
LWPOLYLINE
  5
29A2
330
1E
100
AcDbEntity
  8
0
100
AcDbPolyline
 90
        5
 70
     0
 43
0.0
 10
6.04728590513571
 20
10.30482480522245
 10
6.073861315029835
 20
10.25856390651787
 10
6.101092907884308
 20
10.21164682485293
 10
6.128324500738782
 20
10.16407356022764
 10
6.156212276553603
 20
10.11617220412219
  0
LWPOLYLINE
  5
29A9
330
1E
100
AcDbEntity
  8
0
100
AcDbPolyline
 90
        3
 70
     0
 43
0.0
 10
5.962310211770548
 20
10.35371043576843
 10
6.005946378633739
 20
10.3310721236364
 10
6.04728590513571
 20
10.30482480522245
  0
LWPOLYLINE
  5
29AE
330
1E
100
AcDbEntity
  8
0
100
AcDbPolyline
 90
        5
 70
     0
 43
0.0
 10
5.744785560414936
 20
10.35371043576843
 10
5.799248746123883
 20
10.35371043576843
 10
5.853711931832829
 20
10.35371043576843
 10
5.908175117541775
 20
10.35371043576843
 10
5.962310211770548
 20
10.35371043576843
  0
LWPOLYLINE
  5
29B5
330
1E
100
AcDbEntity
  8
0
100
AcDbPolyline
 90
        5
 70
     0
 43
0.0
 10
6.265138647971496
 20
9.829748341929962
 10
6.238235146597197
 20
9.783487443225375
 10
6.211331645222898
 20
9.736898453040613
 10
6.183771960888251
 20
9.689325188415327
 10
6.156212276553603
 20
9.641095740829694
  0
LWPOLYLINE
  5
29BC
330
1E
100
AcDbEntity
  8
0
100
AcDbPolyline
 90
        3
 70
     0
 43
0.0
 10
6.265138647971496
 20
9.927519603021924
 10
6.267435288332717
 20
9.878633972475943
 10
6.265138647971496
 20
9.829748341929962
  0
LWPOLYLINE
  5
29C1
330
1E
100
AcDbEntity
  8
0
100
AcDbPolyline
 90
        5
 70
     0
 43
0.0
 10
6.156212276553603
 20
10.11617220412219
 10
6.183443869408076
 20
10.06892703097708
 10
6.21067546226255
 20
10.02200994931214
 10
6.237907055117023
 20
9.974764776167035
 10
6.265138647971496
 20
9.927519603021924
  0
LWPOLYLINE
  5
29C8
330
1E
100
AcDbEntity
  8
0
100
AcDbPolyline
 90
        5
 70
     0
 43
0.0
 10
6.156212276553603
 20
9.641095740829694
 10
6.12898068369913
 20
9.594178659164759
 10
6.101749090844657
 20
9.54693348601965
 10
6.074517497990184
 20
9.499688312874539
 10
6.04728590513571
 20
9.452771231209602
  0
LWPOLYLINE
  5
29CF
330
1E
100
AcDbEntity
  8
0
100
AcDbPolyline
 90
        5
 70
     0
 43
0.0
 10
5.962310211770548
 20
9.403557509183446
 10
5.909159391982298
 20
9.403557509183446
 10
5.855024297753526
 20
9.403557509183446
 10
5.800233020564405
 20
9.403557509183446
 10
5.744785560414936
 20
9.403557509183446
  0
LWPOLYLINE
  5
29D6
330
1E
100
AcDbEntity
  8
0
100
AcDbPolyline
 90
        3
 70
     0
 43
0.0
 10
6.04728590513571
 20
9.452771231209602
 10
6.005946378633739
 20
9.426195821315479
 10
5.962310211770548
 20
9.403557509183446
  0
LWPOLYLINE
  5
29DB
330
1E
100
AcDbEntity
  8
0
100
AcDbPolyline
 90
        3
 70
     0
 43
0.0
 10
6.219862023707432
 20
10.09648671531172
 10
6.1972237115754
 20
10.13979479069474
 10
6.170648301681276
 20
10.18113431719671
  0
LINE
  5
29E0
330
1E
100
AcDbEntity
  8
0
100
AcDbLine
 10
6.170648301681276
 20
10.18113431719671
 30
0.0
 11
6.092562529399774
 21
10.22641094146078
 31
0.0
  0
LINE
  5
29E1
330
1E
100
AcDbEntity
  8
0
100
AcDbLine
 10
5.872085054722594
 20
10.35371043576843
 30
0.0
 11
5.793671190960918
 21
10.3989870600325
 31
0.0
  0
LWPOLYLINE
  5
29E2
330
1E
100
AcDbEntity
  8
0
100
AcDbPolyline
 90
        3
 70
     0
 43
0.0
 10
5.793671190960918
 20
10.3989870600325
 10
5.744785560414936
 20
10.40128370039372
 10
5.695899929868954
 20
10.3989870600325
  0
LINE
  5
29E7
330
1E
100
AcDbEntity
  8
0
100
AcDbLine
 10
5.695899929868954
 20
10.3989870600325
 30
0.0
 11
5.617486066107279
 21
10.35371043576843
 31
0.0
  0
LINE
  5
29E8
330
1E
100
AcDbEntity
  8
0
100
AcDbLine
 10
5.397008591430098
 20
10.22641094146078
 30
0.0
 11
5.318594727668422
 21
10.18113431719671
 31
0.0
  0
LWPOLYLINE
  5
29E9
330
1E
100
AcDbEntity
  8
0
100
AcDbPolyline
 90
        3
 70
     0
 43
0.0
 10
5.318594727668422
 20
10.18113431719671
 10
5.292347409254472
 20
10.13979479069474
 10
5.26970909712244
 20
10.09648671531172
  0
LINE
  5
29EE
330
1E
100
AcDbEntity
  8
0
100
AcDbLine
 10
5.26970909712244
 20
10.09648671531172
 30
0.0
 11
5.26970909712244
 21
10.0059334667836
 31
0.0
  0
LINE
  5
29EF
330
1E
100
AcDbEntity
  8
0
100
AcDbLine
 10
5.26970909712244
 20
9.751334478168285
 30
0.0
 11
5.26970909712244
 21
9.661109321120331
 31
0.0
  0
LWPOLYLINE
  5
29F0
330
1E
100
AcDbEntity
  8
0
100
AcDbPolyline
 90
        3
 70
     0
 43
0.0
 10
5.26970909712244
 20
9.661109321120331
 10
5.292347409254472
 20
9.61747315425714
 10
5.318594727668422
 20
9.576133627755169
  0
LINE
  5
29F5
330
1E
100
AcDbEntity
  8
0
100
AcDbLine
 10
5.318594727668422
 20
9.576133627755169
 30
0.0
 11
5.397008591430098
 21
9.530857003491105
 31
0.0
  0
LINE
  5
29F6
330
1E
100
AcDbEntity
  8
0
100
AcDbLine
 10
5.617486066107279
 20
9.403557509183446
 30
0.0
 11
5.695899929868954
 21
9.358608976399557
 31
0.0
  0
LWPOLYLINE
  5
29F7
330
1E
100
AcDbEntity
  8
0
100
AcDbPolyline
 90
        3
 70
     0
 43
0.0
 10
5.695899929868954
 20
9.358608976399558
 10
5.744785560414936
 20
9.356312336038337
 10
5.793671190960918
 20
9.358608976399558
  0
LINE
  5
29FC
330
1E
100
AcDbEntity
  8
0
100
AcDbLine
 10
5.793671190960918
 20
9.358608976399557
 30
0.0
 11
5.872085054722594
 21
9.403557509183446
 31
0.0
  0
LINE
  5
29FD
330
1E
100
AcDbEntity
  8
0
100
AcDbLine
 10
6.092562529399774
 20
9.530857003491105
 30
0.0
 11
6.170648301681276
 21
9.576133627755169
 31
0.0
  0
LWPOLYLINE
  5
29FE
330
1E
100
AcDbEntity
  8
0
100
AcDbPolyline
 90
        3
 70
     0
 43
0.0
 10
6.170648301681276
 20
9.576133627755169
 10
6.1972237115754
 20
9.61747315425714
 10
6.219862023707432
 20
9.661109321120331
  0
LINE
  5
2A03
330
1E
100
AcDbEntity
  8
0
100
AcDbLine
 10
6.219862023707432
 20
9.661109321120331
 30
0.0
 11
6.219862023707432
 21
9.751334478168285
 31
0.0
  0
LINE
  5
2A04
330
1E
100
AcDbEntity
  8
0
100
AcDbLine
 10
6.219862023707432
 20
10.0059334667836
 30
0.0
 11
6.219862023707432
 21
10.09648671531172
 31
0.0
  0
LINE
  5
2A08
330
1E
100
AcDbEntity
  8
0
100
AcDbLine
 10
8.207768302083975
 20
10.28021794420937
 30
0.0
 11
8.207768302083975
 21
9.477050000742506
 31
0.0
  0
LINE
  5
2A0A
330
1E
100
AcDbEntity
  8
0
100
AcDbLine
 10
8.179880526269153
 20
10.25364253431525
 30
0.0
 11
8.179880526269153
 21
9.503625410636631
 31
0.0
  0
LINE
  5
2A0C
330
1E
100
AcDbEntity
  8
0
100
AcDbLine
 10
8.151992750454331
 20
10.28021794420937
 30
0.0
 11
8.151992750454331
 21
9.477050000742506
 31
0.0
  0
LINE
  5
2A0E
330
1E
100
AcDbEntity
  8
0
100
AcDbLine
 10
8.123776883159335
 20
10.25364253431525
 30
0.0
 11
8.123776883159335
 21
9.503625410636631
 31
0.0
  0
LINE
  5
2A10
330
1E
100
AcDbEntity
  8
0
100
AcDbLine
 10
8.095889107344513
 20
10.28021794420937
 30
0.0
 11
8.095889107344513
 21
9.477050000742506
 31
0.0
  0
LINE
  5
2A12
330
1E
100
AcDbEntity
  8
0
100
AcDbLine
 10
8.068001331529691
 20
10.25364253431525
 30
0.0
 11
8.068001331529691
 21
9.503625410636631
 31
0.0
  0
LINE
  5
2A14
330
1E
100
AcDbEntity
  8
0
100
AcDbLine
 10
8.039785464234695
 20
10.28021794420937
 30
0.0
 11
8.039785464234695
 21
9.477050000742506
 31
0.0
  0
LINE
  5
2A16
330
1E
100
AcDbEntity
  8
0
100
AcDbLine
 10
8.011897688419873
 20
10.25364253431525
 30
0.0
 11
8.011897688419873
 21
9.503625410636631
 31
0.0
  0
LINE
  5
2A18
330
1E
100
AcDbEntity
  8
0
100
AcDbLine
 10
7.984009912605051
 20
10.28021794420937
 30
0.0
 11
7.984009912605051
 21
9.477050000742506
 31
0.0
  0
LINE
  5
2A1A
330
1E
100
AcDbEntity
  8
0
100
AcDbLine
 10
7.955794045310055
 20
10.25364253431525
 30
0.0
 11
7.955794045310055
 21
9.503625410636631
 31
0.0
  0
LINE
  5
2A1C
330
1E
100
AcDbEntity
  8
0
100
AcDbLine
 10
7.927906269495233
 20
10.28021794420937
 30
0.0
 11
7.927906269495233
 21
9.477050000742506
 31
0.0
  0
LINE
  5
2A1E
330
1E
100
AcDbEntity
  8
0
100
AcDbLine
 10
7.90001849368041
 20
10.25364253431525
 30
0.0
 11
7.90001849368041
 21
9.503625410636631
 31
0.0
  0
LINE
  5
2A20
330
1E
100
AcDbEntity
  8
0
100
AcDbLine
 10
7.871802626385414
 20
10.28021794420937
 30
0.0
 11
7.871802626385414
 21
9.477050000742506
 31
0.0
  0
LINE
  5
2A22
330
1E
100
AcDbEntity
  8
0
100
AcDbLine
 10
7.843914850570593
 20
10.25364253431525
 30
0.0
 11
7.843914850570593
 21
9.503625410636631
 31
0.0
  0
LINE
  5
2A23
330
1E
100
AcDbEntity
  8
0
100
AcDbLine
 10
7.611954174087308
 20
10.25364253431525
 30
0.0
 11
7.611954174087308
 21
9.503625410636631
 31
0.0
  0
LINE
  5
2A25
330
1E
100
AcDbEntity
  8
0
100
AcDbLine
 10
7.59784624043981
 20
10.25364253431525
 30
0.0
 11
7.59784624043981
 21
9.503625410636631
 31
0.0
  0
LINE
  5
2A27
330
1E
100
AcDbEntity
  8
0
100
AcDbLine
 10
7.583738306792312
 20
10.28021794420937
 30
0.0
 11
7.583738306792312
 21
9.477050000742506
 31
0.0
  0
LINE
  5
2A29
330
1E
100
AcDbEntity
  8
0
100
AcDbLine
 10
7.55585053097749
 20
10.25364253431525
 30
0.0
 11
7.55585053097749
 21
9.503625410636631
 31
0.0
  0
LINE
  5
2A2B
330
1E
100
AcDbEntity
  8
0
100
AcDbLine
 10
7.541742597329992
 20
10.25364253431525
 30
0.0
 11
7.541742597329992
 21
9.503625410636631
 31
0.0
  0
LINE
  5
2A2D
330
1E
100
AcDbEntity
  8
0
100
AcDbLine
 10
7.527962755162668
 20
10.28021794420937
 30
0.0
 11
7.527962755162668
 21
9.477050000742506
 31
0.0
  0
LINE
  5
2A2F
330
1E
100
AcDbEntity
  8
0
100
AcDbLine
 10
7.499746887867672
 20
10.25364253431525
 30
0.0
 11
7.499746887867672
 21
9.503625410636631
 31
0.0
  0
LINE
  5
2A31
330
1E
100
AcDbEntity
  8
0
100
AcDbLine
 10
7.485967045700348
 20
10.25364253431525
 30
0.0
 11
7.485967045700348
 21
9.503625410636631
 31
0.0
  0
LINE
  5
2A33
330
1E
100
AcDbEntity
  8
0
100
AcDbLine
 10
7.457751178405351
 20
10.28021794420937
 30
0.0
 11
7.457751178405351
 21
9.477050000742506
 31
0.0
  0
LINE
  5
2A35
330
1E
100
AcDbEntity
  8
0
100
AcDbLine
 10
7.443971336238028
 20
10.25364253431525
 30
0.0
 11
7.443971336238028
 21
9.503625410636631
 31
0.0
  0
LINE
  5
2A37
330
1E
100
AcDbEntity
  8
0
100
AcDbLine
 10
7.42986340259053
 20
10.25364253431525
 30
0.0
 11
7.42986340259053
 21
9.503625410636631
 31
0.0
  0
ENDSEC
  0
SECTION
  2
OBJECTS
  0
DICTIONARY
  5
C
330
0
100
AcDbDictionary
281
     1
  3
ACAD_GROUP
350
D
  3
ACAD_LAYOUT
350
19
  3
ACAD_MLINESTYLE
350
16
  3
ACAD_PLOTSETTINGS
350
18
  3
ACAD_PLOTSTYLENAME
350
E
  0
DICTIONARY
  5
D
102
{ACAD_REACTORS
330
C
102
}
330
C
100
AcDbDictionary
281
     1
  0
DICTIONARY
  5
19
102
{ACAD_REACTORS
330
C
102
}
330
C
100
AcDbDictionary
281
     1
  3
Layout1
350
1D
  3
Model
350
21
  0
DICTIONARY
  5
16
102
{ACAD_REACTORS
330
C
102
}
330
C
100
AcDbDictionary
281
     1
  3
Standard
350
17
  0
DICTIONARY
  5
18
102
{ACAD_REACTORS
330
C
102
}
330
C
100
AcDbDictionary
281
     1
  0
ACDBDICTIONARYWDFLT
  5
E
102
{ACAD_REACTORS
330
C
102
}
330
C
100
AcDbDictionary
281
     1
  3
Normal
350
F
100
AcDbDictionaryWithDefault
340
F
  0
LAYOUT
  5
1D
102
{ACAD_REACTORS
330
19
102
}
330
19
100
AcDbPlotSettings
  1

  2
\\BRENG\OPR-Dell 5100
  4

  6

 40
0.0
 41
0.0
 42
0.0
 43
0.0
 44
0.0
 45
0.0
 46
0.0
 47
0.0
 48
0.0
 49
0.0
140
0.0
141
0.0
142
1.0
143
1.0
 70
   688
 72
     0
 73
     0
 74
     5
  7

 75
    16
147
1.0
148
0.0
149
0.0
100
AcDbLayout
  1
Layout1
 70
     1
 71
     1
 10
0.0
 20
0.0
 11
12.0
 21
9.0
 12
0.0
 22
0.0
 32
0.0
 14
1.000000000000000E+20
 24
1.000000000000000E+20
 34
1.000000000000000E+20
 15
-1.000000000000000E+20
 25
-1.000000000000000E+20
 35
-1.000000000000000E+20
146
0.0
 13
0.0
 23
0.0
 33
0.0
 16
1.0
 26
0.0
 36
0.0
 17
0.0
 27
1.0
 37
0.0
 76
     0
330
1A
  0
LAYOUT
  5
21
102
{ACAD_REACTORS
330
19
102
}
330
19
100
AcDbPlotSettings
  1

  2
\\BRENG\OPR-Dell 5100
  4

  6

 40
0.0
 41
0.0
 42
0.0
 43
0.0
 44
0.0
 45
0.0
 46
0.0
 47
0.0
 48
0.0
 49
0.0
140
0.0
141
0.0
142
1.0
143
1.0
 70
  1712
 72
     0
 73
     0
 74
     0
  7

 75
     0
147
1.0
148
0.0
149
0.0
100
AcDbLayout
  1
Model
 70
     1
 71
     0
 10
0.0
 20
0.0
 11
12.0
 21
9.0
 12
0.0
 22
0.0
 32
0.0
 14
0.0
 24
0.0
 34
0.0
 15
0.0
 25
0.0
 35
0.0
146
0.0
 13
0.0
 23
0.0
 33
0.0
 16
1.0
 26
0.0
 36
0.0
 17
0.0
 27
1.0
 37
0.0
 76
     0
330
1E
  0
MLINESTYLE
  5
17
102
{ACAD_REACTORS
330
16
102
}
330
16
100
AcDbMlineStyle
  2
STANDARD
 70
     0
  3

 62
   256
 51
90.0
 52
90.0
 71
     2
 49
0.5
 62
   256
  6
BYLAYER
 49
-0.5
 62
   256
  6
BYLAYER
  0
ACDBPLACEHOLDER
  5
F
102
{ACAD_REACTORS
330
E
102
}
330
E
  0
ENDSEC
  0
EOF
