  0
SECTION
  2
HEADER
  9
$ACADVER
  1
AC1015
  9
$ACADMAINTVER
 70
    20
  9
$DWGCODEPAGE
  3
ANSI_1252
  9
$INSBASE
 10
0.0
 20
0.0
 30
0.0
  9
$EXTMIN
 10
-0.5
 20
-0.5
 30
-0.5
  9
$EXTMAX
 10
5.0
 20
5.0
 30
5.0
  9
$LIMMIN
 10
-0.5
 20
-0.5
  9
$LIMMAX
 10
5.0
 20
5.0
  9
$ORTHOMODE
 70
     0
  9
$REGENMODE
 70
     1
  9
$FILLMODE
 70
     1
  9
$QTEXTMODE
 70
     0
  9
$MIRRTEXT
 70
     1
  9
$LTSCALE
 40
1.0
  9
$ATTMODE
 70
     1
  9
$TEXTSIZE
 40
0.0
  9
$TRACEWID
 40
0.05
  9
$TEXTSTYLE
  7
Standard
  9
$CLAYER
  8
0
  9
$CELTYPE
  6
Continuous
  9
$CECOLOR
 62
   256
  9
$CELTSCALE
 40
1.0
  9
$DISPSILH
 70
     0
  9
$DIMSCALE
 40
1.0
  9
$DIMASZ
 40
0.18
  9
$DIMEXO
 40
0.0625
  9
$DIMDLI
 40
0.38
  9
$DIMRND
 40
0.0
  9
$DIMDLE
 40
0.0
  9
$DIMEXE
 40
0.18
  9
$DIMTP
 40
0.0
  9
$DIMTM
 40
0.0
  9
$DIMTXT
 40
0.18
  9
$DIMCEN
 40
0.09
  9
$DIMTSZ
 40
0.0
  9
$DIMTOL
 70
     0
  9
$DIMLIM
 70
     0
  9
$DIMTIH
 70
     1
  9
$DIMTOH
 70
     1
  9
$DIMSE1
 70
     0
  9
$DIMSE2
 70
     0
  9
$DIMTAD
 70
     0
  9
$DIMZIN
 70
     0
  9
$DIMBLK
  1

  9
$DIMASO
 70
     1
  9
$DIMSHO
 70
     1
  9
$DIMPOST
  1

  9
$DIMAPOST
  1

  9
$DIMALT
 70
     0
  9
$DIMALTD
 70
     2
  9
$DIMALTF
 40
25.4
  9
$DIMLFAC
 40
1.0
  9
$DIMTOFL
 70
     0
  9
$DIMTVP
 40
0.0
  9
$DIMTIX
 70
     0
  9
$DIMSOXD
 70
     0
  9
$DIMSAH
 70
     0
  9
$DIMBLK1
  1

  9
$DIMBLK2
  1

  9
$DIMSTYLE
  2
Standard
  9
$DIMCLRD
 70
     0
  9
$DIMCLRE
 70
     0
  9
$DIMCLRT
 70
     0
  9
$DIMTFAC
 40
1.0
  9
$DIMGAP
 40
0.09
  9
$DIMJUST
 70
     0
  9
$DIMSD1
 70
     0
  9
$DIMSD2
 70
     0
  9
$DIMTOLJ
 70
     1
  9
$DIMTZIN
 70
     0
  9
$DIMALTZ
 70
     0
  9
$DIMALTTZ
 70
     0
  9
$DIMUPT
 70
     0
  9
$DIMDEC
 70
     4
  9
$DIMTDEC
 70
     4
  9
$DIMALTU
 70
     2
  9
$DIMALTTD
 70
     2
  9
$DIMTXSTY
  7
Standard
  9
$DIMAUNIT
 70
     0
  9
$DIMADEC
 70
     0
  9
$DIMALTRND
 40
0.0
  9
$DIMAZIN
 70
     0
  9
$DIMDSEP
 70
     0
  9
$DIMATFIT
 70
     3
  9
$DIMFRAC
 70
     0
  9
$DIMLDRBLK
  1

  9
$DIMLUNIT
 70
     2
  9
$DIMLWD
 70
     0
  9
$DIMLWE
 70
     0
  9
$DIMTMOVE
 70
     0
  9
$LUNITS
 70
     2
  9
$LUPREC
 70
     4
  9
$SKETCHINC
 40
0.1
  9
$FILLETRAD
 40
0.0
  9
$AUNITS
 70
     0
  9
$AUPREC
 70
     0
  9
$MENU
  1
acad
  9
$ELEVATION
 40
0.0
  9
$PELEVATION
 40
0.0
  9
$THICKNESS
 40
0.0
  9
$LIMCHECK
 70
     0
  9
$CHAMFERA
 40
0.0
  9
$CHAMFERB
 40
0.0
  9
$CHAMFERC
 40
0.0
  9
$CHAMFERD
 40
0.0
  9
$SKPOLY
 70
     0
  9
$TDCREATE
 40
2455867.582549109
  9
$TDUCREATE
 40
2455867.790882442
  9
$TDUPDATE
 40
2455867.583231956
  9
$TDUUPDATE
 40
2455867.791565289
  9
$TDINDWG
 40
0.0006983912
  9
$TDUSRTIMER
 40
0.0006969444
  9
$USRTIMER
 70
     1
  9
$ANGBASE
 50
0.0
  9
$ANGDIR
 70
     0
  9
$PDMODE
 70
     0
  9
$PDSIZE
 40
0.0
  9
$PLINEWID
 40
0.0
  9
$SPLFRAME
 70
     0
  9
$SPLINETYPE
 70
     6
  9
$SPLINESEGS
 70
     8
  9
$HANDSEED
  5
55A
  9
$SURFTAB1
 70
     6
  9
$SURFTAB2
 70
     6
  9
$SURFTYPE
 70
     6
  9
$SURFU
 70
     6
  9
$SURFV
 70
     6
  9
$UCSBASE
  2

  9
$UCSNAME
  2

  9
$UCSORG
 10
0.0
 20
0.0
 30
0.0
  9
$UCSXDIR
 10
1.0
 20
0.0
 30
0.0
  9
$UCSYDIR
 10
0.0
 20
1.0
 30
0.0
  9
$UCSORTHOREF
  2

  9
$UCSORTHOVIEW
 70
     0
  9
$UCSORGTOP
 10
0.0
 20
0.0
 30
0.0
  9
$UCSORGBOTTOM
 10
0.0
 20
0.0
 30
0.0
  9
$UCSORGLEFT
 10
0.0
 20
0.0
 30
0.0
  9
$UCSORGRIGHT
 10
0.0
 20
0.0
 30
0.0
  9
$UCSORGFRONT
 10
0.0
 20
0.0
 30
0.0
  9
$UCSORGBACK
 10
0.0
 20
0.0
 30
0.0
  9
$PUCSBASE
  2

  9
$PUCSNAME
  2

  9
$PUCSORG
 10
0.0
 20
0.0
 30
0.0
  9
$PUCSXDIR
 10
1.0
 20
0.0
 30
0.0
  9
$PUCSYDIR
 10
0.0
 20
1.0
 30
0.0
  9
$PUCSORTHOREF
  2

  9
$PUCSORTHOVIEW
 70
     0
  9
$PUCSORGTOP
 10
0.0
 20
0.0
 30
0.0
  9
$PUCSORGBOTTOM
 10
0.0
 20
0.0
 30
0.0
  9
$PUCSORGLEFT
 10
0.0
 20
0.0
 30
0.0
  9
$PUCSORGRIGHT
 10
0.0
 20
0.0
 30
0.0
  9
$PUCSORGFRONT
 10
0.0
 20
0.0
 30
0.0
  9
$PUCSORGBACK
 10
0.0
 20
0.0
 30
0.0
  9
$USERI1
 70
     0
  9
$USERI2
 70
     0
  9
$USERI3
 70
     0
  9
$USERI4
 70
     0
  9
$USERI5
 70
     0
  9
$USERR1
 40
0.0
  9
$USERR2
 40
0.0
  9
$USERR3
 40
0.0
  9
$USERR4
 40
0.0
  9
$USERR5
 40
0.0
  9
$WORLDVIEW
 70
     1
  9
$SHADEDGE
 70
     3
  9
$SHADEDIF
 70
    70
  9
$TILEMODE
 70
     0
  9
$MAXACTVP
 70
    64
  9
$PINSBASE
 10
0.0
 20
0.0
 30
0.0
  9
$PLIMCHECK
 70
     0
  9
$PEXTMIN
 10
1.610626249935737
 20
0.6615295633225813
 30
-0.0004043445228632
  9
$PEXTMAX
 10
6.724876425607217
 20
6.997894306315451
 30
0.0000152657740013
  9
$PLIMMIN
 10
1.412614649589498
 20
0.4635181562754874
  9
$PLIMMAX
 10
10.12511650018497
 20
7.195905906661691
  9
$UNITMODE
 70
     0
  9
$VISRETAIN
 70
     0
  9
$PLINEGEN
 70
     1
  9
$PSLTSCALE
 70
     0
  9
$TREEDEPTH
 70
  3020
  9
$CMLSTYLE
  2
Standard
  9
$CMLJUST
 70
     0
  9
$CMLSCALE
 40
1.0
  9
$PROXYGRAPHICS
 70
     0
  9
$MEASUREMENT
 70
     0
  9
$CELWEIGHT
370
     0
  9
$ENDCAPS
280
     0
  9
$JOINSTYLE
280
     0
  9
$LWDISPLAY
290
     0
  9
$INSUNITS
 70
     0
  9
$HYPERLINKBASE
  1

  9
$STYLESHEET
  1

  9
$XEDIT
290
     1
  9
$CEPSNTYPE
380
     0
  9
$PSTYLEMODE
290
     1
  9
$FINGERPRINTGUID
  2

  9
$VERSIONGUID
  2
{8412374F-799C-4049-8118-FF9967BB4BEE}
  9
$EXTNAMES
290
     1
  9
$PSVPSCALE
 40
0.0
  9
$OLESTARTUP
290
     0
  0
ENDSEC
  0
SECTION
  2
CLASSES
  0
CLASS
  1
IMAGE
  2
AcDbRasterImage
  3
ISM
 90
    34943
280
     0
281
     1
  0
CLASS
  1
DICTIONARYVAR
  2
AcDbDictionaryVar
  3
ObjectDBX Classes
 90
        0
280
     0
281
     0
  0
CLASS
  1
RASTERVARIABLES
  2
AcDbRasterVariables
  3
ISM
 90
    32768
280
     0
281
     0
  0
CLASS
  1
IMAGEDEF
  2
AcDbRasterImageDef
  3
ISM
 90
    32768
280
     0
281
     0
  0
CLASS
  1
IMAGEDEF_REACTOR
  2
AcDbRasterImageDefReactor
  3
ISM
 90
    32769
280
     0
281
     0
  0
CLASS
  1
IDBUFFER
  2
AcDbIdBuffer
  3
ObjectDBX Classes
 90
    32768
280
     0
281
     0
  0
CLASS
  1
SPATIAL_FILTER
  2
AcDbSpatialFilter
  3
ObjectDBX Classes
 90
    32768
280
     0
281
     0
  0
CLASS
  1
SORTENTSTABLE
  2
AcDbSortentsTable
  3
ObjectDBX Classes
 90
    32768
280
     0
281
     0
  0
CLASS
  1
LAYER_INDEX
  2
AcDbLayerIndex
  3
ObjectDBX Classes
 90
    32768
280
     0
281
     0
  0
CLASS
  1
SPATIAL_INDEX
  2
AcDbSpatialIndex
  3
ObjectDBX Classes
 90
    32768
280
     0
281
     0
  0
CLASS
  1
OBJECT_PTR
  2
CAseDLPNTableRecord
  3
ASE-LPNTableRecord
 90
    32769
280
     0
281
     0
  0
CLASS
  1
LAYOUT
  2
AcDbLayout
  3
ObjectDBX Classes
 90
        0
280
     0
281
     0
  0
CLASS
  1
PLOTSETTINGS
  2
AcDbPlotSettings
  3
ObjectDBX Classes
 90
    32768
280
     0
281
     0
  0
CLASS
  1
ACDBDICTIONARYWDFLT
  2
AcDbDictionaryWithDefault
  3
ObjectDBX Classes
 90
        0
280
     0
281
     0
  0
CLASS
  1
ACDBPLACEHOLDER
  2
AcDbPlaceHolder
  3
ObjectDBX Classes
 90
        0
280
     0
281
     0
  0
CLASS
  1
VBA_PROJECT
  2
AcDbVbaProject
  3
acad
 90
    32768
280
     0
281
     0
  0
CLASS
  1
WIPEOUT
  2
AcDbWipeout
  3
"WipeOut|Product Desc: Object Enabler for WipeOut entity                        |Company: Autodesk, Inc.                        |WEB Address: www.autodesk.com"
 90
    34943
280
     0
281
     1
  0
CLASS
  1
WIPEOUTVARIABLES
  2
AcDbWipeoutVariables
  3
"WipeOut|Product Desc:     WipeOut Dbx Application|Company:          Autodesk, Inc.|WEB Address:      www.autodesk.com"
 90
        0
280
     0
281
     0
  0
CLASS
  1
RTEXT
  2
RText
  3
RText|AutoCAD Express Tool|expresstools@autodesk.com
 90
    35839
280
     0
281
     1
  0
CLASS
  1
ARCALIGNEDTEXT
  2
AcDbArcAlignedText
  3
ATEXT|AutoCAD Express Tool|expresstools@autodesk.com
 90
    32768
280
     0
281
     1
  0
CLASS
  1
MATERIAL
  2
AcDbMaterial
  3
ObjectDBX Classes
 90
     1024
280
     0
281
     0
  0
CLASS
  1
VISUALSTYLE
  2
AcDbVisualStyle
  3
ObjectDBX Classes
 90
     4095
280
     0
281
     0
  0
CLASS
  1
TABLESTYLE
  2
AcDbTableStyle
  3
ObjectDBX Classes
 90
     4095
280
     0
281
     0
  0
ENDSEC
  0
SECTION
  2
TABLES
  0
TABLE
  2
VPORT
  5
7
330
0
100
AcDbSymbolTable
 70
    16
  0
VPORT
  5
511
330
7
100
AcDbSymbolTableRecord
100
AcDbViewportTableRecord
  2
*ACTIVE
 70
     0
 10
0.0
 20
0.0
 11
1.0
 21
1.0
 12
0.0
 22
0.0
 13
0.0
 23
0.0
 14
1.0
 24
1.0
 15
0.0
 25
0.0
 16
0.718873
 26
-0.5850489999999999
 36
0.375419
 17
0.0
 27
0.0
 37
0.0
 40
46.267976
 41
0.6885640000000001
 42
50.0
 43
22.857141
 44
-22.857141
 50
0.0
 51
0.0
 71
    16
 72
   100
 73
     1
 74
     1
 75
     0
 76
     0
 77
     0
 78
     0
281
     0
 65
     0
110
0.0
120
0.0
130
0.0
111
1.0
121
0.0
131
0.0
112
0.0
122
1.0
132
0.0
 79
     0
146
0.0
  0
VPORT
  5
512
330
7
100
AcDbSymbolTableRecord
100
AcDbViewportTableRecord
  2
L1
 70
     0
 10
0.0
 20
0.0
 11
1.0
 21
1.0
 12
0.0
 22
0.0
 13
0.0
 23
0.0
 14
1.0
 24
1.0
 15
0.0
 25
0.0
 16
0.718873
 26
-0.5850489999999999
 36
0.375419
 17
0.0
 27
0.0
 37
0.0
 40
46.267976
 41
0.6885640000000001
 42
50.0
 43
22.857141
 44
-22.857141
 50
0.0
 51
0.0
 71
    16
 72
   100
 73
     1
 74
     1
 75
     0
 76
     0
 77
     0
 78
     0
281
     0
 65
     0
110
0.0
120
0.0
130
0.0
111
1.0
121
0.0
131
0.0
112
0.0
122
1.0
132
0.0
 79
     0
146
0.0
  0
VPORT
  5
513
330
7
100
AcDbSymbolTableRecord
100
AcDbViewportTableRecord
  2
L2
 70
     0
 10
0.0
 20
0.0
 11
0.5
 21
1.0
 12
0.0
 22
0.0
 13
0.0
 23
0.0
 14
1.0
 24
1.0
 15
0.0
 25
0.0
 16
0.0
 26
-1.0
 36
0.0
 17
0.0
 27
0.0
 37
0.0
 40
44.59929999999999
 41
0.6885640000000001
 42
50.0
 43
23.034414
 44
-23.034414
 50
0.0
 51
0.0
 71
    16
 72
   100
 73
     1
 74
     1
 75
     0
 76
     0
 77
     0
 78
     0
281
     0
 65
     0
110
0.0
120
0.0
130
0.0
111
1.0
121
0.0
131
0.0
112
0.0
122
1.0
132
0.0
 79
     0
146
0.0
  0
VPORT
  5
514
330
7
100
AcDbSymbolTableRecord
100
AcDbViewportTableRecord
  2
L2
 70
     0
 10
0.5
 20
0.0
 11
1.0
 21
1.0
 12
0.0
 22
0.0
 13
0.0
 23
0.0
 14
1.0
 24
1.0
 15
0.0
 25
0.0
 16
1.0
 26
0.0
 36
0.0
 17
0.0
 27
0.0
 37
0.0
 40
44.59929999999999
 41
0.6885640000000001
 42
50.0
 43
22.544309
 44
-22.544309
 50
0.0
 51
0.0
 71
    16
 72
   100
 73
     1
 74
     1
 75
     0
 76
     0
 77
     0
 78
     0
281
     0
 65
     0
110
0.0
120
0.0
130
0.0
111
1.0
121
0.0
131
0.0
112
0.0
122
1.0
132
0.0
 79
     0
146
0.0
  0
VPORT
  5
515
330
7
100
AcDbSymbolTableRecord
100
AcDbViewportTableRecord
  2
L3
 70
     0
 10
0.0
 20
0.5
 11
1.0
 21
1.0
 12
0.0
 22
0.0
 13
0.0
 23
0.0
 14
1.0
 24
1.0
 15
0.0
 25
0.0
 16
0.0
 26
0.0
 36
1.0
 17
0.0
 27
0.0
 37
0.0
 40
6.624633999999999
 41
0.6885640000000001
 42
50.0
 43
22.29965
 44
-22.29965
 50
0.0
 51
0.0
 71
    16
 72
   100
 73
     1
 74
     1
 75
     0
 76
     0
 77
     0
 78
     0
281
     0
 65
     0
110
0.0
120
0.0
130
0.0
111
1.0
121
0.0
131
0.0
112
0.0
122
1.0
132
0.0
 79
     0
146
0.0
  0
VPORT
  5
516
330
7
100
AcDbSymbolTableRecord
100
AcDbViewportTableRecord
  2
L3
 70
     0
 10
0.0
 20
0.0
 11
1.0
 21
0.5
 12
0.0
 22
0.0
 13
0.0
 23
0.0
 14
1.0
 24
1.0
 15
0.0
 25
0.0
 16
0.0
 26
-1.0
 36
0.0
 17
0.0
 27
0.0
 37
0.0
 40
44.59929999999999
 41
0.6885640000000001
 42
50.0
 43
23.034414
 44
-23.034414
 50
0.0
 51
0.0
 71
    16
 72
   100
 73
     1
 74
     1
 75
     0
 76
     0
 77
     0
 78
     0
281
     0
 65
     0
110
0.0
120
0.0
130
0.0
111
1.0
121
0.0
131
0.0
112
0.0
122
1.0
132
0.0
 79
     0
146
0.0
  0
VPORT
  5
517
330
7
100
AcDbSymbolTableRecord
100
AcDbViewportTableRecord
  2
L4
 70
     0
 10
0.0
 20
0.5
 11
0.5
 21
1.0
 12
0.0
 22
0.0
 13
0.0
 23
0.0
 14
1.0
 24
1.0
 15
0.0
 25
0.0
 16
0.0
 26
0.0
 36
1.0
 17
0.0
 27
0.0
 37
0.0
 40
6.624633999999999
 41
0.6885640000000001
 42
50.0
 43
22.29965
 44
-22.29965
 50
0.0
 51
0.0
 71
    16
 72
   100
 73
     1
 74
     1
 75
     0
 76
     0
 77
     0
 78
     0
281
     0
 65
     0
110
0.0
120
0.0
130
0.0
111
1.0
121
0.0
131
0.0
112
0.0
122
1.0
132
0.0
 79
     0
146
0.0
  0
VPORT
  5
518
330
7
100
AcDbSymbolTableRecord
100
AcDbViewportTableRecord
  2
L4
 70
     0
 10
0.0
 20
0.0
 11
0.5
 21
0.5
 12
0.0
 22
0.0
 13
0.0
 23
0.0
 14
1.0
 24
1.0
 15
0.0
 25
0.0
 16
0.0
 26
-1.0
 36
0.0
 17
0.0
 27
0.0
 37
0.0
 40
44.59929999999999
 41
0.6885640000000001
 42
50.0
 43
23.034414
 44
-23.034414
 50
0.0
 51
0.0
 71
    16
 72
   100
 73
     1
 74
     1
 75
     0
 76
     0
 77
     0
 78
     0
281
     0
 65
     0
110
0.0
120
0.0
130
0.0
111
1.0
121
0.0
131
0.0
112
0.0
122
1.0
132
0.0
 79
     0
146
0.0
  0
VPORT
  5
519
330
7
100
AcDbSymbolTableRecord
100
AcDbViewportTableRecord
  2
L4
 70
     0
 10
0.5
 20
0.0
 11
1.0
 21
0.5
 12
0.0
 22
0.0
 13
0.0
 23
0.0
 14
1.0
 24
1.0
 15
0.0
 25
0.0
 16
1.0
 26
0.0
 36
0.0
 17
0.0
 27
0.0
 37
0.0
 40
44.59929999999999
 41
0.6885640000000001
 42
50.0
 43
22.544309
 44
-22.544309
 50
0.0
 51
0.0
 71
    16
 72
   100
 73
     1
 74
     1
 75
     0
 76
     0
 77
     0
 78
     0
281
     0
 65
     0
110
0.0
120
0.0
130
0.0
111
1.0
121
0.0
131
0.0
112
0.0
122
1.0
132
0.0
 79
     0
146
0.0
  0
VPORT
  5
51A
330
7
100
AcDbSymbolTableRecord
100
AcDbViewportTableRecord
  2
L4
 70
     0
 10
0.5
 20
0.5
 11
1.0
 21
1.0
 12
0.0
 22
0.0
 13
0.0
 23
0.0
 14
1.0
 24
1.0
 15
0.0
 25
0.0
 16
0.5773500000000001
 26
-0.5773500000000001
 36
0.5773500000000001
 17
0.0
 27
0.0
 37
0.0
 40
43.832054
 41
0.6885640000000001
 42
50.0
 43
22.837903
 44
-22.837903
 50
0.0
 51
0.0
 71
    16
 72
   100
 73
     1
 74
     1
 75
     0
 76
     0
 77
     0
 78
     0
281
     0
 65
     0
110
0.0
120
0.0
130
0.0
111
1.0
121
0.0
131
0.0
112
0.0
122
1.0
132
0.0
 79
     0
146
0.0
  0
VPORT
  5
51B
330
7
100
AcDbSymbolTableRecord
100
AcDbViewportTableRecord
  2
L6
 70
     0
 10
0.0
 20
0.5
 11
0.333333
 21
1.0
 12
0.0
 22
0.0
 13
0.0
 23
0.0
 14
1.0
 24
1.0
 15
0.0
 25
0.0
 16
0.718873
 26
-0.5850489999999999
 36
0.375419
 17
0.0
 27
0.0
 37
0.0
 40
46.267976
 41
0.6885640000000001
 42
50.0
 43
22.857141
 44
-22.857141
 50
0.0
 51
0.0
 71
    16
 72
   100
 73
     1
 74
     1
 75
     0
 76
     0
 77
     0
 78
     0
281
     0
 65
     0
110
0.0
120
0.0
130
0.0
111
1.0
121
0.0
131
0.0
112
0.0
122
1.0
132
0.0
 79
     0
146
0.0
  0
VPORT
  5
51C
330
7
100
AcDbSymbolTableRecord
100
AcDbViewportTableRecord
  2
L6
 70
     0
 10
0.0
 20
0.0
 11
0.333333
 21
0.5
 12
0.0
 22
0.0
 13
0.0
 23
0.0
 14
1.0
 24
1.0
 15
0.0
 25
0.0
 16
-1.0
 26
0.0
 36
0.0
 17
0.0
 27
0.0
 37
0.0
 40
44.59929999999999
 41
0.6885640000000001
 42
50.0
 43
22.544309
 44
-22.544309
 50
0.0
 51
0.0
 71
    16
 72
   100
 73
     1
 74
     1
 75
     0
 76
     0
 77
     0
 78
     0
281
     0
 65
     0
110
0.0
120
0.0
130
0.0
111
1.0
121
0.0
131
0.0
112
0.0
122
1.0
132
0.0
 79
     0
146
0.0
  0
VPORT
  5
51D
330
7
100
AcDbSymbolTableRecord
100
AcDbViewportTableRecord
  2
L6
 70
     0
 10
0.333333
 20
0.5
 11
0.666667
 21
1.0
 12
0.0
 22
0.0
 13
0.0
 23
0.0
 14
1.0
 24
1.0
 15
0.0
 25
0.0
 16
0.0
 26
0.0
 36
1.0
 17
0.0
 27
0.0
 37
0.0
 40
6.624633999999999
 41
0.6885640000000001
 42
50.0
 43
22.29965
 44
-22.29965
 50
0.0
 51
0.0
 71
    16
 72
   100
 73
     1
 74
     1
 75
     0
 76
     0
 77
     0
 78
     0
281
     0
 65
     0
110
0.0
120
0.0
130
0.0
111
1.0
121
0.0
131
0.0
112
0.0
122
1.0
132
0.0
 79
     0
146
0.0
  0
VPORT
  5
51E
330
7
100
AcDbSymbolTableRecord
100
AcDbViewportTableRecord
  2
L6
 70
     0
 10
0.333333
 20
0.0
 11
0.666667
 21
0.5
 12
0.0
 22
0.0
 13
0.0
 23
0.0
 14
1.0
 24
1.0
 15
0.0
 25
0.0
 16
0.0
 26
-1.0
 36
0.0
 17
0.0
 27
0.0
 37
0.0
 40
44.59929999999999
 41
0.6885640000000001
 42
50.0
 43
23.034414
 44
-23.034414
 50
0.0
 51
0.0
 71
    16
 72
   100
 73
     1
 74
     1
 75
     0
 76
     0
 77
     0
 78
     0
281
     0
 65
     0
110
0.0
120
0.0
130
0.0
111
1.0
121
0.0
131
0.0
112
0.0
122
1.0
132
0.0
 79
     0
146
0.0
  0
VPORT
  5
51F
330
7
100
AcDbSymbolTableRecord
100
AcDbViewportTableRecord
  2
L6
 70
     0
 10
0.666667
 20
0.5
 11
1.0
 21
1.0
 12
0.0
 22
0.0
 13
0.0
 23
0.0
 14
1.0
 24
1.0
 15
0.0
 25
0.0
 16
0.5773500000000001
 26
-0.5773500000000001
 36
0.5773500000000001
 17
0.0
 27
0.0
 37
0.0
 40
43.832054
 41
0.6885640000000001
 42
50.0
 43
22.837903
 44
-22.837903
 50
0.0
 51
0.0
 71
    16
 72
   100
 73
     1
 74
     1
 75
     0
 76
     0
 77
     0
 78
     0
281
     0
 65
     0
110
0.0
120
0.0
130
0.0
111
1.0
121
0.0
131
0.0
112
0.0
122
1.0
132
0.0
 79
     0
146
0.0
  0
VPORT
  5
520
330
7
100
AcDbSymbolTableRecord
100
AcDbViewportTableRecord
  2
L6
 70
     0
 10
0.666667
 20
0.0
 11
1.0
 21
0.5
 12
0.0
 22
0.0
 13
0.0
 23
0.0
 14
1.0
 24
1.0
 15
0.0
 25
0.0
 16
1.0
 26
0.0
 36
0.0
 17
0.0
 27
0.0
 37
0.0
 40
44.59929999999999
 41
0.6885640000000001
 42
50.0
 43
22.544309
 44
-22.544309
 50
0.0
 51
0.0
 71
    16
 72
   100
 73
     1
 74
     1
 75
     0
 76
     0
 77
     0
 78
     0
281
     0
 65
     0
110
0.0
120
0.0
130
0.0
111
1.0
121
0.0
131
0.0
112
0.0
122
1.0
132
0.0
 79
     0
146
0.0
  0
ENDTAB
  0
TABLE
  2
LTYPE
  5
4
330
0
100
AcDbSymbolTable
 70
     7
  0
LTYPE
  5
11
330
4
100
AcDbSymbolTableRecord
100
AcDbLinetypeTableRecord
  2
ByBlock
 70
     0
  3

 72
    65
 73
     0
 40
0.0
  0
LTYPE
  5
12
330
4
100
AcDbSymbolTableRecord
100
AcDbLinetypeTableRecord
  2
ByLayer
 70
     0
  3

 72
    65
 73
     0
 40
0.0
  0
LTYPE
  5
13
330
4
100
AcDbSymbolTableRecord
100
AcDbLinetypeTableRecord
  2
Continuous
 70
     0
  3
Solid line
 72
    65
 73
     0
 40
0.0
  0
LTYPE
  5
24
330
4
100
AcDbSymbolTableRecord
100
AcDbLinetypeTableRecord
  2
DASHED
 70
     0
  3
__ __ __ __ __ __ __ __ __
 72
    65
 73
     2
 40
25.72
 49
12.86
 74
     0
 49
-12.86
 74
     0
  0
LTYPE
  5
25
330
4
100
AcDbSymbolTableRecord
100
AcDbLinetypeTableRecord
  2
HIDDEN
 70
     0
  3
_ _ _ _ _ _ _ _ _ _ _ _ _ _ _
 72
    65
 73
     2
 40
0.5
 49
0.25
 74
     0
 49
-0.25
 74
     0
  0
LTYPE
  5
26
330
4
100
AcDbSymbolTableRecord
100
AcDbLinetypeTableRecord
  2
PHANTOM
 70
     0
  3
____ _ _ ____ _ _ _____ _ _ ____
 72
    65
 73
     6
 40
50.5
 49
18.0
 74
     0
 49
-6.5
 74
     0
 49
6.5
 74
     0
 49
-6.5
 74
     0
 49
6.5
 74
     0
 49
-6.5
 74
     0
  0
LTYPE
  5
27
330
4
100
AcDbSymbolTableRecord
100
AcDbLinetypeTableRecord
  2
CENTER
 70
     0
  3
____ _ ____ _ ____ _ ____
 72
    65
 73
     4
 40
47.5
 49
22.0
 74
     0
 49
-8.5
 74
     0
 49
8.5
 74
     0
 49
-8.5
 74
     0
  0
LTYPE
  5
28
330
4
100
AcDbSymbolTableRecord
100
AcDbLinetypeTableRecord
  2
DOT
 70
     0
  3
.........................
 72
    65
 73
     2
 40
10.0
 49
0.0
 74
     0
 49
-10.0
 74
     0
  0
LTYPE
  5
29
330
4
100
AcDbSymbolTableRecord
100
AcDbLinetypeTableRecord
  2
DASHDOT
 70
     0
  3
_._._._._._._._._._._._._._._._.
 72
    65
 73
     4
 40
70.0
 49
31.0
 74
     0
 49
-13.0
 74
     0
 49
13.0
 74
     0
 49
-13.0
 74
     0
  0
ENDTAB
  0
TABLE
  2
LAYER
  5
2
330
0
100
AcDbSymbolTable
 70
     2
  0
LAYER
  5
14
330
2
100
AcDbSymbolTableRecord
100
AcDbLayerTableRecord
  2
0
 70
     0
 62
     7
  6
Continuous
370
    -3
390
1D
  0
LAYER
  5
34
330
2
100
AcDbSymbolTableRecord
100
AcDbLayerTableRecord
  2
1
 70
     0
 62
     7
  6
Continuous
370
    -3
390
1D
  0
ENDTAB
  0
TABLE
  2
STYLE
  5
3
330
0
100
AcDbSymbolTable
 70
     1
  0
STYLE
  5
17
330
3
100
AcDbSymbolTableRecord
100
AcDbTextStyleTableRecord
  2
Standard
 70
     0
 40
0.0
 41
1.0
 50
0.0
 71
     0
 42
0.0
  3
txt
  4

  0
ENDTAB
  0
TABLE
  2
VIEW
  5
5
330
0
100
AcDbSymbolTable
 70
     8
  0
VIEW
  5
2A
330
5
100
AcDbSymbolTableRecord
100
AcDbViewTableRecord
  2
TOP
 70
     0
 40
6.624633999999999
 10
0.0
 20
0.0
 41
11.542932
 11
0.0
 21
0.0
 31
1.0
 12
0.0
 22
0.0
 32
0.0
 42
50.0
 43
22.29965
 44
-22.29965
 50
0.0
 71
    16
281
     0
 72
     0
  0
VIEW
  5
2B
330
5
100
AcDbSymbolTableRecord
100
AcDbViewTableRecord
  2
FRONT
 70
     0
 40
44.59929999999999
 10
0.0
 20
0.0
 41
11.542932
 11
0.0
 21
-1.0
 31
0.0
 12
0.0
 22
0.0
 32
0.0
 42
50.0
 43
23.034414
 44
-23.034414
 50
0.0
 71
    16
281
     0
 72
     0
  0
VIEW
  5
2C
330
5
100
AcDbSymbolTableRecord
100
AcDbViewTableRecord
  2
RIGHT
 70
     0
 40
44.59929999999999
 10
0.0
 20
0.0
 41
6.624633999999999
 11
1.0
 21
0.0
 31
0.0
 12
0.0
 22
0.0
 32
0.0
 42
50.0
 43
22.544309
 44
-22.544309
 50
0.0
 71
    16
281
     0
 72
     0
  0
VIEW
  5
2D
330
5
100
AcDbSymbolTableRecord
100
AcDbViewTableRecord
  2
BACK
 70
     0
 40
44.59929999999999
 10
0.0
 20
0.0
 41
11.542932
 11
0.0
 21
1.0
 31
0.0
 12
0.0
 22
0.0
 32
0.0
 42
50.0
 43
23.034414
 44
-23.034414
 50
0.0
 71
    16
281
     0
 72
     0
  0
VIEW
  5
2E
330
5
100
AcDbSymbolTableRecord
100
AcDbViewTableRecord
  2
BOTTOM
 70
     0
 40
6.624633999999999
 10
0.0
 20
0.0
 41
11.542932
 11
0.0
 21
0.0
 31
-1.0
 12
0.0
 22
0.0
 32
0.0
 42
50.0
 43
22.29965
 44
-22.29965
 50
180.0
 71
    16
281
     0
 72
     0
  0
VIEW
  5
2F
330
5
100
AcDbSymbolTableRecord
100
AcDbViewTableRecord
  2
LEFT
 70
     0
 40
44.59929999999999
 10
0.0
 20
0.0
 41
6.624633999999999
 11
-1.0
 21
0.0
 31
0.0
 12
0.0
 22
0.0
 32
0.0
 42
50.0
 43
22.544309
 44
-22.544309
 50
0.0
 71
    16
281
     0
 72
     0
  0
VIEW
  5
30
330
5
100
AcDbSymbolTableRecord
100
AcDbViewTableRecord
  2
TFR-ISO
 70
     0
 40
43.832054
 10
0.0
 20
0.0
 41
12.84641
 11
0.5773500000000001
 21
-0.5773500000000001
 31
0.5773500000000001
 12
0.0
 22
0.0
 32
0.0
 42
50.0
 43
22.837903
 44
-22.837903
 50
0.0
 71
    16
281
     0
 72
     0
  0
VIEW
  5
31
330
5
100
AcDbSymbolTableRecord
100
AcDbViewTableRecord
  2
TFR-TRI
 70
     0
 40
46.267976
 10
0.0
 20
0.0
 41
12.424216
 11
0.718873
 21
-0.5850489999999999
 31
0.375419
 12
0.0
 22
0.0
 32
0.0
 42
50.0
 43
22.857141
 44
-22.857141
 50
0.0
 71
    16
281
     0
 72
     0
  0
ENDTAB
  0
TABLE
  2
UCS
  5
6
330
0
100
AcDbSymbolTable
 70
     0
  0
ENDTAB
  0
TABLE
  2
APPID
  5
8
330
0
100
AcDbSymbolTable
 70
     3
  0
APPID
  5
16
330
8
100
AcDbSymbolTableRecord
100
AcDbRegAppTableRecord
  2
ACAD
 70
     0
  0
APPID
  5
53F
330
8
100
AcDbSymbolTableRecord
100
AcDbRegAppTableRecord
  2
ACAD_PSEXT
 70
     0
  0
APPID
  5
542
330
8
100
AcDbSymbolTableRecord
100
AcDbRegAppTableRecord
  2
DCO15
 70
     0
  0
ENDTAB
  0
TABLE
  2
DIMSTYLE
  5
9
330
0
100
AcDbSymbolTable
 70
     1
100
AcDbDimStyleTable
 71
     0
  0
DIMSTYLE
105
18
330
9
100
AcDbSymbolTableRecord
100
AcDbDimStyleTableRecord
  2
Standard
 70
     0
340
17
  0
ENDTAB
  0
TABLE
  2
BLOCK_RECORD
  5
1
330
0
100
AcDbSymbolTable
 70
     0
  0
BLOCK_RECORD
  5
A
330
1
100
AcDbSymbolTableRecord
100
AcDbBlockTableRecord
  2
*MODEL_SPACE
340
20
  0
BLOCK_RECORD
  5
B
330
1
100
AcDbSymbolTableRecord
100
AcDbBlockTableRecord
  2
*PAPER_SPACE
340
21
  0
ENDTAB
  0
ENDSEC
  0
SECTION
  2
BLOCKS
  0
BLOCK
  5
D
330
A
100
AcDbEntity
  8
0
100
AcDbBlockBegin
  2
*MODEL_SPACE
 70
     0
 10
0.0
 20
0.0
 30
0.0
  3
*MODEL_SPACE
  1

  0
ENDBLK
  5
E
330
A
100
AcDbEntity
  8
0
100
AcDbBlockEnd
  0
BLOCK
  5
F
330
B
100
AcDbEntity
 67
     1
  8
0
100
AcDbBlockBegin
  2
*PAPER_SPACE
 70
     0
 10
0.0
 20
0.0
 30
0.0
  3
*PAPER_SPACE
  1

  0
ENDBLK
  5
10
330
B
100
AcDbEntity
 67
     1
  8
0
100
AcDbBlockEnd
  0
ENDSEC
  0
SECTION
  2
ENTITIES
  0
VIEWPORT
  5
32
102
{ACAD_XDICTIONARY
360
54E
102
}
330
B
100
AcDbEntity
 67
     1
  8
0
100
AcDbViewport
 10
7.594715447154472
 20
4.25
 30
0.0
 40
15.18943089430894
 41
8.5
 68
     1
 69
     1
 12
7.594715447154472
 22
4.25
 13
0.0
 23
0.0
 14
0.0
 24
0.0
 15
0.0
 25
0.0
 16
0.0
 26
0.0
 36
1.0
 17
0.0
 27
0.0
 37
0.0
 42
26.277896
 43
0.0
 44
0.0
 45
8.5
 50
0.0
 51
0.0
 72
   100
 90
    32800
  1

281
     0
 71
     0
 74
     1
110
0.0
120
0.0
130
0.0
111
1.0
121
0.0
131
0.0
112
0.0
122
1.0
132
0.0
 79
     0
146
0.0
  0
LINE
  5
33
330
B
100
AcDbEntity
 67
     1
  8
1
  6
Continuous
 62
    18
100
AcDbLine
 10
1.703936
 20
2.351266999999999
 30
0.0
 11
1.693422
 21
2.351266999999999
 31
0.0
  0
LINE
  5
35
330
B
100
AcDbEntity
 67
     1
  8
1
  6
Continuous
 62
    18
100
AcDbLine
 10
2.648383
 20
4.631366
 30
0.0
 11
2.644057
 21
4.623781
 31
0.0
  0
LINE
  5
36
330
B
100
AcDbEntity
 67
     1
  8
1
  6
Continuous
 62
    18
100
AcDbLine
 10
5.974784999999999
 20
4.444653999999999
 30
0.0
 11
5.974784999999999
 21
4.481179
 31
0.0
  0
LINE
  5
37
330
B
100
AcDbEntity
 67
     1
  8
1
  6
Continuous
 62
    18
100
AcDbLine
 10
2.147258
 20
1.578006
 30
0.0
 11
2.145529999999999
 21
1.578294
 31
0.0
  0
LINE
  5
38
330
B
100
AcDbEntity
 67
     1
  8
1
  6
Continuous
 62
    18
100
AcDbLine
 10
2.913629
 20
1.38861
 30
0.0
 11
1.777974
 21
1.38861
 31
0.0
  0
LINE
  5
39
330
B
100
AcDbEntity
 67
     1
  8
1
  6
Continuous
 62
    18
100
AcDbLine
 10
2.417276999999999
 20
1.528242
 30
0.0
 11
2.427300999999999
 21
1.529912
 31
0.0
  0
LINE
  5
3A
330
B
100
AcDbEntity
 67
     1
  8
1
  6
Continuous
 62
    18
100
AcDbLine
 10
3.041493
 20
4.037746
 30
0.0
 11
3.020786
 21
4.053634999999999
 31
0.0
  0
LINE
  5
3B
330
B
100
AcDbEntity
 67
     1
  8
1
  6
Continuous
 62
    18
100
AcDbLine
 10
2.785972
 20
4.347841999999999
 30
0.0
 11
2.785972
 21
4.352304
 31
0.0
  0
LINE
  5
3C
330
B
100
AcDbEntity
 67
     1
  8
1
  6
Continuous
 62
    18
100
AcDbLine
 10
3.071813999999999
 20
1.425469999999999
 30
0.0
 11
3.068408
 21
1.399589999999999
 31
0.0
  0
LINE
  5
3D
330
B
100
AcDbEntity
 67
     1
  8
1
  6
Continuous
 62
    18
100
AcDbLine
 10
1.649079
 20
4.136595999999999
 30
0.0
 11
1.629218
 21
4.110712
 31
0.0
  0
LINE
  5
3E
330
B
100
AcDbEntity
 67
     1
  8
1
  6
Continuous
 62
    18
100
AcDbLine
 10
2.983368
 20
2.351266999999999
 30
0.0
 11
2.98335
 21
2.411738
 31
0.0
  0
LINE
  5
3F
330
B
100
AcDbEntity
 67
     1
  8
1
  6
Continuous
 62
    18
100
AcDbLine
 10
5.822983999999999
 20
3.070508999999999
 30
0.0
 11
5.827284999999999
 21
3.070434
 31
0.0
  0
LINE
  5
40
330
B
100
AcDbEntity
 67
     1
  8
1
  6
Continuous
 62
    18
100
AcDbLine
 10
2.970437
 20
5.994762
 30
0.0
 11
2.944373
 21
5.994762
 31
0.0
  0
LINE
  5
41
330
B
100
AcDbEntity
 67
     1
  8
1
  6
Continuous
 62
    18
100
AcDbLine
 10
3.035209999999999
 20
1.256956999999999
 30
0.0
 11
3.055070999999999
 21
1.282840999999999
 31
0.0
  0
LINE
  5
42
330
B
100
AcDbEntity
 67
     1
  8
1
  6
Continuous
 62
    18
100
AcDbLine
 10
2.047546
 20
0.7755220000000001
 30
0.0
 11
2.049595
 21
0.7755220000000001
 31
0.0
  0
LINE
  5
43
330
B
100
AcDbEntity
 67
     1
  8
1
  6
Continuous
 62
    18
100
AcDbLine
 10
1.695802
 20
1.468949
 30
0.0
 11
1.697634
 21
1.468949
 31
0.0
  0
LINE
  5
44
330
B
100
AcDbEntity
 67
     1
  8
1
  6
Continuous
 62
    18
100
AcDbLine
 10
2.301050999999999
 20
4.180776999999999
 30
0.0
 11
2.301050999999999
 21
4.179991
 31
0.0
  0
LINE
  5
45
330
B
100
AcDbEntity
 67
     1
  8
1
  6
Continuous
 62
    18
100
AcDbLine
 10
2.908932
 20
2.351266999999999
 30
0.0
 11
2.415576999999999
 21
2.351266999999999
 31
0.0
  0
LINE
  5
46
330
B
100
AcDbEntity
 67
     1
  8
1
  6
Continuous
 62
    18
100
AcDbLine
 10
5.722285
 20
1.586037
 30
0.0
 11
5.722285
 21
1.468949
 31
0.0
  0
LINE
  5
47
330
B
100
AcDbEntity
 67
     1
  8
1
  6
Continuous
 62
    18
100
AcDbLine
 10
1.988550999999999
 20
6.159262
 30
0.0
 11
1.952388999999999
 21
6.159262
 31
0.0
  0
LINE
  5
48
330
B
100
AcDbEntity
 67
     1
  8
1
  6
Continuous
 62
    18
100
AcDbLine
 10
5.722285
 20
1.38861
 30
0.0
 11
5.722285
 21
1.394725
 31
0.0
  0
LINE
  5
49
330
B
100
AcDbEntity
 67
     1
  8
1
  6
Continuous
 62
    18
100
AcDbLine
 10
1.712459999999999
 20
6.159262
 30
0.0
 11
1.713497999999999
 21
6.099762
 31
0.0
  0
LINE
  5
4A
330
B
100
AcDbEntity
 67
     1
  8
1
  6
Continuous
 62
    18
100
AcDbLine
 10
2.145529999999999
 20
1.578294
 30
0.0
 11
2.145967999999999
 21
1.547113999999999
 31
0.0
  0
LINE
  5
4B
330
B
100
AcDbEntity
 67
     1
  8
1
  6
Continuous
 62
    18
100
AcDbLine
 10
2.478229
 20
0.6622600000000001
 30
0.0
 11
2.474400999999999
 21
0.6620470000000001
 31
0.0
  0
LINE
  5
4C
330
B
100
AcDbEntity
 67
     1
  8
1
  6
Continuous
 62
    18
100
AcDbLine
 10
1.720827999999999
 20
6.247262
 30
0.0
 11
1.701508999999999
 21
6.247262
 31
0.0
  0
LINE
  5
4D
330
B
100
AcDbEntity
 67
     1
  8
1
  6
Continuous
 62
    18
100
AcDbLine
 10
2.983281
 20
3.235440999999999
 30
0.0
 11
2.981606999999999
 21
3.233766999999999
 31
0.0
  0
LINE
  5
4E
330
B
100
AcDbEntity
 67
     1
  8
1
  6
Continuous
 62
    18
100
AcDbLine
 10
2.977300999999999
 20
3.235599999999999
 30
0.0
 11
2.977300999999999
 21
3.894302999999999
 31
0.0
  0
LINE
  5
4F
330
B
100
AcDbEntity
 67
     1
  8
1
  6
Continuous
 62
    18
100
AcDbLine
 10
1.898838999999999
 20
1.196770999999999
 30
0.0
 11
1.904884
 21
1.181812
 31
0.0
  0
LINE
  5
50
330
B
100
AcDbEntity
 67
     1
  8
1
  6
Continuous
 62
    18
100
AcDbLine
 10
5.974784999999999
 20
4.192524999999999
 30
0.0
 11
5.974784999999999
 21
4.181794
 31
0.0
  0
LINE
  5
51
330
B
100
AcDbEntity
 67
     1
  8
1
  6
Continuous
 62
    18
100
AcDbLine
 10
2.060076
 20
0.775976
 30
0.0
 11
1.906084999999999
 21
1.064983
 31
0.0
  0
LINE
  5
52
330
B
100
AcDbEntity
 67
     1
  8
1
  6
Continuous
 62
    18
100
AcDbLine
 10
2.644057
 20
0.7741920000000001
 30
0.0
 11
2.644057
 21
0.7755220000000001
 31
0.0
  0
LINE
  5
53
330
B
100
AcDbEntity
 67
     1
  8
1
  6
Continuous
 62
    18
100
AcDbLine
 10
2.160102999999999
 20
1.536605999999999
 30
0.0
 11
2.151022
 21
1.536831999999999
 31
0.0
  0
LINE
  5
54
330
B
100
AcDbEntity
 67
     1
  8
1
  6
Continuous
 62
    18
100
AcDbLine
 10
1.621289999999999
 20
6.997261999999999
 30
0.0
 11
1.632127999999999
 21
6.997261999999999
 31
0.0
  0
LINE
  5
55
330
B
100
AcDbEntity
 67
     1
  8
1
  6
Continuous
 62
    18
100
AcDbLine
 10
5.886784999999999
 20
0.6635600000000001
 30
0.0
 11
5.886784999999999
 21
0.667707
 31
0.0
  0
LINE
  5
56
330
B
100
AcDbEntity
 67
     1
  8
1
  6
Continuous
 62
    18
100
AcDbLine
 10
1.906084999999999
 20
4.222424
 30
0.0
 11
1.90322
 21
4.206055999999999
 31
0.0
  0
LINE
  5
57
330
B
100
AcDbEntity
 67
     1
  8
1
  6
Continuous
 62
    18
100
AcDbLine
 10
2.241572999999999
 20
1.536524
 30
0.0
 11
2.172224
 21
1.536524
 31
0.0
  0
LINE
  5
58
330
B
100
AcDbEntity
 67
     1
  8
1
  6
Continuous
 62
    18
100
AcDbLine
 10
1.714300999999999
 20
2.246566
 30
0.0
 11
1.714300999999999
 21
1.58787
 31
0.0
  0
LINE
  5
59
330
B
100
AcDbEntity
 67
     1
  8
1
  6
Continuous
 62
    18
100
AcDbLine
 10
1.782670999999999
 20
2.409904999999999
 30
0.0
 11
1.709995
 21
2.409904999999999
 31
0.0
  0
LINE
  5
5A
330
B
100
AcDbEntity
 67
     1
  8
1
  6
Continuous
 62
    18
100
AcDbLine
 10
1.891112999999999
 20
6.247262
 30
0.0
 11
1.851855
 21
6.247262
 31
0.0
  0
LINE
  5
5B
330
B
100
AcDbEntity
 67
     1
  8
1
  6
Continuous
 62
    18
100
AcDbLine
 10
5.886784999999999
 20
1.038845999999999
 30
0.0
 11
5.886784999999999
 21
1.042993
 31
0.0
  0
LINE
  5
5C
330
B
100
AcDbEntity
 67
     1
  8
1
  6
Continuous
 62
    18
100
AcDbLine
 10
2.861809999999999
 20
6.159262
 30
0.0
 11
2.820553999999999
 21
6.159262
 31
0.0
  0
LINE
  5
5D
330
B
100
AcDbEntity
 67
     1
  8
1
  6
Continuous
 62
    18
100
AcDbLine
 10
2.540580999999999
 20
2.360700999999999
 30
0.0
 11
2.531499999999999
 21
2.360475
 31
0.0
  0
LINE
  5
5E
330
B
100
AcDbEntity
 67
     1
  8
1
  6
Continuous
 62
    18
100
AcDbLine
 10
2.983183
 20
3.070691999999999
 30
0.0
 11
2.983183
 21
3.175135
 31
0.0
  0
LINE
  5
5F
330
B
100
AcDbEntity
 67
     1
  8
1
  6
Continuous
 62
    18
100
AcDbLine
 10
1.615197
 20
4.082105
 30
0.0
 11
1.627682
 21
4.112248
 31
0.0
  0
LINE
  5
60
330
B
100
AcDbEntity
 67
     1
  8
1
  6
Continuous
 62
    18
100
AcDbLine
 10
2.498326
 20
6.247262
 30
0.0
 11
2.49724
 21
6.159262
 31
0.0
  0
LINE
  5
61
330
B
100
AcDbEntity
 67
     1
  8
1
  6
Continuous
 62
    18
100
AcDbLine
 10
3.070775999999999
 20
3.967044999999999
 30
0.0
 11
3.067368999999999
 21
3.992924999999999
 31
0.0
  0
LINE
  5
62
330
B
100
AcDbEntity
 67
     1
  8
1
  6
Continuous
 62
    18
100
AcDbLine
 10
2.276025999999999
 20
1.585942
 30
0.0
 11
2.274354999999999
 21
1.587612999999999
 31
0.0
  0
LINE
  5
63
330
B
100
AcDbEntity
 67
     1
  8
1
  6
Continuous
 62
    18
100
AcDbLine
 10
1.918765
 20
1.529912
 30
0.0
 11
1.914408
 21
1.529186
 31
0.0
  0
LINE
  5
64
330
B
100
AcDbEntity
 67
     1
  8
1
  6
Continuous
 62
    18
100
AcDbLine
 10
1.869297999999999
 20
3.176711
 30
0.0
 11
1.858556
 21
3.176804999999999
 31
0.0
  0
LINE
  5
65
330
B
100
AcDbEntity
 67
     1
  8
1
  6
Continuous
 62
    18
100
AcDbLine
 10
1.641349
 20
6.159262
 30
0.0
 11
1.625599
 21
6.159262
 31
0.0
  0
LINE
  5
66
330
B
100
AcDbEntity
 67
     1
  8
1
  6
Continuous
 62
    18
100
AcDbLine
 10
2.544344999999999
 20
3.184881999999999
 30
0.0
 11
2.544344999999999
 21
3.225743999999999
 31
0.0
  0
LINE
  5
67
330
B
100
AcDbEntity
 67
     1
  8
1
  6
Continuous
 62
    18
100
AcDbLine
 10
2.047546
 20
4.619112999999999
 30
0.0
 11
2.079936
 21
4.619112999999999
 31
0.0
  0
LINE
  5
68
330
B
100
AcDbEntity
 67
     1
  8
1
  6
Continuous
 62
    18
100
AcDbLine
 10
1.901791
 20
1.186976
 30
0.0
 11
1.894
 21
1.201027999999999
 31
0.0
  0
LINE
  5
69
330
B
100
AcDbEntity
 67
     1
  8
1
  6
Continuous
 62
    18
100
AcDbLine
 10
2.079936
 20
6.159262
 30
0.0
 11
2.079936
 21
6.247262
 31
0.0
  0
LINE
  5
6A
330
B
100
AcDbEntity
 67
     1
  8
1
  6
Continuous
 62
    18
100
AcDbLine
 10
1.872708
 20
4.177494
 30
0.0
 11
1.886758999999999
 21
4.185284999999999
 31
0.0
  0
LINE
  5
6B
330
B
100
AcDbEntity
 67
     1
  8
1
  6
Continuous
 62
    18
100
AcDbLine
 10
2.417320999999999
 20
3.175981
 30
0.0
 11
2.417302999999999
 21
3.235392
 31
0.0
  0
LINE
  5
6C
330
B
100
AcDbEntity
 67
     1
  8
1
  6
Continuous
 62
    18
100
AcDbLine
 10
1.642797
 20
4.037746
 30
0.0
 11
1.626908
 21
4.017039999999999
 31
0.0
  0
LINE
  5
6D
330
B
100
AcDbEntity
 67
     1
  8
1
  6
Continuous
 62
    18
100
AcDbLine
 10
2.546143999999999
 20
2.360114999999999
 30
0.0
 11
2.545766999999999
 21
2.363452
 31
0.0
  0
LINE
  5
6E
330
B
100
AcDbEntity
 67
     1
  8
1
  6
Continuous
 62
    18
100
AcDbLine
 10
5.974784999999999
 20
1.218817
 30
0.0
 11
5.886784999999999
 21
1.220353
 31
0.0
  0
LINE
  5
6F
330
B
100
AcDbEntity
 67
     1
  8
1
  6
Continuous
 62
    18
100
AcDbLine
 10
1.610938999999999
 20
6.247262
 30
0.0
 11
1.617483999999999
 21
6.997261999999999
 31
0.0
  0
LINE
  5
70
330
B
100
AcDbEntity
 67
     1
  8
1
  6
Continuous
 62
    18
100
AcDbLine
 10
1.871048
 20
6.159262
 30
0.0
 11
1.829793
 21
6.159262
 31
0.0
  0
LINE
  5
71
330
B
100
AcDbEntity
 67
     1
  8
1
  6
Continuous
 62
    18
100
AcDbLine
 10
2.983183
 20
2.351266999999999
 30
0.0
 11
2.987666999999999
 21
2.351266999999999
 31
0.0
  0
LINE
  5
72
330
B
100
AcDbEntity
 67
     1
  8
1
  6
Continuous
 62
    18
100
AcDbLine
 10
2.519356999999999
 20
6.247262
 30
0.0
 11
2.489668999999999
 21
6.247262
 31
0.0
  0
LINE
  5
73
330
B
100
AcDbEntity
 67
     1
  8
1
  6
Continuous
 62
    18
100
AcDbLine
 10
2.809861
 20
4.181794
 30
0.0
 11
2.824311999999999
 21
4.175933999999999
 31
0.0
  0
LINE
  5
74
330
B
100
AcDbEntity
 67
     1
  8
1
  6
Continuous
 62
    18
100
AcDbLine
 10
2.913629
 20
1.386777
 30
0.0
 11
2.913629
 21
1.38861
 31
0.0
  0
LINE
  5
75
330
B
100
AcDbEntity
 67
     1
  8
1
  6
Continuous
 62
    18
100
AcDbLine
 10
5.886784999999999
 20
4.693756999999999
 30
0.0
 11
5.886784999999999
 21
4.713588999999999
 31
0.0
  0
LINE
  5
76
330
B
100
AcDbEntity
 67
     1
  8
1
  6
Continuous
 62
    18
100
AcDbLine
 10
5.974784999999999
 20
4.057046999999999
 30
0.0
 11
5.974784999999999
 21
4.106526
 31
0.0
  0
LINE
  5
77
330
B
100
AcDbEntity
 67
     1
  8
1
  6
Continuous
 62
    18
100
AcDbLine
 10
2.851268999999999
 20
2.359846
 30
0.0
 11
2.850624999999999
 21
2.359801
 31
0.0
  0
LINE
  5
78
330
B
100
AcDbEntity
 67
     1
  8
1
  6
Continuous
 62
    18
100
AcDbLine
 10
5.974784999999999
 20
1.216059
 30
0.0
 11
5.974784999999999
 21
1.208268
 31
0.0
  0
LINE
  5
79
330
B
100
AcDbEntity
 67
     1
  8
1
  6
Continuous
 62
    18
100
AcDbLine
 10
5.886784999999999
 20
1.171129
 30
0.0
 11
5.886784999999999
 21
1.187497
 31
0.0
  0
LINE
  5
7A
330
B
100
AcDbEntity
 67
     1
  8
1
  6
Continuous
 62
    18
100
AcDbLine
 10
2.049595
 20
0.7755220000000001
 30
0.0
 11
2.060076
 21
0.775976
 31
0.0
  0
LINE
  5
7B
330
B
100
AcDbEntity
 67
     1
  8
1
  6
Continuous
 62
    18
100
AcDbLine
 10
2.545766999999999
 20
1.539584
 30
0.0
 11
2.545634999999999
 21
1.547113999999999
 31
0.0
  0
LINE
  5
7C
330
B
100
AcDbEntity
 67
     1
  8
1
  6
Continuous
 62
    18
100
AcDbLine
 10
5.974784999999999
 20
1.197335
 30
0.0
 11
5.974784999999999
 21
1.226712999999999
 31
0.0
  0
LINE
  5
7D
330
B
100
AcDbEntity
 67
     1
  8
1
  6
Continuous
 62
    18
100
AcDbLine
 10
1.835237
 20
2.359936
 30
0.0
 11
1.828768999999999
 21
2.359983999999999
 31
0.0
  0
LINE
  5
7E
330
B
100
AcDbEntity
 67
     1
  8
1
  6
Continuous
 62
    18
100
AcDbLine
 10
3.016807
 20
6.997261999999999
 30
0.0
 11
3.035940999999999
 21
6.997261999999999
 31
0.0
  0
LINE
  5
7F
330
B
100
AcDbEntity
 67
     1
  8
1
  6
Continuous
 62
    18
100
AcDbLine
 10
5.974784999999999
 20
0.9123739999999999
 30
0.0
 11
5.974784999999999
 21
0.9488989999999999
 31
0.0
  0
LINE
  5
80
330
B
100
AcDbEntity
 67
     1
  8
1
  6
Continuous
 62
    18
100
AcDbLine
 10
1.695802
 20
3.894302999999999
 30
0.0
 11
1.714300999999999
 21
3.894302999999999
 31
0.0
  0
LINE
  5
81
330
B
100
AcDbEntity
 67
     1
  8
1
  6
Continuous
 62
    18
100
AcDbLine
 10
2.800488999999999
 20
6.247262
 30
0.0
 11
2.761835
 21
6.247262
 31
0.0
  0
LINE
  5
82
330
B
100
AcDbEntity
 67
     1
  8
1
  6
Continuous
 62
    18
100
AcDbLine
 10
1.931950999999999
 20
3.194850999999999
 30
0.0
 11
2.145967999999999
 21
3.194850999999999
 31
0.0
  0
LINE
  5
83
330
B
100
AcDbEntity
 67
     1
  8
1
  6
Continuous
 62
    18
100
AcDbLine
 10
2.863247
 20
1.536118
 30
0.0
 11
2.854117
 21
1.53604
 31
0.0
  0
LINE
  5
84
330
B
100
AcDbEntity
 67
     1
  8
1
  6
Continuous
 62
    18
100
AcDbLine
 10
2.194361999999999
 20
4.720533
 30
0.0
 11
2.193276
 21
4.721619
 31
0.0
  0
LINE
  5
85
330
B
100
AcDbEntity
 67
     1
  8
1
  6
Continuous
 62
    18
100
AcDbLine
 10
3.020786
 20
6.099762
 30
0.0
 11
2.996671
 21
6.099762
 31
0.0
  0
LINE
  5
86
330
B
100
AcDbEntity
 67
     1
  8
1
  6
Continuous
 62
    18
100
AcDbLine
 10
3.056607
 20
1.281304999999999
 30
0.0
 11
3.036747
 21
1.255420999999999
 31
0.0
  0
LINE
  5
87
330
B
100
AcDbEntity
 67
     1
  8
1
  6
Continuous
 62
    18
100
AcDbLine
 10
2.435697
 20
6.247262
 30
0.0
 11
2.415904999999999
 21
6.247262
 31
0.0
  0
LINE
  5
88
330
B
100
AcDbEntity
 67
     1
  8
1
  6
Continuous
 62
    18
100
AcDbLine
 10
2.996671
 20
6.099762
 30
0.0
 11
2.970791
 21
6.099762
 31
0.0
  0
LINE
  5
89
330
B
100
AcDbEntity
 67
     1
  8
1
  6
Continuous
 62
    18
100
AcDbLine
 10
5.886784999999999
 20
1.312983999999999
 30
0.0
 11
5.886784999999999
 21
1.345334
 31
0.0
  0
LINE
  5
8A
330
B
100
AcDbEntity
 67
     1
  8
1
  6
Continuous
 62
    18
100
AcDbLine
 10
2.060076
 20
4.617576999999999
 30
0.0
 11
2.049595
 21
4.618030999999999
 31
0.0
  0
LINE
  5
8B
330
B
100
AcDbEntity
 67
     1
  8
1
  6
Continuous
 62
    18
100
AcDbLine
 10
1.931441999999999
 20
2.360114999999999
 30
0.0
 11
1.918765
 21
2.353779999999999
 31
0.0
  0
LINE
  5
8C
330
B
100
AcDbEntity
 67
     1
  8
1
  6
Continuous
 62
    18
100
AcDbLine
 10
5.974784999999999
 20
4.057046999999999
 30
0.0
 11
5.974784999999999
 21
4.066943
 31
0.0
  0
LINE
  5
8D
330
B
100
AcDbEntity
 67
     1
  8
1
  6
Continuous
 62
    18
100
AcDbLine
 10
2.608627999999999
 20
6.247262
 30
0.0
 11
2.611666
 21
6.247262
 31
0.0
  0
LINE
  5
8E
330
B
100
AcDbEntity
 67
     1
  8
1
  6
Continuous
 62
    18
100
AcDbLine
 10
5.974784999999999
 20
1.187027
 30
0.0
 11
5.974784999999999
 21
1.236505999999999
 31
0.0
  0
LINE
  5
8F
330
B
100
AcDbEntity
 67
     1
  8
1
  6
Continuous
 62
    18
100
AcDbLine
 10
1.782670999999999
 20
2.351266999999999
 30
0.0
 11
1.782670999999999
 21
2.409904999999999
 31
0.0
  0
LINE
  5
90
330
B
100
AcDbEntity
 67
     1
  8
1
  6
Continuous
 62
    18
100
AcDbLine
 10
1.905630999999999
 20
4.352304
 30
0.0
 11
1.905630999999999
 21
4.347841999999999
 31
0.0
  0
LINE
  5
91
330
B
100
AcDbEntity
 67
     1
  8
1
  6
Continuous
 62
    18
100
AcDbLine
 10
5.886784999999999
 20
4.667218
 30
0.0
 11
5.886784999999999
 21
4.693756999999999
 31
0.0
  0
LINE
  5
92
330
B
100
AcDbEntity
 67
     1
  8
1
  6
Continuous
 62
    18
100
AcDbLine
 10
2.786718999999999
 20
4.211740999999999
 30
0.0
 11
2.785518
 21
4.222424
 31
0.0
  0
LINE
  5
93
330
B
100
AcDbEntity
 67
     1
  8
1
  6
Continuous
 62
    18
100
AcDbLine
 10
2.497219999999999
 20
4.720512
 30
0.0
 11
2.488475999999999
 21
4.726761999999999
 31
0.0
  0
LINE
  5
94
330
B
100
AcDbEntity
 67
     1
  8
1
  6
Continuous
 62
    18
100
AcDbLine
 10
6.724785
 20
1.448804999999999
 30
0.0
 11
6.724785
 21
1.437966999999999
 31
0.0
  0
LINE
  5
95
330
B
100
AcDbEntity
 67
     1
  8
1
  6
Continuous
 62
    18
100
AcDbLine
 10
1.641758
 20
1.354767999999999
 30
0.0
 11
1.62587
 21
1.375475
 31
0.0
  0
LINE
  5
96
330
B
100
AcDbEntity
 67
     1
  8
1
  6
Continuous
 62
    18
100
AcDbLine
 10
2.592109999999999
 20
0.767841
 30
0.0
 11
2.599628
 21
0.7732200000000001
 31
0.0
  0
LINE
  5
97
330
B
100
AcDbEntity
 67
     1
  8
1
  6
Continuous
 62
    18
100
AcDbLine
 10
5.886784999999999
 20
4.136595999999999
 30
0.0
 11
5.886784999999999
 21
4.156455999999999
 31
0.0
  0
LINE
  5
98
330
B
100
AcDbEntity
 67
     1
  8
1
  6
Continuous
 62
    18
100
AcDbLine
 10
1.755963999999999
 20
6.159262
 30
0.0
 11
1.726951999999999
 21
6.159262
 31
0.0
  0
LINE
  5
99
330
B
100
AcDbEntity
 67
     1
  8
1
  6
Continuous
 62
    18
100
AcDbLine
 10
6.724785
 20
1.430356999999999
 30
0.0
 11
6.724785
 21
1.419521999999999
 31
0.0
  0
LINE
  5
9A
330
B
100
AcDbEntity
 67
     1
  8
1
  6
Continuous
 62
    18
100
AcDbLine
 10
2.417266
 20
1.528242
 30
0.0
 11
2.417276999999999
 21
1.528242
 31
0.0
  0
LINE
  5
9B
330
B
100
AcDbEntity
 67
     1
  8
1
  6
Continuous
 62
    18
100
AcDbLine
 10
3.020786
 20
4.053634999999999
 30
0.0
 11
2.996671
 21
4.063623
 31
0.0
  0
LINE
  5
9C
330
B
100
AcDbEntity
 67
     1
  8
1
  6
Continuous
 62
    18
100
AcDbLine
 10
2.946833
 20
4.173199999999999
 30
0.0
 11
2.948368999999999
 21
4.174736
 31
0.0
  0
LINE
  5
9D
330
B
100
AcDbEntity
 67
     1
  8
1
  6
Continuous
 62
    18
100
AcDbLine
 10
3.068408
 20
1.399589999999999
 30
0.0
 11
3.058419999999999
 21
1.375475
 31
0.0
  0
LINE
  5
9E
330
B
100
AcDbEntity
 67
     1
  8
1
  6
Continuous
 62
    18
100
AcDbLine
 10
2.498326
 20
6.247262
 30
0.0
 11
2.593172
 21
6.247262
 31
0.0
  0
LINE
  5
9F
330
B
100
AcDbEntity
 67
     1
  8
1
  6
Continuous
 62
    18
100
AcDbLine
 10
1.629218
 20
4.110712
 30
0.0
 11
1.616732999999999
 21
4.080569
 31
0.0
  0
LINE
  5
A0
330
B
100
AcDbEntity
 67
     1
  8
1
  6
Continuous
 62
    18
100
AcDbLine
 10
2.837149999999999
 20
2.353063999999999
 30
0.0
 11
2.833047
 21
2.352936
 31
0.0
  0
LINE
  5
A1
330
B
100
AcDbEntity
 67
     1
  8
1
  6
Continuous
 62
    18
100
AcDbLine
 10
1.894015999999999
 20
1.04221
 30
0.0
 11
2.04322
 21
0.762187
 31
0.0
  0
LINE
  5
A2
330
B
100
AcDbEntity
 67
     1
  8
1
  6
Continuous
 62
    18
100
AcDbLine
 10
5.819228999999999
 20
3.175135
 30
0.0
 11
5.818176999999999
 21
3.235440999999999
 31
0.0
  0
LINE
  5
A3
330
B
100
AcDbEntity
 67
     1
  8
1
  6
Continuous
 62
    18
100
AcDbLine
 10
2.944373
 20
5.994762
 30
0.0
 11
2.913629
 21
5.994762
 31
0.0
  0
LINE
  5
A4
330
B
100
AcDbEntity
 67
     1
  8
1
  6
Continuous
 62
    18
100
AcDbLine
 10
1.905216999999999
 20
1.041312
 30
0.0
 11
1.894015999999999
 21
1.04221
 31
0.0
  0
LINE
  5
A5
330
B
100
AcDbEntity
 67
     1
  8
1
  6
Continuous
 62
    18
100
AcDbLine
 10
2.611666
 20
0.774409
 30
0.0
 11
2.60309
 21
0.772992
 31
0.0
  0
LINE
  5
A6
330
B
100
AcDbEntity
 67
     1
  8
1
  6
Continuous
 62
    18
100
AcDbLine
 10
2.908932
 20
2.351266999999999
 30
0.0
 11
2.907243
 21
2.352110999999999
 31
0.0
  0
LINE
  5
A7
330
B
100
AcDbEntity
 67
     1
  8
1
  6
Continuous
 62
    18
100
AcDbLine
 10
2.390550999999999
 20
1.212776999999999
 30
0.0
 11
2.390550999999999
 21
1.213562
 31
0.0
  0
LINE
  5
A8
330
B
100
AcDbEntity
 67
     1
  8
1
  6
Continuous
 62
    18
100
AcDbLine
 10
5.974784999999999
 20
4.106526
 30
0.0
 11
5.974784999999999
 21
4.057046999999999
 31
0.0
  0
LINE
  5
A9
330
B
100
AcDbEntity
 67
     1
  8
1
  6
Continuous
 62
    18
100
AcDbLine
 10
5.722285
 20
1.394725
 30
0.0
 11
5.722285
 21
1.412139999999999
 31
0.0
  0
LINE
  5
AA
330
B
100
AcDbEntity
 67
     1
  8
1
  6
Continuous
 62
    18
100
AcDbLine
 10
2.970791
 20
6.099762
 30
0.0
 11
1.713497999999999
 21
6.099762
 31
0.0
  0
LINE
  5
AB
330
B
100
AcDbEntity
 67
     1
  8
1
  6
Continuous
 62
    18
100
AcDbLine
 10
2.145967999999999
 20
1.547113999999999
 30
0.0
 11
2.145836999999999
 21
1.539584
 31
0.0
  0
LINE
  5
AC
330
B
100
AcDbEntity
 67
     1
  8
1
  6
Continuous
 62
    18
100
AcDbLine
 10
1.701508999999999
 20
6.247262
 30
0.0
 11
1.689581
 21
6.247262
 31
0.0
  0
LINE
  5
AD
330
B
100
AcDbEntity
 67
     1
  8
1
  6
Continuous
 62
    18
100
AcDbLine
 10
2.907258
 20
3.235440999999999
 30
0.0
 11
2.983281
 21
3.235440999999999
 31
0.0
  0
LINE
  5
AE
330
B
100
AcDbEntity
 67
     1
  8
1
  6
Continuous
 62
    18
100
AcDbLine
 10
1.714300999999999
 20
3.894302999999999
 30
0.0
 11
1.714300999999999
 21
3.235599999999999
 31
0.0
  0
LINE
  5
AF
330
B
100
AcDbEntity
 67
     1
  8
1
  6
Continuous
 62
    18
100
AcDbLine
 10
1.904884
 20
1.181812
 30
0.0
 11
1.906084999999999
 21
1.171129
 31
0.0
  0
LINE
  5
B0
330
B
100
AcDbEntity
 67
     1
  8
1
  6
Continuous
 62
    18
100
AcDbLine
 10
2.787053999999999
 20
4.222424
 30
0.0
 11
2.787053999999999
 21
4.351048
 31
0.0
  0
LINE
  5
B1
330
B
100
AcDbEntity
 67
     1
  8
1
  6
Continuous
 62
    18
100
AcDbLine
 10
1.632127999999999
 20
6.997261999999999
 30
0.0
 11
1.648349
 21
6.997261999999999
 31
0.0
  0
LINE
  5
B2
330
B
100
AcDbEntity
 67
     1
  8
1
  6
Continuous
 62
    18
100
AcDbLine
 10
5.886784999999999
 20
0.667707
 30
0.0
 11
5.886784999999999
 21
0.6799640000000001
 31
0.0
  0
LINE
  5
B3
330
B
100
AcDbEntity
 67
     1
  8
1
  6
Continuous
 62
    18
100
AcDbLine
 10
1.90322
 20
4.206055999999999
 30
0.0
 11
1.895177
 21
4.191542
 31
0.0
  0
LINE
  5
B4
330
B
100
AcDbEntity
 67
     1
  8
1
  6
Continuous
 62
    18
100
AcDbLine
 10
2.785518
 20
1.064983
 30
0.0
 11
2.631527
 21
0.775976
 31
0.0
  0
LINE
  5
B5
330
B
100
AcDbEntity
 67
     1
  8
1
  6
Continuous
 62
    18
100
AcDbLine
 10
1.784341999999999
 20
2.411576999999999
 30
0.0
 11
1.782670999999999
 21
2.409904999999999
 31
0.0
  0
LINE
  5
B6
330
B
100
AcDbEntity
 67
     1
  8
1
  6
Continuous
 62
    18
100
AcDbLine
 10
5.974784999999999
 20
4.057046999999999
 30
0.0
 11
5.974784999999999
 21
4.106526
 31
0.0
  0
LINE
  5
B7
330
B
100
AcDbEntity
 67
     1
  8
1
  6
Continuous
 62
    18
100
AcDbLine
 10
1.851855
 20
6.247262
 30
0.0
 11
1.813649
 21
6.247262
 31
0.0
  0
LINE
  5
B8
330
B
100
AcDbEntity
 67
     1
  8
1
  6
Continuous
 62
    18
100
AcDbLine
 10
5.912784999999999
 20
1.043447
 30
0.0
 11
5.912784999999999
 21
1.045711
 31
0.0
  0
LINE
  5
B9
330
B
100
AcDbEntity
 67
     1
  8
1
  6
Continuous
 62
    18
100
AcDbLine
 10
2.820553999999999
 20
6.159262
 30
0.0
 11
2.779020999999999
 21
6.159262
 31
0.0
  0
LINE
  5
BA
330
B
100
AcDbEntity
 67
     1
  8
1
  6
Continuous
 62
    18
100
AcDbLine
 10
2.983299
 20
3.175135
 30
0.0
 11
2.983281
 21
3.235440999999999
 31
0.0
  0
LINE
  5
BB
330
B
100
AcDbEntity
 67
     1
  8
1
  6
Continuous
 62
    18
100
AcDbLine
 10
2.797587
 20
1.04221
 30
0.0
 11
2.786384999999999
 21
1.041312
 31
0.0
  0
LINE
  5
BC
330
B
100
AcDbEntity
 67
     1
  8
1
  6
Continuous
 62
    18
100
AcDbLine
 10
1.627682
 20
4.112248
 30
0.0
 11
1.647542999999999
 21
4.138131999999999
 31
0.0
  0
LINE
  5
BD
330
B
100
AcDbEntity
 67
     1
  8
1
  6
Continuous
 62
    18
100
AcDbLine
 10
2.592084999999999
 20
6.159262
 30
0.0
 11
2.49724
 21
6.159262
 31
0.0
  0
LINE
  5
BE
330
B
100
AcDbEntity
 67
     1
  8
1
  6
Continuous
 62
    18
100
AcDbLine
 10
2.415575999999999
 20
1.585942
 30
0.0
 11
2.276025999999999
 21
1.585942
 31
0.0
  0
LINE
  5
BF
330
B
100
AcDbEntity
 67
     1
  8
1
  6
Continuous
 62
    18
100
AcDbLine
 10
1.858556
 20
3.176804999999999
 30
0.0
 11
1.854454
 21
3.176931999999999
 31
0.0
  0
LINE
  5
C0
330
B
100
AcDbEntity
 67
     1
  8
1
  6
Continuous
 62
    18
100
AcDbLine
 10
5.974784999999999
 20
4.112248
 30
0.0
 11
5.974784999999999
 21
4.082105
 31
0.0
  0
LINE
  5
C1
330
B
100
AcDbEntity
 67
     1
  8
1
  6
Continuous
 62
    18
100
AcDbLine
 10
2.079936
 20
4.619144
 30
0.0
 11
2.088513
 21
4.620562
 31
0.0
  0
LINE
  5
C2
330
B
100
AcDbEntity
 67
     1
  8
1
  6
Continuous
 62
    18
100
AcDbLine
 10
2.099491999999999
 20
6.159262
 30
0.0
 11
2.091974
 21
6.159262
 31
0.0
  0
LINE
  5
C3
330
B
100
AcDbEntity
 67
     1
  8
1
  6
Continuous
 62
    18
100
AcDbLine
 10
1.886758999999999
 20
4.185284999999999
 30
0.0
 11
1.897491
 21
4.197544
 31
0.0
  0
LINE
  5
C4
330
B
100
AcDbEntity
 67
     1
  8
1
  6
Continuous
 62
    18
100
AcDbLine
 10
1.626908
 20
4.017039999999999
 30
0.0
 11
1.61692
 21
3.992924999999999
 31
0.0
  0
LINE
  5
C5
330
B
100
AcDbEntity
 67
     1
  8
1
  6
Continuous
 62
    18
100
AcDbLine
 10
5.974784999999999
 20
4.560268999999999
 30
0.0
 11
5.974784999999999
 21
4.599376999999999
 31
0.0
  0
LINE
  5
C6
330
B
100
AcDbEntity
 67
     1
  8
1
  6
Continuous
 62
    18
100
AcDbLine
 10
1.829793
 20
6.159262
 30
0.0
 11
1.790804999999999
 21
6.159262
 31
0.0
  0
LINE
  5
C7
330
B
100
AcDbEntity
 67
     1
  8
1
  6
Continuous
 62
    18
100
AcDbLine
 10
5.886784999999999
 20
4.481651
 30
0.0
 11
5.886784999999999
 21
4.520444999999999
 31
0.0
  0
LINE
  5
C8
330
B
100
AcDbEntity
 67
     1
  8
1
  6
Continuous
 62
    18
100
AcDbLine
 10
2.987666999999999
 20
2.351266999999999
 30
0.0
 11
2.998179999999999
 21
2.351266999999999
 31
0.0
  0
LINE
  5
C9
330
B
100
AcDbEntity
 67
     1
  8
1
  6
Continuous
 62
    18
100
AcDbLine
 10
2.824311999999999
 20
4.175933999999999
 30
0.0
 11
2.834741999999999
 21
4.174736
 31
0.0
  0
LINE
  5
CA
330
B
100
AcDbEntity
 67
     1
  8
1
  6
Continuous
 62
    18
100
AcDbLine
 10
5.974784999999999
 20
4.170476999999999
 30
0.0
 11
5.974784999999999
 21
4.157993
 31
0.0
  0
LINE
  5
CB
330
B
100
AcDbEntity
 67
     1
  8
1
  6
Continuous
 62
    18
100
AcDbLine
 10
2.316336
 20
6.247262
 30
0.0
 11
2.326753
 21
6.247262
 31
0.0
  0
LINE
  5
CC
330
B
100
AcDbEntity
 67
     1
  8
1
  6
Continuous
 62
    18
100
AcDbLine
 10
2.983350999999999
 20
3.235599999999999
 30
0.0
 11
2.983369999999999
 21
3.175135
 31
0.0
  0
LINE
  5
CD
330
B
100
AcDbEntity
 67
     1
  8
1
  6
Continuous
 62
    18
100
AcDbLine
 10
2.797587
 20
4.351342999999999
 30
0.0
 11
2.648383
 21
4.631366
 31
0.0
  0
LINE
  5
CE
330
B
100
AcDbEntity
 67
     1
  8
1
  6
Continuous
 62
    18
100
AcDbLine
 10
1.697634
 20
3.924604
 30
0.0
 11
1.695802
 21
3.924604
 31
0.0
  0
LINE
  5
CF
330
B
100
AcDbEntity
 67
     1
  8
1
  6
Continuous
 62
    18
100
AcDbLine
 10
5.974784999999999
 20
4.106526
 30
0.0
 11
5.974784999999999
 21
4.066943
 31
0.0
  0
LINE
  5
D0
330
B
100
AcDbEntity
 67
     1
  8
1
  6
Continuous
 62
    18
100
AcDbLine
 10
2.785972
 20
4.352304
 30
0.0
 11
2.787053999999999
 21
4.351048
 31
0.0
  0
LINE
  5
D1
330
B
100
AcDbEntity
 67
     1
  8
1
  6
Continuous
 62
    18
100
AcDbLine
 10
2.875620999999999
 20
3.183883999999999
 30
0.0
 11
2.875608999999999
 21
3.183883999999999
 31
0.0
  0
LINE
  5
D2
330
B
100
AcDbEntity
 67
     1
  8
1
  6
Continuous
 62
    18
100
AcDbLine
 10
5.974784999999999
 20
1.208268
 30
0.0
 11
5.974784999999999
 21
1.19601
 31
0.0
  0
LINE
  5
D3
330
B
100
AcDbEntity
 67
     1
  8
1
  6
Continuous
 62
    18
100
AcDbLine
 10
5.886784999999999
 20
1.187497
 30
0.0
 11
5.886784999999999
 21
1.202011
 31
0.0
  0
LINE
  5
D4
330
B
100
AcDbEntity
 67
     1
  8
1
  6
Continuous
 62
    18
100
AcDbLine
 10
1.697634
 20
1.468949
 30
0.0
 11
1.697634
 21
1.586037
 31
0.0
  0
LINE
  5
D5
330
B
100
AcDbEntity
 67
     1
  8
1
  6
Continuous
 62
    18
100
AcDbLine
 10
2.759652999999999
 20
1.547113999999999
 30
0.0
 11
2.759783999999999
 21
1.539584
 31
0.0
  0
LINE
  5
D6
330
B
100
AcDbEntity
 67
     1
  8
1
  6
Continuous
 62
    18
100
AcDbLine
 10
1.673427
 20
1.235559999999999
 30
0.0
 11
1.647542999999999
 21
1.255420999999999
 31
0.0
  0
LINE
  5
D7
330
B
100
AcDbEntity
 67
     1
  8
1
  6
Continuous
 62
    18
100
AcDbLine
 10
5.974784999999999
 20
1.236505999999999
 30
0.0
 11
5.974784999999999
 21
1.226609999999999
 31
0.0
  0
LINE
  5
D8
330
B
100
AcDbEntity
 67
     1
  8
1
  6
Continuous
 62
    18
100
AcDbLine
 10
1.828768999999999
 20
2.359983999999999
 30
0.0
 11
1.821106
 21
2.360009999999999
 31
0.0
  0
LINE
  5
D9
330
B
100
AcDbEntity
 67
     1
  8
1
  6
Continuous
 62
    18
100
AcDbLine
 10
3.035940999999999
 20
6.997261999999999
 30
0.0
 11
3.052160999999999
 21
6.997261999999999
 31
0.0
  0
LINE
  5
DA
330
B
100
AcDbEntity
 67
     1
  8
1
  6
Continuous
 62
    18
100
AcDbLine
 10
5.974784999999999
 20
0.9488989999999999
 30
0.0
 11
5.974784999999999
 21
0.9812459999999999
 31
0.0
  0
LINE
  5
DB
330
B
100
AcDbEntity
 67
     1
  8
1
  6
Continuous
 62
    18
100
AcDbLine
 10
2.977300999999999
 20
3.894302999999999
 30
0.0
 11
2.995800999999999
 21
3.894302999999999
 31
0.0
  0
LINE
  5
DC
330
B
100
AcDbEntity
 67
     1
  8
1
  6
Continuous
 62
    18
100
AcDbLine
 10
2.531499999999999
 20
2.360475
 30
0.0
 11
2.519379999999999
 21
2.360393
 31
0.0
  0
LINE
  5
DD
330
B
100
AcDbEntity
 67
     1
  8
1
  6
Continuous
 62
    18
100
AcDbLine
 10
2.761835
 20
6.247262
 30
0.0
 11
2.725413999999999
 21
6.247262
 31
0.0
  0
LINE
  5
DE
330
B
100
AcDbEntity
 67
     1
  8
1
  6
Continuous
 62
    18
100
AcDbLine
 10
2.145529999999999
 20
3.226032
 30
0.0
 11
2.145967999999999
 21
3.194850999999999
 31
0.0
  0
LINE
  5
DF
330
B
100
AcDbEntity
 67
     1
  8
1
  6
Continuous
 62
    18
100
AcDbLine
 10
2.217200999999999
 20
4.729967
 30
0.0
 11
2.206554999999999
 21
4.728185999999999
 31
0.0
  0
LINE
  5
E0
330
B
100
AcDbEntity
 67
     1
  8
1
  6
Continuous
 62
    18
100
AcDbLine
 10
3.036747
 20
1.255420999999999
 30
0.0
 11
3.010863
 21
1.235559999999999
 31
0.0
  0
LINE
  5
E1
330
B
100
AcDbEntity
 67
     1
  8
1
  6
Continuous
 62
    18
100
AcDbLine
 10
2.327259999999999
 20
6.247262
 30
0.0
 11
2.337155
 21
6.247262
 31
0.0
  0
LINE
  5
E2
330
B
100
AcDbEntity
 67
     1
  8
1
  6
Continuous
 62
    18
100
AcDbLine
 10
2.982221
 20
1.587707999999999
 30
0.0
 11
2.982247999999999
 21
1.587762999999999
 31
0.0
  0
LINE
  5
E3
330
B
100
AcDbEntity
 67
     1
  8
1
  6
Continuous
 62
    18
100
AcDbLine
 10
6.724785
 20
1.305455999999999
 30
0.0
 11
5.974784999999999
 21
1.298911
 31
0.0
  0
LINE
  5
E4
330
B
100
AcDbEntity
 67
     1
  8
1
  6
Continuous
 62
    18
100
AcDbLine
 10
2.079936
 20
4.617576999999999
 30
0.0
 11
2.060076
 21
4.617576999999999
 31
0.0
  0
LINE
  5
E5
330
B
100
AcDbEntity
 67
     1
  8
1
  6
Continuous
 62
    18
100
AcDbLine
 10
1.931441999999999
 20
2.360114999999999
 30
0.0
 11
1.93182
 21
2.363452
 31
0.0
  0
LINE
  5
E6
330
B
100
AcDbEntity
 67
     1
  8
1
  6
Continuous
 62
    18
100
AcDbLine
 10
2.274325999999999
 20
2.352110999999999
 30
0.0
 11
2.264300999999999
 21
2.353779999999999
 31
0.0
  0
LINE
  5
E7
330
B
100
AcDbEntity
 67
     1
  8
1
  6
Continuous
 62
    18
100
AcDbLine
 10
2.644057
 20
6.247262
 30
0.0
 11
2.611666
 21
6.247262
 31
0.0
  0
LINE
  5
E8
330
B
100
AcDbEntity
 67
     1
  8
1
  6
Continuous
 62
    18
100
AcDbLine
 10
5.974784999999999
 20
1.207127999999999
 30
0.0
 11
5.974784999999999
 21
1.216920999999999
 31
0.0
  0
LINE
  5
E9
330
B
100
AcDbEntity
 67
     1
  8
1
  6
Continuous
 62
    18
100
AcDbLine
 10
1.709995
 20
2.248397999999999
 30
0.0
 11
2.981606999999999
 21
2.248397999999999
 31
0.0
  0
LINE
  5
EA
330
B
100
AcDbEntity
 67
     1
  8
1
  6
Continuous
 62
    18
100
AcDbLine
 10
2.217200999999999
 20
0.6635600000000001
 30
0.0
 11
2.217200999999999
 21
0.6620239999999999
 31
0.0
  0
LINE
  5
EB
330
B
100
AcDbEntity
 67
     1
  8
1
  6
Continuous
 62
    18
100
AcDbLine
 10
2.145459
 20
2.360114999999999
 30
0.0
 11
1.931441999999999
 21
2.360114999999999
 31
0.0
  0
LINE
  5
EC
330
B
100
AcDbEntity
 67
     1
  8
1
  6
Continuous
 62
    18
100
AcDbLine
 10
2.979183
 20
1.224612
 30
0.0
 11
3.009326999999999
 21
1.237095999999999
 31
0.0
  0
LINE
  5
ED
330
B
100
AcDbEntity
 67
     1
  8
1
  6
Continuous
 62
    18
100
AcDbLine
 10
2.488475999999999
 20
4.726761999999999
 30
0.0
 11
2.478134999999999
 21
4.729743
 31
0.0
  0
LINE
  5
EE
330
B
100
AcDbEntity
 67
     1
  8
1
  6
Continuous
 62
    18
100
AcDbLine
 10
5.827284999999999
 20
4.053634999999999
 30
0.0
 11
5.827284999999999
 21
4.063623
 31
0.0
  0
LINE
  5
EF
330
B
100
AcDbEntity
 67
     1
  8
1
  6
Continuous
 62
    18
100
AcDbLine
 10
1.62587
 20
1.375475
 30
0.0
 11
1.615882
 21
1.399589999999999
 31
0.0
  0
LINE
  5
F0
330
B
100
AcDbEntity
 67
     1
  8
1
  6
Continuous
 62
    18
100
AcDbLine
 10
2.854117
 20
1.53604
 30
0.0
 11
2.850624999999999
 21
1.535932
 31
0.0
  0
LINE
  5
F1
330
B
100
AcDbEntity
 67
     1
  8
1
  6
Continuous
 62
    18
100
AcDbLine
 10
2.599628
 20
0.7732200000000001
 30
0.0
 11
2.608525999999999
 21
0.7757760000000001
 31
0.0
  0
LINE
  5
F2
330
B
100
AcDbEntity
 67
     1
  8
1
  6
Continuous
 62
    18
100
AcDbLine
 10
5.886784999999999
 20
4.156455999999999
 30
0.0
 11
5.886784999999999
 21
4.168941
 31
0.0
  0
LINE
  5
F3
330
B
100
AcDbEntity
 67
     1
  8
1
  6
Continuous
 62
    18
100
AcDbLine
 10
1.610938999999999
 20
1.477613999999999
 30
0.0
 11
1.610938999999999
 21
1.343798
 31
0.0
  0
LINE
  5
F4
330
B
100
AcDbEntity
 67
     1
  8
1
  6
Continuous
 62
    18
100
AcDbLine
 10
2.415575999999999
 20
1.527397999999999
 30
0.0
 11
2.417266
 21
1.528242
 31
0.0
  0
LINE
  5
F5
330
B
100
AcDbEntity
 67
     1
  8
1
  6
Continuous
 62
    18
100
AcDbLine
 10
5.722285
 20
2.248397999999999
 30
0.0
 11
5.812547
 21
2.246823
 31
0.0
  0
LINE
  5
F6
330
B
100
AcDbEntity
 67
     1
  8
1
  6
Continuous
 62
    18
100
AcDbLine
 10
3.058419999999999
 20
1.375475
 30
0.0
 11
3.042531
 21
1.354767999999999
 31
0.0
  0
LINE
  5
F7
330
B
100
AcDbEntity
 67
     1
  8
1
  6
Continuous
 62
    18
100
AcDbLine
 10
1.616732999999999
 20
4.080569
 30
0.0
 11
1.612475
 21
4.048219
 31
0.0
  0
LINE
  5
F8
330
B
100
AcDbEntity
 67
     1
  8
1
  6
Continuous
 62
    18
100
AcDbLine
 10
2.833047
 20
2.352936
 30
0.0
 11
2.822305
 21
2.352841999999999
 31
0.0
  0
LINE
  5
F9
330
B
100
AcDbEntity
 67
     1
  8
1
  6
Continuous
 62
    18
100
AcDbLine
 10
5.822983999999999
 20
3.175135
 30
0.0
 11
5.827284999999999
 21
3.175135
 31
0.0
  0
LINE
  5
FA
330
B
100
AcDbEntity
 67
     1
  8
1
  6
Continuous
 62
    18
100
AcDbLine
 10
2.913629
 20
5.994762
 30
0.0
 11
1.777974
 21
5.994762
 31
0.0
  0
LINE
  5
FB
330
B
100
AcDbEntity
 67
     1
  8
1
  6
Continuous
 62
    18
100
AcDbLine
 10
3.067556
 20
1.312983999999999
 30
0.0
 11
3.071813999999999
 21
1.345334
 31
0.0
  0
LINE
  5
FC
330
B
100
AcDbEntity
 67
     1
  8
1
  6
Continuous
 62
    18
100
AcDbLine
 10
2.390550999999999
 20
4.180776999999999
 30
0.0
 11
2.390550999999999
 21
4.179991
 31
0.0
  0
LINE
  5
FD
330
B
100
AcDbEntity
 67
     1
  8
1
  6
Continuous
 62
    18
100
AcDbLine
 10
2.907243
 20
2.352110999999999
 30
0.0
 11
2.891436
 21
2.360015
 31
0.0
  0
LINE
  5
FE
330
B
100
AcDbEntity
 67
     1
  8
1
  6
Continuous
 62
    18
100
AcDbLine
 10
2.390550999999999
 20
1.213562
 30
0.0
 11
2.301050999999999
 21
1.213562
 31
0.0
  0
LINE
  5
FF
330
B
100
AcDbEntity
 67
     1
  8
1
  6
Continuous
 62
    18
100
AcDbLine
 10
2.970791
 20
6.099762
 30
0.0
 11
2.971828999999999
 21
6.159262
 31
0.0
  0
LINE
  5
100
330
B
100
AcDbEntity
 67
     1
  8
1
  6
Continuous
 62
    18
100
AcDbLine
 10
2.642008
 20
0.7755220000000001
 30
0.0
 11
2.785972
 21
1.045711
 31
0.0
  0
LINE
  5
101
330
B
100
AcDbEntity
 67
     1
  8
1
  6
Continuous
 62
    18
100
AcDbLine
 10
1.689581
 20
6.247262
 30
0.0
 11
1.685549
 21
6.247262
 31
0.0
  0
LINE
  5
102
330
B
100
AcDbEntity
 67
     1
  8
1
  6
Continuous
 62
    18
100
AcDbLine
 10
2.907258
 20
3.235440999999999
 30
0.0
 11
2.908932
 21
3.233766999999999
 31
0.0
  0
LINE
  5
103
330
B
100
AcDbEntity
 67
     1
  8
1
  6
Continuous
 62
    18
100
AcDbLine
 10
1.714300999999999
 20
3.894302999999999
 30
0.0
 11
2.977300999999999
 21
3.894302999999999
 31
0.0
  0
LINE
  5
104
330
B
100
AcDbEntity
 67
     1
  8
1
  6
Continuous
 62
    18
100
AcDbLine
 10
1.905630999999999
 20
1.041248999999999
 30
0.0
 11
1.904549
 21
1.042505999999999
 31
0.0
  0
LINE
  5
105
330
B
100
AcDbEntity
 67
     1
  8
1
  6
Continuous
 62
    18
100
AcDbLine
 10
1.648349
 20
6.997261999999999
 30
0.0
 11
1.667481999999999
 21
6.997261999999999
 31
0.0
  0
LINE
  5
106
330
B
100
AcDbEntity
 67
     1
  8
1
  6
Continuous
 62
    18
100
AcDbLine
 10
5.886784999999999
 20
0.6799640000000001
 30
0.0
 11
5.886784999999999
 21
0.699796
 31
0.0
  0
LINE
  5
107
330
B
100
AcDbEntity
 67
     1
  8
1
  6
Continuous
 62
    18
100
AcDbLine
 10
1.895177
 20
4.191542
 30
0.0
 11
1.882502
 21
4.180444999999999
 31
0.0
  0
LINE
  5
108
330
B
100
AcDbEntity
 67
     1
  8
1
  6
Continuous
 62
    18
100
AcDbLine
 10
2.545634999999999
 20
2.370983
 30
0.0
 11
2.759652999999999
 21
2.370983
 31
0.0
  0
LINE
  5
109
330
B
100
AcDbEntity
 67
     1
  8
1
  6
Continuous
 62
    18
100
AcDbLine
 10
1.815981999999999
 20
3.183883999999999
 30
0.0
 11
1.800166999999999
 21
3.183883999999999
 31
0.0
  0
LINE
  5
10A
330
B
100
AcDbEntity
 67
     1
  8
1
  6
Continuous
 62
    18
100
AcDbLine
 10
2.275974
 20
3.233718
 30
0.0
 11
2.274300999999999
 21
3.235392
 31
0.0
  0
LINE
  5
10B
330
B
100
AcDbEntity
 67
     1
  8
1
  6
Continuous
 62
    18
100
AcDbLine
 10
1.813649
 20
6.247262
 30
0.0
 11
1.778106
 21
6.247262
 31
0.0
  0
LINE
  5
10C
330
B
100
AcDbEntity
 67
     1
  8
1
  6
Continuous
 62
    18
100
AcDbLine
 10
5.886784999999999
 20
1.064983
 30
0.0
 11
5.886784999999999
 21
1.042991999999999
 31
0.0
  0
LINE
  5
10D
330
B
100
AcDbEntity
 67
     1
  8
1
  6
Continuous
 62
    18
100
AcDbLine
 10
2.779020999999999
 20
6.159262
 30
0.0
 11
2.739212999999999
 21
6.159262
 31
0.0
  0
LINE
  5
10E
330
B
100
AcDbEntity
 67
     1
  8
1
  6
Continuous
 62
    18
100
AcDbLine
 10
5.886784999999999
 20
4.350560999999999
 30
0.0
 11
5.886784999999999
 21
4.328568999999999
 31
0.0
  0
LINE
  5
10F
330
B
100
AcDbEntity
 67
     1
  8
1
  6
Continuous
 62
    18
100
AcDbLine
 10
2.276025999999999
 20
2.409810999999999
 30
0.0
 11
2.274354999999999
 21
2.411481
 31
0.0
  0
LINE
  5
110
330
B
100
AcDbEntity
 67
     1
  8
1
  6
Continuous
 62
    18
100
AcDbLine
 10
2.217200999999999
 20
0.6620239999999999
 30
0.0
 11
2.474400999999999
 21
0.6620239999999999
 31
0.0
  0
LINE
  5
111
330
B
100
AcDbEntity
 67
     1
  8
1
  6
Continuous
 62
    18
100
AcDbLine
 10
2.474400999999999
 20
6.159262
 30
0.0
 11
2.474400999999999
 21
6.247262
 31
0.0
  0
LINE
  5
112
330
B
100
AcDbEntity
 67
     1
  8
1
  6
Continuous
 62
    18
100
AcDbLine
 10
2.417247999999999
 20
1.587612999999999
 30
0.0
 11
2.415575999999999
 21
1.585942
 31
0.0
  0
LINE
  5
113
330
B
100
AcDbEntity
 67
     1
  8
1
  6
Continuous
 62
    18
100
AcDbLine
 10
1.784363
 20
3.175981
 30
0.0
 11
1.800166999999999
 21
3.183883999999999
 31
0.0
  0
LINE
  5
114
330
B
100
AcDbEntity
 67
     1
  8
1
  6
Continuous
 62
    18
100
AcDbLine
 10
2.908932
 20
3.233766999999999
 30
0.0
 11
2.908932
 21
3.175135
 31
0.0
  0
LINE
  5
115
330
B
100
AcDbEntity
 67
     1
  8
1
  6
Continuous
 62
    18
100
AcDbLine
 10
2.206554999999999
 20
4.728185999999999
 30
0.0
 11
2.197102
 21
4.722953999999999
 31
0.0
  0
LINE
  5
116
330
B
100
AcDbEntity
 67
     1
  8
1
  6
Continuous
 62
    18
100
AcDbLine
 10
2.088513
 20
4.620562
 30
0.0
 11
2.096133
 21
4.624773999999999
 31
0.0
  0
LINE
  5
117
330
B
100
AcDbEntity
 67
     1
  8
1
  6
Continuous
 62
    18
100
AcDbLine
 10
2.091974
 20
6.159262
 30
0.0
 11
2.083075999999999
 21
6.159262
 31
0.0
  0
LINE
  5
118
330
B
100
AcDbEntity
 67
     1
  8
1
  6
Continuous
 62
    18
100
AcDbLine
 10
1.61692
 20
3.992924999999999
 30
0.0
 11
1.613513999999999
 21
3.967044999999999
 31
0.0
  0
LINE
  5
119
330
B
100
AcDbEntity
 67
     1
  8
1
  6
Continuous
 62
    18
100
AcDbLine
 10
5.886784999999999
 20
4.350559999999999
 30
0.0
 11
5.886784999999999
 21
4.354707
 31
0.0
  0
LINE
  5
11A
330
B
100
AcDbEntity
 67
     1
  8
1
  6
Continuous
 62
    18
100
AcDbLine
 10
2.983183
 20
3.070691999999999
 30
0.0
 11
2.987666999999999
 21
3.070508999999999
 31
0.0
  0
LINE
  5
11B
330
B
100
AcDbEntity
 67
     1
  8
1
  6
Continuous
 62
    18
100
AcDbLine
 10
2.948368999999999
 20
4.174736
 30
0.0
 11
2.834741999999999
 21
4.174736
 31
0.0
  0
LINE
  5
11C
330
B
100
AcDbEntity
 67
     1
  8
1
  6
Continuous
 62
    18
100
AcDbLine
 10
2.996671
 20
4.063623
 30
0.0
 11
2.970791
 21
4.067028999999999
 31
0.0
  0
LINE
  5
11D
330
B
100
AcDbEntity
 67
     1
  8
1
  6
Continuous
 62
    18
100
AcDbLine
 10
2.796425999999999
 20
1.202011
 30
0.0
 11
2.809099999999999
 21
1.213108
 31
0.0
  0
LINE
  5
11E
330
B
100
AcDbEntity
 67
     1
  8
1
  6
Continuous
 62
    18
100
AcDbLine
 10
1.625599
 20
6.159262
 30
0.0
 11
1.615799999999999
 21
6.159262
 31
0.0
  0
LINE
  5
11F
330
B
100
AcDbEntity
 67
     1
  8
1
  6
Continuous
 62
    18
100
AcDbLine
 10
1.695802
 20
3.894302999999999
 30
0.0
 11
1.695802
 21
3.924604
 31
0.0
  0
LINE
  5
120
330
B
100
AcDbEntity
 67
     1
  8
1
  6
Continuous
 62
    18
100
AcDbLine
 10
5.974784999999999
 20
4.086733999999999
 30
0.0
 11
5.974784999999999
 21
4.082047
 31
0.0
  0
LINE
  5
121
330
B
100
AcDbEntity
 67
     1
  8
1
  6
Continuous
 62
    18
100
AcDbLine
 10
2.875608999999999
 20
3.183883999999999
 30
0.0
 11
2.867367999999999
 21
3.183872
 31
0.0
  0
LINE
  5
122
330
B
100
AcDbEntity
 67
     1
  8
1
  6
Continuous
 62
    18
100
AcDbLine
 10
5.886784999999999
 20
4.713588999999999
 30
0.0
 11
5.886784999999999
 21
4.725845999999999
 31
0.0
  0
LINE
  5
123
330
B
100
AcDbEntity
 67
     1
  8
1
  6
Continuous
 62
    18
100
AcDbLine
 10
5.974784999999999
 20
1.19601
 30
0.0
 11
5.974784999999999
 21
1.181559
 31
0.0
  0
LINE
  5
124
330
B
100
AcDbEntity
 67
     1
  8
1
  6
Continuous
 62
    18
100
AcDbLine
 10
5.886784999999999
 20
1.202011
 30
0.0
 11
5.886784999999999
 21
1.213108
 31
0.0
  0
LINE
  5
125
330
B
100
AcDbEntity
 67
     1
  8
1
  6
Continuous
 62
    18
100
AcDbLine
 10
5.974784999999999
 20
1.235559999999999
 30
0.0
 11
5.974784999999999
 21
1.223076
 31
0.0
  0
LINE
  5
126
330
B
100
AcDbEntity
 67
     1
  8
1
  6
Continuous
 62
    18
100
AcDbLine
 10
2.759783999999999
 20
1.539584
 30
0.0
 11
2.760161
 21
1.536246
 31
0.0
  0
LINE
  5
127
330
B
100
AcDbEntity
 67
     1
  8
1
  6
Continuous
 62
    18
100
AcDbLine
 10
2.545766999999999
 20
2.363452
 30
0.0
 11
2.545634999999999
 21
2.370983
 31
0.0
  0
LINE
  5
128
330
B
100
AcDbEntity
 67
     1
  8
1
  6
Continuous
 62
    18
100
AcDbLine
 10
1.881740999999999
 20
1.211759
 30
0.0
 11
1.86729
 21
1.217619
 31
0.0
  0
LINE
  5
129
330
B
100
AcDbEntity
 67
     1
  8
1
  6
Continuous
 62
    18
100
AcDbLine
 10
1.693422
 20
2.246566
 30
0.0
 11
1.703936
 21
2.246640999999999
 31
0.0
  0
LINE
  5
12A
330
B
100
AcDbEntity
 67
     1
  8
1
  6
Continuous
 62
    18
100
AcDbLine
 10
2.822305
 20
1.528974
 30
0.0
 11
2.807677999999999
 21
1.528937999999999
 31
0.0
  0
LINE
  5
12B
330
B
100
AcDbEntity
 67
     1
  8
1
  6
Continuous
 62
    18
100
AcDbLine
 10
2.415575999999999
 20
1.527397999999999
 30
0.0
 11
2.415575999999999
 21
1.585942
 31
0.0
  0
LINE
  5
12C
330
B
100
AcDbEntity
 67
     1
  8
1
  6
Continuous
 62
    18
100
AcDbLine
 10
1.821106
 20
2.360009999999999
 30
0.0
 11
1.815981999999999
 21
2.360015
 31
0.0
  0
LINE
  5
12D
330
B
100
AcDbEntity
 67
     1
  8
1
  6
Continuous
 62
    18
100
AcDbLine
 10
3.052160999999999
 20
6.997261999999999
 30
0.0
 11
3.062999
 21
6.997261999999999
 31
0.0
  0
LINE
  5
12E
330
B
100
AcDbEntity
 67
     1
  8
1
  6
Continuous
 62
    18
100
AcDbLine
 10
5.974784999999999
 20
0.9812459999999999
 30
0.0
 11
5.974784999999999
 21
1.007998999999999
 31
0.0
  0
LINE
  5
12F
330
B
100
AcDbEntity
 67
     1
  8
1
  6
Continuous
 62
    18
100
AcDbLine
 10
1.784341999999999
 20
1.587707999999999
 30
0.0
 11
1.709381999999999
 21
1.587707999999999
 31
0.0
  0
LINE
  5
130
330
B
100
AcDbEntity
 67
     1
  8
1
  6
Continuous
 62
    18
100
AcDbLine
 10
2.725413999999999
 20
6.247262
 30
0.0
 11
2.692762
 21
6.247262
 31
0.0
  0
LINE
  5
131
330
B
100
AcDbEntity
 67
     1
  8
1
  6
Continuous
 62
    18
100
AcDbLine
 10
2.145967999999999
 20
3.194850999999999
 30
0.0
 11
2.145836999999999
 21
3.187320999999999
 31
0.0
  0
LINE
  5
132
330
B
100
AcDbEntity
 67
     1
  8
1
  6
Continuous
 62
    18
100
AcDbLine
 10
2.594447999999999
 20
4.623609
 30
0.0
 11
2.592102999999999
 21
4.625706
 31
0.0
  0
LINE
  5
133
330
B
100
AcDbEntity
 67
     1
  8
1
  6
Continuous
 62
    18
100
AcDbLine
 10
3.071813999999999
 20
6.159262
 30
0.0
 11
3.070775999999999
 21
6.099762
 31
0.0
  0
LINE
  5
134
330
B
100
AcDbEntity
 67
     1
  8
1
  6
Continuous
 62
    18
100
AcDbLine
 10
3.010863
 20
1.235559999999999
 30
0.0
 11
2.980718999999999
 21
1.223076
 31
0.0
  0
LINE
  5
135
330
B
100
AcDbEntity
 67
     1
  8
1
  6
Continuous
 62
    18
100
AcDbLine
 10
2.454981999999999
 20
6.247262
 30
0.0
 11
2.435189999999999
 21
6.247262
 31
0.0
  0
LINE
  5
136
330
B
100
AcDbEntity
 67
     1
  8
1
  6
Continuous
 62
    18
100
AcDbLine
 10
2.908932
 20
1.586037
 30
0.0
 11
2.993968
 21
1.586037
 31
0.0
  0
LINE
  5
137
330
B
100
AcDbEntity
 67
     1
  8
1
  6
Continuous
 62
    18
100
AcDbLine
 10
5.974784999999999
 20
1.348895
 30
0.0
 11
6.724785
 21
1.355439999999999
 31
0.0
  0
LINE
  5
138
330
B
100
AcDbEntity
 67
     1
  8
1
  6
Continuous
 62
    18
100
AcDbLine
 10
2.047546
 20
4.623781
 30
0.0
 11
2.047546
 21
4.624598999999999
 31
0.0
  0
LINE
  5
139
330
B
100
AcDbEntity
 67
     1
  8
1
  6
Continuous
 62
    18
100
AcDbLine
 10
3.07335
 20
6.247262
 30
0.0
 11
3.071813999999999
 21
6.159262
 31
0.0
  0
LINE
  5
13A
330
B
100
AcDbEntity
 67
     1
  8
1
  6
Continuous
 62
    18
100
AcDbLine
 10
1.93182
 20
2.363452
 30
0.0
 11
1.931950999999999
 21
2.370983
 31
0.0
  0
LINE
  5
13B
330
B
100
AcDbEntity
 67
     1
  8
1
  6
Continuous
 62
    18
100
AcDbLine
 10
2.264300999999999
 20
2.353779999999999
 30
0.0
 11
1.918765
 21
2.353779999999999
 31
0.0
  0
LINE
  5
13C
330
B
100
AcDbEntity
 67
     1
  8
1
  6
Continuous
 62
    18
100
AcDbLine
 10
3.006054
 20
6.247262
 30
0.0
 11
3.002021
 21
6.247262
 31
0.0
  0
LINE
  5
13D
330
B
100
AcDbEntity
 67
     1
  8
1
  6
Continuous
 62
    18
100
AcDbLine
 10
5.974784999999999
 20
4.106526
 30
0.0
 11
5.974784999999999
 21
4.057046999999999
 31
0.0
  0
LINE
  5
13E
330
B
100
AcDbEntity
 67
     1
  8
1
  6
Continuous
 62
    18
100
AcDbLine
 10
2.837149999999999
 20
1.529195
 30
0.0
 11
2.833047
 21
1.529068
 31
0.0
  0
LINE
  5
13F
330
B
100
AcDbEntity
 67
     1
  8
1
  6
Continuous
 62
    18
100
AcDbLine
 10
2.194383
 20
0.673041
 30
0.0
 11
2.203125999999999
 21
0.666791
 31
0.0
  0
LINE
  5
140
330
B
100
AcDbEntity
 67
     1
  8
1
  6
Continuous
 62
    18
100
AcDbLine
 10
2.946833
 20
4.173199999999999
 30
0.0
 11
2.834741999999999
 21
4.173199999999999
 31
0.0
  0
LINE
  5
141
330
B
100
AcDbEntity
 67
     1
  8
1
  6
Continuous
 62
    18
100
AcDbLine
 10
5.974784999999999
 20
1.477613999999999
 30
0.0
 11
6.724785
 21
1.484159
 31
0.0
  0
LINE
  5
142
330
B
100
AcDbEntity
 67
     1
  8
1
  6
Continuous
 62
    18
100
AcDbLine
 10
1.615882
 20
1.399589999999999
 30
0.0
 11
1.612475
 21
1.425469999999999
 31
0.0
  0
LINE
  5
143
330
B
100
AcDbEntity
 67
     1
  8
1
  6
Continuous
 62
    18
100
AcDbLine
 10
2.608525999999999
 20
0.7757760000000001
 30
0.0
 11
2.611666
 21
0.7759510000000001
 31
0.0
  0
LINE
  5
144
330
B
100
AcDbEntity
 67
     1
  8
1
  6
Continuous
 62
    18
100
AcDbLine
 10
5.886784999999999
 20
4.168941
 30
0.0
 11
5.886784999999999
 21
4.173199999999999
 31
0.0
  0
LINE
  5
145
330
B
100
AcDbEntity
 67
     1
  8
1
  6
Continuous
 62
    18
100
AcDbLine
 10
2.891436
 20
1.536146999999999
 30
0.0
 11
2.875620999999999
 21
1.536146999999999
 31
0.0
  0
LINE
  5
146
330
B
100
AcDbEntity
 67
     1
  8
1
  6
Continuous
 62
    18
100
AcDbLine
 10
1.70357
 20
4.170476999999999
 30
0.0
 11
1.73592
 21
4.174736
 31
0.0
  0
LINE
  5
147
330
B
100
AcDbEntity
 67
     1
  8
1
  6
Continuous
 62
    18
100
AcDbLine
 10
2.152899
 20
6.247262
 30
0.0
 11
2.192482
 21
6.247262
 31
0.0
  0
LINE
  5
148
330
B
100
AcDbEntity
 67
     1
  8
1
  6
Continuous
 62
    18
100
AcDbLine
 10
2.241572999999999
 20
2.360393
 30
0.0
 11
2.172224
 21
2.360393
 31
0.0
  0
LINE
  5
149
330
B
100
AcDbEntity
 67
     1
  8
1
  6
Continuous
 62
    18
100
AcDbLine
 10
2.908932
 20
1.527397999999999
 30
0.0
 11
2.415575999999999
 21
1.527397999999999
 31
0.0
  0
LINE
  5
14A
330
B
100
AcDbEntity
 67
     1
  8
1
  6
Continuous
 62
    18
100
AcDbLine
 10
3.071813999999999
 20
3.968083
 30
0.0
 11
3.070775999999999
 21
3.967044999999999
 31
0.0
  0
LINE
  5
14B
330
B
100
AcDbEntity
 67
     1
  8
1
  6
Continuous
 62
    18
100
AcDbLine
 10
2.834741999999999
 20
4.173199999999999
 30
0.0
 11
2.818374
 21
4.176064
 31
0.0
  0
LINE
  5
14C
330
B
100
AcDbEntity
 67
     1
  8
1
  6
Continuous
 62
    18
100
AcDbLine
 10
3.042531
 20
1.354767999999999
 30
0.0
 11
3.021824
 21
1.338879
 31
0.0
  0
LINE
  5
14D
330
B
100
AcDbEntity
 67
     1
  8
1
  6
Continuous
 62
    18
100
AcDbLine
 10
2.822305
 20
2.352841999999999
 30
0.0
 11
2.807677999999999
 21
2.352806999999999
 31
0.0
  0
LINE
  5
14E
330
B
100
AcDbEntity
 67
     1
  8
1
  6
Continuous
 62
    18
100
AcDbLine
 10
5.827284999999999
 20
3.924604
 30
0.0
 11
5.722285
 21
3.924604
 31
0.0
  0
LINE
  5
14F
330
B
100
AcDbEntity
 67
     1
  8
1
  6
Continuous
 62
    18
100
AcDbLine
 10
1.777974
 20
5.994762
 30
0.0
 11
1.747229
 21
5.994762
 31
0.0
  0
LINE
  5
150
330
B
100
AcDbEntity
 67
     1
  8
1
  6
Continuous
 62
    18
100
AcDbLine
 10
2.047546
 20
0.7741920000000001
 30
0.0
 11
2.047546
 21
0.7697720000000001
 31
0.0
  0
LINE
  5
151
330
B
100
AcDbEntity
 67
     1
  8
1
  6
Continuous
 62
    18
100
AcDbLine
 10
2.297050999999999
 20
6.247262
 30
0.0
 11
2.306947
 21
6.247262
 31
0.0
  0
LINE
  5
152
330
B
100
AcDbEntity
 67
     1
  8
1
  6
Continuous
 62
    18
100
AcDbLine
 10
2.301050999999999
 20
4.493776
 30
0.0
 11
2.301050999999999
 21
4.494562
 31
0.0
  0
LINE
  5
153
330
B
100
AcDbEntity
 67
     1
  8
1
  6
Continuous
 62
    18
100
AcDbLine
 10
2.98335
 20
2.411738
 30
0.0
 11
2.977300999999999
 21
2.411738
 31
0.0
  0
LINE
  5
154
330
B
100
AcDbEntity
 67
     1
  8
1
  6
Continuous
 62
    18
100
AcDbLine
 10
2.274337
 20
2.352110999999999
 30
0.0
 11
2.274354999999999
 21
2.411481
 31
0.0
  0
LINE
  5
155
330
B
100
AcDbEntity
 67
     1
  8
1
  6
Continuous
 62
    18
100
AcDbLine
 10
2.301050999999999
 20
1.212776999999999
 30
0.0
 11
2.301050999999999
 21
1.213562
 31
0.0
  0
LINE
  5
156
330
B
100
AcDbEntity
 67
     1
  8
1
  6
Continuous
 62
    18
100
AcDbLine
 10
5.722285
 20
1.438203999999999
 30
0.0
 11
5.722285
 21
1.468949
 31
0.0
  0
LINE
  5
157
330
B
100
AcDbEntity
 67
     1
  8
1
  6
Continuous
 62
    18
100
AcDbLine
 10
2.642008
 20
0.7755220000000001
 30
0.0
 11
2.644057
 21
0.7755220000000001
 31
0.0
  0
LINE
  5
158
330
B
100
AcDbEntity
 67
     1
  8
1
  6
Continuous
 62
    18
100
AcDbLine
 10
2.047546
 20
6.247262
 30
0.0
 11
2.079936
 21
6.247262
 31
0.0
  0
LINE
  5
159
330
B
100
AcDbEntity
 67
     1
  8
1
  6
Continuous
 62
    18
100
AcDbLine
 10
2.977300999999999
 20
3.235599999999999
 30
0.0
 11
2.983350999999999
 21
3.235599999999999
 31
0.0
  0
LINE
  5
15A
330
B
100
AcDbEntity
 67
     1
  8
1
  6
Continuous
 62
    18
100
AcDbLine
 10
1.906084999999999
 20
1.171129
 30
0.0
 11
1.906084999999999
 21
1.064983
 31
0.0
  0
LINE
  5
15B
330
B
100
AcDbEntity
 67
     1
  8
1
  6
Continuous
 62
    18
100
AcDbLine
 10
2.981606999999999
 20
3.233766999999999
 30
0.0
 11
2.908932
 21
3.233766999999999
 31
0.0
  0
LINE
  5
15C
330
B
100
AcDbEntity
 67
     1
  8
1
  6
Continuous
 62
    18
100
AcDbLine
 10
5.886784999999999
 20
0.699796
 30
0.0
 11
5.886784999999999
 21
0.7263350000000001
 31
0.0
  0
LINE
  5
15D
330
B
100
AcDbEntity
 67
     1
  8
1
  6
Continuous
 62
    18
100
AcDbLine
 10
1.882502
 20
4.180444999999999
 30
0.0
 11
1.867542999999999
 21
4.174401
 31
0.0
  0
LINE
  5
15E
330
B
100
AcDbEntity
 67
     1
  8
1
  6
Continuous
 62
    18
100
AcDbLine
 10
2.785972
 20
1.045711
 30
0.0
 11
2.785518
 21
1.064983
 31
0.0
  0
LINE
  5
15F
330
B
100
AcDbEntity
 67
     1
  8
1
  6
Continuous
 62
    18
100
AcDbLine
 10
5.722285
 20
2.248397999999999
 30
0.0
 11
5.722285
 21
2.409904999999999
 31
0.0
  0
LINE
  5
160
330
B
100
AcDbEntity
 67
     1
  8
1
  6
Continuous
 62
    18
100
AcDbLine
 10
2.415629
 20
3.233718
 30
0.0
 11
2.275974
 21
3.233718
 31
0.0
  0
LINE
  5
161
330
B
100
AcDbEntity
 67
     1
  8
1
  6
Continuous
 62
    18
100
AcDbLine
 10
2.907261
 20
1.587707999999999
 30
0.0
 11
2.982221
 21
1.587707999999999
 31
0.0
  0
LINE
  5
162
330
B
100
AcDbEntity
 67
     1
  8
1
  6
Continuous
 62
    18
100
AcDbLine
 10
1.778106
 20
6.247262
 30
0.0
 11
1.746724
 21
6.247262
 31
0.0
  0
LINE
  5
163
330
B
100
AcDbEntity
 67
     1
  8
1
  6
Continuous
 62
    18
100
AcDbLine
 10
5.912784999999999
 20
1.045711
 30
0.0
 11
5.886784999999999
 21
1.064983
 31
0.0
  0
LINE
  5
164
330
B
100
AcDbEntity
 67
     1
  8
1
  6
Continuous
 62
    18
100
AcDbLine
 10
2.739212999999999
 20
6.159262
 30
0.0
 11
2.703052
 21
6.159262
 31
0.0
  0
LINE
  5
165
330
B
100
AcDbEntity
 67
     1
  8
1
  6
Continuous
 62
    18
100
AcDbLine
 10
5.974784999999999
 20
4.714992999999999
 30
0.0
 11
5.974784999999999
 21
4.727348999999999
 31
0.0
  0
LINE
  5
166
330
B
100
AcDbEntity
 67
     1
  8
1
  6
Continuous
 62
    18
100
AcDbLine
 10
6.724785
 20
1.355439999999999
 30
0.0
 11
6.724785
 21
1.336311
 31
0.0
  0
LINE
  5
167
330
B
100
AcDbEntity
 67
     1
  8
1
  6
Continuous
 62
    18
100
AcDbLine
 10
1.898686999999999
 20
1.528969
 30
0.0
 11
1.883924999999999
 21
1.528937999999999
 31
0.0
  0
LINE
  5
168
330
B
100
AcDbEntity
 67
     1
  8
1
  6
Continuous
 62
    18
100
AcDbLine
 10
2.497219999999999
 20
6.159262
 30
0.0
 11
2.488475999999999
 21
6.159262
 31
0.0
  0
LINE
  5
169
330
B
100
AcDbEntity
 67
     1
  8
1
  6
Continuous
 62
    18
100
AcDbLine
 10
2.644057
 20
4.618030999999999
 30
0.0
 11
2.644057
 21
4.619361
 31
0.0
  0
LINE
  5
16A
330
B
100
AcDbEntity
 67
     1
  8
1
  6
Continuous
 62
    18
100
AcDbLine
 10
2.274354999999999
 20
1.587612999999999
 30
0.0
 11
2.417247999999999
 21
1.587612999999999
 31
0.0
  0
LINE
  5
16B
330
B
100
AcDbEntity
 67
     1
  8
1
  6
Continuous
 62
    18
100
AcDbLine
 10
1.712459999999999
 20
1.325485
 30
0.0
 11
1.68658
 21
1.328891999999999
 31
0.0
  0
LINE
  5
16C
330
B
100
AcDbEntity
 67
     1
  8
1
  6
Continuous
 62
    18
100
AcDbLine
 10
1.782670999999999
 20
3.175135
 30
0.0
 11
1.784363
 21
3.175981
 31
0.0
  0
LINE
  5
16D
330
B
100
AcDbEntity
 67
     1
  8
1
  6
Continuous
 62
    18
100
AcDbLine
 10
2.981606999999999
 20
3.072266999999999
 30
0.0
 11
2.983183
 21
3.070691999999999
 31
0.0
  0
LINE
  5
16E
330
B
100
AcDbEntity
 67
     1
  8
1
  6
Continuous
 62
    18
100
AcDbLine
 10
6.724785
 20
3.942109999999999
 30
0.0
 11
5.974784999999999
 21
3.948655
 31
0.0
  0
LINE
  5
16F
330
B
100
AcDbEntity
 67
     1
  8
1
  6
Continuous
 62
    18
100
AcDbLine
 10
2.197102
 20
4.722953999999999
 30
0.0
 11
2.194379
 21
4.720515999999999
 31
0.0
  0
LINE
  5
170
330
B
100
AcDbEntity
 67
     1
  8
1
  6
Continuous
 62
    18
100
AcDbLine
 10
2.096133
 20
4.624773999999999
 30
0.0
 11
2.098402999999999
 21
4.626801999999999
 31
0.0
  0
LINE
  5
171
330
B
100
AcDbEntity
 67
     1
  8
1
  6
Continuous
 62
    18
100
AcDbLine
 10
1.909797
 20
3.176797
 30
0.0
 11
1.898686999999999
 21
3.176706999999999
 31
0.0
  0
LINE
  5
172
330
B
100
AcDbEntity
 67
     1
  8
1
  6
Continuous
 62
    18
100
AcDbLine
 10
2.083075999999999
 20
6.159262
 30
0.0
 11
2.079936
 21
6.159262
 31
0.0
  0
LINE
  5
173
330
B
100
AcDbEntity
 67
     1
  8
1
  6
Continuous
 62
    18
100
AcDbLine
 10
1.712459999999999
 20
4.068068
 30
0.0
 11
1.713497999999999
 21
4.067028999999999
 31
0.0
  0
LINE
  5
174
330
B
100
AcDbEntity
 67
     1
  8
1
  6
Continuous
 62
    18
100
AcDbLine
 10
2.644057
 20
0.7741920000000001
 30
0.0
 11
2.786384999999999
 21
1.041312
 31
0.0
  0
LINE
  5
175
330
B
100
AcDbEntity
 67
     1
  8
1
  6
Continuous
 62
    18
100
AcDbLine
 10
3.068408
 20
3.993962999999999
 30
0.0
 11
3.071813999999999
 21
3.968083
 31
0.0
  0
LINE
  5
176
330
B
100
AcDbEntity
 67
     1
  8
1
  6
Continuous
 62
    18
100
AcDbLine
 10
5.974784999999999
 20
1.226609999999999
 30
0.0
 11
5.974784999999999
 21
1.236505999999999
 31
0.0
  0
LINE
  5
177
330
B
100
AcDbEntity
 67
     1
  8
1
  6
Continuous
 62
    18
100
AcDbLine
 10
2.987666999999999
 20
3.070508999999999
 30
0.0
 11
2.998179999999999
 21
3.070434
 31
0.0
  0
LINE
  5
178
330
B
100
AcDbEntity
 67
     1
  8
1
  6
Continuous
 62
    18
100
AcDbLine
 10
2.948368999999999
 20
4.174736
 30
0.0
 11
2.980718999999999
 21
4.170476999999999
 31
0.0
  0
LINE
  5
179
330
B
100
AcDbEntity
 67
     1
  8
1
  6
Continuous
 62
    18
100
AcDbLine
 10
5.974784999999999
 20
4.138131999999999
 30
0.0
 11
5.974784999999999
 21
4.112248
 31
0.0
  0
LINE
  5
17A
330
B
100
AcDbEntity
 67
     1
  8
1
  6
Continuous
 62
    18
100
AcDbLine
 10
5.974784999999999
 20
1.187027
 30
0.0
 11
5.974784999999999
 21
1.196922999999999
 31
0.0
  0
LINE
  5
17B
330
B
100
AcDbEntity
 67
     1
  8
1
  6
Continuous
 62
    18
100
AcDbLine
 10
2.760089999999999
 20
2.402163
 30
0.0
 11
2.759652999999999
 21
2.370983
 31
0.0
  0
LINE
  5
17C
330
B
100
AcDbEntity
 67
     1
  8
1
  6
Continuous
 62
    18
100
AcDbLine
 10
2.867367999999999
 20
3.183872
 30
0.0
 11
2.860052999999999
 21
3.183835999999999
 31
0.0
  0
LINE
  5
17D
330
B
100
AcDbEntity
 67
     1
  8
1
  6
Continuous
 62
    18
100
AcDbLine
 10
5.974784999999999
 20
1.181559
 30
0.0
 11
5.974784999999999
 21
1.171129
 31
0.0
  0
LINE
  5
17E
330
B
100
AcDbEntity
 67
     1
  8
1
  6
Continuous
 62
    18
100
AcDbLine
 10
5.886784999999999
 20
1.213108
 30
0.0
 11
5.886784999999999
 21
1.219152
 31
0.0
  0
LINE
  5
17F
330
B
100
AcDbEntity
 67
     1
  8
1
  6
Continuous
 62
    18
100
AcDbLine
 10
2.760161
 20
1.536246
 30
0.0
 11
2.546143999999999
 21
1.536246
 31
0.0
  0
LINE
  5
180
330
B
100
AcDbEntity
 67
     1
  8
1
  6
Continuous
 62
    18
100
AcDbLine
 10
1.854454
 20
2.353063999999999
 30
0.0
 11
1.840977999999999
 21
2.359801
 31
0.0
  0
LINE
  5
181
330
B
100
AcDbEntity
 67
     1
  8
1
  6
Continuous
 62
    18
100
AcDbLine
 10
3.062999
 20
6.997261999999999
 30
0.0
 11
3.066805
 21
6.997261999999999
 31
0.0
  0
LINE
  5
182
330
B
100
AcDbEntity
 67
     1
  8
1
  6
Continuous
 62
    18
100
AcDbLine
 10
3.067368999999999
 20
3.992924999999999
 30
0.0
 11
3.057381
 21
4.017039999999999
 31
0.0
  0
LINE
  5
183
330
B
100
AcDbEntity
 67
     1
  8
1
  6
Continuous
 62
    18
100
AcDbLine
 10
2.145836999999999
 20
3.187320999999999
 30
0.0
 11
2.145459
 21
3.183983
 31
0.0
  0
LINE
  5
184
330
B
100
AcDbEntity
 67
     1
  8
1
  6
Continuous
 62
    18
100
AcDbLine
 10
1.709274
 20
1.58787
 30
0.0
 11
1.714300999999999
 21
1.58787
 31
0.0
  0
LINE
  5
185
330
B
100
AcDbEntity
 67
     1
  8
1
  6
Continuous
 62
    18
100
AcDbLine
 10
2.043218999999999
 20
6.159262
 30
0.0
 11
2.060076
 21
6.159262
 31
0.0
  0
LINE
  5
186
330
B
100
AcDbEntity
 67
     1
  8
1
  6
Continuous
 62
    18
100
AcDbLine
 10
2.980718999999999
 20
1.223076
 30
0.0
 11
2.948368999999999
 21
1.218817
 31
0.0
  0
LINE
  5
187
330
B
100
AcDbEntity
 67
     1
  8
1
  6
Continuous
 62
    18
100
AcDbLine
 10
2.415904999999999
 20
6.247262
 30
0.0
 11
2.406009999999999
 21
6.247262
 31
0.0
  0
LINE
  5
188
330
B
100
AcDbEntity
 67
     1
  8
1
  6
Continuous
 62
    18
100
AcDbLine
 10
2.786384999999999
 20
4.352241
 30
0.0
 11
2.644057
 21
4.619361
 31
0.0
  0
LINE
  5
189
330
B
100
AcDbEntity
 67
     1
  8
1
  6
Continuous
 62
    18
100
AcDbLine
 10
2.907243
 20
2.352110999999999
 30
0.0
 11
2.907261
 21
2.411576999999999
 31
0.0
  0
LINE
  5
18A
330
B
100
AcDbEntity
 67
     1
  8
1
  6
Continuous
 62
    18
100
AcDbLine
 10
2.047546
 20
4.624598999999999
 30
0.0
 11
2.047546
 21
4.626437999999999
 31
0.0
  0
LINE
  5
18B
330
B
100
AcDbEntity
 67
     1
  8
1
  6
Continuous
 62
    18
100
AcDbLine
 10
1.931512999999999
 20
2.402163
 30
0.0
 11
1.931950999999999
 21
2.370983
 31
0.0
  0
LINE
  5
18C
330
B
100
AcDbEntity
 67
     1
  8
1
  6
Continuous
 62
    18
100
AcDbLine
 10
1.918765
 20
2.353779999999999
 30
0.0
 11
1.914408
 21
2.353054999999999
 31
0.0
  0
LINE
  5
18D
330
B
100
AcDbEntity
 67
     1
  8
1
  6
Continuous
 62
    18
100
AcDbLine
 10
3.002021
 20
6.247262
 30
0.0
 11
2.990094
 21
6.247262
 31
0.0
  0
LINE
  5
18E
330
B
100
AcDbEntity
 67
     1
  8
1
  6
Continuous
 62
    18
100
AcDbLine
 10
5.974784999999999
 20
4.057046999999999
 30
0.0
 11
5.974784999999999
 21
4.106526
 31
0.0
  0
LINE
  5
18F
330
B
100
AcDbEntity
 67
     1
  8
1
  6
Continuous
 62
    18
100
AcDbLine
 10
2.316842999999999
 20
6.247262
 30
0.0
 11
2.297050999999999
 21
6.247262
 31
0.0
  0
LINE
  5
190
330
B
100
AcDbEntity
 67
     1
  8
1
  6
Continuous
 62
    18
100
AcDbLine
 10
1.695802
 20
1.58787
 30
0.0
 11
1.709274
 21
1.58787
 31
0.0
  0
LINE
  5
191
330
B
100
AcDbEntity
 67
     1
  8
1
  6
Continuous
 62
    18
100
AcDbLine
 10
2.203125999999999
 20
0.666791
 30
0.0
 11
2.213466999999999
 21
0.663811
 31
0.0
  0
LINE
  5
192
330
B
100
AcDbEntity
 67
     1
  8
1
  6
Continuous
 62
    18
100
AcDbLine
 10
5.886784999999999
 20
4.725845999999999
 30
0.0
 11
5.886784999999999
 21
4.729993
 31
0.0
  0
LINE
  5
193
330
B
100
AcDbEntity
 67
     1
  8
1
  6
Continuous
 62
    18
100
AcDbLine
 10
6.724785
 20
3.992107999999999
 30
0.0
 11
6.724785
 21
3.988301999999999
 31
0.0
  0
LINE
  5
194
330
B
100
AcDbEntity
 67
     1
  8
1
  6
Continuous
 62
    18
100
AcDbLine
 10
2.091342
 20
0.77182
 30
0.0
 11
2.082974999999999
 21
0.7742300000000001
 31
0.0
  0
LINE
  5
195
330
B
100
AcDbEntity
 67
     1
  8
1
  6
Continuous
 62
    18
100
AcDbLine
 10
2.047546
 20
4.619361
 30
0.0
 11
2.047546
 21
4.618030999999999
 31
0.0
  0
LINE
  5
196
330
B
100
AcDbEntity
 67
     1
  8
1
  6
Continuous
 62
    18
100
AcDbLine
 10
2.390550999999999
 20
4.493776
 30
0.0
 11
2.301050999999999
 21
4.493776
 31
0.0
  0
LINE
  5
197
330
B
100
AcDbEntity
 67
     1
  8
1
  6
Continuous
 62
    18
100
AcDbLine
 10
2.611666
 20
0.775976
 30
0.0
 11
2.631527
 21
0.775976
 31
0.0
  0
LINE
  5
198
330
B
100
AcDbEntity
 67
     1
  8
1
  6
Continuous
 62
    18
100
AcDbLine
 10
2.172224
 20
2.360393
 30
0.0
 11
2.160104
 21
2.360475
 31
0.0
  0
LINE
  5
199
330
B
100
AcDbEntity
 67
     1
  8
1
  6
Continuous
 62
    18
100
AcDbLine
 10
1.612475
 20
1.345334
 30
0.0
 11
1.616732999999999
 21
1.312983999999999
 31
0.0
  0
LINE
  5
19A
330
B
100
AcDbEntity
 67
     1
  8
1
  6
Continuous
 62
    18
100
AcDbLine
 10
2.908932
 20
1.527397999999999
 30
0.0
 11
2.907243
 21
1.528242
 31
0.0
  0
LINE
  5
19B
330
B
100
AcDbEntity
 67
     1
  8
1
  6
Continuous
 62
    18
100
AcDbLine
 10
2.04322
 20
4.631366
 30
0.0
 11
1.894015999999999
 21
4.351342999999999
 31
0.0
  0
LINE
  5
19C
330
B
100
AcDbEntity
 67
     1
  8
1
  6
Continuous
 62
    18
100
AcDbLine
 10
3.021824
 20
1.338879
 30
0.0
 11
2.997709
 21
1.328891999999999
 31
0.0
  0
LINE
  5
19D
330
B
100
AcDbEntity
 67
     1
  8
1
  6
Continuous
 62
    18
100
AcDbLine
 10
3.067556
 20
4.080569
 30
0.0
 11
3.055070999999999
 21
4.110712
 31
0.0
  0
LINE
  5
19E
330
B
100
AcDbEntity
 67
     1
  8
1
  6
Continuous
 62
    18
100
AcDbLine
 10
2.807677999999999
 20
2.352806999999999
 30
0.0
 11
2.792915999999999
 21
2.352838
 31
0.0
  0
LINE
  5
19F
330
B
100
AcDbEntity
 67
     1
  8
1
  6
Continuous
 62
    18
100
AcDbLine
 10
5.827284999999999
 20
3.894302999999999
 30
0.0
 11
5.722285
 21
3.896136
 31
0.0
  0
LINE
  5
1A0
330
B
100
AcDbEntity
 67
     1
  8
1
  6
Continuous
 62
    18
100
AcDbLine
 10
2.850624999999999
 20
1.535932
 30
0.0
 11
2.837149999999999
 21
1.529195
 31
0.0
  0
LINE
  5
1A1
330
B
100
AcDbEntity
 67
     1
  8
1
  6
Continuous
 62
    18
100
AcDbLine
 10
2.644057
 20
4.619361
 30
0.0
 11
2.644057
 21
4.623781
 31
0.0
  0
LINE
  5
1A2
330
B
100
AcDbEntity
 67
     1
  8
1
  6
Continuous
 62
    18
100
AcDbLine
 10
1.747229
 20
5.994762
 30
0.0
 11
1.721165
 21
5.994762
 31
0.0
  0
LINE
  5
1A3
330
B
100
AcDbEntity
 67
     1
  8
1
  6
Continuous
 62
    18
100
AcDbLine
 10
2.047546
 20
0.7741920000000001
 30
0.0
 11
1.905216999999999
 21
1.041312
 31
0.0
  0
LINE
  5
1A4
330
B
100
AcDbEntity
 67
     1
  8
1
  6
Continuous
 62
    18
100
AcDbLine
 10
5.974784999999999
 20
1.007998999999999
 30
0.0
 11
5.974784999999999
 21
1.027990999999999
 31
0.0
  0
LINE
  5
1A5
330
B
100
AcDbEntity
 67
     1
  8
1
  6
Continuous
 62
    18
100
AcDbLine
 10
2.977300999999999
 20
1.58787
 30
0.0
 11
2.982327999999999
 21
1.58787
 31
0.0
  0
LINE
  5
1A6
330
B
100
AcDbEntity
 67
     1
  8
1
  6
Continuous
 62
    18
100
AcDbLine
 10
5.827284999999999
 20
1.386777
 30
0.0
 11
5.722285
 21
1.38861
 31
0.0
  0
LINE
  5
1A7
330
B
100
AcDbEntity
 67
     1
  8
1
  6
Continuous
 62
    18
100
AcDbLine
 10
2.995800999999999
 20
6.099762
 30
0.0
 11
2.993968
 21
5.994762
 31
0.0
  0
LINE
  5
1A8
330
B
100
AcDbEntity
 67
     1
  8
1
  6
Continuous
 62
    18
100
AcDbLine
 10
1.93182
 20
1.539584
 30
0.0
 11
1.931950999999999
 21
1.547113999999999
 31
0.0
  0
LINE
  5
1A9
330
B
100
AcDbEntity
 67
     1
  8
1
  6
Continuous
 62
    18
100
AcDbLine
 10
2.079936
 20
6.247262
 30
0.0
 11
2.088513
 21
6.247262
 31
0.0
  0
LINE
  5
1AA
330
B
100
AcDbEntity
 67
     1
  8
1
  6
Continuous
 62
    18
100
AcDbLine
 10
1.708391999999999
 20
3.235599999999999
 30
0.0
 11
1.708391999999999
 21
3.23544
 31
0.0
  0
LINE
  5
1AB
330
B
100
AcDbEntity
 67
     1
  8
1
  6
Continuous
 62
    18
100
AcDbLine
 10
1.610938999999999
 20
6.247262
 30
0.0
 11
1.614263999999999
 21
6.247262
 31
0.0
  0
LINE
  5
1AC
330
B
100
AcDbEntity
 67
     1
  8
1
  6
Continuous
 62
    18
100
AcDbLine
 10
5.886784999999999
 20
0.7263350000000001
 30
0.0
 11
5.886784999999999
 21
0.7584210000000001
 31
0.0
  0
LINE
  5
1AD
330
B
100
AcDbEntity
 67
     1
  8
1
  6
Continuous
 62
    18
100
AcDbLine
 10
1.867542999999999
 20
4.174401
 30
0.0
 11
1.856859999999999
 21
4.173199999999999
 31
0.0
  0
LINE
  5
1AE
330
B
100
AcDbEntity
 67
     1
  8
1
  6
Continuous
 62
    18
100
AcDbLine
 10
2.760089999999999
 20
2.402163
 30
0.0
 11
2.546072999999999
 21
2.402163
 31
0.0
  0
LINE
  5
1AF
330
B
100
AcDbEntity
 67
     1
  8
1
  6
Continuous
 62
    18
100
AcDbLine
 10
2.415629
 20
3.233718
 30
0.0
 11
2.417302999999999
 21
3.235392
 31
0.0
  0
LINE
  5
1B0
330
B
100
AcDbEntity
 67
     1
  8
1
  6
Continuous
 62
    18
100
AcDbLine
 10
5.974784999999999
 20
4.520287
 30
0.0
 11
5.974784999999999
 21
4.560268999999999
 31
0.0
  0
LINE
  5
1B1
330
B
100
AcDbEntity
 67
     1
  8
1
  6
Continuous
 62
    18
100
AcDbLine
 10
1.931512999999999
 20
1.578294
 30
0.0
 11
1.931950999999999
 21
1.547113999999999
 31
0.0
  0
LINE
  5
1B2
330
B
100
AcDbEntity
 67
     1
  8
1
  6
Continuous
 62
    18
100
AcDbLine
 10
2.703052
 20
6.159262
 30
0.0
 11
2.672279999999999
 21
6.159262
 31
0.0
  0
LINE
  5
1B3
330
B
100
AcDbEntity
 67
     1
  8
1
  6
Continuous
 62
    18
100
AcDbLine
 10
2.415576999999999
 20
2.409810999999999
 30
0.0
 11
2.417247999999999
 21
2.411481
 31
0.0
  0
LINE
  5
1B4
330
B
100
AcDbEntity
 67
     1
  8
1
  6
Continuous
 62
    18
100
AcDbLine
 10
6.724785
 20
1.336311
 30
0.0
 11
6.724785
 21
1.320095
 31
0.0
  0
LINE
  5
1B5
330
B
100
AcDbEntity
 67
     1
  8
1
  6
Continuous
 62
    18
100
AcDbLine
 10
2.785518
 20
4.222424
 30
0.0
 11
2.785518
 21
4.328568999999999
 31
0.0
  0
LINE
  5
1B6
330
B
100
AcDbEntity
 67
     1
  8
1
  6
Continuous
 62
    18
100
AcDbLine
 10
1.883924999999999
 20
1.528937999999999
 30
0.0
 11
1.869297999999999
 21
1.528974
 31
0.0
  0
LINE
  5
1B7
330
B
100
AcDbEntity
 67
     1
  8
1
  6
Continuous
 62
    18
100
AcDbLine
 10
3.042531
 20
4.038784999999999
 30
0.0
 11
3.058419999999999
 21
4.018078
 31
0.0
  0
LINE
  5
1B8
330
B
100
AcDbEntity
 67
     1
  8
1
  6
Continuous
 62
    18
100
AcDbLine
 10
2.998179999999999
 20
3.070434
 30
0.0
 11
2.977300999999999
 21
3.070434
 31
0.0
  0
LINE
  5
1B9
330
B
100
AcDbEntity
 67
     1
  8
1
  6
Continuous
 62
    18
100
AcDbLine
 10
2.488475999999999
 20
6.159262
 30
0.0
 11
2.478134999999999
 21
6.159262
 31
0.0
  0
LINE
  5
1BA
330
B
100
AcDbEntity
 67
     1
  8
1
  6
Continuous
 62
    18
100
AcDbLine
 10
1.612475
 20
3.968083
 30
0.0
 11
1.615882
 21
3.993962999999999
 31
0.0
  0
LINE
  5
1BB
330
B
100
AcDbEntity
 67
     1
  8
1
  6
Continuous
 62
    18
100
AcDbLine
 10
2.275974
 20
3.175135
 30
0.0
 11
1.782670999999999
 21
3.175135
 31
0.0
  0
LINE
  5
1BC
330
B
100
AcDbEntity
 67
     1
  8
1
  6
Continuous
 62
    18
100
AcDbLine
 10
5.974784999999999
 20
3.948655
 30
0.0
 11
5.974784999999999
 21
1.477613999999999
 31
0.0
  0
LINE
  5
1BD
330
B
100
AcDbEntity
 67
     1
  8
1
  6
Continuous
 62
    18
100
AcDbLine
 10
2.098431
 20
4.626774
 30
0.0
 11
2.099516999999999
 21
4.625687999999999
 31
0.0
  0
LINE
  5
1BE
330
B
100
AcDbEntity
 67
     1
  8
1
  6
Continuous
 62
    18
100
AcDbLine
 10
2.193276
 20
4.721619
 30
0.0
 11
2.098431
 21
4.626774
 31
0.0
  0
LINE
  5
1BF
330
B
100
AcDbEntity
 67
     1
  8
1
  6
Continuous
 62
    18
100
AcDbLine
 10
2.049595
 20
6.185262
 30
0.0
 11
2.047546
 21
6.185262
 31
0.0
  0
LINE
  5
1C0
330
B
100
AcDbEntity
 67
     1
  8
1
  6
Continuous
 62
    18
100
AcDbLine
 10
1.695802
 20
1.58787
 30
0.0
 11
1.697634
 21
1.586037
 31
0.0
  0
LINE
  5
1C1
330
B
100
AcDbEntity
 67
     1
  8
1
  6
Continuous
 62
    18
100
AcDbLine
 10
1.712459999999999
 20
4.068068
 30
0.0
 11
2.971828999999999
 21
4.068068
 31
0.0
  0
LINE
  5
1C2
330
B
100
AcDbEntity
 67
     1
  8
1
  6
Continuous
 62
    18
100
AcDbLine
 10
2.998179999999999
 20
3.175135
 30
0.0
 11
2.998179999999999
 21
3.070434
 31
0.0
  0
LINE
  5
1C3
330
B
100
AcDbEntity
 67
     1
  8
1
  6
Continuous
 62
    18
100
AcDbLine
 10
2.593193999999999
 20
6.247262
 30
0.0
 11
2.60026
 21
6.247262
 31
0.0
  0
LINE
  5
1C4
330
B
100
AcDbEntity
 67
     1
  8
1
  6
Continuous
 62
    18
100
AcDbLine
 10
2.980718999999999
 20
4.170476999999999
 30
0.0
 11
3.010863
 21
4.157993
 31
0.0
  0
LINE
  5
1C5
330
B
100
AcDbEntity
 67
     1
  8
1
  6
Continuous
 62
    18
100
AcDbLine
 10
5.974784999999999
 20
4.175933999999999
 30
0.0
 11
5.974784999999999
 21
4.174736
 31
0.0
  0
LINE
  5
1C6
330
B
100
AcDbEntity
 67
     1
  8
1
  6
Continuous
 62
    18
100
AcDbLine
 10
2.807677999999999
 20
1.528937999999999
 30
0.0
 11
2.792915999999999
 21
1.528969
 31
0.0
  0
LINE
  5
1C7
330
B
100
AcDbEntity
 67
     1
  8
1
  6
Continuous
 62
    18
100
AcDbLine
 10
1.647542999999999
 20
4.138131999999999
 30
0.0
 11
1.673427
 21
4.157993
 31
0.0
  0
LINE
  5
1C8
330
B
100
AcDbEntity
 67
     1
  8
1
  6
Continuous
 62
    18
100
AcDbLine
 10
3.071813999999999
 20
3.968083
 30
0.0
 11
3.071813999999999
 21
4.048219
 31
0.0
  0
LINE
  5
1C9
330
B
100
AcDbEntity
 67
     1
  8
1
  6
Continuous
 62
    18
100
AcDbLine
 10
5.974784999999999
 20
1.207127999999999
 30
0.0
 11
5.974784999999999
 21
1.197335
 31
0.0
  0
LINE
  5
1CA
330
B
100
AcDbEntity
 67
     1
  8
1
  6
Continuous
 62
    18
100
AcDbLine
 10
2.860052999999999
 20
3.183835999999999
 30
0.0
 11
2.854395
 21
3.183781
 31
0.0
  0
LINE
  5
1CB
330
B
100
AcDbEntity
 67
     1
  8
1
  6
Continuous
 62
    18
100
AcDbLine
 10
5.974784999999999
 20
1.044529
 30
0.0
 11
5.974784999999999
 21
1.171129
 31
0.0
  0
LINE
  5
1CC
330
B
100
AcDbEntity
 67
     1
  8
1
  6
Continuous
 62
    18
100
AcDbLine
 10
2.772838999999999
 20
1.529912
 30
0.0
 11
2.760161
 21
1.536246
 31
0.0
  0
LINE
  5
1CD
330
B
100
AcDbEntity
 67
     1
  8
1
  6
Continuous
 62
    18
100
AcDbLine
 10
2.850624999999999
 20
2.359801
 30
0.0
 11
2.837149999999999
 21
2.353063999999999
 31
0.0
  0
LINE
  5
1CE
330
B
100
AcDbEntity
 67
     1
  8
1
  6
Continuous
 62
    18
100
AcDbLine
 10
3.023352
 20
6.247262
 30
0.0
 11
3.016807
 21
6.997261999999999
 31
0.0
  0
LINE
  5
1CF
330
B
100
AcDbEntity
 67
     1
  8
1
  6
Continuous
 62
    18
100
AcDbLine
 10
5.974784999999999
 20
1.027990999999999
 30
0.0
 11
5.974784999999999
 21
1.040348
 31
0.0
  0
LINE
  5
1D0
330
B
100
AcDbEntity
 67
     1
  8
1
  6
Continuous
 62
    18
100
AcDbLine
 10
2.274337
 20
1.528242
 30
0.0
 11
2.274354999999999
 21
1.587612999999999
 31
0.0
  0
LINE
  5
1D1
330
B
100
AcDbEntity
 67
     1
  8
1
  6
Continuous
 62
    18
100
AcDbLine
 10
1.931441999999999
 20
3.183983
 30
0.0
 11
1.93182
 21
3.187320999999999
 31
0.0
  0
LINE
  5
1D2
330
B
100
AcDbEntity
 67
     1
  8
1
  6
Continuous
 62
    18
100
AcDbLine
 10
1.914408
 20
2.353054999999999
 30
0.0
 11
1.909797999999999
 21
2.352927999999999
 31
0.0
  0
LINE
  5
1D3
330
B
100
AcDbEntity
 67
     1
  8
1
  6
Continuous
 62
    18
100
AcDbLine
 10
2.834741999999999
 20
1.218817
 30
0.0
 11
2.948368999999999
 21
1.218817
 31
0.0
  0
LINE
  5
1D4
330
B
100
AcDbEntity
 67
     1
  8
1
  6
Continuous
 62
    18
100
AcDbLine
 10
2.272274
 20
6.247262
 30
0.0
 11
2.261857
 21
6.247262
 31
0.0
  0
LINE
  5
1D5
330
B
100
AcDbEntity
 67
     1
  8
1
  6
Continuous
 62
    18
100
AcDbLine
 10
5.974784999999999
 20
4.057046999999999
 30
0.0
 11
5.974784999999999
 21
4.066943
 31
0.0
  0
LINE
  5
1D6
330
B
100
AcDbEntity
 67
     1
  8
1
  6
Continuous
 62
    18
100
AcDbLine
 10
2.908932
 20
2.409904999999999
 30
0.0
 11
2.908932
 21
2.351266999999999
 31
0.0
  0
LINE
  5
1D7
330
B
100
AcDbEntity
 67
     1
  8
1
  6
Continuous
 62
    18
100
AcDbLine
 10
2.781806
 20
1.52906
 30
0.0
 11
2.777194999999999
 21
1.529186
 31
0.0
  0
LINE
  5
1D8
330
B
100
AcDbEntity
 67
     1
  8
1
  6
Continuous
 62
    18
100
AcDbLine
 10
2.047546
 20
4.619361
 30
0.0
 11
2.047546
 21
4.623781
 31
0.0
  0
LINE
  5
1D9
330
B
100
AcDbEntity
 67
     1
  8
1
  6
Continuous
 62
    18
100
AcDbLine
 10
5.886784999999999
 20
4.354707
 30
0.0
 11
5.886784999999999
 21
4.366963
 31
0.0
  0
LINE
  5
1DA
330
B
100
AcDbEntity
 67
     1
  8
1
  6
Continuous
 62
    18
100
AcDbLine
 10
1.714300999999999
 20
2.411738
 30
0.0
 11
1.714300999999999
 21
3.070434
 31
0.0
  0
LINE
  5
1DB
330
B
100
AcDbEntity
 67
     1
  8
1
  6
Continuous
 62
    18
100
AcDbLine
 10
5.974784999999999
 20
1.223076
 30
0.0
 11
5.974784999999999
 21
1.218817
 31
0.0
  0
LINE
  5
1DC
330
B
100
AcDbEntity
 67
     1
  8
1
  6
Continuous
 62
    18
100
AcDbLine
 10
2.990094
 20
6.247262
 30
0.0
 11
2.970774
 21
6.247262
 31
0.0
  0
LINE
  5
1DD
330
B
100
AcDbEntity
 67
     1
  8
1
  6
Continuous
 62
    18
100
AcDbLine
 10
1.782670999999999
 20
1.586037
 30
0.0
 11
1.697634
 21
1.586037
 31
0.0
  0
LINE
  5
1DE
330
B
100
AcDbEntity
 67
     1
  8
1
  6
Continuous
 62
    18
100
AcDbLine
 10
2.213466999999999
 20
0.663811
 30
0.0
 11
2.217200999999999
 21
0.663601
 31
0.0
  0
LINE
  5
1DF
330
B
100
AcDbEntity
 67
     1
  8
1
  6
Continuous
 62
    18
100
AcDbLine
 10
3.035209999999999
 20
4.136595999999999
 30
0.0
 11
3.009326999999999
 21
4.156455999999999
 31
0.0
  0
LINE
  5
1E0
330
B
100
AcDbEntity
 67
     1
  8
1
  6
Continuous
 62
    18
100
AcDbLine
 10
5.819049999999999
 20
2.352110999999999
 30
0.0
 11
5.827287
 21
2.352183
 31
0.0
  0
LINE
  5
1E1
330
B
100
AcDbEntity
 67
     1
  8
1
  6
Continuous
 62
    18
100
AcDbLine
 10
6.724785
 20
3.988301999999999
 30
0.0
 11
6.724785
 21
3.977463999999999
 31
0.0
  0
LINE
  5
1E2
330
B
100
AcDbEntity
 67
     1
  8
1
  6
Continuous
 62
    18
100
AcDbLine
 10
2.145459
 20
2.360114999999999
 30
0.0
 11
2.147258
 21
2.361013
 31
0.0
  0
LINE
  5
1E3
330
B
100
AcDbEntity
 67
     1
  8
1
  6
Continuous
 62
    18
100
AcDbLine
 10
1.613513999999999
 20
1.426507999999999
 30
0.0
 11
1.61692
 21
1.400628
 31
0.0
  0
LINE
  5
1E4
330
B
100
AcDbEntity
 67
     1
  8
1
  6
Continuous
 62
    18
100
AcDbLine
 10
2.644057
 20
0.7697720000000001
 30
0.0
 11
2.644057
 21
0.768954
 31
0.0
  0
LINE
  5
1E5
330
B
100
AcDbEntity
 67
     1
  8
1
  6
Continuous
 62
    18
100
AcDbLine
 10
1.887741999999999
 20
1.209445
 30
0.0
 11
1.898838999999999
 21
1.196770999999999
 31
0.0
  0
LINE
  5
1E6
330
B
100
AcDbEntity
 67
     1
  8
1
  6
Continuous
 62
    18
100
AcDbLine
 10
5.722285
 20
3.924604
 30
0.0
 11
5.722285
 21
3.955349
 31
0.0
  0
LINE
  5
1E7
330
B
100
AcDbEntity
 67
     1
  8
1
  6
Continuous
 62
    18
100
AcDbLine
 10
2.891436
 20
3.183883999999999
 30
0.0
 11
2.875620999999999
 21
3.183883999999999
 31
0.0
  0
LINE
  5
1E8
330
B
100
AcDbEntity
 67
     1
  8
1
  6
Continuous
 62
    18
100
AcDbLine
 10
2.792915999999999
 20
1.528969
 30
0.0
 11
2.781806
 21
1.52906
 31
0.0
  0
LINE
  5
1E9
330
B
100
AcDbEntity
 67
     1
  8
1
  6
Continuous
 62
    18
100
AcDbLine
 10
2.839747
 20
6.247262
 30
0.0
 11
2.800488999999999
 21
6.247262
 31
0.0
  0
LINE
  5
1EA
330
B
100
AcDbEntity
 67
     1
  8
1
  6
Continuous
 62
    18
100
AcDbLine
 10
2.970791
 20
1.326522999999999
 30
0.0
 11
1.713497999999999
 21
1.326522999999999
 31
0.0
  0
LINE
  5
1EB
330
B
100
AcDbEntity
 67
     1
  8
1
  6
Continuous
 62
    18
100
AcDbLine
 10
2.891436
 20
1.536146999999999
 30
0.0
 11
2.907243
 21
1.528242
 31
0.0
  0
LINE
  5
1EC
330
B
100
AcDbEntity
 67
     1
  8
1
  6
Continuous
 62
    18
100
AcDbLine
 10
5.827284999999999
 20
4.067028999999999
 30
0.0
 11
5.886784999999999
 21
4.068068
 31
0.0
  0
LINE
  5
1ED
330
B
100
AcDbEntity
 67
     1
  8
1
  6
Continuous
 62
    18
100
AcDbLine
 10
2.997709
 20
1.328891999999999
 30
0.0
 11
2.971828999999999
 21
1.325485
 31
0.0
  0
LINE
  5
1EE
330
B
100
AcDbEntity
 67
     1
  8
1
  6
Continuous
 62
    18
100
AcDbLine
 10
2.982327999999999
 20
1.58787
 30
0.0
 11
2.995800999999999
 21
1.58787
 31
0.0
  0
LINE
  5
1EF
330
B
100
AcDbEntity
 67
     1
  8
1
  6
Continuous
 62
    18
100
AcDbLine
 10
1.685549
 20
6.247262
 30
0.0
 11
1.687084999999999
 21
6.159262
 31
0.0
  0
LINE
  5
1F0
330
B
100
AcDbEntity
 67
     1
  8
1
  6
Continuous
 62
    18
100
AcDbLine
 10
3.055070999999999
 20
4.110712
 30
0.0
 11
3.035209999999999
 21
4.136595999999999
 31
0.0
  0
LINE
  5
1F1
330
B
100
AcDbEntity
 67
     1
  8
1
  6
Continuous
 62
    18
100
AcDbLine
 10
2.792915999999999
 20
2.352838
 30
0.0
 11
2.781806
 21
2.352927999999999
 31
0.0
  0
LINE
  5
1F2
330
B
100
AcDbEntity
 67
     1
  8
1
  6
Continuous
 62
    18
100
AcDbLine
 10
5.722285
 20
4.004942999999999
 30
0.0
 11
5.827284999999999
 21
4.006776
 31
0.0
  0
LINE
  5
1F3
330
B
100
AcDbEntity
 67
     1
  8
1
  6
Continuous
 62
    18
100
AcDbLine
 10
2.611666
 20
4.619112999999999
 30
0.0
 11
2.611666
 21
4.617576999999999
 31
0.0
  0
LINE
  5
1F4
330
B
100
AcDbEntity
 67
     1
  8
1
  6
Continuous
 62
    18
100
AcDbLine
 10
1.629218
 20
1.282840999999999
 30
0.0
 11
1.649079
 21
1.256956999999999
 31
0.0
  0
LINE
  5
1F5
330
B
100
AcDbEntity
 67
     1
  8
1
  6
Continuous
 62
    18
100
AcDbLine
 10
2.390550999999999
 20
4.493776
 30
0.0
 11
2.390550999999999
 21
4.494562
 31
0.0
  0
LINE
  5
1F6
330
B
100
AcDbEntity
 67
     1
  8
1
  6
Continuous
 62
    18
100
AcDbLine
 10
2.982327999999999
 20
1.58787
 30
0.0
 11
2.982247999999999
 21
1.587762999999999
 31
0.0
  0
LINE
  5
1F7
330
B
100
AcDbEntity
 67
     1
  8
1
  6
Continuous
 62
    18
100
AcDbLine
 10
2.301050999999999
 20
0.899777
 30
0.0
 11
2.301050999999999
 21
0.898991
 31
0.0
  0
LINE
  5
1F8
330
B
100
AcDbEntity
 67
     1
  8
1
  6
Continuous
 62
    18
100
AcDbLine
 10
2.913629
 20
5.994762
 30
0.0
 11
2.913629
 21
6.099762
 31
0.0
  0
LINE
  5
1F9
330
B
100
AcDbEntity
 67
     1
  8
1
  6
Continuous
 62
    18
100
AcDbLine
 10
2.088513
 20
6.247262
 30
0.0
 11
2.096133
 21
6.247262
 31
0.0
  0
LINE
  5
1FA
330
B
100
AcDbEntity
 67
     1
  8
1
  6
Continuous
 62
    18
100
AcDbLine
 10
1.708320999999999
 20
3.235440999999999
 30
0.0
 11
1.709995
 21
3.233766999999999
 31
0.0
  0
LINE
  5
1FB
330
B
100
AcDbEntity
 67
     1
  8
1
  6
Continuous
 62
    18
100
AcDbLine
 10
1.708391999999999
 20
3.235599999999999
 30
0.0
 11
1.714300999999999
 21
3.235599999999999
 31
0.0
  0
LINE
  5
1FC
330
B
100
AcDbEntity
 67
     1
  8
1
  6
Continuous
 62
    18
100
AcDbLine
 10
2.079936
 20
0.7744400000000001
 30
0.0
 11
2.079936
 21
0.775976
 31
0.0
  0
LINE
  5
1FD
330
B
100
AcDbEntity
 67
     1
  8
1
  6
Continuous
 62
    18
100
AcDbLine
 10
1.614263999999999
 20
6.247262
 30
0.0
 11
1.624062999999999
 21
6.247262
 31
0.0
  0
LINE
  5
1FE
330
B
100
AcDbEntity
 67
     1
  8
1
  6
Continuous
 62
    18
100
AcDbLine
 10
5.886784999999999
 20
0.7584210000000001
 30
0.0
 11
5.886784999999999
 21
0.794654
 31
0.0
  0
LINE
  5
1FF
330
B
100
AcDbEntity
 67
     1
  8
1
  6
Continuous
 62
    18
100
AcDbLine
 10
1.73592
 20
4.174736
 30
0.0
 11
1.737456
 21
4.173199999999999
 31
0.0
  0
LINE
  5
200
330
B
100
AcDbEntity
 67
     1
  8
1
  6
Continuous
 62
    18
100
AcDbLine
 10
2.544344999999999
 20
2.401874999999999
 30
0.0
 11
2.546072999999999
 21
2.402163
 31
0.0
  0
LINE
  5
201
330
B
100
AcDbEntity
 67
     1
  8
1
  6
Continuous
 62
    18
100
AcDbLine
 10
1.714300999999999
 20
3.070434
 30
0.0
 11
1.693422
 21
3.070434
 31
0.0
  0
LINE
  5
202
330
B
100
AcDbEntity
 67
     1
  8
1
  6
Continuous
 62
    18
100
AcDbLine
 10
2.274300999999999
 20
3.235392
 30
0.0
 11
2.417302999999999
 21
3.235392
 31
0.0
  0
LINE
  5
203
330
B
100
AcDbEntity
 67
     1
  8
1
  6
Continuous
 62
    18
100
AcDbLine
 10
1.616732999999999
 20
1.312983999999999
 30
0.0
 11
1.629218
 21
1.282840999999999
 31
0.0
  0
LINE
  5
204
330
B
100
AcDbEntity
 67
     1
  8
1
  6
Continuous
 62
    18
100
AcDbLine
 10
2.276025999999999
 20
2.409810999999999
 30
0.0
 11
2.276025999999999
 21
2.351266999999999
 31
0.0
  0
LINE
  5
205
330
B
100
AcDbEntity
 67
     1
  8
1
  6
Continuous
 62
    18
100
AcDbLine
 10
2.672279999999999
 20
6.159262
 30
0.0
 11
2.648383
 21
6.159262
 31
0.0
  0
LINE
  5
206
330
B
100
AcDbEntity
 67
     1
  8
1
  6
Continuous
 62
    18
100
AcDbLine
 10
2.274354999999999
 20
2.411481
 30
0.0
 11
2.417247999999999
 21
2.411481
 31
0.0
  0
LINE
  5
207
330
B
100
AcDbEntity
 67
     1
  8
1
  6
Continuous
 62
    18
100
AcDbLine
 10
6.724785
 20
1.320095
 30
0.0
 11
6.724785
 21
1.309261
 31
0.0
  0
LINE
  5
208
330
B
100
AcDbEntity
 67
     1
  8
1
  6
Continuous
 62
    18
100
AcDbLine
 10
1.869297999999999
 20
1.528974
 30
0.0
 11
1.858556
 21
1.529068
 31
0.0
  0
LINE
  5
209
330
B
100
AcDbEntity
 67
     1
  8
1
  6
Continuous
 62
    18
100
AcDbLine
 10
2.544344999999999
 20
3.225743999999999
 30
0.0
 11
2.546072999999999
 21
3.226032
 31
0.0
  0
LINE
  5
20A
330
B
100
AcDbEntity
 67
     1
  8
1
  6
Continuous
 62
    18
100
AcDbLine
 10
2.478134999999999
 20
6.159262
 30
0.0
 11
2.474400999999999
 21
6.159262
 31
0.0
  0
LINE
  5
20B
330
B
100
AcDbEntity
 67
     1
  8
1
  6
Continuous
 62
    18
100
AcDbLine
 10
1.615882
 20
3.993962999999999
 30
0.0
 11
1.62587
 21
4.018078
 31
0.0
  0
LINE
  5
20C
330
B
100
AcDbEntity
 67
     1
  8
1
  6
Continuous
 62
    18
100
AcDbLine
 10
2.04322
 20
0.762187
 30
0.0
 11
2.047546
 21
0.7697720000000001
 31
0.0
  0
LINE
  5
20D
330
B
100
AcDbEntity
 67
     1
  8
1
  6
Continuous
 62
    18
100
AcDbLine
 10
2.274281999999999
 20
3.175981
 30
0.0
 11
2.275974
 21
3.175135
 31
0.0
  0
LINE
  5
20E
330
B
100
AcDbEntity
 67
     1
  8
1
  6
Continuous
 62
    18
100
AcDbLine
 10
2.099516999999999
 20
4.625687999999999
 30
0.0
 11
2.194361999999999
 21
4.720533
 31
0.0
  0
LINE
  5
20F
330
B
100
AcDbEntity
 67
     1
  8
1
  6
Continuous
 62
    18
100
AcDbLine
 10
2.193293
 20
4.721601999999999
 30
0.0
 11
2.202497999999999
 21
4.728167
 31
0.0
  0
LINE
  5
210
330
B
100
AcDbEntity
 67
     1
  8
1
  6
Continuous
 62
    18
100
AcDbLine
 10
2.060076
 20
6.159262
 30
0.0
 11
2.049595
 21
6.185262
 31
0.0
  0
LINE
  5
211
330
B
100
AcDbEntity
 67
     1
  8
1
  6
Continuous
 62
    18
100
AcDbLine
 10
2.595469
 20
0.768779
 30
0.0
 11
2.593199
 21
0.7667510000000001
 31
0.0
  0
LINE
  5
212
330
B
100
AcDbEntity
 67
     1
  8
1
  6
Continuous
 62
    18
100
AcDbLine
 10
2.970791
 20
4.067028999999999
 30
0.0
 11
1.713497999999999
 21
4.067028999999999
 31
0.0
  0
LINE
  5
213
330
B
100
AcDbEntity
 67
     1
  8
1
  6
Continuous
 62
    18
100
AcDbLine
 10
5.974784999999999
 20
1.196922999999999
 30
0.0
 11
5.974784999999999
 21
1.187027
 31
0.0
  0
LINE
  5
214
330
B
100
AcDbEntity
 67
     1
  8
1
  6
Continuous
 62
    18
100
AcDbLine
 10
2.759652999999999
 20
3.194850999999999
 30
0.0
 11
2.759783999999999
 21
3.187320999999999
 31
0.0
  0
LINE
  5
215
330
B
100
AcDbEntity
 67
     1
  8
1
  6
Continuous
 62
    18
100
AcDbLine
 10
5.974784999999999
 20
4.695001
 30
0.0
 11
5.974784999999999
 21
4.714992999999999
 31
0.0
  0
LINE
  5
216
330
B
100
AcDbEntity
 67
     1
  8
1
  6
Continuous
 62
    18
100
AcDbLine
 10
2.145459
 20
1.536246
 30
0.0
 11
1.931441999999999
 21
1.536246
 31
0.0
  0
LINE
  5
217
330
B
100
AcDbEntity
 67
     1
  8
1
  6
Continuous
 62
    18
100
AcDbLine
 10
2.160104
 20
2.360475
 30
0.0
 11
2.151022
 21
2.360700999999999
 31
0.0
  0
LINE
  5
218
330
B
100
AcDbEntity
 67
     1
  8
1
  6
Continuous
 62
    18
100
AcDbLine
 10
2.983183
 20
3.175135
 30
0.0
 11
2.987666999999999
 21
3.175135
 31
0.0
  0
LINE
  5
219
330
B
100
AcDbEntity
 67
     1
  8
1
  6
Continuous
 62
    18
100
AcDbLine
 10
1.931441999999999
 20
3.183983
 30
0.0
 11
1.918765
 21
3.177649
 31
0.0
  0
LINE
  5
21A
330
B
100
AcDbEntity
 67
     1
  8
1
  6
Continuous
 62
    18
100
AcDbLine
 10
3.010863
 20
4.157993
 30
0.0
 11
3.036747
 21
4.138131999999999
 31
0.0
  0
LINE
  5
21B
330
B
100
AcDbEntity
 67
     1
  8
1
  6
Continuous
 62
    18
100
AcDbLine
 10
2.544344999999999
 20
3.184881999999999
 30
0.0
 11
2.546143999999999
 21
3.183983
 31
0.0
  0
LINE
  5
21C
330
B
100
AcDbEntity
 67
     1
  8
1
  6
Continuous
 62
    18
100
AcDbLine
 10
5.974784999999999
 20
4.082105
 30
0.0
 11
5.974784999999999
 21
4.049755
 31
0.0
  0
LINE
  5
21D
330
B
100
AcDbEntity
 67
     1
  8
1
  6
Continuous
 62
    18
100
AcDbLine
 10
1.613513999999999
 20
1.426507999999999
 30
0.0
 11
1.613513999999999
 21
3.967044999999999
 31
0.0
  0
LINE
  5
21E
330
B
100
AcDbEntity
 67
     1
  8
1
  6
Continuous
 62
    18
100
AcDbLine
 10
5.974784999999999
 20
1.196922999999999
 30
0.0
 11
5.974784999999999
 21
1.187027
 31
0.0
  0
LINE
  5
21F
330
B
100
AcDbEntity
 67
     1
  8
1
  6
Continuous
 62
    18
100
AcDbLine
 10
2.544344999999999
 20
1.578006
 30
0.0
 11
2.546072999999999
 21
1.578294
 31
0.0
  0
LINE
  5
220
330
B
100
AcDbEntity
 67
     1
  8
1
  6
Continuous
 62
    18
100
AcDbLine
 10
2.854395
 20
3.183781
 30
0.0
 11
2.851268999999999
 21
3.183714
 31
0.0
  0
LINE
  5
221
330
B
100
AcDbEntity
 67
     1
  8
1
  6
Continuous
 62
    18
100
AcDbLine
 10
2.544344999999999
 20
1.537144999999999
 30
0.0
 11
2.540580999999999
 21
1.536831999999999
 31
0.0
  0
LINE
  5
222
330
B
100
AcDbEntity
 67
     1
  8
1
  6
Continuous
 62
    18
100
AcDbLine
 10
2.644057
 20
0.7741920000000001
 30
0.0
 11
2.644057
 21
0.7697720000000001
 31
0.0
  0
LINE
  5
223
330
B
100
AcDbEntity
 67
     1
  8
1
  6
Continuous
 62
    18
100
AcDbLine
 10
2.850624999999999
 20
3.18367
 30
0.0
 11
2.837149999999999
 21
3.176931999999999
 31
0.0
  0
LINE
  5
224
330
B
100
AcDbEntity
 67
     1
  8
1
  6
Continuous
 62
    18
100
AcDbLine
 10
3.066805
 20
6.997261999999999
 30
0.0
 11
3.07335
 21
6.247262
 31
0.0
  0
LINE
  5
225
330
B
100
AcDbEntity
 67
     1
  8
1
  6
Continuous
 62
    18
100
AcDbLine
 10
5.812547
 20
3.175135
 30
0.0
 11
5.822983999999999
 21
3.175135
 31
0.0
  0
LINE
  5
226
330
B
100
AcDbEntity
 67
     1
  8
1
  6
Continuous
 62
    18
100
AcDbLine
 10
5.974784999999999
 20
1.040348
 30
0.0
 11
5.974784999999999
 21
1.044529
 31
0.0
  0
LINE
  5
227
330
B
100
AcDbEntity
 67
     1
  8
1
  6
Continuous
 62
    18
100
AcDbLine
 10
1.93182
 20
3.187320999999999
 30
0.0
 11
1.931950999999999
 21
3.194850999999999
 31
0.0
  0
LINE
  5
228
330
B
100
AcDbEntity
 67
     1
  8
1
  6
Continuous
 62
    18
100
AcDbLine
 10
2.047546
 20
0.7744400000000001
 30
0.0
 11
2.079936
 21
0.7744400000000001
 31
0.0
  0
LINE
  5
229
330
B
100
AcDbEntity
 67
     1
  8
1
  6
Continuous
 62
    18
100
AcDbLine
 10
1.909797999999999
 20
2.352927999999999
 30
0.0
 11
1.898686999999999
 21
2.352838
 31
0.0
  0
LINE
  5
22A
330
B
100
AcDbEntity
 67
     1
  8
1
  6
Continuous
 62
    18
100
AcDbLine
 10
2.834741999999999
 20
1.218817
 30
0.0
 11
2.818894999999999
 21
1.216059
 31
0.0
  0
LINE
  5
22B
330
B
100
AcDbEntity
 67
     1
  8
1
  6
Continuous
 62
    18
100
AcDbLine
 10
2.410397999999999
 20
6.247262
 30
0.0
 11
2.370815
 21
6.247262
 31
0.0
  0
LINE
  5
22C
330
B
100
AcDbEntity
 67
     1
  8
1
  6
Continuous
 62
    18
100
AcDbLine
 10
5.974784999999999
 20
4.106526
 30
0.0
 11
5.974784999999999
 21
4.057046999999999
 31
0.0
  0
LINE
  5
22D
330
B
100
AcDbEntity
 67
     1
  8
1
  6
Continuous
 62
    18
100
AcDbLine
 10
1.610938999999999
 20
1.343798
 30
0.0
 11
1.612475
 21
1.345334
 31
0.0
  0
LINE
  5
22E
330
B
100
AcDbEntity
 67
     1
  8
1
  6
Continuous
 62
    18
100
AcDbLine
 10
1.708302999999999
 20
3.175135
 30
0.0
 11
1.708320999999999
 21
3.235440999999999
 31
0.0
  0
LINE
  5
22F
330
B
100
AcDbEntity
 67
     1
  8
1
  6
Continuous
 62
    18
100
AcDbLine
 10
2.60309
 20
0.772992
 30
0.0
 11
2.595469
 21
0.768779
 31
0.0
  0
LINE
  5
230
330
B
100
AcDbEntity
 67
     1
  8
1
  6
Continuous
 62
    18
100
AcDbLine
 10
2.147258
 20
2.361013
 30
0.0
 11
2.147258
 21
2.401874999999999
 31
0.0
  0
LINE
  5
231
330
B
100
AcDbEntity
 67
     1
  8
1
  6
Continuous
 62
    18
100
AcDbLine
 10
1.714300999999999
 20
2.411738
 30
0.0
 11
1.708252999999999
 21
2.411738
 31
0.0
  0
LINE
  5
232
330
B
100
AcDbEntity
 67
     1
  8
1
  6
Continuous
 62
    18
100
AcDbLine
 10
1.777974
 20
1.38861
 30
0.0
 11
1.777974
 21
1.386777
 31
0.0
  0
LINE
  5
233
330
B
100
AcDbEntity
 67
     1
  8
1
  6
Continuous
 62
    18
100
AcDbLine
 10
2.983297
 20
2.351266999999999
 30
0.0
 11
2.983277999999999
 21
2.411576999999999
 31
0.0
  0
LINE
  5
234
330
B
100
AcDbEntity
 67
     1
  8
1
  6
Continuous
 62
    18
100
AcDbLine
 10
2.474400999999999
 20
0.6620239999999999
 30
0.0
 11
2.474400999999999
 21
0.6635600000000001
 31
0.0
  0
LINE
  5
235
330
B
100
AcDbEntity
 67
     1
  8
1
  6
Continuous
 62
    18
100
AcDbLine
 10
5.886784999999999
 20
4.560105
 30
0.0
 11
5.886784999999999
 21
4.598898999999999
 31
0.0
  0
LINE
  5
236
330
B
100
AcDbEntity
 67
     1
  8
1
  6
Continuous
 62
    18
100
AcDbLine
 10
5.827294
 20
3.176051999999999
 30
0.0
 11
5.819213999999999
 21
3.175981
 31
0.0
  0
LINE
  5
237
330
B
100
AcDbEntity
 67
     1
  8
1
  6
Continuous
 62
    18
100
AcDbLine
 10
6.724785
 20
3.977463999999999
 30
0.0
 11
6.724785
 21
3.961242999999999
 31
0.0
  0
LINE
  5
238
330
B
100
AcDbEntity
 67
     1
  8
1
  6
Continuous
 62
    18
100
AcDbLine
 10
1.61692
 20
1.400628
 30
0.0
 11
1.626908
 21
1.376512999999999
 31
0.0
  0
LINE
  5
239
330
B
100
AcDbEntity
 67
     1
  8
1
  6
Continuous
 62
    18
100
AcDbLine
 10
2.644057
 20
0.768954
 30
0.0
 11
2.644057
 21
0.767115
 31
0.0
  0
LINE
  5
23A
330
B
100
AcDbEntity
 67
     1
  8
1
  6
Continuous
 62
    18
100
AcDbLine
 10
2.997709
 20
4.064662
 30
0.0
 11
3.021824
 21
4.054673999999999
 31
0.0
  0
LINE
  5
23B
330
B
100
AcDbEntity
 67
     1
  8
1
  6
Continuous
 62
    18
100
AcDbLine
 10
1.627682
 20
1.281304999999999
 30
0.0
 11
1.615197
 21
1.311447999999999
 31
0.0
  0
LINE
  5
23C
330
B
100
AcDbEntity
 67
     1
  8
1
  6
Continuous
 62
    18
100
AcDbLine
 10
2.837149999999999
 20
3.176931999999999
 30
0.0
 11
2.833047
 21
3.176804999999999
 31
0.0
  0
LINE
  5
23D
330
B
100
AcDbEntity
 67
     1
  8
1
  6
Continuous
 62
    18
100
AcDbLine
 10
1.906084999999999
 20
4.328568999999999
 30
0.0
 11
2.060076
 21
4.617576999999999
 31
0.0
  0
LINE
  5
23E
330
B
100
AcDbEntity
 67
     1
  8
1
  6
Continuous
 62
    18
100
AcDbLine
 10
5.974784999999999
 20
0.6620239999999999
 30
0.0
 11
5.974784999999999
 21
0.6662040000000001
 31
0.0
  0
LINE
  5
23F
330
B
100
AcDbEntity
 67
     1
  8
1
  6
Continuous
 62
    18
100
AcDbLine
 10
2.792762999999999
 20
4.196781999999999
 30
0.0
 11
2.786718999999999
 21
4.211740999999999
 31
0.0
  0
LINE
  5
240
330
B
100
AcDbEntity
 67
     1
  8
1
  6
Continuous
 62
    18
100
AcDbLine
 10
2.450029999999999
 20
2.360393
 30
0.0
 11
2.519379999999999
 21
2.360393
 31
0.0
  0
LINE
  5
241
330
B
100
AcDbEntity
 67
     1
  8
1
  6
Continuous
 62
    18
100
AcDbLine
 10
3.070775999999999
 20
1.426507999999999
 30
0.0
 11
3.071813999999999
 21
1.425469999999999
 31
0.0
  0
LINE
  5
242
330
B
100
AcDbEntity
 67
     1
  8
1
  6
Continuous
 62
    18
100
AcDbLine
 10
2.443146
 20
2.360320999999999
 30
0.0
 11
2.440043999999999
 21
2.360145
 31
0.0
  0
LINE
  5
243
330
B
100
AcDbEntity
 67
     1
  8
1
  6
Continuous
 62
    18
100
AcDbLine
 10
2.781806
 20
2.352927999999999
 30
0.0
 11
2.777194999999999
 21
2.353054999999999
 31
0.0
  0
LINE
  5
244
330
B
100
AcDbEntity
 67
     1
  8
1
  6
Continuous
 62
    18
100
AcDbLine
 10
5.827284999999999
 20
3.967044999999999
 30
0.0
 11
5.827284999999999
 21
3.992924999999999
 31
0.0
  0
LINE
  5
245
330
B
100
AcDbEntity
 67
     1
  8
1
  6
Continuous
 62
    18
100
AcDbLine
 10
2.803859999999999
 20
4.184108
 30
0.0
 11
2.792762999999999
 21
4.196781999999999
 31
0.0
  0
LINE
  5
246
330
B
100
AcDbEntity
 67
     1
  8
1
  6
Continuous
 62
    18
100
AcDbLine
 10
1.70375
 20
5.994762
 30
0.0
 11
1.697634
 21
5.994762
 31
0.0
  0
LINE
  5
247
330
B
100
AcDbEntity
 67
     1
  8
1
  6
Continuous
 62
    18
100
AcDbLine
 10
1.649079
 20
1.256956999999999
 30
0.0
 11
1.674963
 21
1.237095999999999
 31
0.0
  0
LINE
  5
248
330
B
100
AcDbEntity
 67
     1
  8
1
  6
Continuous
 62
    18
100
AcDbLine
 10
1.697634
 20
3.896136
 30
0.0
 11
1.695802
 21
3.894302999999999
 31
0.0
  0
LINE
  5
249
330
B
100
AcDbEntity
 67
     1
  8
1
  6
Continuous
 62
    18
100
AcDbLine
 10
2.390550999999999
 20
4.494562
 30
0.0
 11
2.301050999999999
 21
4.494562
 31
0.0
  0
LINE
  5
24A
330
B
100
AcDbEntity
 67
     1
  8
1
  6
Continuous
 62
    18
100
AcDbLine
 10
2.301050999999999
 20
0.898991
 30
0.0
 11
2.390550999999999
 21
0.898991
 31
0.0
  0
LINE
  5
24B
330
B
100
AcDbEntity
 67
     1
  8
1
  6
Continuous
 62
    18
100
AcDbLine
 10
5.827284999999999
 20
1.329929999999999
 30
0.0
 11
5.827284999999999
 21
1.339917999999999
 31
0.0
  0
LINE
  5
24C
330
B
100
AcDbEntity
 67
     1
  8
1
  6
Continuous
 62
    18
100
AcDbLine
 10
2.096133
 20
6.247262
 30
0.0
 11
2.098402999999999
 21
6.247262
 31
0.0
  0
LINE
  5
24D
330
B
100
AcDbEntity
 67
     1
  8
1
  6
Continuous
 62
    18
100
AcDbLine
 10
3.033792
 20
6.247262
 30
0.0
 11
3.055210999999999
 21
6.247262
 31
0.0
  0
LINE
  5
24E
330
B
100
AcDbEntity
 67
     1
  8
1
  6
Continuous
 62
    18
100
AcDbLine
 10
5.974784999999999
 20
4.181794
 30
0.0
 11
5.974784999999999
 21
4.175933999999999
 31
0.0
  0
LINE
  5
24F
330
B
100
AcDbEntity
 67
     1
  8
1
  6
Continuous
 62
    18
100
AcDbLine
 10
1.914408
 20
1.529186
 30
0.0
 11
1.909797
 21
1.52906
 31
0.0
  0
LINE
  5
250
330
B
100
AcDbEntity
 67
     1
  8
1
  6
Continuous
 62
    18
100
AcDbLine
 10
2.079936
 20
0.775976
 30
0.0
 11
2.060076
 21
0.775976
 31
0.0
  0
LINE
  5
251
330
B
100
AcDbEntity
 67
     1
  8
1
  6
Continuous
 62
    18
100
AcDbLine
 10
1.624062999999999
 20
6.247262
 30
0.0
 11
1.639813
 21
6.247262
 31
0.0
  0
LINE
  5
252
330
B
100
AcDbEntity
 67
     1
  8
1
  6
Continuous
 62
    18
100
AcDbLine
 10
2.474400999999999
 20
6.247262
 30
0.0
 11
2.217200999999999
 21
6.247262
 31
0.0
  0
LINE
  5
253
330
B
100
AcDbEntity
 67
     1
  8
1
  6
Continuous
 62
    18
100
AcDbLine
 10
2.275974
 20
3.233718
 30
0.0
 11
2.275974
 21
3.175135
 31
0.0
  0
LINE
  5
254
330
B
100
AcDbEntity
 67
     1
  8
1
  6
Continuous
 62
    18
100
AcDbLine
 10
2.49019
 20
6.247262
 30
0.0
 11
2.519356999999999
 21
6.247262
 31
0.0
  0
LINE
  5
255
330
B
100
AcDbEntity
 67
     1
  8
1
  6
Continuous
 62
    18
100
AcDbLine
 10
2.611666
 20
6.247262
 30
0.0
 11
2.611666
 21
6.159262
 31
0.0
  0
LINE
  5
256
330
B
100
AcDbEntity
 67
     1
  8
1
  6
Continuous
 62
    18
100
AcDbLine
 10
1.708306
 20
2.351266999999999
 30
0.0
 11
1.708324
 21
2.411576999999999
 31
0.0
  0
LINE
  5
257
330
B
100
AcDbEntity
 67
     1
  8
1
  6
Continuous
 62
    18
100
AcDbLine
 10
1.697634
 20
3.924604
 30
0.0
 11
1.697634
 21
3.896136
 31
0.0
  0
LINE
  5
258
330
B
100
AcDbEntity
 67
     1
  8
1
  6
Continuous
 62
    18
100
AcDbLine
 10
6.724785
 20
1.309261
 30
0.0
 11
6.724785
 21
1.305455999999999
 31
0.0
  0
LINE
  5
259
330
B
100
AcDbEntity
 67
     1
  8
1
  6
Continuous
 62
    18
100
AcDbLine
 10
1.858556
 20
1.529068
 30
0.0
 11
1.854454
 21
1.529195
 31
0.0
  0
LINE
  5
25A
330
B
100
AcDbEntity
 67
     1
  8
1
  6
Continuous
 62
    18
100
AcDbLine
 10
2.474400999999999
 20
6.247262
 30
0.0
 11
2.485545999999999
 21
6.247262
 31
0.0
  0
LINE
  5
25B
330
B
100
AcDbEntity
 67
     1
  8
1
  6
Continuous
 62
    18
100
AcDbLine
 10
2.217200999999999
 20
6.247262
 30
0.0
 11
2.217200999999999
 21
6.159262
 31
0.0
  0
LINE
  5
25C
330
B
100
AcDbEntity
 67
     1
  8
1
  6
Continuous
 62
    18
100
AcDbLine
 10
1.62587
 20
4.018078
 30
0.0
 11
1.641758
 21
4.038784999999999
 31
0.0
  0
LINE
  5
25D
330
B
100
AcDbEntity
 67
     1
  8
1
  6
Continuous
 62
    18
100
AcDbLine
 10
2.274272999999999
 20
3.175981
 30
0.0
 11
2.264256
 21
3.177649
 31
0.0
  0
LINE
  5
25E
330
B
100
AcDbEntity
 67
     1
  8
1
  6
Continuous
 62
    18
100
AcDbLine
 10
5.974784999999999
 20
3.948655
 30
0.0
 11
5.974784999999999
 21
4.049755
 31
0.0
  0
LINE
  5
25F
330
B
100
AcDbEntity
 67
     1
  8
1
  6
Continuous
 62
    18
100
AcDbLine
 10
2.079936
 20
4.617576999999999
 30
0.0
 11
2.079936
 21
4.619112999999999
 31
0.0
  0
LINE
  5
260
330
B
100
AcDbEntity
 67
     1
  8
1
  6
Continuous
 62
    18
100
AcDbLine
 10
2.202497999999999
 20
4.728167
 30
0.0
 11
2.213372999999999
 21
4.731292999999999
 31
0.0
  0
LINE
  5
261
330
B
100
AcDbEntity
 67
     1
  8
1
  6
Continuous
 62
    18
100
AcDbLine
 10
2.251558999999999
 20
2.360145
 30
0.0
 11
2.248456
 21
2.360320999999999
 31
0.0
  0
LINE
  5
262
330
B
100
AcDbEntity
 67
     1
  8
1
  6
Continuous
 62
    18
100
AcDbLine
 10
2.079936
 20
6.159262
 30
0.0
 11
2.060076
 21
6.159262
 31
0.0
  0
LINE
  5
263
330
B
100
AcDbEntity
 67
     1
  8
1
  6
Continuous
 62
    18
100
AcDbLine
 10
2.970791
 20
4.067028999999999
 30
0.0
 11
2.971828999999999
 21
4.068068
 31
0.0
  0
LINE
  5
264
330
B
100
AcDbEntity
 67
     1
  8
1
  6
Continuous
 62
    18
100
AcDbLine
 10
2.479774
 20
6.247262
 30
0.0
 11
2.49019
 21
6.247262
 31
0.0
  0
LINE
  5
265
330
B
100
AcDbEntity
 67
     1
  8
1
  6
Continuous
 62
    18
100
AcDbLine
 10
2.644057
 20
4.626437999999999
 30
0.0
 11
2.644057
 21
4.623781
 31
0.0
  0
LINE
  5
266
330
B
100
AcDbEntity
 67
     1
  8
1
  6
Continuous
 62
    18
100
AcDbLine
 10
2.546072999999999
 20
3.226032
 30
0.0
 11
2.545634999999999
 21
3.194850999999999
 31
0.0
  0
LINE
  5
267
330
B
100
AcDbEntity
 67
     1
  8
1
  6
Continuous
 62
    18
100
AcDbLine
 10
2.987666999999999
 20
3.175135
 30
0.0
 11
2.998179999999999
 21
3.175135
 31
0.0
  0
LINE
  5
268
330
B
100
AcDbEntity
 67
     1
  8
1
  6
Continuous
 62
    18
100
AcDbLine
 10
2.251514999999999
 20
3.184013
 30
0.0
 11
2.248412
 21
3.18419
 31
0.0
  0
LINE
  5
269
330
B
100
AcDbEntity
 67
     1
  8
1
  6
Continuous
 62
    18
100
AcDbLine
 10
3.036747
 20
4.138131999999999
 30
0.0
 11
3.056607
 21
4.112248
 31
0.0
  0
LINE
  5
26A
330
B
100
AcDbEntity
 67
     1
  8
1
  6
Continuous
 62
    18
100
AcDbLine
 10
5.974784999999999
 20
1.343798
 30
0.0
 11
5.974784999999999
 21
1.477613999999999
 31
0.0
  0
LINE
  5
26B
330
B
100
AcDbEntity
 67
     1
  8
1
  6
Continuous
 62
    18
100
AcDbLine
 10
1.784345
 20
3.235440999999999
 30
0.0
 11
1.708320999999999
 21
3.235440999999999
 31
0.0
  0
LINE
  5
26C
330
B
100
AcDbEntity
 67
     1
  8
1
  6
Continuous
 62
    18
100
AcDbLine
 10
5.974784999999999
 20
4.106526
 30
0.0
 11
5.974784999999999
 21
4.101839
 31
0.0
  0
LINE
  5
26D
330
B
100
AcDbEntity
 67
     1
  8
1
  6
Continuous
 62
    18
100
AcDbLine
 10
2.851268999999999
 20
3.183714
 30
0.0
 11
2.850624999999999
 21
3.18367
 31
0.0
  0
LINE
  5
26E
330
B
100
AcDbEntity
 67
     1
  8
1
  6
Continuous
 62
    18
100
AcDbLine
 10
2.971828999999999
 20
4.068068
 30
0.0
 11
2.997709
 21
4.064662
 31
0.0
  0
LINE
  5
26F
330
B
100
AcDbEntity
 67
     1
  8
1
  6
Continuous
 62
    18
100
AcDbLine
 10
5.974784999999999
 20
0.6662040000000001
 30
0.0
 11
5.974784999999999
 21
0.6785600000000001
 31
0.0
  0
LINE
  5
270
330
B
100
AcDbEntity
 67
     1
  8
1
  6
Continuous
 62
    18
100
AcDbLine
 10
2.907243
 20
1.528242
 30
0.0
 11
2.907261
 21
1.587707999999999
 31
0.0
  0
LINE
  5
271
330
B
100
AcDbEntity
 67
     1
  8
1
  6
Continuous
 62
    18
100
AcDbLine
 10
2.206056
 20
0.6639149999999999
 30
0.0
 11
2.196158
 21
0.669391
 31
0.0
  0
LINE
  5
272
330
B
100
AcDbEntity
 67
     1
  8
1
  6
Continuous
 62
    18
100
AcDbLine
 10
1.854454
 20
3.176931999999999
 30
0.0
 11
1.840977999999999
 21
3.18367
 31
0.0
  0
LINE
  5
273
330
B
100
AcDbEntity
 67
     1
  8
1
  6
Continuous
 62
    18
100
AcDbLine
 10
1.667481999999999
 20
6.997261999999999
 30
0.0
 11
3.016807
 21
6.997261999999999
 31
0.0
  0
LINE
  5
274
330
B
100
AcDbEntity
 67
     1
  8
1
  6
Continuous
 62
    18
100
AcDbLine
 10
2.913629
 20
1.386777
 30
0.0
 11
1.777974
 21
1.386777
 31
0.0
  0
LINE
  5
275
330
B
100
AcDbEntity
 67
     1
  8
1
  6
Continuous
 62
    18
100
AcDbLine
 10
6.724785
 20
1.384176999999999
 30
0.0
 11
5.974784999999999
 21
1.377631999999999
 31
0.0
  0
LINE
  5
276
330
B
100
AcDbEntity
 67
     1
  8
1
  6
Continuous
 62
    18
100
AcDbLine
 10
1.784341999999999
 20
1.587707999999999
 30
0.0
 11
1.782670999999999
 21
1.586037
 31
0.0
  0
LINE
  5
277
330
B
100
AcDbEntity
 67
     1
  8
1
  6
Continuous
 62
    18
100
AcDbLine
 10
5.974784999999999
 20
4.174736
 30
0.0
 11
5.974784999999999
 21
4.170476999999999
 31
0.0
  0
LINE
  5
278
330
B
100
AcDbEntity
 67
     1
  8
1
  6
Continuous
 62
    18
100
AcDbLine
 10
2.145459
 20
3.183983
 30
0.0
 11
1.931441999999999
 21
3.183983
 31
0.0
  0
LINE
  5
279
330
B
100
AcDbEntity
 67
     1
  8
1
  6
Continuous
 62
    18
100
AcDbLine
 10
2.251558999999999
 20
1.536275999999999
 30
0.0
 11
2.248456
 21
1.536452
 31
0.0
  0
LINE
  5
27A
330
B
100
AcDbEntity
 67
     1
  8
1
  6
Continuous
 62
    18
100
AcDbLine
 10
2.818894999999999
 20
1.216059
 30
0.0
 11
2.804843999999999
 21
1.208268
 31
0.0
  0
LINE
  5
27B
330
B
100
AcDbEntity
 67
     1
  8
1
  6
Continuous
 62
    18
100
AcDbLine
 10
2.307468
 20
6.247262
 30
0.0
 11
2.297572
 21
6.247262
 31
0.0
  0
LINE
  5
27C
330
B
100
AcDbEntity
 67
     1
  8
1
  6
Continuous
 62
    18
100
AcDbLine
 10
5.974784999999999
 20
1.236505999999999
 30
0.0
 11
5.974784999999999
 21
1.226609999999999
 31
0.0
  0
LINE
  5
27D
330
B
100
AcDbEntity
 67
     1
  8
1
  6
Continuous
 62
    18
100
AcDbLine
 10
2.417266
 20
2.352110999999999
 30
0.0
 11
2.417247999999999
 21
2.411481
 31
0.0
  0
LINE
  5
27E
330
B
100
AcDbEntity
 67
     1
  8
1
  6
Continuous
 62
    18
100
AcDbLine
 10
1.904549
 20
4.351048
 30
0.0
 11
1.905630999999999
 21
4.352304
 31
0.0
  0
LINE
  5
27F
330
B
100
AcDbEntity
 67
     1
  8
1
  6
Continuous
 62
    18
100
AcDbLine
 10
5.886784999999999
 20
4.386794
 30
0.0
 11
5.886784999999999
 21
4.413331999999999
 31
0.0
  0
LINE
  5
280
330
B
100
AcDbEntity
 67
     1
  8
1
  6
Continuous
 62
    18
100
AcDbLine
 10
1.708252999999999
 20
2.411738
 30
0.0
 11
1.708234
 21
2.351266999999999
 31
0.0
  0
LINE
  5
281
330
B
100
AcDbEntity
 67
     1
  8
1
  6
Continuous
 62
    18
100
AcDbLine
 10
5.886784999999999
 20
4.366963
 30
0.0
 11
5.886784999999999
 21
4.386794
 31
0.0
  0
LINE
  5
282
330
B
100
AcDbEntity
 67
     1
  8
1
  6
Continuous
 62
    18
100
AcDbLine
 10
1.709354
 20
1.587762999999999
 30
0.0
 11
1.709381999999999
 21
1.587707999999999
 31
0.0
  0
LINE
  5
283
330
B
100
AcDbEntity
 67
     1
  8
1
  6
Continuous
 62
    18
100
AcDbLine
 10
2.217200999999999
 20
0.6635600000000001
 30
0.0
 11
2.474400999999999
 21
0.6635600000000001
 31
0.0
  0
LINE
  5
284
330
B
100
AcDbEntity
 67
     1
  8
1
  6
Continuous
 62
    18
100
AcDbLine
 10
5.974784999999999
 20
4.049755
 30
0.0
 11
5.886784999999999
 21
4.048219
 31
0.0
  0
LINE
  5
285
330
B
100
AcDbEntity
 67
     1
  8
1
  6
Continuous
 62
    18
100
AcDbLine
 10
6.724785
 20
3.961242999999999
 30
0.0
 11
6.724785
 21
3.942109999999999
 31
0.0
  0
LINE
  5
286
330
B
100
AcDbEntity
 67
     1
  8
1
  6
Continuous
 62
    18
100
AcDbLine
 10
3.071813999999999
 20
6.159262
 30
0.0
 11
3.067193999999999
 21
6.159262
 31
0.0
  0
LINE
  5
287
330
B
100
AcDbEntity
 67
     1
  8
1
  6
Continuous
 62
    18
100
AcDbLine
 10
2.787053999999999
 20
1.042505999999999
 30
0.0
 11
2.785972
 21
1.041248999999999
 31
0.0
  0
LINE
  5
288
330
B
100
AcDbEntity
 67
     1
  8
1
  6
Continuous
 62
    18
100
AcDbLine
 10
1.86729
 20
1.217619
 30
0.0
 11
1.856859999999999
 21
1.218817
 31
0.0
  0
LINE
  5
289
330
B
100
AcDbEntity
 67
     1
  8
1
  6
Continuous
 62
    18
100
AcDbLine
 10
5.722285
 20
3.981412999999999
 30
0.0
 11
5.722285
 21
3.998827999999999
 31
0.0
  0
LINE
  5
28A
330
B
100
AcDbEntity
 67
     1
  8
1
  6
Continuous
 62
    18
100
AcDbLine
 10
2.772838999999999
 20
2.353779999999999
 30
0.0
 11
2.760161
 21
2.360114999999999
 31
0.0
  0
LINE
  5
28B
330
B
100
AcDbEntity
 67
     1
  8
1
  6
Continuous
 62
    18
100
AcDbLine
 10
2.996671
 20
1.329929999999999
 30
0.0
 11
3.020786
 21
1.339917999999999
 31
0.0
  0
LINE
  5
28C
330
B
100
AcDbEntity
 67
     1
  8
1
  6
Continuous
 62
    18
100
AcDbLine
 10
3.009326999999999
 20
4.156455999999999
 30
0.0
 11
2.979183
 21
4.168941
 31
0.0
  0
LINE
  5
28D
330
B
100
AcDbEntity
 67
     1
  8
1
  6
Continuous
 62
    18
100
AcDbLine
 10
2.833047
 20
3.176804999999999
 30
0.0
 11
2.822305
 21
3.176711
 31
0.0
  0
LINE
  5
28E
330
B
100
AcDbEntity
 67
     1
  8
1
  6
Continuous
 62
    18
100
AcDbLine
 10
5.722285
 20
1.468949
 30
0.0
 11
5.827284999999999
 21
1.468949
 31
0.0
  0
LINE
  5
28F
330
B
100
AcDbEntity
 67
     1
  8
1
  6
Continuous
 62
    18
100
AcDbLine
 10
1.615799999999999
 20
6.159262
 30
0.0
 11
1.612475
 21
6.159262
 31
0.0
  0
LINE
  5
290
330
B
100
AcDbEntity
 67
     1
  8
1
  6
Continuous
 62
    18
100
AcDbLine
 10
2.824059
 20
1.219152
 30
0.0
 11
2.834741999999999
 21
1.220353
 31
0.0
  0
LINE
  5
291
330
B
100
AcDbEntity
 67
     1
  8
1
  6
Continuous
 62
    18
100
AcDbLine
 10
2.478134999999999
 20
4.729743
 30
0.0
 11
2.474400999999999
 21
4.729951999999999
 31
0.0
  0
LINE
  5
292
330
B
100
AcDbEntity
 67
     1
  8
1
  6
Continuous
 62
    18
100
AcDbLine
 10
2.977300999999999
 20
1.58787
 30
0.0
 11
2.977300999999999
 21
2.246566
 31
0.0
  0
LINE
  5
293
330
B
100
AcDbEntity
 67
     1
  8
1
  6
Continuous
 62
    18
100
AcDbLine
 10
5.827284999999999
 20
3.992924999999999
 30
0.0
 11
5.827284999999999
 21
4.017039999999999
 31
0.0
  0
LINE
  5
294
330
B
100
AcDbEntity
 67
     1
  8
1
  6
Continuous
 62
    18
100
AcDbLine
 10
2.145529999999999
 20
1.578294
 30
0.0
 11
1.931512999999999
 21
1.578294
 31
0.0
  0
LINE
  5
295
330
B
100
AcDbEntity
 67
     1
  8
1
  6
Continuous
 62
    18
100
AcDbLine
 10
2.642008
 20
4.618030999999999
 30
0.0
 11
2.631527
 21
4.617576999999999
 31
0.0
  0
LINE
  5
296
330
B
100
AcDbEntity
 67
     1
  8
1
  6
Continuous
 62
    18
100
AcDbLine
 10
1.613513999999999
 20
6.099762
 30
0.0
 11
1.612475
 21
6.159262
 31
0.0
  0
LINE
  5
297
330
B
100
AcDbEntity
 67
     1
  8
1
  6
Continuous
 62
    18
100
AcDbLine
 10
2.049595
 20
0.7755220000000001
 30
0.0
 11
1.905630999999999
 21
1.045711
 31
0.0
  0
LINE
  5
298
330
B
100
AcDbEntity
 67
     1
  8
1
  6
Continuous
 62
    18
100
AcDbLine
 10
2.772838999999999
 20
3.177649
 30
0.0
 11
2.427347
 21
3.177649
 31
0.0
  0
LINE
  5
299
330
B
100
AcDbEntity
 67
     1
  8
1
  6
Continuous
 62
    18
100
AcDbLine
 10
1.856859999999999
 20
1.218817
 30
0.0
 11
1.856859999999999
 21
1.220353
 31
0.0
  0
LINE
  5
29A
330
B
100
AcDbEntity
 67
     1
  8
1
  6
Continuous
 62
    18
100
AcDbLine
 10
2.948368999999999
 20
1.218817
 30
0.0
 11
2.946833
 21
1.220353
 31
0.0
  0
LINE
  5
29B
330
B
100
AcDbEntity
 67
     1
  8
1
  6
Continuous
 62
    18
100
AcDbLine
 10
5.827284999999999
 20
1.339917999999999
 30
0.0
 11
5.827284999999999
 21
1.355805999999999
 31
0.0
  0
LINE
  5
29C
330
B
100
AcDbEntity
 67
     1
  8
1
  6
Continuous
 62
    18
100
AcDbLine
 10
1.697634
 20
5.994762
 30
0.0
 11
1.695802
 21
6.099762
 31
0.0
  0
LINE
  5
29D
330
B
100
AcDbEntity
 67
     1
  8
1
  6
Continuous
 62
    18
100
AcDbLine
 10
2.239259
 20
1.107389999999999
 30
0.0
 11
2.452342999999999
 21
1.107389999999999
 31
0.0
  0
LINE
  5
29E
330
B
100
AcDbEntity
 67
     1
  8
1
  6
Continuous
 62
    18
100
AcDbLine
 10
1.815981999999999
 20
2.360015
 30
0.0
 11
1.800166999999999
 21
2.360015
 31
0.0
  0
LINE
  5
29F
330
B
100
AcDbEntity
 67
     1
  8
1
  6
Continuous
 62
    18
100
AcDbLine
 10
3.055210999999999
 20
6.247262
 30
0.0
 11
3.068729999999999
 21
6.247262
 31
0.0
  0
LINE
  5
2A0
330
B
100
AcDbEntity
 67
     1
  8
1
  6
Continuous
 62
    18
100
AcDbLine
 10
1.909797
 20
1.52906
 30
0.0
 11
1.898686999999999
 21
1.528969
 31
0.0
  0
LINE
  5
2A1
330
B
100
AcDbEntity
 67
     1
  8
1
  6
Continuous
 62
    18
100
AcDbLine
 10
5.974784999999999
 20
3.998653
 30
0.0
 11
6.724785
 21
3.992107999999999
 31
0.0
  0
LINE
  5
2A2
330
B
100
AcDbEntity
 67
     1
  8
1
  6
Continuous
 62
    18
100
AcDbLine
 10
2.099516999999999
 20
0.767865
 30
0.0
 11
2.098431
 21
0.766779
 31
0.0
  0
LINE
  5
2A3
330
B
100
AcDbEntity
 67
     1
  8
1
  6
Continuous
 62
    18
100
AcDbLine
 10
1.639813
 20
6.247262
 30
0.0
 11
1.660677999999999
 21
6.247262
 31
0.0
  0
LINE
  5
2A4
330
B
100
AcDbEntity
 67
     1
  8
1
  6
Continuous
 62
    18
100
AcDbLine
 10
5.886784999999999
 20
0.8334479999999999
 30
0.0
 11
5.886784999999999
 21
0.873108
 31
0.0
  0
LINE
  5
2A5
330
B
100
AcDbEntity
 67
     1
  8
1
  6
Continuous
 62
    18
100
AcDbLine
 10
2.648383
 20
6.159262
 30
0.0
 11
2.644057
 21
6.179551999999999
 31
0.0
  0
LINE
  5
2A6
330
B
100
AcDbEntity
 67
     1
  8
1
  6
Continuous
 62
    18
100
AcDbLine
 10
2.544344999999999
 20
2.361013
 30
0.0
 11
2.546143999999999
 21
2.360114999999999
 31
0.0
  0
LINE
  5
2A7
330
B
100
AcDbEntity
 67
     1
  8
1
  6
Continuous
 62
    18
100
AcDbLine
 10
1.952388999999999
 20
6.159262
 30
0.0
 11
1.912582
 21
6.159262
 31
0.0
  0
LINE
  5
2A8
330
B
100
AcDbEntity
 67
     1
  8
1
  6
Continuous
 62
    18
100
AcDbLine
 10
2.49724
 20
0.67302
 30
0.0
 11
2.498326
 21
0.6719340000000001
 31
0.0
  0
LINE
  5
2A9
330
B
100
AcDbEntity
 67
     1
  8
1
  6
Continuous
 62
    18
100
AcDbLine
 10
2.454585999999999
 20
4.288991
 30
0.0
 11
2.237016
 21
4.288991
 31
0.0
  0
LINE
  5
2AA
330
B
100
AcDbEntity
 67
     1
  8
1
  6
Continuous
 62
    18
100
AcDbLine
 10
2.611666
 20
6.159262
 30
0.0
 11
2.631527
 21
6.159262
 31
0.0
  0
LINE
  5
2AB
330
B
100
AcDbEntity
 67
     1
  8
1
  6
Continuous
 62
    18
100
AcDbLine
 10
2.326753
 20
6.247262
 30
0.0
 11
2.316336
 21
6.247262
 31
0.0
  0
LINE
  5
2AC
330
B
100
AcDbEntity
 67
     1
  8
1
  6
Continuous
 62
    18
100
AcDbLine
 10
2.248456
 20
2.360320999999999
 30
0.0
 11
2.241572999999999
 21
2.360393
 31
0.0
  0
LINE
  5
2AD
330
B
100
AcDbEntity
 67
     1
  8
1
  6
Continuous
 62
    18
100
AcDbLine
 10
1.70842
 20
2.351266999999999
 30
0.0
 11
1.70842
 21
2.246823
 31
0.0
  0
LINE
  5
2AE
330
B
100
AcDbEntity
 67
     1
  8
1
  6
Continuous
 62
    18
100
AcDbLine
 10
5.722285
 20
3.896136
 30
0.0
 11
5.722285
 21
3.924604
 31
0.0
  0
LINE
  5
2AF
330
B
100
AcDbEntity
 67
     1
  8
1
  6
Continuous
 62
    18
100
AcDbLine
 10
1.800166999999999
 20
1.536146999999999
 30
0.0
 11
1.784359999999999
 21
1.528242
 31
0.0
  0
LINE
  5
2B0
330
B
100
AcDbEntity
 67
     1
  8
1
  6
Continuous
 62
    18
100
AcDbLine
 10
2.474400999999999
 20
6.159262
 30
0.0
 11
2.217200999999999
 21
6.159262
 31
0.0
  0
LINE
  5
2B1
330
B
100
AcDbEntity
 67
     1
  8
1
  6
Continuous
 62
    18
100
AcDbLine
 10
2.274281999999999
 20
3.175981
 30
0.0
 11
2.274300999999999
 21
3.235392
 31
0.0
  0
LINE
  5
2B2
330
B
100
AcDbEntity
 67
     1
  8
1
  6
Continuous
 62
    18
100
AcDbLine
 10
1.641758
 20
4.038784999999999
 30
0.0
 11
1.662465
 21
4.054673999999999
 31
0.0
  0
LINE
  5
2B3
330
B
100
AcDbEntity
 67
     1
  8
1
  6
Continuous
 62
    18
100
AcDbLine
 10
5.974784999999999
 20
4.365561
 30
0.0
 11
5.974784999999999
 21
4.385553999999999
 31
0.0
  0
LINE
  5
2B4
330
B
100
AcDbEntity
 67
     1
  8
1
  6
Continuous
 62
    18
100
AcDbLine
 10
1.966188999999999
 20
6.247262
 30
0.0
 11
1.929767999999999
 21
6.247262
 31
0.0
  0
LINE
  5
2B5
330
B
100
AcDbEntity
 67
     1
  8
1
  6
Continuous
 62
    18
100
AcDbLine
 10
2.264256
 20
3.177649
 30
0.0
 11
1.918765
 21
3.177649
 31
0.0
  0
LINE
  5
2B6
330
B
100
AcDbEntity
 67
     1
  8
1
  6
Continuous
 62
    18
100
AcDbLine
 10
5.974784999999999
 20
4.349024
 30
0.0
 11
5.974784999999999
 21
4.353204999999999
 31
0.0
  0
LINE
  5
2B7
330
B
100
AcDbEntity
 67
     1
  8
1
  6
Continuous
 62
    18
100
AcDbLine
 10
1.777974
 20
6.099762
 30
0.0
 11
1.777974
 21
5.994762
 31
0.0
  0
LINE
  5
2B8
330
B
100
AcDbEntity
 67
     1
  8
1
  6
Continuous
 62
    18
100
AcDbLine
 10
2.213372999999999
 20
4.731292999999999
 30
0.0
 11
2.217200999999999
 21
4.731505999999999
 31
0.0
  0
LINE
  5
2B9
330
B
100
AcDbEntity
 67
     1
  8
1
  6
Continuous
 62
    18
100
AcDbLine
 10
2.047546
 20
6.179551999999999
 30
0.0
 11
2.047546
 21
6.200225999999999
 31
0.0
  0
LINE
  5
2BA
330
B
100
AcDbEntity
 67
     1
  8
1
  6
Continuous
 62
    18
100
AcDbLine
 10
2.993968
 20
1.586037
 30
0.0
 11
2.993968
 21
1.468949
 31
0.0
  0
LINE
  5
2BB
330
B
100
AcDbEntity
 67
     1
  8
1
  6
Continuous
 62
    18
100
AcDbLine
 10
2.435697
 20
6.247262
 30
0.0
 11
2.445593
 21
6.247262
 31
0.0
  0
LINE
  5
2BC
330
B
100
AcDbEntity
 67
     1
  8
1
  6
Continuous
 62
    18
100
AcDbLine
 10
2.608627999999999
 20
4.619323
 30
0.0
 11
2.611666
 21
4.619152999999999
 31
0.0
  0
LINE
  5
2BD
330
B
100
AcDbEntity
 67
     1
  8
1
  6
Continuous
 62
    18
100
AcDbLine
 10
3.004518
 20
6.159262
 30
0.0
 11
2.999941
 21
6.159262
 31
0.0
  0
LINE
  5
2BE
330
B
100
AcDbEntity
 67
     1
  8
1
  6
Continuous
 62
    18
100
AcDbLine
 10
5.974784999999999
 20
4.727348999999999
 30
0.0
 11
5.974784999999999
 21
4.731529
 31
0.0
  0
LINE
  5
2BF
330
B
100
AcDbEntity
 67
     1
  8
1
  6
Continuous
 62
    18
100
AcDbLine
 10
2.995800999999999
 20
3.924604
 30
0.0
 11
2.995800999999999
 21
3.894302999999999
 31
0.0
  0
LINE
  5
2C0
330
B
100
AcDbEntity
 67
     1
  8
1
  6
Continuous
 62
    18
100
AcDbLine
 10
2.248412
 20
3.18419
 30
0.0
 11
2.241527999999999
 21
3.184261999999999
 31
0.0
  0
LINE
  5
2C1
330
B
100
AcDbEntity
 67
     1
  8
1
  6
Continuous
 62
    18
100
AcDbLine
 10
3.056607
 20
4.112248
 30
0.0
 11
3.069091999999999
 21
4.082105
 31
0.0
  0
LINE
  5
2C2
330
B
100
AcDbEntity
 67
     1
  8
1
  6
Continuous
 62
    18
100
AcDbLine
 10
5.974784999999999
 20
1.343798
 30
0.0
 11
5.974784999999999
 21
1.311447999999999
 31
0.0
  0
LINE
  5
2C3
330
B
100
AcDbEntity
 67
     1
  8
1
  6
Continuous
 62
    18
100
AcDbLine
 10
1.70842
 20
2.351266999999999
 30
0.0
 11
1.703936
 21
2.351266999999999
 31
0.0
  0
LINE
  5
2C4
330
B
100
AcDbEntity
 67
     1
  8
1
  6
Continuous
 62
    18
100
AcDbLine
 10
2.427302
 20
2.353779999999999
 30
0.0
 11
2.417276999999999
 21
2.352110999999999
 31
0.0
  0
LINE
  5
2C5
330
B
100
AcDbEntity
 67
     1
  8
1
  6
Continuous
 62
    18
100
AcDbLine
 10
5.812547
 20
2.246823
 30
0.0
 11
5.812547
 21
2.351266999999999
 31
0.0
  0
LINE
  5
2C6
330
B
100
AcDbEntity
 67
     1
  8
1
  6
Continuous
 62
    18
100
AcDbLine
 10
5.974784999999999
 20
1.236505999999999
 30
0.0
 11
5.974784999999999
 21
1.226712999999999
 31
0.0
  0
LINE
  5
2C7
330
B
100
AcDbEntity
 67
     1
  8
1
  6
Continuous
 62
    18
100
AcDbLine
 10
1.840977999999999
 20
3.18367
 30
0.0
 11
1.839405
 21
3.183740999999999
 31
0.0
  0
LINE
  5
2C8
330
B
100
AcDbEntity
 67
     1
  8
1
  6
Continuous
 62
    18
100
AcDbLine
 10
2.498326
 20
0.6719340000000001
 30
0.0
 11
2.593172
 21
0.766779
 31
0.0
  0
LINE
  5
2C9
330
B
100
AcDbEntity
 67
     1
  8
1
  6
Continuous
 62
    18
100
AcDbLine
 10
5.974784999999999
 20
0.6785600000000001
 30
0.0
 11
5.974784999999999
 21
0.6985520000000001
 31
0.0
  0
LINE
  5
2CA
330
B
100
AcDbEntity
 67
     1
  8
1
  6
Continuous
 62
    18
100
AcDbLine
 10
1.660677999999999
 20
6.247262
 30
0.0
 11
1.685547
 21
6.247262
 31
0.0
  0
LINE
  5
2CB
330
B
100
AcDbEntity
 67
     1
  8
1
  6
Continuous
 62
    18
100
AcDbLine
 10
2.531499999999999
 20
1.536605999999999
 30
0.0
 11
2.519379999999999
 21
1.536524
 31
0.0
  0
LINE
  5
2CC
330
B
100
AcDbEntity
 67
     1
  8
1
  6
Continuous
 62
    18
100
AcDbLine
 10
2.145459
 20
1.536246
 30
0.0
 11
2.147258
 21
1.537144999999999
 31
0.0
  0
LINE
  5
2CD
330
B
100
AcDbEntity
 67
     1
  8
1
  6
Continuous
 62
    18
100
AcDbLine
 10
1.854454
 20
1.529195
 30
0.0
 11
1.840977999999999
 21
1.535932
 31
0.0
  0
LINE
  5
2CE
330
B
100
AcDbEntity
 67
     1
  8
1
  6
Continuous
 62
    18
100
AcDbLine
 10
2.692762
 20
6.247262
 30
0.0
 11
2.665256
 21
6.247262
 31
0.0
  0
LINE
  5
2CF
330
B
100
AcDbEntity
 67
     1
  8
1
  6
Continuous
 62
    18
100
AcDbLine
 10
6.724785
 20
1.434161
 30
0.0
 11
6.724785
 21
1.430356999999999
 31
0.0
  0
LINE
  5
2D0
330
B
100
AcDbEntity
 67
     1
  8
1
  6
Continuous
 62
    18
100
AcDbLine
 10
1.782670999999999
 20
1.527397999999999
 30
0.0
 11
1.782670999999999
 21
1.586037
 31
0.0
  0
LINE
  5
2D1
330
B
100
AcDbEntity
 67
     1
  8
1
  6
Continuous
 62
    18
100
AcDbLine
 10
1.674963
 20
1.237095999999999
 30
0.0
 11
1.705106
 21
1.224612
 31
0.0
  0
LINE
  5
2D2
330
B
100
AcDbEntity
 67
     1
  8
1
  6
Continuous
 62
    18
100
AcDbLine
 10
2.546143999999999
 20
3.183983
 30
0.0
 11
2.545766999999999
 21
3.187320999999999
 31
0.0
  0
LINE
  5
2D3
330
B
100
AcDbEntity
 67
     1
  8
1
  6
Continuous
 62
    18
100
AcDbLine
 10
2.145459
 20
3.183983
 30
0.0
 11
2.147258
 21
3.184881999999999
 31
0.0
  0
LINE
  5
2D4
330
B
100
AcDbEntity
 67
     1
  8
1
  6
Continuous
 62
    18
100
AcDbLine
 10
2.544344999999999
 20
3.184881999999999
 30
0.0
 11
2.540580999999999
 21
3.184568999999999
 31
0.0
  0
LINE
  5
2D5
330
B
100
AcDbEntity
 67
     1
  8
1
  6
Continuous
 62
    18
100
AcDbLine
 10
1.883924999999999
 20
2.352806999999999
 30
0.0
 11
1.869297999999999
 21
2.352841999999999
 31
0.0
  0
LINE
  5
2D6
330
B
100
AcDbEntity
 67
     1
  8
1
  6
Continuous
 62
    18
100
AcDbLine
 10
2.804843999999999
 20
1.208268
 30
0.0
 11
2.794111999999999
 21
1.19601
 31
0.0
  0
LINE
  5
2D7
330
B
100
AcDbEntity
 67
     1
  8
1
  6
Continuous
 62
    18
100
AcDbLine
 10
2.337155
 20
6.247262
 30
0.0
 11
2.326738999999999
 21
6.247262
 31
0.0
  0
LINE
  5
2D8
330
B
100
AcDbEntity
 67
     1
  8
1
  6
Continuous
 62
    18
100
AcDbLine
 10
5.974784999999999
 20
1.226609999999999
 30
0.0
 11
5.974784999999999
 21
1.236505999999999
 31
0.0
  0
LINE
  5
2D9
330
B
100
AcDbEntity
 67
     1
  8
1
  6
Continuous
 62
    18
100
AcDbLine
 10
2.415629
 20
3.175135
 30
0.0
 11
2.415629
 21
3.233718
 31
0.0
  0
LINE
  5
2DA
330
B
100
AcDbEntity
 67
     1
  8
1
  6
Continuous
 62
    18
100
AcDbLine
 10
5.886784999999999
 20
4.413331999999999
 30
0.0
 11
5.886784999999999
 21
4.445419
 31
0.0
  0
LINE
  5
2DB
330
B
100
AcDbEntity
 67
     1
  8
1
  6
Continuous
 62
    18
100
AcDbLine
 10
1.914408
 20
3.176922999999999
 30
0.0
 11
1.909797
 21
3.176797
 31
0.0
  0
LINE
  5
2DC
330
B
100
AcDbEntity
 67
     1
  8
1
  6
Continuous
 62
    18
100
AcDbLine
 10
2.217200999999999
 20
0.662061
 30
0.0
 11
2.206056
 21
0.6639149999999999
 31
0.0
  0
LINE
  5
2DD
330
B
100
AcDbEntity
 67
     1
  8
1
  6
Continuous
 62
    18
100
AcDbLine
 10
5.974784999999999
 20
1.212026999999999
 30
0.0
 11
5.974784999999999
 21
1.196922999999999
 31
0.0
  0
LINE
  5
2DE
330
B
100
AcDbEntity
 67
     1
  8
1
  6
Continuous
 62
    18
100
AcDbLine
 10
5.886784999999999
 20
4.048219
 30
0.0
 11
5.886784999999999
 21
4.080569
 31
0.0
  0
LINE
  5
2DF
330
B
100
AcDbEntity
 67
     1
  8
1
  6
Continuous
 62
    18
100
AcDbLine
 10
2.760089999999999
 20
1.578294
 30
0.0
 11
2.759652999999999
 21
1.547113999999999
 31
0.0
  0
LINE
  5
2E0
330
B
100
AcDbEntity
 67
     1
  8
1
  6
Continuous
 62
    18
100
AcDbLine
 10
1.642797
 20
1.355805999999999
 30
0.0
 11
1.663504
 21
1.339917999999999
 31
0.0
  0
LINE
  5
2E1
330
B
100
AcDbEntity
 67
     1
  8
1
  6
Continuous
 62
    18
100
AcDbLine
 10
5.886784999999999
 20
0.794654
 30
0.0
 11
5.886784999999999
 21
0.8334479999999999
 31
0.0
  0
LINE
  5
2E2
330
B
100
AcDbEntity
 67
     1
  8
1
  6
Continuous
 62
    18
100
AcDbLine
 10
2.787053999999999
 20
1.171129
 30
0.0
 11
2.785518
 21
1.171129
 31
0.0
  0
LINE
  5
2E3
330
B
100
AcDbEntity
 67
     1
  8
1
  6
Continuous
 62
    18
100
AcDbLine
 10
5.886784999999999
 20
4.173199999999999
 30
0.0
 11
5.974784999999999
 21
4.174736
 31
0.0
  0
LINE
  5
2E4
330
B
100
AcDbEntity
 67
     1
  8
1
  6
Continuous
 62
    18
100
AcDbLine
 10
1.612475
 20
1.425469999999999
 30
0.0
 11
1.612475
 21
1.345334
 31
0.0
  0
LINE
  5
2E5
330
B
100
AcDbEntity
 67
     1
  8
1
  6
Continuous
 62
    18
100
AcDbLine
 10
5.722285
 20
3.998827999999999
 30
0.0
 11
5.722285
 21
4.004942999999999
 31
0.0
  0
LINE
  5
2E6
330
B
100
AcDbEntity
 67
     1
  8
1
  6
Continuous
 62
    18
100
AcDbLine
 10
3.020786
 20
1.339917999999999
 30
0.0
 11
3.041493
 21
1.355805999999999
 31
0.0
  0
LINE
  5
2E7
330
B
100
AcDbEntity
 67
     1
  8
1
  6
Continuous
 62
    18
100
AcDbLine
 10
3.071813999999999
 20
1.425469999999999
 30
0.0
 11
3.071813999999999
 21
3.968083
 31
0.0
  0
LINE
  5
2E8
330
B
100
AcDbEntity
 67
     1
  8
1
  6
Continuous
 62
    18
100
AcDbLine
 10
2.822305
 20
3.176711
 30
0.0
 11
2.807677999999999
 21
3.176674999999999
 31
0.0
  0
LINE
  5
2E9
330
B
100
AcDbEntity
 67
     1
  8
1
  6
Continuous
 62
    18
100
AcDbLine
 10
5.827284999999999
 20
1.58787
 30
0.0
 11
5.722285
 21
1.586037
 31
0.0
  0
LINE
  5
2EA
330
B
100
AcDbEntity
 67
     1
  8
1
  6
Continuous
 62
    18
100
AcDbLine
 10
2.251558999999999
 20
2.360145
 30
0.0
 11
2.264300999999999
 21
2.353779999999999
 31
0.0
  0
LINE
  5
2EB
330
B
100
AcDbEntity
 67
     1
  8
1
  6
Continuous
 62
    18
100
AcDbLine
 10
1.674963
 20
4.156455999999999
 30
0.0
 11
1.649079
 21
4.136595999999999
 31
0.0
  0
LINE
  5
2EC
330
B
100
AcDbEntity
 67
     1
  8
1
  6
Continuous
 62
    18
100
AcDbLine
 10
3.004518
 20
6.159262
 30
0.0
 11
3.006054
 21
6.247262
 31
0.0
  0
LINE
  5
2ED
330
B
100
AcDbEntity
 67
     1
  8
1
  6
Continuous
 62
    18
100
AcDbLine
 10
1.840977999999999
 20
2.359801
 30
0.0
 11
1.839405
 21
2.359872999999999
 31
0.0
  0
LINE
  5
2EE
330
B
100
AcDbEntity
 67
     1
  8
1
  6
Continuous
 62
    18
100
AcDbLine
 10
2.217200999999999
 20
4.731529
 30
0.0
 11
2.217200999999999
 21
4.729993
 31
0.0
  0
LINE
  5
2EF
330
B
100
AcDbEntity
 67
     1
  8
1
  6
Continuous
 62
    18
100
AcDbLine
 10
2.977300999999999
 20
2.246566
 30
0.0
 11
1.714300999999999
 21
2.246566
 31
0.0
  0
LINE
  5
2F0
330
B
100
AcDbEntity
 67
     1
  8
1
  6
Continuous
 62
    18
100
AcDbLine
 10
5.827284999999999
 20
4.017039999999999
 30
0.0
 11
5.827284999999999
 21
4.037746
 31
0.0
  0
LINE
  5
2F1
330
B
100
AcDbEntity
 67
     1
  8
1
  6
Continuous
 62
    18
100
AcDbLine
 10
2.644057
 20
4.618030999999999
 30
0.0
 11
2.642008
 21
4.618030999999999
 31
0.0
  0
LINE
  5
2F2
330
B
100
AcDbEntity
 67
     1
  8
1
  6
Continuous
 62
    18
100
AcDbLine
 10
1.713497999999999
 20
6.099762
 30
0.0
 11
1.687618999999999
 21
6.099762
 31
0.0
  0
LINE
  5
2F3
330
B
100
AcDbEntity
 67
     1
  8
1
  6
Continuous
 62
    18
100
AcDbLine
 10
1.905630999999999
 20
1.045711
 30
0.0
 11
1.905630999999999
 21
1.041248999999999
 31
0.0
  0
LINE
  5
2F4
330
B
100
AcDbEntity
 67
     1
  8
1
  6
Continuous
 62
    18
100
AcDbLine
 10
2.993968
 20
3.896136
 30
0.0
 11
2.993968
 21
3.924604
 31
0.0
  0
LINE
  5
2F5
330
B
100
AcDbEntity
 67
     1
  8
1
  6
Continuous
 62
    18
100
AcDbLine
 10
5.886784999999999
 20
4.184108
 30
0.0
 11
5.886784999999999
 21
4.196781999999999
 31
0.0
  0
LINE
  5
2F6
330
B
100
AcDbEntity
 67
     1
  8
1
  6
Continuous
 62
    18
100
AcDbLine
 10
2.417331
 20
3.175981
 30
0.0
 11
2.427347
 21
3.177649
 31
0.0
  0
LINE
  5
2F7
330
B
100
AcDbEntity
 67
     1
  8
1
  6
Continuous
 62
    18
100
AcDbLine
 10
1.615197
 20
1.311447999999999
 30
0.0
 11
1.610938999999999
 21
1.343798
 31
0.0
  0
LINE
  5
2F8
330
B
100
AcDbEntity
 67
     1
  8
1
  6
Continuous
 62
    18
100
AcDbLine
 10
1.737456
 20
1.220353
 30
0.0
 11
1.856859999999999
 21
1.220353
 31
0.0
  0
LINE
  5
2F9
330
B
100
AcDbEntity
 67
     1
  8
1
  6
Continuous
 62
    18
100
AcDbLine
 10
5.827284999999999
 20
1.355805999999999
 30
0.0
 11
5.827284999999999
 21
1.376512999999999
 31
0.0
  0
LINE
  5
2FA
330
B
100
AcDbEntity
 67
     1
  8
1
  6
Continuous
 62
    18
100
AcDbLine
 10
2.450029999999999
 20
2.360393
 30
0.0
 11
2.443146
 21
2.360320999999999
 31
0.0
  0
LINE
  5
2FB
330
B
100
AcDbEntity
 67
     1
  8
1
  6
Continuous
 62
    18
100
AcDbLine
 10
2.193293
 20
6.247262
 30
0.0
 11
2.202497999999999
 21
6.247262
 31
0.0
  0
LINE
  5
2FC
330
B
100
AcDbEntity
 67
     1
  8
1
  6
Continuous
 62
    18
100
AcDbLine
 10
2.983277999999999
 20
2.411576999999999
 30
0.0
 11
2.981606999999999
 21
2.409904999999999
 31
0.0
  0
LINE
  5
2FD
330
B
100
AcDbEntity
 67
     1
  8
1
  6
Continuous
 62
    18
100
AcDbLine
 10
3.068729999999999
 20
6.247262
 30
0.0
 11
3.07335
 21
6.247262
 31
0.0
  0
LINE
  5
2FE
330
B
100
AcDbEntity
 67
     1
  8
1
  6
Continuous
 62
    18
100
AcDbLine
 10
2.079936
 20
0.775941
 30
0.0
 11
2.089056
 21
0.7744290000000001
 31
0.0
  0
LINE
  5
2FF
330
B
100
AcDbEntity
 67
     1
  8
1
  6
Continuous
 62
    18
100
AcDbLine
 10
5.886784999999999
 20
0.873108
 30
0.0
 11
5.886784999999999
 21
0.9119019999999999
 31
0.0
  0
LINE
  5
300
330
B
100
AcDbEntity
 67
     1
  8
1
  6
Continuous
 62
    18
100
AcDbLine
 10
2.833047
 20
1.529068
 30
0.0
 11
2.822305
 21
1.528974
 31
0.0
  0
LINE
  5
301
330
B
100
AcDbEntity
 67
     1
  8
1
  6
Continuous
 62
    18
100
AcDbLine
 10
2.390550999999999
 20
1.212776999999999
 30
0.0
 11
2.301050999999999
 21
1.212776999999999
 31
0.0
  0
LINE
  5
302
330
B
100
AcDbEntity
 67
     1
  8
1
  6
Continuous
 62
    18
100
AcDbLine
 10
3.07335
 20
3.948655
 30
0.0
 11
3.07335
 21
1.477613999999999
 31
0.0
  0
LINE
  5
303
330
B
100
AcDbEntity
 67
     1
  8
1
  6
Continuous
 62
    18
100
AcDbLine
 10
2.642008
 20
6.185262
 30
0.0
 11
2.631527
 21
6.159262
 31
0.0
  0
LINE
  5
304
330
B
100
AcDbEntity
 67
     1
  8
1
  6
Continuous
 62
    18
100
AcDbLine
 10
1.70842
 20
2.246823
 30
0.0
 11
1.709995
 21
2.248397999999999
 31
0.0
  0
LINE
  5
305
330
B
100
AcDbEntity
 67
     1
  8
1
  6
Continuous
 62
    18
100
AcDbLine
 10
1.784359999999999
 20
1.528242
 30
0.0
 11
1.784341999999999
 21
1.587707999999999
 31
0.0
  0
LINE
  5
306
330
B
100
AcDbEntity
 67
     1
  8
1
  6
Continuous
 62
    18
100
AcDbLine
 10
1.782670999999999
 20
1.527397999999999
 30
0.0
 11
1.784359999999999
 21
1.528242
 31
0.0
  0
LINE
  5
307
330
B
100
AcDbEntity
 67
     1
  8
1
  6
Continuous
 62
    18
100
AcDbLine
 10
3.055070999999999
 20
1.282840999999999
 30
0.0
 11
3.067556
 21
1.312983999999999
 31
0.0
  0
LINE
  5
308
330
B
100
AcDbEntity
 67
     1
  8
1
  6
Continuous
 62
    18
100
AcDbLine
 10
1.703936
 20
3.070508999999999
 30
0.0
 11
1.70842
 21
3.070691999999999
 31
0.0
  0
LINE
  5
309
330
B
100
AcDbEntity
 67
     1
  8
1
  6
Continuous
 62
    18
100
AcDbLine
 10
2.194361999999999
 20
6.159262
 30
0.0
 11
2.193276
 21
6.247262
 31
0.0
  0
LINE
  5
30A
330
B
100
AcDbEntity
 67
     1
  8
1
  6
Continuous
 62
    18
100
AcDbLine
 10
1.662465
 20
4.054673999999999
 30
0.0
 11
1.68658
 21
4.064662
 31
0.0
  0
LINE
  5
30B
330
B
100
AcDbEntity
 67
     1
  8
1
  6
Continuous
 62
    18
100
AcDbLine
 10
1.918765
 20
3.177649
 30
0.0
 11
1.914408
 21
3.176922999999999
 31
0.0
  0
LINE
  5
30C
330
B
100
AcDbEntity
 67
     1
  8
1
  6
Continuous
 62
    18
100
AcDbLine
 10
5.974784999999999
 20
4.353204999999999
 30
0.0
 11
5.974784999999999
 21
4.365561
 31
0.0
  0
LINE
  5
30D
330
B
100
AcDbEntity
 67
     1
  8
1
  6
Continuous
 62
    18
100
AcDbLine
 10
2.474400999999999
 20
4.731529
 30
0.0
 11
2.217200999999999
 21
4.731529
 31
0.0
  0
LINE
  5
30E
330
B
100
AcDbEntity
 67
     1
  8
1
  6
Continuous
 62
    18
100
AcDbLine
 10
2.047546
 20
6.200225999999999
 30
0.0
 11
2.047546
 21
6.247262
 31
0.0
  0
LINE
  5
30F
330
B
100
AcDbEntity
 67
     1
  8
1
  6
Continuous
 62
    18
100
AcDbLine
 10
2.993968
 20
1.468949
 30
0.0
 11
2.995800999999999
 21
1.468949
 31
0.0
  0
LINE
  5
310
330
B
100
AcDbEntity
 67
     1
  8
1
  6
Continuous
 62
    18
100
AcDbLine
 10
2.272877999999999
 20
6.247262
 30
0.0
 11
2.252777
 21
6.247262
 31
0.0
  0
LINE
  5
311
330
B
100
AcDbEntity
 67
     1
  8
1
  6
Continuous
 62
    18
100
AcDbLine
 10
2.644057
 20
4.619112999999999
 30
0.0
 11
2.611666
 21
4.619112999999999
 31
0.0
  0
LINE
  5
312
330
B
100
AcDbEntity
 67
     1
  8
1
  6
Continuous
 62
    18
100
AcDbLine
 10
5.974784999999999
 20
4.222424
 30
0.0
 11
5.974784999999999
 21
4.349024
 31
0.0
  0
LINE
  5
313
330
B
100
AcDbEntity
 67
     1
  8
1
  6
Continuous
 62
    18
100
AcDbLine
 10
2.264300999999999
 20
1.529912
 30
0.0
 11
2.251558999999999
 21
1.536275999999999
 31
0.0
  0
LINE
  5
314
330
B
100
AcDbEntity
 67
     1
  8
1
  6
Continuous
 62
    18
100
AcDbLine
 10
5.886784999999999
 20
4.222424
 30
0.0
 11
5.886784999999999
 21
4.328568999999999
 31
0.0
  0
LINE
  5
315
330
B
100
AcDbEntity
 67
     1
  8
1
  6
Continuous
 62
    18
100
AcDbLine
 10
2.485545999999999
 20
6.247262
 30
0.0
 11
2.495445
 21
6.247262
 31
0.0
  0
LINE
  5
316
330
B
100
AcDbEntity
 67
     1
  8
1
  6
Continuous
 62
    18
100
AcDbLine
 10
2.995800999999999
 20
3.924604
 30
0.0
 11
2.993968
 21
3.924604
 31
0.0
  0
LINE
  5
317
330
B
100
AcDbEntity
 67
     1
  8
1
  6
Continuous
 62
    18
100
AcDbLine
 10
2.241527999999999
 20
3.184261999999999
 30
0.0
 11
2.172224
 21
3.184261999999999
 31
0.0
  0
LINE
  5
318
330
B
100
AcDbEntity
 67
     1
  8
1
  6
Continuous
 62
    18
100
AcDbLine
 10
3.069091999999999
 20
4.082105
 30
0.0
 11
3.07335
 21
4.049755
 31
0.0
  0
LINE
  5
319
330
B
100
AcDbEntity
 67
     1
  8
1
  6
Continuous
 62
    18
100
AcDbLine
 10
5.974784999999999
 20
1.311447999999999
 30
0.0
 11
5.974784999999999
 21
1.281304999999999
 31
0.0
  0
LINE
  5
31A
330
B
100
AcDbEntity
 67
     1
  8
1
  6
Continuous
 62
    18
100
AcDbLine
 10
5.974784999999999
 20
1.196922999999999
 30
0.0
 11
5.974784999999999
 21
1.226609999999999
 31
0.0
  0
LINE
  5
31B
330
B
100
AcDbEntity
 67
     1
  8
1
  6
Continuous
 62
    18
100
AcDbLine
 10
1.839405
 20
3.183740999999999
 30
0.0
 11
1.835237
 21
3.183804999999999
 31
0.0
  0
LINE
  5
31C
330
B
100
AcDbEntity
 67
     1
  8
1
  6
Continuous
 62
    18
100
AcDbLine
 10
5.974784999999999
 20
4.599376999999999
 30
0.0
 11
5.974784999999999
 21
4.635901999999999
 31
0.0
  0
LINE
  5
31D
330
B
100
AcDbEntity
 67
     1
  8
1
  6
Continuous
 62
    18
100
AcDbLine
 10
5.974784999999999
 20
0.6985520000000001
 30
0.0
 11
5.974784999999999
 21
0.725305
 31
0.0
  0
LINE
  5
31E
330
B
100
AcDbEntity
 67
     1
  8
1
  6
Continuous
 62
    18
100
AcDbLine
 10
2.450029999999999
 20
1.536524
 30
0.0
 11
2.519379999999999
 21
1.536524
 31
0.0
  0
LINE
  5
31F
330
B
100
AcDbEntity
 67
     1
  8
1
  6
Continuous
 62
    18
100
AcDbLine
 10
2.545634999999999
 20
3.194850999999999
 30
0.0
 11
2.759652999999999
 21
3.194850999999999
 31
0.0
  0
LINE
  5
320
330
B
100
AcDbEntity
 67
     1
  8
1
  6
Continuous
 62
    18
100
AcDbLine
 10
1.840977999999999
 20
1.535932
 30
0.0
 11
1.837485999999999
 21
1.53604
 31
0.0
  0
LINE
  5
321
330
B
100
AcDbEntity
 67
     1
  8
1
  6
Continuous
 62
    18
100
AcDbLine
 10
2.665256
 20
6.247262
 30
0.0
 11
2.644057
 21
6.247262
 31
0.0
  0
LINE
  5
322
330
B
100
AcDbEntity
 67
     1
  8
1
  6
Continuous
 62
    18
100
AcDbLine
 10
1.714300999999999
 20
2.246566
 30
0.0
 11
1.693422
 21
2.246566
 31
0.0
  0
LINE
  5
323
330
B
100
AcDbEntity
 67
     1
  8
1
  6
Continuous
 62
    18
100
AcDbLine
 10
2.593193999999999
 20
4.626795999999999
 30
0.0
 11
2.60026
 21
4.621734
 31
0.0
  0
LINE
  5
324
330
B
100
AcDbEntity
 67
     1
  8
1
  6
Continuous
 62
    18
100
AcDbLine
 10
2.147258
 20
3.184881999999999
 30
0.0
 11
2.147258
 21
3.225743999999999
 31
0.0
  0
LINE
  5
325
330
B
100
AcDbEntity
 67
     1
  8
1
  6
Continuous
 62
    18
100
AcDbLine
 10
2.540580999999999
 20
3.184568999999999
 30
0.0
 11
2.531499999999999
 21
3.184343999999999
 31
0.0
  0
LINE
  5
326
330
B
100
AcDbEntity
 67
     1
  8
1
  6
Continuous
 62
    18
100
AcDbLine
 10
1.869297999999999
 20
2.352841999999999
 30
0.0
 11
1.858556
 21
2.352936
 31
0.0
  0
LINE
  5
327
330
B
100
AcDbEntity
 67
     1
  8
1
  6
Continuous
 62
    18
100
AcDbLine
 10
2.495445
 20
6.247262
 30
0.0
 11
2.498308999999999
 21
6.247262
 31
0.0
  0
LINE
  5
328
330
B
100
AcDbEntity
 67
     1
  8
1
  6
Continuous
 62
    18
100
AcDbLine
 10
2.794111999999999
 20
1.19601
 30
0.0
 11
2.788251999999999
 21
1.181559
 31
0.0
  0
LINE
  5
329
330
B
100
AcDbEntity
 67
     1
  8
1
  6
Continuous
 62
    18
100
AcDbLine
 10
2.242983999999999
 20
6.247262
 30
0.0
 11
2.252777
 21
6.247262
 31
0.0
  0
LINE
  5
32A
330
B
100
AcDbEntity
 67
     1
  8
1
  6
Continuous
 62
    18
100
AcDbLine
 10
5.974784999999999
 20
1.197335
 30
0.0
 11
5.974784999999999
 21
1.187542
 31
0.0
  0
LINE
  5
32B
330
B
100
AcDbEntity
 67
     1
  8
1
  6
Continuous
 62
    18
100
AcDbLine
 10
1.894015999999999
 20
4.351342999999999
 30
0.0
 11
1.905216999999999
 21
4.352241
 31
0.0
  0
LINE
  5
32C
330
B
100
AcDbEntity
 67
     1
  8
1
  6
Continuous
 62
    18
100
AcDbLine
 10
2.145967999999999
 20
2.370983
 30
0.0
 11
2.145836999999999
 21
2.363452
 31
0.0
  0
LINE
  5
32D
330
B
100
AcDbEntity
 67
     1
  8
1
  6
Continuous
 62
    18
100
AcDbLine
 10
5.822983999999999
 20
2.246640999999999
 30
0.0
 11
5.827284999999999
 21
2.246566
 31
0.0
  0
LINE
  5
32E
330
B
100
AcDbEntity
 67
     1
  8
1
  6
Continuous
 62
    18
100
AcDbLine
 10
2.196158
 20
0.669391
 30
0.0
 11
2.193293999999999
 21
0.6719520000000001
 31
0.0
  0
LINE
  5
32F
330
B
100
AcDbEntity
 67
     1
  8
1
  6
Continuous
 62
    18
100
AcDbLine
 10
2.998179999999999
 20
2.246566
 30
0.0
 11
2.977300999999999
 21
2.246566
 31
0.0
  0
LINE
  5
330
330
B
100
AcDbEntity
 67
     1
  8
1
  6
Continuous
 62
    18
100
AcDbLine
 10
2.474400999999999
 20
0.6635870000000001
 30
0.0
 11
2.485047999999999
 21
0.665367
 31
0.0
  0
LINE
  5
331
330
B
100
AcDbEntity
 67
     1
  8
1
  6
Continuous
 62
    18
100
AcDbLine
 10
5.886784999999999
 20
1.425469999999999
 30
0.0
 11
5.886784999999999
 21
3.968083
 31
0.0
  0
LINE
  5
332
330
B
100
AcDbEntity
 67
     1
  8
1
  6
Continuous
 62
    18
100
AcDbLine
 10
1.663504
 20
1.339917999999999
 30
0.0
 11
1.687618999999999
 21
1.329929999999999
 31
0.0
  0
LINE
  5
333
330
B
100
AcDbEntity
 67
     1
  8
1
  6
Continuous
 62
    18
100
AcDbLine
 10
2.099491999999999
 20
4.625712
 30
0.0
 11
2.091974
 21
4.620333
 31
0.0
  0
LINE
  5
334
330
B
100
AcDbEntity
 67
     1
  8
1
  6
Continuous
 62
    18
100
AcDbLine
 10
2.785518
 20
1.064983
 30
0.0
 11
2.785518
 21
1.171129
 31
0.0
  0
LINE
  5
335
330
B
100
AcDbEntity
 67
     1
  8
1
  6
Continuous
 62
    18
100
AcDbLine
 10
5.886784999999999
 20
4.222424
 30
0.0
 11
5.974784999999999
 21
4.222424
 31
0.0
  0
LINE
  5
336
330
B
100
AcDbEntity
 67
     1
  8
1
  6
Continuous
 62
    18
100
AcDbLine
 10
3.058419999999999
 20
4.018078
 30
0.0
 11
3.068408
 21
3.993962999999999
 31
0.0
  0
LINE
  5
337
330
B
100
AcDbEntity
 67
     1
  8
1
  6
Continuous
 62
    18
100
AcDbLine
 10
1.626908
 20
1.376512999999999
 30
0.0
 11
1.642797
 21
1.355805999999999
 31
0.0
  0
LINE
  5
338
330
B
100
AcDbEntity
 67
     1
  8
1
  6
Continuous
 62
    18
100
AcDbLine
 10
2.875620999999999
 20
1.536146999999999
 30
0.0
 11
2.863247
 21
1.536118
 31
0.0
  0
LINE
  5
339
330
B
100
AcDbEntity
 67
     1
  8
1
  6
Continuous
 62
    18
100
AcDbLine
 10
2.151022
 20
2.360700999999999
 30
0.0
 11
2.147258
 21
2.361013
 31
0.0
  0
LINE
  5
33A
330
B
100
AcDbEntity
 67
     1
  8
1
  6
Continuous
 62
    18
100
AcDbLine
 10
2.759783999999999
 20
3.187320999999999
 30
0.0
 11
2.760161
 21
3.183983
 31
0.0
  0
LINE
  5
33B
330
B
100
AcDbEntity
 67
     1
  8
1
  6
Continuous
 62
    18
100
AcDbLine
 10
3.041493
 20
1.355805999999999
 30
0.0
 11
3.057381
 21
1.376512999999999
 31
0.0
  0
LINE
  5
33C
330
B
100
AcDbEntity
 67
     1
  8
1
  6
Continuous
 62
    18
100
AcDbLine
 10
2.464877999999999
 20
6.247262
 30
0.0
 11
2.445085999999999
 21
6.247262
 31
0.0
  0
LINE
  5
33D
330
B
100
AcDbEntity
 67
     1
  8
1
  6
Continuous
 62
    18
100
AcDbLine
 10
3.071813999999999
 20
1.345334
 30
0.0
 11
3.071813999999999
 21
1.425469999999999
 31
0.0
  0
LINE
  5
33E
330
B
100
AcDbEntity
 67
     1
  8
1
  6
Continuous
 62
    18
100
AcDbLine
 10
2.807677999999999
 20
3.176674999999999
 30
0.0
 11
2.792915999999999
 21
3.176706999999999
 31
0.0
  0
LINE
  5
33F
330
B
100
AcDbEntity
 67
     1
  8
1
  6
Continuous
 62
    18
100
AcDbLine
 10
5.812547
 20
2.246823
 30
0.0
 11
5.822983999999999
 21
2.246640999999999
 31
0.0
  0
LINE
  5
340
330
B
100
AcDbEntity
 67
     1
  8
1
  6
Continuous
 62
    18
100
AcDbLine
 10
2.944877999999999
 20
6.247262
 30
0.0
 11
2.913496999999999
 21
6.247262
 31
0.0
  0
LINE
  5
341
330
B
100
AcDbEntity
 67
     1
  8
1
  6
Continuous
 62
    18
100
AcDbLine
 10
2.251514999999999
 20
3.184013
 30
0.0
 11
2.264256
 21
3.177649
 31
0.0
  0
LINE
  5
342
330
B
100
AcDbEntity
 67
     1
  8
1
  6
Continuous
 62
    18
100
AcDbLine
 10
2.445085999999999
 20
6.247262
 30
0.0
 11
2.425294
 21
6.247262
 31
0.0
  0
LINE
  5
343
330
B
100
AcDbEntity
 67
     1
  8
1
  6
Continuous
 62
    18
100
AcDbLine
 10
2.474400999999999
 20
4.729993
 30
0.0
 11
2.217200999999999
 21
4.729993
 31
0.0
  0
LINE
  5
344
330
B
100
AcDbEntity
 67
     1
  8
1
  6
Continuous
 62
    18
100
AcDbLine
 10
2.772838999999999
 20
2.353779999999999
 30
0.0
 11
2.777194999999999
 21
2.353054999999999
 31
0.0
  0
LINE
  5
345
330
B
100
AcDbEntity
 67
     1
  8
1
  6
Continuous
 62
    18
100
AcDbLine
 10
5.827284999999999
 20
4.037746
 30
0.0
 11
5.827284999999999
 21
4.053634999999999
 31
0.0
  0
LINE
  5
346
330
B
100
AcDbEntity
 67
     1
  8
1
  6
Continuous
 62
    18
100
AcDbLine
 10
2.592084999999999
 20
4.625687999999999
 30
0.0
 11
2.593172
 21
4.626774
 31
0.0
  0
LINE
  5
347
330
B
100
AcDbEntity
 67
     1
  8
1
  6
Continuous
 62
    18
100
AcDbLine
 10
2.544344999999999
 20
1.537144999999999
 30
0.0
 11
2.544344999999999
 21
1.578006
 31
0.0
  0
LINE
  5
348
330
B
100
AcDbEntity
 67
     1
  8
1
  6
Continuous
 62
    18
100
AcDbLine
 10
1.687618999999999
 20
6.099762
 30
0.0
 11
1.663504
 21
6.099762
 31
0.0
  0
LINE
  5
349
330
B
100
AcDbEntity
 67
     1
  8
1
  6
Continuous
 62
    18
100
AcDbLine
 10
5.886784999999999
 20
4.196781999999999
 30
0.0
 11
5.886784999999999
 21
4.211740999999999
 31
0.0
  0
LINE
  5
34A
330
B
100
AcDbEntity
 67
     1
  8
1
  6
Continuous
 62
    18
100
AcDbLine
 10
3.067193999999999
 20
6.159262
 30
0.0
 11
3.053675
 21
6.159262
 31
0.0
  0
LINE
  5
34B
330
B
100
AcDbEntity
 67
     1
  8
1
  6
Continuous
 62
    18
100
AcDbLine
 10
2.415629
 20
3.175135
 30
0.0
 11
2.417320999999999
 21
3.175981
 31
0.0
  0
LINE
  5
34C
330
B
100
AcDbEntity
 67
     1
  8
1
  6
Continuous
 62
    18
100
AcDbLine
 10
2.760161
 20
2.360114999999999
 30
0.0
 11
2.546143999999999
 21
2.360114999999999
 31
0.0
  0
LINE
  5
34D
330
B
100
AcDbEntity
 67
     1
  8
1
  6
Continuous
 62
    18
100
AcDbLine
 10
2.760089999999999
 20
1.578294
 30
0.0
 11
2.546072999999999
 21
1.578294
 31
0.0
  0
LINE
  5
34E
330
B
100
AcDbEntity
 67
     1
  8
1
  6
Continuous
 62
    18
100
AcDbLine
 10
1.737456
 20
1.220353
 30
0.0
 11
1.73592
 21
1.218817
 31
0.0
  0
LINE
  5
34F
330
B
100
AcDbEntity
 67
     1
  8
1
  6
Continuous
 62
    18
100
AcDbLine
 10
2.326738999999999
 20
6.247262
 30
0.0
 11
2.307468
 21
6.247262
 31
0.0
  0
LINE
  5
350
330
B
100
AcDbEntity
 67
     1
  8
1
  6
Continuous
 62
    18
100
AcDbLine
 10
5.722285
 20
3.955349
 30
0.0
 11
5.722285
 21
3.981412999999999
 31
0.0
  0
LINE
  5
351
330
B
100
AcDbEntity
 67
     1
  8
1
  6
Continuous
 62
    18
100
AcDbLine
 10
5.886784999999999
 20
4.173199999999999
 30
0.0
 11
5.886784999999999
 21
4.176064
 31
0.0
  0
LINE
  5
352
330
B
100
AcDbEntity
 67
     1
  8
1
  6
Continuous
 62
    18
100
AcDbLine
 10
5.827284999999999
 20
1.376512999999999
 30
0.0
 11
5.827284999999999
 21
1.400628
 31
0.0
  0
LINE
  5
353
330
B
100
AcDbEntity
 67
     1
  8
1
  6
Continuous
 62
    18
100
AcDbLine
 10
3.070775999999999
 20
6.099762
 30
0.0
 11
3.067368999999999
 21
6.099762
 31
0.0
  0
LINE
  5
354
330
B
100
AcDbEntity
 67
     1
  8
1
  6
Continuous
 62
    18
100
AcDbLine
 10
2.452342999999999
 20
1.005163
 30
0.0
 11
2.239259
 21
1.005163
 31
0.0
  0
LINE
  5
355
330
B
100
AcDbEntity
 67
     1
  8
1
  6
Continuous
 62
    18
100
AcDbLine
 10
2.306947
 20
6.247262
 30
0.0
 11
2.327259999999999
 21
6.247262
 31
0.0
  0
LINE
  5
356
330
B
100
AcDbEntity
 67
     1
  8
1
  6
Continuous
 62
    18
100
AcDbLine
 10
2.202497999999999
 20
6.247262
 30
0.0
 11
2.213372999999999
 21
6.247262
 31
0.0
  0
LINE
  5
357
330
B
100
AcDbEntity
 67
     1
  8
1
  6
Continuous
 62
    18
100
AcDbLine
 10
2.907261
 20
2.411576999999999
 30
0.0
 11
2.983277999999999
 21
2.411576999999999
 31
0.0
  0
LINE
  5
358
330
B
100
AcDbEntity
 67
     1
  8
1
  6
Continuous
 62
    18
100
AcDbLine
 10
2.644057
 20
6.247262
 30
0.0
 11
2.644057
 21
6.179551999999999
 31
0.0
  0
LINE
  5
359
330
B
100
AcDbEntity
 67
     1
  8
1
  6
Continuous
 62
    18
100
AcDbLine
 10
2.970791
 20
1.326522999999999
 30
0.0
 11
2.996671
 21
1.329929999999999
 31
0.0
  0
LINE
  5
35A
330
B
100
AcDbEntity
 67
     1
  8
1
  6
Continuous
 62
    18
100
AcDbLine
 10
2.089056
 20
0.7744290000000001
 30
0.0
 11
2.097154999999999
 21
0.769944
 31
0.0
  0
LINE
  5
35B
330
B
100
AcDbEntity
 67
     1
  8
1
  6
Continuous
 62
    18
100
AcDbLine
 10
2.047546
 20
6.247262
 30
0.0
 11
2.026345999999999
 21
6.247262
 31
0.0
  0
LINE
  5
35C
330
B
100
AcDbEntity
 67
     1
  8
1
  6
Continuous
 62
    18
100
AcDbLine
 10
5.886784999999999
 20
0.9119019999999999
 30
0.0
 11
5.886784999999999
 21
0.9481339999999999
 31
0.0
  0
LINE
  5
35D
330
B
100
AcDbEntity
 67
     1
  8
1
  6
Continuous
 62
    18
100
AcDbLine
 10
2.999941
 20
6.159262
 30
0.0
 11
2.986434999999999
 21
6.159262
 31
0.0
  0
LINE
  5
35E
330
B
100
AcDbEntity
 67
     1
  8
1
  6
Continuous
 62
    18
100
AcDbLine
 10
1.70842
 20
3.175135
 30
0.0
 11
1.70842
 21
3.070691999999999
 31
0.0
  0
LINE
  5
35F
330
B
100
AcDbEntity
 67
     1
  8
1
  6
Continuous
 62
    18
100
AcDbLine
 10
1.610938999999999
 20
1.477613999999999
 30
0.0
 11
1.610938999999999
 21
3.948655
 31
0.0
  0
LINE
  5
360
330
B
100
AcDbEntity
 67
     1
  8
1
  6
Continuous
 62
    18
100
AcDbLine
 10
1.73592
 20
1.218817
 30
0.0
 11
1.856859999999999
 21
1.218817
 31
0.0
  0
LINE
  5
361
330
B
100
AcDbEntity
 67
     1
  8
1
  6
Continuous
 62
    18
100
AcDbLine
 10
2.644057
 20
6.185262
 30
0.0
 11
2.642008
 21
6.185262
 31
0.0
  0
LINE
  5
362
330
B
100
AcDbEntity
 67
     1
  8
1
  6
Continuous
 62
    18
100
AcDbLine
 10
2.834741999999999
 20
1.220353
 30
0.0
 11
2.946833
 21
1.220353
 31
0.0
  0
LINE
  5
363
330
B
100
AcDbEntity
 67
     1
  8
1
  6
Continuous
 62
    18
100
AcDbLine
 10
1.709995
 20
2.409904999999999
 30
0.0
 11
1.709995
 21
2.248397999999999
 31
0.0
  0
LINE
  5
364
330
B
100
AcDbEntity
 67
     1
  8
1
  6
Continuous
 62
    18
100
AcDbLine
 10
2.276025999999999
 20
1.527397999999999
 30
0.0
 11
1.782670999999999
 21
1.527397999999999
 31
0.0
  0
LINE
  5
365
330
B
100
AcDbEntity
 67
     1
  8
1
  6
Continuous
 62
    18
100
AcDbLine
 10
2.545766999999999
 20
3.187320999999999
 30
0.0
 11
2.545634999999999
 21
3.194850999999999
 31
0.0
  0
LINE
  5
366
330
B
100
AcDbEntity
 67
     1
  8
1
  6
Continuous
 62
    18
100
AcDbLine
 10
1.815981999999999
 20
1.536146999999999
 30
0.0
 11
1.800166999999999
 21
1.536146999999999
 31
0.0
  0
LINE
  5
367
330
B
100
AcDbEntity
 67
     1
  8
1
  6
Continuous
 62
    18
100
AcDbLine
 10
1.70842
 20
3.175135
 30
0.0
 11
1.703936
 21
3.175135
 31
0.0
  0
LINE
  5
368
330
B
100
AcDbEntity
 67
     1
  8
1
  6
Continuous
 62
    18
100
AcDbLine
 10
2.217200999999999
 20
6.159262
 30
0.0
 11
2.206554999999999
 21
6.159262
 31
0.0
  0
LINE
  5
369
330
B
100
AcDbEntity
 67
     1
  8
1
  6
Continuous
 62
    18
100
AcDbLine
 10
2.631527
 20
4.617576999999999
 30
0.0
 11
2.785518
 21
4.328568999999999
 31
0.0
  0
LINE
  5
36A
330
B
100
AcDbEntity
 67
     1
  8
1
  6
Continuous
 62
    18
100
AcDbLine
 10
1.68658
 20
4.064662
 30
0.0
 11
1.712459999999999
 21
4.068068
 31
0.0
  0
LINE
  5
36B
330
B
100
AcDbEntity
 67
     1
  8
1
  6
Continuous
 62
    18
100
AcDbLine
 10
1.612475
 20
4.048219
 30
0.0
 11
1.612475
 21
3.968083
 31
0.0
  0
LINE
  5
36C
330
B
100
AcDbEntity
 67
     1
  8
1
  6
Continuous
 62
    18
100
AcDbLine
 10
2.237016
 20
4.385562
 30
0.0
 11
2.454585999999999
 21
4.385562
 31
0.0
  0
LINE
  5
36D
330
B
100
AcDbEntity
 67
     1
  8
1
  6
Continuous
 62
    18
100
AcDbLine
 10
2.474400999999999
 20
4.731492
 30
0.0
 11
2.485545999999999
 21
4.729637999999999
 31
0.0
  0
LINE
  5
36E
330
B
100
AcDbEntity
 67
     1
  8
1
  6
Continuous
 62
    18
100
AcDbLine
 10
2.04322
 20
6.159262
 30
0.0
 11
2.019322
 21
6.159262
 31
0.0
  0
LINE
  5
36F
330
B
100
AcDbEntity
 67
     1
  8
1
  6
Continuous
 62
    18
100
AcDbLine
 10
2.995800999999999
 20
1.58787
 30
0.0
 11
2.995800999999999
 21
1.468949
 31
0.0
  0
LINE
  5
370
330
B
100
AcDbEntity
 67
     1
  8
1
  6
Continuous
 62
    18
100
AcDbLine
 10
2.40653
 20
6.247262
 30
0.0
 11
2.416425999999999
 21
6.247262
 31
0.0
  0
LINE
  5
371
330
B
100
AcDbEntity
 67
     1
  8
1
  6
Continuous
 62
    18
100
AcDbLine
 10
2.546072999999999
 20
1.578294
 30
0.0
 11
2.545634999999999
 21
1.547113999999999
 31
0.0
  0
LINE
  5
372
330
B
100
AcDbEntity
 67
     1
  8
1
  6
Continuous
 62
    18
100
AcDbLine
 10
2.785518
 20
4.222424
 30
0.0
 11
2.787053999999999
 21
4.222424
 31
0.0
  0
LINE
  5
373
330
B
100
AcDbEntity
 67
     1
  8
1
  6
Continuous
 62
    18
100
AcDbLine
 10
2.995800999999999
 20
3.894302999999999
 30
0.0
 11
2.993968
 21
3.896136
 31
0.0
  0
LINE
  5
374
330
B
100
AcDbEntity
 67
     1
  8
1
  6
Continuous
 62
    18
100
AcDbLine
 10
5.974784999999999
 20
1.044529
 30
0.0
 11
5.886784999999999
 21
1.042993
 31
0.0
  0
LINE
  5
375
330
B
100
AcDbEntity
 67
     1
  8
1
  6
Continuous
 62
    18
100
AcDbLine
 10
2.875620999999999
 20
2.360015
 30
0.0
 11
2.875608999999999
 21
2.360015
 31
0.0
  0
LINE
  5
376
330
B
100
AcDbEntity
 67
     1
  8
1
  6
Continuous
 62
    18
100
AcDbLine
 10
5.974784999999999
 20
4.385553999999999
 30
0.0
 11
5.974784999999999
 21
4.412307
 31
0.0
  0
LINE
  5
377
330
B
100
AcDbEntity
 67
     1
  8
1
  6
Continuous
 62
    18
100
AcDbLine
 10
2.193276
 20
6.247262
 30
0.0
 11
2.098431
 21
6.247262
 31
0.0
  0
LINE
  5
378
330
B
100
AcDbEntity
 67
     1
  8
1
  6
Continuous
 62
    18
100
AcDbLine
 10
1.693422
 20
3.070434
 30
0.0
 11
1.693422
 21
3.175135
 31
0.0
  0
LINE
  5
379
330
B
100
AcDbEntity
 67
     1
  8
1
  6
Continuous
 62
    18
100
AcDbLine
 10
5.974784999999999
 20
4.106526
 30
0.0
 11
5.974784999999999
 21
4.057046999999999
 31
0.0
  0
LINE
  5
37A
330
B
100
AcDbEntity
 67
     1
  8
1
  6
Continuous
 62
    18
100
AcDbLine
 10
1.835237
 20
3.183804999999999
 30
0.0
 11
1.828768999999999
 21
3.183853
 31
0.0
  0
LINE
  5
37B
330
B
100
AcDbEntity
 67
     1
  8
1
  6
Continuous
 62
    18
100
AcDbLine
 10
5.974784999999999
 20
0.725305
 30
0.0
 11
5.974784999999999
 21
0.7576510000000001
 31
0.0
  0
LINE
  5
37C
330
B
100
AcDbEntity
 67
     1
  8
1
  6
Continuous
 62
    18
100
AcDbLine
 10
2.450029999999999
 20
1.536524
 30
0.0
 11
2.443146
 21
1.536452
 31
0.0
  0
LINE
  5
37D
330
B
100
AcDbEntity
 67
     1
  8
1
  6
Continuous
 62
    18
100
AcDbLine
 10
2.276025999999999
 20
2.351266999999999
 30
0.0
 11
1.782670999999999
 21
2.351266999999999
 31
0.0
  0
LINE
  5
37E
330
B
100
AcDbEntity
 67
     1
  8
1
  6
Continuous
 62
    18
100
AcDbLine
 10
1.837485999999999
 20
1.53604
 30
0.0
 11
1.828356
 21
1.536118
 31
0.0
  0
LINE
  5
37F
330
B
100
AcDbEntity
 67
     1
  8
1
  6
Continuous
 62
    18
100
AcDbLine
 10
3.006056
 20
6.247262
 30
0.0
 11
3.033792
 21
6.247262
 31
0.0
  0
LINE
  5
380
330
B
100
AcDbEntity
 67
     1
  8
1
  6
Continuous
 62
    18
100
AcDbLine
 10
6.724785
 20
1.419521999999999
 30
0.0
 11
6.724785
 21
1.403305999999999
 31
0.0
  0
LINE
  5
381
330
B
100
AcDbEntity
 67
     1
  8
1
  6
Continuous
 62
    18
100
AcDbLine
 10
5.886784999999999
 20
1.220353
 30
0.0
 11
5.886784999999999
 21
1.224612
 31
0.0
  0
LINE
  5
382
330
B
100
AcDbEntity
 67
     1
  8
1
  6
Continuous
 62
    18
100
AcDbLine
 10
1.782670999999999
 20
3.233766999999999
 30
0.0
 11
1.709995
 21
3.233766999999999
 31
0.0
  0
LINE
  5
383
330
B
100
AcDbEntity
 67
     1
  8
1
  6
Continuous
 62
    18
100
AcDbLine
 10
2.172224
 20
3.184261999999999
 30
0.0
 11
2.160102999999999
 21
3.184343999999999
 31
0.0
  0
LINE
  5
384
330
B
100
AcDbEntity
 67
     1
  8
1
  6
Continuous
 62
    18
100
AcDbLine
 10
2.531499999999999
 20
3.184343999999999
 30
0.0
 11
2.519379999999999
 21
3.184261999999999
 31
0.0
  0
LINE
  5
385
330
B
100
AcDbEntity
 67
     1
  8
1
  6
Continuous
 62
    18
100
AcDbLine
 10
1.858556
 20
2.352936
 30
0.0
 11
1.854454
 21
2.353063999999999
 31
0.0
  0
LINE
  5
386
330
B
100
AcDbEntity
 67
     1
  8
1
  6
Continuous
 62
    18
100
AcDbLine
 10
2.788251999999999
 20
1.181559
 30
0.0
 11
2.787053999999999
 21
1.171129
 31
0.0
  0
LINE
  5
387
330
B
100
AcDbEntity
 67
     1
  8
1
  6
Continuous
 62
    18
100
AcDbLine
 10
1.667481999999999
 20
6.997261999999999
 30
0.0
 11
1.660936999999999
 21
6.247262
 31
0.0
  0
LINE
  5
388
330
B
100
AcDbEntity
 67
     1
  8
1
  6
Continuous
 62
    18
100
AcDbLine
 10
5.819065
 20
2.351266999999999
 30
0.0
 11
5.818012
 21
2.411576999999999
 31
0.0
  0
LINE
  5
389
330
B
100
AcDbEntity
 67
     1
  8
1
  6
Continuous
 62
    18
100
AcDbLine
 10
5.974784999999999
 20
4.066943
 30
0.0
 11
5.974784999999999
 21
4.09663
 31
0.0
  0
LINE
  5
38A
330
B
100
AcDbEntity
 67
     1
  8
1
  6
Continuous
 62
    18
100
AcDbLine
 10
2.232377999999999
 20
6.247262
 30
0.0
 11
2.222481999999999
 21
6.247262
 31
0.0
  0
LINE
  5
38B
330
B
100
AcDbEntity
 67
     1
  8
1
  6
Continuous
 62
    18
100
AcDbLine
 10
2.631527
 20
6.159262
 30
0.0
 11
2.648384
 21
6.159262
 31
0.0
  0
LINE
  5
38C
330
B
100
AcDbEntity
 67
     1
  8
1
  6
Continuous
 62
    18
100
AcDbLine
 10
2.498308999999999
 20
0.6719510000000001
 30
0.0
 11
2.489104
 21
0.6653859999999999
 31
0.0
  0
LINE
  5
38D
330
B
100
AcDbEntity
 67
     1
  8
1
  6
Continuous
 62
    18
100
AcDbLine
 10
2.145836999999999
 20
2.363452
 30
0.0
 11
2.145459
 21
2.360114999999999
 31
0.0
  0
LINE
  5
38E
330
B
100
AcDbEntity
 67
     1
  8
1
  6
Continuous
 62
    18
100
AcDbLine
 10
5.974784999999999
 20
4.066943
 30
0.0
 11
5.974784999999999
 21
4.057046999999999
 31
0.0
  0
LINE
  5
38F
330
B
100
AcDbEntity
 67
     1
  8
1
  6
Continuous
 62
    18
100
AcDbLine
 10
2.602546999999999
 20
4.619124
 30
0.0
 11
2.594447999999999
 21
4.623609
 31
0.0
  0
LINE
  5
390
330
B
100
AcDbEntity
 67
     1
  8
1
  6
Continuous
 62
    18
100
AcDbLine
 10
5.974784999999999
 20
4.222424
 30
0.0
 11
5.974784999999999
 21
4.206576999999999
 31
0.0
  0
LINE
  5
391
330
B
100
AcDbEntity
 67
     1
  8
1
  6
Continuous
 62
    18
100
AcDbLine
 10
2.147258
 20
1.537144999999999
 30
0.0
 11
2.147258
 21
1.578006
 31
0.0
  0
LINE
  5
392
330
B
100
AcDbEntity
 67
     1
  8
1
  6
Continuous
 62
    18
100
AcDbLine
 10
1.612475
 20
1.425469999999999
 30
0.0
 11
1.613513999999999
 21
1.426507999999999
 31
0.0
  0
LINE
  5
393
330
B
100
AcDbEntity
 67
     1
  8
1
  6
Continuous
 62
    18
100
AcDbLine
 10
1.856859999999999
 20
4.173199999999999
 30
0.0
 11
1.737456
 21
4.173199999999999
 31
0.0
  0
LINE
  5
394
330
B
100
AcDbEntity
 67
     1
  8
1
  6
Continuous
 62
    18
100
AcDbLine
 10
2.485047999999999
 20
0.665367
 30
0.0
 11
2.494500999999999
 21
0.670599
 31
0.0
  0
LINE
  5
395
330
B
100
AcDbEntity
 67
     1
  8
1
  6
Continuous
 62
    18
100
AcDbLine
 10
1.898686999999999
 20
3.176706999999999
 30
0.0
 11
1.883924999999999
 21
3.176674999999999
 31
0.0
  0
LINE
  5
396
330
B
100
AcDbEntity
 67
     1
  8
1
  6
Continuous
 62
    18
100
AcDbLine
 10
5.886784999999999
 20
1.345334
 30
0.0
 11
5.886784999999999
 21
1.425469999999999
 31
0.0
  0
LINE
  5
397
330
B
100
AcDbEntity
 67
     1
  8
1
  6
Continuous
 62
    18
100
AcDbLine
 10
1.687618999999999
 20
1.329929999999999
 30
0.0
 11
1.713497999999999
 21
1.326522999999999
 31
0.0
  0
LINE
  5
398
330
B
100
AcDbEntity
 67
     1
  8
1
  6
Continuous
 62
    18
100
AcDbLine
 10
2.834741999999999
 20
1.220353
 30
0.0
 11
2.834741999999999
 21
1.218817
 31
0.0
  0
LINE
  5
399
330
B
100
AcDbEntity
 67
     1
  8
1
  6
Continuous
 62
    18
100
AcDbLine
 10
5.722285
 20
1.412139999999999
 30
0.0
 11
5.722285
 21
1.438203999999999
 31
0.0
  0
LINE
  5
39A
330
B
100
AcDbEntity
 67
     1
  8
1
  6
Continuous
 62
    18
100
AcDbLine
 10
5.818012
 20
2.411576999999999
 30
0.0
 11
5.722285
 21
2.409904999999999
 31
0.0
  0
LINE
  5
39B
330
B
100
AcDbEntity
 67
     1
  8
1
  6
Continuous
 62
    18
100
AcDbLine
 10
3.057381
 20
1.376512999999999
 30
0.0
 11
3.067368999999999
 21
1.400628
 31
0.0
  0
LINE
  5
39C
330
B
100
AcDbEntity
 67
     1
  8
1
  6
Continuous
 62
    18
100
AcDbLine
 10
2.792915999999999
 20
3.176706999999999
 30
0.0
 11
2.781806
 21
3.176797
 31
0.0
  0
LINE
  5
39D
330
B
100
AcDbEntity
 67
     1
  8
1
  6
Continuous
 62
    18
100
AcDbLine
 10
2.785972
 20
4.347841999999999
 30
0.0
 11
2.642008
 21
4.618030999999999
 31
0.0
  0
LINE
  5
39E
330
B
100
AcDbEntity
 67
     1
  8
1
  6
Continuous
 62
    18
100
AcDbLine
 10
2.785518
 20
4.328568999999999
 30
0.0
 11
2.785972
 21
4.347841999999999
 31
0.0
  0
LINE
  5
39F
330
B
100
AcDbEntity
 67
     1
  8
1
  6
Continuous
 62
    18
100
AcDbLine
 10
2.913496999999999
 20
6.247262
 30
0.0
 11
2.877953999999999
 21
6.247262
 31
0.0
  0
LINE
  5
3A0
330
B
100
AcDbEntity
 67
     1
  8
1
  6
Continuous
 62
    18
100
AcDbLine
 10
2.427302
 20
2.353779999999999
 30
0.0
 11
2.440043999999999
 21
2.360145
 31
0.0
  0
LINE
  5
3A1
330
B
100
AcDbEntity
 67
     1
  8
1
  6
Continuous
 62
    18
100
AcDbLine
 10
1.904549
 20
1.171129
 30
0.0
 11
1.904549
 21
1.042505999999999
 31
0.0
  0
LINE
  5
3A2
330
B
100
AcDbEntity
 67
     1
  8
1
  6
Continuous
 62
    18
100
AcDbLine
 10
2.772838999999999
 20
2.353779999999999
 30
0.0
 11
2.427302
 21
2.353779999999999
 31
0.0
  0
LINE
  5
3A3
330
B
100
AcDbEntity
 67
     1
  8
1
  6
Continuous
 62
    18
100
AcDbLine
 10
2.611666
 20
4.617612
 30
0.0
 11
2.602546999999999
 21
4.619124
 31
0.0
  0
LINE
  5
3A4
330
B
100
AcDbEntity
 67
     1
  8
1
  6
Continuous
 62
    18
100
AcDbLine
 10
2.544344999999999
 20
2.361013
 30
0.0
 11
2.544344999999999
 21
2.401874999999999
 31
0.0
  0
LINE
  5
3A5
330
B
100
AcDbEntity
 67
     1
  8
1
  6
Continuous
 62
    18
100
AcDbLine
 10
1.663504
 20
6.099762
 30
0.0
 11
1.642797
 21
6.099762
 31
0.0
  0
LINE
  5
3A6
330
B
100
AcDbEntity
 67
     1
  8
1
  6
Continuous
 62
    18
100
AcDbLine
 10
2.913629
 20
4.004942999999999
 30
0.0
 11
1.777974
 21
4.004942999999999
 31
0.0
  0
LINE
  5
3A7
330
B
100
AcDbEntity
 67
     1
  8
1
  6
Continuous
 62
    18
100
AcDbLine
 10
5.886784999999999
 20
4.211740999999999
 30
0.0
 11
5.886784999999999
 21
4.222424
 31
0.0
  0
LINE
  5
3A8
330
B
100
AcDbEntity
 67
     1
  8
1
  6
Continuous
 62
    18
100
AcDbLine
 10
2.908932
 20
3.175135
 30
0.0
 11
2.415629
 21
3.175135
 31
0.0
  0
LINE
  5
3A9
330
B
100
AcDbEntity
 67
     1
  8
1
  6
Continuous
 62
    18
100
AcDbLine
 10
1.906084999999999
 20
1.171129
 30
0.0
 11
1.904549
 21
1.171129
 31
0.0
  0
LINE
  5
3AA
330
B
100
AcDbEntity
 67
     1
  8
1
  6
Continuous
 62
    18
100
AcDbLine
 10
5.827284999999999
 20
1.400628
 30
0.0
 11
5.827284999999999
 21
1.426507999999999
 31
0.0
  0
LINE
  5
3AB
330
B
100
AcDbEntity
 67
     1
  8
1
  6
Continuous
 62
    18
100
AcDbLine
 10
3.067368999999999
 20
6.099762
 30
0.0
 11
3.057381
 21
6.099762
 31
0.0
  0
LINE
  5
3AC
330
B
100
AcDbEntity
 67
     1
  8
1
  6
Continuous
 62
    18
100
AcDbLine
 10
2.151022
 20
1.536831999999999
 30
0.0
 11
2.147258
 21
1.537144999999999
 31
0.0
  0
LINE
  5
3AD
330
B
100
AcDbEntity
 67
     1
  8
1
  6
Continuous
 62
    18
100
AcDbLine
 10
1.726951999999999
 20
6.159262
 30
0.0
 11
1.705166999999999
 21
6.159262
 31
0.0
  0
LINE
  5
3AE
330
B
100
AcDbEntity
 67
     1
  8
1
  6
Continuous
 62
    18
100
AcDbLine
 10
2.213372999999999
 20
6.247262
 30
0.0
 11
2.217200999999999
 21
6.247262
 31
0.0
  0
LINE
  5
3AF
330
B
100
AcDbEntity
 67
     1
  8
1
  6
Continuous
 62
    18
100
AcDbLine
 10
2.907261
 20
2.411576999999999
 30
0.0
 11
2.908932
 21
2.409904999999999
 31
0.0
  0
LINE
  5
3B0
330
B
100
AcDbEntity
 67
     1
  8
1
  6
Continuous
 62
    18
100
AcDbLine
 10
2.097154999999999
 20
0.769944
 30
0.0
 11
2.099499
 21
0.7678470000000001
 31
0.0
  0
LINE
  5
3B1
330
B
100
AcDbEntity
 67
     1
  8
1
  6
Continuous
 62
    18
100
AcDbLine
 10
2.026345999999999
 20
6.247262
 30
0.0
 11
1.998841
 21
6.247262
 31
0.0
  0
LINE
  5
3B2
330
B
100
AcDbEntity
 67
     1
  8
1
  6
Continuous
 62
    18
100
AcDbLine
 10
5.886784999999999
 20
0.9481339999999999
 30
0.0
 11
5.886784999999999
 21
0.98022
 31
0.0
  0
LINE
  5
3B3
330
B
100
AcDbEntity
 67
     1
  8
1
  6
Continuous
 62
    18
100
AcDbLine
 10
2.986434999999999
 20
6.159262
 30
0.0
 11
2.964650999999999
 21
6.159262
 31
0.0
  0
LINE
  5
3B4
330
B
100
AcDbEntity
 67
     1
  8
1
  6
Continuous
 62
    18
100
AcDbLine
 10
2.759652999999999
 20
2.370983
 30
0.0
 11
2.759783999999999
 21
2.363452
 31
0.0
  0
LINE
  5
3B5
330
B
100
AcDbEntity
 67
     1
  8
1
  6
Continuous
 62
    18
100
AcDbLine
 10
2.631527
 20
0.775976
 30
0.0
 11
2.642008
 21
0.7755220000000001
 31
0.0
  0
LINE
  5
3B6
330
B
100
AcDbEntity
 67
     1
  8
1
  6
Continuous
 62
    18
100
AcDbLine
 10
2.592084999999999
 20
6.159262
 30
0.0
 11
2.593172
 21
6.247262
 31
0.0
  0
LINE
  5
3B7
330
B
100
AcDbEntity
 67
     1
  8
1
  6
Continuous
 62
    18
100
AcDbLine
 10
2.274337
 20
1.528242
 30
0.0
 11
2.276025999999999
 21
1.527397999999999
 31
0.0
  0
LINE
  5
3B8
330
B
100
AcDbEntity
 67
     1
  8
1
  6
Continuous
 62
    18
100
AcDbLine
 10
1.703936
 20
3.175135
 30
0.0
 11
1.693422
 21
3.175135
 31
0.0
  0
LINE
  5
3B9
330
B
100
AcDbEntity
 67
     1
  8
1
  6
Continuous
 62
    18
100
AcDbLine
 10
1.897491
 20
4.197544
 30
0.0
 11
1.90335
 21
4.211993999999999
 31
0.0
  0
LINE
  5
3BA
330
B
100
AcDbEntity
 67
     1
  8
1
  6
Continuous
 62
    18
100
AcDbLine
 10
2.206554999999999
 20
6.159262
 30
0.0
 11
2.197102
 21
6.159262
 31
0.0
  0
LINE
  5
3BB
330
B
100
AcDbEntity
 67
     1
  8
1
  6
Continuous
 62
    18
100
AcDbLine
 10
1.673427
 20
4.157993
 30
0.0
 11
1.70357
 21
4.170476999999999
 31
0.0
  0
LINE
  5
3BC
330
B
100
AcDbEntity
 67
     1
  8
1
  6
Continuous
 62
    18
100
AcDbLine
 10
1.613513999999999
 20
3.967044999999999
 30
0.0
 11
1.612475
 21
3.968083
 31
0.0
  0
LINE
  5
3BD
330
B
100
AcDbEntity
 67
     1
  8
1
  6
Continuous
 62
    18
100
AcDbLine
 10
2.301050999999999
 20
4.179991
 30
0.0
 11
2.390550999999999
 21
4.179991
 31
0.0
  0
LINE
  5
3BE
330
B
100
AcDbEntity
 67
     1
  8
1
  6
Continuous
 62
    18
100
AcDbLine
 10
1.612475
 20
4.048219
 30
0.0
 11
1.610938999999999
 21
4.049755
 31
0.0
  0
LINE
  5
3BF
330
B
100
AcDbEntity
 67
     1
  8
1
  6
Continuous
 62
    18
100
AcDbLine
 10
2.485545999999999
 20
4.729637999999999
 30
0.0
 11
2.495445
 21
4.724162
 31
0.0
  0
LINE
  5
3C0
330
B
100
AcDbEntity
 67
     1
  8
1
  6
Continuous
 62
    18
100
AcDbLine
 10
2.145529999999999
 20
2.402163
 30
0.0
 11
1.931512999999999
 21
2.402163
 31
0.0
  0
LINE
  5
3C1
330
B
100
AcDbEntity
 67
     1
  8
1
  6
Continuous
 62
    18
100
AcDbLine
 10
2.019322
 20
6.159262
 30
0.0
 11
1.988550999999999
 21
6.159262
 31
0.0
  0
LINE
  5
3C2
330
B
100
AcDbEntity
 67
     1
  8
1
  6
Continuous
 62
    18
100
AcDbLine
 10
2.995800999999999
 20
1.58787
 30
0.0
 11
2.993968
 21
1.586037
 31
0.0
  0
LINE
  5
3C3
330
B
100
AcDbEntity
 67
     1
  8
1
  6
Continuous
 62
    18
100
AcDbLine
 10
2.489668999999999
 20
6.247262
 30
0.0
 11
2.479774
 21
6.247262
 31
0.0
  0
LINE
  5
3C4
330
B
100
AcDbEntity
 67
     1
  8
1
  6
Continuous
 62
    18
100
AcDbLine
 10
2.366635
 20
6.247262
 30
0.0
 11
2.391113999999999
 21
6.247262
 31
0.0
  0
LINE
  5
3C5
330
B
100
AcDbEntity
 67
     1
  8
1
  6
Continuous
 62
    18
100
AcDbLine
 10
5.886784999999999
 20
0.6635600000000001
 30
0.0
 11
5.974784999999999
 21
0.6620239999999999
 31
0.0
  0
LINE
  5
3C6
330
B
100
AcDbEntity
 67
     1
  8
1
  6
Continuous
 62
    18
100
AcDbLine
 10
1.784363
 20
3.175981
 30
0.0
 11
1.784345
 21
3.235440999999999
 31
0.0
  0
LINE
  5
3C7
330
B
100
AcDbEntity
 67
     1
  8
1
  6
Continuous
 62
    18
100
AcDbLine
 10
2.875608999999999
 20
2.360015
 30
0.0
 11
2.867367999999999
 21
2.360002999999999
 31
0.0
  0
LINE
  5
3C8
330
B
100
AcDbEntity
 67
     1
  8
1
  6
Continuous
 62
    18
100
AcDbLine
 10
5.974784999999999
 20
1.255420999999999
 30
0.0
 11
5.974784999999999
 21
1.235559999999999
 31
0.0
  0
LINE
  5
3C9
330
B
100
AcDbEntity
 67
     1
  8
1
  6
Continuous
 62
    18
100
AcDbLine
 10
1.782670999999999
 20
3.175135
 30
0.0
 11
1.782670999999999
 21
3.233766999999999
 31
0.0
  0
LINE
  5
3CA
330
B
100
AcDbEntity
 67
     1
  8
1
  6
Continuous
 62
    18
100
AcDbLine
 10
5.974784999999999
 20
4.106526
 30
0.0
 11
5.974784999999999
 21
4.057046999999999
 31
0.0
  0
LINE
  5
3CB
330
B
100
AcDbEntity
 67
     1
  8
1
  6
Continuous
 62
    18
100
AcDbLine
 10
1.828768999999999
 20
3.183853
 30
0.0
 11
1.821106
 21
3.183879
 31
0.0
  0
LINE
  5
3CC
330
B
100
AcDbEntity
 67
     1
  8
1
  6
Continuous
 62
    18
100
AcDbLine
 10
1.898686999999999
 20
2.352838
 30
0.0
 11
1.883924999999999
 21
2.352806999999999
 31
0.0
  0
LINE
  5
3CD
330
B
100
AcDbEntity
 67
     1
  8
1
  6
Continuous
 62
    18
100
AcDbLine
 10
5.974784999999999
 20
0.7576510000000001
 30
0.0
 11
5.974784999999999
 21
0.7941760000000001
 31
0.0
  0
LINE
  5
3CE
330
B
100
AcDbEntity
 67
     1
  8
1
  6
Continuous
 62
    18
100
AcDbLine
 10
2.443146
 20
1.536452
 30
0.0
 11
2.440043
 21
1.536275999999999
 31
0.0
  0
LINE
  5
3CF
330
B
100
AcDbEntity
 67
     1
  8
1
  6
Continuous
 62
    18
100
AcDbLine
 10
2.440088999999999
 20
3.184013
 30
0.0
 11
2.427347
 21
3.177649
 31
0.0
  0
LINE
  5
3D0
330
B
100
AcDbEntity
 67
     1
  8
1
  6
Continuous
 62
    18
100
AcDbLine
 10
1.828356
 20
1.536118
 30
0.0
 11
1.815981999999999
 21
1.536146999999999
 31
0.0
  0
LINE
  5
3D1
330
B
100
AcDbEntity
 67
     1
  8
1
  6
Continuous
 62
    18
100
AcDbLine
 10
1.617483999999999
 20
6.997261999999999
 30
0.0
 11
1.621289999999999
 21
6.997261999999999
 31
0.0
  0
LINE
  5
3D2
330
B
100
AcDbEntity
 67
     1
  8
1
  6
Continuous
 62
    18
100
AcDbLine
 10
1.709274
 20
1.58787
 30
0.0
 11
1.709354
 21
1.587762999999999
 31
0.0
  0
LINE
  5
3D3
330
B
100
AcDbEntity
 67
     1
  8
1
  6
Continuous
 62
    18
100
AcDbLine
 10
6.724785
 20
1.403305999999999
 30
0.0
 11
6.724785
 21
1.384176999999999
 31
0.0
  0
LINE
  5
3D4
330
B
100
AcDbEntity
 67
     1
  8
1
  6
Continuous
 62
    18
100
AcDbLine
 10
2.908932
 20
1.527397999999999
 30
0.0
 11
2.908932
 21
1.586037
 31
0.0
  0
LINE
  5
3D5
330
B
100
AcDbEntity
 67
     1
  8
1
  6
Continuous
 62
    18
100
AcDbLine
 10
5.886784999999999
 20
1.224612
 30
0.0
 11
5.886784999999999
 21
1.237095999999999
 31
0.0
  0
LINE
  5
3D6
330
B
100
AcDbEntity
 67
     1
  8
1
  6
Continuous
 62
    18
100
AcDbLine
 10
2.160102999999999
 20
3.184343999999999
 30
0.0
 11
2.151022
 21
3.184568999999999
 31
0.0
  0
LINE
  5
3D7
330
B
100
AcDbEntity
 67
     1
  8
1
  6
Continuous
 62
    18
100
AcDbLine
 10
2.772838999999999
 20
3.177649
 30
0.0
 11
2.760161
 21
3.183983
 31
0.0
  0
LINE
  5
3D8
330
B
100
AcDbEntity
 67
     1
  8
1
  6
Continuous
 62
    18
100
AcDbLine
 10
1.800166999999999
 20
2.360015
 30
0.0
 11
1.784359
 21
2.352110999999999
 31
0.0
  0
LINE
  5
3D9
330
B
100
AcDbEntity
 67
     1
  8
1
  6
Continuous
 62
    18
100
AcDbLine
 10
2.787053999999999
 20
1.042505999999999
 30
0.0
 11
2.787053999999999
 21
1.171129
 31
0.0
  0
LINE
  5
3DA
330
B
100
AcDbEntity
 67
     1
  8
1
  6
Continuous
 62
    18
100
AcDbLine
 10
5.974784999999999
 20
1.196922999999999
 30
0.0
 11
5.974784999999999
 21
1.226609999999999
 31
0.0
  0
LINE
  5
3DB
330
B
100
AcDbEntity
 67
     1
  8
1
  6
Continuous
 62
    18
100
AcDbLine
 10
2.272877999999999
 20
6.247262
 30
0.0
 11
2.282156
 21
6.247262
 31
0.0
  0
LINE
  5
3DC
330
B
100
AcDbEntity
 67
     1
  8
1
  6
Continuous
 62
    18
100
AcDbLine
 10
5.974784999999999
 20
4.635901999999999
 30
0.0
 11
5.974784999999999
 21
4.668248
 31
0.0
  0
LINE
  5
3DD
330
B
100
AcDbEntity
 67
     1
  8
1
  6
Continuous
 62
    18
100
AcDbLine
 10
2.047546
 20
4.623781
 30
0.0
 11
2.04322
 21
4.631366
 31
0.0
  0
LINE
  5
3DE
330
B
100
AcDbEntity
 67
     1
  8
1
  6
Continuous
 62
    18
100
AcDbLine
 10
5.886784999999999
 20
4.520444999999999
 30
0.0
 11
5.886784999999999
 21
4.560105
 31
0.0
  0
LINE
  5
3DF
330
B
100
AcDbEntity
 67
     1
  8
1
  6
Continuous
 62
    18
100
AcDbLine
 10
2.760089999999999
 20
3.226032
 30
0.0
 11
2.759652999999999
 21
3.194850999999999
 31
0.0
  0
LINE
  5
3E0
330
B
100
AcDbEntity
 67
     1
  8
1
  6
Continuous
 62
    18
100
AcDbLine
 10
2.494500999999999
 20
0.670599
 30
0.0
 11
2.497222999999999
 21
0.673037
 31
0.0
  0
LINE
  5
3E1
330
B
100
AcDbEntity
 67
     1
  8
1
  6
Continuous
 62
    18
100
AcDbLine
 10
1.70842
 20
3.070691999999999
 30
0.0
 11
1.709995
 21
3.072266999999999
 31
0.0
  0
LINE
  5
3E2
330
B
100
AcDbEntity
 67
     1
  8
1
  6
Continuous
 62
    18
100
AcDbLine
 10
5.886784999999999
 20
1.345334
 30
0.0
 11
5.974784999999999
 21
1.343798
 31
0.0
  0
LINE
  5
3E3
330
B
100
AcDbEntity
 67
     1
  8
1
  6
Continuous
 62
    18
100
AcDbLine
 10
2.785518
 20
1.171129
 30
0.0
 11
2.788381999999999
 21
1.187497
 31
0.0
  0
LINE
  5
3E4
330
B
100
AcDbEntity
 67
     1
  8
1
  6
Continuous
 62
    18
100
AcDbLine
 10
5.722285
 20
3.072266999999999
 30
0.0
 11
5.722285
 21
3.233766999999999
 31
0.0
  0
LINE
  5
3E5
330
B
100
AcDbEntity
 67
     1
  8
1
  6
Continuous
 62
    18
100
AcDbLine
 10
5.886784999999999
 20
1.219152
 30
0.0
 11
5.886784999999999
 21
1.220353
 31
0.0
  0
LINE
  5
3E6
330
B
100
AcDbEntity
 67
     1
  8
1
  6
Continuous
 62
    18
100
AcDbLine
 10
3.021824
 20
4.054673999999999
 30
0.0
 11
3.042531
 21
4.038784999999999
 31
0.0
  0
LINE
  5
3E7
330
B
100
AcDbEntity
 67
     1
  8
1
  6
Continuous
 62
    18
100
AcDbLine
 10
3.067368999999999
 20
1.400628
 30
0.0
 11
3.070775999999999
 21
1.426507999999999
 31
0.0
  0
LINE
  5
3E8
330
B
100
AcDbEntity
 67
     1
  8
1
  6
Continuous
 62
    18
100
AcDbLine
 10
2.193276
 20
0.6719340000000001
 30
0.0
 11
2.098431
 21
0.766779
 31
0.0
  0
LINE
  5
3E9
330
B
100
AcDbEntity
 67
     1
  8
1
  6
Continuous
 62
    18
100
AcDbLine
 10
2.781806
 20
3.176797
 30
0.0
 11
2.777194999999999
 21
3.176922999999999
 31
0.0
  0
LINE
  5
3EA
330
B
100
AcDbEntity
 67
     1
  8
1
  6
Continuous
 62
    18
100
AcDbLine
 10
5.812547
 20
2.351266999999999
 30
0.0
 11
5.822983999999999
 21
2.351266999999999
 31
0.0
  0
LINE
  5
3EB
330
B
100
AcDbEntity
 67
     1
  8
1
  6
Continuous
 62
    18
100
AcDbLine
 10
6.724785
 20
1.437966999999999
 30
0.0
 11
6.724785
 21
1.434161
 31
0.0
  0
LINE
  5
3EC
330
B
100
AcDbEntity
 67
     1
  8
1
  6
Continuous
 62
    18
100
AcDbLine
 10
5.974784999999999
 20
4.157993
 30
0.0
 11
5.974784999999999
 21
4.138131999999999
 31
0.0
  0
LINE
  5
3ED
330
B
100
AcDbEntity
 67
     1
  8
1
  6
Continuous
 62
    18
100
AcDbLine
 10
2.877953999999999
 20
6.247262
 30
0.0
 11
2.839747
 21
6.247262
 31
0.0
  0
LINE
  5
3EE
330
B
100
AcDbEntity
 67
     1
  8
1
  6
Continuous
 62
    18
100
AcDbLine
 10
2.946833
 20
1.220353
 30
0.0
 11
2.979183
 21
1.224612
 31
0.0
  0
LINE
  5
3EF
330
B
100
AcDbEntity
 67
     1
  8
1
  6
Continuous
 62
    18
100
AcDbLine
 10
2.091974
 20
4.620333
 30
0.0
 11
2.083075999999999
 21
4.617776999999999
 31
0.0
  0
LINE
  5
3F0
330
B
100
AcDbEntity
 67
     1
  8
1
  6
Continuous
 62
    18
100
AcDbLine
 10
1.693422
 20
3.070434
 30
0.0
 11
1.703936
 21
3.070508999999999
 31
0.0
  0
LINE
  5
3F1
330
B
100
AcDbEntity
 67
     1
  8
1
  6
Continuous
 62
    18
100
AcDbLine
 10
5.827284999999999
 20
4.063623
 30
0.0
 11
5.827284999999999
 21
4.067028999999999
 31
0.0
  0
LINE
  5
3F2
330
B
100
AcDbEntity
 67
     1
  8
1
  6
Continuous
 62
    18
100
AcDbLine
 10
1.642797
 20
6.099762
 30
0.0
 11
1.626908
 21
6.099762
 31
0.0
  0
LINE
  5
3F3
330
B
100
AcDbEntity
 67
     1
  8
1
  6
Continuous
 62
    18
100
AcDbLine
 10
2.648383
 20
0.762187
 30
0.0
 11
2.797587
 21
1.04221
 31
0.0
  0
LINE
  5
3F4
330
B
100
AcDbEntity
 67
     1
  8
1
  6
Continuous
 62
    18
100
AcDbLine
 10
5.912784999999999
 20
4.347841999999999
 30
0.0
 11
5.912784999999999
 21
4.350105999999999
 31
0.0
  0
LINE
  5
3F5
330
B
100
AcDbEntity
 67
     1
  8
1
  6
Continuous
 62
    18
100
AcDbLine
 10
2.908932
 20
3.175135
 30
0.0
 11
2.90724
 21
3.175981
 31
0.0
  0
LINE
  5
3F6
330
B
100
AcDbEntity
 67
     1
  8
1
  6
Continuous
 62
    18
100
AcDbLine
 10
1.856859999999999
 20
1.220353
 30
0.0
 11
1.873229
 21
1.217489
 31
0.0
  0
LINE
  5
3F7
330
B
100
AcDbEntity
 67
     1
  8
1
  6
Continuous
 62
    18
100
AcDbLine
 10
5.827284999999999
 20
3.967044999999999
 30
0.0
 11
5.827284999999999
 21
1.426507999999999
 31
0.0
  0
LINE
  5
3F8
330
B
100
AcDbEntity
 67
     1
  8
1
  6
Continuous
 62
    18
100
AcDbLine
 10
3.057381
 20
6.099762
 30
0.0
 11
3.041493
 21
6.099762
 31
0.0
  0
LINE
  5
3F9
330
B
100
AcDbEntity
 67
     1
  8
1
  6
Continuous
 62
    18
100
AcDbLine
 10
1.931441999999999
 20
1.536246
 30
0.0
 11
1.918765
 21
1.529912
 31
0.0
  0
LINE
  5
3FA
330
B
100
AcDbEntity
 67
     1
  8
1
  6
Continuous
 62
    18
100
AcDbLine
 10
1.705166999999999
 20
6.159262
 30
0.0
 11
1.691661
 21
6.159262
 31
0.0
  0
LINE
  5
3FB
330
B
100
AcDbEntity
 67
     1
  8
1
  6
Continuous
 62
    18
100
AcDbLine
 10
2.981606999999999
 20
2.409904999999999
 30
0.0
 11
2.908932
 21
2.409904999999999
 31
0.0
  0
LINE
  5
3FC
330
B
100
AcDbEntity
 67
     1
  8
1
  6
Continuous
 62
    18
100
AcDbLine
 10
2.193276
 20
0.6719340000000001
 30
0.0
 11
2.194361999999999
 21
0.67302
 31
0.0
  0
LINE
  5
3FD
330
B
100
AcDbEntity
 67
     1
  8
1
  6
Continuous
 62
    18
100
AcDbLine
 10
1.998841
 20
6.247262
 30
0.0
 11
1.966188999999999
 21
6.247262
 31
0.0
  0
LINE
  5
3FE
330
B
100
AcDbEntity
 67
     1
  8
1
  6
Continuous
 62
    18
100
AcDbLine
 10
5.886784999999999
 20
0.98022
 30
0.0
 11
5.886784999999999
 21
1.006758999999999
 31
0.0
  0
LINE
  5
3FF
330
B
100
AcDbEntity
 67
     1
  8
1
  6
Continuous
 62
    18
100
AcDbLine
 10
2.964650999999999
 20
6.159262
 30
0.0
 11
2.935637999999999
 21
6.159262
 31
0.0
  0
LINE
  5
400
330
B
100
AcDbEntity
 67
     1
  8
1
  6
Continuous
 62
    18
100
AcDbLine
 10
2.759783999999999
 20
2.363452
 30
0.0
 11
2.760161
 21
2.360114999999999
 31
0.0
  0
LINE
  5
401
330
B
100
AcDbEntity
 67
     1
  8
1
  6
Continuous
 62
    18
100
AcDbLine
 10
1.73592
 20
1.218817
 30
0.0
 11
1.70357
 21
1.223076
 31
0.0
  0
LINE
  5
402
330
B
100
AcDbEntity
 67
     1
  8
1
  6
Continuous
 62
    18
100
AcDbLine
 10
1.709995
 20
3.233766999999999
 30
0.0
 11
1.709995
 21
3.072266999999999
 31
0.0
  0
LINE
  5
403
330
B
100
AcDbEntity
 67
     1
  8
1
  6
Continuous
 62
    18
100
AcDbLine
 10
3.07335
 20
3.948655
 30
0.0
 11
3.07335
 21
4.049755
 31
0.0
  0
LINE
  5
404
330
B
100
AcDbEntity
 67
     1
  8
1
  6
Continuous
 62
    18
100
AcDbLine
 10
2.611666
 20
6.159262
 30
0.0
 11
2.602546999999999
 21
6.159262
 31
0.0
  0
LINE
  5
405
330
B
100
AcDbEntity
 67
     1
  8
1
  6
Continuous
 62
    18
100
AcDbLine
 10
2.272877999999999
 20
6.247262
 30
0.0
 11
2.252777
 21
6.247262
 31
0.0
  0
LINE
  5
406
330
B
100
AcDbEntity
 67
     1
  8
1
  6
Continuous
 62
    18
100
AcDbLine
 10
2.981606999999999
 20
2.248397999999999
 30
0.0
 11
2.983183
 21
2.246823
 31
0.0
  0
LINE
  5
407
330
B
100
AcDbEntity
 67
     1
  8
1
  6
Continuous
 62
    18
100
AcDbLine
 10
2.274337
 20
1.528242
 30
0.0
 11
2.274325999999999
 21
1.528242
 31
0.0
  0
LINE
  5
408
330
B
100
AcDbEntity
 67
     1
  8
1
  6
Continuous
 62
    18
100
AcDbLine
 10
1.693422
 20
2.246566
 30
0.0
 11
1.693422
 21
2.351266999999999
 31
0.0
  0
LINE
  5
409
330
B
100
AcDbEntity
 67
     1
  8
1
  6
Continuous
 62
    18
100
AcDbLine
 10
1.90335
 20
4.211993999999999
 30
0.0
 11
1.904549
 21
4.222424
 31
0.0
  0
LINE
  5
40A
330
B
100
AcDbEntity
 67
     1
  8
1
  6
Continuous
 62
    18
100
AcDbLine
 10
2.197102
 20
6.159262
 30
0.0
 11
2.194379
 21
6.159262
 31
0.0
  0
LINE
  5
40B
330
B
100
AcDbEntity
 67
     1
  8
1
  6
Continuous
 62
    18
100
AcDbLine
 10
2.891436
 20
2.360015
 30
0.0
 11
2.875620999999999
 21
2.360015
 31
0.0
  0
LINE
  5
40C
330
B
100
AcDbEntity
 67
     1
  8
1
  6
Continuous
 62
    18
100
AcDbLine
 10
2.145529999999999
 20
2.402163
 30
0.0
 11
2.145967999999999
 21
2.370983
 31
0.0
  0
LINE
  5
40D
330
B
100
AcDbEntity
 67
     1
  8
1
  6
Continuous
 62
    18
100
AcDbLine
 10
1.713497999999999
 20
4.067028999999999
 30
0.0
 11
1.687618999999999
 21
4.063623
 31
0.0
  0
LINE
  5
40E
330
B
100
AcDbEntity
 67
     1
  8
1
  6
Continuous
 62
    18
100
AcDbLine
 10
1.790804999999999
 20
6.159262
 30
0.0
 11
1.755963999999999
 21
6.159262
 31
0.0
  0
LINE
  5
40F
330
B
100
AcDbEntity
 67
     1
  8
1
  6
Continuous
 62
    18
100
AcDbLine
 10
2.495445
 20
4.724162
 30
0.0
 11
2.498308999999999
 21
4.721601
 31
0.0
  0
LINE
  5
410
330
B
100
AcDbEntity
 67
     1
  8
1
  6
Continuous
 62
    18
100
AcDbLine
 10
2.979183
 20
4.168941
 30
0.0
 11
2.946833
 21
4.173199999999999
 31
0.0
  0
LINE
  5
411
330
B
100
AcDbEntity
 67
     1
  8
1
  6
Continuous
 62
    18
100
AcDbLine
 10
2.983183
 20
2.246823
 30
0.0
 11
2.987666999999999
 21
2.246640999999999
 31
0.0
  0
LINE
  5
412
330
B
100
AcDbEntity
 67
     1
  8
1
  6
Continuous
 62
    18
100
AcDbLine
 10
2.252777
 20
6.247262
 30
0.0
 11
2.242983999999999
 21
6.247262
 31
0.0
  0
LINE
  5
413
330
B
100
AcDbEntity
 67
     1
  8
1
  6
Continuous
 62
    18
100
AcDbLine
 10
2.787053999999999
 20
4.222424
 30
0.0
 11
2.789811999999999
 21
4.206576999999999
 31
0.0
  0
LINE
  5
414
330
B
100
AcDbEntity
 67
     1
  8
1
  6
Continuous
 62
    18
100
AcDbLine
 10
2.913629
 20
4.004942999999999
 30
0.0
 11
2.913629
 21
4.006776
 31
0.0
  0
LINE
  5
415
330
B
100
AcDbEntity
 67
     1
  8
1
  6
Continuous
 62
    18
100
AcDbLine
 10
5.974784999999999
 20
4.731529
 30
0.0
 11
5.886784999999999
 21
4.729993
 31
0.0
  0
LINE
  5
416
330
B
100
AcDbEntity
 67
     1
  8
1
  6
Continuous
 62
    18
100
AcDbLine
 10
2.867367999999999
 20
2.360002999999999
 30
0.0
 11
2.860052999999999
 21
2.359967999999999
 31
0.0
  0
LINE
  5
417
330
B
100
AcDbEntity
 67
     1
  8
1
  6
Continuous
 62
    18
100
AcDbLine
 10
5.974784999999999
 20
4.101839
 30
0.0
 11
5.974784999999999
 21
4.086733999999999
 31
0.0
  0
LINE
  5
418
330
B
100
AcDbEntity
 67
     1
  8
1
  6
Continuous
 62
    18
100
AcDbLine
 10
1.821106
 20
3.183879
 30
0.0
 11
1.815981999999999
 21
3.183883999999999
 31
0.0
  0
LINE
  5
419
330
B
100
AcDbEntity
 67
     1
  8
1
  6
Continuous
 62
    18
100
AcDbLine
 10
2.252777
 20
6.247262
 30
0.0
 11
2.242983999999999
 21
6.247262
 31
0.0
  0
LINE
  5
41A
330
B
100
AcDbEntity
 67
     1
  8
1
  6
Continuous
 62
    18
100
AcDbLine
 10
5.974784999999999
 20
0.7941760000000001
 30
0.0
 11
5.974784999999999
 21
0.833284
 31
0.0
  0
LINE
  5
41B
330
B
100
AcDbEntity
 67
     1
  8
1
  6
Continuous
 62
    18
100
AcDbLine
 10
2.90724
 20
3.175981
 30
0.0
 11
2.907258
 21
3.235440999999999
 31
0.0
  0
LINE
  5
41C
330
B
100
AcDbEntity
 67
     1
  8
1
  6
Continuous
 62
    18
100
AcDbLine
 10
2.545634999999999
 20
1.547113999999999
 30
0.0
 11
2.759652999999999
 21
1.547113999999999
 31
0.0
  0
LINE
  5
41D
330
B
100
AcDbEntity
 67
     1
  8
1
  6
Continuous
 62
    18
100
AcDbLine
 10
2.147258
 20
2.401874999999999
 30
0.0
 11
2.145529999999999
 21
2.402163
 31
0.0
  0
LINE
  5
41E
330
B
100
AcDbEntity
 67
     1
  8
1
  6
Continuous
 62
    18
100
AcDbLine
 10
2.147258
 20
3.225743999999999
 30
0.0
 11
2.145529999999999
 21
3.226032
 31
0.0
  0
LINE
  5
41F
330
B
100
AcDbEntity
 67
     1
  8
1
  6
Continuous
 62
    18
100
AcDbLine
 10
3.07335
 20
1.343798
 30
0.0
 11
3.07335
 21
1.477613999999999
 31
0.0
  0
LINE
  5
420
330
B
100
AcDbEntity
 67
     1
  8
1
  6
Continuous
 62
    18
100
AcDbLine
 10
6.724785
 20
1.355439999999999
 30
0.0
 11
6.724785
 21
1.384176999999999
 31
0.0
  0
LINE
  5
421
330
B
100
AcDbEntity
 67
     1
  8
1
  6
Continuous
 62
    18
100
AcDbLine
 10
5.886784999999999
 20
1.237095999999999
 30
0.0
 11
5.886784999999999
 21
1.256956999999999
 31
0.0
  0
LINE
  5
422
330
B
100
AcDbEntity
 67
     1
  8
1
  6
Continuous
 62
    18
100
AcDbLine
 10
2.151022
 20
3.184568999999999
 30
0.0
 11
2.147258
 21
3.184881999999999
 31
0.0
  0
LINE
  5
423
330
B
100
AcDbEntity
 67
     1
  8
1
  6
Continuous
 62
    18
100
AcDbLine
 10
5.974784999999999
 20
4.412307
 30
0.0
 11
5.974784999999999
 21
4.444653999999999
 31
0.0
  0
LINE
  5
424
330
B
100
AcDbEntity
 67
     1
  8
1
  6
Continuous
 62
    18
100
AcDbLine
 10
2.450075
 20
3.184261999999999
 30
0.0
 11
2.519379999999999
 21
3.184261999999999
 31
0.0
  0
LINE
  5
425
330
B
100
AcDbEntity
 67
     1
  8
1
  6
Continuous
 62
    18
100
AcDbLine
 10
1.782670999999999
 20
2.351266999999999
 30
0.0
 11
1.784359
 21
2.352110999999999
 31
0.0
  0
LINE
  5
426
330
B
100
AcDbEntity
 67
     1
  8
1
  6
Continuous
 62
    18
100
AcDbLine
 10
2.971828999999999
 20
1.325485
 30
0.0
 11
1.712459999999999
 21
1.325485
 31
0.0
  0
LINE
  5
427
330
B
100
AcDbEntity
 67
     1
  8
1
  6
Continuous
 62
    18
100
AcDbLine
 10
5.974784999999999
 20
4.057046999999999
 30
0.0
 11
5.974784999999999
 21
4.106526
 31
0.0
  0
LINE
  5
428
330
B
100
AcDbEntity
 67
     1
  8
1
  6
Continuous
 62
    18
100
AcDbLine
 10
2.282156
 20
6.247262
 30
0.0
 11
2.272877999999999
 21
6.247262
 31
0.0
  0
LINE
  5
429
330
B
100
AcDbEntity
 67
     1
  8
1
  6
Continuous
 62
    18
100
AcDbLine
 10
1.784359
 20
2.352110999999999
 30
0.0
 11
1.784341999999999
 21
2.411576999999999
 31
0.0
  0
LINE
  5
42A
330
B
100
AcDbEntity
 67
     1
  8
1
  6
Continuous
 62
    18
100
AcDbLine
 10
2.326753
 20
6.247262
 30
0.0
 11
2.355918999999999
 21
6.247262
 31
0.0
  0
LINE
  5
42B
330
B
100
AcDbEntity
 67
     1
  8
1
  6
Continuous
 62
    18
100
AcDbLine
 10
1.904549
 20
4.222424
 30
0.0
 11
1.906084999999999
 21
4.222424
 31
0.0
  0
LINE
  5
42C
330
B
100
AcDbEntity
 67
     1
  8
1
  6
Continuous
 62
    18
100
AcDbLine
 10
2.498326
 20
4.721619
 30
0.0
 11
2.49724
 21
4.720533
 31
0.0
  0
LINE
  5
42D
330
B
100
AcDbEntity
 67
     1
  8
1
  6
Continuous
 62
    18
100
AcDbLine
 10
2.098409
 20
0.7667570000000001
 30
0.0
 11
2.091342
 21
0.77182
 31
0.0
  0
LINE
  5
42E
330
B
100
AcDbEntity
 67
     1
  8
1
  6
Continuous
 62
    18
100
AcDbLine
 10
6.724785
 20
1.434161
 30
0.0
 11
5.974784999999999
 21
1.427615999999999
 31
0.0
  0
LINE
  5
42F
330
B
100
AcDbEntity
 67
     1
  8
1
  6
Continuous
 62
    18
100
AcDbLine
 10
2.593172
 20
0.766779
 30
0.0
 11
2.592084999999999
 21
0.767865
 31
0.0
  0
LINE
  5
430
330
B
100
AcDbEntity
 67
     1
  8
1
  6
Continuous
 62
    18
100
AcDbLine
 10
1.703936
 20
2.246640999999999
 30
0.0
 11
1.70842
 21
2.246823
 31
0.0
  0
LINE
  5
431
330
B
100
AcDbEntity
 67
     1
  8
1
  6
Continuous
 62
    18
100
AcDbLine
 10
1.782670999999999
 20
3.233766999999999
 30
0.0
 11
1.784345
 21
3.235440999999999
 31
0.0
  0
LINE
  5
432
330
B
100
AcDbEntity
 67
     1
  8
1
  6
Continuous
 62
    18
100
AcDbLine
 10
2.047546
 20
0.7755220000000001
 30
0.0
 11
2.047546
 21
0.7741920000000001
 31
0.0
  0
LINE
  5
433
330
B
100
AcDbEntity
 67
     1
  8
1
  6
Continuous
 62
    18
100
AcDbLine
 10
1.695802
 20
1.468949
 30
0.0
 11
1.695802
 21
1.58787
 31
0.0
  0
LINE
  5
434
330
B
100
AcDbEntity
 67
     1
  8
1
  6
Continuous
 62
    18
100
AcDbLine
 10
2.970774
 20
6.247262
 30
0.0
 11
2.944877999999999
 21
6.247262
 31
0.0
  0
LINE
  5
435
330
B
100
AcDbEntity
 67
     1
  8
1
  6
Continuous
 62
    18
100
AcDbLine
 10
2.788381999999999
 20
1.187497
 30
0.0
 11
2.796425999999999
 21
1.202011
 31
0.0
  0
LINE
  5
436
330
B
100
AcDbEntity
 67
     1
  8
1
  6
Continuous
 62
    18
100
AcDbLine
 10
2.772838999999999
 20
1.529912
 30
0.0
 11
2.777194999999999
 21
1.529186
 31
0.0
  0
LINE
  5
437
330
B
100
AcDbEntity
 67
     1
  8
1
  6
Continuous
 62
    18
100
AcDbLine
 10
5.722285
 20
3.072266999999999
 30
0.0
 11
5.812547
 21
3.070691999999999
 31
0.0
  0
LINE
  5
438
330
B
100
AcDbEntity
 67
     1
  8
1
  6
Continuous
 62
    18
100
AcDbLine
 10
2.489104
 20
0.6653859999999999
 30
0.0
 11
2.478229
 21
0.6622600000000001
 31
0.0
  0
LINE
  5
439
330
B
100
AcDbEntity
 67
     1
  8
1
  6
Continuous
 62
    18
100
AcDbLine
 10
5.974784999999999
 20
1.216920999999999
 30
0.0
 11
5.974784999999999
 21
1.207127999999999
 31
0.0
  0
LINE
  5
43A
330
B
100
AcDbEntity
 67
     1
  8
1
  6
Continuous
 62
    18
100
AcDbLine
 10
3.070775999999999
 20
3.967044999999999
 30
0.0
 11
3.070775999999999
 21
1.426507999999999
 31
0.0
  0
LINE
  5
43B
330
B
100
AcDbEntity
 67
     1
  8
1
  6
Continuous
 62
    18
100
AcDbLine
 10
5.974784999999999
 20
4.206576999999999
 30
0.0
 11
5.974784999999999
 21
4.192524999999999
 31
0.0
  0
LINE
  5
43C
330
B
100
AcDbEntity
 67
     1
  8
1
  6
Continuous
 62
    18
100
AcDbLine
 10
1.705106
 20
4.168941
 30
0.0
 11
1.674963
 21
4.156455999999999
 31
0.0
  0
LINE
  5
43D
330
B
100
AcDbEntity
 67
     1
  8
1
  6
Continuous
 62
    18
100
AcDbLine
 10
2.172224
 20
1.536524
 30
0.0
 11
2.160102999999999
 21
1.536605999999999
 31
0.0
  0
LINE
  5
43E
330
B
100
AcDbEntity
 67
     1
  8
1
  6
Continuous
 62
    18
100
AcDbLine
 10
2.977300999999999
 20
3.070434
 30
0.0
 11
1.714300999999999
 21
3.070434
 31
0.0
  0
LINE
  5
43F
330
B
100
AcDbEntity
 67
     1
  8
1
  6
Continuous
 62
    18
100
AcDbLine
 10
5.822983999999999
 20
2.351266999999999
 30
0.0
 11
5.827284999999999
 21
2.351266999999999
 31
0.0
  0
LINE
  5
440
330
B
100
AcDbEntity
 67
     1
  8
1
  6
Continuous
 62
    18
100
AcDbLine
 10
2.415576999999999
 20
2.351266999999999
 30
0.0
 11
2.415576999999999
 21
2.409810999999999
 31
0.0
  0
LINE
  5
441
330
B
100
AcDbEntity
 67
     1
  8
1
  6
Continuous
 62
    18
100
AcDbLine
 10
2.993968
 20
5.994762
 30
0.0
 11
2.987852999999999
 21
5.994762
 31
0.0
  0
LINE
  5
442
330
B
100
AcDbEntity
 67
     1
  8
1
  6
Continuous
 62
    18
100
AcDbLine
 10
2.417266
 20
2.352110999999999
 30
0.0
 11
2.417276999999999
 21
2.352110999999999
 31
0.0
  0
LINE
  5
443
330
B
100
AcDbEntity
 67
     1
  8
1
  6
Continuous
 62
    18
100
AcDbLine
 10
2.415576999999999
 20
2.409810999999999
 30
0.0
 11
2.276025999999999
 21
2.409810999999999
 31
0.0
  0
LINE
  5
444
330
B
100
AcDbEntity
 67
     1
  8
1
  6
Continuous
 62
    18
100
AcDbLine
 10
1.906084999999999
 20
1.064983
 30
0.0
 11
1.905630999999999
 21
1.045711
 31
0.0
  0
LINE
  5
445
330
B
100
AcDbEntity
 67
     1
  8
1
  6
Continuous
 62
    18
100
AcDbLine
 10
5.886784999999999
 20
3.968083
 30
0.0
 11
5.827284999999999
 21
3.967044999999999
 31
0.0
  0
LINE
  5
446
330
B
100
AcDbEntity
 67
     1
  8
1
  6
Continuous
 62
    18
100
AcDbLine
 10
1.626908
 20
6.099762
 30
0.0
 11
1.61692
 21
6.099762
 31
0.0
  0
LINE
  5
447
330
B
100
AcDbEntity
 67
     1
  8
1
  6
Continuous
 62
    18
100
AcDbLine
 10
5.886784999999999
 20
4.328568999999999
 30
0.0
 11
5.912784999999999
 21
4.347841999999999
 31
0.0
  0
LINE
  5
448
330
B
100
AcDbEntity
 67
     1
  8
1
  6
Continuous
 62
    18
100
AcDbLine
 10
2.891436
 20
3.183883999999999
 30
0.0
 11
2.90724
 21
3.175981
 31
0.0
  0
LINE
  5
449
330
B
100
AcDbEntity
 67
     1
  8
1
  6
Continuous
 62
    18
100
AcDbLine
 10
1.873229
 20
1.217489
 30
0.0
 11
1.887741999999999
 21
1.209445
 31
0.0
  0
LINE
  5
44A
330
B
100
AcDbEntity
 67
     1
  8
1
  6
Continuous
 62
    18
100
AcDbLine
 10
5.886784999999999
 20
1.325485
 30
0.0
 11
5.827284999999999
 21
1.326522999999999
 31
0.0
  0
LINE
  5
44B
330
B
100
AcDbEntity
 67
     1
  8
1
  6
Continuous
 62
    18
100
AcDbLine
 10
3.041493
 20
6.099762
 30
0.0
 11
3.020786
 21
6.099762
 31
0.0
  0
LINE
  5
44C
330
B
100
AcDbEntity
 67
     1
  8
1
  6
Continuous
 62
    18
100
AcDbLine
 10
1.691661
 20
6.159262
 30
0.0
 11
1.687084999999999
 21
6.159262
 31
0.0
  0
LINE
  5
44D
330
B
100
AcDbEntity
 67
     1
  8
1
  6
Continuous
 62
    18
100
AcDbLine
 10
2.60026
 20
4.621734
 30
0.0
 11
2.608627999999999
 21
4.619323
 31
0.0
  0
LINE
  5
44E
330
B
100
AcDbEntity
 67
     1
  8
1
  6
Continuous
 62
    18
100
AcDbLine
 10
1.784341999999999
 20
2.411576999999999
 30
0.0
 11
1.708324
 21
2.411576999999999
 31
0.0
  0
LINE
  5
44F
330
B
100
AcDbEntity
 67
     1
  8
1
  6
Continuous
 62
    18
100
AcDbLine
 10
1.904549
 20
1.171129
 30
0.0
 11
1.901791
 21
1.186976
 31
0.0
  0
LINE
  5
450
330
B
100
AcDbEntity
 67
     1
  8
1
  6
Continuous
 62
    18
100
AcDbLine
 10
2.099516999999999
 20
0.767865
 30
0.0
 11
2.194361999999999
 21
0.67302
 31
0.0
  0
LINE
  5
451
330
B
100
AcDbEntity
 67
     1
  8
1
  6
Continuous
 62
    18
100
AcDbLine
 10
1.721165
 20
5.994762
 30
0.0
 11
1.70375
 21
5.994762
 31
0.0
  0
LINE
  5
452
330
B
100
AcDbEntity
 67
     1
  8
1
  6
Continuous
 62
    18
100
AcDbLine
 10
5.886784999999999
 20
1.006758999999999
 30
0.0
 11
5.886784999999999
 21
1.026589999999999
 31
0.0
  0
LINE
  5
453
330
B
100
AcDbEntity
 67
     1
  8
1
  6
Continuous
 62
    18
100
AcDbLine
 10
2.935637999999999
 20
6.159262
 30
0.0
 11
2.900797999999999
 21
6.159262
 31
0.0
  0
LINE
  5
454
330
B
100
AcDbEntity
 67
     1
  8
1
  6
Continuous
 62
    18
100
AcDbLine
 10
5.974784999999999
 20
1.281304999999999
 30
0.0
 11
5.974784999999999
 21
1.255420999999999
 31
0.0
  0
LINE
  5
455
330
B
100
AcDbEntity
 67
     1
  8
1
  6
Continuous
 62
    18
100
AcDbLine
 10
2.981606999999999
 20
3.072266999999999
 30
0.0
 11
2.981606999999999
 21
3.233766999999999
 31
0.0
  0
LINE
  5
456
330
B
100
AcDbEntity
 67
     1
  8
1
  6
Continuous
 62
    18
100
AcDbLine
 10
1.610938999999999
 20
4.049755
 30
0.0
 11
1.610938999999999
 21
3.948655
 31
0.0
  0
LINE
  5
457
330
B
100
AcDbEntity
 67
     1
  8
1
  6
Continuous
 62
    18
100
AcDbLine
 10
3.071813999999999
 20
4.048219
 30
0.0
 11
3.067556
 21
4.080569
 31
0.0
  0
LINE
  5
458
330
B
100
AcDbEntity
 67
     1
  8
1
  6
Continuous
 62
    18
100
AcDbLine
 10
2.602546999999999
 20
6.159262
 30
0.0
 11
2.594447999999999
 21
6.159262
 31
0.0
  0
LINE
  5
459
330
B
100
AcDbEntity
 67
     1
  8
1
  6
Continuous
 62
    18
100
AcDbLine
 10
2.301439999999999
 20
6.247262
 30
0.0
 11
2.292065
 21
6.247262
 31
0.0
  0
LINE
  5
45A
330
B
100
AcDbEntity
 67
     1
  8
1
  6
Continuous
 62
    18
100
AcDbLine
 10
2.983183
 20
2.246823
 30
0.0
 11
2.983183
 21
2.351266999999999
 31
0.0
  0
LINE
  5
45B
330
B
100
AcDbEntity
 67
     1
  8
1
  6
Continuous
 62
    18
100
AcDbLine
 10
2.264300999999999
 20
1.529912
 30
0.0
 11
2.274325999999999
 21
1.528242
 31
0.0
  0
LINE
  5
45C
330
B
100
AcDbEntity
 67
     1
  8
1
  6
Continuous
 62
    18
100
AcDbLine
 10
1.904549
 20
4.351048
 30
0.0
 11
1.904549
 21
4.222424
 31
0.0
  0
LINE
  5
45D
330
B
100
AcDbEntity
 67
     1
  8
1
  6
Continuous
 62
    18
100
AcDbLine
 10
2.098431
 20
6.247262
 30
0.0
 11
2.099516999999999
 21
6.159262
 31
0.0
  0
LINE
  5
45E
330
B
100
AcDbEntity
 67
     1
  8
1
  6
Continuous
 62
    18
100
AcDbLine
 10
1.856859999999999
 20
4.174736
 30
0.0
 11
1.73592
 21
4.174736
 31
0.0
  0
LINE
  5
45F
330
B
100
AcDbEntity
 67
     1
  8
1
  6
Continuous
 62
    18
100
AcDbLine
 10
1.687618999999999
 20
4.063623
 30
0.0
 11
1.663504
 21
4.053634999999999
 31
0.0
  0
LINE
  5
460
330
B
100
AcDbEntity
 67
     1
  8
1
  6
Continuous
 62
    18
100
AcDbLine
 10
3.053675
 20
6.159262
 30
0.0
 11
3.032256
 21
6.159262
 31
0.0
  0
LINE
  5
461
330
B
100
AcDbEntity
 67
     1
  8
1
  6
Continuous
 62
    18
100
AcDbLine
 10
2.498326
 20
4.721619
 30
0.0
 11
2.593172
 21
4.626774
 31
0.0
  0
LINE
  5
462
330
B
100
AcDbEntity
 67
     1
  8
1
  6
Continuous
 62
    18
100
AcDbLine
 10
2.760161
 20
3.183983
 30
0.0
 11
2.546143999999999
 21
3.183983
 31
0.0
  0
LINE
  5
463
330
B
100
AcDbEntity
 67
     1
  8
1
  6
Continuous
 62
    18
100
AcDbLine
 10
2.987666999999999
 20
2.246640999999999
 30
0.0
 11
2.998179999999999
 21
2.246566
 31
0.0
  0
LINE
  5
464
330
B
100
AcDbEntity
 67
     1
  8
1
  6
Continuous
 62
    18
100
AcDbLine
 10
2.292065
 20
6.247262
 30
0.0
 11
2.272274
 21
6.247262
 31
0.0
  0
LINE
  5
465
330
B
100
AcDbEntity
 67
     1
  8
1
  6
Continuous
 62
    18
100
AcDbLine
 10
2.789811999999999
 20
4.206576999999999
 30
0.0
 11
2.797603
 21
4.192524999999999
 31
0.0
  0
LINE
  5
466
330
B
100
AcDbEntity
 67
     1
  8
1
  6
Continuous
 62
    18
100
AcDbLine
 10
1.705106
 20
1.224612
 30
0.0
 11
1.737456
 21
1.220353
 31
0.0
  0
LINE
  5
467
330
B
100
AcDbEntity
 67
     1
  8
1
  6
Continuous
 62
    18
100
AcDbLine
 10
1.777974
 20
4.006776
 30
0.0
 11
2.913629
 21
4.006776
 31
0.0
  0
LINE
  5
468
330
B
100
AcDbEntity
 67
     1
  8
1
  6
Continuous
 62
    18
100
AcDbLine
 10
5.886784999999999
 20
4.350559999999999
 30
0.0
 11
5.974784999999999
 21
4.349024
 31
0.0
  0
LINE
  5
469
330
B
100
AcDbEntity
 67
     1
  8
1
  6
Continuous
 62
    18
100
AcDbLine
 10
2.860052999999999
 20
2.359967999999999
 30
0.0
 11
2.854395
 21
2.359912
 31
0.0
  0
LINE
  5
46A
330
B
100
AcDbEntity
 67
     1
  8
1
  6
Continuous
 62
    18
100
AcDbLine
 10
5.974784999999999
 20
1.171129
 30
0.0
 11
5.886784999999999
 21
1.171129
 31
0.0
  0
LINE
  5
46B
330
B
100
AcDbEntity
 67
     1
  8
1
  6
Continuous
 62
    18
100
AcDbLine
 10
2.544344999999999
 20
1.537144999999999
 30
0.0
 11
2.546143999999999
 21
1.536246
 31
0.0
  0
LINE
  5
46C
330
B
100
AcDbEntity
 67
     1
  8
1
  6
Continuous
 62
    18
100
AcDbLine
 10
1.931950999999999
 20
2.370983
 30
0.0
 11
2.145967999999999
 21
2.370983
 31
0.0
  0
LINE
  5
46D
330
B
100
AcDbEntity
 67
     1
  8
1
  6
Continuous
 62
    18
100
AcDbLine
 10
5.974784999999999
 20
1.187027
 30
0.0
 11
5.974784999999999
 21
1.196922999999999
 31
0.0
  0
LINE
  5
46E
330
B
100
AcDbEntity
 67
     1
  8
1
  6
Continuous
 62
    18
100
AcDbLine
 10
5.886784999999999
 20
4.110712
 30
0.0
 11
5.886784999999999
 21
4.136595999999999
 31
0.0
  0
LINE
  5
46F
330
B
100
AcDbEntity
 67
     1
  8
1
  6
Continuous
 62
    18
100
AcDbLine
 10
2.445593
 20
6.247262
 30
0.0
 11
2.435697
 21
6.247262
 31
0.0
  0
LINE
  5
470
330
B
100
AcDbEntity
 67
     1
  8
1
  6
Continuous
 62
    18
100
AcDbLine
 10
5.974784999999999
 20
0.833284
 30
0.0
 11
5.974784999999999
 21
0.8732659999999999
 31
0.0
  0
LINE
  5
471
330
B
100
AcDbEntity
 67
     1
  8
1
  6
Continuous
 62
    18
100
AcDbLine
 10
2.145529999999999
 20
3.226032
 30
0.0
 11
1.931512999999999
 21
3.226032
 31
0.0
  0
LINE
  5
472
330
B
100
AcDbEntity
 67
     1
  8
1
  6
Continuous
 62
    18
100
AcDbLine
 10
3.07335
 20
1.343798
 30
0.0
 11
3.069091999999999
 21
1.311447999999999
 31
0.0
  0
LINE
  5
473
330
B
100
AcDbEntity
 67
     1
  8
1
  6
Continuous
 62
    18
100
AcDbLine
 10
6.724785
 20
1.484159
 30
0.0
 11
6.724785
 21
3.942109999999999
 31
0.0
  0
LINE
  5
474
330
B
100
AcDbEntity
 67
     1
  8
1
  6
Continuous
 62
    18
100
AcDbLine
 10
5.886784999999999
 20
1.256956999999999
 30
0.0
 11
5.886784999999999
 21
1.282840999999999
 31
0.0
  0
LINE
  5
475
330
B
100
AcDbEntity
 67
     1
  8
1
  6
Continuous
 62
    18
100
AcDbLine
 10
2.083075999999999
 20
4.617776999999999
 30
0.0
 11
2.079936
 21
4.617601999999999
 31
0.0
  0
LINE
  5
476
330
B
100
AcDbEntity
 67
     1
  8
1
  6
Continuous
 62
    18
100
AcDbLine
 10
2.450075
 20
3.184261999999999
 30
0.0
 11
2.443191999999999
 21
3.18419
 31
0.0
  0
LINE
  5
477
330
B
100
AcDbEntity
 67
     1
  8
1
  6
Continuous
 62
    18
100
AcDbLine
 10
1.709995
 20
3.072266999999999
 30
0.0
 11
2.981606999999999
 21
3.072266999999999
 31
0.0
  0
LINE
  5
478
330
B
100
AcDbEntity
 67
     1
  8
1
  6
Continuous
 62
    18
100
AcDbLine
 10
5.974784999999999
 20
1.187542
 30
0.0
 11
5.974784999999999
 21
1.197335
 31
0.0
  0
LINE
  5
479
330
B
100
AcDbEntity
 67
     1
  8
1
  6
Continuous
 62
    18
100
AcDbLine
 10
2.416425999999999
 20
6.247262
 30
0.0
 11
2.435697
 21
6.247262
 31
0.0
  0
LINE
  5
47A
330
B
100
AcDbEntity
 67
     1
  8
1
  6
Continuous
 62
    18
100
AcDbLine
 10
1.906084999999999
 20
4.328568999999999
 30
0.0
 11
1.906084999999999
 21
4.222424
 31
0.0
  0
LINE
  5
47B
330
B
100
AcDbEntity
 67
     1
  8
1
  6
Continuous
 62
    18
100
AcDbLine
 10
5.886784999999999
 20
4.598898999999999
 30
0.0
 11
5.886784999999999
 21
4.635130999999999
 31
0.0
  0
LINE
  5
47C
330
B
100
AcDbEntity
 67
     1
  8
1
  6
Continuous
 62
    18
100
AcDbLine
 10
3.07335
 20
4.049755
 30
0.0
 11
3.071813999999999
 21
4.048219
 31
0.0
  0
LINE
  5
47D
330
B
100
AcDbEntity
 67
     1
  8
1
  6
Continuous
 62
    18
100
AcDbLine
 10
2.592084999999999
 20
4.625687999999999
 30
0.0
 11
2.49724
 21
4.720533
 31
0.0
  0
LINE
  5
47E
330
B
100
AcDbEntity
 67
     1
  8
1
  6
Continuous
 62
    18
100
AcDbLine
 10
6.724785
 20
1.484159
 30
0.0
 11
6.724785
 21
1.465025999999999
 31
0.0
  0
LINE
  5
47F
330
B
100
AcDbEntity
 67
     1
  8
1
  6
Continuous
 62
    18
100
AcDbLine
 10
1.68658
 20
1.328891999999999
 30
0.0
 11
1.662465
 21
1.338879
 31
0.0
  0
LINE
  5
480
330
B
100
AcDbEntity
 67
     1
  8
1
  6
Continuous
 62
    18
100
AcDbLine
 10
2.785972
 20
1.041248999999999
 30
0.0
 11
2.785972
 21
1.045711
 31
0.0
  0
LINE
  5
481
330
B
100
AcDbEntity
 67
     1
  8
1
  6
Continuous
 62
    18
100
AcDbLine
 10
2.592084999999999
 20
0.767865
 30
0.0
 11
2.49724
 21
0.67302
 31
0.0
  0
LINE
  5
482
330
B
100
AcDbEntity
 67
     1
  8
1
  6
Continuous
 62
    18
100
AcDbLine
 10
5.886784999999999
 20
4.176064
 30
0.0
 11
5.886784999999999
 21
4.184108
 31
0.0
  0
LINE
  5
483
330
B
100
AcDbEntity
 67
     1
  8
1
  6
Continuous
 62
    18
100
AcDbLine
 10
5.886784999999999
 20
4.445419
 30
0.0
 11
5.886784999999999
 21
4.481651
 31
0.0
  0
LINE
  5
484
330
B
100
AcDbEntity
 67
     1
  8
1
  6
Continuous
 62
    18
100
AcDbLine
 10
5.812547
 20
3.070691999999999
 30
0.0
 11
5.812547
 21
3.175135
 31
0.0
  0
LINE
  5
485
330
B
100
AcDbEntity
 67
     1
  8
1
  6
Continuous
 62
    18
100
AcDbLine
 10
5.886784999999999
 20
4.080569
 30
0.0
 11
5.886784999999999
 21
4.110712
 31
0.0
  0
LINE
  5
486
330
B
100
AcDbEntity
 67
     1
  8
1
  6
Continuous
 62
    18
100
AcDbLine
 10
1.647542999999999
 20
1.255420999999999
 30
0.0
 11
1.627682
 21
1.281304999999999
 31
0.0
  0
LINE
  5
487
330
B
100
AcDbEntity
 67
     1
  8
1
  6
Continuous
 62
    18
100
AcDbLine
 10
1.612475
 20
6.159262
 30
0.0
 11
1.610938999999999
 21
6.247262
 31
0.0
  0
LINE
  5
488
330
B
100
AcDbEntity
 67
     1
  8
1
  6
Continuous
 62
    18
100
AcDbLine
 10
2.644057
 20
0.7744400000000001
 30
0.0
 11
2.611666
 21
0.7744400000000001
 31
0.0
  0
LINE
  5
489
330
B
100
AcDbEntity
 67
     1
  8
1
  6
Continuous
 62
    18
100
AcDbLine
 10
2.772838999999999
 20
1.529912
 30
0.0
 11
2.427300999999999
 21
1.529912
 31
0.0
  0
LINE
  5
48A
330
B
100
AcDbEntity
 67
     1
  8
1
  6
Continuous
 62
    18
100
AcDbLine
 10
3.057381
 20
4.017039999999999
 30
0.0
 11
3.041493
 21
4.037746
 31
0.0
  0
LINE
  5
48B
330
B
100
AcDbEntity
 67
     1
  8
1
  6
Continuous
 62
    18
100
AcDbLine
 10
5.974784999999999
 20
4.668248
 30
0.0
 11
5.974784999999999
 21
4.695001
 31
0.0
  0
LINE
  5
48C
330
B
100
AcDbEntity
 67
     1
  8
1
  6
Continuous
 62
    18
100
AcDbLine
 10
2.232377999999999
 20
6.247262
 30
0.0
 11
2.222481999999999
 21
6.247262
 31
0.0
  0
LINE
  5
48D
330
B
100
AcDbEntity
 67
     1
  8
1
  6
Continuous
 62
    18
100
AcDbLine
 10
2.145836999999999
 20
1.539584
 30
0.0
 11
2.145459
 21
1.536246
 31
0.0
  0
LINE
  5
48E
330
B
100
AcDbEntity
 67
     1
  8
1
  6
Continuous
 62
    18
100
AcDbLine
 10
2.971828999999999
 20
1.325485
 30
0.0
 11
2.970791
 21
1.326522999999999
 31
0.0
  0
LINE
  5
48F
330
B
100
AcDbEntity
 67
     1
  8
1
  6
Continuous
 62
    18
100
AcDbLine
 10
2.786384999999999
 20
4.352241
 30
0.0
 11
2.797587
 21
4.351342999999999
 31
0.0
  0
LINE
  5
490
330
B
100
AcDbEntity
 67
     1
  8
1
  6
Continuous
 62
    18
100
AcDbLine
 10
2.760089999999999
 20
3.226032
 30
0.0
 11
2.546072999999999
 21
3.226032
 31
0.0
  0
LINE
  5
491
330
B
100
AcDbEntity
 67
     1
  8
1
  6
Continuous
 62
    18
100
AcDbLine
 10
2.977300999999999
 20
2.411738
 30
0.0
 11
2.977300999999999
 21
3.070434
 31
0.0
  0
LINE
  5
492
330
B
100
AcDbEntity
 67
     1
  8
1
  6
Continuous
 62
    18
100
AcDbLine
 10
5.812547
 20
3.070691999999999
 30
0.0
 11
5.822983999999999
 21
3.070508999999999
 31
0.0
  0
LINE
  5
493
330
B
100
AcDbEntity
 67
     1
  8
1
  6
Continuous
 62
    18
100
AcDbLine
 10
2.987852999999999
 20
5.994762
 30
0.0
 11
2.970437
 21
5.994762
 31
0.0
  0
LINE
  5
494
330
B
100
AcDbEntity
 67
     1
  8
1
  6
Continuous
 62
    18
100
AcDbLine
 10
3.009326999999999
 20
1.237095999999999
 30
0.0
 11
3.035209999999999
 21
1.256956999999999
 31
0.0
  0
LINE
  5
495
330
B
100
AcDbEntity
 67
     1
  8
1
  6
Continuous
 62
    18
100
AcDbLine
 10
2.415576999999999
 20
2.351266999999999
 30
0.0
 11
2.417266
 21
2.352110999999999
 31
0.0
  0
LINE
  5
496
330
B
100
AcDbEntity
 67
     1
  8
1
  6
Continuous
 62
    18
100
AcDbLine
 10
1.905216999999999
 20
4.352241
 30
0.0
 11
2.047546
 21
4.619361
 31
0.0
  0
LINE
  5
497
330
B
100
AcDbEntity
 67
     1
  8
1
  6
Continuous
 62
    18
100
AcDbLine
 10
2.390550999999999
 20
0.899777
 30
0.0
 11
2.390550999999999
 21
0.898991
 31
0.0
  0
LINE
  5
498
330
B
100
AcDbEntity
 67
     1
  8
1
  6
Continuous
 62
    18
100
AcDbLine
 10
1.687083
 20
6.159262
 30
0.0
 11
1.662213999999999
 21
6.159262
 31
0.0
  0
LINE
  5
499
330
B
100
AcDbEntity
 67
     1
  8
1
  6
Continuous
 62
    18
100
AcDbLine
 10
2.644057
 20
0.7697720000000001
 30
0.0
 11
2.648383
 21
0.762187
 31
0.0
  0
LINE
  5
49A
330
B
100
AcDbEntity
 67
     1
  8
1
  6
Continuous
 62
    18
100
AcDbLine
 10
2.540580999999999
 20
1.536831999999999
 30
0.0
 11
2.531499999999999
 21
1.536605999999999
 31
0.0
  0
LINE
  5
49B
330
B
100
AcDbEntity
 67
     1
  8
1
  6
Continuous
 62
    18
100
AcDbLine
 10
1.931950999999999
 20
1.547113999999999
 30
0.0
 11
2.145967999999999
 21
1.547113999999999
 31
0.0
  0
LINE
  5
49C
330
B
100
AcDbEntity
 67
     1
  8
1
  6
Continuous
 62
    18
100
AcDbLine
 10
2.772838999999999
 20
3.177649
 30
0.0
 11
2.777194999999999
 21
3.176922999999999
 31
0.0
  0
LINE
  5
49D
330
B
100
AcDbEntity
 67
     1
  8
1
  6
Continuous
 62
    18
100
AcDbLine
 10
1.931441999999999
 20
1.536246
 30
0.0
 11
1.93182
 21
1.539584
 31
0.0
  0
LINE
  5
49E
330
B
100
AcDbEntity
 67
     1
  8
1
  6
Continuous
 62
    18
100
AcDbLine
 10
1.746724
 20
6.247262
 30
0.0
 11
1.720827999999999
 21
6.247262
 31
0.0
  0
LINE
  5
49F
330
B
100
AcDbEntity
 67
     1
  8
1
  6
Continuous
 62
    18
100
AcDbLine
 10
2.993968
 20
3.896136
 30
0.0
 11
1.697634
 21
3.896136
 31
0.0
  0
LINE
  5
4A0
330
B
100
AcDbEntity
 67
     1
  8
1
  6
Continuous
 62
    18
100
AcDbLine
 10
5.827284999999999
 20
1.426507999999999
 30
0.0
 11
5.886784999999999
 21
1.425469999999999
 31
0.0
  0
LINE
  5
4A1
330
B
100
AcDbEntity
 67
     1
  8
1
  6
Continuous
 62
    18
100
AcDbLine
 10
1.856859999999999
 20
4.173199999999999
 30
0.0
 11
1.856859999999999
 21
4.174736
 31
0.0
  0
LINE
  5
4A2
330
B
100
AcDbEntity
 67
     1
  8
1
  6
Continuous
 62
    18
100
AcDbLine
 10
2.248456
 20
1.536452
 30
0.0
 11
2.241572999999999
 21
1.536524
 31
0.0
  0
LINE
  5
4A3
330
B
100
AcDbEntity
 67
     1
  8
1
  6
Continuous
 62
    18
100
AcDbLine
 10
5.818176999999999
 20
3.235440999999999
 30
0.0
 11
5.722285
 21
3.233766999999999
 31
0.0
  0
LINE
  5
4A4
330
B
100
AcDbEntity
 67
     1
  8
1
  6
Continuous
 62
    18
100
AcDbLine
 10
2.047546
 20
6.179551999999999
 30
0.0
 11
2.04322
 21
6.159262
 31
0.0
  0
LINE
  5
4A5
330
B
100
AcDbEntity
 67
     1
  8
1
  6
Continuous
 62
    18
100
AcDbLine
 10
1.708324
 20
2.411576999999999
 30
0.0
 11
1.709995
 21
2.409904999999999
 31
0.0
  0
LINE
  5
4A6
330
B
100
AcDbEntity
 67
     1
  8
1
  6
Continuous
 62
    18
100
AcDbLine
 10
1.662213999999999
 20
6.159262
 30
0.0
 11
1.641349
 21
6.159262
 31
0.0
  0
LINE
  5
4A7
330
B
100
AcDbEntity
 67
     1
  8
1
  6
Continuous
 62
    18
100
AcDbLine
 10
2.546072999999999
 20
2.402163
 30
0.0
 11
2.545634999999999
 21
2.370983
 31
0.0
  0
LINE
  5
4A8
330
B
100
AcDbEntity
 67
     1
  8
1
  6
Continuous
 62
    18
100
AcDbLine
 10
1.929767999999999
 20
6.247262
 30
0.0
 11
1.891112999999999
 21
6.247262
 31
0.0
  0
LINE
  5
4A9
330
B
100
AcDbEntity
 67
     1
  8
1
  6
Continuous
 62
    18
100
AcDbLine
 10
5.886784999999999
 20
1.026589999999999
 30
0.0
 11
5.886784999999999
 21
1.038845999999999
 31
0.0
  0
LINE
  5
4AA
330
B
100
AcDbEntity
 67
     1
  8
1
  6
Continuous
 62
    18
100
AcDbLine
 10
2.900797999999999
 20
6.159262
 30
0.0
 11
2.861809999999999
 21
6.159262
 31
0.0
  0
LINE
  5
4AB
330
B
100
AcDbEntity
 67
     1
  8
1
  6
Continuous
 62
    18
100
AcDbLine
 10
2.544344999999999
 20
2.361013
 30
0.0
 11
2.540580999999999
 21
2.360700999999999
 31
0.0
  0
LINE
  5
4AC
330
B
100
AcDbEntity
 67
     1
  8
1
  6
Continuous
 62
    18
100
AcDbLine
 10
1.737456
 20
4.173199999999999
 30
0.0
 11
1.705106
 21
4.168941
 31
0.0
  0
LINE
  5
4AD
330
B
100
AcDbEntity
 67
     1
  8
1
  6
Continuous
 62
    18
100
AcDbLine
 10
1.61692
 20
6.099762
 30
0.0
 11
1.613513999999999
 21
6.099762
 31
0.0
  0
LINE
  5
4AE
330
B
100
AcDbEntity
 67
     1
  8
1
  6
Continuous
 62
    18
100
AcDbLine
 10
1.894
 20
1.201027999999999
 30
0.0
 11
1.881740999999999
 21
1.211759
 31
0.0
  0
LINE
  5
4AF
330
B
100
AcDbEntity
 67
     1
  8
1
  6
Continuous
 62
    18
100
AcDbLine
 10
2.274337
 20
2.352110999999999
 30
0.0
 11
2.274325999999999
 21
2.352110999999999
 31
0.0
  0
LINE
  5
4B0
330
B
100
AcDbEntity
 67
     1
  8
1
  6
Continuous
 62
    18
100
AcDbLine
 10
1.610938999999999
 20
4.049755
 30
0.0
 11
1.615197
 21
4.082105
 31
0.0
  0
LINE
  5
4B1
330
B
100
AcDbEntity
 67
     1
  8
1
  6
Continuous
 62
    18
100
AcDbLine
 10
3.071813999999999
 20
1.345334
 30
0.0
 11
3.07335
 21
1.343798
 31
0.0
  0
LINE
  5
4B2
330
B
100
AcDbEntity
 67
     1
  8
1
  6
Continuous
 62
    18
100
AcDbLine
 10
2.907261
 20
1.587707999999999
 30
0.0
 11
2.908932
 21
1.586037
 31
0.0
  0
LINE
  5
4B3
330
B
100
AcDbEntity
 67
     1
  8
1
  6
Continuous
 62
    18
100
AcDbLine
 10
2.981606999999999
 20
2.248397999999999
 30
0.0
 11
2.981606999999999
 21
2.409904999999999
 31
0.0
  0
LINE
  5
4B4
330
B
100
AcDbEntity
 67
     1
  8
1
  6
Continuous
 62
    18
100
AcDbLine
 10
2.594447999999999
 20
6.159262
 30
0.0
 11
2.592102999999999
 21
6.159262
 31
0.0
  0
LINE
  5
4B5
330
B
100
AcDbEntity
 67
     1
  8
1
  6
Continuous
 62
    18
100
AcDbLine
 10
2.391113999999999
 20
6.247262
 30
0.0
 11
2.351529999999999
 21
6.247262
 31
0.0
  0
LINE
  5
4B6
330
B
100
AcDbEntity
 67
     1
  8
1
  6
Continuous
 62
    18
100
AcDbLine
 10
2.264300999999999
 20
1.529912
 30
0.0
 11
1.918765
 21
1.529912
 31
0.0
  0
LINE
  5
4B7
330
B
100
AcDbEntity
 67
     1
  8
1
  6
Continuous
 62
    18
100
AcDbLine
 10
1.883924999999999
 20
3.176674999999999
 30
0.0
 11
1.869297999999999
 21
3.176711
 31
0.0
  0
LINE
  5
4B8
330
B
100
AcDbEntity
 67
     1
  8
1
  6
Continuous
 62
    18
100
AcDbLine
 10
2.047546
 20
0.767115
 30
0.0
 11
2.047546
 21
0.7697720000000001
 31
0.0
  0
LINE
  5
4B9
330
B
100
AcDbEntity
 67
     1
  8
1
  6
Continuous
 62
    18
100
AcDbLine
 10
2.390550999999999
 20
0.899777
 30
0.0
 11
2.301050999999999
 21
0.899777
 31
0.0
  0
LINE
  5
4BA
330
B
100
AcDbEntity
 67
     1
  8
1
  6
Continuous
 62
    18
100
AcDbLine
 10
1.905630999999999
 20
4.347841999999999
 30
0.0
 11
2.049595
 21
4.618030999999999
 31
0.0
  0
LINE
  5
4BB
330
B
100
AcDbEntity
 67
     1
  8
1
  6
Continuous
 62
    18
100
AcDbLine
 10
2.099516999999999
 20
6.159262
 30
0.0
 11
2.194361999999999
 21
6.159262
 31
0.0
  0
LINE
  5
4BC
330
B
100
AcDbEntity
 67
     1
  8
1
  6
Continuous
 62
    18
100
AcDbLine
 10
1.856859999999999
 20
4.174736
 30
0.0
 11
1.872708
 21
4.177494
 31
0.0
  0
LINE
  5
4BD
330
B
100
AcDbEntity
 67
     1
  8
1
  6
Continuous
 62
    18
100
AcDbLine
 10
1.663504
 20
4.053634999999999
 30
0.0
 11
1.642797
 21
4.037746
 31
0.0
  0
LINE
  5
4BE
330
B
100
AcDbEntity
 67
     1
  8
1
  6
Continuous
 62
    18
100
AcDbLine
 10
3.032256
 20
6.159262
 30
0.0
 11
3.004519999999999
 21
6.159262
 31
0.0
  0
LINE
  5
4BF
330
B
100
AcDbEntity
 67
     1
  8
1
  6
Continuous
 62
    18
100
AcDbLine
 10
1.612475
 20
3.968083
 30
0.0
 11
1.612475
 21
1.425469999999999
 31
0.0
  0
LINE
  5
4C0
330
B
100
AcDbEntity
 67
     1
  8
1
  6
Continuous
 62
    18
100
AcDbLine
 10
1.70357
 20
1.223076
 30
0.0
 11
1.673427
 21
1.235559999999999
 31
0.0
  0
LINE
  5
4C1
330
B
100
AcDbEntity
 67
     1
  8
1
  6
Continuous
 62
    18
100
AcDbLine
 10
5.974784999999999
 20
4.481179
 30
0.0
 11
5.974784999999999
 21
4.520287
 31
0.0
  0
LINE
  5
4C2
330
B
100
AcDbEntity
 67
     1
  8
1
  6
Continuous
 62
    18
100
AcDbLine
 10
2.276025999999999
 20
1.527397999999999
 30
0.0
 11
2.276025999999999
 21
1.585942
 31
0.0
  0
LINE
  5
4C3
330
B
100
AcDbEntity
 67
     1
  8
1
  6
Continuous
 62
    18
100
AcDbLine
 10
1.912582
 20
6.159262
 30
0.0
 11
1.871048
 21
6.159262
 31
0.0
  0
LINE
  5
4C4
330
B
100
AcDbEntity
 67
     1
  8
1
  6
Continuous
 62
    18
100
AcDbLine
 10
2.834741999999999
 20
4.174736
 30
0.0
 11
2.834741999999999
 21
4.173199999999999
 31
0.0
  0
LINE
  5
4C5
330
B
100
AcDbEntity
 67
     1
  8
1
  6
Continuous
 62
    18
100
AcDbLine
 10
2.998179999999999
 20
2.351266999999999
 30
0.0
 11
2.998179999999999
 21
2.246566
 31
0.0
  0
LINE
  5
4C6
330
B
100
AcDbEntity
 67
     1
  8
1
  6
Continuous
 62
    18
100
AcDbLine
 10
2.355918999999999
 20
6.247262
 30
0.0
 11
2.326753
 21
6.247262
 31
0.0
  0
LINE
  5
4C7
330
B
100
AcDbEntity
 67
     1
  8
1
  6
Continuous
 62
    18
100
AcDbLine
 10
2.797603
 20
4.192524999999999
 30
0.0
 11
2.809861
 21
4.181794
 31
0.0
  0
LINE
  5
4C8
330
B
100
AcDbEntity
 67
     1
  8
1
  6
Continuous
 62
    18
100
AcDbLine
 10
1.713497999999999
 20
1.326522999999999
 30
0.0
 11
1.712459999999999
 21
1.325485
 31
0.0
  0
LINE
  5
4C9
330
B
100
AcDbEntity
 67
     1
  8
1
  6
Continuous
 62
    18
100
AcDbLine
 10
2.818374
 20
4.176064
 30
0.0
 11
2.803859999999999
 21
4.184108
 31
0.0
  0
LINE
  5
4CA
330
B
100
AcDbEntity
 67
     1
  8
1
  6
Continuous
 62
    18
100
AcDbLine
 10
2.390550999999999
 20
4.180776999999999
 30
0.0
 11
2.301050999999999
 21
4.180776999999999
 31
0.0
  0
LINE
  5
4CB
330
B
100
AcDbEntity
 67
     1
  8
1
  6
Continuous
 62
    18
100
AcDbLine
 10
1.777974
 20
4.006776
 30
0.0
 11
1.777974
 21
4.004942999999999
 31
0.0
  0
LINE
  5
4CC
330
B
100
AcDbEntity
 67
     1
  8
1
  6
Continuous
 62
    18
100
AcDbLine
 10
5.974784999999999
 20
4.09663
 30
0.0
 11
5.974784999999999
 21
4.106526
 31
0.0
  0
LINE
  5
4CD
330
B
100
AcDbEntity
 67
     1
  8
1
  6
Continuous
 62
    18
100
AcDbLine
 10
2.809099999999999
 20
1.213108
 30
0.0
 11
2.824059
 21
1.219152
 31
0.0
  0
LINE
  5
4CE
330
B
100
AcDbEntity
 67
     1
  8
1
  6
Continuous
 62
    18
100
AcDbLine
 10
2.854395
 20
2.359912
 30
0.0
 11
2.851268999999999
 21
2.359846
 31
0.0
  0
LINE
  5
4CF
330
B
100
AcDbEntity
 67
     1
  8
1
  6
Continuous
 62
    18
100
AcDbLine
 10
5.974784999999999
 20
1.218817
 30
0.0
 11
5.974784999999999
 21
1.216059
 31
0.0
  0
LINE
  5
4D0
330
B
100
AcDbEntity
 67
     1
  8
1
  6
Continuous
 62
    18
100
AcDbLine
 10
5.886784999999999
 20
3.968083
 30
0.0
 11
5.886784999999999
 21
4.048219
 31
0.0
  0
LINE
  5
4D1
330
B
100
AcDbEntity
 67
     1
  8
1
  6
Continuous
 62
    18
100
AcDbLine
 10
5.886784999999999
 20
1.064983
 30
0.0
 11
5.886784999999999
 21
1.171129
 31
0.0
  0
LINE
  5
4D2
330
B
100
AcDbEntity
 67
     1
  8
1
  6
Continuous
 62
    18
100
AcDbLine
 10
2.546143999999999
 20
1.536246
 30
0.0
 11
2.545766999999999
 21
1.539584
 31
0.0
  0
LINE
  5
4D3
330
B
100
AcDbEntity
 67
     1
  8
1
  6
Continuous
 62
    18
100
AcDbLine
 10
5.974784999999999
 20
4.066943
 30
0.0
 11
5.974784999999999
 21
4.106526
 31
0.0
  0
LINE
  5
4D4
330
B
100
AcDbEntity
 67
     1
  8
1
  6
Continuous
 62
    18
100
AcDbLine
 10
1.839405
 20
2.359872999999999
 30
0.0
 11
1.835237
 21
2.359936
 31
0.0
  0
LINE
  5
4D5
330
B
100
AcDbEntity
 67
     1
  8
1
  6
Continuous
 62
    18
100
AcDbLine
 10
2.252777
 20
6.247262
 30
0.0
 11
2.272877999999999
 21
6.247262
 31
0.0
  0
LINE
  5
4D6
330
B
100
AcDbEntity
 67
     1
  8
1
  6
Continuous
 62
    18
100
AcDbLine
 10
5.974784999999999
 20
0.8732659999999999
 30
0.0
 11
5.974784999999999
 21
0.9123739999999999
 31
0.0
  0
LINE
  5
4D7
330
B
100
AcDbEntity
 67
     1
  8
1
  6
Continuous
 62
    18
100
AcDbLine
 10
1.931512999999999
 20
3.226032
 30
0.0
 11
1.931950999999999
 21
3.194850999999999
 31
0.0
  0
LINE
  5
4D8
330
B
100
AcDbEntity
 67
     1
  8
1
  6
Continuous
 62
    18
100
AcDbLine
 10
2.611666
 20
4.617576999999999
 30
0.0
 11
2.631527
 21
4.617576999999999
 31
0.0
  0
LINE
  5
4D9
330
B
100
AcDbEntity
 67
     1
  8
1
  6
Continuous
 62
    18
100
AcDbLine
 10
3.069091999999999
 20
1.311447999999999
 30
0.0
 11
3.056607
 21
1.281304999999999
 31
0.0
  0
LINE
  5
4DA
330
B
100
AcDbEntity
 67
     1
  8
1
  6
Continuous
 62
    18
100
AcDbLine
 10
2.227689999999999
 20
6.247262
 30
0.0
 11
2.227168999999999
 21
6.247262
 31
0.0
  0
LINE
  5
4DB
330
B
100
AcDbEntity
 67
     1
  8
1
  6
Continuous
 62
    18
100
AcDbLine
 10
2.417266
 20
1.528242
 30
0.0
 11
2.417247999999999
 21
1.587612999999999
 31
0.0
  0
LINE
  5
4DC
330
B
100
AcDbEntity
 67
     1
  8
1
  6
Continuous
 62
    18
100
AcDbLine
 10
5.886784999999999
 20
1.282840999999999
 30
0.0
 11
5.886784999999999
 21
1.312983999999999
 31
0.0
  0
LINE
  5
4DD
330
B
100
AcDbEntity
 67
     1
  8
1
  6
Continuous
 62
    18
100
AcDbLine
 10
2.049595
 20
4.618030999999999
 30
0.0
 11
2.047546
 21
4.618030999999999
 31
0.0
  0
LINE
  5
4DE
330
B
100
AcDbEntity
 67
     1
  8
1
  6
Continuous
 62
    18
100
AcDbLine
 10
2.443191999999999
 20
3.18419
 30
0.0
 11
2.440088999999999
 21
3.184013
 31
0.0
  0
LINE
  5
4DF
330
B
100
AcDbEntity
 67
     1
  8
1
  6
Continuous
 62
    18
100
AcDbLine
 10
2.274337
 20
2.352110999999999
 30
0.0
 11
2.276025999999999
 21
2.351266999999999
 31
0.0
  0
LINE
  5
4E0
330
B
100
AcDbEntity
 67
     1
  8
1
  6
Continuous
 62
    18
100
AcDbLine
 10
2.60026
 20
6.247262
 30
0.0
 11
2.608627999999999
 21
6.247262
 31
0.0
  0
LINE
  5
4E1
330
B
100
AcDbEntity
 67
     1
  8
1
  6
Continuous
 62
    18
100
AcDbLine
 10
5.827284999999999
 20
1.326522999999999
 30
0.0
 11
5.827284999999999
 21
1.329929999999999
 31
0.0
  0
LINE
  5
4E2
330
B
100
AcDbEntity
 67
     1
  8
1
  6
Continuous
 62
    18
100
AcDbLine
 10
5.974784999999999
 20
1.226712999999999
 30
0.0
 11
5.974784999999999
 21
1.236505999999999
 31
0.0
  0
LINE
  5
4E3
330
B
100
AcDbEntity
 67
     1
  8
1
  6
Continuous
 62
    18
100
AcDbLine
 10
2.282156
 20
6.247262
 30
0.0
 11
2.272877999999999
 21
6.247262
 31
0.0
  0
LINE
  5
4E4
330
B
100
AcDbEntity
 67
     1
  8
1
  6
Continuous
 62
    18
100
AcDbLine
 10
1.905630999999999
 20
4.347841999999999
 30
0.0
 11
1.906084999999999
 21
4.328568999999999
 31
0.0
  0
LINE
  5
4E5
330
B
100
AcDbEntity
 67
     1
  8
1
  6
Continuous
 62
    18
100
AcDbLine
 10
2.440043
 20
1.536275999999999
 30
0.0
 11
2.427300999999999
 21
1.529912
 31
0.0
  0
LINE
  5
4E6
330
B
100
AcDbEntity
 67
     1
  8
1
  6
Continuous
 62
    18
100
AcDbLine
 10
5.886784999999999
 20
4.635130999999999
 30
0.0
 11
5.886784999999999
 21
4.667218
 31
0.0
  0
LINE
  5
4E7
330
B
100
AcDbEntity
 67
     1
  8
1
  6
Continuous
 62
    18
100
AcDbLine
 10
2.474400999999999
 20
4.729993
 30
0.0
 11
2.474400999999999
 21
4.731529
 31
0.0
  0
LINE
  5
4E8
330
B
100
AcDbEntity
 67
     1
  8
1
  6
Continuous
 62
    18
100
AcDbLine
 10
2.082974999999999
 20
0.7742300000000001
 30
0.0
 11
2.079936
 21
0.7744
 31
0.0
  0
LINE
  5
4E9
330
B
100
AcDbEntity
 67
     1
  8
1
  6
Continuous
 62
    18
100
AcDbLine
 10
6.724785
 20
1.465025999999999
 30
0.0
 11
6.724785
 21
1.448804999999999
 31
0.0
  0
LINE
  5
4EA
330
B
100
AcDbEntity
 67
     1
  8
1
  6
Continuous
 62
    18
100
AcDbLine
 10
1.662465
 20
1.338879
 30
0.0
 11
1.641758
 21
1.354767999999999
 31
0.0
  0
LINE
  5
4EB
330
B
100
AcDbEntity
 67
     1
  8
1
  6
Continuous
 62
    18
100
AcDbLine
 10
2.611666
 20
0.775976
 30
0.0
 11
2.611666
 21
0.7744400000000001
 31
0.0
  0
ARC
  5
4EC
330
B
100
AcDbEntity
 67
     1
  8
1
  6
Continuous
 62
    18
100
AcDbCircle
 10
2.814800999999999
 20
4.540276999999999
 30
0.0
 40
0.189716
100
AcDbArc
 50
264.793954
 51
511.3058559999998
  0
ARC
  5
4ED
330
B
100
AcDbEntity
 67
     1
  8
1
  6
Continuous
 62
    18
100
AcDbCircle
 10
2.390550999999999
 20
1.056277
 30
0.0
 40
0.157285
100
AcDbArc
 50
270.0
 51
450.0
  0
ARC
  5
4EE
330
B
100
AcDbEntity
 67
     1
  8
1
  6
Continuous
 62
    18
100
AcDbCircle
 10
1.777974
 20
3.924604
 30
0.0
 40
0.082172
100
AcDbArc
 50
90.0
 51
180.0
  0
ARC
  5
4EF
330
B
100
AcDbEntity
 67
     1
  8
1
  6
Continuous
 62
    18
100
AcDbCircle
 10
2.913629
 20
1.468949
 30
0.0
 40
0.080339
100
AcDbArc
 50
270.0
 51
360.0
  0
ARC
  5
4F0
330
B
100
AcDbEntity
 67
     1
  8
1
  6
Continuous
 62
    18
100
AcDbCircle
 10
2.390550999999999
 20
4.337276
 30
0.0
 40
0.1565
100
AcDbArc
 50
270.0
 51
450.0
  0
ARC
  5
4F1
330
B
100
AcDbEntity
 67
     1
  8
1
  6
Continuous
 62
    18
100
AcDbCircle
 10
2.301050999999999
 20
4.337276
 30
0.0
 40
0.157285
100
AcDbArc
 50
90.0
 51
270.0
  0
ARC
  5
4F2
330
B
100
AcDbEntity
 67
     1
  8
1
  6
Continuous
 62
    18
100
AcDbCircle
 10
1.876801
 20
0.8532770000000001
 30
0.0
 40
0.191253
100
AcDbArc
 50
81.657913
 51
333.223594
  0
ARC
  5
4F3
330
B
100
AcDbEntity
 67
     1
  8
1
  6
Continuous
 62
    18
100
AcDbCircle
 10
2.814800999999999
 20
4.540276999999999
 30
0.0
 40
0.19017
100
AcDbArc
 50
261.280373
 51
261.406474
  0
ARC
  5
4F4
330
B
100
AcDbEntity
 67
     1
  8
1
  6
Continuous
 62
    18
100
AcDbCircle
 10
2.913629
 20
1.468949
 30
0.0
 40
0.082172
100
AcDbArc
 50
270.0
 51
360.0
  0
ARC
  5
4F5
330
B
100
AcDbEntity
 67
     1
  8
1
  6
Continuous
 62
    18
100
AcDbCircle
 10
2.998179999999999
 20
6.084762
 30
0.0
 40
0.015
100
AcDbArc
 50
90.0
 51
99.141969
  0
ARC
  5
4F6
330
B
100
AcDbEntity
 67
     1
  8
1
  6
Continuous
 62
    18
100
AcDbCircle
 10
2.301050999999999
 20
1.056277
 30
0.0
 40
0.157285
100
AcDbArc
 50
90.0
 51
270.0
  0
ARC
  5
4F7
330
B
100
AcDbEntity
 67
     1
  8
1
  6
Continuous
 62
    18
100
AcDbCircle
 10
2.301050999999999
 20
1.056277
 30
0.0
 40
0.1565
100
AcDbArc
 50
90.0
 51
270.0
  0
ARC
  5
4F8
330
B
100
AcDbEntity
 67
     1
  8
1
  6
Continuous
 62
    18
100
AcDbCircle
 10
2.300800999999999
 20
4.337276
 30
0.0
 40
0.08
100
AcDbArc
 50
142.874099
 51
217.1259009999999
  0
ARC
  5
4F9
330
B
100
AcDbEntity
 67
     1
  8
1
  6
Continuous
 62
    18
100
AcDbCircle
 10
2.390550999999999
 20
4.337276
 30
0.0
 40
0.157285
100
AcDbArc
 50
270.0
 51
450.0
  0
ARC
  5
4FA
330
B
100
AcDbEntity
 67
     1
  8
1
  6
Continuous
 62
    18
100
AcDbCircle
 10
1.876801
 20
4.540276999999999
 30
0.0
 40
0.19017
100
AcDbArc
 50
278.593526
 51
278.719627
  0
ARC
  5
4FB
330
B
100
AcDbEntity
 67
     1
  8
1
  6
Continuous
 62
    18
100
AcDbCircle
 10
1.777974
 20
1.468949
 30
0.0
 40
0.080339
100
AcDbArc
 50
180.0
 51
270.0
  0
ARC
  5
4FC
330
B
100
AcDbEntity
 67
     1
  8
1
  6
Continuous
 62
    18
100
AcDbCircle
 10
1.693422
 20
6.084762
 30
0.0
 40
0.015
100
AcDbArc
 50
80.85803100000001
 51
90.0
  0
ARC
  5
4FD
330
B
100
AcDbEntity
 67
     1
  8
1
  6
Continuous
 62
    18
100
AcDbCircle
 10
2.390800999999999
 20
1.056277
 30
0.0
 40
0.08
100
AcDbArc
 50
320.289039
 51
399.710961
  0
ARC
  5
4FE
330
B
100
AcDbEntity
 67
     1
  8
1
  6
Continuous
 62
    18
100
AcDbCircle
 10
1.876801
 20
0.8532770000000001
 30
0.0
 40
0.19017
100
AcDbArc
 50
81.280373
 51
81.406474
  0
ARC
  5
4FF
330
B
100
AcDbEntity
 67
     1
  8
1
  6
Continuous
 62
    18
100
AcDbCircle
 10
1.876801
 20
4.540276999999999
 30
0.0
 40
0.189716
100
AcDbArc
 50
28.694144
 51
275.206046
  0
ARC
  5
500
330
B
100
AcDbEntity
 67
     1
  8
1
  6
Continuous
 62
    18
100
AcDbCircle
 10
2.814800999999999
 20
4.540276999999999
 30
0.0
 40
0.191253
100
AcDbArc
 50
261.657913
 51
513.223594
  0
ARC
  5
501
330
B
100
AcDbEntity
 67
     1
  8
1
  6
Continuous
 62
    18
100
AcDbCircle
 10
2.814800999999999
 20
0.8532770000000001
 30
0.0
 40
0.19017
100
AcDbArc
 50
98.59352600000001
 51
98.719627
  0
ARC
  5
502
330
B
100
AcDbEntity
 67
     1
  8
1
  6
Continuous
 62
    18
100
AcDbCircle
 10
2.814800999999999
 20
0.8532770000000001
 30
0.0
 40
0.189716
100
AcDbArc
 50
208.694144
 51
455.2060459999999
  0
CIRCLE
  5
503
330
B
100
AcDbEntity
 67
     1
  8
1
  6
Continuous
 62
    18
100
AcDbCircle
 10
2.345800999999999
 20
4.602776999999999
 30
0.0
 40
0.05655
  0
ARC
  5
504
330
B
100
AcDbEntity
 67
     1
  8
1
  6
Continuous
 62
    18
100
AcDbCircle
 10
2.913629
 20
3.924604
 30
0.0
 40
0.082172
100
AcDbArc
 50
0.0
 51
90.0
  0
ARC
  5
505
330
B
100
AcDbEntity
 67
     1
  8
1
  6
Continuous
 62
    18
100
AcDbCircle
 10
1.777974
 20
1.468949
 30
0.0
 40
0.082172
100
AcDbArc
 50
180.0
 51
270.0
  0
ARC
  5
506
330
B
100
AcDbEntity
 67
     1
  8
1
  6
Continuous
 62
    18
100
AcDbCircle
 10
1.777974
 20
3.924604
 30
0.0
 40
0.080339
100
AcDbArc
 50
90.0
 51
180.0
  0
ARC
  5
507
330
B
100
AcDbEntity
 67
     1
  8
1
  6
Continuous
 62
    18
100
AcDbCircle
 10
2.300800999999999
 20
1.056277
 30
0.0
 40
0.08
100
AcDbArc
 50
140.289039
 51
219.710961
  0
ARC
  5
508
330
B
100
AcDbEntity
 67
     1
  8
1
  6
Continuous
 62
    18
100
AcDbCircle
 10
2.390800999999999
 20
4.337276
 30
0.0
 40
0.08
100
AcDbArc
 50
322.874099
 51
397.125901
  0
CIRCLE
  5
509
330
B
100
AcDbEntity
 67
     1
  8
1
  6
Continuous
 62
    18
100
AcDbCircle
 10
2.345800999999999
 20
0.7907770000000001
 30
0.0
 40
0.05655
  0
ARC
  5
50A
330
B
100
AcDbEntity
 67
     1
  8
1
  6
Continuous
 62
    18
100
AcDbCircle
 10
2.814800999999999
 20
0.8532770000000001
 30
0.0
 40
0.191253
100
AcDbArc
 50
206.776406
 51
458.342087
  0
ARC
  5
50B
330
B
100
AcDbEntity
 67
     1
  8
1
  6
Continuous
 62
    18
100
AcDbCircle
 10
2.390550999999999
 20
1.056277
 30
0.0
 40
0.1565
100
AcDbArc
 50
270.0
 51
450.0
  0
ARC
  5
50C
330
B
100
AcDbEntity
 67
     1
  8
1
  6
Continuous
 62
    18
100
AcDbCircle
 10
1.876801
 20
0.8532770000000001
 30
0.0
 40
0.189716
100
AcDbArc
 50
84.79395399999999
 51
331.305856
  0
ARC
  5
50D
330
B
100
AcDbEntity
 67
     1
  8
1
  6
Continuous
 62
    18
100
AcDbCircle
 10
2.301050999999999
 20
4.337276
 30
0.0
 40
0.1565
100
AcDbArc
 50
90.0
 51
270.0
  0
ARC
  5
50E
330
B
100
AcDbEntity
 67
     1
  8
1
  6
Continuous
 62
    18
100
AcDbCircle
 10
1.876801
 20
4.540276999999999
 30
0.0
 40
0.191253
100
AcDbArc
 50
26.776406
 51
278.342087
  0
ARC
  5
50F
330
B
100
AcDbEntity
 67
     1
  8
1
  6
Continuous
 62
    18
100
AcDbCircle
 10
2.913629
 20
3.924604
 30
0.0
 40
0.080339
100
AcDbArc
 50
0.0
 51
90.0
  0
ENDSEC
  0
SECTION
  2
OBJECTS
  0
DICTIONARY
  5
19
330
0
100
AcDbDictionary
281
     1
  3
ACAD_COLOR
350
53A
  3
ACAD_GROUP
350
1A
  3
ACAD_LAYOUT
350
1E
  3
ACAD_MATERIAL
350
525
  3
ACAD_MLINESTYLE
350
1B
  3
ACAD_PLOTSETTINGS
350
22
  3
ACAD_PLOTSTYLENAME
350
1F
  3
ACAD_TABLESTYLE
350
53B
  3
ACAD_VISUALSTYLE
350
529
  3
ACAD_WIPEOUT_VARS
350
23
  3
AcDbVariableDictionary
350
544
  3
ASE_INDEX_DICTIONARY
350
541
  3
DWGPROPS
350
549
  0
DICTIONARY
  5
54E
330
32
100
AcDbDictionary
280
     1
281
     1
  3
ACAD_XREC_ROUNDTRIP
360
54F
  0
DICTIONARY
  5
53A
102
{ACAD_REACTORS
330
19
102
}
330
19
100
AcDbDictionary
281
     1
  0
DICTIONARY
  5
1A
102
{ACAD_REACTORS
330
19
102
}
330
19
100
AcDbDictionary
281
     1
  0
DICTIONARY
  5
1E
102
{ACAD_REACTORS
330
19
102
}
330
19
100
AcDbDictionary
281
     1
  3
DRAWING1
350
510
  3
Layout1
350
21
  3
Model
350
20
  0
DICTIONARY
  5
525
102
{ACAD_REACTORS
330
19
102
}
330
19
100
AcDbDictionary
281
     1
  3
ByBlock
350
527
  3
ByLayer
350
526
  3
Global
350
528
  0
DICTIONARY
  5
1B
102
{ACAD_REACTORS
330
19
102
}
330
19
100
AcDbDictionary
281
     1
  3
Standard
350
1C
  0
DICTIONARY
  5
22
102
{ACAD_REACTORS
330
19
102
}
330
19
100
AcDbDictionary
281
     1
  0
ACDBDICTIONARYWDFLT
  5
1F
102
{ACAD_REACTORS
330
19
102
}
330
19
100
AcDbDictionary
281
     1
  3
Normal
350
1D
100
AcDbDictionaryWithDefault
340
1D
  0
DICTIONARY
  5
53B
102
{ACAD_REACTORS
330
19
102
}
330
19
100
AcDbDictionary
281
     1
  3
Standard
350
53C
  0
DICTIONARY
  5
529
102
{ACAD_REACTORS
330
19
102
}
330
19
100
AcDbDictionary
281
     1
  3
2dWireframe
350
52F
  3
3D Hidden
350
531
  3
3dWireframe
350
530
  3
Basic
350
52E
  3
Brighten
350
535
  3
ColorChange
350
539
  3
Conceptual
350
532
  3
Dim
350
534
  3
Facepattern
350
538
  3
Flat
350
52A
  3
FlatWithEdges
350
52B
  3
Gouraud
350
52C
  3
GouraudWithEdges
350
52D
  3
Linepattern
350
537
  3
Realistic
350
533
  3
Thicken
350
536
  0
WIPEOUTVARIABLES
  5
23
330
19
100
AcDbWipeoutVariables
 70
     1
  0
DICTIONARY
  5
544
102
{ACAD_REACTORS
330
19
102
}
330
19
100
AcDbDictionary
281
     1
  3
CTABLESTYLE
350
545
  3
DIMASSOC
350
548
  3
INDEXCTL
350
547
  3
SORTENTS
350
546
  0
DICTIONARY
  5
541
102
{ACAD_REACTORS
330
19
102
}
330
19
100
AcDbDictionary
281
     1
  3
ASEBlockHierarchyIndexRecord
350
543
1001
DCO15
1040
1733561687.241
  0
XRECORD
  5
549
102
{ACAD_REACTORS
330
19
102
}
330
19
100
AcDbXrecord
280
     1
  1
DWGPROPS COOKIE
  2

  3

  4

  6

  7

  8
bjn
  9

300
=
301
=
302
=
303
=
304
=
305
=
306
=
307
=
308
=
309
=
 40
0.0006980324074074
 41
2455867.582549109
 42
2455867.583231956
  1

 90
        0
  0
XRECORD
  5
54F
102
{ACAD_REACTORS
330
54E
102
}
330
54E
100
AcDbXrecord
280
     1
102
SHADEPLOT
 70
     0
  0
LAYOUT
  5
510
102
{ACAD_XDICTIONARY
360
550
102
}
102
{ACAD_REACTORS
330
1E
102
}
330
1E
100
AcDbPlotSettings
  1

  2

  4

  6

 40
20.0
 41
20.0
 42
20.0
 43
20.0
 44
319.4
 45
255.9
 46
0.0
 47
0.0
 48
0.0
 49
0.0
140
319.4
141
255.9
142
1.0
143
1.0
 70
     0
 72
     0
 73
     0
 74
     1
  7

 75
     0
147
1.0
148
0.0
149
0.0
100
AcDbLayout
  1
DRAWING1
 70
     0
 71
     2
 10
0.0
 20
0.0
 11
11.0
 21
8.5
 12
0.0
 22
0.0
 32
0.0
 14
0.0
 24
0.0
 34
0.0
 15
11.0
 25
8.5
 35
0.0
146
0.0
 13
0.0
 23
0.0
 33
0.0
 16
0.0
 26
0.0
 36
0.0
 17
0.0
 27
0.0
 37
0.0
 76
     0
330
B
331
32
  0
LAYOUT
  5
21
102
{ACAD_XDICTIONARY
360
54C
102
}
102
{ACAD_REACTORS
330
1E
102
}
330
1E
100
AcDbPlotSettings
  1

  2
none_device
  4
Letter_(8.50_x_11.00_Inches)
  6

 40
6.349999904632568
 41
6.349999904632568
 42
6.350006103515625
 43
6.350006103515625
 44
215.8999938964844
 45
279.3999938964844
 46
0.0
 47
0.0
 48
0.0
 49
0.0
140
0.0
141
0.0
142
1.0
143
0.7920456400837077
 70
    16
 72
     0
 73
     1
 74
     1
  7

 75
     0
147
1.26255350625289
148
-40.90990674836773
149
-16.80285090839356
100
AcDbLayout
  1
Layout1
 70
     0
 71
     1
 10
1.412614649589498
 20
0.4635181562754874
 11
10.12511650018497
 21
7.195905906661691
 12
0.0
 22
0.0
 32
0.0
 14
1.610626249935737
 24
0.6615295633225813
 34
-0.0004043445228632
 15
6.724876425607217
 25
6.997894306315451
 35
0.0000152657740013
146
0.0
 13
0.0
 23
0.0
 33
0.0
 16
1.0
 26
0.0
 36
0.0
 17
0.0
 27
1.0
 37
0.0
 76
     0
330
B
331
32
1001
ACAD_PSEXT
1000
None
1000
None
1000
Not applicable
1000
The layout will not be plotted unless a new plotter configuration name is selected.
1070
     0
  0
LAYOUT
  5
20
102
{ACAD_XDICTIONARY
360
54A
102
}
102
{ACAD_REACTORS
330
1E
102
}
330
1E
100
AcDbPlotSettings
  1

  2

  4

  6

 40
0.0
 41
0.0
 42
0.0
 43
0.0
 44
0.0
 45
0.0
 46
0.0
 47
0.0
 48
0.0
 49
0.0
140
0.0
141
0.0
142
1.0
143
1.0
 70
  1024
 72
     0
 73
     0
 74
     0
  7

 75
     0
147
1.0
148
0.0
149
0.0
100
AcDbLayout
  1
Model
 70
     0
 71
     0
 10
0.0
 20
0.0
 11
0.0
 21
0.0
 12
0.0
 22
0.0
 32
0.0
 14
0.0
 24
0.0
 34
0.0
 15
0.0
 25
0.0
 35
0.0
146
0.0
 13
0.0
 23
0.0
 33
0.0
 16
0.0
 26
0.0
 36
0.0
 17
0.0
 27
0.0
 37
0.0
 76
     0
330
A
  0
MATERIAL
  5
527
102
{ACAD_XDICTIONARY
360
554
102
}
102
{ACAD_REACTORS
330
525
102
}
330
525
100
AcDbMaterial
  1
ByBlock
  0
MATERIAL
  5
526
102
{ACAD_XDICTIONARY
360
552
102
}
102
{ACAD_REACTORS
330
525
102
}
330
525
100
AcDbMaterial
  1
ByLayer
  0
MATERIAL
  5
528
102
{ACAD_XDICTIONARY
360
556
102
}
102
{ACAD_REACTORS
330
525
102
}
330
525
100
AcDbMaterial
  1
Global
  0
MLINESTYLE
  5
1C
102
{ACAD_REACTORS
330
1B
102
}
330
1B
100
AcDbMlineStyle
  2
STANDARD
 70
     0
  3

 62
     0
 51
90.0
 52
90.0
 71
     2
 49
0.5
 62
   256
  6
BYLAYER
 49
-0.5
 62
   256
  6
BYLAYER
  0
ACDBPLACEHOLDER
  5
1D
102
{ACAD_REACTORS
330
1F
102
}
330
1F
  0
TABLESTYLE
  5
53C
102
{ACAD_XDICTIONARY
360
558
102
}
102
{ACAD_REACTORS
330
53B
102
}
330
53B
100
AcDbTableStyle
  3
Standard
 70
     0
 71
     0
 40
0.06
 41
0.06
280
     0
281
     0
  7
Standard
140
0.18
170
     2
 62
     0
 63
     7
283
     0
274
    -2
284
     1
 64
     0
275
    -2
285
     1
 65
     0
276
    -2
286
     1
 66
     0
277
    -2
287
     1
 67
     0
278
    -2
288
     1
 68
     0
279
    -2
289
     1
 69
     0
  7
Standard
140
0.25
170
     5
 62
     0
 63
     7
283
     0
274
    -2
284
     1
 64
     0
275
    -2
285
     1
 65
     0
276
    -2
286
     1
 66
     0
277
    -2
287
     1
 67
     0
278
    -2
288
     1
 68
     0
279
    -2
289
     1
 69
     0
  7
Standard
140
0.18
170
     5
 62
     0
 63
     7
283
     0
274
    -2
284
     1
 64
     0
275
    -2
285
     1
 65
     0
276
    -2
286
     1
 66
     0
277
    -2
287
     1
 67
     0
278
    -2
288
     1
 68
     0
279
    -2
289
     1
 69
     0
  0
VISUALSTYLE
  5
52F
102
{ACAD_REACTORS
330
529
102
}
330
529
100
AcDbVisualStyle
  2
2dWireframe
 70
     4
 71
     0
 72
     2
 73
     0
 90
        0
 40
-0.6
 41
-30.0
 62
     5
 63
     7
 74
     1
 91
        4
 64
     7
 65
   257
 75
     1
175
     1
 42
1.0
 92
        0
 66
   257
 43
1.0
 76
     1
 77
     6
 78
     2
 67
     7
 79
     5
170
     0
171
     0
290
     0
174
     0
 93
        1
 44
0.0
173
     0
291
     0
 45
0.0
1001
ACAD
1000
AcDbSavedByObjectVersion
1070
     0
  0
VISUALSTYLE
  5
531
102
{ACAD_REACTORS
330
529
102
}
330
529
100
AcDbVisualStyle
  2
3D Hidden
 70
     6
 71
     1
 72
     2
 73
     2
 90
        0
 40
-0.6
 41
-30.0
 62
     5
 63
     7
 74
     2
 91
        2
 64
     7
 65
   257
 75
     2
175
     1
 42
40.0
 92
        0
 66
   257
 43
1.0
 76
     1
 77
     6
 78
     2
 67
     7
 79
     3
170
     0
171
     0
290
     0
174
     0
 93
        1
 44
0.0
173
     0
291
     0
 45
0.0
1001
ACAD
1000
AcDbSavedByObjectVersion
1070
     0
  0
VISUALSTYLE
  5
530
102
{ACAD_REACTORS
330
529
102
}
330
529
100
AcDbVisualStyle
  2
3dWireframe
 70
     5
 71
     0
 72
     2
 73
     0
 90
        0
 40
-0.6
 41
-30.0
 62
     5
 63
     7
 74
     1
 91
        4
 64
     7
 65
   257
 75
     1
175
     1
 42
1.0
 92
        0
 66
   257
 43
1.0
 76
     1
 77
     6
 78
     2
 67
     7
 79
     5
170
     0
171
     0
290
     0
174
     0
 93
        1
 44
0.0
173
     0
291
     0
 45
0.0
1001
ACAD
1000
AcDbSavedByObjectVersion
1070
     0
  0
VISUALSTYLE
  5
52E
102
{ACAD_REACTORS
330
529
102
}
330
529
100
AcDbVisualStyle
  2
Basic
 70
     7
 71
     1
 72
     0
 73
     1
 90
        0
 40
-0.6
 41
-30.0
 62
     5
 63
     7
 74
     0
 91
        4
 64
     7
 65
   257
 75
     1
175
     1
 42
1.0
 92
        8
 66
     7
 43
1.0
 76
     1
 77
     6
 78
     2
 67
     7
 79
     5
170
     0
171
     0
290
     0
174
     0
 93
        1
 44
0.0
173
     0
291
     1
 45
0.0
1001
ACAD
1000
AcDbSavedByObjectVersion
1070
     0
  0
VISUALSTYLE
  5
535
102
{ACAD_REACTORS
330
529
102
}
330
529
100
AcDbVisualStyle
  2
Brighten
 70
    12
 71
     2
 72
     2
 73
     0
 90
        0
 40
-0.6
 41
-30.0
 62
     5
 63
     7
 74
     1
 91
        4
 64
     7
 65
   257
 75
     1
175
     1
 42
1.0
 92
        8
 66
     7
 43
1.0
 76
     1
 77
     6
 78
     2
 67
     7
 79
     5
170
     0
171
     0
290
     0
174
     0
 93
        1
 44
50.0
173
     0
291
     1
 45
0.0
1001
ACAD
1000
AcDbSavedByObjectVersion
1070
     0
  0
VISUALSTYLE
  5
539
102
{ACAD_REACTORS
330
529
102
}
330
529
100
AcDbVisualStyle
  2
ColorChange
 70
    16
 71
     2
 72
     2
 73
     3
 90
        0
 40
-0.6
 41
-30.0
 62
     5
 63
     8
 74
     1
 91
        4
 64
     7
 65
   257
 75
     1
175
     1
 42
1.0
 92
        8
 66
     8
 43
1.0
 76
     1
 77
     6
 78
     2
 67
     7
 79
     5
170
     0
171
     0
290
     0
174
     0
 93
        1
 44
0.0
173
     0
291
     1
 45
0.0
1001
ACAD
1000
AcDbSavedByObjectVersion
1070
     0
  0
VISUALSTYLE
  5
532
102
{ACAD_REACTORS
330
529
102
}
330
529
100
AcDbVisualStyle
  2
Conceptual
 70
     9
 71
     3
 72
     2
 73
     0
 90
        0
 40
-0.6
 41
-30.0
 62
     5
 63
     7
 74
     2
 91
        2
 64
     7
 65
   257
 75
     1
175
     1
 42
40.0
 92
        8
 66
     7
 43
1.0
 76
     1
 77
     6
 78
     2
 67
     7
 79
     3
170
     0
171
     0
290
     0
174
     0
 93
        1
 44
0.0
173
     0
291
     0
 45
0.0
1001
ACAD
1000
AcDbSavedByObjectVersion
1070
     0
  0
VISUALSTYLE
  5
534
102
{ACAD_REACTORS
330
529
102
}
330
529
100
AcDbVisualStyle
  2
Dim
 70
    11
 71
     2
 72
     2
 73
     0
 90
        0
 40
-0.6
 41
-30.0
 62
     5
 63
     7
 74
     1
 91
        4
 64
     7
 65
   257
 75
     1
175
     1
 42
1.0
 92
        8
 66
     7
 43
1.0
 76
     1
 77
     6
 78
     2
 67
     7
 79
     5
170
     0
171
     0
290
     0
174
     0
 93
        1
 44
-50.0
173
     0
291
     1
 45
0.0
1001
ACAD
1000
AcDbSavedByObjectVersion
1070
     0
  0
VISUALSTYLE
  5
538
102
{ACAD_REACTORS
330
529
102
}
330
529
100
AcDbVisualStyle
  2
Facepattern
 70
    15
 71
     2
 72
     2
 73
     0
 90
        0
 40
-0.6
 41
-30.0
 62
     5
 63
     7
 74
     1
 91
        4
 64
     7
 65
   257
 75
     1
175
     1
 42
1.0
 92
        8
 66
     7
 43
1.0
 76
     1
 77
     6
 78
     2
 67
     7
 79
     5
170
     0
171
     0
290
     0
174
     0
 93
        1
 44
0.0
173
     0
291
     1
 45
0.0
1001
ACAD
1000
AcDbSavedByObjectVersion
1070
     0
  0
VISUALSTYLE
  5
52A
102
{ACAD_REACTORS
330
529
102
}
330
529
100
AcDbVisualStyle
  2
Flat
 70
     0
 71
     2
 72
     1
 73
     1
 90
        2
 40
-0.6
 41
30.0
 62
     5
 63
     7
 74
     0
 91
        4
 64
     7
 65
   257
 75
     1
175
     1
 42
1.0
 92
        8
 66
     7
 43
1.0
 76
     1
 77
     6
 78
     2
 67
     7
 79
     5
170
     0
171
     0
290
     0
174
     0
 93
       13
 44
0.0
173
     0
291
     1
 45
0.0
1001
ACAD
1000
AcDbSavedByObjectVersion
1070
     0
  0
VISUALSTYLE
  5
52B
102
{ACAD_REACTORS
330
529
102
}
330
529
100
AcDbVisualStyle
  2
FlatWithEdges
 70
     1
 71
     2
 72
     1
 73
     1
 90
        2
 40
-0.6
 41
30.0
 62
     5
 63
     7
 74
     1
 91
        4
 64
     7
 65
   257
 75
     1
175
     1
 42
1.0
 92
        0
 66
   257
 43
1.0
 76
     1
 77
     6
 78
     2
 67
     7
 79
     5
170
     0
171
     0
290
     0
174
     0
 93
       13
 44
0.0
173
     0
291
     1
 45
0.0
1001
ACAD
1000
AcDbSavedByObjectVersion
1070
     0
  0
VISUALSTYLE
  5
52C
102
{ACAD_REACTORS
330
529
102
}
330
529
100
AcDbVisualStyle
  2
Gouraud
 70
     2
 71
     2
 72
     2
 73
     1
 90
        2
 40
-0.6
 41
30.0
 62
     5
 63
     7
 74
     0
 91
        4
 64
     7
 65
   257
 75
     1
175
     1
 42
1.0
 92
        0
 66
     7
 43
1.0
 76
     1
 77
     6
 78
     2
 67
     7
 79
     5
170
     0
171
     0
290
     0
174
     0
 93
       13
 44
0.0
173
     0
291
     1
 45
0.0
1001
ACAD
1000
AcDbSavedByObjectVersion
1070
     0
  0
VISUALSTYLE
  5
52D
102
{ACAD_REACTORS
330
529
102
}
330
529
100
AcDbVisualStyle
  2
GouraudWithEdges
 70
     3
 71
     2
 72
     2
 73
     1
 90
        2
 40
-0.6
 41
30.0
 62
     5
 63
     7
 74
     1
 91
        4
 64
     7
 65
   257
 75
     1
175
     1
 42
1.0
 92
        0
 66
   257
 43
1.0
 76
     1
 77
     6
 78
     2
 67
     7
 79
     5
170
     0
171
     0
290
     0
174
     0
 93
       13
 44
0.0
173
     0
291
     1
 45
0.0
1001
ACAD
1000
AcDbSavedByObjectVersion
1070
     0
  0
VISUALSTYLE
  5
537
102
{ACAD_REACTORS
330
529
102
}
330
529
100
AcDbVisualStyle
  2
Linepattern
 70
    14
 71
     2
 72
     2
 73
     0
 90
        0
 40
-0.6
 41
-30.0
 62
     5
 63
     7
 74
     1
 91
        4
 64
     7
 65
   257
 75
     7
175
     7
 42
1.0
 92
        8
 66
     7
 43
1.0
 76
     1
 77
     6
 78
     2
 67
     7
 79
     5
170
     0
171
     0
290
     0
174
     0
 93
        1
 44
0.0
173
     0
291
     1
 45
0.0
1001
ACAD
1000
AcDbSavedByObjectVersion
1070
     0
  0
VISUALSTYLE
  5
533
102
{ACAD_REACTORS
330
529
102
}
330
529
100
AcDbVisualStyle
  2
Realistic
 70
     8
 71
     2
 72
     2
 73
     0
 90
        0
 40
-0.6
 41
-30.0
 62
     5
 63
     7
 74
     1
 91
        0
 64
     7
 65
   257
 75
     1
175
     1
 42
1.0
 92
        8
 66
     8
 43
1.0
 76
     1
 77
     6
 78
     2
 67
     7
 79
     5
170
     0
171
     0
290
     0
174
     0
 93
       13
 44
0.0
173
     0
291
     0
 45
0.0
1001
ACAD
1000
AcDbSavedByObjectVersion
1070
     0
  0
VISUALSTYLE
  5
536
102
{ACAD_REACTORS
330
529
102
}
330
529
100
AcDbVisualStyle
  2
Thicken
 70
    13
 71
     2
 72
     2
 73
     0
 90
        0
 40
-0.6
 41
-30.0
 62
     5
 63
     7
 74
     1
 91
        4
 64
     7
 65
   257
 75
     1
175
     1
 42
1.0
 92
       12
 66
     7
 43
1.0
 76
     1
 77
     6
 78
     2
 67
     7
 79
     5
170
     0
171
     0
290
     0
174
     0
 93
        1
 44
0.0
173
     0
291
     1
 45
0.0
1001
ACAD
1000
AcDbSavedByObjectVersion
1070
     0
  0
DICTIONARYVAR
  5
545
102
{ACAD_REACTORS
330
544
102
}
330
544
100
DictionaryVariables
280
     0
  1
STANDARD
  0
DICTIONARYVAR
  5
548
102
{ACAD_REACTORS
330
544
102
}
330
544
100
DictionaryVariables
280
     0
  1
1
  0
DICTIONARYVAR
  5
547
102
{ACAD_REACTORS
330
544
102
}
330
544
100
DictionaryVariables
280
     0
  1
0
  0
DICTIONARYVAR
  5
546
102
{ACAD_REACTORS
330
544
102
}
330
544
100
DictionaryVariables
280
     0
  1
127
  0
XRECORD
  5
543
102
{ACAD_REACTORS
330
541
102
}
330
541
100
AcDbXrecord
280
     1
  0
DICTIONARY
  5
550
330
510
100
AcDbDictionary
280
     1
281
     1
  3
ACAD_XREC_ROUNDTRIP
360
551
  0
DICTIONARY
  5
54C
330
21
100
AcDbDictionary
280
     1
281
     1
  3
ACAD_XREC_ROUNDTRIP
360
54D
  0
DICTIONARY
  5
54A
330
20
100
AcDbDictionary
280
     1
281
     1
  3
ACAD_XREC_ROUNDTRIP
360
54B
  0
DICTIONARY
  5
554
330
527
100
AcDbDictionary
280
     1
281
     1
  3
ACAD_XREC_ROUNDTRIP
360
555
  0
DICTIONARY
  5
552
330
526
100
AcDbDictionary
280
     1
281
     1
  3
ACAD_XREC_ROUNDTRIP
360
553
  0
DICTIONARY
  5
556
330
528
100
AcDbDictionary
280
     1
281
     1
  3
ACAD_XREC_ROUNDTRIP
360
557
  0
DICTIONARY
  5
558
330
53C
100
AcDbDictionary
280
     1
281
     1
  3
ACAD_XREC_ROUNDTRIP
360
559
  0
XRECORD
  5
551
102
{ACAD_REACTORS
330
550
102
}
330
550
100
AcDbXrecord
280
     1
102
SHADEPLOT
 70
     0
102
SHADEPLOTRESLEVEL
 70
     2
102
SHADEPLOTCUSTOMDPI
 70
   300
  0
XRECORD
  5
54D
102
{ACAD_REACTORS
330
54C
102
}
330
54C
100
AcDbXrecord
280
     1
102
SHADEPLOT
 70
     0
102
SHADEPLOTRESLEVEL
 70
     2
102
SHADEPLOTCUSTOMDPI
 70
   300
  0
XRECORD
  5
54B
102
{ACAD_REACTORS
330
54A
102
}
330
54A
100
AcDbXrecord
280
     1
102
SHADEPLOT
 70
     0
102
SHADEPLOTRESLEVEL
 70
     2
102
SHADEPLOTCUSTOMDPI
 70
   300
  0
XRECORD
  5
555
102
{ACAD_REACTORS
330
554
102
}
330
554
100
AcDbXrecord
280
     1
102
MATERIAL
148
0.0
149
0.0
149
0.0
 93
        0
 94
       63
282
     0
 72
     1
 77
     1
171
     1
175
     1
179
     1
273
     0
  0
XRECORD
  5
553
102
{ACAD_REACTORS
330
552
102
}
330
552
100
AcDbXrecord
280
     1
102
MATERIAL
148
0.0
149
0.0
149
0.0
 93
        0
 94
       63
282
     0
 72
     1
 77
     1
171
     1
175
     1
179
     1
273
     0
  0
XRECORD
  5
557
102
{ACAD_REACTORS
330
556
102
}
330
556
100
AcDbXrecord
280
     1
102
MATERIAL
148
0.0
149
0.0
149
0.0
 93
        0
 94
       63
282
     0
 72
     1
 77
     1
171
     1
175
     1
179
     1
273
     0
  0
XRECORD
  5
559
102
{ACAD_REACTORS
330
558
102
}
330
558
100
AcDbXrecord
280
     1
102
ACAD_ROUNDTRIP_PRE2007_TABLESTYLE
 90
      512
 91
        0
  1

 92
      512
 93
        0
  2

 94
      512
 95
        0
  3

  0
ENDSEC
  0
EOF
