  0
SECTION
  2
HEADER
  9
$ACADVER
  1
AC1012
  9
$DWGCODEPAGE
  3
ANSI_1252
  9
$INSBASE
 10
0.0
 20
0.0
 30
0.0
  9
$EXTMIN
 10
0.0014648716913825
 20
4.281870345261584
 30
-0.0000000349181948
  9
$EXTMAX
 10
5.820556661370858
 20
10.89679716350387
 30
0.0000000814935746
  9
$LIMMIN
 10
0.0
 20
0.0
  9
$LIMMAX
 10
12.0
 20
9.0
  9
$ORTHOMODE
 70
     0
  9
$REGENMODE
 70
     1
  9
$FILLMODE
 70
     1
  9
$QTEXTMODE
 70
     0
  9
$MIRRTEXT
 70
     1
  9
$DRAGMODE
 70
     2
  9
$LTSCALE
 40
1.0
  9
$OSMODE
 70
   547
  9
$ATTMODE
 70
     1
  9
$TEXTSIZE
 40
0.2
  9
$TRACEWID
 40
0.05
  9
$TEXTSTYLE
  7
STANDARD
  9
$CLAYER
  8
0
  9
$CELTYPE
  6
BYLAYER
  9
$CECOLOR
 62
   256
  9
$CELTSCALE
 40
1.0
  9
$DELOBJ
 70
     1
  9
$DISPSILH
 70
     0
  9
$DIMSCALE
 40
1.0
  9
$DIMASZ
 40
0.18
  9
$DIMEXO
 40
0.0625
  9
$DIMDLI
 40
0.38
  9
$DIMRND
 40
0.0
  9
$DIMDLE
 40
0.0
  9
$DIMEXE
 40
0.18
  9
$DIMTP
 40
0.0
  9
$DIMTM
 40
0.0
  9
$DIMTXT
 40
0.18
  9
$DIMCEN
 40
0.09
  9
$DIMTSZ
 40
0.0
  9
$DIMTOL
 70
     0
  9
$DIMLIM
 70
     0
  9
$DIMTIH
 70
     1
  9
$DIMTOH
 70
     1
  9
$DIMSE1
 70
     0
  9
$DIMSE2
 70
     0
  9
$DIMTAD
 70
     0
  9
$DIMZIN
 70
     0
  9
$DIMBLK
  1

  9
$DIMASO
 70
     1
  9
$DIMSHO
 70
     1
  9
$DIMPOST
  1

  9
$DIMAPOST
  1

  9
$DIMALT
 70
     0
  9
$DIMALTD
 70
     2
  9
$DIMALTF
 40
25.4
  9
$DIMLFAC
 40
1.0
  9
$DIMTOFL
 70
     0
  9
$DIMTVP
 40
0.0
  9
$DIMTIX
 70
     0
  9
$DIMSOXD
 70
     0
  9
$DIMSAH
 70
     0
  9
$DIMBLK1
  1

  9
$DIMBLK2
  1

  9
$DIMSTYLE
  2
STANDARD
  9
$DIMCLRD
 70
     0
  9
$DIMCLRE
 70
     0
  9
$DIMCLRT
 70
     0
  9
$DIMTFAC
 40
1.0
  9
$DIMGAP
 40
0.09
  9
$DIMJUST
 70
     0
  9
$DIMSD1
 70
     0
  9
$DIMSD2
 70
     0
  9
$DIMTOLJ
 70
     1
  9
$DIMTZIN
 70
     0
  9
$DIMALTZ
 70
     0
  9
$DIMALTTZ
 70
     0
  9
$DIMFIT
 70
     5
  9
$DIMUPT
 70
     0
  9
$DIMUNIT
 70
     2
  9
$DIMDEC
 70
     4
  9
$DIMTDEC
 70
     4
  9
$DIMALTU
 70
     2
  9
$DIMALTTD
 70
     2
  9
$DIMTXSTY
  7
STANDARD
  9
$DIMAUNIT
 70
     0
  9
$LUNITS
 70
     2
  9
$LUPREC
 70
     4
  9
$SKETCHINC
 40
0.1
  9
$FILLETRAD
 40
0.0
  9
$AUNITS
 70
     0
  9
$AUPREC
 70
     0
  9
$MENU
  1
acad
  9
$ELEVATION
 40
0.0
  9
$PELEVATION
 40
0.0
  9
$THICKNESS
 40
0.0
  9
$LIMCHECK
 70
     0
  9
$BLIPMODE
 70
     0
  9
$CHAMFERA
 40
0.0
  9
$CHAMFERB
 40
0.0
  9
$CHAMFERC
 40
0.0
  9
$CHAMFERD
 40
0.0
  9
$SKPOLY
 70
     0
  9
$TDCREATE
 40
2451906.319131944
  9
$TDUPDATE
 40
2453945.365930046
  9
$TDINDWG
 40
0.0022446528
  9
$TDUSRTIMER
 40
0.0022446528
  9
$USRTIMER
 70
     1
  9
$ANGBASE
 50
0.0
  9
$ANGDIR
 70
     0
  9
$PDMODE
 70
     0
  9
$PDSIZE
 40
0.0
  9
$PLINEWID
 40
0.0
  9
$COORDS
 70
     1
  9
$SPLFRAME
 70
     0
  9
$SPLINETYPE
 70
     6
  9
$SPLINESEGS
 70
     8
  9
$ATTDIA
 70
     0
  9
$ATTREQ
 70
     1
  9
$HANDLING
 70
  4097
  9
$HANDSEED
  5
41A0
  9
$SURFTAB1
 70
     6
  9
$SURFTAB2
 70
     6
  9
$SURFTYPE
 70
     6
  9
$SURFU
 70
     6
  9
$SURFV
 70
     6
  9
$UCSNAME
  2

  9
$UCSORG
 10
0.0
 20
0.0
 30
0.0
  9
$UCSXDIR
 10
1.0
 20
0.0
 30
0.0
  9
$UCSYDIR
 10
0.0
 20
1.0
 30
0.0
  9
$PUCSNAME
  2

  9
$PUCSORG
 10
0.0
 20
0.0
 30
0.0
  9
$PUCSXDIR
 10
1.0
 20
0.0
 30
0.0
  9
$PUCSYDIR
 10
0.0
 20
1.0
 30
0.0
  9
$USERI1
 70
     0
  9
$USERI2
 70
     0
  9
$USERI3
 70
     0
  9
$USERI4
 70
     0
  9
$USERI5
 70
     0
  9
$USERR1
 40
0.0
  9
$USERR2
 40
0.0
  9
$USERR3
 40
0.0
  9
$USERR4
 40
0.0
  9
$USERR5
 40
0.0
  9
$WORLDVIEW
 70
     1
  9
$SHADEDGE
 70
     3
  9
$SHADEDIF
 70
    70
  9
$TILEMODE
 70
     1
  9
$MAXACTVP
 70
    16
  9
$PINSBASE
 10
0.0
 20
0.0
 30
0.0
  9
$PLIMCHECK
 70
     0
  9
$PEXTMIN
 10
1.000000000000000E+20
 20
1.000000000000000E+20
 30
1.000000000000000E+20
  9
$PEXTMAX
 10
-1.000000000000000E+20
 20
-1.000000000000000E+20
 30
-1.000000000000000E+20
  9
$PLIMMIN
 10
0.0
 20
0.0
  9
$PLIMMAX
 10
12.0
 20
9.0
  9
$UNITMODE
 70
     0
  9
$VISRETAIN
 70
     0
  9
$PLINEGEN
 70
     0
  9
$PSLTSCALE
 70
     1
  9
$TREEDEPTH
 70
  3020
  9
$PICKSTYLE
 70
     1
  9
$CMLSTYLE
  2
STANDARD
  9
$CMLJUST
 70
     0
  9
$CMLSCALE
 40
1.0
  9
$SAVEIMAGES
 70
     1
  0
ENDSEC
  0
SECTION
  2
CLASSES
  0
CLASS
  1
ACDBDICTIONARYWDFLT
  2
AcDbDictionaryWithDefault
  3
AutoCAD 2000
 90
    32768
280
     0
281
     0
  0
CLASS
  1
ACDBPLACEHOLDER
  2
AcDbPlaceHolder
  3
AutoCAD 2000
 90
    32768
280
     0
281
     0
  0
CLASS
  1
LAYOUT
  2
AcDbLayout
  3
AutoCAD 2000
 90
    32768
280
     0
281
     0
  0
CLASS
  1
LONG_TRANSACTION
  2
AcDbLongTransaction
  3
AutoCAD 2000
 90
    32768
280
     0
281
     0
  0
CLASS
  1
LWPOLYLINE
  2
AcDbPolyline
  3
AutoCAD 2000
 90
    32768
280
     0
281
     1
  0
CLASS
  1
HATCH
  2
AcDbHatch
  3
AutoCAD 2000
 90
    32768
280
     0
281
     1
  0
CLASS
  1
XRECORD
  2
AcDbXrecord
  3
AutoCAD 2000
 90
    32768
280
     0
281
     0
  0
CLASS
  1
LONG_TRANSACTION
  2
AcDbLongTransaction
  3
AutoCAD 2000
 90
    32768
280
     0
281
     0
  0
CLASS
  1
LWPOLYLINE
  2
AcDbPolyline
  3
AutoCAD 2000
 90
    32768
280
     0
281
     1
  0
CLASS
  1
HATCH
  2
AcDbHatch
  3
AutoCAD 2000
 90
    32768
280
     0
281
     1
  0
CLASS
  1
XRECORD
  2
AcDbXrecord
  3
AutoCAD 2000
 90
    32768
280
     0
281
     0
  0
CLASS
  1
LONG_TRANSACTION
  2
AcDbLongTransaction
  3
AutoCAD 2000
 90
    32768
280
     0
281
     0
  0
CLASS
  1
LWPOLYLINE
  2
AcDbPolyline
  3
AutoCAD 2000
 90
    32768
280
     0
281
     1
  0
CLASS
  1
HATCH
  2
AcDbHatch
  3
AutoCAD 2000
 90
    32768
280
     0
281
     1
  0
CLASS
  1
XRECORD
  2
AcDbXrecord
  3
AutoCAD 2000
 90
    32768
280
     0
281
     0
  0
ENDSEC
  0
SECTION
  2
TABLES
  0
TABLE
  2
VPORT
  5
8
330
0
100
AcDbSymbolTable
 70
     3
  0
VPORT
  5
419D
330
8
100
AcDbSymbolTableRecord
100
AcDbViewportTableRecord
  2
*ACTIVE
 70
     0
 10
0.0
 20
0.0
 11
1.0
 21
1.0
 12
2.91101076653112
 22
7.589333754382726
 13
0.0
 23
0.0
 14
1.0
 24
1.0
 15
0.0
 25
0.0
 16
0.0
 26
0.0
 36
1.0
 17
0.0
 27
0.0
 37
0.0
 40
6.683712885676346
 41
1.647569444444444
 42
50.0
 43
0.0
 44
0.0
 50
0.0
 51
0.0
 71
     0
 72
   100
 73
     1
 74
     1
 75
     0
 76
     0
 77
     0
 78
     0
  0
ENDTAB
  0
TABLE
  2
LTYPE
  5
5
330
0
100
AcDbSymbolTable
 70
    25
  0
LTYPE
  5
13
330
5
100
AcDbSymbolTableRecord
100
AcDbLinetypeTableRecord
  2
BYBLOCK
 70
     0
  3

 72
    65
 73
     0
 40
0.0
  0
LTYPE
  5
14
330
5
100
AcDbSymbolTableRecord
100
AcDbLinetypeTableRecord
  2
BYLAYER
 70
     0
  3

 72
    65
 73
     0
 40
0.0
  0
LTYPE
  5
15
330
5
100
AcDbSymbolTableRecord
100
AcDbLinetypeTableRecord
  2
CONTINUOUS
 70
     0
  3
Solid line
 72
    65
 73
     0
 40
0.0
  0
LTYPE
  5
22
330
5
100
AcDbSymbolTableRecord
100
AcDbLinetypeTableRecord
  2
BORDER
 70
     0
  3
__ __ . __ __ . __ __ . __ __ . __ __ . __ __ .
 72
    65
 73
     6
 40
1.75
 49
0.5
 74
     0
 49
-0.25
 74
     0
 49
0.5
 74
     0
 49
-0.25
 74
     0
 49
0.5
 74
     0
 49
-0.25
 74
     0
  0
LTYPE
  5
23
330
5
100
AcDbSymbolTableRecord
100
AcDbLinetypeTableRecord
  2
BORDER2
 70
     0
  3
__.__.__.__.__.__.__.__.__.__.__.__.__.__.__.__
 72
    65
 73
     6
 40
0.875
 49
0.25
 74
     0
 49
-0.125
 74
     0
 49
0.25
 74
     0
 49
-0.125
 74
     0
 49
0.25
 74
     0
 49
-0.125
 74
     0
  0
LTYPE
  5
24
330
5
100
AcDbSymbolTableRecord
100
AcDbLinetypeTableRecord
  2
BORDERX2
 70
     0
  3
____  ____  .  ____  ____  .  
 72
    65
 73
     6
 40
3.5
 49
1.0
 74
     0
 49
-0.5
 74
     0
 49
1.0
 74
     0
 49
-0.5
 74
     0
 49
1.0
 74
     0
 49
-0.5
 74
     0
  0
LTYPE
  5
25
330
5
100
AcDbSymbolTableRecord
100
AcDbLinetypeTableRecord
  2
CENTER
 70
     0
  3
____ _ ____ _ ____ _ ____ _ ____ _ ____ _ ____
 72
    65
 73
     4
 40
2.0
 49
1.25
 74
     0
 49
-0.25
 74
     0
 49
0.25
 74
     0
 49
-0.25
 74
     0
  0
LTYPE
  5
26
330
5
100
AcDbSymbolTableRecord
100
AcDbLinetypeTableRecord
  2
CENTER2
 70
     0
  3
____ _ ____ _ ____ _ ____ _ ____ _ ____ _ ____
 72
    65
 73
     4
 40
1.125
 49
0.75
 74
     0
 49
-0.125
 74
     0
 49
0.125
 74
     0
 49
-0.125
 74
     0
  0
LTYPE
  5
27
330
5
100
AcDbSymbolTableRecord
100
AcDbLinetypeTableRecord
  2
CENTERX2
 70
     0
  3
________  __  ________  __  ________  __  
 72
    65
 73
     4
 40
4.0
 49
2.5
 74
     0
 49
-0.5
 74
     0
 49
0.5
 74
     0
 49
-0.5
 74
     0
  0
LTYPE
  5
28
330
5
100
AcDbSymbolTableRecord
100
AcDbLinetypeTableRecord
  2
DASHDOT
 70
     0
  3
__ . __ . __ . __ . __ . __ . __ . 
 72
    65
 73
     4
 40
1.0
 49
0.5
 74
     0
 49
-0.25
 74
     0
 49
0.0
 74
     0
 49
-0.25
 74
     0
  0
LTYPE
  5
29
330
5
100
AcDbSymbolTableRecord
100
AcDbLinetypeTableRecord
  2
DASHDOT2
 70
     0
  3
_._._._._._._._._._._._._._._._.
 72
    65
 73
     4
 40
0.5
 49
0.25
 74
     0
 49
-0.125
 74
     0
 49
0.0
 74
     0
 49
-0.125
 74
     0
  0
LTYPE
  5
2A
330
5
100
AcDbSymbolTableRecord
100
AcDbLinetypeTableRecord
  2
DASHDOTX2
 70
     0
  3
____  .  ____  .  ____  .  ____  .  
 72
    65
 73
     4
 40
2.0
 49
1.0
 74
     0
 49
-0.5
 74
     0
 49
0.0
 74
     0
 49
-0.5
 74
     0
  0
LTYPE
  5
2B
330
5
100
AcDbSymbolTableRecord
100
AcDbLinetypeTableRecord
  2
DASHED
 70
     0
  3
__ __ __ __ __ __ __ __ __ __ __ __ 
 72
    65
 73
     2
 40
0.75
 49
0.5
 74
     0
 49
-0.25
 74
     0
  0
LTYPE
  5
2C
330
5
100
AcDbSymbolTableRecord
100
AcDbLinetypeTableRecord
  2
DASHED2
 70
     0
  3
_ _ _ _ _ _ _ _ _ _ _ _ _ _ _ _ _ _ 
 72
    65
 73
     2
 40
0.375
 49
0.25
 74
     0
 49
-0.125
 74
     0
  0
LTYPE
  5
2D
330
5
100
AcDbSymbolTableRecord
100
AcDbLinetypeTableRecord
  2
DASHEDX2
 70
     0
  3
____  ____  ____  ____  ____  ____  
 72
    65
 73
     2
 40
1.5
 49
1.0
 74
     0
 49
-0.5
 74
     0
  0
LTYPE
  5
2E
330
5
100
AcDbSymbolTableRecord
100
AcDbLinetypeTableRecord
  2
DIVIDE
 70
     0
  3
____ . . ____ . . ____ . . ____ . . 
 72
    65
 73
     6
 40
1.25
 49
0.5
 74
     0
 49
-0.25
 74
     0
 49
0.0
 74
     0
 49
-0.25
 74
     0
 49
0.0
 74
     0
 49
-0.25
 74
     0
  0
LTYPE
  5
2F
330
5
100
AcDbSymbolTableRecord
100
AcDbLinetypeTableRecord
  2
DIVIDE2
 70
     0
  3
__..__..__..__..__..__..__..__..__..
 72
    65
 73
     6
 40
0.625
 49
0.25
 74
     0
 49
-0.125
 74
     0
 49
0.0
 74
     0
 49
-0.125
 74
     0
 49
0.0
 74
     0
 49
-0.125
 74
     0
  0
LTYPE
  5
30
330
5
100
AcDbSymbolTableRecord
100
AcDbLinetypeTableRecord
  2
DIVIDEX2
 70
     0
  3
________  .  .  ________  .  .  ________  .  . 
 72
    65
 73
     6
 40
2.5
 49
1.0
 74
     0
 49
-0.5
 74
     0
 49
0.0
 74
     0
 49
-0.5
 74
     0
 49
0.0
 74
     0
 49
-0.5
 74
     0
  0
LTYPE
  5
31
330
5
100
AcDbSymbolTableRecord
100
AcDbLinetypeTableRecord
  2
DOT
 70
     0
  3
. . . . . . . . . . . . . . . . . . 
 72
    65
 73
     2
 40
0.25
 49
0.0
 74
     0
 49
-0.25
 74
     0
  0
LTYPE
  5
32
330
5
100
AcDbSymbolTableRecord
100
AcDbLinetypeTableRecord
  2
DOT2
 70
     0
  3
....................................
 72
    65
 73
     2
 40
0.125
 49
0.0
 74
     0
 49
-0.125
 74
     0
  0
LTYPE
  5
33
330
5
100
AcDbSymbolTableRecord
100
AcDbLinetypeTableRecord
  2
DOTX2
 70
     0
  3
.  .  .  .  .  .  .  .  .  .  .  .  .  
 72
    65
 73
     2
 40
0.5
 49
0.0
 74
     0
 49
-0.5
 74
     0
  0
LTYPE
  5
34
330
5
100
AcDbSymbolTableRecord
100
AcDbLinetypeTableRecord
  2
HIDDEN
 70
     0
  3
__ __ __ __ __ __ __ __ __ __ __ __ 
 72
    65
 73
     2
 40
0.375
 49
0.25
 74
     0
 49
-0.125
 74
     0
  0
LTYPE
  5
35
330
5
100
AcDbSymbolTableRecord
100
AcDbLinetypeTableRecord
  2
HIDDEN2
 70
     0
  3
_ _ _ _ _ _ _ _ _ _ _ _ _ _ _ _ _ _ 
 72
    65
 73
     2
 40
0.1875
 49
0.125
 74
     0
 49
-0.0625
 74
     0
  0
LTYPE
  5
36
330
5
100
AcDbSymbolTableRecord
100
AcDbLinetypeTableRecord
  2
HIDDENX2
 70
     0
  3
____ ____ ____ ____ ____ ____ ____ 
 72
    65
 73
     2
 40
0.75
 49
0.5
 74
     0
 49
-0.25
 74
     0
  0
LTYPE
  5
37
330
5
100
AcDbSymbolTableRecord
100
AcDbLinetypeTableRecord
  2
PHANTOM
 70
     0
  3
______  __  __  ______  __  __  
 72
    65
 73
     6
 40
2.5
 49
1.25
 74
     0
 49
-0.25
 74
     0
 49
0.25
 74
     0
 49
-0.25
 74
     0
 49
0.25
 74
     0
 49
-0.25
 74
     0
  0
LTYPE
  5
38
330
5
100
AcDbSymbolTableRecord
100
AcDbLinetypeTableRecord
  2
PHANTOM2
 70
     0
  3
___ _ _ ___ _ _ ___ _ _ ___ _ _ 
 72
    65
 73
     6
 40
1.25
 49
0.625
 74
     0
 49
-0.125
 74
     0
 49
0.125
 74
     0
 49
-0.125
 74
     0
 49
0.125
 74
     0
 49
-0.125
 74
     0
  0
LTYPE
  5
39
330
5
100
AcDbSymbolTableRecord
100
AcDbLinetypeTableRecord
  2
PHANTOMX2
 70
     0
  3
___ _ _ ___ _ _ ___ _ _ ___ _ _ 
 72
    65
 73
     6
 40
5.0
 49
2.5
 74
     0
 49
-0.5
 74
     0
 49
0.5
 74
     0
 49
-0.5
 74
     0
 49
0.5
 74
     0
 49
-0.5
 74
     0
  0
ENDTAB
  0
TABLE
  2
LAYER
  5
2
330
0
100
AcDbSymbolTable
 70
   256
  0
LAYER
  5
10
330
2
100
AcDbSymbolTableRecord
100
AcDbLayerTableRecord
  2
0
 70
     0
 62
     7
  6
CONTINUOUS
  0
LAYER
  5
3A
330
2
100
AcDbSymbolTableRecord
100
AcDbLayerTableRecord
  2
1
 70
     0
 62
     1
  6
CONTINUOUS
  0
LAYER
  5
3B
330
2
100
AcDbSymbolTableRecord
100
AcDbLayerTableRecord
  2
2
 70
     0
 62
     2
  6
CONTINUOUS
  0
LAYER
  5
3C
330
2
100
AcDbSymbolTableRecord
100
AcDbLayerTableRecord
  2
3
 70
     0
 62
     3
  6
CONTINUOUS
  0
LAYER
  5
3D
330
2
100
AcDbSymbolTableRecord
100
AcDbLayerTableRecord
  2
4
 70
     0
 62
     4
  6
CONTINUOUS
  0
LAYER
  5
3E
330
2
100
AcDbSymbolTableRecord
100
AcDbLayerTableRecord
  2
5
 70
     0
 62
     5
  6
CONTINUOUS
  0
LAYER
  5
3F
330
2
100
AcDbSymbolTableRecord
100
AcDbLayerTableRecord
  2
6
 70
     0
 62
     6
  6
CONTINUOUS
  0
LAYER
  5
40
330
2
100
AcDbSymbolTableRecord
100
AcDbLayerTableRecord
  2
7
 70
     0
 62
     7
  6
CONTINUOUS
  0
LAYER
  5
41
330
2
100
AcDbSymbolTableRecord
100
AcDbLayerTableRecord
  2
8
 70
     0
 62
     8
  6
CONTINUOUS
  0
LAYER
  5
42
330
2
100
AcDbSymbolTableRecord
100
AcDbLayerTableRecord
  2
9
 70
     0
 62
     9
  6
CONTINUOUS
  0
LAYER
  5
43
330
2
100
AcDbSymbolTableRecord
100
AcDbLayerTableRecord
  2
10
 70
     0
 62
    10
  6
CONTINUOUS
  0
LAYER
  5
44
330
2
100
AcDbSymbolTableRecord
100
AcDbLayerTableRecord
  2
11
 70
     0
 62
    11
  6
CONTINUOUS
  0
LAYER
  5
45
330
2
100
AcDbSymbolTableRecord
100
AcDbLayerTableRecord
  2
12
 70
     0
 62
    12
  6
CONTINUOUS
  0
LAYER
  5
46
330
2
100
AcDbSymbolTableRecord
100
AcDbLayerTableRecord
  2
13
 70
     0
 62
    13
  6
CONTINUOUS
  0
LAYER
  5
47
330
2
100
AcDbSymbolTableRecord
100
AcDbLayerTableRecord
  2
14
 70
     0
 62
    14
  6
CONTINUOUS
  0
LAYER
  5
48
330
2
100
AcDbSymbolTableRecord
100
AcDbLayerTableRecord
  2
15
 70
     0
 62
    15
  6
CONTINUOUS
  0
LAYER
  5
49
330
2
100
AcDbSymbolTableRecord
100
AcDbLayerTableRecord
  2
16
 70
     0
 62
    16
  6
CONTINUOUS
  0
LAYER
  5
4A
330
2
100
AcDbSymbolTableRecord
100
AcDbLayerTableRecord
  2
17
 70
     0
 62
    17
  6
CONTINUOUS
  0
LAYER
  5
4B
330
2
100
AcDbSymbolTableRecord
100
AcDbLayerTableRecord
  2
18
 70
     0
 62
    18
  6
CONTINUOUS
  0
LAYER
  5
4C
330
2
100
AcDbSymbolTableRecord
100
AcDbLayerTableRecord
  2
19
 70
     0
 62
    19
  6
CONTINUOUS
  0
LAYER
  5
4D
330
2
100
AcDbSymbolTableRecord
100
AcDbLayerTableRecord
  2
20
 70
     0
 62
    20
  6
CONTINUOUS
  0
LAYER
  5
4E
330
2
100
AcDbSymbolTableRecord
100
AcDbLayerTableRecord
  2
21
 70
     0
 62
    21
  6
CONTINUOUS
  0
LAYER
  5
4F
330
2
100
AcDbSymbolTableRecord
100
AcDbLayerTableRecord
  2
22
 70
     0
 62
    22
  6
CONTINUOUS
  0
LAYER
  5
50
330
2
100
AcDbSymbolTableRecord
100
AcDbLayerTableRecord
  2
23
 70
     0
 62
    23
  6
CONTINUOUS
  0
LAYER
  5
51
330
2
100
AcDbSymbolTableRecord
100
AcDbLayerTableRecord
  2
24
 70
     0
 62
    24
  6
CONTINUOUS
  0
LAYER
  5
52
330
2
100
AcDbSymbolTableRecord
100
AcDbLayerTableRecord
  2
25
 70
     0
 62
    25
  6
CONTINUOUS
  0
LAYER
  5
53
330
2
100
AcDbSymbolTableRecord
100
AcDbLayerTableRecord
  2
26
 70
     0
 62
    26
  6
CONTINUOUS
  0
LAYER
  5
54
330
2
100
AcDbSymbolTableRecord
100
AcDbLayerTableRecord
  2
27
 70
     0
 62
    27
  6
CONTINUOUS
  0
LAYER
  5
55
330
2
100
AcDbSymbolTableRecord
100
AcDbLayerTableRecord
  2
28
 70
     0
 62
    28
  6
CONTINUOUS
  0
LAYER
  5
56
330
2
100
AcDbSymbolTableRecord
100
AcDbLayerTableRecord
  2
29
 70
     0
 62
    29
  6
CONTINUOUS
  0
LAYER
  5
57
330
2
100
AcDbSymbolTableRecord
100
AcDbLayerTableRecord
  2
30
 70
     0
 62
    30
  6
CONTINUOUS
  0
LAYER
  5
58
330
2
100
AcDbSymbolTableRecord
100
AcDbLayerTableRecord
  2
31
 70
     0
 62
    31
  6
CONTINUOUS
  0
LAYER
  5
59
330
2
100
AcDbSymbolTableRecord
100
AcDbLayerTableRecord
  2
32
 70
     0
 62
    32
  6
CONTINUOUS
  0
LAYER
  5
5A
330
2
100
AcDbSymbolTableRecord
100
AcDbLayerTableRecord
  2
33
 70
     0
 62
    33
  6
CONTINUOUS
  0
LAYER
  5
5B
330
2
100
AcDbSymbolTableRecord
100
AcDbLayerTableRecord
  2
34
 70
     0
 62
    34
  6
CONTINUOUS
  0
LAYER
  5
5C
330
2
100
AcDbSymbolTableRecord
100
AcDbLayerTableRecord
  2
35
 70
     0
 62
    35
  6
CONTINUOUS
  0
LAYER
  5
5D
330
2
100
AcDbSymbolTableRecord
100
AcDbLayerTableRecord
  2
36
 70
     0
 62
    36
  6
CONTINUOUS
  0
LAYER
  5
5E
330
2
100
AcDbSymbolTableRecord
100
AcDbLayerTableRecord
  2
37
 70
     0
 62
    37
  6
CONTINUOUS
  0
LAYER
  5
5F
330
2
100
AcDbSymbolTableRecord
100
AcDbLayerTableRecord
  2
38
 70
     0
 62
    38
  6
CONTINUOUS
  0
LAYER
  5
60
330
2
100
AcDbSymbolTableRecord
100
AcDbLayerTableRecord
  2
39
 70
     0
 62
    39
  6
CONTINUOUS
  0
LAYER
  5
61
330
2
100
AcDbSymbolTableRecord
100
AcDbLayerTableRecord
  2
40
 70
     0
 62
    40
  6
CONTINUOUS
  0
LAYER
  5
62
330
2
100
AcDbSymbolTableRecord
100
AcDbLayerTableRecord
  2
41
 70
     0
 62
    41
  6
CONTINUOUS
  0
LAYER
  5
63
330
2
100
AcDbSymbolTableRecord
100
AcDbLayerTableRecord
  2
42
 70
     0
 62
    42
  6
CONTINUOUS
  0
LAYER
  5
64
330
2
100
AcDbSymbolTableRecord
100
AcDbLayerTableRecord
  2
43
 70
     0
 62
    43
  6
CONTINUOUS
  0
LAYER
  5
65
330
2
100
AcDbSymbolTableRecord
100
AcDbLayerTableRecord
  2
44
 70
     0
 62
    44
  6
CONTINUOUS
  0
LAYER
  5
66
330
2
100
AcDbSymbolTableRecord
100
AcDbLayerTableRecord
  2
45
 70
     0
 62
    45
  6
CONTINUOUS
  0
LAYER
  5
67
330
2
100
AcDbSymbolTableRecord
100
AcDbLayerTableRecord
  2
46
 70
     0
 62
    46
  6
CONTINUOUS
  0
LAYER
  5
68
330
2
100
AcDbSymbolTableRecord
100
AcDbLayerTableRecord
  2
47
 70
     0
 62
    47
  6
CONTINUOUS
  0
LAYER
  5
69
330
2
100
AcDbSymbolTableRecord
100
AcDbLayerTableRecord
  2
48
 70
     0
 62
    48
  6
CONTINUOUS
  0
LAYER
  5
6A
330
2
100
AcDbSymbolTableRecord
100
AcDbLayerTableRecord
  2
49
 70
     0
 62
    49
  6
CONTINUOUS
  0
LAYER
  5
6B
330
2
100
AcDbSymbolTableRecord
100
AcDbLayerTableRecord
  2
50
 70
     0
 62
    50
  6
CONTINUOUS
  0
LAYER
  5
6C
330
2
100
AcDbSymbolTableRecord
100
AcDbLayerTableRecord
  2
51
 70
     0
 62
    51
  6
CONTINUOUS
  0
LAYER
  5
6D
330
2
100
AcDbSymbolTableRecord
100
AcDbLayerTableRecord
  2
52
 70
     0
 62
    52
  6
CONTINUOUS
  0
LAYER
  5
6E
330
2
100
AcDbSymbolTableRecord
100
AcDbLayerTableRecord
  2
53
 70
     0
 62
    53
  6
CONTINUOUS
  0
LAYER
  5
6F
330
2
100
AcDbSymbolTableRecord
100
AcDbLayerTableRecord
  2
54
 70
     0
 62
    54
  6
CONTINUOUS
  0
LAYER
  5
70
330
2
100
AcDbSymbolTableRecord
100
AcDbLayerTableRecord
  2
55
 70
     0
 62
    55
  6
CONTINUOUS
  0
LAYER
  5
71
330
2
100
AcDbSymbolTableRecord
100
AcDbLayerTableRecord
  2
56
 70
     0
 62
    56
  6
CONTINUOUS
  0
LAYER
  5
72
330
2
100
AcDbSymbolTableRecord
100
AcDbLayerTableRecord
  2
57
 70
     0
 62
    57
  6
CONTINUOUS
  0
LAYER
  5
73
330
2
100
AcDbSymbolTableRecord
100
AcDbLayerTableRecord
  2
58
 70
     0
 62
    58
  6
CONTINUOUS
  0
LAYER
  5
74
330
2
100
AcDbSymbolTableRecord
100
AcDbLayerTableRecord
  2
59
 70
     0
 62
    59
  6
CONTINUOUS
  0
LAYER
  5
75
330
2
100
AcDbSymbolTableRecord
100
AcDbLayerTableRecord
  2
60
 70
     0
 62
    60
  6
CONTINUOUS
  0
LAYER
  5
76
330
2
100
AcDbSymbolTableRecord
100
AcDbLayerTableRecord
  2
61
 70
     0
 62
    61
  6
CONTINUOUS
  0
LAYER
  5
77
330
2
100
AcDbSymbolTableRecord
100
AcDbLayerTableRecord
  2
62
 70
     0
 62
    62
  6
CONTINUOUS
  0
LAYER
  5
78
330
2
100
AcDbSymbolTableRecord
100
AcDbLayerTableRecord
  2
63
 70
     0
 62
    63
  6
CONTINUOUS
  0
LAYER
  5
79
330
2
100
AcDbSymbolTableRecord
100
AcDbLayerTableRecord
  2
64
 70
     0
 62
    64
  6
CONTINUOUS
  0
LAYER
  5
7A
330
2
100
AcDbSymbolTableRecord
100
AcDbLayerTableRecord
  2
65
 70
     0
 62
    65
  6
CONTINUOUS
  0
LAYER
  5
7B
330
2
100
AcDbSymbolTableRecord
100
AcDbLayerTableRecord
  2
66
 70
     0
 62
    66
  6
CONTINUOUS
  0
LAYER
  5
7C
330
2
100
AcDbSymbolTableRecord
100
AcDbLayerTableRecord
  2
67
 70
     0
 62
    67
  6
CONTINUOUS
  0
LAYER
  5
7D
330
2
100
AcDbSymbolTableRecord
100
AcDbLayerTableRecord
  2
68
 70
     0
 62
    68
  6
CONTINUOUS
  0
LAYER
  5
7E
330
2
100
AcDbSymbolTableRecord
100
AcDbLayerTableRecord
  2
69
 70
     0
 62
    69
  6
CONTINUOUS
  0
LAYER
  5
7F
330
2
100
AcDbSymbolTableRecord
100
AcDbLayerTableRecord
  2
70
 70
     0
 62
    70
  6
CONTINUOUS
  0
LAYER
  5
80
330
2
100
AcDbSymbolTableRecord
100
AcDbLayerTableRecord
  2
71
 70
     0
 62
    71
  6
CONTINUOUS
  0
LAYER
  5
81
330
2
100
AcDbSymbolTableRecord
100
AcDbLayerTableRecord
  2
72
 70
     0
 62
    72
  6
CONTINUOUS
  0
LAYER
  5
82
330
2
100
AcDbSymbolTableRecord
100
AcDbLayerTableRecord
  2
73
 70
     0
 62
    73
  6
CONTINUOUS
  0
LAYER
  5
83
330
2
100
AcDbSymbolTableRecord
100
AcDbLayerTableRecord
  2
74
 70
     0
 62
    74
  6
CONTINUOUS
  0
LAYER
  5
84
330
2
100
AcDbSymbolTableRecord
100
AcDbLayerTableRecord
  2
75
 70
     0
 62
    75
  6
CONTINUOUS
  0
LAYER
  5
85
330
2
100
AcDbSymbolTableRecord
100
AcDbLayerTableRecord
  2
76
 70
     0
 62
    76
  6
CONTINUOUS
  0
LAYER
  5
86
330
2
100
AcDbSymbolTableRecord
100
AcDbLayerTableRecord
  2
77
 70
     0
 62
    77
  6
CONTINUOUS
  0
LAYER
  5
87
330
2
100
AcDbSymbolTableRecord
100
AcDbLayerTableRecord
  2
78
 70
     0
 62
    78
  6
CONTINUOUS
  0
LAYER
  5
88
330
2
100
AcDbSymbolTableRecord
100
AcDbLayerTableRecord
  2
79
 70
     0
 62
    79
  6
CONTINUOUS
  0
LAYER
  5
89
330
2
100
AcDbSymbolTableRecord
100
AcDbLayerTableRecord
  2
80
 70
     0
 62
    80
  6
CONTINUOUS
  0
LAYER
  5
8A
330
2
100
AcDbSymbolTableRecord
100
AcDbLayerTableRecord
  2
81
 70
     0
 62
    81
  6
CONTINUOUS
  0
LAYER
  5
8B
330
2
100
AcDbSymbolTableRecord
100
AcDbLayerTableRecord
  2
82
 70
     0
 62
    82
  6
CONTINUOUS
  0
LAYER
  5
8C
330
2
100
AcDbSymbolTableRecord
100
AcDbLayerTableRecord
  2
83
 70
     0
 62
    83
  6
CONTINUOUS
  0
LAYER
  5
8D
330
2
100
AcDbSymbolTableRecord
100
AcDbLayerTableRecord
  2
84
 70
     0
 62
    84
  6
CONTINUOUS
  0
LAYER
  5
8E
330
2
100
AcDbSymbolTableRecord
100
AcDbLayerTableRecord
  2
85
 70
     0
 62
    85
  6
CONTINUOUS
  0
LAYER
  5
8F
330
2
100
AcDbSymbolTableRecord
100
AcDbLayerTableRecord
  2
86
 70
     0
 62
    86
  6
CONTINUOUS
  0
LAYER
  5
90
330
2
100
AcDbSymbolTableRecord
100
AcDbLayerTableRecord
  2
87
 70
     0
 62
    87
  6
CONTINUOUS
  0
LAYER
  5
91
330
2
100
AcDbSymbolTableRecord
100
AcDbLayerTableRecord
  2
88
 70
     0
 62
    88
  6
CONTINUOUS
  0
LAYER
  5
92
330
2
100
AcDbSymbolTableRecord
100
AcDbLayerTableRecord
  2
89
 70
     0
 62
    89
  6
CONTINUOUS
  0
LAYER
  5
93
330
2
100
AcDbSymbolTableRecord
100
AcDbLayerTableRecord
  2
90
 70
     0
 62
    90
  6
CONTINUOUS
  0
LAYER
  5
94
330
2
100
AcDbSymbolTableRecord
100
AcDbLayerTableRecord
  2
91
 70
     0
 62
    91
  6
CONTINUOUS
  0
LAYER
  5
95
330
2
100
AcDbSymbolTableRecord
100
AcDbLayerTableRecord
  2
92
 70
     0
 62
    92
  6
CONTINUOUS
  0
LAYER
  5
96
330
2
100
AcDbSymbolTableRecord
100
AcDbLayerTableRecord
  2
93
 70
     0
 62
    93
  6
CONTINUOUS
  0
LAYER
  5
97
330
2
100
AcDbSymbolTableRecord
100
AcDbLayerTableRecord
  2
94
 70
     0
 62
    94
  6
CONTINUOUS
  0
LAYER
  5
98
330
2
100
AcDbSymbolTableRecord
100
AcDbLayerTableRecord
  2
95
 70
     0
 62
    95
  6
CONTINUOUS
  0
LAYER
  5
99
330
2
100
AcDbSymbolTableRecord
100
AcDbLayerTableRecord
  2
96
 70
     0
 62
    96
  6
CONTINUOUS
  0
LAYER
  5
9A
330
2
100
AcDbSymbolTableRecord
100
AcDbLayerTableRecord
  2
97
 70
     0
 62
    97
  6
CONTINUOUS
  0
LAYER
  5
9B
330
2
100
AcDbSymbolTableRecord
100
AcDbLayerTableRecord
  2
98
 70
     0
 62
    98
  6
CONTINUOUS
  0
LAYER
  5
9C
330
2
100
AcDbSymbolTableRecord
100
AcDbLayerTableRecord
  2
99
 70
     0
 62
    99
  6
CONTINUOUS
  0
LAYER
  5
9D
330
2
100
AcDbSymbolTableRecord
100
AcDbLayerTableRecord
  2
100
 70
     0
 62
   100
  6
CONTINUOUS
  0
LAYER
  5
9E
330
2
100
AcDbSymbolTableRecord
100
AcDbLayerTableRecord
  2
101
 70
     0
 62
   101
  6
CONTINUOUS
  0
LAYER
  5
9F
330
2
100
AcDbSymbolTableRecord
100
AcDbLayerTableRecord
  2
102
 70
     0
 62
   102
  6
CONTINUOUS
  0
LAYER
  5
A0
330
2
100
AcDbSymbolTableRecord
100
AcDbLayerTableRecord
  2
103
 70
     0
 62
   103
  6
CONTINUOUS
  0
LAYER
  5
A1
330
2
100
AcDbSymbolTableRecord
100
AcDbLayerTableRecord
  2
104
 70
     0
 62
   104
  6
CONTINUOUS
  0
LAYER
  5
A2
330
2
100
AcDbSymbolTableRecord
100
AcDbLayerTableRecord
  2
105
 70
     0
 62
   105
  6
CONTINUOUS
  0
LAYER
  5
A3
330
2
100
AcDbSymbolTableRecord
100
AcDbLayerTableRecord
  2
106
 70
     0
 62
   106
  6
CONTINUOUS
  0
LAYER
  5
A4
330
2
100
AcDbSymbolTableRecord
100
AcDbLayerTableRecord
  2
107
 70
     0
 62
   107
  6
CONTINUOUS
  0
LAYER
  5
A5
330
2
100
AcDbSymbolTableRecord
100
AcDbLayerTableRecord
  2
108
 70
     0
 62
   108
  6
CONTINUOUS
  0
LAYER
  5
A6
330
2
100
AcDbSymbolTableRecord
100
AcDbLayerTableRecord
  2
109
 70
     0
 62
   109
  6
CONTINUOUS
  0
LAYER
  5
A7
330
2
100
AcDbSymbolTableRecord
100
AcDbLayerTableRecord
  2
110
 70
     0
 62
   110
  6
CONTINUOUS
  0
LAYER
  5
A8
330
2
100
AcDbSymbolTableRecord
100
AcDbLayerTableRecord
  2
111
 70
     0
 62
   111
  6
CONTINUOUS
  0
LAYER
  5
A9
330
2
100
AcDbSymbolTableRecord
100
AcDbLayerTableRecord
  2
112
 70
     0
 62
   112
  6
CONTINUOUS
  0
LAYER
  5
AA
330
2
100
AcDbSymbolTableRecord
100
AcDbLayerTableRecord
  2
113
 70
     0
 62
   113
  6
CONTINUOUS
  0
LAYER
  5
AB
330
2
100
AcDbSymbolTableRecord
100
AcDbLayerTableRecord
  2
114
 70
     0
 62
   114
  6
CONTINUOUS
  0
LAYER
  5
AC
330
2
100
AcDbSymbolTableRecord
100
AcDbLayerTableRecord
  2
115
 70
     0
 62
   115
  6
CONTINUOUS
  0
LAYER
  5
AD
330
2
100
AcDbSymbolTableRecord
100
AcDbLayerTableRecord
  2
116
 70
     0
 62
   116
  6
CONTINUOUS
  0
LAYER
  5
AE
330
2
100
AcDbSymbolTableRecord
100
AcDbLayerTableRecord
  2
117
 70
     0
 62
   117
  6
CONTINUOUS
  0
LAYER
  5
AF
330
2
100
AcDbSymbolTableRecord
100
AcDbLayerTableRecord
  2
118
 70
     0
 62
   118
  6
CONTINUOUS
  0
LAYER
  5
B0
330
2
100
AcDbSymbolTableRecord
100
AcDbLayerTableRecord
  2
119
 70
     0
 62
   119
  6
CONTINUOUS
  0
LAYER
  5
B1
330
2
100
AcDbSymbolTableRecord
100
AcDbLayerTableRecord
  2
120
 70
     0
 62
   120
  6
CONTINUOUS
  0
LAYER
  5
B2
330
2
100
AcDbSymbolTableRecord
100
AcDbLayerTableRecord
  2
121
 70
     0
 62
   121
  6
CONTINUOUS
  0
LAYER
  5
B3
330
2
100
AcDbSymbolTableRecord
100
AcDbLayerTableRecord
  2
122
 70
     0
 62
   122
  6
CONTINUOUS
  0
LAYER
  5
B4
330
2
100
AcDbSymbolTableRecord
100
AcDbLayerTableRecord
  2
123
 70
     0
 62
   123
  6
CONTINUOUS
  0
LAYER
  5
B5
330
2
100
AcDbSymbolTableRecord
100
AcDbLayerTableRecord
  2
124
 70
     0
 62
   124
  6
CONTINUOUS
  0
LAYER
  5
B6
330
2
100
AcDbSymbolTableRecord
100
AcDbLayerTableRecord
  2
125
 70
     0
 62
   125
  6
CONTINUOUS
  0
LAYER
  5
B7
330
2
100
AcDbSymbolTableRecord
100
AcDbLayerTableRecord
  2
126
 70
     0
 62
   126
  6
CONTINUOUS
  0
LAYER
  5
B8
330
2
100
AcDbSymbolTableRecord
100
AcDbLayerTableRecord
  2
127
 70
     0
 62
   127
  6
CONTINUOUS
  0
LAYER
  5
B9
330
2
100
AcDbSymbolTableRecord
100
AcDbLayerTableRecord
  2
128
 70
     0
 62
   128
  6
CONTINUOUS
  0
LAYER
  5
BA
330
2
100
AcDbSymbolTableRecord
100
AcDbLayerTableRecord
  2
129
 70
     0
 62
   129
  6
CONTINUOUS
  0
LAYER
  5
BB
330
2
100
AcDbSymbolTableRecord
100
AcDbLayerTableRecord
  2
130
 70
     0
 62
   130
  6
CONTINUOUS
  0
LAYER
  5
BC
330
2
100
AcDbSymbolTableRecord
100
AcDbLayerTableRecord
  2
131
 70
     0
 62
   131
  6
CONTINUOUS
  0
LAYER
  5
BD
330
2
100
AcDbSymbolTableRecord
100
AcDbLayerTableRecord
  2
132
 70
     0
 62
   132
  6
CONTINUOUS
  0
LAYER
  5
BE
330
2
100
AcDbSymbolTableRecord
100
AcDbLayerTableRecord
  2
133
 70
     0
 62
   133
  6
CONTINUOUS
  0
LAYER
  5
BF
330
2
100
AcDbSymbolTableRecord
100
AcDbLayerTableRecord
  2
134
 70
     0
 62
   134
  6
CONTINUOUS
  0
LAYER
  5
C0
330
2
100
AcDbSymbolTableRecord
100
AcDbLayerTableRecord
  2
135
 70
     0
 62
   135
  6
CONTINUOUS
  0
LAYER
  5
C1
330
2
100
AcDbSymbolTableRecord
100
AcDbLayerTableRecord
  2
136
 70
     0
 62
   136
  6
CONTINUOUS
  0
LAYER
  5
C2
330
2
100
AcDbSymbolTableRecord
100
AcDbLayerTableRecord
  2
137
 70
     0
 62
   137
  6
CONTINUOUS
  0
LAYER
  5
C3
330
2
100
AcDbSymbolTableRecord
100
AcDbLayerTableRecord
  2
138
 70
     0
 62
   138
  6
CONTINUOUS
  0
LAYER
  5
C4
330
2
100
AcDbSymbolTableRecord
100
AcDbLayerTableRecord
  2
139
 70
     0
 62
   139
  6
CONTINUOUS
  0
LAYER
  5
C5
330
2
100
AcDbSymbolTableRecord
100
AcDbLayerTableRecord
  2
140
 70
     0
 62
   140
  6
CONTINUOUS
  0
LAYER
  5
C6
330
2
100
AcDbSymbolTableRecord
100
AcDbLayerTableRecord
  2
141
 70
     0
 62
   141
  6
CONTINUOUS
  0
LAYER
  5
C7
330
2
100
AcDbSymbolTableRecord
100
AcDbLayerTableRecord
  2
142
 70
     0
 62
   142
  6
CONTINUOUS
  0
LAYER
  5
C8
330
2
100
AcDbSymbolTableRecord
100
AcDbLayerTableRecord
  2
143
 70
     0
 62
   143
  6
CONTINUOUS
  0
LAYER
  5
C9
330
2
100
AcDbSymbolTableRecord
100
AcDbLayerTableRecord
  2
144
 70
     0
 62
   144
  6
CONTINUOUS
  0
LAYER
  5
CA
330
2
100
AcDbSymbolTableRecord
100
AcDbLayerTableRecord
  2
145
 70
     0
 62
   145
  6
CONTINUOUS
  0
LAYER
  5
CB
330
2
100
AcDbSymbolTableRecord
100
AcDbLayerTableRecord
  2
146
 70
     0
 62
   146
  6
CONTINUOUS
  0
LAYER
  5
CC
330
2
100
AcDbSymbolTableRecord
100
AcDbLayerTableRecord
  2
147
 70
     0
 62
   147
  6
CONTINUOUS
  0
LAYER
  5
CD
330
2
100
AcDbSymbolTableRecord
100
AcDbLayerTableRecord
  2
148
 70
     0
 62
   148
  6
CONTINUOUS
  0
LAYER
  5
CE
330
2
100
AcDbSymbolTableRecord
100
AcDbLayerTableRecord
  2
149
 70
     0
 62
   149
  6
CONTINUOUS
  0
LAYER
  5
CF
330
2
100
AcDbSymbolTableRecord
100
AcDbLayerTableRecord
  2
150
 70
     0
 62
   150
  6
CONTINUOUS
  0
LAYER
  5
D0
330
2
100
AcDbSymbolTableRecord
100
AcDbLayerTableRecord
  2
151
 70
     0
 62
   151
  6
CONTINUOUS
  0
LAYER
  5
D1
330
2
100
AcDbSymbolTableRecord
100
AcDbLayerTableRecord
  2
152
 70
     0
 62
   152
  6
CONTINUOUS
  0
LAYER
  5
D2
330
2
100
AcDbSymbolTableRecord
100
AcDbLayerTableRecord
  2
153
 70
     0
 62
   153
  6
CONTINUOUS
  0
LAYER
  5
D3
330
2
100
AcDbSymbolTableRecord
100
AcDbLayerTableRecord
  2
154
 70
     0
 62
   154
  6
CONTINUOUS
  0
LAYER
  5
D4
330
2
100
AcDbSymbolTableRecord
100
AcDbLayerTableRecord
  2
155
 70
     0
 62
   155
  6
CONTINUOUS
  0
LAYER
  5
D5
330
2
100
AcDbSymbolTableRecord
100
AcDbLayerTableRecord
  2
156
 70
     0
 62
   156
  6
CONTINUOUS
  0
LAYER
  5
D6
330
2
100
AcDbSymbolTableRecord
100
AcDbLayerTableRecord
  2
157
 70
     0
 62
   157
  6
CONTINUOUS
  0
LAYER
  5
D7
330
2
100
AcDbSymbolTableRecord
100
AcDbLayerTableRecord
  2
158
 70
     0
 62
   158
  6
CONTINUOUS
  0
LAYER
  5
D8
330
2
100
AcDbSymbolTableRecord
100
AcDbLayerTableRecord
  2
159
 70
     0
 62
   159
  6
CONTINUOUS
  0
LAYER
  5
D9
330
2
100
AcDbSymbolTableRecord
100
AcDbLayerTableRecord
  2
160
 70
     0
 62
   160
  6
CONTINUOUS
  0
LAYER
  5
DA
330
2
100
AcDbSymbolTableRecord
100
AcDbLayerTableRecord
  2
161
 70
     0
 62
   161
  6
CONTINUOUS
  0
LAYER
  5
DB
330
2
100
AcDbSymbolTableRecord
100
AcDbLayerTableRecord
  2
162
 70
     0
 62
   162
  6
CONTINUOUS
  0
LAYER
  5
DC
330
2
100
AcDbSymbolTableRecord
100
AcDbLayerTableRecord
  2
163
 70
     0
 62
   163
  6
CONTINUOUS
  0
LAYER
  5
DD
330
2
100
AcDbSymbolTableRecord
100
AcDbLayerTableRecord
  2
164
 70
     0
 62
   164
  6
CONTINUOUS
  0
LAYER
  5
DE
330
2
100
AcDbSymbolTableRecord
100
AcDbLayerTableRecord
  2
165
 70
     0
 62
   165
  6
CONTINUOUS
  0
LAYER
  5
DF
330
2
100
AcDbSymbolTableRecord
100
AcDbLayerTableRecord
  2
166
 70
     0
 62
   166
  6
CONTINUOUS
  0
LAYER
  5
E0
330
2
100
AcDbSymbolTableRecord
100
AcDbLayerTableRecord
  2
167
 70
     0
 62
   167
  6
CONTINUOUS
  0
LAYER
  5
E1
330
2
100
AcDbSymbolTableRecord
100
AcDbLayerTableRecord
  2
168
 70
     0
 62
   168
  6
CONTINUOUS
  0
LAYER
  5
E2
330
2
100
AcDbSymbolTableRecord
100
AcDbLayerTableRecord
  2
169
 70
     0
 62
   169
  6
CONTINUOUS
  0
LAYER
  5
E3
330
2
100
AcDbSymbolTableRecord
100
AcDbLayerTableRecord
  2
170
 70
     0
 62
   170
  6
CONTINUOUS
  0
LAYER
  5
E4
330
2
100
AcDbSymbolTableRecord
100
AcDbLayerTableRecord
  2
171
 70
     0
 62
   171
  6
CONTINUOUS
  0
LAYER
  5
E5
330
2
100
AcDbSymbolTableRecord
100
AcDbLayerTableRecord
  2
172
 70
     0
 62
   172
  6
CONTINUOUS
  0
LAYER
  5
E6
330
2
100
AcDbSymbolTableRecord
100
AcDbLayerTableRecord
  2
173
 70
     0
 62
   173
  6
CONTINUOUS
  0
LAYER
  5
E7
330
2
100
AcDbSymbolTableRecord
100
AcDbLayerTableRecord
  2
174
 70
     0
 62
   174
  6
CONTINUOUS
  0
LAYER
  5
E8
330
2
100
AcDbSymbolTableRecord
100
AcDbLayerTableRecord
  2
175
 70
     0
 62
   175
  6
CONTINUOUS
  0
LAYER
  5
E9
330
2
100
AcDbSymbolTableRecord
100
AcDbLayerTableRecord
  2
176
 70
     0
 62
   176
  6
CONTINUOUS
  0
LAYER
  5
EA
330
2
100
AcDbSymbolTableRecord
100
AcDbLayerTableRecord
  2
177
 70
     0
 62
   177
  6
CONTINUOUS
  0
LAYER
  5
EB
330
2
100
AcDbSymbolTableRecord
100
AcDbLayerTableRecord
  2
178
 70
     0
 62
   178
  6
CONTINUOUS
  0
LAYER
  5
EC
330
2
100
AcDbSymbolTableRecord
100
AcDbLayerTableRecord
  2
179
 70
     0
 62
   179
  6
CONTINUOUS
  0
LAYER
  5
ED
330
2
100
AcDbSymbolTableRecord
100
AcDbLayerTableRecord
  2
180
 70
     0
 62
   180
  6
CONTINUOUS
  0
LAYER
  5
EE
330
2
100
AcDbSymbolTableRecord
100
AcDbLayerTableRecord
  2
181
 70
     0
 62
   181
  6
CONTINUOUS
  0
LAYER
  5
EF
330
2
100
AcDbSymbolTableRecord
100
AcDbLayerTableRecord
  2
182
 70
     0
 62
   182
  6
CONTINUOUS
  0
LAYER
  5
F0
330
2
100
AcDbSymbolTableRecord
100
AcDbLayerTableRecord
  2
183
 70
     0
 62
   183
  6
CONTINUOUS
  0
LAYER
  5
F1
330
2
100
AcDbSymbolTableRecord
100
AcDbLayerTableRecord
  2
184
 70
     0
 62
   184
  6
CONTINUOUS
  0
LAYER
  5
F2
330
2
100
AcDbSymbolTableRecord
100
AcDbLayerTableRecord
  2
185
 70
     0
 62
   185
  6
CONTINUOUS
  0
LAYER
  5
F3
330
2
100
AcDbSymbolTableRecord
100
AcDbLayerTableRecord
  2
186
 70
     0
 62
   186
  6
CONTINUOUS
  0
LAYER
  5
F4
330
2
100
AcDbSymbolTableRecord
100
AcDbLayerTableRecord
  2
187
 70
     0
 62
   187
  6
CONTINUOUS
  0
LAYER
  5
F5
330
2
100
AcDbSymbolTableRecord
100
AcDbLayerTableRecord
  2
188
 70
     0
 62
   188
  6
CONTINUOUS
  0
LAYER
  5
F6
330
2
100
AcDbSymbolTableRecord
100
AcDbLayerTableRecord
  2
189
 70
     0
 62
   189
  6
CONTINUOUS
  0
LAYER
  5
F7
330
2
100
AcDbSymbolTableRecord
100
AcDbLayerTableRecord
  2
190
 70
     0
 62
   190
  6
CONTINUOUS
  0
LAYER
  5
F8
330
2
100
AcDbSymbolTableRecord
100
AcDbLayerTableRecord
  2
191
 70
     0
 62
   191
  6
CONTINUOUS
  0
LAYER
  5
F9
330
2
100
AcDbSymbolTableRecord
100
AcDbLayerTableRecord
  2
192
 70
     0
 62
   192
  6
CONTINUOUS
  0
LAYER
  5
FA
330
2
100
AcDbSymbolTableRecord
100
AcDbLayerTableRecord
  2
193
 70
     0
 62
   193
  6
CONTINUOUS
  0
LAYER
  5
FB
330
2
100
AcDbSymbolTableRecord
100
AcDbLayerTableRecord
  2
194
 70
     0
 62
   194
  6
CONTINUOUS
  0
LAYER
  5
FC
330
2
100
AcDbSymbolTableRecord
100
AcDbLayerTableRecord
  2
195
 70
     0
 62
   195
  6
CONTINUOUS
  0
LAYER
  5
FD
330
2
100
AcDbSymbolTableRecord
100
AcDbLayerTableRecord
  2
196
 70
     0
 62
   196
  6
CONTINUOUS
  0
LAYER
  5
FE
330
2
100
AcDbSymbolTableRecord
100
AcDbLayerTableRecord
  2
197
 70
     0
 62
   197
  6
CONTINUOUS
  0
LAYER
  5
FF
330
2
100
AcDbSymbolTableRecord
100
AcDbLayerTableRecord
  2
198
 70
     0
 62
   198
  6
CONTINUOUS
  0
LAYER
  5
100
330
2
100
AcDbSymbolTableRecord
100
AcDbLayerTableRecord
  2
199
 70
     0
 62
   199
  6
CONTINUOUS
  0
LAYER
  5
101
330
2
100
AcDbSymbolTableRecord
100
AcDbLayerTableRecord
  2
200
 70
     0
 62
   200
  6
CONTINUOUS
  0
LAYER
  5
102
330
2
100
AcDbSymbolTableRecord
100
AcDbLayerTableRecord
  2
201
 70
     0
 62
   201
  6
CONTINUOUS
  0
LAYER
  5
103
330
2
100
AcDbSymbolTableRecord
100
AcDbLayerTableRecord
  2
202
 70
     0
 62
   202
  6
CONTINUOUS
  0
LAYER
  5
104
330
2
100
AcDbSymbolTableRecord
100
AcDbLayerTableRecord
  2
203
 70
     0
 62
   203
  6
CONTINUOUS
  0
LAYER
  5
105
330
2
100
AcDbSymbolTableRecord
100
AcDbLayerTableRecord
  2
204
 70
     0
 62
   204
  6
CONTINUOUS
  0
LAYER
  5
106
330
2
100
AcDbSymbolTableRecord
100
AcDbLayerTableRecord
  2
205
 70
     0
 62
   205
  6
CONTINUOUS
  0
LAYER
  5
107
330
2
100
AcDbSymbolTableRecord
100
AcDbLayerTableRecord
  2
206
 70
     0
 62
   206
  6
CONTINUOUS
  0
LAYER
  5
108
330
2
100
AcDbSymbolTableRecord
100
AcDbLayerTableRecord
  2
207
 70
     0
 62
   207
  6
CONTINUOUS
  0
LAYER
  5
109
330
2
100
AcDbSymbolTableRecord
100
AcDbLayerTableRecord
  2
208
 70
     0
 62
   208
  6
CONTINUOUS
  0
LAYER
  5
10A
330
2
100
AcDbSymbolTableRecord
100
AcDbLayerTableRecord
  2
209
 70
     0
 62
   209
  6
CONTINUOUS
  0
LAYER
  5
10B
330
2
100
AcDbSymbolTableRecord
100
AcDbLayerTableRecord
  2
210
 70
     0
 62
   210
  6
CONTINUOUS
  0
LAYER
  5
10C
330
2
100
AcDbSymbolTableRecord
100
AcDbLayerTableRecord
  2
211
 70
     0
 62
   211
  6
CONTINUOUS
  0
LAYER
  5
10D
330
2
100
AcDbSymbolTableRecord
100
AcDbLayerTableRecord
  2
212
 70
     0
 62
   212
  6
CONTINUOUS
  0
LAYER
  5
10E
330
2
100
AcDbSymbolTableRecord
100
AcDbLayerTableRecord
  2
213
 70
     0
 62
   213
  6
CONTINUOUS
  0
LAYER
  5
10F
330
2
100
AcDbSymbolTableRecord
100
AcDbLayerTableRecord
  2
214
 70
     0
 62
   214
  6
CONTINUOUS
  0
LAYER
  5
110
330
2
100
AcDbSymbolTableRecord
100
AcDbLayerTableRecord
  2
215
 70
     0
 62
   215
  6
CONTINUOUS
  0
LAYER
  5
111
330
2
100
AcDbSymbolTableRecord
100
AcDbLayerTableRecord
  2
216
 70
     0
 62
   216
  6
CONTINUOUS
  0
LAYER
  5
112
330
2
100
AcDbSymbolTableRecord
100
AcDbLayerTableRecord
  2
217
 70
     0
 62
   217
  6
CONTINUOUS
  0
LAYER
  5
113
330
2
100
AcDbSymbolTableRecord
100
AcDbLayerTableRecord
  2
218
 70
     0
 62
   218
  6
CONTINUOUS
  0
LAYER
  5
114
330
2
100
AcDbSymbolTableRecord
100
AcDbLayerTableRecord
  2
219
 70
     0
 62
   219
  6
CONTINUOUS
  0
LAYER
  5
115
330
2
100
AcDbSymbolTableRecord
100
AcDbLayerTableRecord
  2
220
 70
     0
 62
   220
  6
CONTINUOUS
  0
LAYER
  5
116
330
2
100
AcDbSymbolTableRecord
100
AcDbLayerTableRecord
  2
221
 70
     0
 62
   221
  6
CONTINUOUS
  0
LAYER
  5
117
330
2
100
AcDbSymbolTableRecord
100
AcDbLayerTableRecord
  2
222
 70
     0
 62
   222
  6
CONTINUOUS
  0
LAYER
  5
118
330
2
100
AcDbSymbolTableRecord
100
AcDbLayerTableRecord
  2
223
 70
     0
 62
   223
  6
CONTINUOUS
  0
LAYER
  5
119
330
2
100
AcDbSymbolTableRecord
100
AcDbLayerTableRecord
  2
224
 70
     0
 62
   224
  6
CONTINUOUS
  0
LAYER
  5
11A
330
2
100
AcDbSymbolTableRecord
100
AcDbLayerTableRecord
  2
225
 70
     0
 62
   225
  6
CONTINUOUS
  0
LAYER
  5
11B
330
2
100
AcDbSymbolTableRecord
100
AcDbLayerTableRecord
  2
226
 70
     0
 62
   226
  6
CONTINUOUS
  0
LAYER
  5
11C
330
2
100
AcDbSymbolTableRecord
100
AcDbLayerTableRecord
  2
227
 70
     0
 62
   227
  6
CONTINUOUS
  0
LAYER
  5
11D
330
2
100
AcDbSymbolTableRecord
100
AcDbLayerTableRecord
  2
228
 70
     0
 62
   228
  6
CONTINUOUS
  0
LAYER
  5
11E
330
2
100
AcDbSymbolTableRecord
100
AcDbLayerTableRecord
  2
229
 70
     0
 62
   229
  6
CONTINUOUS
  0
LAYER
  5
11F
330
2
100
AcDbSymbolTableRecord
100
AcDbLayerTableRecord
  2
230
 70
     0
 62
   230
  6
CONTINUOUS
  0
LAYER
  5
120
330
2
100
AcDbSymbolTableRecord
100
AcDbLayerTableRecord
  2
231
 70
     0
 62
   231
  6
CONTINUOUS
  0
LAYER
  5
121
330
2
100
AcDbSymbolTableRecord
100
AcDbLayerTableRecord
  2
232
 70
     0
 62
   232
  6
CONTINUOUS
  0
LAYER
  5
122
330
2
100
AcDbSymbolTableRecord
100
AcDbLayerTableRecord
  2
233
 70
     0
 62
   233
  6
CONTINUOUS
  0
LAYER
  5
123
330
2
100
AcDbSymbolTableRecord
100
AcDbLayerTableRecord
  2
234
 70
     0
 62
   234
  6
CONTINUOUS
  0
LAYER
  5
124
330
2
100
AcDbSymbolTableRecord
100
AcDbLayerTableRecord
  2
235
 70
     0
 62
   235
  6
CONTINUOUS
  0
LAYER
  5
125
330
2
100
AcDbSymbolTableRecord
100
AcDbLayerTableRecord
  2
236
 70
     0
 62
   236
  6
CONTINUOUS
  0
LAYER
  5
126
330
2
100
AcDbSymbolTableRecord
100
AcDbLayerTableRecord
  2
237
 70
     0
 62
   237
  6
CONTINUOUS
  0
LAYER
  5
127
330
2
100
AcDbSymbolTableRecord
100
AcDbLayerTableRecord
  2
238
 70
     0
 62
   238
  6
CONTINUOUS
  0
LAYER
  5
128
330
2
100
AcDbSymbolTableRecord
100
AcDbLayerTableRecord
  2
239
 70
     0
 62
   239
  6
CONTINUOUS
  0
LAYER
  5
129
330
2
100
AcDbSymbolTableRecord
100
AcDbLayerTableRecord
  2
240
 70
     0
 62
   240
  6
CONTINUOUS
  0
LAYER
  5
12A
330
2
100
AcDbSymbolTableRecord
100
AcDbLayerTableRecord
  2
241
 70
     0
 62
   241
  6
CONTINUOUS
  0
LAYER
  5
12B
330
2
100
AcDbSymbolTableRecord
100
AcDbLayerTableRecord
  2
242
 70
     0
 62
   242
  6
CONTINUOUS
  0
LAYER
  5
12C
330
2
100
AcDbSymbolTableRecord
100
AcDbLayerTableRecord
  2
243
 70
     0
 62
   243
  6
CONTINUOUS
  0
LAYER
  5
12D
330
2
100
AcDbSymbolTableRecord
100
AcDbLayerTableRecord
  2
244
 70
     0
 62
   244
  6
CONTINUOUS
  0
LAYER
  5
12E
330
2
100
AcDbSymbolTableRecord
100
AcDbLayerTableRecord
  2
245
 70
     0
 62
   245
  6
CONTINUOUS
  0
LAYER
  5
12F
330
2
100
AcDbSymbolTableRecord
100
AcDbLayerTableRecord
  2
246
 70
     0
 62
   246
  6
CONTINUOUS
  0
LAYER
  5
130
330
2
100
AcDbSymbolTableRecord
100
AcDbLayerTableRecord
  2
247
 70
     0
 62
   247
  6
CONTINUOUS
  0
LAYER
  5
131
330
2
100
AcDbSymbolTableRecord
100
AcDbLayerTableRecord
  2
248
 70
     0
 62
   248
  6
CONTINUOUS
  0
LAYER
  5
132
330
2
100
AcDbSymbolTableRecord
100
AcDbLayerTableRecord
  2
249
 70
     0
 62
   249
  6
CONTINUOUS
  0
LAYER
  5
133
330
2
100
AcDbSymbolTableRecord
100
AcDbLayerTableRecord
  2
250
 70
     0
 62
   250
  6
CONTINUOUS
  0
LAYER
  5
134
330
2
100
AcDbSymbolTableRecord
100
AcDbLayerTableRecord
  2
251
 70
     0
 62
   251
  6
CONTINUOUS
  0
LAYER
  5
135
330
2
100
AcDbSymbolTableRecord
100
AcDbLayerTableRecord
  2
252
 70
     0
 62
   252
  6
CONTINUOUS
  0
LAYER
  5
136
330
2
100
AcDbSymbolTableRecord
100
AcDbLayerTableRecord
  2
253
 70
     0
 62
   253
  6
CONTINUOUS
  0
LAYER
  5
137
330
2
100
AcDbSymbolTableRecord
100
AcDbLayerTableRecord
  2
254
 70
     0
 62
   254
  6
CONTINUOUS
  0
LAYER
  5
138
330
2
100
AcDbSymbolTableRecord
100
AcDbLayerTableRecord
  2
255
 70
     0
 62
   255
  6
CONTINUOUS
  0
ENDTAB
  0
TABLE
  2
STYLE
  5
3
330
0
100
AcDbSymbolTable
 70
     1
  0
STYLE
  5
11
330
3
100
AcDbSymbolTableRecord
100
AcDbTextStyleTableRecord
  2
STANDARD
 70
     0
 40
0.0
 41
1.0
 50
0.0
 71
     0
 42
0.2
  3
monotxt
  4

  0
ENDTAB
  0
TABLE
  2
VIEW
  5
6
330
0
100
AcDbSymbolTable
 70
     0
  0
ENDTAB
  0
TABLE
  2
UCS
  5
7
330
0
100
AcDbSymbolTable
 70
     0
  0
ENDTAB
  0
TABLE
  2
APPID
  5
9
330
0
100
AcDbSymbolTable
 70
     1
  0
APPID
  5
12
330
9
100
AcDbSymbolTableRecord
100
AcDbRegAppTableRecord
  2
ACAD
 70
     0
  0
ENDTAB
  0
TABLE
  2
DIMSTYLE
  5
A
330
0
100
AcDbSymbolTable
 70
     1
  0
DIMSTYLE
105
370D
330
A
100
AcDbSymbolTableRecord
100
AcDbDimStyleTableRecord
  2
STANDARD
 70
     0
  3

  4

  5

  6

  7

 40
1.0
 41
0.18
 42
0.0625
 43
0.38
 44
0.18
 45
0.0
 46
0.0
 47
0.0
 48
0.0
140
0.18
141
0.09
142
0.0
143
25.4
144
1.0
145
0.0
146
1.0
147
0.09
 71
     0
 72
     0
 73
     1
 74
     1
 75
     0
 76
     0
 77
     0
 78
     0
170
     0
171
     2
172
     0
173
     0
174
     0
175
     0
176
     0
177
     0
178
     0
270
     2
271
     4
272
     4
273
     2
274
     2
340
11
275
     0
280
     0
281
     0
282
     0
283
     1
284
     0
285
     0
286
     0
287
     3
288
     0
  0
ENDTAB
  0
TABLE
  2
BLOCK_RECORD
  5
1
330
0
100
AcDbSymbolTable
 70
     0
  0
BLOCK_RECORD
  5
1E
102
{ACAD_XDICTIONARY
360
4131
102
}
330
1
100
AcDbSymbolTableRecord
100
AcDbBlockTableRecord
  2
*MODEL_SPACE
  0
BLOCK_RECORD
  5
1A
102
{ACAD_XDICTIONARY
360
4133
102
}
330
1
100
AcDbSymbolTableRecord
100
AcDbBlockTableRecord
  2
*PAPER_SPACE
  0
ENDTAB
  0
ENDSEC
  0
SECTION
  2
BLOCKS
  0
BLOCK
  5
13B
330
1E
100
AcDbEntity
  8
0
100
AcDbBlockBegin
  2
*MODEL_SPACE
 70
     0
 10
0.0
 20
0.0
 30
0.0
  3
*MODEL_SPACE
  1

  0
ENDBLK
  5
13C
330
1E
100
AcDbEntity
  8
0
100
AcDbBlockEnd
  0
BLOCK
  5
139
330
1A
100
AcDbEntity
 67
     1
  8
0
100
AcDbBlockBegin
  2
*PAPER_SPACE
 70
     0
 10
0.0
 20
0.0
 30
0.0
  3
*PAPER_SPACE
  1

  0
ENDBLK
  5
13A
330
1A
100
AcDbEntity
 67
     1
  8
0
100
AcDbBlockEnd
  0
ENDSEC
  0
SECTION
  2
ENTITIES
  0
LINE
  5
13E
330
1E
100
AcDbEntity
  8
3
100
AcDbLine
 10
5.320537651898826
 20
8.032190927227466
 30
0.0
 11
5.320537651898826
 21
10.72707281699124
 31
0.0
  0
LINE
  5
147
330
1E
100
AcDbEntity
  8
3
100
AcDbLine
 10
5.320537651898826
 20
10.89636415557392
 30
0.0
 11
5.320537651898826
 21
10.88849013982589
 31
0.0
  0
LINE
  5
15D
330
1E
100
AcDbEntity
  8
3
100
AcDbLine
 10
5.320537651898826
 20
7.860931084707781
 30
0.0
 11
5.005577021977565
 21
7.872742108329829
 31
0.0
  0
LINE
  5
15E
330
1E
100
AcDbEntity
  8
3
100
AcDbLine
 10
5.005577021977565
 20
10.88652163588888
 30
0.0
 11
5.320537651898826
 21
10.89636415557392
 31
0.0
  0
LINE
  5
18C
330
1E
100
AcDbEntity
  8
3
100
AcDbLine
 10
5.800852612528746
 20
9.045970454786521
 30
0.0
 11
5.320537651898826
 21
9.030222423290458
 31
0.0
  0
LINE
  5
18D
330
1E
100
AcDbEntity
  8
3
100
AcDbLine
 10
5.800852612528746
 20
9.713293289432192
 30
0.0
 11
5.320537651898826
 21
9.729041320928255
 31
0.0
  0
LINE
  5
193
330
1E
100
AcDbEntity
  8
3
100
AcDbLine
 10
5.820537651898826
 20
9.248726360298332
 30
0.0
 11
5.820537651898826
 21
9.065655494156599
 31
0.0
  0
LINE
  5
1A3
330
1E
100
AcDbEntity
  8
3
100
AcDbLine
 10
5.820537651898826
 20
9.69360825006211
 30
0.0
 11
5.820537651898826
 21
9.50856887998337
 31
0.0
  0
LINE
  5
1AE
330
1E
100
AcDbEntity
  8
3
100
AcDbLine
 10
5.320537651898826
 20
9.274316911479433
 30
0.0
 11
5.503608518040557
 21
9.280222423290458
 31
0.0
  0
LINE
  5
1B4
330
1E
100
AcDbEntity
  8
3
100
AcDbLine
 10
5.320537651898826
 20
9.457387777621166
 30
0.0
 11
5.503608518040557
 21
9.463293289432192
 31
0.0
  0
LINE
  5
1B5
330
1E
100
AcDbEntity
  8
3
100
AcDbLine
 10
5.50164001410355
 20
9.260537383920381
 30
0.0
 11
5.320537651898826
 21
9.254631872109355
 31
0.0
  0
LINE
  5
1B6
330
1E
100
AcDbEntity
  8
3
100
AcDbLine
 10
5.320537651898826
 20
9.504631872109355
 30
0.0
 11
5.50164001410355
 21
9.498726360298332
 31
0.0
  0
LINE
  5
1B7
330
1E
100
AcDbEntity
  8
3
100
AcDbLine
 10
5.320537651898826
 20
9.321561005967621
 30
0.0
 11
5.50164001410355
 21
9.315655494156599
 31
0.0
  0
LINE
  5
1BE
330
1E
100
AcDbEntity
  8
3
100
AcDbLine
 10
5.50164001410355
 20
9.44360825006211
 30
0.0
 11
5.320537651898826
 21
9.437702738251088
 31
0.0
  0
LINE
  5
1CA
330
1E
100
AcDbEntity
  8
3
100
AcDbLine
 10
5.50164001410355
 20
9.34321454927471
 30
0.0
 11
5.50164001410355
 21
9.372742108329829
 31
0.0
  0
LINE
  5
232
330
1E
100
AcDbEntity
  8
3
100
AcDbLine
 10
4.940616392056305
 20
7.955419273684158
 30
0.0
 11
4.985891982607487
 21
7.955419273684158
 31
0.0
  0
LINE
  5
233
330
1E
100
AcDbEntity
  8
3
100
AcDbLine
 10
4.985891982607487
 20
10.80384447053455
 30
0.0
 11
4.940616392056305
 21
10.80187596659754
 31
0.0
  0
LINE
  5
234
330
1E
100
AcDbEntity
  8
3
100
AcDbLine
 10
4.940616392056305
 20
10.71132478549518
 30
0.0
 11
4.985891982607487
 21
10.71132478549518
 31
0.0
  0
LINE
  5
235
330
1E
100
AcDbEntity
  8
3
100
AcDbLine
 10
4.940616392056305
 20
10.71132478549518
 30
0.0
 11
4.940616392056305
 21
8.047938958723529
 31
0.0
  0
LINE
  5
24F
330
1E
100
AcDbEntity
  8
3
100
AcDbLine
 10
4.920931352686226
 20
10.71132478549518
 30
0.0
 11
4.92683686449725
 21
10.71132478549518
 31
0.0
  0
LINE
  5
250
330
1E
100
AcDbEntity
  8
3
100
AcDbLine
 10
4.92683686449725
 20
10.71132478549518
 30
0.0
 11
4.940616392056305
 21
10.71132478549518
 31
0.0
  0
LINE
  5
256
330
1E
100
AcDbEntity
  8
3
100
AcDbLine
 10
4.602033714890952
 20
8.553844470534551
 30
0.0
 11
4.4642384393004
 21
8.691639746125103
 31
0.0
  0
LINE
  5
25D
330
1E
100
AcDbEntity
  8
3
100
AcDbLine
 10
4.564632140087802
 20
8.514474391794395
 30
0.0
 11
4.753608518040557
 21
8.32549801384164
 31
0.0
  0
LINE
  5
263
330
1E
100
AcDbEntity
  8
3
100
AcDbLine
 10
4.76935654953662
 20
8.439671242188095
 30
0.0
 11
4.442584895993313
 21
8.766442895731403
 31
0.0
  0
LINE
  5
269
330
1E
100
AcDbEntity
  8
3
100
AcDbLine
 10
4.4642384393004
 20
8.691639746125103
 30
0.0
 11
4.416994344812211
 21
8.740852344550299
 31
0.0
  0
LINE
  5
26A
330
1E
100
AcDbEntity
  8
3
100
AcDbLine
 10
4.442584895993313
 20
8.766442895731403
 30
0.0
 11
4.920931352686226
 21
9.262505887857388
 31
0.0
  0
LINE
  5
26B
330
1E
100
AcDbEntity
  8
3
100
AcDbLine
 10
4.76935654953662
 20
8.266442895731403
 30
0.0
 11
4.76935654953662
 21
8.439671242188095
 31
0.0
  0
LINE
  5
271
330
1E
100
AcDbEntity
  8
3
100
AcDbLine
 10
4.920931352686226
 20
8.081403525652662
 30
0.0
 11
4.794947100717722
 21
8.207387777621166
 31
0.0
  0
LINE
  5
277
330
1E
100
AcDbEntity
  8
3
100
AcDbLine
 10
4.753608518040557
 20
8.382584628014866
 30
0.0
 11
4.753608518040557
 21
8.266442895731403
 31
0.0
  0
LINE
  5
28D
330
1E
100
AcDbEntity
  8
3
100
AcDbLine
 10
4.783136077095676
 20
8.197545257936129
 30
0.0
 11
4.918962848749218
 21
8.061718486282584
 31
0.0
  0
LINE
  5
28E
330
1E
100
AcDbEntity
  8
3
100
AcDbLine
 10
5.438647888119298
 20
8.565655494156599
 30
0.0
 11
5.320537651898826
 21
8.565655494156599
 31
0.0
  0
LINE
  5
28F
330
1E
100
AcDbEntity
  8
3
100
AcDbLine
 10
4.377624266072054
 20
8.701482265810144
 30
0.0
 11
4.424868360560243
 21
8.654238171321955
 31
0.0
  0
LINE
  5
290
330
1E
100
AcDbEntity
  8
3
100
AcDbLine
 10
5.438647888119298
 20
8.565655494156599
 30
0.0
 11
5.438647888119298
 21
8.890458643762899
 31
0.0
  0
LINE
  5
291
330
1E
100
AcDbEntity
  8
3
100
AcDbLine
 10
5.320537651898826
 20
8.890458643762899
 30
0.0
 11
5.438647888119298
 21
8.890458643762899
 31
0.0
  0
LINE
  5
2A9
330
1E
100
AcDbEntity
  8
3
100
AcDbLine
 10
4.920931352686226
 20
9.396364155573921
 30
0.0
 11
4.375655762135046
 21
8.831403525652662
 31
0.0
  0
LINE
  5
2F4
330
1E
100
AcDbEntity
  8
3
100
AcDbLine
 10
4.562663636150794
 20
8.563686990219592
 30
0.0
 11
4.568569147961817
 21
8.555812974471558
 31
0.0
  0
LINE
  5
2FF
330
1E
100
AcDbEntity
  8
3
100
AcDbLine
 10
4.462269935363393
 20
8.662112187069984
 30
0.0
 11
4.456364423552368
 21
8.654238171321955
 31
0.0
  0
LINE
  5
300
330
1E
100
AcDbEntity
  8
3
100
AcDbLine
 10
4.568569147961817
 20
8.555812974471558
 30
0.0
 11
4.562663636150794
 21
8.549907462660536
 31
0.0
  0
LINE
  5
301
330
1E
100
AcDbEntity
  8
3
100
AcDbLine
 10
1.668962848749218
 20
5.225104313054238
 30
0.0
 11
1.625655762135046
 21
5.225104313054238
 31
0.0
  0
LINE
  5
302
330
1E
100
AcDbEntity
  8
3
100
AcDbLine
 10
1.682742376308274
 20
5.542033446912505
 30
0.0
 11
1.680773872371267
 21
5.542033446912505
 31
0.0
  0
LINE
  5
303
330
1E
100
AcDbEntity
  8
3
100
AcDbLine
 10
1.668962848749218
 20
5.530222423290458
 30
0.0
 11
1.666994344812211
 21
5.498726360298332
 31
0.0
  0
LINE
  5
304
330
1E
100
AcDbEntity
  8
3
100
AcDbLine
 10
1.682742376308274
 20
5.752663368172347
 30
0.0
 11
0.3067581243397708
 21
5.752663368172347
 31
0.0
  0
LINE
  5
305
330
1E
100
AcDbEntity
  8
3
100
AcDbLine
 10
0.3638447385129986
 20
5.225104313054238
 30
0.0
 11
0.3205376518988263
 21
5.225104313054238
 31
0.0
  0
LINE
  5
306
330
1E
100
AcDbEntity
  8
3
100
AcDbLine
 10
0.9071518251271726
 20
5.219198801243214
 30
0.0
 11
0.3638447385129986
 21
5.219198801243214
 31
0.0
  0
LINE
  5
307
330
1E
100
AcDbEntity
  8
3
100
AcDbLine
 10
0.3225061558358337
 20
5.498726360298332
 30
0.0
 11
0.3205376518988263
 21
5.530222423290458
 31
0.0
  0
LINE
  5
308
330
1E
100
AcDbEntity
  8
3
100
AcDbLine
 10
1.082348675520872
 20
5.295970454786521
 30
0.0
 11
0.9071518251271726
 21
5.295970454786521
 31
0.0
  0
LINE
  5
309
330
1E
100
AcDbEntity
  8
3
100
AcDbLine
 10
1.625655762135046
 20
5.219198801243214
 30
0.0
 11
1.082348675520872
 21
5.219198801243214
 31
0.0
  0
LINE
  5
30A
330
1E
100
AcDbEntity
  8
3
100
AcDbLine
 10
1.637466785757093
 20
5.295970454786521
 30
0.0
 11
1.607939226701974
 21
5.295970454786521
 31
0.0
  0
LINE
  5
30B
330
1E
100
AcDbEntity
  8
3
100
AcDbLine
 10
1.672899856623235
 20
5.290064942975497
 30
0.0
 11
1.653214817253155
 21
5.290064942975497
 31
0.0
  0
LINE
  5
30C
330
1E
100
AcDbEntity
  8
3
100
AcDbLine
 10
1.131561273946068
 20
5.295970454786521
 30
0.0
 11
1.082348675520872
 21
5.295970454786521
 31
0.0
  0
LINE
  5
30D
330
1E
100
AcDbEntity
  8
3
100
AcDbLine
 10
1.739828990481502
 20
5.652269667384945
 30
0.0
 11
1.01935654953662
 21
5.652269667384945
 31
0.0
  0
LINE
  5
30E
330
1E
100
AcDbEntity
  8
3
100
AcDbLine
 10
1.814632140087802
 20
5.587309037463686
 30
0.0
 11
1.814632140087802
 21
5.59321454927471
 31
0.0
  0
LINE
  5
30F
330
1E
100
AcDbEntity
  8
3
100
AcDbLine
 10
0.381561273946069
 20
5.295970454786521
 30
0.0
 11
0.3520337148909522
 21
5.295970454786521
 31
0.0
  0
LINE
  5
310
330
1E
100
AcDbEntity
  8
3
100
AcDbLine
 10
0.3362856833948893
 20
5.290064942975497
 30
0.0
 11
0.3166006440248097
 21
5.290064942975497
 31
0.0
  0
LINE
  5
311
330
1E
100
AcDbEntity
  8
3
100
AcDbLine
 10
0.3185691479618171
 20
5.211324785495182
 30
0.0
 11
0.3205376518988263
 21
5.211324785495182
 31
0.0
  0
LINE
  5
312
330
1E
100
AcDbEntity
  8
3
100
AcDbLine
 10
0.9071518251271726
 20
5.295970454786521
 30
0.0
 11
0.8579392267019745
 21
5.295970454786521
 31
0.0
  0
LINE
  5
313
330
1E
100
AcDbEntity
  8
3
100
AcDbLine
 10
0.9701439511114244
 20
5.652269667384945
 30
0.0
 11
0.249671510166543
 21
5.652269667384945
 31
0.0
  0
LINE
  5
314
330
1E
100
AcDbEntity
  8
3
100
AcDbLine
 10
0.174868360560243
 20
5.59321454927471
 30
0.0
 11
0.174868360560243
 21
5.587309037463686
 31
0.0
  0
LINE
  5
315
330
1E
100
AcDbEntity
  8
3
100
AcDbLine
 10
1.775262061347644
 20
5.660143683132977
 30
0.0
 11
1.763451037725596
 21
5.705419273684158
 31
0.0
  0
LINE
  5
330
330
1E
100
AcDbEntity
  8
3
100
AcDbLine
 10
0.9898289904815023
 20
5.632584628014868
 30
0.0
 11
0.98392347867048
 21
5.646364155573923
 31
0.0
  0
LINE
  5
331
330
1E
100
AcDbEntity
  8
3
100
AcDbLine
 10
0.98392347867048
 20
5.646364155573923
 30
0.0
 11
0.9701439511114244
 21
5.652269667384945
 31
0.0
  0
LINE
  5
356
330
1E
100
AcDbEntity
  8
3
100
AcDbLine
 10
1.753608518040557
 20
5.652269667384945
 30
0.0
 11
1.739828990481502
 21
5.652269667384945
 31
0.0
  0
LINE
  5
35F
330
1E
100
AcDbEntity
  8
3
100
AcDbLine
 10
1.666994344812211
 20
5.522348407542427
 30
0.0
 11
1.668962848749218
 21
5.524316911479434
 31
0.0
  0
LINE
  5
384
330
1E
100
AcDbEntity
  8
3
100
AcDbLine
 10
0.1709313526862282
 20
4.782190927227466
 30
0.0
 11
1.816600644024809
 21
4.782190927227466
 31
0.0
  0
LINE
  5
39E
330
1E
100
AcDbEntity
  8
3
100
AcDbLine
 10
1.816600644024809
 20
4.782190927227466
 30
0.0
 11
1.80675812433977
 21
5.097151557148725
 31
0.0
  0
LINE
  5
3A4
330
1E
100
AcDbEntity
  8
3
100
AcDbLine
 10
0.0016400141035504
 20
4.782190927227466
 30
0.0
 11
0.0134510377255985
 21
5.097151557148725
 31
0.0
  0
LINE
  5
3A5
330
1E
100
AcDbEntity
  8
3
100
AcDbLine
 10
1.976049462922448
 20
5.097151557148725
 30
0.0
 11
1.987860486544494
 21
4.782190927227466
 31
0.0
  0
LINE
  5
3CA
330
1E
100
AcDbEntity
  8
3
100
AcDbLine
 10
0.2791990692216597
 20
4.299907462660536
 30
0.0
 11
0.2654195416626059
 21
4.664080691006994
 31
0.0
  0
LINE
  5
3D0
330
1E
100
AcDbEntity
  8
3
100
AcDbLine
 10
0.3461282030799282
 20
4.782190927227466
 30
0.0
 11
0.3303801715838652
 21
4.299907462660536
 31
0.0
  0
LINE
  5
3D7
330
1E
100
AcDbEntity
  8
3
100
AcDbLine
 10
1.65912032906418
 20
4.299907462660536
 30
0.0
 11
1.641403793631109
 21
4.782190927227466
 31
0.0
  0
LINE
  5
3D8
330
1E
100
AcDbEntity
  8
3
100
AcDbLine
 10
0.2693565495366208
 20
4.581403525652662
 30
0.0
 11
0.2221124550484319
 21
4.581403525652662
 31
0.0
  0
LINE
  5
3D9
330
1E
100
AcDbEntity
  8
3
100
AcDbLine
 10
0.3008526125287467
 20
4.282190927227466
 30
0.0
 11
0.2988841085917393
 21
4.282190927227466
 31
0.0
  0
LINE
  5
3DA
330
1E
100
AcDbEntity
  8
3
100
AcDbLine
 10
0.3106951322137856
 20
4.282190927227466
 30
0.0
 11
0.3008526125287467
 21
4.282190927227466
 31
0.0
  0
LINE
  5
3E5
330
1E
100
AcDbEntity
  8
3
100
AcDbLine
 10
1.767388045599613
 20
4.581403525652662
 30
0.0
 11
1.720143951111424
 21
4.581403525652662
 31
0.0
  0
LINE
  5
3EB
330
1E
100
AcDbEntity
  8
3
100
AcDbLine
 10
1.818569147961817
 20
4.782190927227466
 30
0.0
 11
1.787073084969691
 21
4.597151557148725
 31
0.0
  0
LINE
  5
3F1
330
1E
100
AcDbEntity
  8
3
100
AcDbLine
 10
0.2024274156783541
 20
4.597151557148725
 30
0.0
 11
0.1709313526862282
 21
4.782190927227466
 31
0.0
  0
LINE
  5
3F7
330
1E
100
AcDbEntity
  8
3
100
AcDbLine
 10
0.2221124550484319
 20
4.601088565022742
 30
0.0
 11
0.2083329274893764
 21
4.599120061085733
 31
0.0
  0
LINE
  5
3F8
330
1E
100
AcDbEntity
  8
3
100
AcDbLine
 10
0.2083329274893764
 20
4.599120061085733
 30
0.0
 11
0.2024274156783541
 21
4.597151557148725
 31
0.0
  0
LINE
  5
436
330
1E
100
AcDbEntity
  8
3
100
AcDbLine
 10
0.1866793841822911
 20
5.181797226440064
 30
0.0
 11
0.8323486755208726
 21
5.181797226440064
 31
0.0
  0
LINE
  5
437
330
1E
100
AcDbEntity
  8
3
100
AcDbLine
 10
1.155183321190165
 20
5.181797226440064
 30
0.0
 11
0.8323486755208726
 21
5.181797226440064
 31
0.0
  0
LINE
  5
444
330
1E
100
AcDbEntity
  8
3
100
AcDbLine
 10
0.83431717945788
 20
5.116836596518805
 30
0.0
 11
0.83431717945788
 21
5.162112187069986
 31
0.0
  0
LINE
  5
445
330
1E
100
AcDbEntity
  8
3
100
AcDbLine
 10
1.155183321190165
 20
5.162112187069986
 30
0.0
 11
1.153214817253155
 21
5.116836596518805
 31
0.0
  0
LINE
  5
44B
330
1E
100
AcDbEntity
  8
3
100
AcDbLine
 10
0.83431717945788
 20
5.162112187069986
 30
0.0
 11
0.1866793841822911
 21
5.162112187069986
 31
0.0
  0
LINE
  5
44C
330
1E
100
AcDbEntity
  8
3
100
AcDbLine
 10
0.1866793841822911
 20
5.116836596518805
 30
0.0
 11
0.1866793841822911
 21
5.162112187069986
 31
0.0
  0
LINE
  5
44D
330
1E
100
AcDbEntity
  8
3
100
AcDbLine
 10
0.0961282030799282
 20
5.162112187069986
 30
0.0
 11
0.0961282030799282
 21
5.116836596518805
 31
0.0
  0
LINE
  5
455
330
1E
100
AcDbEntity
  8
3
100
AcDbLine
 10
1.800852612528746
 20
5.162112187069986
 30
0.0
 11
1.802821116465754
 21
5.116836596518805
 31
0.0
  0
LINE
  5
456
330
1E
100
AcDbEntity
  8
3
100
AcDbLine
 10
1.800852612528746
 20
5.162112187069986
 30
0.0
 11
1.155183321190165
 21
5.162112187069986
 31
0.0
  0
LINE
  5
473
330
1E
100
AcDbEntity
  8
3
100
AcDbLine
 10
1.668962848749218
 20
5.223135809117229
 30
0.0
 11
1.625655762135046
 21
5.223135809117229
 31
0.0
  0
LINE
  5
474
330
1E
100
AcDbEntity
  8
3
100
AcDbLine
 10
1.668962848749218
 20
5.225104313054238
 30
0.0
 11
1.668962848749218
 21
5.223135809117229
 31
0.0
  0
LINE
  5
475
330
1E
100
AcDbEntity
  8
3
100
AcDbLine
 10
1.668962848749218
 20
5.205419273684158
 30
0.0
 11
1.668962848749218
 21
5.223135809117229
 31
0.0
  0
LINE
  5
476
330
1E
100
AcDbEntity
  8
3
100
AcDbLine
 10
1.767388045599613
 20
5.50069486423534
 30
0.0
 11
1.767388045599613
 21
5.532190927227466
 31
0.0
  0
LINE
  5
47C
330
1E
100
AcDbEntity
  8
3
100
AcDbLine
 10
1.747703006229533
 20
5.520379903605418
 30
0.0
 11
1.767388045599613
 21
5.50069486423534
 31
0.0
  0
LINE
  5
47D
330
1E
100
AcDbEntity
  8
3
100
AcDbLine
 10
1.682742376308274
 20
5.53809643903849
 30
0.0
 11
1.682742376308274
 21
5.349120061085733
 31
0.0
  0
LINE
  5
47E
330
1E
100
AcDbEntity
  8
3
100
AcDbLine
 10
1.775262061347644
 20
5.33337202958967
 30
0.0
 11
1.775262061347644
 21
5.536127935101481
 31
0.0
  0
LINE
  5
47F
330
1E
100
AcDbEntity
  8
3
100
AcDbLine
 10
1.775262061347644
 20
5.644395651636914
 30
0.0
 11
1.775262061347644
 21
5.660143683132977
 31
0.0
  0
LINE
  5
485
330
1E
100
AcDbEntity
  8
3
100
AcDbLine
 10
1.767388045599613
 20
5.648332659510931
 30
0.0
 11
1.767388045599613
 21
5.685734234314081
 31
0.0
  0
LINE
  5
48B
330
1E
100
AcDbEntity
  8
3
100
AcDbLine
 10
1.775262061347644
 20
5.181797226440064
 30
0.0
 11
1.775262061347644
 21
5.307781478408568
 31
0.0
  0
LINE
  5
49D
330
1E
100
AcDbEntity
  8
3
100
AcDbLine
 10
1.680773872371267
 20
5.349120061085733
 30
0.0
 11
1.678805368434259
 21
5.349120061085733
 31
0.0
  0
LINE
  5
49E
330
1E
100
AcDbEntity
  8
3
100
AcDbLine
 10
1.759514029851581
 20
5.349120061085733
 30
0.0
 11
1.680773872371267
 21
5.349120061085733
 31
0.0
  0
LINE
  5
49F
330
1E
100
AcDbEntity
  8
3
100
AcDbLine
 10
1.678805368434259
 20
5.349120061085733
 30
0.0
 11
1.678805368434259
 21
5.536127935101481
 31
0.0
  0
LINE
  5
4A5
330
1E
100
AcDbEntity
  8
3
100
AcDbLine
 10
1.759514029851581
 20
5.319592502030616
 30
0.0
 11
1.682742376308274
 21
5.319592502030616
 31
0.0
  0
LINE
  5
4BA
330
1E
100
AcDbEntity
  8
3
100
AcDbLine
 10
1.670931352686228
 20
5.339277541400694
 30
0.0
 11
1.672899856623235
 21
5.331403525652662
 31
0.0
  0
LINE
  5
4C1
330
1E
100
AcDbEntity
  8
3
100
AcDbLine
 10
1.668962848749218
 20
5.339277541400694
 30
0.0
 11
1.678805368434259
 21
5.349120061085733
 31
0.0
  0
LINE
  5
4C2
330
1E
100
AcDbEntity
  8
3
100
AcDbLine
 10
1.668962848749218
 20
5.339277541400694
 30
0.0
 11
1.670931352686228
 21
5.339277541400694
 31
0.0
  0
LINE
  5
4C3
330
1E
100
AcDbEntity
  8
3
100
AcDbLine
 10
1.668962848749218
 20
5.530222423290458
 30
0.0
 11
1.668962848749218
 21
5.339277541400694
 31
0.0
  0
LINE
  5
4CC
330
1E
100
AcDbEntity
  8
3
100
AcDbLine
 10
1.670931352686228
 20
5.297938958723529
 30
0.0
 11
1.668962848749218
 21
5.297938958723529
 31
0.0
  0
LINE
  5
4CD
330
1E
100
AcDbEntity
  8
3
100
AcDbLine
 10
1.668962848749218
 20
5.205419273684158
 30
0.0
 11
1.670931352686228
 21
5.25069486423534
 31
0.0
  0
LINE
  5
4CE
330
1E
100
AcDbEntity
  8
3
100
AcDbLine
 10
1.625655762135046
 20
5.219198801243214
 30
0.0
 11
1.625655762135046
 21
5.215261793369197
 31
0.0
  0
LINE
  5
4CF
330
1E
100
AcDbEntity
  8
3
100
AcDbLine
 10
1.625655762135046
 20
5.223135809117229
 30
0.0
 11
1.625655762135046
 21
5.215261793369197
 31
0.0
  0
LINE
  5
4D0
330
1E
100
AcDbEntity
  8
3
100
AcDbLine
 10
1.666994344812211
 20
5.290064942975497
 30
0.0
 11
1.668962848749218
 21
5.297938958723529
 31
0.0
  0
LINE
  5
4D1
330
1E
100
AcDbEntity
  8
3
100
AcDbLine
 10
1.666994344812211
 20
5.498726360298332
 30
0.0
 11
1.668962848749218
 21
5.530222423290458
 31
0.0
  0
LINE
  5
4D2
330
1E
100
AcDbEntity
  8
3
100
AcDbLine
 10
1.767388045599613
 20
5.502663368172347
 30
0.0
 11
1.767388045599613
 21
5.50069486423534
 31
0.0
  0
LINE
  5
4D3
330
1E
100
AcDbEntity
  8
3
100
AcDbLine
 10
1.759514029851581
 20
5.319592502030616
 30
0.0
 11
1.759514029851581
 21
5.183765730377071
 31
0.0
  0
LINE
  5
4D4
330
1E
100
AcDbEntity
  8
3
100
AcDbLine
 10
1.682742376308274
 20
5.183765730377071
 30
0.0
 11
1.682742376308274
 21
5.319592502030616
 31
0.0
  0
LINE
  5
4D5
330
1E
100
AcDbEntity
  8
3
100
AcDbLine
 10
1.759514029851581
 20
5.183765730377071
 30
0.0
 11
1.682742376308274
 21
5.183765730377071
 31
0.0
  0
LINE
  5
4D6
330
1E
100
AcDbEntity
  8
3
100
AcDbLine
 10
1.672899856623235
 20
5.313686990219592
 30
0.0
 11
1.672899856623235
 21
5.181797226440064
 31
0.0
  0
LINE
  5
4D7
330
1E
100
AcDbEntity
  8
3
100
AcDbLine
 10
1.666994344812211
 20
5.290064942975497
 30
0.0
 11
1.666994344812211
 21
5.498726360298332
 31
0.0
  0
LINE
  5
4D8
330
1E
100
AcDbEntity
  8
3
100
AcDbLine
 10
1.668962848749218
 20
5.19557675399912
 30
0.0
 11
1.668962848749218
 21
5.205419273684158
 31
0.0
  0
LINE
  5
4D9
330
1E
100
AcDbEntity
  8
3
100
AcDbLine
 10
1.668962848749218
 20
5.19557675399912
 30
0.0
 11
1.668962848749218
 21
5.181797226440064
 31
0.0
  0
LINE
  5
4DA
330
1E
100
AcDbEntity
  8
3
100
AcDbLine
 10
1.625655762135046
 20
5.215261793369197
 30
0.0
 11
1.082348675520872
 21
5.215261793369197
 31
0.0
  0
LINE
  5
4DB
330
1E
100
AcDbEntity
  8
3
100
AcDbLine
 10
1.082348675520872
 20
5.219198801243214
 30
0.0
 11
1.082348675520872
 21
5.215261793369197
 31
0.0
  0
LINE
  5
4E1
330
1E
100
AcDbEntity
  8
3
100
AcDbLine
 10
0.3638447385129986
 20
5.215261793369197
 30
0.0
 11
0.9071518251271726
 21
5.215261793369197
 31
0.0
  0
LINE
  5
4E2
330
1E
100
AcDbEntity
  8
3
100
AcDbLine
 10
0.3638447385129986
 20
5.223135809117229
 30
0.0
 11
0.3638447385129986
 21
5.215261793369197
 31
0.0
  0
LINE
  5
4E3
330
1E
100
AcDbEntity
  8
3
100
AcDbLine
 10
0.3205376518988263
 20
5.223135809117229
 30
0.0
 11
0.3638447385129986
 21
5.223135809117229
 31
0.0
  0
LINE
  5
4E4
330
1E
100
AcDbEntity
  8
3
100
AcDbLine
 10
0.3205376518988263
 20
5.205419273684158
 30
0.0
 11
0.3205376518988263
 21
5.223135809117229
 31
0.0
  0
LINE
  5
4E5
330
1E
100
AcDbEntity
  8
3
100
AcDbLine
 10
0.3205376518988263
 20
5.19557675399912
 30
0.0
 11
0.3205376518988263
 21
5.205419273684158
 31
0.0
  0
LINE
  5
4E6
330
1E
100
AcDbEntity
  8
3
100
AcDbLine
 10
0.3205376518988263
 20
5.19557675399912
 30
0.0
 11
1.668962848749218
 21
5.19557675399912
 31
0.0
  0
LINE
  5
4E7
330
1E
100
AcDbEntity
  8
3
100
AcDbLine
 10
1.688647888119298
 20
4.782190927227466
 30
0.0
 11
1.7142384393004
 21
4.664080691006994
 31
0.0
  0
LINE
  5
4E8
330
1E
100
AcDbEntity
  8
3
100
AcDbLine
 10
1.735891982607487
 20
4.664080691006994
 30
0.0
 11
1.7142384393004
 21
4.664080691006994
 31
0.0
  0
LINE
  5
4E9
330
1E
100
AcDbEntity
  8
3
100
AcDbLine
 10
1.735891982607487
 20
4.664080691006994
 30
0.0
 11
1.804789620402763
 21
4.782190927227466
 31
0.0
  0
LINE
  5
4F0
330
1E
100
AcDbEntity
  8
3
100
AcDbLine
 10
0.4327423763082745
 20
5.681797226440064
 30
0.0
 11
0.4327423763082745
 21
5.677860218566049
 31
0.0
  0
LINE
  5
4F6
330
1E
100
AcDbEntity
  8
3
100
AcDbLine
 10
1.682742376308274
 20
5.677860218566049
 30
0.0
 11
1.55675812433977
 21
5.677860218566049
 31
0.0
  0
LINE
  5
4F7
330
1E
100
AcDbEntity
  8
3
100
AcDbLine
 10
1.682742376308274
 20
5.725104313054238
 30
0.0
 11
1.682742376308274
 21
5.677860218566049
 31
0.0
  0
LINE
  5
50C
330
1E
100
AcDbEntity
  8
3
100
AcDbLine
 10
1.682742376308274
 20
5.664080691006994
 30
0.0
 11
1.729986470796463
 21
5.652269667384945
 31
0.0
  0
LINE
  5
50D
330
1E
100
AcDbEntity
  8
3
100
AcDbLine
 10
0.2536085180405578
 20
4.664080691006994
 30
0.0
 11
0.1847108802452819
 21
4.782190927227466
 31
0.0
  0
LINE
  5
50E
330
1E
100
AcDbEntity
  8
3
100
AcDbLine
 10
0.2536085180405578
 20
4.664080691006994
 30
0.0
 11
0.2752620613476449
 21
4.664080691006994
 31
0.0
  0
LINE
  5
50F
330
1E
100
AcDbEntity
  8
3
100
AcDbLine
 10
0.2988841085917393
 20
4.782190927227466
 30
0.0
 11
0.2752620613476449
 21
4.664080691006994
 31
0.0
  0
LINE
  5
510
330
1E
100
AcDbEntity
  8
3
100
AcDbLine
 10
0.4327423763082745
 20
5.664080691006994
 30
0.0
 11
0.3067581243397708
 21
5.664080691006994
 31
0.0
  0
LINE
  5
52A
330
1E
100
AcDbEntity
  8
3
100
AcDbLine
 10
0.2221124550484319
 20
5.648332659510931
 30
0.0
 11
0.2221124550484319
 21
5.685734234314081
 31
0.0
  0
LINE
  5
530
330
1E
100
AcDbEntity
  8
3
100
AcDbLine
 10
0.3067581243397708
 20
5.664080691006994
 30
0.0
 11
0.2595140298515819
 21
5.652269667384945
 31
0.0
  0
LINE
  5
531
330
1E
100
AcDbEntity
  8
3
100
AcDbLine
 10
0.9996715101665429
 20
5.630616124077858
 30
0.0
 11
0.9898289904815023
 21
5.630616124077858
 31
0.0
  0
LINE
  5
532
330
1E
100
AcDbEntity
  8
3
100
AcDbLine
 10
1.55675812433977
 20
5.664080691006994
 30
0.0
 11
1.682742376308274
 21
5.664080691006994
 31
0.0
  0
LINE
  5
533
330
1E
100
AcDbEntity
  8
3
100
AcDbLine
 10
1.55675812433977
 20
5.660143683132977
 30
0.0
 11
1.55675812433977
 21
5.664080691006994
 31
0.0
  0
LINE
  5
540
330
1E
100
AcDbEntity
  8
3
100
AcDbLine
 10
0.212269935363393
 20
5.644395651636914
 30
0.0
 11
0.212269935363393
 21
5.660143683132977
 31
0.0
  0
LINE
  5
541
330
1E
100
AcDbEntity
  8
3
100
AcDbLine
 10
0.3205376518988263
 20
5.225104313054238
 30
0.0
 11
0.3205376518988263
 21
5.223135809117229
 31
0.0
  0
LINE
  5
542
330
1E
100
AcDbEntity
  8
3
100
AcDbLine
 10
0.3638447385129986
 20
5.219198801243214
 30
0.0
 11
0.3638447385129986
 21
5.215261793369197
 31
0.0
  0
LINE
  5
543
330
1E
100
AcDbEntity
  8
3
100
AcDbLine
 10
0.2221124550484319
 20
5.50069486423534
 30
0.0
 11
0.2221124550484319
 21
5.532190927227466
 31
0.0
  0
LINE
  5
544
330
1E
100
AcDbEntity
  8
3
100
AcDbLine
 10
0.3067581243397708
 20
5.53809643903849
 30
0.0
 11
0.3067581243397708
 21
5.349120061085733
 31
0.0
  0
LINE
  5
54B
330
1E
100
AcDbEntity
  8
3
100
AcDbLine
 10
0.9996715101665429
 20
5.563686990219592
 30
0.0
 11
0.9898289904815023
 21
5.563686990219592
 31
0.0
  0
LINE
  5
54C
330
1E
100
AcDbEntity
  8
3
100
AcDbLine
 10
0.2221124550484319
 20
5.502663368172347
 30
0.0
 11
0.2221124550484319
 21
5.50069486423534
 31
0.0
  0
LINE
  5
54D
330
1E
100
AcDbEntity
  8
3
100
AcDbLine
 10
0.3225061558358337
 20
5.290064942975497
 30
0.0
 11
0.3225061558358337
 21
5.498726360298332
 31
0.0
  0
LINE
  5
585
330
1E
100
AcDbEntity
  8
3
100
AcDbLine
 10
0.3205376518988263
 20
5.339277541400694
 30
0.0
 11
0.3166006440248097
 21
5.339277541400694
 31
0.0
  0
LINE
  5
586
330
1E
100
AcDbEntity
  8
3
100
AcDbLine
 10
0.3205376518988263
 20
5.339277541400694
 30
0.0
 11
0.3087266282767782
 21
5.349120061085733
 31
0.0
  0
LINE
  5
587
330
1E
100
AcDbEntity
  8
3
100
AcDbLine
 10
0.3205376518988263
 20
5.530222423290458
 30
0.0
 11
0.3205376518988263
 21
5.339277541400694
 31
0.0
  0
LINE
  5
590
330
1E
100
AcDbEntity
  8
3
100
AcDbLine
 10
0.3166006440248097
 20
5.297938958723529
 30
0.0
 11
0.3205376518988263
 21
5.297938958723529
 31
0.0
  0
LINE
  5
591
330
1E
100
AcDbEntity
  8
3
100
AcDbLine
 10
0.3205376518988263
 20
5.205419273684158
 30
0.0
 11
0.3185691479618171
 21
5.25069486423534
 31
0.0
  0
LINE
  5
592
330
1E
100
AcDbEntity
  8
3
100
AcDbLine
 10
0.3205376518988263
 20
5.290064942975497
 30
0.0
 11
0.3205376518988263
 21
5.297938958723529
 31
0.0
  0
LINE
  5
593
330
1E
100
AcDbEntity
  8
3
100
AcDbLine
 10
0.3225061558358337
 20
5.498726360298332
 30
0.0
 11
0.3205376518988263
 21
5.530222423290458
 31
0.0
  0
LINE
  5
59A
330
1E
100
AcDbEntity
  8
3
100
AcDbLine
 10
0.3166006440248097
 20
5.313686990219592
 30
0.0
 11
0.3166006440248097
 21
5.181797226440064
 31
0.0
  0
LINE
  5
59B
330
1E
100
AcDbEntity
  8
3
100
AcDbLine
 10
0.3205376518988263
 20
5.19557675399912
 30
0.0
 11
0.3185691479618171
 21
5.181797226440064
 31
0.0
  0
LINE
  5
5A1
330
1E
100
AcDbEntity
  8
3
100
AcDbLine
 10
0.9996715101665429
 20
5.492820848487308
 30
0.0
 11
0.9898289904815023
 21
5.492820848487308
 31
0.0
  0
LINE
  5
5A2
330
1E
100
AcDbEntity
  8
3
100
AcDbLine
 10
0.9898289904815023
 20
5.553844470534553
 30
0.0
 11
0.9996715101665429
 21
5.553844470534553
 31
0.0
  0
LINE
  5
5A9
330
1E
100
AcDbEntity
  8
3
100
AcDbLine
 10
1.082348675520872
 20
5.244789352424316
 30
0.0
 11
0.9071518251271726
 21
5.244789352424316
 31
0.0
  0
LINE
  5
5C8
330
1E
100
AcDbEntity
  8
3
100
AcDbLine
 10
1.657151825127172
 20
5.512505887857386
 30
0.0
 11
1.657151825127172
 21
5.504631872109355
 31
0.0
  0
LINE
  5
5C9
330
1E
100
AcDbEntity
  8
3
100
AcDbLine
 10
1.657151825127172
 20
5.512505887857386
 30
0.0
 11
1.647309305442133
 21
5.51841139966841
 31
0.0
  0
LINE
  5
5CA
330
1E
100
AcDbEntity
  8
3
100
AcDbLine
 10
1.647309305442133
 20
5.486915336676284
 30
0.0
 11
1.657151825127172
 21
5.504631872109355
 31
0.0
  0
LINE
  5
5CB
330
1E
100
AcDbEntity
  8
3
100
AcDbLine
 10
1.657151825127172
 20
5.512505887857386
 30
0.0
 11
1.657151825127172
 21
5.51841139966841
 31
0.0
  0
LINE
  5
5CC
330
1E
100
AcDbEntity
  8
3
100
AcDbLine
 10
1.607939226701974
 20
5.295970454786521
 30
0.0
 11
1.607939226701974
 21
5.282190927227466
 31
0.0
  0
LINE
  5
5D7
330
1E
100
AcDbEntity
  8
3
100
AcDbLine
 10
1.655183321190165
 20
5.282190927227466
 30
0.0
 11
1.653214817253155
 21
5.28809643903849
 31
0.0
  0
LINE
  5
5F7
330
1E
100
AcDbEntity
  8
3
100
AcDbLine
 10
1.607939226701974
 20
5.301875966597544
 30
0.0
 11
1.637466785757093
 21
5.301875966597544
 31
0.0
  0
LINE
  5
5F8
330
1E
100
AcDbEntity
  8
3
100
AcDbLine
 10
1.657151825127172
 20
5.290064942975497
 30
0.0
 11
1.657151825127172
 21
5.437702738251088
 31
0.0
  0
LINE
  5
5F9
330
1E
100
AcDbEntity
  8
3
100
AcDbLine
 10
1.670931352686228
 20
5.282190927227466
 30
0.0
 11
1.655183321190165
 21
5.282190927227466
 31
0.0
  0
LINE
  5
5FA
330
1E
100
AcDbEntity
  8
3
100
AcDbLine
 10
1.670931352686228
 20
5.258568879983371
 30
0.0
 11
1.655183321190165
 21
5.258568879983371
 31
0.0
  0
LINE
  5
600
330
1E
100
AcDbEntity
  8
3
100
AcDbLine
 10
1.670931352686228
 20
5.26841139966841
 30
0.0
 11
1.670931352686228
 21
5.274316911479434
 31
0.0
  0
LINE
  5
612
330
1E
100
AcDbEntity
  8
3
100
AcDbLine
 10
1.607939226701974
 20
5.254631872109355
 30
0.0
 11
1.131561273946068
 21
5.254631872109355
 31
0.0
  0
LINE
  5
613
330
1E
100
AcDbEntity
  8
3
100
AcDbLine
 10
1.637466785757093
 20
5.534159431164473
 30
0.0
 11
1.637466785757093
 21
5.301875966597544
 31
0.0
  0
LINE
  5
619
330
1E
100
AcDbEntity
  8
3
100
AcDbLine
 10
1.739828990481502
 20
5.569592502030616
 30
0.0
 11
1.686679384182291
 21
5.569592502030616
 31
0.0
  0
LINE
  5
622
330
1E
100
AcDbEntity
  8
3
100
AcDbLine
 10
1.01935654953662
 20
5.646364155573923
 30
0.0
 11
1.739828990481502
 21
5.646364155573923
 31
0.0
  0
LINE
  5
623
330
1E
100
AcDbEntity
  8
3
100
AcDbLine
 10
1.01935654953662
 20
5.307781478408568
 30
0.0
 11
1.01935654953662
 21
5.646364155573923
 31
0.0
  0
LINE
  5
639
330
1E
100
AcDbEntity
  8
3
100
AcDbLine
 10
1.704395919615361
 20
5.540064942975497
 30
0.0
 11
1.739828990481502
 21
5.540064942975497
 31
0.0
  0
LINE
  5
659
330
1E
100
AcDbEntity
  8
3
100
AcDbLine
 10
0.9996715101665429
 20
5.632584628014868
 30
0.0
 11
0.9996715101665429
 21
5.295970454786521
 31
0.0
  0
LINE
  5
661
330
1E
100
AcDbEntity
  8
3
100
AcDbLine
 10
1.739828990481502
 20
5.534159431164473
 30
0.0
 11
1.728017966859455
 21
5.534159431164473
 31
0.0
  0
LINE
  5
667
330
1E
100
AcDbEntity
  8
3
100
AcDbLine
 10
1.074474659772841
 20
5.295970454786521
 30
0.0
 11
1.074474659772841
 21
5.307781478408568
 31
0.0
  0
LINE
  5
668
330
1E
100
AcDbEntity
  8
3
100
AcDbLine
 10
1.739828990481502
 20
5.534159431164473
 30
0.0
 11
1.739828990481502
 21
5.540064942975497
 31
0.0
  0
LINE
  5
669
330
1E
100
AcDbEntity
  8
3
100
AcDbLine
 10
0.3421911952059116
 20
5.457387777621166
 30
0.0
 11
0.3323486755208727
 21
5.437702738251088
 31
0.0
  0
LINE
  5
66A
330
1E
100
AcDbEntity
  8
3
100
AcDbLine
 10
0.3421911952059116
 20
5.51841139966841
 30
0.0
 11
0.3421911952059116
 21
5.457387777621166
 31
0.0
  0
LINE
  5
66B
330
1E
100
AcDbEntity
  8
3
100
AcDbLine
 10
0.3323486755208727
 20
5.504631872109355
 30
0.0
 11
0.3323486755208727
 21
5.512505887857386
 31
0.0
  0
LINE
  5
66C
330
1E
100
AcDbEntity
  8
3
100
AcDbLine
 10
0.3323486755208727
 20
5.504631872109355
 30
0.0
 11
0.3421911952059116
 21
5.486915336676284
 31
0.0
  0
LINE
  5
66D
330
1E
100
AcDbEntity
  8
3
100
AcDbLine
 10
0.3421911952059116
 20
5.51841139966841
 30
0.0
 11
0.3323486755208727
 21
5.512505887857386
 31
0.0
  0
LINE
  5
66E
330
1E
100
AcDbEntity
  8
3
100
AcDbLine
 10
0.3323486755208727
 20
5.51841139966841
 30
0.0
 11
0.3323486755208727
 21
5.512505887857386
 31
0.0
  0
LINE
  5
679
330
1E
100
AcDbEntity
  8
3
100
AcDbLine
 10
0.3382541873318967
 20
5.242820848487308
 30
0.0
 11
0.3461282030799282
 21
5.225104313054238
 31
0.0
  0
LINE
  5
691
330
1E
100
AcDbEntity
  8
3
100
AcDbLine
 10
0.3382541873318967
 20
5.297938958723529
 30
0.0
 11
0.3323486755208727
 21
5.290064942975497
 31
0.0
  0
LINE
  5
692
330
1E
100
AcDbEntity
  8
3
100
AcDbLine
 10
0.381561273946069
 20
5.301875966597544
 30
0.0
 11
0.3520337148909522
 21
5.301875966597544
 31
0.0
  0
LINE
  5
693
330
1E
100
AcDbEntity
  8
3
100
AcDbLine
 10
0.3323486755208727
 20
5.437702738251088
 30
0.0
 11
0.3323486755208727
 21
5.290064942975497
 31
0.0
  0
LINE
  5
694
330
1E
100
AcDbEntity
  8
3
100
AcDbLine
 10
0.3323486755208727
 20
5.282190927227466
 30
0.0
 11
0.3166006440248097
 21
5.282190927227466
 31
0.0
  0
LINE
  5
69A
330
1E
100
AcDbEntity
  8
3
100
AcDbLine
 10
0.3323486755208727
 20
5.258568879983371
 30
0.0
 11
0.3185691479618171
 21
5.258568879983371
 31
0.0
  0
LINE
  5
69B
330
1E
100
AcDbEntity
  8
3
100
AcDbLine
 10
0.3166006440248097
 20
5.274316911479434
 30
0.0
 11
0.3166006440248097
 21
5.26841139966841
 31
0.0
  0
LINE
  5
6AC
330
1E
100
AcDbEntity
  8
3
100
AcDbLine
 10
0.8579392267019745
 20
5.301875966597544
 30
0.0
 11
0.9071518251271726
 21
5.301875966597544
 31
0.0
  0
LINE
  5
6AD
330
1E
100
AcDbEntity
  8
3
100
AcDbLine
 10
0.381561273946069
 20
5.254631872109355
 30
0.0
 11
0.8579392267019745
 21
5.254631872109355
 31
0.0
  0
LINE
  5
6B3
330
1E
100
AcDbEntity
  8
3
100
AcDbLine
 10
0.9701439511114244
 20
5.307781478408568
 30
0.0
 11
0.9150258408752041
 21
5.307781478408568
 31
0.0
  0
LINE
  5
6B4
330
1E
100
AcDbEntity
  8
3
100
AcDbLine
 10
0.9701439511114244
 20
5.646364155573923
 30
0.0
 11
0.9701439511114244
 21
5.307781478408568
 31
0.0
  0
LINE
  5
6B5
330
1E
100
AcDbEntity
  8
3
100
AcDbLine
 10
0.249671510166543
 20
5.646364155573923
 30
0.0
 11
0.9701439511114244
 21
5.646364155573923
 31
0.0
  0
LINE
  5
6BE
330
1E
100
AcDbEntity
  8
3
100
AcDbLine
 10
0.3008526125287467
 20
5.569592502030616
 30
0.0
 11
0.249671510166543
 21
5.569592502030616
 31
0.0
  0
LINE
  5
6C4
330
1E
100
AcDbEntity
  8
3
100
AcDbLine
 10
0.3520337148909522
 20
5.301875966597544
 30
0.0
 11
0.3520337148909522
 21
5.534159431164473
 31
0.0
  0
LINE
  5
6F1
330
1E
100
AcDbEntity
  8
3
100
AcDbLine
 10
0.249671510166543
 20
5.553844470534553
 30
0.0
 11
0.249671510166543
 21
5.569592502030616
 31
0.0
  0
LINE
  5
6F2
330
1E
100
AcDbEntity
  8
3
100
AcDbLine
 10
0.249671510166543
 20
5.540064942975497
 30
0.0
 11
0.2851045810326838
 21
5.540064942975497
 31
0.0
  0
LINE
  5
6FF
330
1E
100
AcDbEntity
  8
3
100
AcDbLine
 10
0.9150258408752041
 20
5.307781478408568
 30
0.0
 11
0.9150258408752041
 21
5.295970454786521
 31
0.0
  0
LINE
  5
700
330
1E
100
AcDbEntity
  8
3
100
AcDbLine
 10
0.249671510166543
 20
5.540064942975497
 30
0.0
 11
0.249671510166543
 21
5.534159431164473
 31
0.0
  0
LINE
  5
3101
330
1E
100
AcDbEntity
  8
3
100
AcDbLine
 10
1.657151825127172
 20
8.327466517778647
 30
0.0
 11
1.666994344812211
 21
8.327466517778647
 31
0.0
  0
LINE
  5
3102
330
1E
100
AcDbEntity
  8
3
100
AcDbLine
 10
0.3067581243397708
 20
8.650301163447936
 30
0.0
 11
0.4327423763082745
 21
8.650301163447936
 31
0.0
  0
LINE
  5
3103
330
1E
100
AcDbEntity
  8
3
100
AcDbLine
 10
0.3225061558358337
 20
8.327466517778647
 30
0.0
 11
0.3323486755208727
 21
8.327466517778647
 31
0.0
  0
LINE
  5
3104
330
1E
100
AcDbEntity
  8
3
100
AcDbLine
 10
1.55675812433977
 20
8.650301163447936
 30
0.0
 11
1.682742376308274
 21
8.650301163447936
 31
0.0
  0
LINE
  5
3105
330
1E
100
AcDbEntity
  8
3
100
AcDbLine
 10
0.4327423763082745
 20
8.652269667384947
 30
0.0
 11
1.55675812433977
 21
8.652269667384947
 31
0.0
  0
LINE
  5
3106
330
1E
100
AcDbEntity
  8
3
100
AcDbLine
 10
0.9071518251271726
 20
8.221167305180221
 30
0.0
 11
1.082348675520872
 21
8.221167305180221
 31
0.0
  0
LINE
  5
3107
330
1E
100
AcDbEntity
  8
3
100
AcDbLine
 10
1.607939226701974
 20
8.221167305180221
 30
0.0
 11
1.637466785757093
 21
8.221167305180221
 31
0.0
  0
LINE
  5
3108
330
1E
100
AcDbEntity
  8
3
100
AcDbLine
 10
1.668962848749218
 20
8.305812974471558
 30
0.0
 11
1.657151825127172
 21
8.305812974471558
 31
0.0
  0
LINE
  5
3109
330
1E
100
AcDbEntity
  8
3
100
AcDbLine
 10
1.653214817253155
 20
8.227072816991244
 30
0.0
 11
1.672899856623235
 21
8.227072816991244
 31
0.0
  0
LINE
  5
310A
330
1E
100
AcDbEntity
  8
3
100
AcDbLine
 10
1.082348675520872
 20
8.221167305180221
 30
0.0
 11
1.131561273946068
 21
8.221167305180221
 31
0.0
  0
LINE
  5
310B
330
1E
100
AcDbEntity
  8
3
100
AcDbLine
 10
1.131561273946068
 20
8.227072816991244
 30
0.0
 11
1.607939226701974
 21
8.227072816991244
 31
0.0
  0
LINE
  5
310C
330
1E
100
AcDbEntity
  8
3
100
AcDbLine
 10
1.686679384182291
 20
8.544001950849514
 30
0.0
 11
1.739828990481502
 21
8.544001950849514
 31
0.0
  0
LINE
  5
310D
330
1E
100
AcDbEntity
  8
3
100
AcDbLine
 10
1.814632140087802
 20
8.603057068959747
 30
0.0
 11
1.814632140087802
 21
8.608962580770773
 31
0.0
  0
LINE
  5
310E
330
1E
100
AcDbEntity
  8
3
100
AcDbLine
 10
0.3520337148909522
 20
8.221167305180221
 30
0.0
 11
0.381561273946069
 21
8.221167305180221
 31
0.0
  0
LINE
  5
310F
330
1E
100
AcDbEntity
  8
3
100
AcDbLine
 10
0.3323486755208727
 20
8.305812974471558
 30
0.0
 11
0.3205376518988263
 21
8.305812974471558
 31
0.0
  0
LINE
  5
3110
330
1E
100
AcDbEntity
  8
3
100
AcDbLine
 10
0.3166006440248097
 20
8.227072816991244
 30
0.0
 11
0.3402226912689041
 21
8.227072816991244
 31
0.0
  0
LINE
  5
3111
330
1E
100
AcDbEntity
  8
3
100
AcDbLine
 10
0.8579392267019745
 20
8.221167305180221
 30
0.0
 11
0.9071518251271726
 21
8.221167305180221
 31
0.0
  0
LINE
  5
3112
330
1E
100
AcDbEntity
  8
3
100
AcDbLine
 10
0.381561273946069
 20
8.227072816991244
 30
0.0
 11
0.8579392267019745
 21
8.227072816991244
 31
0.0
  0
LINE
  5
3113
330
1E
100
AcDbEntity
  8
3
100
AcDbLine
 10
0.249671510166543
 20
8.544001950849514
 30
0.0
 11
0.3008526125287467
 21
8.544001950849514
 31
0.0
  0
LINE
  5
3114
330
1E
100
AcDbEntity
  8
3
100
AcDbLine
 10
0.174868360560243
 20
8.608962580770773
 30
0.0
 11
0.174868360560243
 21
8.603057068959747
 31
0.0
  0
LINE
  5
3193
330
1E
100
AcDbEntity
  8
3
100
AcDbLine
 10
1.987860486544494
 20
8.032190927227466
 30
0.0
 11
1.987860486544494
 21
10.72707281699124
 31
0.0
  0
LINE
  5
319F
330
1E
100
AcDbEntity
  8
3
100
AcDbLine
 10
0.1709313526862282
 20
7.860931084707781
 30
0.0
 11
1.816600644024809
 21
7.860931084707781
 31
0.0
  0
LINE
  5
31A8
330
1E
100
AcDbEntity
  8
3
100
AcDbLine
 10
0.0016400141035504
 20
10.72707281699124
 30
0.0
 11
0.0016400141035504
 21
8.032190927227466
 31
0.0
  0
LINE
  5
31B1
330
1E
100
AcDbEntity
  8
3
100
AcDbLine
 10
1.816600644024809
 20
10.89636415557392
 30
0.0
 11
0.1709313526862282
 21
10.89636415557392
 31
0.0
  0
LINE
  5
31B9
330
1E
100
AcDbEntity
  8
3
100
AcDbLine
 10
1.978017966859455
 20
10.78022242329045
 30
0.0
 11
1.987860486544494
 21
10.72707281699124
 31
0.0
  0
LINE
  5
31FD
330
1E
100
AcDbEntity
  8
3
100
AcDbLine
 10
0.0134510377255985
 20
10.71526179336919
 30
0.0
 11
0.0016400141035504
 21
10.72707281699124
 31
0.0
  0
LINE
  5
320A
330
1E
100
AcDbEntity
  8
3
100
AcDbLine
 10
1.151246313316148
 20
7.957387777621166
 30
0.0
 11
0.8382541873318967
 21
7.957387777621166
 31
0.0
  0
LINE
  5
320B
330
1E
100
AcDbEntity
  8
3
100
AcDbLine
 10
0.1847108802452819
 20
7.953450769747151
 30
0.0
 11
0.1827423763082745
 21
7.951482265810144
 31
0.0
  0
LINE
  5
320C
330
1E
100
AcDbEntity
  8
3
100
AcDbLine
 10
1.80675812433977
 20
7.951482265810144
 30
0.0
 11
1.802821116465754
 21
7.953450769747151
 31
0.0
  0
LINE
  5
320D
330
1E
100
AcDbEntity
  8
3
100
AcDbLine
 10
0.0921911952059116
 20
8.042033446912506
 30
0.0
 11
0.0941596991429208
 21
8.045970454786521
 31
0.0
  0
LINE
  5
320E
330
1E
100
AcDbEntity
  8
3
100
AcDbLine
 10
0.0941596991429208
 20
10.71329328943219
 30
0.0
 11
0.0921911952059116
 21
10.71526179336919
 31
0.0
  0
LINE
  5
320F
330
1E
100
AcDbEntity
  8
3
100
AcDbLine
 10
0.8382541873318967
 20
10.79990746266053
 30
0.0
 11
1.151246313316148
 21
10.79990746266053
 31
0.0
  0
LINE
  5
3210
330
1E
100
AcDbEntity
  8
3
100
AcDbLine
 10
1.802821116465754
 20
10.80384447053455
 30
0.0
 11
1.80675812433977
 21
10.80778147840857
 31
0.0
  0
LINE
  5
3211
330
1E
100
AcDbEntity
  8
3
100
AcDbLine
 10
0.1827423763082745
 20
10.80778147840857
 30
0.0
 11
0.1847108802452819
 21
10.80384447053455
 31
0.0
  0
LINE
  5
3212
330
1E
100
AcDbEntity
  8
3
100
AcDbLine
 10
1.897309305442131
 20
10.71526179336919
 30
0.0
 11
1.895340801505124
 21
10.71329328943219
 31
0.0
  0
LINE
  5
3213
330
1E
100
AcDbEntity
  8
3
100
AcDbLine
 10
1.895340801505124
 20
8.045970454786521
 30
0.0
 11
1.897309305442131
 21
8.042033446912506
 31
0.0
  0
LINE
  5
322C
330
1E
100
AcDbEntity
  8
3
100
AcDbLine
 10
0.1827423763082745
 20
7.872742108329829
 30
0.0
 11
0.1295927700090615
 21
7.880616124077858
 31
0.0
  0
LINE
  5
325C
330
1E
100
AcDbEntity
  8
3
100
AcDbLine
 10
1.690616392056305
 20
8.061718486282584
 30
0.0
 11
1.688647888119298
 21
8.061718486282584
 31
0.0
  0
LINE
  5
325D
330
1E
100
AcDbEntity
  8
3
100
AcDbLine
 10
0.3008526125287467
 20
8.061718486282584
 30
0.0
 11
1.688647888119298
 21
8.061718486282584
 31
0.0
  0
LINE
  5
325E
330
1E
100
AcDbEntity
  8
3
100
AcDbLine
 10
0.3008526125287467
 20
8.061718486282584
 30
0.0
 11
0.2988841085917393
 21
8.061718486282584
 31
0.0
  0
LINE
  5
325F
330
1E
100
AcDbEntity
  8
3
100
AcDbLine
 10
0.3480967070169356
 20
9.396364155573921
 30
0.0
 11
0.3480967070169356
 21
9.400301163447936
 31
0.0
  0
LINE
  5
3260
330
1E
100
AcDbEntity
  8
3
100
AcDbLine
 10
1.641403793631109
 20
9.400301163447936
 30
0.0
 11
1.641403793631109
 21
9.396364155573921
 31
0.0
  0
LINE
  5
327E
330
1E
100
AcDbEntity
  8
3
100
AcDbLine
 10
1.840222691268904
 20
8.809749982345577
 30
0.0
 11
1.792978596780715
 21
8.809749982345577
 31
0.0
  0
LINE
  5
327F
330
1E
100
AcDbEntity
  8
3
100
AcDbLine
 10
1.840222691268904
 20
8.809749982345577
 30
0.0
 11
1.848096707016935
 21
8.801875966597544
 31
0.0
  0
LINE
  5
3280
330
1E
100
AcDbEntity
  8
3
100
AcDbLine
 10
1.848096707016935
 20
8.656206675258962
 30
0.0
 11
1.848096707016935
 21
8.801875966597544
 31
0.0
  0
LINE
  5
3281
330
1E
100
AcDbEntity
  8
3
100
AcDbLine
 10
1.848096707016935
 20
8.656206675258962
 30
0.0
 11
1.840222691268904
 21
8.648332659510929
 31
0.0
  0
LINE
  5
3282
330
1E
100
AcDbEntity
  8
3
100
AcDbLine
 10
1.794947100717722
 20
8.648332659510929
 30
0.0
 11
1.840222691268904
 21
8.648332659510929
 31
0.0
  0
LINE
  5
3288
330
1E
100
AcDbEntity
  8
3
100
AcDbLine
 10
0.2043959196153615
 20
8.555812974471558
 30
0.0
 11
0.2043959196153615
 21
8.051875966597544
 31
0.0
  0
LINE
  5
3289
330
1E
100
AcDbEntity
  8
3
100
AcDbLine
 10
0.1492778093791411
 20
8.648332659510929
 30
0.0
 11
0.1925848959933134
 21
8.648332659510929
 31
0.0
  0
LINE
  5
328A
330
1E
100
AcDbEntity
  8
3
100
AcDbLine
 10
0.1492778093791411
 20
8.648332659510929
 30
0.0
 11
0.1414037936311097
 21
8.656206675258962
 31
0.0
  0
LINE
  5
328B
330
1E
100
AcDbEntity
  8
3
100
AcDbLine
 10
0.1414037936311097
 20
8.801875966597544
 30
0.0
 11
0.1414037936311097
 21
8.656206675258962
 31
0.0
  0
LINE
  5
328C
330
1E
100
AcDbEntity
  8
3
100
AcDbLine
 10
0.1414037936311097
 20
8.801875966597544
 30
0.0
 11
0.1492778093791411
 21
8.809749982345577
 31
0.0
  0
LINE
  5
328D
330
1E
100
AcDbEntity
  8
3
100
AcDbLine
 10
0.19652190386733
 20
8.809749982345577
 30
0.0
 11
0.1492778093791411
 21
8.809749982345577
 31
0.0
  0
LINE
  5
328E
330
1E
100
AcDbEntity
  8
3
100
AcDbLine
 10
0.19652190386733
 20
8.809749982345577
 30
0.0
 11
0.2043959196153615
 21
8.817623998093607
 31
0.0
  0
LINE
  5
328F
330
1E
100
AcDbEntity
  8
3
100
AcDbLine
 10
0.2043959196153615
 20
9.404238171321955
 30
0.0
 11
0.2043959196153615
 21
8.817623998093607
 31
0.0
  0
LINE
  5
3290
330
1E
100
AcDbEntity
  8
3
100
AcDbLine
 10
1.783136077095676
 20
9.404238171321955
 30
0.0
 11
0.2043959196153615
 21
9.404238171321955
 31
0.0
  0
LINE
  5
3298
330
1E
100
AcDbEntity
  8
3
100
AcDbLine
 10
1.155183321190165
 20
10.77628541541644
 30
0.0
 11
1.155183321190165
 21
10.78219092722746
 31
0.0
  0
LINE
  5
3299
330
1E
100
AcDbEntity
  8
3
100
AcDbLine
 10
0.8323486755208726
 20
10.77628541541644
 30
0.0
 11
1.155183321190165
 21
10.77628541541644
 31
0.0
  0
LINE
  5
329A
330
1E
100
AcDbEntity
  8
3
100
AcDbLine
 10
0.8323486755208726
 20
10.78219092722746
 30
0.0
 11
0.8323486755208726
 21
10.77628541541644
 31
0.0
  0
LINE
  5
32A7
330
1E
100
AcDbEntity
  8
3
100
AcDbLine
 10
0.8323486755208726
 20
7.982978328802269
 30
0.0
 11
0.8323486755208726
 21
7.975104313054236
 31
0.0
  0
LINE
  5
32A8
330
1E
100
AcDbEntity
  8
3
100
AcDbLine
 10
1.155183321190165
 20
7.982978328802269
 30
0.0
 11
0.8323486755208726
 21
7.982978328802269
 31
0.0
  0
LINE
  5
32A9
330
1E
100
AcDbEntity
  8
3
100
AcDbLine
 10
1.155183321190165
 20
7.975104313054236
 30
0.0
 11
1.155183321190165
 21
7.982978328802269
 31
0.0
  0
LINE
  5
32BA
330
1E
100
AcDbEntity
  8
3
100
AcDbLine
 10
1.155183321190165
 20
7.955419273684158
 30
0.0
 11
1.153214817253155
 21
7.955419273684158
 31
0.0
  0
LINE
  5
32C0
330
1E
100
AcDbEntity
  8
3
100
AcDbLine
 10
1.147309305442133
 20
7.979041320928255
 30
0.0
 11
1.155183321190165
 21
7.982978328802269
 31
0.0
  0
LINE
  5
32C6
330
1E
100
AcDbEntity
  8
3
100
AcDbLine
 10
0.83431717945788
 20
10.80187596659754
 30
0.0
 11
0.83431717945788
 21
10.80384447053455
 31
0.0
  0
LINE
  5
32C7
330
1E
100
AcDbEntity
  8
3
100
AcDbLine
 10
0.83431717945788
 20
10.80187596659754
 30
0.0
 11
0.8323486755208726
 21
10.79597045478652
 31
0.0
  0
LINE
  5
32C8
330
1E
100
AcDbEntity
  8
3
100
AcDbLine
 10
0.8323486755208726
 20
10.79597045478652
 30
0.0
 11
0.8323486755208726
 21
10.78219092722746
 31
0.0
  0
LINE
  5
32C9
330
1E
100
AcDbEntity
  8
3
100
AcDbLine
 10
0.8421911952059115
 20
10.78022242329045
 30
0.0
 11
0.8323486755208726
 21
10.77628541541644
 31
0.0
  0
LINE
  5
32D4
330
1E
100
AcDbEntity
  8
3
100
AcDbLine
 10
1.153214817253155
 20
10.80384447053455
 30
0.0
 11
1.155183321190165
 21
10.80187596659754
 31
0.0
  0
LINE
  5
32DB
330
1E
100
AcDbEntity
  8
3
100
AcDbLine
 10
0.83431717945788
 20
10.80384447053455
 30
0.0
 11
0.1866793841822911
 21
10.80384447053455
 31
0.0
  0
LINE
  5
32DC
330
1E
100
AcDbEntity
  8
3
100
AcDbLine
 10
0.1866793841822911
 20
7.955419273684158
 30
0.0
 11
0.83431717945788
 21
7.955419273684158
 31
0.0
  0
LINE
  5
32DD
330
1E
100
AcDbEntity
  8
3
100
AcDbLine
 10
0.8421911952059115
 20
7.957387777621166
 30
0.0
 11
0.8421911952059115
 21
7.961324785495181
 31
0.0
  0
LINE
  5
32DE
330
1E
100
AcDbEntity
  8
3
100
AcDbLine
 10
1.147309305442133
 20
7.961324785495181
 30
0.0
 11
1.147309305442133
 21
7.957387777621166
 31
0.0
  0
LINE
  5
32DF
330
1E
100
AcDbEntity
  8
3
100
AcDbLine
 10
0.3244746597728412
 20
10.32549801384164
 30
0.0
 11
0.2831360770956763
 21
10.32549801384164
 31
0.0
  0
LINE
  5
32E6
330
1E
100
AcDbEntity
  8
3
100
AcDbLine
 10
0.3284116676468578
 20
10.32746651777864
 30
0.0
 11
1.661088833001187
 21
10.32746651777864
 31
0.0
  0
LINE
  5
32E7
330
1E
100
AcDbEntity
  8
3
100
AcDbLine
 10
0.3284116676468578
 20
10.32746651777864
 30
0.0
 11
0.3244746597728412
 21
10.32549801384164
 31
0.0
  0
LINE
  5
32E8
330
1E
100
AcDbEntity
  8
3
100
AcDbLine
 10
0.2732935574106374
 20
10.33730903746368
 30
0.0
 11
0.2732935574106374
 21
10.67589171462903
 31
0.0
  0
LINE
  5
32E9
330
1E
100
AcDbEntity
  8
3
100
AcDbLine
 10
0.2732935574106374
 20
10.33534053352667
 30
0.0
 11
0.2732935574106374
 21
10.33730903746368
 31
0.0
  0
LINE
  5
32EF
330
1E
100
AcDbEntity
  8
3
100
AcDbLine
 10
1.661088833001187
 20
10.68376573037707
 30
0.0
 11
0.3284116676468578
 21
10.68376573037707
 31
0.0
  0
LINE
  5
32F6
330
1E
100
AcDbEntity
  8
3
100
AcDbLine
 10
1.661088833001187
 20
10.32746651777864
 30
0.0
 11
1.661088833001187
 21
10.68376573037707
 31
0.0
  0
LINE
  5
32F7
330
1E
100
AcDbEntity
  8
3
100
AcDbLine
 10
0.3284116676468578
 20
10.68376573037707
 30
0.0
 11
0.3284116676468578
 21
10.32746651777864
 31
0.0
  0
LINE
  5
32FD
330
1E
100
AcDbEntity
  8
3
100
AcDbLine
 10
1.716206943237407
 20
10.67589171462903
 30
0.0
 11
1.7142384393004
 21
10.67589171462903
 31
0.0
  0
LINE
  5
32FE
330
1E
100
AcDbEntity
  8
3
100
AcDbLine
 10
1.720143951111424
 20
9.400301163447936
 30
0.0
 11
1.720143951111424
 21
9.396364155573921
 31
0.0
  0
LINE
  5
32FF
330
1E
100
AcDbEntity
  8
3
100
AcDbLine
 10
1.720143951111424
 20
9.400301163447936
 30
0.0
 11
1.720143951111424
 21
9.396364155573921
 31
0.0
  0
LINE
  5
3300
330
1E
100
AcDbEntity
  8
3
100
AcDbLine
 10
0.2693565495366208
 20
9.400301163447936
 30
0.0
 11
0.2693565495366208
 21
9.396364155573921
 31
0.0
  0
LINE
  5
3301
330
1E
100
AcDbEntity
  8
3
100
AcDbLine
 10
0.2673880455996134
 20
9.400301163447936
 30
0.0
 11
0.2693565495366208
 21
9.400301163447936
 31
0.0
  0
LINE
  5
3302
330
1E
100
AcDbEntity
  8
3
100
AcDbLine
 10
0.2673880455996134
 20
9.400301163447936
 30
0.0
 11
0.2673880455996134
 21
9.396364155573921
 31
0.0
  0
LINE
  5
3308
330
1E
100
AcDbEntity
  8
3
100
AcDbLine
 10
0.212269935363393
 20
8.921954706755025
 30
0.0
 11
0.2083329274893764
 21
8.921954706755025
 31
0.0
  0
LINE
  5
3309
330
1E
100
AcDbEntity
  8
3
100
AcDbLine
 10
1.720143951111424
 20
9.400301163447936
 30
0.0
 11
1.781167573158668
 21
9.400301163447936
 31
0.0
  0
LINE
  5
330A
330
1E
100
AcDbEntity
  8
3
100
AcDbLine
 10
1.781167573158668
 20
8.921954706755025
 30
0.0
 11
1.775262061347644
 21
8.921954706755025
 31
0.0
  0
LINE
  5
330B
330
1E
100
AcDbEntity
  8
3
100
AcDbLine
 10
1.781167573158668
 20
9.400301163447936
 30
0.0
 11
1.781167573158668
 21
8.921954706755025
 31
0.0
  0
LINE
  5
3312
330
1E
100
AcDbEntity
  8
3
100
AcDbLine
 10
0.2673880455996134
 20
8.061718486282584
 30
0.0
 11
0.2673880455996134
 21
8.055812974471558
 31
0.0
  0
LINE
  5
331D
330
1E
100
AcDbEntity
  8
3
100
AcDbLine
 10
1.720143951111424
 20
8.061718486282584
 30
0.0
 11
1.720143951111424
 21
8.055812974471558
 31
0.0
  0
LINE
  5
331E
330
1E
100
AcDbEntity
  8
3
100
AcDbLine
 10
1.781167573158668
 20
8.534159431164473
 30
0.0
 11
1.781167573158668
 21
8.055812974471558
 31
0.0
  0
LINE
  5
331F
330
1E
100
AcDbEntity
  8
3
100
AcDbLine
 10
1.781167573158668
 20
8.534159431164473
 30
0.0
 11
1.775262061347644
 21
8.534159431164473
 31
0.0
  0
LINE
  5
3320
330
1E
100
AcDbEntity
  8
3
100
AcDbLine
 10
1.781167573158668
 20
8.055812974471558
 30
0.0
 11
1.720143951111424
 21
8.055812974471558
 31
0.0
  0
LINE
  5
3321
330
1E
100
AcDbEntity
  8
3
100
AcDbLine
 10
0.2043959196153615
 20
8.817623998093607
 30
0.0
 11
0.2083329274893764
 21
8.811718486282584
 31
0.0
  0
LINE
  5
3322
330
1E
100
AcDbEntity
  8
3
100
AcDbLine
 10
0.2083329274893764
 20
8.921954706755025
 30
0.0
 11
0.2083329274893764
 21
8.811718486282584
 31
0.0
  0
LINE
  5
3323
330
1E
100
AcDbEntity
  8
3
100
AcDbLine
 10
0.2083329274893764
 20
9.400301163447936
 30
0.0
 11
0.2043959196153615
 21
9.404238171321955
 31
0.0
  0
LINE
  5
3329
330
1E
100
AcDbEntity
  8
3
100
AcDbLine
 10
1.781167573158668
 20
9.400301163447936
 30
0.0
 11
1.783136077095676
 21
9.404238171321955
 31
0.0
  0
LINE
  5
332A
330
1E
100
AcDbEntity
  8
3
100
AcDbLine
 10
0.2083329274893764
 20
8.553844470534551
 30
0.0
 11
0.2083329274893764
 21
8.534159431164473
 31
0.0
  0
LINE
  5
332B
330
1E
100
AcDbEntity
  8
3
100
AcDbLine
 10
0.2043959196153615
 20
8.051875966597544
 30
0.0
 11
0.2083329274893764
 21
8.055812974471558
 31
0.0
  0
LINE
  5
332C
330
1E
100
AcDbEntity
  8
3
100
AcDbLine
 10
1.781167573158668
 20
8.553844470534551
 30
0.0
 11
1.781167573158668
 21
8.534159431164473
 31
0.0
  0
LINE
  5
332D
330
1E
100
AcDbEntity
  8
3
100
AcDbLine
 10
1.783136077095676
 20
8.051875966597544
 30
0.0
 11
1.781167573158668
 21
8.055812974471558
 31
0.0
  0
LINE
  5
332E
330
1E
100
AcDbEntity
  8
3
100
AcDbLine
 10
0.2083329274893764
 20
8.811718486282584
 30
0.0
 11
0.2083329274893764
 21
8.65817517919597
 31
0.0
  0
LINE
  5
3342
330
1E
100
AcDbEntity
  8
3
100
AcDbLine
 10
1.781167573158668
 20
8.65817517919597
 30
0.0
 11
1.781167573158668
 21
8.811718486282584
 31
0.0
  0
LINE
  5
3348
330
1E
100
AcDbEntity
  8
3
100
AcDbLine
 10
1.720143951111424
 20
8.057781478408569
 30
0.0
 11
0.2693565495366208
 21
8.057781478408569
 31
0.0
  0
LINE
  5
3349
330
1E
100
AcDbEntity
  8
3
100
AcDbLine
 10
1.792978596780715
 20
8.809749982345577
 30
0.0
 11
1.7890415889067
 21
8.801875966597544
 31
0.0
  0
LINE
  5
334A
330
1E
100
AcDbEntity
  8
3
100
AcDbLine
 10
1.832348675520872
 20
8.801875966597544
 30
0.0
 11
1.840222691268904
 21
8.809749982345577
 31
0.0
  0
LINE
  5
334B
330
1E
100
AcDbEntity
  8
3
100
AcDbLine
 10
1.840222691268904
 20
8.648332659510929
 30
0.0
 11
1.832348675520872
 21
8.654238171321955
 31
0.0
  0
LINE
  5
334C
330
1E
100
AcDbEntity
  8
3
100
AcDbLine
 10
1.7890415889067
 20
8.654238171321955
 30
0.0
 11
1.7890415889067
 21
8.652269667384947
 31
0.0
  0
LINE
  5
334D
330
1E
100
AcDbEntity
  8
3
100
AcDbLine
 10
1.848096707016935
 20
8.801875966597544
 30
0.0
 11
1.840222691268904
 21
8.794001950849514
 31
0.0
  0
LINE
  5
334E
330
1E
100
AcDbEntity
  8
3
100
AcDbLine
 10
1.840222691268904
 20
8.662112187069984
 30
0.0
 11
1.848096707016935
 21
8.656206675258962
 31
0.0
  0
LINE
  5
334F
330
1E
100
AcDbEntity
  8
3
100
AcDbLine
 10
0.1984904078043375
 20
8.652269667384947
 30
0.0
 11
0.2004589117413449
 21
8.654238171321955
 31
0.0
  0
LINE
  5
3350
330
1E
100
AcDbEntity
  8
3
100
AcDbLine
 10
0.1571518251271726
 20
8.654238171321955
 30
0.0
 11
0.1492778093791411
 21
8.648332659510929
 31
0.0
  0
LINE
  5
3351
330
1E
100
AcDbEntity
  8
3
100
AcDbLine
 10
0.2004589117413449
 20
8.801875966597544
 30
0.0
 11
0.19652190386733
 21
8.809749982345577
 31
0.0
  0
LINE
  5
3352
330
1E
100
AcDbEntity
  8
3
100
AcDbLine
 10
0.1492778093791411
 20
8.809749982345577
 30
0.0
 11
0.1571518251271726
 21
8.801875966597544
 31
0.0
  0
LINE
  5
3353
330
1E
100
AcDbEntity
  8
3
100
AcDbLine
 10
0.1473093054421337
 20
8.794001950849514
 30
0.0
 11
0.1414037936311097
 21
8.801875966597544
 31
0.0
  0
LINE
  5
3354
330
1E
100
AcDbEntity
  8
3
100
AcDbLine
 10
0.1414037936311097
 20
8.656206675258962
 30
0.0
 11
0.1473093054421337
 21
8.662112187069984
 31
0.0
  0
LINE
  5
3355
330
1E
100
AcDbEntity
  8
3
100
AcDbLine
 10
1.781167573158668
 20
8.921954706755025
 30
0.0
 11
1.775262061347644
 21
8.914080691006992
 31
0.0
  0
LINE
  5
3356
330
1E
100
AcDbEntity
  8
3
100
AcDbLine
 10
1.781167573158668
 20
8.534159431164473
 30
0.0
 11
1.775262061347644
 21
8.544001950849514
 31
0.0
  0
LINE
  5
3357
330
1E
100
AcDbEntity
  8
3
100
AcDbLine
 10
0.2083329274893764
 20
8.534159431164473
 30
0.0
 11
0.212269935363393
 21
8.544001950849514
 31
0.0
  0
LINE
  5
3358
330
1E
100
AcDbEntity
  8
3
100
AcDbLine
 10
0.2083329274893764
 20
8.921954706755025
 30
0.0
 11
0.212269935363393
 21
8.914080691006992
 31
0.0
  0
LINE
  5
3359
330
1E
100
AcDbEntity
  8
3
100
AcDbLine
 10
1.153214817253155
 20
7.955419273684158
 30
0.0
 11
1.802821116465754
 21
7.955419273684158
 31
0.0
  0
LINE
  5
335A
330
1E
100
AcDbEntity
  8
3
100
AcDbLine
 10
1.802821116465754
 20
10.80384447053455
 30
0.0
 11
1.153214817253155
 21
10.80384447053455
 31
0.0
  0
LINE
  5
335B
330
1E
100
AcDbEntity
  8
3
100
AcDbLine
 10
0.0961282030799282
 20
10.71132478549518
 30
0.0
 11
0.0961282030799282
 21
8.045970454786521
 31
0.0
  0
LINE
  5
335C
330
1E
100
AcDbEntity
  8
3
100
AcDbLine
 10
1.893372297568117
 20
8.045970454786521
 30
0.0
 11
1.893372297568117
 21
10.71132478549518
 31
0.0
  0
LINE
  5
335D
330
1E
100
AcDbEntity
  8
3
100
AcDbLine
 10
1.720143951111424
 20
9.400301163447936
 30
0.0
 11
0.2693565495366208
 21
9.400301163447936
 31
0.0
  0
LINE
  5
335E
330
1E
100
AcDbEntity
  8
3
100
AcDbLine
 10
0.2831360770956763
 20
10.68573423431408
 30
0.0
 11
0.2732935574106374
 21
10.67589171462903
 31
0.0
  0
LINE
  5
335F
330
1E
100
AcDbEntity
  8
3
100
AcDbLine
 10
0.2732935574106374
 20
10.33730903746368
 30
0.0
 11
0.2831360770956763
 21
10.32549801384164
 31
0.0
  0
LINE
  5
3360
330
1E
100
AcDbEntity
  8
3
100
AcDbLine
 10
1.7142384393004
 20
10.67589171462903
 30
0.0
 11
1.704395919615361
 21
10.68573423431408
 31
0.0
  0
LINE
  5
3361
330
1E
100
AcDbEntity
  8
3
100
AcDbLine
 10
1.704395919615361
 20
10.32549801384164
 30
0.0
 11
1.7142384393004
 21
10.33730903746368
 31
0.0
  0
LINE
  5
3362
330
1E
100
AcDbEntity
  8
3
100
AcDbLine
 10
0.8421911952059115
 20
10.79597045478652
 30
0.0
 11
0.8421911952059115
 21
10.79990746266053
 31
0.0
  0
LINE
  5
3363
330
1E
100
AcDbEntity
  8
3
100
AcDbLine
 10
1.147309305442133
 20
10.78022242329045
 30
0.0
 11
0.8421911952059115
 21
10.78022242329045
 31
0.0
  0
LINE
  5
3364
330
1E
100
AcDbEntity
  8
3
100
AcDbLine
 10
1.147309305442133
 20
10.79990746266053
 30
0.0
 11
1.147309305442133
 21
10.79597045478652
 31
0.0
  0
LINE
  5
3365
330
1E
100
AcDbEntity
  8
3
100
AcDbLine
 10
0.8421911952059115
 20
7.979041320928255
 30
0.0
 11
1.147309305442133
 21
7.979041320928255
 31
0.0
  0
LINE
  5
3373
330
1E
100
AcDbEntity
  8
3
100
AcDbLine
 10
0.1512463133161486
 20
7.961324785495181
 30
0.0
 11
0.1866793841822911
 21
7.955419273684158
 31
0.0
  0
LINE
  5
3374
330
1E
100
AcDbEntity
  8
3
100
AcDbLine
 10
0.83431717945788
 20
7.955419273684158
 30
0.0
 11
0.1866793841822911
 21
7.955419273684158
 31
0.0
  0
LINE
  5
3375
330
1E
100
AcDbEntity
  8
3
100
AcDbLine
 10
0.0961282030799282
 20
8.047938958723529
 30
0.0
 11
0.0961282030799282
 21
8.045970454786521
 31
0.0
  0
LINE
  5
3376
330
1E
100
AcDbEntity
  8
3
100
AcDbLine
 10
0.0961282030799282
 20
8.047938958723529
 30
0.0
 11
0.0961282030799282
 21
10.71132478549518
 31
0.0
  0
LINE
  5
337E
330
1E
100
AcDbEntity
  8
3
100
AcDbLine
 10
0.1866793841822911
 20
10.80187596659754
 30
0.0
 11
0.1866793841822911
 21
10.80384447053455
 31
0.0
  0
LINE
  5
337F
330
1E
100
AcDbEntity
  8
3
100
AcDbLine
 10
0.1866793841822911
 20
10.80187596659754
 30
0.0
 11
0.83431717945788
 21
10.80187596659754
 31
0.0
  0
LINE
  5
3387
330
1E
100
AcDbEntity
  8
3
100
AcDbLine
 10
1.800852612528746
 20
7.955419273684158
 30
0.0
 11
1.802821116465754
 21
7.955419273684158
 31
0.0
  0
LINE
  5
3388
330
1E
100
AcDbEntity
  8
3
100
AcDbLine
 10
1.800852612528746
 20
7.955419273684158
 30
0.0
 11
1.155183321190165
 21
7.955419273684158
 31
0.0
  0
LINE
  5
3389
330
1E
100
AcDbEntity
  8
3
100
AcDbLine
 10
1.155183321190165
 20
10.80187596659754
 30
0.0
 11
1.800852612528746
 21
10.80187596659754
 31
0.0
  0
LINE
  5
338A
330
1E
100
AcDbEntity
  8
3
100
AcDbLine
 10
1.802821116465754
 20
10.80384447053455
 30
0.0
 11
1.800852612528746
 21
10.80187596659754
 31
0.0
  0
LINE
  5
3398
330
1E
100
AcDbEntity
  8
3
100
AcDbLine
 10
1.836285683394889
 20
10.79597045478652
 30
0.0
 11
1.802821116465754
 21
10.80384447053455
 31
0.0
  0
LINE
  5
3399
330
1E
100
AcDbEntity
  8
3
100
AcDbLine
 10
1.893372297568117
 20
10.71132478549518
 30
0.0
 11
1.893372297568117
 21
8.047938958723529
 31
0.0
  0
LINE
  5
33E3
330
1E
100
AcDbEntity
  8
3
100
AcDbLine
 10
1.625655762135046
 20
8.221167305180221
 30
0.0
 11
1.625655762135046
 21
8.217230297306207
 31
0.0
  0
LINE
  5
33E4
330
1E
100
AcDbEntity
  8
3
100
AcDbLine
 10
1.668962848749218
 20
8.217230297306207
 30
0.0
 11
1.625655762135046
 21
8.217230297306207
 31
0.0
  0
LINE
  5
33E5
330
1E
100
AcDbEntity
  8
3
100
AcDbLine
 10
1.668962848749218
 20
8.227072816991244
 30
0.0
 11
1.668962848749218
 21
8.217230297306207
 31
0.0
  0
LINE
  5
33E6
330
1E
100
AcDbEntity
  8
3
100
AcDbLine
 10
1.668962848749218
 20
8.199513761873136
 30
0.0
 11
1.668962848749218
 21
8.217230297306207
 31
0.0
  0
LINE
  5
33F1
330
1E
100
AcDbEntity
  8
3
100
AcDbLine
 10
1.607939226701974
 20
8.223135809117229
 30
0.0
 11
1.131561273946068
 21
8.223135809117229
 31
0.0
  0
LINE
  5
33F2
330
1E
100
AcDbEntity
  8
3
100
AcDbLine
 10
1.767388045599613
 20
8.664080691006992
 30
0.0
 11
1.767388045599613
 21
8.691639746125103
 31
0.0
  0
LINE
  5
3404
330
1E
100
AcDbEntity
  8
3
100
AcDbLine
 10
1.775262061347644
 20
8.439671242188095
 30
0.0
 11
1.775262061347644
 21
8.549907462660536
 31
0.0
  0
LINE
  5
3405
330
1E
100
AcDbEntity
  8
3
100
AcDbLine
 10
1.775262061347644
 20
8.660143683132977
 30
0.0
 11
1.775262061347644
 21
8.766442895731403
 31
0.0
  0
LINE
  5
340B
330
1E
100
AcDbEntity
  8
3
100
AcDbLine
 10
1.767388045599613
 20
8.691639746125103
 30
0.0
 11
1.767388045599613
 21
8.740852344550299
 31
0.0
  0
LINE
  5
340C
330
1E
100
AcDbEntity
  8
3
100
AcDbLine
 10
1.775262061347644
 20
8.766442895731403
 30
0.0
 11
1.775262061347644
 21
9.396364155573921
 31
0.0
  0
LINE
  5
340D
330
1E
100
AcDbEntity
  8
3
100
AcDbLine
 10
1.775262061347644
 20
8.266442895731403
 30
0.0
 11
1.775262061347644
 21
8.439671242188095
 31
0.0
  0
LINE
  5
3413
330
1E
100
AcDbEntity
  8
3
100
AcDbLine
 10
1.775262061347644
 20
8.061718486282584
 30
0.0
 11
1.775262061347644
 21
8.207387777621166
 31
0.0
  0
LINE
  5
3426
330
1E
100
AcDbEntity
  8
3
100
AcDbLine
 10
1.682742376308274
 20
8.528253919353451
 30
0.0
 11
1.680773872371267
 21
8.528253919353451
 31
0.0
  0
LINE
  5
3427
330
1E
100
AcDbEntity
  8
3
100
AcDbLine
 10
1.678805368434259
 20
8.32549801384164
 30
0.0
 11
1.682742376308274
 21
8.32549801384164
 31
0.0
  0
LINE
  5
3428
330
1E
100
AcDbEntity
  8
3
100
AcDbLine
 10
1.680773872371267
 20
8.266442895731403
 30
0.0
 11
1.678805368434259
 21
8.32549801384164
 31
0.0
  0
LINE
  5
3429
330
1E
100
AcDbEntity
  8
3
100
AcDbLine
 10
1.759514029851581
 20
8.266442895731403
 30
0.0
 11
1.680773872371267
 21
8.266442895731403
 31
0.0
  0
LINE
  5
342A
330
1E
100
AcDbEntity
  8
3
100
AcDbLine
 10
1.759514029851581
 20
8.382584628014866
 30
0.0
 11
1.759514029851581
 21
8.266442895731403
 31
0.0
  0
LINE
  5
342B
330
1E
100
AcDbEntity
  8
3
100
AcDbLine
 10
1.678805368434259
 20
8.32549801384164
 30
0.0
 11
1.678805368434259
 21
8.512505887857388
 31
0.0
  0
LINE
  5
3431
330
1E
100
AcDbEntity
  8
3
100
AcDbLine
 10
1.759514029851581
 20
8.197545257936129
 30
0.0
 11
1.682742376308274
 21
8.197545257936129
 31
0.0
  0
LINE
  5
343C
330
1E
100
AcDbEntity
  8
3
100
AcDbLine
 10
1.775262061347644
 20
8.207387777621166
 30
0.0
 11
1.771325053473628
 21
8.199513761873136
 31
0.0
  0
LINE
  5
343D
330
1E
100
AcDbEntity
  8
3
100
AcDbLine
 10
1.771325053473628
 20
8.199513761873136
 30
0.0
 11
1.759514029851581
 21
8.197545257936129
 31
0.0
  0
LINE
  5
344A
330
1E
100
AcDbEntity
  8
3
100
AcDbLine
 10
1.668962848749218
 20
8.329435021715655
 30
0.0
 11
1.678805368434259
 21
8.32549801384164
 31
0.0
  0
LINE
  5
344B
330
1E
100
AcDbEntity
  8
3
100
AcDbLine
 10
1.668962848749218
 20
8.329435021715655
 30
0.0
 11
1.670931352686228
 21
8.266442895731403
 31
0.0
  0
LINE
  5
344C
330
1E
100
AcDbEntity
  8
3
100
AcDbLine
 10
1.668962848749218
 20
8.520379903605418
 30
0.0
 11
1.668962848749218
 21
8.329435021715655
 31
0.0
  0
LINE
  5
3455
330
1E
100
AcDbEntity
  8
3
100
AcDbLine
 10
1.668962848749218
 20
8.199513761873136
 30
0.0
 11
1.670931352686228
 21
8.199513761873136
 31
0.0
  0
LINE
  5
3456
330
1E
100
AcDbEntity
  8
3
100
AcDbLine
 10
1.625655762135046
 20
8.221167305180221
 30
0.0
 11
1.625655762135046
 21
8.209356281558173
 31
0.0
  0
LINE
  5
3457
330
1E
100
AcDbEntity
  8
3
100
AcDbLine
 10
1.625655762135046
 20
8.217230297306207
 30
0.0
 11
1.625655762135046
 21
8.209356281558173
 31
0.0
  0
LINE
  5
3458
330
1E
100
AcDbEntity
  8
3
100
AcDbLine
 10
1.666994344812211
 20
8.33337202958967
 30
0.0
 11
1.668962848749218
 21
8.313686990219592
 31
0.0
  0
LINE
  5
3459
330
1E
100
AcDbEntity
  8
3
100
AcDbLine
 10
1.666994344812211
 20
8.329435021715655
 30
0.0
 11
1.657151825127172
 21
8.329435021715655
 31
0.0
  0
LINE
  5
345A
330
1E
100
AcDbEntity
  8
3
100
AcDbLine
 10
1.680773872371267
 20
8.528253919353451
 30
0.0
 11
1.680773872371267
 21
8.542033446912506
 31
0.0
  0
LINE
  5
345B
330
1E
100
AcDbEntity
  8
3
100
AcDbLine
 10
1.668962848749218
 20
8.538096439038488
 30
0.0
 11
1.668962848749218
 21
8.520379903605418
 31
0.0
  0
LINE
  5
3461
330
1E
100
AcDbEntity
  8
3
100
AcDbLine
 10
1.759514029851581
 20
8.197545257936129
 30
0.0
 11
1.759514029851581
 21
8.061718486282584
 31
0.0
  0
LINE
  5
3467
330
1E
100
AcDbEntity
  8
3
100
AcDbLine
 10
1.682742376308274
 20
8.061718486282584
 30
0.0
 11
1.682742376308274
 21
8.197545257936129
 31
0.0
  0
LINE
  5
3468
330
1E
100
AcDbEntity
  8
3
100
AcDbLine
 10
1.759514029851581
 20
8.061718486282584
 30
0.0
 11
1.682742376308274
 21
8.061718486282584
 31
0.0
  0
LINE
  5
346E
330
1E
100
AcDbEntity
  8
3
100
AcDbLine
 10
1.666994344812211
 20
8.33337202958967
 30
0.0
 11
1.666994344812211
 21
8.538096439038488
 31
0.0
  0
LINE
  5
346F
330
1E
100
AcDbEntity
  8
3
100
AcDbLine
 10
1.668962848749218
 20
8.187702738251088
 30
0.0
 11
1.668962848749218
 21
8.199513761873136
 31
0.0
  0
LINE
  5
347B
330
1E
100
AcDbEntity
  8
3
100
AcDbLine
 10
1.672899856623235
 20
8.061718486282584
 30
0.0
 11
1.670931352686228
 21
8.061718486282584
 31
0.0
  0
LINE
  5
347C
330
1E
100
AcDbEntity
  8
3
100
AcDbLine
 10
1.625655762135046
 20
8.209356281558173
 30
0.0
 11
1.082348675520872
 21
8.209356281558173
 31
0.0
  0
LINE
  5
347D
330
1E
100
AcDbEntity
  8
3
100
AcDbLine
 10
1.082348675520872
 20
8.213293289432192
 30
0.0
 11
1.082348675520872
 21
8.209356281558173
 31
0.0
  0
LINE
  5
3483
330
1E
100
AcDbEntity
  8
3
100
AcDbLine
 10
0.3638447385129986
 20
8.209356281558173
 30
0.0
 11
0.9071518251271726
 21
8.209356281558173
 31
0.0
  0
LINE
  5
3484
330
1E
100
AcDbEntity
  8
3
100
AcDbLine
 10
0.3638447385129986
 20
8.217230297306207
 30
0.0
 11
0.3638447385129986
 21
8.209356281558173
 31
0.0
  0
LINE
  5
3485
330
1E
100
AcDbEntity
  8
3
100
AcDbLine
 10
0.3205376518988263
 20
8.217230297306207
 30
0.0
 11
0.3638447385129986
 21
8.217230297306207
 31
0.0
  0
LINE
  5
3486
330
1E
100
AcDbEntity
  8
3
100
AcDbLine
 10
0.3205376518988263
 20
8.199513761873136
 30
0.0
 11
0.3205376518988263
 21
8.217230297306207
 31
0.0
  0
LINE
  5
3487
330
1E
100
AcDbEntity
  8
3
100
AcDbLine
 10
0.3205376518988263
 20
8.187702738251088
 30
0.0
 11
0.3205376518988263
 21
8.199513761873136
 31
0.0
  0
LINE
  5
3488
330
1E
100
AcDbEntity
  8
3
100
AcDbLine
 10
0.3205376518988263
 20
8.187702738251088
 30
0.0
 11
1.668962848749218
 21
8.187702738251088
 31
0.0
  0
LINE
  5
3489
330
1E
100
AcDbEntity
  8
3
100
AcDbLine
 10
1.422899856623235
 20
8.110931084707781
 30
0.0
 11
1.670931352686228
 21
8.110931084707781
 31
0.0
  0
LINE
  5
348F
330
1E
100
AcDbEntity
  8
3
100
AcDbLine
 10
1.200458911741344
 20
8.069592502030614
 30
0.0
 11
1.424868360560243
 21
8.069592502030614
 31
0.0
  0
LINE
  5
3495
330
1E
100
AcDbEntity
  8
3
100
AcDbLine
 10
0.7870730849696912
 20
8.110931084707781
 30
0.0
 11
1.200458911741344
 21
8.110931084707781
 31
0.0
  0
LINE
  5
34A1
330
1E
100
AcDbEntity
  8
3
100
AcDbLine
 10
0.5666006440248097
 20
8.110931084707781
 30
0.0
 11
0.3166006440248097
 21
8.110931084707781
 31
0.0
  0
LINE
  5
34A2
330
1E
100
AcDbEntity
  8
3
100
AcDbLine
 10
0.3166006440248097
 20
8.061718486282584
 30
0.0
 11
0.3166006440248097
 21
8.067623998093607
 31
0.0
  0
LINE
  5
34A8
330
1E
100
AcDbEntity
  8
3
100
AcDbLine
 10
0.3166006440248097
 20
8.061718486282584
 30
0.0
 11
1.670931352686228
 21
8.061718486282584
 31
0.0
  0
LINE
  5
34A9
330
1E
100
AcDbEntity
  8
3
100
AcDbLine
 10
1.418962848749218
 20
8.132584628014866
 30
0.0
 11
1.416994344812211
 21
8.148332659510929
 31
0.0
  0
LINE
  5
34B0
330
1E
100
AcDbEntity
  8
3
100
AcDbLine
 10
0.4327423763082745
 20
8.65817517919597
 30
0.0
 11
0.4327423763082745
 21
8.654238171321955
 31
0.0
  0
LINE
  5
34B6
330
1E
100
AcDbEntity
  8
3
100
AcDbLine
 10
1.682742376308274
 20
8.654238171321955
 30
0.0
 11
1.55675812433977
 21
8.654238171321955
 31
0.0
  0
LINE
  5
34B7
330
1E
100
AcDbEntity
  8
3
100
AcDbLine
 10
1.682742376308274
 20
8.701482265810144
 30
0.0
 11
1.682742376308274
 21
8.654238171321955
 31
0.0
  0
LINE
  5
34CF
330
1E
100
AcDbEntity
  8
3
100
AcDbLine
 10
1.682742376308274
 20
9.396364155573921
 30
0.0
 11
1.682742376308274
 21
8.831403525652662
 31
0.0
  0
LINE
  5
34D5
330
1E
100
AcDbEntity
  8
3
100
AcDbLine
 10
1.767388045599613
 20
8.689671242188095
 30
0.0
 11
1.767388045599613
 21
8.691639746125103
 31
0.0
  0
LINE
  5
34E0
330
1E
100
AcDbEntity
  8
3
100
AcDbLine
 10
0.3067581243397708
 20
8.831403525652662
 30
0.0
 11
1.682742376308274
 21
8.831403525652662
 31
0.0
  0
LINE
  5
34E7
330
1E
100
AcDbEntity
  8
3
100
AcDbLine
 10
0.3067581243397708
 20
9.396364155573921
 30
0.0
 11
0.3067581243397708
 21
8.831403525652662
 31
0.0
  0
LINE
  5
34F8
330
1E
100
AcDbEntity
  8
3
100
AcDbLine
 10
0.2221124550484319
 20
8.691639746125103
 30
0.0
 11
0.2221124550484319
 21
8.740852344550299
 31
0.0
  0
LINE
  5
34FF
330
1E
100
AcDbEntity
  8
3
100
AcDbLine
 10
0.212269935363393
 20
8.766442895731403
 30
0.0
 11
0.212269935363393
 21
9.396364155573921
 31
0.0
  0
LINE
  5
3500
330
1E
100
AcDbEntity
  8
3
100
AcDbLine
 10
0.2221124550484319
 20
8.689671242188095
 30
0.0
 11
0.2221124550484319
 21
8.691639746125103
 31
0.0
  0
LINE
  5
350C
330
1E
100
AcDbEntity
  8
3
100
AcDbLine
 10
0.212269935363393
 20
8.660143683132977
 30
0.0
 11
0.212269935363393
 21
8.766442895731403
 31
0.0
  0
LINE
  5
350D
330
1E
100
AcDbEntity
  8
3
100
AcDbLine
 10
0.3638447385129986
 20
8.221167305180221
 30
0.0
 11
0.3638447385129986
 21
8.217230297306207
 31
0.0
  0
LINE
  5
350E
330
1E
100
AcDbEntity
  8
3
100
AcDbLine
 10
0.3205376518988263
 20
8.227072816991244
 30
0.0
 11
0.3205376518988263
 21
8.217230297306207
 31
0.0
  0
LINE
  5
3514
330
1E
100
AcDbEntity
  8
3
100
AcDbLine
 10
0.3225061558358337
 20
8.329435021715655
 30
0.0
 11
0.3225061558358337
 21
8.327466517778647
 31
0.0
  0
LINE
  5
3515
330
1E
100
AcDbEntity
  8
3
100
AcDbLine
 10
0.3225061558358337
 20
8.33337202958967
 30
0.0
 11
0.3225061558358337
 21
8.329435021715655
 31
0.0
  0
LINE
  5
3516
330
1E
100
AcDbEntity
  8
3
100
AcDbLine
 10
0.381561273946069
 20
8.223135809117229
 30
0.0
 11
0.8579392267019745
 21
8.223135809117229
 31
0.0
  0
LINE
  5
3517
330
1E
100
AcDbEntity
  8
3
100
AcDbLine
 10
0.3638447385129986
 20
8.221167305180221
 30
0.0
 11
0.3638447385129986
 21
8.209356281558173
 31
0.0
  0
LINE
  5
3518
330
1E
100
AcDbEntity
  8
3
100
AcDbLine
 10
0.2221124550484319
 20
8.664080691006992
 30
0.0
 11
0.2221124550484319
 21
8.691639746125103
 31
0.0
  0
LINE
  5
3524
330
1E
100
AcDbEntity
  8
3
100
AcDbLine
 10
0.3067581243397708
 20
8.514474391794395
 30
0.0
 11
0.3067581243397708
 21
8.32549801384164
 31
0.0
  0
LINE
  5
352A
330
1E
100
AcDbEntity
  8
3
100
AcDbLine
 10
0.9996715101665429
 20
8.616836596518803
 30
0.0
 11
0.9898289904815023
 21
8.616836596518803
 31
0.0
  0
LINE
  5
352B
330
1E
100
AcDbEntity
  8
3
100
AcDbLine
 10
0.3225061558358337
 20
8.33337202958967
 30
0.0
 11
0.3225061558358337
 21
8.538096439038488
 31
0.0
  0
LINE
  5
352C
330
1E
100
AcDbEntity
  8
3
100
AcDbLine
 10
0.3225061558358337
 20
8.329435021715655
 30
0.0
 11
0.3323486755208727
 21
8.329435021715655
 31
0.0
  0
LINE
  5
3532
330
1E
100
AcDbEntity
  8
3
100
AcDbLine
 10
0.3067581243397708
 20
8.528253919353451
 30
0.0
 11
0.3205376518988263
 21
8.520379903605418
 31
0.0
  0
LINE
  5
3538
330
1E
100
AcDbEntity
  8
3
100
AcDbLine
 10
0.3087266282767782
 20
8.512505887857388
 30
0.0
 11
0.3067581243397708
 21
8.514474391794395
 31
0.0
  0
LINE
  5
3539
330
1E
100
AcDbEntity
  8
3
100
AcDbLine
 10
0.3067581243397708
 20
8.514474391794395
 30
0.0
 11
0.3067581243397708
 21
8.522348407542425
 31
0.0
  0
LINE
  5
353A
330
1E
100
AcDbEntity
  8
3
100
AcDbLine
 10
0.3067581243397708
 20
8.522348407542425
 30
0.0
 11
0.3067581243397708
 21
8.528253919353451
 31
0.0
  0
LINE
  5
3542
330
1E
100
AcDbEntity
  8
3
100
AcDbLine
 10
0.3087266282767782
 20
8.32549801384164
 30
0.0
 11
0.3087266282767782
 21
8.512505887857388
 31
0.0
  0
LINE
  5
355F
330
1E
100
AcDbEntity
  8
3
100
AcDbLine
 10
0.3166006440248097
 20
8.266442895731403
 30
0.0
 11
0.3166006440248097
 21
8.232978328802269
 31
0.0
  0
LINE
  5
3560
330
1E
100
AcDbEntity
  8
3
100
AcDbLine
 10
0.3166006440248097
 20
8.232978328802269
 30
0.0
 11
0.3166006440248097
 21
8.203450769747151
 31
0.0
  0
LINE
  5
3561
330
1E
100
AcDbEntity
  8
3
100
AcDbLine
 10
0.3205376518988263
 20
8.329435021715655
 30
0.0
 11
0.3166006440248097
 21
8.266442895731403
 31
0.0
  0
LINE
  5
3562
330
1E
100
AcDbEntity
  8
3
100
AcDbLine
 10
0.3205376518988263
 20
8.329435021715655
 30
0.0
 11
0.3087266282767782
 21
8.32549801384164
 31
0.0
  0
LINE
  5
3563
330
1E
100
AcDbEntity
  8
3
100
AcDbLine
 10
0.3205376518988263
 20
8.520379903605418
 30
0.0
 11
0.3205376518988263
 21
8.329435021715655
 31
0.0
  0
LINE
  5
356C
330
1E
100
AcDbEntity
  8
3
100
AcDbLine
 10
0.3205376518988263
 20
8.199513761873136
 30
0.0
 11
0.3185691479618171
 21
8.199513761873136
 31
0.0
  0
LINE
  5
356D
330
1E
100
AcDbEntity
  8
3
100
AcDbLine
 10
0.3225061558358337
 20
8.33337202958967
 30
0.0
 11
0.3205376518988263
 21
8.313686990219592
 31
0.0
  0
LINE
  5
356E
330
1E
100
AcDbEntity
  8
3
100
AcDbLine
 10
0.3067581243397708
 20
8.528253919353451
 30
0.0
 11
0.3087266282767782
 21
8.542033446912506
 31
0.0
  0
LINE
  5
356F
330
1E
100
AcDbEntity
  8
3
100
AcDbLine
 10
0.3205376518988263
 20
8.538096439038488
 30
0.0
 11
0.3205376518988263
 21
8.520379903605418
 31
0.0
  0
LINE
  5
3575
330
1E
100
AcDbEntity
  8
3
100
AcDbLine
 10
0.228017966859456
 20
8.197545257936129
 30
0.0
 11
0.228017966859456
 21
8.061718486282584
 31
0.0
  0
LINE
  5
3585
330
1E
100
AcDbEntity
  8
3
100
AcDbLine
 10
0.3185691479618171
 20
8.156206675258962
 30
0.0
 11
0.3166006440248097
 21
8.110931084707781
 31
0.0
  0
LINE
  5
3586
330
1E
100
AcDbEntity
  8
3
100
AcDbLine
 10
0.3205376518988263
 20
8.187702738251088
 30
0.0
 11
0.3185691479618171
 21
8.156206675258962
 31
0.0
  0
LINE
  5
3587
330
1E
100
AcDbEntity
  8
3
100
AcDbLine
 10
0.5725061558358338
 20
8.148332659510929
 30
0.0
 11
0.5705376518988264
 21
8.130616124077858
 31
0.0
  0
LINE
  5
358D
330
1E
100
AcDbEntity
  8
3
100
AcDbLine
 10
0.7870730849696912
 20
8.110931084707781
 30
0.0
 11
0.7851045810326838
 21
8.148332659510929
 31
0.0
  0
LINE
  5
358E
330
1E
100
AcDbEntity
  8
3
100
AcDbLine
 10
1.200458911741344
 20
8.110931084707781
 30
0.0
 11
1.202427415678354
 21
8.148332659510929
 31
0.0
  0
LINE
  5
358F
330
1E
100
AcDbEntity
  8
3
100
AcDbLine
 10
1.420931352686228
 20
8.148332659510929
 30
0.0
 11
1.202427415678354
 21
8.148332659510929
 31
0.0
  0
LINE
  5
3590
330
1E
100
AcDbEntity
  8
3
100
AcDbLine
 10
1.422899856623235
 20
8.110931084707781
 30
0.0
 11
1.420931352686228
 21
8.148332659510929
 31
0.0
  0
LINE
  5
3591
330
1E
100
AcDbEntity
  8
3
100
AcDbLine
 10
1.668962848749218
 20
8.156206675258962
 30
0.0
 11
0.3185691479618171
 21
8.156206675258962
 31
0.0
  0
LINE
  5
3592
330
1E
100
AcDbEntity
  8
3
100
AcDbLine
 10
0.5705376518988264
 20
8.132584628014866
 30
0.0
 11
0.5705376518988264
 21
8.130616124077858
 31
0.0
  0
LINE
  5
3598
330
1E
100
AcDbEntity
  8
3
100
AcDbLine
 10
0.9996715101665429
 20
8.33337202958967
 30
0.0
 11
0.9898289904815023
 21
8.33337202958967
 31
0.0
  0
LINE
  5
359E
330
1E
100
AcDbEntity
  8
3
100
AcDbLine
 10
0.9071518251271726
 20
8.225104313054236
 30
0.0
 11
0.9071518251271726
 21
8.221167305180221
 31
0.0
  0
LINE
  5
35A4
330
1E
100
AcDbEntity
  8
3
100
AcDbLine
 10
1.00164001410355
 20
8.297938958723529
 30
0.0
 11
0.9878604865444948
 21
8.297938958723529
 31
0.0
  0
LINE
  5
35AF
330
1E
100
AcDbEntity
  8
3
100
AcDbLine
 10
1.208332927489376
 20
8.148332659510929
 30
0.0
 11
1.206364423552368
 21
8.130616124077858
 31
0.0
  0
LINE
  5
35B0
330
1E
100
AcDbEntity
  8
3
100
AcDbLine
 10
0.781167573158669
 20
8.148332659510929
 30
0.0
 11
0.7831360770956764
 21
8.130616124077858
 31
0.0
  0
LINE
  5
35B1
330
1E
100
AcDbEntity
  8
3
100
AcDbLine
 10
1.206364423552368
 20
8.132584628014866
 30
0.0
 11
1.206364423552368
 21
8.130616124077858
 31
0.0
  0
LINE
  5
35B2
330
1E
100
AcDbEntity
  8
3
100
AcDbLine
 10
0.7831360770956764
 20
8.132584628014866
 30
0.0
 11
0.7831360770956764
 21
8.130616124077858
 31
0.0
  0
LINE
  5
35B3
330
1E
100
AcDbEntity
  8
3
100
AcDbLine
 10
0.5705376518988264
 20
8.132584628014866
 30
0.0
 11
0.5725061558358338
 21
8.148332659510929
 31
0.0
  0
LINE
  5
35B4
330
1E
100
AcDbEntity
  8
3
100
AcDbLine
 10
0.7831360770956764
 20
8.132584628014866
 30
0.0
 11
0.7831360770956764
 21
8.148332659510929
 31
0.0
  0
LINE
  5
35B5
330
1E
100
AcDbEntity
  8
3
100
AcDbLine
 10
1.206364423552368
 20
8.132584628014866
 30
0.0
 11
1.206364423552368
 21
8.148332659510929
 31
0.0
  0
LINE
  5
35C0
330
1E
100
AcDbEntity
  8
3
100
AcDbLine
 10
0.5744746597728412
 20
8.148332659510929
 30
0.0
 11
0.5646321400878023
 21
8.069592502030614
 31
0.0
  0
LINE
  5
35C1
330
1E
100
AcDbEntity
  8
3
100
AcDbLine
 10
0.7791990692216598
 20
8.148332659510929
 30
0.0
 11
0.7890415889067004
 21
8.069592502030614
 31
0.0
  0
LINE
  5
35C2
330
1E
100
AcDbEntity
  8
3
100
AcDbLine
 10
1.210301431426385
 20
8.148332659510929
 30
0.0
 11
1.200458911741344
 21
8.069592502030614
 31
0.0
  0
LINE
  5
35C3
330
1E
100
AcDbEntity
  8
3
100
AcDbLine
 10
1.415025840875204
 20
8.148332659510929
 30
0.0
 11
1.424868360560243
 21
8.069592502030614
 31
0.0
  0
LINE
  5
35C4
330
1E
100
AcDbEntity
  8
3
100
AcDbLine
 10
1.415025840875204
 20
8.148332659510929
 30
0.0
 11
1.416994344812211
 21
8.130616124077858
 31
0.0
  0
LINE
  5
35C5
330
1E
100
AcDbEntity
  8
3
100
AcDbLine
 10
1.418962848749218
 20
8.132584628014866
 30
0.0
 11
1.416994344812211
 21
8.130616124077858
 31
0.0
  0
LINE
  5
35C6
330
1E
100
AcDbEntity
  8
3
100
AcDbLine
 10
1.657151825127172
 20
8.447545257936129
 30
0.0
 11
1.647309305442133
 21
8.441639746125103
 31
0.0
  0
LINE
  5
35C7
330
1E
100
AcDbEntity
  8
3
100
AcDbLine
 10
1.657151825127172
 20
8.447545257936129
 30
0.0
 11
1.657151825127172
 21
8.453450769747151
 31
0.0
  0
LINE
  5
35C8
330
1E
100
AcDbEntity
  8
3
100
AcDbLine
 10
1.647309305442133
 20
8.473135809117229
 30
0.0
 11
1.657151825127172
 21
8.453450769747151
 31
0.0
  0
LINE
  5
35C9
330
1E
100
AcDbEntity
  8
3
100
AcDbLine
 10
1.647309305442133
 20
8.441639746125103
 30
0.0
 11
1.647309305442133
 21
8.50069486423534
 31
0.0
  0
LINE
  5
35CA
330
1E
100
AcDbEntity
  8
3
100
AcDbLine
 10
1.657151825127172
 20
8.520379903605418
 30
0.0
 11
1.647309305442133
 21
8.50069486423534
 31
0.0
  0
LINE
  5
35CB
330
1E
100
AcDbEntity
  8
3
100
AcDbLine
 10
1.657151825127172
 20
8.520379903605418
 30
0.0
 11
1.657151825127172
 21
8.528253919353451
 31
0.0
  0
LINE
  5
35FE
330
1E
100
AcDbEntity
  8
3
100
AcDbLine
 10
1.607939226701974
 20
8.282190927227466
 30
0.0
 11
1.637466785757093
 21
8.282190927227466
 31
0.0
  0
LINE
  5
35FF
330
1E
100
AcDbEntity
  8
3
100
AcDbLine
 10
1.607939226701974
 20
8.266442895731403
 30
0.0
 11
1.637466785757093
 21
8.266442895731403
 31
0.0
  0
LINE
  5
3600
330
1E
100
AcDbEntity
  8
3
100
AcDbLine
 10
1.657151825127172
 20
8.295970454786521
 30
0.0
 11
1.657151825127172
 21
8.447545257936129
 31
0.0
  0
LINE
  5
3601
330
1E
100
AcDbEntity
  8
3
100
AcDbLine
 10
1.670931352686228
 20
8.25856887998337
 30
0.0
 11
1.655183321190165
 21
8.25856887998337
 31
0.0
  0
LINE
  5
3602
330
1E
100
AcDbEntity
  8
3
100
AcDbLine
 10
1.670931352686228
 20
8.234946832739277
 30
0.0
 11
1.655183321190165
 21
8.234946832739277
 31
0.0
  0
LINE
  5
3608
330
1E
100
AcDbEntity
  8
3
100
AcDbLine
 10
1.670931352686228
 20
8.248726360298332
 30
0.0
 11
1.670931352686228
 21
8.240852344550299
 31
0.0
  0
LINE
  5
360E
330
1E
100
AcDbEntity
  8
3
100
AcDbLine
 10
1.131561273946068
 20
8.266442895731403
 30
0.0
 11
1.082348675520872
 21
8.266442895731403
 31
0.0
  0
LINE
  5
361A
330
1E
100
AcDbEntity
  8
3
100
AcDbLine
 10
1.607939226701974
 20
8.234946832739277
 30
0.0
 11
1.131561273946068
 21
8.234946832739277
 31
0.0
  0
LINE
  5
361B
330
1E
100
AcDbEntity
  8
3
100
AcDbLine
 10
1.637466785757093
 20
8.514474391794395
 30
0.0
 11
1.637466785757093
 21
8.282190927227466
 31
0.0
  0
LINE
  5
361C
330
1E
100
AcDbEntity
  8
3
100
AcDbLine
 10
1.686679384182291
 20
8.549907462660536
 30
0.0
 11
1.651246313316148
 21
8.538096439038488
 31
0.0
  0
LINE
  5
361D
330
1E
100
AcDbEntity
  8
3
100
AcDbLine
 10
1.651246313316148
 20
8.538096439038488
 30
0.0
 11
1.637466785757093
 21
8.514474391794395
 31
0.0
  0
LINE
  5
361E
330
1E
100
AcDbEntity
  8
3
100
AcDbLine
 10
1.739828990481502
 20
8.549907462660536
 30
0.0
 11
1.686679384182291
 21
8.549907462660536
 31
0.0
  0
LINE
  5
3627
330
1E
100
AcDbEntity
  8
3
100
AcDbLine
 10
1.01935654953662
 20
8.626679116203844
 30
0.0
 11
1.739828990481502
 21
8.626679116203844
 31
0.0
  0
LINE
  5
3628
330
1E
100
AcDbEntity
  8
3
100
AcDbLine
 10
1.01935654953662
 20
8.288096439038488
 30
0.0
 11
1.01935654953662
 21
8.626679116203844
 31
0.0
  0
LINE
  5
3634
330
1E
100
AcDbEntity
  8
3
100
AcDbLine
 10
1.686679384182291
 20
8.544001950849514
 30
0.0
 11
1.686679384182291
 21
8.549907462660536
 31
0.0
  0
LINE
  5
3635
330
1E
100
AcDbEntity
  8
3
100
AcDbLine
 10
1.739828990481502
 20
8.544001950849514
 30
0.0
 11
1.739828990481502
 21
8.549907462660536
 31
0.0
  0
LINE
  5
3643
330
1E
100
AcDbEntity
  8
3
100
AcDbLine
 10
1.739828990481502
 20
8.654238171321955
 30
0.0
 11
1.718175447174417
 21
8.654238171321955
 31
0.0
  0
LINE
  5
3644
330
1E
100
AcDbEntity
  8
3
100
AcDbLine
 10
1.007545525914574
 20
8.652269667384947
 30
0.0
 11
1.00164001410355
 21
8.646364155573921
 31
0.0
  0
LINE
  5
3650
330
1E
100
AcDbEntity
  8
3
100
AcDbLine
 10
0.9996715101665429
 20
8.640458643762899
 30
0.0
 11
0.9996715101665429
 21
8.301875966597544
 31
0.0
  0
LINE
  5
365B
330
1E
100
AcDbEntity
  8
3
100
AcDbLine
 10
1.739828990481502
 20
8.664080691006992
 30
0.0
 11
1.739828990481502
 21
8.666049194944003
 31
0.0
  0
LINE
  5
3662
330
1E
100
AcDbEntity
  8
3
100
AcDbLine
 10
0.9996715101665429
 20
8.648332659510929
 30
0.0
 11
0.9996715101665429
 21
8.640458643762899
 31
0.0
  0
LINE
  5
3663
330
1E
100
AcDbEntity
  8
3
100
AcDbLine
 10
1.739828990481502
 20
8.662112187069984
 30
0.0
 11
1.739828990481502
 21
8.654238171321955
 31
0.0
  0
LINE
  5
3664
330
1E
100
AcDbEntity
  8
3
100
AcDbLine
 10
0.3323486755208727
 20
8.453450769747151
 30
0.0
 11
0.3421911952059116
 21
8.473135809117229
 31
0.0
  0
LINE
  5
3665
330
1E
100
AcDbEntity
  8
3
100
AcDbLine
 10
0.3323486755208727
 20
8.453450769747151
 30
0.0
 11
0.3323486755208727
 21
8.447545257936129
 31
0.0
  0
LINE
  5
3666
330
1E
100
AcDbEntity
  8
3
100
AcDbLine
 10
0.3421911952059116
 20
8.441639746125103
 30
0.0
 11
0.3323486755208727
 21
8.447545257936129
 31
0.0
  0
LINE
  5
3667
330
1E
100
AcDbEntity
  8
3
100
AcDbLine
 10
0.3421911952059116
 20
8.50069486423534
 30
0.0
 11
0.3421911952059116
 21
8.441639746125103
 31
0.0
  0
LINE
  5
3668
330
1E
100
AcDbEntity
  8
3
100
AcDbLine
 10
0.3421911952059116
 20
8.50069486423534
 30
0.0
 11
0.3323486755208727
 21
8.520379903605418
 31
0.0
  0
LINE
  5
3669
330
1E
100
AcDbEntity
  8
3
100
AcDbLine
 10
0.3323486755208727
 20
8.528253919353451
 30
0.0
 11
0.3323486755208727
 21
8.520379903605418
 31
0.0
  0
LINE
  5
369B
330
1E
100
AcDbEntity
  8
3
100
AcDbLine
 10
0.381561273946069
 20
8.266442895731403
 30
0.0
 11
0.3520337148909522
 21
8.266442895731403
 31
0.0
  0
LINE
  5
369C
330
1E
100
AcDbEntity
  8
3
100
AcDbLine
 10
0.381561273946069
 20
8.282190927227466
 30
0.0
 11
0.3520337148909522
 21
8.282190927227466
 31
0.0
  0
LINE
  5
369D
330
1E
100
AcDbEntity
  8
3
100
AcDbLine
 10
0.3323486755208727
 20
8.447545257936129
 30
0.0
 11
0.3323486755208727
 21
8.295970454786521
 31
0.0
  0
LINE
  5
369E
330
1E
100
AcDbEntity
  8
3
100
AcDbLine
 10
0.3323486755208727
 20
8.25856887998337
 30
0.0
 11
0.3185691479618171
 21
8.25856887998337
 31
0.0
  0
LINE
  5
36A4
330
1E
100
AcDbEntity
  8
3
100
AcDbLine
 10
0.3323486755208727
 20
8.234946832739277
 30
0.0
 11
0.3166006440248097
 21
8.234946832739277
 31
0.0
  0
LINE
  5
36A5
330
1E
100
AcDbEntity
  8
3
100
AcDbLine
 10
0.3166006440248097
 20
8.240852344550299
 30
0.0
 11
0.3166006440248097
 21
8.248726360298332
 31
0.0
  0
LINE
  5
36A6
330
1E
100
AcDbEntity
  8
3
100
AcDbLine
 10
0.8579392267019745
 20
8.266442895731403
 30
0.0
 11
0.9071518251271726
 21
8.266442895731403
 31
0.0
  0
LINE
  5
36B6
330
1E
100
AcDbEntity
  8
3
100
AcDbLine
 10
0.8579392267019745
 20
8.282190927227466
 30
0.0
 11
0.9071518251271726
 21
8.282190927227466
 31
0.0
  0
LINE
  5
36B7
330
1E
100
AcDbEntity
  8
3
100
AcDbLine
 10
0.381561273946069
 20
8.234946832739277
 30
0.0
 11
0.8579392267019745
 21
8.234946832739277
 31
0.0
  0
LINE
  5
36BD
330
1E
100
AcDbEntity
  8
3
100
AcDbLine
 10
0.9701439511114244
 20
8.288096439038488
 30
0.0
 11
0.9150258408752041
 21
8.288096439038488
 31
0.0
  0
LINE
  5
36BE
330
1E
100
AcDbEntity
  8
3
100
AcDbLine
 10
0.9701439511114244
 20
8.626679116203844
 30
0.0
 11
0.9701439511114244
 21
8.288096439038488
 31
0.0
  0
LINE
  5
36BF
330
1E
100
AcDbEntity
  8
3
100
AcDbLine
 10
0.249671510166543
 20
8.626679116203844
 30
0.0
 11
0.9701439511114244
 21
8.626679116203844
 31
0.0
  0
LINE
  5
36CB
330
1E
100
AcDbEntity
  8
3
100
AcDbLine
 10
0.3008526125287467
 20
8.549907462660536
 30
0.0
 11
0.249671510166543
 21
8.549907462660536
 31
0.0
  0
LINE
  5
36D1
330
1E
100
AcDbEntity
  8
3
100
AcDbLine
 10
0.3520337148909522
 20
8.282190927227466
 30
0.0
 11
0.3520337148909522
 21
8.514474391794395
 31
0.0
  0
LINE
  5
36DD
330
1E
100
AcDbEntity
  8
3
100
AcDbLine
 10
0.249671510166543
 20
8.662112187069984
 30
0.0
 11
0.2555770219775653
 21
8.662112187069984
 31
0.0
  0
LINE
  5
3704
330
1E
100
AcDbEntity
  8
3
100
AcDbLine
 10
0.249671510166543
 20
8.544001950849514
 30
0.0
 11
0.249671510166543
 21
8.549907462660536
 31
0.0
  0
LINE
  5
3705
330
1E
100
AcDbEntity
  8
3
100
AcDbLine
 10
0.3008526125287467
 20
8.544001950849514
 30
0.0
 11
0.3008526125287467
 21
8.549907462660536
 31
0.0
  0
LINE
  5
370B
330
1E
100
AcDbEntity
  8
3
100
AcDbLine
 10
0.9898289904815023
 20
8.640458643762899
 30
0.0
 11
0.9898289904815023
 21
8.648332659510929
 31
0.0
  0
LINE
  5
370C
330
1E
100
AcDbEntity
  8
3
100
AcDbLine
 10
0.249671510166543
 20
8.654238171321955
 30
0.0
 11
0.249671510166543
 21
8.662112187069984
 31
0.0
  0
LINE
  5
3718
330
1E
100
AcDbEntity
  8
3
100
AcDbLine
 10
0.3323486755208727
 20
8.528253919353451
 30
0.0
 11
0.3382541873318967
 21
8.51841139966841
 31
0.0
  0
LINE
  5
3719
330
1E
100
AcDbEntity
  8
3
100
AcDbLine
 10
0.3382541873318967
 20
8.51841139966841
 30
0.0
 11
0.3520337148909522
 21
8.514474391794395
 31
0.0
  0
LINE
  5
371A
330
1E
100
AcDbEntity
  8
3
100
AcDbLine
 10
0.249671510166543
 20
8.654238171321955
 30
0.0
 11
0.212269935363393
 21
8.648332659510929
 31
0.0
  0
LINE
  5
371B
330
1E
100
AcDbEntity
  8
3
100
AcDbLine
 10
0.212269935363393
 20
8.648332659510929
 30
0.0
 11
0.1847108802452819
 21
8.628647620140851
 31
0.0
  0
LINE
  5
371C
330
1E
100
AcDbEntity
  8
3
100
AcDbLine
 10
0.1847108802452819
 20
8.628647620140851
 30
0.0
 11
0.174868360560243
 21
8.603057068959747
 31
0.0
  0
LINE
  5
371D
330
1E
100
AcDbEntity
  8
3
100
AcDbLine
 10
0.2713250534736282
 20
8.654238171321955
 30
0.0
 11
0.249671510166543
 21
8.654238171321955
 31
0.0
  0
LINE
  5
371E
330
1E
100
AcDbEntity
  8
3
100
AcDbLine
 10
0.249671510166543
 20
8.654238171321955
 30
0.0
 11
0.249671510166543
 21
8.640458643762899
 31
0.0
  0
LINE
  5
371F
330
1E
100
AcDbEntity
  8
3
100
AcDbLine
 10
0.249671510166543
 20
8.640458643762899
 30
0.0
 11
0.249671510166543
 21
8.626679116203844
 31
0.0
  0
LINE
  5
3720
330
1E
100
AcDbEntity
  8
3
100
AcDbLine
 10
0.9701439511114244
 20
8.654238171321955
 30
0.0
 11
0.9701439511114244
 21
8.640458643762899
 31
0.0
  0
LINE
  5
3721
330
1E
100
AcDbEntity
  8
3
100
AcDbLine
 10
0.9701439511114244
 20
8.640458643762899
 30
0.0
 11
0.9701439511114244
 21
8.626679116203844
 31
0.0
  0
LINE
  5
3722
330
1E
100
AcDbEntity
  8
3
100
AcDbLine
 10
0.9898289904815023
 20
8.640458643762899
 30
0.0
 11
0.9858919826074874
 21
8.648332659510929
 31
0.0
  0
LINE
  5
3723
330
1E
100
AcDbEntity
  8
3
100
AcDbLine
 10
0.9858919826074874
 20
8.648332659510929
 30
0.0
 11
0.9780179668594559
 21
8.654238171321955
 31
0.0
  0
LINE
  5
3724
330
1E
100
AcDbEntity
  8
3
100
AcDbLine
 10
0.9701439511114244
 20
8.288096439038488
 30
0.0
 11
0.98392347867048
 21
8.292033446912506
 31
0.0
  0
LINE
  5
3725
330
1E
100
AcDbEntity
  8
3
100
AcDbLine
 10
0.98392347867048
 20
8.292033446912506
 30
0.0
 11
0.9898289904815023
 21
8.301875966597544
 31
0.0
  0
LINE
  5
3726
330
1E
100
AcDbEntity
  8
3
100
AcDbLine
 10
0.9898289904815023
 20
8.301875966597544
 30
0.0
 11
0.9898289904815023
 21
8.640458643762899
 31
0.0
  0
LINE
  5
3727
330
1E
100
AcDbEntity
  8
3
100
AcDbLine
 10
0.9898289904815023
 20
8.640458643762899
 30
0.0
 11
0.98392347867048
 21
8.630616124077858
 31
0.0
  0
LINE
  5
3728
330
1E
100
AcDbEntity
  8
3
100
AcDbLine
 10
0.98392347867048
 20
8.630616124077858
 30
0.0
 11
0.9701439511114244
 21
8.626679116203844
 31
0.0
  0
LINE
  5
3729
330
1E
100
AcDbEntity
  8
3
100
AcDbLine
 10
0.9878604865444948
 20
8.654238171321955
 30
0.0
 11
0.9898289904815023
 21
8.650301163447936
 31
0.0
  0
LINE
  5
372A
330
1E
100
AcDbEntity
  8
3
100
AcDbLine
 10
0.9898289904815023
 20
8.650301163447936
 30
0.0
 11
0.9898289904815023
 21
8.648332659510929
 31
0.0
  0
LINE
  5
372B
330
1E
100
AcDbEntity
  8
3
100
AcDbLine
 10
0.212269935363393
 20
8.654238171321955
 30
0.0
 11
0.249671510166543
 21
8.662112187069984
 31
0.0
  0
LINE
  5
372C
330
1E
100
AcDbEntity
  8
3
100
AcDbLine
 10
0.249671510166543
 20
8.662112187069984
 30
0.0
 11
0.249671510166543
 21
8.664080691006992
 31
0.0
  0
LINE
  5
372D
330
1E
100
AcDbEntity
  8
3
100
AcDbLine
 10
0.249671510166543
 20
8.664080691006992
 30
0.0
 11
0.249671510166543
 21
8.666049194944003
 31
0.0
  0
LINE
  5
372E
330
1E
100
AcDbEntity
  8
3
100
AcDbLine
 10
0.174868360560243
 20
8.608962580770773
 30
0.0
 11
0.1847108802452819
 21
8.636521635888884
 31
0.0
  0
LINE
  5
372F
330
1E
100
AcDbEntity
  8
3
100
AcDbLine
 10
0.1847108802452819
 20
8.636521635888884
 30
0.0
 11
0.212269935363393
 21
8.654238171321955
 31
0.0
  0
LINE
  5
3730
330
1E
100
AcDbEntity
  8
3
100
AcDbLine
 10
0.3520337148909522
 20
8.514474391794395
 30
0.0
 11
0.3362856833948893
 21
8.538096439038488
 31
0.0
  0
LINE
  5
3731
330
1E
100
AcDbEntity
  8
3
100
AcDbLine
 10
0.3362856833948893
 20
8.538096439038488
 30
0.0
 11
0.3008526125287467
 21
8.549907462660536
 31
0.0
  0
LINE
  5
3732
330
1E
100
AcDbEntity
  8
3
100
AcDbLine
 10
0.1984904078043375
 20
8.57549801384164
 30
0.0
 11
0.1984904078043375
 21
8.599120061085733
 31
0.0
  0
LINE
  5
3733
330
1E
100
AcDbEntity
  8
3
100
AcDbLine
 10
0.1984904078043375
 20
8.599120061085733
 30
0.0
 11
0.2181754471744171
 21
8.61880510045581
 31
0.0
  0
LINE
  5
3734
330
1E
100
AcDbEntity
  8
3
100
AcDbLine
 10
0.2181754471744171
 20
8.61880510045581
 30
0.0
 11
0.249671510166543
 21
8.626679116203844
 31
0.0
  0
LINE
  5
3735
330
1E
100
AcDbEntity
  8
3
100
AcDbLine
 10
0.249671510166543
 20
8.549907462660536
 30
0.0
 11
0.2181754471744171
 21
8.555812974471558
 31
0.0
  0
LINE
  5
3736
330
1E
100
AcDbEntity
  8
3
100
AcDbLine
 10
0.2181754471744171
 20
8.555812974471558
 30
0.0
 11
0.1984904078043375
 21
8.57549801384164
 31
0.0
  0
LINE
  5
3737
330
1E
100
AcDbEntity
  8
3
100
AcDbLine
 10
0.9150258408752041
 20
8.288096439038488
 30
0.0
 11
0.90912032906418
 21
8.286127935101481
 31
0.0
  0
LINE
  5
3738
330
1E
100
AcDbEntity
  8
3
100
AcDbLine
 10
0.90912032906418
 20
8.286127935101481
 30
0.0
 11
0.9071518251271726
 21
8.282190927227466
 31
0.0
  0
LINE
  5
3739
330
1E
100
AcDbEntity
  8
3
100
AcDbLine
 10
0.9071518251271726
 20
8.282190927227466
 30
0.0
 11
0.9071518251271726
 21
8.274316911479433
 31
0.0
  0
LINE
  5
373A
330
1E
100
AcDbEntity
  8
3
100
AcDbLine
 10
0.9071518251271726
 20
8.274316911479433
 30
0.0
 11
0.9071518251271726
 21
8.266442895731403
 31
0.0
  0
LINE
  5
373B
330
1E
100
AcDbEntity
  8
3
100
AcDbLine
 10
0.8579392267019745
 20
8.282190927227466
 30
0.0
 11
0.8579392267019745
 21
8.274316911479433
 31
0.0
  0
LINE
  5
373C
330
1E
100
AcDbEntity
  8
3
100
AcDbLine
 10
0.8579392267019745
 20
8.274316911479433
 30
0.0
 11
0.8579392267019745
 21
8.266442895731403
 31
0.0
  0
LINE
  5
373D
330
1E
100
AcDbEntity
  8
3
100
AcDbLine
 10
0.8579392267019745
 20
8.221167305180221
 30
0.0
 11
0.8579392267019745
 21
8.234946832739277
 31
0.0
  0
LINE
  5
373E
330
1E
100
AcDbEntity
  8
3
100
AcDbLine
 10
0.8579392267019745
 20
8.234946832739277
 30
0.0
 11
0.8579392267019745
 21
8.266442895731403
 31
0.0
  0
LINE
  5
373F
330
1E
100
AcDbEntity
  8
3
100
AcDbLine
 10
0.3166006440248097
 20
8.252663368172347
 30
0.0
 11
0.3244746597728412
 21
8.246757856361325
 31
0.0
  0
LINE
  5
3740
330
1E
100
AcDbEntity
  8
3
100
AcDbLine
 10
0.3244746597728412
 20
8.246757856361325
 30
0.0
 11
0.3166006440248097
 21
8.240852344550299
 31
0.0
  0
LINE
  5
3741
330
1E
100
AcDbEntity
  8
3
100
AcDbLine
 10
0.3520337148909522
 20
8.266442895731403
 30
0.0
 11
0.3520337148909522
 21
8.274316911479433
 31
0.0
  0
LINE
  5
3742
330
1E
100
AcDbEntity
  8
3
100
AcDbLine
 10
0.3520337148909522
 20
8.274316911479433
 30
0.0
 11
0.3520337148909522
 21
8.282190927227466
 31
0.0
  0
LINE
  5
3743
330
1E
100
AcDbEntity
  8
3
100
AcDbLine
 10
0.3520337148909522
 20
8.282190927227466
 30
0.0
 11
0.3382541873318967
 21
8.286127935101481
 31
0.0
  0
LINE
  5
3744
330
1E
100
AcDbEntity
  8
3
100
AcDbLine
 10
0.3382541873318967
 20
8.286127935101481
 30
0.0
 11
0.3323486755208727
 21
8.295970454786521
 31
0.0
  0
LINE
  5
3745
330
1E
100
AcDbEntity
  8
3
100
AcDbLine
 10
0.3323486755208727
 20
8.295970454786521
 30
0.0
 11
0.3323486755208727
 21
8.294001950849514
 31
0.0
  0
LINE
  5
3746
330
1E
100
AcDbEntity
  8
3
100
AcDbLine
 10
0.3323486755208727
 20
8.294001950849514
 30
0.0
 11
0.3323486755208727
 21
8.288096439038488
 31
0.0
  0
LINE
  5
3747
330
1E
100
AcDbEntity
  8
3
100
AcDbLine
 10
0.3323486755208727
 20
8.288096439038488
 30
0.0
 11
0.3362856833948893
 21
8.280222423290458
 31
0.0
  0
LINE
  5
3748
330
1E
100
AcDbEntity
  8
3
100
AcDbLine
 10
0.3362856833948893
 20
8.280222423290458
 30
0.0
 11
0.3362856833948893
 21
8.274316911479433
 31
0.0
  0
LINE
  5
3749
330
1E
100
AcDbEntity
  8
3
100
AcDbLine
 10
0.3362856833948893
 20
8.274316911479433
 30
0.0
 11
0.3362856833948893
 21
8.270379903605418
 31
0.0
  0
LINE
  5
374A
330
1E
100
AcDbEntity
  8
3
100
AcDbLine
 10
0.3362856833948893
 20
8.270379903605418
 30
0.0
 11
0.3362856833948893
 21
8.266442895731403
 31
0.0
  0
LINE
  5
374B
330
1E
100
AcDbEntity
  8
3
100
AcDbLine
 10
0.381561273946069
 20
8.221167305180221
 30
0.0
 11
0.381561273946069
 21
8.234946832739277
 31
0.0
  0
LINE
  5
374C
330
1E
100
AcDbEntity
  8
3
100
AcDbLine
 10
0.381561273946069
 20
8.234946832739277
 30
0.0
 11
0.381561273946069
 21
8.266442895731403
 31
0.0
  0
LINE
  5
374D
330
1E
100
AcDbEntity
  8
3
100
AcDbLine
 10
0.381561273946069
 20
8.282190927227466
 30
0.0
 11
0.381561273946069
 21
8.274316911479433
 31
0.0
  0
LINE
  5
374E
330
1E
100
AcDbEntity
  8
3
100
AcDbLine
 10
0.381561273946069
 20
8.274316911479433
 30
0.0
 11
0.381561273946069
 21
8.266442895731403
 31
0.0
  0
LINE
  5
374F
330
1E
100
AcDbEntity
  8
3
100
AcDbLine
 10
0.3362856833948893
 20
8.266442895731403
 30
0.0
 11
0.3421911952059116
 21
8.266442895731403
 31
0.0
  0
LINE
  5
3750
330
1E
100
AcDbEntity
  8
3
100
AcDbLine
 10
0.3421911952059116
 20
8.266442895731403
 30
0.0
 11
0.3520337148909522
 21
8.266442895731403
 31
0.0
  0
LINE
  5
3751
330
1E
100
AcDbEntity
  8
3
100
AcDbLine
 10
0.3520337148909522
 20
8.221167305180221
 30
0.0
 11
0.3520337148909522
 21
8.234946832739277
 31
0.0
  0
LINE
  5
3752
330
1E
100
AcDbEntity
  8
3
100
AcDbLine
 10
0.3520337148909522
 20
8.234946832739277
 30
0.0
 11
0.3520337148909522
 21
8.266442895731403
 31
0.0
  0
LINE
  5
3753
330
1E
100
AcDbEntity
  8
3
100
AcDbLine
 10
0.3323486755208727
 20
8.246757856361325
 30
0.0
 11
0.3323486755208727
 21
8.234946832739277
 31
0.0
  0
LINE
  5
3754
330
1E
100
AcDbEntity
  8
3
100
AcDbLine
 10
0.3323486755208727
 20
8.234946832739277
 30
0.0
 11
0.3343171794578801
 21
8.229041320928255
 31
0.0
  0
LINE
  5
3755
330
1E
100
AcDbEntity
  8
3
100
AcDbLine
 10
0.3343171794578801
 20
8.229041320928255
 30
0.0
 11
0.3362856833948893
 21
8.229041320928255
 31
0.0
  0
LINE
  5
3756
330
1E
100
AcDbEntity
  8
3
100
AcDbLine
 10
0.3362856833948893
 20
8.266442895731403
 30
0.0
 11
0.3343171794578801
 21
8.264474391794395
 31
0.0
  0
LINE
  5
3757
330
1E
100
AcDbEntity
  8
3
100
AcDbLine
 10
0.3343171794578801
 20
8.264474391794395
 30
0.0
 11
0.3323486755208727
 21
8.25856887998337
 31
0.0
  0
LINE
  5
3758
330
1E
100
AcDbEntity
  8
3
100
AcDbLine
 10
0.3323486755208727
 20
8.25856887998337
 30
0.0
 11
0.3323486755208727
 21
8.25069486423534
 31
0.0
  0
LINE
  5
3759
330
1E
100
AcDbEntity
  8
3
100
AcDbLine
 10
0.3323486755208727
 20
8.25069486423534
 30
0.0
 11
0.3323486755208727
 21
8.246757856361325
 31
0.0
  0
LINE
  5
375A
330
1E
100
AcDbEntity
  8
3
100
AcDbLine
 10
1.739828990481502
 20
8.662112187069984
 30
0.0
 11
1.777230565284652
 21
8.654238171321955
 31
0.0
  0
LINE
  5
375B
330
1E
100
AcDbEntity
  8
3
100
AcDbLine
 10
1.777230565284652
 20
8.654238171321955
 30
0.0
 11
1.804789620402763
 21
8.636521635888884
 31
0.0
  0
LINE
  5
375C
330
1E
100
AcDbEntity
  8
3
100
AcDbLine
 10
1.804789620402763
 20
8.636521635888884
 30
0.0
 11
1.814632140087802
 21
8.608962580770773
 31
0.0
  0
LINE
  5
375D
330
1E
100
AcDbEntity
  8
3
100
AcDbLine
 10
1.73392347867048
 20
8.662112187069984
 30
0.0
 11
1.739828990481502
 21
8.662112187069984
 31
0.0
  0
LINE
  5
375E
330
1E
100
AcDbEntity
  8
3
100
AcDbLine
 10
1.739828990481502
 20
8.662112187069984
 30
0.0
 11
1.739828990481502
 21
8.664080691006992
 31
0.0
  0
LINE
  5
375F
330
1E
100
AcDbEntity
  8
3
100
AcDbLine
 10
0.9996715101665429
 20
8.648332659510929
 30
0.0
 11
0.9996715101665429
 21
8.650301163447936
 31
0.0
  0
LINE
  5
3760
330
1E
100
AcDbEntity
  8
3
100
AcDbLine
 10
0.9996715101665429
 20
8.650301163447936
 30
0.0
 11
1.00164001410355
 21
8.654238171321955
 31
0.0
  0
LINE
  5
3761
330
1E
100
AcDbEntity
  8
3
100
AcDbLine
 10
0.9996715101665429
 20
8.301875966597544
 30
0.0
 11
1.005577021977565
 21
8.292033446912506
 31
0.0
  0
LINE
  5
3762
330
1E
100
AcDbEntity
  8
3
100
AcDbLine
 10
1.005577021977565
 20
8.292033446912506
 30
0.0
 11
1.01935654953662
 21
8.288096439038488
 31
0.0
  0
LINE
  5
3763
330
1E
100
AcDbEntity
  8
3
100
AcDbLine
 10
1.00164001410355
 20
8.646364155573921
 30
0.0
 11
0.9996715101665429
 21
8.640458643762899
 31
0.0
  0
LINE
  5
3764
330
1E
100
AcDbEntity
  8
3
100
AcDbLine
 10
0.9996715101665429
 20
8.640458643762899
 30
0.0
 11
1.005577021977565
 21
8.630616124077858
 31
0.0
  0
LINE
  5
3765
330
1E
100
AcDbEntity
  8
3
100
AcDbLine
 10
1.005577021977565
 20
8.630616124077858
 30
0.0
 11
1.01935654953662
 21
8.626679116203844
 31
0.0
  0
LINE
  5
3766
330
1E
100
AcDbEntity
  8
3
100
AcDbLine
 10
1.01935654953662
 20
8.654238171321955
 30
0.0
 11
1.01935654953662
 21
8.640458643762899
 31
0.0
  0
LINE
  5
3767
330
1E
100
AcDbEntity
  8
3
100
AcDbLine
 10
1.01935654953662
 20
8.640458643762899
 30
0.0
 11
1.01935654953662
 21
8.626679116203844
 31
0.0
  0
LINE
  5
3768
330
1E
100
AcDbEntity
  8
3
100
AcDbLine
 10
1.814632140087802
 20
8.603057068959747
 30
0.0
 11
1.804789620402763
 21
8.628647620140851
 31
0.0
  0
LINE
  5
3769
330
1E
100
AcDbEntity
  8
3
100
AcDbLine
 10
1.804789620402763
 20
8.628647620140851
 30
0.0
 11
1.777230565284652
 21
8.648332659510929
 31
0.0
  0
LINE
  5
376A
330
1E
100
AcDbEntity
  8
3
100
AcDbLine
 10
1.777230565284652
 20
8.648332659510929
 30
0.0
 11
1.739828990481502
 21
8.654238171321955
 31
0.0
  0
LINE
  5
376B
330
1E
100
AcDbEntity
  8
3
100
AcDbLine
 10
1.739828990481502
 20
8.654238171321955
 30
0.0
 11
1.739828990481502
 21
8.640458643762899
 31
0.0
  0
LINE
  5
376C
330
1E
100
AcDbEntity
  8
3
100
AcDbLine
 10
1.739828990481502
 20
8.640458643762899
 30
0.0
 11
1.739828990481502
 21
8.626679116203844
 31
0.0
  0
LINE
  5
376D
330
1E
100
AcDbEntity
  8
3
100
AcDbLine
 10
1.657151825127172
 20
8.528253919353451
 30
0.0
 11
1.651246313316148
 21
8.51841139966841
 31
0.0
  0
LINE
  5
376E
330
1E
100
AcDbEntity
  8
3
100
AcDbLine
 10
1.651246313316148
 20
8.51841139966841
 30
0.0
 11
1.637466785757093
 21
8.514474391794395
 31
0.0
  0
LINE
  5
376F
330
1E
100
AcDbEntity
  8
3
100
AcDbLine
 10
1.01935654953662
 20
8.288096439038488
 30
0.0
 11
1.074474659772841
 21
8.288096439038488
 31
0.0
  0
LINE
  5
3770
330
1E
100
AcDbEntity
  8
3
100
AcDbLine
 10
1.074474659772841
 20
8.288096439038488
 30
0.0
 11
1.080380171583865
 21
8.286127935101481
 31
0.0
  0
LINE
  5
3771
330
1E
100
AcDbEntity
  8
3
100
AcDbLine
 10
1.080380171583865
 20
8.286127935101481
 30
0.0
 11
1.082348675520872
 21
8.282190927227466
 31
0.0
  0
LINE
  5
3772
330
1E
100
AcDbEntity
  8
3
100
AcDbLine
 10
1.739828990481502
 20
8.626679116203844
 30
0.0
 11
1.771325053473628
 21
8.61880510045581
 31
0.0
  0
LINE
  5
3773
330
1E
100
AcDbEntity
  8
3
100
AcDbLine
 10
1.771325053473628
 20
8.61880510045581
 30
0.0
 11
1.791010092843707
 21
8.599120061085733
 31
0.0
  0
LINE
  5
3774
330
1E
100
AcDbEntity
  8
3
100
AcDbLine
 10
1.791010092843707
 20
8.599120061085733
 30
0.0
 11
1.791010092843707
 21
8.57549801384164
 31
0.0
  0
LINE
  5
3775
330
1E
100
AcDbEntity
  8
3
100
AcDbLine
 10
1.791010092843707
 20
8.57549801384164
 30
0.0
 11
1.771325053473628
 21
8.555812974471558
 31
0.0
  0
LINE
  5
3776
330
1E
100
AcDbEntity
  8
3
100
AcDbLine
 10
1.771325053473628
 20
8.555812974471558
 30
0.0
 11
1.739828990481502
 21
8.549907462660536
 31
0.0
  0
LINE
  5
3777
330
1E
100
AcDbEntity
  8
3
100
AcDbLine
 10
1.082348675520872
 20
8.266442895731403
 30
0.0
 11
1.082348675520872
 21
8.274316911479433
 31
0.0
  0
LINE
  5
3778
330
1E
100
AcDbEntity
  8
3
100
AcDbLine
 10
1.082348675520872
 20
8.274316911479433
 30
0.0
 11
1.082348675520872
 21
8.282190927227466
 31
0.0
  0
LINE
  5
3779
330
1E
100
AcDbEntity
  8
3
100
AcDbLine
 10
1.131561273946068
 20
8.266442895731403
 30
0.0
 11
1.131561273946068
 21
8.274316911479433
 31
0.0
  0
LINE
  5
377A
330
1E
100
AcDbEntity
  8
3
100
AcDbLine
 10
1.131561273946068
 20
8.274316911479433
 30
0.0
 11
1.131561273946068
 21
8.282190927227466
 31
0.0
  0
LINE
  5
377B
330
1E
100
AcDbEntity
  8
3
100
AcDbLine
 10
1.131561273946068
 20
8.282190927227466
 30
0.0
 11
1.082348675520872
 21
8.282190927227466
 31
0.0
  0
LINE
  5
377C
330
1E
100
AcDbEntity
  8
3
100
AcDbLine
 10
1.131561273946068
 20
8.266442895731403
 30
0.0
 11
1.131561273946068
 21
8.234946832739277
 31
0.0
  0
LINE
  5
377D
330
1E
100
AcDbEntity
  8
3
100
AcDbLine
 10
1.131561273946068
 20
8.234946832739277
 30
0.0
 11
1.131561273946068
 21
8.221167305180221
 31
0.0
  0
LINE
  5
377E
330
1E
100
AcDbEntity
  8
3
100
AcDbLine
 10
1.670931352686228
 20
8.240852344550299
 30
0.0
 11
1.663057336938196
 21
8.246757856361325
 31
0.0
  0
LINE
  5
377F
330
1E
100
AcDbEntity
  8
3
100
AcDbLine
 10
1.663057336938196
 20
8.246757856361325
 30
0.0
 11
1.670931352686228
 21
8.252663368172347
 31
0.0
  0
LINE
  5
3780
330
1E
100
AcDbEntity
  8
3
100
AcDbLine
 10
1.637466785757093
 20
8.282190927227466
 30
0.0
 11
1.637466785757093
 21
8.274316911479433
 31
0.0
  0
LINE
  5
3781
330
1E
100
AcDbEntity
  8
3
100
AcDbLine
 10
1.637466785757093
 20
8.274316911479433
 30
0.0
 11
1.637466785757093
 21
8.266442895731403
 31
0.0
  0
LINE
  5
3782
330
1E
100
AcDbEntity
  8
3
100
AcDbLine
 10
1.637466785757093
 20
8.282190927227466
 30
0.0
 11
1.651246313316148
 21
8.286127935101481
 31
0.0
  0
LINE
  5
3783
330
1E
100
AcDbEntity
  8
3
100
AcDbLine
 10
1.651246313316148
 20
8.286127935101481
 30
0.0
 11
1.657151825127172
 21
8.295970454786521
 31
0.0
  0
LINE
  5
3784
330
1E
100
AcDbEntity
  8
3
100
AcDbLine
 10
1.657151825127172
 20
8.292033446912506
 30
0.0
 11
1.657151825127172
 21
8.294001950849514
 31
0.0
  0
LINE
  5
3785
330
1E
100
AcDbEntity
  8
3
100
AcDbLine
 10
1.657151825127172
 20
8.294001950849514
 30
0.0
 11
1.657151825127172
 21
8.295970454786521
 31
0.0
  0
LINE
  5
3786
330
1E
100
AcDbEntity
  8
3
100
AcDbLine
 10
1.653214817253155
 20
8.266442895731403
 30
0.0
 11
1.653214817253155
 21
8.26841139966841
 31
0.0
  0
LINE
  5
3787
330
1E
100
AcDbEntity
  8
3
100
AcDbLine
 10
1.653214817253155
 20
8.26841139966841
 30
0.0
 11
1.651246313316148
 21
8.272348407542425
 31
0.0
  0
LINE
  5
3788
330
1E
100
AcDbEntity
  8
3
100
AcDbLine
 10
1.651246313316148
 20
8.272348407542425
 30
0.0
 11
1.653214817253155
 21
8.276285415416444
 31
0.0
  0
LINE
  5
3789
330
1E
100
AcDbEntity
  8
3
100
AcDbLine
 10
1.653214817253155
 20
8.276285415416444
 30
0.0
 11
1.655183321190165
 21
8.284159431164473
 31
0.0
  0
LINE
  5
378A
330
1E
100
AcDbEntity
  8
3
100
AcDbLine
 10
1.655183321190165
 20
8.284159431164473
 30
0.0
 11
1.657151825127172
 21
8.292033446912506
 31
0.0
  0
LINE
  5
378B
330
1E
100
AcDbEntity
  8
3
100
AcDbLine
 10
1.653214817253155
 20
8.229041320928255
 30
0.0
 11
1.655183321190165
 21
8.232978328802269
 31
0.0
  0
LINE
  5
378C
330
1E
100
AcDbEntity
  8
3
100
AcDbLine
 10
1.655183321190165
 20
8.232978328802269
 30
0.0
 11
1.655183321190165
 21
8.234946832739277
 31
0.0
  0
LINE
  5
378D
330
1E
100
AcDbEntity
  8
3
100
AcDbLine
 10
1.655183321190165
 20
8.234946832739277
 30
0.0
 11
1.657151825127172
 21
8.242820848487307
 31
0.0
  0
LINE
  5
378E
330
1E
100
AcDbEntity
  8
3
100
AcDbLine
 10
1.657151825127172
 20
8.242820848487307
 30
0.0
 11
1.657151825127172
 21
8.246757856361325
 31
0.0
  0
LINE
  5
378F
330
1E
100
AcDbEntity
  8
3
100
AcDbLine
 10
1.657151825127172
 20
8.246757856361325
 30
0.0
 11
1.657151825127172
 21
8.25856887998337
 31
0.0
  0
LINE
  5
3790
330
1E
100
AcDbEntity
  8
3
100
AcDbLine
 10
1.657151825127172
 20
8.25856887998337
 30
0.0
 11
1.655183321190165
 21
8.25856887998337
 31
0.0
  0
LINE
  5
3791
330
1E
100
AcDbEntity
  8
3
100
AcDbLine
 10
1.655183321190165
 20
8.25856887998337
 30
0.0
 11
1.653214817253155
 21
8.266442895731403
 31
0.0
  0
LINE
  5
3792
330
1E
100
AcDbEntity
  8
3
100
AcDbLine
 10
1.653214817253155
 20
8.266442895731403
 30
0.0
 11
1.645340801505124
 21
8.266442895731403
 31
0.0
  0
LINE
  5
3793
330
1E
100
AcDbEntity
  8
3
100
AcDbLine
 10
1.645340801505124
 20
8.266442895731403
 30
0.0
 11
1.637466785757093
 21
8.266442895731403
 31
0.0
  0
LINE
  5
3794
330
1E
100
AcDbEntity
  8
3
100
AcDbLine
 10
1.637466785757093
 20
8.266442895731403
 30
0.0
 11
1.637466785757093
 21
8.234946832739277
 31
0.0
  0
LINE
  5
3795
330
1E
100
AcDbEntity
  8
3
100
AcDbLine
 10
1.637466785757093
 20
8.234946832739277
 30
0.0
 11
1.637466785757093
 21
8.221167305180221
 31
0.0
  0
LINE
  5
3796
330
1E
100
AcDbEntity
  8
3
100
AcDbLine
 10
1.607939226701974
 20
8.266442895731403
 30
0.0
 11
1.607939226701974
 21
8.274316911479433
 31
0.0
  0
LINE
  5
3797
330
1E
100
AcDbEntity
  8
3
100
AcDbLine
 10
1.607939226701974
 20
8.274316911479433
 30
0.0
 11
1.607939226701974
 21
8.282190927227466
 31
0.0
  0
LINE
  5
3798
330
1E
100
AcDbEntity
  8
3
100
AcDbLine
 10
1.607939226701974
 20
8.266442895731403
 30
0.0
 11
1.607939226701974
 21
8.234946832739277
 31
0.0
  0
LINE
  5
3799
330
1E
100
AcDbEntity
  8
3
100
AcDbLine
 10
1.607939226701974
 20
8.234946832739277
 30
0.0
 11
1.607939226701974
 21
8.221167305180221
 31
0.0
  0
LINE
  5
379A
330
1E
100
AcDbEntity
  8
3
100
AcDbLine
 10
1.082348675520872
 20
8.213293289432192
 30
0.0
 11
1.082348675520872
 21
8.217230297306207
 31
0.0
  0
LINE
  5
379B
330
1E
100
AcDbEntity
  8
3
100
AcDbLine
 10
1.082348675520872
 20
8.217230297306207
 30
0.0
 11
1.082348675520872
 21
8.221167305180221
 31
0.0
  0
LINE
  5
379C
330
1E
100
AcDbEntity
  8
3
100
AcDbLine
 10
0.9071518251271726
 20
8.213293289432192
 30
0.0
 11
0.9071518251271726
 21
8.217230297306207
 31
0.0
  0
LINE
  5
379D
330
1E
100
AcDbEntity
  8
3
100
AcDbLine
 10
0.9071518251271726
 20
8.217230297306207
 30
0.0
 11
0.9071518251271726
 21
8.221167305180221
 31
0.0
  0
LINE
  5
379E
330
1E
100
AcDbEntity
  8
3
100
AcDbLine
 10
1.082348675520872
 20
8.282190927227466
 30
0.0
 11
1.082348675520872
 21
8.256600376046362
 31
0.0
  0
LINE
  5
379F
330
1E
100
AcDbEntity
  8
3
100
AcDbLine
 10
1.082348675520872
 20
8.256600376046362
 30
0.0
 11
1.082348675520872
 21
8.234946832739277
 31
0.0
  0
LINE
  5
37A0
330
1E
100
AcDbEntity
  8
3
100
AcDbLine
 10
0.9071518251271726
 20
8.282190927227466
 30
0.0
 11
0.9071518251271726
 21
8.256600376046362
 31
0.0
  0
LINE
  5
37A1
330
1E
100
AcDbEntity
  8
3
100
AcDbLine
 10
0.9071518251271726
 20
8.256600376046362
 30
0.0
 11
0.9071518251271726
 21
8.234946832739277
 31
0.0
  0
LINE
  5
37A2
330
1E
100
AcDbEntity
  8
3
100
AcDbLine
 10
1.082348675520872
 20
8.234946832739277
 30
0.0
 11
1.082348675520872
 21
8.225104313054236
 31
0.0
  0
LINE
  5
37A3
330
1E
100
AcDbEntity
  8
3
100
AcDbLine
 10
1.082348675520872
 20
8.225104313054236
 30
0.0
 11
1.082348675520872
 21
8.221167305180221
 31
0.0
  0
LINE
  5
37A4
330
1E
100
AcDbEntity
  8
3
100
AcDbLine
 10
1.082348675520872
 20
8.234946832739277
 30
0.0
 11
0.9071518251271726
 21
8.234946832739277
 31
0.0
  0
LINE
  5
37A5
330
1E
100
AcDbEntity
  8
3
100
AcDbLine
 10
0.9071518251271726
 20
8.234946832739277
 30
0.0
 11
0.9071518251271726
 21
8.225104313054236
 31
0.0
  0
LINE
  5
37A6
330
1E
100
AcDbEntity
  8
3
100
AcDbLine
 10
1.55675812433977
 20
8.650301163447936
 30
0.0
 11
1.55675812433977
 21
8.652269667384947
 31
0.0
  0
LINE
  5
37A7
330
1E
100
AcDbEntity
  8
3
100
AcDbLine
 10
1.55675812433977
 20
8.652269667384947
 30
0.0
 11
1.55675812433977
 21
8.654238171321955
 31
0.0
  0
LINE
  5
37A8
330
1E
100
AcDbEntity
  8
3
100
AcDbLine
 10
0.5666006440248097
 20
8.110931084707781
 30
0.0
 11
0.5685691479618172
 21
8.148332659510929
 31
0.0
  0
LINE
  5
37A9
330
1E
100
AcDbEntity
  8
3
100
AcDbLine
 10
0.5685691479618172
 20
8.148332659510929
 30
0.0
 11
0.7851045810326838
 21
8.148332659510929
 31
0.0
  0
LINE
  5
37AA
330
1E
100
AcDbEntity
  8
3
100
AcDbLine
 10
0.3166006440248097
 20
8.203450769747151
 30
0.0
 11
0.3166006440248097
 21
8.061718486282584
 31
0.0
  0
LINE
  5
37AB
330
1E
100
AcDbEntity
  8
3
100
AcDbLine
 10
0.3166006440248097
 20
8.061718486282584
 30
0.0
 11
0.3067581243397708
 21
8.061718486282584
 31
0.0
  0
LINE
  5
37AC
330
1E
100
AcDbEntity
  8
3
100
AcDbLine
 10
0.228017966859456
 20
8.061718486282584
 30
0.0
 11
0.3067581243397708
 21
8.061718486282584
 31
0.0
  0
LINE
  5
37AD
330
1E
100
AcDbEntity
  8
3
100
AcDbLine
 10
0.3067581243397708
 20
8.061718486282584
 30
0.0
 11
0.3067581243397708
 21
8.197545257936129
 31
0.0
  0
LINE
  5
37AE
330
1E
100
AcDbEntity
  8
3
100
AcDbLine
 10
0.228017966859456
 20
8.061718486282584
 30
0.0
 11
0.2181754471744171
 21
8.061718486282584
 31
0.0
  0
LINE
  5
37AF
330
1E
100
AcDbEntity
  8
3
100
AcDbLine
 10
0.2181754471744171
 20
8.061718486282584
 30
0.0
 11
0.212269935363393
 21
8.061718486282584
 31
0.0
  0
LINE
  5
37B0
330
1E
100
AcDbEntity
  8
3
100
AcDbLine
 10
0.2516400141035504
 20
8.544001950849514
 30
0.0
 11
0.2772305652846523
 21
8.532190927227466
 31
0.0
  0
LINE
  5
37B1
330
1E
100
AcDbEntity
  8
3
100
AcDbLine
 10
0.2772305652846523
 20
8.532190927227466
 30
0.0
 11
0.3067581243397708
 21
8.528253919353451
 31
0.0
  0
LINE
  5
37B2
330
1E
100
AcDbEntity
  8
3
100
AcDbLine
 10
0.3185691479618171
 20
8.199513761873136
 30
0.0
 11
0.3166006440248097
 21
8.205419273684158
 31
0.0
  0
LINE
  5
37B3
330
1E
100
AcDbEntity
  8
3
100
AcDbLine
 10
0.3166006440248097
 20
8.205419273684158
 30
0.0
 11
0.3166006440248097
 21
8.227072816991244
 31
0.0
  0
LINE
  5
37B4
330
1E
100
AcDbEntity
  8
3
100
AcDbLine
 10
0.3166006440248097
 20
8.227072816991244
 30
0.0
 11
0.3185691479618171
 21
8.254631872109355
 31
0.0
  0
LINE
  5
37B5
330
1E
100
AcDbEntity
  8
3
100
AcDbLine
 10
0.3185691479618171
 20
8.254631872109355
 30
0.0
 11
0.3185691479618171
 21
8.286127935101481
 31
0.0
  0
LINE
  5
37B6
330
1E
100
AcDbEntity
  8
3
100
AcDbLine
 10
0.3185691479618171
 20
8.286127935101481
 30
0.0
 11
0.3205376518988263
 21
8.313686990219592
 31
0.0
  0
LINE
  5
37B7
330
1E
100
AcDbEntity
  8
3
100
AcDbLine
 10
0.3166006440248097
 20
8.203450769747151
 30
0.0
 11
0.3126636361507948
 21
8.199513761873136
 31
0.0
  0
LINE
  5
37B8
330
1E
100
AcDbEntity
  8
3
100
AcDbLine
 10
0.3126636361507948
 20
8.199513761873136
 30
0.0
 11
0.3067581243397708
 21
8.197545257936129
 31
0.0
  0
LINE
  5
37B9
330
1E
100
AcDbEntity
  8
3
100
AcDbLine
 10
0.3166006440248097
 20
8.266442895731403
 30
0.0
 11
0.3146321400878023
 21
8.266442895731403
 31
0.0
  0
LINE
  5
37BA
330
1E
100
AcDbEntity
  8
3
100
AcDbLine
 10
0.3146321400878023
 20
8.266442895731403
 30
0.0
 11
0.3067581243397708
 21
8.266442895731403
 31
0.0
  0
LINE
  5
37BB
330
1E
100
AcDbEntity
  8
3
100
AcDbLine
 10
0.212269935363393
 20
8.207387777621166
 30
0.0
 11
0.2181754471744171
 21
8.199513761873136
 31
0.0
  0
LINE
  5
37BC
330
1E
100
AcDbEntity
  8
3
100
AcDbLine
 10
0.2181754471744171
 20
8.199513761873136
 30
0.0
 11
0.228017966859456
 21
8.197545257936129
 31
0.0
  0
LINE
  5
37BD
330
1E
100
AcDbEntity
  8
3
100
AcDbLine
 10
0.212269935363393
 20
8.266442895731403
 30
0.0
 11
0.2181754471744171
 21
8.266442895731403
 31
0.0
  0
LINE
  5
37BE
330
1E
100
AcDbEntity
  8
3
100
AcDbLine
 10
0.2181754471744171
 20
8.266442895731403
 30
0.0
 11
0.228017966859456
 21
8.266442895731403
 31
0.0
  0
LINE
  5
37BF
330
1E
100
AcDbEntity
  8
3
100
AcDbLine
 10
0.228017966859456
 20
8.266442895731403
 30
0.0
 11
0.228017966859456
 21
8.229041320928255
 31
0.0
  0
LINE
  5
37C0
330
1E
100
AcDbEntity
  8
3
100
AcDbLine
 10
0.228017966859456
 20
8.229041320928255
 30
0.0
 11
0.228017966859456
 21
8.197545257936129
 31
0.0
  0
LINE
  5
37C1
330
1E
100
AcDbEntity
  8
3
100
AcDbLine
 10
0.228017966859456
 20
8.197545257936129
 30
0.0
 11
0.3067581243397708
 21
8.197545257936129
 31
0.0
  0
LINE
  5
37C2
330
1E
100
AcDbEntity
  8
3
100
AcDbLine
 10
0.3067581243397708
 20
8.197545257936129
 30
0.0
 11
0.3067581243397708
 21
8.229041320928255
 31
0.0
  0
LINE
  5
37C3
330
1E
100
AcDbEntity
  8
3
100
AcDbLine
 10
0.3067581243397708
 20
8.229041320928255
 30
0.0
 11
0.3067581243397708
 21
8.266442895731403
 31
0.0
  0
LINE
  5
37C4
330
1E
100
AcDbEntity
  8
3
100
AcDbLine
 10
0.228017966859456
 20
8.382584628014866
 30
0.0
 11
0.228017966859456
 21
8.266442895731403
 31
0.0
  0
LINE
  5
37C5
330
1E
100
AcDbEntity
  8
3
100
AcDbLine
 10
0.228017966859456
 20
8.266442895731403
 30
0.0
 11
0.3067581243397708
 21
8.266442895731403
 31
0.0
  0
LINE
  5
37C6
330
1E
100
AcDbEntity
  8
3
100
AcDbLine
 10
0.3067581243397708
 20
8.266442895731403
 30
0.0
 11
0.3087266282767782
 21
8.32549801384164
 31
0.0
  0
LINE
  5
37C7
330
1E
100
AcDbEntity
  8
3
100
AcDbLine
 10
0.3087266282767782
 20
8.32549801384164
 30
0.0
 11
0.3067581243397708
 21
8.32549801384164
 31
0.0
  0
LINE
  5
37C8
330
1E
100
AcDbEntity
  8
3
100
AcDbLine
 10
0.3067581243397708
 20
8.514474391794395
 30
0.0
 11
0.3067581243397708
 21
8.522348407542425
 31
0.0
  0
LINE
  5
37C9
330
1E
100
AcDbEntity
  8
3
100
AcDbLine
 10
0.3067581243397708
 20
8.522348407542425
 30
0.0
 11
0.3067581243397708
 21
8.528253919353451
 31
0.0
  0
LINE
  5
37CA
330
1E
100
AcDbEntity
  8
3
100
AcDbLine
 10
0.3087266282767782
 20
8.512505887857388
 30
0.0
 11
0.3166006440248097
 21
8.514474391794395
 31
0.0
  0
LINE
  5
37CB
330
1E
100
AcDbEntity
  8
3
100
AcDbLine
 10
0.3166006440248097
 20
8.514474391794395
 30
0.0
 11
0.3205376518988263
 21
8.520379903605418
 31
0.0
  0
LINE
  5
37CC
330
1E
100
AcDbEntity
  8
3
100
AcDbLine
 10
0.3067581243397708
 20
8.514474391794395
 30
0.0
 11
0.2614825337885893
 21
8.522348407542425
 31
0.0
  0
LINE
  5
37CD
330
1E
100
AcDbEntity
  8
3
100
AcDbLine
 10
0.2614825337885893
 20
8.522348407542425
 30
0.0
 11
0.228017966859456
 21
8.545970454786521
 31
0.0
  0
LINE
  5
37CE
330
1E
100
AcDbEntity
  8
3
100
AcDbLine
 10
0.3067581243397708
 20
8.32549801384164
 30
0.0
 11
0.2772305652846523
 21
8.331403525652662
 31
0.0
  0
LINE
  5
37CF
330
1E
100
AcDbEntity
  8
3
100
AcDbLine
 10
0.2772305652846523
 20
8.331403525652662
 30
0.0
 11
0.249671510166543
 21
8.35108856502274
 31
0.0
  0
LINE
  5
37D0
330
1E
100
AcDbEntity
  8
3
100
AcDbLine
 10
0.249671510166543
 20
8.35108856502274
 30
0.0
 11
0.228017966859456
 21
8.382584628014866
 31
0.0
  0
LINE
  5
37D1
330
1E
100
AcDbEntity
  8
3
100
AcDbLine
 10
0.212269935363393
 20
8.439671242188095
 30
0.0
 11
0.2181754471744171
 21
8.410143683132977
 31
0.0
  0
LINE
  5
37D2
330
1E
100
AcDbEntity
  8
3
100
AcDbLine
 10
0.2181754471744171
 20
8.410143683132977
 30
0.0
 11
0.228017966859456
 21
8.382584628014866
 31
0.0
  0
LINE
  5
37D3
330
1E
100
AcDbEntity
  8
3
100
AcDbLine
 10
0.3225061558358337
 20
8.305812974471558
 30
0.0
 11
0.3225061558358337
 21
8.321561005967621
 31
0.0
  0
LINE
  5
37D4
330
1E
100
AcDbEntity
  8
3
100
AcDbLine
 10
0.3225061558358337
 20
8.321561005967621
 30
0.0
 11
0.3225061558358337
 21
8.327466517778647
 31
0.0
  0
LINE
  5
37D5
330
1E
100
AcDbEntity
  8
3
100
AcDbLine
 10
0.212269935363393
 20
8.266442895731403
 30
0.0
 11
0.212269935363393
 21
8.439671242188095
 31
0.0
  0
LINE
  5
37D6
330
1E
100
AcDbEntity
  8
3
100
AcDbLine
 10
0.212269935363393
 20
8.439671242188095
 30
0.0
 11
0.212269935363393
 21
8.549907462660536
 31
0.0
  0
LINE
  5
37D7
330
1E
100
AcDbEntity
  8
3
100
AcDbLine
 10
0.212269935363393
 20
8.061718486282584
 30
0.0
 11
0.212269935363393
 21
8.207387777621166
 31
0.0
  0
LINE
  5
37D8
330
1E
100
AcDbEntity
  8
3
100
AcDbLine
 10
0.212269935363393
 20
8.207387777621166
 30
0.0
 11
0.212269935363393
 21
8.234946832739277
 31
0.0
  0
LINE
  5
37D9
330
1E
100
AcDbEntity
  8
3
100
AcDbLine
 10
0.212269935363393
 20
8.234946832739277
 30
0.0
 11
0.212269935363393
 21
8.266442895731403
 31
0.0
  0
LINE
  5
37DA
330
1E
100
AcDbEntity
  8
3
100
AcDbLine
 10
0.2221124550484319
 20
8.691639746125103
 30
0.0
 11
0.2417974944185115
 21
8.671954706755025
 31
0.0
  0
LINE
  5
37DB
330
1E
100
AcDbEntity
  8
3
100
AcDbLine
 10
0.2417974944185115
 20
8.671954706755025
 30
0.0
 11
0.2713250534736282
 21
8.65817517919597
 31
0.0
  0
LINE
  5
37DC
330
1E
100
AcDbEntity
  8
3
100
AcDbLine
 10
0.2713250534736282
 20
8.65817517919597
 30
0.0
 11
0.3067581243397708
 21
8.654238171321955
 31
0.0
  0
LINE
  5
37DD
330
1E
100
AcDbEntity
  8
3
100
AcDbLine
 10
0.3067581243397708
 20
8.701482265810144
 30
0.0
 11
0.2555770219775653
 21
8.711324785495181
 31
0.0
  0
LINE
  5
37DE
330
1E
100
AcDbEntity
  8
3
100
AcDbLine
 10
0.2555770219775653
 20
8.711324785495181
 30
0.0
 11
0.2221124550484319
 21
8.740852344550299
 31
0.0
  0
LINE
  5
37DF
330
1E
100
AcDbEntity
  8
3
100
AcDbLine
 10
0.2221124550484319
 20
8.740852344550299
 30
0.0
 11
0.2162069432374079
 21
8.752663368172347
 31
0.0
  0
LINE
  5
37E0
330
1E
100
AcDbEntity
  8
3
100
AcDbLine
 10
0.2162069432374079
 20
8.752663368172347
 30
0.0
 11
0.212269935363393
 21
8.766442895731403
 31
0.0
  0
LINE
  5
37E1
330
1E
100
AcDbEntity
  8
3
100
AcDbLine
 10
0.212269935363393
 20
8.766442895731403
 30
0.0
 11
0.2260494629224485
 21
8.799907462660536
 31
0.0
  0
LINE
  5
37E2
330
1E
100
AcDbEntity
  8
3
100
AcDbLine
 10
0.2260494629224485
 20
8.799907462660536
 30
0.0
 11
0.2595140298515819
 21
8.823529509904632
 31
0.0
  0
LINE
  5
37E3
330
1E
100
AcDbEntity
  8
3
100
AcDbLine
 10
0.2595140298515819
 20
8.823529509904632
 30
0.0
 11
0.3067581243397708
 21
8.831403525652662
 31
0.0
  0
LINE
  5
37E4
330
1E
100
AcDbEntity
  8
3
100
AcDbLine
 10
0.3067581243397708
 20
8.701482265810144
 30
0.0
 11
0.3067581243397708
 21
8.742820848487307
 31
0.0
  0
LINE
  5
37E5
330
1E
100
AcDbEntity
  8
3
100
AcDbLine
 10
0.3067581243397708
 20
8.742820848487307
 30
0.0
 11
0.3067581243397708
 21
8.790064942975496
 31
0.0
  0
LINE
  5
37E6
330
1E
100
AcDbEntity
  8
3
100
AcDbLine
 10
0.3067581243397708
 20
8.790064942975496
 30
0.0
 11
0.3067581243397708
 21
8.831403525652662
 31
0.0
  0
LINE
  5
37E7
330
1E
100
AcDbEntity
  8
3
100
AcDbLine
 10
0.3067581243397708
 20
8.650301163447936
 30
0.0
 11
0.3067581243397708
 21
8.652269667384947
 31
0.0
  0
LINE
  5
37E8
330
1E
100
AcDbEntity
  8
3
100
AcDbLine
 10
0.3067581243397708
 20
8.652269667384947
 30
0.0
 11
0.3067581243397708
 21
8.654238171321955
 31
0.0
  0
LINE
  5
37E9
330
1E
100
AcDbEntity
  8
3
100
AcDbLine
 10
0.4327423763082745
 20
8.650301163447936
 30
0.0
 11
0.4327423763082745
 21
8.652269667384947
 31
0.0
  0
LINE
  5
37EA
330
1E
100
AcDbEntity
  8
3
100
AcDbLine
 10
0.4327423763082745
 20
8.652269667384947
 30
0.0
 11
0.4327423763082745
 21
8.654238171321955
 31
0.0
  0
LINE
  5
37EB
330
1E
100
AcDbEntity
  8
3
100
AcDbLine
 10
1.682742376308274
 20
8.650301163447936
 30
0.0
 11
1.682742376308274
 21
8.652269667384947
 31
0.0
  0
LINE
  5
37EC
330
1E
100
AcDbEntity
  8
3
100
AcDbLine
 10
1.682742376308274
 20
8.652269667384947
 30
0.0
 11
1.682742376308274
 21
8.654238171321955
 31
0.0
  0
LINE
  5
37ED
330
1E
100
AcDbEntity
  8
3
100
AcDbLine
 10
1.775262061347644
 20
8.766442895731403
 30
0.0
 11
1.763451037725596
 21
8.799907462660536
 31
0.0
  0
LINE
  5
37EE
330
1E
100
AcDbEntity
  8
3
100
AcDbLine
 10
1.763451037725596
 20
8.799907462660536
 30
0.0
 11
1.729986470796463
 21
8.823529509904632
 31
0.0
  0
LINE
  5
37EF
330
1E
100
AcDbEntity
  8
3
100
AcDbLine
 10
1.729986470796463
 20
8.823529509904632
 30
0.0
 11
1.682742376308274
 21
8.831403525652662
 31
0.0
  0
LINE
  5
37F0
330
1E
100
AcDbEntity
  8
3
100
AcDbLine
 10
1.682742376308274
 20
8.701482265810144
 30
0.0
 11
1.682742376308274
 21
8.742820848487307
 31
0.0
  0
LINE
  5
37F1
330
1E
100
AcDbEntity
  8
3
100
AcDbLine
 10
1.682742376308274
 20
8.742820848487307
 30
0.0
 11
1.682742376308274
 21
8.790064942975496
 31
0.0
  0
LINE
  5
37F2
330
1E
100
AcDbEntity
  8
3
100
AcDbLine
 10
1.682742376308274
 20
8.790064942975496
 30
0.0
 11
1.682742376308274
 21
8.831403525652662
 31
0.0
  0
LINE
  5
37F3
330
1E
100
AcDbEntity
  8
3
100
AcDbLine
 10
1.682742376308274
 20
8.701482265810144
 30
0.0
 11
1.73392347867048
 21
8.711324785495181
 31
0.0
  0
LINE
  5
37F4
330
1E
100
AcDbEntity
  8
3
100
AcDbLine
 10
1.73392347867048
 20
8.711324785495181
 30
0.0
 11
1.767388045599613
 21
8.740852344550299
 31
0.0
  0
LINE
  5
37F5
330
1E
100
AcDbEntity
  8
3
100
AcDbLine
 10
1.767388045599613
 20
8.691639746125103
 30
0.0
 11
1.747703006229533
 21
8.671954706755025
 31
0.0
  0
LINE
  5
37F6
330
1E
100
AcDbEntity
  8
3
100
AcDbLine
 10
1.747703006229533
 20
8.671954706755025
 30
0.0
 11
1.718175447174417
 21
8.65817517919597
 31
0.0
  0
LINE
  5
37F7
330
1E
100
AcDbEntity
  8
3
100
AcDbLine
 10
1.718175447174417
 20
8.65817517919597
 30
0.0
 11
1.682742376308274
 21
8.654238171321955
 31
0.0
  0
LINE
  5
37F8
330
1E
100
AcDbEntity
  8
3
100
AcDbLine
 10
0.4327423763082745
 20
8.65817517919597
 30
0.0
 11
1.55675812433977
 21
8.65817517919597
 31
0.0
  0
LINE
  5
37F9
330
1E
100
AcDbEntity
  8
3
100
AcDbLine
 10
1.55675812433977
 20
8.65817517919597
 30
0.0
 11
1.55675812433977
 21
8.654238171321955
 31
0.0
  0
LINE
  5
37FA
330
1E
100
AcDbEntity
  8
3
100
AcDbLine
 10
1.682742376308274
 20
8.701482265810144
 30
0.0
 11
0.3067581243397708
 21
8.701482265810144
 31
0.0
  0
LINE
  5
37FB
330
1E
100
AcDbEntity
  8
3
100
AcDbLine
 10
0.3067581243397708
 20
8.701482265810144
 30
0.0
 11
0.3067581243397708
 21
8.654238171321955
 31
0.0
  0
LINE
  5
37FC
330
1E
100
AcDbEntity
  8
3
100
AcDbLine
 10
0.3067581243397708
 20
8.654238171321955
 30
0.0
 11
0.4327423763082745
 21
8.654238171321955
 31
0.0
  0
LINE
  5
37FD
330
1E
100
AcDbEntity
  8
3
100
AcDbLine
 10
0.3166006440248097
 20
8.067623998093607
 30
0.0
 11
0.3166006440248097
 21
8.085340533526677
 31
0.0
  0
LINE
  5
37FE
330
1E
100
AcDbEntity
  8
3
100
AcDbLine
 10
0.3166006440248097
 20
8.085340533526677
 30
0.0
 11
0.3166006440248097
 21
8.110931084707781
 31
0.0
  0
LINE
  5
37FF
330
1E
100
AcDbEntity
  8
3
100
AcDbLine
 10
0.5666006440248097
 20
8.110931084707781
 30
0.0
 11
0.5646321400878023
 21
8.087309037463684
 31
0.0
  0
LINE
  5
3800
330
1E
100
AcDbEntity
  8
3
100
AcDbLine
 10
0.5646321400878023
 20
8.087309037463684
 30
0.0
 11
0.5646321400878023
 21
8.069592502030614
 31
0.0
  0
LINE
  5
3801
330
1E
100
AcDbEntity
  8
3
100
AcDbLine
 10
0.7870730849696912
 20
8.110931084707781
 30
0.0
 11
0.7890415889067004
 21
8.087309037463684
 31
0.0
  0
LINE
  5
3802
330
1E
100
AcDbEntity
  8
3
100
AcDbLine
 10
0.7890415889067004
 20
8.087309037463684
 30
0.0
 11
0.7890415889067004
 21
8.069592502030614
 31
0.0
  0
LINE
  5
3803
330
1E
100
AcDbEntity
  8
3
100
AcDbLine
 10
0.7890415889067004
 20
8.069592502030614
 30
0.0
 11
0.5646321400878023
 21
8.069592502030614
 31
0.0
  0
LINE
  5
3804
330
1E
100
AcDbEntity
  8
3
100
AcDbLine
 10
1.200458911741344
 20
8.110931084707781
 30
0.0
 11
1.200458911741344
 21
8.087309037463684
 31
0.0
  0
LINE
  5
3805
330
1E
100
AcDbEntity
  8
3
100
AcDbLine
 10
1.200458911741344
 20
8.087309037463684
 30
0.0
 11
1.200458911741344
 21
8.069592502030614
 31
0.0
  0
LINE
  5
3806
330
1E
100
AcDbEntity
  8
3
100
AcDbLine
 10
1.422899856623235
 20
8.110931084707781
 30
0.0
 11
1.424868360560243
 21
8.087309037463684
 31
0.0
  0
LINE
  5
3807
330
1E
100
AcDbEntity
  8
3
100
AcDbLine
 10
1.424868360560243
 20
8.087309037463684
 30
0.0
 11
1.424868360560243
 21
8.069592502030614
 31
0.0
  0
LINE
  5
3808
330
1E
100
AcDbEntity
  8
3
100
AcDbLine
 10
1.082348675520872
 20
8.213293289432192
 30
0.0
 11
0.9071518251271726
 21
8.213293289432192
 31
0.0
  0
LINE
  5
3809
330
1E
100
AcDbEntity
  8
3
100
AcDbLine
 10
0.9071518251271726
 20
8.213293289432192
 30
0.0
 11
0.9071518251271726
 21
8.209356281558173
 31
0.0
  0
LINE
  5
380A
330
1E
100
AcDbEntity
  8
3
100
AcDbLine
 10
1.670931352686228
 20
8.061718486282584
 30
0.0
 11
1.672899856623235
 21
8.067623998093607
 31
0.0
  0
LINE
  5
380B
330
1E
100
AcDbEntity
  8
3
100
AcDbLine
 10
1.672899856623235
 20
8.067623998093607
 30
0.0
 11
1.672899856623235
 21
8.085340533526677
 31
0.0
  0
LINE
  5
380C
330
1E
100
AcDbEntity
  8
3
100
AcDbLine
 10
1.672899856623235
 20
8.085340533526677
 30
0.0
 11
1.670931352686228
 21
8.110931084707781
 31
0.0
  0
LINE
  5
380D
330
1E
100
AcDbEntity
  8
3
100
AcDbLine
 10
1.668962848749218
 20
8.187702738251088
 30
0.0
 11
1.668962848749218
 21
8.156206675258962
 31
0.0
  0
LINE
  5
380E
330
1E
100
AcDbEntity
  8
3
100
AcDbLine
 10
1.668962848749218
 20
8.156206675258962
 30
0.0
 11
1.670931352686228
 21
8.110931084707781
 31
0.0
  0
LINE
  5
380F
330
1E
100
AcDbEntity
  8
3
100
AcDbLine
 10
1.672899856623235
 20
8.203450769747151
 30
0.0
 11
1.672899856623235
 21
8.061718486282584
 31
0.0
  0
LINE
  5
3810
330
1E
100
AcDbEntity
  8
3
100
AcDbLine
 10
1.672899856623235
 20
8.061718486282584
 30
0.0
 11
1.682742376308274
 21
8.061718486282584
 31
0.0
  0
LINE
  5
3811
330
1E
100
AcDbEntity
  8
3
100
AcDbLine
 10
1.759514029851581
 20
8.061718486282584
 30
0.0
 11
1.771325053473628
 21
8.061718486282584
 31
0.0
  0
LINE
  5
3812
330
1E
100
AcDbEntity
  8
3
100
AcDbLine
 10
1.771325053473628
 20
8.061718486282584
 30
0.0
 11
1.775262061347644
 21
8.061718486282584
 31
0.0
  0
LINE
  5
3813
330
1E
100
AcDbEntity
  8
3
100
AcDbLine
 10
1.735891982607487
 20
8.544001950849514
 30
0.0
 11
1.712269935363393
 21
8.532190927227466
 31
0.0
  0
LINE
  5
3814
330
1E
100
AcDbEntity
  8
3
100
AcDbLine
 10
1.712269935363393
 20
8.532190927227466
 30
0.0
 11
1.682742376308274
 21
8.528253919353451
 31
0.0
  0
LINE
  5
3815
330
1E
100
AcDbEntity
  8
3
100
AcDbLine
 10
1.670931352686228
 20
8.199513761873136
 30
0.0
 11
1.670931352686228
 21
8.205419273684158
 31
0.0
  0
LINE
  5
3816
330
1E
100
AcDbEntity
  8
3
100
AcDbLine
 10
1.670931352686228
 20
8.205419273684158
 30
0.0
 11
1.672899856623235
 21
8.227072816991244
 31
0.0
  0
LINE
  5
3817
330
1E
100
AcDbEntity
  8
3
100
AcDbLine
 10
1.672899856623235
 20
8.227072816991244
 30
0.0
 11
1.670931352686228
 21
8.254631872109355
 31
0.0
  0
LINE
  5
3818
330
1E
100
AcDbEntity
  8
3
100
AcDbLine
 10
1.670931352686228
 20
8.254631872109355
 30
0.0
 11
1.670931352686228
 21
8.286127935101481
 31
0.0
  0
LINE
  5
3819
330
1E
100
AcDbEntity
  8
3
100
AcDbLine
 10
1.670931352686228
 20
8.286127935101481
 30
0.0
 11
1.668962848749218
 21
8.313686990219592
 31
0.0
  0
LINE
  5
381A
330
1E
100
AcDbEntity
  8
3
100
AcDbLine
 10
1.670931352686228
 20
8.266442895731403
 30
0.0
 11
1.672899856623235
 21
8.232978328802269
 31
0.0
  0
LINE
  5
381B
330
1E
100
AcDbEntity
  8
3
100
AcDbLine
 10
1.672899856623235
 20
8.232978328802269
 30
0.0
 11
1.672899856623235
 21
8.203450769747151
 31
0.0
  0
LINE
  5
381C
330
1E
100
AcDbEntity
  8
3
100
AcDbLine
 10
1.672899856623235
 20
8.203450769747151
 30
0.0
 11
1.67683686449725
 21
8.199513761873136
 31
0.0
  0
LINE
  5
381D
330
1E
100
AcDbEntity
  8
3
100
AcDbLine
 10
1.67683686449725
 20
8.199513761873136
 30
0.0
 11
1.682742376308274
 21
8.197545257936129
 31
0.0
  0
LINE
  5
381E
330
1E
100
AcDbEntity
  8
3
100
AcDbLine
 10
1.670931352686228
 20
8.266442895731403
 30
0.0
 11
1.674868360560243
 21
8.266442895731403
 31
0.0
  0
LINE
  5
381F
330
1E
100
AcDbEntity
  8
3
100
AcDbLine
 10
1.674868360560243
 20
8.266442895731403
 30
0.0
 11
1.680773872371267
 21
8.266442895731403
 31
0.0
  0
LINE
  5
3820
330
1E
100
AcDbEntity
  8
3
100
AcDbLine
 10
1.775262061347644
 20
8.266442895731403
 30
0.0
 11
1.771325053473628
 21
8.266442895731403
 31
0.0
  0
LINE
  5
3821
330
1E
100
AcDbEntity
  8
3
100
AcDbLine
 10
1.771325053473628
 20
8.266442895731403
 30
0.0
 11
1.759514029851581
 21
8.266442895731403
 31
0.0
  0
LINE
  5
3822
330
1E
100
AcDbEntity
  8
3
100
AcDbLine
 10
1.759514029851581
 20
8.266442895731403
 30
0.0
 11
1.759514029851581
 21
8.229041320928255
 31
0.0
  0
LINE
  5
3823
330
1E
100
AcDbEntity
  8
3
100
AcDbLine
 10
1.759514029851581
 20
8.229041320928255
 30
0.0
 11
1.759514029851581
 21
8.197545257936129
 31
0.0
  0
LINE
  5
3824
330
1E
100
AcDbEntity
  8
3
100
AcDbLine
 10
1.682742376308274
 20
8.197545257936129
 30
0.0
 11
1.682742376308274
 21
8.229041320928255
 31
0.0
  0
LINE
  5
3825
330
1E
100
AcDbEntity
  8
3
100
AcDbLine
 10
1.682742376308274
 20
8.229041320928255
 30
0.0
 11
1.680773872371267
 21
8.266442895731403
 31
0.0
  0
LINE
  5
3826
330
1E
100
AcDbEntity
  8
3
100
AcDbLine
 10
1.680773872371267
 20
8.514474391794395
 30
0.0
 11
1.682742376308274
 21
8.514474391794395
 31
0.0
  0
LINE
  5
3827
330
1E
100
AcDbEntity
  8
3
100
AcDbLine
 10
1.682742376308274
 20
8.514474391794395
 30
0.0
 11
1.682742376308274
 21
8.522348407542425
 31
0.0
  0
LINE
  5
3828
330
1E
100
AcDbEntity
  8
3
100
AcDbLine
 10
1.682742376308274
 20
8.522348407542425
 30
0.0
 11
1.682742376308274
 21
8.528253919353451
 31
0.0
  0
LINE
  5
3829
330
1E
100
AcDbEntity
  8
3
100
AcDbLine
 10
1.678805368434259
 20
8.512505887857388
 30
0.0
 11
1.680773872371267
 21
8.514474391794395
 31
0.0
  0
LINE
  5
382A
330
1E
100
AcDbEntity
  8
3
100
AcDbLine
 10
1.680773872371267
 20
8.514474391794395
 30
0.0
 11
1.680773872371267
 21
8.522348407542425
 31
0.0
  0
LINE
  5
382B
330
1E
100
AcDbEntity
  8
3
100
AcDbLine
 10
1.680773872371267
 20
8.522348407542425
 30
0.0
 11
1.680773872371267
 21
8.528253919353451
 31
0.0
  0
LINE
  5
382C
330
1E
100
AcDbEntity
  8
3
100
AcDbLine
 10
1.680773872371267
 20
8.528253919353451
 30
0.0
 11
1.668962848749218
 21
8.520379903605418
 31
0.0
  0
LINE
  5
382D
330
1E
100
AcDbEntity
  8
3
100
AcDbLine
 10
1.678805368434259
 20
8.512505887857388
 30
0.0
 11
1.672899856623235
 21
8.514474391794395
 31
0.0
  0
LINE
  5
382E
330
1E
100
AcDbEntity
  8
3
100
AcDbLine
 10
1.672899856623235
 20
8.514474391794395
 30
0.0
 11
1.668962848749218
 21
8.520379903605418
 31
0.0
  0
LINE
  5
382F
330
1E
100
AcDbEntity
  8
3
100
AcDbLine
 10
1.775262061347644
 20
8.207387777621166
 30
0.0
 11
1.775262061347644
 21
8.234946832739277
 31
0.0
  0
LINE
  5
3830
330
1E
100
AcDbEntity
  8
3
100
AcDbLine
 10
1.775262061347644
 20
8.234946832739277
 30
0.0
 11
1.775262061347644
 21
8.266442895731403
 31
0.0
  0
LINE
  5
3831
330
1E
100
AcDbEntity
  8
3
100
AcDbLine
 10
1.767388045599613
 20
8.740852344550299
 30
0.0
 11
1.773293557410637
 21
8.752663368172347
 31
0.0
  0
LINE
  5
3832
330
1E
100
AcDbEntity
  8
3
100
AcDbLine
 10
1.773293557410637
 20
8.752663368172347
 30
0.0
 11
1.775262061347644
 21
8.766442895731403
 31
0.0
  0
LINE
  5
3833
330
1E
100
AcDbEntity
  8
3
100
AcDbLine
 10
1.775262061347644
 20
8.439671242188095
 30
0.0
 11
1.771325053473628
 21
8.410143683132977
 31
0.0
  0
LINE
  5
3834
330
1E
100
AcDbEntity
  8
3
100
AcDbLine
 10
1.771325053473628
 20
8.410143683132977
 30
0.0
 11
1.759514029851581
 21
8.382584628014866
 31
0.0
  0
LINE
  5
3835
330
1E
100
AcDbEntity
  8
3
100
AcDbLine
 10
1.682742376308274
 20
8.514474391794395
 30
0.0
 11
1.682742376308274
 21
8.32549801384164
 31
0.0
  0
LINE
  5
3836
330
1E
100
AcDbEntity
  8
3
100
AcDbLine
 10
1.682742376308274
 20
8.32549801384164
 30
0.0
 11
1.712269935363393
 21
8.331403525652662
 31
0.0
  0
LINE
  5
3837
330
1E
100
AcDbEntity
  8
3
100
AcDbLine
 10
1.712269935363393
 20
8.331403525652662
 30
0.0
 11
1.739828990481502
 21
8.35108856502274
 31
0.0
  0
LINE
  5
3838
330
1E
100
AcDbEntity
  8
3
100
AcDbLine
 10
1.739828990481502
 20
8.35108856502274
 30
0.0
 11
1.759514029851581
 21
8.382584628014866
 31
0.0
  0
LINE
  5
3839
330
1E
100
AcDbEntity
  8
3
100
AcDbLine
 10
1.682742376308274
 20
8.514474391794395
 30
0.0
 11
1.728017966859455
 21
8.522348407542425
 31
0.0
  0
LINE
  5
383A
330
1E
100
AcDbEntity
  8
3
100
AcDbLine
 10
1.728017966859455
 20
8.522348407542425
 30
0.0
 11
1.761482533788589
 21
8.545970454786521
 31
0.0
  0
LINE
  5
383B
330
1E
100
AcDbEntity
  8
3
100
AcDbLine
 10
1.665025840875204
 20
8.305812974471558
 30
0.0
 11
1.665025840875204
 21
8.321561005967621
 31
0.0
  0
LINE
  5
383C
330
1E
100
AcDbEntity
  8
3
100
AcDbLine
 10
1.665025840875204
 20
8.321561005967621
 30
0.0
 11
1.666994344812211
 21
8.327466517778647
 31
0.0
  0
LINE
  5
383D
330
1E
100
AcDbEntity
  8
3
100
AcDbLine
 10
1.666994344812211
 20
8.33337202958967
 30
0.0
 11
1.666994344812211
 21
8.329435021715655
 31
0.0
  0
LINE
  5
383E
330
1E
100
AcDbEntity
  8
3
100
AcDbLine
 10
1.666994344812211
 20
8.329435021715655
 30
0.0
 11
1.666994344812211
 21
8.327466517778647
 31
0.0
  0
LINE
  5
383F
330
1E
100
AcDbEntity
  8
3
100
AcDbLine
 10
1.775262061347644
 20
9.396364155573921
 30
0.0
 11
1.76935654953662
 21
9.396364155573921
 31
0.0
  0
LINE
  5
3840
330
1E
100
AcDbEntity
  8
3
100
AcDbLine
 10
1.76935654953662
 20
9.396364155573921
 30
0.0
 11
1.747703006229533
 21
9.396364155573921
 31
0.0
  0
LINE
  5
3841
330
1E
100
AcDbEntity
  8
3
100
AcDbLine
 10
1.747703006229533
 20
9.396364155573921
 30
0.0
 11
1.718175447174417
 21
9.396364155573921
 31
0.0
  0
LINE
  5
3842
330
1E
100
AcDbEntity
  8
3
100
AcDbLine
 10
1.718175447174417
 20
9.396364155573921
 30
0.0
 11
1.682742376308274
 21
9.396364155573921
 31
0.0
  0
LINE
  5
3843
330
1E
100
AcDbEntity
  8
3
100
AcDbLine
 10
0.212269935363393
 20
9.396364155573921
 30
0.0
 11
0.2201439511114245
 21
9.396364155573921
 31
0.0
  0
LINE
  5
3844
330
1E
100
AcDbEntity
  8
3
100
AcDbLine
 10
0.2201439511114245
 20
9.396364155573921
 30
0.0
 11
0.2398289904815023
 21
9.396364155573921
 31
0.0
  0
LINE
  5
3845
330
1E
100
AcDbEntity
  8
3
100
AcDbLine
 10
0.2398289904815023
 20
9.396364155573921
 30
0.0
 11
0.2713250534736282
 21
9.396364155573921
 31
0.0
  0
LINE
  5
3846
330
1E
100
AcDbEntity
  8
3
100
AcDbLine
 10
0.2713250534736282
 20
9.396364155573921
 30
0.0
 11
0.3067581243397708
 21
9.396364155573921
 31
0.0
  0
LINE
  5
3847
330
1E
100
AcDbEntity
  8
3
100
AcDbLine
 10
0.3067581243397708
 20
9.396364155573921
 30
0.0
 11
1.682742376308274
 21
9.396364155573921
 31
0.0
  0
LINE
  5
3848
330
1E
100
AcDbEntity
  8
3
100
AcDbLine
 10
1.800852612528746
 20
10.78219092722746
 30
0.0
 11
1.800852612528746
 21
10.79597045478652
 31
0.0
  0
LINE
  5
3849
330
1E
100
AcDbEntity
  8
3
100
AcDbLine
 10
1.800852612528746
 20
10.79597045478652
 30
0.0
 11
1.800852612528746
 21
10.80187596659754
 31
0.0
  0
LINE
  5
384A
330
1E
100
AcDbEntity
  8
3
100
AcDbLine
 10
1.873687258198037
 20
10.71132478549518
 30
0.0
 11
1.887466785757093
 21
10.71132478549518
 31
0.0
  0
LINE
  5
384B
330
1E
100
AcDbEntity
  8
3
100
AcDbLine
 10
1.887466785757093
 20
10.71132478549518
 30
0.0
 11
1.893372297568117
 21
10.71132478549518
 31
0.0
  0
LINE
  5
384C
330
1E
100
AcDbEntity
  8
3
100
AcDbLine
 10
1.873687258198037
 20
8.047938958723529
 30
0.0
 11
1.887466785757093
 21
8.047938958723529
 31
0.0
  0
LINE
  5
384D
330
1E
100
AcDbEntity
  8
3
100
AcDbLine
 10
1.887466785757093
 20
8.047938958723529
 30
0.0
 11
1.893372297568117
 21
8.047938958723529
 31
0.0
  0
LINE
  5
384E
330
1E
100
AcDbEntity
  8
3
100
AcDbLine
 10
1.800852612528746
 20
7.975104313054236
 30
0.0
 11
1.800852612528746
 21
7.961324785495181
 31
0.0
  0
LINE
  5
384F
330
1E
100
AcDbEntity
  8
3
100
AcDbLine
 10
1.800852612528746
 20
7.961324785495181
 30
0.0
 11
1.800852612528746
 21
7.955419273684158
 31
0.0
  0
LINE
  5
3850
330
1E
100
AcDbEntity
  8
3
100
AcDbLine
 10
0.1866793841822911
 20
10.80187596659754
 30
0.0
 11
0.1866793841822911
 21
10.79597045478652
 31
0.0
  0
LINE
  5
3851
330
1E
100
AcDbEntity
  8
3
100
AcDbLine
 10
0.1866793841822911
 20
10.79597045478652
 30
0.0
 11
0.1866793841822911
 21
10.78219092722746
 31
0.0
  0
LINE
  5
3852
330
1E
100
AcDbEntity
  8
3
100
AcDbLine
 10
0.0961282030799282
 20
10.71132478549518
 30
0.0
 11
0.1020337148909522
 21
10.71132478549518
 31
0.0
  0
LINE
  5
3853
330
1E
100
AcDbEntity
  8
3
100
AcDbLine
 10
0.1020337148909522
 20
10.71132478549518
 30
0.0
 11
0.115813242450006
 21
10.71132478549518
 31
0.0
  0
LINE
  5
3854
330
1E
100
AcDbEntity
  8
3
100
AcDbLine
 10
0.0961282030799282
 20
8.047938958723529
 30
0.0
 11
0.1020337148909522
 21
8.047938958723529
 31
0.0
  0
LINE
  5
3855
330
1E
100
AcDbEntity
  8
3
100
AcDbLine
 10
0.1020337148909522
 20
8.047938958723529
 30
0.0
 11
0.115813242450006
 21
8.047938958723529
 31
0.0
  0
LINE
  5
3856
330
1E
100
AcDbEntity
  8
3
100
AcDbLine
 10
0.1866793841822911
 20
7.955419273684158
 30
0.0
 11
0.1866793841822911
 21
7.961324785495181
 31
0.0
  0
LINE
  5
3857
330
1E
100
AcDbEntity
  8
3
100
AcDbLine
 10
0.1866793841822911
 20
7.961324785495181
 30
0.0
 11
0.1866793841822911
 21
7.975104313054236
 31
0.0
  0
LINE
  5
3858
330
1E
100
AcDbEntity
  8
3
100
AcDbLine
 10
1.865813242450006
 20
10.77628541541644
 30
0.0
 11
1.885498281820085
 21
10.74675785636132
 31
0.0
  0
LINE
  5
3859
330
1E
100
AcDbEntity
  8
3
100
AcDbLine
 10
1.885498281820085
 20
10.74675785636132
 30
0.0
 11
1.893372297568117
 21
10.71132478549518
 31
0.0
  0
LINE
  5
385A
330
1E
100
AcDbEntity
  8
3
100
AcDbLine
 10
1.800852612528746
 20
10.80187596659754
 30
0.0
 11
1.836285683394889
 21
10.79597045478652
 31
0.0
  0
LINE
  5
385B
330
1E
100
AcDbEntity
  8
3
100
AcDbLine
 10
1.836285683394889
 20
10.79597045478652
 30
0.0
 11
1.865813242450006
 21
10.77628541541644
 31
0.0
  0
LINE
  5
385C
330
1E
100
AcDbEntity
  8
3
100
AcDbLine
 10
1.893372297568117
 20
8.045970454786521
 30
0.0
 11
1.893372297568117
 21
8.047938958723529
 31
0.0
  0
LINE
  5
385D
330
1E
100
AcDbEntity
  8
3
100
AcDbLine
 10
1.893372297568117
 20
8.047938958723529
 30
0.0
 11
1.885498281820085
 21
8.012505887857388
 31
0.0
  0
LINE
  5
385E
330
1E
100
AcDbEntity
  8
3
100
AcDbLine
 10
1.885498281820085
 20
8.012505887857388
 30
0.0
 11
1.865813242450006
 21
7.982978328802269
 31
0.0
  0
LINE
  5
385F
330
1E
100
AcDbEntity
  8
3
100
AcDbLine
 10
1.865813242450006
 20
7.982978328802269
 30
0.0
 11
1.836285683394889
 21
7.963293289432192
 31
0.0
  0
LINE
  5
3860
330
1E
100
AcDbEntity
  8
3
100
AcDbLine
 10
1.836285683394889
 20
7.963293289432192
 30
0.0
 11
1.800852612528746
 21
7.955419273684158
 31
0.0
  0
LINE
  5
3861
330
1E
100
AcDbEntity
  8
3
100
AcDbLine
 10
1.893372297568117
 20
10.71132478549518
 30
0.0
 11
1.887466785757093
 21
10.74675785636132
 31
0.0
  0
LINE
  5
3862
330
1E
100
AcDbEntity
  8
3
100
AcDbLine
 10
1.887466785757093
 20
10.74675785636132
 30
0.0
 11
1.867781746387015
 21
10.77628541541644
 31
0.0
  0
LINE
  5
3863
330
1E
100
AcDbEntity
  8
3
100
AcDbLine
 10
1.867781746387015
 20
10.77628541541644
 30
0.0
 11
1.836285683394889
 21
10.79597045478652
 31
0.0
  0
LINE
  5
3864
330
1E
100
AcDbEntity
  8
3
100
AcDbLine
 10
1.802821116465754
 20
7.955419273684158
 30
0.0
 11
1.836285683394889
 21
7.961324785495181
 31
0.0
  0
LINE
  5
3865
330
1E
100
AcDbEntity
  8
3
100
AcDbLine
 10
1.836285683394889
 20
7.961324785495181
 30
0.0
 11
1.867781746387015
 21
7.982978328802269
 31
0.0
  0
LINE
  5
3866
330
1E
100
AcDbEntity
  8
3
100
AcDbLine
 10
1.867781746387015
 20
7.982978328802269
 30
0.0
 11
1.887466785757093
 21
8.012505887857388
 31
0.0
  0
LINE
  5
3867
330
1E
100
AcDbEntity
  8
3
100
AcDbLine
 10
1.887466785757093
 20
8.012505887857388
 30
0.0
 11
1.893372297568117
 21
8.045970454786521
 31
0.0
  0
LINE
  5
3868
330
1E
100
AcDbEntity
  8
3
100
AcDbLine
 10
0.0961282030799282
 20
10.71132478549518
 30
0.0
 11
0.1040022188279597
 21
10.74675785636132
 31
0.0
  0
LINE
  5
3869
330
1E
100
AcDbEntity
  8
3
100
AcDbLine
 10
0.1040022188279597
 20
10.74675785636132
 30
0.0
 11
0.1236872581980375
 21
10.77628541541644
 31
0.0
  0
LINE
  5
386A
330
1E
100
AcDbEntity
  8
3
100
AcDbLine
 10
0.1236872581980375
 20
10.77628541541644
 30
0.0
 11
0.153214817253156
 21
10.79597045478652
 31
0.0
  0
LINE
  5
386B
330
1E
100
AcDbEntity
  8
3
100
AcDbLine
 10
0.153214817253156
 20
10.79597045478652
 30
0.0
 11
0.1866793841822911
 21
10.80187596659754
 31
0.0
  0
LINE
  5
386C
330
1E
100
AcDbEntity
  8
3
100
AcDbLine
 10
0.1866793841822911
 20
7.955419273684158
 30
0.0
 11
0.153214817253156
 21
7.963293289432192
 31
0.0
  0
LINE
  5
386D
330
1E
100
AcDbEntity
  8
3
100
AcDbLine
 10
0.153214817253156
 20
7.963293289432192
 30
0.0
 11
0.1236872581980375
 21
7.982978328802269
 31
0.0
  0
LINE
  5
386E
330
1E
100
AcDbEntity
  8
3
100
AcDbLine
 10
0.1236872581980375
 20
7.982978328802269
 30
0.0
 11
0.1040022188279597
 21
8.012505887857388
 31
0.0
  0
LINE
  5
386F
330
1E
100
AcDbEntity
  8
3
100
AcDbLine
 10
0.1040022188279597
 20
8.012505887857388
 30
0.0
 11
0.0961282030799282
 21
8.047938958723529
 31
0.0
  0
LINE
  5
3870
330
1E
100
AcDbEntity
  8
3
100
AcDbLine
 10
0.0961282030799282
 20
8.045970454786521
 30
0.0
 11
0.1020337148909522
 21
8.012505887857388
 31
0.0
  0
LINE
  5
3871
330
1E
100
AcDbEntity
  8
3
100
AcDbLine
 10
0.1020337148909522
 20
8.012505887857388
 30
0.0
 11
0.1217187542610301
 21
7.982978328802269
 31
0.0
  0
LINE
  5
3872
330
1E
100
AcDbEntity
  8
3
100
AcDbLine
 10
0.1217187542610301
 20
7.982978328802269
 30
0.0
 11
0.1512463133161486
 21
7.961324785495181
 31
0.0
  0
LINE
  5
3873
330
1E
100
AcDbEntity
  8
3
100
AcDbLine
 10
0.1866793841822911
 20
10.80384447053455
 30
0.0
 11
0.1512463133161486
 21
10.79597045478652
 31
0.0
  0
LINE
  5
3874
330
1E
100
AcDbEntity
  8
3
100
AcDbLine
 10
0.1512463133161486
 20
10.79597045478652
 30
0.0
 11
0.1217187542610301
 21
10.77628541541644
 31
0.0
  0
LINE
  5
3875
330
1E
100
AcDbEntity
  8
3
100
AcDbLine
 10
0.1217187542610301
 20
10.77628541541644
 30
0.0
 11
0.1020337148909522
 21
10.74675785636132
 31
0.0
  0
LINE
  5
3876
330
1E
100
AcDbEntity
  8
3
100
AcDbLine
 10
0.1020337148909522
 20
10.74675785636132
 30
0.0
 11
0.0961282030799282
 21
10.71132478549518
 31
0.0
  0
LINE
  5
3877
330
1E
100
AcDbEntity
  8
3
100
AcDbLine
 10
1.7890415889067
 20
8.654238171321955
 30
0.0
 11
1.832348675520872
 21
8.654238171321955
 31
0.0
  0
LINE
  5
3878
330
1E
100
AcDbEntity
  8
3
100
AcDbLine
 10
1.832348675520872
 20
8.654238171321955
 30
0.0
 11
1.840222691268904
 21
8.662112187069984
 31
0.0
  0
LINE
  5
3879
330
1E
100
AcDbEntity
  8
3
100
AcDbLine
 10
1.832348675520872
 20
8.801875966597544
 30
0.0
 11
1.7890415889067
 21
8.801875966597544
 31
0.0
  0
LINE
  5
387A
330
1E
100
AcDbEntity
  8
3
100
AcDbLine
 10
1.7890415889067
 20
8.801875966597544
 30
0.0
 11
1.781167573158668
 21
8.811718486282584
 31
0.0
  0
LINE
  5
387B
330
1E
100
AcDbEntity
  8
3
100
AcDbLine
 10
1.840222691268904
 20
8.662112187069984
 30
0.0
 11
1.840222691268904
 21
8.794001950849514
 31
0.0
  0
LINE
  5
387C
330
1E
100
AcDbEntity
  8
3
100
AcDbLine
 10
1.840222691268904
 20
8.794001950849514
 30
0.0
 11
1.832348675520872
 21
8.801875966597544
 31
0.0
  0
LINE
  5
387D
330
1E
100
AcDbEntity
  8
3
100
AcDbLine
 10
0.2083329274893764
 20
8.811718486282584
 30
0.0
 11
0.2004589117413449
 21
8.801875966597544
 31
0.0
  0
LINE
  5
387E
330
1E
100
AcDbEntity
  8
3
100
AcDbLine
 10
0.2004589117413449
 20
8.801875966597544
 30
0.0
 11
0.1571518251271726
 21
8.801875966597544
 31
0.0
  0
LINE
  5
387F
330
1E
100
AcDbEntity
  8
3
100
AcDbLine
 10
0.1571518251271726
 20
8.801875966597544
 30
0.0
 11
0.1473093054421337
 21
8.794001950849514
 31
0.0
  0
LINE
  5
3880
330
1E
100
AcDbEntity
  8
3
100
AcDbLine
 10
0.1473093054421337
 20
8.794001950849514
 30
0.0
 11
0.1473093054421337
 21
8.662112187069984
 31
0.0
  0
LINE
  5
3881
330
1E
100
AcDbEntity
  8
3
100
AcDbLine
 10
0.1473093054421337
 20
8.662112187069984
 30
0.0
 11
0.1571518251271726
 21
8.654238171321955
 31
0.0
  0
LINE
  5
3882
330
1E
100
AcDbEntity
  8
3
100
AcDbLine
 10
0.1571518251271726
 20
8.654238171321955
 30
0.0
 11
0.2004589117413449
 21
8.654238171321955
 31
0.0
  0
LINE
  5
3883
330
1E
100
AcDbEntity
  8
3
100
AcDbLine
 10
1.781167573158668
 20
8.921954706755025
 30
0.0
 11
1.781167573158668
 21
8.811718486282584
 31
0.0
  0
LINE
  5
3884
330
1E
100
AcDbEntity
  8
3
100
AcDbLine
 10
1.781167573158668
 20
8.811718486282584
 30
0.0
 11
1.783136077095676
 21
8.817623998093607
 31
0.0
  0
LINE
  5
3885
330
1E
100
AcDbEntity
  8
3
100
AcDbLine
 10
1.720143951111424
 20
8.061718486282584
 30
0.0
 11
1.720143951111424
 21
8.057781478408569
 31
0.0
  0
LINE
  5
3886
330
1E
100
AcDbEntity
  8
3
100
AcDbLine
 10
1.720143951111424
 20
8.057781478408569
 30
0.0
 11
1.720143951111424
 21
8.055812974471558
 31
0.0
  0
LINE
  5
3887
330
1E
100
AcDbEntity
  8
3
100
AcDbLine
 10
0.2693565495366208
 20
8.061718486282584
 30
0.0
 11
0.2693565495366208
 21
8.057781478408569
 31
0.0
  0
LINE
  5
3888
330
1E
100
AcDbEntity
  8
3
100
AcDbLine
 10
0.2693565495366208
 20
8.057781478408569
 30
0.0
 11
0.2673880455996134
 21
8.055812974471558
 31
0.0
  0
LINE
  5
3889
330
1E
100
AcDbEntity
  8
3
100
AcDbLine
 10
0.212269935363393
 20
8.534159431164473
 30
0.0
 11
0.2083329274893764
 21
8.534159431164473
 31
0.0
  0
LINE
  5
388A
330
1E
100
AcDbEntity
  8
3
100
AcDbLine
 10
0.2083329274893764
 20
8.534159431164473
 30
0.0
 11
0.2083329274893764
 21
8.055812974471558
 31
0.0
  0
LINE
  5
388B
330
1E
100
AcDbEntity
  8
3
100
AcDbLine
 10
0.2083329274893764
 20
8.055812974471558
 30
0.0
 11
0.2673880455996134
 21
8.055812974471558
 31
0.0
  0
LINE
  5
388C
330
1E
100
AcDbEntity
  8
3
100
AcDbLine
 10
0.2673880455996134
 20
9.400301163447936
 30
0.0
 11
0.2083329274893764
 21
9.400301163447936
 31
0.0
  0
LINE
  5
388D
330
1E
100
AcDbEntity
  8
3
100
AcDbLine
 10
0.2083329274893764
 20
9.400301163447936
 30
0.0
 11
0.2083329274893764
 21
8.921954706755025
 31
0.0
  0
LINE
  5
388E
330
1E
100
AcDbEntity
  8
3
100
AcDbLine
 10
1.7142384393004
 20
10.67589171462903
 30
0.0
 11
1.7142384393004
 21
10.33730903746368
 31
0.0
  0
LINE
  5
388F
330
1E
100
AcDbEntity
  8
3
100
AcDbLine
 10
1.7142384393004
 20
10.33730903746368
 30
0.0
 11
1.716206943237407
 21
10.33534053352667
 31
0.0
  0
LINE
  5
3890
330
1E
100
AcDbEntity
  8
3
100
AcDbLine
 10
1.661088833001187
 20
10.68376573037707
 30
0.0
 11
1.665025840875204
 21
10.68573423431408
 31
0.0
  0
LINE
  5
3891
330
1E
100
AcDbEntity
  8
3
100
AcDbLine
 10
1.665025840875204
 20
10.68573423431408
 30
0.0
 11
1.704395919615361
 21
10.68573423431408
 31
0.0
  0
LINE
  5
3892
330
1E
100
AcDbEntity
  8
3
100
AcDbLine
 10
1.704395919615361
 20
10.68573423431408
 30
0.0
 11
1.706364423552368
 21
10.68573423431408
 31
0.0
  0
LINE
  5
3893
330
1E
100
AcDbEntity
  8
3
100
AcDbLine
 10
0.2831360770956763
 20
10.68573423431408
 30
0.0
 11
0.3244746597728412
 21
10.68573423431408
 31
0.0
  0
LINE
  5
3894
330
1E
100
AcDbEntity
  8
3
100
AcDbLine
 10
0.3244746597728412
 20
10.68573423431408
 30
0.0
 11
0.3284116676468578
 21
10.68376573037707
 31
0.0
  0
LINE
  5
3895
330
1E
100
AcDbEntity
  8
3
100
AcDbLine
 10
1.706364423552368
 20
10.32549801384164
 30
0.0
 11
1.704395919615361
 21
10.32549801384164
 31
0.0
  0
LINE
  5
3896
330
1E
100
AcDbEntity
  8
3
100
AcDbLine
 10
1.704395919615361
 20
10.32549801384164
 30
0.0
 11
1.665025840875204
 21
10.32549801384164
 31
0.0
  0
LINE
  5
3897
330
1E
100
AcDbEntity
  8
3
100
AcDbLine
 10
1.665025840875204
 20
10.32549801384164
 30
0.0
 11
1.661088833001187
 21
10.32746651777864
 31
0.0
  0
LINE
  5
3898
330
1E
100
AcDbEntity
  8
3
100
AcDbLine
 10
1.153214817253155
 20
10.80384447053455
 30
0.0
 11
1.147309305442133
 21
10.79597045478652
 31
0.0
  0
LINE
  5
3899
330
1E
100
AcDbEntity
  8
3
100
AcDbLine
 10
1.147309305442133
 20
10.79597045478652
 30
0.0
 11
1.147309305442133
 21
10.78022242329045
 31
0.0
  0
LINE
  5
389A
330
1E
100
AcDbEntity
  8
3
100
AcDbLine
 10
1.147309305442133
 20
10.78022242329045
 30
0.0
 11
1.155183321190165
 21
10.77628541541644
 31
0.0
  0
LINE
  5
389B
330
1E
100
AcDbEntity
  8
3
100
AcDbLine
 10
1.155183321190165
 20
10.78219092722746
 30
0.0
 11
1.155183321190165
 21
10.79597045478652
 31
0.0
  0
LINE
  5
389C
330
1E
100
AcDbEntity
  8
3
100
AcDbLine
 10
1.155183321190165
 20
10.79597045478652
 30
0.0
 11
1.155183321190165
 21
10.80187596659754
 31
0.0
  0
LINE
  5
389D
330
1E
100
AcDbEntity
  8
3
100
AcDbLine
 10
0.8421911952059115
 20
10.78022242329045
 30
0.0
 11
0.8421911952059115
 21
10.79597045478652
 31
0.0
  0
LINE
  5
389E
330
1E
100
AcDbEntity
  8
3
100
AcDbLine
 10
0.8421911952059115
 20
10.79597045478652
 30
0.0
 11
0.83431717945788
 21
10.80384447053455
 31
0.0
  0
LINE
  5
389F
330
1E
100
AcDbEntity
  8
3
100
AcDbLine
 10
1.147309305442133
 20
7.979041320928255
 30
0.0
 11
1.147309305442133
 21
7.961324785495181
 31
0.0
  0
LINE
  5
38A0
330
1E
100
AcDbEntity
  8
3
100
AcDbLine
 10
1.147309305442133
 20
7.961324785495181
 30
0.0
 11
1.153214817253155
 21
7.955419273684158
 31
0.0
  0
LINE
  5
38A1
330
1E
100
AcDbEntity
  8
3
100
AcDbLine
 10
1.155183321190165
 20
7.955419273684158
 30
0.0
 11
1.155183321190165
 21
7.961324785495181
 31
0.0
  0
LINE
  5
38A2
330
1E
100
AcDbEntity
  8
3
100
AcDbLine
 10
1.155183321190165
 20
7.961324785495181
 30
0.0
 11
1.155183321190165
 21
7.975104313054236
 31
0.0
  0
LINE
  5
38A3
330
1E
100
AcDbEntity
  8
3
100
AcDbLine
 10
0.8323486755208726
 20
7.975104313054236
 30
0.0
 11
0.8323486755208726
 21
7.961324785495181
 31
0.0
  0
LINE
  5
38A4
330
1E
100
AcDbEntity
  8
3
100
AcDbLine
 10
0.8323486755208726
 20
7.961324785495181
 30
0.0
 11
0.83431717945788
 21
7.955419273684158
 31
0.0
  0
LINE
  5
38A5
330
1E
100
AcDbEntity
  8
3
100
AcDbLine
 10
0.83431717945788
 20
7.955419273684158
 30
0.0
 11
0.8421911952059115
 21
7.961324785495181
 31
0.0
  0
LINE
  5
38A6
330
1E
100
AcDbEntity
  8
3
100
AcDbLine
 10
0.8421911952059115
 20
7.961324785495181
 30
0.0
 11
0.8421911952059115
 21
7.979041320928255
 31
0.0
  0
LINE
  5
38A7
330
1E
100
AcDbEntity
  8
3
100
AcDbLine
 10
0.8421911952059115
 20
7.979041320928255
 30
0.0
 11
0.8323486755208726
 21
7.982978328802269
 31
0.0
  0
LINE
  5
38A8
330
1E
100
AcDbEntity
  8
3
100
AcDbLine
 10
1.155183321190165
 20
7.975104313054236
 30
0.0
 11
1.800852612528746
 21
7.975104313054236
 31
0.0
  0
LINE
  5
38A9
330
1E
100
AcDbEntity
  8
3
100
AcDbLine
 10
1.800852612528746
 20
7.975104313054236
 30
0.0
 11
1.836285683394889
 21
7.984946832739277
 31
0.0
  0
LINE
  5
38AA
330
1E
100
AcDbEntity
  8
3
100
AcDbLine
 10
1.836285683394889
 20
7.984946832739277
 30
0.0
 11
1.863844738512998
 21
8.012505887857388
 31
0.0
  0
LINE
  5
38AB
330
1E
100
AcDbEntity
  8
3
100
AcDbLine
 10
1.863844738512998
 20
8.012505887857388
 30
0.0
 11
1.873687258198037
 21
8.047938958723529
 31
0.0
  0
LINE
  5
38AC
330
1E
100
AcDbEntity
  8
3
100
AcDbLine
 10
1.873687258198037
 20
8.047938958723529
 30
0.0
 11
1.873687258198037
 21
10.71132478549518
 31
0.0
  0
LINE
  5
38AD
330
1E
100
AcDbEntity
  8
3
100
AcDbLine
 10
0.8323486755208726
 20
10.78219092722746
 30
0.0
 11
0.1866793841822911
 21
10.78219092722746
 31
0.0
  0
LINE
  5
38AE
330
1E
100
AcDbEntity
  8
3
100
AcDbLine
 10
0.1866793841822911
 20
10.78219092722746
 30
0.0
 11
0.1512463133161486
 21
10.77234840754242
 31
0.0
  0
LINE
  5
38AF
330
1E
100
AcDbEntity
  8
3
100
AcDbLine
 10
0.1512463133161486
 20
10.77234840754242
 30
0.0
 11
0.1256557621350467
 21
10.74675785636132
 31
0.0
  0
LINE
  5
38B0
330
1E
100
AcDbEntity
  8
3
100
AcDbLine
 10
0.1256557621350467
 20
10.74675785636132
 30
0.0
 11
0.115813242450006
 21
10.71132478549518
 31
0.0
  0
LINE
  5
38B1
330
1E
100
AcDbEntity
  8
3
100
AcDbLine
 10
0.115813242450006
 20
10.71132478549518
 30
0.0
 11
0.115813242450006
 21
8.047938958723529
 31
0.0
  0
LINE
  5
38B2
330
1E
100
AcDbEntity
  8
3
100
AcDbLine
 10
0.115813242450006
 20
8.047938958723529
 30
0.0
 11
0.1256557621350467
 21
8.012505887857388
 31
0.0
  0
LINE
  5
38B3
330
1E
100
AcDbEntity
  8
3
100
AcDbLine
 10
0.1256557621350467
 20
8.012505887857388
 30
0.0
 11
0.1512463133161486
 21
7.984946832739277
 31
0.0
  0
LINE
  5
38B4
330
1E
100
AcDbEntity
  8
3
100
AcDbLine
 10
0.1512463133161486
 20
7.984946832739277
 30
0.0
 11
0.1866793841822911
 21
7.975104313054236
 31
0.0
  0
LINE
  5
38B5
330
1E
100
AcDbEntity
  8
3
100
AcDbLine
 10
0.1866793841822911
 20
7.975104313054236
 30
0.0
 11
0.8323486755208726
 21
7.975104313054236
 31
0.0
  0
LINE
  5
38B6
330
1E
100
AcDbEntity
  8
3
100
AcDbLine
 10
1.873687258198037
 20
10.71132478549518
 30
0.0
 11
1.863844738512998
 21
10.74675785636132
 31
0.0
  0
LINE
  5
38B7
330
1E
100
AcDbEntity
  8
3
100
AcDbLine
 10
1.863844738512998
 20
10.74675785636132
 30
0.0
 11
1.836285683394889
 21
10.77234840754242
 31
0.0
  0
LINE
  5
38B8
330
1E
100
AcDbEntity
  8
3
100
AcDbLine
 10
1.836285683394889
 20
10.77234840754242
 30
0.0
 11
1.800852612528746
 21
10.78219092722746
 31
0.0
  0
LINE
  5
38B9
330
1E
100
AcDbEntity
  8
3
100
AcDbLine
 10
1.800852612528746
 20
10.78219092722746
 30
0.0
 11
1.155183321190165
 21
10.78219092722746
 31
0.0
  0
LINE
  5
38BA
330
1E
100
AcDbEntity
  8
3
100
AcDbLine
 10
1.783136077095676
 20
8.555812974471558
 30
0.0
 11
1.783136077095676
 21
8.051875966597544
 31
0.0
  0
LINE
  5
38BB
330
1E
100
AcDbEntity
  8
3
100
AcDbLine
 10
1.783136077095676
 20
8.051875966597544
 30
0.0
 11
0.2043959196153615
 21
8.051875966597544
 31
0.0
  0
LINE
  5
38BC
330
1E
100
AcDbEntity
  8
3
100
AcDbLine
 10
1.783136077095676
 20
9.404238171321955
 30
0.0
 11
1.783136077095676
 21
8.817623998093607
 31
0.0
  0
LINE
  5
38BD
330
1E
100
AcDbEntity
  8
3
100
AcDbLine
 10
1.783136077095676
 20
8.817623998093607
 30
0.0
 11
1.792978596780715
 21
8.809749982345577
 31
0.0
  0
LINE
  5
38BE
330
1E
100
AcDbEntity
  8
3
100
AcDbLine
 10
0.2831360770956763
 20
10.32549801384164
 30
0.0
 11
0.2732935574106374
 21
10.33534053352667
 31
0.0
  0
LINE
  5
38BF
330
1E
100
AcDbEntity
  8
3
100
AcDbLine
 10
0.2732935574106374
 20
10.33534053352667
 30
0.0
 11
0.2732935574106374
 21
10.67589171462903
 31
0.0
  0
LINE
  5
38C0
330
1E
100
AcDbEntity
  8
3
100
AcDbLine
 10
0.2732935574106374
 20
10.67589171462903
 30
0.0
 11
0.2831360770956763
 21
10.68573423431408
 31
0.0
  0
LINE
  5
38C1
330
1E
100
AcDbEntity
  8
3
100
AcDbLine
 10
0.2831360770956763
 20
10.68573423431408
 30
0.0
 11
1.706364423552368
 21
10.68573423431408
 31
0.0
  0
LINE
  5
38C2
330
1E
100
AcDbEntity
  8
3
100
AcDbLine
 10
1.706364423552368
 20
10.68573423431408
 30
0.0
 11
1.716206943237407
 21
10.67589171462903
 31
0.0
  0
LINE
  5
38C3
330
1E
100
AcDbEntity
  8
3
100
AcDbLine
 10
1.716206943237407
 20
10.67589171462903
 30
0.0
 11
1.716206943237407
 21
10.33534053352667
 31
0.0
  0
LINE
  5
38C4
330
1E
100
AcDbEntity
  8
3
100
AcDbLine
 10
1.716206943237407
 20
10.33534053352667
 30
0.0
 11
1.706364423552368
 21
10.32549801384164
 31
0.0
  0
LINE
  5
38C5
330
1E
100
AcDbEntity
  8
3
100
AcDbLine
 10
1.706364423552368
 20
10.32549801384164
 30
0.0
 11
0.2831360770956763
 21
10.32549801384164
 31
0.0
  0
LINE
  5
38C6
330
1E
100
AcDbEntity
  8
3
100
AcDbLine
 10
0.2831360770956763
 20
9.394395651636914
 30
0.0
 11
0.2831360770956763
 21
9.396364155573921
 31
0.0
  0
LINE
  5
38C7
330
1E
100
AcDbEntity
  8
3
100
AcDbLine
 10
0.2831360770956763
 20
9.396364155573921
 30
0.0
 11
0.2811675731586689
 21
9.398332659510929
 31
0.0
  0
LINE
  5
38C8
330
1E
100
AcDbEntity
  8
3
100
AcDbLine
 10
1.708332927489376
 20
9.398332659510929
 30
0.0
 11
1.706364423552368
 21
9.396364155573921
 31
0.0
  0
LINE
  5
38C9
330
1E
100
AcDbEntity
  8
3
100
AcDbLine
 10
1.706364423552368
 20
9.396364155573921
 30
0.0
 11
1.706364423552368
 21
9.394395651636914
 31
0.0
  0
LINE
  5
38CA
330
1E
100
AcDbEntity
  8
3
100
AcDbLine
 10
0.1827423763082745
 20
7.892427147699907
 30
0.0
 11
0.1827423763082745
 21
7.878647620140851
 31
0.0
  0
LINE
  5
38CB
330
1E
100
AcDbEntity
  8
3
100
AcDbLine
 10
0.1827423763082745
 20
7.878647620140851
 30
0.0
 11
0.1827423763082745
 21
7.872742108329829
 31
0.0
  0
LINE
  5
38CC
330
1E
100
AcDbEntity
  8
3
100
AcDbLine
 10
1.80675812433977
 20
7.872742108329829
 30
0.0
 11
1.80675812433977
 21
7.878647620140851
 31
0.0
  0
LINE
  5
38CD
330
1E
100
AcDbEntity
  8
3
100
AcDbLine
 10
1.80675812433977
 20
7.878647620140851
 30
0.0
 11
1.80675812433977
 21
7.892427147699907
 31
0.0
  0
LINE
  5
38CE
330
1E
100
AcDbEntity
  8
3
100
AcDbLine
 10
0.0331360770956764
 20
8.042033446912506
 30
0.0
 11
0.0193565495366208
 21
8.042033446912506
 31
0.0
  0
LINE
  5
38CF
330
1E
100
AcDbEntity
  8
3
100
AcDbLine
 10
0.0193565495366208
 20
8.042033446912506
 30
0.0
 11
0.0134510377255985
 21
8.042033446912506
 31
0.0
  0
LINE
  5
38D0
330
1E
100
AcDbEntity
  8
3
100
AcDbLine
 10
1.976049462922448
 20
8.042033446912506
 30
0.0
 11
1.970143951111424
 21
8.042033446912506
 31
0.0
  0
LINE
  5
38D1
330
1E
100
AcDbEntity
  8
3
100
AcDbLine
 10
1.970143951111424
 20
8.042033446912506
 30
0.0
 11
1.956364423552368
 21
8.042033446912506
 31
0.0
  0
LINE
  5
38D2
330
1E
100
AcDbEntity
  8
3
100
AcDbLine
 10
0.0331360770956764
 20
10.71526179336919
 30
0.0
 11
0.0193565495366208
 21
10.71526179336919
 31
0.0
  0
LINE
  5
38D3
330
1E
100
AcDbEntity
  8
3
100
AcDbLine
 10
0.0193565495366208
 20
10.71526179336919
 30
0.0
 11
0.0134510377255985
 21
10.71526179336919
 31
0.0
  0
LINE
  5
38D4
330
1E
100
AcDbEntity
  8
3
100
AcDbLine
 10
1.976049462922448
 20
10.71526179336919
 30
0.0
 11
1.970143951111424
 21
10.71526179336919
 31
0.0
  0
LINE
  5
38D5
330
1E
100
AcDbEntity
  8
3
100
AcDbLine
 10
1.970143951111424
 20
10.71526179336919
 30
0.0
 11
1.956364423552368
 21
10.71526179336919
 31
0.0
  0
LINE
  5
38D6
330
1E
100
AcDbEntity
  8
3
100
AcDbLine
 10
1.80675812433977
 20
10.88652163588888
 30
0.0
 11
1.80675812433977
 21
10.88061612407785
 31
0.0
  0
LINE
  5
38D7
330
1E
100
AcDbEntity
  8
3
100
AcDbLine
 10
1.80675812433977
 20
10.88061612407785
 30
0.0
 11
1.80675812433977
 21
10.8668365965188
 31
0.0
  0
LINE
  5
38D8
330
1E
100
AcDbEntity
  8
3
100
AcDbLine
 10
0.1827423763082745
 20
10.8668365965188
 30
0.0
 11
0.1827423763082745
 21
10.88061612407785
 31
0.0
  0
LINE
  5
38D9
330
1E
100
AcDbEntity
  8
3
100
AcDbLine
 10
0.1827423763082745
 20
10.88061612407785
 30
0.0
 11
0.1827423763082745
 21
10.88652163588888
 31
0.0
  0
LINE
  5
38DA
330
1E
100
AcDbEntity
  8
3
100
AcDbLine
 10
0.1295927700090615
 20
7.880616124077858
 30
0.0
 11
0.0823486755208727
 21
7.906206675258962
 31
0.0
  0
LINE
  5
38DB
330
1E
100
AcDbEntity
  8
3
100
AcDbLine
 10
0.0823486755208727
 20
7.906206675258962
 30
0.0
 11
0.0449471007177245
 21
7.94360825006211
 31
0.0
  0
LINE
  5
38DC
330
1E
100
AcDbEntity
  8
3
100
AcDbLine
 10
0.0449471007177245
 20
7.94360825006211
 30
0.0
 11
0.02132505347363
 21
7.990852344550299
 31
0.0
  0
LINE
  5
38DD
330
1E
100
AcDbEntity
  8
3
100
AcDbLine
 10
0.02132505347363
 20
7.990852344550299
 30
0.0
 11
0.0134510377255985
 21
8.042033446912506
 31
0.0
  0
LINE
  5
38DE
330
1E
100
AcDbEntity
  8
3
100
AcDbLine
 10
0.0134510377255985
 20
10.71526179336919
 30
0.0
 11
0.02132505347363
 21
10.76841139966841
 31
0.0
  0
LINE
  5
38DF
330
1E
100
AcDbEntity
  8
3
100
AcDbLine
 10
0.02132505347363
 20
10.76841139966841
 30
0.0
 11
0.0449471007177245
 21
10.81565549415659
 31
0.0
  0
LINE
  5
38E0
330
1E
100
AcDbEntity
  8
3
100
AcDbLine
 10
0.0449471007177245
 20
10.81565549415659
 30
0.0
 11
0.0823486755208727
 21
10.85305706895974
 31
0.0
  0
LINE
  5
38E1
330
1E
100
AcDbEntity
  8
3
100
AcDbLine
 10
0.0823486755208727
 20
10.85305706895974
 30
0.0
 11
0.1295927700090615
 21
10.87667911620384
 31
0.0
  0
LINE
  5
38E2
330
1E
100
AcDbEntity
  8
3
100
AcDbLine
 10
0.1295927700090615
 20
10.87667911620384
 30
0.0
 11
0.1827423763082745
 21
10.88652163588888
 31
0.0
  0
LINE
  5
38E3
330
1E
100
AcDbEntity
  8
3
100
AcDbLine
 10
1.80675812433977
 20
10.88652163588888
 30
0.0
 11
1.857939226701974
 21
10.87667911620384
 31
0.0
  0
LINE
  5
38E4
330
1E
100
AcDbEntity
  8
3
100
AcDbLine
 10
1.857939226701974
 20
10.87667911620384
 30
0.0
 11
1.905183321190165
 21
10.85305706895974
 31
0.0
  0
LINE
  5
38E5
330
1E
100
AcDbEntity
  8
3
100
AcDbLine
 10
1.905183321190165
 20
10.85305706895974
 30
0.0
 11
1.942584895993313
 21
10.81565549415659
 31
0.0
  0
LINE
  5
38E6
330
1E
100
AcDbEntity
  8
3
100
AcDbLine
 10
1.942584895993313
 20
10.81565549415659
 30
0.0
 11
1.968175447174417
 21
10.76841139966841
 31
0.0
  0
LINE
  5
38E7
330
1E
100
AcDbEntity
  8
3
100
AcDbLine
 10
1.968175447174417
 20
10.76841139966841
 30
0.0
 11
1.976049462922448
 21
10.71526179336919
 31
0.0
  0
LINE
  5
38E8
330
1E
100
AcDbEntity
  8
3
100
AcDbLine
 10
1.976049462922448
 20
8.042033446912506
 30
0.0
 11
1.968175447174417
 21
7.990852344550299
 31
0.0
  0
LINE
  5
38E9
330
1E
100
AcDbEntity
  8
3
100
AcDbLine
 10
1.968175447174417
 20
7.990852344550299
 30
0.0
 11
1.942584895993313
 21
7.94360825006211
 31
0.0
  0
LINE
  5
38EA
330
1E
100
AcDbEntity
  8
3
100
AcDbLine
 10
1.942584895993313
 20
7.94360825006211
 30
0.0
 11
1.905183321190165
 21
7.906206675258962
 31
0.0
  0
LINE
  5
38EB
330
1E
100
AcDbEntity
  8
3
100
AcDbLine
 10
1.905183321190165
 20
7.906206675258962
 30
0.0
 11
1.857939226701974
 21
7.880616124077858
 31
0.0
  0
LINE
  5
38EC
330
1E
100
AcDbEntity
  8
3
100
AcDbLine
 10
1.857939226701974
 20
7.880616124077858
 30
0.0
 11
1.80675812433977
 21
7.872742108329829
 31
0.0
  0
LINE
  5
38ED
330
1E
100
AcDbEntity
  8
3
100
AcDbLine
 10
1.987860486544494
 20
10.72707281699124
 30
0.0
 11
1.976049462922448
 21
10.71526179336919
 31
0.0
  0
LINE
  5
38EE
330
1E
100
AcDbEntity
  8
3
100
AcDbLine
 10
1.976049462922448
 20
10.71526179336919
 30
0.0
 11
1.976049462922448
 21
8.042033446912506
 31
0.0
  0
LINE
  5
38EF
330
1E
100
AcDbEntity
  8
3
100
AcDbLine
 10
1.976049462922448
 20
8.042033446912506
 30
0.0
 11
1.987860486544494
 21
8.032190927227466
 31
0.0
  0
LINE
  5
38F0
330
1E
100
AcDbEntity
  8
3
100
AcDbLine
 10
0.1709313526862282
 20
10.89636415557392
 30
0.0
 11
0.1827423763082745
 21
10.88652163588888
 31
0.0
  0
LINE
  5
38F1
330
1E
100
AcDbEntity
  8
3
100
AcDbLine
 10
0.1827423763082745
 20
10.88652163588888
 30
0.0
 11
1.80675812433977
 21
10.88652163588888
 31
0.0
  0
LINE
  5
38F2
330
1E
100
AcDbEntity
  8
3
100
AcDbLine
 10
1.80675812433977
 20
10.88652163588888
 30
0.0
 11
1.816600644024809
 21
10.89636415557392
 31
0.0
  0
LINE
  5
38F3
330
1E
100
AcDbEntity
  8
3
100
AcDbLine
 10
0.0016400141035504
 20
8.032190927227466
 30
0.0
 11
0.0134510377255985
 21
8.042033446912506
 31
0.0
  0
LINE
  5
38F4
330
1E
100
AcDbEntity
  8
3
100
AcDbLine
 10
0.0134510377255985
 20
8.042033446912506
 30
0.0
 11
0.0134510377255985
 21
10.71526179336919
 31
0.0
  0
LINE
  5
38F5
330
1E
100
AcDbEntity
  8
3
100
AcDbLine
 10
1.816600644024809
 20
7.860931084707781
 30
0.0
 11
1.80675812433977
 21
7.872742108329829
 31
0.0
  0
LINE
  5
38F6
330
1E
100
AcDbEntity
  8
3
100
AcDbLine
 10
1.80675812433977
 20
7.872742108329829
 30
0.0
 11
0.1827423763082745
 21
7.872742108329829
 31
0.0
  0
LINE
  5
38F7
330
1E
100
AcDbEntity
  8
3
100
AcDbLine
 10
0.1827423763082745
 20
7.872742108329829
 30
0.0
 11
0.1709313526862282
 21
7.860931084707781
 31
0.0
  0
LINE
  5
38F8
330
1E
100
AcDbEntity
  8
3
100
AcDbLine
 10
0.1177817463870152
 20
7.979041320928255
 30
0.0
 11
0.0980967070169356
 21
8.00856887998337
 31
0.0
  0
LINE
  5
38F9
330
1E
100
AcDbEntity
  8
3
100
AcDbLine
 10
0.0980967070169356
 20
8.00856887998337
 30
0.0
 11
0.0921911952059116
 21
8.042033446912506
 31
0.0
  0
LINE
  5
38FA
330
1E
100
AcDbEntity
  8
3
100
AcDbLine
 10
0.0921911952059116
 20
8.042033446912506
 30
0.0
 11
0.0921911952059116
 21
10.71526179336919
 31
0.0
  0
LINE
  5
38FB
330
1E
100
AcDbEntity
  8
3
100
AcDbLine
 10
0.0921911952059116
 20
10.71526179336919
 30
0.0
 11
0.0980967070169356
 21
10.75069486423534
 31
0.0
  0
LINE
  5
38FC
330
1E
100
AcDbEntity
  8
3
100
AcDbLine
 10
0.0980967070169356
 20
10.75069486423534
 30
0.0
 11
0.1177817463870152
 21
10.78022242329045
 31
0.0
  0
LINE
  5
38FD
330
1E
100
AcDbEntity
  8
3
100
AcDbLine
 10
0.1177817463870152
 20
10.78022242329045
 30
0.0
 11
0.1473093054421337
 21
10.79990746266053
 31
0.0
  0
LINE
  5
38FE
330
1E
100
AcDbEntity
  8
3
100
AcDbLine
 10
0.1473093054421337
 20
10.79990746266053
 30
0.0
 11
0.1827423763082745
 21
10.80778147840857
 31
0.0
  0
LINE
  5
38FF
330
1E
100
AcDbEntity
  8
3
100
AcDbLine
 10
0.1827423763082745
 20
10.80778147840857
 30
0.0
 11
1.80675812433977
 21
10.80778147840857
 31
0.0
  0
LINE
  5
3900
330
1E
100
AcDbEntity
  8
3
100
AcDbLine
 10
1.80675812433977
 20
10.80778147840857
 30
0.0
 11
1.840222691268904
 21
10.79990746266053
 31
0.0
  0
LINE
  5
3901
330
1E
100
AcDbEntity
  8
3
100
AcDbLine
 10
1.840222691268904
 20
10.79990746266053
 30
0.0
 11
1.869750250324022
 21
10.78022242329045
 31
0.0
  0
LINE
  5
3902
330
1E
100
AcDbEntity
  8
3
100
AcDbLine
 10
1.869750250324022
 20
10.78022242329045
 30
0.0
 11
1.891403793631109
 21
10.75069486423534
 31
0.0
  0
LINE
  5
3903
330
1E
100
AcDbEntity
  8
3
100
AcDbLine
 10
1.891403793631109
 20
10.75069486423534
 30
0.0
 11
1.897309305442131
 21
10.71526179336919
 31
0.0
  0
LINE
  5
3904
330
1E
100
AcDbEntity
  8
3
100
AcDbLine
 10
1.897309305442131
 20
10.71526179336919
 30
0.0
 11
1.897309305442131
 21
8.042033446912506
 31
0.0
  0
LINE
  5
3905
330
1E
100
AcDbEntity
  8
3
100
AcDbLine
 10
1.897309305442131
 20
8.042033446912506
 30
0.0
 11
1.891403793631109
 21
8.00856887998337
 31
0.0
  0
LINE
  5
3906
330
1E
100
AcDbEntity
  8
3
100
AcDbLine
 10
1.891403793631109
 20
8.00856887998337
 30
0.0
 11
1.869750250324022
 21
7.979041320928255
 31
0.0
  0
LINE
  5
3907
330
1E
100
AcDbEntity
  8
3
100
AcDbLine
 10
1.869750250324022
 20
7.979041320928255
 30
0.0
 11
1.840222691268904
 21
7.959356281558173
 31
0.0
  0
LINE
  5
3908
330
1E
100
AcDbEntity
  8
3
100
AcDbLine
 10
1.840222691268904
 20
7.959356281558173
 30
0.0
 11
1.80675812433977
 21
7.951482265810144
 31
0.0
  0
LINE
  5
3909
330
1E
100
AcDbEntity
  8
3
100
AcDbLine
 10
1.80675812433977
 20
7.951482265810144
 30
0.0
 11
0.1827423763082745
 21
7.951482265810144
 31
0.0
  0
LINE
  5
390A
330
1E
100
AcDbEntity
  8
3
100
AcDbLine
 10
0.1827423763082745
 20
7.951482265810144
 30
0.0
 11
0.1473093054421337
 21
7.959356281558173
 31
0.0
  0
LINE
  5
390B
330
1E
100
AcDbEntity
  8
3
100
AcDbLine
 10
0.1473093054421337
 20
7.959356281558173
 30
0.0
 11
0.1177817463870152
 21
7.979041320928255
 31
0.0
  0
LINE
  5
390C
330
1E
100
AcDbEntity
  8
3
100
AcDbLine
 10
1.956364423552368
 20
10.71526179336919
 30
0.0
 11
1.948490407804337
 21
10.76250588785738
 31
0.0
  0
LINE
  5
390D
330
1E
100
AcDbEntity
  8
3
100
AcDbLine
 10
1.948490407804337
 20
10.76250588785738
 30
0.0
 11
1.92683686449725
 21
10.80384447053455
 31
0.0
  0
LINE
  5
390E
330
1E
100
AcDbEntity
  8
3
100
AcDbLine
 10
1.92683686449725
 20
10.80384447053455
 30
0.0
 11
1.893372297568117
 21
10.83730903746368
 31
0.0
  0
LINE
  5
390F
330
1E
100
AcDbEntity
  8
3
100
AcDbLine
 10
1.893372297568117
 20
10.83730903746368
 30
0.0
 11
1.852033714890952
 21
10.85896258077077
 31
0.0
  0
LINE
  5
3910
330
1E
100
AcDbEntity
  8
3
100
AcDbLine
 10
1.852033714890952
 20
10.85896258077077
 30
0.0
 11
1.80675812433977
 21
10.8668365965188
 31
0.0
  0
LINE
  5
3911
330
1E
100
AcDbEntity
  8
3
100
AcDbLine
 10
1.80675812433977
 20
10.8668365965188
 30
0.0
 11
0.1827423763082745
 21
10.8668365965188
 31
0.0
  0
LINE
  5
3912
330
1E
100
AcDbEntity
  8
3
100
AcDbLine
 10
0.1827423763082745
 20
10.8668365965188
 30
0.0
 11
0.137466785757093
 21
10.85896258077077
 31
0.0
  0
LINE
  5
3913
330
1E
100
AcDbEntity
  8
3
100
AcDbLine
 10
0.137466785757093
 20
10.85896258077077
 30
0.0
 11
0.0941596991429208
 21
10.83730903746368
 31
0.0
  0
LINE
  5
3914
330
1E
100
AcDbEntity
  8
3
100
AcDbLine
 10
0.0941596991429208
 20
10.83730903746368
 30
0.0
 11
0.0606951322137874
 21
10.80384447053455
 31
0.0
  0
LINE
  5
3915
330
1E
100
AcDbEntity
  8
3
100
AcDbLine
 10
0.0606951322137874
 20
10.80384447053455
 30
0.0
 11
0.0410100928437078
 21
10.76250588785738
 31
0.0
  0
LINE
  5
3916
330
1E
100
AcDbEntity
  8
3
100
AcDbLine
 10
0.0410100928437078
 20
10.76250588785738
 30
0.0
 11
0.0331360770956764
 21
10.71526179336919
 31
0.0
  0
LINE
  5
3917
330
1E
100
AcDbEntity
  8
3
100
AcDbLine
 10
0.0331360770956764
 20
10.71526179336919
 30
0.0
 11
0.0331360770956764
 21
8.042033446912506
 31
0.0
  0
LINE
  5
3918
330
1E
100
AcDbEntity
  8
3
100
AcDbLine
 10
0.0331360770956764
 20
8.042033446912506
 30
0.0
 11
0.0410100928437078
 21
7.996757856361325
 31
0.0
  0
LINE
  5
3919
330
1E
100
AcDbEntity
  8
3
100
AcDbLine
 10
0.0410100928437078
 20
7.996757856361325
 30
0.0
 11
0.0606951322137874
 21
7.955419273684158
 31
0.0
  0
LINE
  5
391A
330
1E
100
AcDbEntity
  8
3
100
AcDbLine
 10
0.0606951322137874
 20
7.955419273684158
 30
0.0
 11
0.0941596991429208
 21
7.921954706755025
 31
0.0
  0
LINE
  5
391B
330
1E
100
AcDbEntity
  8
3
100
AcDbLine
 10
0.0941596991429208
 20
7.921954706755025
 30
0.0
 11
0.137466785757093
 21
7.900301163447936
 31
0.0
  0
LINE
  5
391C
330
1E
100
AcDbEntity
  8
3
100
AcDbLine
 10
0.137466785757093
 20
7.900301163447936
 30
0.0
 11
0.1827423763082745
 21
7.892427147699907
 31
0.0
  0
LINE
  5
391D
330
1E
100
AcDbEntity
  8
3
100
AcDbLine
 10
0.1827423763082745
 20
7.892427147699907
 30
0.0
 11
1.80675812433977
 21
7.892427147699907
 31
0.0
  0
LINE
  5
391E
330
1E
100
AcDbEntity
  8
3
100
AcDbLine
 10
1.80675812433977
 20
7.892427147699907
 30
0.0
 11
1.852033714890952
 21
7.900301163447936
 31
0.0
  0
LINE
  5
391F
330
1E
100
AcDbEntity
  8
3
100
AcDbLine
 10
1.852033714890952
 20
7.900301163447936
 30
0.0
 11
1.893372297568117
 21
7.921954706755025
 31
0.0
  0
LINE
  5
3920
330
1E
100
AcDbEntity
  8
3
100
AcDbLine
 10
1.893372297568117
 20
7.921954706755025
 30
0.0
 11
1.92683686449725
 21
7.955419273684158
 31
0.0
  0
LINE
  5
3921
330
1E
100
AcDbEntity
  8
3
100
AcDbLine
 10
1.92683686449725
 20
7.955419273684158
 30
0.0
 11
1.948490407804337
 21
7.996757856361325
 31
0.0
  0
LINE
  5
3922
330
1E
100
AcDbEntity
  8
3
100
AcDbLine
 10
1.948490407804337
 20
7.996757856361325
 30
0.0
 11
1.956364423552368
 21
8.042033446912506
 31
0.0
  0
LINE
  5
3923
330
1E
100
AcDbEntity
  8
3
100
AcDbLine
 10
1.956364423552368
 20
8.042033446912506
 30
0.0
 11
1.956364423552368
 21
10.71526179336919
 31
0.0
  0
LINE
  5
3924
330
1E
100
AcDbEntity
  8
3
100
AcDbLine
 10
1.816600644024809
 20
10.89636415557392
 30
0.0
 11
1.869750250324022
 21
10.88849013982589
 31
0.0
  0
LINE
  5
3925
330
1E
100
AcDbEntity
  8
3
100
AcDbLine
 10
1.869750250324022
 20
10.88849013982589
 30
0.0
 11
1.916994344812211
 21
10.86486809258179
 31
0.0
  0
LINE
  5
3926
330
1E
100
AcDbEntity
  8
3
100
AcDbLine
 10
1.916994344812211
 20
10.86486809258179
 30
0.0
 11
1.954395919615361
 21
10.82746651777864
 31
0.0
  0
LINE
  5
3927
330
1E
100
AcDbEntity
  8
3
100
AcDbLine
 10
1.954395919615361
 20
10.82746651777864
 30
0.0
 11
1.978017966859455
 21
10.78022242329045
 31
0.0
  0
LINE
  5
3928
330
1E
100
AcDbEntity
  8
3
100
AcDbLine
 10
0.0016400141035504
 20
10.72707281699124
 30
0.0
 11
0.0095140298515819
 21
10.78022242329045
 31
0.0
  0
LINE
  5
3929
330
1E
100
AcDbEntity
  8
3
100
AcDbLine
 10
0.0095140298515819
 20
10.78022242329045
 30
0.0
 11
0.0351045810326838
 21
10.82746651777864
 31
0.0
  0
LINE
  5
392A
330
1E
100
AcDbEntity
  8
3
100
AcDbLine
 10
0.0351045810326838
 20
10.82746651777864
 30
0.0
 11
0.0725061558358338
 21
10.86486809258179
 31
0.0
  0
LINE
  5
392B
330
1E
100
AcDbEntity
  8
3
100
AcDbLine
 10
0.0725061558358338
 20
10.86486809258179
 30
0.0
 11
0.1197502503240226
 21
10.88849013982589
 31
0.0
  0
LINE
  5
392C
330
1E
100
AcDbEntity
  8
3
100
AcDbLine
 10
0.1197502503240226
 20
10.88849013982589
 30
0.0
 11
0.1709313526862282
 21
10.89636415557392
 31
0.0
  0
LINE
  5
392D
330
1E
100
AcDbEntity
  8
3
100
AcDbLine
 10
0.1709313526862282
 20
7.860931084707781
 30
0.0
 11
0.1197502503240226
 21
7.870773604392821
 31
0.0
  0
LINE
  5
392E
330
1E
100
AcDbEntity
  8
3
100
AcDbLine
 10
0.1197502503240226
 20
7.870773604392821
 30
0.0
 11
0.0725061558358338
 21
7.894395651636914
 31
0.0
  0
LINE
  5
392F
330
1E
100
AcDbEntity
  8
3
100
AcDbLine
 10
0.0725061558358338
 20
7.894395651636914
 30
0.0
 11
0.0351045810326838
 21
7.931797226440066
 31
0.0
  0
LINE
  5
3930
330
1E
100
AcDbEntity
  8
3
100
AcDbLine
 10
0.0351045810326838
 20
7.931797226440066
 30
0.0
 11
0.0095140298515819
 21
7.979041320928255
 31
0.0
  0
LINE
  5
3931
330
1E
100
AcDbEntity
  8
3
100
AcDbLine
 10
0.0095140298515819
 20
7.979041320928255
 30
0.0
 11
0.0016400141035504
 21
8.032190927227466
 31
0.0
  0
LINE
  5
3932
330
1E
100
AcDbEntity
  8
3
100
AcDbLine
 10
1.916994344812211
 20
7.894395651636914
 30
0.0
 11
1.869750250324022
 21
7.870773604392821
 31
0.0
  0
LINE
  5
3933
330
1E
100
AcDbEntity
  8
3
100
AcDbLine
 10
1.869750250324022
 20
7.870773604392821
 30
0.0
 11
1.816600644024809
 21
7.860931084707781
 31
0.0
  0
LINE
  5
3934
330
1E
100
AcDbEntity
  8
3
100
AcDbLine
 10
1.987860486544494
 20
8.032190927227466
 30
0.0
 11
1.978017966859455
 21
7.979041320928255
 31
0.0
  0
LINE
  5
3935
330
1E
100
AcDbEntity
  8
3
100
AcDbLine
 10
1.978017966859455
 20
7.979041320928255
 30
0.0
 11
1.954395919615361
 21
7.931797226440066
 31
0.0
  0
LINE
  5
3936
330
1E
100
AcDbEntity
  8
3
100
AcDbLine
 10
1.954395919615361
 20
7.931797226440066
 30
0.0
 11
1.916994344812211
 21
7.894395651636914
 31
0.0
  0
LINE
  5
3937
330
1E
100
AcDbEntity
  8
3
100
AcDbLine
 10
1.710301431426385
 20
9.398332659510929
 30
0.0
 11
1.710301431426385
 21
9.396364155573921
 31
0.0
  0
LINE
  5
3938
330
1E
100
AcDbEntity
  8
3
100
AcDbLine
 10
1.710301431426385
 20
9.396364155573921
 30
0.0
 11
1.708332927489376
 21
9.394395651636914
 31
0.0
  0
LINE
  5
3939
330
1E
100
AcDbEntity
  8
3
100
AcDbLine
 10
0.2811675731586689
 20
9.394395651636914
 30
0.0
 11
0.2791990692216597
 21
9.396364155573921
 31
0.0
  0
LINE
  5
393A
330
1E
100
AcDbEntity
  8
3
100
AcDbLine
 10
0.2791990692216597
 20
9.396364155573921
 30
0.0
 11
0.2791990692216597
 21
9.398332659510929
 31
0.0
  0
LINE
  5
393B
330
1E
100
AcDbEntity
  8
3
100
AcDbLine
 10
0.3008526125287467
 20
8.544001950849514
 30
0.0
 11
0.3087266282767782
 21
8.542033446912506
 31
0.0
  0
LINE
  5
393C
330
1E
100
AcDbEntity
  8
3
100
AcDbLine
 10
0.3087266282767782
 20
8.542033446912506
 30
0.0
 11
0.3166006440248097
 21
8.540064942975496
 31
0.0
  0
LINE
  5
393D
330
1E
100
AcDbEntity
  8
3
100
AcDbLine
 10
0.3166006440248097
 20
8.540064942975496
 30
0.0
 11
0.3225061558358337
 21
8.538096439038488
 31
0.0
  0
LINE
  5
393E
330
1E
100
AcDbEntity
  8
3
100
AcDbLine
 10
0.3225061558358337
 20
8.538096439038488
 30
0.0
 11
0.3264431637098486
 21
8.536127935101481
 31
0.0
  0
LINE
  5
393F
330
1E
100
AcDbEntity
  8
3
100
AcDbLine
 10
0.3264431637098486
 20
8.536127935101481
 30
0.0
 11
0.3303801715838652
 21
8.532190927227466
 31
0.0
  0
LINE
  5
3940
330
1E
100
AcDbEntity
  8
3
100
AcDbLine
 10
0.3303801715838652
 20
8.532190927227466
 30
0.0
 11
0.3303801715838652
 21
8.530222423290458
 31
0.0
  0
LINE
  5
3941
330
1E
100
AcDbEntity
  8
3
100
AcDbLine
 10
0.3303801715838652
 20
8.530222423290458
 30
0.0
 11
0.3323486755208727
 21
8.528253919353451
 31
0.0
  0
LINE
  5
3942
330
1E
100
AcDbEntity
  8
3
100
AcDbLine
 10
0.174868360560243
 20
8.603057068959747
 30
0.0
 11
0.1768368644972504
 21
8.591246045337703
 31
0.0
  0
LINE
  5
3943
330
1E
100
AcDbEntity
  8
3
100
AcDbLine
 10
0.1768368644972504
 20
8.591246045337703
 30
0.0
 11
0.1788053684342596
 21
8.58337202958967
 31
0.0
  0
LINE
  5
3944
330
1E
100
AcDbEntity
  8
3
100
AcDbLine
 10
0.1788053684342596
 20
8.58337202958967
 30
0.0
 11
0.1847108802452819
 21
8.573529509904632
 31
0.0
  0
LINE
  5
3945
330
1E
100
AcDbEntity
  8
3
100
AcDbLine
 10
0.1847108802452819
 20
8.573529509904632
 30
0.0
 11
0.190616392056306
 21
8.565655494156599
 31
0.0
  0
LINE
  5
3946
330
1E
100
AcDbEntity
  8
3
100
AcDbLine
 10
0.190616392056306
 20
8.565655494156599
 30
0.0
 11
0.1984904078043375
 21
8.559749982345577
 31
0.0
  0
LINE
  5
3947
330
1E
100
AcDbEntity
  8
3
100
AcDbLine
 10
0.1984904078043375
 20
8.559749982345577
 30
0.0
 11
0.2083329274893764
 21
8.551875966597544
 31
0.0
  0
LINE
  5
3948
330
1E
100
AcDbEntity
  8
3
100
AcDbLine
 10
0.2083329274893764
 20
8.551875966597544
 30
0.0
 11
0.2201439511114245
 21
8.547938958723529
 31
0.0
  0
LINE
  5
3949
330
1E
100
AcDbEntity
  8
3
100
AcDbLine
 10
0.2201439511114245
 20
8.547938958723529
 30
0.0
 11
0.2319549747334708
 21
8.544001950849514
 31
0.0
  0
LINE
  5
394A
330
1E
100
AcDbEntity
  8
3
100
AcDbLine
 10
0.2319549747334708
 20
8.544001950849514
 30
0.0
 11
0.2437659983555189
 21
8.544001950849514
 31
0.0
  0
LINE
  5
394B
330
1E
100
AcDbEntity
  8
3
100
AcDbLine
 10
0.2437659983555189
 20
8.544001950849514
 30
0.0
 11
0.249671510166543
 21
8.544001950849514
 31
0.0
  0
LINE
  5
394C
330
1E
100
AcDbEntity
  8
3
100
AcDbLine
 10
0.2142384393004004
 20
8.660143683132977
 30
0.0
 11
0.2024274156783541
 21
8.654238171321955
 31
0.0
  0
LINE
  5
394D
330
1E
100
AcDbEntity
  8
3
100
AcDbLine
 10
0.2024274156783541
 20
8.654238171321955
 30
0.0
 11
0.1925848959933134
 21
8.648332659510929
 31
0.0
  0
LINE
  5
394E
330
1E
100
AcDbEntity
  8
3
100
AcDbLine
 10
0.1925848959933134
 20
8.648332659510929
 30
0.0
 11
0.1847108802452819
 21
8.638490139825892
 31
0.0
  0
LINE
  5
394F
330
1E
100
AcDbEntity
  8
3
100
AcDbLine
 10
0.1847108802452819
 20
8.638490139825892
 30
0.0
 11
0.1788053684342596
 21
8.630616124077858
 31
0.0
  0
LINE
  5
3950
330
1E
100
AcDbEntity
  8
3
100
AcDbLine
 10
0.1788053684342596
 20
8.630616124077858
 30
0.0
 11
0.1768368644972504
 21
8.624710612266836
 31
0.0
  0
LINE
  5
3951
330
1E
100
AcDbEntity
  8
3
100
AcDbLine
 10
0.2437659983555189
 20
8.66801769888101
 30
0.0
 11
0.2378604865444949
 21
8.66801769888101
 31
0.0
  0
LINE
  5
3952
330
1E
100
AcDbEntity
  8
3
100
AcDbLine
 10
0.2378604865444949
 20
8.66801769888101
 30
0.0
 11
0.2240809589854393
 21
8.664080691006992
 31
0.0
  0
LINE
  5
3953
330
1E
100
AcDbEntity
  8
3
100
AcDbLine
 10
0.2240809589854393
 20
8.664080691006992
 30
0.0
 11
0.2142384393004004
 21
8.660143683132977
 31
0.0
  0
LINE
  5
3954
330
1E
100
AcDbEntity
  8
3
100
AcDbLine
 10
1.812663636150794
 20
8.622742108329829
 30
0.0
 11
1.810695132213785
 21
8.628647620140851
 31
0.0
  0
LINE
  5
3955
330
1E
100
AcDbEntity
  8
3
100
AcDbLine
 10
1.810695132213785
 20
8.628647620140851
 30
0.0
 11
1.804789620402763
 21
8.636521635888884
 31
0.0
  0
LINE
  5
3956
330
1E
100
AcDbEntity
  8
3
100
AcDbLine
 10
1.804789620402763
 20
8.636521635888884
 30
0.0
 11
1.798884108591739
 21
8.646364155573921
 31
0.0
  0
LINE
  5
3957
330
1E
100
AcDbEntity
  8
3
100
AcDbLine
 10
1.798884108591739
 20
8.646364155573921
 30
0.0
 11
1.791010092843707
 21
8.652269667384947
 31
0.0
  0
LINE
  5
3958
330
1E
100
AcDbEntity
  8
3
100
AcDbLine
 10
1.791010092843707
 20
8.652269667384947
 30
0.0
 11
1.781167573158668
 21
8.65817517919597
 31
0.0
  0
LINE
  5
3959
330
1E
100
AcDbEntity
  8
3
100
AcDbLine
 10
1.781167573158668
 20
8.65817517919597
 30
0.0
 11
1.76935654953662
 21
8.664080691006992
 31
0.0
  0
LINE
  5
395A
330
1E
100
AcDbEntity
  8
3
100
AcDbLine
 10
1.76935654953662
 20
8.664080691006992
 30
0.0
 11
1.757545525914574
 21
8.666049194944003
 31
0.0
  0
LINE
  5
395B
330
1E
100
AcDbEntity
  8
3
100
AcDbLine
 10
1.757545525914574
 20
8.666049194944003
 30
0.0
 11
1.745734502292526
 21
8.66801769888101
 31
0.0
  0
LINE
  5
395C
330
1E
100
AcDbEntity
  8
3
100
AcDbLine
 10
1.745734502292526
 20
8.66801769888101
 30
0.0
 11
1.743765998355518
 21
8.66801769888101
 31
0.0
  0
LINE
  5
395D
330
1E
100
AcDbEntity
  8
3
100
AcDbLine
 10
1.808726628276778
 20
8.581403525652662
 30
0.0
 11
1.812663636150794
 21
8.591246045337703
 31
0.0
  0
LINE
  5
395E
330
1E
100
AcDbEntity
  8
3
100
AcDbLine
 10
1.812663636150794
 20
8.591246045337703
 30
0.0
 11
1.814632140087802
 21
8.60108856502274
 31
0.0
  0
LINE
  5
395F
330
1E
100
AcDbEntity
  8
3
100
AcDbLine
 10
1.814632140087802
 20
8.60108856502274
 30
0.0
 11
1.814632140087802
 21
8.603057068959747
 31
0.0
  0
LINE
  5
3960
330
1E
100
AcDbEntity
  8
3
100
AcDbLine
 10
1.739828990481502
 20
8.544001950849514
 30
0.0
 11
1.75164001410355
 21
8.544001950849514
 31
0.0
  0
LINE
  5
3961
330
1E
100
AcDbEntity
  8
3
100
AcDbLine
 10
1.75164001410355
 20
8.544001950849514
 30
0.0
 11
1.763451037725596
 21
8.545970454786521
 31
0.0
  0
LINE
  5
3962
330
1E
100
AcDbEntity
  8
3
100
AcDbLine
 10
1.763451037725596
 20
8.545970454786521
 30
0.0
 11
1.775262061347644
 21
8.549907462660536
 31
0.0
  0
LINE
  5
3963
330
1E
100
AcDbEntity
  8
3
100
AcDbLine
 10
1.775262061347644
 20
8.549907462660536
 30
0.0
 11
1.787073084969691
 21
8.555812974471558
 31
0.0
  0
LINE
  5
3964
330
1E
100
AcDbEntity
  8
3
100
AcDbLine
 10
1.787073084969691
 20
8.555812974471558
 30
0.0
 11
1.794947100717722
 21
8.563686990219592
 31
0.0
  0
LINE
  5
3965
330
1E
100
AcDbEntity
  8
3
100
AcDbLine
 10
1.794947100717722
 20
8.563686990219592
 30
0.0
 11
1.802821116465754
 21
8.571561005967621
 31
0.0
  0
LINE
  5
3966
330
1E
100
AcDbEntity
  8
3
100
AcDbLine
 10
1.802821116465754
 20
8.571561005967621
 30
0.0
 11
1.808726628276778
 21
8.581403525652662
 31
0.0
  0
LINE
  5
3967
330
1E
100
AcDbEntity
  8
3
100
AcDbLine
 10
1.657151825127172
 20
8.528253919353451
 30
0.0
 11
1.657151825127172
 21
8.530222423290458
 31
0.0
  0
LINE
  5
3968
330
1E
100
AcDbEntity
  8
3
100
AcDbLine
 10
1.657151825127172
 20
8.530222423290458
 30
0.0
 11
1.65912032906418
 21
8.532190927227466
 31
0.0
  0
LINE
  5
3969
330
1E
100
AcDbEntity
  8
3
100
AcDbLine
 10
1.65912032906418
 20
8.532190927227466
 30
0.0
 11
1.663057336938196
 21
8.536127935101481
 31
0.0
  0
LINE
  5
396A
330
1E
100
AcDbEntity
  8
3
100
AcDbLine
 10
1.663057336938196
 20
8.536127935101481
 30
0.0
 11
1.666994344812211
 21
8.538096439038488
 31
0.0
  0
LINE
  5
396B
330
1E
100
AcDbEntity
  8
3
100
AcDbLine
 10
1.666994344812211
 20
8.538096439038488
 30
0.0
 11
1.672899856623235
 21
8.542033446912506
 31
0.0
  0
LINE
  5
396C
330
1E
100
AcDbEntity
  8
3
100
AcDbLine
 10
1.672899856623235
 20
8.542033446912506
 30
0.0
 11
1.680773872371267
 21
8.542033446912506
 31
0.0
  0
LINE
  5
396D
330
1E
100
AcDbEntity
  8
3
100
AcDbLine
 10
1.680773872371267
 20
8.542033446912506
 30
0.0
 11
1.686679384182291
 21
8.544001950849514
 31
0.0
  0
LINE
  5
396E
330
1E
100
AcDbEntity
  8
3
100
AcDbLine
 10
0.2555770219775653
 20
8.662112187069984
 30
0.0
 11
0.2713250534736282
 21
8.656206675258962
 31
0.0
  0
LINE
  5
396F
330
1E
100
AcDbEntity
  8
3
100
AcDbLine
 10
0.2713250534736282
 20
8.656206675258962
 30
0.0
 11
0.2851045810326838
 21
8.652269667384947
 31
0.0
  0
LINE
  5
3970
330
1E
100
AcDbEntity
  8
3
100
AcDbLine
 10
0.2851045810326838
 20
8.652269667384947
 30
0.0
 11
0.3067581243397708
 21
8.650301163447936
 31
0.0
  0
LINE
  5
3971
330
1E
100
AcDbEntity
  8
3
100
AcDbLine
 10
0.2221124550484319
 20
8.689671242188095
 30
0.0
 11
0.23392347867048
 21
8.67589171462904
 31
0.0
  0
LINE
  5
3972
330
1E
100
AcDbEntity
  8
3
100
AcDbLine
 10
0.23392347867048
 20
8.67589171462904
 30
0.0
 11
0.2437659983555189
 21
8.66801769888101
 31
0.0
  0
LINE
  5
3973
330
1E
100
AcDbEntity
  8
3
100
AcDbLine
 10
0.2437659983555189
 20
8.66801769888101
 30
0.0
 11
0.2555770219775653
 21
8.662112187069984
 31
0.0
  0
LINE
  5
3974
330
1E
100
AcDbEntity
  8
3
100
AcDbLine
 10
1.682742376308274
 20
8.650301163447936
 30
0.0
 11
1.702427415678354
 21
8.652269667384947
 31
0.0
  0
LINE
  5
3975
330
1E
100
AcDbEntity
  8
3
100
AcDbLine
 10
1.702427415678354
 20
8.652269667384947
 30
0.0
 11
1.718175447174417
 21
8.656206675258962
 31
0.0
  0
LINE
  5
3976
330
1E
100
AcDbEntity
  8
3
100
AcDbLine
 10
1.718175447174417
 20
8.656206675258962
 30
0.0
 11
1.73195497473347
 21
8.660143683132977
 31
0.0
  0
LINE
  5
3977
330
1E
100
AcDbEntity
  8
3
100
AcDbLine
 10
1.73195497473347
 20
8.660143683132977
 30
0.0
 11
1.743765998355518
 21
8.66801769888101
 31
0.0
  0
LINE
  5
3978
330
1E
100
AcDbEntity
  8
3
100
AcDbLine
 10
1.743765998355518
 20
8.66801769888101
 30
0.0
 11
1.755577021977565
 21
8.67589171462904
 31
0.0
  0
LINE
  5
3979
330
1E
100
AcDbEntity
  8
3
100
AcDbLine
 10
1.755577021977565
 20
8.67589171462904
 30
0.0
 11
1.767388045599613
 21
8.689671242188095
 31
0.0
  0
LINE
  5
397A
330
1E
100
AcDbEntity
  8
3
100
AcDbLine
 10
0.9898289904815023
 20
8.648332659510929
 30
0.0
 11
0.9898289904815023
 21
8.650301163447936
 31
0.0
  0
LINE
  5
397B
330
1E
100
AcDbEntity
  8
3
100
AcDbLine
 10
0.9898289904815023
 20
8.650301163447936
 30
0.0
 11
0.9898289904815023
 21
8.654238171321955
 31
0.0
  0
LINE
  5
397C
330
1E
100
AcDbEntity
  8
3
100
AcDbLine
 10
0.3362856833948893
 20
8.229041320928255
 30
0.0
 11
0.3441596991429208
 21
8.223135809117229
 31
0.0
  0
LINE
  5
397D
330
1E
100
AcDbEntity
  8
3
100
AcDbLine
 10
0.3441596991429208
 20
8.223135809117229
 30
0.0
 11
0.3520337148909522
 21
8.221167305180221
 31
0.0
  0
LINE
  5
397E
330
1E
100
AcDbEntity
  8
3
100
AcDbLine
 10
0.9996715101665429
 20
8.654238171321955
 30
0.0
 11
0.9996715101665429
 21
8.650301163447936
 31
0.0
  0
LINE
  5
397F
330
1E
100
AcDbEntity
  8
3
100
AcDbLine
 10
0.9996715101665429
 20
8.650301163447936
 30
0.0
 11
0.9996715101665429
 21
8.648332659510929
 31
0.0
  0
LINE
  5
3980
330
1E
100
AcDbEntity
  8
3
100
AcDbLine
 10
1.637466785757093
 20
8.221167305180221
 30
0.0
 11
1.645340801505124
 21
8.223135809117229
 31
0.0
  0
LINE
  5
3981
330
1E
100
AcDbEntity
  8
3
100
AcDbLine
 10
1.645340801505124
 20
8.223135809117229
 30
0.0
 11
1.653214817253155
 21
8.229041320928255
 31
0.0
  0
LINE
  5
3ED4
330
1E
100
AcDbEntity
  8
3
100
AcDbLine
 10
0.3185691479618171
 20
5.536127935101481
 30
0.0
 11
0.3284116676468578
 21
5.528253919353449
 31
0.0
  0
LINE
  5
3ED5
330
1E
100
AcDbEntity
  8
3
100
AcDbLine
 10
0.3284116676468578
 20
5.528253919353449
 30
0.0
 11
0.3323486755208727
 21
5.51841139966841
 31
0.0
  0
LINE
  5
3ED6
330
1E
100
AcDbEntity
  8
3
100
AcDbLine
 10
0.3323486755208727
 20
5.51841139966841
 30
0.0
 11
0.3382541873318967
 21
5.530222423290458
 31
0.0
  0
LINE
  5
3ED7
330
1E
100
AcDbEntity
  8
3
100
AcDbLine
 10
0.3382541873318967
 20
5.530222423290458
 30
0.0
 11
0.3520337148909522
 21
5.534159431164473
 31
0.0
  0
LINE
  5
3ED8
330
1E
100
AcDbEntity
  8
3
100
AcDbLine
 10
0.3008526125287467
 20
5.540064942975497
 30
0.0
 11
0.3008526125287467
 21
5.553844470534553
 31
0.0
  0
LINE
  5
3ED9
330
1E
100
AcDbEntity
  8
3
100
AcDbLine
 10
0.3008526125287467
 20
5.553844470534553
 30
0.0
 11
0.3008526125287467
 21
5.569592502030616
 31
0.0
  0
LINE
  5
3EDA
330
1E
100
AcDbEntity
  8
3
100
AcDbLine
 10
0.174868360560243
 20
5.59321454927471
 30
0.0
 11
0.1847108802452819
 21
5.567623998093607
 31
0.0
  0
LINE
  5
3EDB
330
1E
100
AcDbEntity
  8
3
100
AcDbLine
 10
0.1847108802452819
 20
5.567623998093607
 30
0.0
 11
0.212269935363393
 21
5.547938958723529
 31
0.0
  0
LINE
  5
3EDC
330
1E
100
AcDbEntity
  8
3
100
AcDbLine
 10
0.212269935363393
 20
5.547938958723529
 30
0.0
 11
0.249671510166543
 21
5.540064942975497
 31
0.0
  0
LINE
  5
3EDD
330
1E
100
AcDbEntity
  8
3
100
AcDbLine
 10
0.249671510166543
 20
5.540064942975497
 30
0.0
 11
0.249671510166543
 21
5.553844470534553
 31
0.0
  0
LINE
  5
3EDE
330
1E
100
AcDbEntity
  8
3
100
AcDbLine
 10
0.249671510166543
 20
5.652269667384945
 30
0.0
 11
0.249671510166543
 21
5.650301163447938
 31
0.0
  0
LINE
  5
3EDF
330
1E
100
AcDbEntity
  8
3
100
AcDbLine
 10
0.249671510166543
 20
5.650301163447938
 30
0.0
 11
0.249671510166543
 21
5.646364155573923
 31
0.0
  0
LINE
  5
3EE0
330
1E
100
AcDbEntity
  8
3
100
AcDbLine
 10
0.9701439511114244
 20
5.652269667384945
 30
0.0
 11
0.9701439511114244
 21
5.650301163447938
 31
0.0
  0
LINE
  5
3EE1
330
1E
100
AcDbEntity
  8
3
100
AcDbLine
 10
0.9701439511114244
 20
5.650301163447938
 30
0.0
 11
0.9701439511114244
 21
5.646364155573923
 31
0.0
  0
LINE
  5
3EE2
330
1E
100
AcDbEntity
  8
3
100
AcDbLine
 10
0.9701439511114244
 20
5.307781478408568
 30
0.0
 11
0.9819549747334708
 21
5.303844470534553
 31
0.0
  0
LINE
  5
3EE3
330
1E
100
AcDbEntity
  8
3
100
AcDbLine
 10
0.9819549747334708
 20
5.303844470534553
 30
0.0
 11
0.9898289904815023
 21
5.295970454786521
 31
0.0
  0
LINE
  5
3EE4
330
1E
100
AcDbEntity
  8
3
100
AcDbLine
 10
0.9898289904815023
 20
5.295970454786521
 30
0.0
 11
0.9898289904815023
 21
5.632584628014868
 31
0.0
  0
LINE
  5
3EE5
330
1E
100
AcDbEntity
  8
3
100
AcDbLine
 10
0.9898289904815023
 20
5.632584628014868
 30
0.0
 11
0.98392347867048
 21
5.642427147699907
 31
0.0
  0
LINE
  5
3EE6
330
1E
100
AcDbEntity
  8
3
100
AcDbLine
 10
0.98392347867048
 20
5.642427147699907
 30
0.0
 11
0.9701439511114244
 21
5.646364155573923
 31
0.0
  0
LINE
  5
3EE7
330
1E
100
AcDbEntity
  8
3
100
AcDbLine
 10
0.249671510166543
 20
5.534159431164473
 30
0.0
 11
0.212269935363393
 21
5.540064942975497
 31
0.0
  0
LINE
  5
3EE8
330
1E
100
AcDbEntity
  8
3
100
AcDbLine
 10
0.212269935363393
 20
5.540064942975497
 30
0.0
 11
0.1847108802452819
 21
5.559749982345575
 31
0.0
  0
LINE
  5
3EE9
330
1E
100
AcDbEntity
  8
3
100
AcDbLine
 10
0.1847108802452819
 20
5.559749982345575
 30
0.0
 11
0.174868360560243
 21
5.587309037463686
 31
0.0
  0
LINE
  5
3EEA
330
1E
100
AcDbEntity
  8
3
100
AcDbLine
 10
0.2614825337885893
 20
5.534159431164473
 30
0.0
 11
0.249671510166543
 21
5.534159431164473
 31
0.0
  0
LINE
  5
3EEB
330
1E
100
AcDbEntity
  8
3
100
AcDbLine
 10
0.249671510166543
 20
5.534159431164473
 30
0.0
 11
0.249671510166543
 21
5.528253919353449
 31
0.0
  0
LINE
  5
3EEC
330
1E
100
AcDbEntity
  8
3
100
AcDbLine
 10
0.3323486755208727
 20
5.512505887857386
 30
0.0
 11
0.3284116676468578
 21
5.520379903605418
 31
0.0
  0
LINE
  5
3EED
330
1E
100
AcDbEntity
  8
3
100
AcDbLine
 10
0.3284116676468578
 20
5.520379903605418
 30
0.0
 11
0.3205376518988263
 21
5.528253919353449
 31
0.0
  0
LINE
  5
3EEE
330
1E
100
AcDbEntity
  8
3
100
AcDbLine
 10
0.3520337148909522
 20
5.534159431164473
 30
0.0
 11
0.3362856833948893
 21
5.557781478408568
 31
0.0
  0
LINE
  5
3EEF
330
1E
100
AcDbEntity
  8
3
100
AcDbLine
 10
0.3362856833948893
 20
5.557781478408568
 30
0.0
 11
0.3008526125287467
 21
5.569592502030616
 31
0.0
  0
LINE
  5
3EF0
330
1E
100
AcDbEntity
  8
3
100
AcDbLine
 10
0.249671510166543
 20
5.569592502030616
 30
0.0
 11
0.2181754471744171
 21
5.575498013841638
 31
0.0
  0
LINE
  5
3EF1
330
1E
100
AcDbEntity
  8
3
100
AcDbLine
 10
0.2181754471744171
 20
5.575498013841638
 30
0.0
 11
0.1984904078043375
 21
5.595183053211718
 31
0.0
  0
LINE
  5
3EF2
330
1E
100
AcDbEntity
  8
3
100
AcDbLine
 10
0.1984904078043375
 20
5.595183053211718
 30
0.0
 11
0.1984904078043375
 21
5.618805100455812
 31
0.0
  0
LINE
  5
3EF3
330
1E
100
AcDbEntity
  8
3
100
AcDbLine
 10
0.1984904078043375
 20
5.618805100455812
 30
0.0
 11
0.2181754471744171
 21
5.63849013982589
 31
0.0
  0
LINE
  5
3EF4
330
1E
100
AcDbEntity
  8
3
100
AcDbLine
 10
0.2181754471744171
 20
5.63849013982589
 30
0.0
 11
0.249671510166543
 21
5.646364155573923
 31
0.0
  0
LINE
  5
3EF5
330
1E
100
AcDbEntity
  8
3
100
AcDbLine
 10
0.9150258408752041
 20
5.307781478408568
 30
0.0
 11
0.90912032906418
 21
5.30581297447156
 31
0.0
  0
LINE
  5
3EF6
330
1E
100
AcDbEntity
  8
3
100
AcDbLine
 10
0.90912032906418
 20
5.30581297447156
 30
0.0
 11
0.9071518251271726
 21
5.301875966597544
 31
0.0
  0
LINE
  5
3EF7
330
1E
100
AcDbEntity
  8
3
100
AcDbLine
 10
0.9071518251271726
 20
5.301875966597544
 30
0.0
 11
0.9071518251271726
 21
5.297938958723529
 31
0.0
  0
LINE
  5
3EF8
330
1E
100
AcDbEntity
  8
3
100
AcDbLine
 10
0.9071518251271726
 20
5.297938958723529
 30
0.0
 11
0.9071518251271726
 21
5.295970454786521
 31
0.0
  0
LINE
  5
3EF9
330
1E
100
AcDbEntity
  8
3
100
AcDbLine
 10
0.8579392267019745
 20
5.301875966597544
 30
0.0
 11
0.8579392267019745
 21
5.297938958723529
 31
0.0
  0
LINE
  5
3EFA
330
1E
100
AcDbEntity
  8
3
100
AcDbLine
 10
0.8579392267019745
 20
5.297938958723529
 30
0.0
 11
0.8579392267019745
 21
5.295970454786521
 31
0.0
  0
LINE
  5
3EFB
330
1E
100
AcDbEntity
  8
3
100
AcDbLine
 10
0.8579392267019745
 20
5.219198801243214
 30
0.0
 11
0.8579392267019745
 21
5.25069486423534
 31
0.0
  0
LINE
  5
3EFC
330
1E
100
AcDbEntity
  8
3
100
AcDbLine
 10
0.8579392267019745
 20
5.25069486423534
 30
0.0
 11
0.8579392267019745
 21
5.282190927227466
 31
0.0
  0
LINE
  5
3EFD
330
1E
100
AcDbEntity
  8
3
100
AcDbLine
 10
0.8579392267019745
 20
5.282190927227466
 30
0.0
 11
0.8579392267019745
 21
5.295970454786521
 31
0.0
  0
LINE
  5
3EFE
330
1E
100
AcDbEntity
  8
3
100
AcDbLine
 10
0.3166006440248097
 20
5.274316911479434
 30
0.0
 11
0.3244746597728412
 21
5.270379903605418
 31
0.0
  0
LINE
  5
3EFF
330
1E
100
AcDbEntity
  8
3
100
AcDbLine
 10
0.3244746597728412
 20
5.270379903605418
 30
0.0
 11
0.3166006440248097
 21
5.264474391794395
 31
0.0
  0
LINE
  5
3F00
330
1E
100
AcDbEntity
  8
3
100
AcDbLine
 10
0.3520337148909522
 20
5.295970454786521
 30
0.0
 11
0.3520337148909522
 21
5.297938958723529
 31
0.0
  0
LINE
  5
3F01
330
1E
100
AcDbEntity
  8
3
100
AcDbLine
 10
0.3520337148909522
 20
5.297938958723529
 30
0.0
 11
0.3520337148909522
 21
5.301875966597544
 31
0.0
  0
LINE
  5
3F02
330
1E
100
AcDbEntity
  8
3
100
AcDbLine
 10
0.3520337148909522
 20
5.301875966597544
 30
0.0
 11
0.3382541873318967
 21
5.297938958723529
 31
0.0
  0
LINE
  5
3F03
330
1E
100
AcDbEntity
  8
3
100
AcDbLine
 10
0.381561273946069
 20
5.219198801243214
 30
0.0
 11
0.381561273946069
 21
5.25069486423534
 31
0.0
  0
LINE
  5
3F04
330
1E
100
AcDbEntity
  8
3
100
AcDbLine
 10
0.381561273946069
 20
5.25069486423534
 30
0.0
 11
0.381561273946069
 21
5.282190927227466
 31
0.0
  0
LINE
  5
3F05
330
1E
100
AcDbEntity
  8
3
100
AcDbLine
 10
0.381561273946069
 20
5.282190927227466
 30
0.0
 11
0.381561273946069
 21
5.295970454786521
 31
0.0
  0
LINE
  5
3F06
330
1E
100
AcDbEntity
  8
3
100
AcDbLine
 10
0.381561273946069
 20
5.301875966597544
 30
0.0
 11
0.381561273946069
 21
5.297938958723529
 31
0.0
  0
LINE
  5
3F07
330
1E
100
AcDbEntity
  8
3
100
AcDbLine
 10
0.381561273946069
 20
5.297938958723529
 30
0.0
 11
0.381561273946069
 21
5.295970454786521
 31
0.0
  0
LINE
  5
3F08
330
1E
100
AcDbEntity
  8
3
100
AcDbLine
 10
0.3520337148909522
 20
5.225104313054238
 30
0.0
 11
0.3520337148909522
 21
5.256600376046364
 31
0.0
  0
LINE
  5
3F09
330
1E
100
AcDbEntity
  8
3
100
AcDbLine
 10
0.3520337148909522
 20
5.256600376046364
 30
0.0
 11
0.3520337148909522
 21
5.284159431164473
 31
0.0
  0
LINE
  5
3F0A
330
1E
100
AcDbEntity
  8
3
100
AcDbLine
 10
0.3520337148909522
 20
5.284159431164473
 30
0.0
 11
0.3520337148909522
 21
5.295970454786521
 31
0.0
  0
LINE
  5
3F0B
330
1E
100
AcDbEntity
  8
3
100
AcDbLine
 10
0.3362856833948893
 20
5.28809643903849
 30
0.0
 11
0.3343171794578801
 21
5.286127935101481
 31
0.0
  0
LINE
  5
3F0C
330
1E
100
AcDbEntity
  8
3
100
AcDbLine
 10
0.3343171794578801
 20
5.286127935101481
 30
0.0
 11
0.3323486755208727
 21
5.282190927227466
 31
0.0
  0
LINE
  5
3F0D
330
1E
100
AcDbEntity
  8
3
100
AcDbLine
 10
0.3323486755208727
 20
5.282190927227466
 30
0.0
 11
0.3323486755208727
 21
5.272348407542427
 31
0.0
  0
LINE
  5
3F0E
330
1E
100
AcDbEntity
  8
3
100
AcDbLine
 10
0.3323486755208727
 20
5.272348407542427
 30
0.0
 11
0.3323486755208727
 21
5.270379903605418
 31
0.0
  0
LINE
  5
3F0F
330
1E
100
AcDbEntity
  8
3
100
AcDbLine
 10
0.3323486755208727
 20
5.270379903605418
 30
0.0
 11
0.3323486755208727
 21
5.258568879983371
 31
0.0
  0
LINE
  5
3F10
330
1E
100
AcDbEntity
  8
3
100
AcDbLine
 10
0.3323486755208727
 20
5.258568879983371
 30
0.0
 11
0.3343171794578801
 21
5.25069486423534
 31
0.0
  0
LINE
  5
3F11
330
1E
100
AcDbEntity
  8
3
100
AcDbLine
 10
0.3343171794578801
 20
5.25069486423534
 30
0.0
 11
0.3382541873318967
 21
5.242820848487308
 31
0.0
  0
LINE
  5
3F12
330
1E
100
AcDbEntity
  8
3
100
AcDbLine
 10
1.668962848749218
 20
5.528253919353449
 30
0.0
 11
1.661088833001187
 21
5.520379903605418
 31
0.0
  0
LINE
  5
3F13
330
1E
100
AcDbEntity
  8
3
100
AcDbLine
 10
1.661088833001187
 20
5.520379903605418
 30
0.0
 11
1.657151825127172
 21
5.512505887857386
 31
0.0
  0
LINE
  5
3F14
330
1E
100
AcDbEntity
  8
3
100
AcDbLine
 10
1.814632140087802
 20
5.587309037463686
 30
0.0
 11
1.804789620402763
 21
5.559749982345575
 31
0.0
  0
LINE
  5
3F15
330
1E
100
AcDbEntity
  8
3
100
AcDbLine
 10
1.804789620402763
 20
5.559749982345575
 30
0.0
 11
1.777230565284652
 21
5.540064942975497
 31
0.0
  0
LINE
  5
3F16
330
1E
100
AcDbEntity
  8
3
100
AcDbLine
 10
1.777230565284652
 20
5.540064942975497
 30
0.0
 11
1.739828990481502
 21
5.534159431164473
 31
0.0
  0
LINE
  5
3F17
330
1E
100
AcDbEntity
  8
3
100
AcDbLine
 10
1.739828990481502
 20
5.534159431164473
 30
0.0
 11
1.739828990481502
 21
5.528253919353449
 31
0.0
  0
LINE
  5
3F18
330
1E
100
AcDbEntity
  8
3
100
AcDbLine
 10
0.9996715101665429
 20
5.295970454786521
 30
0.0
 11
1.007545525914574
 21
5.303844470534553
 31
0.0
  0
LINE
  5
3F19
330
1E
100
AcDbEntity
  8
3
100
AcDbLine
 10
1.007545525914574
 20
5.303844470534553
 30
0.0
 11
1.01935654953662
 21
5.307781478408568
 31
0.0
  0
LINE
  5
3F1A
330
1E
100
AcDbEntity
  8
3
100
AcDbLine
 10
0.9996715101665429
 20
5.632584628014868
 30
0.0
 11
1.005577021977565
 21
5.642427147699907
 31
0.0
  0
LINE
  5
3F1B
330
1E
100
AcDbEntity
  8
3
100
AcDbLine
 10
1.005577021977565
 20
5.642427147699907
 30
0.0
 11
1.01935654953662
 21
5.646364155573923
 31
0.0
  0
LINE
  5
3F1C
330
1E
100
AcDbEntity
  8
3
100
AcDbLine
 10
1.01935654953662
 20
5.652269667384945
 30
0.0
 11
1.01935654953662
 21
5.650301163447938
 31
0.0
  0
LINE
  5
3F1D
330
1E
100
AcDbEntity
  8
3
100
AcDbLine
 10
1.01935654953662
 20
5.650301163447938
 30
0.0
 11
1.01935654953662
 21
5.646364155573923
 31
0.0
  0
LINE
  5
3F1E
330
1E
100
AcDbEntity
  8
3
100
AcDbLine
 10
1.739828990481502
 20
5.652269667384945
 30
0.0
 11
1.739828990481502
 21
5.650301163447938
 31
0.0
  0
LINE
  5
3F1F
330
1E
100
AcDbEntity
  8
3
100
AcDbLine
 10
1.739828990481502
 20
5.650301163447938
 30
0.0
 11
1.739828990481502
 21
5.646364155573923
 31
0.0
  0
LINE
  5
3F20
330
1E
100
AcDbEntity
  8
3
100
AcDbLine
 10
1.739828990481502
 20
5.540064942975497
 30
0.0
 11
1.777230565284652
 21
5.547938958723529
 31
0.0
  0
LINE
  5
3F21
330
1E
100
AcDbEntity
  8
3
100
AcDbLine
 10
1.777230565284652
 20
5.547938958723529
 30
0.0
 11
1.804789620402763
 21
5.567623998093607
 31
0.0
  0
LINE
  5
3F22
330
1E
100
AcDbEntity
  8
3
100
AcDbLine
 10
1.804789620402763
 20
5.567623998093607
 30
0.0
 11
1.814632140087802
 21
5.59321454927471
 31
0.0
  0
LINE
  5
3F23
330
1E
100
AcDbEntity
  8
3
100
AcDbLine
 10
1.739828990481502
 20
5.540064942975497
 30
0.0
 11
1.739828990481502
 21
5.553844470534553
 31
0.0
  0
LINE
  5
3F24
330
1E
100
AcDbEntity
  8
3
100
AcDbLine
 10
1.739828990481502
 20
5.553844470534553
 30
0.0
 11
1.739828990481502
 21
5.569592502030616
 31
0.0
  0
LINE
  5
3F25
330
1E
100
AcDbEntity
  8
3
100
AcDbLine
 10
1.686679384182291
 20
5.540064942975497
 30
0.0
 11
1.686679384182291
 21
5.553844470534553
 31
0.0
  0
LINE
  5
3F26
330
1E
100
AcDbEntity
  8
3
100
AcDbLine
 10
1.686679384182291
 20
5.553844470534553
 30
0.0
 11
1.686679384182291
 21
5.569592502030616
 31
0.0
  0
LINE
  5
3F27
330
1E
100
AcDbEntity
  8
3
100
AcDbLine
 10
1.657151825127172
 20
5.51841139966841
 30
0.0
 11
1.661088833001187
 21
5.528253919353449
 31
0.0
  0
LINE
  5
3F28
330
1E
100
AcDbEntity
  8
3
100
AcDbLine
 10
1.661088833001187
 20
5.528253919353449
 30
0.0
 11
1.670931352686228
 21
5.536127935101481
 31
0.0
  0
LINE
  5
3F29
330
1E
100
AcDbEntity
  8
3
100
AcDbLine
 10
1.657151825127172
 20
5.51841139966841
 30
0.0
 11
1.651246313316148
 21
5.530222423290458
 31
0.0
  0
LINE
  5
3F2A
330
1E
100
AcDbEntity
  8
3
100
AcDbLine
 10
1.651246313316148
 20
5.530222423290458
 30
0.0
 11
1.637466785757093
 21
5.534159431164473
 31
0.0
  0
LINE
  5
3F2B
330
1E
100
AcDbEntity
  8
3
100
AcDbLine
 10
1.01935654953662
 20
5.307781478408568
 30
0.0
 11
1.074474659772841
 21
5.307781478408568
 31
0.0
  0
LINE
  5
3F2C
330
1E
100
AcDbEntity
  8
3
100
AcDbLine
 10
1.074474659772841
 20
5.307781478408568
 30
0.0
 11
1.080380171583865
 21
5.30581297447156
 31
0.0
  0
LINE
  5
3F2D
330
1E
100
AcDbEntity
  8
3
100
AcDbLine
 10
1.080380171583865
 20
5.30581297447156
 30
0.0
 11
1.082348675520872
 21
5.301875966597544
 31
0.0
  0
LINE
  5
3F2E
330
1E
100
AcDbEntity
  8
3
100
AcDbLine
 10
1.739828990481502
 20
5.646364155573923
 30
0.0
 11
1.771325053473628
 21
5.63849013982589
 31
0.0
  0
LINE
  5
3F2F
330
1E
100
AcDbEntity
  8
3
100
AcDbLine
 10
1.771325053473628
 20
5.63849013982589
 30
0.0
 11
1.791010092843707
 21
5.618805100455812
 31
0.0
  0
LINE
  5
3F30
330
1E
100
AcDbEntity
  8
3
100
AcDbLine
 10
1.791010092843707
 20
5.618805100455812
 30
0.0
 11
1.791010092843707
 21
5.595183053211718
 31
0.0
  0
LINE
  5
3F31
330
1E
100
AcDbEntity
  8
3
100
AcDbLine
 10
1.791010092843707
 20
5.595183053211718
 30
0.0
 11
1.771325053473628
 21
5.575498013841638
 31
0.0
  0
LINE
  5
3F32
330
1E
100
AcDbEntity
  8
3
100
AcDbLine
 10
1.771325053473628
 20
5.575498013841638
 30
0.0
 11
1.739828990481502
 21
5.569592502030616
 31
0.0
  0
LINE
  5
3F33
330
1E
100
AcDbEntity
  8
3
100
AcDbLine
 10
1.686679384182291
 20
5.569592502030616
 30
0.0
 11
1.651246313316148
 21
5.557781478408568
 31
0.0
  0
LINE
  5
3F34
330
1E
100
AcDbEntity
  8
3
100
AcDbLine
 10
1.651246313316148
 20
5.557781478408568
 30
0.0
 11
1.637466785757093
 21
5.534159431164473
 31
0.0
  0
LINE
  5
3F35
330
1E
100
AcDbEntity
  8
3
100
AcDbLine
 10
1.082348675520872
 20
5.295970454786521
 30
0.0
 11
1.082348675520872
 21
5.297938958723529
 31
0.0
  0
LINE
  5
3F36
330
1E
100
AcDbEntity
  8
3
100
AcDbLine
 10
1.082348675520872
 20
5.297938958723529
 30
0.0
 11
1.082348675520872
 21
5.301875966597544
 31
0.0
  0
LINE
  5
3F37
330
1E
100
AcDbEntity
  8
3
100
AcDbLine
 10
1.131561273946068
 20
5.295970454786521
 30
0.0
 11
1.131561273946068
 21
5.297938958723529
 31
0.0
  0
LINE
  5
3F38
330
1E
100
AcDbEntity
  8
3
100
AcDbLine
 10
1.131561273946068
 20
5.297938958723529
 30
0.0
 11
1.131561273946068
 21
5.301875966597544
 31
0.0
  0
LINE
  5
3F39
330
1E
100
AcDbEntity
  8
3
100
AcDbLine
 10
1.131561273946068
 20
5.301875966597544
 30
0.0
 11
1.082348675520872
 21
5.301875966597544
 31
0.0
  0
LINE
  5
3F3A
330
1E
100
AcDbEntity
  8
3
100
AcDbLine
 10
1.131561273946068
 20
5.295970454786521
 30
0.0
 11
1.131561273946068
 21
5.282190927227466
 31
0.0
  0
LINE
  5
3F3B
330
1E
100
AcDbEntity
  8
3
100
AcDbLine
 10
1.131561273946068
 20
5.282190927227466
 30
0.0
 11
1.131561273946068
 21
5.25069486423534
 31
0.0
  0
LINE
  5
3F3C
330
1E
100
AcDbEntity
  8
3
100
AcDbLine
 10
1.131561273946068
 20
5.25069486423534
 30
0.0
 11
1.131561273946068
 21
5.219198801243214
 31
0.0
  0
LINE
  5
3F3D
330
1E
100
AcDbEntity
  8
3
100
AcDbLine
 10
1.670931352686228
 20
5.264474391794395
 30
0.0
 11
1.663057336938196
 21
5.270379903605418
 31
0.0
  0
LINE
  5
3F3E
330
1E
100
AcDbEntity
  8
3
100
AcDbLine
 10
1.663057336938196
 20
5.270379903605418
 30
0.0
 11
1.670931352686228
 21
5.274316911479434
 31
0.0
  0
LINE
  5
3F3F
330
1E
100
AcDbEntity
  8
3
100
AcDbLine
 10
1.637466785757093
 20
5.301875966597544
 30
0.0
 11
1.637466785757093
 21
5.297938958723529
 31
0.0
  0
LINE
  5
3F40
330
1E
100
AcDbEntity
  8
3
100
AcDbLine
 10
1.637466785757093
 20
5.297938958723529
 30
0.0
 11
1.637466785757093
 21
5.295970454786521
 31
0.0
  0
LINE
  5
3F41
330
1E
100
AcDbEntity
  8
3
100
AcDbLine
 10
1.637466785757093
 20
5.301875966597544
 30
0.0
 11
1.649277809379141
 21
5.297938958723529
 31
0.0
  0
LINE
  5
3F42
330
1E
100
AcDbEntity
  8
3
100
AcDbLine
 10
1.649277809379141
 20
5.297938958723529
 30
0.0
 11
1.657151825127172
 21
5.290064942975497
 31
0.0
  0
LINE
  5
3F43
330
1E
100
AcDbEntity
  8
3
100
AcDbLine
 10
1.655183321190165
 20
5.256600376046364
 30
0.0
 11
1.655183321190165
 21
5.258568879983371
 31
0.0
  0
LINE
  5
3F44
330
1E
100
AcDbEntity
  8
3
100
AcDbLine
 10
1.655183321190165
 20
5.258568879983371
 30
0.0
 11
1.657151825127172
 21
5.266442895731403
 31
0.0
  0
LINE
  5
3F45
330
1E
100
AcDbEntity
  8
3
100
AcDbLine
 10
1.657151825127172
 20
5.266442895731403
 30
0.0
 11
1.657151825127172
 21
5.270379903605418
 31
0.0
  0
LINE
  5
3F46
330
1E
100
AcDbEntity
  8
3
100
AcDbLine
 10
1.657151825127172
 20
5.270379903605418
 30
0.0
 11
1.657151825127172
 21
5.282190927227466
 31
0.0
  0
LINE
  5
3F47
330
1E
100
AcDbEntity
  8
3
100
AcDbLine
 10
1.657151825127172
 20
5.282190927227466
 30
0.0
 11
1.655183321190165
 21
5.282190927227466
 31
0.0
  0
LINE
  5
3F48
330
1E
100
AcDbEntity
  8
3
100
AcDbLine
 10
1.641403793631109
 20
5.225104313054238
 30
0.0
 11
1.641403793631109
 21
5.227072816991245
 31
0.0
  0
LINE
  5
3F49
330
1E
100
AcDbEntity
  8
3
100
AcDbLine
 10
1.641403793631109
 20
5.227072816991245
 30
0.0
 11
1.647309305442133
 21
5.236915336676284
 31
0.0
  0
LINE
  5
3F4A
330
1E
100
AcDbEntity
  8
3
100
AcDbLine
 10
1.647309305442133
 20
5.236915336676284
 30
0.0
 11
1.651246313316148
 21
5.246757856361323
 31
0.0
  0
LINE
  5
3F4B
330
1E
100
AcDbEntity
  8
3
100
AcDbLine
 10
1.651246313316148
 20
5.246757856361323
 30
0.0
 11
1.655183321190165
 21
5.256600376046364
 31
0.0
  0
LINE
  5
3F4C
330
1E
100
AcDbEntity
  8
3
100
AcDbLine
 10
1.637466785757093
 20
5.295970454786521
 30
0.0
 11
1.637466785757093
 21
5.284159431164473
 31
0.0
  0
LINE
  5
3F4D
330
1E
100
AcDbEntity
  8
3
100
AcDbLine
 10
1.637466785757093
 20
5.284159431164473
 30
0.0
 11
1.637466785757093
 21
5.256600376046364
 31
0.0
  0
LINE
  5
3F4E
330
1E
100
AcDbEntity
  8
3
100
AcDbLine
 10
1.637466785757093
 20
5.256600376046364
 30
0.0
 11
1.637466785757093
 21
5.225104313054238
 31
0.0
  0
LINE
  5
3F4F
330
1E
100
AcDbEntity
  8
3
100
AcDbLine
 10
1.607939226701974
 20
5.295970454786521
 30
0.0
 11
1.607939226701974
 21
5.297938958723529
 31
0.0
  0
LINE
  5
3F50
330
1E
100
AcDbEntity
  8
3
100
AcDbLine
 10
1.607939226701974
 20
5.297938958723529
 30
0.0
 11
1.607939226701974
 21
5.301875966597544
 31
0.0
  0
LINE
  5
3F51
330
1E
100
AcDbEntity
  8
3
100
AcDbLine
 10
1.607939226701974
 20
5.282190927227466
 30
0.0
 11
1.607939226701974
 21
5.25069486423534
 31
0.0
  0
LINE
  5
3F52
330
1E
100
AcDbEntity
  8
3
100
AcDbLine
 10
1.607939226701974
 20
5.25069486423534
 30
0.0
 11
1.607939226701974
 21
5.219198801243214
 31
0.0
  0
LINE
  5
3F53
330
1E
100
AcDbEntity
  8
3
100
AcDbLine
 10
1.657151825127172
 20
5.437702738251088
 30
0.0
 11
1.647309305442133
 21
5.457387777621166
 31
0.0
  0
LINE
  5
3F54
330
1E
100
AcDbEntity
  8
3
100
AcDbLine
 10
1.647309305442133
 20
5.457387777621166
 30
0.0
 11
1.647309305442133
 21
5.51841139966841
 31
0.0
  0
LINE
  5
3F55
330
1E
100
AcDbEntity
  8
3
100
AcDbLine
 10
1.082348675520872
 20
5.219198801243214
 30
0.0
 11
1.082348675520872
 21
5.23100982486526
 31
0.0
  0
LINE
  5
3F56
330
1E
100
AcDbEntity
  8
3
100
AcDbLine
 10
1.082348675520872
 20
5.23100982486526
 30
0.0
 11
1.082348675520872
 21
5.244789352424316
 31
0.0
  0
LINE
  5
3F57
330
1E
100
AcDbEntity
  8
3
100
AcDbLine
 10
0.9071518251271726
 20
5.219198801243214
 30
0.0
 11
0.9071518251271726
 21
5.23100982486526
 31
0.0
  0
LINE
  5
3F58
330
1E
100
AcDbEntity
  8
3
100
AcDbLine
 10
0.9071518251271726
 20
5.23100982486526
 30
0.0
 11
0.9071518251271726
 21
5.244789352424316
 31
0.0
  0
LINE
  5
3F59
330
1E
100
AcDbEntity
  8
3
100
AcDbLine
 10
1.082348675520872
 20
5.295970454786521
 30
0.0
 11
1.082348675520872
 21
5.292033446912505
 31
0.0
  0
LINE
  5
3F5A
330
1E
100
AcDbEntity
  8
3
100
AcDbLine
 10
1.082348675520872
 20
5.292033446912505
 30
0.0
 11
1.082348675520872
 21
5.282190927227466
 31
0.0
  0
LINE
  5
3F5B
330
1E
100
AcDbEntity
  8
3
100
AcDbLine
 10
0.9071518251271726
 20
5.295970454786521
 30
0.0
 11
0.9071518251271726
 21
5.292033446912505
 31
0.0
  0
LINE
  5
3F5C
330
1E
100
AcDbEntity
  8
3
100
AcDbLine
 10
0.9071518251271726
 20
5.292033446912505
 30
0.0
 11
0.9071518251271726
 21
5.282190927227466
 31
0.0
  0
LINE
  5
3F5D
330
1E
100
AcDbEntity
  8
3
100
AcDbLine
 10
1.082348675520872
 20
5.282190927227466
 30
0.0
 11
1.082348675520872
 21
5.264474391794395
 31
0.0
  0
LINE
  5
3F5E
330
1E
100
AcDbEntity
  8
3
100
AcDbLine
 10
1.082348675520872
 20
5.264474391794395
 30
0.0
 11
1.082348675520872
 21
5.244789352424316
 31
0.0
  0
LINE
  5
3F5F
330
1E
100
AcDbEntity
  8
3
100
AcDbLine
 10
1.082348675520872
 20
5.282190927227466
 30
0.0
 11
0.9071518251271726
 21
5.282190927227466
 31
0.0
  0
LINE
  5
3F60
330
1E
100
AcDbEntity
  8
3
100
AcDbLine
 10
0.9071518251271726
 20
5.282190927227466
 30
0.0
 11
0.9071518251271726
 21
5.264474391794395
 31
0.0
  0
LINE
  5
3F61
330
1E
100
AcDbEntity
  8
3
100
AcDbLine
 10
0.9071518251271726
 20
5.264474391794395
 30
0.0
 11
0.9071518251271726
 21
5.244789352424316
 31
0.0
  0
LINE
  5
3F62
330
1E
100
AcDbEntity
  8
3
100
AcDbLine
 10
1.55675812433977
 20
5.664080691006994
 30
0.0
 11
1.55675812433977
 21
5.669986202818018
 31
0.0
  0
LINE
  5
3F63
330
1E
100
AcDbEntity
  8
3
100
AcDbLine
 10
1.55675812433977
 20
5.669986202818018
 30
0.0
 11
1.55675812433977
 21
5.677860218566049
 31
0.0
  0
LINE
  5
3F64
330
1E
100
AcDbEntity
  8
3
100
AcDbLine
 10
0.228017966859456
 20
5.319592502030616
 30
0.0
 11
0.228017966859456
 21
5.183765730377071
 31
0.0
  0
LINE
  5
3F65
330
1E
100
AcDbEntity
  8
3
100
AcDbLine
 10
0.228017966859456
 20
5.183765730377071
 30
0.0
 11
0.3067581243397708
 21
5.183765730377071
 31
0.0
  0
LINE
  5
3F66
330
1E
100
AcDbEntity
  8
3
100
AcDbLine
 10
0.3067581243397708
 20
5.183765730377071
 30
0.0
 11
0.3067581243397708
 21
5.319592502030616
 31
0.0
  0
LINE
  5
3F67
330
1E
100
AcDbEntity
  8
3
100
AcDbLine
 10
0.3185691479618171
 20
5.25069486423534
 30
0.0
 11
0.3166006440248097
 21
5.282190927227466
 31
0.0
  0
LINE
  5
3F68
330
1E
100
AcDbEntity
  8
3
100
AcDbLine
 10
0.3166006440248097
 20
5.282190927227466
 30
0.0
 11
0.3166006440248097
 21
5.30581297447156
 31
0.0
  0
LINE
  5
3F69
330
1E
100
AcDbEntity
  8
3
100
AcDbLine
 10
0.3166006440248097
 20
5.30581297447156
 30
0.0
 11
0.3185691479618171
 21
5.317623998093607
 31
0.0
  0
LINE
  5
3F6A
330
1E
100
AcDbEntity
  8
3
100
AcDbLine
 10
0.3185691479618171
 20
5.317623998093607
 30
0.0
 11
0.3185691479618171
 21
5.315655494156599
 31
0.0
  0
LINE
  5
3F6B
330
1E
100
AcDbEntity
  8
3
100
AcDbLine
 10
0.3185691479618171
 20
5.315655494156599
 30
0.0
 11
0.3205376518988263
 21
5.297938958723529
 31
0.0
  0
LINE
  5
3F6C
330
1E
100
AcDbEntity
  8
3
100
AcDbLine
 10
0.3166006440248097
 20
5.339277541400694
 30
0.0
 11
0.3166006440248097
 21
5.331403525652662
 31
0.0
  0
LINE
  5
3F6D
330
1E
100
AcDbEntity
  8
3
100
AcDbLine
 10
0.3166006440248097
 20
5.331403525652662
 30
0.0
 11
0.3166006440248097
 21
5.313686990219592
 31
0.0
  0
LINE
  5
3F6E
330
1E
100
AcDbEntity
  8
3
100
AcDbLine
 10
0.3166006440248097
 20
5.313686990219592
 30
0.0
 11
0.3126636361507948
 21
5.317623998093607
 31
0.0
  0
LINE
  5
3F6F
330
1E
100
AcDbEntity
  8
3
100
AcDbLine
 10
0.3126636361507948
 20
5.317623998093607
 30
0.0
 11
0.3067581243397708
 21
5.319592502030616
 31
0.0
  0
LINE
  5
3F70
330
1E
100
AcDbEntity
  8
3
100
AcDbLine
 10
0.3166006440248097
 20
5.339277541400694
 30
0.0
 11
0.3146321400878023
 21
5.345183053211718
 31
0.0
  0
LINE
  5
3F71
330
1E
100
AcDbEntity
  8
3
100
AcDbLine
 10
0.3146321400878023
 20
5.345183053211718
 30
0.0
 11
0.3067581243397708
 21
5.349120061085733
 31
0.0
  0
LINE
  5
3F72
330
1E
100
AcDbEntity
  8
3
100
AcDbLine
 10
0.212269935363393
 20
5.307781478408568
 30
0.0
 11
0.2181754471744171
 21
5.315655494156599
 31
0.0
  0
LINE
  5
3F73
330
1E
100
AcDbEntity
  8
3
100
AcDbLine
 10
0.2181754471744171
 20
5.315655494156599
 30
0.0
 11
0.228017966859456
 21
5.319592502030616
 31
0.0
  0
LINE
  5
3F74
330
1E
100
AcDbEntity
  8
3
100
AcDbLine
 10
0.228017966859456
 20
5.347151557148725
 30
0.0
 11
0.2181754471744171
 21
5.34321454927471
 31
0.0
  0
LINE
  5
3F75
330
1E
100
AcDbEntity
  8
3
100
AcDbLine
 10
0.2181754471744171
 20
5.34321454927471
 30
0.0
 11
0.2142384393004004
 21
5.33337202958967
 31
0.0
  0
LINE
  5
3F76
330
1E
100
AcDbEntity
  8
3
100
AcDbLine
 10
0.228017966859456
 20
5.349120061085733
 30
0.0
 11
0.228017966859456
 21
5.341246045337701
 31
0.0
  0
LINE
  5
3F77
330
1E
100
AcDbEntity
  8
3
100
AcDbLine
 10
0.228017966859456
 20
5.341246045337701
 30
0.0
 11
0.228017966859456
 21
5.319592502030616
 31
0.0
  0
LINE
  5
3F78
330
1E
100
AcDbEntity
  8
3
100
AcDbLine
 10
0.228017966859456
 20
5.319592502030616
 30
0.0
 11
0.3067581243397708
 21
5.319592502030616
 31
0.0
  0
LINE
  5
3F79
330
1E
100
AcDbEntity
  8
3
100
AcDbLine
 10
0.3067581243397708
 20
5.319592502030616
 30
0.0
 11
0.3067581243397708
 21
5.341246045337701
 31
0.0
  0
LINE
  5
3F7A
330
1E
100
AcDbEntity
  8
3
100
AcDbLine
 10
0.3067581243397708
 20
5.341246045337701
 30
0.0
 11
0.3067581243397708
 21
5.349120061085733
 31
0.0
  0
LINE
  5
3F7B
330
1E
100
AcDbEntity
  8
3
100
AcDbLine
 10
0.228017966859456
 20
5.349120061085733
 30
0.0
 11
0.3067581243397708
 21
5.349120061085733
 31
0.0
  0
LINE
  5
3F7C
330
1E
100
AcDbEntity
  8
3
100
AcDbLine
 10
0.3067581243397708
 20
5.349120061085733
 30
0.0
 11
0.3087266282767782
 21
5.349120061085733
 31
0.0
  0
LINE
  5
3F7D
330
1E
100
AcDbEntity
  8
3
100
AcDbLine
 10
0.3087266282767782
 20
5.349120061085733
 30
0.0
 11
0.3087266282767782
 21
5.536127935101481
 31
0.0
  0
LINE
  5
3F7E
330
1E
100
AcDbEntity
  8
3
100
AcDbLine
 10
0.3087266282767782
 20
5.536127935101481
 30
0.0
 11
0.3067581243397708
 21
5.53809643903849
 31
0.0
  0
LINE
  5
3F7F
330
1E
100
AcDbEntity
  8
3
100
AcDbLine
 10
0.3067581243397708
 20
5.53809643903849
 30
0.0
 11
0.3067581243397708
 21
5.540064942975497
 31
0.0
  0
LINE
  5
3F80
330
1E
100
AcDbEntity
  8
3
100
AcDbLine
 10
0.3067581243397708
 20
5.540064942975497
 30
0.0
 11
0.3067581243397708
 21
5.542033446912505
 31
0.0
  0
LINE
  5
3F81
330
1E
100
AcDbEntity
  8
3
100
AcDbLine
 10
0.3067581243397708
 20
5.53809643903849
 30
0.0
 11
0.3067581243397708
 21
5.540064942975497
 31
0.0
  0
LINE
  5
3F82
330
1E
100
AcDbEntity
  8
3
100
AcDbLine
 10
0.3067581243397708
 20
5.540064942975497
 30
0.0
 11
0.3067581243397708
 21
5.542033446912505
 31
0.0
  0
LINE
  5
3F83
330
1E
100
AcDbEntity
  8
3
100
AcDbLine
 10
0.3087266282767782
 20
5.536127935101481
 30
0.0
 11
0.3166006440248097
 21
5.534159431164473
 31
0.0
  0
LINE
  5
3F84
330
1E
100
AcDbEntity
  8
3
100
AcDbLine
 10
0.3166006440248097
 20
5.534159431164473
 30
0.0
 11
0.3205376518988263
 21
5.530222423290458
 31
0.0
  0
LINE
  5
3F85
330
1E
100
AcDbEntity
  8
3
100
AcDbLine
 10
0.3067581243397708
 20
5.53809643903849
 30
0.0
 11
0.2713250534736282
 21
5.534159431164473
 31
0.0
  0
LINE
  5
3F86
330
1E
100
AcDbEntity
  8
3
100
AcDbLine
 10
0.2713250534736282
 20
5.534159431164473
 30
0.0
 11
0.2417974944185115
 21
5.520379903605418
 31
0.0
  0
LINE
  5
3F87
330
1E
100
AcDbEntity
  8
3
100
AcDbLine
 10
0.2417974944185115
 20
5.520379903605418
 30
0.0
 11
0.2221124550484319
 21
5.50069486423534
 31
0.0
  0
LINE
  5
3F88
330
1E
100
AcDbEntity
  8
3
100
AcDbLine
 10
0.212269935363393
 20
5.181797226440064
 30
0.0
 11
0.212269935363393
 21
5.307781478408568
 31
0.0
  0
LINE
  5
3F89
330
1E
100
AcDbEntity
  8
3
100
AcDbLine
 10
0.212269935363393
 20
5.307781478408568
 30
0.0
 11
0.212269935363393
 21
5.325498013841638
 31
0.0
  0
LINE
  5
3F8A
330
1E
100
AcDbEntity
  8
3
100
AcDbLine
 10
0.212269935363393
 20
5.325498013841638
 30
0.0
 11
0.212269935363393
 21
5.33337202958967
 31
0.0
  0
LINE
  5
3F8B
330
1E
100
AcDbEntity
  8
3
100
AcDbLine
 10
0.212269935363393
 20
5.33337202958967
 30
0.0
 11
0.212269935363393
 21
5.536127935101481
 31
0.0
  0
LINE
  5
3F8C
330
1E
100
AcDbEntity
  8
3
100
AcDbLine
 10
1.55675812433977
 20
5.660143683132977
 30
0.0
 11
0.4327423763082745
 21
5.660143683132977
 31
0.0
  0
LINE
  5
3F8D
330
1E
100
AcDbEntity
  8
3
100
AcDbLine
 10
0.4327423763082745
 20
5.660143683132977
 30
0.0
 11
0.4327423763082745
 21
5.664080691006994
 31
0.0
  0
LINE
  5
3F8E
330
1E
100
AcDbEntity
  8
3
100
AcDbLine
 10
0.23392347867048
 20
5.652269667384945
 30
0.0
 11
0.2654195416626059
 21
5.669986202818018
 31
0.0
  0
LINE
  5
3F8F
330
1E
100
AcDbEntity
  8
3
100
AcDbLine
 10
0.2654195416626059
 20
5.669986202818018
 30
0.0
 11
0.3067581243397708
 21
5.677860218566049
 31
0.0
  0
LINE
  5
3F90
330
1E
100
AcDbEntity
  8
3
100
AcDbLine
 10
0.3067581243397708
 20
5.725104313054238
 30
0.0
 11
0.2555770219775653
 21
5.715261793369197
 31
0.0
  0
LINE
  5
3F91
330
1E
100
AcDbEntity
  8
3
100
AcDbLine
 10
0.2555770219775653
 20
5.715261793369197
 30
0.0
 11
0.2221124550484319
 21
5.685734234314081
 31
0.0
  0
LINE
  5
3F92
330
1E
100
AcDbEntity
  8
3
100
AcDbLine
 10
0.2221124550484319
 20
5.685734234314081
 30
0.0
 11
0.2162069432374079
 21
5.673923210692032
 31
0.0
  0
LINE
  5
3F93
330
1E
100
AcDbEntity
  8
3
100
AcDbLine
 10
0.2162069432374079
 20
5.673923210692032
 30
0.0
 11
0.212269935363393
 21
5.660143683132977
 31
0.0
  0
LINE
  5
3F94
330
1E
100
AcDbEntity
  8
3
100
AcDbLine
 10
0.3067581243397708
 20
5.725104313054238
 30
0.0
 11
0.3067581243397708
 21
5.744789352424316
 31
0.0
  0
LINE
  5
3F95
330
1E
100
AcDbEntity
  8
3
100
AcDbLine
 10
0.3067581243397708
 20
5.744789352424316
 30
0.0
 11
0.3067581243397708
 21
5.752663368172347
 31
0.0
  0
LINE
  5
3F96
330
1E
100
AcDbEntity
  8
3
100
AcDbLine
 10
0.3067581243397708
 20
5.664080691006994
 30
0.0
 11
0.3067581243397708
 21
5.669986202818018
 31
0.0
  0
LINE
  5
3F97
330
1E
100
AcDbEntity
  8
3
100
AcDbLine
 10
0.3067581243397708
 20
5.669986202818018
 30
0.0
 11
0.3067581243397708
 21
5.677860218566049
 31
0.0
  0
LINE
  5
3F98
330
1E
100
AcDbEntity
  8
3
100
AcDbLine
 10
0.4327423763082745
 20
5.664080691006994
 30
0.0
 11
0.4327423763082745
 21
5.669986202818018
 31
0.0
  0
LINE
  5
3F99
330
1E
100
AcDbEntity
  8
3
100
AcDbLine
 10
0.4327423763082745
 20
5.669986202818018
 30
0.0
 11
0.4327423763082745
 21
5.677860218566049
 31
0.0
  0
LINE
  5
3F9A
330
1E
100
AcDbEntity
  8
3
100
AcDbLine
 10
1.682742376308274
 20
5.664080691006994
 30
0.0
 11
1.682742376308274
 21
5.669986202818018
 31
0.0
  0
LINE
  5
3F9B
330
1E
100
AcDbEntity
  8
3
100
AcDbLine
 10
1.682742376308274
 20
5.669986202818018
 30
0.0
 11
1.682742376308274
 21
5.677860218566049
 31
0.0
  0
LINE
  5
3F9C
330
1E
100
AcDbEntity
  8
3
100
AcDbLine
 10
1.682742376308274
 20
5.725104313054238
 30
0.0
 11
1.682742376308274
 21
5.744789352424316
 31
0.0
  0
LINE
  5
3F9D
330
1E
100
AcDbEntity
  8
3
100
AcDbLine
 10
1.682742376308274
 20
5.744789352424316
 30
0.0
 11
1.682742376308274
 21
5.752663368172347
 31
0.0
  0
LINE
  5
3F9E
330
1E
100
AcDbEntity
  8
3
100
AcDbLine
 10
1.682742376308274
 20
5.725104313054238
 30
0.0
 11
1.73392347867048
 21
5.715261793369197
 31
0.0
  0
LINE
  5
3F9F
330
1E
100
AcDbEntity
  8
3
100
AcDbLine
 10
1.73392347867048
 20
5.715261793369197
 30
0.0
 11
1.767388045599613
 21
5.685734234314081
 31
0.0
  0
LINE
  5
3FA0
330
1E
100
AcDbEntity
  8
3
100
AcDbLine
 10
1.755577021977565
 20
5.652269667384945
 30
0.0
 11
1.722112455048431
 21
5.669986202818018
 31
0.0
  0
LINE
  5
3FA1
330
1E
100
AcDbEntity
  8
3
100
AcDbLine
 10
1.722112455048431
 20
5.669986202818018
 30
0.0
 11
1.682742376308274
 21
5.677860218566049
 31
0.0
  0
LINE
  5
3FA2
330
1E
100
AcDbEntity
  8
3
100
AcDbLine
 10
0.4327423763082745
 20
5.681797226440064
 30
0.0
 11
1.55675812433977
 21
5.681797226440064
 31
0.0
  0
LINE
  5
3FA3
330
1E
100
AcDbEntity
  8
3
100
AcDbLine
 10
1.55675812433977
 20
5.681797226440064
 30
0.0
 11
1.55675812433977
 21
5.677860218566049
 31
0.0
  0
LINE
  5
3FA4
330
1E
100
AcDbEntity
  8
3
100
AcDbLine
 10
1.682742376308274
 20
5.725104313054238
 30
0.0
 11
0.3067581243397708
 21
5.725104313054238
 31
0.0
  0
LINE
  5
3FA5
330
1E
100
AcDbEntity
  8
3
100
AcDbLine
 10
0.3067581243397708
 20
5.725104313054238
 30
0.0
 11
0.3067581243397708
 21
5.677860218566049
 31
0.0
  0
LINE
  5
3FA6
330
1E
100
AcDbEntity
  8
3
100
AcDbLine
 10
0.3067581243397708
 20
5.677860218566049
 30
0.0
 11
0.4327423763082745
 21
5.677860218566049
 31
0.0
  0
LINE
  5
3FA7
330
1E
100
AcDbEntity
  8
3
100
AcDbLine
 10
1.082348675520872
 20
5.219198801243214
 30
0.0
 11
0.9071518251271726
 21
5.219198801243214
 31
0.0
  0
LINE
  5
3FA8
330
1E
100
AcDbEntity
  8
3
100
AcDbLine
 10
0.9071518251271726
 20
5.219198801243214
 30
0.0
 11
0.9071518251271726
 21
5.215261793369197
 31
0.0
  0
LINE
  5
3FA9
330
1E
100
AcDbEntity
  8
3
100
AcDbLine
 10
1.670931352686228
 20
5.25069486423534
 30
0.0
 11
1.670931352686228
 21
5.282190927227466
 31
0.0
  0
LINE
  5
3FAA
330
1E
100
AcDbEntity
  8
3
100
AcDbLine
 10
1.670931352686228
 20
5.282190927227466
 30
0.0
 11
1.672899856623235
 21
5.30581297447156
 31
0.0
  0
LINE
  5
3FAB
330
1E
100
AcDbEntity
  8
3
100
AcDbLine
 10
1.672899856623235
 20
5.30581297447156
 30
0.0
 11
1.670931352686228
 21
5.317623998093607
 31
0.0
  0
LINE
  5
3FAC
330
1E
100
AcDbEntity
  8
3
100
AcDbLine
 10
1.670931352686228
 20
5.317623998093607
 30
0.0
 11
1.670931352686228
 21
5.315655494156599
 31
0.0
  0
LINE
  5
3FAD
330
1E
100
AcDbEntity
  8
3
100
AcDbLine
 10
1.670931352686228
 20
5.315655494156599
 30
0.0
 11
1.668962848749218
 21
5.297938958723529
 31
0.0
  0
LINE
  5
3FAE
330
1E
100
AcDbEntity
  8
3
100
AcDbLine
 10
1.672899856623235
 20
5.331403525652662
 30
0.0
 11
1.672899856623235
 21
5.313686990219592
 31
0.0
  0
LINE
  5
3FAF
330
1E
100
AcDbEntity
  8
3
100
AcDbLine
 10
1.672899856623235
 20
5.313686990219592
 30
0.0
 11
1.67683686449725
 21
5.317623998093607
 31
0.0
  0
LINE
  5
3FB0
330
1E
100
AcDbEntity
  8
3
100
AcDbLine
 10
1.67683686449725
 20
5.317623998093607
 30
0.0
 11
1.682742376308274
 21
5.319592502030616
 31
0.0
  0
LINE
  5
3FB1
330
1E
100
AcDbEntity
  8
3
100
AcDbLine
 10
1.670931352686228
 20
5.339277541400694
 30
0.0
 11
1.674868360560243
 21
5.345183053211718
 31
0.0
  0
LINE
  5
3FB2
330
1E
100
AcDbEntity
  8
3
100
AcDbLine
 10
1.674868360560243
 20
5.345183053211718
 30
0.0
 11
1.680773872371267
 21
5.349120061085733
 31
0.0
  0
LINE
  5
3FB3
330
1E
100
AcDbEntity
  8
3
100
AcDbLine
 10
1.775262061347644
 20
5.307781478408568
 30
0.0
 11
1.771325053473628
 21
5.315655494156599
 31
0.0
  0
LINE
  5
3FB4
330
1E
100
AcDbEntity
  8
3
100
AcDbLine
 10
1.771325053473628
 20
5.315655494156599
 30
0.0
 11
1.759514029851581
 21
5.319592502030616
 31
0.0
  0
LINE
  5
3FB5
330
1E
100
AcDbEntity
  8
3
100
AcDbLine
 10
1.773293557410637
 20
5.33337202958967
 30
0.0
 11
1.76935654953662
 21
5.34321454927471
 31
0.0
  0
LINE
  5
3FB6
330
1E
100
AcDbEntity
  8
3
100
AcDbLine
 10
1.76935654953662
 20
5.34321454927471
 30
0.0
 11
1.759514029851581
 21
5.347151557148725
 31
0.0
  0
LINE
  5
3FB7
330
1E
100
AcDbEntity
  8
3
100
AcDbLine
 10
1.759514029851581
 20
5.349120061085733
 30
0.0
 11
1.759514029851581
 21
5.341246045337701
 31
0.0
  0
LINE
  5
3FB8
330
1E
100
AcDbEntity
  8
3
100
AcDbLine
 10
1.759514029851581
 20
5.341246045337701
 30
0.0
 11
1.759514029851581
 21
5.319592502030616
 31
0.0
  0
LINE
  5
3FB9
330
1E
100
AcDbEntity
  8
3
100
AcDbLine
 10
1.682742376308274
 20
5.319592502030616
 30
0.0
 11
1.682742376308274
 21
5.341246045337701
 31
0.0
  0
LINE
  5
3FBA
330
1E
100
AcDbEntity
  8
3
100
AcDbLine
 10
1.682742376308274
 20
5.341246045337701
 30
0.0
 11
1.680773872371267
 21
5.349120061085733
 31
0.0
  0
LINE
  5
3FBB
330
1E
100
AcDbEntity
  8
3
100
AcDbLine
 10
1.680773872371267
 20
5.53809643903849
 30
0.0
 11
1.682742376308274
 21
5.53809643903849
 31
0.0
  0
LINE
  5
3FBC
330
1E
100
AcDbEntity
  8
3
100
AcDbLine
 10
1.682742376308274
 20
5.53809643903849
 30
0.0
 11
1.682742376308274
 21
5.540064942975497
 31
0.0
  0
LINE
  5
3FBD
330
1E
100
AcDbEntity
  8
3
100
AcDbLine
 10
1.682742376308274
 20
5.540064942975497
 30
0.0
 11
1.682742376308274
 21
5.542033446912505
 31
0.0
  0
LINE
  5
3FBE
330
1E
100
AcDbEntity
  8
3
100
AcDbLine
 10
1.678805368434259
 20
5.536127935101481
 30
0.0
 11
1.680773872371267
 21
5.53809643903849
 31
0.0
  0
LINE
  5
3FBF
330
1E
100
AcDbEntity
  8
3
100
AcDbLine
 10
1.680773872371267
 20
5.53809643903849
 30
0.0
 11
1.680773872371267
 21
5.540064942975497
 31
0.0
  0
LINE
  5
3FC0
330
1E
100
AcDbEntity
  8
3
100
AcDbLine
 10
1.680773872371267
 20
5.540064942975497
 30
0.0
 11
1.680773872371267
 21
5.542033446912505
 31
0.0
  0
LINE
  5
3FC1
330
1E
100
AcDbEntity
  8
3
100
AcDbLine
 10
1.678805368434259
 20
5.536127935101481
 30
0.0
 11
1.672899856623235
 21
5.534159431164473
 31
0.0
  0
LINE
  5
3FC2
330
1E
100
AcDbEntity
  8
3
100
AcDbLine
 10
1.672899856623235
 20
5.534159431164473
 30
0.0
 11
1.668962848749218
 21
5.530222423290458
 31
0.0
  0
LINE
  5
3FC3
330
1E
100
AcDbEntity
  8
3
100
AcDbLine
 10
1.775262061347644
 20
5.307781478408568
 30
0.0
 11
1.775262061347644
 21
5.325498013841638
 31
0.0
  0
LINE
  5
3FC4
330
1E
100
AcDbEntity
  8
3
100
AcDbLine
 10
1.775262061347644
 20
5.325498013841638
 30
0.0
 11
1.775262061347644
 21
5.33337202958967
 31
0.0
  0
LINE
  5
3FC5
330
1E
100
AcDbEntity
  8
3
100
AcDbLine
 10
1.767388045599613
 20
5.685734234314081
 30
0.0
 11
1.773293557410637
 21
5.673923210692032
 31
0.0
  0
LINE
  5
3FC6
330
1E
100
AcDbEntity
  8
3
100
AcDbLine
 10
1.773293557410637
 20
5.673923210692032
 30
0.0
 11
1.775262061347644
 21
5.660143683132977
 31
0.0
  0
LINE
  5
3FC7
330
1E
100
AcDbEntity
  8
3
100
AcDbLine
 10
1.682742376308274
 20
5.53809643903849
 30
0.0
 11
1.718175447174417
 21
5.534159431164473
 31
0.0
  0
LINE
  5
3FC8
330
1E
100
AcDbEntity
  8
3
100
AcDbLine
 10
1.718175447174417
 20
5.534159431164473
 30
0.0
 11
1.747703006229533
 21
5.520379903605418
 31
0.0
  0
LINE
  5
3FC9
330
1E
100
AcDbEntity
  8
3
100
AcDbLine
 10
1.893372297568117
 20
5.162112187069986
 30
0.0
 11
1.887466785757093
 21
5.17589171462904
 31
0.0
  0
LINE
  5
3FCA
330
1E
100
AcDbEntity
  8
3
100
AcDbLine
 10
1.887466785757093
 20
5.17589171462904
 30
0.0
 11
1.873687258198037
 21
5.181797226440064
 31
0.0
  0
LINE
  5
3FCB
330
1E
100
AcDbEntity
  8
3
100
AcDbLine
 10
1.800852612528746
 20
5.181797226440064
 30
0.0
 11
1.800852612528746
 21
5.17589171462904
 31
0.0
  0
LINE
  5
3FCC
330
1E
100
AcDbEntity
  8
3
100
AcDbLine
 10
1.800852612528746
 20
5.17589171462904
 30
0.0
 11
1.800852612528746
 21
5.162112187069986
 31
0.0
  0
LINE
  5
3FCD
330
1E
100
AcDbEntity
  8
3
100
AcDbLine
 10
0.115813242450006
 20
5.181797226440064
 30
0.0
 11
0.1020337148909522
 21
5.17589171462904
 31
0.0
  0
LINE
  5
3FCE
330
1E
100
AcDbEntity
  8
3
100
AcDbLine
 10
0.1020337148909522
 20
5.17589171462904
 30
0.0
 11
0.0961282030799282
 21
5.162112187069986
 31
0.0
  0
LINE
  5
3FCF
330
1E
100
AcDbEntity
  8
3
100
AcDbLine
 10
0.1866793841822911
 20
5.162112187069986
 30
0.0
 11
0.1866793841822911
 21
5.17589171462904
 31
0.0
  0
LINE
  5
3FD0
330
1E
100
AcDbEntity
  8
3
100
AcDbLine
 10
0.1866793841822911
 20
5.17589171462904
 30
0.0
 11
0.1866793841822911
 21
5.181797226440064
 31
0.0
  0
LINE
  5
3FD1
330
1E
100
AcDbEntity
  8
3
100
AcDbLine
 10
1.893372297568117
 20
5.116836596518805
 30
0.0
 11
1.893372297568117
 21
5.162112187069986
 31
0.0
  0
LINE
  5
3FD2
330
1E
100
AcDbEntity
  8
3
100
AcDbLine
 10
1.893372297568117
 20
5.162112187069986
 30
0.0
 11
1.885498281820085
 21
5.162112187069986
 31
0.0
  0
LINE
  5
3FD3
330
1E
100
AcDbEntity
  8
3
100
AcDbLine
 10
1.885498281820085
 20
5.162112187069986
 30
0.0
 11
1.865813242450006
 21
5.162112187069986
 31
0.0
  0
LINE
  5
3FD4
330
1E
100
AcDbEntity
  8
3
100
AcDbLine
 10
1.865813242450006
 20
5.162112187069986
 30
0.0
 11
1.836285683394889
 21
5.162112187069986
 31
0.0
  0
LINE
  5
3FD5
330
1E
100
AcDbEntity
  8
3
100
AcDbLine
 10
1.836285683394889
 20
5.162112187069986
 30
0.0
 11
1.800852612528746
 21
5.162112187069986
 31
0.0
  0
LINE
  5
3FD6
330
1E
100
AcDbEntity
  8
3
100
AcDbLine
 10
0.1866793841822911
 20
5.162112187069986
 30
0.0
 11
0.153214817253156
 21
5.162112187069986
 31
0.0
  0
LINE
  5
3FD7
330
1E
100
AcDbEntity
  8
3
100
AcDbLine
 10
0.153214817253156
 20
5.162112187069986
 30
0.0
 11
0.1236872581980375
 21
5.162112187069986
 31
0.0
  0
LINE
  5
3FD8
330
1E
100
AcDbEntity
  8
3
100
AcDbLine
 10
0.1236872581980375
 20
5.162112187069986
 30
0.0
 11
0.1040022188279597
 21
5.162112187069986
 31
0.0
  0
LINE
  5
3FD9
330
1E
100
AcDbEntity
  8
3
100
AcDbLine
 10
0.1040022188279597
 20
5.162112187069986
 30
0.0
 11
0.0961282030799282
 21
5.162112187069986
 31
0.0
  0
LINE
  5
3FDA
330
1E
100
AcDbEntity
  8
3
100
AcDbLine
 10
1.155183321190165
 20
5.162112187069986
 30
0.0
 11
1.155183321190165
 21
5.17589171462904
 31
0.0
  0
LINE
  5
3FDB
330
1E
100
AcDbEntity
  8
3
100
AcDbLine
 10
1.155183321190165
 20
5.17589171462904
 30
0.0
 11
1.155183321190165
 21
5.181797226440064
 31
0.0
  0
LINE
  5
3FDC
330
1E
100
AcDbEntity
  8
3
100
AcDbLine
 10
0.8323486755208726
 20
5.181797226440064
 30
0.0
 11
0.8323486755208726
 21
5.17589171462904
 31
0.0
  0
LINE
  5
3FDD
330
1E
100
AcDbEntity
  8
3
100
AcDbLine
 10
0.8323486755208726
 20
5.17589171462904
 30
0.0
 11
0.83431717945788
 21
5.162112187069986
 31
0.0
  0
LINE
  5
3FDE
330
1E
100
AcDbEntity
  8
3
100
AcDbLine
 10
1.155183321190165
 20
5.181797226440064
 30
0.0
 11
1.800852612528746
 21
5.181797226440064
 31
0.0
  0
LINE
  5
3FDF
330
1E
100
AcDbEntity
  8
3
100
AcDbLine
 10
1.800852612528746
 20
5.181797226440064
 30
0.0
 11
1.836285683394889
 21
5.181797226440064
 31
0.0
  0
LINE
  5
3FE0
330
1E
100
AcDbEntity
  8
3
100
AcDbLine
 10
1.836285683394889
 20
5.181797226440064
 30
0.0
 11
1.863844738512998
 21
5.181797226440064
 31
0.0
  0
LINE
  5
3FE1
330
1E
100
AcDbEntity
  8
3
100
AcDbLine
 10
1.863844738512998
 20
5.181797226440064
 30
0.0
 11
1.873687258198037
 21
5.181797226440064
 31
0.0
  0
LINE
  5
3FE2
330
1E
100
AcDbEntity
  8
3
100
AcDbLine
 10
0.115813242450006
 20
5.181797226440064
 30
0.0
 11
0.1256557621350467
 21
5.181797226440064
 31
0.0
  0
LINE
  5
3FE3
330
1E
100
AcDbEntity
  8
3
100
AcDbLine
 10
0.1256557621350467
 20
5.181797226440064
 30
0.0
 11
0.1512463133161486
 21
5.181797226440064
 31
0.0
  0
LINE
  5
3FE4
330
1E
100
AcDbEntity
  8
3
100
AcDbLine
 10
0.1512463133161486
 20
5.181797226440064
 30
0.0
 11
0.1866793841822911
 21
5.181797226440064
 31
0.0
  0
LINE
  5
3FE5
330
1E
100
AcDbEntity
  8
3
100
AcDbLine
 10
1.65912032906418
 20
4.301875966597544
 30
0.0
 11
1.665025840875204
 21
4.28809643903849
 31
0.0
  0
LINE
  5
3FE6
330
1E
100
AcDbEntity
  8
3
100
AcDbLine
 10
1.665025840875204
 20
4.28809643903849
 30
0.0
 11
1.678805368434259
 21
4.282190927227466
 31
0.0
  0
LINE
  5
3FE7
330
1E
100
AcDbEntity
  8
3
100
AcDbLine
 10
1.688647888119298
 20
4.282190927227466
 30
0.0
 11
1.688647888119298
 21
4.286127935101481
 31
0.0
  0
LINE
  5
3FE8
330
1E
100
AcDbEntity
  8
3
100
AcDbLine
 10
1.688647888119298
 20
4.286127935101481
 30
0.0
 11
1.688647888119298
 21
4.299907462660536
 31
0.0
  0
LINE
  5
3FE9
330
1E
100
AcDbEntity
  8
3
100
AcDbLine
 10
1.690616392056305
 20
4.282190927227466
 30
0.0
 11
1.704395919615361
 21
4.286127935101481
 31
0.0
  0
LINE
  5
3FEA
330
1E
100
AcDbEntity
  8
3
100
AcDbLine
 10
1.704395919615361
 20
4.286127935101481
 30
0.0
 11
1.710301431426385
 21
4.299907462660536
 31
0.0
  0
LINE
  5
3FEB
330
1E
100
AcDbEntity
  8
3
100
AcDbLine
 10
0.2988841085917393
 20
4.282190927227466
 30
0.0
 11
0.2851045810326838
 21
4.286127935101481
 31
0.0
  0
LINE
  5
3FEC
330
1E
100
AcDbEntity
  8
3
100
AcDbLine
 10
0.2851045810326838
 20
4.286127935101481
 30
0.0
 11
0.2791990692216597
 21
4.299907462660536
 31
0.0
  0
LINE
  5
3FED
330
1E
100
AcDbEntity
  8
3
100
AcDbLine
 10
0.3008526125287467
 20
4.282190927227466
 30
0.0
 11
0.3008526125287467
 21
4.286127935101481
 31
0.0
  0
LINE
  5
3FEE
330
1E
100
AcDbEntity
  8
3
100
AcDbLine
 10
0.3008526125287467
 20
4.286127935101481
 30
0.0
 11
0.3008526125287467
 21
4.299907462660536
 31
0.0
  0
LINE
  5
3FEF
330
1E
100
AcDbEntity
  8
3
100
AcDbLine
 10
0.3106951322137856
 20
4.282190927227466
 30
0.0
 11
0.3244746597728412
 21
4.28809643903849
 31
0.0
  0
LINE
  5
3FF0
330
1E
100
AcDbEntity
  8
3
100
AcDbLine
 10
0.3244746597728412
 20
4.28809643903849
 30
0.0
 11
0.3303801715838652
 21
4.301875966597544
 31
0.0
  0
LINE
  5
3FF1
330
1E
100
AcDbEntity
  8
3
100
AcDbLine
 10
1.767388045599613
 20
4.581403525652662
 30
0.0
 11
1.779199069221659
 21
4.585340533526679
 31
0.0
  0
LINE
  5
3FF2
330
1E
100
AcDbEntity
  8
3
100
AcDbLine
 10
1.779199069221659
 20
4.585340533526679
 30
0.0
 11
1.787073084969691
 21
4.597151557148725
 31
0.0
  0
LINE
  5
3FF3
330
1E
100
AcDbEntity
  8
3
100
AcDbLine
 10
1.787073084969691
 20
4.597151557148725
 30
0.0
 11
1.781167573158668
 21
4.599120061085733
 31
0.0
  0
LINE
  5
3FF4
330
1E
100
AcDbEntity
  8
3
100
AcDbLine
 10
1.781167573158668
 20
4.599120061085733
 30
0.0
 11
1.767388045599613
 21
4.601088565022742
 31
0.0
  0
LINE
  5
3FF5
330
1E
100
AcDbEntity
  8
3
100
AcDbLine
 10
1.767388045599613
 20
4.601088565022742
 30
0.0
 11
1.767388045599613
 21
4.587309037463686
 31
0.0
  0
LINE
  5
3FF6
330
1E
100
AcDbEntity
  8
3
100
AcDbLine
 10
1.767388045599613
 20
4.587309037463686
 30
0.0
 11
1.767388045599613
 21
4.581403525652662
 31
0.0
  0
LINE
  5
3FF7
330
1E
100
AcDbEntity
  8
3
100
AcDbLine
 10
0.2024274156783541
 20
4.597151557148725
 30
0.0
 11
0.2103014314263856
 21
4.585340533526679
 31
0.0
  0
LINE
  5
3FF8
330
1E
100
AcDbEntity
  8
3
100
AcDbLine
 10
0.2103014314263856
 20
4.585340533526679
 30
0.0
 11
0.2221124550484319
 21
4.581403525652662
 31
0.0
  0
LINE
  5
3FF9
330
1E
100
AcDbEntity
  8
3
100
AcDbLine
 10
0.2221124550484319
 20
4.581403525652662
 30
0.0
 11
0.2221124550484319
 21
4.587309037463686
 31
0.0
  0
LINE
  5
3FFA
330
1E
100
AcDbEntity
  8
3
100
AcDbLine
 10
0.2221124550484319
 20
4.587309037463686
 30
0.0
 11
0.2221124550484319
 21
4.601088565022742
 31
0.0
  0
LINE
  5
3FFB
330
1E
100
AcDbEntity
  8
3
100
AcDbLine
 10
0.1925848959933134
 20
4.76841139966841
 30
0.0
 11
0.2221124550484319
 21
4.601088565022742
 31
0.0
  0
LINE
  5
3FFC
330
1E
100
AcDbEntity
  8
3
100
AcDbLine
 10
0.2221124550484319
 20
4.601088565022742
 30
0.0
 11
0.2673880455996134
 21
4.601088565022742
 31
0.0
  0
LINE
  5
3FFD
330
1E
100
AcDbEntity
  8
3
100
AcDbLine
 10
1.720143951111424
 20
4.601088565022742
 30
0.0
 11
1.767388045599613
 21
4.601088565022742
 31
0.0
  0
LINE
  5
3FFE
330
1E
100
AcDbEntity
  8
3
100
AcDbLine
 10
1.767388045599613
 20
4.601088565022742
 30
0.0
 11
1.796915604654731
 21
4.76841139966841
 31
0.0
  0
LINE
  5
3FFF
330
1E
100
AcDbEntity
  8
3
100
AcDbLine
 10
1.65912032906418
 20
4.299907462660536
 30
0.0
 11
1.666994344812211
 21
4.299907462660536
 31
0.0
  0
LINE
  5
4000
330
1E
100
AcDbEntity
  8
3
100
AcDbLine
 10
1.666994344812211
 20
4.299907462660536
 30
0.0
 11
1.688647888119298
 21
4.299907462660536
 31
0.0
  0
LINE
  5
4001
330
1E
100
AcDbEntity
  8
3
100
AcDbLine
 10
1.690616392056305
 20
4.282190927227466
 30
0.0
 11
1.688647888119298
 21
4.282190927227466
 31
0.0
  0
LINE
  5
4002
330
1E
100
AcDbEntity
  8
3
100
AcDbLine
 10
1.688647888119298
 20
4.282190927227466
 30
0.0
 11
1.678805368434259
 21
4.282190927227466
 31
0.0
  0
LINE
  5
4003
330
1E
100
AcDbEntity
  8
3
100
AcDbLine
 10
0.3008526125287467
 20
4.299907462660536
 30
0.0
 11
0.3205376518988263
 21
4.299907462660536
 31
0.0
  0
LINE
  5
4004
330
1E
100
AcDbEntity
  8
3
100
AcDbLine
 10
0.3205376518988263
 20
4.299907462660536
 30
0.0
 11
0.3303801715838652
 21
4.299907462660536
 31
0.0
  0
LINE
  5
4005
330
1E
100
AcDbEntity
  8
3
100
AcDbLine
 10
1.670931352686228
 20
4.782190927227466
 30
0.0
 11
1.688647888119298
 21
4.299907462660536
 31
0.0
  0
LINE
  5
4006
330
1E
100
AcDbEntity
  8
3
100
AcDbLine
 10
1.688647888119298
 20
4.299907462660536
 30
0.0
 11
1.710301431426385
 21
4.299907462660536
 31
0.0
  0
LINE
  5
4007
330
1E
100
AcDbEntity
  8
3
100
AcDbLine
 10
1.710301431426385
 20
4.299907462660536
 30
0.0
 11
1.722112455048431
 21
4.664080691006994
 31
0.0
  0
LINE
  5
4008
330
1E
100
AcDbEntity
  8
3
100
AcDbLine
 10
0.2791990692216597
 20
4.299907462660536
 30
0.0
 11
0.3008526125287467
 21
4.299907462660536
 31
0.0
  0
LINE
  5
4009
330
1E
100
AcDbEntity
  8
3
100
AcDbLine
 10
0.3008526125287467
 20
4.299907462660536
 30
0.0
 11
0.3166006440248097
 21
4.782190927227466
 31
0.0
  0
LINE
  5
400A
330
1E
100
AcDbEntity
  8
3
100
AcDbLine
 10
0.1827423763082745
 20
5.116836596518805
 30
0.0
 11
0.1827423763082745
 21
5.110931084707781
 31
0.0
  0
LINE
  5
400B
330
1E
100
AcDbEntity
  8
3
100
AcDbLine
 10
0.1827423763082745
 20
5.110931084707781
 30
0.0
 11
0.1827423763082745
 21
5.097151557148725
 31
0.0
  0
LINE
  5
400C
330
1E
100
AcDbEntity
  8
3
100
AcDbLine
 10
1.80675812433977
 20
5.097151557148725
 30
0.0
 11
1.80675812433977
 21
5.110931084707781
 31
0.0
  0
LINE
  5
400D
330
1E
100
AcDbEntity
  8
3
100
AcDbLine
 10
1.80675812433977
 20
5.110931084707781
 30
0.0
 11
1.80675812433977
 21
5.116836596518805
 31
0.0
  0
LINE
  5
400E
330
1E
100
AcDbEntity
  8
3
100
AcDbLine
 10
0.0331360770956764
 20
5.116836596518805
 30
0.0
 11
0.0193565495366208
 21
5.110931084707781
 31
0.0
  0
LINE
  5
400F
330
1E
100
AcDbEntity
  8
3
100
AcDbLine
 10
0.0193565495366208
 20
5.110931084707781
 30
0.0
 11
0.0134510377255985
 21
5.097151557148725
 31
0.0
  0
LINE
  5
4010
330
1E
100
AcDbEntity
  8
3
100
AcDbLine
 10
1.976049462922448
 20
5.097151557148725
 30
0.0
 11
1.970143951111424
 21
5.110931084707781
 31
0.0
  0
LINE
  5
4011
330
1E
100
AcDbEntity
  8
3
100
AcDbLine
 10
1.970143951111424
 20
5.110931084707781
 30
0.0
 11
1.956364423552368
 21
5.116836596518805
 31
0.0
  0
LINE
  5
4012
330
1E
100
AcDbEntity
  8
3
100
AcDbLine
 10
0.1827423763082745
 20
5.097151557148725
 30
0.0
 11
0.1295927700090615
 21
5.097151557148725
 31
0.0
  0
LINE
  5
4013
330
1E
100
AcDbEntity
  8
3
100
AcDbLine
 10
0.1295927700090615
 20
5.097151557148725
 30
0.0
 11
0.0823486755208727
 21
5.097151557148725
 31
0.0
  0
LINE
  5
4014
330
1E
100
AcDbEntity
  8
3
100
AcDbLine
 10
0.0823486755208727
 20
5.097151557148725
 30
0.0
 11
0.0449471007177245
 21
5.097151557148725
 31
0.0
  0
LINE
  5
4015
330
1E
100
AcDbEntity
  8
3
100
AcDbLine
 10
0.0449471007177245
 20
5.097151557148725
 30
0.0
 11
0.02132505347363
 21
5.097151557148725
 31
0.0
  0
LINE
  5
4016
330
1E
100
AcDbEntity
  8
3
100
AcDbLine
 10
0.02132505347363
 20
5.097151557148725
 30
0.0
 11
0.0134510377255985
 21
5.097151557148725
 31
0.0
  0
LINE
  5
4017
330
1E
100
AcDbEntity
  8
3
100
AcDbLine
 10
1.976049462922448
 20
5.097151557148725
 30
0.0
 11
1.968175447174417
 21
5.097151557148725
 31
0.0
  0
LINE
  5
4018
330
1E
100
AcDbEntity
  8
3
100
AcDbLine
 10
1.968175447174417
 20
5.097151557148725
 30
0.0
 11
1.942584895993313
 21
5.097151557148725
 31
0.0
  0
LINE
  5
4019
330
1E
100
AcDbEntity
  8
3
100
AcDbLine
 10
1.942584895993313
 20
5.097151557148725
 30
0.0
 11
1.905183321190165
 21
5.097151557148725
 31
0.0
  0
LINE
  5
401A
330
1E
100
AcDbEntity
  8
3
100
AcDbLine
 10
1.905183321190165
 20
5.097151557148725
 30
0.0
 11
1.857939226701974
 21
5.097151557148725
 31
0.0
  0
LINE
  5
401B
330
1E
100
AcDbEntity
  8
3
100
AcDbLine
 10
1.857939226701974
 20
5.097151557148725
 30
0.0
 11
1.80675812433977
 21
5.097151557148725
 31
0.0
  0
LINE
  5
401C
330
1E
100
AcDbEntity
  8
3
100
AcDbLine
 10
1.80675812433977
 20
5.097151557148725
 30
0.0
 11
0.1827423763082745
 21
5.097151557148725
 31
0.0
  0
LINE
  5
401D
330
1E
100
AcDbEntity
  8
3
100
AcDbLine
 10
0.1827423763082745
 20
5.097151557148725
 30
0.0
 11
0.1709313526862282
 21
4.782190927227466
 31
0.0
  0
LINE
  5
401E
330
1E
100
AcDbEntity
  8
3
100
AcDbLine
 10
0.0331360770956764
 20
5.116836596518805
 30
0.0
 11
0.0410100928437078
 21
5.116836596518805
 31
0.0
  0
LINE
  5
401F
330
1E
100
AcDbEntity
  8
3
100
AcDbLine
 10
0.0410100928437078
 20
5.116836596518805
 30
0.0
 11
0.0606951322137874
 21
5.116836596518805
 31
0.0
  0
LINE
  5
4020
330
1E
100
AcDbEntity
  8
3
100
AcDbLine
 10
0.0606951322137874
 20
5.116836596518805
 30
0.0
 11
0.0941596991429208
 21
5.116836596518805
 31
0.0
  0
LINE
  5
4021
330
1E
100
AcDbEntity
  8
3
100
AcDbLine
 10
0.0941596991429208
 20
5.116836596518805
 30
0.0
 11
0.137466785757093
 21
5.116836596518805
 31
0.0
  0
LINE
  5
4022
330
1E
100
AcDbEntity
  8
3
100
AcDbLine
 10
0.137466785757093
 20
5.116836596518805
 30
0.0
 11
0.1827423763082745
 21
5.116836596518805
 31
0.0
  0
LINE
  5
4023
330
1E
100
AcDbEntity
  8
3
100
AcDbLine
 10
0.1827423763082745
 20
5.116836596518805
 30
0.0
 11
1.80675812433977
 21
5.116836596518805
 31
0.0
  0
LINE
  5
4024
330
1E
100
AcDbEntity
  8
3
100
AcDbLine
 10
1.80675812433977
 20
5.116836596518805
 30
0.0
 11
1.852033714890952
 21
5.116836596518805
 31
0.0
  0
LINE
  5
4025
330
1E
100
AcDbEntity
  8
3
100
AcDbLine
 10
1.852033714890952
 20
5.116836596518805
 30
0.0
 11
1.893372297568117
 21
5.116836596518805
 31
0.0
  0
LINE
  5
4026
330
1E
100
AcDbEntity
  8
3
100
AcDbLine
 10
1.893372297568117
 20
5.116836596518805
 30
0.0
 11
1.92683686449725
 21
5.116836596518805
 31
0.0
  0
LINE
  5
4027
330
1E
100
AcDbEntity
  8
3
100
AcDbLine
 10
1.92683686449725
 20
5.116836596518805
 30
0.0
 11
1.948490407804337
 21
5.116836596518805
 31
0.0
  0
LINE
  5
4028
330
1E
100
AcDbEntity
  8
3
100
AcDbLine
 10
1.948490407804337
 20
5.116836596518805
 30
0.0
 11
1.956364423552368
 21
5.116836596518805
 31
0.0
  0
LINE
  5
4029
330
1E
100
AcDbEntity
  8
3
100
AcDbLine
 10
0.0351045810326838
 20
4.782190927227466
 30
0.0
 11
0.0095140298515819
 21
4.782190927227466
 31
0.0
  0
LINE
  5
402A
330
1E
100
AcDbEntity
  8
3
100
AcDbLine
 10
0.0095140298515819
 20
4.782190927227466
 30
0.0
 11
0.0016400141035504
 21
4.782190927227466
 31
0.0
  0
LINE
  5
402B
330
1E
100
AcDbEntity
  8
3
100
AcDbLine
 10
0.1709313526862282
 20
4.782190927227466
 30
0.0
 11
0.1197502503240226
 21
4.782190927227466
 31
0.0
  0
LINE
  5
402C
330
1E
100
AcDbEntity
  8
3
100
AcDbLine
 10
0.1197502503240226
 20
4.782190927227466
 30
0.0
 11
0.0725061558358338
 21
4.782190927227466
 31
0.0
  0
LINE
  5
402D
330
1E
100
AcDbEntity
  8
3
100
AcDbLine
 10
0.0725061558358338
 20
4.782190927227466
 30
0.0
 11
0.0351045810326838
 21
4.782190927227466
 31
0.0
  0
LINE
  5
402E
330
1E
100
AcDbEntity
  8
3
100
AcDbLine
 10
1.987860486544494
 20
4.782190927227466
 30
0.0
 11
1.978017966859455
 21
4.782190927227466
 31
0.0
  0
LINE
  5
402F
330
1E
100
AcDbEntity
  8
3
100
AcDbLine
 10
1.978017966859455
 20
4.782190927227466
 30
0.0
 11
1.954395919615361
 21
4.782190927227466
 31
0.0
  0
LINE
  5
4030
330
1E
100
AcDbEntity
  8
3
100
AcDbLine
 10
1.954395919615361
 20
4.782190927227466
 30
0.0
 11
1.916994344812211
 21
4.782190927227466
 31
0.0
  0
LINE
  5
4031
330
1E
100
AcDbEntity
  8
3
100
AcDbLine
 10
1.916994344812211
 20
4.782190927227466
 30
0.0
 11
1.869750250324022
 21
4.782190927227466
 31
0.0
  0
LINE
  5
4032
330
1E
100
AcDbEntity
  8
3
100
AcDbLine
 10
1.869750250324022
 20
4.782190927227466
 30
0.0
 11
1.816600644024809
 21
4.782190927227466
 31
0.0
  0
LINE
  5
4033
330
1E
100
AcDbEntity
  8
3
100
AcDbLine
 10
0.249671510166543
 20
5.652269667384945
 30
0.0
 11
0.2319549747334708
 21
5.650301163447938
 31
0.0
  0
LINE
  5
4034
330
1E
100
AcDbEntity
  8
3
100
AcDbLine
 10
0.2319549747334708
 20
5.650301163447938
 30
0.0
 11
0.2162069432374079
 21
5.646364155573923
 31
0.0
  0
LINE
  5
4035
330
1E
100
AcDbEntity
  8
3
100
AcDbLine
 10
0.2162069432374079
 20
5.646364155573923
 30
0.0
 11
0.2004589117413449
 21
5.63849013982589
 31
0.0
  0
LINE
  5
4036
330
1E
100
AcDbEntity
  8
3
100
AcDbLine
 10
0.2004589117413449
 20
5.63849013982589
 30
0.0
 11
0.1886478881192985
 21
5.626679116203844
 31
0.0
  0
LINE
  5
4037
330
1E
100
AcDbEntity
  8
3
100
AcDbLine
 10
0.1886478881192985
 20
5.626679116203844
 30
0.0
 11
0.1807738723712671
 21
5.614868092581795
 31
0.0
  0
LINE
  5
4038
330
1E
100
AcDbEntity
  8
3
100
AcDbLine
 10
0.1807738723712671
 20
5.614868092581795
 30
0.0
 11
0.174868360560243
 21
5.601088565022742
 31
0.0
  0
LINE
  5
4039
330
1E
100
AcDbEntity
  8
3
100
AcDbLine
 10
0.174868360560243
 20
5.601088565022742
 30
0.0
 11
0.174868360560243
 21
5.59321454927471
 31
0.0
  0
LINE
  5
403A
330
1E
100
AcDbEntity
  8
3
100
AcDbLine
 10
0.1827423763082745
 20
5.559749982345575
 30
0.0
 11
0.1925848959933134
 21
5.547938958723529
 31
0.0
  0
LINE
  5
403B
330
1E
100
AcDbEntity
  8
3
100
AcDbLine
 10
0.1925848959933134
 20
5.547938958723529
 30
0.0
 11
0.2043959196153615
 21
5.540064942975497
 31
0.0
  0
LINE
  5
403C
330
1E
100
AcDbEntity
  8
3
100
AcDbLine
 10
0.2043959196153615
 20
5.540064942975497
 30
0.0
 11
0.2201439511114245
 21
5.532190927227466
 31
0.0
  0
LINE
  5
403D
330
1E
100
AcDbEntity
  8
3
100
AcDbLine
 10
0.2201439511114245
 20
5.532190927227466
 30
0.0
 11
0.2358919826074874
 21
5.528253919353449
 31
0.0
  0
LINE
  5
403E
330
1E
100
AcDbEntity
  8
3
100
AcDbLine
 10
0.2358919826074874
 20
5.528253919353449
 30
0.0
 11
0.249671510166543
 21
5.528253919353449
 31
0.0
  0
LINE
  5
403F
330
1E
100
AcDbEntity
  8
3
100
AcDbLine
 10
0.174868360560243
 20
5.587309037463686
 30
0.0
 11
0.1768368644972504
 21
5.571561005967623
 31
0.0
  0
LINE
  5
4040
330
1E
100
AcDbEntity
  8
3
100
AcDbLine
 10
0.1768368644972504
 20
5.571561005967623
 30
0.0
 11
0.1827423763082745
 21
5.559749982345575
 31
0.0
  0
LINE
  5
4041
330
1E
100
AcDbEntity
  8
3
100
AcDbLine
 10
0.3205376518988263
 20
5.524316911479434
 30
0.0
 11
0.3205376518988263
 21
5.522348407542427
 31
0.0
  0
LINE
  5
4042
330
1E
100
AcDbEntity
  8
3
100
AcDbLine
 10
0.3205376518988263
 20
5.522348407542427
 30
0.0
 11
0.3225061558358337
 21
5.522348407542427
 31
0.0
  0
LINE
  5
4043
330
1E
100
AcDbEntity
  8
3
100
AcDbLine
 10
1.739828990481502
 20
5.528253919353449
 30
0.0
 11
1.757545525914574
 21
5.528253919353449
 31
0.0
  0
LINE
  5
4044
330
1E
100
AcDbEntity
  8
3
100
AcDbLine
 10
1.757545525914574
 20
5.528253919353449
 30
0.0
 11
1.773293557410637
 21
5.534159431164473
 31
0.0
  0
LINE
  5
4045
330
1E
100
AcDbEntity
  8
3
100
AcDbLine
 10
1.773293557410637
 20
5.534159431164473
 30
0.0
 11
1.7890415889067
 21
5.542033446912505
 31
0.0
  0
LINE
  5
4046
330
1E
100
AcDbEntity
  8
3
100
AcDbLine
 10
1.7890415889067
 20
5.542033446912505
 30
0.0
 11
1.800852612528746
 21
5.553844470534553
 31
0.0
  0
LINE
  5
4047
330
1E
100
AcDbEntity
  8
3
100
AcDbLine
 10
1.800852612528746
 20
5.553844470534553
 30
0.0
 11
1.80675812433977
 21
5.559749982345575
 31
0.0
  0
LINE
  5
4048
330
1E
100
AcDbEntity
  8
3
100
AcDbLine
 10
1.814632140087802
 20
5.59321454927471
 30
0.0
 11
1.812663636150794
 21
5.606994076833764
 31
0.0
  0
LINE
  5
4049
330
1E
100
AcDbEntity
  8
3
100
AcDbLine
 10
1.812663636150794
 20
5.606994076833764
 30
0.0
 11
1.80675812433977
 21
5.62077360439282
 31
0.0
  0
LINE
  5
404A
330
1E
100
AcDbEntity
  8
3
100
AcDbLine
 10
1.80675812433977
 20
5.62077360439282
 30
0.0
 11
1.796915604654731
 21
5.630616124077858
 31
0.0
  0
LINE
  5
404B
330
1E
100
AcDbEntity
  8
3
100
AcDbLine
 10
1.796915604654731
 20
5.630616124077858
 30
0.0
 11
1.785104581032683
 21
5.640458643762899
 31
0.0
  0
LINE
  5
404C
330
1E
100
AcDbEntity
  8
3
100
AcDbLine
 10
1.785104581032683
 20
5.640458643762899
 30
0.0
 11
1.76935654953662
 21
5.648332659510931
 31
0.0
  0
LINE
  5
404D
330
1E
100
AcDbEntity
  8
3
100
AcDbLine
 10
1.76935654953662
 20
5.648332659510931
 30
0.0
 11
1.753608518040557
 21
5.652269667384945
 31
0.0
  0
LINE
  5
404E
330
1E
100
AcDbEntity
  8
3
100
AcDbLine
 10
0.3205376518988263
 20
5.530222423290458
 30
0.0
 11
0.3185691479618171
 21
5.534159431164473
 31
0.0
  0
LINE
  5
404F
330
1E
100
AcDbEntity
  8
3
100
AcDbLine
 10
0.3185691479618171
 20
5.534159431164473
 30
0.0
 11
0.3166006440248097
 21
5.53809643903849
 31
0.0
  0
LINE
  5
4050
330
1E
100
AcDbEntity
  8
3
100
AcDbLine
 10
0.3166006440248097
 20
5.53809643903849
 30
0.0
 11
0.3126636361507948
 21
5.540064942975497
 31
0.0
  0
LINE
  5
4051
330
1E
100
AcDbEntity
  8
3
100
AcDbLine
 10
0.3126636361507948
 20
5.540064942975497
 30
0.0
 11
0.3106951322137856
 21
5.540064942975497
 31
0.0
  0
LINE
  5
4052
330
1E
100
AcDbEntity
  8
3
100
AcDbLine
 10
0.3106951322137856
 20
5.540064942975497
 30
0.0
 11
0.3067581243397708
 21
5.542033446912505
 31
0.0
  0
LINE
  5
4053
330
1E
100
AcDbEntity
  8
3
100
AcDbLine
 10
0.3067581243397708
 20
5.542033446912505
 30
0.0
 11
0.2870730849696912
 21
5.540064942975497
 31
0.0
  0
LINE
  5
4054
330
1E
100
AcDbEntity
  8
3
100
AcDbLine
 10
0.2870730849696912
 20
5.540064942975497
 30
0.0
 11
0.2575455259145745
 21
5.530222423290458
 31
0.0
  0
LINE
  5
4055
330
1E
100
AcDbEntity
  8
3
100
AcDbLine
 10
0.2575455259145745
 20
5.530222423290458
 30
0.0
 11
0.23392347867048
 21
5.516442895731403
 31
0.0
  0
LINE
  5
4056
330
1E
100
AcDbEntity
  8
3
100
AcDbLine
 10
0.23392347867048
 20
5.516442895731403
 30
0.0
 11
0.2221124550484319
 21
5.502663368172347
 31
0.0
  0
LINE
  5
4057
330
1E
100
AcDbEntity
  8
3
100
AcDbLine
 10
1.767388045599613
 20
5.502663368172347
 30
0.0
 11
1.755577021977565
 21
5.514474391794395
 31
0.0
  0
LINE
  5
4058
330
1E
100
AcDbEntity
  8
3
100
AcDbLine
 10
1.755577021977565
 20
5.514474391794395
 30
0.0
 11
1.73195497473347
 21
5.530222423290458
 31
0.0
  0
LINE
  5
4059
330
1E
100
AcDbEntity
  8
3
100
AcDbLine
 10
1.73195497473347
 20
5.530222423290458
 30
0.0
 11
1.702427415678354
 21
5.540064942975497
 31
0.0
  0
LINE
  5
405A
330
1E
100
AcDbEntity
  8
3
100
AcDbLine
 10
1.702427415678354
 20
5.540064942975497
 30
0.0
 11
1.682742376308274
 21
5.542033446912505
 31
0.0
  0
LINE
  5
405B
330
1E
100
AcDbEntity
  8
3
100
AcDbLine
 10
1.680773872371267
 20
5.542033446912505
 30
0.0
 11
1.67683686449725
 21
5.540064942975497
 31
0.0
  0
LINE
  5
405C
330
1E
100
AcDbEntity
  8
3
100
AcDbLine
 10
1.67683686449725
 20
5.540064942975497
 30
0.0
 11
1.672899856623235
 21
5.53809643903849
 31
0.0
  0
LINE
  5
405D
330
1E
100
AcDbEntity
  8
3
100
AcDbLine
 10
1.672899856623235
 20
5.53809643903849
 30
0.0
 11
1.670931352686228
 21
5.536127935101481
 31
0.0
  0
LINE
  5
405E
330
1E
100
AcDbEntity
  8
3
100
AcDbLine
 10
1.670931352686228
 20
5.536127935101481
 30
0.0
 11
1.668962848749218
 21
5.532190927227466
 31
0.0
  0
LINE
  5
405F
330
1E
100
AcDbEntity
  8
3
100
AcDbLine
 10
1.668962848749218
 20
5.532190927227466
 30
0.0
 11
1.668962848749218
 21
5.530222423290458
 31
0.0
  0
LINE
  5
4060
330
1E
100
AcDbEntity
  8
3
100
AcDbLine
 10
0.3520337148909522
 20
5.295970454786521
 30
0.0
 11
0.3441596991429208
 21
5.294001950849512
 31
0.0
  0
LINE
  5
4061
330
1E
100
AcDbEntity
  8
3
100
AcDbLine
 10
0.3441596991429208
 20
5.294001950849512
 30
0.0
 11
0.3362856833948893
 21
5.28809643903849
 31
0.0
  0
LINE
  5
4062
330
1E
100
AcDbEntity
  8
3
100
AcDbLine
 10
1.01935654953662
 20
5.652269667384945
 30
0.0
 11
1.005577021977565
 21
5.646364155573923
 31
0.0
  0
LINE
  5
4063
330
1E
100
AcDbEntity
  8
3
100
AcDbLine
 10
1.005577021977565
 20
5.646364155573923
 30
0.0
 11
0.9996715101665429
 21
5.632584628014868
 31
0.0
  0
LINE
  5
4064
330
1E
100
AcDbEntity
  8
3
100
AcDbLine
 10
1.653214817253155
 20
5.28809643903849
 30
0.0
 11
1.645340801505124
 21
5.294001950849512
 31
0.0
  0
LINE
  5
4065
330
1E
100
AcDbEntity
  8
3
100
AcDbLine
 10
1.645340801505124
 20
5.294001950849512
 30
0.0
 11
1.637466785757093
 21
5.295970454786521
 31
0.0
  0
LINE
  5
4066
330
1E
100
AcDbEntity
  8
3
100
AcDbLine
 10
0.3067581243397708
 20
5.752663368172347
 30
0.0
 11
0.2614825337885893
 21
5.740852344550301
 31
0.0
  0
LINE
  5
4067
330
1E
100
AcDbEntity
  8
3
100
AcDbLine
 10
0.2614825337885893
 20
5.740852344550301
 30
0.0
 11
0.2260494629224485
 21
5.707387777621166
 31
0.0
  0
LINE
  5
4068
330
1E
100
AcDbEntity
  8
3
100
AcDbLine
 10
0.2260494629224485
 20
5.707387777621166
 30
0.0
 11
0.2142384393004004
 21
5.660143683132977
 31
0.0
  0
LINE
  5
4069
330
1E
100
AcDbEntity
  8
3
100
AcDbLine
 10
1.763451037725596
 20
5.705419273684158
 30
0.0
 11
1.729986470796463
 21
5.740852344550301
 31
0.0
  0
LINE
  5
406A
330
1E
100
AcDbEntity
  8
3
100
AcDbLine
 10
1.729986470796463
 20
5.740852344550301
 30
0.0
 11
1.682742376308274
 21
5.752663368172347
 31
0.0
  0
LINE
  5
406B
330
1E
100
AcDbEntity
  8
3
100
AcDbLine
 10
4.568569147961817
 20
8.555812974471558
 30
0.0
 11
4.572506155835833
 21
8.553844470534551
 31
0.0
  0
LINE
  5
406C
330
1E
100
AcDbEntity
  8
3
100
AcDbLine
 10
4.572506155835833
 20
8.553844470534551
 30
0.0
 11
4.580380171583865
 21
8.545970454786521
 31
0.0
  0
LINE
  5
406D
330
1E
100
AcDbEntity
  8
3
100
AcDbLine
 10
4.568569147961817
 20
8.555812974471558
 30
0.0
 11
4.574474659772841
 21
8.569592502030614
 31
0.0
  0
LINE
  5
406E
330
1E
100
AcDbEntity
  8
3
100
AcDbLine
 10
4.574474659772841
 20
8.569592502030614
 30
0.0
 11
4.568569147961817
 21
8.58337202958967
 31
0.0
  0
LINE
  5
406F
330
1E
100
AcDbEntity
  8
3
100
AcDbLine
 10
4.462269935363393
 20
8.662112187069984
 30
0.0
 11
4.470143951111424
 21
8.654238171321955
 31
0.0
  0
LINE
  5
4070
330
1E
100
AcDbEntity
  8
3
100
AcDbLine
 10
4.470143951111424
 20
8.654238171321955
 30
0.0
 11
4.489828990481502
 21
8.636521635888884
 31
0.0
  0
LINE
  5
4071
330
1E
100
AcDbEntity
  8
3
100
AcDbLine
 10
4.489828990481502
 20
8.636521635888884
 30
0.0
 11
4.515419541662605
 21
8.608962580770773
 31
0.0
  0
LINE
  5
4072
330
1E
100
AcDbEntity
  8
3
100
AcDbLine
 10
4.515419541662605
 20
8.608962580770773
 30
0.0
 11
4.542978596780715
 21
8.58337202958967
 31
0.0
  0
LINE
  5
4073
330
1E
100
AcDbEntity
  8
3
100
AcDbLine
 10
4.542978596780715
 20
8.58337202958967
 30
0.0
 11
4.562663636150794
 21
8.563686990219592
 31
0.0
  0
LINE
  5
4074
330
1E
100
AcDbEntity
  8
3
100
AcDbLine
 10
4.491797494418511
 20
8.662112187069984
 30
0.0
 11
4.478017966859455
 21
8.66801769888101
 31
0.0
  0
LINE
  5
4075
330
1E
100
AcDbEntity
  8
3
100
AcDbLine
 10
4.478017966859455
 20
8.66801769888101
 30
0.0
 11
4.4642384393004
 21
8.662112187069984
 31
0.0
  0
LINE
  5
4076
330
1E
100
AcDbEntity
  8
3
100
AcDbLine
 10
4.456364423552368
 20
8.654238171321955
 30
0.0
 11
4.450458911741344
 21
8.640458643762899
 31
0.0
  0
LINE
  5
4077
330
1E
100
AcDbEntity
  8
3
100
AcDbLine
 10
4.450458911741344
 20
8.640458643762899
 30
0.0
 11
4.456364423552368
 21
8.626679116203844
 31
0.0
  0
LINE
  5
4078
330
1E
100
AcDbEntity
  8
3
100
AcDbLine
 10
4.562663636150794
 20
8.549907462660536
 30
0.0
 11
4.554789620402763
 21
8.555812974471558
 31
0.0
  0
LINE
  5
4079
330
1E
100
AcDbEntity
  8
3
100
AcDbLine
 10
4.554789620402763
 20
8.555812974471558
 30
0.0
 11
4.535104581032683
 21
8.57549801384164
 31
0.0
  0
LINE
  5
407A
330
1E
100
AcDbEntity
  8
3
100
AcDbLine
 10
4.535104581032683
 20
8.57549801384164
 30
0.0
 11
4.509514029851581
 21
8.603057068959747
 31
0.0
  0
LINE
  5
407B
330
1E
100
AcDbEntity
  8
3
100
AcDbLine
 10
4.509514029851581
 20
8.603057068959747
 30
0.0
 11
4.48195497473347
 21
8.628647620140851
 31
0.0
  0
LINE
  5
407C
330
1E
100
AcDbEntity
  8
3
100
AcDbLine
 10
4.48195497473347
 20
8.628647620140851
 30
0.0
 11
4.462269935363393
 21
8.648332659510929
 31
0.0
  0
LINE
  5
407D
330
1E
100
AcDbEntity
  8
3
100
AcDbLine
 10
4.462269935363393
 20
8.648332659510929
 30
0.0
 11
4.456364423552368
 21
8.654238171321955
 31
0.0
  0
LINE
  5
407E
330
1E
100
AcDbEntity
  8
3
100
AcDbLine
 10
4.535104581032683
 20
8.549907462660536
 30
0.0
 11
4.548884108591739
 21
8.544001950849514
 31
0.0
  0
LINE
  5
407F
330
1E
100
AcDbEntity
  8
3
100
AcDbLine
 10
4.548884108591739
 20
8.544001950849514
 30
0.0
 11
4.562663636150794
 21
8.549907462660536
 31
0.0
  0
LINE
  5
4080
330
1E
100
AcDbEntity
  8
3
100
AcDbLine
 10
4.572506155835833
 20
8.538096439038488
 30
0.0
 11
4.564632140087802
 21
8.545970454786521
 31
0.0
  0
LINE
  5
4081
330
1E
100
AcDbEntity
  8
3
100
AcDbLine
 10
4.564632140087802
 20
8.545970454786521
 30
0.0
 11
4.562663636150794
 21
8.549907462660536
 31
0.0
  0
LINE
  5
4082
330
1E
100
AcDbEntity
  8
3
100
AcDbLine
 10
4.59415969914292
 20
8.559749982345577
 30
0.0
 11
4.576443163709848
 21
8.577466517778647
 31
0.0
  0
LINE
  5
4083
330
1E
100
AcDbEntity
  8
3
100
AcDbLine
 10
4.576443163709848
 20
8.577466517778647
 30
0.0
 11
4.568569147961817
 21
8.585340533526677
 31
0.0
  0
LINE
  5
4084
330
1E
100
AcDbEntity
  8
3
100
AcDbLine
 10
4.568569147961817
 20
8.585340533526677
 30
0.0
 11
4.562663636150794
 21
8.591246045337703
 31
0.0
  0
LINE
  5
4085
330
1E
100
AcDbEntity
  8
3
100
AcDbLine
 10
4.562663636150794
 20
8.591246045337703
 30
0.0
 11
4.542978596780715
 21
8.610931084707781
 31
0.0
  0
LINE
  5
4086
330
1E
100
AcDbEntity
  8
3
100
AcDbLine
 10
4.542978596780715
 20
8.610931084707781
 30
0.0
 11
4.517388045599613
 21
8.634553131951873
 31
0.0
  0
LINE
  5
4087
330
1E
100
AcDbEntity
  8
3
100
AcDbLine
 10
4.517388045599613
 20
8.634553131951873
 30
0.0
 11
4.499671510166542
 21
8.654238171321955
 31
0.0
  0
LINE
  5
4088
330
1E
100
AcDbEntity
  8
3
100
AcDbLine
 10
4.499671510166542
 20
8.654238171321955
 30
0.0
 11
4.491797494418511
 21
8.662112187069984
 31
0.0
  0
LINE
  5
4089
330
1E
100
AcDbEntity
  8
3
100
AcDbLine
 10
4.456364423552368
 20
8.626679116203844
 30
0.0
 11
4.4642384393004
 21
8.61880510045581
 31
0.0
  0
LINE
  5
408A
330
1E
100
AcDbEntity
  8
3
100
AcDbLine
 10
4.4642384393004
 20
8.61880510045581
 30
0.0
 11
4.48195497473347
 21
8.599120061085733
 31
0.0
  0
LINE
  5
408B
330
1E
100
AcDbEntity
  8
3
100
AcDbLine
 10
4.48195497473347
 20
8.599120061085733
 30
0.0
 11
4.507545525914574
 21
8.57549801384164
 31
0.0
  0
LINE
  5
408C
330
1E
100
AcDbEntity
  8
3
100
AcDbLine
 10
4.507545525914574
 20
8.57549801384164
 30
0.0
 11
4.527230565284652
 21
8.555812974471558
 31
0.0
  0
LINE
  5
408D
330
1E
100
AcDbEntity
  8
3
100
AcDbLine
 10
4.527230565284652
 20
8.555812974471558
 30
0.0
 11
4.533136077095676
 21
8.549907462660536
 31
0.0
  0
LINE
  5
408E
330
1E
100
AcDbEntity
  8
3
100
AcDbLine
 10
4.533136077095676
 20
8.549907462660536
 30
0.0
 11
4.541010092843707
 21
8.542033446912506
 31
0.0
  0
LINE
  5
408F
330
1E
100
AcDbEntity
  8
3
100
AcDbLine
 10
4.541010092843707
 20
8.542033446912506
 30
0.0
 11
4.560695132213785
 21
8.522348407542425
 31
0.0
  0
LINE
  5
4090
330
1E
100
AcDbEntity
  8
3
100
AcDbLine
 10
4.438647888119298
 20
8.654238171321955
 30
0.0
 11
4.442584895993313
 21
8.65817517919597
 31
0.0
  0
LINE
  5
4091
330
1E
100
AcDbEntity
  8
3
100
AcDbLine
 10
4.442584895993313
 20
8.65817517919597
 30
0.0
 11
4.454395919615361
 21
8.66801769888101
 31
0.0
  0
LINE
  5
4092
330
1E
100
AcDbEntity
  8
3
100
AcDbLine
 10
4.454395919615361
 20
8.66801769888101
 30
0.0
 11
4.472112455048431
 21
8.685734234314081
 31
0.0
  0
LINE
  5
4093
330
1E
100
AcDbEntity
  8
3
100
AcDbLine
 10
4.424868360560243
 20
8.652269667384947
 30
0.0
 11
4.432742376308274
 21
8.650301163447936
 31
0.0
  0
LINE
  5
4094
330
1E
100
AcDbEntity
  8
3
100
AcDbLine
 10
4.432742376308274
 20
8.650301163447936
 30
0.0
 11
4.438647888119298
 21
8.652269667384947
 31
0.0
  0
LINE
  5
4095
330
1E
100
AcDbEntity
  8
3
100
AcDbLine
 10
4.442584895993313
 20
8.766442895731403
 30
0.0
 11
4.40912032906418
 21
8.799907462660536
 31
0.0
  0
LINE
  5
4096
330
1E
100
AcDbEntity
  8
3
100
AcDbLine
 10
4.40912032906418
 20
8.799907462660536
 30
0.0
 11
4.385498281820085
 21
8.823529509904632
 31
0.0
  0
LINE
  5
4097
330
1E
100
AcDbEntity
  8
3
100
AcDbLine
 10
4.385498281820085
 20
8.823529509904632
 30
0.0
 11
4.375655762135046
 21
8.831403525652662
 31
0.0
  0
LINE
  5
4098
330
1E
100
AcDbEntity
  8
3
100
AcDbLine
 10
4.375655762135046
 20
8.831403525652662
 30
0.0
 11
4.352033714890952
 21
8.790064942975496
 31
0.0
  0
LINE
  5
4099
330
1E
100
AcDbEntity
  8
3
100
AcDbLine
 10
4.352033714890952
 20
8.790064942975496
 30
0.0
 11
4.354002218827959
 21
8.742820848487307
 31
0.0
  0
LINE
  5
409A
330
1E
100
AcDbEntity
  8
3
100
AcDbLine
 10
4.354002218827959
 20
8.742820848487307
 30
0.0
 11
4.377624266072054
 21
8.701482265810144
 31
0.0
  0
LINE
  5
409B
330
1E
100
AcDbEntity
  8
3
100
AcDbLine
 10
4.377624266072054
 20
8.701482265810144
 30
0.0
 11
4.387466785757093
 21
8.711324785495181
 31
0.0
  0
LINE
  5
409C
330
1E
100
AcDbEntity
  8
3
100
AcDbLine
 10
4.387466785757093
 20
8.711324785495181
 30
0.0
 11
4.416994344812211
 21
8.740852344550299
 31
0.0
  0
LINE
  5
409D
330
1E
100
AcDbEntity
  8
3
100
AcDbLine
 10
4.4642384393004
 20
8.691639746125103
 30
0.0
 11
4.444553399930322
 21
8.671954706755025
 31
0.0
  0
LINE
  5
409E
330
1E
100
AcDbEntity
  8
3
100
AcDbLine
 10
4.444553399930322
 20
8.671954706755025
 30
0.0
 11
4.430773872371267
 21
8.65817517919597
 31
0.0
  0
LINE
  5
409F
330
1E
100
AcDbEntity
  8
3
100
AcDbLine
 10
4.430773872371267
 20
8.65817517919597
 30
0.0
 11
4.424868360560243
 21
8.654238171321955
 31
0.0
  0
LINE
  5
40A0
330
1E
100
AcDbEntity
  8
3
100
AcDbLine
 10
4.596128203079928
 20
8.561718486282584
 30
0.0
 11
4.578411667646857
 21
8.544001950849514
 31
0.0
  0
LINE
  5
40A1
330
1E
100
AcDbEntity
  8
3
100
AcDbLine
 10
4.578411667646857
 20
8.544001950849514
 30
0.0
 11
4.568569147961817
 21
8.532190927227466
 31
0.0
  0
LINE
  5
40A2
330
1E
100
AcDbEntity
  8
3
100
AcDbLine
 10
4.568569147961817
 20
8.532190927227466
 30
0.0
 11
4.564632140087802
 21
8.528253919353451
 31
0.0
  0
LINE
  5
40A3
330
1E
100
AcDbEntity
  8
3
100
AcDbLine
 10
4.794947100717722
 20
8.207387777621166
 30
0.0
 11
4.787073084969691
 21
8.199513761873136
 31
0.0
  0
LINE
  5
40A4
330
1E
100
AcDbEntity
  8
3
100
AcDbLine
 10
4.787073084969691
 20
8.199513761873136
 30
0.0
 11
4.783136077095676
 21
8.197545257936129
 31
0.0
  0
LINE
  5
40A5
330
1E
100
AcDbEntity
  8
3
100
AcDbLine
 10
4.76935654953662
 20
8.266442895731403
 30
0.0
 11
4.759514029851581
 21
8.266442895731403
 31
0.0
  0
LINE
  5
40A6
330
1E
100
AcDbEntity
  8
3
100
AcDbLine
 10
4.759514029851581
 20
8.266442895731403
 30
0.0
 11
4.753608518040557
 21
8.266442895731403
 31
0.0
  0
LINE
  5
40A7
330
1E
100
AcDbEntity
  8
3
100
AcDbLine
 10
4.755577021977565
 20
8.266442895731403
 30
0.0
 11
4.763451037725596
 21
8.229041320928255
 31
0.0
  0
LINE
  5
40A8
330
1E
100
AcDbEntity
  8
3
100
AcDbLine
 10
4.763451037725596
 20
8.229041320928255
 30
0.0
 11
4.783136077095676
 21
8.197545257936129
 31
0.0
  0
LINE
  5
40A9
330
1E
100
AcDbEntity
  8
3
100
AcDbLine
 10
4.562663636150794
 20
8.528253919353451
 30
0.0
 11
4.560695132213785
 21
8.522348407542425
 31
0.0
  0
LINE
  5
40AA
330
1E
100
AcDbEntity
  8
3
100
AcDbLine
 10
4.560695132213785
 20
8.522348407542425
 30
0.0
 11
4.562663636150794
 21
8.514474391794395
 31
0.0
  0
LINE
  5
40AB
330
1E
100
AcDbEntity
  8
3
100
AcDbLine
 10
4.771325053473628
 20
8.266442895731403
 30
0.0
 11
4.777230565284652
 21
8.234946832739277
 31
0.0
  0
LINE
  5
40AC
330
1E
100
AcDbEntity
  8
3
100
AcDbLine
 10
4.777230565284652
 20
8.234946832739277
 30
0.0
 11
4.794947100717722
 21
8.209356281558173
 31
0.0
  0
LINE
  5
40AD
330
1E
100
AcDbEntity
  8
3
100
AcDbLine
 10
4.416994344812211
 20
8.740852344550299
 30
0.0
 11
4.428805368434259
 21
8.752663368172347
 31
0.0
  0
LINE
  5
40AE
330
1E
100
AcDbEntity
  8
3
100
AcDbLine
 10
4.428805368434259
 20
8.752663368172347
 30
0.0
 11
4.442584895993313
 21
8.766442895731403
 31
0.0
  0
LINE
  5
40AF
330
1E
100
AcDbEntity
  8
3
100
AcDbLine
 10
4.76935654953662
 20
8.439671242188095
 30
0.0
 11
4.759514029851581
 21
8.410143683132977
 31
0.0
  0
LINE
  5
40B0
330
1E
100
AcDbEntity
  8
3
100
AcDbLine
 10
4.759514029851581
 20
8.410143683132977
 30
0.0
 11
4.753608518040557
 21
8.382584628014866
 31
0.0
  0
LINE
  5
40B1
330
1E
100
AcDbEntity
  8
3
100
AcDbLine
 10
4.564632140087802
 20
8.514474391794395
 30
0.0
 11
4.568569147961817
 21
8.520379903605418
 31
0.0
  0
LINE
  5
40B2
330
1E
100
AcDbEntity
  8
3
100
AcDbLine
 10
4.568569147961817
 20
8.520379903605418
 30
0.0
 11
4.582348675520872
 21
8.534159431164473
 31
0.0
  0
LINE
  5
40B3
330
1E
100
AcDbEntity
  8
3
100
AcDbLine
 10
4.582348675520872
 20
8.534159431164473
 30
0.0
 11
4.602033714890952
 21
8.553844470534551
 31
0.0
  0
LINE
  5
40B4
330
1E
100
AcDbEntity
  8
3
100
AcDbLine
 10
4.940616392056305
 20
10.80187596659754
 30
0.0
 11
4.92683686449725
 21
10.79597045478652
 31
0.0
  0
LINE
  5
40B5
330
1E
100
AcDbEntity
  8
3
100
AcDbLine
 10
4.92683686449725
 20
10.79597045478652
 30
0.0
 11
4.920931352686226
 21
10.78219092722746
 31
0.0
  0
LINE
  5
40B6
330
1E
100
AcDbEntity
  8
3
100
AcDbLine
 10
4.920931352686226
 20
8.047938958723529
 30
0.0
 11
4.92683686449725
 21
8.047938958723529
 31
0.0
  0
LINE
  5
40B7
330
1E
100
AcDbEntity
  8
3
100
AcDbLine
 10
4.92683686449725
 20
8.047938958723529
 30
0.0
 11
4.940616392056305
 21
8.047938958723529
 31
0.0
  0
LINE
  5
40B8
330
1E
100
AcDbEntity
  8
3
100
AcDbLine
 10
4.920931352686226
 20
7.975104313054236
 30
0.0
 11
4.92683686449725
 21
7.961324785495181
 31
0.0
  0
LINE
  5
40B9
330
1E
100
AcDbEntity
  8
3
100
AcDbLine
 10
4.92683686449725
 20
7.961324785495181
 30
0.0
 11
4.940616392056305
 21
7.955419273684158
 31
0.0
  0
LINE
  5
40BA
330
1E
100
AcDbEntity
  8
3
100
AcDbLine
 10
4.940616392056305
 20
10.80187596659754
 30
0.0
 11
4.940616392056305
 21
10.79597045478652
 31
0.0
  0
LINE
  5
40BB
330
1E
100
AcDbEntity
  8
3
100
AcDbLine
 10
4.940616392056305
 20
10.79597045478652
 30
0.0
 11
4.940616392056305
 21
10.77628541541644
 31
0.0
  0
LINE
  5
40BC
330
1E
100
AcDbEntity
  8
3
100
AcDbLine
 10
4.940616392056305
 20
10.77628541541644
 30
0.0
 11
4.940616392056305
 21
10.74675785636132
 31
0.0
  0
LINE
  5
40BD
330
1E
100
AcDbEntity
  8
3
100
AcDbLine
 10
4.940616392056305
 20
10.74675785636132
 30
0.0
 11
4.940616392056305
 21
10.71132478549518
 31
0.0
  0
LINE
  5
40BE
330
1E
100
AcDbEntity
  8
3
100
AcDbLine
 10
4.985891982607487
 20
8.045970454786521
 30
0.0
 11
4.940616392056305
 21
8.047938958723529
 31
0.0
  0
LINE
  5
40BF
330
1E
100
AcDbEntity
  8
3
100
AcDbLine
 10
4.940616392056305
 20
8.047938958723529
 30
0.0
 11
4.940616392056305
 21
8.012505887857388
 31
0.0
  0
LINE
  5
40C0
330
1E
100
AcDbEntity
  8
3
100
AcDbLine
 10
4.940616392056305
 20
8.012505887857388
 30
0.0
 11
4.940616392056305
 21
7.982978328802269
 31
0.0
  0
LINE
  5
40C1
330
1E
100
AcDbEntity
  8
3
100
AcDbLine
 10
4.940616392056305
 20
7.982978328802269
 30
0.0
 11
4.940616392056305
 21
7.963293289432192
 31
0.0
  0
LINE
  5
40C2
330
1E
100
AcDbEntity
  8
3
100
AcDbLine
 10
4.940616392056305
 20
7.963293289432192
 30
0.0
 11
4.940616392056305
 21
7.955419273684158
 31
0.0
  0
LINE
  5
40C3
330
1E
100
AcDbEntity
  8
3
100
AcDbLine
 10
4.920931352686226
 20
7.975104313054236
 30
0.0
 11
4.920931352686226
 21
7.984946832739277
 31
0.0
  0
LINE
  5
40C4
330
1E
100
AcDbEntity
  8
3
100
AcDbLine
 10
4.920931352686226
 20
7.984946832739277
 30
0.0
 11
4.920931352686226
 21
8.012505887857388
 31
0.0
  0
LINE
  5
40C5
330
1E
100
AcDbEntity
  8
3
100
AcDbLine
 10
4.920931352686226
 20
8.012505887857388
 30
0.0
 11
4.920931352686226
 21
8.047938958723529
 31
0.0
  0
LINE
  5
40C6
330
1E
100
AcDbEntity
  8
3
100
AcDbLine
 10
4.920931352686226
 20
8.047938958723529
 30
0.0
 11
4.920931352686226
 21
10.71132478549518
 31
0.0
  0
LINE
  5
40C7
330
1E
100
AcDbEntity
  8
3
100
AcDbLine
 10
4.920931352686226
 20
10.71132478549518
 30
0.0
 11
4.920931352686226
 21
10.74675785636132
 31
0.0
  0
LINE
  5
40C8
330
1E
100
AcDbEntity
  8
3
100
AcDbLine
 10
4.920931352686226
 20
10.74675785636132
 30
0.0
 11
4.920931352686226
 21
10.77234840754242
 31
0.0
  0
LINE
  5
40C9
330
1E
100
AcDbEntity
  8
3
100
AcDbLine
 10
4.920931352686226
 20
10.77234840754242
 30
0.0
 11
4.920931352686226
 21
10.78219092722746
 31
0.0
  0
LINE
  5
40CA
330
1E
100
AcDbEntity
  8
3
100
AcDbLine
 10
5.800852612528746
 20
9.713293289432192
 30
0.0
 11
5.814632140087802
 21
9.707387777621166
 31
0.0
  0
LINE
  5
40CB
330
1E
100
AcDbEntity
  8
3
100
AcDbLine
 10
5.814632140087802
 20
9.707387777621166
 30
0.0
 11
5.820537651898826
 21
9.69360825006211
 31
0.0
  0
LINE
  5
40CC
330
1E
100
AcDbEntity
  8
3
100
AcDbLine
 10
5.820537651898826
 20
9.50856887998337
 30
0.0
 11
5.814632140087802
 21
9.494789352424318
 31
0.0
  0
LINE
  5
40CD
330
1E
100
AcDbEntity
  8
3
100
AcDbLine
 10
5.814632140087802
 20
9.494789352424318
 30
0.0
 11
5.800852612528746
 21
9.488883840613292
 31
0.0
  0
LINE
  5
40CE
330
1E
100
AcDbEntity
  8
3
100
AcDbLine
 10
5.800852612528746
 20
9.270379903605418
 30
0.0
 11
5.814632140087802
 21
9.264474391794395
 31
0.0
  0
LINE
  5
40CF
330
1E
100
AcDbEntity
  8
3
100
AcDbLine
 10
5.814632140087802
 20
9.264474391794395
 30
0.0
 11
5.820537651898826
 21
9.248726360298332
 31
0.0
  0
LINE
  5
40D0
330
1E
100
AcDbEntity
  8
3
100
AcDbLine
 10
5.820537651898826
 20
9.065655494156599
 30
0.0
 11
5.814632140087802
 21
9.051875966597544
 31
0.0
  0
LINE
  5
40D1
330
1E
100
AcDbEntity
  8
3
100
AcDbLine
 10
5.814632140087802
 20
9.051875966597544
 30
0.0
 11
5.800852612528746
 21
9.045970454786521
 31
0.0
  0
LINE
  5
40D2
330
1E
100
AcDbEntity
  8
3
100
AcDbLine
 10
5.521325053473628
 20
9.479041320928255
 30
0.0
 11
5.515419541662605
 21
9.492820848487307
 31
0.0
  0
LINE
  5
40D3
330
1E
100
AcDbEntity
  8
3
100
AcDbLine
 10
5.515419541662605
 20
9.492820848487307
 30
0.0
 11
5.50164001410355
 21
9.498726360298332
 31
0.0
  0
LINE
  5
40D4
330
1E
100
AcDbEntity
  8
3
100
AcDbLine
 10
5.50164001410355
 20
9.498726360298332
 30
0.0
 11
5.503608518040557
 21
9.492820848487307
 31
0.0
  0
LINE
  5
40D5
330
1E
100
AcDbEntity
  8
3
100
AcDbLine
 10
5.503608518040557
 20
9.492820848487307
 30
0.0
 11
5.503608518040557
 21
9.479041320928255
 31
0.0
  0
LINE
  5
40D6
330
1E
100
AcDbEntity
  8
3
100
AcDbLine
 10
5.503608518040557
 20
9.479041320928255
 30
0.0
 11
5.517388045599613
 21
9.479041320928255
 31
0.0
  0
LINE
  5
40D7
330
1E
100
AcDbEntity
  8
3
100
AcDbLine
 10
5.517388045599613
 20
9.479041320928255
 30
0.0
 11
5.521325053473628
 21
9.479041320928255
 31
0.0
  0
LINE
  5
40D8
330
1E
100
AcDbEntity
  8
3
100
AcDbLine
 10
5.503608518040557
 20
9.463293289432192
 30
0.0
 11
5.517388045599613
 21
9.463293289432192
 31
0.0
  0
LINE
  5
40D9
330
1E
100
AcDbEntity
  8
3
100
AcDbLine
 10
5.517388045599613
 20
9.463293289432192
 30
0.0
 11
5.521325053473628
 21
9.463293289432192
 31
0.0
  0
LINE
  5
40DA
330
1E
100
AcDbEntity
  8
3
100
AcDbLine
 10
5.503608518040557
 20
9.463293289432192
 30
0.0
 11
5.503608518040557
 21
9.449513761873136
 31
0.0
  0
LINE
  5
40DB
330
1E
100
AcDbEntity
  8
3
100
AcDbLine
 10
5.503608518040557
 20
9.449513761873136
 30
0.0
 11
5.50164001410355
 21
9.44360825006211
 31
0.0
  0
LINE
  5
40DC
330
1E
100
AcDbEntity
  8
3
100
AcDbLine
 10
5.50164001410355
 20
9.44360825006211
 30
0.0
 11
5.515419541662605
 21
9.449513761873136
 31
0.0
  0
LINE
  5
40DD
330
1E
100
AcDbEntity
  8
3
100
AcDbLine
 10
5.515419541662605
 20
9.449513761873136
 30
0.0
 11
5.521325053473628
 21
9.463293289432192
 31
0.0
  0
LINE
  5
40DE
330
1E
100
AcDbEntity
  8
3
100
AcDbLine
 10
5.50164001410355
 20
9.386521635888884
 30
0.0
 11
5.515419541662605
 21
9.386521635888884
 31
0.0
  0
LINE
  5
40DF
330
1E
100
AcDbEntity
  8
3
100
AcDbLine
 10
5.515419541662605
 20
9.386521635888884
 30
0.0
 11
5.521325053473628
 21
9.386521635888884
 31
0.0
  0
LINE
  5
40E0
330
1E
100
AcDbEntity
  8
3
100
AcDbLine
 10
5.50164001410355
 20
9.372742108329829
 30
0.0
 11
5.515419541662605
 21
9.372742108329829
 31
0.0
  0
LINE
  5
40E1
330
1E
100
AcDbEntity
  8
3
100
AcDbLine
 10
5.515419541662605
 20
9.372742108329829
 30
0.0
 11
5.521325053473628
 21
9.372742108329829
 31
0.0
  0
LINE
  5
40E2
330
1E
100
AcDbEntity
  8
3
100
AcDbLine
 10
5.521325053473628
 20
9.295970454786521
 30
0.0
 11
5.515419541662605
 21
9.309749982345577
 31
0.0
  0
LINE
  5
40E3
330
1E
100
AcDbEntity
  8
3
100
AcDbLine
 10
5.515419541662605
 20
9.309749982345577
 30
0.0
 11
5.50164001410355
 21
9.315655494156599
 31
0.0
  0
LINE
  5
40E4
330
1E
100
AcDbEntity
  8
3
100
AcDbLine
 10
5.50164001410355
 20
9.315655494156599
 30
0.0
 11
5.503608518040557
 21
9.309749982345577
 31
0.0
  0
LINE
  5
40E5
330
1E
100
AcDbEntity
  8
3
100
AcDbLine
 10
5.503608518040557
 20
9.309749982345577
 30
0.0
 11
5.503608518040557
 21
9.295970454786521
 31
0.0
  0
LINE
  5
40E6
330
1E
100
AcDbEntity
  8
3
100
AcDbLine
 10
5.503608518040557
 20
9.295970454786521
 30
0.0
 11
5.517388045599613
 21
9.295970454786521
 31
0.0
  0
LINE
  5
40E7
330
1E
100
AcDbEntity
  8
3
100
AcDbLine
 10
5.517388045599613
 20
9.295970454786521
 30
0.0
 11
5.521325053473628
 21
9.295970454786521
 31
0.0
  0
LINE
  5
40E8
330
1E
100
AcDbEntity
  8
3
100
AcDbLine
 10
5.503608518040557
 20
9.280222423290458
 30
0.0
 11
5.517388045599613
 21
9.280222423290458
 31
0.0
  0
LINE
  5
40E9
330
1E
100
AcDbEntity
  8
3
100
AcDbLine
 10
5.517388045599613
 20
9.280222423290458
 30
0.0
 11
5.521325053473628
 21
9.280222423290458
 31
0.0
  0
LINE
  5
40EA
330
1E
100
AcDbEntity
  8
3
100
AcDbLine
 10
5.503608518040557
 20
9.280222423290458
 30
0.0
 11
5.503608518040557
 21
9.266442895731403
 31
0.0
  0
LINE
  5
40EB
330
1E
100
AcDbEntity
  8
3
100
AcDbLine
 10
5.503608518040557
 20
9.266442895731403
 30
0.0
 11
5.50164001410355
 21
9.260537383920381
 31
0.0
  0
LINE
  5
40EC
330
1E
100
AcDbEntity
  8
3
100
AcDbLine
 10
5.50164001410355
 20
9.260537383920381
 30
0.0
 11
5.515419541662605
 21
9.266442895731403
 31
0.0
  0
LINE
  5
40ED
330
1E
100
AcDbEntity
  8
3
100
AcDbLine
 10
5.515419541662605
 20
9.266442895731403
 30
0.0
 11
5.521325053473628
 21
9.280222423290458
 31
0.0
  0
LINE
  5
40EE
330
1E
100
AcDbEntity
  8
3
100
AcDbLine
 10
5.50164001410355
 20
9.315655494156599
 30
0.0
 11
5.50164001410355
 21
9.323529509904632
 31
0.0
  0
LINE
  5
40EF
330
1E
100
AcDbEntity
  8
3
100
AcDbLine
 10
5.50164001410355
 20
9.323529509904632
 30
0.0
 11
5.50164001410355
 21
9.34321454927471
 31
0.0
  0
LINE
  5
40F0
330
1E
100
AcDbEntity
  8
3
100
AcDbLine
 10
5.50164001410355
 20
9.386521635888884
 30
0.0
 11
5.50164001410355
 21
9.414080691006992
 31
0.0
  0
LINE
  5
40F1
330
1E
100
AcDbEntity
  8
3
100
AcDbLine
 10
5.50164001410355
 20
9.414080691006992
 30
0.0
 11
5.50164001410355
 21
9.435734234314081
 31
0.0
  0
LINE
  5
40F2
330
1E
100
AcDbEntity
  8
3
100
AcDbLine
 10
5.50164001410355
 20
9.435734234314081
 30
0.0
 11
5.50164001410355
 21
9.44360825006211
 31
0.0
  0
LINE
  5
40F3
330
1E
100
AcDbEntity
  8
3
100
AcDbLine
 10
5.320537651898826
 20
9.378647620140851
 30
0.0
 11
5.50164001410355
 21
9.372742108329829
 31
0.0
  0
LINE
  5
40F4
330
1E
100
AcDbEntity
  8
3
100
AcDbLine
 10
5.50164001410355
 20
9.372742108329829
 30
0.0
 11
5.50164001410355
 21
9.386521635888884
 31
0.0
  0
LINE
  5
40F5
330
1E
100
AcDbEntity
  8
3
100
AcDbLine
 10
5.50164001410355
 20
9.386521635888884
 30
0.0
 11
5.320537651898826
 21
9.380616124077858
 31
0.0
  0
LINE
  5
40F6
330
1E
100
AcDbEntity
  8
3
100
AcDbLine
 10
5.503608518040557
 20
9.463293289432192
 30
0.0
 11
5.503608518040557
 21
9.479041320928255
 31
0.0
  0
LINE
  5
40F7
330
1E
100
AcDbEntity
  8
3
100
AcDbLine
 10
5.503608518040557
 20
9.479041320928255
 30
0.0
 11
5.320537651898826
 21
9.484946832739277
 31
0.0
  0
LINE
  5
40F8
330
1E
100
AcDbEntity
  8
3
100
AcDbLine
 10
5.503608518040557
 20
9.280222423290458
 30
0.0
 11
5.503608518040557
 21
9.295970454786521
 31
0.0
  0
LINE
  5
40F9
330
1E
100
AcDbEntity
  8
3
100
AcDbLine
 10
5.503608518040557
 20
9.295970454786521
 30
0.0
 11
5.320537651898826
 21
9.301875966597544
 31
0.0
  0
LINE
  5
40FA
330
1E
100
AcDbEntity
  8
3
100
AcDbLine
 10
5.521325053473628
 20
9.479041320928255
 30
0.0
 11
5.800852612528746
 21
9.488883840613292
 31
0.0
  0
LINE
  5
40FB
330
1E
100
AcDbEntity
  8
3
100
AcDbLine
 10
5.800852612528746
 20
9.488883840613292
 30
0.0
 11
5.800852612528746
 21
9.713293289432192
 31
0.0
  0
LINE
  5
40FC
330
1E
100
AcDbEntity
  8
3
100
AcDbLine
 10
5.521325053473628
 20
9.372742108329829
 30
0.0
 11
5.521325053473628
 21
9.33337202958967
 31
0.0
  0
LINE
  5
40FD
330
1E
100
AcDbEntity
  8
3
100
AcDbLine
 10
5.521325053473628
 20
9.33337202958967
 30
0.0
 11
5.521325053473628
 21
9.305812974471558
 31
0.0
  0
LINE
  5
40FE
330
1E
100
AcDbEntity
  8
3
100
AcDbLine
 10
5.521325053473628
 20
9.305812974471558
 30
0.0
 11
5.521325053473628
 21
9.295970454786521
 31
0.0
  0
LINE
  5
40FF
330
1E
100
AcDbEntity
  8
3
100
AcDbLine
 10
5.521325053473628
 20
9.295970454786521
 30
0.0
 11
5.521325053473628
 21
9.280222423290458
 31
0.0
  0
LINE
  5
4100
330
1E
100
AcDbEntity
  8
3
100
AcDbLine
 10
5.521325053473628
 20
9.479041320928255
 30
0.0
 11
5.521325053473628
 21
9.463293289432192
 31
0.0
  0
LINE
  5
4101
330
1E
100
AcDbEntity
  8
3
100
AcDbLine
 10
5.521325053473628
 20
9.463293289432192
 30
0.0
 11
5.521325053473628
 21
9.453450769747151
 31
0.0
  0
LINE
  5
4102
330
1E
100
AcDbEntity
  8
3
100
AcDbLine
 10
5.521325053473628
 20
9.453450769747151
 30
0.0
 11
5.521325053473628
 21
9.42589171462904
 31
0.0
  0
LINE
  5
4103
330
1E
100
AcDbEntity
  8
3
100
AcDbLine
 10
5.521325053473628
 20
9.42589171462904
 30
0.0
 11
5.521325053473628
 21
9.386521635888884
 31
0.0
  0
LINE
  5
4104
330
1E
100
AcDbEntity
  8
3
100
AcDbLine
 10
5.521325053473628
 20
9.386521635888884
 30
0.0
 11
5.521325053473628
 21
9.372742108329829
 31
0.0
  0
LINE
  5
4105
330
1E
100
AcDbEntity
  8
3
100
AcDbLine
 10
5.800852612528746
 20
9.045970454786521
 30
0.0
 11
5.800852612528746
 21
9.270379903605418
 31
0.0
  0
LINE
  5
4106
330
1E
100
AcDbEntity
  8
3
100
AcDbLine
 10
5.800852612528746
 20
9.270379903605418
 30
0.0
 11
5.521325053473628
 21
9.280222423290458
 31
0.0
  0
LINE
  5
4107
330
1E
100
AcDbEntity
  8
3
100
AcDbLine
 10
4.985891982607487
 20
7.892427147699907
 30
0.0
 11
4.991797494418511
 21
7.878647620140851
 31
0.0
  0
LINE
  5
4108
330
1E
100
AcDbEntity
  8
3
100
AcDbLine
 10
4.991797494418511
 20
7.878647620140851
 30
0.0
 11
5.005577021977565
 21
7.872742108329829
 31
0.0
  0
LINE
  5
4109
330
1E
100
AcDbEntity
  8
3
100
AcDbLine
 10
5.005577021977565
 20
8.042033446912506
 30
0.0
 11
4.991797494418511
 21
8.042033446912506
 31
0.0
  0
LINE
  5
410A
330
1E
100
AcDbEntity
  8
3
100
AcDbLine
 10
4.991797494418511
 20
8.042033446912506
 30
0.0
 11
4.985891982607487
 21
8.042033446912506
 31
0.0
  0
LINE
  5
410B
330
1E
100
AcDbEntity
  8
3
100
AcDbLine
 10
5.005577021977565
 20
10.71526179336919
 30
0.0
 11
4.991797494418511
 21
10.71526179336919
 31
0.0
  0
LINE
  5
410C
330
1E
100
AcDbEntity
  8
3
100
AcDbLine
 10
4.991797494418511
 20
10.71526179336919
 30
0.0
 11
4.985891982607487
 21
10.71526179336919
 31
0.0
  0
LINE
  5
410D
330
1E
100
AcDbEntity
  8
3
100
AcDbLine
 10
5.005577021977565
 20
10.88652163588888
 30
0.0
 11
4.991797494418511
 21
10.88061612407785
 31
0.0
  0
LINE
  5
410E
330
1E
100
AcDbEntity
  8
3
100
AcDbLine
 10
4.991797494418511
 20
10.88061612407785
 30
0.0
 11
4.985891982607487
 21
10.8668365965188
 31
0.0
  0
LINE
  5
410F
330
1E
100
AcDbEntity
  8
3
100
AcDbLine
 10
5.005577021977565
 20
10.88652163588888
 30
0.0
 11
5.005577021977565
 21
10.87667911620384
 31
0.0
  0
LINE
  5
4110
330
1E
100
AcDbEntity
  8
3
100
AcDbLine
 10
5.005577021977565
 20
10.87667911620384
 30
0.0
 11
5.005577021977565
 21
10.85305706895974
 31
0.0
  0
LINE
  5
4111
330
1E
100
AcDbEntity
  8
3
100
AcDbLine
 10
5.005577021977565
 20
10.85305706895974
 30
0.0
 11
5.005577021977565
 21
10.81565549415659
 31
0.0
  0
LINE
  5
4112
330
1E
100
AcDbEntity
  8
3
100
AcDbLine
 10
5.005577021977565
 20
10.81565549415659
 30
0.0
 11
5.005577021977565
 21
10.76841139966841
 31
0.0
  0
LINE
  5
4113
330
1E
100
AcDbEntity
  8
3
100
AcDbLine
 10
5.005577021977565
 20
10.76841139966841
 30
0.0
 11
5.005577021977565
 21
10.71526179336919
 31
0.0
  0
LINE
  5
4114
330
1E
100
AcDbEntity
  8
3
100
AcDbLine
 10
5.005577021977565
 20
7.906206675258962
 30
0.0
 11
5.005577021977565
 21
7.880616124077858
 31
0.0
  0
LINE
  5
4115
330
1E
100
AcDbEntity
  8
3
100
AcDbLine
 10
5.005577021977565
 20
7.880616124077858
 30
0.0
 11
5.005577021977565
 21
7.872742108329829
 31
0.0
  0
LINE
  5
4116
330
1E
100
AcDbEntity
  8
3
100
AcDbLine
 10
5.005577021977565
 20
8.042033446912506
 30
0.0
 11
5.005577021977565
 21
7.990852344550299
 31
0.0
  0
LINE
  5
4117
330
1E
100
AcDbEntity
  8
3
100
AcDbLine
 10
5.005577021977565
 20
7.990852344550299
 30
0.0
 11
5.005577021977565
 21
7.94360825006211
 31
0.0
  0
LINE
  5
4118
330
1E
100
AcDbEntity
  8
3
100
AcDbLine
 10
5.005577021977565
 20
7.94360825006211
 30
0.0
 11
5.005577021977565
 21
7.906206675258962
 31
0.0
  0
LINE
  5
4119
330
1E
100
AcDbEntity
  8
3
100
AcDbLine
 10
5.320537651898826
 20
10.72707281699124
 30
0.0
 11
5.005577021977565
 21
10.71526179336919
 31
0.0
  0
LINE
  5
411A
330
1E
100
AcDbEntity
  8
3
100
AcDbLine
 10
5.005577021977565
 20
10.71526179336919
 30
0.0
 11
5.005577021977565
 21
8.042033446912506
 31
0.0
  0
LINE
  5
411B
330
1E
100
AcDbEntity
  8
3
100
AcDbLine
 10
5.005577021977565
 20
8.042033446912506
 30
0.0
 11
5.320537651898826
 21
8.032190927227466
 31
0.0
  0
LINE
  5
411C
330
1E
100
AcDbEntity
  8
3
100
AcDbLine
 10
4.985891982607487
 20
7.892427147699907
 30
0.0
 11
4.985891982607487
 21
7.900301163447936
 31
0.0
  0
LINE
  5
411D
330
1E
100
AcDbEntity
  8
3
100
AcDbLine
 10
4.985891982607487
 20
7.900301163447936
 30
0.0
 11
4.985891982607487
 21
7.921954706755025
 31
0.0
  0
LINE
  5
411E
330
1E
100
AcDbEntity
  8
3
100
AcDbLine
 10
4.985891982607487
 20
7.921954706755025
 30
0.0
 11
4.985891982607487
 21
7.955419273684158
 31
0.0
  0
LINE
  5
411F
330
1E
100
AcDbEntity
  8
3
100
AcDbLine
 10
4.985891982607487
 20
7.955419273684158
 30
0.0
 11
4.985891982607487
 21
7.996757856361325
 31
0.0
  0
LINE
  5
4120
330
1E
100
AcDbEntity
  8
3
100
AcDbLine
 10
4.985891982607487
 20
7.996757856361325
 30
0.0
 11
4.985891982607487
 21
8.042033446912506
 31
0.0
  0
LINE
  5
4121
330
1E
100
AcDbEntity
  8
3
100
AcDbLine
 10
4.985891982607487
 20
8.042033446912506
 30
0.0
 11
4.985891982607487
 21
10.71526179336919
 31
0.0
  0
LINE
  5
4122
330
1E
100
AcDbEntity
  8
3
100
AcDbLine
 10
4.985891982607487
 20
10.71526179336919
 30
0.0
 11
4.985891982607487
 21
10.76250588785738
 31
0.0
  0
LINE
  5
4123
330
1E
100
AcDbEntity
  8
3
100
AcDbLine
 10
4.985891982607487
 20
10.76250588785738
 30
0.0
 11
4.985891982607487
 21
10.80384447053455
 31
0.0
  0
LINE
  5
4124
330
1E
100
AcDbEntity
  8
3
100
AcDbLine
 10
4.985891982607487
 20
10.80384447053455
 30
0.0
 11
4.985891982607487
 21
10.83730903746368
 31
0.0
  0
LINE
  5
4125
330
1E
100
AcDbEntity
  8
3
100
AcDbLine
 10
4.985891982607487
 20
10.83730903746368
 30
0.0
 11
4.985891982607487
 21
10.85896258077077
 31
0.0
  0
LINE
  5
4126
330
1E
100
AcDbEntity
  8
3
100
AcDbLine
 10
4.985891982607487
 20
10.85896258077077
 30
0.0
 11
4.985891982607487
 21
10.8668365965188
 31
0.0
  0
LINE
  5
4127
330
1E
100
AcDbEntity
  8
3
100
AcDbLine
 10
5.320537651898826
 20
10.88849013982589
 30
0.0
 11
5.320537651898826
 21
10.86486809258179
 31
0.0
  0
LINE
  5
4128
330
1E
100
AcDbEntity
  8
3
100
AcDbLine
 10
5.320537651898826
 20
10.86486809258179
 30
0.0
 11
5.320537651898826
 21
10.82746651777864
 31
0.0
  0
LINE
  5
4129
330
1E
100
AcDbEntity
  8
3
100
AcDbLine
 10
5.320537651898826
 20
10.82746651777864
 30
0.0
 11
5.320537651898826
 21
10.78022242329045
 31
0.0
  0
LINE
  5
412A
330
1E
100
AcDbEntity
  8
3
100
AcDbLine
 10
5.320537651898826
 20
10.78022242329045
 30
0.0
 11
5.320537651898826
 21
10.72707281699124
 31
0.0
  0
LINE
  5
412B
330
1E
100
AcDbEntity
  8
3
100
AcDbLine
 10
5.320537651898826
 20
8.032190927227466
 30
0.0
 11
5.320537651898826
 21
7.979041320928255
 31
0.0
  0
LINE
  5
412C
330
1E
100
AcDbEntity
  8
3
100
AcDbLine
 10
5.320537651898826
 20
7.979041320928255
 30
0.0
 11
5.320537651898826
 21
7.931797226440066
 31
0.0
  0
LINE
  5
412D
330
1E
100
AcDbEntity
  8
3
100
AcDbLine
 10
5.320537651898826
 20
7.931797226440066
 30
0.0
 11
5.320537651898826
 21
7.894395651636914
 31
0.0
  0
LINE
  5
412E
330
1E
100
AcDbEntity
  8
3
100
AcDbLine
 10
5.320537651898826
 20
7.894395651636914
 30
0.0
 11
5.320537651898826
 21
7.870773604392821
 31
0.0
  0
LINE
  5
412F
330
1E
100
AcDbEntity
  8
3
100
AcDbLine
 10
5.320537651898826
 20
7.870773604392821
 30
0.0
 11
5.320537651898826
 21
7.860931084707781
 31
0.0
  0
ENDSEC
  0
SECTION
  2
OBJECTS
  0
DICTIONARY
  5
C
330
0
100
AcDbDictionary
  3
ACAD_GROUP
350
D
  3
ACAD_LAYOUT
350
19
  3
ACAD_MLINESTYLE
350
16
  3
ACAD_PLOTSETTINGS
350
18
1001
ACAD
1000
TREAT_AS_HARD
1070
     0
  0
DICTIONARY
  5
4131
330
1E
100
AcDbDictionary
  3
ACAD_LAYOUTSELFREF
350
419F
1001
ACAD
1000
TREAT_AS_HARD
1070
     1
  0
DICTIONARY
  5
4133
330
1A
100
AcDbDictionary
  3
ACAD_LAYOUTSELFREF
350
419E
1001
ACAD
1000
TREAT_AS_HARD
1070
     1
  0
DICTIONARY
  5
D
102
{ACAD_REACTORS
330
C
102
}
330
C
100
AcDbDictionary
1001
ACAD
1000
TREAT_AS_HARD
1070
     0
  0
DICTIONARY
  5
19
102
{ACAD_REACTORS
330
C
102
}
330
C
100
AcDbDictionary
1001
ACAD
1000
TREAT_AS_HARD
1070
     0
  0
DICTIONARY
  5
16
102
{ACAD_REACTORS
330
C
102
}
330
C
100
AcDbDictionary
  3
STANDARD
350
17
1001
ACAD
1000
TREAT_AS_HARD
1070
     0
  0
DICTIONARY
  5
18
102
{ACAD_REACTORS
330
C
102
}
330
C
100
AcDbDictionary
1001
ACAD
1000
TREAT_AS_HARD
1070
     0
  0
XRECORD
  5
419F
102
{ACAD_REACTORS
330
4131
102
}
330
4131
100
AcDbXrecord
340
1E
  0
XRECORD
  5
419E
102
{ACAD_REACTORS
330
4133
102
}
330
4133
100
AcDbXrecord
340
1A
  0
MLINESTYLE
  5
17
102
{ACAD_REACTORS
330
16
102
}
330
16
100
AcDbMlineStyle
  2
STANDARD
 70
     0
  3

 62
   256
 51
90.0
 52
90.0
 71
     2
 49
0.5
 62
   256
  6
BYLAYER
 49
-0.5
 62
   256
  6
BYLAYER
  0
ENDSEC
  0
EOF
