  0
SECTION
  2
HEADER
  9
$ACADVER
  1
AC1012
  9
$DWGCODEPAGE
  3
ANSI_1252
  9
$INSBASE
 10
0.0
 20
0.0
 30
0.0
  9
$EXTMIN
 10
4.050185499008971
 20
6.24872149673494
 30
-0.0000000000112498
  9
$EXTMAX
 10
6.16932740067833
 20
7.257363539108144
 30
0.0000000000002956
  9
$LIMMIN
 10
0.0
 20
0.0
  9
$LIMMAX
 10
12.0
 20
9.0
  9
$ORTHOMODE
 70
     0
  9
$REGENMODE
 70
     1
  9
$FILLMODE
 70
     1
  9
$QTEXTMODE
 70
     0
  9
$MIRRTEXT
 70
     1
  9
$DRAGMODE
 70
     2
  9
$LTSCALE
 40
1.0
  9
$OSMODE
 70
    33
  9
$ATTMODE
 70
     1
  9
$TEXTSIZE
 40
0.2
  9
$TRACEWID
 40
0.05
  9
$TEXTSTYLE
  7
STANDARD
  9
$CLAYER
  8
0
  9
$CELTYPE
  6
BYLAYER
  9
$CECOLOR
 62
   256
  9
$CELTSCALE
 40
1.0
  9
$DELOBJ
 70
     1
  9
$DISPSILH
 70
     0
  9
$DIMSCALE
 40
1.0
  9
$DIMASZ
 40
0.18
  9
$DIMEXO
 40
0.0625
  9
$DIMDLI
 40
0.38
  9
$DIMRND
 40
0.0
  9
$DIMDLE
 40
0.0
  9
$DIMEXE
 40
0.18
  9
$DIMTP
 40
0.0
  9
$DIMTM
 40
0.0
  9
$DIMTXT
 40
0.18
  9
$DIMCEN
 40
0.09
  9
$DIMTSZ
 40
0.0
  9
$DIMTOL
 70
     0
  9
$DIMLIM
 70
     0
  9
$DIMTIH
 70
     1
  9
$DIMTOH
 70
     1
  9
$DIMSE1
 70
     0
  9
$DIMSE2
 70
     0
  9
$DIMTAD
 70
     0
  9
$DIMZIN
 70
     0
  9
$DIMBLK
  1

  9
$DIMASO
 70
     1
  9
$DIMSHO
 70
     1
  9
$DIMPOST
  1

  9
$DIMAPOST
  1

  9
$DIMALT
 70
     0
  9
$DIMALTD
 70
     2
  9
$DIMALTF
 40
25.4
  9
$DIMLFAC
 40
1.0
  9
$DIMTOFL
 70
     0
  9
$DIMTVP
 40
0.0
  9
$DIMTIX
 70
     0
  9
$DIMSOXD
 70
     0
  9
$DIMSAH
 70
     0
  9
$DIMBLK1
  1

  9
$DIMBLK2
  1

  9
$DIMSTYLE
  2
STANDARD
  9
$DIMCLRD
 70
     0
  9
$DIMCLRE
 70
     0
  9
$DIMCLRT
 70
     0
  9
$DIMTFAC
 40
1.0
  9
$DIMGAP
 40
0.09
  9
$DIMJUST
 70
     0
  9
$DIMSD1
 70
     0
  9
$DIMSD2
 70
     0
  9
$DIMTOLJ
 70
     1
  9
$DIMTZIN
 70
     0
  9
$DIMALTZ
 70
     0
  9
$DIMALTTZ
 70
     0
  9
$DIMFIT
 70
     5
  9
$DIMUPT
 70
     0
  9
$DIMUNIT
 70
     2
  9
$DIMDEC
 70
     4
  9
$DIMTDEC
 70
     4
  9
$DIMALTU
 70
     2
  9
$DIMALTTD
 70
     2
  9
$DIMTXSTY
  7
STANDARD
  9
$DIMAUNIT
 70
     0
  9
$LUNITS
 70
     2
  9
$LUPREC
 70
     4
  9
$SKETCHINC
 40
0.1
  9
$FILLETRAD
 40
0.0
  9
$AUNITS
 70
     0
  9
$AUPREC
 70
     0
  9
$MENU
  1
acad
  9
$ELEVATION
 40
0.0
  9
$PELEVATION
 40
0.0
  9
$THICKNESS
 40
0.0
  9
$LIMCHECK
 70
     0
  9
$BLIPMODE
 70
     0
  9
$CHAMFERA
 40
0.0
  9
$CHAMFERB
 40
0.0
  9
$CHAMFERC
 40
0.0
  9
$CHAMFERD
 40
0.0
  9
$SKPOLY
 70
     0
  9
$TDCREATE
 40
2451901.508912037
  9
$TDUPDATE
 40
2452338.425686354
  9
$TDINDWG
 40
0.0016261690
  9
$TDUSRTIMER
 40
0.0016261690
  9
$USRTIMER
 70
     1
  9
$ANGBASE
 50
0.0
  9
$ANGDIR
 70
     0
  9
$PDMODE
 70
     0
  9
$PDSIZE
 40
0.0
  9
$PLINEWID
 40
0.0
  9
$COORDS
 70
     2
  9
$SPLFRAME
 70
     0
  9
$SPLINETYPE
 70
     6
  9
$SPLINESEGS
 70
     8
  9
$ATTDIA
 70
     0
  9
$ATTREQ
 70
     1
  9
$HANDLING
 70
  4097
  9
$HANDSEED
  5
32A2
  9
$SURFTAB1
 70
     6
  9
$SURFTAB2
 70
     6
  9
$SURFTYPE
 70
     6
  9
$SURFU
 70
     6
  9
$SURFV
 70
     6
  9
$UCSNAME
  2

  9
$UCSORG
 10
0.0
 20
0.0
 30
0.0
  9
$UCSXDIR
 10
1.0
 20
0.0
 30
0.0
  9
$UCSYDIR
 10
0.0
 20
1.0
 30
0.0
  9
$PUCSNAME
  2

  9
$PUCSORG
 10
0.0
 20
0.0
 30
0.0
  9
$PUCSXDIR
 10
1.0
 20
0.0
 30
0.0
  9
$PUCSYDIR
 10
0.0
 20
1.0
 30
0.0
  9
$USERI1
 70
     0
  9
$USERI2
 70
     0
  9
$USERI3
 70
     0
  9
$USERI4
 70
     0
  9
$USERI5
 70
     0
  9
$USERR1
 40
0.0
  9
$USERR2
 40
0.0
  9
$USERR3
 40
0.0
  9
$USERR4
 40
0.0
  9
$USERR5
 40
0.0
  9
$WORLDVIEW
 70
     1
  9
$SHADEDGE
 70
     3
  9
$SHADEDIF
 70
    70
  9
$TILEMODE
 70
     1
  9
$MAXACTVP
 70
    16
  9
$PINSBASE
 10
0.0
 20
0.0
 30
0.0
  9
$PLIMCHECK
 70
     0
  9
$PEXTMIN
 10
1.000000000000000E+20
 20
1.000000000000000E+20
 30
1.000000000000000E+20
  9
$PEXTMAX
 10
-1.000000000000000E+20
 20
-1.000000000000000E+20
 30
-1.000000000000000E+20
  9
$PLIMMIN
 10
0.0
 20
0.0
  9
$PLIMMAX
 10
12.0
 20
9.0
  9
$UNITMODE
 70
     0
  9
$VISRETAIN
 70
     0
  9
$PLINEGEN
 70
     0
  9
$PSLTSCALE
 70
     1
  9
$TREEDEPTH
 70
  3020
  9
$PICKSTYLE
 70
     1
  9
$CMLSTYLE
  2
STANDARD
  9
$CMLJUST
 70
     0
  9
$CMLSCALE
 40
1.0
  9
$SAVEIMAGES
 70
     1
  0
ENDSEC
  0
SECTION
  2
CLASSES
  0
CLASS
  1
ACDBDICTIONARYWDFLT
  2
AcDbDictionaryWithDefault
  3
AutoCAD 2000
 90
    32768
280
     0
281
     0
  0
CLASS
  1
ACDBPLACEHOLDER
  2
AcDbPlaceHolder
  3
AutoCAD 2000
 90
    32768
280
     0
281
     0
  0
CLASS
  1
LAYOUT
  2
AcDbLayout
  3
AutoCAD 2000
 90
    32768
280
     0
281
     0
  0
CLASS
  1
LONG_TRANSACTION
  2
AcDbLongTransaction
  3
AutoCAD 2000
 90
    32768
280
     0
281
     0
  0
CLASS
  1
LWPOLYLINE
  2
AcDbPolyline
  3
AutoCAD 2000
 90
    32768
280
     0
281
     1
  0
CLASS
  1
HATCH
  2
AcDbHatch
  3
AutoCAD 2000
 90
    32768
280
     0
281
     1
  0
CLASS
  1
XRECORD
  2
AcDbXrecord
  3
AutoCAD 2000
 90
    32768
280
     0
281
     0
  0
CLASS
  1
LONG_TRANSACTION
  2
AcDbLongTransaction
  3
AutoCAD 2000
 90
    32768
280
     0
281
     0
  0
CLASS
  1
LWPOLYLINE
  2
AcDbPolyline
  3
AutoCAD 2000
 90
    32768
280
     0
281
     1
  0
CLASS
  1
HATCH
  2
AcDbHatch
  3
AutoCAD 2000
 90
    32768
280
     0
281
     1
  0
CLASS
  1
XRECORD
  2
AcDbXrecord
  3
AutoCAD 2000
 90
    32768
280
     0
281
     0
  0
ENDSEC
  0
SECTION
  2
TABLES
  0
TABLE
  2
VPORT
  5
8
330
0
100
AcDbSymbolTable
 70
     3
  0
VPORT
  5
329F
330
8
100
AcDbSymbolTableRecord
100
AcDbViewportTableRecord
  2
*ACTIVE
 70
     0
 10
0.0
 20
0.0
 11
1.0
 21
1.0
 12
5.109756449843651
 22
6.753042517921542
 13
0.0
 23
0.0
 14
1.0
 24
1.0
 15
0.0
 25
0.0
 16
0.0
 26
0.0
 36
1.0
 17
0.0
 27
0.0
 37
0.0
 40
1.300537169063796
 41
1.637191157347204
 42
50.0
 43
0.0
 44
0.0
 50
0.0
 51
0.0
 71
     0
 72
   100
 73
     1
 74
     1
 75
     0
 76
     0
 77
     0
 78
     0
  0
ENDTAB
  0
TABLE
  2
LTYPE
  5
5
330
0
100
AcDbSymbolTable
 70
    25
  0
LTYPE
  5
13
330
5
100
AcDbSymbolTableRecord
100
AcDbLinetypeTableRecord
  2
BYBLOCK
 70
     0
  3

 72
    65
 73
     0
 40
0.0
  0
LTYPE
  5
14
330
5
100
AcDbSymbolTableRecord
100
AcDbLinetypeTableRecord
  2
BYLAYER
 70
     0
  3

 72
    65
 73
     0
 40
0.0
  0
LTYPE
  5
15
330
5
100
AcDbSymbolTableRecord
100
AcDbLinetypeTableRecord
  2
CONTINUOUS
 70
     0
  3
Solid line
 72
    65
 73
     0
 40
0.0
  0
LTYPE
  5
22
330
5
100
AcDbSymbolTableRecord
100
AcDbLinetypeTableRecord
  2
BORDER
 70
     0
  3
__ __ . __ __ . __ __ . __ __ . __ __ . __ __ .
 72
    65
 73
     6
 40
1.75
 49
0.5
 74
     0
 49
-0.25
 74
     0
 49
0.5
 74
     0
 49
-0.25
 74
     0
 49
0.5
 74
     0
 49
-0.25
 74
     0
  0
LTYPE
  5
23
330
5
100
AcDbSymbolTableRecord
100
AcDbLinetypeTableRecord
  2
BORDER2
 70
     0
  3
__.__.__.__.__.__.__.__.__.__.__.__.__.__.__.__
 72
    65
 73
     6
 40
0.875
 49
0.25
 74
     0
 49
-0.125
 74
     0
 49
0.25
 74
     0
 49
-0.125
 74
     0
 49
0.25
 74
     0
 49
-0.125
 74
     0
  0
LTYPE
  5
24
330
5
100
AcDbSymbolTableRecord
100
AcDbLinetypeTableRecord
  2
BORDERX2
 70
     0
  3
____  ____  .  ____  ____  .  
 72
    65
 73
     6
 40
3.5
 49
1.0
 74
     0
 49
-0.5
 74
     0
 49
1.0
 74
     0
 49
-0.5
 74
     0
 49
1.0
 74
     0
 49
-0.5
 74
     0
  0
LTYPE
  5
25
330
5
100
AcDbSymbolTableRecord
100
AcDbLinetypeTableRecord
  2
CENTER
 70
     0
  3
____ _ ____ _ ____ _ ____ _ ____ _ ____ _ ____
 72
    65
 73
     4
 40
2.0
 49
1.25
 74
     0
 49
-0.25
 74
     0
 49
0.25
 74
     0
 49
-0.25
 74
     0
  0
LTYPE
  5
26
330
5
100
AcDbSymbolTableRecord
100
AcDbLinetypeTableRecord
  2
CENTER2
 70
     0
  3
____ _ ____ _ ____ _ ____ _ ____ _ ____ _ ____
 72
    65
 73
     4
 40
1.125
 49
0.75
 74
     0
 49
-0.125
 74
     0
 49
0.125
 74
     0
 49
-0.125
 74
     0
  0
LTYPE
  5
27
330
5
100
AcDbSymbolTableRecord
100
AcDbLinetypeTableRecord
  2
CENTERX2
 70
     0
  3
________  __  ________  __  ________  __  
 72
    65
 73
     4
 40
4.0
 49
2.5
 74
     0
 49
-0.5
 74
     0
 49
0.5
 74
     0
 49
-0.5
 74
     0
  0
LTYPE
  5
28
330
5
100
AcDbSymbolTableRecord
100
AcDbLinetypeTableRecord
  2
DASHDOT
 70
     0
  3
__ . __ . __ . __ . __ . __ . __ . 
 72
    65
 73
     4
 40
1.0
 49
0.5
 74
     0
 49
-0.25
 74
     0
 49
0.0
 74
     0
 49
-0.25
 74
     0
  0
LTYPE
  5
29
330
5
100
AcDbSymbolTableRecord
100
AcDbLinetypeTableRecord
  2
DASHDOT2
 70
     0
  3
_._._._._._._._._._._._._._._._.
 72
    65
 73
     4
 40
0.5
 49
0.25
 74
     0
 49
-0.125
 74
     0
 49
0.0
 74
     0
 49
-0.125
 74
     0
  0
LTYPE
  5
2A
330
5
100
AcDbSymbolTableRecord
100
AcDbLinetypeTableRecord
  2
DASHDOTX2
 70
     0
  3
____  .  ____  .  ____  .  ____  .  
 72
    65
 73
     4
 40
2.0
 49
1.0
 74
     0
 49
-0.5
 74
     0
 49
0.0
 74
     0
 49
-0.5
 74
     0
  0
LTYPE
  5
2B
330
5
100
AcDbSymbolTableRecord
100
AcDbLinetypeTableRecord
  2
DASHED
 70
     0
  3
__ __ __ __ __ __ __ __ __ __ __ __ 
 72
    65
 73
     2
 40
0.75
 49
0.5
 74
     0
 49
-0.25
 74
     0
  0
LTYPE
  5
2C
330
5
100
AcDbSymbolTableRecord
100
AcDbLinetypeTableRecord
  2
DASHED2
 70
     0
  3
_ _ _ _ _ _ _ _ _ _ _ _ _ _ _ _ _ _ 
 72
    65
 73
     2
 40
0.375
 49
0.25
 74
     0
 49
-0.125
 74
     0
  0
LTYPE
  5
2D
330
5
100
AcDbSymbolTableRecord
100
AcDbLinetypeTableRecord
  2
DASHEDX2
 70
     0
  3
____  ____  ____  ____  ____  ____  
 72
    65
 73
     2
 40
1.5
 49
1.0
 74
     0
 49
-0.5
 74
     0
  0
LTYPE
  5
2E
330
5
100
AcDbSymbolTableRecord
100
AcDbLinetypeTableRecord
  2
DIVIDE
 70
     0
  3
____ . . ____ . . ____ . . ____ . . 
 72
    65
 73
     6
 40
1.25
 49
0.5
 74
     0
 49
-0.25
 74
     0
 49
0.0
 74
     0
 49
-0.25
 74
     0
 49
0.0
 74
     0
 49
-0.25
 74
     0
  0
LTYPE
  5
2F
330
5
100
AcDbSymbolTableRecord
100
AcDbLinetypeTableRecord
  2
DIVIDE2
 70
     0
  3
__..__..__..__..__..__..__..__..__..
 72
    65
 73
     6
 40
0.625
 49
0.25
 74
     0
 49
-0.125
 74
     0
 49
0.0
 74
     0
 49
-0.125
 74
     0
 49
0.0
 74
     0
 49
-0.125
 74
     0
  0
LTYPE
  5
30
330
5
100
AcDbSymbolTableRecord
100
AcDbLinetypeTableRecord
  2
DIVIDEX2
 70
     0
  3
________  .  .  ________  .  .  ________  .  . 
 72
    65
 73
     6
 40
2.5
 49
1.0
 74
     0
 49
-0.5
 74
     0
 49
0.0
 74
     0
 49
-0.5
 74
     0
 49
0.0
 74
     0
 49
-0.5
 74
     0
  0
LTYPE
  5
31
330
5
100
AcDbSymbolTableRecord
100
AcDbLinetypeTableRecord
  2
DOT
 70
     0
  3
. . . . . . . . . . . . . . . . . . 
 72
    65
 73
     2
 40
0.25
 49
0.0
 74
     0
 49
-0.25
 74
     0
  0
LTYPE
  5
32
330
5
100
AcDbSymbolTableRecord
100
AcDbLinetypeTableRecord
  2
DOT2
 70
     0
  3
....................................
 72
    65
 73
     2
 40
0.125
 49
0.0
 74
     0
 49
-0.125
 74
     0
  0
LTYPE
  5
33
330
5
100
AcDbSymbolTableRecord
100
AcDbLinetypeTableRecord
  2
DOTX2
 70
     0
  3
.  .  .  .  .  .  .  .  .  .  .  .  .  
 72
    65
 73
     2
 40
0.5
 49
0.0
 74
     0
 49
-0.5
 74
     0
  0
LTYPE
  5
34
330
5
100
AcDbSymbolTableRecord
100
AcDbLinetypeTableRecord
  2
HIDDEN
 70
     0
  3
__ __ __ __ __ __ __ __ __ __ __ __ 
 72
    65
 73
     2
 40
0.375
 49
0.25
 74
     0
 49
-0.125
 74
     0
  0
LTYPE
  5
35
330
5
100
AcDbSymbolTableRecord
100
AcDbLinetypeTableRecord
  2
HIDDEN2
 70
     0
  3
_ _ _ _ _ _ _ _ _ _ _ _ _ _ _ _ _ _ 
 72
    65
 73
     2
 40
0.1875
 49
0.125
 74
     0
 49
-0.0625
 74
     0
  0
LTYPE
  5
36
330
5
100
AcDbSymbolTableRecord
100
AcDbLinetypeTableRecord
  2
HIDDENX2
 70
     0
  3
____ ____ ____ ____ ____ ____ ____ 
 72
    65
 73
     2
 40
0.75
 49
0.5
 74
     0
 49
-0.25
 74
     0
  0
LTYPE
  5
37
330
5
100
AcDbSymbolTableRecord
100
AcDbLinetypeTableRecord
  2
PHANTOM
 70
     0
  3
______  __  __  ______  __  __  
 72
    65
 73
     6
 40
2.5
 49
1.25
 74
     0
 49
-0.25
 74
     0
 49
0.25
 74
     0
 49
-0.25
 74
     0
 49
0.25
 74
     0
 49
-0.25
 74
     0
  0
LTYPE
  5
38
330
5
100
AcDbSymbolTableRecord
100
AcDbLinetypeTableRecord
  2
PHANTOM2
 70
     0
  3
___ _ _ ___ _ _ ___ _ _ ___ _ _ 
 72
    65
 73
     6
 40
1.25
 49
0.625
 74
     0
 49
-0.125
 74
     0
 49
0.125
 74
     0
 49
-0.125
 74
     0
 49
0.125
 74
     0
 49
-0.125
 74
     0
  0
LTYPE
  5
39
330
5
100
AcDbSymbolTableRecord
100
AcDbLinetypeTableRecord
  2
PHANTOMX2
 70
     0
  3
___ _ _ ___ _ _ ___ _ _ ___ _ _ 
 72
    65
 73
     6
 40
5.0
 49
2.5
 74
     0
 49
-0.5
 74
     0
 49
0.5
 74
     0
 49
-0.5
 74
     0
 49
0.5
 74
     0
 49
-0.5
 74
     0
  0
ENDTAB
  0
TABLE
  2
LAYER
  5
2
330
0
100
AcDbSymbolTable
 70
   257
  0
LAYER
  5
10
330
2
100
AcDbSymbolTableRecord
100
AcDbLayerTableRecord
  2
0
 70
     0
 62
     7
  6
CONTINUOUS
  0
LAYER
  5
3A
330
2
100
AcDbSymbolTableRecord
100
AcDbLayerTableRecord
  2
1
 70
     0
 62
     1
  6
CONTINUOUS
  0
LAYER
  5
3B
330
2
100
AcDbSymbolTableRecord
100
AcDbLayerTableRecord
  2
2
 70
     0
 62
     2
  6
CONTINUOUS
  0
LAYER
  5
3C
330
2
100
AcDbSymbolTableRecord
100
AcDbLayerTableRecord
  2
3
 70
     0
 62
     3
  6
CONTINUOUS
  0
LAYER
  5
3D
330
2
100
AcDbSymbolTableRecord
100
AcDbLayerTableRecord
  2
4
 70
     0
 62
     4
  6
CONTINUOUS
  0
LAYER
  5
3E
330
2
100
AcDbSymbolTableRecord
100
AcDbLayerTableRecord
  2
5
 70
     0
 62
     5
  6
CONTINUOUS
  0
LAYER
  5
3F
330
2
100
AcDbSymbolTableRecord
100
AcDbLayerTableRecord
  2
6
 70
     0
 62
     6
  6
CONTINUOUS
  0
LAYER
  5
40
330
2
100
AcDbSymbolTableRecord
100
AcDbLayerTableRecord
  2
7
 70
     0
 62
     7
  6
CONTINUOUS
  0
LAYER
  5
41
330
2
100
AcDbSymbolTableRecord
100
AcDbLayerTableRecord
  2
8
 70
     0
 62
     8
  6
CONTINUOUS
  0
LAYER
  5
42
330
2
100
AcDbSymbolTableRecord
100
AcDbLayerTableRecord
  2
9
 70
     0
 62
     9
  6
CONTINUOUS
  0
LAYER
  5
43
330
2
100
AcDbSymbolTableRecord
100
AcDbLayerTableRecord
  2
10
 70
     0
 62
    10
  6
CONTINUOUS
  0
LAYER
  5
44
330
2
100
AcDbSymbolTableRecord
100
AcDbLayerTableRecord
  2
11
 70
     0
 62
    11
  6
CONTINUOUS
  0
LAYER
  5
45
330
2
100
AcDbSymbolTableRecord
100
AcDbLayerTableRecord
  2
12
 70
     0
 62
    12
  6
CONTINUOUS
  0
LAYER
  5
46
330
2
100
AcDbSymbolTableRecord
100
AcDbLayerTableRecord
  2
13
 70
     0
 62
    13
  6
CONTINUOUS
  0
LAYER
  5
47
330
2
100
AcDbSymbolTableRecord
100
AcDbLayerTableRecord
  2
14
 70
     0
 62
    14
  6
CONTINUOUS
  0
LAYER
  5
48
330
2
100
AcDbSymbolTableRecord
100
AcDbLayerTableRecord
  2
15
 70
     0
 62
    15
  6
CONTINUOUS
  0
LAYER
  5
49
330
2
100
AcDbSymbolTableRecord
100
AcDbLayerTableRecord
  2
16
 70
     0
 62
    16
  6
CONTINUOUS
  0
LAYER
  5
4A
330
2
100
AcDbSymbolTableRecord
100
AcDbLayerTableRecord
  2
17
 70
     0
 62
    17
  6
CONTINUOUS
  0
LAYER
  5
4B
330
2
100
AcDbSymbolTableRecord
100
AcDbLayerTableRecord
  2
18
 70
     0
 62
    18
  6
CONTINUOUS
  0
LAYER
  5
4C
330
2
100
AcDbSymbolTableRecord
100
AcDbLayerTableRecord
  2
19
 70
     0
 62
    19
  6
CONTINUOUS
  0
LAYER
  5
4D
330
2
100
AcDbSymbolTableRecord
100
AcDbLayerTableRecord
  2
20
 70
     0
 62
    20
  6
CONTINUOUS
  0
LAYER
  5
4E
330
2
100
AcDbSymbolTableRecord
100
AcDbLayerTableRecord
  2
21
 70
     0
 62
    21
  6
CONTINUOUS
  0
LAYER
  5
4F
330
2
100
AcDbSymbolTableRecord
100
AcDbLayerTableRecord
  2
22
 70
     0
 62
    22
  6
CONTINUOUS
  0
LAYER
  5
50
330
2
100
AcDbSymbolTableRecord
100
AcDbLayerTableRecord
  2
23
 70
     0
 62
    23
  6
CONTINUOUS
  0
LAYER
  5
51
330
2
100
AcDbSymbolTableRecord
100
AcDbLayerTableRecord
  2
24
 70
     0
 62
    24
  6
CONTINUOUS
  0
LAYER
  5
52
330
2
100
AcDbSymbolTableRecord
100
AcDbLayerTableRecord
  2
25
 70
     0
 62
    25
  6
CONTINUOUS
  0
LAYER
  5
53
330
2
100
AcDbSymbolTableRecord
100
AcDbLayerTableRecord
  2
26
 70
     0
 62
    26
  6
CONTINUOUS
  0
LAYER
  5
54
330
2
100
AcDbSymbolTableRecord
100
AcDbLayerTableRecord
  2
27
 70
     0
 62
    27
  6
CONTINUOUS
  0
LAYER
  5
55
330
2
100
AcDbSymbolTableRecord
100
AcDbLayerTableRecord
  2
28
 70
     0
 62
    28
  6
CONTINUOUS
  0
LAYER
  5
56
330
2
100
AcDbSymbolTableRecord
100
AcDbLayerTableRecord
  2
29
 70
     0
 62
    29
  6
CONTINUOUS
  0
LAYER
  5
57
330
2
100
AcDbSymbolTableRecord
100
AcDbLayerTableRecord
  2
30
 70
     0
 62
    30
  6
CONTINUOUS
  0
LAYER
  5
58
330
2
100
AcDbSymbolTableRecord
100
AcDbLayerTableRecord
  2
31
 70
     0
 62
    31
  6
CONTINUOUS
  0
LAYER
  5
59
330
2
100
AcDbSymbolTableRecord
100
AcDbLayerTableRecord
  2
32
 70
     0
 62
    32
  6
CONTINUOUS
  0
LAYER
  5
5A
330
2
100
AcDbSymbolTableRecord
100
AcDbLayerTableRecord
  2
33
 70
     0
 62
    33
  6
CONTINUOUS
  0
LAYER
  5
5B
330
2
100
AcDbSymbolTableRecord
100
AcDbLayerTableRecord
  2
34
 70
     0
 62
    34
  6
CONTINUOUS
  0
LAYER
  5
5C
330
2
100
AcDbSymbolTableRecord
100
AcDbLayerTableRecord
  2
35
 70
     0
 62
    35
  6
CONTINUOUS
  0
LAYER
  5
5D
330
2
100
AcDbSymbolTableRecord
100
AcDbLayerTableRecord
  2
36
 70
     0
 62
    36
  6
CONTINUOUS
  0
LAYER
  5
5E
330
2
100
AcDbSymbolTableRecord
100
AcDbLayerTableRecord
  2
37
 70
     0
 62
    37
  6
CONTINUOUS
  0
LAYER
  5
5F
330
2
100
AcDbSymbolTableRecord
100
AcDbLayerTableRecord
  2
38
 70
     0
 62
    38
  6
CONTINUOUS
  0
LAYER
  5
60
330
2
100
AcDbSymbolTableRecord
100
AcDbLayerTableRecord
  2
39
 70
     0
 62
    39
  6
CONTINUOUS
  0
LAYER
  5
61
330
2
100
AcDbSymbolTableRecord
100
AcDbLayerTableRecord
  2
40
 70
     0
 62
    40
  6
CONTINUOUS
  0
LAYER
  5
62
330
2
100
AcDbSymbolTableRecord
100
AcDbLayerTableRecord
  2
41
 70
     0
 62
    41
  6
CONTINUOUS
  0
LAYER
  5
63
330
2
100
AcDbSymbolTableRecord
100
AcDbLayerTableRecord
  2
42
 70
     0
 62
    42
  6
CONTINUOUS
  0
LAYER
  5
64
330
2
100
AcDbSymbolTableRecord
100
AcDbLayerTableRecord
  2
43
 70
     0
 62
    43
  6
CONTINUOUS
  0
LAYER
  5
65
330
2
100
AcDbSymbolTableRecord
100
AcDbLayerTableRecord
  2
44
 70
     0
 62
    44
  6
CONTINUOUS
  0
LAYER
  5
66
330
2
100
AcDbSymbolTableRecord
100
AcDbLayerTableRecord
  2
45
 70
     0
 62
    45
  6
CONTINUOUS
  0
LAYER
  5
67
330
2
100
AcDbSymbolTableRecord
100
AcDbLayerTableRecord
  2
46
 70
     0
 62
    46
  6
CONTINUOUS
  0
LAYER
  5
68
330
2
100
AcDbSymbolTableRecord
100
AcDbLayerTableRecord
  2
47
 70
     0
 62
    47
  6
CONTINUOUS
  0
LAYER
  5
69
330
2
100
AcDbSymbolTableRecord
100
AcDbLayerTableRecord
  2
48
 70
     0
 62
    48
  6
CONTINUOUS
  0
LAYER
  5
6A
330
2
100
AcDbSymbolTableRecord
100
AcDbLayerTableRecord
  2
49
 70
     0
 62
    49
  6
CONTINUOUS
  0
LAYER
  5
6B
330
2
100
AcDbSymbolTableRecord
100
AcDbLayerTableRecord
  2
50
 70
     0
 62
    50
  6
CONTINUOUS
  0
LAYER
  5
6C
330
2
100
AcDbSymbolTableRecord
100
AcDbLayerTableRecord
  2
51
 70
     0
 62
    51
  6
CONTINUOUS
  0
LAYER
  5
6D
330
2
100
AcDbSymbolTableRecord
100
AcDbLayerTableRecord
  2
52
 70
     0
 62
    52
  6
CONTINUOUS
  0
LAYER
  5
6E
330
2
100
AcDbSymbolTableRecord
100
AcDbLayerTableRecord
  2
53
 70
     0
 62
    53
  6
CONTINUOUS
  0
LAYER
  5
6F
330
2
100
AcDbSymbolTableRecord
100
AcDbLayerTableRecord
  2
54
 70
     0
 62
    54
  6
CONTINUOUS
  0
LAYER
  5
70
330
2
100
AcDbSymbolTableRecord
100
AcDbLayerTableRecord
  2
55
 70
     0
 62
    55
  6
CONTINUOUS
  0
LAYER
  5
71
330
2
100
AcDbSymbolTableRecord
100
AcDbLayerTableRecord
  2
56
 70
     0
 62
    56
  6
CONTINUOUS
  0
LAYER
  5
72
330
2
100
AcDbSymbolTableRecord
100
AcDbLayerTableRecord
  2
57
 70
     0
 62
    57
  6
CONTINUOUS
  0
LAYER
  5
73
330
2
100
AcDbSymbolTableRecord
100
AcDbLayerTableRecord
  2
58
 70
     0
 62
    58
  6
CONTINUOUS
  0
LAYER
  5
74
330
2
100
AcDbSymbolTableRecord
100
AcDbLayerTableRecord
  2
59
 70
     0
 62
    59
  6
CONTINUOUS
  0
LAYER
  5
75
330
2
100
AcDbSymbolTableRecord
100
AcDbLayerTableRecord
  2
60
 70
     0
 62
    60
  6
CONTINUOUS
  0
LAYER
  5
76
330
2
100
AcDbSymbolTableRecord
100
AcDbLayerTableRecord
  2
61
 70
     0
 62
    61
  6
CONTINUOUS
  0
LAYER
  5
77
330
2
100
AcDbSymbolTableRecord
100
AcDbLayerTableRecord
  2
62
 70
     0
 62
    62
  6
CONTINUOUS
  0
LAYER
  5
78
330
2
100
AcDbSymbolTableRecord
100
AcDbLayerTableRecord
  2
63
 70
     0
 62
    63
  6
CONTINUOUS
  0
LAYER
  5
79
330
2
100
AcDbSymbolTableRecord
100
AcDbLayerTableRecord
  2
64
 70
     0
 62
    64
  6
CONTINUOUS
  0
LAYER
  5
7A
330
2
100
AcDbSymbolTableRecord
100
AcDbLayerTableRecord
  2
65
 70
     0
 62
    65
  6
CONTINUOUS
  0
LAYER
  5
7B
330
2
100
AcDbSymbolTableRecord
100
AcDbLayerTableRecord
  2
66
 70
     0
 62
    66
  6
CONTINUOUS
  0
LAYER
  5
7C
330
2
100
AcDbSymbolTableRecord
100
AcDbLayerTableRecord
  2
67
 70
     0
 62
    67
  6
CONTINUOUS
  0
LAYER
  5
7D
330
2
100
AcDbSymbolTableRecord
100
AcDbLayerTableRecord
  2
68
 70
     0
 62
    68
  6
CONTINUOUS
  0
LAYER
  5
7E
330
2
100
AcDbSymbolTableRecord
100
AcDbLayerTableRecord
  2
69
 70
     0
 62
    69
  6
CONTINUOUS
  0
LAYER
  5
7F
330
2
100
AcDbSymbolTableRecord
100
AcDbLayerTableRecord
  2
70
 70
     0
 62
    70
  6
CONTINUOUS
  0
LAYER
  5
80
330
2
100
AcDbSymbolTableRecord
100
AcDbLayerTableRecord
  2
71
 70
     0
 62
    71
  6
CONTINUOUS
  0
LAYER
  5
81
330
2
100
AcDbSymbolTableRecord
100
AcDbLayerTableRecord
  2
72
 70
     0
 62
    72
  6
CONTINUOUS
  0
LAYER
  5
82
330
2
100
AcDbSymbolTableRecord
100
AcDbLayerTableRecord
  2
73
 70
     0
 62
    73
  6
CONTINUOUS
  0
LAYER
  5
83
330
2
100
AcDbSymbolTableRecord
100
AcDbLayerTableRecord
  2
74
 70
     0
 62
    74
  6
CONTINUOUS
  0
LAYER
  5
84
330
2
100
AcDbSymbolTableRecord
100
AcDbLayerTableRecord
  2
75
 70
     0
 62
    75
  6
CONTINUOUS
  0
LAYER
  5
85
330
2
100
AcDbSymbolTableRecord
100
AcDbLayerTableRecord
  2
76
 70
     0
 62
    76
  6
CONTINUOUS
  0
LAYER
  5
86
330
2
100
AcDbSymbolTableRecord
100
AcDbLayerTableRecord
  2
77
 70
     0
 62
    77
  6
CONTINUOUS
  0
LAYER
  5
87
330
2
100
AcDbSymbolTableRecord
100
AcDbLayerTableRecord
  2
78
 70
     0
 62
    78
  6
CONTINUOUS
  0
LAYER
  5
88
330
2
100
AcDbSymbolTableRecord
100
AcDbLayerTableRecord
  2
79
 70
     0
 62
    79
  6
CONTINUOUS
  0
LAYER
  5
89
330
2
100
AcDbSymbolTableRecord
100
AcDbLayerTableRecord
  2
80
 70
     0
 62
    80
  6
CONTINUOUS
  0
LAYER
  5
8A
330
2
100
AcDbSymbolTableRecord
100
AcDbLayerTableRecord
  2
81
 70
     0
 62
    81
  6
CONTINUOUS
  0
LAYER
  5
8B
330
2
100
AcDbSymbolTableRecord
100
AcDbLayerTableRecord
  2
82
 70
     0
 62
    82
  6
CONTINUOUS
  0
LAYER
  5
8C
330
2
100
AcDbSymbolTableRecord
100
AcDbLayerTableRecord
  2
83
 70
     0
 62
    83
  6
CONTINUOUS
  0
LAYER
  5
8D
330
2
100
AcDbSymbolTableRecord
100
AcDbLayerTableRecord
  2
84
 70
     0
 62
    84
  6
CONTINUOUS
  0
LAYER
  5
8E
330
2
100
AcDbSymbolTableRecord
100
AcDbLayerTableRecord
  2
85
 70
     0
 62
    85
  6
CONTINUOUS
  0
LAYER
  5
8F
330
2
100
AcDbSymbolTableRecord
100
AcDbLayerTableRecord
  2
86
 70
     0
 62
    86
  6
CONTINUOUS
  0
LAYER
  5
90
330
2
100
AcDbSymbolTableRecord
100
AcDbLayerTableRecord
  2
87
 70
     0
 62
    87
  6
CONTINUOUS
  0
LAYER
  5
91
330
2
100
AcDbSymbolTableRecord
100
AcDbLayerTableRecord
  2
88
 70
     0
 62
    88
  6
CONTINUOUS
  0
LAYER
  5
92
330
2
100
AcDbSymbolTableRecord
100
AcDbLayerTableRecord
  2
89
 70
     0
 62
    89
  6
CONTINUOUS
  0
LAYER
  5
93
330
2
100
AcDbSymbolTableRecord
100
AcDbLayerTableRecord
  2
90
 70
     0
 62
    90
  6
CONTINUOUS
  0
LAYER
  5
94
330
2
100
AcDbSymbolTableRecord
100
AcDbLayerTableRecord
  2
91
 70
     0
 62
    91
  6
CONTINUOUS
  0
LAYER
  5
95
330
2
100
AcDbSymbolTableRecord
100
AcDbLayerTableRecord
  2
92
 70
     0
 62
    92
  6
CONTINUOUS
  0
LAYER
  5
96
330
2
100
AcDbSymbolTableRecord
100
AcDbLayerTableRecord
  2
93
 70
     0
 62
    93
  6
CONTINUOUS
  0
LAYER
  5
97
330
2
100
AcDbSymbolTableRecord
100
AcDbLayerTableRecord
  2
94
 70
     0
 62
    94
  6
CONTINUOUS
  0
LAYER
  5
98
330
2
100
AcDbSymbolTableRecord
100
AcDbLayerTableRecord
  2
95
 70
     0
 62
    95
  6
CONTINUOUS
  0
LAYER
  5
99
330
2
100
AcDbSymbolTableRecord
100
AcDbLayerTableRecord
  2
96
 70
     0
 62
    96
  6
CONTINUOUS
  0
LAYER
  5
9A
330
2
100
AcDbSymbolTableRecord
100
AcDbLayerTableRecord
  2
97
 70
     0
 62
    97
  6
CONTINUOUS
  0
LAYER
  5
9B
330
2
100
AcDbSymbolTableRecord
100
AcDbLayerTableRecord
  2
98
 70
     0
 62
    98
  6
CONTINUOUS
  0
LAYER
  5
9C
330
2
100
AcDbSymbolTableRecord
100
AcDbLayerTableRecord
  2
99
 70
     0
 62
    99
  6
CONTINUOUS
  0
LAYER
  5
9D
330
2
100
AcDbSymbolTableRecord
100
AcDbLayerTableRecord
  2
100
 70
     0
 62
   100
  6
CONTINUOUS
  0
LAYER
  5
9E
330
2
100
AcDbSymbolTableRecord
100
AcDbLayerTableRecord
  2
101
 70
     0
 62
   101
  6
CONTINUOUS
  0
LAYER
  5
9F
330
2
100
AcDbSymbolTableRecord
100
AcDbLayerTableRecord
  2
102
 70
     0
 62
   102
  6
CONTINUOUS
  0
LAYER
  5
A0
330
2
100
AcDbSymbolTableRecord
100
AcDbLayerTableRecord
  2
103
 70
     0
 62
   103
  6
CONTINUOUS
  0
LAYER
  5
A1
330
2
100
AcDbSymbolTableRecord
100
AcDbLayerTableRecord
  2
104
 70
     0
 62
   104
  6
CONTINUOUS
  0
LAYER
  5
A2
330
2
100
AcDbSymbolTableRecord
100
AcDbLayerTableRecord
  2
105
 70
     0
 62
   105
  6
CONTINUOUS
  0
LAYER
  5
A3
330
2
100
AcDbSymbolTableRecord
100
AcDbLayerTableRecord
  2
106
 70
     0
 62
   106
  6
CONTINUOUS
  0
LAYER
  5
A4
330
2
100
AcDbSymbolTableRecord
100
AcDbLayerTableRecord
  2
107
 70
     0
 62
   107
  6
CONTINUOUS
  0
LAYER
  5
A5
330
2
100
AcDbSymbolTableRecord
100
AcDbLayerTableRecord
  2
108
 70
     0
 62
   108
  6
CONTINUOUS
  0
LAYER
  5
A6
330
2
100
AcDbSymbolTableRecord
100
AcDbLayerTableRecord
  2
109
 70
     0
 62
   109
  6
CONTINUOUS
  0
LAYER
  5
A7
330
2
100
AcDbSymbolTableRecord
100
AcDbLayerTableRecord
  2
110
 70
     0
 62
   110
  6
CONTINUOUS
  0
LAYER
  5
A8
330
2
100
AcDbSymbolTableRecord
100
AcDbLayerTableRecord
  2
111
 70
     0
 62
   111
  6
CONTINUOUS
  0
LAYER
  5
A9
330
2
100
AcDbSymbolTableRecord
100
AcDbLayerTableRecord
  2
112
 70
     0
 62
   112
  6
CONTINUOUS
  0
LAYER
  5
AA
330
2
100
AcDbSymbolTableRecord
100
AcDbLayerTableRecord
  2
113
 70
     0
 62
   113
  6
CONTINUOUS
  0
LAYER
  5
AB
330
2
100
AcDbSymbolTableRecord
100
AcDbLayerTableRecord
  2
114
 70
     0
 62
   114
  6
CONTINUOUS
  0
LAYER
  5
AC
330
2
100
AcDbSymbolTableRecord
100
AcDbLayerTableRecord
  2
115
 70
     0
 62
   115
  6
CONTINUOUS
  0
LAYER
  5
AD
330
2
100
AcDbSymbolTableRecord
100
AcDbLayerTableRecord
  2
116
 70
     0
 62
   116
  6
CONTINUOUS
  0
LAYER
  5
AE
330
2
100
AcDbSymbolTableRecord
100
AcDbLayerTableRecord
  2
117
 70
     0
 62
   117
  6
CONTINUOUS
  0
LAYER
  5
AF
330
2
100
AcDbSymbolTableRecord
100
AcDbLayerTableRecord
  2
118
 70
     0
 62
   118
  6
CONTINUOUS
  0
LAYER
  5
B0
330
2
100
AcDbSymbolTableRecord
100
AcDbLayerTableRecord
  2
119
 70
     0
 62
   119
  6
CONTINUOUS
  0
LAYER
  5
B1
330
2
100
AcDbSymbolTableRecord
100
AcDbLayerTableRecord
  2
120
 70
     0
 62
   120
  6
CONTINUOUS
  0
LAYER
  5
B2
330
2
100
AcDbSymbolTableRecord
100
AcDbLayerTableRecord
  2
121
 70
     0
 62
   121
  6
CONTINUOUS
  0
LAYER
  5
B3
330
2
100
AcDbSymbolTableRecord
100
AcDbLayerTableRecord
  2
122
 70
     0
 62
   122
  6
CONTINUOUS
  0
LAYER
  5
B4
330
2
100
AcDbSymbolTableRecord
100
AcDbLayerTableRecord
  2
123
 70
     0
 62
   123
  6
CONTINUOUS
  0
LAYER
  5
B5
330
2
100
AcDbSymbolTableRecord
100
AcDbLayerTableRecord
  2
124
 70
     0
 62
   124
  6
CONTINUOUS
  0
LAYER
  5
B6
330
2
100
AcDbSymbolTableRecord
100
AcDbLayerTableRecord
  2
125
 70
     0
 62
   125
  6
CONTINUOUS
  0
LAYER
  5
B7
330
2
100
AcDbSymbolTableRecord
100
AcDbLayerTableRecord
  2
126
 70
     0
 62
   126
  6
CONTINUOUS
  0
LAYER
  5
B8
330
2
100
AcDbSymbolTableRecord
100
AcDbLayerTableRecord
  2
127
 70
     0
 62
   127
  6
CONTINUOUS
  0
LAYER
  5
B9
330
2
100
AcDbSymbolTableRecord
100
AcDbLayerTableRecord
  2
128
 70
     0
 62
   128
  6
CONTINUOUS
  0
LAYER
  5
BA
330
2
100
AcDbSymbolTableRecord
100
AcDbLayerTableRecord
  2
129
 70
     0
 62
   129
  6
CONTINUOUS
  0
LAYER
  5
BB
330
2
100
AcDbSymbolTableRecord
100
AcDbLayerTableRecord
  2
130
 70
     0
 62
   130
  6
CONTINUOUS
  0
LAYER
  5
BC
330
2
100
AcDbSymbolTableRecord
100
AcDbLayerTableRecord
  2
131
 70
     0
 62
   131
  6
CONTINUOUS
  0
LAYER
  5
BD
330
2
100
AcDbSymbolTableRecord
100
AcDbLayerTableRecord
  2
132
 70
     0
 62
   132
  6
CONTINUOUS
  0
LAYER
  5
BE
330
2
100
AcDbSymbolTableRecord
100
AcDbLayerTableRecord
  2
133
 70
     0
 62
   133
  6
CONTINUOUS
  0
LAYER
  5
BF
330
2
100
AcDbSymbolTableRecord
100
AcDbLayerTableRecord
  2
134
 70
     0
 62
   134
  6
CONTINUOUS
  0
LAYER
  5
C0
330
2
100
AcDbSymbolTableRecord
100
AcDbLayerTableRecord
  2
135
 70
     0
 62
   135
  6
CONTINUOUS
  0
LAYER
  5
C1
330
2
100
AcDbSymbolTableRecord
100
AcDbLayerTableRecord
  2
136
 70
     0
 62
   136
  6
CONTINUOUS
  0
LAYER
  5
C2
330
2
100
AcDbSymbolTableRecord
100
AcDbLayerTableRecord
  2
137
 70
     0
 62
   137
  6
CONTINUOUS
  0
LAYER
  5
C3
330
2
100
AcDbSymbolTableRecord
100
AcDbLayerTableRecord
  2
138
 70
     0
 62
   138
  6
CONTINUOUS
  0
LAYER
  5
C4
330
2
100
AcDbSymbolTableRecord
100
AcDbLayerTableRecord
  2
139
 70
     0
 62
   139
  6
CONTINUOUS
  0
LAYER
  5
C5
330
2
100
AcDbSymbolTableRecord
100
AcDbLayerTableRecord
  2
140
 70
     0
 62
   140
  6
CONTINUOUS
  0
LAYER
  5
C6
330
2
100
AcDbSymbolTableRecord
100
AcDbLayerTableRecord
  2
141
 70
     0
 62
   141
  6
CONTINUOUS
  0
LAYER
  5
C7
330
2
100
AcDbSymbolTableRecord
100
AcDbLayerTableRecord
  2
142
 70
     0
 62
   142
  6
CONTINUOUS
  0
LAYER
  5
C8
330
2
100
AcDbSymbolTableRecord
100
AcDbLayerTableRecord
  2
143
 70
     0
 62
   143
  6
CONTINUOUS
  0
LAYER
  5
C9
330
2
100
AcDbSymbolTableRecord
100
AcDbLayerTableRecord
  2
144
 70
     0
 62
   144
  6
CONTINUOUS
  0
LAYER
  5
CA
330
2
100
AcDbSymbolTableRecord
100
AcDbLayerTableRecord
  2
145
 70
     0
 62
   145
  6
CONTINUOUS
  0
LAYER
  5
CB
330
2
100
AcDbSymbolTableRecord
100
AcDbLayerTableRecord
  2
146
 70
     0
 62
   146
  6
CONTINUOUS
  0
LAYER
  5
CC
330
2
100
AcDbSymbolTableRecord
100
AcDbLayerTableRecord
  2
147
 70
     0
 62
   147
  6
CONTINUOUS
  0
LAYER
  5
CD
330
2
100
AcDbSymbolTableRecord
100
AcDbLayerTableRecord
  2
148
 70
     0
 62
   148
  6
CONTINUOUS
  0
LAYER
  5
CE
330
2
100
AcDbSymbolTableRecord
100
AcDbLayerTableRecord
  2
149
 70
     0
 62
   149
  6
CONTINUOUS
  0
LAYER
  5
CF
330
2
100
AcDbSymbolTableRecord
100
AcDbLayerTableRecord
  2
150
 70
     0
 62
   150
  6
CONTINUOUS
  0
LAYER
  5
D0
330
2
100
AcDbSymbolTableRecord
100
AcDbLayerTableRecord
  2
151
 70
     0
 62
   151
  6
CONTINUOUS
  0
LAYER
  5
D1
330
2
100
AcDbSymbolTableRecord
100
AcDbLayerTableRecord
  2
152
 70
     0
 62
   152
  6
CONTINUOUS
  0
LAYER
  5
D2
330
2
100
AcDbSymbolTableRecord
100
AcDbLayerTableRecord
  2
153
 70
     0
 62
   153
  6
CONTINUOUS
  0
LAYER
  5
D3
330
2
100
AcDbSymbolTableRecord
100
AcDbLayerTableRecord
  2
154
 70
     0
 62
   154
  6
CONTINUOUS
  0
LAYER
  5
D4
330
2
100
AcDbSymbolTableRecord
100
AcDbLayerTableRecord
  2
155
 70
     0
 62
   155
  6
CONTINUOUS
  0
LAYER
  5
D5
330
2
100
AcDbSymbolTableRecord
100
AcDbLayerTableRecord
  2
156
 70
     0
 62
   156
  6
CONTINUOUS
  0
LAYER
  5
D6
330
2
100
AcDbSymbolTableRecord
100
AcDbLayerTableRecord
  2
157
 70
     0
 62
   157
  6
CONTINUOUS
  0
LAYER
  5
D7
330
2
100
AcDbSymbolTableRecord
100
AcDbLayerTableRecord
  2
158
 70
     0
 62
   158
  6
CONTINUOUS
  0
LAYER
  5
D8
330
2
100
AcDbSymbolTableRecord
100
AcDbLayerTableRecord
  2
159
 70
     0
 62
   159
  6
CONTINUOUS
  0
LAYER
  5
D9
330
2
100
AcDbSymbolTableRecord
100
AcDbLayerTableRecord
  2
160
 70
     0
 62
   160
  6
CONTINUOUS
  0
LAYER
  5
DA
330
2
100
AcDbSymbolTableRecord
100
AcDbLayerTableRecord
  2
161
 70
     0
 62
   161
  6
CONTINUOUS
  0
LAYER
  5
DB
330
2
100
AcDbSymbolTableRecord
100
AcDbLayerTableRecord
  2
162
 70
     0
 62
   162
  6
CONTINUOUS
  0
LAYER
  5
DC
330
2
100
AcDbSymbolTableRecord
100
AcDbLayerTableRecord
  2
163
 70
     0
 62
   163
  6
CONTINUOUS
  0
LAYER
  5
DD
330
2
100
AcDbSymbolTableRecord
100
AcDbLayerTableRecord
  2
164
 70
     0
 62
   164
  6
CONTINUOUS
  0
LAYER
  5
DE
330
2
100
AcDbSymbolTableRecord
100
AcDbLayerTableRecord
  2
165
 70
     0
 62
   165
  6
CONTINUOUS
  0
LAYER
  5
DF
330
2
100
AcDbSymbolTableRecord
100
AcDbLayerTableRecord
  2
166
 70
     0
 62
   166
  6
CONTINUOUS
  0
LAYER
  5
E0
330
2
100
AcDbSymbolTableRecord
100
AcDbLayerTableRecord
  2
167
 70
     0
 62
   167
  6
CONTINUOUS
  0
LAYER
  5
E1
330
2
100
AcDbSymbolTableRecord
100
AcDbLayerTableRecord
  2
168
 70
     0
 62
   168
  6
CONTINUOUS
  0
LAYER
  5
E2
330
2
100
AcDbSymbolTableRecord
100
AcDbLayerTableRecord
  2
169
 70
     0
 62
   169
  6
CONTINUOUS
  0
LAYER
  5
E3
330
2
100
AcDbSymbolTableRecord
100
AcDbLayerTableRecord
  2
170
 70
     0
 62
   170
  6
CONTINUOUS
  0
LAYER
  5
E4
330
2
100
AcDbSymbolTableRecord
100
AcDbLayerTableRecord
  2
171
 70
     0
 62
   171
  6
CONTINUOUS
  0
LAYER
  5
E5
330
2
100
AcDbSymbolTableRecord
100
AcDbLayerTableRecord
  2
172
 70
     0
 62
   172
  6
CONTINUOUS
  0
LAYER
  5
E6
330
2
100
AcDbSymbolTableRecord
100
AcDbLayerTableRecord
  2
173
 70
     0
 62
   173
  6
CONTINUOUS
  0
LAYER
  5
E7
330
2
100
AcDbSymbolTableRecord
100
AcDbLayerTableRecord
  2
174
 70
     0
 62
   174
  6
CONTINUOUS
  0
LAYER
  5
E8
330
2
100
AcDbSymbolTableRecord
100
AcDbLayerTableRecord
  2
175
 70
     0
 62
   175
  6
CONTINUOUS
  0
LAYER
  5
E9
330
2
100
AcDbSymbolTableRecord
100
AcDbLayerTableRecord
  2
176
 70
     0
 62
   176
  6
CONTINUOUS
  0
LAYER
  5
EA
330
2
100
AcDbSymbolTableRecord
100
AcDbLayerTableRecord
  2
177
 70
     0
 62
   177
  6
CONTINUOUS
  0
LAYER
  5
EB
330
2
100
AcDbSymbolTableRecord
100
AcDbLayerTableRecord
  2
178
 70
     0
 62
   178
  6
CONTINUOUS
  0
LAYER
  5
EC
330
2
100
AcDbSymbolTableRecord
100
AcDbLayerTableRecord
  2
179
 70
     0
 62
   179
  6
CONTINUOUS
  0
LAYER
  5
ED
330
2
100
AcDbSymbolTableRecord
100
AcDbLayerTableRecord
  2
180
 70
     0
 62
   180
  6
CONTINUOUS
  0
LAYER
  5
EE
330
2
100
AcDbSymbolTableRecord
100
AcDbLayerTableRecord
  2
181
 70
     0
 62
   181
  6
CONTINUOUS
  0
LAYER
  5
EF
330
2
100
AcDbSymbolTableRecord
100
AcDbLayerTableRecord
  2
182
 70
     0
 62
   182
  6
CONTINUOUS
  0
LAYER
  5
F0
330
2
100
AcDbSymbolTableRecord
100
AcDbLayerTableRecord
  2
183
 70
     0
 62
   183
  6
CONTINUOUS
  0
LAYER
  5
F1
330
2
100
AcDbSymbolTableRecord
100
AcDbLayerTableRecord
  2
184
 70
     0
 62
   184
  6
CONTINUOUS
  0
LAYER
  5
F2
330
2
100
AcDbSymbolTableRecord
100
AcDbLayerTableRecord
  2
185
 70
     0
 62
   185
  6
CONTINUOUS
  0
LAYER
  5
F3
330
2
100
AcDbSymbolTableRecord
100
AcDbLayerTableRecord
  2
186
 70
     0
 62
   186
  6
CONTINUOUS
  0
LAYER
  5
F4
330
2
100
AcDbSymbolTableRecord
100
AcDbLayerTableRecord
  2
187
 70
     0
 62
   187
  6
CONTINUOUS
  0
LAYER
  5
F5
330
2
100
AcDbSymbolTableRecord
100
AcDbLayerTableRecord
  2
188
 70
     0
 62
   188
  6
CONTINUOUS
  0
LAYER
  5
F6
330
2
100
AcDbSymbolTableRecord
100
AcDbLayerTableRecord
  2
189
 70
     0
 62
   189
  6
CONTINUOUS
  0
LAYER
  5
F7
330
2
100
AcDbSymbolTableRecord
100
AcDbLayerTableRecord
  2
190
 70
     0
 62
   190
  6
CONTINUOUS
  0
LAYER
  5
F8
330
2
100
AcDbSymbolTableRecord
100
AcDbLayerTableRecord
  2
191
 70
     0
 62
   191
  6
CONTINUOUS
  0
LAYER
  5
F9
330
2
100
AcDbSymbolTableRecord
100
AcDbLayerTableRecord
  2
192
 70
     0
 62
   192
  6
CONTINUOUS
  0
LAYER
  5
FA
330
2
100
AcDbSymbolTableRecord
100
AcDbLayerTableRecord
  2
193
 70
     0
 62
   193
  6
CONTINUOUS
  0
LAYER
  5
FB
330
2
100
AcDbSymbolTableRecord
100
AcDbLayerTableRecord
  2
194
 70
     0
 62
   194
  6
CONTINUOUS
  0
LAYER
  5
FC
330
2
100
AcDbSymbolTableRecord
100
AcDbLayerTableRecord
  2
195
 70
     0
 62
   195
  6
CONTINUOUS
  0
LAYER
  5
FD
330
2
100
AcDbSymbolTableRecord
100
AcDbLayerTableRecord
  2
196
 70
     0
 62
   196
  6
CONTINUOUS
  0
LAYER
  5
FE
330
2
100
AcDbSymbolTableRecord
100
AcDbLayerTableRecord
  2
197
 70
     0
 62
   197
  6
CONTINUOUS
  0
LAYER
  5
FF
330
2
100
AcDbSymbolTableRecord
100
AcDbLayerTableRecord
  2
198
 70
     0
 62
   198
  6
CONTINUOUS
  0
LAYER
  5
100
330
2
100
AcDbSymbolTableRecord
100
AcDbLayerTableRecord
  2
199
 70
     0
 62
   199
  6
CONTINUOUS
  0
LAYER
  5
101
330
2
100
AcDbSymbolTableRecord
100
AcDbLayerTableRecord
  2
200
 70
     0
 62
   200
  6
CONTINUOUS
  0
LAYER
  5
102
330
2
100
AcDbSymbolTableRecord
100
AcDbLayerTableRecord
  2
201
 70
     0
 62
   201
  6
CONTINUOUS
  0
LAYER
  5
103
330
2
100
AcDbSymbolTableRecord
100
AcDbLayerTableRecord
  2
202
 70
     0
 62
   202
  6
CONTINUOUS
  0
LAYER
  5
104
330
2
100
AcDbSymbolTableRecord
100
AcDbLayerTableRecord
  2
203
 70
     0
 62
   203
  6
CONTINUOUS
  0
LAYER
  5
105
330
2
100
AcDbSymbolTableRecord
100
AcDbLayerTableRecord
  2
204
 70
     0
 62
   204
  6
CONTINUOUS
  0
LAYER
  5
106
330
2
100
AcDbSymbolTableRecord
100
AcDbLayerTableRecord
  2
205
 70
     0
 62
   205
  6
CONTINUOUS
  0
LAYER
  5
107
330
2
100
AcDbSymbolTableRecord
100
AcDbLayerTableRecord
  2
206
 70
     0
 62
   206
  6
CONTINUOUS
  0
LAYER
  5
108
330
2
100
AcDbSymbolTableRecord
100
AcDbLayerTableRecord
  2
207
 70
     0
 62
   207
  6
CONTINUOUS
  0
LAYER
  5
109
330
2
100
AcDbSymbolTableRecord
100
AcDbLayerTableRecord
  2
208
 70
     0
 62
   208
  6
CONTINUOUS
  0
LAYER
  5
10A
330
2
100
AcDbSymbolTableRecord
100
AcDbLayerTableRecord
  2
209
 70
     0
 62
   209
  6
CONTINUOUS
  0
LAYER
  5
10B
330
2
100
AcDbSymbolTableRecord
100
AcDbLayerTableRecord
  2
210
 70
     0
 62
   210
  6
CONTINUOUS
  0
LAYER
  5
10C
330
2
100
AcDbSymbolTableRecord
100
AcDbLayerTableRecord
  2
211
 70
     0
 62
   211
  6
CONTINUOUS
  0
LAYER
  5
10D
330
2
100
AcDbSymbolTableRecord
100
AcDbLayerTableRecord
  2
212
 70
     0
 62
   212
  6
CONTINUOUS
  0
LAYER
  5
10E
330
2
100
AcDbSymbolTableRecord
100
AcDbLayerTableRecord
  2
213
 70
     0
 62
   213
  6
CONTINUOUS
  0
LAYER
  5
10F
330
2
100
AcDbSymbolTableRecord
100
AcDbLayerTableRecord
  2
214
 70
     0
 62
   214
  6
CONTINUOUS
  0
LAYER
  5
110
330
2
100
AcDbSymbolTableRecord
100
AcDbLayerTableRecord
  2
215
 70
     0
 62
   215
  6
CONTINUOUS
  0
LAYER
  5
111
330
2
100
AcDbSymbolTableRecord
100
AcDbLayerTableRecord
  2
216
 70
     0
 62
   216
  6
CONTINUOUS
  0
LAYER
  5
112
330
2
100
AcDbSymbolTableRecord
100
AcDbLayerTableRecord
  2
217
 70
     0
 62
   217
  6
CONTINUOUS
  0
LAYER
  5
113
330
2
100
AcDbSymbolTableRecord
100
AcDbLayerTableRecord
  2
218
 70
     0
 62
   218
  6
CONTINUOUS
  0
LAYER
  5
114
330
2
100
AcDbSymbolTableRecord
100
AcDbLayerTableRecord
  2
219
 70
     0
 62
   219
  6
CONTINUOUS
  0
LAYER
  5
115
330
2
100
AcDbSymbolTableRecord
100
AcDbLayerTableRecord
  2
220
 70
     0
 62
   220
  6
CONTINUOUS
  0
LAYER
  5
116
330
2
100
AcDbSymbolTableRecord
100
AcDbLayerTableRecord
  2
221
 70
     0
 62
   221
  6
CONTINUOUS
  0
LAYER
  5
117
330
2
100
AcDbSymbolTableRecord
100
AcDbLayerTableRecord
  2
222
 70
     0
 62
   222
  6
CONTINUOUS
  0
LAYER
  5
118
330
2
100
AcDbSymbolTableRecord
100
AcDbLayerTableRecord
  2
223
 70
     0
 62
   223
  6
CONTINUOUS
  0
LAYER
  5
119
330
2
100
AcDbSymbolTableRecord
100
AcDbLayerTableRecord
  2
224
 70
     0
 62
   224
  6
CONTINUOUS
  0
LAYER
  5
11A
330
2
100
AcDbSymbolTableRecord
100
AcDbLayerTableRecord
  2
225
 70
     0
 62
   225
  6
CONTINUOUS
  0
LAYER
  5
11B
330
2
100
AcDbSymbolTableRecord
100
AcDbLayerTableRecord
  2
226
 70
     0
 62
   226
  6
CONTINUOUS
  0
LAYER
  5
11C
330
2
100
AcDbSymbolTableRecord
100
AcDbLayerTableRecord
  2
227
 70
     0
 62
   227
  6
CONTINUOUS
  0
LAYER
  5
11D
330
2
100
AcDbSymbolTableRecord
100
AcDbLayerTableRecord
  2
228
 70
     0
 62
   228
  6
CONTINUOUS
  0
LAYER
  5
11E
330
2
100
AcDbSymbolTableRecord
100
AcDbLayerTableRecord
  2
229
 70
     0
 62
   229
  6
CONTINUOUS
  0
LAYER
  5
11F
330
2
100
AcDbSymbolTableRecord
100
AcDbLayerTableRecord
  2
230
 70
     0
 62
   230
  6
CONTINUOUS
  0
LAYER
  5
120
330
2
100
AcDbSymbolTableRecord
100
AcDbLayerTableRecord
  2
231
 70
     0
 62
   231
  6
CONTINUOUS
  0
LAYER
  5
121
330
2
100
AcDbSymbolTableRecord
100
AcDbLayerTableRecord
  2
232
 70
     0
 62
   232
  6
CONTINUOUS
  0
LAYER
  5
122
330
2
100
AcDbSymbolTableRecord
100
AcDbLayerTableRecord
  2
233
 70
     0
 62
   233
  6
CONTINUOUS
  0
LAYER
  5
123
330
2
100
AcDbSymbolTableRecord
100
AcDbLayerTableRecord
  2
234
 70
     0
 62
   234
  6
CONTINUOUS
  0
LAYER
  5
124
330
2
100
AcDbSymbolTableRecord
100
AcDbLayerTableRecord
  2
235
 70
     0
 62
   235
  6
CONTINUOUS
  0
LAYER
  5
125
330
2
100
AcDbSymbolTableRecord
100
AcDbLayerTableRecord
  2
236
 70
     0
 62
   236
  6
CONTINUOUS
  0
LAYER
  5
126
330
2
100
AcDbSymbolTableRecord
100
AcDbLayerTableRecord
  2
237
 70
     0
 62
   237
  6
CONTINUOUS
  0
LAYER
  5
127
330
2
100
AcDbSymbolTableRecord
100
AcDbLayerTableRecord
  2
238
 70
     0
 62
   238
  6
CONTINUOUS
  0
LAYER
  5
128
330
2
100
AcDbSymbolTableRecord
100
AcDbLayerTableRecord
  2
239
 70
     0
 62
   239
  6
CONTINUOUS
  0
LAYER
  5
129
330
2
100
AcDbSymbolTableRecord
100
AcDbLayerTableRecord
  2
240
 70
     0
 62
   240
  6
CONTINUOUS
  0
LAYER
  5
12A
330
2
100
AcDbSymbolTableRecord
100
AcDbLayerTableRecord
  2
241
 70
     0
 62
   241
  6
CONTINUOUS
  0
LAYER
  5
12B
330
2
100
AcDbSymbolTableRecord
100
AcDbLayerTableRecord
  2
242
 70
     0
 62
   242
  6
CONTINUOUS
  0
LAYER
  5
12C
330
2
100
AcDbSymbolTableRecord
100
AcDbLayerTableRecord
  2
243
 70
     0
 62
   243
  6
CONTINUOUS
  0
LAYER
  5
12D
330
2
100
AcDbSymbolTableRecord
100
AcDbLayerTableRecord
  2
244
 70
     0
 62
   244
  6
CONTINUOUS
  0
LAYER
  5
12E
330
2
100
AcDbSymbolTableRecord
100
AcDbLayerTableRecord
  2
245
 70
     0
 62
   245
  6
CONTINUOUS
  0
LAYER
  5
12F
330
2
100
AcDbSymbolTableRecord
100
AcDbLayerTableRecord
  2
246
 70
     0
 62
   246
  6
CONTINUOUS
  0
LAYER
  5
130
330
2
100
AcDbSymbolTableRecord
100
AcDbLayerTableRecord
  2
247
 70
     0
 62
   247
  6
CONTINUOUS
  0
LAYER
  5
131
330
2
100
AcDbSymbolTableRecord
100
AcDbLayerTableRecord
  2
248
 70
     0
 62
   248
  6
CONTINUOUS
  0
LAYER
  5
132
330
2
100
AcDbSymbolTableRecord
100
AcDbLayerTableRecord
  2
249
 70
     0
 62
   249
  6
CONTINUOUS
  0
LAYER
  5
133
330
2
100
AcDbSymbolTableRecord
100
AcDbLayerTableRecord
  2
250
 70
     0
 62
   250
  6
CONTINUOUS
  0
LAYER
  5
134
330
2
100
AcDbSymbolTableRecord
100
AcDbLayerTableRecord
  2
251
 70
     0
 62
   251
  6
CONTINUOUS
  0
LAYER
  5
135
330
2
100
AcDbSymbolTableRecord
100
AcDbLayerTableRecord
  2
252
 70
     0
 62
   252
  6
CONTINUOUS
  0
LAYER
  5
136
330
2
100
AcDbSymbolTableRecord
100
AcDbLayerTableRecord
  2
253
 70
     0
 62
   253
  6
CONTINUOUS
  0
LAYER
  5
137
330
2
100
AcDbSymbolTableRecord
100
AcDbLayerTableRecord
  2
254
 70
     0
 62
   254
  6
CONTINUOUS
  0
LAYER
  5
138
330
2
100
AcDbSymbolTableRecord
100
AcDbLayerTableRecord
  2
255
 70
     0
 62
   255
  6
CONTINUOUS
  0
LAYER
  5
3254
330
2
100
AcDbSymbolTableRecord
100
AcDbLayerTableRecord
  2
DEFPOINTS
 70
     0
 62
     7
  6
CONTINUOUS
  0
ENDTAB
  0
TABLE
  2
STYLE
  5
3
330
0
100
AcDbSymbolTable
 70
     1
  0
STYLE
  5
11
330
3
100
AcDbSymbolTableRecord
100
AcDbTextStyleTableRecord
  2
STANDARD
 70
     0
 40
0.0
 41
1.0
 50
0.0
 71
     0
 42
0.2
  3
monotxt
  4

  0
ENDTAB
  0
TABLE
  2
VIEW
  5
6
330
0
100
AcDbSymbolTable
 70
     0
  0
ENDTAB
  0
TABLE
  2
UCS
  5
7
330
0
100
AcDbSymbolTable
 70
     0
  0
ENDTAB
  0
TABLE
  2
APPID
  5
9
330
0
100
AcDbSymbolTable
 70
     1
  0
APPID
  5
12
330
9
100
AcDbSymbolTableRecord
100
AcDbRegAppTableRecord
  2
ACAD
 70
     0
  0
ENDTAB
  0
TABLE
  2
DIMSTYLE
  5
A
330
0
100
AcDbSymbolTable
 70
     1
  0
DIMSTYLE
105
2E02
102
{ACAD_REACTORS
330
3253
102
}
330
A
100
AcDbSymbolTableRecord
100
AcDbDimStyleTableRecord
  2
STANDARD
 70
     0
  3

  4

  5

  6

  7

 40
1.0
 41
0.18
 42
0.0625
 43
0.38
 44
0.18
 45
0.0
 46
0.0
 47
0.0
 48
0.0
140
0.18
141
0.09
142
0.0
143
25.4
144
1.0
145
0.0
146
1.0
147
0.09
 71
     0
 72
     0
 73
     1
 74
     1
 75
     0
 76
     0
 77
     0
 78
     0
170
     0
171
     2
172
     0
173
     0
174
     0
175
     0
176
     0
177
     0
178
     0
270
     2
271
     4
272
     4
273
     2
274
     2
340
11
275
     0
280
     0
281
     0
282
     0
283
     1
284
     0
285
     0
286
     0
287
     3
288
     0
  0
ENDTAB
  0
TABLE
  2
BLOCK_RECORD
  5
1
330
0
100
AcDbSymbolTable
 70
     1
  0
BLOCK_RECORD
  5
1E
102
{ACAD_XDICTIONARY
360
321D
102
}
330
1
100
AcDbSymbolTableRecord
100
AcDbBlockTableRecord
  2
*MODEL_SPACE
  0
BLOCK_RECORD
  5
1A
102
{ACAD_XDICTIONARY
360
321F
102
}
330
1
100
AcDbSymbolTableRecord
100
AcDbBlockTableRecord
  2
*PAPER_SPACE
  0
BLOCK_RECORD
  5
3255
330
1
100
AcDbSymbolTableRecord
100
AcDbBlockTableRecord
  2
*D0
  0
ENDTAB
  0
ENDSEC
  0
SECTION
  2
BLOCKS
  0
BLOCK
  5
13B
330
1E
100
AcDbEntity
  8
0
100
AcDbBlockBegin
  2
*MODEL_SPACE
 70
     0
 10
0.0
 20
0.0
 30
0.0
  3
*MODEL_SPACE
  1

  0
ENDBLK
  5
13C
330
1E
100
AcDbEntity
  8
0
100
AcDbBlockEnd
  0
BLOCK
  5
139
330
1A
100
AcDbEntity
 67
     1
  8
0
100
AcDbBlockBegin
  2
*PAPER_SPACE
 70
     0
 10
0.0
 20
0.0
 30
0.0
  3
*PAPER_SPACE
  1

  0
ENDBLK
  5
13A
330
1A
100
AcDbEntity
 67
     1
  8
0
100
AcDbBlockEnd
  0
BLOCK
  5
3260
330
3255
100
AcDbEntity
  8
0
100
AcDbBlockBegin
  2
*D0
 70
     1
 10
0.0
 20
0.0
 30
0.0
  3
*D0
  1

  0
LINE
  5
3262
330
3255
100
AcDbEntity
  8
0
 62
     0
100
AcDbLine
 10
4.05084165333449
 20
7.288307022978044
 30
0.0
 11
4.05084165333449
 21
7.516978955805621
 31
0.0
  0
LINE
  5
3263
330
3255
100
AcDbEntity
  8
0
 62
     0
100
AcDbLine
 10
5.17584165333449
 20
7.288307022978044
 30
0.0
 11
5.17584165333449
 21
7.516978955805621
 31
0.0
  0
LINE
  5
3264
330
3255
100
AcDbEntity
  8
0
 62
     0
100
AcDbLine
 10
4.23084165333449
 20
7.336978955805621
 30
0.0
 11
4.99584165333449
 21
7.336978955805621
 31
0.0
  0
MTEXT
  5
3265
330
3255
100
AcDbEntity
  8
0
 62
     0
100
AcDbMText
 10
4.61334165333449
 20
7.741978955805621
 30
0.0
 40
0.18
 41
0.0
 71
     5
 72
     1
  1
\A1;1.1250
1001
ACAD
1000
MTEXTBEGIN
1070
    73
1070
     1
1070
    44
1040
1.0
1070
    74
1070
     0
1000
MTEXTEND
  0
SOLID
  5
3266
330
3255
100
AcDbEntity
  8
0
 62
     0
100
AcDbTrace
 10
4.23084165333449
 20
7.366978955805621
 30
0.0
 11
4.23084165333449
 21
7.306978955805621
 31
0.0
 12
4.05084165333449
 22
7.336978955805621
 32
0.0
 13
4.05084165333449
 23
7.336978955805621
 33
0.0
  0
SOLID
  5
3267
330
3255
100
AcDbEntity
  8
0
 62
     0
100
AcDbTrace
 10
4.99584165333449
 20
7.366978955805621
 30
0.0
 11
4.99584165333449
 21
7.306978955805621
 31
0.0
 12
5.17584165333449
 22
7.336978955805621
 32
0.0
 13
5.17584165333449
 23
7.336978955805621
 33
0.0
  0
POINT
  5
3268
330
3255
100
AcDbEntity
  8
DEFPOINTS
 62
     0
100
AcDbPoint
 10
4.05084165333449
 20
7.225807022978044
 30
0.0
  0
POINT
  5
3269
330
3255
100
AcDbEntity
  8
DEFPOINTS
 62
     0
100
AcDbPoint
 10
5.17584165333449
 20
7.225807022978044
 30
0.0
  0
POINT
  5
326A
330
3255
100
AcDbEntity
  8
DEFPOINTS
 62
     0
100
AcDbPoint
 10
5.17584165333449
 20
7.336978955805621
 30
0.0
  0
ENDBLK
  5
3261
330
3255
100
AcDbEntity
  8
0
100
AcDbBlockEnd
  0
ENDSEC
  0
SECTION
  2
ENTITIES
  0
LINE
  5
13E
330
1E
100
AcDbEntity
  8
3
100
AcDbLine
 10
4.098085747822679
 20
6.289291274946548
 30
0.0
 11
4.270329842310868
 21
6.289291274946548
 31
0.0
  0
LINE
  5
13F
330
1E
100
AcDbEntity
  8
3
100
AcDbLine
 10
4.05084165333449
 20
6.336535369434737
 30
0.0
 11
4.05084165333449
 21
6.448247967859934
 31
0.0
  0
LINE
  5
140
330
1E
100
AcDbEntity
  8
3
100
AcDbLine
 10
5.17584165333449
 20
6.336535369434737
 30
0.0
 11
5.17584165333449
 21
6.448247967859934
 31
0.0
  0
LINE
  5
141
330
1E
100
AcDbEntity
  8
3
100
AcDbLine
 10
4.11334165333449
 20
6.351791274946548
 30
0.0
 11
4.11334165333449
 21
6.448247967859934
 31
0.0
  0
LINE
  5
142
330
1E
100
AcDbEntity
  8
3
100
AcDbLine
 10
5.11334165333449
 20
6.351791274946548
 30
0.0
 11
5.11334165333449
 21
6.448247967859934
 31
0.0
  0
LINE
  5
143
330
1E
100
AcDbEntity
  8
3
100
AcDbLine
 10
4.11334165333449
 20
6.351791274946548
 30
0.0
 11
4.270329842310868
 21
6.351791274946548
 31
0.0
  0
LINE
  5
144
330
1E
100
AcDbEntity
  8
3
100
AcDbLine
 10
4.05084165333449
 20
6.47974403085206
 30
0.0
 11
4.11334165333449
 21
6.47974403085206
 31
0.0
  0
LINE
  5
145
330
1E
100
AcDbEntity
  8
3
100
AcDbLine
 10
4.05084165333449
 20
6.448247967859934
 30
0.0
 11
4.11334165333449
 21
6.448247967859934
 31
0.0
  0
LINE
  5
146
330
1E
100
AcDbEntity
  8
3
100
AcDbLine
 10
5.17584165333449
 20
6.47974403085206
 30
0.0
 11
5.11334165333449
 21
6.47974403085206
 31
0.0
  0
LINE
  5
147
330
1E
100
AcDbEntity
  8
3
100
AcDbLine
 10
5.11334165333449
 20
6.448247967859934
 30
0.0
 11
5.17584165333449
 21
6.448247967859934
 31
0.0
  0
LINE
  5
148
330
1E
100
AcDbEntity
  8
3
100
AcDbLine
 10
4.207337716326616
 20
6.445787337938674
 30
0.0
 11
5.019837716326616
 21
6.445787337938674
 31
0.0
  0
LINE
  5
149
330
1E
100
AcDbEntity
  8
3
100
AcDbLine
 10
4.332829842310868
 20
6.351791274946548
 30
0.0
 11
4.332829842310868
 21
6.289291274946548
 31
0.0
  0
LINE
  5
14A
330
1E
100
AcDbEntity
  8
3
100
AcDbLine
 10
4.270329842310868
 20
6.351791274946548
 30
0.0
 11
4.270329842310868
 21
6.289291274946548
 31
0.0
  0
LINE
  5
14B
330
1E
100
AcDbEntity
  8
3
100
AcDbLine
 10
4.894345590342364
 20
6.351791274946548
 30
0.0
 11
4.894345590342364
 21
6.289291274946548
 31
0.0
  0
LINE
  5
14C
330
1E
100
AcDbEntity
  8
3
100
AcDbLine
 10
4.956845590342364
 20
6.351791274946548
 30
0.0
 11
4.956845590342364
 21
6.289291274946548
 31
0.0
  0
LINE
  5
14D
330
1E
100
AcDbEntity
  8
3
100
AcDbLine
 10
4.207337716326616
 20
6.351791274946548
 30
0.0
 11
5.019837716326616
 21
6.351791274946548
 31
0.0
  0
LINE
  5
14E
330
1E
100
AcDbEntity
  8
3
100
AcDbLine
 10
5.11334165333449
 20
6.351791274946548
 30
0.0
 11
4.956845590342364
 21
6.351791274946548
 31
0.0
  0
LINE
  5
14F
330
1E
100
AcDbEntity
  8
3
100
AcDbLine
 10
5.129089684830553
 20
6.289291274946548
 30
0.0
 11
4.956845590342364
 21
6.289291274946548
 31
0.0
  0
LINE
  5
150
330
1E
100
AcDbEntity
  8
3
100
AcDbLine
 10
4.332829842310868
 20
6.351791274946548
 30
0.0
 11
4.894345590342364
 21
6.351791274946548
 31
0.0
  0
LINE
  5
151
330
1E
100
AcDbEntity
  8
3
100
AcDbLine
 10
4.332829842310868
 20
6.289291274946548
 30
0.0
 11
4.894345590342364
 21
6.289291274946548
 31
0.0
  0
LINE
  5
152
330
1E
100
AcDbEntity
  8
3
100
AcDbLine
 10
4.101038503728191
 20
6.263700723765445
 30
0.0
 11
5.156156613964411
 21
6.263700723765445
 31
0.0
  0
LINE
  5
153
330
1E
100
AcDbEntity
  8
3
100
AcDbLine
 10
4.101038503728191
 20
6.253366078096155
 30
0.0
 11
4.101038503728191
 21
6.294212534789068
 31
0.0
  0
LINE
  5
154
330
1E
100
AcDbEntity
  8
3
100
AcDbLine
 10
5.156156613964411
 20
6.253366078096155
 30
0.0
 11
5.156156613964411
 21
6.263700723765445
 31
0.0
  0
LINE
  5
155
330
1E
100
AcDbEntity
  8
3
100
AcDbLine
 10
4.065113306877798
 20
6.253366078096155
 30
0.0
 11
5.156156613964411
 21
6.253366078096155
 31
0.0
  0
LINE
  5
156
330
1E
100
AcDbEntity
  8
3
100
AcDbLine
 10
4.05084165333449
 20
7.225807022978044
 30
0.0
 11
4.05084165333449
 21
6.698247967859934
 31
0.0
  0
LINE
  5
157
330
1E
100
AcDbEntity
  8
3
100
AcDbLine
 10
5.17584165333449
 20
7.225807022978044
 30
0.0
 11
5.17584165333449
 21
6.698247967859934
 31
0.0
  0
LINE
  5
158
330
1E
100
AcDbEntity
  8
3
100
AcDbLine
 10
4.11334165333449
 20
6.66724403085206
 30
0.0
 11
4.270329842310868
 21
6.66724403085206
 31
0.0
  0
LINE
  5
159
330
1E
100
AcDbEntity
  8
3
100
AcDbLine
 10
4.11334165333449
 20
7.225807022978044
 30
0.0
 11
4.11334165333449
 21
6.698247967859934
 31
0.0
  0
LINE
  5
15A
330
1E
100
AcDbEntity
  8
3
100
AcDbLine
 10
5.11334165333449
 20
7.225807022978044
 30
0.0
 11
5.11334165333449
 21
6.698247967859934
 31
0.0
  0
LINE
  5
15B
330
1E
100
AcDbEntity
  8
3
100
AcDbLine
 10
4.05084165333449
 20
6.698247967859934
 30
0.0
 11
4.11334165333449
 21
6.698247967859934
 31
0.0
  0
LINE
  5
15C
330
1E
100
AcDbEntity
  8
3
100
AcDbLine
 10
4.05084165333449
 20
6.66724403085206
 30
0.0
 11
4.11334165333449
 21
6.66724403085206
 31
0.0
  0
LINE
  5
15D
330
1E
100
AcDbEntity
  8
3
100
AcDbLine
 10
5.17584165333449
 20
6.698247967859934
 30
0.0
 11
5.11334165333449
 21
6.698247967859934
 31
0.0
  0
LINE
  5
15E
330
1E
100
AcDbEntity
  8
3
100
AcDbLine
 10
5.11334165333449
 20
6.66724403085206
 30
0.0
 11
5.17584165333449
 21
6.66724403085206
 31
0.0
  0
LINE
  5
15F
330
1E
100
AcDbEntity
  8
3
100
AcDbLine
 10
4.207337716326616
 20
6.698247967859934
 30
0.0
 11
5.019837716326616
 21
6.698247967859934
 31
0.0
  0
LINE
  5
160
330
1E
100
AcDbEntity
  8
3
100
AcDbLine
 10
4.207337716326616
 20
7.225807022978044
 30
0.0
 11
5.019837716326616
 21
7.225807022978044
 31
0.0
  0
LINE
  5
161
330
1E
100
AcDbEntity
  8
3
100
AcDbLine
 10
5.082337716326616
 20
7.163307022978044
 30
0.0
 11
5.082337716326616
 21
6.760747967859934
 31
0.0
  0
LINE
  5
162
330
1E
100
AcDbEntity
  8
3
100
AcDbLine
 10
5.11334165333449
 20
6.66724403085206
 30
0.0
 11
4.956845590342364
 21
6.66724403085206
 31
0.0
  0
LINE
  5
163
330
1E
100
AcDbEntity
  8
3
100
AcDbLine
 10
4.332829842310868
 20
6.66724403085206
 30
0.0
 11
4.894345590342364
 21
6.66724403085206
 31
0.0
  0
LINE
  5
164
330
1E
100
AcDbEntity
  8
3
100
AcDbLine
 10
4.144837716326616
 20
7.163307022978044
 30
0.0
 11
4.144837716326616
 21
6.760747967859934
 31
0.0
  0
LINE
  5
165
330
1E
100
AcDbEntity
  8
3
100
AcDbLine
 10
4.11334165333449
 20
7.25730308597017
 30
0.0
 11
4.270329842310868
 21
7.25730308597017
 31
0.0
  0
LINE
  5
166
330
1E
100
AcDbEntity
  8
3
100
AcDbLine
 10
4.332829842310868
 20
7.25730308597017
 30
0.0
 11
4.894345590342364
 21
7.25730308597017
 31
0.0
  0
LINE
  5
167
330
1E
100
AcDbEntity
  8
3
100
AcDbLine
 10
5.11334165333449
 20
7.25730308597017
 30
0.0
 11
4.956845590342364
 21
7.25730308597017
 31
0.0
  0
LINE
  5
168
330
1E
100
AcDbEntity
  8
3
100
AcDbLine
 10
5.11334165333449
 20
7.25730308597017
 30
0.0
 11
5.17584165333449
 21
7.25730308597017
 31
0.0
  0
LINE
  5
169
330
1E
100
AcDbEntity
  8
3
100
AcDbLine
 10
4.05084165333449
 20
7.25730308597017
 30
0.0
 11
4.11334165333449
 21
7.25730308597017
 31
0.0
  0
LINE
  5
16A
330
1E
100
AcDbEntity
  8
3
100
AcDbLine
 10
4.05084165333449
 20
7.225807022978044
 30
0.0
 11
4.11334165333449
 21
7.225807022978044
 31
0.0
  0
LINE
  5
16B
330
1E
100
AcDbEntity
  8
3
100
AcDbLine
 10
5.17584165333449
 20
7.225807022978044
 30
0.0
 11
5.11334165333449
 21
7.225807022978044
 31
0.0
  0
LINE
  5
16C
330
1E
100
AcDbEntity
  8
3
100
AcDbLine
 10
4.144837716326616
 20
6.351791274946548
 30
0.0
 11
4.144837716326616
 21
6.445787337938674
 31
0.0
  0
LINE
  5
16D
330
1E
100
AcDbEntity
  8
3
100
AcDbLine
 10
5.082337716326616
 20
6.351791274946548
 30
0.0
 11
5.082337716326616
 21
6.445787337938674
 31
0.0
  0
LINE
  5
16E
330
1E
100
AcDbEntity
  8
3
100
AcDbLine
 10
5.58824322813764
 20
6.46990151116702
 30
0.0
 11
6.137947952547088
 21
6.46990151116702
 31
0.0
  0
LINE
  5
16F
330
1E
100
AcDbEntity
  8
3
100
AcDbLine
 10
5.557239291129766
 20
6.331614109592218
 30
0.0
 11
5.557239291129766
 21
6.438405448174894
 31
0.0
  0
LINE
  5
170
330
1E
100
AcDbEntity
  8
3
100
AcDbLine
 10
6.168951889554962
 20
6.331614109592218
 30
0.0
 11
6.168951889554962
 21
6.438405448174894
 31
0.0
  0
LINE
  5
171
330
1E
100
AcDbEntity
  8
3
100
AcDbLine
 10
6.168951889554962
 20
6.331614109592218
 30
0.0
 11
5.557239291129766
 21
6.331614109592218
 31
0.0
  0
LINE
  5
172
330
1E
100
AcDbEntity
  8
3
100
AcDbLine
 10
6.168951889554962
 20
6.289291274946548
 30
0.0
 11
5.557239291129766
 21
6.289291274946548
 31
0.0
  0
LINE
  5
173
330
1E
100
AcDbEntity
  8
3
100
AcDbLine
 10
6.129089684830553
 20
6.248936944237886
 30
0.0
 11
6.129089684830553
 21
6.289291274946548
 31
0.0
  0
LINE
  5
174
330
1E
100
AcDbEntity
  8
3
100
AcDbLine
 10
5.597101495854175
 20
6.258779463922926
 30
0.0
 11
6.129089684830553
 21
6.258779463922926
 31
0.0
  0
LINE
  5
175
330
1E
100
AcDbEntity
  8
3
100
AcDbLine
 10
5.597101495854175
 20
6.248936944237886
 30
0.0
 11
5.597101495854175
 21
6.289291274946548
 31
0.0
  0
LINE
  5
176
330
1E
100
AcDbEntity
  8
3
100
AcDbLine
 10
5.597101495854175
 20
6.248936944237886
 30
0.0
 11
6.129089684830553
 21
6.248936944237886
 31
0.0
  0
LINE
  5
177
330
1E
100
AcDbEntity
  8
3
100
AcDbLine
 10
5.132534566720317
 20
6.263700723765445
 30
0.0
 11
5.132534566720317
 21
6.294212534789068
 31
0.0
  0
LINE
  5
195
330
1E
100
AcDbEntity
  8
3
100
AcDbLine
 10
5.17584165333449
 20
6.4772834009308
 30
0.0
 11
5.17584165333449
 21
6.47974403085206
 31
0.0
  0
LINE
  5
1E5
330
1E
100
AcDbEntity
  8
3
100
AcDbLine
 10
5.062652676956538
 20
6.351791274946548
 30
0.0
 11
5.072987322625829
 21
6.351791274946548
 31
0.0
  0
LINE
  5
2A5
330
1E
100
AcDbEntity
  8
3
100
AcDbLine
 10
4.660093621838427
 20
6.962027495418989
 30
0.0
 11
4.65812511790142
 21
6.975807022978044
 31
0.0
  0
LINE
  5
2C8
330
1E
100
AcDbEntity
  8
3
100
AcDbLine
 10
5.080369212389609
 20
6.744507810379619
 30
0.0
 11
5.082337716326616
 21
6.760747967859934
 31
0.0
  0
LINE
  5
2FD
330
1E
100
AcDbEntity
  8
3
100
AcDbLine
 10
6.168951889554962
 20
6.331614109592218
 30
0.0
 11
6.168951889554962
 21
6.314389700143399
 31
0.0
  0
LINE
  5
3112
330
1E
100
AcDbEntity
  8
3
100
AcDbLine
 10
6.168951889554962
 20
6.438405448174894
 30
0.0
 11
6.166491259633703
 21
6.450216471796942
 31
0.0
  0
LINE
  5
3113
330
1E
100
AcDbEntity
  8
3
100
AcDbLine
 10
6.166491259633703
 20
6.450216471796942
 30
0.0
 11
6.160093621838427
 21
6.460551117466232
 31
0.0
  0
LINE
  5
3114
330
1E
100
AcDbEntity
  8
3
100
AcDbLine
 10
6.160093621838427
 20
6.460551117466232
 30
0.0
 11
6.149758976169136
 21
6.466948755261508
 31
0.0
  0
LINE
  5
3115
330
1E
100
AcDbEntity
  8
3
100
AcDbLine
 10
6.149758976169136
 20
6.466948755261508
 30
0.0
 11
6.137947952547088
 21
6.469409385182768
 31
0.0
  0
LINE
  5
3116
330
1E
100
AcDbEntity
  8
3
100
AcDbLine
 10
5.58824322813764
 20
6.469409385182768
 30
0.0
 11
5.576432204515593
 21
6.466948755261508
 31
0.0
  0
LINE
  5
3117
330
1E
100
AcDbEntity
  8
3
100
AcDbLine
 10
5.576432204515593
 20
6.466948755261508
 30
0.0
 11
5.566097558846301
 21
6.460551117466232
 31
0.0
  0
LINE
  5
3118
330
1E
100
AcDbEntity
  8
3
100
AcDbLine
 10
5.566097558846301
 20
6.460551117466232
 30
0.0
 11
5.559699921051025
 21
6.450216471796942
 31
0.0
  0
LINE
  5
3119
330
1E
100
AcDbEntity
  8
3
100
AcDbLine
 10
5.559699921051025
 20
6.450216471796942
 30
0.0
 11
5.557239291129766
 21
6.438405448174894
 31
0.0
  0
LINE
  5
311A
330
1E
100
AcDbEntity
  8
3
100
AcDbLine
 10
5.557239291129766
 20
6.331614109592218
 30
0.0
 11
5.557239291129766
 21
6.314389700143399
 31
0.0
  0
LINE
  5
311B
330
1E
100
AcDbEntity
  8
3
100
AcDbLine
 10
5.557239291129766
 20
6.314389700143399
 30
0.0
 11
5.557239291129766
 21
6.300118046600092
 31
0.0
  0
LINE
  5
311C
330
1E
100
AcDbEntity
  8
3
100
AcDbLine
 10
5.557239291129766
 20
6.300118046600092
 30
0.0
 11
5.557239291129766
 21
6.289291274946548
 31
0.0
  0
LINE
  5
311D
330
1E
100
AcDbEntity
  8
3
100
AcDbLine
 10
6.168951889554962
 20
6.314389700143399
 30
0.0
 11
6.168951889554962
 21
6.300118046600092
 31
0.0
  0
LINE
  5
311E
330
1E
100
AcDbEntity
  8
3
100
AcDbLine
 10
6.168951889554962
 20
6.300118046600092
 30
0.0
 11
6.168951889554962
 21
6.289291274946548
 31
0.0
  0
LINE
  5
311F
330
1E
100
AcDbEntity
  8
3
100
AcDbLine
 10
4.894345590342364
 20
7.25730308597017
 30
0.0
 11
4.896806220263624
 21
7.245492062348123
 31
0.0
  0
LINE
  5
3120
330
1E
100
AcDbEntity
  8
3
100
AcDbLine
 10
4.896806220263624
 20
7.245492062348123
 30
0.0
 11
4.903203858058899
 21
7.235157416678831
 31
0.0
  0
LINE
  5
3121
330
1E
100
AcDbEntity
  8
3
100
AcDbLine
 10
4.903203858058899
 20
7.235157416678831
 30
0.0
 11
4.913538503728191
 21
7.228759778883556
 31
0.0
  0
LINE
  5
3122
330
1E
100
AcDbEntity
  8
3
100
AcDbLine
 10
4.913538503728191
 20
7.228759778883556
 30
0.0
 11
4.925349527350238
 21
7.226299148962296
 31
0.0
  0
LINE
  5
3123
330
1E
100
AcDbEntity
  8
3
100
AcDbLine
 10
4.925349527350238
 20
7.226299148962296
 30
0.0
 11
4.937160550972286
 21
7.228759778883556
 31
0.0
  0
LINE
  5
3124
330
1E
100
AcDbEntity
  8
3
100
AcDbLine
 10
4.937160550972286
 20
7.228759778883556
 30
0.0
 11
4.947495196641577
 21
7.235157416678831
 31
0.0
  0
LINE
  5
3125
330
1E
100
AcDbEntity
  8
3
100
AcDbLine
 10
4.947495196641577
 20
7.235157416678831
 30
0.0
 11
4.953892834436853
 21
7.245492062348123
 31
0.0
  0
LINE
  5
3126
330
1E
100
AcDbEntity
  8
3
100
AcDbLine
 10
4.953892834436853
 20
7.245492062348123
 30
0.0
 11
4.956353464358112
 21
7.25730308597017
 31
0.0
  0
LINE
  5
3127
330
1E
100
AcDbEntity
  8
3
100
AcDbLine
 10
4.270329842310868
 20
7.25730308597017
 30
0.0
 11
4.272790472232128
 21
7.245492062348123
 31
0.0
  0
LINE
  5
3128
330
1E
100
AcDbEntity
  8
3
100
AcDbLine
 10
4.272790472232128
 20
7.245492062348123
 30
0.0
 11
4.279188110027404
 21
7.235157416678831
 31
0.0
  0
LINE
  5
3129
330
1E
100
AcDbEntity
  8
3
100
AcDbLine
 10
4.279188110027404
 20
7.235157416678831
 30
0.0
 11
4.289522755696696
 21
7.228759778883556
 31
0.0
  0
LINE
  5
312A
330
1E
100
AcDbEntity
  8
3
100
AcDbLine
 10
4.289522755696696
 20
7.228759778883556
 30
0.0
 11
4.301333779318742
 21
7.226299148962296
 31
0.0
  0
LINE
  5
312B
330
1E
100
AcDbEntity
  8
3
100
AcDbLine
 10
4.301333779318742
 20
7.226299148962296
 30
0.0
 11
4.31314480294079
 21
7.228759778883556
 31
0.0
  0
LINE
  5
312C
330
1E
100
AcDbEntity
  8
3
100
AcDbLine
 10
4.31314480294079
 20
7.228759778883556
 30
0.0
 11
4.323479448610081
 21
7.235157416678831
 31
0.0
  0
LINE
  5
312D
330
1E
100
AcDbEntity
  8
3
100
AcDbLine
 10
4.323479448610081
 20
7.235157416678831
 30
0.0
 11
4.329877086405357
 21
7.245492062348123
 31
0.0
  0
LINE
  5
312E
330
1E
100
AcDbEntity
  8
3
100
AcDbLine
 10
4.329877086405357
 20
7.245492062348123
 30
0.0
 11
4.332337716326616
 21
7.25730308597017
 31
0.0
  0
LINE
  5
312F
330
1E
100
AcDbEntity
  8
3
100
AcDbLine
 10
4.163046377743939
 20
6.716456629277256
 30
0.0
 11
4.17584165333449
 21
6.706614109592218
 31
0.0
  0
LINE
  5
3130
330
1E
100
AcDbEntity
  8
3
100
AcDbLine
 10
4.17584165333449
 20
6.706614109592218
 30
0.0
 11
4.191097558846301
 21
6.700216471796942
 31
0.0
  0
LINE
  5
3131
330
1E
100
AcDbEntity
  8
3
100
AcDbLine
 10
4.191097558846301
 20
6.700216471796942
 30
0.0
 11
4.207337716326616
 21
6.698247967859934
 31
0.0
  0
LINE
  5
3132
330
1E
100
AcDbEntity
  8
3
100
AcDbLine
 10
4.144837716326616
 20
6.760747967859934
 30
0.0
 11
4.146806220263624
 21
6.744507810379619
 31
0.0
  0
LINE
  5
3133
330
1E
100
AcDbEntity
  8
3
100
AcDbLine
 10
4.146806220263624
 20
6.744507810379619
 30
0.0
 11
4.153203858058899
 21
6.72974403085206
 31
0.0
  0
LINE
  5
3134
330
1E
100
AcDbEntity
  8
3
100
AcDbLine
 10
4.153203858058899
 20
6.72974403085206
 30
0.0
 11
4.163046377743939
 21
6.716456629277256
 31
0.0
  0
LINE
  5
3135
330
1E
100
AcDbEntity
  8
3
100
AcDbLine
 10
4.207337716326616
 20
7.225807022978044
 30
0.0
 11
4.191097558846301
 21
7.223838519041036
 31
0.0
  0
LINE
  5
3136
330
1E
100
AcDbEntity
  8
3
100
AcDbLine
 10
4.191097558846301
 20
7.223838519041036
 30
0.0
 11
4.176333779318742
 21
7.21744088124576
 31
0.0
  0
LINE
  5
3137
330
1E
100
AcDbEntity
  8
3
100
AcDbLine
 10
4.176333779318742
 20
7.21744088124576
 30
0.0
 11
4.163046377743939
 21
7.207598361560721
 31
0.0
  0
LINE
  5
3138
330
1E
100
AcDbEntity
  8
3
100
AcDbLine
 10
4.163046377743939
 20
7.207598361560721
 30
0.0
 11
4.153203858058899
 21
7.19480308597017
 31
0.0
  0
LINE
  5
3139
330
1E
100
AcDbEntity
  8
3
100
AcDbLine
 10
4.153203858058899
 20
7.19480308597017
 30
0.0
 11
4.146806220263624
 21
7.179547180458359
 31
0.0
  0
LINE
  5
313A
330
1E
100
AcDbEntity
  8
3
100
AcDbLine
 10
4.146806220263624
 20
7.179547180458359
 30
0.0
 11
4.144837716326616
 21
7.163307022978044
 31
0.0
  0
LINE
  5
313B
330
1E
100
AcDbEntity
  8
3
100
AcDbLine
 10
5.082337716326616
 20
7.163307022978044
 30
0.0
 11
5.080369212389609
 21
7.179547180458359
 31
0.0
  0
LINE
  5
313C
330
1E
100
AcDbEntity
  8
3
100
AcDbLine
 10
5.080369212389609
 20
7.179547180458359
 30
0.0
 11
5.073971574594333
 21
7.194310959985918
 31
0.0
  0
LINE
  5
313D
330
1E
100
AcDbEntity
  8
3
100
AcDbLine
 10
5.073971574594333
 20
7.194310959985918
 30
0.0
 11
5.064129054909294
 21
7.207598361560721
 31
0.0
  0
LINE
  5
313E
330
1E
100
AcDbEntity
  8
3
100
AcDbLine
 10
5.064129054909294
 20
7.207598361560721
 30
0.0
 11
5.051333779318742
 21
7.21744088124576
 31
0.0
  0
LINE
  5
313F
330
1E
100
AcDbEntity
  8
3
100
AcDbLine
 10
5.051333779318742
 20
7.21744088124576
 30
0.0
 11
5.036077873806931
 21
7.223838519041036
 31
0.0
  0
LINE
  5
3140
330
1E
100
AcDbEntity
  8
3
100
AcDbLine
 10
5.036077873806931
 20
7.223838519041036
 30
0.0
 11
5.019837716326616
 21
7.225807022978044
 31
0.0
  0
LINE
  5
3141
330
1E
100
AcDbEntity
  8
3
100
AcDbLine
 10
5.019837716326616
 20
6.698247967859934
 30
0.0
 11
5.036077873806931
 21
6.700216471796942
 31
0.0
  0
LINE
  5
3142
330
1E
100
AcDbEntity
  8
3
100
AcDbLine
 10
5.036077873806931
 20
6.700216471796942
 30
0.0
 11
5.05084165333449
 21
6.706614109592218
 31
0.0
  0
LINE
  5
3143
330
1E
100
AcDbEntity
  8
3
100
AcDbLine
 10
5.05084165333449
 20
6.706614109592218
 30
0.0
 11
5.064129054909294
 21
6.716456629277256
 31
0.0
  0
LINE
  5
3144
330
1E
100
AcDbEntity
  8
3
100
AcDbLine
 10
5.064129054909294
 20
6.716456629277256
 30
0.0
 11
5.073971574594333
 21
6.729251904867808
 31
0.0
  0
LINE
  5
3145
330
1E
100
AcDbEntity
  8
3
100
AcDbLine
 10
5.073971574594333
 20
6.729251904867808
 30
0.0
 11
5.080369212389609
 21
6.744507810379619
 31
0.0
  0
LINE
  5
3146
330
1E
100
AcDbEntity
  8
3
100
AcDbLine
 10
4.589719606090396
 20
6.921673164710328
 30
0.0
 11
4.603007007665199
 21
6.916259778883556
 31
0.0
  0
LINE
  5
3147
330
1E
100
AcDbEntity
  8
3
100
AcDbLine
 10
4.603007007665199
 20
6.916259778883556
 30
0.0
 11
4.616786535224254
 21
6.915275526915052
 31
0.0
  0
LINE
  5
3148
330
1E
100
AcDbEntity
  8
3
100
AcDbLine
 10
4.616786535224254
 20
6.915275526915052
 30
0.0
 11
4.630566062783309
 21
6.918720408804816
 31
0.0
  0
LINE
  5
3149
330
1E
100
AcDbEntity
  8
3
100
AcDbLine
 10
4.630566062783309
 20
6.918720408804816
 30
0.0
 11
4.642377086405357
 21
6.925610172584343
 31
0.0
  0
LINE
  5
314A
330
1E
100
AcDbEntity
  8
3
100
AcDbLine
 10
4.642377086405357
 20
6.925610172584343
 30
0.0
 11
4.651727480106144
 21
6.935452692269382
 31
0.0
  0
LINE
  5
314B
330
1E
100
AcDbEntity
  8
3
100
AcDbLine
 10
4.651727480106144
 20
6.935452692269382
 30
0.0
 11
4.65812511790142
 21
6.948247967859934
 31
0.0
  0
LINE
  5
314C
330
1E
100
AcDbEntity
  8
3
100
AcDbLine
 10
4.65812511790142
 20
6.948247967859934
 30
0.0
 11
4.660093621838427
 21
6.962027495418989
 31
0.0
  0
LINE
  5
314D
330
1E
100
AcDbEntity
  8
3
100
AcDbLine
 10
4.65812511790142
 20
6.975807022978044
 30
0.0
 11
4.651727480106144
 21
6.988602298568595
 31
0.0
  0
LINE
  5
314E
330
1E
100
AcDbEntity
  8
3
100
AcDbLine
 10
4.651727480106144
 20
6.988602298568595
 30
0.0
 11
4.642377086405357
 21
6.998444818253634
 31
0.0
  0
LINE
  5
314F
330
1E
100
AcDbEntity
  8
3
100
AcDbLine
 10
4.642377086405357
 20
6.998444818253634
 30
0.0
 11
4.630566062783309
 21
7.005334582033162
 31
0.0
  0
LINE
  5
3150
330
1E
100
AcDbEntity
  8
3
100
AcDbLine
 10
4.630566062783309
 20
7.005334582033162
 30
0.0
 11
4.616786535224254
 21
7.008779463922926
 31
0.0
  0
LINE
  5
3151
330
1E
100
AcDbEntity
  8
3
100
AcDbLine
 10
4.616786535224254
 20
7.008779463922926
 30
0.0
 11
4.603007007665199
 21
7.007795211954422
 31
0.0
  0
LINE
  5
3152
330
1E
100
AcDbEntity
  8
3
100
AcDbLine
 10
4.603007007665199
 20
7.007795211954422
 30
0.0
 11
4.590211732074648
 21
7.00238182612765
 31
0.0
  0
LINE
  5
3153
330
1E
100
AcDbEntity
  8
3
100
AcDbLine
 10
4.590211732074648
 20
7.00238182612765
 30
0.0
 11
4.578892834436853
 21
6.994015684395368
 31
0.0
  0
LINE
  5
3154
330
1E
100
AcDbEntity
  8
3
100
AcDbLine
 10
4.578892834436853
 20
6.994015684395368
 30
0.0
 11
4.571018818688822
 21
6.982204660773319
 31
0.0
  0
LINE
  5
3155
330
1E
100
AcDbEntity
  8
3
100
AcDbLine
 10
4.571018818688822
 20
6.982204660773319
 30
0.0
 11
4.567081810814805
 21
6.968917259198517
 31
0.0
  0
LINE
  5
3156
330
1E
100
AcDbEntity
  8
3
100
AcDbLine
 10
4.567081810814805
 20
6.968917259198517
 30
0.0
 11
4.567081810814805
 21
6.955137731639462
 31
0.0
  0
LINE
  5
3157
330
1E
100
AcDbEntity
  8
3
100
AcDbLine
 10
4.567081810814805
 20
6.955137731639462
 30
0.0
 11
4.571018818688822
 21
6.941850330064658
 31
0.0
  0
LINE
  5
3158
330
1E
100
AcDbEntity
  8
3
100
AcDbLine
 10
4.571018818688822
 20
6.941850330064658
 30
0.0
 11
4.578892834436853
 21
6.930039306442611
 31
0.0
  0
LINE
  5
3159
330
1E
100
AcDbEntity
  8
3
100
AcDbLine
 10
4.578892834436853
 20
6.930039306442611
 30
0.0
 11
4.589719606090396
 21
6.921673164710328
 31
0.0
  0
LINE
  5
315A
330
1E
100
AcDbEntity
  8
3
100
AcDbLine
 10
4.536569999791183
 20
6.896082613529225
 30
0.0
 11
4.551333779318742
 21
6.881810959985918
 31
0.0
  0
LINE
  5
315B
330
1E
100
AcDbEntity
  8
3
100
AcDbLine
 10
4.551333779318742
 20
6.881810959985918
 30
0.0
 11
4.568558188767561
 21
6.870984188332375
 31
0.0
  0
LINE
  5
315C
330
1E
100
AcDbEntity
  8
3
100
AcDbLine
 10
4.568558188767561
 20
6.870984188332375
 30
0.0
 11
4.587751102153388
 21
6.864094424552847
 31
0.0
  0
LINE
  5
315D
330
1E
100
AcDbEntity
  8
3
100
AcDbLine
 10
4.587751102153388
 20
6.864094424552847
 30
0.0
 11
4.608420393491971
 21
6.860649542663083
 31
0.0
  0
LINE
  5
315E
330
1E
100
AcDbEntity
  8
3
100
AcDbLine
 10
4.608420393491971
 20
6.860649542663083
 30
0.0
 11
4.628597558846301
 21
6.861633794631588
 31
0.0
  0
LINE
  5
315F
330
1E
100
AcDbEntity
  8
3
100
AcDbLine
 10
4.628597558846301
 20
6.861633794631588
 30
0.0
 11
4.648774724200633
 21
6.867047180458359
 31
0.0
  0
LINE
  5
3160
330
1E
100
AcDbEntity
  8
3
100
AcDbLine
 10
4.648774724200633
 20
6.867047180458359
 30
0.0
 11
4.666983385617955
 21
6.875905448174894
 31
0.0
  0
LINE
  5
3161
330
1E
100
AcDbEntity
  8
3
100
AcDbLine
 10
4.666983385617955
 20
6.875905448174894
 30
0.0
 11
4.68322354309827
 21
6.888700723765445
 31
0.0
  0
LINE
  5
3162
330
1E
100
AcDbEntity
  8
3
100
AcDbLine
 10
4.68322354309827
 20
6.888700723765445
 30
0.0
 11
4.696510944673073
 21
6.903956629277256
 31
0.0
  0
LINE
  5
3163
330
1E
100
AcDbEntity
  8
3
100
AcDbLine
 10
4.696510944673073
 20
6.903956629277256
 30
0.0
 11
4.706353464358112
 21
6.92216529069458
 31
0.0
  0
LINE
  5
3164
330
1E
100
AcDbEntity
  8
3
100
AcDbLine
 10
4.706353464358112
 20
6.92216529069458
 30
0.0
 11
4.712751102153388
 21
6.941850330064658
 31
0.0
  0
LINE
  5
3165
330
1E
100
AcDbEntity
  8
3
100
AcDbLine
 10
4.712751102153388
 20
6.941850330064658
 30
0.0
 11
4.714719606090396
 21
6.962027495418989
 31
0.0
  0
LINE
  5
3166
330
1E
100
AcDbEntity
  8
3
100
AcDbLine
 10
4.648774724200633
 20
7.057007810379618
 30
0.0
 11
4.628597558846301
 21
7.062421196206391
 31
0.0
  0
LINE
  5
3167
330
1E
100
AcDbEntity
  8
3
100
AcDbLine
 10
4.628597558846301
 20
7.062421196206391
 30
0.0
 11
4.608420393491971
 21
7.063405448174894
 31
0.0
  0
LINE
  5
3168
330
1E
100
AcDbEntity
  8
3
100
AcDbLine
 10
4.608420393491971
 20
7.063405448174894
 30
0.0
 11
4.587751102153388
 21
7.059960566285131
 31
0.0
  0
LINE
  5
3169
330
1E
100
AcDbEntity
  8
3
100
AcDbLine
 10
4.587751102153388
 20
7.059960566285131
 30
0.0
 11
4.568558188767561
 21
7.053070802505603
 31
0.0
  0
LINE
  5
316A
330
1E
100
AcDbEntity
  8
3
100
AcDbLine
 10
4.568558188767561
 20
7.053070802505603
 30
0.0
 11
4.551333779318742
 21
7.04224403085206
 31
0.0
  0
LINE
  5
316B
330
1E
100
AcDbEntity
  8
3
100
AcDbLine
 10
4.551333779318742
 20
7.04224403085206
 30
0.0
 11
4.536569999791183
 21
7.027972377308753
 31
0.0
  0
LINE
  5
316C
330
1E
100
AcDbEntity
  8
3
100
AcDbLine
 10
4.536569999791183
 20
7.027972377308753
 30
0.0
 11
4.524758976169136
 21
7.011240093844186
 31
0.0
  0
LINE
  5
316D
330
1E
100
AcDbEntity
  8
3
100
AcDbLine
 10
4.524758976169136
 20
7.011240093844186
 30
0.0
 11
4.516392834436853
 21
6.992539306442611
 31
0.0
  0
LINE
  5
316E
330
1E
100
AcDbEntity
  8
3
100
AcDbLine
 10
4.516392834436853
 20
6.992539306442611
 30
0.0
 11
4.512455826562836
 21
6.972362141088281
 31
0.0
  0
LINE
  5
316F
330
1E
100
AcDbEntity
  8
3
100
AcDbLine
 10
4.512455826562836
 20
6.972362141088281
 30
0.0
 11
4.512455826562836
 21
6.951692849749697
 31
0.0
  0
LINE
  5
3170
330
1E
100
AcDbEntity
  8
3
100
AcDbLine
 10
4.512455826562836
 20
6.951692849749697
 30
0.0
 11
4.516392834436853
 21
6.931515684395368
 31
0.0
  0
LINE
  5
3171
330
1E
100
AcDbEntity
  8
3
100
AcDbLine
 10
4.516392834436853
 20
6.931515684395368
 30
0.0
 11
4.524758976169136
 21
6.912814896993792
 31
0.0
  0
LINE
  5
3172
330
1E
100
AcDbEntity
  8
3
100
AcDbLine
 10
4.524758976169136
 20
6.912814896993792
 30
0.0
 11
4.536569999791183
 21
6.896082613529225
 31
0.0
  0
LINE
  5
3173
330
1E
100
AcDbEntity
  8
3
100
AcDbLine
 10
4.714719606090396
 20
6.962027495418989
 30
0.0
 11
4.712751102153388
 21
6.982204660773319
 31
0.0
  0
LINE
  5
3174
330
1E
100
AcDbEntity
  8
3
100
AcDbLine
 10
4.712751102153388
 20
6.982204660773319
 30
0.0
 11
4.706353464358112
 21
7.001889700143398
 31
0.0
  0
LINE
  5
3175
330
1E
100
AcDbEntity
  8
3
100
AcDbLine
 10
4.706353464358112
 20
7.001889700143398
 30
0.0
 11
4.696510944673073
 21
7.020098361560721
 31
0.0
  0
LINE
  5
3176
330
1E
100
AcDbEntity
  8
3
100
AcDbLine
 10
4.696510944673073
 20
7.020098361560721
 30
0.0
 11
4.68322354309827
 21
7.035354267072532
 31
0.0
  0
LINE
  5
3177
330
1E
100
AcDbEntity
  8
3
100
AcDbLine
 10
4.68322354309827
 20
7.035354267072532
 30
0.0
 11
4.666983385617955
 21
7.048149542663083
 31
0.0
  0
LINE
  5
3178
330
1E
100
AcDbEntity
  8
3
100
AcDbLine
 10
4.666983385617955
 20
7.048149542663083
 30
0.0
 11
4.648774724200633
 21
7.057007810379618
 31
0.0
  0
LINE
  5
3179
330
1E
100
AcDbEntity
  8
3
100
AcDbLine
 10
4.709798346247876
 20
6.829645605655209
 30
0.0
 11
4.728991259633703
 21
6.846377889119777
 31
0.0
  0
LINE
  5
317A
330
1E
100
AcDbEntity
  8
3
100
AcDbLine
 10
4.728991259633703
 20
6.846377889119777
 30
0.0
 11
4.74572354309827
 21
6.865570802505603
 31
0.0
  0
LINE
  5
317B
330
1E
100
AcDbEntity
  8
3
100
AcDbLine
 10
4.74572354309827
 20
6.865570802505603
 30
0.0
 11
4.759503070657325
 21
6.887716471796942
 31
0.0
  0
LINE
  5
317C
330
1E
100
AcDbEntity
  8
3
100
AcDbLine
 10
4.759503070657325
 20
6.887716471796942
 30
0.0
 11
4.769345590342364
 21
6.911338519041036
 31
0.0
  0
LINE
  5
317D
330
1E
100
AcDbEntity
  8
3
100
AcDbLine
 10
4.769345590342364
 20
6.911338519041036
 30
0.0
 11
4.775251102153388
 21
6.936436944237886
 31
0.0
  0
LINE
  5
317E
330
1E
100
AcDbEntity
  8
3
100
AcDbLine
 10
4.775251102153388
 20
6.936436944237886
 30
0.0
 11
4.777219606090396
 21
6.962027495418989
 31
0.0
  0
LINE
  5
317F
330
1E
100
AcDbEntity
  8
3
100
AcDbLine
 10
4.449463700578585
 20
6.962027495418989
 30
0.0
 11
4.451432204515593
 21
6.936436944237886
 31
0.0
  0
LINE
  5
3180
330
1E
100
AcDbEntity
  8
3
100
AcDbLine
 10
4.451432204515593
 20
6.936436944237886
 30
0.0
 11
4.457337716326616
 21
6.911338519041036
 31
0.0
  0
LINE
  5
3181
330
1E
100
AcDbEntity
  8
3
100
AcDbLine
 10
4.457337716326616
 20
6.911338519041036
 30
0.0
 11
4.467180236011656
 21
6.887716471796942
 31
0.0
  0
LINE
  5
3182
330
1E
100
AcDbEntity
  8
3
100
AcDbLine
 10
4.467180236011656
 20
6.887716471796942
 30
0.0
 11
4.480959763570711
 21
6.865570802505603
 31
0.0
  0
LINE
  5
3183
330
1E
100
AcDbEntity
  8
3
100
AcDbLine
 10
4.480959763570711
 20
6.865570802505603
 30
0.0
 11
4.497692047035277
 21
6.846377889119777
 31
0.0
  0
LINE
  5
3184
330
1E
100
AcDbEntity
  8
3
100
AcDbLine
 10
4.497692047035277
 20
6.846377889119777
 30
0.0
 11
4.516884960421105
 21
6.829645605655209
 31
0.0
  0
LINE
  5
3185
330
1E
100
AcDbEntity
  8
3
100
AcDbLine
 10
4.516884960421105
 20
6.829645605655209
 30
0.0
 11
4.539030629712443
 21
6.815866078096155
 31
0.0
  0
LINE
  5
3186
330
1E
100
AcDbEntity
  8
3
100
AcDbLine
 10
4.539030629712443
 20
6.815866078096155
 30
0.0
 11
4.562652676956538
 21
6.806023558411115
 31
0.0
  0
LINE
  5
3187
330
1E
100
AcDbEntity
  8
3
100
AcDbLine
 10
4.562652676956538
 20
6.806023558411115
 30
0.0
 11
4.587751102153388
 21
6.800118046600092
 31
0.0
  0
LINE
  5
3188
330
1E
100
AcDbEntity
  8
3
100
AcDbLine
 10
4.587751102153388
 20
6.800118046600092
 30
0.0
 11
4.61334165333449
 21
6.798149542663083
 31
0.0
  0
LINE
  5
3189
330
1E
100
AcDbEntity
  8
3
100
AcDbLine
 10
4.61334165333449
 20
6.798149542663083
 30
0.0
 11
4.638932204515593
 21
6.800118046600092
 31
0.0
  0
LINE
  5
318A
330
1E
100
AcDbEntity
  8
3
100
AcDbLine
 10
4.638932204515593
 20
6.800118046600092
 30
0.0
 11
4.664030629712443
 21
6.806023558411115
 31
0.0
  0
LINE
  5
318B
330
1E
100
AcDbEntity
  8
3
100
AcDbLine
 10
4.664030629712443
 20
6.806023558411115
 30
0.0
 11
4.687652676956538
 21
6.815866078096155
 31
0.0
  0
LINE
  5
318C
330
1E
100
AcDbEntity
  8
3
100
AcDbLine
 10
4.687652676956538
 20
6.815866078096155
 30
0.0
 11
4.709798346247876
 21
6.829645605655209
 31
0.0
  0
LINE
  5
318D
330
1E
100
AcDbEntity
  8
3
100
AcDbLine
 10
4.664030629712443
 20
7.118031432426863
 30
0.0
 11
4.638932204515593
 21
7.123936944237887
 31
0.0
  0
LINE
  5
318E
330
1E
100
AcDbEntity
  8
3
100
AcDbLine
 10
4.638932204515593
 20
7.123936944237887
 30
0.0
 11
4.61334165333449
 21
7.125905448174894
 31
0.0
  0
LINE
  5
318F
330
1E
100
AcDbEntity
  8
3
100
AcDbLine
 10
4.61334165333449
 20
7.125905448174894
 30
0.0
 11
4.587751102153388
 21
7.123936944237887
 31
0.0
  0
LINE
  5
3190
330
1E
100
AcDbEntity
  8
3
100
AcDbLine
 10
4.587751102153388
 20
7.123936944237887
 30
0.0
 11
4.562652676956538
 21
7.118031432426863
 31
0.0
  0
LINE
  5
3191
330
1E
100
AcDbEntity
  8
3
100
AcDbLine
 10
4.562652676956538
 20
7.118031432426863
 30
0.0
 11
4.539030629712443
 21
7.108188912741824
 31
0.0
  0
LINE
  5
3192
330
1E
100
AcDbEntity
  8
3
100
AcDbLine
 10
4.539030629712443
 20
7.108188912741824
 30
0.0
 11
4.516884960421105
 21
7.094409385182768
 31
0.0
  0
LINE
  5
3193
330
1E
100
AcDbEntity
  8
3
100
AcDbLine
 10
4.516884960421105
 20
7.094409385182768
 30
0.0
 11
4.497692047035277
 21
7.077677101718202
 31
0.0
  0
LINE
  5
3194
330
1E
100
AcDbEntity
  8
3
100
AcDbLine
 10
4.497692047035277
 20
7.077677101718202
 30
0.0
 11
4.480959763570711
 21
7.058484188332375
 31
0.0
  0
LINE
  5
3195
330
1E
100
AcDbEntity
  8
3
100
AcDbLine
 10
4.480959763570711
 20
7.058484188332375
 30
0.0
 11
4.467180236011656
 21
7.036338519041036
 31
0.0
  0
LINE
  5
3196
330
1E
100
AcDbEntity
  8
3
100
AcDbLine
 10
4.467180236011656
 20
7.036338519041036
 30
0.0
 11
4.457337716326616
 21
7.012716471796942
 31
0.0
  0
LINE
  5
3197
330
1E
100
AcDbEntity
  8
3
100
AcDbLine
 10
4.457337716326616
 20
7.012716471796942
 30
0.0
 11
4.451432204515593
 21
6.987618046600092
 31
0.0
  0
LINE
  5
3198
330
1E
100
AcDbEntity
  8
3
100
AcDbLine
 10
4.451432204515593
 20
6.987618046600092
 30
0.0
 11
4.449463700578585
 21
6.962027495418989
 31
0.0
  0
LINE
  5
3199
330
1E
100
AcDbEntity
  8
3
100
AcDbLine
 10
4.777219606090396
 20
6.962027495418989
 30
0.0
 11
4.775251102153388
 21
6.987618046600092
 31
0.0
  0
LINE
  5
319A
330
1E
100
AcDbEntity
  8
3
100
AcDbLine
 10
4.775251102153388
 20
6.987618046600092
 30
0.0
 11
4.769345590342364
 21
7.012716471796942
 31
0.0
  0
LINE
  5
319B
330
1E
100
AcDbEntity
  8
3
100
AcDbLine
 10
4.769345590342364
 20
7.012716471796942
 30
0.0
 11
4.759503070657325
 21
7.036338519041036
 31
0.0
  0
LINE
  5
319C
330
1E
100
AcDbEntity
  8
3
100
AcDbLine
 10
4.759503070657325
 20
7.036338519041036
 30
0.0
 11
4.74572354309827
 21
7.058484188332375
 31
0.0
  0
LINE
  5
319D
330
1E
100
AcDbEntity
  8
3
100
AcDbLine
 10
4.74572354309827
 20
7.058484188332375
 30
0.0
 11
4.728991259633703
 21
7.077677101718202
 31
0.0
  0
LINE
  5
319E
330
1E
100
AcDbEntity
  8
3
100
AcDbLine
 10
4.728991259633703
 20
7.077677101718202
 30
0.0
 11
4.709798346247876
 21
7.094409385182768
 31
0.0
  0
LINE
  5
319F
330
1E
100
AcDbEntity
  8
3
100
AcDbLine
 10
4.709798346247876
 20
7.094409385182768
 30
0.0
 11
4.687652676956538
 21
7.108188912741824
 31
0.0
  0
LINE
  5
31A0
330
1E
100
AcDbEntity
  8
3
100
AcDbLine
 10
4.687652676956538
 20
7.108188912741824
 30
0.0
 11
4.664030629712443
 21
7.118031432426863
 31
0.0
  0
LINE
  5
31A1
330
1E
100
AcDbEntity
  8
3
100
AcDbLine
 10
4.903203858058899
 20
6.689389700143399
 30
0.0
 11
4.896806220263624
 21
6.679055054474106
 31
0.0
  0
LINE
  5
31A2
330
1E
100
AcDbEntity
  8
3
100
AcDbLine
 10
4.896806220263624
 20
6.679055054474106
 30
0.0
 11
4.894345590342364
 21
6.66724403085206
 31
0.0
  0
LINE
  5
31A3
330
1E
100
AcDbEntity
  8
3
100
AcDbLine
 10
4.956353464358112
 20
6.66724403085206
 30
0.0
 11
4.953892834436853
 21
6.679055054474106
 31
0.0
  0
LINE
  5
31A4
330
1E
100
AcDbEntity
  8
3
100
AcDbLine
 10
4.953892834436853
 20
6.679055054474106
 30
0.0
 11
4.947495196641577
 21
6.689389700143399
 31
0.0
  0
LINE
  5
31A5
330
1E
100
AcDbEntity
  8
3
100
AcDbLine
 10
4.947495196641577
 20
6.689389700143399
 30
0.0
 11
4.937160550972286
 21
6.695787337938674
 31
0.0
  0
LINE
  5
31A6
330
1E
100
AcDbEntity
  8
3
100
AcDbLine
 10
4.937160550972286
 20
6.695787337938674
 30
0.0
 11
4.925349527350238
 21
6.698247967859934
 31
0.0
  0
LINE
  5
31A7
330
1E
100
AcDbEntity
  8
3
100
AcDbLine
 10
4.925349527350238
 20
6.698247967859934
 30
0.0
 11
4.913538503728191
 21
6.695787337938674
 31
0.0
  0
LINE
  5
31A8
330
1E
100
AcDbEntity
  8
3
100
AcDbLine
 10
4.913538503728191
 20
6.695787337938674
 30
0.0
 11
4.903203858058899
 21
6.689389700143399
 31
0.0
  0
LINE
  5
31A9
330
1E
100
AcDbEntity
  8
3
100
AcDbLine
 10
4.301333779318742
 20
6.698247967859934
 30
0.0
 11
4.289522755696696
 21
6.695787337938674
 31
0.0
  0
LINE
  5
31AA
330
1E
100
AcDbEntity
  8
3
100
AcDbLine
 10
4.289522755696696
 20
6.695787337938674
 30
0.0
 11
4.279188110027404
 21
6.689389700143399
 31
0.0
  0
LINE
  5
31AB
330
1E
100
AcDbEntity
  8
3
100
AcDbLine
 10
4.279188110027404
 20
6.689389700143399
 30
0.0
 11
4.272790472232128
 21
6.679055054474106
 31
0.0
  0
LINE
  5
31AC
330
1E
100
AcDbEntity
  8
3
100
AcDbLine
 10
4.272790472232128
 20
6.679055054474106
 30
0.0
 11
4.270329842310868
 21
6.66724403085206
 31
0.0
  0
LINE
  5
31AD
330
1E
100
AcDbEntity
  8
3
100
AcDbLine
 10
4.332337716326616
 20
6.66724403085206
 30
0.0
 11
4.329877086405357
 21
6.679055054474106
 31
0.0
  0
LINE
  5
31AE
330
1E
100
AcDbEntity
  8
3
100
AcDbLine
 10
4.329877086405357
 20
6.679055054474106
 30
0.0
 11
4.323479448610081
 21
6.689389700143399
 31
0.0
  0
LINE
  5
31AF
330
1E
100
AcDbEntity
  8
3
100
AcDbLine
 10
4.323479448610081
 20
6.689389700143399
 30
0.0
 11
4.31314480294079
 21
6.695787337938674
 31
0.0
  0
LINE
  5
31B0
330
1E
100
AcDbEntity
  8
3
100
AcDbLine
 10
4.31314480294079
 20
6.695787337938674
 30
0.0
 11
4.301333779318742
 21
6.698247967859934
 31
0.0
  0
LINE
  5
31B1
330
1E
100
AcDbEntity
  8
3
100
AcDbLine
 10
5.11334165333449
 20
6.66724403085206
 30
0.0
 11
5.11334165333449
 21
6.669704660773319
 31
0.0
  0
LINE
  5
31B2
330
1E
100
AcDbEntity
  8
3
100
AcDbLine
 10
5.11334165333449
 20
6.669704660773319
 30
0.0
 11
5.11334165333449
 21
6.676102298568595
 31
0.0
  0
LINE
  5
31B3
330
1E
100
AcDbEntity
  8
3
100
AcDbLine
 10
5.11334165333449
 20
6.676102298568595
 30
0.0
 11
5.11334165333449
 21
6.686436944237886
 31
0.0
  0
LINE
  5
31B4
330
1E
100
AcDbEntity
  8
3
100
AcDbLine
 10
5.11334165333449
 20
6.686436944237886
 30
0.0
 11
5.11334165333449
 21
6.698247967859934
 31
0.0
  0
LINE
  5
31B5
330
1E
100
AcDbEntity
  8
3
100
AcDbLine
 10
4.05084165333449
 20
6.66724403085206
 30
0.0
 11
4.05084165333449
 21
6.669704660773319
 31
0.0
  0
LINE
  5
31B6
330
1E
100
AcDbEntity
  8
3
100
AcDbLine
 10
4.05084165333449
 20
6.669704660773319
 30
0.0
 11
4.05084165333449
 21
6.676102298568595
 31
0.0
  0
LINE
  5
31B7
330
1E
100
AcDbEntity
  8
3
100
AcDbLine
 10
4.05084165333449
 20
6.676102298568595
 30
0.0
 11
4.05084165333449
 21
6.686436944237886
 31
0.0
  0
LINE
  5
31B8
330
1E
100
AcDbEntity
  8
3
100
AcDbLine
 10
4.05084165333449
 20
6.686436944237886
 30
0.0
 11
4.05084165333449
 21
6.698247967859934
 31
0.0
  0
LINE
  5
31B9
330
1E
100
AcDbEntity
  8
3
100
AcDbLine
 10
4.05084165333449
 20
7.225807022978044
 30
0.0
 11
4.05084165333449
 21
7.237618046600092
 31
0.0
  0
LINE
  5
31BA
330
1E
100
AcDbEntity
  8
3
100
AcDbLine
 10
4.05084165333449
 20
7.237618046600092
 30
0.0
 11
4.05084165333449
 21
7.247952692269382
 31
0.0
  0
LINE
  5
31BB
330
1E
100
AcDbEntity
  8
3
100
AcDbLine
 10
4.05084165333449
 20
7.247952692269382
 30
0.0
 11
4.05084165333449
 21
7.25484245604891
 31
0.0
  0
LINE
  5
31BC
330
1E
100
AcDbEntity
  8
3
100
AcDbLine
 10
4.05084165333449
 20
7.25484245604891
 30
0.0
 11
4.05084165333449
 21
7.25730308597017
 31
0.0
  0
LINE
  5
31BD
330
1E
100
AcDbEntity
  8
3
100
AcDbLine
 10
4.11334165333449
 20
7.225807022978044
 30
0.0
 11
4.11334165333449
 21
7.237618046600092
 31
0.0
  0
LINE
  5
31BE
330
1E
100
AcDbEntity
  8
3
100
AcDbLine
 10
4.11334165333449
 20
7.237618046600092
 30
0.0
 11
4.11334165333449
 21
7.247952692269382
 31
0.0
  0
LINE
  5
31BF
330
1E
100
AcDbEntity
  8
3
100
AcDbLine
 10
4.11334165333449
 20
7.247952692269382
 30
0.0
 11
4.11334165333449
 21
7.25484245604891
 31
0.0
  0
LINE
  5
31C0
330
1E
100
AcDbEntity
  8
3
100
AcDbLine
 10
4.11334165333449
 20
7.25484245604891
 30
0.0
 11
4.11334165333449
 21
7.25730308597017
 31
0.0
  0
LINE
  5
31C1
330
1E
100
AcDbEntity
  8
3
100
AcDbLine
 10
5.11334165333449
 20
7.225807022978044
 30
0.0
 11
5.11334165333449
 21
7.237618046600092
 31
0.0
  0
LINE
  5
31C2
330
1E
100
AcDbEntity
  8
3
100
AcDbLine
 10
5.11334165333449
 20
7.237618046600092
 30
0.0
 11
5.11334165333449
 21
7.247952692269382
 31
0.0
  0
LINE
  5
31C3
330
1E
100
AcDbEntity
  8
3
100
AcDbLine
 10
5.11334165333449
 20
7.247952692269382
 30
0.0
 11
5.11334165333449
 21
7.25484245604891
 31
0.0
  0
LINE
  5
31C4
330
1E
100
AcDbEntity
  8
3
100
AcDbLine
 10
5.11334165333449
 20
7.25484245604891
 30
0.0
 11
5.11334165333449
 21
7.25730308597017
 31
0.0
  0
LINE
  5
31C5
330
1E
100
AcDbEntity
  8
3
100
AcDbLine
 10
5.17584165333449
 20
7.225807022978044
 30
0.0
 11
5.17584165333449
 21
7.237618046600092
 31
0.0
  0
LINE
  5
31C6
330
1E
100
AcDbEntity
  8
3
100
AcDbLine
 10
5.17584165333449
 20
7.237618046600092
 30
0.0
 11
5.17584165333449
 21
7.247952692269382
 31
0.0
  0
LINE
  5
31C7
330
1E
100
AcDbEntity
  8
3
100
AcDbLine
 10
5.17584165333449
 20
7.247952692269382
 30
0.0
 11
5.17584165333449
 21
7.25484245604891
 31
0.0
  0
LINE
  5
31C8
330
1E
100
AcDbEntity
  8
3
100
AcDbLine
 10
5.17584165333449
 20
7.25484245604891
 30
0.0
 11
5.17584165333449
 21
7.25730308597017
 31
0.0
  0
LINE
  5
31C9
330
1E
100
AcDbEntity
  8
3
100
AcDbLine
 10
5.17584165333449
 20
6.66724403085206
 30
0.0
 11
5.17584165333449
 21
6.669704660773319
 31
0.0
  0
LINE
  5
31CA
330
1E
100
AcDbEntity
  8
3
100
AcDbLine
 10
5.17584165333449
 20
6.669704660773319
 30
0.0
 11
5.17584165333449
 21
6.676102298568595
 31
0.0
  0
LINE
  5
31CB
330
1E
100
AcDbEntity
  8
3
100
AcDbLine
 10
5.17584165333449
 20
6.676102298568595
 30
0.0
 11
5.17584165333449
 21
6.686436944237886
 31
0.0
  0
LINE
  5
31CC
330
1E
100
AcDbEntity
  8
3
100
AcDbLine
 10
5.17584165333449
 20
6.686436944237886
 30
0.0
 11
5.17584165333449
 21
6.698247967859934
 31
0.0
  0
LINE
  5
31CD
330
1E
100
AcDbEntity
  8
3
100
AcDbLine
 10
4.11334165333449
 20
6.66724403085206
 30
0.0
 11
4.11334165333449
 21
6.669704660773319
 31
0.0
  0
LINE
  5
31CE
330
1E
100
AcDbEntity
  8
3
100
AcDbLine
 10
4.11334165333449
 20
6.669704660773319
 30
0.0
 11
4.11334165333449
 21
6.676102298568595
 31
0.0
  0
LINE
  5
31CF
330
1E
100
AcDbEntity
  8
3
100
AcDbLine
 10
4.11334165333449
 20
6.676102298568595
 30
0.0
 11
4.11334165333449
 21
6.686436944237886
 31
0.0
  0
LINE
  5
31D0
330
1E
100
AcDbEntity
  8
3
100
AcDbLine
 10
4.11334165333449
 20
6.686436944237886
 30
0.0
 11
4.11334165333449
 21
6.698247967859934
 31
0.0
  0
LINE
  5
31D1
330
1E
100
AcDbEntity
  8
3
100
AcDbLine
 10
4.207337716326616
 20
6.351791274946548
 30
0.0
 11
4.188636928925042
 21
6.351791274946548
 31
0.0
  0
LINE
  5
31D2
330
1E
100
AcDbEntity
  8
3
100
AcDbLine
 10
4.188636928925042
 20
6.351791274946548
 30
0.0
 11
4.171904645460475
 21
6.351791274946548
 31
0.0
  0
LINE
  5
31D3
330
1E
100
AcDbEntity
  8
3
100
AcDbLine
 10
4.171904645460475
 20
6.351791274946548
 30
0.0
 11
4.15812511790142
 21
6.351791274946548
 31
0.0
  0
LINE
  5
31D4
330
1E
100
AcDbEntity
  8
3
100
AcDbLine
 10
4.207337716326616
 20
6.445787337938674
 30
0.0
 11
4.191097558846301
 21
6.445787337938674
 31
0.0
  0
LINE
  5
31D5
330
1E
100
AcDbEntity
  8
3
100
AcDbLine
 10
4.191097558846301
 20
6.445787337938674
 30
0.0
 11
4.17584165333449
 21
6.445787337938674
 31
0.0
  0
LINE
  5
31D6
330
1E
100
AcDbEntity
  8
3
100
AcDbLine
 10
4.17584165333449
 20
6.445787337938674
 30
0.0
 11
4.163046377743939
 21
6.445787337938674
 31
0.0
  0
LINE
  5
31D7
330
1E
100
AcDbEntity
  8
3
100
AcDbLine
 10
4.163046377743939
 20
6.445787337938674
 30
0.0
 11
4.153203858058899
 21
6.445787337938674
 31
0.0
  0
LINE
  5
31D8
330
1E
100
AcDbEntity
  8
3
100
AcDbLine
 10
4.153203858058899
 20
6.445787337938674
 30
0.0
 11
4.146806220263624
 21
6.445787337938674
 31
0.0
  0
LINE
  5
31D9
330
1E
100
AcDbEntity
  8
3
100
AcDbLine
 10
4.146806220263624
 20
6.445787337938674
 30
0.0
 11
4.144837716326616
 21
6.445787337938674
 31
0.0
  0
LINE
  5
31DA
330
1E
100
AcDbEntity
  8
3
100
AcDbLine
 10
5.019837716326616
 20
6.351791274946548
 30
0.0
 11
5.035585747822679
 21
6.351791274946548
 31
0.0
  0
LINE
  5
31DB
330
1E
100
AcDbEntity
  8
3
100
AcDbLine
 10
5.035585747822679
 20
6.351791274946548
 30
0.0
 11
5.050349527350238
 21
6.351791274946548
 31
0.0
  0
LINE
  5
31DC
330
1E
100
AcDbEntity
  8
3
100
AcDbLine
 10
5.050349527350238
 20
6.351791274946548
 30
0.0
 11
5.062652676956538
 21
6.351791274946548
 31
0.0
  0
LINE
  5
31DD
330
1E
100
AcDbEntity
  8
3
100
AcDbLine
 10
5.019837716326616
 20
6.445787337938674
 30
0.0
 11
5.036077873806931
 21
6.445787337938674
 31
0.0
  0
LINE
  5
31DE
330
1E
100
AcDbEntity
  8
3
100
AcDbLine
 10
5.036077873806931
 20
6.445787337938674
 30
0.0
 11
5.051333779318742
 21
6.445787337938674
 31
0.0
  0
LINE
  5
31DF
330
1E
100
AcDbEntity
  8
3
100
AcDbLine
 10
5.051333779318742
 20
6.445787337938674
 30
0.0
 11
5.064129054909294
 21
6.445787337938674
 31
0.0
  0
LINE
  5
31E0
330
1E
100
AcDbEntity
  8
3
100
AcDbLine
 10
5.064129054909294
 20
6.445787337938674
 30
0.0
 11
5.073971574594333
 21
6.445787337938674
 31
0.0
  0
LINE
  5
31E1
330
1E
100
AcDbEntity
  8
3
100
AcDbLine
 10
5.073971574594333
 20
6.445787337938674
 30
0.0
 11
5.080369212389609
 21
6.445787337938674
 31
0.0
  0
LINE
  5
31E2
330
1E
100
AcDbEntity
  8
3
100
AcDbLine
 10
5.080369212389609
 20
6.445787337938674
 30
0.0
 11
5.082337716326616
 21
6.445787337938674
 31
0.0
  0
LINE
  5
31E3
330
1E
100
AcDbEntity
  8
3
100
AcDbLine
 10
4.925349527350238
 20
6.289291274946548
 30
0.0
 11
4.913538503728191
 21
6.289291274946548
 31
0.0
  0
LINE
  5
31E4
330
1E
100
AcDbEntity
  8
3
100
AcDbLine
 10
4.913538503728191
 20
6.289291274946548
 30
0.0
 11
4.903695984043151
 21
6.289291274946548
 31
0.0
  0
LINE
  5
31E5
330
1E
100
AcDbEntity
  8
3
100
AcDbLine
 10
4.903695984043151
 20
6.289291274946548
 30
0.0
 11
4.896806220263624
 21
6.289291274946548
 31
0.0
  0
LINE
  5
31E6
330
1E
100
AcDbEntity
  8
3
100
AcDbLine
 10
4.896806220263624
 20
6.289291274946548
 30
0.0
 11
4.894345590342364
 21
6.289291274946548
 31
0.0
  0
LINE
  5
31E7
330
1E
100
AcDbEntity
  8
3
100
AcDbLine
 10
4.956845590342364
 20
6.289291274946548
 30
0.0
 11
4.954384960421105
 21
6.289291274946548
 31
0.0
  0
LINE
  5
31E8
330
1E
100
AcDbEntity
  8
3
100
AcDbLine
 10
4.954384960421105
 20
6.289291274946548
 30
0.0
 11
4.947495196641577
 21
6.289291274946548
 31
0.0
  0
LINE
  5
31E9
330
1E
100
AcDbEntity
  8
3
100
AcDbLine
 10
4.947495196641577
 20
6.289291274946548
 30
0.0
 11
4.937652676956538
 21
6.289291274946548
 31
0.0
  0
LINE
  5
31EA
330
1E
100
AcDbEntity
  8
3
100
AcDbLine
 10
4.937652676956538
 20
6.289291274946548
 30
0.0
 11
4.925349527350238
 21
6.289291274946548
 31
0.0
  0
LINE
  5
31EB
330
1E
100
AcDbEntity
  8
3
100
AcDbLine
 10
4.956845590342364
 20
6.351791274946548
 30
0.0
 11
4.954384960421105
 21
6.351791274946548
 31
0.0
  0
LINE
  5
31EC
330
1E
100
AcDbEntity
  8
3
100
AcDbLine
 10
4.954384960421105
 20
6.351791274946548
 30
0.0
 11
4.947495196641577
 21
6.351791274946548
 31
0.0
  0
LINE
  5
31ED
330
1E
100
AcDbEntity
  8
3
100
AcDbLine
 10
4.947495196641577
 20
6.351791274946548
 30
0.0
 11
4.937652676956538
 21
6.351791274946548
 31
0.0
  0
LINE
  5
31EE
330
1E
100
AcDbEntity
  8
3
100
AcDbLine
 10
4.937652676956538
 20
6.351791274946548
 30
0.0
 11
4.925349527350238
 21
6.351791274946548
 31
0.0
  0
LINE
  5
31EF
330
1E
100
AcDbEntity
  8
3
100
AcDbLine
 10
4.925349527350238
 20
6.351791274946548
 30
0.0
 11
4.913538503728191
 21
6.351791274946548
 31
0.0
  0
LINE
  5
31F0
330
1E
100
AcDbEntity
  8
3
100
AcDbLine
 10
4.913538503728191
 20
6.351791274946548
 30
0.0
 11
4.903695984043151
 21
6.351791274946548
 31
0.0
  0
LINE
  5
31F1
330
1E
100
AcDbEntity
  8
3
100
AcDbLine
 10
4.903695984043151
 20
6.351791274946548
 30
0.0
 11
4.896806220263624
 21
6.351791274946548
 31
0.0
  0
LINE
  5
31F2
330
1E
100
AcDbEntity
  8
3
100
AcDbLine
 10
4.896806220263624
 20
6.351791274946548
 30
0.0
 11
4.894345590342364
 21
6.351791274946548
 31
0.0
  0
LINE
  5
31F3
330
1E
100
AcDbEntity
  8
3
100
AcDbLine
 10
4.332829842310868
 20
6.289291274946548
 30
0.0
 11
4.330369212389609
 21
6.289291274946548
 31
0.0
  0
LINE
  5
31F4
330
1E
100
AcDbEntity
  8
3
100
AcDbLine
 10
4.330369212389609
 20
6.289291274946548
 30
0.0
 11
4.323479448610081
 21
6.289291274946548
 31
0.0
  0
LINE
  5
31F5
330
1E
100
AcDbEntity
  8
3
100
AcDbLine
 10
4.323479448610081
 20
6.289291274946548
 30
0.0
 11
4.313636928925042
 21
6.289291274946548
 31
0.0
  0
LINE
  5
31F6
330
1E
100
AcDbEntity
  8
3
100
AcDbLine
 10
4.313636928925042
 20
6.289291274946548
 30
0.0
 11
4.301333779318742
 21
6.289291274946548
 31
0.0
  0
LINE
  5
31F7
330
1E
100
AcDbEntity
  8
3
100
AcDbLine
 10
4.301333779318742
 20
6.289291274946548
 30
0.0
 11
4.289522755696696
 21
6.289291274946548
 31
0.0
  0
LINE
  5
31F8
330
1E
100
AcDbEntity
  8
3
100
AcDbLine
 10
4.289522755696696
 20
6.289291274946548
 30
0.0
 11
4.279680236011656
 21
6.289291274946548
 31
0.0
  0
LINE
  5
31F9
330
1E
100
AcDbEntity
  8
3
100
AcDbLine
 10
4.279680236011656
 20
6.289291274946548
 30
0.0
 11
4.272790472232128
 21
6.289291274946548
 31
0.0
  0
LINE
  5
31FA
330
1E
100
AcDbEntity
  8
3
100
AcDbLine
 10
4.272790472232128
 20
6.289291274946548
 30
0.0
 11
4.270329842310868
 21
6.289291274946548
 31
0.0
  0
LINE
  5
31FB
330
1E
100
AcDbEntity
  8
3
100
AcDbLine
 10
4.323479448610081
 20
6.351791274946548
 30
0.0
 11
4.313636928925042
 21
6.351791274946548
 31
0.0
  0
LINE
  5
31FC
330
1E
100
AcDbEntity
  8
3
100
AcDbLine
 10
4.313636928925042
 20
6.351791274946548
 30
0.0
 11
4.301333779318742
 21
6.351791274946548
 31
0.0
  0
LINE
  5
31FD
330
1E
100
AcDbEntity
  8
3
100
AcDbLine
 10
4.301333779318742
 20
6.351791274946548
 30
0.0
 11
4.289522755696696
 21
6.351791274946548
 31
0.0
  0
LINE
  5
31FE
330
1E
100
AcDbEntity
  8
3
100
AcDbLine
 10
4.289522755696696
 20
6.351791274946548
 30
0.0
 11
4.279680236011656
 21
6.351791274946548
 31
0.0
  0
LINE
  5
31FF
330
1E
100
AcDbEntity
  8
3
100
AcDbLine
 10
4.279680236011656
 20
6.351791274946548
 30
0.0
 11
4.272790472232128
 21
6.351791274946548
 31
0.0
  0
LINE
  5
3200
330
1E
100
AcDbEntity
  8
3
100
AcDbLine
 10
4.272790472232128
 20
6.351791274946548
 30
0.0
 11
4.270329842310868
 21
6.351791274946548
 31
0.0
  0
LINE
  5
3201
330
1E
100
AcDbEntity
  8
3
100
AcDbLine
 10
4.332829842310868
 20
6.351791274946548
 30
0.0
 11
4.330369212389609
 21
6.351791274946548
 31
0.0
  0
LINE
  5
3202
330
1E
100
AcDbEntity
  8
3
100
AcDbLine
 10
4.330369212389609
 20
6.351791274946548
 30
0.0
 11
4.323479448610081
 21
6.351791274946548
 31
0.0
  0
LINE
  5
3203
330
1E
100
AcDbEntity
  8
3
100
AcDbLine
 10
5.11334165333449
 20
6.448247967859934
 30
0.0
 11
5.11334165333449
 21
6.460058991481981
 31
0.0
  0
LINE
  5
3204
330
1E
100
AcDbEntity
  8
3
100
AcDbLine
 10
5.11334165333449
 20
6.460058991481981
 30
0.0
 11
5.11334165333449
 21
6.470393637151273
 31
0.0
  0
LINE
  5
3205
330
1E
100
AcDbEntity
  8
3
100
AcDbLine
 10
5.11334165333449
 20
6.470393637151273
 30
0.0
 11
5.11334165333449
 21
6.4772834009308
 31
0.0
  0
LINE
  5
3206
330
1E
100
AcDbEntity
  8
3
100
AcDbLine
 10
5.11334165333449
 20
6.4772834009308
 30
0.0
 11
5.11334165333449
 21
6.47974403085206
 31
0.0
  0
LINE
  5
3207
330
1E
100
AcDbEntity
  8
3
100
AcDbLine
 10
4.05084165333449
 20
6.448247967859934
 30
0.0
 11
4.05084165333449
 21
6.460058991481981
 31
0.0
  0
LINE
  5
3208
330
1E
100
AcDbEntity
  8
3
100
AcDbLine
 10
4.05084165333449
 20
6.460058991481981
 30
0.0
 11
4.05084165333449
 21
6.470393637151273
 31
0.0
  0
LINE
  5
3209
330
1E
100
AcDbEntity
  8
3
100
AcDbLine
 10
4.05084165333449
 20
6.470393637151273
 30
0.0
 11
4.05084165333449
 21
6.4772834009308
 31
0.0
  0
LINE
  5
320A
330
1E
100
AcDbEntity
  8
3
100
AcDbLine
 10
4.05084165333449
 20
6.4772834009308
 30
0.0
 11
4.05084165333449
 21
6.47974403085206
 31
0.0
  0
LINE
  5
320B
330
1E
100
AcDbEntity
  8
3
100
AcDbLine
 10
5.17584165333449
 20
6.448247967859934
 30
0.0
 11
5.17584165333449
 21
6.460058991481981
 31
0.0
  0
LINE
  5
320C
330
1E
100
AcDbEntity
  8
3
100
AcDbLine
 10
5.17584165333449
 20
6.460058991481981
 30
0.0
 11
5.17584165333449
 21
6.470393637151273
 31
0.0
  0
LINE
  5
320D
330
1E
100
AcDbEntity
  8
3
100
AcDbLine
 10
5.17584165333449
 20
6.470393637151273
 30
0.0
 11
5.17584165333449
 21
6.4772834009308
 31
0.0
  0
LINE
  5
320E
330
1E
100
AcDbEntity
  8
3
100
AcDbLine
 10
4.11334165333449
 20
6.448247967859934
 30
0.0
 11
4.11334165333449
 21
6.460058991481981
 31
0.0
  0
LINE
  5
320F
330
1E
100
AcDbEntity
  8
3
100
AcDbLine
 10
4.11334165333449
 20
6.460058991481981
 30
0.0
 11
4.11334165333449
 21
6.470393637151273
 31
0.0
  0
LINE
  5
3210
330
1E
100
AcDbEntity
  8
3
100
AcDbLine
 10
4.11334165333449
 20
6.470393637151273
 30
0.0
 11
4.11334165333449
 21
6.4772834009308
 31
0.0
  0
LINE
  5
3211
330
1E
100
AcDbEntity
  8
3
100
AcDbLine
 10
4.11334165333449
 20
6.4772834009308
 30
0.0
 11
4.11334165333449
 21
6.47974403085206
 31
0.0
  0
LINE
  5
3212
330
1E
100
AcDbEntity
  8
3
100
AcDbLine
 10
5.129089684830553
 20
6.2897834009308
 30
0.0
 11
5.143361338373861
 21
6.29224403085206
 31
0.0
  0
LINE
  5
3213
330
1E
100
AcDbEntity
  8
3
100
AcDbLine
 10
5.143361338373861
 20
6.29224403085206
 30
0.0
 11
5.156648739948664
 21
6.298641668647336
 31
0.0
  0
LINE
  5
3214
330
1E
100
AcDbEntity
  8
3
100
AcDbLine
 10
5.156648739948664
 20
6.298641668647336
 30
0.0
 11
5.166983385617955
 21
6.308976314316627
 31
0.0
  0
LINE
  5
3215
330
1E
100
AcDbEntity
  8
3
100
AcDbLine
 10
5.166983385617955
 20
6.308976314316627
 30
0.0
 11
5.173381023413231
 21
6.32226371589143
 31
0.0
  0
LINE
  5
3216
330
1E
100
AcDbEntity
  8
3
100
AcDbLine
 10
5.173381023413231
 20
6.32226371589143
 30
0.0
 11
5.17584165333449
 21
6.336535369434737
 31
0.0
  0
LINE
  5
3217
330
1E
100
AcDbEntity
  8
3
100
AcDbLine
 10
4.051333779318742
 20
6.336535369434737
 30
0.0
 11
4.053794409240002
 21
6.32226371589143
 31
0.0
  0
LINE
  5
3218
330
1E
100
AcDbEntity
  8
3
100
AcDbLine
 10
4.053794409240002
 20
6.32226371589143
 30
0.0
 11
4.060192047035278
 21
6.308976314316627
 31
0.0
  0
LINE
  5
3219
330
1E
100
AcDbEntity
  8
3
100
AcDbLine
 10
4.060192047035278
 20
6.308976314316627
 30
0.0
 11
4.07052669270457
 21
6.298641668647336
 31
0.0
  0
LINE
  5
321A
330
1E
100
AcDbEntity
  8
3
100
AcDbLine
 10
4.07052669270457
 20
6.298641668647336
 30
0.0
 11
4.083814094279373
 21
6.29224403085206
 31
0.0
  0
LINE
  5
321B
330
1E
100
AcDbEntity
  8
3
100
AcDbLine
 10
4.083814094279373
 20
6.29224403085206
 30
0.0
 11
4.098085747822679
 21
6.2897834009308
 31
0.0
  0
ENDSEC
  0
SECTION
  2
OBJECTS
  0
DICTIONARY
  5
C
330
0
100
AcDbDictionary
  3
ACAD_GROUP
350
D
  3
ACAD_LAYOUT
350
19
  3
ACAD_MLINESTYLE
350
16
  3
ACAD_PLOTSETTINGS
350
18
1001
ACAD
1000
TREAT_AS_HARD
1070
     0
  0
DICTIONARY
  5
321D
330
1E
100
AcDbDictionary
  3
ACAD_LAYOUTSELFREF
350
32A1
1001
ACAD
1000
TREAT_AS_HARD
1070
     1
  0
DICTIONARY
  5
321F
330
1A
100
AcDbDictionary
  3
ACAD_LAYOUTSELFREF
350
32A0
1001
ACAD
1000
TREAT_AS_HARD
1070
     1
  0
DICTIONARY
  5
D
102
{ACAD_REACTORS
330
C
102
}
330
C
100
AcDbDictionary
1001
ACAD
1000
TREAT_AS_HARD
1070
     0
  0
DICTIONARY
  5
19
102
{ACAD_REACTORS
330
C
102
}
330
C
100
AcDbDictionary
1001
ACAD
1000
TREAT_AS_HARD
1070
     0
  0
DICTIONARY
  5
16
102
{ACAD_REACTORS
330
C
102
}
330
C
100
AcDbDictionary
  3
STANDARD
350
17
1001
ACAD
1000
TREAT_AS_HARD
1070
     0
  0
DICTIONARY
  5
18
102
{ACAD_REACTORS
330
C
102
}
330
C
100
AcDbDictionary
1001
ACAD
1000
TREAT_AS_HARD
1070
     0
  0
XRECORD
  5
32A1
102
{ACAD_REACTORS
330
321D
102
}
330
321D
100
AcDbXrecord
340
1E
  0
XRECORD
  5
32A0
102
{ACAD_REACTORS
330
321F
102
}
330
321F
100
AcDbXrecord
340
1A
  0
MLINESTYLE
  5
17
102
{ACAD_REACTORS
330
16
102
}
330
16
100
AcDbMlineStyle
  2
STANDARD
 70
     0
  3

 62
   256
 51
90.0
 52
90.0
 71
     2
 49
0.5
 62
   256
  6
BYLAYER
 49
-0.5
 62
   256
  6
BYLAYER
  0
ENDSEC
  0
EOF
