  0
SECTION
  2
HEADER
  9
$ACADVER
  1
AC1012
  9
$DWGCODEPAGE
  3
ANSI_1252
  9
$INSBASE
 10
0.0
 20
0.0
 30
0.0
  9
$EXTMIN
 10
-1.15251989608777
 20
3.190589250046722
 30
0.0
  9
$EXTMAX
 10
6.052204513361042
 20
7.694526257920735
 30
0.0
  9
$LIMMIN
 10
0.0
 20
0.0
  9
$LIMMAX
 10
12.0
 20
9.0
  9
$ORTHOMODE
 70
     0
  9
$REGENMODE
 70
     1
  9
$FILLMODE
 70
     1
  9
$QTEXTMODE
 70
     0
  9
$MIRRTEXT
 70
     1
  9
$DRAGMODE
 70
     2
  9
$LTSCALE
 40
1.0
  9
$OSMODE
 70
   547
  9
$ATTMODE
 70
     1
  9
$TEXTSIZE
 40
0.2
  9
$TRACEWID
 40
0.05
  9
$TEXTSTYLE
  7
STANDARD
  9
$CLAYER
  8
0
  9
$CELTYPE
  6
BYLAYER
  9
$CECOLOR
 62
   256
  9
$CELTSCALE
 40
1.0
  9
$DELOBJ
 70
     1
  9
$DISPSILH
 70
     0
  9
$DIMSCALE
 40
1.0
  9
$DIMASZ
 40
0.18
  9
$DIMEXO
 40
0.0625
  9
$DIMDLI
 40
0.38
  9
$DIMRND
 40
0.0
  9
$DIMDLE
 40
0.0
  9
$DIMEXE
 40
0.18
  9
$DIMTP
 40
0.0
  9
$DIMTM
 40
0.0
  9
$DIMTXT
 40
0.18
  9
$DIMCEN
 40
0.09
  9
$DIMTSZ
 40
0.0
  9
$DIMTOL
 70
     0
  9
$DIMLIM
 70
     0
  9
$DIMTIH
 70
     1
  9
$DIMTOH
 70
     1
  9
$DIMSE1
 70
     0
  9
$DIMSE2
 70
     0
  9
$DIMTAD
 70
     0
  9
$DIMZIN
 70
     0
  9
$DIMBLK
  1

  9
$DIMASO
 70
     1
  9
$DIMSHO
 70
     1
  9
$DIMPOST
  1

  9
$DIMAPOST
  1

  9
$DIMALT
 70
     0
  9
$DIMALTD
 70
     2
  9
$DIMALTF
 40
25.4
  9
$DIMLFAC
 40
1.0
  9
$DIMTOFL
 70
     0
  9
$DIMTVP
 40
0.0
  9
$DIMTIX
 70
     0
  9
$DIMSOXD
 70
     0
  9
$DIMSAH
 70
     0
  9
$DIMBLK1
  1

  9
$DIMBLK2
  1

  9
$DIMSTYLE
  2
STANDARD
  9
$DIMCLRD
 70
     0
  9
$DIMCLRE
 70
     0
  9
$DIMCLRT
 70
     0
  9
$DIMTFAC
 40
1.0
  9
$DIMGAP
 40
0.09
  9
$DIMJUST
 70
     0
  9
$DIMSD1
 70
     0
  9
$DIMSD2
 70
     0
  9
$DIMTOLJ
 70
     1
  9
$DIMTZIN
 70
     0
  9
$DIMALTZ
 70
     0
  9
$DIMALTTZ
 70
     0
  9
$DIMFIT
 70
     5
  9
$DIMUPT
 70
     0
  9
$DIMUNIT
 70
     2
  9
$DIMDEC
 70
     4
  9
$DIMTDEC
 70
     4
  9
$DIMALTU
 70
     2
  9
$DIMALTTD
 70
     2
  9
$DIMTXSTY
  7
STANDARD
  9
$DIMAUNIT
 70
     0
  9
$LUNITS
 70
     2
  9
$LUPREC
 70
     4
  9
$SKETCHINC
 40
0.1
  9
$FILLETRAD
 40
0.0
  9
$AUNITS
 70
     0
  9
$AUPREC
 70
     0
  9
$MENU
  1
acad
  9
$ELEVATION
 40
0.0
  9
$PELEVATION
 40
0.0
  9
$THICKNESS
 40
0.0
  9
$LIMCHECK
 70
     0
  9
$BLIPMODE
 70
     0
  9
$CHAMFERA
 40
0.0
  9
$CHAMFERB
 40
0.0
  9
$CHAMFERC
 40
0.0
  9
$CHAMFERD
 40
0.0
  9
$SKPOLY
 70
     0
  9
$TDCREATE
 40
2452569.419074074
  9
$TDUPDATE
 40
2453776.651640254
  9
$TDINDWG
 40
0.0033173264
  9
$TDUSRTIMER
 40
0.0033173264
  9
$USRTIMER
 70
     1
  9
$ANGBASE
 50
0.0
  9
$ANGDIR
 70
     0
  9
$PDMODE
 70
     0
  9
$PDSIZE
 40
0.0
  9
$PLINEWID
 40
0.0
  9
$COORDS
 70
     1
  9
$SPLFRAME
 70
     0
  9
$SPLINETYPE
 70
     6
  9
$SPLINESEGS
 70
     8
  9
$ATTDIA
 70
     0
  9
$ATTREQ
 70
     1
  9
$HANDLING
 70
  4097
  9
$HANDSEED
  5
46C0
  9
$SURFTAB1
 70
     6
  9
$SURFTAB2
 70
     6
  9
$SURFTYPE
 70
     6
  9
$SURFU
 70
     6
  9
$SURFV
 70
     6
  9
$UCSNAME
  2

  9
$UCSORG
 10
0.0
 20
0.0
 30
0.0
  9
$UCSXDIR
 10
1.0
 20
0.0
 30
0.0
  9
$UCSYDIR
 10
0.0
 20
1.0
 30
0.0
  9
$PUCSNAME
  2

  9
$PUCSORG
 10
0.0
 20
0.0
 30
0.0
  9
$PUCSXDIR
 10
1.0
 20
0.0
 30
0.0
  9
$PUCSYDIR
 10
0.0
 20
1.0
 30
0.0
  9
$USERI1
 70
     0
  9
$USERI2
 70
     0
  9
$USERI3
 70
     0
  9
$USERI4
 70
     0
  9
$USERI5
 70
     0
  9
$USERR1
 40
0.0
  9
$USERR2
 40
0.0
  9
$USERR3
 40
0.0
  9
$USERR4
 40
0.0
  9
$USERR5
 40
0.0
  9
$WORLDVIEW
 70
     1
  9
$SHADEDGE
 70
     3
  9
$SHADEDIF
 70
    70
  9
$TILEMODE
 70
     1
  9
$MAXACTVP
 70
    16
  9
$PINSBASE
 10
0.0
 20
0.0
 30
0.0
  9
$PLIMCHECK
 70
     0
  9
$PEXTMIN
 10
1.000000000000000E+20
 20
1.000000000000000E+20
 30
1.000000000000000E+20
  9
$PEXTMAX
 10
-1.000000000000000E+20
 20
-1.000000000000000E+20
 30
-1.000000000000000E+20
  9
$PLIMMIN
 10
0.0
 20
0.0
  9
$PLIMMAX
 10
12.0
 20
9.0
  9
$UNITMODE
 70
     0
  9
$VISRETAIN
 70
     0
  9
$PLINEGEN
 70
     0
  9
$PSLTSCALE
 70
     1
  9
$TREEDEPTH
 70
  3020
  9
$PICKSTYLE
 70
     1
  9
$CMLSTYLE
  2
STANDARD
  9
$CMLJUST
 70
     0
  9
$CMLSCALE
 40
1.0
  9
$SAVEIMAGES
 70
     1
  0
ENDSEC
  0
SECTION
  2
CLASSES
  0
CLASS
  1
ACDBDICTIONARYWDFLT
  2
AcDbDictionaryWithDefault
  3
AutoCAD 2000
 90
    32768
280
     0
281
     0
  0
CLASS
  1
ACDBPLACEHOLDER
  2
AcDbPlaceHolder
  3
AutoCAD 2000
 90
    32768
280
     0
281
     0
  0
CLASS
  1
LAYOUT
  2
AcDbLayout
  3
AutoCAD 2000
 90
    32768
280
     0
281
     0
  0
CLASS
  1
LONG_TRANSACTION
  2
AcDbLongTransaction
  3
AutoCAD 2000
 90
    32768
280
     0
281
     0
  0
CLASS
  1
LWPOLYLINE
  2
AcDbPolyline
  3
AutoCAD 2000
 90
    32768
280
     0
281
     1
  0
CLASS
  1
HATCH
  2
AcDbHatch
  3
AutoCAD 2000
 90
    32768
280
     0
281
     1
  0
CLASS
  1
XRECORD
  2
AcDbXrecord
  3
AutoCAD 2000
 90
    32768
280
     0
281
     0
  0
CLASS
  1
LONG_TRANSACTION
  2
AcDbLongTransaction
  3
AutoCAD 2000
 90
    32768
280
     0
281
     0
  0
CLASS
  1
LWPOLYLINE
  2
AcDbPolyline
  3
AutoCAD 2000
 90
    32768
280
     0
281
     1
  0
CLASS
  1
HATCH
  2
AcDbHatch
  3
AutoCAD 2000
 90
    32768
280
     0
281
     1
  0
CLASS
  1
XRECORD
  2
AcDbXrecord
  3
AutoCAD 2000
 90
    32768
280
     0
281
     0
  0
ENDSEC
  0
SECTION
  2
TABLES
  0
TABLE
  2
VPORT
  5
8
330
0
100
AcDbSymbolTable
 70
     2
  0
VPORT
  5
46BD
330
8
100
AcDbSymbolTableRecord
100
AcDbViewportTableRecord
  2
*ACTIVE
 70
     0
 10
0.0
 20
0.0
 11
1.0
 21
1.0
 12
2.719824966081263
 22
5.442764304278842
 13
0.0
 23
0.0
 14
1.0
 24
1.0
 15
0.0
 25
0.0
 16
0.0
 26
0.0
 36
1.0
 17
0.0
 27
0.0
 37
0.0
 40
4.541896671016662
 41
1.740671641791044
 42
50.0
 43
0.0
 44
0.0
 50
0.0
 51
0.0
 71
     0
 72
   100
 73
     1
 74
     1
 75
     0
 76
     0
 77
     0
 78
     0
  0
ENDTAB
  0
TABLE
  2
LTYPE
  5
5
330
0
100
AcDbSymbolTable
 70
    25
  0
LTYPE
  5
13
330
5
100
AcDbSymbolTableRecord
100
AcDbLinetypeTableRecord
  2
BYBLOCK
 70
     0
  3

 72
    65
 73
     0
 40
0.0
  0
LTYPE
  5
14
330
5
100
AcDbSymbolTableRecord
100
AcDbLinetypeTableRecord
  2
BYLAYER
 70
     0
  3

 72
    65
 73
     0
 40
0.0
  0
LTYPE
  5
15
330
5
100
AcDbSymbolTableRecord
100
AcDbLinetypeTableRecord
  2
CONTINUOUS
 70
     0
  3
Solid line
 72
    65
 73
     0
 40
0.0
  0
LTYPE
  5
22
330
5
100
AcDbSymbolTableRecord
100
AcDbLinetypeTableRecord
  2
BORDER
 70
     0
  3
__ __ . __ __ . __ __ . __ __ . __ __ . __ __ .
 72
    65
 73
     6
 40
1.75
 49
0.5
 74
     0
 49
-0.25
 74
     0
 49
0.5
 74
     0
 49
-0.25
 74
     0
 49
0.5
 74
     0
 49
-0.25
 74
     0
  0
LTYPE
  5
23
330
5
100
AcDbSymbolTableRecord
100
AcDbLinetypeTableRecord
  2
BORDER2
 70
     0
  3
__.__.__.__.__.__.__.__.__.__.__.__.__.__.__.__
 72
    65
 73
     6
 40
0.875
 49
0.25
 74
     0
 49
-0.125
 74
     0
 49
0.25
 74
     0
 49
-0.125
 74
     0
 49
0.25
 74
     0
 49
-0.125
 74
     0
  0
LTYPE
  5
24
330
5
100
AcDbSymbolTableRecord
100
AcDbLinetypeTableRecord
  2
BORDERX2
 70
     0
  3
____  ____  .  ____  ____  .  
 72
    65
 73
     6
 40
3.5
 49
1.0
 74
     0
 49
-0.5
 74
     0
 49
1.0
 74
     0
 49
-0.5
 74
     0
 49
1.0
 74
     0
 49
-0.5
 74
     0
  0
LTYPE
  5
25
330
5
100
AcDbSymbolTableRecord
100
AcDbLinetypeTableRecord
  2
CENTER
 70
     0
  3
____ _ ____ _ ____ _ ____ _ ____ _ ____ _ ____
 72
    65
 73
     4
 40
2.0
 49
1.25
 74
     0
 49
-0.25
 74
     0
 49
0.25
 74
     0
 49
-0.25
 74
     0
  0
LTYPE
  5
26
330
5
100
AcDbSymbolTableRecord
100
AcDbLinetypeTableRecord
  2
CENTER2
 70
     0
  3
____ _ ____ _ ____ _ ____ _ ____ _ ____ _ ____
 72
    65
 73
     4
 40
1.125
 49
0.75
 74
     0
 49
-0.125
 74
     0
 49
0.125
 74
     0
 49
-0.125
 74
     0
  0
LTYPE
  5
27
330
5
100
AcDbSymbolTableRecord
100
AcDbLinetypeTableRecord
  2
CENTERX2
 70
     0
  3
________  __  ________  __  ________  __  
 72
    65
 73
     4
 40
4.0
 49
2.5
 74
     0
 49
-0.5
 74
     0
 49
0.5
 74
     0
 49
-0.5
 74
     0
  0
LTYPE
  5
28
330
5
100
AcDbSymbolTableRecord
100
AcDbLinetypeTableRecord
  2
DASHDOT
 70
     0
  3
__ . __ . __ . __ . __ . __ . __ . 
 72
    65
 73
     4
 40
1.0
 49
0.5
 74
     0
 49
-0.25
 74
     0
 49
0.0
 74
     0
 49
-0.25
 74
     0
  0
LTYPE
  5
29
330
5
100
AcDbSymbolTableRecord
100
AcDbLinetypeTableRecord
  2
DASHDOT2
 70
     0
  3
_._._._._._._._._._._._._._._._.
 72
    65
 73
     4
 40
0.5
 49
0.25
 74
     0
 49
-0.125
 74
     0
 49
0.0
 74
     0
 49
-0.125
 74
     0
  0
LTYPE
  5
2A
330
5
100
AcDbSymbolTableRecord
100
AcDbLinetypeTableRecord
  2
DASHDOTX2
 70
     0
  3
____  .  ____  .  ____  .  ____  .  
 72
    65
 73
     4
 40
2.0
 49
1.0
 74
     0
 49
-0.5
 74
     0
 49
0.0
 74
     0
 49
-0.5
 74
     0
  0
LTYPE
  5
2B
330
5
100
AcDbSymbolTableRecord
100
AcDbLinetypeTableRecord
  2
DASHED
 70
     0
  3
__ __ __ __ __ __ __ __ __ __ __ __ 
 72
    65
 73
     2
 40
0.75
 49
0.5
 74
     0
 49
-0.25
 74
     0
  0
LTYPE
  5
2C
330
5
100
AcDbSymbolTableRecord
100
AcDbLinetypeTableRecord
  2
DASHED2
 70
     0
  3
_ _ _ _ _ _ _ _ _ _ _ _ _ _ _ _ _ _ 
 72
    65
 73
     2
 40
0.375
 49
0.25
 74
     0
 49
-0.125
 74
     0
  0
LTYPE
  5
2D
330
5
100
AcDbSymbolTableRecord
100
AcDbLinetypeTableRecord
  2
DASHEDX2
 70
     0
  3
____  ____  ____  ____  ____  ____  
 72
    65
 73
     2
 40
1.5
 49
1.0
 74
     0
 49
-0.5
 74
     0
  0
LTYPE
  5
2E
330
5
100
AcDbSymbolTableRecord
100
AcDbLinetypeTableRecord
  2
DIVIDE
 70
     0
  3
____ . . ____ . . ____ . . ____ . . 
 72
    65
 73
     6
 40
1.25
 49
0.5
 74
     0
 49
-0.25
 74
     0
 49
0.0
 74
     0
 49
-0.25
 74
     0
 49
0.0
 74
     0
 49
-0.25
 74
     0
  0
LTYPE
  5
2F
330
5
100
AcDbSymbolTableRecord
100
AcDbLinetypeTableRecord
  2
DIVIDE2
 70
     0
  3
__..__..__..__..__..__..__..__..__..
 72
    65
 73
     6
 40
0.625
 49
0.25
 74
     0
 49
-0.125
 74
     0
 49
0.0
 74
     0
 49
-0.125
 74
     0
 49
0.0
 74
     0
 49
-0.125
 74
     0
  0
LTYPE
  5
30
330
5
100
AcDbSymbolTableRecord
100
AcDbLinetypeTableRecord
  2
DIVIDEX2
 70
     0
  3
________  .  .  ________  .  .  ________  .  . 
 72
    65
 73
     6
 40
2.5
 49
1.0
 74
     0
 49
-0.5
 74
     0
 49
0.0
 74
     0
 49
-0.5
 74
     0
 49
0.0
 74
     0
 49
-0.5
 74
     0
  0
LTYPE
  5
31
330
5
100
AcDbSymbolTableRecord
100
AcDbLinetypeTableRecord
  2
DOT
 70
     0
  3
. . . . . . . . . . . . . . . . . . 
 72
    65
 73
     2
 40
0.25
 49
0.0
 74
     0
 49
-0.25
 74
     0
  0
LTYPE
  5
32
330
5
100
AcDbSymbolTableRecord
100
AcDbLinetypeTableRecord
  2
DOT2
 70
     0
  3
....................................
 72
    65
 73
     2
 40
0.125
 49
0.0
 74
     0
 49
-0.125
 74
     0
  0
LTYPE
  5
33
330
5
100
AcDbSymbolTableRecord
100
AcDbLinetypeTableRecord
  2
DOTX2
 70
     0
  3
.  .  .  .  .  .  .  .  .  .  .  .  .  
 72
    65
 73
     2
 40
0.5
 49
0.0
 74
     0
 49
-0.5
 74
     0
  0
LTYPE
  5
34
330
5
100
AcDbSymbolTableRecord
100
AcDbLinetypeTableRecord
  2
HIDDEN
 70
     0
  3
__ __ __ __ __ __ __ __ __ __ __ __ 
 72
    65
 73
     2
 40
0.375
 49
0.25
 74
     0
 49
-0.125
 74
     0
  0
LTYPE
  5
35
330
5
100
AcDbSymbolTableRecord
100
AcDbLinetypeTableRecord
  2
HIDDEN2
 70
     0
  3
_ _ _ _ _ _ _ _ _ _ _ _ _ _ _ _ _ _ 
 72
    65
 73
     2
 40
0.1875
 49
0.125
 74
     0
 49
-0.0625
 74
     0
  0
LTYPE
  5
36
330
5
100
AcDbSymbolTableRecord
100
AcDbLinetypeTableRecord
  2
HIDDENX2
 70
     0
  3
____ ____ ____ ____ ____ ____ ____ 
 72
    65
 73
     2
 40
0.75
 49
0.5
 74
     0
 49
-0.25
 74
     0
  0
LTYPE
  5
37
330
5
100
AcDbSymbolTableRecord
100
AcDbLinetypeTableRecord
  2
PHANTOM
 70
     0
  3
______  __  __  ______  __  __  
 72
    65
 73
     6
 40
2.5
 49
1.25
 74
     0
 49
-0.25
 74
     0
 49
0.25
 74
     0
 49
-0.25
 74
     0
 49
0.25
 74
     0
 49
-0.25
 74
     0
  0
LTYPE
  5
38
330
5
100
AcDbSymbolTableRecord
100
AcDbLinetypeTableRecord
  2
PHANTOM2
 70
     0
  3
___ _ _ ___ _ _ ___ _ _ ___ _ _ 
 72
    65
 73
     6
 40
1.25
 49
0.625
 74
     0
 49
-0.125
 74
     0
 49
0.125
 74
     0
 49
-0.125
 74
     0
 49
0.125
 74
     0
 49
-0.125
 74
     0
  0
LTYPE
  5
39
330
5
100
AcDbSymbolTableRecord
100
AcDbLinetypeTableRecord
  2
PHANTOMX2
 70
     0
  3
___ _ _ ___ _ _ ___ _ _ ___ _ _ 
 72
    65
 73
     6
 40
5.0
 49
2.5
 74
     0
 49
-0.5
 74
     0
 49
0.5
 74
     0
 49
-0.5
 74
     0
 49
0.5
 74
     0
 49
-0.5
 74
     0
  0
ENDTAB
  0
TABLE
  2
LAYER
  5
2
330
0
100
AcDbSymbolTable
 70
   257
  0
LAYER
  5
10
330
2
100
AcDbSymbolTableRecord
100
AcDbLayerTableRecord
  2
0
 70
     0
 62
     7
  6
CONTINUOUS
  0
LAYER
  5
3A
330
2
100
AcDbSymbolTableRecord
100
AcDbLayerTableRecord
  2
1
 70
     0
 62
     1
  6
CONTINUOUS
  0
LAYER
  5
3B
330
2
100
AcDbSymbolTableRecord
100
AcDbLayerTableRecord
  2
2
 70
     0
 62
     2
  6
CONTINUOUS
  0
LAYER
  5
3C
330
2
100
AcDbSymbolTableRecord
100
AcDbLayerTableRecord
  2
3
 70
     0
 62
     3
  6
CONTINUOUS
  0
LAYER
  5
3D
330
2
100
AcDbSymbolTableRecord
100
AcDbLayerTableRecord
  2
4
 70
     0
 62
     4
  6
CONTINUOUS
  0
LAYER
  5
3E
330
2
100
AcDbSymbolTableRecord
100
AcDbLayerTableRecord
  2
5
 70
     0
 62
     5
  6
CONTINUOUS
  0
LAYER
  5
3F
330
2
100
AcDbSymbolTableRecord
100
AcDbLayerTableRecord
  2
6
 70
     0
 62
     6
  6
CONTINUOUS
  0
LAYER
  5
40
330
2
100
AcDbSymbolTableRecord
100
AcDbLayerTableRecord
  2
7
 70
     0
 62
     7
  6
CONTINUOUS
  0
LAYER
  5
41
330
2
100
AcDbSymbolTableRecord
100
AcDbLayerTableRecord
  2
8
 70
     0
 62
     8
  6
CONTINUOUS
  0
LAYER
  5
42
330
2
100
AcDbSymbolTableRecord
100
AcDbLayerTableRecord
  2
9
 70
     0
 62
     9
  6
CONTINUOUS
  0
LAYER
  5
43
330
2
100
AcDbSymbolTableRecord
100
AcDbLayerTableRecord
  2
10
 70
     0
 62
    10
  6
CONTINUOUS
  0
LAYER
  5
44
330
2
100
AcDbSymbolTableRecord
100
AcDbLayerTableRecord
  2
11
 70
     0
 62
    11
  6
CONTINUOUS
  0
LAYER
  5
45
330
2
100
AcDbSymbolTableRecord
100
AcDbLayerTableRecord
  2
12
 70
     0
 62
    12
  6
CONTINUOUS
  0
LAYER
  5
46
330
2
100
AcDbSymbolTableRecord
100
AcDbLayerTableRecord
  2
13
 70
     0
 62
    13
  6
CONTINUOUS
  0
LAYER
  5
47
330
2
100
AcDbSymbolTableRecord
100
AcDbLayerTableRecord
  2
14
 70
     0
 62
    14
  6
CONTINUOUS
  0
LAYER
  5
48
330
2
100
AcDbSymbolTableRecord
100
AcDbLayerTableRecord
  2
15
 70
     0
 62
    15
  6
CONTINUOUS
  0
LAYER
  5
49
330
2
100
AcDbSymbolTableRecord
100
AcDbLayerTableRecord
  2
16
 70
     0
 62
    16
  6
CONTINUOUS
  0
LAYER
  5
4A
330
2
100
AcDbSymbolTableRecord
100
AcDbLayerTableRecord
  2
17
 70
     0
 62
    17
  6
CONTINUOUS
  0
LAYER
  5
4B
330
2
100
AcDbSymbolTableRecord
100
AcDbLayerTableRecord
  2
18
 70
     0
 62
    18
  6
CONTINUOUS
  0
LAYER
  5
4C
330
2
100
AcDbSymbolTableRecord
100
AcDbLayerTableRecord
  2
19
 70
     0
 62
    19
  6
CONTINUOUS
  0
LAYER
  5
4D
330
2
100
AcDbSymbolTableRecord
100
AcDbLayerTableRecord
  2
20
 70
     0
 62
    20
  6
CONTINUOUS
  0
LAYER
  5
4E
330
2
100
AcDbSymbolTableRecord
100
AcDbLayerTableRecord
  2
21
 70
     0
 62
    21
  6
CONTINUOUS
  0
LAYER
  5
4F
330
2
100
AcDbSymbolTableRecord
100
AcDbLayerTableRecord
  2
22
 70
     0
 62
    22
  6
CONTINUOUS
  0
LAYER
  5
50
330
2
100
AcDbSymbolTableRecord
100
AcDbLayerTableRecord
  2
23
 70
     0
 62
    23
  6
CONTINUOUS
  0
LAYER
  5
51
330
2
100
AcDbSymbolTableRecord
100
AcDbLayerTableRecord
  2
24
 70
     0
 62
    24
  6
CONTINUOUS
  0
LAYER
  5
52
330
2
100
AcDbSymbolTableRecord
100
AcDbLayerTableRecord
  2
25
 70
     0
 62
    25
  6
CONTINUOUS
  0
LAYER
  5
53
330
2
100
AcDbSymbolTableRecord
100
AcDbLayerTableRecord
  2
26
 70
     0
 62
    26
  6
CONTINUOUS
  0
LAYER
  5
54
330
2
100
AcDbSymbolTableRecord
100
AcDbLayerTableRecord
  2
27
 70
     0
 62
    27
  6
CONTINUOUS
  0
LAYER
  5
55
330
2
100
AcDbSymbolTableRecord
100
AcDbLayerTableRecord
  2
28
 70
     0
 62
    28
  6
CONTINUOUS
  0
LAYER
  5
56
330
2
100
AcDbSymbolTableRecord
100
AcDbLayerTableRecord
  2
29
 70
     0
 62
    29
  6
CONTINUOUS
  0
LAYER
  5
57
330
2
100
AcDbSymbolTableRecord
100
AcDbLayerTableRecord
  2
30
 70
     0
 62
    30
  6
CONTINUOUS
  0
LAYER
  5
58
330
2
100
AcDbSymbolTableRecord
100
AcDbLayerTableRecord
  2
31
 70
     0
 62
    31
  6
CONTINUOUS
  0
LAYER
  5
59
330
2
100
AcDbSymbolTableRecord
100
AcDbLayerTableRecord
  2
32
 70
     0
 62
    32
  6
CONTINUOUS
  0
LAYER
  5
5A
330
2
100
AcDbSymbolTableRecord
100
AcDbLayerTableRecord
  2
33
 70
     0
 62
    33
  6
CONTINUOUS
  0
LAYER
  5
5B
330
2
100
AcDbSymbolTableRecord
100
AcDbLayerTableRecord
  2
34
 70
     0
 62
    34
  6
CONTINUOUS
  0
LAYER
  5
5C
330
2
100
AcDbSymbolTableRecord
100
AcDbLayerTableRecord
  2
35
 70
     0
 62
    35
  6
CONTINUOUS
  0
LAYER
  5
5D
330
2
100
AcDbSymbolTableRecord
100
AcDbLayerTableRecord
  2
36
 70
     0
 62
    36
  6
CONTINUOUS
  0
LAYER
  5
5E
330
2
100
AcDbSymbolTableRecord
100
AcDbLayerTableRecord
  2
37
 70
     0
 62
    37
  6
CONTINUOUS
  0
LAYER
  5
5F
330
2
100
AcDbSymbolTableRecord
100
AcDbLayerTableRecord
  2
38
 70
     0
 62
    38
  6
CONTINUOUS
  0
LAYER
  5
60
330
2
100
AcDbSymbolTableRecord
100
AcDbLayerTableRecord
  2
39
 70
     0
 62
    39
  6
CONTINUOUS
  0
LAYER
  5
61
330
2
100
AcDbSymbolTableRecord
100
AcDbLayerTableRecord
  2
40
 70
     0
 62
    40
  6
CONTINUOUS
  0
LAYER
  5
62
330
2
100
AcDbSymbolTableRecord
100
AcDbLayerTableRecord
  2
41
 70
     0
 62
    41
  6
CONTINUOUS
  0
LAYER
  5
63
330
2
100
AcDbSymbolTableRecord
100
AcDbLayerTableRecord
  2
42
 70
     0
 62
    42
  6
CONTINUOUS
  0
LAYER
  5
64
330
2
100
AcDbSymbolTableRecord
100
AcDbLayerTableRecord
  2
43
 70
     0
 62
    43
  6
CONTINUOUS
  0
LAYER
  5
65
330
2
100
AcDbSymbolTableRecord
100
AcDbLayerTableRecord
  2
44
 70
     0
 62
    44
  6
CONTINUOUS
  0
LAYER
  5
66
330
2
100
AcDbSymbolTableRecord
100
AcDbLayerTableRecord
  2
45
 70
     0
 62
    45
  6
CONTINUOUS
  0
LAYER
  5
67
330
2
100
AcDbSymbolTableRecord
100
AcDbLayerTableRecord
  2
46
 70
     0
 62
    46
  6
CONTINUOUS
  0
LAYER
  5
68
330
2
100
AcDbSymbolTableRecord
100
AcDbLayerTableRecord
  2
47
 70
     0
 62
    47
  6
CONTINUOUS
  0
LAYER
  5
69
330
2
100
AcDbSymbolTableRecord
100
AcDbLayerTableRecord
  2
48
 70
     0
 62
    48
  6
CONTINUOUS
  0
LAYER
  5
6A
330
2
100
AcDbSymbolTableRecord
100
AcDbLayerTableRecord
  2
49
 70
     0
 62
    49
  6
CONTINUOUS
  0
LAYER
  5
6B
330
2
100
AcDbSymbolTableRecord
100
AcDbLayerTableRecord
  2
50
 70
     0
 62
    50
  6
CONTINUOUS
  0
LAYER
  5
6C
330
2
100
AcDbSymbolTableRecord
100
AcDbLayerTableRecord
  2
51
 70
     0
 62
    51
  6
CONTINUOUS
  0
LAYER
  5
6D
330
2
100
AcDbSymbolTableRecord
100
AcDbLayerTableRecord
  2
52
 70
     0
 62
    52
  6
CONTINUOUS
  0
LAYER
  5
6E
330
2
100
AcDbSymbolTableRecord
100
AcDbLayerTableRecord
  2
53
 70
     0
 62
    53
  6
CONTINUOUS
  0
LAYER
  5
6F
330
2
100
AcDbSymbolTableRecord
100
AcDbLayerTableRecord
  2
54
 70
     0
 62
    54
  6
CONTINUOUS
  0
LAYER
  5
70
330
2
100
AcDbSymbolTableRecord
100
AcDbLayerTableRecord
  2
55
 70
     0
 62
    55
  6
CONTINUOUS
  0
LAYER
  5
71
330
2
100
AcDbSymbolTableRecord
100
AcDbLayerTableRecord
  2
56
 70
     0
 62
    56
  6
CONTINUOUS
  0
LAYER
  5
72
330
2
100
AcDbSymbolTableRecord
100
AcDbLayerTableRecord
  2
57
 70
     0
 62
    57
  6
CONTINUOUS
  0
LAYER
  5
73
330
2
100
AcDbSymbolTableRecord
100
AcDbLayerTableRecord
  2
58
 70
     0
 62
    58
  6
CONTINUOUS
  0
LAYER
  5
74
330
2
100
AcDbSymbolTableRecord
100
AcDbLayerTableRecord
  2
59
 70
     0
 62
    59
  6
CONTINUOUS
  0
LAYER
  5
75
330
2
100
AcDbSymbolTableRecord
100
AcDbLayerTableRecord
  2
60
 70
     0
 62
    60
  6
CONTINUOUS
  0
LAYER
  5
76
330
2
100
AcDbSymbolTableRecord
100
AcDbLayerTableRecord
  2
61
 70
     0
 62
    61
  6
CONTINUOUS
  0
LAYER
  5
77
330
2
100
AcDbSymbolTableRecord
100
AcDbLayerTableRecord
  2
62
 70
     0
 62
    62
  6
CONTINUOUS
  0
LAYER
  5
78
330
2
100
AcDbSymbolTableRecord
100
AcDbLayerTableRecord
  2
63
 70
     0
 62
    63
  6
CONTINUOUS
  0
LAYER
  5
79
330
2
100
AcDbSymbolTableRecord
100
AcDbLayerTableRecord
  2
64
 70
     0
 62
    64
  6
CONTINUOUS
  0
LAYER
  5
7A
330
2
100
AcDbSymbolTableRecord
100
AcDbLayerTableRecord
  2
65
 70
     0
 62
    65
  6
CONTINUOUS
  0
LAYER
  5
7B
330
2
100
AcDbSymbolTableRecord
100
AcDbLayerTableRecord
  2
66
 70
     0
 62
    66
  6
CONTINUOUS
  0
LAYER
  5
7C
330
2
100
AcDbSymbolTableRecord
100
AcDbLayerTableRecord
  2
67
 70
     0
 62
    67
  6
CONTINUOUS
  0
LAYER
  5
7D
330
2
100
AcDbSymbolTableRecord
100
AcDbLayerTableRecord
  2
68
 70
     0
 62
    68
  6
CONTINUOUS
  0
LAYER
  5
7E
330
2
100
AcDbSymbolTableRecord
100
AcDbLayerTableRecord
  2
69
 70
     0
 62
    69
  6
CONTINUOUS
  0
LAYER
  5
7F
330
2
100
AcDbSymbolTableRecord
100
AcDbLayerTableRecord
  2
70
 70
     0
 62
    70
  6
CONTINUOUS
  0
LAYER
  5
80
330
2
100
AcDbSymbolTableRecord
100
AcDbLayerTableRecord
  2
71
 70
     0
 62
    71
  6
CONTINUOUS
  0
LAYER
  5
81
330
2
100
AcDbSymbolTableRecord
100
AcDbLayerTableRecord
  2
72
 70
     0
 62
    72
  6
CONTINUOUS
  0
LAYER
  5
82
330
2
100
AcDbSymbolTableRecord
100
AcDbLayerTableRecord
  2
73
 70
     0
 62
    73
  6
CONTINUOUS
  0
LAYER
  5
83
330
2
100
AcDbSymbolTableRecord
100
AcDbLayerTableRecord
  2
74
 70
     0
 62
    74
  6
CONTINUOUS
  0
LAYER
  5
84
330
2
100
AcDbSymbolTableRecord
100
AcDbLayerTableRecord
  2
75
 70
     0
 62
    75
  6
CONTINUOUS
  0
LAYER
  5
85
330
2
100
AcDbSymbolTableRecord
100
AcDbLayerTableRecord
  2
76
 70
     0
 62
    76
  6
CONTINUOUS
  0
LAYER
  5
86
330
2
100
AcDbSymbolTableRecord
100
AcDbLayerTableRecord
  2
77
 70
     0
 62
    77
  6
CONTINUOUS
  0
LAYER
  5
87
330
2
100
AcDbSymbolTableRecord
100
AcDbLayerTableRecord
  2
78
 70
     0
 62
    78
  6
CONTINUOUS
  0
LAYER
  5
88
330
2
100
AcDbSymbolTableRecord
100
AcDbLayerTableRecord
  2
79
 70
     0
 62
    79
  6
CONTINUOUS
  0
LAYER
  5
89
330
2
100
AcDbSymbolTableRecord
100
AcDbLayerTableRecord
  2
80
 70
     0
 62
    80
  6
CONTINUOUS
  0
LAYER
  5
8A
330
2
100
AcDbSymbolTableRecord
100
AcDbLayerTableRecord
  2
81
 70
     0
 62
    81
  6
CONTINUOUS
  0
LAYER
  5
8B
330
2
100
AcDbSymbolTableRecord
100
AcDbLayerTableRecord
  2
82
 70
     0
 62
    82
  6
CONTINUOUS
  0
LAYER
  5
8C
330
2
100
AcDbSymbolTableRecord
100
AcDbLayerTableRecord
  2
83
 70
     0
 62
    83
  6
CONTINUOUS
  0
LAYER
  5
8D
330
2
100
AcDbSymbolTableRecord
100
AcDbLayerTableRecord
  2
84
 70
     0
 62
    84
  6
CONTINUOUS
  0
LAYER
  5
8E
330
2
100
AcDbSymbolTableRecord
100
AcDbLayerTableRecord
  2
85
 70
     0
 62
    85
  6
CONTINUOUS
  0
LAYER
  5
8F
330
2
100
AcDbSymbolTableRecord
100
AcDbLayerTableRecord
  2
86
 70
     0
 62
    86
  6
CONTINUOUS
  0
LAYER
  5
90
330
2
100
AcDbSymbolTableRecord
100
AcDbLayerTableRecord
  2
87
 70
     0
 62
    87
  6
CONTINUOUS
  0
LAYER
  5
91
330
2
100
AcDbSymbolTableRecord
100
AcDbLayerTableRecord
  2
88
 70
     0
 62
    88
  6
CONTINUOUS
  0
LAYER
  5
92
330
2
100
AcDbSymbolTableRecord
100
AcDbLayerTableRecord
  2
89
 70
     0
 62
    89
  6
CONTINUOUS
  0
LAYER
  5
93
330
2
100
AcDbSymbolTableRecord
100
AcDbLayerTableRecord
  2
90
 70
     0
 62
    90
  6
CONTINUOUS
  0
LAYER
  5
94
330
2
100
AcDbSymbolTableRecord
100
AcDbLayerTableRecord
  2
91
 70
     0
 62
    91
  6
CONTINUOUS
  0
LAYER
  5
95
330
2
100
AcDbSymbolTableRecord
100
AcDbLayerTableRecord
  2
92
 70
     0
 62
    92
  6
CONTINUOUS
  0
LAYER
  5
96
330
2
100
AcDbSymbolTableRecord
100
AcDbLayerTableRecord
  2
93
 70
     0
 62
    93
  6
CONTINUOUS
  0
LAYER
  5
97
330
2
100
AcDbSymbolTableRecord
100
AcDbLayerTableRecord
  2
94
 70
     0
 62
    94
  6
CONTINUOUS
  0
LAYER
  5
98
330
2
100
AcDbSymbolTableRecord
100
AcDbLayerTableRecord
  2
95
 70
     0
 62
    95
  6
CONTINUOUS
  0
LAYER
  5
99
330
2
100
AcDbSymbolTableRecord
100
AcDbLayerTableRecord
  2
96
 70
     0
 62
    96
  6
CONTINUOUS
  0
LAYER
  5
9A
330
2
100
AcDbSymbolTableRecord
100
AcDbLayerTableRecord
  2
97
 70
     0
 62
    97
  6
CONTINUOUS
  0
LAYER
  5
9B
330
2
100
AcDbSymbolTableRecord
100
AcDbLayerTableRecord
  2
98
 70
     0
 62
    98
  6
CONTINUOUS
  0
LAYER
  5
9C
330
2
100
AcDbSymbolTableRecord
100
AcDbLayerTableRecord
  2
99
 70
     0
 62
    99
  6
CONTINUOUS
  0
LAYER
  5
9D
330
2
100
AcDbSymbolTableRecord
100
AcDbLayerTableRecord
  2
100
 70
     0
 62
   100
  6
CONTINUOUS
  0
LAYER
  5
9E
330
2
100
AcDbSymbolTableRecord
100
AcDbLayerTableRecord
  2
101
 70
     0
 62
   101
  6
CONTINUOUS
  0
LAYER
  5
9F
330
2
100
AcDbSymbolTableRecord
100
AcDbLayerTableRecord
  2
102
 70
     0
 62
   102
  6
CONTINUOUS
  0
LAYER
  5
A0
330
2
100
AcDbSymbolTableRecord
100
AcDbLayerTableRecord
  2
103
 70
     0
 62
   103
  6
CONTINUOUS
  0
LAYER
  5
A1
330
2
100
AcDbSymbolTableRecord
100
AcDbLayerTableRecord
  2
104
 70
     0
 62
   104
  6
CONTINUOUS
  0
LAYER
  5
A2
330
2
100
AcDbSymbolTableRecord
100
AcDbLayerTableRecord
  2
105
 70
     0
 62
   105
  6
CONTINUOUS
  0
LAYER
  5
A3
330
2
100
AcDbSymbolTableRecord
100
AcDbLayerTableRecord
  2
106
 70
     0
 62
   106
  6
CONTINUOUS
  0
LAYER
  5
A4
330
2
100
AcDbSymbolTableRecord
100
AcDbLayerTableRecord
  2
107
 70
     0
 62
   107
  6
CONTINUOUS
  0
LAYER
  5
A5
330
2
100
AcDbSymbolTableRecord
100
AcDbLayerTableRecord
  2
108
 70
     0
 62
   108
  6
CONTINUOUS
  0
LAYER
  5
A6
330
2
100
AcDbSymbolTableRecord
100
AcDbLayerTableRecord
  2
109
 70
     0
 62
   109
  6
CONTINUOUS
  0
LAYER
  5
A7
330
2
100
AcDbSymbolTableRecord
100
AcDbLayerTableRecord
  2
110
 70
     0
 62
   110
  6
CONTINUOUS
  0
LAYER
  5
A8
330
2
100
AcDbSymbolTableRecord
100
AcDbLayerTableRecord
  2
111
 70
     0
 62
   111
  6
CONTINUOUS
  0
LAYER
  5
A9
330
2
100
AcDbSymbolTableRecord
100
AcDbLayerTableRecord
  2
112
 70
     0
 62
   112
  6
CONTINUOUS
  0
LAYER
  5
AA
330
2
100
AcDbSymbolTableRecord
100
AcDbLayerTableRecord
  2
113
 70
     0
 62
   113
  6
CONTINUOUS
  0
LAYER
  5
AB
330
2
100
AcDbSymbolTableRecord
100
AcDbLayerTableRecord
  2
114
 70
     0
 62
   114
  6
CONTINUOUS
  0
LAYER
  5
AC
330
2
100
AcDbSymbolTableRecord
100
AcDbLayerTableRecord
  2
115
 70
     0
 62
   115
  6
CONTINUOUS
  0
LAYER
  5
AD
330
2
100
AcDbSymbolTableRecord
100
AcDbLayerTableRecord
  2
116
 70
     0
 62
   116
  6
CONTINUOUS
  0
LAYER
  5
AE
330
2
100
AcDbSymbolTableRecord
100
AcDbLayerTableRecord
  2
117
 70
     0
 62
   117
  6
CONTINUOUS
  0
LAYER
  5
AF
330
2
100
AcDbSymbolTableRecord
100
AcDbLayerTableRecord
  2
118
 70
     0
 62
   118
  6
CONTINUOUS
  0
LAYER
  5
B0
330
2
100
AcDbSymbolTableRecord
100
AcDbLayerTableRecord
  2
119
 70
     0
 62
   119
  6
CONTINUOUS
  0
LAYER
  5
B1
330
2
100
AcDbSymbolTableRecord
100
AcDbLayerTableRecord
  2
120
 70
     0
 62
   120
  6
CONTINUOUS
  0
LAYER
  5
B2
330
2
100
AcDbSymbolTableRecord
100
AcDbLayerTableRecord
  2
121
 70
     0
 62
   121
  6
CONTINUOUS
  0
LAYER
  5
B3
330
2
100
AcDbSymbolTableRecord
100
AcDbLayerTableRecord
  2
122
 70
     0
 62
   122
  6
CONTINUOUS
  0
LAYER
  5
B4
330
2
100
AcDbSymbolTableRecord
100
AcDbLayerTableRecord
  2
123
 70
     0
 62
   123
  6
CONTINUOUS
  0
LAYER
  5
B5
330
2
100
AcDbSymbolTableRecord
100
AcDbLayerTableRecord
  2
124
 70
     0
 62
   124
  6
CONTINUOUS
  0
LAYER
  5
B6
330
2
100
AcDbSymbolTableRecord
100
AcDbLayerTableRecord
  2
125
 70
     0
 62
   125
  6
CONTINUOUS
  0
LAYER
  5
B7
330
2
100
AcDbSymbolTableRecord
100
AcDbLayerTableRecord
  2
126
 70
     0
 62
   126
  6
CONTINUOUS
  0
LAYER
  5
B8
330
2
100
AcDbSymbolTableRecord
100
AcDbLayerTableRecord
  2
127
 70
     0
 62
   127
  6
CONTINUOUS
  0
LAYER
  5
B9
330
2
100
AcDbSymbolTableRecord
100
AcDbLayerTableRecord
  2
128
 70
     0
 62
   128
  6
CONTINUOUS
  0
LAYER
  5
BA
330
2
100
AcDbSymbolTableRecord
100
AcDbLayerTableRecord
  2
129
 70
     0
 62
   129
  6
CONTINUOUS
  0
LAYER
  5
BB
330
2
100
AcDbSymbolTableRecord
100
AcDbLayerTableRecord
  2
130
 70
     0
 62
   130
  6
CONTINUOUS
  0
LAYER
  5
BC
330
2
100
AcDbSymbolTableRecord
100
AcDbLayerTableRecord
  2
131
 70
     0
 62
   131
  6
CONTINUOUS
  0
LAYER
  5
BD
330
2
100
AcDbSymbolTableRecord
100
AcDbLayerTableRecord
  2
132
 70
     0
 62
   132
  6
CONTINUOUS
  0
LAYER
  5
BE
330
2
100
AcDbSymbolTableRecord
100
AcDbLayerTableRecord
  2
133
 70
     0
 62
   133
  6
CONTINUOUS
  0
LAYER
  5
BF
330
2
100
AcDbSymbolTableRecord
100
AcDbLayerTableRecord
  2
134
 70
     0
 62
   134
  6
CONTINUOUS
  0
LAYER
  5
C0
330
2
100
AcDbSymbolTableRecord
100
AcDbLayerTableRecord
  2
135
 70
     0
 62
   135
  6
CONTINUOUS
  0
LAYER
  5
C1
330
2
100
AcDbSymbolTableRecord
100
AcDbLayerTableRecord
  2
136
 70
     0
 62
   136
  6
CONTINUOUS
  0
LAYER
  5
C2
330
2
100
AcDbSymbolTableRecord
100
AcDbLayerTableRecord
  2
137
 70
     0
 62
   137
  6
CONTINUOUS
  0
LAYER
  5
C3
330
2
100
AcDbSymbolTableRecord
100
AcDbLayerTableRecord
  2
138
 70
     0
 62
   138
  6
CONTINUOUS
  0
LAYER
  5
C4
330
2
100
AcDbSymbolTableRecord
100
AcDbLayerTableRecord
  2
139
 70
     0
 62
   139
  6
CONTINUOUS
  0
LAYER
  5
C5
330
2
100
AcDbSymbolTableRecord
100
AcDbLayerTableRecord
  2
140
 70
     0
 62
   140
  6
CONTINUOUS
  0
LAYER
  5
C6
330
2
100
AcDbSymbolTableRecord
100
AcDbLayerTableRecord
  2
141
 70
     0
 62
   141
  6
CONTINUOUS
  0
LAYER
  5
C7
330
2
100
AcDbSymbolTableRecord
100
AcDbLayerTableRecord
  2
142
 70
     0
 62
   142
  6
CONTINUOUS
  0
LAYER
  5
C8
330
2
100
AcDbSymbolTableRecord
100
AcDbLayerTableRecord
  2
143
 70
     0
 62
   143
  6
CONTINUOUS
  0
LAYER
  5
C9
330
2
100
AcDbSymbolTableRecord
100
AcDbLayerTableRecord
  2
144
 70
     0
 62
   144
  6
CONTINUOUS
  0
LAYER
  5
CA
330
2
100
AcDbSymbolTableRecord
100
AcDbLayerTableRecord
  2
145
 70
     0
 62
   145
  6
CONTINUOUS
  0
LAYER
  5
CB
330
2
100
AcDbSymbolTableRecord
100
AcDbLayerTableRecord
  2
146
 70
     0
 62
   146
  6
CONTINUOUS
  0
LAYER
  5
CC
330
2
100
AcDbSymbolTableRecord
100
AcDbLayerTableRecord
  2
147
 70
     0
 62
   147
  6
CONTINUOUS
  0
LAYER
  5
CD
330
2
100
AcDbSymbolTableRecord
100
AcDbLayerTableRecord
  2
148
 70
     0
 62
   148
  6
CONTINUOUS
  0
LAYER
  5
CE
330
2
100
AcDbSymbolTableRecord
100
AcDbLayerTableRecord
  2
149
 70
     0
 62
   149
  6
CONTINUOUS
  0
LAYER
  5
CF
330
2
100
AcDbSymbolTableRecord
100
AcDbLayerTableRecord
  2
150
 70
     0
 62
   150
  6
CONTINUOUS
  0
LAYER
  5
D0
330
2
100
AcDbSymbolTableRecord
100
AcDbLayerTableRecord
  2
151
 70
     0
 62
   151
  6
CONTINUOUS
  0
LAYER
  5
D1
330
2
100
AcDbSymbolTableRecord
100
AcDbLayerTableRecord
  2
152
 70
     0
 62
   152
  6
CONTINUOUS
  0
LAYER
  5
D2
330
2
100
AcDbSymbolTableRecord
100
AcDbLayerTableRecord
  2
153
 70
     0
 62
   153
  6
CONTINUOUS
  0
LAYER
  5
D3
330
2
100
AcDbSymbolTableRecord
100
AcDbLayerTableRecord
  2
154
 70
     0
 62
   154
  6
CONTINUOUS
  0
LAYER
  5
D4
330
2
100
AcDbSymbolTableRecord
100
AcDbLayerTableRecord
  2
155
 70
     0
 62
   155
  6
CONTINUOUS
  0
LAYER
  5
D5
330
2
100
AcDbSymbolTableRecord
100
AcDbLayerTableRecord
  2
156
 70
     0
 62
   156
  6
CONTINUOUS
  0
LAYER
  5
D6
330
2
100
AcDbSymbolTableRecord
100
AcDbLayerTableRecord
  2
157
 70
     0
 62
   157
  6
CONTINUOUS
  0
LAYER
  5
D7
330
2
100
AcDbSymbolTableRecord
100
AcDbLayerTableRecord
  2
158
 70
     0
 62
   158
  6
CONTINUOUS
  0
LAYER
  5
D8
330
2
100
AcDbSymbolTableRecord
100
AcDbLayerTableRecord
  2
159
 70
     0
 62
   159
  6
CONTINUOUS
  0
LAYER
  5
D9
330
2
100
AcDbSymbolTableRecord
100
AcDbLayerTableRecord
  2
160
 70
     0
 62
   160
  6
CONTINUOUS
  0
LAYER
  5
DA
330
2
100
AcDbSymbolTableRecord
100
AcDbLayerTableRecord
  2
161
 70
     0
 62
   161
  6
CONTINUOUS
  0
LAYER
  5
DB
330
2
100
AcDbSymbolTableRecord
100
AcDbLayerTableRecord
  2
162
 70
     0
 62
   162
  6
CONTINUOUS
  0
LAYER
  5
DC
330
2
100
AcDbSymbolTableRecord
100
AcDbLayerTableRecord
  2
163
 70
     0
 62
   163
  6
CONTINUOUS
  0
LAYER
  5
DD
330
2
100
AcDbSymbolTableRecord
100
AcDbLayerTableRecord
  2
164
 70
     0
 62
   164
  6
CONTINUOUS
  0
LAYER
  5
DE
330
2
100
AcDbSymbolTableRecord
100
AcDbLayerTableRecord
  2
165
 70
     0
 62
   165
  6
CONTINUOUS
  0
LAYER
  5
DF
330
2
100
AcDbSymbolTableRecord
100
AcDbLayerTableRecord
  2
166
 70
     0
 62
   166
  6
CONTINUOUS
  0
LAYER
  5
E0
330
2
100
AcDbSymbolTableRecord
100
AcDbLayerTableRecord
  2
167
 70
     0
 62
   167
  6
CONTINUOUS
  0
LAYER
  5
E1
330
2
100
AcDbSymbolTableRecord
100
AcDbLayerTableRecord
  2
168
 70
     0
 62
   168
  6
CONTINUOUS
  0
LAYER
  5
E2
330
2
100
AcDbSymbolTableRecord
100
AcDbLayerTableRecord
  2
169
 70
     0
 62
   169
  6
CONTINUOUS
  0
LAYER
  5
E3
330
2
100
AcDbSymbolTableRecord
100
AcDbLayerTableRecord
  2
170
 70
     0
 62
   170
  6
CONTINUOUS
  0
LAYER
  5
E4
330
2
100
AcDbSymbolTableRecord
100
AcDbLayerTableRecord
  2
171
 70
     0
 62
   171
  6
CONTINUOUS
  0
LAYER
  5
E5
330
2
100
AcDbSymbolTableRecord
100
AcDbLayerTableRecord
  2
172
 70
     0
 62
   172
  6
CONTINUOUS
  0
LAYER
  5
E6
330
2
100
AcDbSymbolTableRecord
100
AcDbLayerTableRecord
  2
173
 70
     0
 62
   173
  6
CONTINUOUS
  0
LAYER
  5
E7
330
2
100
AcDbSymbolTableRecord
100
AcDbLayerTableRecord
  2
174
 70
     0
 62
   174
  6
CONTINUOUS
  0
LAYER
  5
E8
330
2
100
AcDbSymbolTableRecord
100
AcDbLayerTableRecord
  2
175
 70
     0
 62
   175
  6
CONTINUOUS
  0
LAYER
  5
E9
330
2
100
AcDbSymbolTableRecord
100
AcDbLayerTableRecord
  2
176
 70
     0
 62
   176
  6
CONTINUOUS
  0
LAYER
  5
EA
330
2
100
AcDbSymbolTableRecord
100
AcDbLayerTableRecord
  2
177
 70
     0
 62
   177
  6
CONTINUOUS
  0
LAYER
  5
EB
330
2
100
AcDbSymbolTableRecord
100
AcDbLayerTableRecord
  2
178
 70
     0
 62
   178
  6
CONTINUOUS
  0
LAYER
  5
EC
330
2
100
AcDbSymbolTableRecord
100
AcDbLayerTableRecord
  2
179
 70
     0
 62
   179
  6
CONTINUOUS
  0
LAYER
  5
ED
330
2
100
AcDbSymbolTableRecord
100
AcDbLayerTableRecord
  2
180
 70
     0
 62
   180
  6
CONTINUOUS
  0
LAYER
  5
EE
330
2
100
AcDbSymbolTableRecord
100
AcDbLayerTableRecord
  2
181
 70
     0
 62
   181
  6
CONTINUOUS
  0
LAYER
  5
EF
330
2
100
AcDbSymbolTableRecord
100
AcDbLayerTableRecord
  2
182
 70
     0
 62
   182
  6
CONTINUOUS
  0
LAYER
  5
F0
330
2
100
AcDbSymbolTableRecord
100
AcDbLayerTableRecord
  2
183
 70
     0
 62
   183
  6
CONTINUOUS
  0
LAYER
  5
F1
330
2
100
AcDbSymbolTableRecord
100
AcDbLayerTableRecord
  2
184
 70
     0
 62
   184
  6
CONTINUOUS
  0
LAYER
  5
F2
330
2
100
AcDbSymbolTableRecord
100
AcDbLayerTableRecord
  2
185
 70
     0
 62
   185
  6
CONTINUOUS
  0
LAYER
  5
F3
330
2
100
AcDbSymbolTableRecord
100
AcDbLayerTableRecord
  2
186
 70
     0
 62
   186
  6
CONTINUOUS
  0
LAYER
  5
F4
330
2
100
AcDbSymbolTableRecord
100
AcDbLayerTableRecord
  2
187
 70
     0
 62
   187
  6
CONTINUOUS
  0
LAYER
  5
F5
330
2
100
AcDbSymbolTableRecord
100
AcDbLayerTableRecord
  2
188
 70
     0
 62
   188
  6
CONTINUOUS
  0
LAYER
  5
F6
330
2
100
AcDbSymbolTableRecord
100
AcDbLayerTableRecord
  2
189
 70
     0
 62
   189
  6
CONTINUOUS
  0
LAYER
  5
F7
330
2
100
AcDbSymbolTableRecord
100
AcDbLayerTableRecord
  2
190
 70
     0
 62
   190
  6
CONTINUOUS
  0
LAYER
  5
F8
330
2
100
AcDbSymbolTableRecord
100
AcDbLayerTableRecord
  2
191
 70
     0
 62
   191
  6
CONTINUOUS
  0
LAYER
  5
F9
330
2
100
AcDbSymbolTableRecord
100
AcDbLayerTableRecord
  2
192
 70
     0
 62
   192
  6
CONTINUOUS
  0
LAYER
  5
FA
330
2
100
AcDbSymbolTableRecord
100
AcDbLayerTableRecord
  2
193
 70
     0
 62
   193
  6
CONTINUOUS
  0
LAYER
  5
FB
330
2
100
AcDbSymbolTableRecord
100
AcDbLayerTableRecord
  2
194
 70
     0
 62
   194
  6
CONTINUOUS
  0
LAYER
  5
FC
330
2
100
AcDbSymbolTableRecord
100
AcDbLayerTableRecord
  2
195
 70
     0
 62
   195
  6
CONTINUOUS
  0
LAYER
  5
FD
330
2
100
AcDbSymbolTableRecord
100
AcDbLayerTableRecord
  2
196
 70
     0
 62
   196
  6
CONTINUOUS
  0
LAYER
  5
FE
330
2
100
AcDbSymbolTableRecord
100
AcDbLayerTableRecord
  2
197
 70
     0
 62
   197
  6
CONTINUOUS
  0
LAYER
  5
FF
330
2
100
AcDbSymbolTableRecord
100
AcDbLayerTableRecord
  2
198
 70
     0
 62
   198
  6
CONTINUOUS
  0
LAYER
  5
100
330
2
100
AcDbSymbolTableRecord
100
AcDbLayerTableRecord
  2
199
 70
     0
 62
   199
  6
CONTINUOUS
  0
LAYER
  5
101
330
2
100
AcDbSymbolTableRecord
100
AcDbLayerTableRecord
  2
200
 70
     0
 62
   200
  6
CONTINUOUS
  0
LAYER
  5
102
330
2
100
AcDbSymbolTableRecord
100
AcDbLayerTableRecord
  2
201
 70
     0
 62
   201
  6
CONTINUOUS
  0
LAYER
  5
103
330
2
100
AcDbSymbolTableRecord
100
AcDbLayerTableRecord
  2
202
 70
     0
 62
   202
  6
CONTINUOUS
  0
LAYER
  5
104
330
2
100
AcDbSymbolTableRecord
100
AcDbLayerTableRecord
  2
203
 70
     0
 62
   203
  6
CONTINUOUS
  0
LAYER
  5
105
330
2
100
AcDbSymbolTableRecord
100
AcDbLayerTableRecord
  2
204
 70
     0
 62
   204
  6
CONTINUOUS
  0
LAYER
  5
106
330
2
100
AcDbSymbolTableRecord
100
AcDbLayerTableRecord
  2
205
 70
     0
 62
   205
  6
CONTINUOUS
  0
LAYER
  5
107
330
2
100
AcDbSymbolTableRecord
100
AcDbLayerTableRecord
  2
206
 70
     0
 62
   206
  6
CONTINUOUS
  0
LAYER
  5
108
330
2
100
AcDbSymbolTableRecord
100
AcDbLayerTableRecord
  2
207
 70
     0
 62
   207
  6
CONTINUOUS
  0
LAYER
  5
109
330
2
100
AcDbSymbolTableRecord
100
AcDbLayerTableRecord
  2
208
 70
     0
 62
   208
  6
CONTINUOUS
  0
LAYER
  5
10A
330
2
100
AcDbSymbolTableRecord
100
AcDbLayerTableRecord
  2
209
 70
     0
 62
   209
  6
CONTINUOUS
  0
LAYER
  5
10B
330
2
100
AcDbSymbolTableRecord
100
AcDbLayerTableRecord
  2
210
 70
     0
 62
   210
  6
CONTINUOUS
  0
LAYER
  5
10C
330
2
100
AcDbSymbolTableRecord
100
AcDbLayerTableRecord
  2
211
 70
     0
 62
   211
  6
CONTINUOUS
  0
LAYER
  5
10D
330
2
100
AcDbSymbolTableRecord
100
AcDbLayerTableRecord
  2
212
 70
     0
 62
   212
  6
CONTINUOUS
  0
LAYER
  5
10E
330
2
100
AcDbSymbolTableRecord
100
AcDbLayerTableRecord
  2
213
 70
     0
 62
   213
  6
CONTINUOUS
  0
LAYER
  5
10F
330
2
100
AcDbSymbolTableRecord
100
AcDbLayerTableRecord
  2
214
 70
     0
 62
   214
  6
CONTINUOUS
  0
LAYER
  5
110
330
2
100
AcDbSymbolTableRecord
100
AcDbLayerTableRecord
  2
215
 70
     0
 62
   215
  6
CONTINUOUS
  0
LAYER
  5
111
330
2
100
AcDbSymbolTableRecord
100
AcDbLayerTableRecord
  2
216
 70
     0
 62
   216
  6
CONTINUOUS
  0
LAYER
  5
112
330
2
100
AcDbSymbolTableRecord
100
AcDbLayerTableRecord
  2
217
 70
     0
 62
   217
  6
CONTINUOUS
  0
LAYER
  5
113
330
2
100
AcDbSymbolTableRecord
100
AcDbLayerTableRecord
  2
218
 70
     0
 62
   218
  6
CONTINUOUS
  0
LAYER
  5
114
330
2
100
AcDbSymbolTableRecord
100
AcDbLayerTableRecord
  2
219
 70
     0
 62
   219
  6
CONTINUOUS
  0
LAYER
  5
115
330
2
100
AcDbSymbolTableRecord
100
AcDbLayerTableRecord
  2
220
 70
     0
 62
   220
  6
CONTINUOUS
  0
LAYER
  5
116
330
2
100
AcDbSymbolTableRecord
100
AcDbLayerTableRecord
  2
221
 70
     0
 62
   221
  6
CONTINUOUS
  0
LAYER
  5
117
330
2
100
AcDbSymbolTableRecord
100
AcDbLayerTableRecord
  2
222
 70
     0
 62
   222
  6
CONTINUOUS
  0
LAYER
  5
118
330
2
100
AcDbSymbolTableRecord
100
AcDbLayerTableRecord
  2
223
 70
     0
 62
   223
  6
CONTINUOUS
  0
LAYER
  5
119
330
2
100
AcDbSymbolTableRecord
100
AcDbLayerTableRecord
  2
224
 70
     0
 62
   224
  6
CONTINUOUS
  0
LAYER
  5
11A
330
2
100
AcDbSymbolTableRecord
100
AcDbLayerTableRecord
  2
225
 70
     0
 62
   225
  6
CONTINUOUS
  0
LAYER
  5
11B
330
2
100
AcDbSymbolTableRecord
100
AcDbLayerTableRecord
  2
226
 70
     0
 62
   226
  6
CONTINUOUS
  0
LAYER
  5
11C
330
2
100
AcDbSymbolTableRecord
100
AcDbLayerTableRecord
  2
227
 70
     0
 62
   227
  6
CONTINUOUS
  0
LAYER
  5
11D
330
2
100
AcDbSymbolTableRecord
100
AcDbLayerTableRecord
  2
228
 70
     0
 62
   228
  6
CONTINUOUS
  0
LAYER
  5
11E
330
2
100
AcDbSymbolTableRecord
100
AcDbLayerTableRecord
  2
229
 70
     0
 62
   229
  6
CONTINUOUS
  0
LAYER
  5
11F
330
2
100
AcDbSymbolTableRecord
100
AcDbLayerTableRecord
  2
230
 70
     0
 62
   230
  6
CONTINUOUS
  0
LAYER
  5
120
330
2
100
AcDbSymbolTableRecord
100
AcDbLayerTableRecord
  2
231
 70
     0
 62
   231
  6
CONTINUOUS
  0
LAYER
  5
121
330
2
100
AcDbSymbolTableRecord
100
AcDbLayerTableRecord
  2
232
 70
     0
 62
   232
  6
CONTINUOUS
  0
LAYER
  5
122
330
2
100
AcDbSymbolTableRecord
100
AcDbLayerTableRecord
  2
233
 70
     0
 62
   233
  6
CONTINUOUS
  0
LAYER
  5
123
330
2
100
AcDbSymbolTableRecord
100
AcDbLayerTableRecord
  2
234
 70
     0
 62
   234
  6
CONTINUOUS
  0
LAYER
  5
124
330
2
100
AcDbSymbolTableRecord
100
AcDbLayerTableRecord
  2
235
 70
     0
 62
   235
  6
CONTINUOUS
  0
LAYER
  5
125
330
2
100
AcDbSymbolTableRecord
100
AcDbLayerTableRecord
  2
236
 70
     0
 62
   236
  6
CONTINUOUS
  0
LAYER
  5
126
330
2
100
AcDbSymbolTableRecord
100
AcDbLayerTableRecord
  2
237
 70
     0
 62
   237
  6
CONTINUOUS
  0
LAYER
  5
127
330
2
100
AcDbSymbolTableRecord
100
AcDbLayerTableRecord
  2
238
 70
     0
 62
   238
  6
CONTINUOUS
  0
LAYER
  5
128
330
2
100
AcDbSymbolTableRecord
100
AcDbLayerTableRecord
  2
239
 70
     0
 62
   239
  6
CONTINUOUS
  0
LAYER
  5
129
330
2
100
AcDbSymbolTableRecord
100
AcDbLayerTableRecord
  2
240
 70
     0
 62
   240
  6
CONTINUOUS
  0
LAYER
  5
12A
330
2
100
AcDbSymbolTableRecord
100
AcDbLayerTableRecord
  2
241
 70
     0
 62
   241
  6
CONTINUOUS
  0
LAYER
  5
12B
330
2
100
AcDbSymbolTableRecord
100
AcDbLayerTableRecord
  2
242
 70
     0
 62
   242
  6
CONTINUOUS
  0
LAYER
  5
12C
330
2
100
AcDbSymbolTableRecord
100
AcDbLayerTableRecord
  2
243
 70
     0
 62
   243
  6
CONTINUOUS
  0
LAYER
  5
12D
330
2
100
AcDbSymbolTableRecord
100
AcDbLayerTableRecord
  2
244
 70
     0
 62
   244
  6
CONTINUOUS
  0
LAYER
  5
12E
330
2
100
AcDbSymbolTableRecord
100
AcDbLayerTableRecord
  2
245
 70
     0
 62
   245
  6
CONTINUOUS
  0
LAYER
  5
12F
330
2
100
AcDbSymbolTableRecord
100
AcDbLayerTableRecord
  2
246
 70
     0
 62
   246
  6
CONTINUOUS
  0
LAYER
  5
130
330
2
100
AcDbSymbolTableRecord
100
AcDbLayerTableRecord
  2
247
 70
     0
 62
   247
  6
CONTINUOUS
  0
LAYER
  5
131
330
2
100
AcDbSymbolTableRecord
100
AcDbLayerTableRecord
  2
248
 70
     0
 62
   248
  6
CONTINUOUS
  0
LAYER
  5
132
330
2
100
AcDbSymbolTableRecord
100
AcDbLayerTableRecord
  2
249
 70
     0
 62
   249
  6
CONTINUOUS
  0
LAYER
  5
133
330
2
100
AcDbSymbolTableRecord
100
AcDbLayerTableRecord
  2
250
 70
     0
 62
   250
  6
CONTINUOUS
  0
LAYER
  5
134
330
2
100
AcDbSymbolTableRecord
100
AcDbLayerTableRecord
  2
251
 70
     0
 62
   251
  6
CONTINUOUS
  0
LAYER
  5
135
330
2
100
AcDbSymbolTableRecord
100
AcDbLayerTableRecord
  2
252
 70
     0
 62
   252
  6
CONTINUOUS
  0
LAYER
  5
136
330
2
100
AcDbSymbolTableRecord
100
AcDbLayerTableRecord
  2
253
 70
     0
 62
   253
  6
CONTINUOUS
  0
LAYER
  5
137
330
2
100
AcDbSymbolTableRecord
100
AcDbLayerTableRecord
  2
254
 70
     0
 62
   254
  6
CONTINUOUS
  0
LAYER
  5
138
330
2
100
AcDbSymbolTableRecord
100
AcDbLayerTableRecord
  2
255
 70
     0
 62
   255
  6
CONTINUOUS
  0
LAYER
  5
466C
330
2
100
AcDbSymbolTableRecord
100
AcDbLayerTableRecord
  2
DEFPOINTS
 70
     0
 62
     7
  6
CONTINUOUS
  0
ENDTAB
  0
TABLE
  2
STYLE
  5
3
330
0
100
AcDbSymbolTable
 70
     1
  0
STYLE
  5
11
330
3
100
AcDbSymbolTableRecord
100
AcDbTextStyleTableRecord
  2
STANDARD
 70
     0
 40
0.0
 41
1.0
 50
0.0
 71
     0
 42
0.2
  3
monotxt
  4

  0
ENDTAB
  0
TABLE
  2
VIEW
  5
6
330
0
100
AcDbSymbolTable
 70
     0
  0
ENDTAB
  0
TABLE
  2
UCS
  5
7
330
0
100
AcDbSymbolTable
 70
     0
  0
ENDTAB
  0
TABLE
  2
APPID
  5
9
330
0
100
AcDbSymbolTable
 70
     1
  0
APPID
  5
12
330
9
100
AcDbSymbolTableRecord
100
AcDbRegAppTableRecord
  2
ACAD
 70
     0
  0
ENDTAB
  0
TABLE
  2
DIMSTYLE
  5
A
330
0
100
AcDbSymbolTable
 70
     1
  0
DIMSTYLE
105
3141
330
A
100
AcDbSymbolTableRecord
100
AcDbDimStyleTableRecord
  2
STANDARD
 70
     0
  3

  4

  5

  6

  7

 40
1.0
 41
0.18
 42
0.0625
 43
0.38
 44
0.18
 45
0.0
 46
0.0
 47
0.0
 48
0.0
140
0.18
141
0.09
142
0.0
143
25.4
144
1.0
145
0.0
146
1.0
147
0.09
 71
     0
 72
     0
 73
     1
 74
     1
 75
     0
 76
     0
 77
     0
 78
     0
170
     0
171
     2
172
     0
173
     0
174
     0
175
     0
176
     0
177
     0
178
     0
270
     2
271
     4
272
     4
273
     2
274
     2
340
11
275
     0
280
     0
281
     0
282
     0
283
     1
284
     0
285
     0
286
     0
287
     3
288
     0
  0
ENDTAB
  0
TABLE
  2
BLOCK_RECORD
  5
1
330
0
100
AcDbSymbolTable
 70
     1
  0
BLOCK_RECORD
  5
1E
102
{ACAD_XDICTIONARY
360
4685
102
}
330
1
100
AcDbSymbolTableRecord
100
AcDbBlockTableRecord
  2
*MODEL_SPACE
  0
BLOCK_RECORD
  5
1A
102
{ACAD_XDICTIONARY
360
4687
102
}
330
1
100
AcDbSymbolTableRecord
100
AcDbBlockTableRecord
  2
*PAPER_SPACE
  0
ENDTAB
  0
ENDSEC
  0
SECTION
  2
BLOCKS
  0
BLOCK
  5
13B
330
1E
100
AcDbEntity
  8
0
100
AcDbBlockBegin
  2
*MODEL_SPACE
 70
     0
 10
0.0
 20
0.0
 30
0.0
  3
*MODEL_SPACE
  1

  0
ENDBLK
  5
13C
330
1E
100
AcDbEntity
  8
0
100
AcDbBlockEnd
  0
BLOCK
  5
139
330
1A
100
AcDbEntity
 67
     1
  8
0
100
AcDbBlockBegin
  2
*PAPER_SPACE
 70
     0
 10
0.0
 20
0.0
 30
0.0
  3
*PAPER_SPACE
  1

  0
ENDBLK
  5
13A
330
1A
100
AcDbEntity
 67
     1
  8
0
100
AcDbBlockEnd
  0
ENDSEC
  0
SECTION
  2
ENTITIES
  0
LINE
  5
2C67
330
1E
100
AcDbEntity
  8
3
100
AcDbLine
 10
2.064015536983093
 20
3.951744105689766
 30
0.0
 11
1.94328062884661
 21
3.951744105689766
 31
0.0
  0
LINE
  5
2C76
330
1E
100
AcDbEntity
  8
3
100
AcDbLine
 10
1.94328062884661
 20
3.648594499390554
 30
0.0
 11
2.064015536983093
 21
3.648594499390554
 31
0.0
  0
LINE
  5
2C84
330
1E
100
AcDbEntity
  8
3
100
AcDbLine
 10
1.901285878190442
 20
3.656468515138586
 30
0.0
 11
1.94328062884661
 21
3.649906835348559
 31
0.0
  0
LINE
  5
2C85
330
1E
100
AcDbEntity
  8
3
100
AcDbLine
 10
3.004960418872856
 20
4.005549879967982
 30
0.0
 11
3.004960418872856
 21
3.596101061070344
 31
0.0
  0
LINE
  5
2C86
330
1E
100
AcDbEntity
  8
3
100
AcDbLine
 10
1.259553594725876
 20
4.005549879967982
 30
0.0
 11
3.004960418872856
 21
4.005549879967982
 31
0.0
  0
LINE
  5
2C87
330
1E
100
AcDbEntity
  8
3
100
AcDbLine
 10
1.259553594725876
 20
4.005549879967982
 30
0.0
 11
1.259553594725876
 21
3.596101061070344
 31
0.0
  0
LINE
  5
2C88
330
1E
100
AcDbEntity
  8
3
100
AcDbLine
 10
3.004960418872856
 20
3.596101061070344
 30
0.0
 11
1.259553594725876
 21
3.596101061070344
 31
0.0
  0
LINE
  5
2C89
330
1E
100
AcDbEntity
  8
3
100
AcDbLine
 10
3.004960418872856
 20
4.005549879967982
 30
0.0
 11
3.007585090788866
 21
4.005549879967982
 31
0.0
  0
LINE
  5
2C8A
330
1E
100
AcDbEntity
  8
3
100
AcDbLine
 10
3.004960418872856
 20
3.596101061070344
 30
0.0
 11
3.007585090788866
 21
3.594788725112339
 31
0.0
  0
LINE
  5
2C8B
330
1E
100
AcDbEntity
  8
3
100
AcDbLine
 10
1.259553594725876
 20
4.005549879967982
 30
0.0
 11
1.256928922809866
 21
4.005549879967982
 31
0.0
  0
LINE
  5
2C8C
330
1E
100
AcDbEntity
  8
3
100
AcDbLine
 10
1.259553594725876
 20
3.596101061070344
 30
0.0
 11
1.256928922809866
 21
3.594788725112339
 31
0.0
  0
LINE
  5
2CA2
330
1E
100
AcDbEntity
  8
3
100
AcDbLine
 10
1.196561468741624
 20
3.975366152933861
 30
0.0
 11
1.195249132783619
 21
3.975366152933861
 31
0.0
  0
LINE
  5
2CA3
330
1E
100
AcDbEntity
  8
3
100
AcDbLine
 10
1.22543285981774
 20
4.006862215925987
 30
0.0
 11
1.22805753173375
 21
4.005549879967982
 31
0.0
  0
LINE
  5
2CAA
330
1E
100
AcDbEntity
  8
3
100
AcDbLine
 10
1.22805753173375
 20
3.594788725112339
 30
0.0
 11
1.22543285981774
 21
3.594788725112339
 31
0.0
  0
LINE
  5
2CAB
330
1E
100
AcDbEntity
  8
3
100
AcDbLine
 10
1.195249132783619
 20
3.626284788104465
 30
0.0
 11
1.196561468741624
 21
3.626284788104465
 31
0.0
  0
LINE
  5
2CB2
330
1E
100
AcDbEntity
  8
3
100
AcDbLine
 10
3.067952544857108
 20
3.626284788104465
 30
0.0
 11
3.069264880815113
 21
3.626284788104465
 31
0.0
  0
LINE
  5
2CB3
330
1E
100
AcDbEntity
  8
3
100
AcDbLine
 10
3.037768817822987
 20
3.594788725112339
 30
0.0
 11
3.036456481864982
 21
3.594788725112339
 31
0.0
  0
LINE
  5
2CBA
330
1E
100
AcDbEntity
  8
3
100
AcDbLine
 10
3.036456481864982
 20
4.005549879967982
 30
0.0
 11
3.037768817822987
 21
4.006862215925987
 31
0.0
  0
LINE
  5
2CBB
330
1E
100
AcDbEntity
  8
3
100
AcDbLine
 10
3.069264880815113
 20
3.975366152933861
 30
0.0
 11
3.067952544857108
 21
3.975366152933861
 31
0.0
  0
LINE
  5
2CBC
330
1E
100
AcDbEntity
  8
3
100
AcDbLine
 10
1.22543285981774
 20
4.006862215925987
 30
0.0
 11
3.037768817822987
 21
4.006862215925987
 31
0.0
  0
LINE
  5
2CBD
330
1E
100
AcDbEntity
  8
3
100
AcDbLine
 10
1.195249132783619
 20
3.626284788104465
 30
0.0
 11
1.195249132783619
 21
3.975366152933861
 31
0.0
  0
LINE
  5
2CBE
330
1E
100
AcDbEntity
  8
3
100
AcDbLine
 10
3.037768817822987
 20
3.594788725112339
 30
0.0
 11
1.22543285981774
 21
3.594788725112339
 31
0.0
  0
LINE
  5
2CBF
330
1E
100
AcDbEntity
  8
3
100
AcDbLine
 10
3.069264880815113
 20
3.975366152933861
 30
0.0
 11
3.069264880815113
 21
3.626284788104465
 31
0.0
  0
LINE
  5
2CC0
330
1E
100
AcDbEntity
  8
3
100
AcDbLine
 10
2.064015536983093
 20
3.950431769731761
 30
0.0
 11
2.064015536983093
 21
3.951744105689766
 31
0.0
  0
LINE
  5
2CC6
330
1E
100
AcDbEntity
  8
3
100
AcDbLine
 10
1.94328062884661
 20
3.651219171306565
 30
0.0
 11
1.94328062884661
 21
3.648594499390554
 31
0.0
  0
LINE
  5
2CEE
330
1E
100
AcDbEntity
  8
3
100
AcDbLine
 10
2.064015536983093
 20
3.876940956083467
 30
0.0
 11
1.94328062884661
 21
3.876940956083467
 31
0.0
  0
LINE
  5
2CFD
330
1E
100
AcDbEntity
  8
3
100
AcDbLine
 10
2.064015536983093
 20
3.724709984954859
 30
0.0
 11
1.94328062884661
 21
3.724709984954859
 31
0.0
  0
LINE
  5
2D0C
330
1E
100
AcDbEntity
  8
3
100
AcDbLine
 10
2.064015536983093
 20
3.724709984954859
 30
0.0
 11
1.94328062884661
 21
3.724709984954859
 31
0.0
  0
LINE
  5
2D0D
330
1E
100
AcDbEntity
  8
3
100
AcDbLine
 10
2.064015536983093
 20
3.876940956083467
 30
0.0
 11
1.94328062884661
 21
3.876940956083467
 31
0.0
  0
LINE
  5
2D0E
330
1E
100
AcDbEntity
  8
3
100
AcDbLine
 10
1.897348870316427
 20
3.740458016450922
 30
0.0
 11
1.907847557980469
 21
3.733896336660895
 31
0.0
  0
LINE
  5
2D0F
330
1E
100
AcDbEntity
  8
3
100
AcDbLine
 10
1.907847557980469
 20
3.86775460437743
 30
0.0
 11
1.897348870316427
 21
3.861192924587404
 31
0.0
  0
LINE
  5
2D1F
330
1E
100
AcDbEntity
  8
3
100
AcDbLine
 10
2.109947295513276
 20
3.861192924587404
 30
0.0
 11
2.099448607849235
 21
3.86775460437743
 31
0.0
  0
LINE
  5
2D20
330
1E
100
AcDbEntity
  8
3
100
AcDbLine
 10
2.099448607849235
 20
3.733896336660895
 30
0.0
 11
2.109947295513276
 21
3.740458016450922
 31
0.0
  0
LINE
  5
2D26
330
1E
100
AcDbEntity
  8
3
100
AcDbLine
 10
2.099448607849235
 20
3.86775460437743
 30
0.0
 11
1.907847557980469
 21
3.86775460437743
 31
0.0
  0
LINE
  5
2D27
330
1E
100
AcDbEntity
  8
3
100
AcDbLine
 10
1.897348870316427
 20
3.861192924587404
 30
0.0
 11
2.109947295513276
 21
3.861192924587404
 31
0.0
  0
LINE
  5
2D28
330
1E
100
AcDbEntity
  8
3
100
AcDbLine
 10
2.099448607849235
 20
3.733896336660895
 30
0.0
 11
1.907847557980469
 21
3.733896336660895
 31
0.0
  0
LINE
  5
2D29
330
1E
100
AcDbEntity
  8
3
100
AcDbLine
 10
1.897348870316427
 20
3.740458016450922
 30
0.0
 11
2.109947295513276
 21
3.740458016450922
 31
0.0
  0
LINE
  5
2D2A
330
1E
100
AcDbEntity
  8
3
100
AcDbLine
 10
3.34354309603821
 20
3.254893711988979
 30
0.0
 11
3.34354309603821
 21
7.627597124062466
 31
0.0
  0
LINE
  5
2D2B
330
1E
100
AcDbEntity
  8
3
100
AcDbLine
 10
3.347480103912226
 20
3.250956704114964
 30
0.0
 11
3.34354309603821
 21
3.254893711988979
 31
0.0
  0
LINE
  5
2D2C
330
1E
100
AcDbEntity
  8
3
100
AcDbLine
 10
3.347480103912226
 20
7.631534131936483
 30
0.0
 11
3.347480103912226
 21
3.250956704114964
 31
0.0
  0
LINE
  5
2D2D
330
1E
100
AcDbEntity
  8
3
100
AcDbLine
 10
3.34354309603821
 20
7.627597124062466
 30
0.0
 11
3.347480103912226
 21
7.631534131936483
 31
0.0
  0
LINE
  5
2D2E
330
1E
100
AcDbEntity
  8
3
100
AcDbLine
 10
3.119133647219313
 20
7.46355512931181
 30
0.0
 11
3.119133647219313
 21
3.418935706739635
 31
0.0
  0
LINE
  5
2D47
330
1E
100
AcDbEntity
  8
3
100
AcDbLine
 10
3.338293752206189
 20
7.62366011618845
 30
0.0
 11
3.34354309603821
 21
7.627597124062466
 31
0.0
  0
LINE
  5
2D68
330
1E
100
AcDbEntity
  8
3
100
AcDbLine
 10
3.34354309603821
 20
3.254893711988979
 30
0.0
 11
3.335669080290178
 21
3.224709984954858
 31
0.0
  0
LINE
  5
2D7A
330
1E
100
AcDbEntity
  8
3
100
AcDbLine
 10
1.897348870316427
 20
7.142032819600525
 30
0.0
 11
2.109947295513276
 21
7.142032819600525
 31
0.0
  0
LINE
  5
2D7B
330
1E
100
AcDbEntity
  8
3
100
AcDbLine
 10
2.099448607849235
 20
7.148594499390551
 30
0.0
 11
2.109947295513276
 21
7.142032819600525
 31
0.0
  0
LINE
  5
2D7C
330
1E
100
AcDbEntity
  8
3
100
AcDbLine
 10
2.099448607849235
 20
7.148594499390551
 30
0.0
 11
1.907847557980469
 21
7.148594499390551
 31
0.0
  0
LINE
  5
2D7D
330
1E
100
AcDbEntity
  8
3
100
AcDbLine
 10
1.897348870316427
 20
7.142032819600525
 30
0.0
 11
1.907847557980469
 21
7.148594499390551
 31
0.0
  0
LINE
  5
2D83
330
1E
100
AcDbEntity
  8
3
100
AcDbLine
 10
2.064015536983093
 20
7.157780851096587
 30
0.0
 11
1.94328062884661
 21
7.157780851096587
 31
0.0
  0
LINE
  5
2D89
330
1E
100
AcDbEntity
  8
3
100
AcDbLine
 10
1.897348870316427
 20
7.021297911464042
 30
0.0
 11
2.109947295513276
 21
7.021297911464042
 31
0.0
  0
LINE
  5
2D8F
330
1E
100
AcDbEntity
  8
3
100
AcDbLine
 10
2.064015536983093
 20
7.005549879967979
 30
0.0
 11
1.94328062884661
 21
7.005549879967979
 31
0.0
  0
LINE
  5
2D95
330
1E
100
AcDbEntity
  8
3
100
AcDbLine
 10
2.099448607849235
 20
7.014736231674016
 30
0.0
 11
1.907847557980469
 21
7.014736231674016
 31
0.0
  0
LINE
  5
2D96
330
1E
100
AcDbEntity
  8
3
100
AcDbLine
 10
2.109947295513276
 20
7.021297911464042
 30
0.0
 11
2.099448607849235
 21
7.014736231674016
 31
0.0
  0
LINE
  5
2D97
330
1E
100
AcDbEntity
  8
3
100
AcDbLine
 10
1.907847557980469
 20
7.014736231674016
 30
0.0
 11
1.897348870316427
 21
7.021297911464042
 31
0.0
  0
LINE
  5
2DAA
330
1E
100
AcDbEntity
  8
3
100
AcDbLine
 10
1.94328062884661
 20
7.157780851096587
 30
0.0
 11
1.914409237770494
 21
7.152531507264567
 31
0.0
  0
LINE
  5
2DBF
330
1E
100
AcDbEntity
  8
3
100
AcDbLine
 10
2.064015536983093
 20
7.005549879967979
 30
0.0
 11
1.94328062884661
 21
7.005549879967979
 31
0.0
  0
LINE
  5
2DC0
330
1E
100
AcDbEntity
  8
3
100
AcDbLine
 10
2.064015536983093
 20
7.157780851096587
 30
0.0
 11
1.94328062884661
 21
7.157780851096587
 31
0.0
  0
LINE
  5
2DC1
330
1E
100
AcDbEntity
  8
3
100
AcDbLine
 10
1.94328062884661
 20
6.932059066319684
 30
0.0
 11
2.064015536983093
 21
6.932059066319684
 31
0.0
  0
LINE
  5
2DC2
330
1E
100
AcDbEntity
  8
3
100
AcDbLine
 10
2.064015536983093
 20
6.932059066319684
 30
0.0
 11
2.106010287639261
 21
6.938620746109712
 31
0.0
  0
LINE
  5
2DD0
330
1E
100
AcDbEntity
  8
3
100
AcDbLine
 10
2.064015536983093
 20
7.231271664744882
 30
0.0
 11
1.94328062884661
 21
7.231271664744882
 31
0.0
  0
LINE
  5
2DDF
330
1E
100
AcDbEntity
  8
3
100
AcDbLine
 10
2.064015536983093
 20
7.233896336660892
 30
0.0
 11
2.064015536983093
 21
7.231271664744882
 31
0.0
  0
LINE
  5
2DE0
330
1E
100
AcDbEntity
  8
3
100
AcDbLine
 10
2.064015536983093
 20
6.932059066319684
 30
0.0
 11
2.064015536983093
 21
6.929434394403674
 31
0.0
  0
LINE
  5
2DF2
330
1E
100
AcDbEntity
  8
3
100
AcDbLine
 10
1.94328062884661
 20
6.929434394403674
 30
0.0
 11
1.94328062884661
 21
6.932059066319684
 31
0.0
  0
LINE
  5
2DF3
330
1E
100
AcDbEntity
  8
3
100
AcDbLine
 10
1.94328062884661
 20
7.231271664744882
 30
0.0
 11
1.94328062884661
 21
7.233896336660892
 31
0.0
  0
LINE
  5
2E05
330
1E
100
AcDbEntity
  8
3
100
AcDbLine
 10
1.94328062884661
 20
7.233896336660892
 30
0.0
 11
2.064015536983093
 21
7.233896336660892
 31
0.0
  0
LINE
  5
2E06
330
1E
100
AcDbEntity
  8
3
100
AcDbLine
 10
2.064015536983093
 20
6.929434394403674
 30
0.0
 11
1.94328062884661
 21
6.929434394403674
 31
0.0
  0
LINE
  5
2E07
330
1E
100
AcDbEntity
  8
3
100
AcDbLine
 10
3.069264880815113
 20
6.907124683117586
 30
0.0
 11
3.069264880815113
 21
7.256206047946982
 31
0.0
  0
LINE
  5
2E08
330
1E
100
AcDbEntity
  8
3
100
AcDbLine
 10
3.067952544857108
 20
7.256206047946982
 30
0.0
 11
3.069264880815113
 21
7.256206047946982
 31
0.0
  0
LINE
  5
2E09
330
1E
100
AcDbEntity
  8
3
100
AcDbLine
 10
3.067952544857108
 20
7.256206047946982
 30
0.0
 11
3.067952544857108
 21
6.907124683117586
 31
0.0
  0
LINE
  5
2E0A
330
1E
100
AcDbEntity
  8
3
100
AcDbLine
 10
3.069264880815113
 20
6.907124683117586
 30
0.0
 11
3.067952544857108
 21
6.907124683117586
 31
0.0
  0
LINE
  5
2E0B
330
1E
100
AcDbEntity
  8
3
100
AcDbLine
 10
3.037768817822987
 20
7.287702110939108
 30
0.0
 11
1.22543285981774
 21
7.287702110939108
 31
0.0
  0
LINE
  5
2E0C
330
1E
100
AcDbEntity
  8
3
100
AcDbLine
 10
1.22805753173375
 20
7.287702110939108
 30
0.0
 11
1.22543285981774
 21
7.287702110939108
 31
0.0
  0
LINE
  5
2E0D
330
1E
100
AcDbEntity
  8
3
100
AcDbLine
 10
1.22805753173375
 20
7.287702110939108
 30
0.0
 11
1.256928922809866
 21
7.287702110939108
 31
0.0
  0
LINE
  5
2E0E
330
1E
100
AcDbEntity
  8
3
100
AcDbLine
 10
1.259553594725876
 20
7.286389774981101
 30
0.0
 11
1.256928922809866
 21
7.287702110939108
 31
0.0
  0
LINE
  5
2E0F
330
1E
100
AcDbEntity
  8
3
100
AcDbLine
 10
3.004960418872856
 20
7.286389774981101
 30
0.0
 11
1.259553594725876
 21
7.286389774981101
 31
0.0
  0
LINE
  5
2E15
330
1E
100
AcDbEntity
  8
3
100
AcDbLine
 10
3.037768817822987
 20
7.287702110939108
 30
0.0
 11
3.036456481864982
 21
7.287702110939108
 31
0.0
  0
LINE
  5
2E16
330
1E
100
AcDbEntity
  8
3
100
AcDbLine
 10
1.195249132783619
 20
7.256206047946982
 30
0.0
 11
1.195249132783619
 21
6.907124683117586
 31
0.0
  0
LINE
  5
2E17
330
1E
100
AcDbEntity
  8
3
100
AcDbLine
 10
1.196561468741624
 20
6.907124683117586
 30
0.0
 11
1.195249132783619
 21
6.907124683117586
 31
0.0
  0
LINE
  5
2E18
330
1E
100
AcDbEntity
  8
3
100
AcDbLine
 10
1.196561468741624
 20
6.907124683117586
 30
0.0
 11
1.196561468741624
 21
7.256206047946982
 31
0.0
  0
LINE
  5
2E19
330
1E
100
AcDbEntity
  8
3
100
AcDbLine
 10
1.195249132783619
 20
7.256206047946982
 30
0.0
 11
1.196561468741624
 21
7.256206047946982
 31
0.0
  0
LINE
  5
2E1A
330
1E
100
AcDbEntity
  8
3
100
AcDbLine
 10
1.22543285981774
 20
6.87562862012546
 30
0.0
 11
3.037768817822987
 21
6.87562862012546
 31
0.0
  0
LINE
  5
2E1B
330
1E
100
AcDbEntity
  8
3
100
AcDbLine
 10
3.036456481864982
 20
6.87562862012546
 30
0.0
 11
3.037768817822987
 21
6.87562862012546
 31
0.0
  0
LINE
  5
2E1C
330
1E
100
AcDbEntity
  8
3
100
AcDbLine
 10
3.036456481864982
 20
6.87562862012546
 30
0.0
 11
3.007585090788866
 21
6.87562862012546
 31
0.0
  0
LINE
  5
2E1D
330
1E
100
AcDbEntity
  8
3
100
AcDbLine
 10
3.004960418872856
 20
6.876940956083465
 30
0.0
 11
3.007585090788866
 21
6.87562862012546
 31
0.0
  0
LINE
  5
2E1E
330
1E
100
AcDbEntity
  8
3
100
AcDbLine
 10
1.259553594725876
 20
6.876940956083465
 30
0.0
 11
3.004960418872856
 21
6.876940956083465
 31
0.0
  0
LINE
  5
2E24
330
1E
100
AcDbEntity
  8
3
100
AcDbLine
 10
1.22543285981774
 20
6.87562862012546
 30
0.0
 11
1.22805753173375
 21
6.87562862012546
 31
0.0
  0
LINE
  5
2E25
330
1E
100
AcDbEntity
  8
3
100
AcDbLine
 10
3.037768817822987
 20
6.87562862012546
 30
0.0
 11
3.05351684931905
 21
6.879565627999475
 31
0.0
  0
LINE
  5
2E4F
330
1E
100
AcDbEntity
  8
3
100
AcDbLine
 10
1.22805753173375
 20
6.87562862012546
 30
0.0
 11
1.212309500237687
 21
6.879565627999475
 31
0.0
  0
LINE
  5
2E55
330
1E
100
AcDbEntity
  8
3
100
AcDbLine
 10
1.259553594725876
 20
6.876940956083465
 30
0.0
 11
1.259553594725876
 21
7.286389774981101
 31
0.0
  0
LINE
  5
2E56
330
1E
100
AcDbEntity
  8
3
100
AcDbLine
 10
3.004960418872856
 20
6.876940956083465
 30
0.0
 11
3.004960418872856
 21
7.286389774981101
 31
0.0
  0
LINE
  5
2E57
330
1E
100
AcDbEntity
  8
3
100
AcDbLine
 10
2.171627085539523
 20
4.168279538760632
 30
0.0
 11
2.751679578977843
 21
4.168279538760632
 31
0.0
  0
LINE
  5
2E58
330
1E
100
AcDbEntity
  8
3
100
AcDbLine
 10
2.171627085539523
 20
4.813948830099215
 30
0.0
 11
2.751679578977843
 21
4.813948830099215
 31
0.0
  0
LINE
  5
2E59
330
1E
100
AcDbEntity
  8
3
100
AcDbLine
 10
2.171627085539523
 20
5.063292662120211
 30
0.0
 11
2.751679578977843
 21
5.063292662120211
 31
0.0
  0
LINE
  5
2E5A
330
1E
100
AcDbEntity
  8
3
100
AcDbLine
 10
2.171627085539523
 20
5.708961953458794
 30
0.0
 11
2.751679578977843
 21
5.708961953458794
 31
0.0
  0
LINE
  5
2E5B
330
1E
100
AcDbEntity
  8
3
100
AcDbLine
 10
2.171627085539523
 20
5.95830578547979
 30
0.0
 11
2.751679578977843
 21
5.95830578547979
 31
0.0
  0
LINE
  5
2E5C
330
1E
100
AcDbEntity
  8
3
100
AcDbLine
 10
2.171627085539523
 20
6.603975076818372
 30
0.0
 11
2.751679578977843
 21
6.603975076818372
 31
0.0
  0
LINE
  5
2E5D
330
1E
100
AcDbEntity
  8
3
100
AcDbLine
 10
1.262178266641886
 20
5.95830578547979
 30
0.0
 11
1.842230760080206
 21
5.95830578547979
 31
0.0
  0
LINE
  5
2E5E
330
1E
100
AcDbEntity
  8
3
100
AcDbLine
 10
1.262178266641886
 20
6.603975076818372
 30
0.0
 11
1.842230760080206
 21
6.603975076818372
 31
0.0
  0
LINE
  5
2E5F
330
1E
100
AcDbEntity
  8
3
100
AcDbLine
 10
1.262178266641886
 20
4.168279538760632
 30
0.0
 11
1.842230760080206
 21
4.168279538760632
 31
0.0
  0
LINE
  5
2E60
330
1E
100
AcDbEntity
  8
3
100
AcDbLine
 10
1.262178266641886
 20
4.813948830099215
 30
0.0
 11
1.842230760080206
 21
4.813948830099215
 31
0.0
  0
LINE
  5
2E61
330
1E
100
AcDbEntity
  8
3
100
AcDbLine
 10
1.262178266641886
 20
5.063292662120211
 30
0.0
 11
1.842230760080206
 21
5.063292662120211
 31
0.0
  0
LINE
  5
2E62
330
1E
100
AcDbEntity
  8
3
100
AcDbLine
 10
1.262178266641886
 20
5.708961953458794
 30
0.0
 11
1.842230760080206
 21
5.708961953458794
 31
0.0
  0
LINE
  5
2E63
330
1E
100
AcDbEntity
  8
3
100
AcDbLine
 10
1.842230760080206
 20
4.168279538760632
 30
0.0
 11
1.842230760080206
 21
4.813948830099215
 31
0.0
  0
LINE
  5
2E64
330
1E
100
AcDbEntity
  8
3
100
AcDbLine
 10
1.842230760080206
 20
5.063292662120211
 30
0.0
 11
1.842230760080206
 21
5.708961953458794
 31
0.0
  0
LINE
  5
2E65
330
1E
100
AcDbEntity
  8
3
100
AcDbLine
 10
1.842230760080206
 20
5.95830578547979
 30
0.0
 11
1.842230760080206
 21
6.603975076818372
 31
0.0
  0
LINE
  5
2E66
330
1E
100
AcDbEntity
  8
3
100
AcDbLine
 10
1.262178266641886
 20
5.95830578547979
 30
0.0
 11
1.262178266641886
 21
6.603975076818372
 31
0.0
  0
LINE
  5
2E67
330
1E
100
AcDbEntity
  8
3
100
AcDbLine
 10
1.262178266641886
 20
5.063292662120211
 30
0.0
 11
1.262178266641886
 21
5.708961953458794
 31
0.0
  0
LINE
  5
2E68
330
1E
100
AcDbEntity
  8
3
100
AcDbLine
 10
1.262178266641886
 20
4.168279538760632
 30
0.0
 11
1.262178266641886
 21
4.813948830099215
 31
0.0
  0
LINE
  5
2E69
330
1E
100
AcDbEntity
  8
3
100
AcDbLine
 10
2.751679578977843
 20
4.168279538760632
 30
0.0
 11
2.751679578977843
 21
4.813948830099215
 31
0.0
  0
LINE
  5
2E6A
330
1E
100
AcDbEntity
  8
3
100
AcDbLine
 10
2.751679578977843
 20
5.063292662120211
 30
0.0
 11
2.751679578977843
 21
5.708961953458794
 31
0.0
  0
LINE
  5
2E6B
330
1E
100
AcDbEntity
  8
3
100
AcDbLine
 10
2.751679578977843
 20
5.95830578547979
 30
0.0
 11
2.751679578977843
 21
6.603975076818372
 31
0.0
  0
LINE
  5
2E6C
330
1E
100
AcDbEntity
  8
3
100
AcDbLine
 10
2.171627085539523
 20
5.95830578547979
 30
0.0
 11
2.171627085539523
 21
6.603975076818372
 31
0.0
  0
LINE
  5
2E6D
330
1E
100
AcDbEntity
  8
3
100
AcDbLine
 10
2.171627085539523
 20
5.063292662120211
 30
0.0
 11
2.171627085539523
 21
5.708961953458794
 31
0.0
  0
LINE
  5
2E6E
330
1E
100
AcDbEntity
  8
3
100
AcDbLine
 10
2.171627085539523
 20
4.168279538760632
 30
0.0
 11
2.171627085539523
 21
4.813948830099215
 31
0.0
  0
LINE
  5
2E6F
330
1E
100
AcDbEntity
  8
3
100
AcDbLine
 10
-0.8428086099985323
 20
4.005549879967982
 30
0.0
 11
-0.8139372189224163
 21
4.005549879967982
 31
0.0
  0
LINE
  5
2E76
330
1E
100
AcDbEntity
  8
3
100
AcDbLine
 10
-0.8729923370326524
 20
3.626284788104465
 30
0.0
 11
-0.8729923370326524
 21
3.975366152933861
 31
0.0
  0
LINE
  5
2E7D
330
1E
100
AcDbEntity
  8
3
100
AcDbLine
 10
-0.8139372189224163
 20
3.594788725112339
 30
0.0
 11
-0.8428086099985323
 21
3.594788725112339
 31
0.0
  0
LINE
  5
2E8C
330
1E
100
AcDbEntity
  8
3
100
AcDbLine
 10
0.1309446708413624
 20
3.951744105689766
 30
0.0
 11
0.2503672430198405
 21
3.951744105689766
 31
0.0
  0
LINE
  5
2E9E
330
1E
100
AcDbEntity
  8
3
100
AcDbLine
 10
0.2503672430198405
 20
3.648594499390554
 30
0.0
 11
0.1309446708413624
 21
3.648594499390554
 31
0.0
  0
LINE
  5
2E9F
330
1E
100
AcDbEntity
  8
3
100
AcDbLine
 10
0.1309446708413624
 20
3.951744105689766
 30
0.0
 11
0.0889499201851942
 21
3.94518242589974
 31
0.0
  0
LINE
  5
2EAD
330
1E
100
AcDbEntity
  8
3
100
AcDbLine
 10
-0.8100002110484005
 20
4.005549879967982
 30
0.0
 11
-0.8100002110484005
 21
3.596101061070344
 31
0.0
  0
LINE
  5
2EAE
330
1E
100
AcDbEntity
  8
3
100
AcDbLine
 10
-0.8100002110484005
 20
3.596101061070344
 30
0.0
 11
0.934094277140575
 21
3.596101061070344
 31
0.0
  0
LINE
  5
2EAF
330
1E
100
AcDbEntity
  8
3
100
AcDbLine
 10
0.934094277140575
 20
4.005549879967982
 30
0.0
 11
0.934094277140575
 21
3.596101061070344
 31
0.0
  0
LINE
  5
2EB5
330
1E
100
AcDbEntity
  8
3
100
AcDbLine
 10
-0.8100002110484005
 20
3.596101061070344
 30
0.0
 11
-0.8139372189224163
 21
3.594788725112339
 31
0.0
  0
LINE
  5
2EB6
330
1E
100
AcDbEntity
  8
3
100
AcDbLine
 10
0.934094277140575
 20
4.005549879967982
 30
0.0
 11
0.9380312850145902
 21
4.005549879967982
 31
0.0
  0
LINE
  5
2EB7
330
1E
100
AcDbEntity
  8
3
100
AcDbLine
 10
0.934094277140575
 20
3.596101061070344
 30
0.0
 11
0.9380312850145902
 21
3.594788725112339
 31
0.0
  0
LINE
  5
2EB8
330
1E
100
AcDbEntity
  8
3
100
AcDbLine
 10
0.9669026760907058
 20
3.594788725112339
 30
0.0
 11
0.9380312850145902
 21
3.594788725112339
 31
0.0
  0
LINE
  5
2EBF
330
1E
100
AcDbEntity
  8
3
100
AcDbLine
 10
0.9983987390828318
 20
3.975366152933861
 30
0.0
 11
0.9983987390828318
 21
3.626284788104465
 31
0.0
  0
LINE
  5
2EC5
330
1E
100
AcDbEntity
  8
3
100
AcDbLine
 10
0.9931493952508105
 20
3.991114184429924
 30
0.0
 11
0.9983987390828318
 21
3.975366152933861
 31
0.0
  0
LINE
  5
2EC6
330
1E
100
AcDbEntity
  8
3
100
AcDbLine
 10
0.9380312850145902
 20
4.005549879967982
 30
0.0
 11
0.9669026760907058
 21
4.005549879967982
 31
0.0
  0
LINE
  5
2ECE
330
1E
100
AcDbEntity
  8
3
100
AcDbLine
 10
0.9983987390828318
 20
3.975366152933861
 30
0.0
 11
0.9997110750408371
 21
3.975366152933861
 31
0.0
  0
LINE
  5
2ED9
330
1E
100
AcDbEntity
  8
3
100
AcDbLine
 10
0.9669026760907058
 20
3.594788725112339
 30
0.0
 11
0.9682150120487111
 21
3.594788725112339
 31
0.0
  0
LINE
  5
2EE1
330
1E
100
AcDbEntity
  8
3
100
AcDbLine
 10
-0.8729923370326524
 20
3.626284788104465
 30
0.0
 11
-0.8756170089486623
 21
3.626284788104465
 31
0.0
  0
LINE
  5
2EE2
330
1E
100
AcDbEntity
  8
3
100
AcDbLine
 10
-0.8441209459565373
 20
4.006862215925987
 30
0.0
 11
-0.8598689774526002
 21
4.002925208051971
 31
0.0
  0
LINE
  5
2EE9
330
1E
100
AcDbEntity
  8
3
100
AcDbLine
 10
-0.8428086099985323
 20
4.005549879967982
 30
0.0
 11
-0.8441209459565373
 21
4.006862215925987
 31
0.0
  0
LINE
  5
2EEA
330
1E
100
AcDbEntity
  8
3
100
AcDbLine
 10
0.9682150120487111
 20
4.006862215925987
 30
0.0
 11
-0.8441209459565373
 21
4.006862215925987
 31
0.0
  0
LINE
  5
2EEB
330
1E
100
AcDbEntity
  8
3
100
AcDbLine
 10
0.9997110750408371
 20
3.626284788104465
 30
0.0
 11
0.9997110750408371
 21
3.975366152933861
 31
0.0
  0
LINE
  5
2EEC
330
1E
100
AcDbEntity
  8
3
100
AcDbLine
 10
-0.8441209459565373
 20
3.594788725112339
 30
0.0
 11
0.9682150120487111
 21
3.594788725112339
 31
0.0
  0
LINE
  5
2EED
330
1E
100
AcDbEntity
  8
3
100
AcDbLine
 10
-0.8756170089486623
 20
3.975366152933861
 30
0.0
 11
-0.8756170089486623
 21
3.626284788104465
 31
0.0
  0
LINE
  5
2EEE
330
1E
100
AcDbEntity
  8
3
100
AcDbLine
 10
0.1309446708413624
 20
3.950431769731761
 30
0.0
 11
0.1309446708413624
 21
3.951744105689766
 31
0.0
  0
LINE
  5
2EEF
330
1E
100
AcDbEntity
  8
3
100
AcDbLine
 10
0.2503672430198405
 20
3.950431769731761
 30
0.0
 11
0.1309446708413624
 21
3.950431769731761
 31
0.0
  0
LINE
  5
2EF0
330
1E
100
AcDbEntity
  8
3
100
AcDbLine
 10
0.2503672430198405
 20
3.951744105689766
 30
0.0
 11
0.2503672430198405
 21
3.950431769731761
 31
0.0
  0
LINE
  5
2EF1
330
1E
100
AcDbEntity
  8
3
100
AcDbLine
 10
0.2503672430198405
 20
3.651219171306565
 30
0.0
 11
0.2503672430198405
 21
3.648594499390554
 31
0.0
  0
LINE
  5
2EF2
330
1E
100
AcDbEntity
  8
3
100
AcDbLine
 10
0.1309446708413624
 20
3.651219171306565
 30
0.0
 11
0.2503672430198405
 21
3.651219171306565
 31
0.0
  0
LINE
  5
2EF3
330
1E
100
AcDbEntity
  8
3
100
AcDbLine
 10
0.1309446708413624
 20
3.648594499390554
 30
0.0
 11
0.1309446708413624
 21
3.651219171306565
 31
0.0
  0
LINE
  5
2F0F
330
1E
100
AcDbEntity
  8
3
100
AcDbLine
 10
0.0889499201851942
 20
3.657780851096591
 30
0.0
 11
0.1309446708413624
 21
3.651219171306565
 31
0.0
  0
LINE
  5
2F10
330
1E
100
AcDbEntity
  8
3
100
AcDbLine
 10
0.1309446708413624
 20
3.876940956083467
 30
0.0
 11
0.2503672430198405
 21
3.876940956083467
 31
0.0
  0
LINE
  5
2F1C
330
1E
100
AcDbEntity
  8
3
100
AcDbLine
 10
0.1309446708413624
 20
3.724709984954859
 30
0.0
 11
0.2503672430198405
 21
3.724709984954859
 31
0.0
  0
LINE
  5
2F28
330
1E
100
AcDbEntity
  8
3
100
AcDbLine
 10
0.1309446708413624
 20
3.724709984954859
 30
0.0
 11
0.2503672430198405
 21
3.724709984954859
 31
0.0
  0
LINE
  5
2F29
330
1E
100
AcDbEntity
  8
3
100
AcDbLine
 10
0.1309446708413624
 20
3.876940956083467
 30
0.0
 11
0.2503672430198405
 21
3.876940956083467
 31
0.0
  0
LINE
  5
2F2A
330
1E
100
AcDbEntity
  8
3
100
AcDbLine
 10
0.2976113375080289
 20
3.740458016450922
 30
0.0
 11
0.2871126498439871
 21
3.733896336660895
 31
0.0
  0
LINE
  5
2F35
330
1E
100
AcDbEntity
  8
3
100
AcDbLine
 10
0.2871126498439871
 20
3.86775460437743
 30
0.0
 11
0.2976113375080289
 21
3.861192924587404
 31
0.0
  0
LINE
  5
2F3B
330
1E
100
AcDbEntity
  8
3
100
AcDbLine
 10
0.0941992640172158
 20
3.733896336660895
 30
0.0
 11
0.0850129123111785
 21
3.740458016450922
 31
0.0
  0
LINE
  5
2F3C
330
1E
100
AcDbEntity
  8
3
100
AcDbLine
 10
0.0850129123111785
 20
3.861192924587404
 30
0.0
 11
0.0941992640172158
 21
3.86775460437743
 31
0.0
  0
LINE
  5
2F42
330
1E
100
AcDbEntity
  8
3
100
AcDbLine
 10
0.0941992640172158
 20
3.86775460437743
 30
0.0
 11
0.2871126498439871
 21
3.86775460437743
 31
0.0
  0
LINE
  5
2F43
330
1E
100
AcDbEntity
  8
3
100
AcDbLine
 10
0.2976113375080289
 20
3.861192924587404
 30
0.0
 11
0.0850129123111785
 21
3.861192924587404
 31
0.0
  0
LINE
  5
2F44
330
1E
100
AcDbEntity
  8
3
100
AcDbLine
 10
0.0941992640172158
 20
3.733896336660895
 30
0.0
 11
0.2871126498439871
 21
3.733896336660895
 31
0.0
  0
LINE
  5
2F45
330
1E
100
AcDbEntity
  8
3
100
AcDbLine
 10
0.2976113375080289
 20
3.740458016450922
 30
0.0
 11
0.0850129123111785
 21
3.740458016450922
 31
0.0
  0
LINE
  5
2F46
330
1E
100
AcDbEntity
  8
3
100
AcDbLine
 10
-0.9254857753528629
 20
3.418935706739635
 30
0.0
 11
3.119133647219313
 21
3.418935706739635
 31
0.0
  0
LINE
  5
2F4C
330
1E
100
AcDbEntity
  8
3
100
AcDbLine
 10
0.9997110750408371
 20
7.256206047946982
 30
0.0
 11
0.9997110750408371
 21
6.907124683117586
 31
0.0
  0
LINE
  5
2F5F
330
1E
100
AcDbEntity
  8
3
100
AcDbLine
 10
0.0220207863269266
 20
4.168279538760632
 30
0.0
 11
0.0220207863269266
 21
4.813948830099215
 31
0.0
  0
LINE
  5
2F65
330
1E
100
AcDbEntity
  8
3
100
AcDbLine
 10
0.0220207863269266
 20
4.813948830099215
 30
0.0
 11
-0.5580317071113923
 21
4.813948830099215
 31
0.0
  0
LINE
  5
2F66
330
1E
100
AcDbEntity
  8
3
100
AcDbLine
 10
0.0220207863269266
 20
5.063292662120211
 30
0.0
 11
0.0220207863269266
 21
5.708961953458794
 31
0.0
  0
LINE
  5
2F67
330
1E
100
AcDbEntity
  8
3
100
AcDbLine
 10
0.0220207863269266
 20
5.063292662120211
 30
0.0
 11
-0.5580317071113923
 21
5.063292662120211
 31
0.0
  0
LINE
  5
2F68
330
1E
100
AcDbEntity
  8
3
100
AcDbLine
 10
-0.5580317071113923
 20
5.063292662120211
 30
0.0
 11
-0.5580317071113923
 21
5.708961953458794
 31
0.0
  0
LINE
  5
2F69
330
1E
100
AcDbEntity
  8
3
100
AcDbLine
 10
0.0220207863269266
 20
5.708961953458794
 30
0.0
 11
-0.5580317071113923
 21
5.708961953458794
 31
0.0
  0
LINE
  5
2F6A
330
1E
100
AcDbEntity
  8
3
100
AcDbLine
 10
0.0220207863269266
 20
5.95830578547979
 30
0.0
 11
0.0220207863269266
 21
6.603975076818372
 31
0.0
  0
LINE
  5
2F70
330
1E
100
AcDbEntity
  8
3
100
AcDbLine
 10
0.0220207863269266
 20
6.603975076818372
 30
0.0
 11
-0.5580317071113923
 21
6.603975076818372
 31
0.0
  0
LINE
  5
2F71
330
1E
100
AcDbEntity
  8
3
100
AcDbLine
 10
0.9327819411825689
 20
5.95830578547979
 30
0.0
 11
0.9327819411825689
 21
6.603975076818372
 31
0.0
  0
LINE
  5
2F77
330
1E
100
AcDbEntity
  8
3
100
AcDbLine
 10
0.9327819411825689
 20
6.603975076818372
 30
0.0
 11
0.3527294477442497
 21
6.603975076818372
 31
0.0
  0
LINE
  5
2F78
330
1E
100
AcDbEntity
  8
3
100
AcDbLine
 10
0.9327819411825689
 20
4.168279538760632
 30
0.0
 11
0.9327819411825689
 21
4.813948830099215
 31
0.0
  0
LINE
  5
2F7E
330
1E
100
AcDbEntity
  8
3
100
AcDbLine
 10
0.9327819411825689
 20
4.813948830099215
 30
0.0
 11
0.3527294477442497
 21
4.813948830099215
 31
0.0
  0
LINE
  5
2F7F
330
1E
100
AcDbEntity
  8
3
100
AcDbLine
 10
0.9327819411825689
 20
5.063292662120211
 30
0.0
 11
0.9327819411825689
 21
5.708961953458794
 31
0.0
  0
LINE
  5
2F85
330
1E
100
AcDbEntity
  8
3
100
AcDbLine
 10
0.9327819411825689
 20
5.708961953458794
 30
0.0
 11
0.3527294477442497
 21
5.708961953458794
 31
0.0
  0
LINE
  5
2F86
330
1E
100
AcDbEntity
  8
3
100
AcDbLine
 10
-1.149895224171759
 20
3.254893711988979
 30
0.0
 11
-1.149895224171759
 21
7.627597124062466
 31
0.0
  0
LINE
  5
2F8D
330
1E
100
AcDbEntity
  8
3
100
AcDbLine
 10
-1.089527770103519
 20
7.687964578130708
 30
0.0
 11
3.284487977927974
 21
7.687964578130708
 31
0.0
  0
LINE
  5
2F93
330
1E
100
AcDbEntity
  8
3
100
AcDbLine
 10
-1.093464777977534
 20
3.190589250046722
 30
0.0
 11
3.287112649843984
 21
3.190589250046722
 31
0.0
  0
LINE
  5
2F94
330
1E
100
AcDbEntity
  8
3
100
AcDbLine
 10
3.284487977927974
 20
3.194526257920738
 30
0.0
 11
-1.089527770103519
 21
3.194526257920738
 31
0.0
  0
LINE
  5
2FCB
330
1E
100
AcDbEntity
  8
3
100
AcDbLine
 10
-0.9254857753528629
 20
7.46355512931181
 30
0.0
 11
-0.9674805260090302
 21
7.493738856345931
 31
0.0
  0
LINE
  5
2FDC
330
1E
100
AcDbEntity
  8
3
100
AcDbLine
 10
-1.149895224171759
 20
3.254893711988979
 30
0.0
 11
-1.142021208423728
 21
3.224709984954858
 31
0.0
  0
LINE
  5
2FE2
330
1E
100
AcDbEntity
  8
3
100
AcDbLine
 10
0.2976113375080289
 20
7.142032819600525
 30
0.0
 11
0.0850129123111785
 21
7.142032819600525
 31
0.0
  0
LINE
  5
2FE3
330
1E
100
AcDbEntity
  8
3
100
AcDbLine
 10
0.2976113375080289
 20
7.142032819600525
 30
0.0
 11
0.2871126498439871
 21
7.148594499390551
 31
0.0
  0
LINE
  5
2FE4
330
1E
100
AcDbEntity
  8
3
100
AcDbLine
 10
0.0941992640172158
 20
7.148594499390551
 30
0.0
 11
0.2871126498439871
 21
7.148594499390551
 31
0.0
  0
LINE
  5
2FE5
330
1E
100
AcDbEntity
  8
3
100
AcDbLine
 10
0.0941992640172158
 20
7.148594499390551
 30
0.0
 11
0.0850129123111785
 21
7.142032819600525
 31
0.0
  0
LINE
  5
2FEB
330
1E
100
AcDbEntity
  8
3
100
AcDbLine
 10
0.1309446708413624
 20
7.157780851096587
 30
0.0
 11
0.2503672430198405
 21
7.157780851096587
 31
0.0
  0
LINE
  5
2FF1
330
1E
100
AcDbEntity
  8
3
100
AcDbLine
 10
0.2976113375080289
 20
7.021297911464042
 30
0.0
 11
0.0850129123111785
 21
7.021297911464042
 31
0.0
  0
LINE
  5
2FF7
330
1E
100
AcDbEntity
  8
3
100
AcDbLine
 10
0.0941992640172158
 20
7.014736231674016
 30
0.0
 11
0.2871126498439871
 21
7.014736231674016
 31
0.0
  0
LINE
  5
2FFD
330
1E
100
AcDbEntity
  8
3
100
AcDbLine
 10
0.1309446708413624
 20
7.005549879967979
 30
0.0
 11
0.2503672430198405
 21
7.005549879967979
 31
0.0
  0
LINE
  5
2FFE
330
1E
100
AcDbEntity
  8
3
100
AcDbLine
 10
0.2871126498439871
 20
7.014736231674016
 30
0.0
 11
0.2976113375080289
 21
7.021297911464042
 31
0.0
  0
LINE
  5
2FFF
330
1E
100
AcDbEntity
  8
3
100
AcDbLine
 10
0.0850129123111785
 20
7.021297911464042
 30
0.0
 11
0.0941992640172158
 21
7.014736231674016
 31
0.0
  0
LINE
  5
302A
330
1E
100
AcDbEntity
  8
3
100
AcDbLine
 10
0.1309446708413624
 20
7.005549879967979
 30
0.0
 11
0.2503672430198405
 21
7.005549879967979
 31
0.0
  0
LINE
  5
302B
330
1E
100
AcDbEntity
  8
3
100
AcDbLine
 10
0.1309446708413624
 20
7.157780851096587
 30
0.0
 11
0.2503672430198405
 21
7.157780851096587
 31
0.0
  0
LINE
  5
302C
330
1E
100
AcDbEntity
  8
3
100
AcDbLine
 10
0.2503672430198405
 20
6.932059066319684
 30
0.0
 11
0.1309446708413624
 21
6.932059066319684
 31
0.0
  0
LINE
  5
303B
330
1E
100
AcDbEntity
  8
3
100
AcDbLine
 10
0.1309446708413624
 20
7.231271664744882
 30
0.0
 11
0.2503672430198405
 21
7.231271664744882
 31
0.0
  0
LINE
  5
3049
330
1E
100
AcDbEntity
  8
3
100
AcDbLine
 10
0.0889499201851942
 20
6.938620746109712
 30
0.0
 11
0.1309446708413624
 21
6.932059066319684
 31
0.0
  0
LINE
  5
304A
330
1E
100
AcDbEntity
  8
3
100
AcDbLine
 10
0.1309446708413624
 20
7.233896336660892
 30
0.0
 11
0.1309446708413624
 21
7.231271664744882
 31
0.0
  0
LINE
  5
305C
330
1E
100
AcDbEntity
  8
3
100
AcDbLine
 10
0.1309446708413624
 20
6.932059066319684
 30
0.0
 11
0.1309446708413624
 21
6.929434394403674
 31
0.0
  0
LINE
  5
305D
330
1E
100
AcDbEntity
  8
3
100
AcDbLine
 10
0.2503672430198405
 20
6.929434394403674
 30
0.0
 11
0.2503672430198405
 21
6.932059066319684
 31
0.0
  0
LINE
  5
3074
330
1E
100
AcDbEntity
  8
3
100
AcDbLine
 10
0.1309446708413624
 20
6.929434394403674
 30
0.0
 11
0.2503672430198405
 21
6.929434394403674
 31
0.0
  0
LINE
  5
3075
330
1E
100
AcDbEntity
  8
3
100
AcDbLine
 10
-0.8756170089486623
 20
6.907124683117586
 30
0.0
 11
-0.8729923370326524
 21
6.907124683117586
 31
0.0
  0
LINE
  5
3076
330
1E
100
AcDbEntity
  8
3
100
AcDbLine
 10
-0.8729923370326524
 20
7.256206047946982
 30
0.0
 11
-0.8729923370326524
 21
6.907124683117586
 31
0.0
  0
LINE
  5
3077
330
1E
100
AcDbEntity
  8
3
100
AcDbLine
 10
-0.8729923370326524
 20
7.256206047946982
 30
0.0
 11
-0.8756170089486623
 21
7.256206047946982
 31
0.0
  0
LINE
  5
3078
330
1E
100
AcDbEntity
  8
3
100
AcDbLine
 10
-0.8441209459565373
 20
7.287702110939108
 30
0.0
 11
-0.8428086099985323
 21
7.287702110939108
 31
0.0
  0
LINE
  5
3079
330
1E
100
AcDbEntity
  8
3
100
AcDbLine
 10
-0.8139372189224163
 20
7.287702110939108
 30
0.0
 11
-0.8428086099985323
 21
7.287702110939108
 31
0.0
  0
LINE
  5
307A
330
1E
100
AcDbEntity
  8
3
100
AcDbLine
 10
-0.8100002110484005
 20
7.286389774981101
 30
0.0
 11
-0.8139372189224163
 21
7.287702110939108
 31
0.0
  0
LINE
  5
3080
330
1E
100
AcDbEntity
  8
3
100
AcDbLine
 10
0.9669026760907058
 20
7.287702110939108
 30
0.0
 11
0.9380312850145902
 21
7.287702110939108
 31
0.0
  0
LINE
  5
3081
330
1E
100
AcDbEntity
  8
3
100
AcDbLine
 10
0.9669026760907058
 20
7.287702110939108
 30
0.0
 11
0.9682150120487111
 21
7.287702110939108
 31
0.0
  0
LINE
  5
3082
330
1E
100
AcDbEntity
  8
3
100
AcDbLine
 10
0.9997110750408371
 20
7.256206047946982
 30
0.0
 11
0.9983987390828318
 21
7.256206047946982
 31
0.0
  0
LINE
  5
3083
330
1E
100
AcDbEntity
  8
3
100
AcDbLine
 10
0.9983987390828318
 20
6.907124683117586
 30
0.0
 11
0.9983987390828318
 21
7.256206047946982
 31
0.0
  0
LINE
  5
3084
330
1E
100
AcDbEntity
  8
3
100
AcDbLine
 10
0.9983987390828318
 20
6.907124683117586
 30
0.0
 11
0.9997110750408371
 21
6.907124683117586
 31
0.0
  0
LINE
  5
3085
330
1E
100
AcDbEntity
  8
3
100
AcDbLine
 10
0.9682150120487111
 20
6.87562862012546
 30
0.0
 11
0.9669026760907058
 21
6.87562862012546
 31
0.0
  0
LINE
  5
3086
330
1E
100
AcDbEntity
  8
3
100
AcDbLine
 10
0.9380312850145902
 20
6.87562862012546
 30
0.0
 11
0.9669026760907058
 21
6.87562862012546
 31
0.0
  0
LINE
  5
3087
330
1E
100
AcDbEntity
  8
3
100
AcDbLine
 10
0.934094277140575
 20
6.876940956083465
 30
0.0
 11
0.9380312850145902
 21
6.87562862012546
 31
0.0
  0
LINE
  5
308D
330
1E
100
AcDbEntity
  8
3
100
AcDbLine
 10
-0.8428086099985323
 20
6.87562862012546
 30
0.0
 11
-0.8139372189224163
 21
6.87562862012546
 31
0.0
  0
LINE
  5
308E
330
1E
100
AcDbEntity
  8
3
100
AcDbLine
 10
-0.8428086099985323
 20
6.87562862012546
 30
0.0
 11
-0.8441209459565373
 21
6.87562862012546
 31
0.0
  0
LINE
  5
30A7
330
1E
100
AcDbEntity
  8
3
100
AcDbLine
 10
0.934094277140575
 20
6.876940956083465
 30
0.0
 11
0.934094277140575
 21
7.286389774981101
 31
0.0
  0
LINE
  5
30A8
330
1E
100
AcDbEntity
  8
3
100
AcDbLine
 10
-0.8100002110484005
 20
6.876940956083465
 30
0.0
 11
-0.8100002110484005
 21
7.286389774981101
 31
0.0
  0
LINE
  5
30A9
330
1E
100
AcDbEntity
  8
3
100
AcDbLine
 10
5.814671704962092
 20
3.25751838390499
 30
0.0
 11
5.814671704962092
 21
7.631534131936483
 31
0.0
  0
LINE
  5
30AA
330
1E
100
AcDbEntity
  8
3
100
AcDbLine
 10
5.876351494988338
 20
3.254893711988979
 30
0.0
 11
5.814671704962092
 21
3.25751838390499
 31
0.0
  0
LINE
  5
30AB
330
1E
100
AcDbEntity
  8
3
100
AcDbLine
 10
5.876351494988338
 20
7.635471139810498
 30
0.0
 11
5.876351494988338
 21
3.254893711988979
 31
0.0
  0
LINE
  5
30AC
330
1E
100
AcDbEntity
  8
3
100
AcDbLine
 10
5.814671704962092
 20
7.631534131936483
 30
0.0
 11
5.876351494988338
 21
7.635471139810498
 31
0.0
  0
LINE
  5
30AD
330
1E
100
AcDbEntity
  8
3
100
AcDbLine
 10
5.600760943807236
 20
7.467492137185826
 30
0.0
 11
5.600760943807236
 21
3.422872714613651
 31
0.0
  0
LINE
  5
30AE
330
1E
100
AcDbEntity
  8
3
100
AcDbLine
 10
5.814671704962092
 20
3.25751838390499
 30
0.0
 11
5.771364618347919
 21
3.262767727737011
 31
0.0
  0
LINE
  5
30C3
330
1E
100
AcDbEntity
  8
3
100
AcDbLine
 10
5.771364618347919
 20
7.627597124062466
 30
0.0
 11
5.814671704962092
 21
7.631534131936483
 31
0.0
  0
LINE
  5
30F9
330
1E
100
AcDbEntity
  8
3
100
AcDbLine
 10
5.876351494988338
 20
6.824447517763255
 30
0.0
 11
6.052204513361042
 21
6.821822845847243
 31
0.0
  0
LINE
  5
3106
330
1E
100
AcDbEntity
  8
3
100
AcDbLine
 10
5.981338371628758
 20
4.16565486684462
 30
0.0
 11
5.993149395250807
 21
4.16565486684462
 31
0.0
  0
LINE
  5
3113
330
1E
100
AcDbEntity
  8
3
100
AcDbLine
 10
6.052204513361042
 20
4.993738856345933
 30
0.0
 11
6.052204513361042
 21
5.000300536135959
 31
0.0
  0
LINE
  5
311B
330
1E
100
AcDbEntity
  8
3
100
AcDbLine
 10
5.981338371628758
 20
5.0606679902042
 30
0.0
 11
5.993149395250807
 21
5.0606679902042
 31
0.0
  0
LINE
  5
3128
330
1E
100
AcDbEntity
  8
3
100
AcDbLine
 10
6.052204513361042
 20
5.888751979705512
 30
0.0
 11
6.052204513361042
 21
5.895313659495538
 31
0.0
  0
LINE
  5
3129
330
1E
100
AcDbEntity
  8
3
100
AcDbLine
 10
5.993149395250807
 20
5.95568111356378
 30
0.0
 11
6.015459106536895
 21
5.950431769731759
 31
0.0
  0
LINE
  5
3130
330
1E
100
AcDbEntity
  8
3
100
AcDbLine
 10
5.981338371628758
 20
5.95568111356378
 30
0.0
 11
5.993149395250807
 21
5.95568111356378
 31
0.0
  0
LINE
  5
313D
330
1E
100
AcDbEntity
  8
3
100
AcDbLine
 10
6.052204513361042
 20
6.783765103065092
 30
0.0
 11
6.052204513361042
 21
6.821822845847243
 31
0.0
  0
LINE
  5
313E
330
1E
100
AcDbEntity
  8
3
100
AcDbLine
 10
5.985275379502774
 20
4.16565486684462
 30
0.0
 11
5.985275379502774
 21
4.933371402277692
 31
0.0
  0
LINE
  5
313F
330
1E
100
AcDbEntity
  8
3
100
AcDbLine
 10
5.985275379502774
 20
5.0606679902042
 30
0.0
 11
5.985275379502774
 21
5.828384525637272
 31
0.0
  0
LINE
  5
3140
330
1E
100
AcDbEntity
  8
3
100
AcDbLine
 10
5.985275379502774
 20
5.95568111356378
 30
0.0
 11
5.985275379502774
 21
6.72339764899685
 31
0.0
  0
LINE
  5
3144
330
1E
100
AcDbEntity
  8
3
100
AcDbLine
 10
6.052204513361042
 20
6.783765103065092
 30
0.0
 11
6.046955169529021
 21
6.761455391779003
 31
0.0
  0
LINE
  5
3145
330
1E
100
AcDbEntity
  8
3
100
AcDbLine
 10
6.046955169529021
 20
6.761455391779003
 30
0.0
 11
6.035144145906974
 21
6.741770352408924
 31
0.0
  0
LINE
  5
3146
330
1E
100
AcDbEntity
  8
3
100
AcDbLine
 10
6.035144145906974
 20
6.741770352408924
 30
0.0
 11
6.015459106536895
 21
6.728646992828871
 31
0.0
  0
LINE
  5
3147
330
1E
100
AcDbEntity
  8
3
100
AcDbLine
 10
6.015459106536895
 20
6.728646992828871
 30
0.0
 11
5.993149395250807
 21
6.724709984954856
 31
0.0
  0
LINE
  5
3148
330
1E
100
AcDbEntity
  8
3
100
AcDbLine
 10
5.981338371628758
 20
5.95568111356378
 30
0.0
 11
5.981338371628758
 21
6.72339764899685
 31
0.0
  0
LINE
  5
3149
330
1E
100
AcDbEntity
  8
3
100
AcDbLine
 10
5.981338371628758
 20
6.72339764899685
 30
0.0
 11
5.993149395250807
 21
6.724709984954856
 31
0.0
  0
LINE
  5
314A
330
1E
100
AcDbEntity
  8
3
100
AcDbLine
 10
6.015459106536895
 20
5.950431769731759
 30
0.0
 11
6.035144145906974
 21
5.937308410151706
 31
0.0
  0
LINE
  5
314B
330
1E
100
AcDbEntity
  8
3
100
AcDbLine
 10
6.035144145906974
 20
5.937308410151706
 30
0.0
 11
6.046955169529021
 21
5.918935706739633
 31
0.0
  0
LINE
  5
314C
330
1E
100
AcDbEntity
  8
3
100
AcDbLine
 10
6.046955169529021
 20
5.918935706739633
 30
0.0
 11
6.052204513361042
 21
5.895313659495538
 31
0.0
  0
LINE
  5
314D
330
1E
100
AcDbEntity
  8
3
100
AcDbLine
 10
6.052204513361042
 20
5.888751979705512
 30
0.0
 11
6.046955169529021
 21
5.866442268419423
 31
0.0
  0
LINE
  5
314E
330
1E
100
AcDbEntity
  8
3
100
AcDbLine
 10
6.046955169529021
 20
5.866442268419423
 30
0.0
 11
6.035144145906974
 21
5.846757229049345
 31
0.0
  0
LINE
  5
314F
330
1E
100
AcDbEntity
  8
3
100
AcDbLine
 10
6.035144145906974
 20
5.846757229049345
 30
0.0
 11
6.015459106536895
 21
5.833633869469292
 31
0.0
  0
LINE
  5
3150
330
1E
100
AcDbEntity
  8
3
100
AcDbLine
 10
6.015459106536895
 20
5.833633869469292
 30
0.0
 11
5.993149395250807
 21
5.829696861595277
 31
0.0
  0
LINE
  5
3151
330
1E
100
AcDbEntity
  8
3
100
AcDbLine
 10
5.981338371628758
 20
5.0606679902042
 30
0.0
 11
5.981338371628758
 21
5.828384525637272
 31
0.0
  0
LINE
  5
3152
330
1E
100
AcDbEntity
  8
3
100
AcDbLine
 10
5.981338371628758
 20
5.828384525637272
 30
0.0
 11
5.993149395250807
 21
5.829696861595277
 31
0.0
  0
LINE
  5
3153
330
1E
100
AcDbEntity
  8
3
100
AcDbLine
 10
5.993149395250807
 20
5.0606679902042
 30
0.0
 11
6.015459106536895
 21
5.05541864637218
 31
0.0
  0
LINE
  5
3154
330
1E
100
AcDbEntity
  8
3
100
AcDbLine
 10
6.015459106536895
 20
5.05541864637218
 30
0.0
 11
6.035144145906974
 21
5.042295286792128
 31
0.0
  0
LINE
  5
3155
330
1E
100
AcDbEntity
  8
3
100
AcDbLine
 10
6.035144145906974
 20
5.042295286792128
 30
0.0
 11
6.046955169529021
 21
5.023922583380054
 31
0.0
  0
LINE
  5
3156
330
1E
100
AcDbEntity
  8
3
100
AcDbLine
 10
6.046955169529021
 20
5.023922583380054
 30
0.0
 11
6.052204513361042
 21
5.000300536135959
 31
0.0
  0
LINE
  5
3157
330
1E
100
AcDbEntity
  8
3
100
AcDbLine
 10
6.052204513361042
 20
4.993738856345933
 30
0.0
 11
6.046955169529021
 21
4.971429145059843
 31
0.0
  0
LINE
  5
3158
330
1E
100
AcDbEntity
  8
3
100
AcDbLine
 10
6.046955169529021
 20
4.971429145059843
 30
0.0
 11
6.035144145906974
 21
4.951744105689765
 31
0.0
  0
LINE
  5
3159
330
1E
100
AcDbEntity
  8
3
100
AcDbLine
 10
6.035144145906974
 20
4.951744105689765
 30
0.0
 11
6.015459106536895
 21
4.938620746109712
 31
0.0
  0
LINE
  5
315A
330
1E
100
AcDbEntity
  8
3
100
AcDbLine
 10
6.015459106536895
 20
4.938620746109712
 30
0.0
 11
5.993149395250807
 21
4.934683738235697
 31
0.0
  0
LINE
  5
315B
330
1E
100
AcDbEntity
  8
3
100
AcDbLine
 10
5.981338371628758
 20
4.16565486684462
 30
0.0
 11
5.981338371628758
 21
4.933371402277692
 31
0.0
  0
LINE
  5
315C
330
1E
100
AcDbEntity
  8
3
100
AcDbLine
 10
5.981338371628758
 20
4.933371402277692
 30
0.0
 11
5.993149395250807
 21
4.934683738235697
 31
0.0
  0
LINE
  5
315D
330
1E
100
AcDbEntity
  8
3
100
AcDbLine
 10
5.993149395250807
 20
4.16565486684462
 30
0.0
 11
6.015459106536895
 21
4.1604055230126
 31
0.0
  0
LINE
  5
315E
330
1E
100
AcDbEntity
  8
3
100
AcDbLine
 10
6.015459106536895
 20
4.1604055230126
 30
0.0
 11
6.035144145906974
 21
4.147282163432548
 31
0.0
  0
LINE
  5
315F
330
1E
100
AcDbEntity
  8
3
100
AcDbLine
 10
6.035144145906974
 20
4.147282163432548
 30
0.0
 11
6.046955169529021
 21
4.128909460020474
 31
0.0
  0
LINE
  5
3160
330
1E
100
AcDbEntity
  8
3
100
AcDbLine
 10
6.046955169529021
 20
4.128909460020474
 30
0.0
 11
6.052204513361042
 21
4.10528741277638
 31
0.0
  0
LINE
  5
3161
330
1E
100
AcDbEntity
  8
3
100
AcDbLine
 10
5.876351494988338
 20
4.064604998078217
 30
0.0
 11
6.052204513361042
 21
4.068542005952234
 31
0.0
  0
LINE
  5
3162
330
1E
100
AcDbEntity
  8
3
100
AcDbLine
 10
6.052204513361042
 20
4.068542005952234
 30
0.0
 11
6.052204513361042
 21
4.10528741277638
 31
0.0
  0
LINE
  5
3163
330
1E
100
AcDbEntity
  8
3
100
AcDbLine
 10
5.600760943807236
 20
3.422872714613651
 30
0.0
 11
5.604697951681252
 21
3.380877963957483
 31
0.0
  0
LINE
  5
3164
330
1E
100
AcDbEntity
  8
3
100
AcDbLine
 10
5.604697951681252
 20
3.380877963957483
 30
0.0
 11
5.616508975303299
 21
3.340195549259321
 31
0.0
  0
LINE
  5
3165
330
1E
100
AcDbEntity
  8
3
100
AcDbLine
 10
5.616508975303299
 20
3.340195549259321
 30
0.0
 11
5.636194014673378
 21
3.302137806477168
 31
0.0
  0
LINE
  5
3166
330
1E
100
AcDbEntity
  8
3
100
AcDbLine
 10
5.636194014673378
 20
3.302137806477168
 30
0.0
 11
5.662440733833483
 21
3.268017071569032
 31
0.0
  0
LINE
  5
3167
330
1E
100
AcDbEntity
  8
3
100
AcDbLine
 10
5.662440733833483
 20
3.268017071569032
 30
0.0
 11
5.695249132783614
 21
3.240458016450921
 31
0.0
  0
LINE
  5
3168
330
1E
100
AcDbEntity
  8
3
100
AcDbLine
 10
5.695249132783614
 20
3.240458016450921
 30
0.0
 11
5.731994539607763
 21
3.218148305164833
 31
0.0
  0
LINE
  5
3169
330
1E
100
AcDbEntity
  8
3
100
AcDbLine
 10
5.731994539607763
 20
3.218148305164833
 30
0.0
 11
5.771364618347919
 21
3.20502494558478
 31
0.0
  0
LINE
  5
316A
330
1E
100
AcDbEntity
  8
3
100
AcDbLine
 10
5.771364618347919
 20
3.20502494558478
 30
0.0
 11
5.814671704962092
 21
3.198463265794754
 31
0.0
  0
LINE
  5
316B
330
1E
100
AcDbEntity
  8
3
100
AcDbLine
 10
5.813359369004087
 20
3.206337281542785
 30
0.0
 11
5.814671704962092
 21
3.198463265794754
 31
0.0
  0
LINE
  5
316C
330
1E
100
AcDbEntity
  8
3
100
AcDbLine
 10
5.814671704962092
 20
3.198463265794754
 30
0.0
 11
5.876351494988338
 21
3.194526257920738
 31
0.0
  0
LINE
  5
316D
330
1E
100
AcDbEntity
  8
3
100
AcDbLine
 10
5.814671704962092
 20
3.25751838390499
 30
0.0
 11
5.813359369004087
 21
3.228646992828875
 31
0.0
  0
LINE
  5
316E
330
1E
100
AcDbEntity
  8
3
100
AcDbLine
 10
5.813359369004087
 20
3.228646992828875
 30
0.0
 11
5.813359369004087
 21
3.206337281542785
 31
0.0
  0
LINE
  5
316F
330
1E
100
AcDbEntity
  8
3
100
AcDbLine
 10
5.876351494988338
 20
3.194526257920738
 30
0.0
 11
5.876351494988338
 21
3.199775601752759
 31
0.0
  0
LINE
  5
3170
330
1E
100
AcDbEntity
  8
3
100
AcDbLine
 10
5.876351494988338
 20
3.199775601752759
 30
0.0
 11
5.876351494988338
 21
3.212898961332812
 31
0.0
  0
LINE
  5
3171
330
1E
100
AcDbEntity
  8
3
100
AcDbLine
 10
5.876351494988338
 20
3.212898961332812
 30
0.0
 11
5.876351494988338
 21
3.23258400070289
 31
0.0
  0
LINE
  5
3172
330
1E
100
AcDbEntity
  8
3
100
AcDbLine
 10
5.876351494988338
 20
3.23258400070289
 30
0.0
 11
5.876351494988338
 21
3.254893711988979
 31
0.0
  0
LINE
  5
3173
330
1E
100
AcDbEntity
  8
3
100
AcDbLine
 10
5.695249132783614
 20
7.649906835348556
 30
0.0
 11
5.662440733833483
 21
7.622347780230446
 31
0.0
  0
LINE
  5
3174
330
1E
100
AcDbEntity
  8
3
100
AcDbLine
 10
5.662440733833483
 20
7.622347780230446
 30
0.0
 11
5.636194014673378
 21
7.588227045322309
 31
0.0
  0
LINE
  5
3175
330
1E
100
AcDbEntity
  8
3
100
AcDbLine
 10
5.636194014673378
 20
7.588227045322309
 30
0.0
 11
5.616508975303299
 21
7.550169302540156
 31
0.0
  0
LINE
  5
3176
330
1E
100
AcDbEntity
  8
3
100
AcDbLine
 10
5.616508975303299
 20
7.550169302540156
 30
0.0
 11
5.604697951681252
 21
7.509486887841994
 31
0.0
  0
LINE
  5
3177
330
1E
100
AcDbEntity
  8
3
100
AcDbLine
 10
5.604697951681252
 20
7.509486887841994
 30
0.0
 11
5.600760943807236
 21
7.467492137185826
 31
0.0
  0
LINE
  5
3178
330
1E
100
AcDbEntity
  8
3
100
AcDbLine
 10
5.814671704962092
 20
7.691901586004723
 30
0.0
 11
5.771364618347919
 21
7.685339906214697
 31
0.0
  0
LINE
  5
3179
330
1E
100
AcDbEntity
  8
3
100
AcDbLine
 10
5.771364618347919
 20
7.685339906214697
 30
0.0
 11
5.731994539607763
 21
7.670904210676639
 31
0.0
  0
LINE
  5
317A
330
1E
100
AcDbEntity
  8
3
100
AcDbLine
 10
5.731994539607763
 20
7.670904210676639
 30
0.0
 11
5.695249132783614
 21
7.649906835348556
 31
0.0
  0
LINE
  5
317B
330
1E
100
AcDbEntity
  8
3
100
AcDbLine
 10
5.876351494988338
 20
7.635471139810498
 30
0.0
 11
5.876351494988338
 21
7.657780851096587
 31
0.0
  0
LINE
  5
317C
330
1E
100
AcDbEntity
  8
3
100
AcDbLine
 10
5.876351494988338
 20
7.657780851096587
 30
0.0
 11
5.876351494988338
 21
7.677465890466667
 31
0.0
  0
LINE
  5
317D
330
1E
100
AcDbEntity
  8
3
100
AcDbLine
 10
5.876351494988338
 20
7.677465890466667
 30
0.0
 11
5.876351494988338
 21
7.690589250046718
 31
0.0
  0
LINE
  5
317E
330
1E
100
AcDbEntity
  8
3
100
AcDbLine
 10
5.876351494988338
 20
7.690589250046718
 30
0.0
 11
5.876351494988338
 21
7.694526257920735
 31
0.0
  0
LINE
  5
317F
330
1E
100
AcDbEntity
  8
3
100
AcDbLine
 10
5.876351494988338
 20
7.694526257920735
 30
0.0
 11
5.814671704962092
 21
7.691901586004723
 31
0.0
  0
LINE
  5
3180
330
1E
100
AcDbEntity
  8
3
100
AcDbLine
 10
5.814671704962092
 20
7.691901586004723
 30
0.0
 11
5.813359369004087
 21
7.684027570256692
 31
0.0
  0
LINE
  5
3181
330
1E
100
AcDbEntity
  8
3
100
AcDbLine
 10
5.813359369004087
 20
7.684027570256692
 30
0.0
 11
5.813359369004087
 21
7.661717858970602
 31
0.0
  0
LINE
  5
3182
330
1E
100
AcDbEntity
  8
3
100
AcDbLine
 10
5.813359369004087
 20
7.661717858970602
 30
0.0
 11
5.814671704962092
 21
7.631534131936483
 31
0.0
  0
LINE
  5
3183
330
1E
100
AcDbEntity
  8
3
100
AcDbLine
 10
5.600760943807236
 20
7.467492137185826
 30
0.0
 11
5.604697951681252
 21
7.497675864219947
 31
0.0
  0
LINE
  5
3184
330
1E
100
AcDbEntity
  8
3
100
AcDbLine
 10
5.604697951681252
 20
7.497675864219947
 30
0.0
 11
5.616508975303299
 21
7.527859591254068
 31
0.0
  0
LINE
  5
3185
330
1E
100
AcDbEntity
  8
3
100
AcDbLine
 10
5.616508975303299
 20
7.527859591254068
 30
0.0
 11
5.636194014673378
 21
7.555418646372178
 31
0.0
  0
LINE
  5
3186
330
1E
100
AcDbEntity
  8
3
100
AcDbLine
 10
5.636194014673378
 20
7.555418646372178
 30
0.0
 11
5.662440733833483
 21
7.580353029574277
 31
0.0
  0
LINE
  5
3187
330
1E
100
AcDbEntity
  8
3
100
AcDbLine
 10
5.662440733833483
 20
7.580353029574277
 30
0.0
 11
5.695249132783614
 21
7.601350404902362
 31
0.0
  0
LINE
  5
3188
330
1E
100
AcDbEntity
  8
3
100
AcDbLine
 10
5.695249132783614
 20
7.601350404902362
 30
0.0
 11
5.731994539607763
 21
7.617098436398425
 31
0.0
  0
LINE
  5
3189
330
1E
100
AcDbEntity
  8
3
100
AcDbLine
 10
5.731994539607763
 20
7.617098436398425
 30
0.0
 11
5.771364618347919
 21
7.627597124062466
 31
0.0
  0
LINE
  5
318A
330
1E
100
AcDbEntity
  8
3
100
AcDbLine
 10
5.771364618347919
 20
3.262767727737011
 30
0.0
 11
5.731994539607763
 21
3.273266415401053
 31
0.0
  0
LINE
  5
318B
330
1E
100
AcDbEntity
  8
3
100
AcDbLine
 10
5.731994539607763
 20
3.273266415401053
 30
0.0
 11
5.695249132783614
 21
3.289014446897116
 31
0.0
  0
LINE
  5
318C
330
1E
100
AcDbEntity
  8
3
100
AcDbLine
 10
5.695249132783614
 20
3.289014446897116
 30
0.0
 11
5.662440733833483
 21
3.3100118222252
 31
0.0
  0
LINE
  5
318D
330
1E
100
AcDbEntity
  8
3
100
AcDbLine
 10
5.662440733833483
 20
3.3100118222252
 30
0.0
 11
5.636194014673378
 21
3.333633869469294
 31
0.0
  0
LINE
  5
318E
330
1E
100
AcDbEntity
  8
3
100
AcDbLine
 10
5.636194014673378
 20
3.333633869469294
 30
0.0
 11
5.616508975303299
 21
3.361192924587405
 31
0.0
  0
LINE
  5
318F
330
1E
100
AcDbEntity
  8
3
100
AcDbLine
 10
5.616508975303299
 20
3.361192924587405
 30
0.0
 11
5.604697951681252
 21
3.391376651621525
 31
0.0
  0
LINE
  5
3190
330
1E
100
AcDbEntity
  8
3
100
AcDbLine
 10
5.604697951681252
 20
3.391376651621525
 30
0.0
 11
5.600760943807236
 21
3.422872714613651
 31
0.0
  0
LINE
  5
3191
330
1E
100
AcDbEntity
  8
3
100
AcDbLine
 10
0.9669026760907058
 20
6.87562862012546
 30
0.0
 11
0.9826507075867688
 21
6.879565627999475
 31
0.0
  0
LINE
  5
3192
330
1E
100
AcDbEntity
  8
3
100
AcDbLine
 10
0.9826507075867688
 20
6.879565627999475
 30
0.0
 11
0.9931493952508105
 21
6.891376651621523
 31
0.0
  0
LINE
  5
3193
330
1E
100
AcDbEntity
  8
3
100
AcDbLine
 10
0.9931493952508105
 20
6.891376651621523
 30
0.0
 11
0.9983987390828318
 21
6.907124683117586
 31
0.0
  0
LINE
  5
3194
330
1E
100
AcDbEntity
  8
3
100
AcDbLine
 10
0.9983987390828318
 20
7.256206047946982
 30
0.0
 11
0.9931493952508105
 21
7.271954079443045
 31
0.0
  0
LINE
  5
3195
330
1E
100
AcDbEntity
  8
3
100
AcDbLine
 10
0.9931493952508105
 20
7.271954079443045
 30
0.0
 11
0.9826507075867688
 21
7.282452767107086
 31
0.0
  0
LINE
  5
3196
330
1E
100
AcDbEntity
  8
3
100
AcDbLine
 10
0.9826507075867688
 20
7.282452767107086
 30
0.0
 11
0.9669026760907058
 21
7.287702110939108
 31
0.0
  0
LINE
  5
3197
330
1E
100
AcDbEntity
  8
3
100
AcDbLine
 10
-0.8428086099985323
 20
7.287702110939108
 30
0.0
 11
-0.8585566414945953
 21
7.282452767107086
 31
0.0
  0
LINE
  5
3198
330
1E
100
AcDbEntity
  8
3
100
AcDbLine
 10
-0.8585566414945953
 20
7.282452767107086
 30
0.0
 11
-0.8690553291586367
 21
7.271954079443045
 31
0.0
  0
LINE
  5
3199
330
1E
100
AcDbEntity
  8
3
100
AcDbLine
 10
-0.8690553291586367
 20
7.271954079443045
 30
0.0
 11
-0.8729923370326524
 21
7.256206047946982
 31
0.0
  0
LINE
  5
319A
330
1E
100
AcDbEntity
  8
3
100
AcDbLine
 10
-0.8729923370326524
 20
6.907124683117586
 30
0.0
 11
-0.8690553291586367
 21
6.891376651621523
 31
0.0
  0
LINE
  5
319B
330
1E
100
AcDbEntity
  8
3
100
AcDbLine
 10
-0.8690553291586367
 20
6.891376651621523
 30
0.0
 11
-0.8585566414945953
 21
6.879565627999475
 31
0.0
  0
LINE
  5
319C
330
1E
100
AcDbEntity
  8
3
100
AcDbLine
 10
-0.8585566414945953
 20
6.879565627999475
 30
0.0
 11
-0.8428086099985323
 21
6.87562862012546
 31
0.0
  0
LINE
  5
319D
330
1E
100
AcDbEntity
  8
3
100
AcDbLine
 10
0.934094277140575
 20
6.876940956083465
 30
0.0
 11
-0.8100002110484005
 21
6.876940956083465
 31
0.0
  0
LINE
  5
319E
330
1E
100
AcDbEntity
  8
3
100
AcDbLine
 10
-0.8100002110484005
 20
6.876940956083465
 30
0.0
 11
-0.8139372189224163
 21
6.87562862012546
 31
0.0
  0
LINE
  5
319F
330
1E
100
AcDbEntity
  8
3
100
AcDbLine
 10
-0.8100002110484005
 20
7.286389774981101
 30
0.0
 11
0.934094277140575
 21
7.286389774981101
 31
0.0
  0
LINE
  5
31A0
330
1E
100
AcDbEntity
  8
3
100
AcDbLine
 10
0.934094277140575
 20
7.286389774981101
 30
0.0
 11
0.9380312850145902
 21
7.287702110939108
 31
0.0
  0
LINE
  5
31A1
330
1E
100
AcDbEntity
  8
3
100
AcDbLine
 10
0.2503672430198405
 20
7.231271664744882
 30
0.0
 11
0.2503672430198405
 21
7.233896336660892
 31
0.0
  0
LINE
  5
31A2
330
1E
100
AcDbEntity
  8
3
100
AcDbLine
 10
0.2503672430198405
 20
7.233896336660892
 30
0.0
 11
0.1309446708413624
 21
7.233896336660892
 31
0.0
  0
LINE
  5
31A3
330
1E
100
AcDbEntity
  8
3
100
AcDbLine
 10
0.364540471366297
 20
6.98324016868189
 30
0.0
 11
0.3881625186103914
 21
7.018673239548031
 31
0.0
  0
LINE
  5
31A4
330
1E
100
AcDbEntity
  8
3
100
AcDbLine
 10
0.3881625186103914
 20
7.018673239548031
 30
0.0
 11
0.3999735422324386
 21
7.060667990204199
 31
0.0
  0
LINE
  5
31A5
330
1E
100
AcDbEntity
  8
3
100
AcDbLine
 10
0.3999735422324386
 20
7.060667990204199
 30
0.0
 11
0.3999735422324386
 21
7.102662740860367
 31
0.0
  0
LINE
  5
31A6
330
1E
100
AcDbEntity
  8
3
100
AcDbLine
 10
0.3999735422324386
 20
7.102662740860367
 30
0.0
 11
0.3881625186103914
 21
7.144657491516535
 31
0.0
  0
LINE
  5
31A7
330
1E
100
AcDbEntity
  8
3
100
AcDbLine
 10
0.3881625186103914
 20
7.144657491516535
 30
0.0
 11
0.364540471366297
 21
7.180090562382677
 31
0.0
  0
LINE
  5
31A8
330
1E
100
AcDbEntity
  8
3
100
AcDbLine
 10
0.364540471366297
 20
7.180090562382677
 30
0.0
 11
0.3317320724161652
 21
7.208961953458793
 31
0.0
  0
LINE
  5
31A9
330
1E
100
AcDbEntity
  8
3
100
AcDbLine
 10
0.3317320724161652
 20
7.208961953458793
 30
0.0
 11
0.2923619936760078
 21
7.226022320912861
 31
0.0
  0
LINE
  5
31AA
330
1E
100
AcDbEntity
  8
3
100
AcDbLine
 10
0.2923619936760078
 20
7.226022320912861
 30
0.0
 11
0.2503672430198405
 21
7.232584000702887
 31
0.0
  0
LINE
  5
31AB
330
1E
100
AcDbEntity
  8
3
100
AcDbLine
 10
0.2503672430198405
 20
6.930746730361679
 30
0.0
 11
0.2923619936760078
 21
6.937308410151706
 31
0.0
  0
LINE
  5
31AC
330
1E
100
AcDbEntity
  8
3
100
AcDbLine
 10
0.2923619936760078
 20
6.937308410151706
 30
0.0
 11
0.3317320724161652
 21
6.954368777605774
 31
0.0
  0
LINE
  5
31AD
330
1E
100
AcDbEntity
  8
3
100
AcDbLine
 10
0.3317320724161652
 20
6.954368777605774
 30
0.0
 11
0.364540471366297
 21
6.98324016868189
 31
0.0
  0
LINE
  5
31AE
330
1E
100
AcDbEntity
  8
3
100
AcDbLine
 10
-0.0068506047491885
 20
7.018673239548031
 30
0.0
 11
0.0167714424949059
 21
6.98324016868189
 31
0.0
  0
LINE
  5
31AF
330
1E
100
AcDbEntity
  8
3
100
AcDbLine
 10
0.0167714424949059
 20
6.98324016868189
 30
0.0
 11
0.0495798414450368
 21
6.954368777605774
 31
0.0
  0
LINE
  5
31B0
330
1E
100
AcDbEntity
  8
3
100
AcDbLine
 10
0.0495798414450368
 20
6.954368777605774
 30
0.0
 11
0.0889499201851942
 21
6.937308410151706
 31
0.0
  0
LINE
  5
31B1
330
1E
100
AcDbEntity
  8
3
100
AcDbLine
 10
0.0889499201851942
 20
6.937308410151706
 30
0.0
 11
0.1309446708413624
 21
6.930746730361679
 31
0.0
  0
LINE
  5
31B2
330
1E
100
AcDbEntity
  8
3
100
AcDbLine
 10
0.1309446708413624
 20
7.232584000702887
 30
0.0
 11
0.0889499201851942
 21
7.226022320912861
 31
0.0
  0
LINE
  5
31B3
330
1E
100
AcDbEntity
  8
3
100
AcDbLine
 10
0.0889499201851942
 20
7.226022320912861
 30
0.0
 11
0.0495798414450368
 21
7.208961953458793
 31
0.0
  0
LINE
  5
31B4
330
1E
100
AcDbEntity
  8
3
100
AcDbLine
 10
0.0495798414450368
 20
7.208961953458793
 30
0.0
 11
0.0167714424949059
 21
7.180090562382677
 31
0.0
  0
LINE
  5
31B5
330
1E
100
AcDbEntity
  8
3
100
AcDbLine
 10
0.0167714424949059
 20
7.180090562382677
 30
0.0
 11
-0.0068506047491885
 21
7.144657491516535
 31
0.0
  0
LINE
  5
31B6
330
1E
100
AcDbEntity
  8
3
100
AcDbLine
 10
-0.0068506047491885
 20
7.144657491516535
 30
0.0
 11
-0.0186616283712358
 21
7.102662740860367
 31
0.0
  0
LINE
  5
31B7
330
1E
100
AcDbEntity
  8
3
100
AcDbLine
 10
-0.0186616283712358
 20
7.102662740860367
 30
0.0
 11
-0.0186616283712358
 21
7.060667990204199
 31
0.0
  0
LINE
  5
31B8
330
1E
100
AcDbEntity
  8
3
100
AcDbLine
 10
-0.0186616283712358
 20
7.060667990204199
 30
0.0
 11
-0.0068506047491885
 21
7.018673239548031
 31
0.0
  0
LINE
  5
31B9
330
1E
100
AcDbEntity
  8
3
100
AcDbLine
 10
0.1309446708413624
 20
7.231271664744882
 30
0.0
 11
0.0889499201851942
 21
7.224709984954856
 31
0.0
  0
LINE
  5
31BA
330
1E
100
AcDbEntity
  8
3
100
AcDbLine
 10
0.0889499201851942
 20
7.224709984954856
 30
0.0
 11
0.0495798414450368
 21
7.207649617500786
 31
0.0
  0
LINE
  5
31BB
330
1E
100
AcDbEntity
  8
3
100
AcDbLine
 10
0.0495798414450368
 20
7.207649617500786
 30
0.0
 11
0.0180837784529109
 21
7.180090562382677
 31
0.0
  0
LINE
  5
31BC
330
1E
100
AcDbEntity
  8
3
100
AcDbLine
 10
0.0180837784529109
 20
7.180090562382677
 30
0.0
 11
-0.0055382687911836
 21
7.14334515555853
 31
0.0
  0
LINE
  5
31BD
330
1E
100
AcDbEntity
  8
3
100
AcDbLine
 10
-0.0055382687911836
 20
7.14334515555853
 30
0.0
 11
-0.0173492924132308
 21
7.102662740860367
 31
0.0
  0
LINE
  5
31BE
330
1E
100
AcDbEntity
  8
3
100
AcDbLine
 10
-0.0173492924132308
 20
7.102662740860367
 30
0.0
 11
-0.0173492924132308
 21
7.060667990204199
 31
0.0
  0
LINE
  5
31BF
330
1E
100
AcDbEntity
  8
3
100
AcDbLine
 10
-0.0173492924132308
 20
7.060667990204199
 30
0.0
 11
-0.0055382687911836
 21
7.019985575506036
 31
0.0
  0
LINE
  5
31C0
330
1E
100
AcDbEntity
  8
3
100
AcDbLine
 10
-0.0055382687911836
 20
7.019985575506036
 30
0.0
 11
0.0180837784529109
 21
6.98324016868189
 31
0.0
  0
LINE
  5
31C1
330
1E
100
AcDbEntity
  8
3
100
AcDbLine
 10
0.0180837784529109
 20
6.98324016868189
 30
0.0
 11
0.0495798414450368
 21
6.955681113563779
 31
0.0
  0
LINE
  5
31C2
330
1E
100
AcDbEntity
  8
3
100
AcDbLine
 10
0.0495798414450368
 20
6.955681113563779
 30
0.0
 11
0.0889499201851942
 21
6.938620746109712
 31
0.0
  0
LINE
  5
31C3
330
1E
100
AcDbEntity
  8
3
100
AcDbLine
 10
0.2503672430198405
 20
6.932059066319684
 30
0.0
 11
0.2923619936760078
 21
6.938620746109712
 31
0.0
  0
LINE
  5
31C4
330
1E
100
AcDbEntity
  8
3
100
AcDbLine
 10
0.2923619936760078
 20
6.938620746109712
 30
0.0
 11
0.3317320724161652
 21
6.955681113563779
 31
0.0
  0
LINE
  5
31C5
330
1E
100
AcDbEntity
  8
3
100
AcDbLine
 10
0.3317320724161652
 20
6.955681113563779
 30
0.0
 11
0.363228135408292
 21
6.98324016868189
 31
0.0
  0
LINE
  5
31C6
330
1E
100
AcDbEntity
  8
3
100
AcDbLine
 10
0.363228135408292
 20
6.98324016868189
 30
0.0
 11
0.3868501826523865
 21
7.019985575506036
 31
0.0
  0
LINE
  5
31C7
330
1E
100
AcDbEntity
  8
3
100
AcDbLine
 10
0.3868501826523865
 20
7.019985575506036
 30
0.0
 11
0.3986612062744332
 21
7.060667990204199
 31
0.0
  0
LINE
  5
31C8
330
1E
100
AcDbEntity
  8
3
100
AcDbLine
 10
0.3986612062744332
 20
7.060667990204199
 30
0.0
 11
0.3986612062744332
 21
7.102662740860367
 31
0.0
  0
LINE
  5
31C9
330
1E
100
AcDbEntity
  8
3
100
AcDbLine
 10
0.3986612062744332
 20
7.102662740860367
 30
0.0
 11
0.3868501826523865
 21
7.14334515555853
 31
0.0
  0
LINE
  5
31CA
330
1E
100
AcDbEntity
  8
3
100
AcDbLine
 10
0.3868501826523865
 20
7.14334515555853
 30
0.0
 11
0.363228135408292
 21
7.180090562382677
 31
0.0
  0
LINE
  5
31CB
330
1E
100
AcDbEntity
  8
3
100
AcDbLine
 10
0.363228135408292
 20
7.180090562382677
 30
0.0
 11
0.3317320724161652
 21
7.207649617500786
 31
0.0
  0
LINE
  5
31CC
330
1E
100
AcDbEntity
  8
3
100
AcDbLine
 10
0.3317320724161652
 20
7.207649617500786
 30
0.0
 11
0.2923619936760078
 21
7.224709984954856
 31
0.0
  0
LINE
  5
31CD
330
1E
100
AcDbEntity
  8
3
100
AcDbLine
 10
0.2923619936760078
 20
7.224709984954856
 30
0.0
 11
0.2503672430198405
 21
7.231271664744882
 31
0.0
  0
LINE
  5
31CE
330
1E
100
AcDbEntity
  8
3
100
AcDbLine
 10
0.3212333847521234
 20
7.110536756608399
 30
0.0
 11
0.3041730172980555
 21
7.135471139810498
 31
0.0
  0
LINE
  5
31CF
330
1E
100
AcDbEntity
  8
3
100
AcDbLine
 10
0.3041730172980555
 20
7.135471139810498
 30
0.0
 11
0.2792386340959556
 21
7.152531507264567
 31
0.0
  0
LINE
  5
31D0
330
1E
100
AcDbEntity
  8
3
100
AcDbLine
 10
0.2792386340959556
 20
7.152531507264567
 30
0.0
 11
0.2503672430198405
 21
7.157780851096587
 31
0.0
  0
LINE
  5
31D1
330
1E
100
AcDbEntity
  8
3
100
AcDbLine
 10
0.2503672430198405
 20
7.005549879967979
 30
0.0
 11
0.2792386340959556
 21
7.010799223800001
 31
0.0
  0
LINE
  5
31D2
330
1E
100
AcDbEntity
  8
3
100
AcDbLine
 10
0.2792386340959556
 20
7.010799223800001
 30
0.0
 11
0.3041730172980555
 21
7.027859591254069
 31
0.0
  0
LINE
  5
31D3
330
1E
100
AcDbEntity
  8
3
100
AcDbLine
 10
0.3041730172980555
 20
7.027859591254069
 30
0.0
 11
0.3212333847521234
 21
7.052793974456168
 31
0.0
  0
LINE
  5
31D4
330
1E
100
AcDbEntity
  8
3
100
AcDbLine
 10
0.3212333847521234
 20
7.052793974456168
 30
0.0
 11
0.3264827285841445
 21
7.081665365532283
 31
0.0
  0
LINE
  5
31D5
330
1E
100
AcDbEntity
  8
3
100
AcDbLine
 10
0.3264827285841445
 20
7.081665365532283
 30
0.0
 11
0.3212333847521234
 21
7.110536756608399
 31
0.0
  0
LINE
  5
31D6
330
1E
100
AcDbEntity
  8
3
100
AcDbLine
 10
0.296299001550024
 20
7.022610247422047
 30
0.0
 11
0.3172963768781081
 21
7.048856966582152
 31
0.0
  0
LINE
  5
31D7
330
1E
100
AcDbEntity
  8
3
100
AcDbLine
 10
0.3172963768781081
 20
7.048856966582152
 30
0.0
 11
0.3251703926261396
 21
7.081665365532283
 31
0.0
  0
LINE
  5
31D8
330
1E
100
AcDbEntity
  8
3
100
AcDbLine
 10
0.3251703926261396
 20
7.081665365532283
 30
0.0
 11
0.3172963768781081
 21
7.114473764482414
 31
0.0
  0
LINE
  5
31D9
330
1E
100
AcDbEntity
  8
3
100
AcDbLine
 10
0.3172963768781081
 20
7.114473764482414
 30
0.0
 11
0.296299001550024
 21
7.140720483642519
 31
0.0
  0
LINE
  5
31DA
330
1E
100
AcDbEntity
  8
3
100
AcDbLine
 10
0.0850129123111785
 20
7.140720483642519
 30
0.0
 11
0.0640155369830948
 21
7.114473764482414
 31
0.0
  0
LINE
  5
31DB
330
1E
100
AcDbEntity
  8
3
100
AcDbLine
 10
0.0640155369830948
 20
7.114473764482414
 30
0.0
 11
0.0561415212350633
 21
7.081665365532283
 31
0.0
  0
LINE
  5
31DC
330
1E
100
AcDbEntity
  8
3
100
AcDbLine
 10
0.0561415212350633
 20
7.081665365532283
 30
0.0
 11
0.0640155369830948
 21
7.048856966582152
 31
0.0
  0
LINE
  5
31DD
330
1E
100
AcDbEntity
  8
3
100
AcDbLine
 10
0.0640155369830948
 20
7.048856966582152
 30
0.0
 11
0.0850129123111785
 21
7.022610247422047
 31
0.0
  0
LINE
  5
31DE
330
1E
100
AcDbEntity
  8
3
100
AcDbLine
 10
0.0600785291090791
 20
7.110536756608399
 30
0.0
 11
0.0548291852770584
 21
7.081665365532283
 31
0.0
  0
LINE
  5
31DF
330
1E
100
AcDbEntity
  8
3
100
AcDbLine
 10
0.0548291852770584
 20
7.081665365532283
 30
0.0
 11
0.0600785291090791
 21
7.052793974456168
 31
0.0
  0
LINE
  5
31E0
330
1E
100
AcDbEntity
  8
3
100
AcDbLine
 10
0.0600785291090791
 20
7.052793974456168
 30
0.0
 11
0.077138896563147
 21
7.027859591254069
 31
0.0
  0
LINE
  5
31E1
330
1E
100
AcDbEntity
  8
3
100
AcDbLine
 10
0.077138896563147
 20
7.027859591254069
 30
0.0
 11
0.1020732797652473
 21
7.010799223800001
 31
0.0
  0
LINE
  5
31E2
330
1E
100
AcDbEntity
  8
3
100
AcDbLine
 10
0.1020732797652473
 20
7.010799223800001
 30
0.0
 11
0.1309446708413624
 21
7.005549879967979
 31
0.0
  0
LINE
  5
31E3
330
1E
100
AcDbEntity
  8
3
100
AcDbLine
 10
0.1309446708413624
 20
7.157780851096587
 30
0.0
 11
0.1020732797652473
 21
7.152531507264567
 31
0.0
  0
LINE
  5
31E4
330
1E
100
AcDbEntity
  8
3
100
AcDbLine
 10
0.1020732797652473
 20
7.152531507264567
 30
0.0
 11
0.077138896563147
 21
7.135471139810498
 31
0.0
  0
LINE
  5
31E5
330
1E
100
AcDbEntity
  8
3
100
AcDbLine
 10
0.077138896563147
 20
7.135471139810498
 30
0.0
 11
0.0600785291090791
 21
7.110536756608399
 31
0.0
  0
LINE
  5
31E6
330
1E
100
AcDbEntity
  8
3
100
AcDbLine
 10
0.0955115999752208
 20
7.014736231674016
 30
0.0
 11
0.1125719674292886
 21
7.008174551883989
 31
0.0
  0
LINE
  5
31E7
330
1E
100
AcDbEntity
  8
3
100
AcDbLine
 10
0.1125719674292886
 20
7.008174551883989
 30
0.0
 11
0.1309446708413624
 21
7.005549879967979
 31
0.0
  0
LINE
  5
31E8
330
1E
100
AcDbEntity
  8
3
100
AcDbLine
 10
0.2503672430198405
 20
7.005549879967979
 30
0.0
 11
0.2687399464319133
 21
7.008174551883989
 31
0.0
  0
LINE
  5
31E9
330
1E
100
AcDbEntity
  8
3
100
AcDbLine
 10
0.2687399464319133
 20
7.008174551883989
 30
0.0
 11
0.2858003138859821
 21
7.014736231674016
 31
0.0
  0
LINE
  5
31EA
330
1E
100
AcDbEntity
  8
3
100
AcDbLine
 10
0.1309446708413624
 20
7.157780851096587
 30
0.0
 11
0.1125719674292886
 21
7.155156179180577
 31
0.0
  0
LINE
  5
31EB
330
1E
100
AcDbEntity
  8
3
100
AcDbLine
 10
0.1125719674292886
 20
7.155156179180577
 30
0.0
 11
0.0955115999752208
 21
7.148594499390551
 31
0.0
  0
LINE
  5
31EC
330
1E
100
AcDbEntity
  8
3
100
AcDbLine
 10
0.2858003138859821
 20
7.148594499390551
 30
0.0
 11
0.2687399464319133
 21
7.155156179180577
 31
0.0
  0
LINE
  5
31ED
330
1E
100
AcDbEntity
  8
3
100
AcDbLine
 10
0.2687399464319133
 20
7.155156179180577
 30
0.0
 11
0.2503672430198405
 21
7.157780851096587
 31
0.0
  0
LINE
  5
31EE
330
1E
100
AcDbEntity
  8
3
100
AcDbLine
 10
-1.142021208423728
 20
3.224709984954858
 30
0.0
 11
-1.11971149713764
 21
3.20240027366877
 31
0.0
  0
LINE
  5
31EF
330
1E
100
AcDbEntity
  8
3
100
AcDbLine
 10
-1.11971149713764
 20
3.20240027366877
 30
0.0
 11
-1.089527770103519
 21
3.194526257920738
 31
0.0
  0
LINE
  5
31F0
330
1E
100
AcDbEntity
  8
3
100
AcDbLine
 10
-1.089527770103519
 20
7.687964578130708
 30
0.0
 11
-1.11971149713764
 21
7.680090562382677
 31
0.0
  0
LINE
  5
31F1
330
1E
100
AcDbEntity
  8
3
100
AcDbLine
 10
-1.11971149713764
 20
7.680090562382677
 30
0.0
 11
-1.142021208423728
 21
7.657780851096587
 31
0.0
  0
LINE
  5
31F2
330
1E
100
AcDbEntity
  8
3
100
AcDbLine
 10
-1.142021208423728
 20
7.657780851096587
 30
0.0
 11
-1.149895224171759
 21
7.627597124062466
 31
0.0
  0
LINE
  5
31F3
330
1E
100
AcDbEntity
  8
3
100
AcDbLine
 10
-0.9674805260090302
 20
7.493738856345931
 30
0.0
 11
-1.008162940707192
 21
7.523922583380052
 31
0.0
  0
LINE
  5
31F4
330
1E
100
AcDbEntity
  8
3
100
AcDbLine
 10
-1.008162940707192
 20
7.523922583380052
 30
0.0
 11
-1.046220683489345
 21
7.551481638498161
 31
0.0
  0
LINE
  5
31F5
330
1E
100
AcDbEntity
  8
3
100
AcDbLine
 10
-1.046220683489345
 20
7.551481638498161
 30
0.0
 11
-1.080341418397481
 21
7.576416021700262
 31
0.0
  0
LINE
  5
31F6
330
1E
100
AcDbEntity
  8
3
100
AcDbLine
 10
-1.080341418397481
 20
7.576416021700262
 30
0.0
 11
-1.107900473515591
 21
7.597413397028345
 31
0.0
  0
LINE
  5
31F7
330
1E
100
AcDbEntity
  8
3
100
AcDbLine
 10
-1.107900473515591
 20
7.597413397028345
 30
0.0
 11
-1.128897848843675
 21
7.613161428524408
 31
0.0
  0
LINE
  5
31F8
330
1E
100
AcDbEntity
  8
3
100
AcDbLine
 10
-1.128897848843675
 20
7.613161428524408
 30
0.0
 11
-1.143333544381733
 21
7.62366011618845
 31
0.0
  0
LINE
  5
31F9
330
1E
100
AcDbEntity
  8
3
100
AcDbLine
 10
-1.143333544381733
 20
7.62366011618845
 30
0.0
 11
-1.149895224171759
 21
7.627597124062466
 31
0.0
  0
LINE
  5
31FA
330
1E
100
AcDbEntity
  8
3
100
AcDbLine
 10
-1.149895224171759
 20
3.254893711988979
 30
0.0
 11
-1.143333544381733
 21
3.258830719862995
 31
0.0
  0
LINE
  5
31FB
330
1E
100
AcDbEntity
  8
3
100
AcDbLine
 10
-1.143333544381733
 20
3.258830719862995
 30
0.0
 11
-1.128897848843675
 21
3.269329407527037
 31
0.0
  0
LINE
  5
31FC
330
1E
100
AcDbEntity
  8
3
100
AcDbLine
 10
-1.128897848843675
 20
3.269329407527037
 30
0.0
 11
-1.107900473515591
 21
3.2850774390231
 31
0.0
  0
LINE
  5
31FD
330
1E
100
AcDbEntity
  8
3
100
AcDbLine
 10
-1.107900473515591
 20
3.2850774390231
 30
0.0
 11
-1.080341418397481
 21
3.306074814351184
 31
0.0
  0
LINE
  5
31FE
330
1E
100
AcDbEntity
  8
3
100
AcDbLine
 10
-1.080341418397481
 20
3.306074814351184
 30
0.0
 11
-1.046220683489345
 21
3.329696861595279
 31
0.0
  0
LINE
  5
31FF
330
1E
100
AcDbEntity
  8
3
100
AcDbLine
 10
-1.046220683489345
 20
3.329696861595279
 30
0.0
 11
-1.008162940707192
 21
3.357255916713389
 31
0.0
  0
LINE
  5
3200
330
1E
100
AcDbEntity
  8
3
100
AcDbLine
 10
-1.008162940707192
 20
3.357255916713389
 30
0.0
 11
-0.9674805260090302
 21
3.38743964374751
 31
0.0
  0
LINE
  5
3201
330
1E
100
AcDbEntity
  8
3
100
AcDbLine
 10
-0.9674805260090302
 20
3.38743964374751
 30
0.0
 11
-0.9254857753528629
 21
3.418935706739635
 31
0.0
  0
LINE
  5
3202
330
1E
100
AcDbEntity
  8
3
100
AcDbLine
 10
-0.9858532294211039
 20
7.546232294666141
 30
0.0
 11
-0.955669502386983
 21
7.505549879967979
 31
0.0
  0
LINE
  5
3203
330
1E
100
AcDbEntity
  8
3
100
AcDbLine
 10
-0.955669502386983
 20
7.505549879967979
 30
0.0
 11
-0.9254857753528629
 21
7.46355512931181
 31
0.0
  0
LINE
  5
3204
330
1E
100
AcDbEntity
  8
3
100
AcDbLine
 10
-1.089527770103519
 20
7.687964578130708
 30
0.0
 11
-1.085590762229502
 21
7.681402898340682
 31
0.0
  0
LINE
  5
3205
330
1E
100
AcDbEntity
  8
3
100
AcDbLine
 10
-1.085590762229502
 20
7.681402898340682
 30
0.0
 11
-1.075092074565461
 21
7.666967202802625
 31
0.0
  0
LINE
  5
3206
330
1E
100
AcDbEntity
  8
3
100
AcDbLine
 10
-1.075092074565461
 20
7.666967202802625
 30
0.0
 11
-1.059344043069398
 21
7.645969827474539
 31
0.0
  0
LINE
  5
3207
330
1E
100
AcDbEntity
  8
3
100
AcDbLine
 10
-1.059344043069398
 20
7.645969827474539
 30
0.0
 11
-1.038346667741313
 21
7.61841077235643
 31
0.0
  0
LINE
  5
3208
330
1E
100
AcDbEntity
  8
3
100
AcDbLine
 10
-1.038346667741313
 20
7.61841077235643
 30
0.0
 11
-1.013412284539214
 21
7.584290037448294
 31
0.0
  0
LINE
  5
3209
330
1E
100
AcDbEntity
  8
3
100
AcDbLine
 10
-1.013412284539214
 20
7.584290037448294
 30
0.0
 11
-0.9858532294211039
 21
7.546232294666141
 31
0.0
  0
LINE
  5
320A
330
1E
100
AcDbEntity
  8
3
100
AcDbLine
 10
-0.9858532294211039
 20
3.336258541385305
 30
0.0
 11
-1.013412284539214
 21
3.298200798603153
 31
0.0
  0
LINE
  5
320B
330
1E
100
AcDbEntity
  8
3
100
AcDbLine
 10
-1.013412284539214
 20
3.298200798603153
 30
0.0
 11
-1.038346667741313
 21
3.264080063695016
 31
0.0
  0
LINE
  5
320C
330
1E
100
AcDbEntity
  8
3
100
AcDbLine
 10
-1.038346667741313
 20
3.264080063695016
 30
0.0
 11
-1.059344043069398
 21
3.236521008576906
 31
0.0
  0
LINE
  5
320D
330
1E
100
AcDbEntity
  8
3
100
AcDbLine
 10
-1.059344043069398
 20
3.236521008576906
 30
0.0
 11
-1.075092074565461
 21
3.214211297290817
 31
0.0
  0
LINE
  5
320E
330
1E
100
AcDbEntity
  8
3
100
AcDbLine
 10
-1.075092074565461
 20
3.214211297290817
 30
0.0
 11
-1.085590762229502
 21
3.201087937710764
 31
0.0
  0
LINE
  5
320F
330
1E
100
AcDbEntity
  8
3
100
AcDbLine
 10
-1.085590762229502
 20
3.201087937710764
 30
0.0
 11
-1.089527770103519
 21
3.194526257920738
 31
0.0
  0
LINE
  5
3210
330
1E
100
AcDbEntity
  8
3
100
AcDbLine
 10
-0.9254857753528629
 20
3.418935706739635
 30
0.0
 11
-0.955669502386983
 21
3.376940956083468
 31
0.0
  0
LINE
  5
3211
330
1E
100
AcDbEntity
  8
3
100
AcDbLine
 10
-0.955669502386983
 20
3.376940956083468
 30
0.0
 11
-0.9858532294211039
 21
3.336258541385305
 31
0.0
  0
LINE
  5
3212
330
1E
100
AcDbEntity
  8
3
100
AcDbLine
 10
-1.15251989608777
 20
7.631534131936483
 30
0.0
 11
-1.148582888213754
 21
7.653843843222571
 31
0.0
  0
LINE
  5
3213
330
1E
100
AcDbEntity
  8
3
100
AcDbLine
 10
-1.148582888213754
 20
7.653843843222571
 30
0.0
 11
-1.135459528633703
 21
7.67352888259265
 31
0.0
  0
LINE
  5
3214
330
1E
100
AcDbEntity
  8
3
100
AcDbLine
 10
-1.135459528633703
 20
7.67352888259265
 30
0.0
 11
-1.115774489263623
 21
7.686652242172702
 31
0.0
  0
LINE
  5
3215
330
1E
100
AcDbEntity
  8
3
100
AcDbLine
 10
-1.115774489263623
 20
7.686652242172702
 30
0.0
 11
-1.093464777977534
 21
7.690589250046718
 31
0.0
  0
LINE
  5
3216
330
1E
100
AcDbEntity
  8
3
100
AcDbLine
 10
-1.089527770103519
 20
3.194526257920738
 30
0.0
 11
-1.093464777977534
 21
3.190589250046722
 31
0.0
  0
LINE
  5
3217
330
1E
100
AcDbEntity
  8
3
100
AcDbLine
 10
-1.093464777977534
 20
3.190589250046722
 30
0.0
 11
-1.115774489263623
 21
3.195838593878743
 31
0.0
  0
LINE
  5
3218
330
1E
100
AcDbEntity
  8
3
100
AcDbLine
 10
-1.115774489263623
 20
3.195838593878743
 30
0.0
 11
-1.135459528633703
 21
3.208961953458795
 31
0.0
  0
LINE
  5
3219
330
1E
100
AcDbEntity
  8
3
100
AcDbLine
 10
-1.135459528633703
 20
3.208961953458795
 30
0.0
 11
-1.148582888213754
 21
3.228646992828875
 31
0.0
  0
LINE
  5
321A
330
1E
100
AcDbEntity
  8
3
100
AcDbLine
 10
-1.148582888213754
 20
3.228646992828875
 30
0.0
 11
-1.15251989608777
 21
3.250956704114964
 31
0.0
  0
LINE
  5
321B
330
1E
100
AcDbEntity
  8
3
100
AcDbLine
 10
3.287112649843984
 20
7.690589250046718
 30
0.0
 11
-1.093464777977534
 21
7.690589250046718
 31
0.0
  0
LINE
  5
321C
330
1E
100
AcDbEntity
  8
3
100
AcDbLine
 10
-1.093464777977534
 20
7.690589250046718
 30
0.0
 11
-1.089527770103519
 21
7.687964578130708
 31
0.0
  0
LINE
  5
321D
330
1E
100
AcDbEntity
  8
3
100
AcDbLine
 10
-1.149895224171759
 20
7.627597124062466
 30
0.0
 11
-1.15251989608777
 21
7.631534131936483
 31
0.0
  0
LINE
  5
321E
330
1E
100
AcDbEntity
  8
3
100
AcDbLine
 10
-1.15251989608777
 20
7.631534131936483
 30
0.0
 11
-1.15251989608777
 21
3.250956704114964
 31
0.0
  0
LINE
  5
321F
330
1E
100
AcDbEntity
  8
3
100
AcDbLine
 10
-1.15251989608777
 20
3.250956704114964
 30
0.0
 11
-1.149895224171759
 21
3.254893711988979
 31
0.0
  0
LINE
  5
3220
330
1E
100
AcDbEntity
  8
3
100
AcDbLine
 10
0.9327819411825689
 20
5.063292662120211
 30
0.0
 11
0.3527294477442497
 21
5.063292662120211
 31
0.0
  0
LINE
  5
3221
330
1E
100
AcDbEntity
  8
3
100
AcDbLine
 10
0.3527294477442497
 20
5.063292662120211
 30
0.0
 11
0.3527294477442497
 21
5.708961953458794
 31
0.0
  0
LINE
  5
3222
330
1E
100
AcDbEntity
  8
3
100
AcDbLine
 10
0.9327819411825689
 20
4.168279538760632
 30
0.0
 11
0.3527294477442497
 21
4.168279538760632
 31
0.0
  0
LINE
  5
3223
330
1E
100
AcDbEntity
  8
3
100
AcDbLine
 10
0.3527294477442497
 20
4.168279538760632
 30
0.0
 11
0.3527294477442497
 21
4.813948830099215
 31
0.0
  0
LINE
  5
3224
330
1E
100
AcDbEntity
  8
3
100
AcDbLine
 10
0.9327819411825689
 20
5.95830578547979
 30
0.0
 11
0.3527294477442497
 21
5.95830578547979
 31
0.0
  0
LINE
  5
3225
330
1E
100
AcDbEntity
  8
3
100
AcDbLine
 10
0.3527294477442497
 20
5.95830578547979
 30
0.0
 11
0.3527294477442497
 21
6.603975076818372
 31
0.0
  0
LINE
  5
3226
330
1E
100
AcDbEntity
  8
3
100
AcDbLine
 10
0.0220207863269266
 20
5.95830578547979
 30
0.0
 11
-0.5580317071113923
 21
5.95830578547979
 31
0.0
  0
LINE
  5
3227
330
1E
100
AcDbEntity
  8
3
100
AcDbLine
 10
-0.5580317071113923
 20
5.95830578547979
 30
0.0
 11
-0.5580317071113923
 21
6.603975076818372
 31
0.0
  0
LINE
  5
3228
330
1E
100
AcDbEntity
  8
3
100
AcDbLine
 10
0.0220207863269266
 20
4.168279538760632
 30
0.0
 11
-0.5580317071113923
 21
4.168279538760632
 31
0.0
  0
LINE
  5
3229
330
1E
100
AcDbEntity
  8
3
100
AcDbLine
 10
-0.5580317071113923
 20
4.168279538760632
 30
0.0
 11
-0.5580317071113923
 21
4.813948830099215
 31
0.0
  0
LINE
  5
322A
330
1E
100
AcDbEntity
  8
3
100
AcDbLine
 10
0.9997110750408371
 20
6.907124683117586
 30
0.0
 11
0.9957740671668208
 21
6.891376651621523
 31
0.0
  0
LINE
  5
322B
330
1E
100
AcDbEntity
  8
3
100
AcDbLine
 10
0.9957740671668208
 20
6.891376651621523
 30
0.0
 11
0.9839630435447741
 21
6.879565627999475
 31
0.0
  0
LINE
  5
322C
330
1E
100
AcDbEntity
  8
3
100
AcDbLine
 10
0.9839630435447741
 20
6.879565627999475
 30
0.0
 11
0.9682150120487111
 21
6.87562862012546
 31
0.0
  0
LINE
  5
322D
330
1E
100
AcDbEntity
  8
3
100
AcDbLine
 10
0.9682150120487111
 20
6.87562862012546
 30
0.0
 11
-0.8441209459565373
 21
6.87562862012546
 31
0.0
  0
LINE
  5
322E
330
1E
100
AcDbEntity
  8
3
100
AcDbLine
 10
-0.8441209459565373
 20
6.87562862012546
 30
0.0
 11
-0.8598689774526002
 21
6.879565627999475
 31
0.0
  0
LINE
  5
322F
330
1E
100
AcDbEntity
  8
3
100
AcDbLine
 10
-0.8598689774526002
 20
6.879565627999475
 30
0.0
 11
-0.8716800010746474
 21
6.891376651621523
 31
0.0
  0
LINE
  5
3230
330
1E
100
AcDbEntity
  8
3
100
AcDbLine
 10
-0.8716800010746474
 20
6.891376651621523
 30
0.0
 11
-0.8756170089486623
 21
6.907124683117586
 31
0.0
  0
LINE
  5
3231
330
1E
100
AcDbEntity
  8
3
100
AcDbLine
 10
-0.8756170089486623
 20
6.907124683117586
 30
0.0
 11
-0.8756170089486623
 21
7.256206047946982
 31
0.0
  0
LINE
  5
3232
330
1E
100
AcDbEntity
  8
3
100
AcDbLine
 10
-0.8756170089486623
 20
7.256206047946982
 30
0.0
 11
-0.8716800010746474
 21
7.271954079443045
 31
0.0
  0
LINE
  5
3233
330
1E
100
AcDbEntity
  8
3
100
AcDbLine
 10
-0.8716800010746474
 20
7.271954079443045
 30
0.0
 11
-0.8598689774526002
 21
7.283765103065091
 31
0.0
  0
LINE
  5
3234
330
1E
100
AcDbEntity
  8
3
100
AcDbLine
 10
-0.8598689774526002
 20
7.283765103065091
 30
0.0
 11
-0.8441209459565373
 21
7.287702110939108
 31
0.0
  0
LINE
  5
3235
330
1E
100
AcDbEntity
  8
3
100
AcDbLine
 10
-0.8441209459565373
 20
7.287702110939108
 30
0.0
 11
0.9682150120487111
 21
7.287702110939108
 31
0.0
  0
LINE
  5
3236
330
1E
100
AcDbEntity
  8
3
100
AcDbLine
 10
0.9682150120487111
 20
7.287702110939108
 30
0.0
 11
0.9839630435447741
 21
7.283765103065091
 31
0.0
  0
LINE
  5
3237
330
1E
100
AcDbEntity
  8
3
100
AcDbLine
 10
0.9839630435447741
 20
7.283765103065091
 30
0.0
 11
0.9957740671668208
 21
7.271954079443045
 31
0.0
  0
LINE
  5
3238
330
1E
100
AcDbEntity
  8
3
100
AcDbLine
 10
0.9957740671668208
 20
7.271954079443045
 30
0.0
 11
0.9997110750408371
 21
7.256206047946982
 31
0.0
  0
LINE
  5
3239
330
1E
100
AcDbEntity
  8
3
100
AcDbLine
 10
3.119133647219313
 20
7.46355512931181
 30
0.0
 11
-0.9254857753528629
 21
7.46355512931181
 31
0.0
  0
LINE
  5
323A
330
1E
100
AcDbEntity
  8
3
100
AcDbLine
 10
-0.9254857753528629
 20
7.46355512931181
 30
0.0
 11
-0.9254857753528629
 21
3.418935706739635
 31
0.0
  0
LINE
  5
323B
330
1E
100
AcDbEntity
  8
3
100
AcDbLine
 10
0.1309446708413624
 20
3.876940956083467
 30
0.0
 11
0.1125719674292886
 21
3.874316284167456
 31
0.0
  0
LINE
  5
323C
330
1E
100
AcDbEntity
  8
3
100
AcDbLine
 10
0.1125719674292886
 20
3.874316284167456
 30
0.0
 11
0.0955115999752208
 21
3.86775460437743
 31
0.0
  0
LINE
  5
323D
330
1E
100
AcDbEntity
  8
3
100
AcDbLine
 10
0.0955115999752208
 20
3.733896336660895
 30
0.0
 11
0.1125719674292886
 21
3.727334656870869
 31
0.0
  0
LINE
  5
323E
330
1E
100
AcDbEntity
  8
3
100
AcDbLine
 10
0.1125719674292886
 20
3.727334656870869
 30
0.0
 11
0.1309446708413624
 21
3.724709984954859
 31
0.0
  0
LINE
  5
323F
330
1E
100
AcDbEntity
  8
3
100
AcDbLine
 10
0.2858003138859821
 20
3.86775460437743
 30
0.0
 11
0.2687399464319133
 21
3.874316284167456
 31
0.0
  0
LINE
  5
3240
330
1E
100
AcDbEntity
  8
3
100
AcDbLine
 10
0.2687399464319133
 20
3.874316284167456
 30
0.0
 11
0.2503672430198405
 21
3.876940956083467
 31
0.0
  0
LINE
  5
3241
330
1E
100
AcDbEntity
  8
3
100
AcDbLine
 10
0.2503672430198405
 20
3.724709984954859
 30
0.0
 11
0.2687399464319133
 21
3.727334656870869
 31
0.0
  0
LINE
  5
3242
330
1E
100
AcDbEntity
  8
3
100
AcDbLine
 10
0.2687399464319133
 20
3.727334656870869
 30
0.0
 11
0.2858003138859821
 21
3.733896336660895
 31
0.0
  0
LINE
  5
3243
330
1E
100
AcDbEntity
  8
3
100
AcDbLine
 10
0.1309446708413624
 20
3.876940956083467
 30
0.0
 11
0.1020732797652473
 21
3.871691612251447
 31
0.0
  0
LINE
  5
3244
330
1E
100
AcDbEntity
  8
3
100
AcDbLine
 10
0.1020732797652473
 20
3.871691612251447
 30
0.0
 11
0.077138896563147
 21
3.854631244797379
 31
0.0
  0
LINE
  5
3245
330
1E
100
AcDbEntity
  8
3
100
AcDbLine
 10
0.077138896563147
 20
3.854631244797379
 30
0.0
 11
0.0600785291090791
 21
3.829696861595278
 31
0.0
  0
LINE
  5
3246
330
1E
100
AcDbEntity
  8
3
100
AcDbLine
 10
0.0600785291090791
 20
3.829696861595278
 30
0.0
 11
0.0548291852770584
 21
3.800825470519162
 31
0.0
  0
LINE
  5
3247
330
1E
100
AcDbEntity
  8
3
100
AcDbLine
 10
0.0548291852770584
 20
3.800825470519162
 30
0.0
 11
0.0600785291090791
 21
3.771954079443048
 31
0.0
  0
LINE
  5
3248
330
1E
100
AcDbEntity
  8
3
100
AcDbLine
 10
0.0600785291090791
 20
3.771954079443048
 30
0.0
 11
0.077138896563147
 21
3.747019696240948
 31
0.0
  0
LINE
  5
3249
330
1E
100
AcDbEntity
  8
3
100
AcDbLine
 10
0.077138896563147
 20
3.747019696240948
 30
0.0
 11
0.1020732797652473
 21
3.72995932878688
 31
0.0
  0
LINE
  5
324A
330
1E
100
AcDbEntity
  8
3
100
AcDbLine
 10
0.1020732797652473
 20
3.72995932878688
 30
0.0
 11
0.1309446708413624
 21
3.724709984954859
 31
0.0
  0
LINE
  5
324B
330
1E
100
AcDbEntity
  8
3
100
AcDbLine
 10
0.2503672430198405
 20
3.724709984954859
 30
0.0
 11
0.2792386340959556
 21
3.72995932878688
 31
0.0
  0
LINE
  5
324C
330
1E
100
AcDbEntity
  8
3
100
AcDbLine
 10
0.2792386340959556
 20
3.72995932878688
 30
0.0
 11
0.3041730172980555
 21
3.747019696240948
 31
0.0
  0
LINE
  5
324D
330
1E
100
AcDbEntity
  8
3
100
AcDbLine
 10
0.3041730172980555
 20
3.747019696240948
 30
0.0
 11
0.3212333847521234
 21
3.771954079443048
 31
0.0
  0
LINE
  5
324E
330
1E
100
AcDbEntity
  8
3
100
AcDbLine
 10
0.3212333847521234
 20
3.771954079443048
 30
0.0
 11
0.3264827285841445
 21
3.800825470519162
 31
0.0
  0
LINE
  5
324F
330
1E
100
AcDbEntity
  8
3
100
AcDbLine
 10
0.3264827285841445
 20
3.800825470519162
 30
0.0
 11
0.3212333847521234
 21
3.829696861595278
 31
0.0
  0
LINE
  5
3250
330
1E
100
AcDbEntity
  8
3
100
AcDbLine
 10
0.3212333847521234
 20
3.829696861595278
 30
0.0
 11
0.3041730172980555
 21
3.854631244797379
 31
0.0
  0
LINE
  5
3251
330
1E
100
AcDbEntity
  8
3
100
AcDbLine
 10
0.3041730172980555
 20
3.854631244797379
 30
0.0
 11
0.2792386340959556
 21
3.871691612251447
 31
0.0
  0
LINE
  5
3252
330
1E
100
AcDbEntity
  8
3
100
AcDbLine
 10
0.2792386340959556
 20
3.871691612251447
 30
0.0
 11
0.2503672430198405
 21
3.876940956083467
 31
0.0
  0
LINE
  5
3253
330
1E
100
AcDbEntity
  8
3
100
AcDbLine
 10
0.1309446708413624
 20
3.950431769731761
 30
0.0
 11
0.0889499201851942
 21
3.943870089941735
 31
0.0
  0
LINE
  5
3254
330
1E
100
AcDbEntity
  8
3
100
AcDbLine
 10
0.0889499201851942
 20
3.943870089941735
 30
0.0
 11
0.0495798414450368
 21
3.926809722487666
 31
0.0
  0
LINE
  5
3255
330
1E
100
AcDbEntity
  8
3
100
AcDbLine
 10
0.0495798414450368
 20
3.926809722487666
 30
0.0
 11
0.0180837784529109
 21
3.899250667369556
 31
0.0
  0
LINE
  5
3256
330
1E
100
AcDbEntity
  8
3
100
AcDbLine
 10
0.0180837784529109
 20
3.899250667369556
 30
0.0
 11
-0.0055382687911836
 21
3.862505260545409
 31
0.0
  0
LINE
  5
3257
330
1E
100
AcDbEntity
  8
3
100
AcDbLine
 10
-0.0055382687911836
 20
3.862505260545409
 30
0.0
 11
-0.0173492924132308
 21
3.821822845847247
 31
0.0
  0
LINE
  5
3258
330
1E
100
AcDbEntity
  8
3
100
AcDbLine
 10
-0.0173492924132308
 20
3.821822845847247
 30
0.0
 11
-0.0173492924132308
 21
3.779828095191079
 31
0.0
  0
LINE
  5
3259
330
1E
100
AcDbEntity
  8
3
100
AcDbLine
 10
-0.0173492924132308
 20
3.779828095191079
 30
0.0
 11
-0.0055382687911836
 21
3.739145680492915
 31
0.0
  0
LINE
  5
325A
330
1E
100
AcDbEntity
  8
3
100
AcDbLine
 10
-0.0055382687911836
 20
3.739145680492915
 30
0.0
 11
0.0180837784529109
 21
3.702400273668769
 31
0.0
  0
LINE
  5
325B
330
1E
100
AcDbEntity
  8
3
100
AcDbLine
 10
0.0180837784529109
 20
3.702400273668769
 30
0.0
 11
0.0495798414450368
 21
3.674841218550659
 31
0.0
  0
LINE
  5
325C
330
1E
100
AcDbEntity
  8
3
100
AcDbLine
 10
0.0495798414450368
 20
3.674841218550659
 30
0.0
 11
0.0889499201851942
 21
3.657780851096591
 31
0.0
  0
LINE
  5
325D
330
1E
100
AcDbEntity
  8
3
100
AcDbLine
 10
0.2503672430198405
 20
3.651219171306565
 30
0.0
 11
0.2923619936760078
 21
3.657780851096591
 31
0.0
  0
LINE
  5
325E
330
1E
100
AcDbEntity
  8
3
100
AcDbLine
 10
0.2923619936760078
 20
3.657780851096591
 30
0.0
 11
0.3317320724161652
 21
3.674841218550659
 31
0.0
  0
LINE
  5
325F
330
1E
100
AcDbEntity
  8
3
100
AcDbLine
 10
0.3317320724161652
 20
3.674841218550659
 30
0.0
 11
0.363228135408292
 21
3.702400273668769
 31
0.0
  0
LINE
  5
3260
330
1E
100
AcDbEntity
  8
3
100
AcDbLine
 10
0.363228135408292
 20
3.702400273668769
 30
0.0
 11
0.3868501826523865
 21
3.739145680492915
 31
0.0
  0
LINE
  5
3261
330
1E
100
AcDbEntity
  8
3
100
AcDbLine
 10
0.3868501826523865
 20
3.739145680492915
 30
0.0
 11
0.3986612062744332
 21
3.779828095191079
 31
0.0
  0
LINE
  5
3262
330
1E
100
AcDbEntity
  8
3
100
AcDbLine
 10
0.3986612062744332
 20
3.779828095191079
 30
0.0
 11
0.3986612062744332
 21
3.821822845847247
 31
0.0
  0
LINE
  5
3263
330
1E
100
AcDbEntity
  8
3
100
AcDbLine
 10
0.3986612062744332
 20
3.821822845847247
 30
0.0
 11
0.3868501826523865
 21
3.862505260545409
 31
0.0
  0
LINE
  5
3264
330
1E
100
AcDbEntity
  8
3
100
AcDbLine
 10
0.3868501826523865
 20
3.862505260545409
 30
0.0
 11
0.363228135408292
 21
3.899250667369556
 31
0.0
  0
LINE
  5
3265
330
1E
100
AcDbEntity
  8
3
100
AcDbLine
 10
0.363228135408292
 20
3.899250667369556
 30
0.0
 11
0.3317320724161652
 21
3.926809722487666
 31
0.0
  0
LINE
  5
3266
330
1E
100
AcDbEntity
  8
3
100
AcDbLine
 10
0.3317320724161652
 20
3.926809722487666
 30
0.0
 11
0.2923619936760078
 21
3.943870089941735
 31
0.0
  0
LINE
  5
3267
330
1E
100
AcDbEntity
  8
3
100
AcDbLine
 10
0.2923619936760078
 20
3.943870089941735
 30
0.0
 11
0.2503672430198405
 21
3.950431769731761
 31
0.0
  0
LINE
  5
3268
330
1E
100
AcDbEntity
  8
3
100
AcDbLine
 10
-0.8598689774526002
 20
4.002925208051971
 30
0.0
 11
-0.8716800010746474
 21
3.991114184429924
 31
0.0
  0
LINE
  5
3269
330
1E
100
AcDbEntity
  8
3
100
AcDbLine
 10
-0.8716800010746474
 20
3.991114184429924
 30
0.0
 11
-0.8756170089486623
 21
3.975366152933861
 31
0.0
  0
LINE
  5
326A
330
1E
100
AcDbEntity
  8
3
100
AcDbLine
 10
-0.8756170089486623
 20
3.975366152933861
 30
0.0
 11
-0.8729923370326524
 21
3.975366152933861
 31
0.0
  0
LINE
  5
326B
330
1E
100
AcDbEntity
  8
3
100
AcDbLine
 10
-0.8756170089486623
 20
3.626284788104465
 30
0.0
 11
-0.8716800010746474
 21
3.610536756608402
 31
0.0
  0
LINE
  5
326C
330
1E
100
AcDbEntity
  8
3
100
AcDbLine
 10
-0.8716800010746474
 20
3.610536756608402
 30
0.0
 11
-0.8598689774526002
 21
3.598725732986354
 31
0.0
  0
LINE
  5
326D
330
1E
100
AcDbEntity
  8
3
100
AcDbLine
 10
-0.8598689774526002
 20
3.598725732986354
 30
0.0
 11
-0.8441209459565373
 21
3.594788725112339
 31
0.0
  0
LINE
  5
326E
330
1E
100
AcDbEntity
  8
3
100
AcDbLine
 10
-0.8441209459565373
 20
3.594788725112339
 30
0.0
 11
-0.8428086099985323
 21
3.594788725112339
 31
0.0
  0
LINE
  5
326F
330
1E
100
AcDbEntity
  8
3
100
AcDbLine
 10
0.9957740671668208
 20
3.610536756608402
 30
0.0
 11
0.9997110750408371
 21
3.626284788104465
 31
0.0
  0
LINE
  5
3270
330
1E
100
AcDbEntity
  8
3
100
AcDbLine
 10
0.9997110750408371
 20
3.626284788104465
 30
0.0
 11
0.9983987390828318
 21
3.626284788104465
 31
0.0
  0
LINE
  5
3271
330
1E
100
AcDbEntity
  8
3
100
AcDbLine
 10
0.9682150120487111
 20
3.594788725112339
 30
0.0
 11
0.9839630435447741
 21
3.598725732986354
 31
0.0
  0
LINE
  5
3272
330
1E
100
AcDbEntity
  8
3
100
AcDbLine
 10
0.9839630435447741
 20
3.598725732986354
 30
0.0
 11
0.9957740671668208
 21
3.610536756608402
 31
0.0
  0
LINE
  5
3273
330
1E
100
AcDbEntity
  8
3
100
AcDbLine
 10
0.9997110750408371
 20
3.975366152933861
 30
0.0
 11
0.9957740671668208
 21
3.991114184429924
 31
0.0
  0
LINE
  5
3274
330
1E
100
AcDbEntity
  8
3
100
AcDbLine
 10
0.9957740671668208
 20
3.991114184429924
 30
0.0
 11
0.9839630435447741
 21
4.002925208051971
 31
0.0
  0
LINE
  5
3275
330
1E
100
AcDbEntity
  8
3
100
AcDbLine
 10
0.9839630435447741
 20
4.002925208051971
 30
0.0
 11
0.9682150120487111
 21
4.006862215925987
 31
0.0
  0
LINE
  5
3276
330
1E
100
AcDbEntity
  8
3
100
AcDbLine
 10
0.9682150120487111
 20
4.006862215925987
 30
0.0
 11
0.9669026760907058
 21
4.005549879967982
 31
0.0
  0
LINE
  5
3277
330
1E
100
AcDbEntity
  8
3
100
AcDbLine
 10
0.9669026760907058
 20
4.005549879967982
 30
0.0
 11
0.9826507075867688
 21
4.001612872093966
 31
0.0
  0
LINE
  5
3278
330
1E
100
AcDbEntity
  8
3
100
AcDbLine
 10
0.9826507075867688
 20
4.001612872093966
 30
0.0
 11
0.9931493952508105
 21
3.991114184429924
 31
0.0
  0
LINE
  5
3279
330
1E
100
AcDbEntity
  8
3
100
AcDbLine
 10
0.9983987390828318
 20
3.626284788104465
 30
0.0
 11
0.9931493952508105
 21
3.610536756608402
 31
0.0
  0
LINE
  5
327A
330
1E
100
AcDbEntity
  8
3
100
AcDbLine
 10
0.9931493952508105
 20
3.610536756608402
 30
0.0
 11
0.9826507075867688
 21
3.598725732986354
 31
0.0
  0
LINE
  5
327B
330
1E
100
AcDbEntity
  8
3
100
AcDbLine
 10
0.9826507075867688
 20
3.598725732986354
 30
0.0
 11
0.9669026760907058
 21
3.594788725112339
 31
0.0
  0
LINE
  5
327C
330
1E
100
AcDbEntity
  8
3
100
AcDbLine
 10
0.934094277140575
 20
4.005549879967982
 30
0.0
 11
-0.8100002110484005
 21
4.005549879967982
 31
0.0
  0
LINE
  5
327D
330
1E
100
AcDbEntity
  8
3
100
AcDbLine
 10
-0.8100002110484005
 20
4.005549879967982
 30
0.0
 11
-0.8139372189224163
 21
4.005549879967982
 31
0.0
  0
LINE
  5
327E
330
1E
100
AcDbEntity
  8
3
100
AcDbLine
 10
0.0889499201851942
 20
3.94518242589974
 30
0.0
 11
0.0495798414450368
 21
3.928122058445672
 31
0.0
  0
LINE
  5
327F
330
1E
100
AcDbEntity
  8
3
100
AcDbLine
 10
0.0495798414450368
 20
3.928122058445672
 30
0.0
 11
0.0167714424949059
 21
3.899250667369556
 31
0.0
  0
LINE
  5
3280
330
1E
100
AcDbEntity
  8
3
100
AcDbLine
 10
0.0167714424949059
 20
3.899250667369556
 30
0.0
 11
-0.0068506047491885
 21
3.863817596503414
 31
0.0
  0
LINE
  5
3281
330
1E
100
AcDbEntity
  8
3
100
AcDbLine
 10
-0.0068506047491885
 20
3.863817596503414
 30
0.0
 11
-0.0186616283712358
 21
3.821822845847247
 31
0.0
  0
LINE
  5
3282
330
1E
100
AcDbEntity
  8
3
100
AcDbLine
 10
-0.0186616283712358
 20
3.821822845847247
 30
0.0
 11
-0.0186616283712358
 21
3.779828095191079
 31
0.0
  0
LINE
  5
3283
330
1E
100
AcDbEntity
  8
3
100
AcDbLine
 10
-0.0186616283712358
 20
3.779828095191079
 30
0.0
 11
-0.0068506047491885
 21
3.737833344534911
 31
0.0
  0
LINE
  5
3284
330
1E
100
AcDbEntity
  8
3
100
AcDbLine
 10
-0.0068506047491885
 20
3.737833344534911
 30
0.0
 11
0.0167714424949059
 21
3.702400273668769
 31
0.0
  0
LINE
  5
3285
330
1E
100
AcDbEntity
  8
3
100
AcDbLine
 10
0.0167714424949059
 20
3.702400273668769
 30
0.0
 11
0.0495798414450368
 21
3.673528882592654
 31
0.0
  0
LINE
  5
3286
330
1E
100
AcDbEntity
  8
3
100
AcDbLine
 10
0.0495798414450368
 20
3.673528882592654
 30
0.0
 11
0.0889499201851942
 21
3.656468515138586
 31
0.0
  0
LINE
  5
3287
330
1E
100
AcDbEntity
  8
3
100
AcDbLine
 10
0.0889499201851942
 20
3.656468515138586
 30
0.0
 11
0.1309446708413624
 21
3.649906835348559
 31
0.0
  0
LINE
  5
3288
330
1E
100
AcDbEntity
  8
3
100
AcDbLine
 10
0.364540471366297
 20
3.702400273668769
 30
0.0
 11
0.3881625186103914
 21
3.737833344534911
 31
0.0
  0
LINE
  5
3289
330
1E
100
AcDbEntity
  8
3
100
AcDbLine
 10
0.3881625186103914
 20
3.737833344534911
 30
0.0
 11
0.3999735422324386
 21
3.779828095191079
 31
0.0
  0
LINE
  5
328A
330
1E
100
AcDbEntity
  8
3
100
AcDbLine
 10
0.3999735422324386
 20
3.779828095191079
 30
0.0
 11
0.3999735422324386
 21
3.821822845847247
 31
0.0
  0
LINE
  5
328B
330
1E
100
AcDbEntity
  8
3
100
AcDbLine
 10
0.3999735422324386
 20
3.821822845847247
 30
0.0
 11
0.3881625186103914
 21
3.863817596503414
 31
0.0
  0
LINE
  5
328C
330
1E
100
AcDbEntity
  8
3
100
AcDbLine
 10
0.3881625186103914
 20
3.863817596503414
 30
0.0
 11
0.364540471366297
 21
3.899250667369556
 31
0.0
  0
LINE
  5
328D
330
1E
100
AcDbEntity
  8
3
100
AcDbLine
 10
0.364540471366297
 20
3.899250667369556
 30
0.0
 11
0.3317320724161652
 21
3.928122058445672
 31
0.0
  0
LINE
  5
328E
330
1E
100
AcDbEntity
  8
3
100
AcDbLine
 10
0.3317320724161652
 20
3.928122058445672
 30
0.0
 11
0.2923619936760078
 21
3.94518242589974
 31
0.0
  0
LINE
  5
328F
330
1E
100
AcDbEntity
  8
3
100
AcDbLine
 10
0.2923619936760078
 20
3.94518242589974
 30
0.0
 11
0.2503672430198405
 21
3.951744105689766
 31
0.0
  0
LINE
  5
3290
330
1E
100
AcDbEntity
  8
3
100
AcDbLine
 10
0.2503672430198405
 20
3.649906835348559
 30
0.0
 11
0.2923619936760078
 21
3.656468515138586
 31
0.0
  0
LINE
  5
3291
330
1E
100
AcDbEntity
  8
3
100
AcDbLine
 10
0.2923619936760078
 20
3.656468515138586
 30
0.0
 11
0.3317320724161652
 21
3.673528882592654
 31
0.0
  0
LINE
  5
3292
330
1E
100
AcDbEntity
  8
3
100
AcDbLine
 10
0.3317320724161652
 20
3.673528882592654
 30
0.0
 11
0.364540471366297
 21
3.702400273668769
 31
0.0
  0
LINE
  5
3293
330
1E
100
AcDbEntity
  8
3
100
AcDbLine
 10
0.0850129123111785
 20
3.859880588629399
 30
0.0
 11
0.0640155369830948
 21
3.833633869469295
 31
0.0
  0
LINE
  5
3294
330
1E
100
AcDbEntity
  8
3
100
AcDbLine
 10
0.0640155369830948
 20
3.833633869469295
 30
0.0
 11
0.0561415212350633
 21
3.800825470519162
 31
0.0
  0
LINE
  5
3295
330
1E
100
AcDbEntity
  8
3
100
AcDbLine
 10
0.0561415212350633
 20
3.800825470519162
 30
0.0
 11
0.0640155369830948
 21
3.768017071569031
 31
0.0
  0
LINE
  5
3296
330
1E
100
AcDbEntity
  8
3
100
AcDbLine
 10
0.0640155369830948
 20
3.768017071569031
 30
0.0
 11
0.0850129123111785
 21
3.741770352408927
 31
0.0
  0
LINE
  5
3297
330
1E
100
AcDbEntity
  8
3
100
AcDbLine
 10
0.296299001550024
 20
3.741770352408927
 30
0.0
 11
0.3172963768781081
 21
3.768017071569031
 31
0.0
  0
LINE
  5
3298
330
1E
100
AcDbEntity
  8
3
100
AcDbLine
 10
0.3172963768781081
 20
3.768017071569031
 30
0.0
 11
0.3251703926261396
 21
3.800825470519162
 31
0.0
  0
LINE
  5
3299
330
1E
100
AcDbEntity
  8
3
100
AcDbLine
 10
0.3251703926261396
 20
3.800825470519162
 30
0.0
 11
0.3172963768781081
 21
3.833633869469295
 31
0.0
  0
LINE
  5
329A
330
1E
100
AcDbEntity
  8
3
100
AcDbLine
 10
0.3172963768781081
 20
3.833633869469295
 30
0.0
 11
0.296299001550024
 21
3.859880588629399
 31
0.0
  0
LINE
  5
329B
330
1E
100
AcDbEntity
  8
3
100
AcDbLine
 10
-0.8428086099985323
 20
3.594788725112339
 30
0.0
 11
-0.8585566414945953
 21
3.598725732986354
 31
0.0
  0
LINE
  5
329C
330
1E
100
AcDbEntity
  8
3
100
AcDbLine
 10
-0.8585566414945953
 20
3.598725732986354
 30
0.0
 11
-0.8690553291586367
 21
3.610536756608402
 31
0.0
  0
LINE
  5
329D
330
1E
100
AcDbEntity
  8
3
100
AcDbLine
 10
-0.8690553291586367
 20
3.610536756608402
 30
0.0
 11
-0.8729923370326524
 21
3.626284788104465
 31
0.0
  0
LINE
  5
329E
330
1E
100
AcDbEntity
  8
3
100
AcDbLine
 10
-0.8729923370326524
 20
3.975366152933861
 30
0.0
 11
-0.8690553291586367
 21
3.991114184429924
 31
0.0
  0
LINE
  5
329F
330
1E
100
AcDbEntity
  8
3
100
AcDbLine
 10
-0.8690553291586367
 20
3.991114184429924
 30
0.0
 11
-0.8585566414945953
 21
4.001612872093966
 31
0.0
  0
LINE
  5
32A0
330
1E
100
AcDbEntity
  8
3
100
AcDbLine
 10
-0.8585566414945953
 20
4.001612872093966
 30
0.0
 11
-0.8428086099985323
 21
4.005549879967982
 31
0.0
  0
LINE
  5
32A1
330
1E
100
AcDbEntity
  8
3
100
AcDbLine
 10
1.212309500237687
 20
6.879565627999475
 30
0.0
 11
1.200498476615639
 21
6.891376651621523
 31
0.0
  0
LINE
  5
32A2
330
1E
100
AcDbEntity
  8
3
100
AcDbLine
 10
1.200498476615639
 20
6.891376651621523
 30
0.0
 11
1.196561468741624
 21
6.907124683117586
 31
0.0
  0
LINE
  5
32A3
330
1E
100
AcDbEntity
  8
3
100
AcDbLine
 10
1.195249132783619
 20
6.907124683117586
 30
0.0
 11
1.199186140657634
 21
6.891376651621523
 31
0.0
  0
LINE
  5
32A4
330
1E
100
AcDbEntity
  8
3
100
AcDbLine
 10
1.199186140657634
 20
6.891376651621523
 30
0.0
 11
1.209684828321677
 21
6.879565627999475
 31
0.0
  0
LINE
  5
32A5
330
1E
100
AcDbEntity
  8
3
100
AcDbLine
 10
1.209684828321677
 20
6.879565627999475
 30
0.0
 11
1.22543285981774
 21
6.87562862012546
 31
0.0
  0
LINE
  5
32A6
330
1E
100
AcDbEntity
  8
3
100
AcDbLine
 10
1.196561468741624
 20
7.256206047946982
 30
0.0
 11
1.200498476615639
 21
7.271954079443045
 31
0.0
  0
LINE
  5
32A7
330
1E
100
AcDbEntity
  8
3
100
AcDbLine
 10
1.200498476615639
 20
7.271954079443045
 30
0.0
 11
1.212309500237687
 21
7.282452767107086
 31
0.0
  0
LINE
  5
32A8
330
1E
100
AcDbEntity
  8
3
100
AcDbLine
 10
1.212309500237687
 20
7.282452767107086
 30
0.0
 11
1.22805753173375
 21
7.287702110939108
 31
0.0
  0
LINE
  5
32A9
330
1E
100
AcDbEntity
  8
3
100
AcDbLine
 10
1.22543285981774
 20
7.287702110939108
 30
0.0
 11
1.209684828321677
 21
7.283765103065091
 31
0.0
  0
LINE
  5
32AA
330
1E
100
AcDbEntity
  8
3
100
AcDbLine
 10
1.209684828321677
 20
7.283765103065091
 30
0.0
 11
1.199186140657634
 21
7.271954079443045
 31
0.0
  0
LINE
  5
32AB
330
1E
100
AcDbEntity
  8
3
100
AcDbLine
 10
1.199186140657634
 20
7.271954079443045
 30
0.0
 11
1.195249132783619
 21
7.256206047946982
 31
0.0
  0
LINE
  5
32AC
330
1E
100
AcDbEntity
  8
3
100
AcDbLine
 10
3.036456481864982
 20
7.287702110939108
 30
0.0
 11
3.052204513361045
 21
7.282452767107086
 31
0.0
  0
LINE
  5
32AD
330
1E
100
AcDbEntity
  8
3
100
AcDbLine
 10
3.052204513361045
 20
7.282452767107086
 30
0.0
 11
3.064015536983092
 21
7.271954079443045
 31
0.0
  0
LINE
  5
32AE
330
1E
100
AcDbEntity
  8
3
100
AcDbLine
 10
3.064015536983092
 20
7.271954079443045
 30
0.0
 11
3.067952544857108
 21
7.256206047946982
 31
0.0
  0
LINE
  5
32AF
330
1E
100
AcDbEntity
  8
3
100
AcDbLine
 10
3.069264880815113
 20
7.256206047946982
 30
0.0
 11
3.065327872941098
 21
7.271954079443045
 31
0.0
  0
LINE
  5
32B0
330
1E
100
AcDbEntity
  8
3
100
AcDbLine
 10
3.065327872941098
 20
7.271954079443045
 30
0.0
 11
3.05351684931905
 21
7.283765103065091
 31
0.0
  0
LINE
  5
32B1
330
1E
100
AcDbEntity
  8
3
100
AcDbLine
 10
3.05351684931905
 20
7.283765103065091
 30
0.0
 11
3.037768817822987
 21
7.287702110939108
 31
0.0
  0
LINE
  5
32B2
330
1E
100
AcDbEntity
  8
3
100
AcDbLine
 10
3.067952544857108
 20
6.907124683117586
 30
0.0
 11
3.064015536983092
 21
6.891376651621523
 31
0.0
  0
LINE
  5
32B3
330
1E
100
AcDbEntity
  8
3
100
AcDbLine
 10
3.064015536983092
 20
6.891376651621523
 30
0.0
 11
3.052204513361045
 21
6.879565627999475
 31
0.0
  0
LINE
  5
32B4
330
1E
100
AcDbEntity
  8
3
100
AcDbLine
 10
3.052204513361045
 20
6.879565627999475
 30
0.0
 11
3.036456481864982
 21
6.87562862012546
 31
0.0
  0
LINE
  5
32B5
330
1E
100
AcDbEntity
  8
3
100
AcDbLine
 10
3.05351684931905
 20
6.879565627999475
 30
0.0
 11
3.065327872941098
 21
6.891376651621523
 31
0.0
  0
LINE
  5
32B6
330
1E
100
AcDbEntity
  8
3
100
AcDbLine
 10
3.065327872941098
 20
6.891376651621523
 30
0.0
 11
3.069264880815113
 21
6.907124683117586
 31
0.0
  0
LINE
  5
32B7
330
1E
100
AcDbEntity
  8
3
100
AcDbLine
 10
1.259553594725876
 20
6.876940956083465
 30
0.0
 11
1.256928922809866
 21
6.87562862012546
 31
0.0
  0
LINE
  5
32B8
330
1E
100
AcDbEntity
  8
3
100
AcDbLine
 10
1.256928922809866
 20
6.87562862012546
 30
0.0
 11
1.22805753173375
 21
6.87562862012546
 31
0.0
  0
LINE
  5
32B9
330
1E
100
AcDbEntity
  8
3
100
AcDbLine
 10
3.004960418872856
 20
7.286389774981101
 30
0.0
 11
3.007585090788866
 21
7.287702110939108
 31
0.0
  0
LINE
  5
32BA
330
1E
100
AcDbEntity
  8
3
100
AcDbLine
 10
3.007585090788866
 20
7.287702110939108
 30
0.0
 11
3.036456481864982
 21
7.287702110939108
 31
0.0
  0
LINE
  5
32BB
330
1E
100
AcDbEntity
  8
3
100
AcDbLine
 10
1.861915799450285
 20
7.208961953458793
 30
0.0
 11
1.829107400500154
 21
7.180090562382677
 31
0.0
  0
LINE
  5
32BC
330
1E
100
AcDbEntity
  8
3
100
AcDbLine
 10
1.829107400500154
 20
7.180090562382677
 30
0.0
 11
1.805485353256059
 21
7.144657491516535
 31
0.0
  0
LINE
  5
32BD
330
1E
100
AcDbEntity
  8
3
100
AcDbLine
 10
1.805485353256059
 20
7.144657491516535
 30
0.0
 11
1.793674329634012
 21
7.102662740860367
 31
0.0
  0
LINE
  5
32BE
330
1E
100
AcDbEntity
  8
3
100
AcDbLine
 10
1.793674329634012
 20
7.102662740860367
 30
0.0
 11
1.793674329634012
 21
7.060667990204199
 31
0.0
  0
LINE
  5
32BF
330
1E
100
AcDbEntity
  8
3
100
AcDbLine
 10
1.793674329634012
 20
7.060667990204199
 30
0.0
 11
1.805485353256059
 21
7.018673239548031
 31
0.0
  0
LINE
  5
32C0
330
1E
100
AcDbEntity
  8
3
100
AcDbLine
 10
1.805485353256059
 20
7.018673239548031
 30
0.0
 11
1.829107400500154
 21
6.98324016868189
 31
0.0
  0
LINE
  5
32C1
330
1E
100
AcDbEntity
  8
3
100
AcDbLine
 10
1.829107400500154
 20
6.98324016868189
 30
0.0
 11
1.861915799450285
 21
6.954368777605774
 31
0.0
  0
LINE
  5
32C2
330
1E
100
AcDbEntity
  8
3
100
AcDbLine
 10
1.861915799450285
 20
6.954368777605774
 30
0.0
 11
1.901285878190442
 21
6.937308410151706
 31
0.0
  0
LINE
  5
32C3
330
1E
100
AcDbEntity
  8
3
100
AcDbLine
 10
1.901285878190442
 20
6.937308410151706
 30
0.0
 11
1.94328062884661
 21
6.930746730361679
 31
0.0
  0
LINE
  5
32C4
330
1E
100
AcDbEntity
  8
3
100
AcDbLine
 10
1.94328062884661
 20
7.232584000702887
 30
0.0
 11
1.901285878190442
 21
7.226022320912861
 31
0.0
  0
LINE
  5
32C5
330
1E
100
AcDbEntity
  8
3
100
AcDbLine
 10
1.901285878190442
 20
7.226022320912861
 30
0.0
 11
1.861915799450285
 21
7.208961953458793
 31
0.0
  0
LINE
  5
32C6
330
1E
100
AcDbEntity
  8
3
100
AcDbLine
 10
2.178188765329549
 20
7.180090562382677
 30
0.0
 11
2.145380366379419
 21
7.208961953458793
 31
0.0
  0
LINE
  5
32C7
330
1E
100
AcDbEntity
  8
3
100
AcDbLine
 10
2.145380366379419
 20
7.208961953458793
 30
0.0
 11
2.106010287639261
 21
7.226022320912861
 31
0.0
  0
LINE
  5
32C8
330
1E
100
AcDbEntity
  8
3
100
AcDbLine
 10
2.106010287639261
 20
7.226022320912861
 30
0.0
 11
2.064015536983093
 21
7.232584000702887
 31
0.0
  0
LINE
  5
32C9
330
1E
100
AcDbEntity
  8
3
100
AcDbLine
 10
2.064015536983093
 20
6.930746730361679
 30
0.0
 11
2.106010287639261
 21
6.937308410151706
 31
0.0
  0
LINE
  5
32CA
330
1E
100
AcDbEntity
  8
3
100
AcDbLine
 10
2.106010287639261
 20
6.937308410151706
 30
0.0
 11
2.145380366379419
 21
6.954368777605774
 31
0.0
  0
LINE
  5
32CB
330
1E
100
AcDbEntity
  8
3
100
AcDbLine
 10
2.145380366379419
 20
6.954368777605774
 30
0.0
 11
2.178188765329549
 21
6.98324016868189
 31
0.0
  0
LINE
  5
32CC
330
1E
100
AcDbEntity
  8
3
100
AcDbLine
 10
2.178188765329549
 20
6.98324016868189
 30
0.0
 11
2.201810812573644
 21
7.018673239548031
 31
0.0
  0
LINE
  5
32CD
330
1E
100
AcDbEntity
  8
3
100
AcDbLine
 10
2.201810812573644
 20
7.018673239548031
 30
0.0
 11
2.213621836195691
 21
7.060667990204199
 31
0.0
  0
LINE
  5
32CE
330
1E
100
AcDbEntity
  8
3
100
AcDbLine
 10
2.213621836195691
 20
7.060667990204199
 30
0.0
 11
2.213621836195691
 21
7.102662740860367
 31
0.0
  0
LINE
  5
32CF
330
1E
100
AcDbEntity
  8
3
100
AcDbLine
 10
2.213621836195691
 20
7.102662740860367
 30
0.0
 11
2.201810812573644
 21
7.144657491516535
 31
0.0
  0
LINE
  5
32D0
330
1E
100
AcDbEntity
  8
3
100
AcDbLine
 10
2.201810812573644
 20
7.144657491516535
 30
0.0
 11
2.178188765329549
 21
7.180090562382677
 31
0.0
  0
LINE
  5
32D1
330
1E
100
AcDbEntity
  8
3
100
AcDbLine
 10
1.94328062884661
 20
7.231271664744882
 30
0.0
 11
1.901285878190442
 21
7.224709984954856
 31
0.0
  0
LINE
  5
32D2
330
1E
100
AcDbEntity
  8
3
100
AcDbLine
 10
1.901285878190442
 20
7.224709984954856
 30
0.0
 11
1.861915799450285
 21
7.207649617500786
 31
0.0
  0
LINE
  5
32D3
330
1E
100
AcDbEntity
  8
3
100
AcDbLine
 10
1.861915799450285
 20
7.207649617500786
 30
0.0
 11
1.830419736458159
 21
7.180090562382677
 31
0.0
  0
LINE
  5
32D4
330
1E
100
AcDbEntity
  8
3
100
AcDbLine
 10
1.830419736458159
 20
7.180090562382677
 30
0.0
 11
1.806797689214064
 21
7.14334515555853
 31
0.0
  0
LINE
  5
32D5
330
1E
100
AcDbEntity
  8
3
100
AcDbLine
 10
1.806797689214064
 20
7.14334515555853
 30
0.0
 11
1.794986665592017
 21
7.102662740860367
 31
0.0
  0
LINE
  5
32D6
330
1E
100
AcDbEntity
  8
3
100
AcDbLine
 10
1.794986665592017
 20
7.102662740860367
 30
0.0
 11
1.794986665592017
 21
7.060667990204199
 31
0.0
  0
LINE
  5
32D7
330
1E
100
AcDbEntity
  8
3
100
AcDbLine
 10
1.794986665592017
 20
7.060667990204199
 30
0.0
 11
1.806797689214064
 21
7.019985575506036
 31
0.0
  0
LINE
  5
32D8
330
1E
100
AcDbEntity
  8
3
100
AcDbLine
 10
1.806797689214064
 20
7.019985575506036
 30
0.0
 11
1.830419736458159
 21
6.98324016868189
 31
0.0
  0
LINE
  5
32D9
330
1E
100
AcDbEntity
  8
3
100
AcDbLine
 10
1.830419736458159
 20
6.98324016868189
 30
0.0
 11
1.861915799450285
 21
6.955681113563779
 31
0.0
  0
LINE
  5
32DA
330
1E
100
AcDbEntity
  8
3
100
AcDbLine
 10
1.861915799450285
 20
6.955681113563779
 30
0.0
 11
1.901285878190442
 21
6.938620746109712
 31
0.0
  0
LINE
  5
32DB
330
1E
100
AcDbEntity
  8
3
100
AcDbLine
 10
1.901285878190442
 20
6.938620746109712
 30
0.0
 11
1.94328062884661
 21
6.932059066319684
 31
0.0
  0
LINE
  5
32DC
330
1E
100
AcDbEntity
  8
3
100
AcDbLine
 10
2.106010287639261
 20
6.938620746109712
 30
0.0
 11
2.145380366379419
 21
6.955681113563779
 31
0.0
  0
LINE
  5
32DD
330
1E
100
AcDbEntity
  8
3
100
AcDbLine
 10
2.145380366379419
 20
6.955681113563779
 30
0.0
 11
2.176876429371545
 21
6.98324016868189
 31
0.0
  0
LINE
  5
32DE
330
1E
100
AcDbEntity
  8
3
100
AcDbLine
 10
2.176876429371545
 20
6.98324016868189
 30
0.0
 11
2.200498476615639
 21
7.019985575506036
 31
0.0
  0
LINE
  5
32DF
330
1E
100
AcDbEntity
  8
3
100
AcDbLine
 10
2.200498476615639
 20
7.019985575506036
 30
0.0
 11
2.212309500237686
 21
7.060667990204199
 31
0.0
  0
LINE
  5
32E0
330
1E
100
AcDbEntity
  8
3
100
AcDbLine
 10
2.212309500237686
 20
7.060667990204199
 30
0.0
 11
2.212309500237686
 21
7.102662740860367
 31
0.0
  0
LINE
  5
32E1
330
1E
100
AcDbEntity
  8
3
100
AcDbLine
 10
2.212309500237686
 20
7.102662740860367
 30
0.0
 11
2.200498476615639
 21
7.14334515555853
 31
0.0
  0
LINE
  5
32E2
330
1E
100
AcDbEntity
  8
3
100
AcDbLine
 10
2.200498476615639
 20
7.14334515555853
 30
0.0
 11
2.176876429371545
 21
7.180090562382677
 31
0.0
  0
LINE
  5
32E3
330
1E
100
AcDbEntity
  8
3
100
AcDbLine
 10
2.176876429371545
 20
7.180090562382677
 30
0.0
 11
2.145380366379419
 21
7.207649617500786
 31
0.0
  0
LINE
  5
32E4
330
1E
100
AcDbEntity
  8
3
100
AcDbLine
 10
2.145380366379419
 20
7.207649617500786
 30
0.0
 11
2.106010287639261
 21
7.224709984954856
 31
0.0
  0
LINE
  5
32E5
330
1E
100
AcDbEntity
  8
3
100
AcDbLine
 10
2.106010287639261
 20
7.224709984954856
 30
0.0
 11
2.064015536983093
 21
7.231271664744882
 31
0.0
  0
LINE
  5
32E6
330
1E
100
AcDbEntity
  8
3
100
AcDbLine
 10
1.868477479240311
 20
7.081665365532283
 30
0.0
 11
1.876351494988343
 21
7.048856966582152
 31
0.0
  0
LINE
  5
32E7
330
1E
100
AcDbEntity
  8
3
100
AcDbLine
 10
1.876351494988343
 20
7.048856966582152
 30
0.0
 11
1.897348870316427
 21
7.022610247422047
 31
0.0
  0
LINE
  5
32E8
330
1E
100
AcDbEntity
  8
3
100
AcDbLine
 10
1.897348870316427
 20
7.140720483642519
 30
0.0
 11
1.876351494988343
 21
7.114473764482414
 31
0.0
  0
LINE
  5
32E9
330
1E
100
AcDbEntity
  8
3
100
AcDbLine
 10
1.876351494988343
 20
7.114473764482414
 30
0.0
 11
1.868477479240311
 21
7.081665365532283
 31
0.0
  0
LINE
  5
32EA
330
1E
100
AcDbEntity
  8
3
100
AcDbLine
 10
1.914409237770494
 20
7.152531507264567
 30
0.0
 11
1.889474854568396
 21
7.135471139810498
 31
0.0
  0
LINE
  5
32EB
330
1E
100
AcDbEntity
  8
3
100
AcDbLine
 10
1.889474854568396
 20
7.135471139810498
 30
0.0
 11
1.872414487114327
 21
7.110536756608399
 31
0.0
  0
LINE
  5
32EC
330
1E
100
AcDbEntity
  8
3
100
AcDbLine
 10
1.872414487114327
 20
7.110536756608399
 30
0.0
 11
1.867165143282306
 21
7.081665365532283
 31
0.0
  0
LINE
  5
32ED
330
1E
100
AcDbEntity
  8
3
100
AcDbLine
 10
1.867165143282306
 20
7.081665365532283
 30
0.0
 11
1.872414487114327
 21
7.052793974456168
 31
0.0
  0
LINE
  5
32EE
330
1E
100
AcDbEntity
  8
3
100
AcDbLine
 10
1.872414487114327
 20
7.052793974456168
 30
0.0
 11
1.889474854568396
 21
7.027859591254069
 31
0.0
  0
LINE
  5
32EF
330
1E
100
AcDbEntity
  8
3
100
AcDbLine
 10
1.889474854568396
 20
7.027859591254069
 30
0.0
 11
1.914409237770494
 21
7.010799223800001
 31
0.0
  0
LINE
  5
32F0
330
1E
100
AcDbEntity
  8
3
100
AcDbLine
 10
1.914409237770494
 20
7.010799223800001
 30
0.0
 11
1.94328062884661
 21
7.005549879967979
 31
0.0
  0
LINE
  5
32F1
330
1E
100
AcDbEntity
  8
3
100
AcDbLine
 10
2.064015536983093
 20
7.005549879967979
 30
0.0
 11
2.092886928059209
 21
7.010799223800001
 31
0.0
  0
LINE
  5
32F2
330
1E
100
AcDbEntity
  8
3
100
AcDbLine
 10
2.092886928059209
 20
7.010799223800001
 30
0.0
 11
2.117821311261308
 21
7.027859591254069
 31
0.0
  0
LINE
  5
32F3
330
1E
100
AcDbEntity
  8
3
100
AcDbLine
 10
2.117821311261308
 20
7.027859591254069
 30
0.0
 11
2.134881678715376
 21
7.052793974456168
 31
0.0
  0
LINE
  5
32F4
330
1E
100
AcDbEntity
  8
3
100
AcDbLine
 10
2.134881678715376
 20
7.052793974456168
 30
0.0
 11
2.140131022547397
 21
7.081665365532283
 31
0.0
  0
LINE
  5
32F5
330
1E
100
AcDbEntity
  8
3
100
AcDbLine
 10
2.140131022547397
 20
7.081665365532283
 30
0.0
 11
2.134881678715376
 21
7.110536756608399
 31
0.0
  0
LINE
  5
32F6
330
1E
100
AcDbEntity
  8
3
100
AcDbLine
 10
2.134881678715376
 20
7.110536756608399
 30
0.0
 11
2.117821311261308
 21
7.135471139810498
 31
0.0
  0
LINE
  5
32F7
330
1E
100
AcDbEntity
  8
3
100
AcDbLine
 10
2.117821311261308
 20
7.135471139810498
 30
0.0
 11
2.092886928059209
 21
7.152531507264567
 31
0.0
  0
LINE
  5
32F8
330
1E
100
AcDbEntity
  8
3
100
AcDbLine
 10
2.092886928059209
 20
7.152531507264567
 30
0.0
 11
2.064015536983093
 21
7.157780851096587
 31
0.0
  0
LINE
  5
32F9
330
1E
100
AcDbEntity
  8
3
100
AcDbLine
 10
2.109947295513276
 20
7.022610247422047
 30
0.0
 11
2.130944670841361
 21
7.048856966582152
 31
0.0
  0
LINE
  5
32FA
330
1E
100
AcDbEntity
  8
3
100
AcDbLine
 10
2.130944670841361
 20
7.048856966582152
 30
0.0
 11
2.138818686589392
 21
7.081665365532283
 31
0.0
  0
LINE
  5
32FB
330
1E
100
AcDbEntity
  8
3
100
AcDbLine
 10
2.138818686589392
 20
7.081665365532283
 30
0.0
 11
2.130944670841361
 21
7.114473764482414
 31
0.0
  0
LINE
  5
32FC
330
1E
100
AcDbEntity
  8
3
100
AcDbLine
 10
2.130944670841361
 20
7.114473764482414
 30
0.0
 11
2.109947295513276
 21
7.140720483642519
 31
0.0
  0
LINE
  5
32FD
330
1E
100
AcDbEntity
  8
3
100
AcDbLine
 10
2.064015536983093
 20
7.005549879967979
 30
0.0
 11
2.082388240395167
 21
7.008174551883989
 31
0.0
  0
LINE
  5
32FE
330
1E
100
AcDbEntity
  8
3
100
AcDbLine
 10
2.082388240395167
 20
7.008174551883989
 30
0.0
 11
2.099448607849235
 21
7.014736231674016
 31
0.0
  0
LINE
  5
32FF
330
1E
100
AcDbEntity
  8
3
100
AcDbLine
 10
1.907847557980469
 20
7.014736231674016
 30
0.0
 11
1.924907925434537
 21
7.008174551883989
 31
0.0
  0
LINE
  5
3300
330
1E
100
AcDbEntity
  8
3
100
AcDbLine
 10
1.924907925434537
 20
7.008174551883989
 30
0.0
 11
1.94328062884661
 21
7.005549879967979
 31
0.0
  0
LINE
  5
3301
330
1E
100
AcDbEntity
  8
3
100
AcDbLine
 10
1.94328062884661
 20
7.157780851096587
 30
0.0
 11
1.924907925434537
 21
7.155156179180577
 31
0.0
  0
LINE
  5
3302
330
1E
100
AcDbEntity
  8
3
100
AcDbLine
 10
1.924907925434537
 20
7.155156179180577
 30
0.0
 11
1.907847557980469
 21
7.148594499390551
 31
0.0
  0
LINE
  5
3303
330
1E
100
AcDbEntity
  8
3
100
AcDbLine
 10
2.099448607849235
 20
7.148594499390551
 30
0.0
 11
2.082388240395167
 21
7.155156179180577
 31
0.0
  0
LINE
  5
3304
330
1E
100
AcDbEntity
  8
3
100
AcDbLine
 10
2.082388240395167
 20
7.155156179180577
 30
0.0
 11
2.064015536983093
 21
7.157780851096587
 31
0.0
  0
LINE
  5
3305
330
1E
100
AcDbEntity
  8
3
100
AcDbLine
 10
3.119133647219313
 20
3.418935706739635
 30
0.0
 11
3.150629710211439
 21
3.376940956083468
 31
0.0
  0
LINE
  5
3306
330
1E
100
AcDbEntity
  8
3
100
AcDbLine
 10
3.150629710211439
 20
3.376940956083468
 30
0.0
 11
3.18081343724556
 21
3.336258541385305
 31
0.0
  0
LINE
  5
3307
330
1E
100
AcDbEntity
  8
3
100
AcDbLine
 10
3.18081343724556
 20
3.336258541385305
 30
0.0
 11
3.20837249236367
 21
3.298200798603153
 31
0.0
  0
LINE
  5
3308
330
1E
100
AcDbEntity
  8
3
100
AcDbLine
 10
3.20837249236367
 20
3.298200798603153
 30
0.0
 11
3.233306875565769
 21
3.264080063695016
 31
0.0
  0
LINE
  5
3309
330
1E
100
AcDbEntity
  8
3
100
AcDbLine
 10
3.233306875565769
 20
3.264080063695016
 30
0.0
 11
3.252991914935849
 21
3.236521008576906
 31
0.0
  0
LINE
  5
330A
330
1E
100
AcDbEntity
  8
3
100
AcDbLine
 10
3.252991914935849
 20
3.236521008576906
 30
0.0
 11
3.268739946431912
 21
3.214211297290817
 31
0.0
  0
LINE
  5
330B
330
1E
100
AcDbEntity
  8
3
100
AcDbLine
 10
3.268739946431912
 20
3.214211297290817
 30
0.0
 11
3.279238634095953
 21
3.201087937710764
 31
0.0
  0
LINE
  5
330C
330
1E
100
AcDbEntity
  8
3
100
AcDbLine
 10
3.279238634095953
 20
3.201087937710764
 30
0.0
 11
3.284487977927974
 21
3.194526257920738
 31
0.0
  0
LINE
  5
330D
330
1E
100
AcDbEntity
  8
3
100
AcDbLine
 10
3.335669080290178
 20
3.224709984954858
 30
0.0
 11
3.313359369004089
 21
3.20240027366877
 31
0.0
  0
LINE
  5
330E
330
1E
100
AcDbEntity
  8
3
100
AcDbLine
 10
3.313359369004089
 20
3.20240027366877
 30
0.0
 11
3.284487977927974
 21
3.194526257920738
 31
0.0
  0
LINE
  5
330F
330
1E
100
AcDbEntity
  8
3
100
AcDbLine
 10
3.284487977927974
 20
3.194526257920738
 30
0.0
 11
3.287112649843984
 21
3.190589250046722
 31
0.0
  0
LINE
  5
3310
330
1E
100
AcDbEntity
  8
3
100
AcDbLine
 10
3.287112649843984
 20
3.190589250046722
 30
0.0
 11
3.310734697088079
 21
3.195838593878743
 31
0.0
  0
LINE
  5
3311
330
1E
100
AcDbEntity
  8
3
100
AcDbLine
 10
3.310734697088079
 20
3.195838593878743
 30
0.0
 11
3.329107400500152
 21
3.208961953458795
 31
0.0
  0
LINE
  5
3312
330
1E
100
AcDbEntity
  8
3
100
AcDbLine
 10
3.329107400500152
 20
3.208961953458795
 30
0.0
 11
3.342230760080205
 21
3.228646992828875
 31
0.0
  0
LINE
  5
3313
330
1E
100
AcDbEntity
  8
3
100
AcDbLine
 10
3.342230760080205
 20
3.228646992828875
 30
0.0
 11
3.347480103912226
 21
3.250956704114964
 31
0.0
  0
LINE
  5
3314
330
1E
100
AcDbEntity
  8
3
100
AcDbLine
 10
3.252991914935849
 20
7.645969827474539
 30
0.0
 11
3.233306875565769
 21
7.61841077235643
 31
0.0
  0
LINE
  5
3315
330
1E
100
AcDbEntity
  8
3
100
AcDbLine
 10
3.233306875565769
 20
7.61841077235643
 30
0.0
 11
3.20837249236367
 21
7.584290037448294
 31
0.0
  0
LINE
  5
3316
330
1E
100
AcDbEntity
  8
3
100
AcDbLine
 10
3.20837249236367
 20
7.584290037448294
 30
0.0
 11
3.18081343724556
 21
7.546232294666141
 31
0.0
  0
LINE
  5
3317
330
1E
100
AcDbEntity
  8
3
100
AcDbLine
 10
3.18081343724556
 20
7.546232294666141
 30
0.0
 11
3.150629710211439
 21
7.505549879967979
 31
0.0
  0
LINE
  5
3318
330
1E
100
AcDbEntity
  8
3
100
AcDbLine
 10
3.150629710211439
 20
7.505549879967979
 30
0.0
 11
3.119133647219313
 21
7.46355512931181
 31
0.0
  0
LINE
  5
3319
330
1E
100
AcDbEntity
  8
3
100
AcDbLine
 10
3.284487977927974
 20
7.687964578130708
 30
0.0
 11
3.279238634095953
 21
7.681402898340682
 31
0.0
  0
LINE
  5
331A
330
1E
100
AcDbEntity
  8
3
100
AcDbLine
 10
3.279238634095953
 20
7.681402898340682
 30
0.0
 11
3.268739946431912
 21
7.666967202802625
 31
0.0
  0
LINE
  5
331B
330
1E
100
AcDbEntity
  8
3
100
AcDbLine
 10
3.268739946431912
 20
7.666967202802625
 30
0.0
 11
3.252991914935849
 21
7.645969827474539
 31
0.0
  0
LINE
  5
331C
330
1E
100
AcDbEntity
  8
3
100
AcDbLine
 10
3.347480103912226
 20
7.631534131936483
 30
0.0
 11
3.342230760080205
 21
7.653843843222571
 31
0.0
  0
LINE
  5
331D
330
1E
100
AcDbEntity
  8
3
100
AcDbLine
 10
3.342230760080205
 20
7.653843843222571
 30
0.0
 11
3.329107400500152
 21
7.67352888259265
 31
0.0
  0
LINE
  5
331E
330
1E
100
AcDbEntity
  8
3
100
AcDbLine
 10
3.329107400500152
 20
7.67352888259265
 30
0.0
 11
3.310734697088079
 21
7.686652242172702
 31
0.0
  0
LINE
  5
331F
330
1E
100
AcDbEntity
  8
3
100
AcDbLine
 10
3.310734697088079
 20
7.686652242172702
 30
0.0
 11
3.287112649843984
 21
7.690589250046718
 31
0.0
  0
LINE
  5
3320
330
1E
100
AcDbEntity
  8
3
100
AcDbLine
 10
3.287112649843984
 20
7.690589250046718
 30
0.0
 11
3.284487977927974
 21
7.687964578130708
 31
0.0
  0
LINE
  5
3321
330
1E
100
AcDbEntity
  8
3
100
AcDbLine
 10
3.284487977927974
 20
7.687964578130708
 30
0.0
 11
3.313359369004089
 21
7.680090562382677
 31
0.0
  0
LINE
  5
3322
330
1E
100
AcDbEntity
  8
3
100
AcDbLine
 10
3.313359369004089
 20
7.680090562382677
 30
0.0
 11
3.335669080290178
 21
7.657780851096587
 31
0.0
  0
LINE
  5
3323
330
1E
100
AcDbEntity
  8
3
100
AcDbLine
 10
3.335669080290178
 20
7.657780851096587
 30
0.0
 11
3.34354309603821
 21
7.627597124062466
 31
0.0
  0
LINE
  5
3324
330
1E
100
AcDbEntity
  8
3
100
AcDbLine
 10
3.119133647219313
 20
7.46355512931181
 30
0.0
 11
3.161128397875481
 21
7.493738856345931
 31
0.0
  0
LINE
  5
3325
330
1E
100
AcDbEntity
  8
3
100
AcDbLine
 10
3.161128397875481
 20
7.493738856345931
 30
0.0
 11
3.203123148531648
 21
7.523922583380052
 31
0.0
  0
LINE
  5
3326
330
1E
100
AcDbEntity
  8
3
100
AcDbLine
 10
3.203123148531648
 20
7.523922583380052
 30
0.0
 11
3.2411808913138
 21
7.551481638498161
 31
0.0
  0
LINE
  5
3327
330
1E
100
AcDbEntity
  8
3
100
AcDbLine
 10
3.2411808913138
 20
7.551481638498161
 30
0.0
 11
3.273989290263933
 21
7.576416021700262
 31
0.0
  0
LINE
  5
3328
330
1E
100
AcDbEntity
  8
3
100
AcDbLine
 10
3.273989290263933
 20
7.576416021700262
 30
0.0
 11
3.301548345382042
 21
7.597413397028345
 31
0.0
  0
LINE
  5
3329
330
1E
100
AcDbEntity
  8
3
100
AcDbLine
 10
3.301548345382042
 20
7.597413397028345
 30
0.0
 11
3.323858056668131
 21
7.613161428524408
 31
0.0
  0
LINE
  5
332A
330
1E
100
AcDbEntity
  8
3
100
AcDbLine
 10
3.323858056668131
 20
7.613161428524408
 30
0.0
 11
3.338293752206189
 21
7.62366011618845
 31
0.0
  0
LINE
  5
332B
330
1E
100
AcDbEntity
  8
3
100
AcDbLine
 10
3.323858056668131
 20
3.269329407527037
 30
0.0
 11
3.301548345382042
 21
3.2850774390231
 31
0.0
  0
LINE
  5
332C
330
1E
100
AcDbEntity
  8
3
100
AcDbLine
 10
3.301548345382042
 20
3.2850774390231
 30
0.0
 11
3.273989290263933
 21
3.306074814351184
 31
0.0
  0
LINE
  5
332D
330
1E
100
AcDbEntity
  8
3
100
AcDbLine
 10
3.273989290263933
 20
3.306074814351184
 30
0.0
 11
3.2411808913138
 21
3.329696861595279
 31
0.0
  0
LINE
  5
332E
330
1E
100
AcDbEntity
  8
3
100
AcDbLine
 10
3.2411808913138
 20
3.329696861595279
 30
0.0
 11
3.203123148531648
 21
3.357255916713389
 31
0.0
  0
LINE
  5
332F
330
1E
100
AcDbEntity
  8
3
100
AcDbLine
 10
3.203123148531648
 20
3.357255916713389
 30
0.0
 11
3.161128397875481
 21
3.38743964374751
 31
0.0
  0
LINE
  5
3330
330
1E
100
AcDbEntity
  8
3
100
AcDbLine
 10
3.161128397875481
 20
3.38743964374751
 30
0.0
 11
3.119133647219313
 21
3.418935706739635
 31
0.0
  0
LINE
  5
3331
330
1E
100
AcDbEntity
  8
3
100
AcDbLine
 10
3.34354309603821
 20
3.254893711988979
 30
0.0
 11
3.338293752206189
 21
3.258830719862995
 31
0.0
  0
LINE
  5
3332
330
1E
100
AcDbEntity
  8
3
100
AcDbLine
 10
3.338293752206189
 20
3.258830719862995
 30
0.0
 11
3.323858056668131
 21
3.269329407527037
 31
0.0
  0
LINE
  5
3333
330
1E
100
AcDbEntity
  8
3
100
AcDbLine
 10
2.064015536983093
 20
3.724709984954859
 30
0.0
 11
2.082388240395167
 21
3.727334656870869
 31
0.0
  0
LINE
  5
3334
330
1E
100
AcDbEntity
  8
3
100
AcDbLine
 10
2.082388240395167
 20
3.727334656870869
 30
0.0
 11
2.099448607849235
 21
3.733896336660895
 31
0.0
  0
LINE
  5
3335
330
1E
100
AcDbEntity
  8
3
100
AcDbLine
 10
2.099448607849235
 20
3.86775460437743
 30
0.0
 11
2.082388240395167
 21
3.874316284167456
 31
0.0
  0
LINE
  5
3336
330
1E
100
AcDbEntity
  8
3
100
AcDbLine
 10
2.082388240395167
 20
3.874316284167456
 30
0.0
 11
2.064015536983093
 21
3.876940956083467
 31
0.0
  0
LINE
  5
3337
330
1E
100
AcDbEntity
  8
3
100
AcDbLine
 10
1.907847557980469
 20
3.733896336660895
 30
0.0
 11
1.924907925434537
 21
3.727334656870869
 31
0.0
  0
LINE
  5
3338
330
1E
100
AcDbEntity
  8
3
100
AcDbLine
 10
1.924907925434537
 20
3.727334656870869
 30
0.0
 11
1.94328062884661
 21
3.724709984954859
 31
0.0
  0
LINE
  5
3339
330
1E
100
AcDbEntity
  8
3
100
AcDbLine
 10
1.94328062884661
 20
3.876940956083467
 30
0.0
 11
1.924907925434537
 21
3.874316284167456
 31
0.0
  0
LINE
  5
333A
330
1E
100
AcDbEntity
  8
3
100
AcDbLine
 10
1.924907925434537
 20
3.874316284167456
 30
0.0
 11
1.907847557980469
 21
3.86775460437743
 31
0.0
  0
LINE
  5
333B
330
1E
100
AcDbEntity
  8
3
100
AcDbLine
 10
1.872414487114327
 20
3.829696861595278
 30
0.0
 11
1.867165143282306
 21
3.800825470519162
 31
0.0
  0
LINE
  5
333C
330
1E
100
AcDbEntity
  8
3
100
AcDbLine
 10
1.867165143282306
 20
3.800825470519162
 30
0.0
 11
1.872414487114327
 21
3.771954079443048
 31
0.0
  0
LINE
  5
333D
330
1E
100
AcDbEntity
  8
3
100
AcDbLine
 10
1.872414487114327
 20
3.771954079443048
 30
0.0
 11
1.889474854568396
 21
3.747019696240948
 31
0.0
  0
LINE
  5
333E
330
1E
100
AcDbEntity
  8
3
100
AcDbLine
 10
1.889474854568396
 20
3.747019696240948
 30
0.0
 11
1.914409237770494
 21
3.72995932878688
 31
0.0
  0
LINE
  5
333F
330
1E
100
AcDbEntity
  8
3
100
AcDbLine
 10
1.914409237770494
 20
3.72995932878688
 30
0.0
 11
1.94328062884661
 21
3.724709984954859
 31
0.0
  0
LINE
  5
3340
330
1E
100
AcDbEntity
  8
3
100
AcDbLine
 10
1.94328062884661
 20
3.876940956083467
 30
0.0
 11
1.914409237770494
 21
3.871691612251447
 31
0.0
  0
LINE
  5
3341
330
1E
100
AcDbEntity
  8
3
100
AcDbLine
 10
1.914409237770494
 20
3.871691612251447
 30
0.0
 11
1.889474854568396
 21
3.854631244797379
 31
0.0
  0
LINE
  5
3342
330
1E
100
AcDbEntity
  8
3
100
AcDbLine
 10
1.889474854568396
 20
3.854631244797379
 30
0.0
 11
1.872414487114327
 21
3.829696861595278
 31
0.0
  0
LINE
  5
3343
330
1E
100
AcDbEntity
  8
3
100
AcDbLine
 10
2.134881678715376
 20
3.771954079443048
 30
0.0
 11
2.140131022547397
 21
3.800825470519162
 31
0.0
  0
LINE
  5
3344
330
1E
100
AcDbEntity
  8
3
100
AcDbLine
 10
2.140131022547397
 20
3.800825470519162
 30
0.0
 11
2.134881678715376
 21
3.829696861595278
 31
0.0
  0
LINE
  5
3345
330
1E
100
AcDbEntity
  8
3
100
AcDbLine
 10
2.134881678715376
 20
3.829696861595278
 30
0.0
 11
2.117821311261308
 21
3.854631244797379
 31
0.0
  0
LINE
  5
3346
330
1E
100
AcDbEntity
  8
3
100
AcDbLine
 10
2.117821311261308
 20
3.854631244797379
 30
0.0
 11
2.092886928059209
 21
3.871691612251447
 31
0.0
  0
LINE
  5
3347
330
1E
100
AcDbEntity
  8
3
100
AcDbLine
 10
2.092886928059209
 20
3.871691612251447
 30
0.0
 11
2.064015536983093
 21
3.876940956083467
 31
0.0
  0
LINE
  5
3348
330
1E
100
AcDbEntity
  8
3
100
AcDbLine
 10
2.064015536983093
 20
3.724709984954859
 30
0.0
 11
2.092886928059209
 21
3.72995932878688
 31
0.0
  0
LINE
  5
3349
330
1E
100
AcDbEntity
  8
3
100
AcDbLine
 10
2.092886928059209
 20
3.72995932878688
 30
0.0
 11
2.117821311261308
 21
3.747019696240948
 31
0.0
  0
LINE
  5
334A
330
1E
100
AcDbEntity
  8
3
100
AcDbLine
 10
2.117821311261308
 20
3.747019696240948
 30
0.0
 11
2.134881678715376
 21
3.771954079443048
 31
0.0
  0
LINE
  5
334B
330
1E
100
AcDbEntity
  8
3
100
AcDbLine
 10
2.212309500237686
 20
3.779828095191079
 30
0.0
 11
2.212309500237686
 21
3.821822845847247
 31
0.0
  0
LINE
  5
334C
330
1E
100
AcDbEntity
  8
3
100
AcDbLine
 10
2.212309500237686
 20
3.821822845847247
 30
0.0
 11
2.200498476615639
 21
3.862505260545409
 31
0.0
  0
LINE
  5
334D
330
1E
100
AcDbEntity
  8
3
100
AcDbLine
 10
2.200498476615639
 20
3.862505260545409
 30
0.0
 11
2.176876429371545
 21
3.899250667369556
 31
0.0
  0
LINE
  5
334E
330
1E
100
AcDbEntity
  8
3
100
AcDbLine
 10
2.176876429371545
 20
3.899250667369556
 30
0.0
 11
2.145380366379419
 21
3.926809722487666
 31
0.0
  0
LINE
  5
334F
330
1E
100
AcDbEntity
  8
3
100
AcDbLine
 10
2.145380366379419
 20
3.926809722487666
 30
0.0
 11
2.106010287639261
 21
3.943870089941735
 31
0.0
  0
LINE
  5
3350
330
1E
100
AcDbEntity
  8
3
100
AcDbLine
 10
2.106010287639261
 20
3.943870089941735
 30
0.0
 11
2.064015536983093
 21
3.950431769731761
 31
0.0
  0
LINE
  5
3351
330
1E
100
AcDbEntity
  8
3
100
AcDbLine
 10
2.064015536983093
 20
3.651219171306565
 30
0.0
 11
2.106010287639261
 21
3.657780851096591
 31
0.0
  0
LINE
  5
3352
330
1E
100
AcDbEntity
  8
3
100
AcDbLine
 10
2.106010287639261
 20
3.657780851096591
 30
0.0
 11
2.145380366379419
 21
3.674841218550659
 31
0.0
  0
LINE
  5
3353
330
1E
100
AcDbEntity
  8
3
100
AcDbLine
 10
2.145380366379419
 20
3.674841218550659
 30
0.0
 11
2.176876429371545
 21
3.702400273668769
 31
0.0
  0
LINE
  5
3354
330
1E
100
AcDbEntity
  8
3
100
AcDbLine
 10
2.176876429371545
 20
3.702400273668769
 30
0.0
 11
2.200498476615639
 21
3.739145680492915
 31
0.0
  0
LINE
  5
3355
330
1E
100
AcDbEntity
  8
3
100
AcDbLine
 10
2.200498476615639
 20
3.739145680492915
 30
0.0
 11
2.212309500237686
 21
3.779828095191079
 31
0.0
  0
LINE
  5
3356
330
1E
100
AcDbEntity
  8
3
100
AcDbLine
 10
1.806797689214064
 20
3.862505260545409
 30
0.0
 11
1.794986665592017
 21
3.821822845847247
 31
0.0
  0
LINE
  5
3357
330
1E
100
AcDbEntity
  8
3
100
AcDbLine
 10
1.794986665592017
 20
3.821822845847247
 30
0.0
 11
1.794986665592017
 21
3.779828095191079
 31
0.0
  0
LINE
  5
3358
330
1E
100
AcDbEntity
  8
3
100
AcDbLine
 10
1.794986665592017
 20
3.779828095191079
 30
0.0
 11
1.806797689214064
 21
3.739145680492915
 31
0.0
  0
LINE
  5
3359
330
1E
100
AcDbEntity
  8
3
100
AcDbLine
 10
1.806797689214064
 20
3.739145680492915
 30
0.0
 11
1.830419736458159
 21
3.702400273668769
 31
0.0
  0
LINE
  5
335A
330
1E
100
AcDbEntity
  8
3
100
AcDbLine
 10
1.830419736458159
 20
3.702400273668769
 30
0.0
 11
1.861915799450285
 21
3.674841218550659
 31
0.0
  0
LINE
  5
335B
330
1E
100
AcDbEntity
  8
3
100
AcDbLine
 10
1.861915799450285
 20
3.674841218550659
 30
0.0
 11
1.901285878190442
 21
3.657780851096591
 31
0.0
  0
LINE
  5
335C
330
1E
100
AcDbEntity
  8
3
100
AcDbLine
 10
1.901285878190442
 20
3.657780851096591
 30
0.0
 11
1.94328062884661
 21
3.651219171306565
 31
0.0
  0
LINE
  5
335D
330
1E
100
AcDbEntity
  8
3
100
AcDbLine
 10
1.94328062884661
 20
3.950431769731761
 30
0.0
 11
1.901285878190442
 21
3.943870089941735
 31
0.0
  0
LINE
  5
335E
330
1E
100
AcDbEntity
  8
3
100
AcDbLine
 10
1.901285878190442
 20
3.943870089941735
 30
0.0
 11
1.861915799450285
 21
3.926809722487666
 31
0.0
  0
LINE
  5
335F
330
1E
100
AcDbEntity
  8
3
100
AcDbLine
 10
1.861915799450285
 20
3.926809722487666
 30
0.0
 11
1.830419736458159
 21
3.899250667369556
 31
0.0
  0
LINE
  5
3360
330
1E
100
AcDbEntity
  8
3
100
AcDbLine
 10
1.830419736458159
 20
3.899250667369556
 30
0.0
 11
1.806797689214064
 21
3.862505260545409
 31
0.0
  0
LINE
  5
3361
330
1E
100
AcDbEntity
  8
3
100
AcDbLine
 10
2.064015536983093
 20
3.648594499390554
 30
0.0
 11
2.064015536983093
 21
3.651219171306565
 31
0.0
  0
LINE
  5
3362
330
1E
100
AcDbEntity
  8
3
100
AcDbLine
 10
2.064015536983093
 20
3.651219171306565
 30
0.0
 11
1.94328062884661
 21
3.651219171306565
 31
0.0
  0
LINE
  5
3363
330
1E
100
AcDbEntity
  8
3
100
AcDbLine
 10
1.94328062884661
 20
3.951744105689766
 30
0.0
 11
1.94328062884661
 21
3.950431769731761
 31
0.0
  0
LINE
  5
3364
330
1E
100
AcDbEntity
  8
3
100
AcDbLine
 10
1.94328062884661
 20
3.950431769731761
 30
0.0
 11
2.064015536983093
 21
3.950431769731761
 31
0.0
  0
LINE
  5
3365
330
1E
100
AcDbEntity
  8
3
100
AcDbLine
 10
3.037768817822987
 20
4.006862215925987
 30
0.0
 11
3.05351684931905
 21
4.002925208051971
 31
0.0
  0
LINE
  5
3366
330
1E
100
AcDbEntity
  8
3
100
AcDbLine
 10
3.05351684931905
 20
4.002925208051971
 30
0.0
 11
3.065327872941098
 21
3.991114184429924
 31
0.0
  0
LINE
  5
3367
330
1E
100
AcDbEntity
  8
3
100
AcDbLine
 10
3.065327872941098
 20
3.991114184429924
 30
0.0
 11
3.069264880815113
 21
3.975366152933861
 31
0.0
  0
LINE
  5
3368
330
1E
100
AcDbEntity
  8
3
100
AcDbLine
 10
3.069264880815113
 20
3.626284788104465
 30
0.0
 11
3.065327872941098
 21
3.610536756608402
 31
0.0
  0
LINE
  5
3369
330
1E
100
AcDbEntity
  8
3
100
AcDbLine
 10
3.065327872941098
 20
3.610536756608402
 30
0.0
 11
3.05351684931905
 21
3.598725732986354
 31
0.0
  0
LINE
  5
336A
330
1E
100
AcDbEntity
  8
3
100
AcDbLine
 10
3.05351684931905
 20
3.598725732986354
 30
0.0
 11
3.037768817822987
 21
3.594788725112339
 31
0.0
  0
LINE
  5
336B
330
1E
100
AcDbEntity
  8
3
100
AcDbLine
 10
1.22543285981774
 20
3.594788725112339
 30
0.0
 11
1.209684828321677
 21
3.598725732986354
 31
0.0
  0
LINE
  5
336C
330
1E
100
AcDbEntity
  8
3
100
AcDbLine
 10
1.209684828321677
 20
3.598725732986354
 30
0.0
 11
1.199186140657634
 21
3.610536756608402
 31
0.0
  0
LINE
  5
336D
330
1E
100
AcDbEntity
  8
3
100
AcDbLine
 10
1.199186140657634
 20
3.610536756608402
 30
0.0
 11
1.195249132783619
 21
3.626284788104465
 31
0.0
  0
LINE
  5
336E
330
1E
100
AcDbEntity
  8
3
100
AcDbLine
 10
1.195249132783619
 20
3.975366152933861
 30
0.0
 11
1.199186140657634
 21
3.991114184429924
 31
0.0
  0
LINE
  5
336F
330
1E
100
AcDbEntity
  8
3
100
AcDbLine
 10
1.199186140657634
 20
3.991114184429924
 30
0.0
 11
1.209684828321677
 21
4.002925208051971
 31
0.0
  0
LINE
  5
3370
330
1E
100
AcDbEntity
  8
3
100
AcDbLine
 10
1.209684828321677
 20
4.002925208051971
 30
0.0
 11
1.22543285981774
 21
4.006862215925987
 31
0.0
  0
LINE
  5
3371
330
1E
100
AcDbEntity
  8
3
100
AcDbLine
 10
1.200498476615639
 20
3.991114184429924
 30
0.0
 11
1.196561468741624
 21
3.975366152933861
 31
0.0
  0
LINE
  5
3372
330
1E
100
AcDbEntity
  8
3
100
AcDbLine
 10
1.196561468741624
 20
3.975366152933861
 30
0.0
 11
1.196561468741624
 21
3.626284788104465
 31
0.0
  0
LINE
  5
3373
330
1E
100
AcDbEntity
  8
3
100
AcDbLine
 10
1.196561468741624
 20
3.626284788104465
 30
0.0
 11
1.200498476615639
 21
3.610536756608402
 31
0.0
  0
LINE
  5
3374
330
1E
100
AcDbEntity
  8
3
100
AcDbLine
 10
1.200498476615639
 20
3.610536756608402
 30
0.0
 11
1.212309500237687
 21
3.598725732986354
 31
0.0
  0
LINE
  5
3375
330
1E
100
AcDbEntity
  8
3
100
AcDbLine
 10
1.212309500237687
 20
3.598725732986354
 30
0.0
 11
1.22805753173375
 21
3.594788725112339
 31
0.0
  0
LINE
  5
3376
330
1E
100
AcDbEntity
  8
3
100
AcDbLine
 10
1.22805753173375
 20
3.594788725112339
 30
0.0
 11
1.256928922809866
 21
3.594788725112339
 31
0.0
  0
LINE
  5
3377
330
1E
100
AcDbEntity
  8
3
100
AcDbLine
 10
1.256928922809866
 20
4.005549879967982
 30
0.0
 11
1.22805753173375
 21
4.005549879967982
 31
0.0
  0
LINE
  5
3378
330
1E
100
AcDbEntity
  8
3
100
AcDbLine
 10
1.22805753173375
 20
4.005549879967982
 30
0.0
 11
1.212309500237687
 21
4.001612872093966
 31
0.0
  0
LINE
  5
3379
330
1E
100
AcDbEntity
  8
3
100
AcDbLine
 10
1.212309500237687
 20
4.001612872093966
 30
0.0
 11
1.200498476615639
 21
3.991114184429924
 31
0.0
  0
LINE
  5
337A
330
1E
100
AcDbEntity
  8
3
100
AcDbLine
 10
1.94328062884661
 20
3.951744105689766
 30
0.0
 11
1.901285878190442
 21
3.94518242589974
 31
0.0
  0
LINE
  5
337B
330
1E
100
AcDbEntity
  8
3
100
AcDbLine
 10
1.901285878190442
 20
3.94518242589974
 30
0.0
 11
1.861915799450285
 21
3.928122058445672
 31
0.0
  0
LINE
  5
337C
330
1E
100
AcDbEntity
  8
3
100
AcDbLine
 10
1.861915799450285
 20
3.928122058445672
 30
0.0
 11
1.829107400500154
 21
3.899250667369556
 31
0.0
  0
LINE
  5
337D
330
1E
100
AcDbEntity
  8
3
100
AcDbLine
 10
1.829107400500154
 20
3.899250667369556
 30
0.0
 11
1.805485353256059
 21
3.863817596503414
 31
0.0
  0
LINE
  5
337E
330
1E
100
AcDbEntity
  8
3
100
AcDbLine
 10
1.805485353256059
 20
3.863817596503414
 30
0.0
 11
1.793674329634012
 21
3.821822845847247
 31
0.0
  0
LINE
  5
337F
330
1E
100
AcDbEntity
  8
3
100
AcDbLine
 10
1.793674329634012
 20
3.821822845847247
 30
0.0
 11
1.793674329634012
 21
3.779828095191079
 31
0.0
  0
LINE
  5
3380
330
1E
100
AcDbEntity
  8
3
100
AcDbLine
 10
1.793674329634012
 20
3.779828095191079
 30
0.0
 11
1.805485353256059
 21
3.737833344534911
 31
0.0
  0
LINE
  5
3381
330
1E
100
AcDbEntity
  8
3
100
AcDbLine
 10
1.805485353256059
 20
3.737833344534911
 30
0.0
 11
1.829107400500154
 21
3.702400273668769
 31
0.0
  0
LINE
  5
3382
330
1E
100
AcDbEntity
  8
3
100
AcDbLine
 10
1.829107400500154
 20
3.702400273668769
 30
0.0
 11
1.861915799450285
 21
3.673528882592654
 31
0.0
  0
LINE
  5
3383
330
1E
100
AcDbEntity
  8
3
100
AcDbLine
 10
1.861915799450285
 20
3.673528882592654
 30
0.0
 11
1.901285878190442
 21
3.656468515138586
 31
0.0
  0
LINE
  5
3384
330
1E
100
AcDbEntity
  8
3
100
AcDbLine
 10
2.064015536983093
 20
3.649906835348559
 30
0.0
 11
2.106010287639261
 21
3.656468515138586
 31
0.0
  0
LINE
  5
3385
330
1E
100
AcDbEntity
  8
3
100
AcDbLine
 10
2.106010287639261
 20
3.656468515138586
 30
0.0
 11
2.145380366379419
 21
3.673528882592654
 31
0.0
  0
LINE
  5
3386
330
1E
100
AcDbEntity
  8
3
100
AcDbLine
 10
2.145380366379419
 20
3.673528882592654
 30
0.0
 11
2.178188765329549
 21
3.702400273668769
 31
0.0
  0
LINE
  5
3387
330
1E
100
AcDbEntity
  8
3
100
AcDbLine
 10
2.178188765329549
 20
3.702400273668769
 30
0.0
 11
2.201810812573644
 21
3.737833344534911
 31
0.0
  0
LINE
  5
3388
330
1E
100
AcDbEntity
  8
3
100
AcDbLine
 10
2.201810812573644
 20
3.737833344534911
 30
0.0
 11
2.213621836195691
 21
3.779828095191079
 31
0.0
  0
LINE
  5
3389
330
1E
100
AcDbEntity
  8
3
100
AcDbLine
 10
2.213621836195691
 20
3.779828095191079
 30
0.0
 11
2.213621836195691
 21
3.821822845847247
 31
0.0
  0
LINE
  5
338A
330
1E
100
AcDbEntity
  8
3
100
AcDbLine
 10
2.213621836195691
 20
3.821822845847247
 30
0.0
 11
2.201810812573644
 21
3.863817596503414
 31
0.0
  0
LINE
  5
338B
330
1E
100
AcDbEntity
  8
3
100
AcDbLine
 10
2.201810812573644
 20
3.863817596503414
 30
0.0
 11
2.178188765329549
 21
3.899250667369556
 31
0.0
  0
LINE
  5
338C
330
1E
100
AcDbEntity
  8
3
100
AcDbLine
 10
2.178188765329549
 20
3.899250667369556
 30
0.0
 11
2.145380366379419
 21
3.928122058445672
 31
0.0
  0
LINE
  5
338D
330
1E
100
AcDbEntity
  8
3
100
AcDbLine
 10
2.145380366379419
 20
3.928122058445672
 30
0.0
 11
2.106010287639261
 21
3.94518242589974
 31
0.0
  0
LINE
  5
338E
330
1E
100
AcDbEntity
  8
3
100
AcDbLine
 10
2.106010287639261
 20
3.94518242589974
 30
0.0
 11
2.064015536983093
 21
3.951744105689766
 31
0.0
  0
LINE
  5
338F
330
1E
100
AcDbEntity
  8
3
100
AcDbLine
 10
2.109947295513276
 20
3.741770352408927
 30
0.0
 11
2.130944670841361
 21
3.768017071569031
 31
0.0
  0
LINE
  5
3390
330
1E
100
AcDbEntity
  8
3
100
AcDbLine
 10
2.130944670841361
 20
3.768017071569031
 30
0.0
 11
2.138818686589392
 21
3.800825470519162
 31
0.0
  0
LINE
  5
3391
330
1E
100
AcDbEntity
  8
3
100
AcDbLine
 10
2.138818686589392
 20
3.800825470519162
 30
0.0
 11
2.130944670841361
 21
3.833633869469295
 31
0.0
  0
LINE
  5
3392
330
1E
100
AcDbEntity
  8
3
100
AcDbLine
 10
2.130944670841361
 20
3.833633869469295
 30
0.0
 11
2.109947295513276
 21
3.859880588629399
 31
0.0
  0
LINE
  5
3393
330
1E
100
AcDbEntity
  8
3
100
AcDbLine
 10
1.868477479240311
 20
3.800825470519162
 30
0.0
 11
1.876351494988343
 21
3.768017071569031
 31
0.0
  0
LINE
  5
3394
330
1E
100
AcDbEntity
  8
3
100
AcDbLine
 10
1.876351494988343
 20
3.768017071569031
 30
0.0
 11
1.897348870316427
 21
3.741770352408927
 31
0.0
  0
LINE
  5
3395
330
1E
100
AcDbEntity
  8
3
100
AcDbLine
 10
1.897348870316427
 20
3.859880588629399
 30
0.0
 11
1.876351494988343
 21
3.833633869469295
 31
0.0
  0
LINE
  5
3396
330
1E
100
AcDbEntity
  8
3
100
AcDbLine
 10
1.876351494988343
 20
3.833633869469295
 30
0.0
 11
1.868477479240311
 21
3.800825470519162
 31
0.0
  0
LINE
  5
3397
330
1E
100
AcDbEntity
  8
3
100
AcDbLine
 10
3.007585090788866
 20
3.594788725112339
 30
0.0
 11
3.036456481864982
 21
3.594788725112339
 31
0.0
  0
LINE
  5
3398
330
1E
100
AcDbEntity
  8
3
100
AcDbLine
 10
3.036456481864982
 20
3.594788725112339
 30
0.0
 11
3.052204513361045
 21
3.598725732986354
 31
0.0
  0
LINE
  5
3399
330
1E
100
AcDbEntity
  8
3
100
AcDbLine
 10
3.052204513361045
 20
3.598725732986354
 30
0.0
 11
3.064015536983092
 21
3.610536756608402
 31
0.0
  0
LINE
  5
339A
330
1E
100
AcDbEntity
  8
3
100
AcDbLine
 10
3.064015536983092
 20
3.610536756608402
 30
0.0
 11
3.067952544857108
 21
3.626284788104465
 31
0.0
  0
LINE
  5
339B
330
1E
100
AcDbEntity
  8
3
100
AcDbLine
 10
3.067952544857108
 20
3.626284788104465
 30
0.0
 11
3.067952544857108
 21
3.975366152933861
 31
0.0
  0
LINE
  5
339C
330
1E
100
AcDbEntity
  8
3
100
AcDbLine
 10
3.067952544857108
 20
3.975366152933861
 30
0.0
 11
3.064015536983092
 21
3.991114184429924
 31
0.0
  0
LINE
  5
339D
330
1E
100
AcDbEntity
  8
3
100
AcDbLine
 10
3.064015536983092
 20
3.991114184429924
 30
0.0
 11
3.052204513361045
 21
4.001612872093966
 31
0.0
  0
LINE
  5
339E
330
1E
100
AcDbEntity
  8
3
100
AcDbLine
 10
3.052204513361045
 20
4.001612872093966
 30
0.0
 11
3.036456481864982
 21
4.005549879967982
 31
0.0
  0
LINE
  5
339F
330
1E
100
AcDbEntity
  8
3
100
AcDbLine
 10
3.036456481864982
 20
4.005549879967982
 30
0.0
 11
3.007585090788866
 21
4.005549879967982
 31
0.0
  0
ENDSEC
  0
SECTION
  2
OBJECTS
  0
DICTIONARY
  5
C
330
0
100
AcDbDictionary
  3
ACAD_GROUP
350
D
  3
ACAD_LAYOUT
350
19
  3
ACAD_MLINESTYLE
350
16
  3
ACAD_PLOTSETTINGS
350
18
1001
ACAD
1000
TREAT_AS_HARD
1070
     0
  0
DICTIONARY
  5
4685
330
1E
100
AcDbDictionary
  3
ACAD_LAYOUTSELFREF
350
46BF
1001
ACAD
1000
TREAT_AS_HARD
1070
     1
  0
DICTIONARY
  5
4687
330
1A
100
AcDbDictionary
  3
ACAD_LAYOUTSELFREF
350
46BE
1001
ACAD
1000
TREAT_AS_HARD
1070
     1
  0
DICTIONARY
  5
D
102
{ACAD_REACTORS
330
C
102
}
330
C
100
AcDbDictionary
1001
ACAD
1000
TREAT_AS_HARD
1070
     0
  0
DICTIONARY
  5
19
102
{ACAD_REACTORS
330
C
102
}
330
C
100
AcDbDictionary
1001
ACAD
1000
TREAT_AS_HARD
1070
     0
  0
DICTIONARY
  5
16
102
{ACAD_REACTORS
330
C
102
}
330
C
100
AcDbDictionary
  3
STANDARD
350
17
1001
ACAD
1000
TREAT_AS_HARD
1070
     0
  0
DICTIONARY
  5
18
102
{ACAD_REACTORS
330
C
102
}
330
C
100
AcDbDictionary
1001
ACAD
1000
TREAT_AS_HARD
1070
     0
  0
XRECORD
  5
46BF
102
{ACAD_REACTORS
330
4685
102
}
330
4685
100
AcDbXrecord
340
1E
  0
XRECORD
  5
46BE
102
{ACAD_REACTORS
330
4687
102
}
330
4687
100
AcDbXrecord
340
1A
  0
MLINESTYLE
  5
17
102
{ACAD_REACTORS
330
16
102
}
330
16
100
AcDbMlineStyle
  2
STANDARD
 70
     0
  3

 62
   256
 51
90.0
 52
90.0
 71
     2
 49
0.5
 62
   256
  6
BYLAYER
 49
-0.5
 62
   256
  6
BYLAYER
  0
ENDSEC
  0
EOF
