  0
SECTION
  2
HEADER
  9
$ACADVER
  1
AC1012
  9
$DWGCODEPAGE
  3
ANSI_1252
  9
$INSBASE
 10
0.0
 20
0.0
 30
0.0
  9
$EXTMIN
 10
1.934143096597566
 20
3.90330507920974
 30
-0.0015258207003583
  9
$EXTMAX
 10
4.250427265011737
 20
7.094833392760289
 30
0.0000000349246037
  9
$LIMMIN
 10
0.0
 20
0.0
  9
$LIMMAX
 10
12.0
 20
9.0
  9
$ORTHOMODE
 70
     0
  9
$REGENMODE
 70
     1
  9
$FILLMODE
 70
     1
  9
$QTEXTMODE
 70
     0
  9
$MIRRTEXT
 70
     1
  9
$DRAGMODE
 70
     2
  9
$LTSCALE
 40
1.0
  9
$OSMODE
 70
   547
  9
$ATTMODE
 70
     1
  9
$TEXTSIZE
 40
0.2
  9
$TRACEWID
 40
0.05
  9
$TEXTSTYLE
  7
STANDARD
  9
$CLAYER
  8
0
  9
$CELTYPE
  6
BYLAYER
  9
$CECOLOR
 62
   256
  9
$CELTSCALE
 40
1.0
  9
$DELOBJ
 70
     1
  9
$DISPSILH
 70
     0
  9
$DIMSCALE
 40
1.0
  9
$DIMASZ
 40
0.18
  9
$DIMEXO
 40
0.0625
  9
$DIMDLI
 40
0.38
  9
$DIMRND
 40
0.0
  9
$DIMDLE
 40
0.0
  9
$DIMEXE
 40
0.18
  9
$DIMTP
 40
0.0
  9
$DIMTM
 40
0.0
  9
$DIMTXT
 40
0.18
  9
$DIMCEN
 40
0.09
  9
$DIMTSZ
 40
0.0
  9
$DIMTOL
 70
     0
  9
$DIMLIM
 70
     0
  9
$DIMTIH
 70
     1
  9
$DIMTOH
 70
     1
  9
$DIMSE1
 70
     0
  9
$DIMSE2
 70
     0
  9
$DIMTAD
 70
     0
  9
$DIMZIN
 70
     0
  9
$DIMBLK
  1

  9
$DIMASO
 70
     1
  9
$DIMSHO
 70
     1
  9
$DIMPOST
  1

  9
$DIMAPOST
  1

  9
$DIMALT
 70
     0
  9
$DIMALTD
 70
     2
  9
$DIMALTF
 40
25.4
  9
$DIMLFAC
 40
1.0
  9
$DIMTOFL
 70
     0
  9
$DIMTVP
 40
0.0
  9
$DIMTIX
 70
     0
  9
$DIMSOXD
 70
     0
  9
$DIMSAH
 70
     0
  9
$DIMBLK1
  1

  9
$DIMBLK2
  1

  9
$DIMSTYLE
  2
STANDARD
  9
$DIMCLRD
 70
     0
  9
$DIMCLRE
 70
     0
  9
$DIMCLRT
 70
     0
  9
$DIMTFAC
 40
1.0
  9
$DIMGAP
 40
0.09
  9
$DIMJUST
 70
     0
  9
$DIMSD1
 70
     0
  9
$DIMSD2
 70
     0
  9
$DIMTOLJ
 70
     1
  9
$DIMTZIN
 70
     0
  9
$DIMALTZ
 70
     0
  9
$DIMALTTZ
 70
     0
  9
$DIMFIT
 70
     5
  9
$DIMUPT
 70
     0
  9
$DIMUNIT
 70
     2
  9
$DIMDEC
 70
     4
  9
$DIMTDEC
 70
     4
  9
$DIMALTU
 70
     2
  9
$DIMALTTD
 70
     2
  9
$DIMTXSTY
  7
STANDARD
  9
$DIMAUNIT
 70
     0
  9
$LUNITS
 70
     2
  9
$LUPREC
 70
     4
  9
$SKETCHINC
 40
0.1
  9
$FILLETRAD
 40
0.0
  9
$AUNITS
 70
     0
  9
$AUPREC
 70
     0
  9
$MENU
  1
acad
  9
$ELEVATION
 40
0.0
  9
$PELEVATION
 40
0.0
  9
$THICKNESS
 40
0.0
  9
$LIMCHECK
 70
     0
  9
$BLIPMODE
 70
     0
  9
$CHAMFERA
 40
0.0
  9
$CHAMFERB
 40
0.0
  9
$CHAMFERC
 40
0.0
  9
$CHAMFERD
 40
0.0
  9
$SKPOLY
 70
     0
  9
$TDCREATE
 40
2453528.406238425
  9
$TDUPDATE
 40
2453528.407908449
  9
$TDINDWG
 40
0.0006379861
  9
$TDUSRTIMER
 40
0.0006379861
  9
$USRTIMER
 70
     1
  9
$ANGBASE
 50
0.0
  9
$ANGDIR
 70
     0
  9
$PDMODE
 70
     0
  9
$PDSIZE
 40
0.0
  9
$PLINEWID
 40
0.0
  9
$COORDS
 70
     1
  9
$SPLFRAME
 70
     0
  9
$SPLINETYPE
 70
     6
  9
$SPLINESEGS
 70
     8
  9
$ATTDIA
 70
     0
  9
$ATTREQ
 70
     1
  9
$HANDLING
 70
  4097
  9
$HANDSEED
  5
4730
  9
$SURFTAB1
 70
     6
  9
$SURFTAB2
 70
     6
  9
$SURFTYPE
 70
     6
  9
$SURFU
 70
     6
  9
$SURFV
 70
     6
  9
$UCSNAME
  2

  9
$UCSORG
 10
0.0
 20
0.0
 30
0.0
  9
$UCSXDIR
 10
1.0
 20
0.0
 30
0.0
  9
$UCSYDIR
 10
0.0
 20
1.0
 30
0.0
  9
$PUCSNAME
  2

  9
$PUCSORG
 10
0.0
 20
0.0
 30
0.0
  9
$PUCSXDIR
 10
1.0
 20
0.0
 30
0.0
  9
$PUCSYDIR
 10
0.0
 20
1.0
 30
0.0
  9
$USERI1
 70
     0
  9
$USERI2
 70
     0
  9
$USERI3
 70
     0
  9
$USERI4
 70
     0
  9
$USERI5
 70
     0
  9
$USERR1
 40
0.0
  9
$USERR2
 40
0.0
  9
$USERR3
 40
0.0
  9
$USERR4
 40
0.0
  9
$USERR5
 40
0.0
  9
$WORLDVIEW
 70
     1
  9
$SHADEDGE
 70
     3
  9
$SHADEDIF
 70
    70
  9
$TILEMODE
 70
     1
  9
$MAXACTVP
 70
    16
  9
$PINSBASE
 10
0.0
 20
0.0
 30
0.0
  9
$PLIMCHECK
 70
     0
  9
$PEXTMIN
 10
1.000000000000000E+20
 20
1.000000000000000E+20
 30
1.000000000000000E+20
  9
$PEXTMAX
 10
-1.000000000000000E+20
 20
-1.000000000000000E+20
 30
-1.000000000000000E+20
  9
$PLIMMIN
 10
0.0
 20
0.0
  9
$PLIMMAX
 10
12.0
 20
9.0
  9
$UNITMODE
 70
     0
  9
$VISRETAIN
 70
     0
  9
$PLINEGEN
 70
     0
  9
$PSLTSCALE
 70
     1
  9
$TREEDEPTH
 70
  3020
  9
$PICKSTYLE
 70
     1
  9
$CMLSTYLE
  2
STANDARD
  9
$CMLJUST
 70
     0
  9
$CMLSCALE
 40
1.0
  9
$SAVEIMAGES
 70
     1
  0
ENDSEC
  0
SECTION
  2
CLASSES
  0
CLASS
  1
ACDBDICTIONARYWDFLT
  2
AcDbDictionaryWithDefault
  3
AutoCAD 2000
 90
    32768
280
     0
281
     0
  0
CLASS
  1
ACDBPLACEHOLDER
  2
AcDbPlaceHolder
  3
AutoCAD 2000
 90
    32768
280
     0
281
     0
  0
CLASS
  1
LAYOUT
  2
AcDbLayout
  3
AutoCAD 2000
 90
    32768
280
     0
281
     0
  0
CLASS
  1
LONG_TRANSACTION
  2
AcDbLongTransaction
  3
AutoCAD 2000
 90
    32768
280
     0
281
     0
  0
CLASS
  1
LWPOLYLINE
  2
AcDbPolyline
  3
AutoCAD 2000
 90
    32768
280
     0
281
     1
  0
CLASS
  1
HATCH
  2
AcDbHatch
  3
AutoCAD 2000
 90
    32768
280
     0
281
     1
  0
CLASS
  1
XRECORD
  2
AcDbXrecord
  3
AutoCAD 2000
 90
    32768
280
     0
281
     0
  0
ENDSEC
  0
SECTION
  2
TABLES
  0
TABLE
  2
VPORT
  5
8
330
0
100
AcDbSymbolTable
 70
     4
  0
VPORT
  5
472B
330
8
100
AcDbSymbolTableRecord
100
AcDbViewportTableRecord
  2
*ACTIVE
 70
     0
 10
0.0
 20
0.0
 11
1.0
 21
1.0
 12
3.092285180804651
 22
5.499069235985015
 13
0.0
 23
0.0
 14
1.0
 24
1.0
 15
0.0
 25
0.0
 16
0.0
 26
0.0
 36
1.0
 17
0.0
 27
0.0
 37
0.0
 40
3.228212547039635
 41
1.752399232245681
 42
50.0
 43
0.0
 44
0.0
 50
0.0
 51
0.0
 71
     0
 72
   100
 73
     1
 74
     1
 75
     0
 76
     0
 77
     0
 78
     0
  0
ENDTAB
  0
TABLE
  2
LTYPE
  5
5
330
0
100
AcDbSymbolTable
 70
    25
  0
LTYPE
  5
13
330
5
100
AcDbSymbolTableRecord
100
AcDbLinetypeTableRecord
  2
BYBLOCK
 70
     0
  3

 72
    65
 73
     0
 40
0.0
  0
LTYPE
  5
14
330
5
100
AcDbSymbolTableRecord
100
AcDbLinetypeTableRecord
  2
BYLAYER
 70
     0
  3

 72
    65
 73
     0
 40
0.0
  0
LTYPE
  5
15
330
5
100
AcDbSymbolTableRecord
100
AcDbLinetypeTableRecord
  2
CONTINUOUS
 70
     0
  3
Solid line
 72
    65
 73
     0
 40
0.0
  0
LTYPE
  5
22
330
5
100
AcDbSymbolTableRecord
100
AcDbLinetypeTableRecord
  2
BORDER
 70
     0
  3
__ __ . __ __ . __ __ . __ __ . __ __ . __ __ .
 72
    65
 73
     6
 40
1.75
 49
0.5
 74
     0
 49
-0.25
 74
     0
 49
0.5
 74
     0
 49
-0.25
 74
     0
 49
0.5
 74
     0
 49
-0.25
 74
     0
  0
LTYPE
  5
23
330
5
100
AcDbSymbolTableRecord
100
AcDbLinetypeTableRecord
  2
BORDER2
 70
     0
  3
__.__.__.__.__.__.__.__.__.__.__.__.__.__.__.__
 72
    65
 73
     6
 40
0.875
 49
0.25
 74
     0
 49
-0.125
 74
     0
 49
0.25
 74
     0
 49
-0.125
 74
     0
 49
0.25
 74
     0
 49
-0.125
 74
     0
  0
LTYPE
  5
24
330
5
100
AcDbSymbolTableRecord
100
AcDbLinetypeTableRecord
  2
BORDERX2
 70
     0
  3
____  ____  .  ____  ____  .  
 72
    65
 73
     6
 40
3.5
 49
1.0
 74
     0
 49
-0.5
 74
     0
 49
1.0
 74
     0
 49
-0.5
 74
     0
 49
1.0
 74
     0
 49
-0.5
 74
     0
  0
LTYPE
  5
25
330
5
100
AcDbSymbolTableRecord
100
AcDbLinetypeTableRecord
  2
CENTER
 70
     0
  3
____ _ ____ _ ____ _ ____ _ ____ _ ____ _ ____
 72
    65
 73
     4
 40
2.0
 49
1.25
 74
     0
 49
-0.25
 74
     0
 49
0.25
 74
     0
 49
-0.25
 74
     0
  0
LTYPE
  5
26
330
5
100
AcDbSymbolTableRecord
100
AcDbLinetypeTableRecord
  2
CENTER2
 70
     0
  3
____ _ ____ _ ____ _ ____ _ ____ _ ____ _ ____
 72
    65
 73
     4
 40
1.125
 49
0.75
 74
     0
 49
-0.125
 74
     0
 49
0.125
 74
     0
 49
-0.125
 74
     0
  0
LTYPE
  5
27
330
5
100
AcDbSymbolTableRecord
100
AcDbLinetypeTableRecord
  2
CENTERX2
 70
     0
  3
________  __  ________  __  ________  __  
 72
    65
 73
     4
 40
4.0
 49
2.5
 74
     0
 49
-0.5
 74
     0
 49
0.5
 74
     0
 49
-0.5
 74
     0
  0
LTYPE
  5
28
330
5
100
AcDbSymbolTableRecord
100
AcDbLinetypeTableRecord
  2
DASHDOT
 70
     0
  3
__ . __ . __ . __ . __ . __ . __ . 
 72
    65
 73
     4
 40
1.0
 49
0.5
 74
     0
 49
-0.25
 74
     0
 49
0.0
 74
     0
 49
-0.25
 74
     0
  0
LTYPE
  5
29
330
5
100
AcDbSymbolTableRecord
100
AcDbLinetypeTableRecord
  2
DASHDOT2
 70
     0
  3
_._._._._._._._._._._._._._._._.
 72
    65
 73
     4
 40
0.5
 49
0.25
 74
     0
 49
-0.125
 74
     0
 49
0.0
 74
     0
 49
-0.125
 74
     0
  0
LTYPE
  5
2A
330
5
100
AcDbSymbolTableRecord
100
AcDbLinetypeTableRecord
  2
DASHDOTX2
 70
     0
  3
____  .  ____  .  ____  .  ____  .  
 72
    65
 73
     4
 40
2.0
 49
1.0
 74
     0
 49
-0.5
 74
     0
 49
0.0
 74
     0
 49
-0.5
 74
     0
  0
LTYPE
  5
2B
330
5
100
AcDbSymbolTableRecord
100
AcDbLinetypeTableRecord
  2
DASHED
 70
     0
  3
__ __ __ __ __ __ __ __ __ __ __ __ 
 72
    65
 73
     2
 40
0.75
 49
0.5
 74
     0
 49
-0.25
 74
     0
  0
LTYPE
  5
2C
330
5
100
AcDbSymbolTableRecord
100
AcDbLinetypeTableRecord
  2
DASHED2
 70
     0
  3
_ _ _ _ _ _ _ _ _ _ _ _ _ _ _ _ _ _ 
 72
    65
 73
     2
 40
0.375
 49
0.25
 74
     0
 49
-0.125
 74
     0
  0
LTYPE
  5
2D
330
5
100
AcDbSymbolTableRecord
100
AcDbLinetypeTableRecord
  2
DASHEDX2
 70
     0
  3
____  ____  ____  ____  ____  ____  
 72
    65
 73
     2
 40
1.5
 49
1.0
 74
     0
 49
-0.5
 74
     0
  0
LTYPE
  5
2E
330
5
100
AcDbSymbolTableRecord
100
AcDbLinetypeTableRecord
  2
DIVIDE
 70
     0
  3
____ . . ____ . . ____ . . ____ . . 
 72
    65
 73
     6
 40
1.25
 49
0.5
 74
     0
 49
-0.25
 74
     0
 49
0.0
 74
     0
 49
-0.25
 74
     0
 49
0.0
 74
     0
 49
-0.25
 74
     0
  0
LTYPE
  5
2F
330
5
100
AcDbSymbolTableRecord
100
AcDbLinetypeTableRecord
  2
DIVIDE2
 70
     0
  3
__..__..__..__..__..__..__..__..__..
 72
    65
 73
     6
 40
0.625
 49
0.25
 74
     0
 49
-0.125
 74
     0
 49
0.0
 74
     0
 49
-0.125
 74
     0
 49
0.0
 74
     0
 49
-0.125
 74
     0
  0
LTYPE
  5
30
330
5
100
AcDbSymbolTableRecord
100
AcDbLinetypeTableRecord
  2
DIVIDEX2
 70
     0
  3
________  .  .  ________  .  .  ________  .  . 
 72
    65
 73
     6
 40
2.5
 49
1.0
 74
     0
 49
-0.5
 74
     0
 49
0.0
 74
     0
 49
-0.5
 74
     0
 49
0.0
 74
     0
 49
-0.5
 74
     0
  0
LTYPE
  5
31
330
5
100
AcDbSymbolTableRecord
100
AcDbLinetypeTableRecord
  2
DOT
 70
     0
  3
. . . . . . . . . . . . . . . . . . 
 72
    65
 73
     2
 40
0.25
 49
0.0
 74
     0
 49
-0.25
 74
     0
  0
LTYPE
  5
32
330
5
100
AcDbSymbolTableRecord
100
AcDbLinetypeTableRecord
  2
DOT2
 70
     0
  3
....................................
 72
    65
 73
     2
 40
0.125
 49
0.0
 74
     0
 49
-0.125
 74
     0
  0
LTYPE
  5
33
330
5
100
AcDbSymbolTableRecord
100
AcDbLinetypeTableRecord
  2
DOTX2
 70
     0
  3
.  .  .  .  .  .  .  .  .  .  .  .  .  
 72
    65
 73
     2
 40
0.5
 49
0.0
 74
     0
 49
-0.5
 74
     0
  0
LTYPE
  5
34
330
5
100
AcDbSymbolTableRecord
100
AcDbLinetypeTableRecord
  2
HIDDEN
 70
     0
  3
__ __ __ __ __ __ __ __ __ __ __ __ 
 72
    65
 73
     2
 40
0.375
 49
0.25
 74
     0
 49
-0.125
 74
     0
  0
LTYPE
  5
35
330
5
100
AcDbSymbolTableRecord
100
AcDbLinetypeTableRecord
  2
HIDDEN2
 70
     0
  3
_ _ _ _ _ _ _ _ _ _ _ _ _ _ _ _ _ _ 
 72
    65
 73
     2
 40
0.1875
 49
0.125
 74
     0
 49
-0.0625
 74
     0
  0
LTYPE
  5
36
330
5
100
AcDbSymbolTableRecord
100
AcDbLinetypeTableRecord
  2
HIDDENX2
 70
     0
  3
____ ____ ____ ____ ____ ____ ____ 
 72
    65
 73
     2
 40
0.75
 49
0.5
 74
     0
 49
-0.25
 74
     0
  0
LTYPE
  5
37
330
5
100
AcDbSymbolTableRecord
100
AcDbLinetypeTableRecord
  2
PHANTOM
 70
     0
  3
______  __  __  ______  __  __  
 72
    65
 73
     6
 40
2.5
 49
1.25
 74
     0
 49
-0.25
 74
     0
 49
0.25
 74
     0
 49
-0.25
 74
     0
 49
0.25
 74
     0
 49
-0.25
 74
     0
  0
LTYPE
  5
38
330
5
100
AcDbSymbolTableRecord
100
AcDbLinetypeTableRecord
  2
PHANTOM2
 70
     0
  3
___ _ _ ___ _ _ ___ _ _ ___ _ _ 
 72
    65
 73
     6
 40
1.25
 49
0.625
 74
     0
 49
-0.125
 74
     0
 49
0.125
 74
     0
 49
-0.125
 74
     0
 49
0.125
 74
     0
 49
-0.125
 74
     0
  0
LTYPE
  5
39
330
5
100
AcDbSymbolTableRecord
100
AcDbLinetypeTableRecord
  2
PHANTOMX2
 70
     0
  3
___ _ _ ___ _ _ ___ _ _ ___ _ _ 
 72
    65
 73
     6
 40
5.0
 49
2.5
 74
     0
 49
-0.5
 74
     0
 49
0.5
 74
     0
 49
-0.5
 74
     0
 49
0.5
 74
     0
 49
-0.5
 74
     0
  0
ENDTAB
  0
TABLE
  2
LAYER
  5
2
330
0
100
AcDbSymbolTable
 70
   256
  0
LAYER
  5
10
330
2
100
AcDbSymbolTableRecord
100
AcDbLayerTableRecord
  2
0
 70
     0
 62
     7
  6
CONTINUOUS
  0
LAYER
  5
3A
330
2
100
AcDbSymbolTableRecord
100
AcDbLayerTableRecord
  2
1
 70
     0
 62
     1
  6
CONTINUOUS
  0
LAYER
  5
3B
330
2
100
AcDbSymbolTableRecord
100
AcDbLayerTableRecord
  2
2
 70
     0
 62
     2
  6
CONTINUOUS
  0
LAYER
  5
3C
330
2
100
AcDbSymbolTableRecord
100
AcDbLayerTableRecord
  2
3
 70
     0
 62
     3
  6
CONTINUOUS
  0
LAYER
  5
3D
330
2
100
AcDbSymbolTableRecord
100
AcDbLayerTableRecord
  2
4
 70
     0
 62
     4
  6
CONTINUOUS
  0
LAYER
  5
3E
330
2
100
AcDbSymbolTableRecord
100
AcDbLayerTableRecord
  2
5
 70
     0
 62
     5
  6
CONTINUOUS
  0
LAYER
  5
3F
330
2
100
AcDbSymbolTableRecord
100
AcDbLayerTableRecord
  2
6
 70
     0
 62
     6
  6
CONTINUOUS
  0
LAYER
  5
40
330
2
100
AcDbSymbolTableRecord
100
AcDbLayerTableRecord
  2
7
 70
     0
 62
     7
  6
CONTINUOUS
  0
LAYER
  5
41
330
2
100
AcDbSymbolTableRecord
100
AcDbLayerTableRecord
  2
8
 70
     0
 62
     8
  6
CONTINUOUS
  0
LAYER
  5
42
330
2
100
AcDbSymbolTableRecord
100
AcDbLayerTableRecord
  2
9
 70
     0
 62
     9
  6
CONTINUOUS
  0
LAYER
  5
43
330
2
100
AcDbSymbolTableRecord
100
AcDbLayerTableRecord
  2
10
 70
     0
 62
    10
  6
CONTINUOUS
  0
LAYER
  5
44
330
2
100
AcDbSymbolTableRecord
100
AcDbLayerTableRecord
  2
11
 70
     0
 62
    11
  6
CONTINUOUS
  0
LAYER
  5
45
330
2
100
AcDbSymbolTableRecord
100
AcDbLayerTableRecord
  2
12
 70
     0
 62
    12
  6
CONTINUOUS
  0
LAYER
  5
46
330
2
100
AcDbSymbolTableRecord
100
AcDbLayerTableRecord
  2
13
 70
     0
 62
    13
  6
CONTINUOUS
  0
LAYER
  5
47
330
2
100
AcDbSymbolTableRecord
100
AcDbLayerTableRecord
  2
14
 70
     0
 62
    14
  6
CONTINUOUS
  0
LAYER
  5
48
330
2
100
AcDbSymbolTableRecord
100
AcDbLayerTableRecord
  2
15
 70
     0
 62
    15
  6
CONTINUOUS
  0
LAYER
  5
49
330
2
100
AcDbSymbolTableRecord
100
AcDbLayerTableRecord
  2
16
 70
     0
 62
    16
  6
CONTINUOUS
  0
LAYER
  5
4A
330
2
100
AcDbSymbolTableRecord
100
AcDbLayerTableRecord
  2
17
 70
     0
 62
    17
  6
CONTINUOUS
  0
LAYER
  5
4B
330
2
100
AcDbSymbolTableRecord
100
AcDbLayerTableRecord
  2
18
 70
     0
 62
    18
  6
CONTINUOUS
  0
LAYER
  5
4C
330
2
100
AcDbSymbolTableRecord
100
AcDbLayerTableRecord
  2
19
 70
     0
 62
    19
  6
CONTINUOUS
  0
LAYER
  5
4D
330
2
100
AcDbSymbolTableRecord
100
AcDbLayerTableRecord
  2
20
 70
     0
 62
    20
  6
CONTINUOUS
  0
LAYER
  5
4E
330
2
100
AcDbSymbolTableRecord
100
AcDbLayerTableRecord
  2
21
 70
     0
 62
    21
  6
CONTINUOUS
  0
LAYER
  5
4F
330
2
100
AcDbSymbolTableRecord
100
AcDbLayerTableRecord
  2
22
 70
     0
 62
    22
  6
CONTINUOUS
  0
LAYER
  5
50
330
2
100
AcDbSymbolTableRecord
100
AcDbLayerTableRecord
  2
23
 70
     0
 62
    23
  6
CONTINUOUS
  0
LAYER
  5
51
330
2
100
AcDbSymbolTableRecord
100
AcDbLayerTableRecord
  2
24
 70
     0
 62
    24
  6
CONTINUOUS
  0
LAYER
  5
52
330
2
100
AcDbSymbolTableRecord
100
AcDbLayerTableRecord
  2
25
 70
     0
 62
    25
  6
CONTINUOUS
  0
LAYER
  5
53
330
2
100
AcDbSymbolTableRecord
100
AcDbLayerTableRecord
  2
26
 70
     0
 62
    26
  6
CONTINUOUS
  0
LAYER
  5
54
330
2
100
AcDbSymbolTableRecord
100
AcDbLayerTableRecord
  2
27
 70
     0
 62
    27
  6
CONTINUOUS
  0
LAYER
  5
55
330
2
100
AcDbSymbolTableRecord
100
AcDbLayerTableRecord
  2
28
 70
     0
 62
    28
  6
CONTINUOUS
  0
LAYER
  5
56
330
2
100
AcDbSymbolTableRecord
100
AcDbLayerTableRecord
  2
29
 70
     0
 62
    29
  6
CONTINUOUS
  0
LAYER
  5
57
330
2
100
AcDbSymbolTableRecord
100
AcDbLayerTableRecord
  2
30
 70
     0
 62
    30
  6
CONTINUOUS
  0
LAYER
  5
58
330
2
100
AcDbSymbolTableRecord
100
AcDbLayerTableRecord
  2
31
 70
     0
 62
    31
  6
CONTINUOUS
  0
LAYER
  5
59
330
2
100
AcDbSymbolTableRecord
100
AcDbLayerTableRecord
  2
32
 70
     0
 62
    32
  6
CONTINUOUS
  0
LAYER
  5
5A
330
2
100
AcDbSymbolTableRecord
100
AcDbLayerTableRecord
  2
33
 70
     0
 62
    33
  6
CONTINUOUS
  0
LAYER
  5
5B
330
2
100
AcDbSymbolTableRecord
100
AcDbLayerTableRecord
  2
34
 70
     0
 62
    34
  6
CONTINUOUS
  0
LAYER
  5
5C
330
2
100
AcDbSymbolTableRecord
100
AcDbLayerTableRecord
  2
35
 70
     0
 62
    35
  6
CONTINUOUS
  0
LAYER
  5
5D
330
2
100
AcDbSymbolTableRecord
100
AcDbLayerTableRecord
  2
36
 70
     0
 62
    36
  6
CONTINUOUS
  0
LAYER
  5
5E
330
2
100
AcDbSymbolTableRecord
100
AcDbLayerTableRecord
  2
37
 70
     0
 62
    37
  6
CONTINUOUS
  0
LAYER
  5
5F
330
2
100
AcDbSymbolTableRecord
100
AcDbLayerTableRecord
  2
38
 70
     0
 62
    38
  6
CONTINUOUS
  0
LAYER
  5
60
330
2
100
AcDbSymbolTableRecord
100
AcDbLayerTableRecord
  2
39
 70
     0
 62
    39
  6
CONTINUOUS
  0
LAYER
  5
61
330
2
100
AcDbSymbolTableRecord
100
AcDbLayerTableRecord
  2
40
 70
     0
 62
    40
  6
CONTINUOUS
  0
LAYER
  5
62
330
2
100
AcDbSymbolTableRecord
100
AcDbLayerTableRecord
  2
41
 70
     0
 62
    41
  6
CONTINUOUS
  0
LAYER
  5
63
330
2
100
AcDbSymbolTableRecord
100
AcDbLayerTableRecord
  2
42
 70
     0
 62
    42
  6
CONTINUOUS
  0
LAYER
  5
64
330
2
100
AcDbSymbolTableRecord
100
AcDbLayerTableRecord
  2
43
 70
     0
 62
    43
  6
CONTINUOUS
  0
LAYER
  5
65
330
2
100
AcDbSymbolTableRecord
100
AcDbLayerTableRecord
  2
44
 70
     0
 62
    44
  6
CONTINUOUS
  0
LAYER
  5
66
330
2
100
AcDbSymbolTableRecord
100
AcDbLayerTableRecord
  2
45
 70
     0
 62
    45
  6
CONTINUOUS
  0
LAYER
  5
67
330
2
100
AcDbSymbolTableRecord
100
AcDbLayerTableRecord
  2
46
 70
     0
 62
    46
  6
CONTINUOUS
  0
LAYER
  5
68
330
2
100
AcDbSymbolTableRecord
100
AcDbLayerTableRecord
  2
47
 70
     0
 62
    47
  6
CONTINUOUS
  0
LAYER
  5
69
330
2
100
AcDbSymbolTableRecord
100
AcDbLayerTableRecord
  2
48
 70
     0
 62
    48
  6
CONTINUOUS
  0
LAYER
  5
6A
330
2
100
AcDbSymbolTableRecord
100
AcDbLayerTableRecord
  2
49
 70
     0
 62
    49
  6
CONTINUOUS
  0
LAYER
  5
6B
330
2
100
AcDbSymbolTableRecord
100
AcDbLayerTableRecord
  2
50
 70
     0
 62
    50
  6
CONTINUOUS
  0
LAYER
  5
6C
330
2
100
AcDbSymbolTableRecord
100
AcDbLayerTableRecord
  2
51
 70
     0
 62
    51
  6
CONTINUOUS
  0
LAYER
  5
6D
330
2
100
AcDbSymbolTableRecord
100
AcDbLayerTableRecord
  2
52
 70
     0
 62
    52
  6
CONTINUOUS
  0
LAYER
  5
6E
330
2
100
AcDbSymbolTableRecord
100
AcDbLayerTableRecord
  2
53
 70
     0
 62
    53
  6
CONTINUOUS
  0
LAYER
  5
6F
330
2
100
AcDbSymbolTableRecord
100
AcDbLayerTableRecord
  2
54
 70
     0
 62
    54
  6
CONTINUOUS
  0
LAYER
  5
70
330
2
100
AcDbSymbolTableRecord
100
AcDbLayerTableRecord
  2
55
 70
     0
 62
    55
  6
CONTINUOUS
  0
LAYER
  5
71
330
2
100
AcDbSymbolTableRecord
100
AcDbLayerTableRecord
  2
56
 70
     0
 62
    56
  6
CONTINUOUS
  0
LAYER
  5
72
330
2
100
AcDbSymbolTableRecord
100
AcDbLayerTableRecord
  2
57
 70
     0
 62
    57
  6
CONTINUOUS
  0
LAYER
  5
73
330
2
100
AcDbSymbolTableRecord
100
AcDbLayerTableRecord
  2
58
 70
     0
 62
    58
  6
CONTINUOUS
  0
LAYER
  5
74
330
2
100
AcDbSymbolTableRecord
100
AcDbLayerTableRecord
  2
59
 70
     0
 62
    59
  6
CONTINUOUS
  0
LAYER
  5
75
330
2
100
AcDbSymbolTableRecord
100
AcDbLayerTableRecord
  2
60
 70
     0
 62
    60
  6
CONTINUOUS
  0
LAYER
  5
76
330
2
100
AcDbSymbolTableRecord
100
AcDbLayerTableRecord
  2
61
 70
     0
 62
    61
  6
CONTINUOUS
  0
LAYER
  5
77
330
2
100
AcDbSymbolTableRecord
100
AcDbLayerTableRecord
  2
62
 70
     0
 62
    62
  6
CONTINUOUS
  0
LAYER
  5
78
330
2
100
AcDbSymbolTableRecord
100
AcDbLayerTableRecord
  2
63
 70
     0
 62
    63
  6
CONTINUOUS
  0
LAYER
  5
79
330
2
100
AcDbSymbolTableRecord
100
AcDbLayerTableRecord
  2
64
 70
     0
 62
    64
  6
CONTINUOUS
  0
LAYER
  5
7A
330
2
100
AcDbSymbolTableRecord
100
AcDbLayerTableRecord
  2
65
 70
     0
 62
    65
  6
CONTINUOUS
  0
LAYER
  5
7B
330
2
100
AcDbSymbolTableRecord
100
AcDbLayerTableRecord
  2
66
 70
     0
 62
    66
  6
CONTINUOUS
  0
LAYER
  5
7C
330
2
100
AcDbSymbolTableRecord
100
AcDbLayerTableRecord
  2
67
 70
     0
 62
    67
  6
CONTINUOUS
  0
LAYER
  5
7D
330
2
100
AcDbSymbolTableRecord
100
AcDbLayerTableRecord
  2
68
 70
     0
 62
    68
  6
CONTINUOUS
  0
LAYER
  5
7E
330
2
100
AcDbSymbolTableRecord
100
AcDbLayerTableRecord
  2
69
 70
     0
 62
    69
  6
CONTINUOUS
  0
LAYER
  5
7F
330
2
100
AcDbSymbolTableRecord
100
AcDbLayerTableRecord
  2
70
 70
     0
 62
    70
  6
CONTINUOUS
  0
LAYER
  5
80
330
2
100
AcDbSymbolTableRecord
100
AcDbLayerTableRecord
  2
71
 70
     0
 62
    71
  6
CONTINUOUS
  0
LAYER
  5
81
330
2
100
AcDbSymbolTableRecord
100
AcDbLayerTableRecord
  2
72
 70
     0
 62
    72
  6
CONTINUOUS
  0
LAYER
  5
82
330
2
100
AcDbSymbolTableRecord
100
AcDbLayerTableRecord
  2
73
 70
     0
 62
    73
  6
CONTINUOUS
  0
LAYER
  5
83
330
2
100
AcDbSymbolTableRecord
100
AcDbLayerTableRecord
  2
74
 70
     0
 62
    74
  6
CONTINUOUS
  0
LAYER
  5
84
330
2
100
AcDbSymbolTableRecord
100
AcDbLayerTableRecord
  2
75
 70
     0
 62
    75
  6
CONTINUOUS
  0
LAYER
  5
85
330
2
100
AcDbSymbolTableRecord
100
AcDbLayerTableRecord
  2
76
 70
     0
 62
    76
  6
CONTINUOUS
  0
LAYER
  5
86
330
2
100
AcDbSymbolTableRecord
100
AcDbLayerTableRecord
  2
77
 70
     0
 62
    77
  6
CONTINUOUS
  0
LAYER
  5
87
330
2
100
AcDbSymbolTableRecord
100
AcDbLayerTableRecord
  2
78
 70
     0
 62
    78
  6
CONTINUOUS
  0
LAYER
  5
88
330
2
100
AcDbSymbolTableRecord
100
AcDbLayerTableRecord
  2
79
 70
     0
 62
    79
  6
CONTINUOUS
  0
LAYER
  5
89
330
2
100
AcDbSymbolTableRecord
100
AcDbLayerTableRecord
  2
80
 70
     0
 62
    80
  6
CONTINUOUS
  0
LAYER
  5
8A
330
2
100
AcDbSymbolTableRecord
100
AcDbLayerTableRecord
  2
81
 70
     0
 62
    81
  6
CONTINUOUS
  0
LAYER
  5
8B
330
2
100
AcDbSymbolTableRecord
100
AcDbLayerTableRecord
  2
82
 70
     0
 62
    82
  6
CONTINUOUS
  0
LAYER
  5
8C
330
2
100
AcDbSymbolTableRecord
100
AcDbLayerTableRecord
  2
83
 70
     0
 62
    83
  6
CONTINUOUS
  0
LAYER
  5
8D
330
2
100
AcDbSymbolTableRecord
100
AcDbLayerTableRecord
  2
84
 70
     0
 62
    84
  6
CONTINUOUS
  0
LAYER
  5
8E
330
2
100
AcDbSymbolTableRecord
100
AcDbLayerTableRecord
  2
85
 70
     0
 62
    85
  6
CONTINUOUS
  0
LAYER
  5
8F
330
2
100
AcDbSymbolTableRecord
100
AcDbLayerTableRecord
  2
86
 70
     0
 62
    86
  6
CONTINUOUS
  0
LAYER
  5
90
330
2
100
AcDbSymbolTableRecord
100
AcDbLayerTableRecord
  2
87
 70
     0
 62
    87
  6
CONTINUOUS
  0
LAYER
  5
91
330
2
100
AcDbSymbolTableRecord
100
AcDbLayerTableRecord
  2
88
 70
     0
 62
    88
  6
CONTINUOUS
  0
LAYER
  5
92
330
2
100
AcDbSymbolTableRecord
100
AcDbLayerTableRecord
  2
89
 70
     0
 62
    89
  6
CONTINUOUS
  0
LAYER
  5
93
330
2
100
AcDbSymbolTableRecord
100
AcDbLayerTableRecord
  2
90
 70
     0
 62
    90
  6
CONTINUOUS
  0
LAYER
  5
94
330
2
100
AcDbSymbolTableRecord
100
AcDbLayerTableRecord
  2
91
 70
     0
 62
    91
  6
CONTINUOUS
  0
LAYER
  5
95
330
2
100
AcDbSymbolTableRecord
100
AcDbLayerTableRecord
  2
92
 70
     0
 62
    92
  6
CONTINUOUS
  0
LAYER
  5
96
330
2
100
AcDbSymbolTableRecord
100
AcDbLayerTableRecord
  2
93
 70
     0
 62
    93
  6
CONTINUOUS
  0
LAYER
  5
97
330
2
100
AcDbSymbolTableRecord
100
AcDbLayerTableRecord
  2
94
 70
     0
 62
    94
  6
CONTINUOUS
  0
LAYER
  5
98
330
2
100
AcDbSymbolTableRecord
100
AcDbLayerTableRecord
  2
95
 70
     0
 62
    95
  6
CONTINUOUS
  0
LAYER
  5
99
330
2
100
AcDbSymbolTableRecord
100
AcDbLayerTableRecord
  2
96
 70
     0
 62
    96
  6
CONTINUOUS
  0
LAYER
  5
9A
330
2
100
AcDbSymbolTableRecord
100
AcDbLayerTableRecord
  2
97
 70
     0
 62
    97
  6
CONTINUOUS
  0
LAYER
  5
9B
330
2
100
AcDbSymbolTableRecord
100
AcDbLayerTableRecord
  2
98
 70
     0
 62
    98
  6
CONTINUOUS
  0
LAYER
  5
9C
330
2
100
AcDbSymbolTableRecord
100
AcDbLayerTableRecord
  2
99
 70
     0
 62
    99
  6
CONTINUOUS
  0
LAYER
  5
9D
330
2
100
AcDbSymbolTableRecord
100
AcDbLayerTableRecord
  2
100
 70
     0
 62
   100
  6
CONTINUOUS
  0
LAYER
  5
9E
330
2
100
AcDbSymbolTableRecord
100
AcDbLayerTableRecord
  2
101
 70
     0
 62
   101
  6
CONTINUOUS
  0
LAYER
  5
9F
330
2
100
AcDbSymbolTableRecord
100
AcDbLayerTableRecord
  2
102
 70
     0
 62
   102
  6
CONTINUOUS
  0
LAYER
  5
A0
330
2
100
AcDbSymbolTableRecord
100
AcDbLayerTableRecord
  2
103
 70
     0
 62
   103
  6
CONTINUOUS
  0
LAYER
  5
A1
330
2
100
AcDbSymbolTableRecord
100
AcDbLayerTableRecord
  2
104
 70
     0
 62
   104
  6
CONTINUOUS
  0
LAYER
  5
A2
330
2
100
AcDbSymbolTableRecord
100
AcDbLayerTableRecord
  2
105
 70
     0
 62
   105
  6
CONTINUOUS
  0
LAYER
  5
A3
330
2
100
AcDbSymbolTableRecord
100
AcDbLayerTableRecord
  2
106
 70
     0
 62
   106
  6
CONTINUOUS
  0
LAYER
  5
A4
330
2
100
AcDbSymbolTableRecord
100
AcDbLayerTableRecord
  2
107
 70
     0
 62
   107
  6
CONTINUOUS
  0
LAYER
  5
A5
330
2
100
AcDbSymbolTableRecord
100
AcDbLayerTableRecord
  2
108
 70
     0
 62
   108
  6
CONTINUOUS
  0
LAYER
  5
A6
330
2
100
AcDbSymbolTableRecord
100
AcDbLayerTableRecord
  2
109
 70
     0
 62
   109
  6
CONTINUOUS
  0
LAYER
  5
A7
330
2
100
AcDbSymbolTableRecord
100
AcDbLayerTableRecord
  2
110
 70
     0
 62
   110
  6
CONTINUOUS
  0
LAYER
  5
A8
330
2
100
AcDbSymbolTableRecord
100
AcDbLayerTableRecord
  2
111
 70
     0
 62
   111
  6
CONTINUOUS
  0
LAYER
  5
A9
330
2
100
AcDbSymbolTableRecord
100
AcDbLayerTableRecord
  2
112
 70
     0
 62
   112
  6
CONTINUOUS
  0
LAYER
  5
AA
330
2
100
AcDbSymbolTableRecord
100
AcDbLayerTableRecord
  2
113
 70
     0
 62
   113
  6
CONTINUOUS
  0
LAYER
  5
AB
330
2
100
AcDbSymbolTableRecord
100
AcDbLayerTableRecord
  2
114
 70
     0
 62
   114
  6
CONTINUOUS
  0
LAYER
  5
AC
330
2
100
AcDbSymbolTableRecord
100
AcDbLayerTableRecord
  2
115
 70
     0
 62
   115
  6
CONTINUOUS
  0
LAYER
  5
AD
330
2
100
AcDbSymbolTableRecord
100
AcDbLayerTableRecord
  2
116
 70
     0
 62
   116
  6
CONTINUOUS
  0
LAYER
  5
AE
330
2
100
AcDbSymbolTableRecord
100
AcDbLayerTableRecord
  2
117
 70
     0
 62
   117
  6
CONTINUOUS
  0
LAYER
  5
AF
330
2
100
AcDbSymbolTableRecord
100
AcDbLayerTableRecord
  2
118
 70
     0
 62
   118
  6
CONTINUOUS
  0
LAYER
  5
B0
330
2
100
AcDbSymbolTableRecord
100
AcDbLayerTableRecord
  2
119
 70
     0
 62
   119
  6
CONTINUOUS
  0
LAYER
  5
B1
330
2
100
AcDbSymbolTableRecord
100
AcDbLayerTableRecord
  2
120
 70
     0
 62
   120
  6
CONTINUOUS
  0
LAYER
  5
B2
330
2
100
AcDbSymbolTableRecord
100
AcDbLayerTableRecord
  2
121
 70
     0
 62
   121
  6
CONTINUOUS
  0
LAYER
  5
B3
330
2
100
AcDbSymbolTableRecord
100
AcDbLayerTableRecord
  2
122
 70
     0
 62
   122
  6
CONTINUOUS
  0
LAYER
  5
B4
330
2
100
AcDbSymbolTableRecord
100
AcDbLayerTableRecord
  2
123
 70
     0
 62
   123
  6
CONTINUOUS
  0
LAYER
  5
B5
330
2
100
AcDbSymbolTableRecord
100
AcDbLayerTableRecord
  2
124
 70
     0
 62
   124
  6
CONTINUOUS
  0
LAYER
  5
B6
330
2
100
AcDbSymbolTableRecord
100
AcDbLayerTableRecord
  2
125
 70
     0
 62
   125
  6
CONTINUOUS
  0
LAYER
  5
B7
330
2
100
AcDbSymbolTableRecord
100
AcDbLayerTableRecord
  2
126
 70
     0
 62
   126
  6
CONTINUOUS
  0
LAYER
  5
B8
330
2
100
AcDbSymbolTableRecord
100
AcDbLayerTableRecord
  2
127
 70
     0
 62
   127
  6
CONTINUOUS
  0
LAYER
  5
B9
330
2
100
AcDbSymbolTableRecord
100
AcDbLayerTableRecord
  2
128
 70
     0
 62
   128
  6
CONTINUOUS
  0
LAYER
  5
BA
330
2
100
AcDbSymbolTableRecord
100
AcDbLayerTableRecord
  2
129
 70
     0
 62
   129
  6
CONTINUOUS
  0
LAYER
  5
BB
330
2
100
AcDbSymbolTableRecord
100
AcDbLayerTableRecord
  2
130
 70
     0
 62
   130
  6
CONTINUOUS
  0
LAYER
  5
BC
330
2
100
AcDbSymbolTableRecord
100
AcDbLayerTableRecord
  2
131
 70
     0
 62
   131
  6
CONTINUOUS
  0
LAYER
  5
BD
330
2
100
AcDbSymbolTableRecord
100
AcDbLayerTableRecord
  2
132
 70
     0
 62
   132
  6
CONTINUOUS
  0
LAYER
  5
BE
330
2
100
AcDbSymbolTableRecord
100
AcDbLayerTableRecord
  2
133
 70
     0
 62
   133
  6
CONTINUOUS
  0
LAYER
  5
BF
330
2
100
AcDbSymbolTableRecord
100
AcDbLayerTableRecord
  2
134
 70
     0
 62
   134
  6
CONTINUOUS
  0
LAYER
  5
C0
330
2
100
AcDbSymbolTableRecord
100
AcDbLayerTableRecord
  2
135
 70
     0
 62
   135
  6
CONTINUOUS
  0
LAYER
  5
C1
330
2
100
AcDbSymbolTableRecord
100
AcDbLayerTableRecord
  2
136
 70
     0
 62
   136
  6
CONTINUOUS
  0
LAYER
  5
C2
330
2
100
AcDbSymbolTableRecord
100
AcDbLayerTableRecord
  2
137
 70
     0
 62
   137
  6
CONTINUOUS
  0
LAYER
  5
C3
330
2
100
AcDbSymbolTableRecord
100
AcDbLayerTableRecord
  2
138
 70
     0
 62
   138
  6
CONTINUOUS
  0
LAYER
  5
C4
330
2
100
AcDbSymbolTableRecord
100
AcDbLayerTableRecord
  2
139
 70
     0
 62
   139
  6
CONTINUOUS
  0
LAYER
  5
C5
330
2
100
AcDbSymbolTableRecord
100
AcDbLayerTableRecord
  2
140
 70
     0
 62
   140
  6
CONTINUOUS
  0
LAYER
  5
C6
330
2
100
AcDbSymbolTableRecord
100
AcDbLayerTableRecord
  2
141
 70
     0
 62
   141
  6
CONTINUOUS
  0
LAYER
  5
C7
330
2
100
AcDbSymbolTableRecord
100
AcDbLayerTableRecord
  2
142
 70
     0
 62
   142
  6
CONTINUOUS
  0
LAYER
  5
C8
330
2
100
AcDbSymbolTableRecord
100
AcDbLayerTableRecord
  2
143
 70
     0
 62
   143
  6
CONTINUOUS
  0
LAYER
  5
C9
330
2
100
AcDbSymbolTableRecord
100
AcDbLayerTableRecord
  2
144
 70
     0
 62
   144
  6
CONTINUOUS
  0
LAYER
  5
CA
330
2
100
AcDbSymbolTableRecord
100
AcDbLayerTableRecord
  2
145
 70
     0
 62
   145
  6
CONTINUOUS
  0
LAYER
  5
CB
330
2
100
AcDbSymbolTableRecord
100
AcDbLayerTableRecord
  2
146
 70
     0
 62
   146
  6
CONTINUOUS
  0
LAYER
  5
CC
330
2
100
AcDbSymbolTableRecord
100
AcDbLayerTableRecord
  2
147
 70
     0
 62
   147
  6
CONTINUOUS
  0
LAYER
  5
CD
330
2
100
AcDbSymbolTableRecord
100
AcDbLayerTableRecord
  2
148
 70
     0
 62
   148
  6
CONTINUOUS
  0
LAYER
  5
CE
330
2
100
AcDbSymbolTableRecord
100
AcDbLayerTableRecord
  2
149
 70
     0
 62
   149
  6
CONTINUOUS
  0
LAYER
  5
CF
330
2
100
AcDbSymbolTableRecord
100
AcDbLayerTableRecord
  2
150
 70
     0
 62
   150
  6
CONTINUOUS
  0
LAYER
  5
D0
330
2
100
AcDbSymbolTableRecord
100
AcDbLayerTableRecord
  2
151
 70
     0
 62
   151
  6
CONTINUOUS
  0
LAYER
  5
D1
330
2
100
AcDbSymbolTableRecord
100
AcDbLayerTableRecord
  2
152
 70
     0
 62
   152
  6
CONTINUOUS
  0
LAYER
  5
D2
330
2
100
AcDbSymbolTableRecord
100
AcDbLayerTableRecord
  2
153
 70
     0
 62
   153
  6
CONTINUOUS
  0
LAYER
  5
D3
330
2
100
AcDbSymbolTableRecord
100
AcDbLayerTableRecord
  2
154
 70
     0
 62
   154
  6
CONTINUOUS
  0
LAYER
  5
D4
330
2
100
AcDbSymbolTableRecord
100
AcDbLayerTableRecord
  2
155
 70
     0
 62
   155
  6
CONTINUOUS
  0
LAYER
  5
D5
330
2
100
AcDbSymbolTableRecord
100
AcDbLayerTableRecord
  2
156
 70
     0
 62
   156
  6
CONTINUOUS
  0
LAYER
  5
D6
330
2
100
AcDbSymbolTableRecord
100
AcDbLayerTableRecord
  2
157
 70
     0
 62
   157
  6
CONTINUOUS
  0
LAYER
  5
D7
330
2
100
AcDbSymbolTableRecord
100
AcDbLayerTableRecord
  2
158
 70
     0
 62
   158
  6
CONTINUOUS
  0
LAYER
  5
D8
330
2
100
AcDbSymbolTableRecord
100
AcDbLayerTableRecord
  2
159
 70
     0
 62
   159
  6
CONTINUOUS
  0
LAYER
  5
D9
330
2
100
AcDbSymbolTableRecord
100
AcDbLayerTableRecord
  2
160
 70
     0
 62
   160
  6
CONTINUOUS
  0
LAYER
  5
DA
330
2
100
AcDbSymbolTableRecord
100
AcDbLayerTableRecord
  2
161
 70
     0
 62
   161
  6
CONTINUOUS
  0
LAYER
  5
DB
330
2
100
AcDbSymbolTableRecord
100
AcDbLayerTableRecord
  2
162
 70
     0
 62
   162
  6
CONTINUOUS
  0
LAYER
  5
DC
330
2
100
AcDbSymbolTableRecord
100
AcDbLayerTableRecord
  2
163
 70
     0
 62
   163
  6
CONTINUOUS
  0
LAYER
  5
DD
330
2
100
AcDbSymbolTableRecord
100
AcDbLayerTableRecord
  2
164
 70
     0
 62
   164
  6
CONTINUOUS
  0
LAYER
  5
DE
330
2
100
AcDbSymbolTableRecord
100
AcDbLayerTableRecord
  2
165
 70
     0
 62
   165
  6
CONTINUOUS
  0
LAYER
  5
DF
330
2
100
AcDbSymbolTableRecord
100
AcDbLayerTableRecord
  2
166
 70
     0
 62
   166
  6
CONTINUOUS
  0
LAYER
  5
E0
330
2
100
AcDbSymbolTableRecord
100
AcDbLayerTableRecord
  2
167
 70
     0
 62
   167
  6
CONTINUOUS
  0
LAYER
  5
E1
330
2
100
AcDbSymbolTableRecord
100
AcDbLayerTableRecord
  2
168
 70
     0
 62
   168
  6
CONTINUOUS
  0
LAYER
  5
E2
330
2
100
AcDbSymbolTableRecord
100
AcDbLayerTableRecord
  2
169
 70
     0
 62
   169
  6
CONTINUOUS
  0
LAYER
  5
E3
330
2
100
AcDbSymbolTableRecord
100
AcDbLayerTableRecord
  2
170
 70
     0
 62
   170
  6
CONTINUOUS
  0
LAYER
  5
E4
330
2
100
AcDbSymbolTableRecord
100
AcDbLayerTableRecord
  2
171
 70
     0
 62
   171
  6
CONTINUOUS
  0
LAYER
  5
E5
330
2
100
AcDbSymbolTableRecord
100
AcDbLayerTableRecord
  2
172
 70
     0
 62
   172
  6
CONTINUOUS
  0
LAYER
  5
E6
330
2
100
AcDbSymbolTableRecord
100
AcDbLayerTableRecord
  2
173
 70
     0
 62
   173
  6
CONTINUOUS
  0
LAYER
  5
E7
330
2
100
AcDbSymbolTableRecord
100
AcDbLayerTableRecord
  2
174
 70
     0
 62
   174
  6
CONTINUOUS
  0
LAYER
  5
E8
330
2
100
AcDbSymbolTableRecord
100
AcDbLayerTableRecord
  2
175
 70
     0
 62
   175
  6
CONTINUOUS
  0
LAYER
  5
E9
330
2
100
AcDbSymbolTableRecord
100
AcDbLayerTableRecord
  2
176
 70
     0
 62
   176
  6
CONTINUOUS
  0
LAYER
  5
EA
330
2
100
AcDbSymbolTableRecord
100
AcDbLayerTableRecord
  2
177
 70
     0
 62
   177
  6
CONTINUOUS
  0
LAYER
  5
EB
330
2
100
AcDbSymbolTableRecord
100
AcDbLayerTableRecord
  2
178
 70
     0
 62
   178
  6
CONTINUOUS
  0
LAYER
  5
EC
330
2
100
AcDbSymbolTableRecord
100
AcDbLayerTableRecord
  2
179
 70
     0
 62
   179
  6
CONTINUOUS
  0
LAYER
  5
ED
330
2
100
AcDbSymbolTableRecord
100
AcDbLayerTableRecord
  2
180
 70
     0
 62
   180
  6
CONTINUOUS
  0
LAYER
  5
EE
330
2
100
AcDbSymbolTableRecord
100
AcDbLayerTableRecord
  2
181
 70
     0
 62
   181
  6
CONTINUOUS
  0
LAYER
  5
EF
330
2
100
AcDbSymbolTableRecord
100
AcDbLayerTableRecord
  2
182
 70
     0
 62
   182
  6
CONTINUOUS
  0
LAYER
  5
F0
330
2
100
AcDbSymbolTableRecord
100
AcDbLayerTableRecord
  2
183
 70
     0
 62
   183
  6
CONTINUOUS
  0
LAYER
  5
F1
330
2
100
AcDbSymbolTableRecord
100
AcDbLayerTableRecord
  2
184
 70
     0
 62
   184
  6
CONTINUOUS
  0
LAYER
  5
F2
330
2
100
AcDbSymbolTableRecord
100
AcDbLayerTableRecord
  2
185
 70
     0
 62
   185
  6
CONTINUOUS
  0
LAYER
  5
F3
330
2
100
AcDbSymbolTableRecord
100
AcDbLayerTableRecord
  2
186
 70
     0
 62
   186
  6
CONTINUOUS
  0
LAYER
  5
F4
330
2
100
AcDbSymbolTableRecord
100
AcDbLayerTableRecord
  2
187
 70
     0
 62
   187
  6
CONTINUOUS
  0
LAYER
  5
F5
330
2
100
AcDbSymbolTableRecord
100
AcDbLayerTableRecord
  2
188
 70
     0
 62
   188
  6
CONTINUOUS
  0
LAYER
  5
F6
330
2
100
AcDbSymbolTableRecord
100
AcDbLayerTableRecord
  2
189
 70
     0
 62
   189
  6
CONTINUOUS
  0
LAYER
  5
F7
330
2
100
AcDbSymbolTableRecord
100
AcDbLayerTableRecord
  2
190
 70
     0
 62
   190
  6
CONTINUOUS
  0
LAYER
  5
F8
330
2
100
AcDbSymbolTableRecord
100
AcDbLayerTableRecord
  2
191
 70
     0
 62
   191
  6
CONTINUOUS
  0
LAYER
  5
F9
330
2
100
AcDbSymbolTableRecord
100
AcDbLayerTableRecord
  2
192
 70
     0
 62
   192
  6
CONTINUOUS
  0
LAYER
  5
FA
330
2
100
AcDbSymbolTableRecord
100
AcDbLayerTableRecord
  2
193
 70
     0
 62
   193
  6
CONTINUOUS
  0
LAYER
  5
FB
330
2
100
AcDbSymbolTableRecord
100
AcDbLayerTableRecord
  2
194
 70
     0
 62
   194
  6
CONTINUOUS
  0
LAYER
  5
FC
330
2
100
AcDbSymbolTableRecord
100
AcDbLayerTableRecord
  2
195
 70
     0
 62
   195
  6
CONTINUOUS
  0
LAYER
  5
FD
330
2
100
AcDbSymbolTableRecord
100
AcDbLayerTableRecord
  2
196
 70
     0
 62
   196
  6
CONTINUOUS
  0
LAYER
  5
FE
330
2
100
AcDbSymbolTableRecord
100
AcDbLayerTableRecord
  2
197
 70
     0
 62
   197
  6
CONTINUOUS
  0
LAYER
  5
FF
330
2
100
AcDbSymbolTableRecord
100
AcDbLayerTableRecord
  2
198
 70
     0
 62
   198
  6
CONTINUOUS
  0
LAYER
  5
100
330
2
100
AcDbSymbolTableRecord
100
AcDbLayerTableRecord
  2
199
 70
     0
 62
   199
  6
CONTINUOUS
  0
LAYER
  5
101
330
2
100
AcDbSymbolTableRecord
100
AcDbLayerTableRecord
  2
200
 70
     0
 62
   200
  6
CONTINUOUS
  0
LAYER
  5
102
330
2
100
AcDbSymbolTableRecord
100
AcDbLayerTableRecord
  2
201
 70
     0
 62
   201
  6
CONTINUOUS
  0
LAYER
  5
103
330
2
100
AcDbSymbolTableRecord
100
AcDbLayerTableRecord
  2
202
 70
     0
 62
   202
  6
CONTINUOUS
  0
LAYER
  5
104
330
2
100
AcDbSymbolTableRecord
100
AcDbLayerTableRecord
  2
203
 70
     0
 62
   203
  6
CONTINUOUS
  0
LAYER
  5
105
330
2
100
AcDbSymbolTableRecord
100
AcDbLayerTableRecord
  2
204
 70
     0
 62
   204
  6
CONTINUOUS
  0
LAYER
  5
106
330
2
100
AcDbSymbolTableRecord
100
AcDbLayerTableRecord
  2
205
 70
     0
 62
   205
  6
CONTINUOUS
  0
LAYER
  5
107
330
2
100
AcDbSymbolTableRecord
100
AcDbLayerTableRecord
  2
206
 70
     0
 62
   206
  6
CONTINUOUS
  0
LAYER
  5
108
330
2
100
AcDbSymbolTableRecord
100
AcDbLayerTableRecord
  2
207
 70
     0
 62
   207
  6
CONTINUOUS
  0
LAYER
  5
109
330
2
100
AcDbSymbolTableRecord
100
AcDbLayerTableRecord
  2
208
 70
     0
 62
   208
  6
CONTINUOUS
  0
LAYER
  5
10A
330
2
100
AcDbSymbolTableRecord
100
AcDbLayerTableRecord
  2
209
 70
     0
 62
   209
  6
CONTINUOUS
  0
LAYER
  5
10B
330
2
100
AcDbSymbolTableRecord
100
AcDbLayerTableRecord
  2
210
 70
     0
 62
   210
  6
CONTINUOUS
  0
LAYER
  5
10C
330
2
100
AcDbSymbolTableRecord
100
AcDbLayerTableRecord
  2
211
 70
     0
 62
   211
  6
CONTINUOUS
  0
LAYER
  5
10D
330
2
100
AcDbSymbolTableRecord
100
AcDbLayerTableRecord
  2
212
 70
     0
 62
   212
  6
CONTINUOUS
  0
LAYER
  5
10E
330
2
100
AcDbSymbolTableRecord
100
AcDbLayerTableRecord
  2
213
 70
     0
 62
   213
  6
CONTINUOUS
  0
LAYER
  5
10F
330
2
100
AcDbSymbolTableRecord
100
AcDbLayerTableRecord
  2
214
 70
     0
 62
   214
  6
CONTINUOUS
  0
LAYER
  5
110
330
2
100
AcDbSymbolTableRecord
100
AcDbLayerTableRecord
  2
215
 70
     0
 62
   215
  6
CONTINUOUS
  0
LAYER
  5
111
330
2
100
AcDbSymbolTableRecord
100
AcDbLayerTableRecord
  2
216
 70
     0
 62
   216
  6
CONTINUOUS
  0
LAYER
  5
112
330
2
100
AcDbSymbolTableRecord
100
AcDbLayerTableRecord
  2
217
 70
     0
 62
   217
  6
CONTINUOUS
  0
LAYER
  5
113
330
2
100
AcDbSymbolTableRecord
100
AcDbLayerTableRecord
  2
218
 70
     0
 62
   218
  6
CONTINUOUS
  0
LAYER
  5
114
330
2
100
AcDbSymbolTableRecord
100
AcDbLayerTableRecord
  2
219
 70
     0
 62
   219
  6
CONTINUOUS
  0
LAYER
  5
115
330
2
100
AcDbSymbolTableRecord
100
AcDbLayerTableRecord
  2
220
 70
     0
 62
   220
  6
CONTINUOUS
  0
LAYER
  5
116
330
2
100
AcDbSymbolTableRecord
100
AcDbLayerTableRecord
  2
221
 70
     0
 62
   221
  6
CONTINUOUS
  0
LAYER
  5
117
330
2
100
AcDbSymbolTableRecord
100
AcDbLayerTableRecord
  2
222
 70
     0
 62
   222
  6
CONTINUOUS
  0
LAYER
  5
118
330
2
100
AcDbSymbolTableRecord
100
AcDbLayerTableRecord
  2
223
 70
     0
 62
   223
  6
CONTINUOUS
  0
LAYER
  5
119
330
2
100
AcDbSymbolTableRecord
100
AcDbLayerTableRecord
  2
224
 70
     0
 62
   224
  6
CONTINUOUS
  0
LAYER
  5
11A
330
2
100
AcDbSymbolTableRecord
100
AcDbLayerTableRecord
  2
225
 70
     0
 62
   225
  6
CONTINUOUS
  0
LAYER
  5
11B
330
2
100
AcDbSymbolTableRecord
100
AcDbLayerTableRecord
  2
226
 70
     0
 62
   226
  6
CONTINUOUS
  0
LAYER
  5
11C
330
2
100
AcDbSymbolTableRecord
100
AcDbLayerTableRecord
  2
227
 70
     0
 62
   227
  6
CONTINUOUS
  0
LAYER
  5
11D
330
2
100
AcDbSymbolTableRecord
100
AcDbLayerTableRecord
  2
228
 70
     0
 62
   228
  6
CONTINUOUS
  0
LAYER
  5
11E
330
2
100
AcDbSymbolTableRecord
100
AcDbLayerTableRecord
  2
229
 70
     0
 62
   229
  6
CONTINUOUS
  0
LAYER
  5
11F
330
2
100
AcDbSymbolTableRecord
100
AcDbLayerTableRecord
  2
230
 70
     0
 62
   230
  6
CONTINUOUS
  0
LAYER
  5
120
330
2
100
AcDbSymbolTableRecord
100
AcDbLayerTableRecord
  2
231
 70
     0
 62
   231
  6
CONTINUOUS
  0
LAYER
  5
121
330
2
100
AcDbSymbolTableRecord
100
AcDbLayerTableRecord
  2
232
 70
     0
 62
   232
  6
CONTINUOUS
  0
LAYER
  5
122
330
2
100
AcDbSymbolTableRecord
100
AcDbLayerTableRecord
  2
233
 70
     0
 62
   233
  6
CONTINUOUS
  0
LAYER
  5
123
330
2
100
AcDbSymbolTableRecord
100
AcDbLayerTableRecord
  2
234
 70
     0
 62
   234
  6
CONTINUOUS
  0
LAYER
  5
124
330
2
100
AcDbSymbolTableRecord
100
AcDbLayerTableRecord
  2
235
 70
     0
 62
   235
  6
CONTINUOUS
  0
LAYER
  5
125
330
2
100
AcDbSymbolTableRecord
100
AcDbLayerTableRecord
  2
236
 70
     0
 62
   236
  6
CONTINUOUS
  0
LAYER
  5
126
330
2
100
AcDbSymbolTableRecord
100
AcDbLayerTableRecord
  2
237
 70
     0
 62
   237
  6
CONTINUOUS
  0
LAYER
  5
127
330
2
100
AcDbSymbolTableRecord
100
AcDbLayerTableRecord
  2
238
 70
     0
 62
   238
  6
CONTINUOUS
  0
LAYER
  5
128
330
2
100
AcDbSymbolTableRecord
100
AcDbLayerTableRecord
  2
239
 70
     0
 62
   239
  6
CONTINUOUS
  0
LAYER
  5
129
330
2
100
AcDbSymbolTableRecord
100
AcDbLayerTableRecord
  2
240
 70
     0
 62
   240
  6
CONTINUOUS
  0
LAYER
  5
12A
330
2
100
AcDbSymbolTableRecord
100
AcDbLayerTableRecord
  2
241
 70
     0
 62
   241
  6
CONTINUOUS
  0
LAYER
  5
12B
330
2
100
AcDbSymbolTableRecord
100
AcDbLayerTableRecord
  2
242
 70
     0
 62
   242
  6
CONTINUOUS
  0
LAYER
  5
12C
330
2
100
AcDbSymbolTableRecord
100
AcDbLayerTableRecord
  2
243
 70
     0
 62
   243
  6
CONTINUOUS
  0
LAYER
  5
12D
330
2
100
AcDbSymbolTableRecord
100
AcDbLayerTableRecord
  2
244
 70
     0
 62
   244
  6
CONTINUOUS
  0
LAYER
  5
12E
330
2
100
AcDbSymbolTableRecord
100
AcDbLayerTableRecord
  2
245
 70
     0
 62
   245
  6
CONTINUOUS
  0
LAYER
  5
12F
330
2
100
AcDbSymbolTableRecord
100
AcDbLayerTableRecord
  2
246
 70
     0
 62
   246
  6
CONTINUOUS
  0
LAYER
  5
130
330
2
100
AcDbSymbolTableRecord
100
AcDbLayerTableRecord
  2
247
 70
     0
 62
   247
  6
CONTINUOUS
  0
LAYER
  5
131
330
2
100
AcDbSymbolTableRecord
100
AcDbLayerTableRecord
  2
248
 70
     0
 62
   248
  6
CONTINUOUS
  0
LAYER
  5
132
330
2
100
AcDbSymbolTableRecord
100
AcDbLayerTableRecord
  2
249
 70
     0
 62
   249
  6
CONTINUOUS
  0
LAYER
  5
133
330
2
100
AcDbSymbolTableRecord
100
AcDbLayerTableRecord
  2
250
 70
     0
 62
   250
  6
CONTINUOUS
  0
LAYER
  5
134
330
2
100
AcDbSymbolTableRecord
100
AcDbLayerTableRecord
  2
251
 70
     0
 62
   251
  6
CONTINUOUS
  0
LAYER
  5
135
330
2
100
AcDbSymbolTableRecord
100
AcDbLayerTableRecord
  2
252
 70
     0
 62
   252
  6
CONTINUOUS
  0
LAYER
  5
136
330
2
100
AcDbSymbolTableRecord
100
AcDbLayerTableRecord
  2
253
 70
     0
 62
   253
  6
CONTINUOUS
  0
LAYER
  5
137
330
2
100
AcDbSymbolTableRecord
100
AcDbLayerTableRecord
  2
254
 70
     0
 62
   254
  6
CONTINUOUS
  0
LAYER
  5
138
330
2
100
AcDbSymbolTableRecord
100
AcDbLayerTableRecord
  2
255
 70
     0
 62
   255
  6
CONTINUOUS
  0
ENDTAB
  0
TABLE
  2
STYLE
  5
3
330
0
100
AcDbSymbolTable
 70
     1
  0
STYLE
  5
11
330
3
100
AcDbSymbolTableRecord
100
AcDbTextStyleTableRecord
  2
STANDARD
 70
     0
 40
0.0
 41
1.0
 50
0.0
 71
     0
 42
0.2
  3
monotxt
  4

  0
ENDTAB
  0
TABLE
  2
VIEW
  5
6
330
0
100
AcDbSymbolTable
 70
     0
  0
ENDTAB
  0
TABLE
  2
UCS
  5
7
330
0
100
AcDbSymbolTable
 70
     0
  0
ENDTAB
  0
TABLE
  2
APPID
  5
9
330
0
100
AcDbSymbolTable
 70
     1
  0
APPID
  5
12
330
9
100
AcDbSymbolTableRecord
100
AcDbRegAppTableRecord
  2
ACAD
 70
     0
  0
ENDTAB
  0
TABLE
  2
DIMSTYLE
  5
A
330
0
100
AcDbSymbolTable
 70
     1
  0
DIMSTYLE
105
31B4
330
A
100
AcDbSymbolTableRecord
100
AcDbDimStyleTableRecord
  2
STANDARD
 70
     0
  3

  4

  5

  6

  7

 40
1.0
 41
0.18
 42
0.0625
 43
0.38
 44
0.18
 45
0.0
 46
0.0
 47
0.0
 48
0.0
140
0.18
141
0.09
142
0.0
143
25.4
144
1.0
145
0.0
146
1.0
147
0.09
 71
     0
 72
     0
 73
     1
 74
     1
 75
     0
 76
     0
 77
     0
 78
     0
170
     0
171
     2
172
     0
173
     0
174
     0
175
     0
176
     0
177
     0
178
     0
270
     2
271
     4
272
     4
273
     2
274
     2
340
11
275
     0
280
     0
281
     0
282
     0
283
     1
284
     0
285
     0
286
     0
287
     3
288
     0
  0
ENDTAB
  0
TABLE
  2
BLOCK_RECORD
  5
1
330
0
100
AcDbSymbolTable
 70
     0
  0
BLOCK_RECORD
  5
1E
102
{ACAD_XDICTIONARY
360
472E
102
}
330
1
100
AcDbSymbolTableRecord
100
AcDbBlockTableRecord
  2
*MODEL_SPACE
  0
BLOCK_RECORD
  5
1A
102
{ACAD_XDICTIONARY
360
472C
102
}
330
1
100
AcDbSymbolTableRecord
100
AcDbBlockTableRecord
  2
*PAPER_SPACE
  0
ENDTAB
  0
ENDSEC
  0
SECTION
  2
BLOCKS
  0
BLOCK
  5
13B
330
1E
100
AcDbEntity
  8
0
100
AcDbBlockBegin
  2
*MODEL_SPACE
 70
     0
 10
0.0
 20
0.0
 30
0.0
  3
*MODEL_SPACE
  1

  0
ENDBLK
  5
13C
330
1E
100
AcDbEntity
  8
0
100
AcDbBlockEnd
  0
BLOCK
  5
139
330
1A
100
AcDbEntity
 67
     1
  8
0
100
AcDbBlockBegin
  2
*PAPER_SPACE
 70
     0
 10
0.0
 20
0.0
 30
0.0
  3
*PAPER_SPACE
  1

  0
ENDBLK
  5
13A
330
1A
100
AcDbEntity
 67
     1
  8
0
100
AcDbBlockEnd
  0
ENDSEC
  0
SECTION
  2
ENTITIES
  0
LINE
  5
2DD0
330
1E
100
AcDbEntity
  8
7
100
AcDbLine
 10
1.972440944881889
 20
5.090551181102362
 30
0.0
 11
1.972440944881889
 21
5.009842519685038
 31
0.0
  0
LINE
  5
2DD1
330
1E
100
AcDbEntity
  8
7
100
AcDbLine
 10
1.972440944881889
 20
6.785433070866141
 30
0.0
 11
1.972440944881889
 21
5.090551181102362
 31
0.0
  0
LINE
  5
2DD2
330
1E
100
AcDbEntity
  8
7
100
AcDbLine
 10
1.972440944881889
 20
6.785433070866141
 30
0.0
 11
1.972440944881889
 21
6.857283464566928
 31
0.0
  0
LINE
  5
2DD3
330
1E
100
AcDbEntity
  8
7
100
AcDbLine
 10
4.019685039370077
 20
4.817913385826771
 30
0.0
 11
3.89763779527559
 21
4.817913385826771
 31
0.0
  0
LINE
  5
2DD4
330
1E
100
AcDbEntity
  8
7
100
AcDbLine
 10
2.287401574803149
 20
4.817913385826771
 30
0.0
 11
3.89763779527559
 21
4.817913385826771
 31
0.0
  0
LINE
  5
2DD5
330
1E
100
AcDbEntity
  8
7
100
AcDbLine
 10
2.173228346456693
 20
4.817913385826771
 30
0.0
 11
2.287401574803149
 21
4.817913385826771
 31
0.0
  0
LINE
  5
2DD6
330
1E
100
AcDbEntity
  8
7
100
AcDbLine
 10
4.21259842519685
 20
6.785433070866141
 30
0.0
 11
4.21259842519685
 21
6.86515748031496
 31
0.0
  0
LINE
  5
2DD7
330
1E
100
AcDbEntity
  8
7
100
AcDbLine
 10
4.21259842519685
 20
5.090551181102362
 30
0.0
 11
4.21259842519685
 21
6.785433070866141
 31
0.0
  0
LINE
  5
2DD8
330
1E
100
AcDbEntity
  8
7
100
AcDbLine
 10
4.21259842519685
 20
5.090551181102362
 30
0.0
 11
4.21259842519685
 21
5.01771653543307
 31
0.0
  0
LINE
  5
2DD9
330
1E
100
AcDbEntity
  8
7
100
AcDbLine
 10
2.164370078740157
 20
7.058070866141732
 30
0.0
 11
2.287401574803149
 21
7.058070866141732
 31
0.0
  0
LINE
  5
2DDA
330
1E
100
AcDbEntity
  8
7
100
AcDbLine
 10
3.89763779527559
 20
7.058070866141732
 30
0.0
 11
2.287401574803149
 21
7.058070866141732
 31
0.0
  0
LINE
  5
2DDB
330
1E
100
AcDbEntity
  8
7
100
AcDbLine
 10
4.011811023622046
 20
7.058070866141732
 30
0.0
 11
3.89763779527559
 21
7.058070866141732
 31
0.0
  0
LINE
  5
2DDC
330
1E
100
AcDbEntity
  8
7
100
AcDbLine
 10
1.972440944881889
 20
6.946850393700787
 30
0.0
 11
1.972440944881889
 21
7.02755905511811
 31
0.0
  0
LINE
  5
2DDD
330
1E
100
AcDbEntity
  8
7
100
AcDbLine
 10
2.094488188976377
 20
7.060039370078739
 30
0.0
 11
2.094488188976377
 21
7.058070866141732
 31
0.0
  0
LINE
  5
2DDE
330
1E
100
AcDbEntity
  8
7
100
AcDbLine
 10
2.001968503937007
 20
7.058070866141732
 30
0.0
 11
2.094488188976377
 21
7.058070866141732
 31
0.0
  0
LINE
  5
2DE5
330
1E
100
AcDbEntity
  8
7
100
AcDbLine
 10
1.972440944881889
 20
6.946850393700787
 30
0.0
 11
1.986220472440944
 21
6.946850393700787
 31
0.0
  0
LINE
  5
2DF3
330
1E
100
AcDbEntity
  8
7
100
AcDbLine
 10
1.972440944881889
 20
6.857283464566928
 30
0.0
 11
1.986220472440944
 21
6.857283464566928
 31
0.0
  0
LINE
  5
2DF4
330
1E
100
AcDbEntity
  8
7
100
AcDbLine
 10
1.972440944881889
 20
6.785433070866141
 30
0.0
 11
2.01771653543307
 21
6.785433070866141
 31
0.0
  0
LINE
  5
2DFA
330
1E
100
AcDbEntity
  8
7
100
AcDbLine
 10
2.043307086614173
 20
6.8001968503937
 30
0.0
 11
2.047244094488188
 21
6.81496062992126
 31
0.0
  0
LINE
  5
2DFB
330
1E
100
AcDbEntity
  8
7
100
AcDbLine
 10
2.047244094488188
 20
6.89271653543307
 30
0.0
 11
2.047244094488188
 21
6.81496062992126
 31
0.0
  0
LINE
  5
2E04
330
1E
100
AcDbEntity
  8
7
100
AcDbLine
 10
2.137795275590551
 20
6.982283464566928
 30
0.0
 11
2.257874015748031
 21
6.982283464566928
 31
0.0
  0
LINE
  5
2E0B
330
1E
100
AcDbEntity
  8
7
100
AcDbLine
 10
2.287401574803149
 20
7.01279527559055
 30
0.0
 11
2.287401574803149
 21
7.058070866141732
 31
0.0
  0
LINE
  5
2E0C
330
1E
100
AcDbEntity
  8
7
100
AcDbLine
 10
2.164370078740157
 20
7.060039370078739
 30
0.0
 11
2.164370078740157
 21
7.058070866141732
 31
0.0
  0
LINE
  5
2E0D
330
1E
100
AcDbEntity
  8
7
100
AcDbLine
 10
2.164370078740157
 20
7.060039370078739
 30
0.0
 11
2.159448818897637
 21
7.076771653543307
 31
0.0
  0
LINE
  5
2E16
330
1E
100
AcDbEntity
  8
7
100
AcDbLine
 10
4.182086614173227
 20
7.058070866141732
 30
0.0
 11
4.102362204724409
 21
7.058070866141732
 31
0.0
  0
LINE
  5
2E1E
330
1E
100
AcDbEntity
  8
7
100
AcDbLine
 10
4.19783464566929
 20
7.054133858267716
 30
0.0
 11
4.182086614173227
 21
7.058070866141732
 31
0.0
  0
LINE
  5
2E1F
330
1E
100
AcDbEntity
  8
7
100
AcDbLine
 10
4.102362204724409
 20
7.058070866141732
 30
0.0
 11
4.102362204724409
 21
7.044291338582676
 31
0.0
  0
LINE
  5
2E2A
330
1E
100
AcDbEntity
  8
7
100
AcDbLine
 10
4.011811023622046
 20
7.058070866141732
 30
0.0
 11
4.011811023622046
 21
7.044291338582676
 31
0.0
  0
LINE
  5
2E2B
330
1E
100
AcDbEntity
  8
7
100
AcDbLine
 10
3.89763779527559
 20
7.01279527559055
 30
0.0
 11
3.89763779527559
 21
7.058070866141732
 31
0.0
  0
LINE
  5
2E32
330
1E
100
AcDbEntity
  8
7
100
AcDbLine
 10
4.047244094488188
 20
6.982283464566928
 30
0.0
 11
3.927165354330708
 21
6.982283464566928
 31
0.0
  0
LINE
  5
2E3B
330
1E
100
AcDbEntity
  8
7
100
AcDbLine
 10
4.13779527559055
 20
6.89271653543307
 30
0.0
 11
4.13779527559055
 21
6.81496062992126
 31
0.0
  0
LINE
  5
2E42
330
1E
100
AcDbEntity
  8
7
100
AcDbLine
 10
4.21259842519685
 20
6.785433070866141
 30
0.0
 11
4.167322834645668
 21
6.785433070866141
 31
0.0
  0
LINE
  5
2E43
330
1E
100
AcDbEntity
  8
7
100
AcDbLine
 10
4.214566929133857
 20
6.86515748031496
 30
0.0
 11
4.21259842519685
 21
6.86515748031496
 31
0.0
  0
LINE
  5
2E4D
330
1E
100
AcDbEntity
  8
7
100
AcDbLine
 10
4.21259842519685
 20
4.928149606299212
 30
0.0
 11
4.21259842519685
 21
4.847440944881889
 31
0.0
  0
LINE
  5
2E4E
330
1E
100
AcDbEntity
  8
7
100
AcDbLine
 10
4.089566929133857
 20
4.81496062992126
 30
0.0
 11
4.089566929133857
 21
4.817913385826771
 31
0.0
  0
LINE
  5
2E4F
330
1E
100
AcDbEntity
  8
7
100
AcDbLine
 10
4.182086614173227
 20
4.817913385826771
 30
0.0
 11
4.089566929133857
 21
4.817913385826771
 31
0.0
  0
LINE
  5
2E56
330
1E
100
AcDbEntity
  8
7
100
AcDbLine
 10
4.21259842519685
 20
4.928149606299212
 30
0.0
 11
4.198818897637794
 21
4.928149606299212
 31
0.0
  0
LINE
  5
2E61
330
1E
100
AcDbEntity
  8
7
100
AcDbLine
 10
4.21259842519685
 20
5.01771653543307
 30
0.0
 11
4.198818897637794
 21
5.01771653543307
 31
0.0
  0
LINE
  5
2E62
330
1E
100
AcDbEntity
  8
7
100
AcDbLine
 10
4.21259842519685
 20
5.090551181102362
 30
0.0
 11
4.167322834645668
 21
5.090551181102362
 31
0.0
  0
LINE
  5
2E69
330
1E
100
AcDbEntity
  8
7
100
AcDbLine
 10
4.13779527559055
 20
4.982283464566928
 30
0.0
 11
4.13779527559055
 21
5.060039370078739
 31
0.0
  0
LINE
  5
2E71
330
1E
100
AcDbEntity
  8
7
100
AcDbLine
 10
4.13287401574803
 20
4.954724409448818
 30
0.0
 11
4.136811023622046
 21
4.982283464566928
 31
0.0
  0
LINE
  5
2E72
330
1E
100
AcDbEntity
  8
7
100
AcDbLine
 10
4.047244094488188
 20
4.89271653543307
 30
0.0
 11
3.927165354330708
 21
4.89271653543307
 31
0.0
  0
LINE
  5
2E79
330
1E
100
AcDbEntity
  8
7
100
AcDbLine
 10
3.89763779527559
 20
4.862204724409449
 30
0.0
 11
3.89763779527559
 21
4.817913385826771
 31
0.0
  0
LINE
  5
2E7A
330
1E
100
AcDbEntity
  8
7
100
AcDbLine
 10
4.019685039370077
 20
4.81496062992126
 30
0.0
 11
4.019685039370077
 21
4.817913385826771
 31
0.0
  0
LINE
  5
2E84
330
1E
100
AcDbEntity
  8
7
100
AcDbLine
 10
2.001968503937007
 20
4.817913385826771
 30
0.0
 11
2.08267716535433
 21
4.817913385826771
 31
0.0
  0
LINE
  5
2E8D
330
1E
100
AcDbEntity
  8
7
100
AcDbLine
 10
2.08267716535433
 20
4.817913385826771
 30
0.0
 11
2.08267716535433
 21
4.830708661417323
 31
0.0
  0
LINE
  5
2E9B
330
1E
100
AcDbEntity
  8
7
100
AcDbLine
 10
2.173228346456693
 20
4.817913385826771
 30
0.0
 11
2.173228346456693
 21
4.830708661417323
 31
0.0
  0
LINE
  5
2E9C
330
1E
100
AcDbEntity
  8
7
100
AcDbLine
 10
2.287401574803149
 20
4.862204724409449
 30
0.0
 11
2.287401574803149
 21
4.817913385826771
 31
0.0
  0
LINE
  5
2EA3
330
1E
100
AcDbEntity
  8
7
100
AcDbLine
 10
2.137795275590551
 20
4.89271653543307
 30
0.0
 11
2.257874015748031
 21
4.89271653543307
 31
0.0
  0
LINE
  5
2EAC
330
1E
100
AcDbEntity
  8
7
100
AcDbLine
 10
2.047244094488188
 20
4.982283464566928
 30
0.0
 11
2.047244094488188
 21
5.060039370078739
 31
0.0
  0
LINE
  5
2EB3
330
1E
100
AcDbEntity
  8
7
100
AcDbLine
 10
1.972440944881889
 20
5.090551181102362
 30
0.0
 11
2.01771653543307
 21
5.090551181102362
 31
0.0
  0
LINE
  5
2EB4
330
1E
100
AcDbEntity
  8
7
100
AcDbLine
 10
1.969488188976377
 20
5.009842519685038
 30
0.0
 11
1.972440944881889
 21
5.009842519685038
 31
0.0
  0
LINE
  5
2EC7
330
1E
100
AcDbEntity
  8
7
100
AcDbLine
 10
2.808070866141732
 20
5.007874015748031
 30
0.0
 11
2.808070866141732
 21
4.928149606299212
 31
0.0
  0
LINE
  5
2EC8
330
1E
100
AcDbEntity
  8
7
100
AcDbLine
 10
2.617125984251968
 20
5.007874015748031
 30
0.0
 11
2.807086614173228
 21
5.007874015748031
 31
0.0
  0
LINE
  5
2EC9
330
1E
100
AcDbEntity
  8
7
100
AcDbLine
 10
2.617125984251968
 20
5.007874015748031
 30
0.0
 11
2.808070866141732
 21
5.007874015748031
 31
0.0
  0
LINE
  5
2ECA
330
1E
100
AcDbEntity
  8
7
100
AcDbLine
 10
2.617125984251968
 20
5.007874015748031
 30
0.0
 11
2.617125984251968
 21
4.877952755905512
 31
0.0
  0
LINE
  5
2ED1
330
1E
100
AcDbEntity
  8
7
100
AcDbLine
 10
2.807086614173228
 20
4.900590551181101
 30
0.0
 11
2.808070866141732
 21
4.896653543307086
 31
0.0
  0
LINE
  5
2ED2
330
1E
100
AcDbEntity
  8
7
100
AcDbLine
 10
2.807086614173228
 20
4.900590551181101
 30
0.0
 11
2.807086614173228
 21
4.877952755905512
 31
0.0
  0
LINE
  5
2ED3
330
1E
100
AcDbEntity
  8
7
100
AcDbLine
 10
2.808070866141732
 20
4.896653543307086
 30
0.0
 11
2.808070866141732
 21
4.877952755905512
 31
0.0
  0
LINE
  5
2ED4
330
1E
100
AcDbEntity
  8
7
100
AcDbLine
 10
3.376968503937007
 20
4.924212598425197
 30
0.0
 11
3.376968503937007
 21
4.928149606299212
 31
0.0
  0
LINE
  5
2EE5
330
1E
100
AcDbEntity
  8
7
100
AcDbLine
 10
3.567913385826771
 20
4.877952755905512
 30
0.0
 11
3.376968503937007
 21
4.877952755905512
 31
0.0
  0
LINE
  5
2EE6
330
1E
100
AcDbEntity
  8
7
100
AcDbLine
 10
3.567913385826771
 20
4.877952755905512
 30
0.0
 11
3.376968503937007
 21
4.877952755905512
 31
0.0
  0
LINE
  5
2EE7
330
1E
100
AcDbEntity
  8
7
100
AcDbLine
 10
3.567913385826771
 20
4.877952755905512
 30
0.0
 11
3.567913385826771
 21
5.007874015748031
 31
0.0
  0
LINE
  5
2EF4
330
1E
100
AcDbEntity
  8
7
100
AcDbLine
 10
2.617125984251968
 20
6.998031496062991
 30
0.0
 11
2.808070866141732
 21
6.998031496062991
 31
0.0
  0
LINE
  5
2EF5
330
1E
100
AcDbEntity
  8
7
100
AcDbLine
 10
2.617125984251968
 20
6.997047244094487
 30
0.0
 11
2.617125984251968
 21
6.867125984251968
 31
0.0
  0
LINE
  5
2EFC
330
1E
100
AcDbEntity
  8
7
100
AcDbLine
 10
2.807086614173228
 20
6.950787401574802
 30
0.0
 11
2.808070866141732
 21
6.946850393700787
 31
0.0
  0
LINE
  5
2EFD
330
1E
100
AcDbEntity
  8
7
100
AcDbLine
 10
2.807086614173228
 20
6.950787401574802
 30
0.0
 11
2.807086614173228
 21
6.867125984251968
 31
0.0
  0
LINE
  5
2EFE
330
1E
100
AcDbEntity
  8
7
100
AcDbLine
 10
2.808070866141732
 20
6.867125984251968
 30
0.0
 11
2.808070866141732
 21
6.946850393700787
 31
0.0
  0
LINE
  5
2F04
330
1E
100
AcDbEntity
  8
7
100
AcDbLine
 10
3.376968503937007
 20
6.867125984251968
 30
0.0
 11
3.376968503937007
 21
6.946850393700787
 31
0.0
  0
LINE
  5
2F05
330
1E
100
AcDbEntity
  8
7
100
AcDbLine
 10
3.376968503937007
 20
6.974409448818897
 30
0.0
 11
3.376968503937007
 21
6.978346456692912
 31
0.0
  0
LINE
  5
2F06
330
1E
100
AcDbEntity
  8
7
100
AcDbLine
 10
3.376968503937007
 20
6.974409448818897
 30
0.0
 11
3.376968503937007
 21
6.997047244094487
 31
0.0
  0
LINE
  5
2F07
330
1E
100
AcDbEntity
  8
7
100
AcDbLine
 10
3.376968503937007
 20
6.998031496062991
 30
0.0
 11
3.376968503937007
 21
6.997047244094487
 31
0.0
  0
LINE
  5
2F08
330
1E
100
AcDbEntity
  8
7
100
AcDbLine
 10
3.376968503937007
 20
6.978346456692912
 30
0.0
 11
3.376968503937007
 21
6.998031496062991
 31
0.0
  0
LINE
  5
2F09
330
1E
100
AcDbEntity
  8
7
100
AcDbLine
 10
3.376968503937007
 20
6.997047244094487
 30
0.0
 11
3.567913385826771
 21
6.997047244094487
 31
0.0
  0
LINE
  5
2F0A
330
1E
100
AcDbEntity
  8
7
100
AcDbLine
 10
3.567913385826771
 20
6.998031496062991
 30
0.0
 11
3.567913385826771
 21
6.997047244094487
 31
0.0
  0
LINE
  5
2F0B
330
1E
100
AcDbEntity
  8
7
100
AcDbLine
 10
3.567913385826771
 20
6.998031496062991
 30
0.0
 11
3.376968503937007
 21
6.998031496062991
 31
0.0
  0
LINE
  5
2F0C
330
1E
100
AcDbEntity
  8
7
100
AcDbLine
 10
3.567913385826771
 20
6.867125984251968
 30
0.0
 11
3.567913385826771
 21
6.997047244094487
 31
0.0
  0
LINE
  5
2F0D
330
1E
100
AcDbEntity
  8
7
100
AcDbLine
 10
3.567913385826771
 20
6.867125984251968
 30
0.0
 11
3.376968503937007
 21
6.867125984251968
 31
0.0
  0
LINE
  5
2F0E
330
1E
100
AcDbEntity
  8
7
100
AcDbLine
 10
3.567913385826771
 20
6.867125984251968
 30
0.0
 11
3.376968503937007
 21
6.867125984251968
 31
0.0
  0
LINE
  5
2F0F
330
1E
100
AcDbEntity
  8
7
100
AcDbLine
 10
1.972440944881889
 20
6.779527559055117
 30
0.0
 11
1.972440944881889
 21
6.785433070866141
 31
0.0
  0
LINE
  5
2F10
330
1E
100
AcDbEntity
  8
7
100
AcDbLine
 10
1.972440944881889
 20
5.095472440944881
 30
0.0
 11
1.972440944881889
 21
5.090551181102362
 31
0.0
  0
LINE
  5
2F11
330
1E
100
AcDbEntity
  8
7
100
AcDbLine
 10
1.972440944881889
 20
6.779527559055117
 30
0.0
 11
1.972440944881889
 21
5.095472440944881
 31
0.0
  0
LINE
  5
2F12
330
1E
100
AcDbEntity
  8
7
100
AcDbLine
 10
2.40255905511811
 20
7.057086614173228
 30
0.0
 11
2.292322834645669
 21
7.057086614173228
 31
0.0
  0
LINE
  5
2F1A
330
1E
100
AcDbEntity
  8
7
100
AcDbLine
 10
3.89763779527559
 20
7.058070866141732
 30
0.0
 11
3.891732283464566
 21
7.057086614173228
 31
0.0
  0
LINE
  5
2F1B
330
1E
100
AcDbEntity
  8
7
100
AcDbLine
 10
2.287401574803149
 20
7.058070866141732
 30
0.0
 11
2.292322834645669
 21
7.057086614173228
 31
0.0
  0
LINE
  5
2F1C
330
1E
100
AcDbEntity
  8
7
100
AcDbLine
 10
4.211614173228346
 20
5.095472440944881
 30
0.0
 11
4.21259842519685
 21
5.090551181102362
 31
0.0
  0
LINE
  5
2F1D
330
1E
100
AcDbEntity
  8
7
100
AcDbLine
 10
4.211614173228346
 20
6.779527559055117
 30
0.0
 11
4.21259842519685
 21
6.785433070866141
 31
0.0
  0
LINE
  5
2F1E
330
1E
100
AcDbEntity
  8
7
100
AcDbLine
 10
4.211614173228346
 20
5.095472440944881
 30
0.0
 11
4.211614173228346
 21
6.779527559055117
 31
0.0
  0
LINE
  5
2F1F
330
1E
100
AcDbEntity
  8
7
100
AcDbLine
 10
2.404527559055118
 20
4.819881889763779
 30
0.0
 11
3.780511811023622
 21
4.819881889763779
 31
0.0
  0
LINE
  5
2F25
330
1E
100
AcDbEntity
  8
7
100
AcDbLine
 10
2.287401574803149
 20
4.817913385826771
 30
0.0
 11
2.292322834645669
 21
4.817913385826771
 31
0.0
  0
LINE
  5
2F26
330
1E
100
AcDbEntity
  8
7
100
AcDbLine
 10
3.89763779527559
 20
4.817913385826771
 30
0.0
 11
3.891732283464566
 21
4.817913385826771
 31
0.0
  0
LINE
  5
2F27
330
1E
100
AcDbEntity
  8
7
100
AcDbLine
 10
3.78248031496063
 20
4.817913385826771
 30
0.0
 11
3.891732283464566
 21
4.817913385826771
 31
0.0
  0
LINE
  5
2F28
330
1E
100
AcDbEntity
  8
7
100
AcDbLine
 10
3.78248031496063
 20
4.817913385826771
 30
0.0
 11
3.780511811023622
 21
4.819881889763779
 31
0.0
  0
LINE
  5
2F29
330
1E
100
AcDbEntity
  8
7
100
AcDbLine
 10
3.376968503937007
 20
4.924212598425197
 30
0.0
 11
3.092519685039369
 21
4.924212598425197
 31
0.0
  0
LINE
  5
2F2A
330
1E
100
AcDbEntity
  8
7
100
AcDbLine
 10
3.813976377952755
 20
5.259842519685038
 30
0.0
 11
3.818897637795275
 21
5.264763779527559
 31
0.0
  0
LINE
  5
2F2B
330
1E
100
AcDbEntity
  8
7
100
AcDbLine
 10
3.818897637795275
 20
5.744094488188975
 30
0.0
 11
3.818897637795275
 21
5.264763779527559
 31
0.0
  0
LINE
  5
2F2C
330
1E
100
AcDbEntity
  8
7
100
AcDbLine
 10
3.824803149606299
 20
5.758858267716535
 30
0.0
 11
3.818897637795275
 21
5.744094488188975
 31
0.0
  0
LINE
  5
2F2D
330
1E
100
AcDbEntity
  8
7
100
AcDbLine
 10
2.371062992125984
 20
5.259842519685038
 30
0.0
 11
3.813976377952755
 21
5.259842519685038
 31
0.0
  0
LINE
  5
2F2E
330
1E
100
AcDbEntity
  8
7
100
AcDbLine
 10
3.881889763779527
 20
5.256889763779527
 30
0.0
 11
2.303149606299212
 21
5.256889763779527
 31
0.0
  0
LINE
  5
2F34
330
1E
100
AcDbEntity
  8
7
100
AcDbLine
 10
2.371062992125984
 20
5.259842519685038
 30
0.0
 11
2.366141732283464
 21
5.264763779527559
 31
0.0
  0
LINE
  5
2F35
330
1E
100
AcDbEntity
  8
7
100
AcDbLine
 10
2.306102362204724
 20
5.264763779527559
 30
0.0
 11
2.366141732283464
 21
5.264763779527559
 31
0.0
  0
LINE
  5
2F36
330
1E
100
AcDbEntity
  8
7
100
AcDbLine
 10
2.303149606299212
 20
5.256889763779527
 30
0.0
 11
2.306102362204724
 21
5.264763779527559
 31
0.0
  0
LINE
  5
2F37
330
1E
100
AcDbEntity
  8
7
100
AcDbLine
 10
2.313976377952756
 20
4.909448818897637
 30
0.0
 11
2.313976377952756
 21
5.086614173228346
 31
0.0
  0
LINE
  5
2F4C
330
1E
100
AcDbEntity
  8
7
100
AcDbLine
 10
2.313976377952756
 20
5.086614173228346
 30
0.0
 11
3.871062992125984
 21
5.086614173228346
 31
0.0
  0
LINE
  5
2F4D
330
1E
100
AcDbEntity
  8
7
100
AcDbLine
 10
3.376968503937007
 20
4.928149606299212
 30
0.0
 11
2.808070866141732
 21
4.928149606299212
 31
0.0
  0
LINE
  5
2F4E
330
1E
100
AcDbEntity
  8
7
100
AcDbLine
 10
3.567913385826771
 20
4.877952755905512
 30
0.0
 11
3.567913385826771
 21
5.007874015748031
 31
0.0
  0
LINE
  5
2F4F
330
1E
100
AcDbEntity
  8
7
100
AcDbLine
 10
3.376968503937007
 20
4.896653543307086
 30
0.0
 11
2.808070866141732
 21
4.896653543307086
 31
0.0
  0
LINE
  5
2F50
330
1E
100
AcDbEntity
  8
7
100
AcDbLine
 10
2.617125984251968
 20
4.877952755905512
 30
0.0
 11
2.617125984251968
 21
5.007874015748031
 31
0.0
  0
LINE
  5
2F51
330
1E
100
AcDbEntity
  8
7
100
AcDbLine
 10
2.303149606299212
 20
5.256889763779527
 30
0.0
 11
2.303149606299212
 21
6.618110236220472
 31
0.0
  0
LINE
  5
2F52
330
1E
100
AcDbEntity
  8
7
100
AcDbLine
 10
3.881889763779527
 20
6.618110236220472
 30
0.0
 11
2.303149606299212
 21
6.618110236220472
 31
0.0
  0
LINE
  5
2F53
330
1E
100
AcDbEntity
  8
7
100
AcDbLine
 10
3.881889763779527
 20
6.618110236220472
 30
0.0
 11
3.881889763779527
 21
5.256889763779527
 31
0.0
  0
LINE
  5
2F54
330
1E
100
AcDbEntity
  8
7
100
AcDbLine
 10
4.188976377952755
 20
5.174212598425197
 30
0.0
 11
4.188976377952755
 21
6.701771653543307
 31
0.0
  0
LINE
  5
2F5C
330
1E
100
AcDbEntity
  8
7
100
AcDbLine
 10
2.075787401574803
 20
6.781496062992125
 30
0.0
 11
4.109251968503936
 21
6.781496062992125
 31
0.0
  0
LINE
  5
2F64
330
1E
100
AcDbEntity
  8
7
100
AcDbLine
 10
1.996062992125984
 20
6.701771653543307
 30
0.0
 11
1.996062992125984
 21
5.174212598425197
 31
0.0
  0
LINE
  5
2F6C
330
1E
100
AcDbEntity
  8
7
100
AcDbLine
 10
2.075787401574803
 20
5.094488188976377
 30
0.0
 11
4.109251968503936
 21
5.094488188976377
 31
0.0
  0
LINE
  5
2F74
330
1E
100
AcDbEntity
  8
7
100
AcDbLine
 10
3.857283464566929
 20
5.758858267716535
 30
0.0
 11
3.824803149606299
 21
5.758858267716535
 31
0.0
  0
LINE
  5
2F7A
330
1E
100
AcDbEntity
  8
7
100
AcDbLine
 10
4.198818897637794
 20
5.174212598425197
 30
0.0
 11
4.198818897637794
 21
6.701771653543307
 31
0.0
  0
LINE
  5
2F86
330
1E
100
AcDbEntity
  8
7
100
AcDbLine
 10
3.872047244094487
 20
5.083661417322834
 30
0.0
 11
4.109251968503936
 21
5.083661417322834
 31
0.0
  0
LINE
  5
2F8F
330
1E
100
AcDbEntity
  8
7
100
AcDbLine
 10
3.81003937007874
 20
4.822834645669291
 30
0.0
 11
3.78248031496063
 21
4.817913385826771
 31
0.0
  0
LINE
  5
2F90
330
1E
100
AcDbEntity
  8
7
100
AcDbLine
 10
3.891732283464566
 20
4.862204724409449
 30
0.0
 11
3.891732283464566
 21
4.817913385826771
 31
0.0
  0
LINE
  5
2F97
330
1E
100
AcDbEntity
  8
7
100
AcDbLine
 10
4.047244094488188
 20
4.89763779527559
 30
0.0
 11
3.927165354330708
 21
4.89763779527559
 31
0.0
  0
LINE
  5
2FA0
330
1E
100
AcDbEntity
  8
7
100
AcDbLine
 10
4.131889763779526
 20
4.982283464566928
 30
0.0
 11
4.131889763779526
 21
5.060039370078739
 31
0.0
  0
LINE
  5
2FA7
330
1E
100
AcDbEntity
  8
7
100
AcDbLine
 10
4.211614173228346
 20
5.095472440944881
 30
0.0
 11
4.167322834645668
 21
5.095472440944881
 31
0.0
  0
LINE
  5
2FA8
330
1E
100
AcDbEntity
  8
7
100
AcDbLine
 10
4.211614173228346
 20
6.779527559055117
 30
0.0
 11
4.167322834645668
 21
6.779527559055117
 31
0.0
  0
LINE
  5
2FAF
330
1E
100
AcDbEntity
  8
7
100
AcDbLine
 10
4.131889763779526
 20
6.89271653543307
 30
0.0
 11
4.131889763779526
 21
6.81496062992126
 31
0.0
  0
LINE
  5
2FB8
330
1E
100
AcDbEntity
  8
7
100
AcDbLine
 10
4.047244094488188
 20
6.977362204724409
 30
0.0
 11
3.927165354330708
 21
6.977362204724409
 31
0.0
  0
LINE
  5
2FBE
330
1E
100
AcDbEntity
  8
7
100
AcDbLine
 10
3.909448818897637
 20
6.983267716535433
 30
0.0
 11
3.927165354330708
 21
6.978346456692912
 31
0.0
  0
LINE
  5
2FBF
330
1E
100
AcDbEntity
  8
7
100
AcDbLine
 10
3.891732283464566
 20
7.01279527559055
 30
0.0
 11
3.891732283464566
 21
7.057086614173228
 31
0.0
  0
LINE
  5
2FC8
330
1E
100
AcDbEntity
  8
7
100
AcDbLine
 10
3.872047244094487
 20
6.791338582677164
 30
0.0
 11
3.872047244094487
 21
6.96751968503937
 31
0.0
  0
LINE
  5
2FC9
330
1E
100
AcDbEntity
  8
7
100
AcDbLine
 10
3.872047244094487
 20
6.791338582677164
 30
0.0
 11
4.109251968503936
 21
6.791338582677164
 31
0.0
  0
LINE
  5
2FD2
330
1E
100
AcDbEntity
  8
7
100
AcDbLine
 10
4.198818897637794
 20
5.174212598425197
 30
0.0
 11
4.188976377952755
 21
5.174212598425197
 31
0.0
  0
LINE
  5
2FD3
330
1E
100
AcDbEntity
  8
7
100
AcDbLine
 10
4.198818897637794
 20
6.701771653543307
 30
0.0
 11
4.188976377952755
 21
6.701771653543307
 31
0.0
  0
LINE
  5
2FD4
330
1E
100
AcDbEntity
  8
7
100
AcDbLine
 10
3.878937007874015
 20
6.131889763779527
 30
0.0
 11
3.878937007874015
 21
5.744094488188975
 31
0.0
  0
LINE
  5
2FD5
330
1E
100
AcDbEntity
  8
7
100
AcDbLine
 10
3.857283464566929
 20
6.116141732283464
 30
0.0
 11
3.878937007874015
 21
6.131889763779527
 31
0.0
  0
LINE
  5
2FD6
330
1E
100
AcDbEntity
  8
7
100
AcDbLine
 10
3.857283464566929
 20
5.758858267716535
 30
0.0
 11
3.878937007874015
 21
5.744094488188975
 31
0.0
  0
LINE
  5
2FD7
330
1E
100
AcDbEntity
  8
7
100
AcDbLine
 10
3.871062992125984
 20
5.086614173228346
 30
0.0
 11
3.872047244094487
 21
5.083661417322834
 31
0.0
  0
LINE
  5
2FD8
330
1E
100
AcDbEntity
  8
7
100
AcDbLine
 10
4.109251968503936
 20
5.094488188976377
 30
0.0
 11
4.109251968503936
 21
5.083661417322834
 31
0.0
  0
LINE
  5
2FD9
330
1E
100
AcDbEntity
  8
7
100
AcDbLine
 10
2.075787401574803
 20
5.094488188976377
 30
0.0
 11
2.075787401574803
 21
5.083661417322834
 31
0.0
  0
LINE
  5
2FDA
330
1E
100
AcDbEntity
  8
7
100
AcDbLine
 10
2.312992125984251
 20
5.083661417322834
 30
0.0
 11
2.075787401574803
 21
5.083661417322834
 31
0.0
  0
LINE
  5
2FDB
330
1E
100
AcDbEntity
  8
7
100
AcDbLine
 10
2.313976377952756
 20
5.086614173228346
 30
0.0
 11
2.312992125984251
 21
5.083661417322834
 31
0.0
  0
LINE
  5
2FDC
330
1E
100
AcDbEntity
  8
7
100
AcDbLine
 10
4.13779527559055
 20
4.982283464566928
 30
0.0
 11
4.131889763779526
 21
4.982283464566928
 31
0.0
  0
LINE
  5
2FDD
330
1E
100
AcDbEntity
  8
7
100
AcDbLine
 10
4.131889763779526
 20
5.060039370078739
 30
0.0
 11
4.13779527559055
 21
5.060039370078739
 31
0.0
  0
LINE
  5
2FDE
330
1E
100
AcDbEntity
  8
7
100
AcDbLine
 10
4.167322834645668
 20
5.090551181102362
 30
0.0
 11
4.167322834645668
 21
5.095472440944881
 31
0.0
  0
LINE
  5
2FDF
330
1E
100
AcDbEntity
  8
7
100
AcDbLine
 10
3.891732283464566
 20
4.862204724409449
 30
0.0
 11
3.89763779527559
 21
4.862204724409449
 31
0.0
  0
LINE
  5
2FE0
330
1E
100
AcDbEntity
  8
7
100
AcDbLine
 10
3.927165354330708
 20
4.89763779527559
 30
0.0
 11
3.927165354330708
 21
4.89271653543307
 31
0.0
  0
LINE
  5
2FE1
330
1E
100
AcDbEntity
  8
7
100
AcDbLine
 10
4.047244094488188
 20
4.89763779527559
 30
0.0
 11
4.047244094488188
 21
4.89271653543307
 31
0.0
  0
LINE
  5
2FE2
330
1E
100
AcDbEntity
  8
7
100
AcDbLine
 10
3.881889763779527
 20
6.618110236220472
 30
0.0
 11
3.878937007874015
 21
6.61023622047244
 31
0.0
  0
LINE
  5
2FE3
330
1E
100
AcDbEntity
  8
7
100
AcDbLine
 10
3.878937007874015
 20
6.131889763779527
 30
0.0
 11
3.878937007874015
 21
6.61023622047244
 31
0.0
  0
LINE
  5
2FE4
330
1E
100
AcDbEntity
  8
7
100
AcDbLine
 10
3.878937007874015
 20
5.744094488188975
 30
0.0
 11
3.878937007874015
 21
5.264763779527559
 31
0.0
  0
LINE
  5
2FE5
330
1E
100
AcDbEntity
  8
7
100
AcDbLine
 10
3.818897637795275
 20
5.744094488188975
 30
0.0
 11
3.878937007874015
 21
5.744094488188975
 31
0.0
  0
LINE
  5
2FE6
330
1E
100
AcDbEntity
  8
7
100
AcDbLine
 10
3.871062992125984
 20
4.909448818897637
 30
0.0
 11
3.872047244094487
 21
4.908464566929133
 31
0.0
  0
LINE
  5
2FE7
330
1E
100
AcDbEntity
  8
7
100
AcDbLine
 10
3.376968503937007
 20
4.900590551181101
 30
0.0
 11
3.092519685039369
 21
4.900590551181101
 31
0.0
  0
LINE
  5
2FE8
330
1E
100
AcDbEntity
  8
7
100
AcDbLine
 10
2.807086614173228
 20
4.924212598425197
 30
0.0
 11
3.092519685039369
 21
4.924212598425197
 31
0.0
  0
LINE
  5
2FE9
330
1E
100
AcDbEntity
  8
7
100
AcDbLine
 10
2.807086614173228
 20
4.900590551181101
 30
0.0
 11
3.092519685039369
 21
4.900590551181101
 31
0.0
  0
LINE
  5
2FEA
330
1E
100
AcDbEntity
  8
7
100
AcDbLine
 10
3.376968503937007
 20
6.950787401574802
 30
0.0
 11
3.092519685039369
 21
6.950787401574802
 31
0.0
  0
LINE
  5
2FF0
330
1E
100
AcDbEntity
  8
7
100
AcDbLine
 10
3.813976377952755
 20
6.616141732283464
 30
0.0
 11
3.818897637795275
 21
6.61023622047244
 31
0.0
  0
LINE
  5
2FF1
330
1E
100
AcDbEntity
  8
7
100
AcDbLine
 10
2.371062992125984
 20
6.616141732283464
 30
0.0
 11
3.813976377952755
 21
6.616141732283464
 31
0.0
  0
LINE
  5
2FF7
330
1E
100
AcDbEntity
  8
7
100
AcDbLine
 10
2.371062992125984
 20
6.616141732283464
 30
0.0
 11
2.366141732283464
 21
6.61023622047244
 31
0.0
  0
LINE
  5
2FF8
330
1E
100
AcDbEntity
  8
7
100
AcDbLine
 10
3.878937007874015
 20
6.61023622047244
 30
0.0
 11
3.818897637795275
 21
6.61023622047244
 31
0.0
  0
LINE
  5
3006
330
1E
100
AcDbEntity
  8
7
100
AcDbLine
 10
3.871062992125984
 20
6.965551181102362
 30
0.0
 11
3.871062992125984
 21
6.788385826771653
 31
0.0
  0
LINE
  5
300F
330
1E
100
AcDbEntity
  8
7
100
AcDbLine
 10
3.376968503937007
 20
6.946850393700787
 30
0.0
 11
2.808070866141732
 21
6.946850393700787
 31
0.0
  0
LINE
  5
3010
330
1E
100
AcDbEntity
  8
7
100
AcDbLine
 10
2.617125984251968
 20
6.998031496062991
 30
0.0
 11
2.617125984251968
 21
6.867125984251968
 31
0.0
  0
LINE
  5
3011
330
1E
100
AcDbEntity
  8
7
100
AcDbLine
 10
3.376968503937007
 20
6.978346456692912
 30
0.0
 11
2.808070866141732
 21
6.978346456692912
 31
0.0
  0
LINE
  5
3012
330
1E
100
AcDbEntity
  8
7
100
AcDbLine
 10
3.567913385826771
 20
6.998031496062991
 30
0.0
 11
3.567913385826771
 21
6.867125984251968
 31
0.0
  0
LINE
  5
3018
330
1E
100
AcDbEntity
  8
7
100
AcDbLine
 10
2.075787401574803
 20
6.781496062992125
 30
0.0
 11
2.075787401574803
 21
6.791338582677164
 31
0.0
  0
LINE
  5
3019
330
1E
100
AcDbEntity
  8
7
100
AcDbLine
 10
4.109251968503936
 20
6.781496062992125
 30
0.0
 11
4.109251968503936
 21
6.791338582677164
 31
0.0
  0
LINE
  5
301A
330
1E
100
AcDbEntity
  8
7
100
AcDbLine
 10
3.871062992125984
 20
6.788385826771653
 30
0.0
 11
3.872047244094487
 21
6.791338582677164
 31
0.0
  0
LINE
  5
301B
330
1E
100
AcDbEntity
  8
7
100
AcDbLine
 10
4.131889763779526
 20
6.81496062992126
 30
0.0
 11
4.13779527559055
 21
6.81496062992126
 31
0.0
  0
LINE
  5
301C
330
1E
100
AcDbEntity
  8
7
100
AcDbLine
 10
4.13779527559055
 20
6.89271653543307
 30
0.0
 11
4.131889763779526
 21
6.89271653543307
 31
0.0
  0
LINE
  5
301D
330
1E
100
AcDbEntity
  8
7
100
AcDbLine
 10
4.167322834645668
 20
6.785433070866141
 30
0.0
 11
4.167322834645668
 21
6.779527559055117
 31
0.0
  0
LINE
  5
301E
330
1E
100
AcDbEntity
  8
7
100
AcDbLine
 10
3.891732283464566
 20
7.01279527559055
 30
0.0
 11
3.89763779527559
 21
7.01279527559055
 31
0.0
  0
LINE
  5
301F
330
1E
100
AcDbEntity
  8
7
100
AcDbLine
 10
4.047244094488188
 20
6.977362204724409
 30
0.0
 11
4.047244094488188
 21
6.982283464566928
 31
0.0
  0
LINE
  5
3020
330
1E
100
AcDbEntity
  8
7
100
AcDbLine
 10
3.927165354330708
 20
6.977362204724409
 30
0.0
 11
3.927165354330708
 21
6.982283464566928
 31
0.0
  0
LINE
  5
3021
330
1E
100
AcDbEntity
  8
7
100
AcDbLine
 10
3.818897637795275
 20
6.131889763779527
 30
0.0
 11
3.878937007874015
 21
6.131889763779527
 31
0.0
  0
LINE
  5
3022
330
1E
100
AcDbEntity
  8
7
100
AcDbLine
 10
3.872047244094487
 20
6.96751968503937
 30
0.0
 11
3.871062992125984
 21
6.965551181102362
 31
0.0
  0
LINE
  5
3023
330
1E
100
AcDbEntity
  8
7
100
AcDbLine
 10
3.376968503937007
 20
6.974409448818897
 30
0.0
 11
3.092519685039369
 21
6.974409448818897
 31
0.0
  0
LINE
  5
3024
330
1E
100
AcDbEntity
  8
7
100
AcDbLine
 10
2.807086614173228
 20
6.950787401574802
 30
0.0
 11
3.092519685039369
 21
6.950787401574802
 31
0.0
  0
LINE
  5
3025
330
1E
100
AcDbEntity
  8
7
100
AcDbLine
 10
2.807086614173228
 20
6.974409448818897
 30
0.0
 11
3.092519685039369
 21
6.974409448818897
 31
0.0
  0
LINE
  5
3026
330
1E
100
AcDbEntity
  8
7
100
AcDbLine
 10
2.366141732283464
 20
6.131889763779527
 30
0.0
 11
2.366141732283464
 21
6.61023622047244
 31
0.0
  0
LINE
  5
3027
330
1E
100
AcDbEntity
  8
7
100
AcDbLine
 10
2.36023622047244
 20
6.116141732283464
 30
0.0
 11
2.366141732283464
 21
6.131889763779527
 31
0.0
  0
LINE
  5
3028
330
1E
100
AcDbEntity
  8
7
100
AcDbLine
 10
2.327755905511811
 20
6.116141732283464
 30
0.0
 11
2.36023622047244
 21
6.116141732283464
 31
0.0
  0
LINE
  5
302E
330
1E
100
AcDbEntity
  8
7
100
AcDbLine
 10
1.98523622047244
 20
6.701771653543307
 30
0.0
 11
1.98523622047244
 21
5.174212598425197
 31
0.0
  0
LINE
  5
3036
330
1E
100
AcDbEntity
  8
7
100
AcDbLine
 10
1.99015748031496
 20
6.729330708661417
 30
0.0
 11
1.986220472440944
 21
6.701771653543307
 31
0.0
  0
LINE
  5
3040
330
1E
100
AcDbEntity
  8
7
100
AcDbLine
 10
2.292322834645669
 20
7.01279527559055
 30
0.0
 11
2.292322834645669
 21
7.057086614173228
 31
0.0
  0
LINE
  5
3047
330
1E
100
AcDbEntity
  8
7
100
AcDbLine
 10
2.137795275590551
 20
6.977362204724409
 30
0.0
 11
2.257874015748031
 21
6.977362204724409
 31
0.0
  0
LINE
  5
304F
330
1E
100
AcDbEntity
  8
7
100
AcDbLine
 10
2.058070866141732
 20
6.918307086614173
 30
0.0
 11
2.054133858267716
 21
6.89271653543307
 31
0.0
  0
LINE
  5
3050
330
1E
100
AcDbEntity
  8
7
100
AcDbLine
 10
2.053149606299212
 20
6.89271653543307
 30
0.0
 11
2.053149606299212
 21
6.81496062992126
 31
0.0
  0
LINE
  5
3057
330
1E
100
AcDbEntity
  8
7
100
AcDbLine
 10
1.972440944881889
 20
6.779527559055117
 30
0.0
 11
2.01771653543307
 21
6.779527559055117
 31
0.0
  0
LINE
  5
3058
330
1E
100
AcDbEntity
  8
7
100
AcDbLine
 10
1.972440944881889
 20
5.095472440944881
 30
0.0
 11
2.01771653543307
 21
5.095472440944881
 31
0.0
  0
LINE
  5
305F
330
1E
100
AcDbEntity
  8
7
100
AcDbLine
 10
2.053149606299212
 20
4.982283464566928
 30
0.0
 11
2.053149606299212
 21
5.060039370078739
 31
0.0
  0
LINE
  5
306B
330
1E
100
AcDbEntity
  8
7
100
AcDbLine
 10
2.137795275590551
 20
4.89763779527559
 30
0.0
 11
2.257874015748031
 21
4.89763779527559
 31
0.0
  0
LINE
  5
3072
330
1E
100
AcDbEntity
  8
7
100
AcDbLine
 10
2.292322834645669
 20
4.862204724409449
 30
0.0
 11
2.292322834645669
 21
4.817913385826771
 31
0.0
  0
LINE
  5
307B
330
1E
100
AcDbEntity
  8
7
100
AcDbLine
 10
2.312992125984251
 20
5.083661417322834
 30
0.0
 11
2.312992125984251
 21
4.908464566929133
 31
0.0
  0
LINE
  5
3087
330
1E
100
AcDbEntity
  8
7
100
AcDbLine
 10
1.98523622047244
 20
6.701771653543307
 30
0.0
 11
1.996062992125984
 21
6.701771653543307
 31
0.0
  0
LINE
  5
3088
330
1E
100
AcDbEntity
  8
7
100
AcDbLine
 10
1.98523622047244
 20
5.174212598425197
 30
0.0
 11
1.996062992125984
 21
5.174212598425197
 31
0.0
  0
LINE
  5
3089
330
1E
100
AcDbEntity
  8
7
100
AcDbLine
 10
2.306102362204724
 20
5.744094488188975
 30
0.0
 11
2.306102362204724
 21
6.131889763779527
 31
0.0
  0
LINE
  5
308A
330
1E
100
AcDbEntity
  8
7
100
AcDbLine
 10
2.327755905511811
 20
5.758858267716535
 30
0.0
 11
2.306102362204724
 21
5.744094488188975
 31
0.0
  0
LINE
  5
308B
330
1E
100
AcDbEntity
  8
7
100
AcDbLine
 10
2.327755905511811
 20
6.116141732283464
 30
0.0
 11
2.306102362204724
 21
6.131889763779527
 31
0.0
  0
LINE
  5
308C
330
1E
100
AcDbEntity
  8
7
100
AcDbLine
 10
2.047244094488188
 20
6.89271653543307
 30
0.0
 11
2.053149606299212
 21
6.89271653543307
 31
0.0
  0
LINE
  5
308D
330
1E
100
AcDbEntity
  8
7
100
AcDbLine
 10
2.053149606299212
 20
6.81496062992126
 30
0.0
 11
2.047244094488188
 21
6.81496062992126
 31
0.0
  0
LINE
  5
308E
330
1E
100
AcDbEntity
  8
7
100
AcDbLine
 10
2.01771653543307
 20
6.785433070866141
 30
0.0
 11
2.01771653543307
 21
6.779527559055117
 31
0.0
  0
LINE
  5
308F
330
1E
100
AcDbEntity
  8
7
100
AcDbLine
 10
2.292322834645669
 20
7.01279527559055
 30
0.0
 11
2.287401574803149
 21
7.01279527559055
 31
0.0
  0
LINE
  5
3090
330
1E
100
AcDbEntity
  8
7
100
AcDbLine
 10
2.257874015748031
 20
6.977362204724409
 30
0.0
 11
2.257874015748031
 21
6.982283464566928
 31
0.0
  0
LINE
  5
3091
330
1E
100
AcDbEntity
  8
7
100
AcDbLine
 10
2.137795275590551
 20
6.977362204724409
 30
0.0
 11
2.137795275590551
 21
6.982283464566928
 31
0.0
  0
LINE
  5
3092
330
1E
100
AcDbEntity
  8
7
100
AcDbLine
 10
2.306102362204724
 20
5.744094488188975
 30
0.0
 11
2.306102362204724
 21
5.264763779527559
 31
0.0
  0
LINE
  5
3093
330
1E
100
AcDbEntity
  8
7
100
AcDbLine
 10
2.306102362204724
 20
6.131889763779527
 30
0.0
 11
2.306102362204724
 21
6.61023622047244
 31
0.0
  0
LINE
  5
3094
330
1E
100
AcDbEntity
  8
7
100
AcDbLine
 10
2.366141732283464
 20
6.131889763779527
 30
0.0
 11
2.306102362204724
 21
6.131889763779527
 31
0.0
  0
LINE
  5
3095
330
1E
100
AcDbEntity
  8
7
100
AcDbLine
 10
2.313976377952756
 20
6.965551181102362
 30
0.0
 11
2.312992125984251
 21
6.96751968503937
 31
0.0
  0
LINE
  5
309B
330
1E
100
AcDbEntity
  8
7
100
AcDbLine
 10
2.053149606299212
 20
5.060039370078739
 30
0.0
 11
2.047244094488188
 21
5.060039370078739
 31
0.0
  0
LINE
  5
309C
330
1E
100
AcDbEntity
  8
7
100
AcDbLine
 10
2.047244094488188
 20
4.982283464566928
 30
0.0
 11
2.053149606299212
 21
4.982283464566928
 31
0.0
  0
LINE
  5
309D
330
1E
100
AcDbEntity
  8
7
100
AcDbLine
 10
2.01771653543307
 20
5.090551181102362
 30
0.0
 11
2.01771653543307
 21
5.095472440944881
 31
0.0
  0
LINE
  5
309E
330
1E
100
AcDbEntity
  8
7
100
AcDbLine
 10
2.292322834645669
 20
4.862204724409449
 30
0.0
 11
2.287401574803149
 21
4.862204724409449
 31
0.0
  0
LINE
  5
309F
330
1E
100
AcDbEntity
  8
7
100
AcDbLine
 10
2.137795275590551
 20
4.89763779527559
 30
0.0
 11
2.137795275590551
 21
4.89271653543307
 31
0.0
  0
LINE
  5
30A0
330
1E
100
AcDbEntity
  8
7
100
AcDbLine
 10
2.257874015748031
 20
4.89763779527559
 30
0.0
 11
2.257874015748031
 21
4.89271653543307
 31
0.0
  0
LINE
  5
30A1
330
1E
100
AcDbEntity
  8
7
100
AcDbLine
 10
2.366141732283464
 20
5.744094488188975
 30
0.0
 11
2.306102362204724
 21
5.744094488188975
 31
0.0
  0
LINE
  5
30A2
330
1E
100
AcDbEntity
  8
7
100
AcDbLine
 10
2.312992125984251
 20
4.908464566929133
 30
0.0
 11
2.313976377952756
 21
4.909448818897637
 31
0.0
  0
LINE
  5
30A3
330
1E
100
AcDbEntity
  8
7
100
AcDbLine
 10
1.93503937007874
 20
3.963582677165354
 30
0.0
 11
1.936023622047244
 21
3.903543307086613
 31
0.0
  0
LINE
  5
30A4
330
1E
100
AcDbEntity
  8
7
100
AcDbLine
 10
4.249015748031495
 20
3.903543307086613
 30
0.0
 11
4.249999999999999
 21
3.963582677165354
 31
0.0
  0
LINE
  5
30A5
330
1E
100
AcDbEntity
  8
7
100
AcDbLine
 10
2.173228346456693
 20
3.933070866141732
 30
0.0
 11
4.020669291338582
 21
3.933070866141732
 31
0.0
  0
LINE
  5
30A6
330
1E
100
AcDbEntity
  8
7
100
AcDbLine
 10
4.019685039370077
 20
3.963582677165354
 30
0.0
 11
3.89763779527559
 21
3.963582677165354
 31
0.0
  0
LINE
  5
30A7
330
1E
100
AcDbEntity
  8
7
100
AcDbLine
 10
2.287401574803149
 20
3.963582677165354
 30
0.0
 11
3.89763779527559
 21
3.963582677165354
 31
0.0
  0
LINE
  5
30A8
330
1E
100
AcDbEntity
  8
7
100
AcDbLine
 10
2.173228346456693
 20
3.963582677165354
 30
0.0
 11
2.287401574803149
 21
3.963582677165354
 31
0.0
  0
LINE
  5
30A9
330
1E
100
AcDbEntity
  8
7
100
AcDbLine
 10
2.173228346456693
 20
3.933070866141732
 30
0.0
 11
2.173228346456693
 21
3.963582677165354
 31
0.0
  0
LINE
  5
30AA
330
1E
100
AcDbEntity
  8
7
100
AcDbLine
 10
4.020669291338582
 20
3.903543307086613
 30
0.0
 11
2.170275590551181
 21
3.903543307086613
 31
0.0
  0
LINE
  5
30B6
330
1E
100
AcDbEntity
  8
7
100
AcDbLine
 10
4.214566929133857
 20
3.963582677165354
 30
0.0
 11
4.21259842519685
 21
3.963582677165354
 31
0.0
  0
LINE
  5
30BD
330
1E
100
AcDbEntity
  8
7
100
AcDbLine
 10
4.21259842519685
 20
3.963582677165354
 30
0.0
 11
4.211614173228346
 21
3.933070866141732
 31
0.0
  0
LINE
  5
30BE
330
1E
100
AcDbEntity
  8
7
100
AcDbLine
 10
4.182086614173227
 20
3.963582677165354
 30
0.0
 11
4.089566929133857
 21
3.963582677165354
 31
0.0
  0
LINE
  5
30C5
330
1E
100
AcDbEntity
  8
7
100
AcDbLine
 10
4.198818897637794
 20
3.963582677165354
 30
0.0
 11
4.176181102362204
 21
3.963582677165354
 31
0.0
  0
LINE
  5
30DF
330
1E
100
AcDbEntity
  8
7
100
AcDbLine
 10
2.001968503937007
 20
3.963582677165354
 30
0.0
 11
2.08267716535433
 21
3.963582677165354
 31
0.0
  0
LINE
  5
30E0
330
1E
100
AcDbEntity
  8
7
100
AcDbLine
 10
2.001968503937007
 20
3.963582677165354
 30
0.0
 11
2.002952755905511
 21
3.933070866141732
 31
0.0
  0
LINE
  5
30E8
330
1E
100
AcDbEntity
  8
7
100
AcDbLine
 10
2.173228346456693
 20
3.963582677165354
 30
0.0
 11
2.168307086614173
 21
3.963582677165354
 31
0.0
  0
LINE
  5
30FD
330
1E
100
AcDbEntity
  8
7
100
AcDbLine
 10
2.081692913385826
 20
3.909448818897637
 30
0.0
 11
2.081692913385826
 21
3.919291338582677
 31
0.0
  0
LINE
  5
30FE
330
1E
100
AcDbEntity
  8
7
100
AcDbLine
 10
2.081692913385826
 20
3.919291338582677
 30
0.0
 11
2.08267716535433
 21
3.933070866141732
 31
0.0
  0
LINE
  5
3105
330
1E
100
AcDbEntity
  8
7
100
AcDbLine
 10
2.084645669291338
 20
3.903543307086613
 30
0.0
 11
2.002952755905511
 21
3.903543307086613
 31
0.0
  0
LINE
  5
3106
330
1E
100
AcDbEntity
  8
7
100
AcDbLine
 10
1.972440944881889
 20
3.984251968503937
 30
0.0
 11
1.972440944881889
 21
3.963582677165354
 31
0.0
  0
LINE
  5
3107
330
1E
100
AcDbEntity
  8
7
100
AcDbLine
 10
4.211614173228346
 20
3.984251968503937
 30
0.0
 11
4.21259842519685
 21
3.963582677165354
 31
0.0
  0
LINE
  5
3108
330
1E
100
AcDbEntity
  8
7
100
AcDbLine
 10
2.404527559055118
 20
4.073818897637795
 30
0.0
 11
3.780511811023622
 21
4.073818897637795
 31
0.0
  0
LINE
  5
310E
330
1E
100
AcDbEntity
  8
7
100
AcDbLine
 10
2.287401574803149
 20
3.963582677165354
 30
0.0
 11
2.292322834645669
 21
3.984251968503937
 31
0.0
  0
LINE
  5
310F
330
1E
100
AcDbEntity
  8
7
100
AcDbLine
 10
3.89763779527559
 20
3.963582677165354
 30
0.0
 11
3.891732283464566
 21
3.984251968503937
 31
0.0
  0
LINE
  5
3110
330
1E
100
AcDbEntity
  8
7
100
AcDbLine
 10
3.78248031496063
 20
3.984251968503937
 30
0.0
 11
3.891732283464566
 21
3.984251968503937
 31
0.0
  0
LINE
  5
3111
330
1E
100
AcDbEntity
  8
7
100
AcDbLine
 10
3.78248031496063
 20
3.984251968503937
 30
0.0
 11
3.780511811023622
 21
4.073818897637795
 31
0.0
  0
LINE
  5
3112
330
1E
100
AcDbEntity
  8
7
100
AcDbLine
 10
1.969488188976377
 20
3.903543307086613
 30
0.0
 11
2.002952755905511
 21
3.903543307086613
 31
0.0
  0
LINE
  5
3123
330
1E
100
AcDbEntity
  8
7
100
AcDbLine
 10
4.244094488188975
 20
3.903543307086613
 30
0.0
 11
4.249015748031495
 21
3.903543307086613
 31
0.0
  0
LINE
  5
312A
330
1E
100
AcDbEntity
  8
7
100
AcDbLine
 10
4.182086614173227
 20
3.903543307086613
 30
0.0
 11
4.088582677165353
 21
3.903543307086613
 31
0.0
  0
LINE
  5
3169
330
1E
100
AcDbEntity
  8
7
100
AcDbLine
 10
4.047244094488188
 20
3.984251968503937
 30
0.0
 11
3.927165354330708
 21
3.984251968503937
 31
0.0
  0
LINE
  5
3178
330
1E
100
AcDbEntity
  8
7
100
AcDbLine
 10
4.211614173228346
 20
3.984251968503937
 30
0.0
 11
4.167322834645668
 21
3.984251968503937
 31
0.0
  0
LINE
  5
3179
330
1E
100
AcDbEntity
  8
7
100
AcDbLine
 10
4.198818897637794
 20
3.984251968503937
 30
0.0
 11
4.188976377952755
 21
4.278543307086613
 31
0.0
  0
LINE
  5
317A
330
1E
100
AcDbEntity
  8
7
100
AcDbLine
 10
4.109251968503936
 20
4.278543307086613
 30
0.0
 11
4.109251968503936
 21
3.984251968503937
 31
0.0
  0
LINE
  5
317B
330
1E
100
AcDbEntity
  8
7
100
AcDbLine
 10
2.075787401574803
 20
4.278543307086613
 30
0.0
 11
2.075787401574803
 21
3.984251968503937
 31
0.0
  0
LINE
  5
317C
330
1E
100
AcDbEntity
  8
7
100
AcDbLine
 10
4.13779527559055
 20
3.963582677165354
 30
0.0
 11
4.131889763779526
 21
3.984251968503937
 31
0.0
  0
LINE
  5
317D
330
1E
100
AcDbEntity
  8
7
100
AcDbLine
 10
4.167322834645668
 20
3.963582677165354
 30
0.0
 11
4.167322834645668
 21
3.984251968503937
 31
0.0
  0
LINE
  5
317E
330
1E
100
AcDbEntity
  8
7
100
AcDbLine
 10
3.927165354330708
 20
3.984251968503937
 30
0.0
 11
3.927165354330708
 21
3.963582677165354
 31
0.0
  0
LINE
  5
317F
330
1E
100
AcDbEntity
  8
7
100
AcDbLine
 10
4.047244094488188
 20
3.984251968503937
 30
0.0
 11
4.047244094488188
 21
3.963582677165354
 31
0.0
  0
LINE
  5
3180
330
1E
100
AcDbEntity
  8
7
100
AcDbLine
 10
3.871062992125984
 20
4.073818897637795
 30
0.0
 11
3.872047244094487
 21
3.984251968503937
 31
0.0
  0
LINE
  5
3191
330
1E
100
AcDbEntity
  8
7
100
AcDbLine
 10
1.972440944881889
 20
3.933070866141732
 30
0.0
 11
1.972440944881889
 21
3.963582677165354
 31
0.0
  0
LINE
  5
3192
330
1E
100
AcDbEntity
  8
7
100
AcDbLine
 10
1.98523622047244
 20
3.984251968503937
 30
0.0
 11
1.996062992125984
 21
4.278543307086613
 31
0.0
  0
LINE
  5
3193
330
1E
100
AcDbEntity
  8
7
100
AcDbLine
 10
2.047244094488188
 20
3.963582677165354
 30
0.0
 11
2.053149606299212
 21
3.984251968503937
 31
0.0
  0
LINE
  5
3194
330
1E
100
AcDbEntity
  8
7
100
AcDbLine
 10
2.01771653543307
 20
3.963582677165354
 30
0.0
 11
2.01771653543307
 21
3.984251968503937
 31
0.0
  0
LINE
  5
3195
330
1E
100
AcDbEntity
  8
7
100
AcDbLine
 10
2.137795275590551
 20
3.984251968503937
 30
0.0
 11
2.137795275590551
 21
3.963582677165354
 31
0.0
  0
LINE
  5
3196
330
1E
100
AcDbEntity
  8
7
100
AcDbLine
 10
2.257874015748031
 20
3.984251968503937
 30
0.0
 11
2.257874015748031
 21
3.963582677165354
 31
0.0
  0
LINE
  5
3197
330
1E
100
AcDbEntity
  8
7
100
AcDbLine
 10
2.312992125984251
 20
3.984251968503937
 30
0.0
 11
2.313976377952756
 21
4.073818897637795
 31
0.0
  0
LINE
  5
31B0
330
1E
100
AcDbEntity
  8
7
100
AcDbLine
 10
4.214566929133857
 20
3.903543307086613
 30
0.0
 11
4.214566929133857
 21
3.963582677165354
 31
0.0
  0
LINE
  5
31B1
330
1E
100
AcDbEntity
  8
7
100
AcDbLine
 10
4.020669291338582
 20
3.903543307086613
 30
0.0
 11
4.019685039370077
 21
3.963582677165354
 31
0.0
  0
LINE
  5
31B2
330
1E
100
AcDbEntity
  8
7
100
AcDbLine
 10
4.088582677165353
 20
3.903543307086613
 30
0.0
 11
4.089566929133857
 21
3.963582677165354
 31
0.0
  0
LINE
  5
31B3
330
1E
100
AcDbEntity
  8
7
100
AcDbLine
 10
1.969488188976377
 20
3.903543307086613
 30
0.0
 11
1.969488188976377
 21
3.963582677165354
 31
0.0
  0
LINE
  5
31B7
330
1E
100
AcDbEntity
  8
7
100
AcDbLine
 10
1.973425196850393
 20
3.933070866141732
 30
0.0
 11
1.977362204724409
 21
3.919291338582677
 31
0.0
  0
LINE
  5
31B8
330
1E
100
AcDbEntity
  8
7
100
AcDbLine
 10
1.977362204724409
 20
3.919291338582677
 30
0.0
 11
1.988188976377952
 21
3.908464566929133
 31
0.0
  0
LINE
  5
31B9
330
1E
100
AcDbEntity
  8
7
100
AcDbLine
 10
1.988188976377952
 20
3.908464566929133
 30
0.0
 11
2.002952755905511
 21
3.904527559055118
 31
0.0
  0
LINE
  5
31BA
330
1E
100
AcDbEntity
  8
7
100
AcDbLine
 10
4.182086614173227
 20
3.903543307086613
 30
0.0
 11
4.182086614173227
 21
3.907480314960629
 31
0.0
  0
LINE
  5
31BB
330
1E
100
AcDbEntity
  8
7
100
AcDbLine
 10
4.182086614173227
 20
3.907480314960629
 30
0.0
 11
4.182086614173227
 21
3.918307086614173
 31
0.0
  0
LINE
  5
31BC
330
1E
100
AcDbEntity
  8
7
100
AcDbLine
 10
4.182086614173227
 20
3.918307086614173
 30
0.0
 11
4.182086614173227
 21
3.933070866141732
 31
0.0
  0
LINE
  5
31BD
330
1E
100
AcDbEntity
  8
7
100
AcDbLine
 10
1.972440944881889
 20
3.933070866141732
 30
0.0
 11
1.977362204724409
 21
3.933070866141732
 31
0.0
  0
LINE
  5
31BE
330
1E
100
AcDbEntity
  8
7
100
AcDbLine
 10
1.977362204724409
 20
3.933070866141732
 30
0.0
 11
1.988188976377952
 21
3.933070866141732
 31
0.0
  0
LINE
  5
31BF
330
1E
100
AcDbEntity
  8
7
100
AcDbLine
 10
1.988188976377952
 20
3.933070866141732
 30
0.0
 11
2.002952755905511
 21
3.933070866141732
 31
0.0
  0
LINE
  5
31C0
330
1E
100
AcDbEntity
  8
7
100
AcDbLine
 10
4.182086614173227
 20
3.933070866141732
 30
0.0
 11
4.196850393700787
 21
3.933070866141732
 31
0.0
  0
LINE
  5
31C1
330
1E
100
AcDbEntity
  8
7
100
AcDbLine
 10
4.196850393700787
 20
3.933070866141732
 30
0.0
 11
4.20767716535433
 21
3.933070866141732
 31
0.0
  0
LINE
  5
31C2
330
1E
100
AcDbEntity
  8
7
100
AcDbLine
 10
4.20767716535433
 20
3.933070866141732
 30
0.0
 11
4.211614173228346
 21
3.933070866141732
 31
0.0
  0
LINE
  5
31C3
330
1E
100
AcDbEntity
  8
7
100
AcDbLine
 10
1.972440944881889
 20
3.984251968503937
 30
0.0
 11
2.01771653543307
 21
3.984251968503937
 31
0.0
  0
LINE
  5
31C4
330
1E
100
AcDbEntity
  8
7
100
AcDbLine
 10
2.01771653543307
 20
3.984251968503937
 30
0.0
 11
2.035433070866141
 21
3.984251968503937
 31
0.0
  0
LINE
  5
31C5
330
1E
100
AcDbEntity
  8
7
100
AcDbLine
 10
2.035433070866141
 20
3.984251968503937
 30
0.0
 11
2.048228346456693
 21
3.984251968503937
 31
0.0
  0
LINE
  5
31C6
330
1E
100
AcDbEntity
  8
7
100
AcDbLine
 10
2.048228346456693
 20
3.984251968503937
 30
0.0
 11
2.053149606299212
 21
3.984251968503937
 31
0.0
  0
LINE
  5
31C7
330
1E
100
AcDbEntity
  8
7
100
AcDbLine
 10
2.053149606299212
 20
3.984251968503937
 30
0.0
 11
2.057086614173228
 21
3.984251968503937
 31
0.0
  0
LINE
  5
31C8
330
1E
100
AcDbEntity
  8
7
100
AcDbLine
 10
2.057086614173228
 20
3.984251968503937
 30
0.0
 11
2.068897637795275
 21
3.984251968503937
 31
0.0
  0
LINE
  5
31C9
330
1E
100
AcDbEntity
  8
7
100
AcDbLine
 10
2.068897637795275
 20
3.984251968503937
 30
0.0
 11
2.08759842519685
 21
3.984251968503937
 31
0.0
  0
LINE
  5
31CA
330
1E
100
AcDbEntity
  8
7
100
AcDbLine
 10
2.08759842519685
 20
3.984251968503937
 30
0.0
 11
2.111220472440944
 21
3.984251968503937
 31
0.0
  0
LINE
  5
31CB
330
1E
100
AcDbEntity
  8
7
100
AcDbLine
 10
2.111220472440944
 20
3.984251968503937
 30
0.0
 11
2.137795275590551
 21
3.984251968503937
 31
0.0
  0
LINE
  5
31CC
330
1E
100
AcDbEntity
  8
7
100
AcDbLine
 10
2.137795275590551
 20
3.984251968503937
 30
0.0
 11
2.257874015748031
 21
3.984251968503937
 31
0.0
  0
LINE
  5
31CD
330
1E
100
AcDbEntity
  8
7
100
AcDbLine
 10
2.257874015748031
 20
3.984251968503937
 30
0.0
 11
2.274606299212598
 21
3.984251968503937
 31
0.0
  0
LINE
  5
31CE
330
1E
100
AcDbEntity
  8
7
100
AcDbLine
 10
2.274606299212598
 20
3.984251968503937
 30
0.0
 11
2.288385826771653
 21
3.984251968503937
 31
0.0
  0
LINE
  5
31CF
330
1E
100
AcDbEntity
  8
7
100
AcDbLine
 10
2.288385826771653
 20
3.984251968503937
 30
0.0
 11
2.292322834645669
 21
3.984251968503937
 31
0.0
  0
LINE
  5
31D0
330
1E
100
AcDbEntity
  8
7
100
AcDbLine
 10
4.167322834645668
 20
3.984251968503937
 30
0.0
 11
4.149606299212598
 21
3.984251968503937
 31
0.0
  0
LINE
  5
31D1
330
1E
100
AcDbEntity
  8
7
100
AcDbLine
 10
4.149606299212598
 20
3.984251968503937
 30
0.0
 11
4.136811023622046
 21
3.984251968503937
 31
0.0
  0
LINE
  5
31D2
330
1E
100
AcDbEntity
  8
7
100
AcDbLine
 10
4.136811023622046
 20
3.984251968503937
 30
0.0
 11
4.131889763779526
 21
3.984251968503937
 31
0.0
  0
LINE
  5
31D3
330
1E
100
AcDbEntity
  8
7
100
AcDbLine
 10
4.131889763779526
 20
3.984251968503937
 30
0.0
 11
4.127952755905511
 21
3.984251968503937
 31
0.0
  0
LINE
  5
31D4
330
1E
100
AcDbEntity
  8
7
100
AcDbLine
 10
4.127952755905511
 20
3.984251968503937
 30
0.0
 11
4.116141732283463
 21
3.984251968503937
 31
0.0
  0
LINE
  5
31D5
330
1E
100
AcDbEntity
  8
7
100
AcDbLine
 10
4.116141732283463
 20
3.984251968503937
 30
0.0
 11
4.097440944881888
 21
3.984251968503937
 31
0.0
  0
LINE
  5
31D6
330
1E
100
AcDbEntity
  8
7
100
AcDbLine
 10
4.097440944881888
 20
3.984251968503937
 30
0.0
 11
4.073818897637794
 21
3.984251968503937
 31
0.0
  0
LINE
  5
31D7
330
1E
100
AcDbEntity
  8
7
100
AcDbLine
 10
4.073818897637794
 20
3.984251968503937
 30
0.0
 11
4.047244094488188
 21
3.984251968503937
 31
0.0
  0
LINE
  5
31D8
330
1E
100
AcDbEntity
  8
7
100
AcDbLine
 10
3.927165354330708
 20
3.984251968503937
 30
0.0
 11
3.909448818897637
 21
3.984251968503937
 31
0.0
  0
LINE
  5
31D9
330
1E
100
AcDbEntity
  8
7
100
AcDbLine
 10
3.909448818897637
 20
3.984251968503937
 30
0.0
 11
3.896653543307086
 21
3.984251968503937
 31
0.0
  0
LINE
  5
31DA
330
1E
100
AcDbEntity
  8
7
100
AcDbLine
 10
3.896653543307086
 20
3.984251968503937
 30
0.0
 11
3.891732283464566
 21
3.984251968503937
 31
0.0
  0
LINE
  5
31DB
330
1E
100
AcDbEntity
  8
7
100
AcDbLine
 10
4.165354330708661
 20
4.278543307086613
 30
0.0
 11
4.183070866141731
 21
4.278543307086613
 31
0.0
  0
LINE
  5
31DC
330
1E
100
AcDbEntity
  8
7
100
AcDbLine
 10
4.183070866141731
 20
4.278543307086613
 30
0.0
 11
4.188976377952755
 21
4.278543307086613
 31
0.0
  0
LINE
  5
31DD
330
1E
100
AcDbEntity
  8
7
100
AcDbLine
 10
2.075787401574803
 20
4.278543307086613
 30
0.0
 11
4.109251968503936
 21
4.278543307086613
 31
0.0
  0
LINE
  5
31DE
330
1E
100
AcDbEntity
  8
7
100
AcDbLine
 10
4.109251968503936
 20
4.278543307086613
 30
0.0
 11
4.139763779527558
 21
4.278543307086613
 31
0.0
  0
LINE
  5
31DF
330
1E
100
AcDbEntity
  8
7
100
AcDbLine
 10
4.139763779527558
 20
4.278543307086613
 30
0.0
 11
4.165354330708661
 21
4.278543307086613
 31
0.0
  0
LINE
  5
31E0
330
1E
100
AcDbEntity
  8
7
100
AcDbLine
 10
2.075787401574803
 20
4.278543307086613
 30
0.0
 11
2.045275590551181
 21
4.278543307086613
 31
0.0
  0
LINE
  5
31E1
330
1E
100
AcDbEntity
  8
7
100
AcDbLine
 10
2.045275590551181
 20
4.278543307086613
 30
0.0
 11
2.018700787401574
 21
4.278543307086613
 31
0.0
  0
LINE
  5
31E2
330
1E
100
AcDbEntity
  8
7
100
AcDbLine
 10
2.018700787401574
 20
4.278543307086613
 30
0.0
 11
2.001968503937007
 21
4.278543307086613
 31
0.0
  0
LINE
  5
31E3
330
1E
100
AcDbEntity
  8
7
100
AcDbLine
 10
2.001968503937007
 20
4.278543307086613
 30
0.0
 11
1.996062992125984
 21
4.278543307086613
 31
0.0
  0
LINE
  5
31E4
330
1E
100
AcDbEntity
  8
7
100
AcDbLine
 10
3.780511811023622
 20
4.073818897637795
 30
0.0
 11
3.808070866141732
 21
4.073818897637795
 31
0.0
  0
LINE
  5
31E5
330
1E
100
AcDbEntity
  8
7
100
AcDbLine
 10
3.808070866141732
 20
4.073818897637795
 30
0.0
 11
3.833661417322834
 21
4.073818897637795
 31
0.0
  0
LINE
  5
31E6
330
1E
100
AcDbEntity
  8
7
100
AcDbLine
 10
3.833661417322834
 20
4.073818897637795
 30
0.0
 11
3.853346456692913
 21
4.073818897637795
 31
0.0
  0
LINE
  5
31E7
330
1E
100
AcDbEntity
  8
7
100
AcDbLine
 10
3.853346456692913
 20
4.073818897637795
 30
0.0
 11
3.866141732283464
 21
4.073818897637795
 31
0.0
  0
LINE
  5
31E8
330
1E
100
AcDbEntity
  8
7
100
AcDbLine
 10
3.866141732283464
 20
4.073818897637795
 30
0.0
 11
3.871062992125984
 21
4.073818897637795
 31
0.0
  0
LINE
  5
31E9
330
1E
100
AcDbEntity
  8
7
100
AcDbLine
 10
2.313976377952756
 20
4.073818897637795
 30
0.0
 11
2.318897637795275
 21
4.073818897637795
 31
0.0
  0
LINE
  5
31EA
330
1E
100
AcDbEntity
  8
7
100
AcDbLine
 10
2.318897637795275
 20
4.073818897637795
 30
0.0
 11
2.331692913385826
 21
4.073818897637795
 31
0.0
  0
LINE
  5
31EB
330
1E
100
AcDbEntity
  8
7
100
AcDbLine
 10
2.331692913385826
 20
4.073818897637795
 30
0.0
 11
2.351377952755905
 21
4.073818897637795
 31
0.0
  0
LINE
  5
31EC
330
1E
100
AcDbEntity
  8
7
100
AcDbLine
 10
2.351377952755905
 20
4.073818897637795
 30
0.0
 11
2.375984251968503
 21
4.073818897637795
 31
0.0
  0
LINE
  5
31ED
330
1E
100
AcDbEntity
  8
7
100
AcDbLine
 10
2.375984251968503
 20
4.073818897637795
 30
0.0
 11
2.404527559055118
 21
4.073818897637795
 31
0.0
  0
LINE
  5
31EE
330
1E
100
AcDbEntity
  8
7
100
AcDbLine
 10
4.089566929133857
 20
3.933070866141732
 30
0.0
 11
4.182086614173227
 21
3.933070866141732
 31
0.0
  0
LINE
  5
31EF
330
1E
100
AcDbEntity
  8
7
100
AcDbLine
 10
4.182086614173227
 20
3.933070866141732
 30
0.0
 11
4.182086614173227
 21
3.963582677165354
 31
0.0
  0
LINE
  5
31F0
330
1E
100
AcDbEntity
  8
7
100
AcDbLine
 10
2.170275590551181
 20
3.903543307086613
 30
0.0
 11
2.15748031496063
 21
3.903543307086613
 31
0.0
  0
LINE
  5
31F1
330
1E
100
AcDbEntity
  8
7
100
AcDbLine
 10
2.15748031496063
 20
3.903543307086613
 30
0.0
 11
2.138779527559055
 21
3.903543307086613
 31
0.0
  0
LINE
  5
31F2
330
1E
100
AcDbEntity
  8
7
100
AcDbLine
 10
2.138779527559055
 20
3.903543307086613
 30
0.0
 11
2.117125984251968
 21
3.903543307086613
 31
0.0
  0
LINE
  5
31F3
330
1E
100
AcDbEntity
  8
7
100
AcDbLine
 10
2.117125984251968
 20
3.903543307086613
 30
0.0
 11
2.097440944881889
 21
3.903543307086613
 31
0.0
  0
LINE
  5
31F4
330
1E
100
AcDbEntity
  8
7
100
AcDbLine
 10
2.097440944881889
 20
3.903543307086613
 30
0.0
 11
2.084645669291338
 21
3.903543307086613
 31
0.0
  0
LINE
  5
31F5
330
1E
100
AcDbEntity
  8
7
100
AcDbLine
 10
4.020669291338582
 20
3.903543307086613
 30
0.0
 11
4.025590551181101
 21
3.903543307086613
 31
0.0
  0
LINE
  5
31F6
330
1E
100
AcDbEntity
  8
7
100
AcDbLine
 10
4.025590551181101
 20
3.903543307086613
 30
0.0
 11
4.038385826771652
 21
3.903543307086613
 31
0.0
  0
LINE
  5
31F7
330
1E
100
AcDbEntity
  8
7
100
AcDbLine
 10
4.038385826771652
 20
3.903543307086613
 30
0.0
 11
4.05511811023622
 21
3.903543307086613
 31
0.0
  0
LINE
  5
31F8
330
1E
100
AcDbEntity
  8
7
100
AcDbLine
 10
4.05511811023622
 20
3.903543307086613
 30
0.0
 11
4.071850393700787
 21
3.903543307086613
 31
0.0
  0
LINE
  5
31F9
330
1E
100
AcDbEntity
  8
7
100
AcDbLine
 10
4.071850393700787
 20
3.903543307086613
 30
0.0
 11
4.084645669291337
 21
3.903543307086613
 31
0.0
  0
LINE
  5
31FA
330
1E
100
AcDbEntity
  8
7
100
AcDbLine
 10
4.084645669291337
 20
3.903543307086613
 30
0.0
 11
4.088582677165353
 21
3.903543307086613
 31
0.0
  0
LINE
  5
31FB
330
1E
100
AcDbEntity
  8
7
100
AcDbLine
 10
4.214566929133857
 20
3.903543307086613
 30
0.0
 11
4.182086614173227
 21
3.903543307086613
 31
0.0
  0
LINE
  5
31FC
330
1E
100
AcDbEntity
  8
7
100
AcDbLine
 10
4.182086614173227
 20
3.903543307086613
 30
0.0
 11
4.160433070866141
 21
3.903543307086613
 31
0.0
  0
LINE
  5
31FD
330
1E
100
AcDbEntity
  8
7
100
AcDbLine
 10
4.160433070866141
 20
3.903543307086613
 30
0.0
 11
4.15255905511811
 21
3.903543307086613
 31
0.0
  0
LINE
  5
31FE
330
1E
100
AcDbEntity
  8
7
100
AcDbLine
 10
4.214566929133857
 20
3.903543307086613
 30
0.0
 11
4.232283464566928
 21
3.903543307086613
 31
0.0
  0
LINE
  5
31FF
330
1E
100
AcDbEntity
  8
7
100
AcDbLine
 10
4.232283464566928
 20
3.903543307086613
 30
0.0
 11
4.244094488188975
 21
3.903543307086613
 31
0.0
  0
LINE
  5
3200
330
1E
100
AcDbEntity
  8
7
100
AcDbLine
 10
2.031496062992125
 20
3.903543307086613
 30
0.0
 11
2.023622047244094
 21
3.903543307086613
 31
0.0
  0
LINE
  5
3201
330
1E
100
AcDbEntity
  8
7
100
AcDbLine
 10
2.023622047244094
 20
3.903543307086613
 30
0.0
 11
2.002952755905511
 21
3.903543307086613
 31
0.0
  0
LINE
  5
3202
330
1E
100
AcDbEntity
  8
7
100
AcDbLine
 10
1.936023622047244
 20
3.903543307086613
 30
0.0
 11
1.939960629921259
 21
3.903543307086613
 31
0.0
  0
LINE
  5
3203
330
1E
100
AcDbEntity
  8
7
100
AcDbLine
 10
1.939960629921259
 20
3.903543307086613
 30
0.0
 11
1.952755905511811
 21
3.903543307086613
 31
0.0
  0
LINE
  5
3204
330
1E
100
AcDbEntity
  8
7
100
AcDbLine
 10
1.952755905511811
 20
3.903543307086613
 30
0.0
 11
1.969488188976377
 21
3.903543307086613
 31
0.0
  0
LINE
  5
3205
330
1E
100
AcDbEntity
  8
7
100
AcDbLine
 10
2.404527559055118
 20
4.073818897637795
 30
0.0
 11
2.40255905511811
 21
3.984251968503937
 31
0.0
  0
LINE
  5
3206
330
1E
100
AcDbEntity
  8
7
100
AcDbLine
 10
2.40255905511811
 20
3.984251968503937
 30
0.0
 11
2.292322834645669
 21
3.984251968503937
 31
0.0
  0
LINE
  5
3207
330
1E
100
AcDbEntity
  8
7
100
AcDbLine
 10
2.002952755905511
 20
3.903543307086613
 30
0.0
 11
2.002952755905511
 21
3.907480314960629
 31
0.0
  0
LINE
  5
3208
330
1E
100
AcDbEntity
  8
7
100
AcDbLine
 10
2.002952755905511
 20
3.907480314960629
 30
0.0
 11
2.002952755905511
 21
3.918307086614173
 31
0.0
  0
LINE
  5
3209
330
1E
100
AcDbEntity
  8
7
100
AcDbLine
 10
2.002952755905511
 20
3.918307086614173
 30
0.0
 11
2.002952755905511
 21
3.933070866141732
 31
0.0
  0
LINE
  5
320A
330
1E
100
AcDbEntity
  8
7
100
AcDbLine
 10
2.081692913385826
 20
3.909448818897637
 30
0.0
 11
2.08267716535433
 21
3.905511811023622
 31
0.0
  0
LINE
  5
320B
330
1E
100
AcDbEntity
  8
7
100
AcDbLine
 10
2.08267716535433
 20
3.905511811023622
 30
0.0
 11
2.084645669291338
 21
3.903543307086613
 31
0.0
  0
LINE
  5
320C
330
1E
100
AcDbEntity
  8
7
100
AcDbLine
 10
1.93503937007874
 20
3.963582677165354
 30
0.0
 11
1.938976377952755
 21
3.963582677165354
 31
0.0
  0
LINE
  5
320D
330
1E
100
AcDbEntity
  8
7
100
AcDbLine
 10
1.938976377952755
 20
3.963582677165354
 30
0.0
 11
1.951771653543307
 21
3.963582677165354
 31
0.0
  0
LINE
  5
320E
330
1E
100
AcDbEntity
  8
7
100
AcDbLine
 10
1.951771653543307
 20
3.963582677165354
 30
0.0
 11
1.969488188976377
 21
3.963582677165354
 31
0.0
  0
LINE
  5
320F
330
1E
100
AcDbEntity
  8
7
100
AcDbLine
 10
2.168307086614173
 20
3.963582677165354
 30
0.0
 11
2.155511811023622
 21
3.963582677165354
 31
0.0
  0
LINE
  5
3210
330
1E
100
AcDbEntity
  8
7
100
AcDbLine
 10
2.155511811023622
 20
3.963582677165354
 30
0.0
 11
2.137795275590551
 21
3.963582677165354
 31
0.0
  0
LINE
  5
3211
330
1E
100
AcDbEntity
  8
7
100
AcDbLine
 10
2.137795275590551
 20
3.963582677165354
 30
0.0
 11
2.118110236220472
 21
3.963582677165354
 31
0.0
  0
LINE
  5
3212
330
1E
100
AcDbEntity
  8
7
100
AcDbLine
 10
2.118110236220472
 20
3.963582677165354
 30
0.0
 11
2.099409448818897
 21
3.963582677165354
 31
0.0
  0
LINE
  5
3213
330
1E
100
AcDbEntity
  8
7
100
AcDbLine
 10
2.099409448818897
 20
3.963582677165354
 30
0.0
 11
2.08759842519685
 21
3.963582677165354
 31
0.0
  0
LINE
  5
3214
330
1E
100
AcDbEntity
  8
7
100
AcDbLine
 10
2.08759842519685
 20
3.963582677165354
 30
0.0
 11
2.08267716535433
 21
3.963582677165354
 31
0.0
  0
LINE
  5
3215
330
1E
100
AcDbEntity
  8
7
100
AcDbLine
 10
1.969488188976377
 20
3.963582677165354
 30
0.0
 11
1.972440944881889
 21
3.963582677165354
 31
0.0
  0
LINE
  5
3216
330
1E
100
AcDbEntity
  8
7
100
AcDbLine
 10
1.972440944881889
 20
3.963582677165354
 30
0.0
 11
1.976377952755905
 21
3.963582677165354
 31
0.0
  0
LINE
  5
3217
330
1E
100
AcDbEntity
  8
7
100
AcDbLine
 10
1.976377952755905
 20
3.963582677165354
 30
0.0
 11
1.987204724409448
 21
3.963582677165354
 31
0.0
  0
LINE
  5
3218
330
1E
100
AcDbEntity
  8
7
100
AcDbLine
 10
1.987204724409448
 20
3.963582677165354
 30
0.0
 11
2.001968503937007
 21
3.963582677165354
 31
0.0
  0
LINE
  5
3219
330
1E
100
AcDbEntity
  8
7
100
AcDbLine
 10
2.002952755905511
 20
3.933070866141732
 30
0.0
 11
2.08267716535433
 21
3.933070866141732
 31
0.0
  0
LINE
  5
321A
330
1E
100
AcDbEntity
  8
7
100
AcDbLine
 10
2.08267716535433
 20
3.933070866141732
 30
0.0
 11
2.08267716535433
 21
3.963582677165354
 31
0.0
  0
LINE
  5
321B
330
1E
100
AcDbEntity
  8
7
100
AcDbLine
 10
4.182086614173227
 20
3.904527559055118
 30
0.0
 11
4.196850393700787
 21
3.908464566929133
 31
0.0
  0
LINE
  5
321C
330
1E
100
AcDbEntity
  8
7
100
AcDbLine
 10
4.196850393700787
 20
3.908464566929133
 30
0.0
 11
4.20767716535433
 21
3.919291338582677
 31
0.0
  0
LINE
  5
321D
330
1E
100
AcDbEntity
  8
7
100
AcDbLine
 10
4.20767716535433
 20
3.919291338582677
 30
0.0
 11
4.211614173228346
 21
3.933070866141732
 31
0.0
  0
LINE
  5
321E
330
1E
100
AcDbEntity
  8
7
100
AcDbLine
 10
4.019685039370077
 20
3.963582677165354
 30
0.0
 11
4.024606299212598
 21
3.963582677165354
 31
0.0
  0
LINE
  5
321F
330
1E
100
AcDbEntity
  8
7
100
AcDbLine
 10
4.024606299212598
 20
3.963582677165354
 30
0.0
 11
4.037401574803149
 21
3.963582677165354
 31
0.0
  0
LINE
  5
3220
330
1E
100
AcDbEntity
  8
7
100
AcDbLine
 10
4.037401574803149
 20
3.963582677165354
 30
0.0
 11
4.05511811023622
 21
3.963582677165354
 31
0.0
  0
LINE
  5
3221
330
1E
100
AcDbEntity
  8
7
100
AcDbLine
 10
4.05511811023622
 20
3.963582677165354
 30
0.0
 11
4.07283464566929
 21
3.963582677165354
 31
0.0
  0
LINE
  5
3222
330
1E
100
AcDbEntity
  8
7
100
AcDbLine
 10
4.07283464566929
 20
3.963582677165354
 30
0.0
 11
4.085629921259841
 21
3.963582677165354
 31
0.0
  0
LINE
  5
3223
330
1E
100
AcDbEntity
  8
7
100
AcDbLine
 10
4.085629921259841
 20
3.963582677165354
 30
0.0
 11
4.089566929133857
 21
3.963582677165354
 31
0.0
  0
LINE
  5
3224
330
1E
100
AcDbEntity
  8
7
100
AcDbLine
 10
4.176181102362204
 20
3.963582677165354
 30
0.0
 11
4.160433070866141
 21
3.963582677165354
 31
0.0
  0
LINE
  5
3225
330
1E
100
AcDbEntity
  8
7
100
AcDbLine
 10
4.160433070866141
 20
3.963582677165354
 30
0.0
 11
4.154527559055117
 21
3.963582677165354
 31
0.0
  0
LINE
  5
3226
330
1E
100
AcDbEntity
  8
7
100
AcDbLine
 10
4.182086614173227
 20
3.963582677165354
 30
0.0
 11
4.19783464566929
 21
3.963582677165354
 31
0.0
  0
LINE
  5
3227
330
1E
100
AcDbEntity
  8
7
100
AcDbLine
 10
4.19783464566929
 20
3.963582677165354
 30
0.0
 11
4.208661417322834
 21
3.963582677165354
 31
0.0
  0
LINE
  5
3228
330
1E
100
AcDbEntity
  8
7
100
AcDbLine
 10
4.208661417322834
 20
3.963582677165354
 30
0.0
 11
4.21259842519685
 21
3.963582677165354
 31
0.0
  0
LINE
  5
3229
330
1E
100
AcDbEntity
  8
7
100
AcDbLine
 10
4.214566929133857
 20
3.963582677165354
 30
0.0
 11
4.232283464566928
 21
3.963582677165354
 31
0.0
  0
LINE
  5
322A
330
1E
100
AcDbEntity
  8
7
100
AcDbLine
 10
4.232283464566928
 20
3.963582677165354
 30
0.0
 11
4.245078740157479
 21
3.963582677165354
 31
0.0
  0
LINE
  5
322B
330
1E
100
AcDbEntity
  8
7
100
AcDbLine
 10
4.245078740157479
 20
3.963582677165354
 30
0.0
 11
4.249999999999999
 21
3.963582677165354
 31
0.0
  0
LINE
  5
322C
330
1E
100
AcDbEntity
  8
7
100
AcDbLine
 10
2.170275590551181
 20
3.903543307086613
 30
0.0
 11
2.173228346456693
 21
3.904527559055118
 31
0.0
  0
LINE
  5
322D
330
1E
100
AcDbEntity
  8
7
100
AcDbLine
 10
2.173228346456693
 20
3.904527559055118
 30
0.0
 11
2.173228346456693
 21
3.908464566929133
 31
0.0
  0
LINE
  5
322E
330
1E
100
AcDbEntity
  8
7
100
AcDbLine
 10
2.173228346456693
 20
3.908464566929133
 30
0.0
 11
2.173228346456693
 21
3.909448818897637
 31
0.0
  0
LINE
  5
322F
330
1E
100
AcDbEntity
  8
7
100
AcDbLine
 10
2.173228346456693
 20
3.909448818897637
 30
0.0
 11
2.173228346456693
 21
3.919291338582677
 31
0.0
  0
LINE
  5
3230
330
1E
100
AcDbEntity
  8
7
100
AcDbLine
 10
2.173228346456693
 20
3.919291338582677
 30
0.0
 11
2.173228346456693
 21
3.933070866141732
 31
0.0
  0
LINE
  5
3231
330
1E
100
AcDbEntity
  8
7
100
AcDbLine
 10
2.36023622047244
 20
5.758858267716535
 30
0.0
 11
2.366141732283464
 21
5.744094488188975
 31
0.0
  0
LINE
  5
3232
330
1E
100
AcDbEntity
  8
7
100
AcDbLine
 10
2.366141732283464
 20
5.744094488188975
 30
0.0
 11
2.366141732283464
 21
5.264763779527559
 31
0.0
  0
LINE
  5
3233
330
1E
100
AcDbEntity
  8
7
100
AcDbLine
 10
2.002952755905511
 20
5.122047244094487
 30
0.0
 11
2.023622047244094
 21
5.101377952755905
 31
0.0
  0
LINE
  5
3234
330
1E
100
AcDbEntity
  8
7
100
AcDbLine
 10
2.023622047244094
 20
5.101377952755905
 30
0.0
 11
2.048228346456693
 21
5.088582677165354
 31
0.0
  0
LINE
  5
3235
330
1E
100
AcDbEntity
  8
7
100
AcDbLine
 10
2.048228346456693
 20
5.088582677165354
 30
0.0
 11
2.075787401574803
 21
5.084645669291338
 31
0.0
  0
LINE
  5
3236
330
1E
100
AcDbEntity
  8
7
100
AcDbLine
 10
1.986220472440944
 20
5.174212598425197
 30
0.0
 11
1.99015748031496
 21
5.146653543307086
 31
0.0
  0
LINE
  5
3237
330
1E
100
AcDbEntity
  8
7
100
AcDbLine
 10
1.99015748031496
 20
5.146653543307086
 30
0.0
 11
2.002952755905511
 21
5.122047244094487
 31
0.0
  0
LINE
  5
3238
330
1E
100
AcDbEntity
  8
7
100
AcDbLine
 10
2.40255905511811
 20
4.817913385826771
 30
0.0
 11
2.375
 21
4.822834645669291
 31
0.0
  0
LINE
  5
3239
330
1E
100
AcDbEntity
  8
7
100
AcDbLine
 10
2.375
 20
4.822834645669291
 30
0.0
 11
2.349409448818897
 21
4.835629921259842
 31
0.0
  0
LINE
  5
323A
330
1E
100
AcDbEntity
  8
7
100
AcDbLine
 10
2.349409448818897
 20
4.835629921259842
 30
0.0
 11
2.329724409448818
 21
4.855314960629921
 31
0.0
  0
LINE
  5
323B
330
1E
100
AcDbEntity
  8
7
100
AcDbLine
 10
2.329724409448818
 20
4.855314960629921
 30
0.0
 11
2.316929133858267
 21
4.879921259842519
 31
0.0
  0
LINE
  5
323C
330
1E
100
AcDbEntity
  8
7
100
AcDbLine
 10
2.316929133858267
 20
4.879921259842519
 30
0.0
 11
2.312992125984251
 21
4.908464566929133
 31
0.0
  0
LINE
  5
323D
330
1E
100
AcDbEntity
  8
7
100
AcDbLine
 10
2.292322834645669
 20
4.862204724409449
 30
0.0
 11
2.287401574803149
 21
4.878937007874015
 31
0.0
  0
LINE
  5
323E
330
1E
100
AcDbEntity
  8
7
100
AcDbLine
 10
2.287401574803149
 20
4.878937007874015
 30
0.0
 11
2.275590551181102
 21
4.891732283464566
 31
0.0
  0
LINE
  5
323F
330
1E
100
AcDbEntity
  8
7
100
AcDbLine
 10
2.275590551181102
 20
4.891732283464566
 30
0.0
 11
2.257874015748031
 21
4.896653543307086
 31
0.0
  0
LINE
  5
3240
330
1E
100
AcDbEntity
  8
7
100
AcDbLine
 10
2.069881889763779
 20
4.933070866141732
 30
0.0
 11
2.088582677165354
 21
4.914370078740157
 31
0.0
  0
LINE
  5
3241
330
1E
100
AcDbEntity
  8
7
100
AcDbLine
 10
2.088582677165354
 20
4.914370078740157
 30
0.0
 11
2.112204724409448
 21
4.90255905511811
 31
0.0
  0
LINE
  5
3242
330
1E
100
AcDbEntity
  8
7
100
AcDbLine
 10
2.112204724409448
 20
4.90255905511811
 30
0.0
 11
2.137795275590551
 21
4.898622047244094
 31
0.0
  0
LINE
  5
3243
330
1E
100
AcDbEntity
  8
7
100
AcDbLine
 10
2.054133858267716
 20
4.982283464566928
 30
0.0
 11
2.058070866141732
 21
4.956692913385826
 31
0.0
  0
LINE
  5
3244
330
1E
100
AcDbEntity
  8
7
100
AcDbLine
 10
2.058070866141732
 20
4.956692913385826
 30
0.0
 11
2.069881889763779
 21
4.933070866141732
 31
0.0
  0
LINE
  5
3245
330
1E
100
AcDbEntity
  8
7
100
AcDbLine
 10
2.052165354330708
 20
5.060039370078739
 30
0.0
 11
2.047244094488188
 21
5.076771653543307
 31
0.0
  0
LINE
  5
3246
330
1E
100
AcDbEntity
  8
7
100
AcDbLine
 10
2.047244094488188
 20
5.076771653543307
 30
0.0
 11
2.035433070866141
 21
5.089566929133858
 31
0.0
  0
LINE
  5
3247
330
1E
100
AcDbEntity
  8
7
100
AcDbLine
 10
2.035433070866141
 20
5.089566929133858
 30
0.0
 11
2.01771653543307
 21
5.094488188976377
 31
0.0
  0
LINE
  5
3248
330
1E
100
AcDbEntity
  8
7
100
AcDbLine
 10
2.01771653543307
 20
6.780511811023622
 30
0.0
 11
2.034448818897637
 21
6.785433070866141
 31
0.0
  0
LINE
  5
3249
330
1E
100
AcDbEntity
  8
7
100
AcDbLine
 10
2.034448818897637
 20
6.785433070866141
 30
0.0
 11
2.047244094488188
 21
6.797244094488188
 31
0.0
  0
LINE
  5
324A
330
1E
100
AcDbEntity
  8
7
100
AcDbLine
 10
2.047244094488188
 20
6.797244094488188
 30
0.0
 11
2.052165354330708
 21
6.81496062992126
 31
0.0
  0
LINE
  5
324B
330
1E
100
AcDbEntity
  8
7
100
AcDbLine
 10
2.137795275590551
 20
6.976377952755905
 30
0.0
 11
2.112204724409448
 21
6.972440944881889
 31
0.0
  0
LINE
  5
324C
330
1E
100
AcDbEntity
  8
7
100
AcDbLine
 10
2.112204724409448
 20
6.972440944881889
 30
0.0
 11
2.088582677165354
 21
6.960629921259842
 31
0.0
  0
LINE
  5
324D
330
1E
100
AcDbEntity
  8
7
100
AcDbLine
 10
2.088582677165354
 20
6.960629921259842
 30
0.0
 11
2.069881889763779
 21
6.941929133858267
 31
0.0
  0
LINE
  5
324E
330
1E
100
AcDbEntity
  8
7
100
AcDbLine
 10
2.069881889763779
 20
6.941929133858267
 30
0.0
 11
2.058070866141732
 21
6.918307086614173
 31
0.0
  0
LINE
  5
324F
330
1E
100
AcDbEntity
  8
7
100
AcDbLine
 10
2.257874015748031
 20
6.978346456692912
 30
0.0
 11
2.274606299212598
 21
6.983267716535433
 31
0.0
  0
LINE
  5
3250
330
1E
100
AcDbEntity
  8
7
100
AcDbLine
 10
2.274606299212598
 20
6.983267716535433
 30
0.0
 11
2.287401574803149
 21
6.99507874015748
 31
0.0
  0
LINE
  5
3251
330
1E
100
AcDbEntity
  8
7
100
AcDbLine
 10
2.287401574803149
 20
6.99507874015748
 30
0.0
 11
2.292322834645669
 21
7.01279527559055
 31
0.0
  0
LINE
  5
3252
330
1E
100
AcDbEntity
  8
7
100
AcDbLine
 10
2.312992125984251
 20
6.791338582677164
 30
0.0
 11
2.312992125984251
 21
6.96751968503937
 31
0.0
  0
LINE
  5
3253
330
1E
100
AcDbEntity
  8
7
100
AcDbLine
 10
2.312992125984251
 20
6.96751968503937
 30
0.0
 11
2.316929133858267
 21
6.99507874015748
 31
0.0
  0
LINE
  5
3254
330
1E
100
AcDbEntity
  8
7
100
AcDbLine
 10
2.316929133858267
 20
6.99507874015748
 30
0.0
 11
2.329724409448818
 21
7.020669291338582
 31
0.0
  0
LINE
  5
3255
330
1E
100
AcDbEntity
  8
7
100
AcDbLine
 10
2.329724409448818
 20
7.020669291338582
 30
0.0
 11
2.349409448818897
 21
7.040354330708661
 31
0.0
  0
LINE
  5
3256
330
1E
100
AcDbEntity
  8
7
100
AcDbLine
 10
2.349409448818897
 20
7.040354330708661
 30
0.0
 11
2.375
 21
7.053149606299212
 31
0.0
  0
LINE
  5
3257
330
1E
100
AcDbEntity
  8
7
100
AcDbLine
 10
2.375
 20
7.053149606299212
 30
0.0
 11
2.40255905511811
 21
7.057086614173228
 31
0.0
  0
LINE
  5
3258
330
1E
100
AcDbEntity
  8
7
100
AcDbLine
 10
2.075787401574803
 20
6.791338582677164
 30
0.0
 11
2.048228346456693
 21
6.787401574803149
 31
0.0
  0
LINE
  5
3259
330
1E
100
AcDbEntity
  8
7
100
AcDbLine
 10
2.048228346456693
 20
6.787401574803149
 30
0.0
 11
2.023622047244094
 21
6.774606299212598
 31
0.0
  0
LINE
  5
325A
330
1E
100
AcDbEntity
  8
7
100
AcDbLine
 10
2.023622047244094
 20
6.774606299212598
 30
0.0
 11
2.002952755905511
 21
6.753937007874015
 31
0.0
  0
LINE
  5
325B
330
1E
100
AcDbEntity
  8
7
100
AcDbLine
 10
2.002952755905511
 20
6.753937007874015
 30
0.0
 11
1.99015748031496
 21
6.729330708661417
 31
0.0
  0
LINE
  5
325C
330
1E
100
AcDbEntity
  8
7
100
AcDbLine
 10
2.327755905511811
 20
6.116141732283464
 30
0.0
 11
2.327755905511811
 21
5.758858267716535
 31
0.0
  0
LINE
  5
325D
330
1E
100
AcDbEntity
  8
7
100
AcDbLine
 10
2.327755905511811
 20
5.758858267716535
 30
0.0
 11
2.36023622047244
 21
5.758858267716535
 31
0.0
  0
LINE
  5
325E
330
1E
100
AcDbEntity
  8
7
100
AcDbLine
 10
2.313976377952756
 20
6.788385826771653
 30
0.0
 11
2.312992125984251
 21
6.791338582677164
 31
0.0
  0
LINE
  5
325F
330
1E
100
AcDbEntity
  8
7
100
AcDbLine
 10
2.312992125984251
 20
6.791338582677164
 30
0.0
 11
2.075787401574803
 21
6.791338582677164
 31
0.0
  0
LINE
  5
3260
330
1E
100
AcDbEntity
  8
7
100
AcDbLine
 10
3.871062992125984
 20
6.965551181102362
 30
0.0
 11
3.866141732283464
 21
6.993110236220472
 31
0.0
  0
LINE
  5
3261
330
1E
100
AcDbEntity
  8
7
100
AcDbLine
 10
3.866141732283464
 20
6.993110236220472
 30
0.0
 11
3.853346456692913
 21
7.018700787401574
 31
0.0
  0
LINE
  5
3262
330
1E
100
AcDbEntity
  8
7
100
AcDbLine
 10
3.853346456692913
 20
7.018700787401574
 30
0.0
 11
3.833661417322834
 21
7.038385826771653
 31
0.0
  0
LINE
  5
3263
330
1E
100
AcDbEntity
  8
7
100
AcDbLine
 10
3.833661417322834
 20
7.038385826771653
 30
0.0
 11
3.808070866141732
 21
7.051181102362204
 31
0.0
  0
LINE
  5
3264
330
1E
100
AcDbEntity
  8
7
100
AcDbLine
 10
3.808070866141732
 20
7.051181102362204
 30
0.0
 11
3.780511811023622
 21
7.056102362204724
 31
0.0
  0
LINE
  5
3265
330
1E
100
AcDbEntity
  8
7
100
AcDbLine
 10
2.318897637795275
 20
6.993110236220472
 30
0.0
 11
2.313976377952756
 21
6.965551181102362
 31
0.0
  0
LINE
  5
3266
330
1E
100
AcDbEntity
  8
7
100
AcDbLine
 10
2.313976377952756
 20
6.965551181102362
 30
0.0
 11
2.313976377952756
 21
6.788385826771653
 31
0.0
  0
LINE
  5
3267
330
1E
100
AcDbEntity
  8
7
100
AcDbLine
 10
2.313976377952756
 20
6.788385826771653
 30
0.0
 11
3.871062992125984
 21
6.788385826771653
 31
0.0
  0
LINE
  5
3268
330
1E
100
AcDbEntity
  8
7
100
AcDbLine
 10
2.404527559055118
 20
7.056102362204724
 30
0.0
 11
2.375984251968503
 21
7.051181102362204
 31
0.0
  0
LINE
  5
3269
330
1E
100
AcDbEntity
  8
7
100
AcDbLine
 10
2.375984251968503
 20
7.051181102362204
 30
0.0
 11
2.351377952755905
 21
7.038385826771653
 31
0.0
  0
LINE
  5
326A
330
1E
100
AcDbEntity
  8
7
100
AcDbLine
 10
2.351377952755905
 20
7.038385826771653
 30
0.0
 11
2.331692913385826
 21
7.018700787401574
 31
0.0
  0
LINE
  5
326B
330
1E
100
AcDbEntity
  8
7
100
AcDbLine
 10
2.331692913385826
 20
7.018700787401574
 30
0.0
 11
2.318897637795275
 21
6.993110236220472
 31
0.0
  0
LINE
  5
326C
330
1E
100
AcDbEntity
  8
7
100
AcDbLine
 10
2.303149606299212
 20
6.618110236220472
 30
0.0
 11
2.306102362204724
 21
6.61023622047244
 31
0.0
  0
LINE
  5
326D
330
1E
100
AcDbEntity
  8
7
100
AcDbLine
 10
2.306102362204724
 20
6.61023622047244
 30
0.0
 11
2.366141732283464
 21
6.61023622047244
 31
0.0
  0
LINE
  5
326E
330
1E
100
AcDbEntity
  8
7
100
AcDbLine
 10
3.824803149606299
 20
6.116141732283464
 30
0.0
 11
3.818897637795275
 21
6.131889763779527
 31
0.0
  0
LINE
  5
326F
330
1E
100
AcDbEntity
  8
7
100
AcDbLine
 10
3.818897637795275
 20
6.131889763779527
 30
0.0
 11
3.818897637795275
 21
6.61023622047244
 31
0.0
  0
LINE
  5
3270
330
1E
100
AcDbEntity
  8
7
100
AcDbLine
 10
4.198818897637794
 20
6.701771653543307
 30
0.0
 11
4.194881889763778
 21
6.729330708661417
 31
0.0
  0
LINE
  5
3271
330
1E
100
AcDbEntity
  8
7
100
AcDbLine
 10
4.194881889763778
 20
6.729330708661417
 30
0.0
 11
4.182086614173227
 21
6.753937007874015
 31
0.0
  0
LINE
  5
3272
330
1E
100
AcDbEntity
  8
7
100
AcDbLine
 10
4.182086614173227
 20
6.753937007874015
 30
0.0
 11
4.161417322834645
 21
6.774606299212598
 31
0.0
  0
LINE
  5
3273
330
1E
100
AcDbEntity
  8
7
100
AcDbLine
 10
4.161417322834645
 20
6.774606299212598
 30
0.0
 11
4.136811023622046
 21
6.787401574803149
 31
0.0
  0
LINE
  5
3274
330
1E
100
AcDbEntity
  8
7
100
AcDbLine
 10
4.136811023622046
 20
6.787401574803149
 30
0.0
 11
4.109251968503936
 21
6.791338582677164
 31
0.0
  0
LINE
  5
3275
330
1E
100
AcDbEntity
  8
7
100
AcDbLine
 10
3.78248031496063
 20
7.057086614173228
 30
0.0
 11
3.81003937007874
 21
7.053149606299212
 31
0.0
  0
LINE
  5
3276
330
1E
100
AcDbEntity
  8
7
100
AcDbLine
 10
3.81003937007874
 20
7.053149606299212
 30
0.0
 11
3.834645669291338
 21
7.040354330708661
 31
0.0
  0
LINE
  5
3277
330
1E
100
AcDbEntity
  8
7
100
AcDbLine
 10
3.834645669291338
 20
7.040354330708661
 30
0.0
 11
3.855314960629921
 21
7.020669291338582
 31
0.0
  0
LINE
  5
3278
330
1E
100
AcDbEntity
  8
7
100
AcDbLine
 10
3.855314960629921
 20
7.020669291338582
 30
0.0
 11
3.868110236220472
 21
6.99507874015748
 31
0.0
  0
LINE
  5
3279
330
1E
100
AcDbEntity
  8
7
100
AcDbLine
 10
3.868110236220472
 20
6.99507874015748
 30
0.0
 11
3.872047244094487
 21
6.96751968503937
 31
0.0
  0
LINE
  5
327A
330
1E
100
AcDbEntity
  8
7
100
AcDbLine
 10
3.89271653543307
 20
7.01279527559055
 30
0.0
 11
3.89763779527559
 21
6.996062992125984
 31
0.0
  0
LINE
  5
327B
330
1E
100
AcDbEntity
  8
7
100
AcDbLine
 10
3.89763779527559
 20
6.996062992125984
 30
0.0
 11
3.909448818897637
 21
6.983267716535433
 31
0.0
  0
LINE
  5
327C
330
1E
100
AcDbEntity
  8
7
100
AcDbLine
 10
4.130905511811023
 20
6.89271653543307
 30
0.0
 11
4.126968503937007
 21
6.918307086614173
 31
0.0
  0
LINE
  5
327D
330
1E
100
AcDbEntity
  8
7
100
AcDbLine
 10
4.126968503937007
 20
6.918307086614173
 30
0.0
 11
4.11515748031496
 21
6.941929133858267
 31
0.0
  0
LINE
  5
327E
330
1E
100
AcDbEntity
  8
7
100
AcDbLine
 10
4.11515748031496
 20
6.941929133858267
 30
0.0
 11
4.096456692913385
 21
6.960629921259842
 31
0.0
  0
LINE
  5
327F
330
1E
100
AcDbEntity
  8
7
100
AcDbLine
 10
4.096456692913385
 20
6.960629921259842
 30
0.0
 11
4.07283464566929
 21
6.972440944881889
 31
0.0
  0
LINE
  5
3280
330
1E
100
AcDbEntity
  8
7
100
AcDbLine
 10
4.07283464566929
 20
6.972440944881889
 30
0.0
 11
4.047244094488188
 21
6.976377952755905
 31
0.0
  0
LINE
  5
3281
330
1E
100
AcDbEntity
  8
7
100
AcDbLine
 10
4.13287401574803
 20
6.81496062992126
 30
0.0
 11
4.13779527559055
 21
6.798228346456692
 31
0.0
  0
LINE
  5
3282
330
1E
100
AcDbEntity
  8
7
100
AcDbLine
 10
4.13779527559055
 20
6.798228346456692
 30
0.0
 11
4.149606299212598
 21
6.785433070866141
 31
0.0
  0
LINE
  5
3283
330
1E
100
AcDbEntity
  8
7
100
AcDbLine
 10
4.149606299212598
 20
6.785433070866141
 30
0.0
 11
4.167322834645668
 21
6.780511811023622
 31
0.0
  0
LINE
  5
3284
330
1E
100
AcDbEntity
  8
7
100
AcDbLine
 10
4.167322834645668
 20
5.094488188976377
 30
0.0
 11
4.150590551181101
 21
5.089566929133858
 31
0.0
  0
LINE
  5
3285
330
1E
100
AcDbEntity
  8
7
100
AcDbLine
 10
4.150590551181101
 20
5.089566929133858
 30
0.0
 11
4.13779527559055
 21
5.077755905511811
 31
0.0
  0
LINE
  5
3286
330
1E
100
AcDbEntity
  8
7
100
AcDbLine
 10
4.13779527559055
 20
5.077755905511811
 30
0.0
 11
4.13287401574803
 21
5.060039370078739
 31
0.0
  0
LINE
  5
3287
330
1E
100
AcDbEntity
  8
7
100
AcDbLine
 10
4.047244094488188
 20
4.898622047244094
 30
0.0
 11
4.07283464566929
 21
4.90255905511811
 31
0.0
  0
LINE
  5
3288
330
1E
100
AcDbEntity
  8
7
100
AcDbLine
 10
4.07283464566929
 20
4.90255905511811
 30
0.0
 11
4.096456692913385
 21
4.914370078740157
 31
0.0
  0
LINE
  5
3289
330
1E
100
AcDbEntity
  8
7
100
AcDbLine
 10
4.096456692913385
 20
4.914370078740157
 30
0.0
 11
4.11515748031496
 21
4.933070866141732
 31
0.0
  0
LINE
  5
328A
330
1E
100
AcDbEntity
  8
7
100
AcDbLine
 10
4.11515748031496
 20
4.933070866141732
 30
0.0
 11
4.126968503937007
 21
4.956692913385826
 31
0.0
  0
LINE
  5
328B
330
1E
100
AcDbEntity
  8
7
100
AcDbLine
 10
4.126968503937007
 20
4.956692913385826
 30
0.0
 11
4.130905511811023
 21
4.982283464566928
 31
0.0
  0
LINE
  5
328C
330
1E
100
AcDbEntity
  8
7
100
AcDbLine
 10
3.927165354330708
 20
4.896653543307086
 30
0.0
 11
3.910433070866141
 21
4.891732283464566
 31
0.0
  0
LINE
  5
328D
330
1E
100
AcDbEntity
  8
7
100
AcDbLine
 10
3.910433070866141
 20
4.891732283464566
 30
0.0
 11
3.89763779527559
 21
4.879921259842519
 31
0.0
  0
LINE
  5
328E
330
1E
100
AcDbEntity
  8
7
100
AcDbLine
 10
3.89763779527559
 20
4.879921259842519
 30
0.0
 11
3.89271653543307
 21
4.862204724409449
 31
0.0
  0
LINE
  5
328F
330
1E
100
AcDbEntity
  8
7
100
AcDbLine
 10
3.872047244094487
 20
5.083661417322834
 30
0.0
 11
3.872047244094487
 21
4.908464566929133
 31
0.0
  0
LINE
  5
3290
330
1E
100
AcDbEntity
  8
7
100
AcDbLine
 10
3.872047244094487
 20
4.908464566929133
 30
0.0
 11
3.868110236220472
 21
4.879921259842519
 31
0.0
  0
LINE
  5
3291
330
1E
100
AcDbEntity
  8
7
100
AcDbLine
 10
3.868110236220472
 20
4.879921259842519
 30
0.0
 11
3.855314960629921
 21
4.855314960629921
 31
0.0
  0
LINE
  5
3292
330
1E
100
AcDbEntity
  8
7
100
AcDbLine
 10
3.855314960629921
 20
4.855314960629921
 30
0.0
 11
3.834645669291338
 21
4.835629921259842
 31
0.0
  0
LINE
  5
3293
330
1E
100
AcDbEntity
  8
7
100
AcDbLine
 10
3.834645669291338
 20
4.835629921259842
 30
0.0
 11
3.81003937007874
 21
4.822834645669291
 31
0.0
  0
LINE
  5
3294
330
1E
100
AcDbEntity
  8
7
100
AcDbLine
 10
4.161417322834645
 20
5.101377952755905
 30
0.0
 11
4.182086614173227
 21
5.122047244094487
 31
0.0
  0
LINE
  5
3295
330
1E
100
AcDbEntity
  8
7
100
AcDbLine
 10
4.182086614173227
 20
5.122047244094487
 30
0.0
 11
4.194881889763778
 21
5.146653543307086
 31
0.0
  0
LINE
  5
3296
330
1E
100
AcDbEntity
  8
7
100
AcDbLine
 10
4.194881889763778
 20
5.146653543307086
 30
0.0
 11
4.198818897637794
 21
5.174212598425197
 31
0.0
  0
LINE
  5
3297
330
1E
100
AcDbEntity
  8
7
100
AcDbLine
 10
4.109251968503936
 20
5.084645669291338
 30
0.0
 11
4.136811023622046
 21
5.088582677165354
 31
0.0
  0
LINE
  5
3298
330
1E
100
AcDbEntity
  8
7
100
AcDbLine
 10
4.136811023622046
 20
5.088582677165354
 30
0.0
 11
4.161417322834645
 21
5.101377952755905
 31
0.0
  0
LINE
  5
3299
330
1E
100
AcDbEntity
  8
7
100
AcDbLine
 10
3.857283464566929
 20
5.758858267716535
 30
0.0
 11
3.857283464566929
 21
6.116141732283464
 31
0.0
  0
LINE
  5
329A
330
1E
100
AcDbEntity
  8
7
100
AcDbLine
 10
3.857283464566929
 20
6.116141732283464
 30
0.0
 11
3.824803149606299
 21
6.116141732283464
 31
0.0
  0
LINE
  5
329B
330
1E
100
AcDbEntity
  8
7
100
AcDbLine
 10
4.109251968503936
 20
5.095472440944881
 30
0.0
 11
4.139763779527558
 21
5.101377952755905
 31
0.0
  0
LINE
  5
329C
330
1E
100
AcDbEntity
  8
7
100
AcDbLine
 10
4.139763779527558
 20
5.101377952755905
 30
0.0
 11
4.165354330708661
 21
5.118110236220472
 31
0.0
  0
LINE
  5
329D
330
1E
100
AcDbEntity
  8
7
100
AcDbLine
 10
4.165354330708661
 20
5.118110236220472
 30
0.0
 11
4.182086614173227
 21
5.143700787401574
 31
0.0
  0
LINE
  5
329E
330
1E
100
AcDbEntity
  8
7
100
AcDbLine
 10
4.182086614173227
 20
5.143700787401574
 30
0.0
 11
4.187992125984251
 21
5.174212598425197
 31
0.0
  0
LINE
  5
329F
330
1E
100
AcDbEntity
  8
7
100
AcDbLine
 10
1.997047244094487
 20
5.174212598425197
 30
0.0
 11
2.002952755905511
 21
5.143700787401574
 31
0.0
  0
LINE
  5
32A0
330
1E
100
AcDbEntity
  8
7
100
AcDbLine
 10
2.002952755905511
 20
5.143700787401574
 30
0.0
 11
2.019685039370078
 21
5.118110236220472
 31
0.0
  0
LINE
  5
32A1
330
1E
100
AcDbEntity
  8
7
100
AcDbLine
 10
2.019685039370078
 20
5.118110236220472
 30
0.0
 11
2.045275590551181
 21
5.101377952755905
 31
0.0
  0
LINE
  5
32A2
330
1E
100
AcDbEntity
  8
7
100
AcDbLine
 10
2.045275590551181
 20
5.101377952755905
 30
0.0
 11
2.075787401574803
 21
5.095472440944881
 31
0.0
  0
LINE
  5
32A3
330
1E
100
AcDbEntity
  8
7
100
AcDbLine
 10
2.075787401574803
 20
6.780511811023622
 30
0.0
 11
2.045275590551181
 21
6.774606299212598
 31
0.0
  0
LINE
  5
32A4
330
1E
100
AcDbEntity
  8
7
100
AcDbLine
 10
2.045275590551181
 20
6.774606299212598
 30
0.0
 11
2.019685039370078
 21
6.757874015748031
 31
0.0
  0
LINE
  5
32A5
330
1E
100
AcDbEntity
  8
7
100
AcDbLine
 10
2.019685039370078
 20
6.757874015748031
 30
0.0
 11
2.002952755905511
 21
6.732283464566928
 31
0.0
  0
LINE
  5
32A6
330
1E
100
AcDbEntity
  8
7
100
AcDbLine
 10
2.002952755905511
 20
6.732283464566928
 30
0.0
 11
1.997047244094487
 21
6.701771653543307
 31
0.0
  0
LINE
  5
32A7
330
1E
100
AcDbEntity
  8
7
100
AcDbLine
 10
4.187992125984251
 20
6.701771653543307
 30
0.0
 11
4.182086614173227
 21
6.732283464566928
 31
0.0
  0
LINE
  5
32A8
330
1E
100
AcDbEntity
  8
7
100
AcDbLine
 10
4.182086614173227
 20
6.732283464566928
 30
0.0
 11
4.165354330708661
 21
6.757874015748031
 31
0.0
  0
LINE
  5
32A9
330
1E
100
AcDbEntity
  8
7
100
AcDbLine
 10
4.165354330708661
 20
6.757874015748031
 30
0.0
 11
4.139763779527558
 21
6.774606299212598
 31
0.0
  0
LINE
  5
32AA
330
1E
100
AcDbEntity
  8
7
100
AcDbLine
 10
4.139763779527558
 20
6.774606299212598
 30
0.0
 11
4.109251968503936
 21
6.780511811023622
 31
0.0
  0
LINE
  5
32AB
330
1E
100
AcDbEntity
  8
7
100
AcDbLine
 10
3.780511811023622
 20
4.819881889763779
 30
0.0
 11
3.808070866141732
 21
4.823818897637795
 31
0.0
  0
LINE
  5
32AC
330
1E
100
AcDbEntity
  8
7
100
AcDbLine
 10
3.808070866141732
 20
4.823818897637795
 30
0.0
 11
3.833661417322834
 21
4.836614173228346
 31
0.0
  0
LINE
  5
32AD
330
1E
100
AcDbEntity
  8
7
100
AcDbLine
 10
3.833661417322834
 20
4.836614173228346
 30
0.0
 11
3.853346456692913
 21
4.856299212598425
 31
0.0
  0
LINE
  5
32AE
330
1E
100
AcDbEntity
  8
7
100
AcDbLine
 10
3.853346456692913
 20
4.856299212598425
 30
0.0
 11
3.866141732283464
 21
4.881889763779527
 31
0.0
  0
LINE
  5
32AF
330
1E
100
AcDbEntity
  8
7
100
AcDbLine
 10
3.866141732283464
 20
4.881889763779527
 30
0.0
 11
3.871062992125984
 21
4.909448818897637
 31
0.0
  0
LINE
  5
32B0
330
1E
100
AcDbEntity
  8
7
100
AcDbLine
 10
3.871062992125984
 20
4.909448818897637
 30
0.0
 11
3.871062992125984
 21
5.086614173228346
 31
0.0
  0
LINE
  5
32B1
330
1E
100
AcDbEntity
  8
7
100
AcDbLine
 10
2.351377952755905
 20
4.836614173228346
 30
0.0
 11
2.375984251968503
 21
4.823818897637795
 31
0.0
  0
LINE
  5
32B2
330
1E
100
AcDbEntity
  8
7
100
AcDbLine
 10
2.375984251968503
 20
4.823818897637795
 30
0.0
 11
2.404527559055118
 21
4.819881889763779
 31
0.0
  0
LINE
  5
32B3
330
1E
100
AcDbEntity
  8
7
100
AcDbLine
 10
2.313976377952756
 20
4.909448818897637
 30
0.0
 11
2.318897637795275
 21
4.881889763779527
 31
0.0
  0
LINE
  5
32B4
330
1E
100
AcDbEntity
  8
7
100
AcDbLine
 10
2.318897637795275
 20
4.881889763779527
 30
0.0
 11
2.331692913385826
 21
4.856299212598425
 31
0.0
  0
LINE
  5
32B5
330
1E
100
AcDbEntity
  8
7
100
AcDbLine
 10
2.331692913385826
 20
4.856299212598425
 30
0.0
 11
2.351377952755905
 21
4.836614173228346
 31
0.0
  0
LINE
  5
32B6
330
1E
100
AcDbEntity
  8
7
100
AcDbLine
 10
3.881889763779527
 20
5.256889763779527
 30
0.0
 11
3.878937007874015
 21
5.264763779527559
 31
0.0
  0
LINE
  5
32B7
330
1E
100
AcDbEntity
  8
7
100
AcDbLine
 10
3.878937007874015
 20
5.264763779527559
 30
0.0
 11
3.818897637795275
 21
5.264763779527559
 31
0.0
  0
LINE
  5
32B8
330
1E
100
AcDbEntity
  8
7
100
AcDbLine
 10
2.404527559055118
 20
4.819881889763779
 30
0.0
 11
2.40255905511811
 21
4.817913385826771
 31
0.0
  0
LINE
  5
32B9
330
1E
100
AcDbEntity
  8
7
100
AcDbLine
 10
2.40255905511811
 20
4.817913385826771
 30
0.0
 11
2.292322834645669
 21
4.817913385826771
 31
0.0
  0
LINE
  5
32BA
330
1E
100
AcDbEntity
  8
7
100
AcDbLine
 10
2.40255905511811
 20
7.057086614173228
 30
0.0
 11
2.404527559055118
 21
7.056102362204724
 31
0.0
  0
LINE
  5
32BB
330
1E
100
AcDbEntity
  8
7
100
AcDbLine
 10
2.404527559055118
 20
7.056102362204724
 30
0.0
 11
3.780511811023622
 21
7.056102362204724
 31
0.0
  0
LINE
  5
32BC
330
1E
100
AcDbEntity
  8
7
100
AcDbLine
 10
3.780511811023622
 20
7.056102362204724
 30
0.0
 11
3.78248031496063
 21
7.057086614173228
 31
0.0
  0
LINE
  5
32BD
330
1E
100
AcDbEntity
  8
7
100
AcDbLine
 10
3.78248031496063
 20
7.057086614173228
 30
0.0
 11
3.891732283464566
 21
7.057086614173228
 31
0.0
  0
LINE
  5
32BE
330
1E
100
AcDbEntity
  8
7
100
AcDbLine
 10
3.376968503937007
 20
6.867125984251968
 30
0.0
 11
3.376968503937007
 21
6.950787401574802
 31
0.0
  0
LINE
  5
32BF
330
1E
100
AcDbEntity
  8
7
100
AcDbLine
 10
3.376968503937007
 20
6.950787401574802
 30
0.0
 11
3.376968503937007
 21
6.946850393700787
 31
0.0
  0
LINE
  5
32C0
330
1E
100
AcDbEntity
  8
7
100
AcDbLine
 10
2.808070866141732
 20
6.867125984251968
 30
0.0
 11
2.807086614173228
 21
6.867125984251968
 31
0.0
  0
LINE
  5
32C1
330
1E
100
AcDbEntity
  8
7
100
AcDbLine
 10
2.807086614173228
 20
6.867125984251968
 30
0.0
 11
2.617125984251968
 21
6.867125984251968
 31
0.0
  0
LINE
  5
32C2
330
1E
100
AcDbEntity
  8
7
100
AcDbLine
 10
2.617125984251968
 20
6.867125984251968
 30
0.0
 11
2.808070866141732
 21
6.867125984251968
 31
0.0
  0
LINE
  5
32C3
330
1E
100
AcDbEntity
  8
7
100
AcDbLine
 10
2.617125984251968
 20
6.998031496062991
 30
0.0
 11
2.617125984251968
 21
6.997047244094487
 31
0.0
  0
LINE
  5
32C4
330
1E
100
AcDbEntity
  8
7
100
AcDbLine
 10
2.617125984251968
 20
6.997047244094487
 30
0.0
 11
2.807086614173228
 21
6.997047244094487
 31
0.0
  0
LINE
  5
32C5
330
1E
100
AcDbEntity
  8
7
100
AcDbLine
 10
2.808070866141732
 20
6.998031496062991
 30
0.0
 11
2.807086614173228
 21
6.997047244094487
 31
0.0
  0
LINE
  5
32C6
330
1E
100
AcDbEntity
  8
7
100
AcDbLine
 10
2.807086614173228
 20
6.997047244094487
 30
0.0
 11
2.807086614173228
 21
6.974409448818897
 31
0.0
  0
LINE
  5
32C7
330
1E
100
AcDbEntity
  8
7
100
AcDbLine
 10
2.807086614173228
 20
6.974409448818897
 30
0.0
 11
2.808070866141732
 21
6.978346456692912
 31
0.0
  0
LINE
  5
32C8
330
1E
100
AcDbEntity
  8
7
100
AcDbLine
 10
2.808070866141732
 20
6.978346456692912
 30
0.0
 11
2.808070866141732
 21
6.998031496062991
 31
0.0
  0
LINE
  5
32C9
330
1E
100
AcDbEntity
  8
7
100
AcDbLine
 10
3.376968503937007
 20
4.877952755905512
 30
0.0
 11
3.376968503937007
 21
4.900590551181101
 31
0.0
  0
LINE
  5
32CA
330
1E
100
AcDbEntity
  8
7
100
AcDbLine
 10
3.376968503937007
 20
4.900590551181101
 30
0.0
 11
3.376968503937007
 21
4.896653543307086
 31
0.0
  0
LINE
  5
32CB
330
1E
100
AcDbEntity
  8
7
100
AcDbLine
 10
3.376968503937007
 20
4.896653543307086
 30
0.0
 11
3.376968503937007
 21
4.877952755905512
 31
0.0
  0
LINE
  5
32CC
330
1E
100
AcDbEntity
  8
7
100
AcDbLine
 10
3.376968503937007
 20
5.007874015748031
 30
0.0
 11
3.567913385826771
 21
5.007874015748031
 31
0.0
  0
LINE
  5
32CD
330
1E
100
AcDbEntity
  8
7
100
AcDbLine
 10
3.567913385826771
 20
5.007874015748031
 30
0.0
 11
3.376968503937007
 21
5.007874015748031
 31
0.0
  0
LINE
  5
32CE
330
1E
100
AcDbEntity
  8
7
100
AcDbLine
 10
3.376968503937007
 20
4.924212598425197
 30
0.0
 11
3.376968503937007
 21
5.007874015748031
 31
0.0
  0
LINE
  5
32CF
330
1E
100
AcDbEntity
  8
7
100
AcDbLine
 10
3.376968503937007
 20
5.007874015748031
 30
0.0
 11
3.376968503937007
 21
4.928149606299212
 31
0.0
  0
LINE
  5
32D0
330
1E
100
AcDbEntity
  8
7
100
AcDbLine
 10
2.808070866141732
 20
4.877952755905512
 30
0.0
 11
2.807086614173228
 21
4.877952755905512
 31
0.0
  0
LINE
  5
32D1
330
1E
100
AcDbEntity
  8
7
100
AcDbLine
 10
2.807086614173228
 20
4.877952755905512
 30
0.0
 11
2.617125984251968
 21
4.877952755905512
 31
0.0
  0
LINE
  5
32D2
330
1E
100
AcDbEntity
  8
7
100
AcDbLine
 10
2.617125984251968
 20
4.877952755905512
 30
0.0
 11
2.808070866141732
 21
4.877952755905512
 31
0.0
  0
LINE
  5
32D3
330
1E
100
AcDbEntity
  8
7
100
AcDbLine
 10
2.808070866141732
 20
5.007874015748031
 30
0.0
 11
2.807086614173228
 21
5.007874015748031
 31
0.0
  0
LINE
  5
32D4
330
1E
100
AcDbEntity
  8
7
100
AcDbLine
 10
2.807086614173228
 20
5.007874015748031
 30
0.0
 11
2.807086614173228
 21
4.924212598425197
 31
0.0
  0
LINE
  5
32D5
330
1E
100
AcDbEntity
  8
7
100
AcDbLine
 10
2.807086614173228
 20
4.924212598425197
 30
0.0
 11
2.808070866141732
 21
4.928149606299212
 31
0.0
  0
LINE
  5
32D6
330
1E
100
AcDbEntity
  8
7
100
AcDbLine
 10
1.939960629921259
 20
4.993110236220472
 30
0.0
 11
1.93503937007874
 21
4.975393700787401
 31
0.0
  0
LINE
  5
32D7
330
1E
100
AcDbEntity
  8
7
100
AcDbLine
 10
1.93503937007874
 20
4.975393700787401
 30
0.0
 11
1.939960629921259
 21
4.958661417322834
 31
0.0
  0
LINE
  5
32D8
330
1E
100
AcDbEntity
  8
7
100
AcDbLine
 10
1.939960629921259
 20
4.958661417322834
 30
0.0
 11
1.951771653543307
 21
4.945866141732283
 31
0.0
  0
LINE
  5
32D9
330
1E
100
AcDbEntity
  8
7
100
AcDbLine
 10
1.951771653543307
 20
4.945866141732283
 30
0.0
 11
1.969488188976377
 21
4.940944881889763
 31
0.0
  0
LINE
  5
32DA
330
1E
100
AcDbEntity
  8
7
100
AcDbLine
 10
1.969488188976377
 20
5.009842519685038
 30
0.0
 11
1.952755905511811
 21
5.004921259842519
 31
0.0
  0
LINE
  5
32DB
330
1E
100
AcDbEntity
  8
7
100
AcDbLine
 10
1.952755905511811
 20
5.004921259842519
 30
0.0
 11
1.939960629921259
 21
4.993110236220472
 31
0.0
  0
LINE
  5
32DC
330
1E
100
AcDbEntity
  8
7
100
AcDbLine
 10
2.047244094488188
 20
5.060039370078739
 30
0.0
 11
2.043307086614173
 21
5.074803149606299
 31
0.0
  0
LINE
  5
32DD
330
1E
100
AcDbEntity
  8
7
100
AcDbLine
 10
2.043307086614173
 20
5.074803149606299
 30
0.0
 11
2.03248031496063
 21
5.085629921259842
 31
0.0
  0
LINE
  5
32DE
330
1E
100
AcDbEntity
  8
7
100
AcDbLine
 10
2.03248031496063
 20
5.085629921259842
 30
0.0
 11
2.01771653543307
 21
5.089566929133858
 31
0.0
  0
LINE
  5
32DF
330
1E
100
AcDbEntity
  8
7
100
AcDbLine
 10
2.048228346456693
 20
4.982283464566928
 30
0.0
 11
2.052165354330708
 21
4.954724409448818
 31
0.0
  0
LINE
  5
32E0
330
1E
100
AcDbEntity
  8
7
100
AcDbLine
 10
2.052165354330708
 20
4.954724409448818
 30
0.0
 11
2.064960629921259
 21
4.93011811023622
 31
0.0
  0
LINE
  5
32E1
330
1E
100
AcDbEntity
  8
7
100
AcDbLine
 10
2.064960629921259
 20
4.93011811023622
 30
0.0
 11
2.085629921259842
 21
4.909448818897637
 31
0.0
  0
LINE
  5
32E2
330
1E
100
AcDbEntity
  8
7
100
AcDbLine
 10
2.085629921259842
 20
4.909448818897637
 30
0.0
 11
2.11023622047244
 21
4.896653543307086
 31
0.0
  0
LINE
  5
32E3
330
1E
100
AcDbEntity
  8
7
100
AcDbLine
 10
2.11023622047244
 20
4.896653543307086
 30
0.0
 11
2.137795275590551
 21
4.89271653543307
 31
0.0
  0
LINE
  5
32E4
330
1E
100
AcDbEntity
  8
7
100
AcDbLine
 10
2.287401574803149
 20
4.862204724409449
 30
0.0
 11
2.283464566929133
 21
4.876968503937007
 31
0.0
  0
LINE
  5
32E5
330
1E
100
AcDbEntity
  8
7
100
AcDbLine
 10
2.283464566929133
 20
4.876968503937007
 30
0.0
 11
2.27263779527559
 21
4.88779527559055
 31
0.0
  0
LINE
  5
32E6
330
1E
100
AcDbEntity
  8
7
100
AcDbLine
 10
2.27263779527559
 20
4.88779527559055
 30
0.0
 11
2.257874015748031
 21
4.891732283464566
 31
0.0
  0
LINE
  5
32E7
330
1E
100
AcDbEntity
  8
7
100
AcDbLine
 10
2.100393700787401
 20
4.86515748031496
 30
0.0
 11
2.08759842519685
 21
4.850393700787401
 31
0.0
  0
LINE
  5
32E8
330
1E
100
AcDbEntity
  8
7
100
AcDbLine
 10
2.08759842519685
 20
4.850393700787401
 30
0.0
 11
2.083661417322834
 21
4.830708661417323
 31
0.0
  0
LINE
  5
32E9
330
1E
100
AcDbEntity
  8
7
100
AcDbLine
 10
2.172244094488188
 20
4.830708661417323
 30
0.0
 11
2.168307086614173
 21
4.850393700787401
 31
0.0
  0
LINE
  5
32EA
330
1E
100
AcDbEntity
  8
7
100
AcDbLine
 10
2.168307086614173
 20
4.850393700787401
 30
0.0
 11
2.155511811023622
 21
4.86515748031496
 31
0.0
  0
LINE
  5
32EB
330
1E
100
AcDbEntity
  8
7
100
AcDbLine
 10
2.155511811023622
 20
4.86515748031496
 30
0.0
 11
2.137795275590551
 21
4.874015748031496
 31
0.0
  0
LINE
  5
32EC
330
1E
100
AcDbEntity
  8
7
100
AcDbLine
 10
2.137795275590551
 20
4.874015748031496
 30
0.0
 11
2.118110236220472
 21
4.874015748031496
 31
0.0
  0
LINE
  5
32ED
330
1E
100
AcDbEntity
  8
7
100
AcDbLine
 10
2.118110236220472
 20
4.874015748031496
 30
0.0
 11
2.100393700787401
 21
4.86515748031496
 31
0.0
  0
LINE
  5
32EE
330
1E
100
AcDbEntity
  8
7
100
AcDbLine
 10
1.969488188976377
 20
4.93996062992126
 30
0.0
 11
1.972440944881889
 21
4.93996062992126
 31
0.0
  0
LINE
  5
32EF
330
1E
100
AcDbEntity
  8
7
100
AcDbLine
 10
1.972440944881889
 20
4.93996062992126
 30
0.0
 11
1.972440944881889
 21
4.847440944881889
 31
0.0
  0
LINE
  5
32F0
330
1E
100
AcDbEntity
  8
7
100
AcDbLine
 10
1.972440944881889
 20
4.847440944881889
 30
0.0
 11
1.976377952755905
 21
4.83267716535433
 31
0.0
  0
LINE
  5
32F1
330
1E
100
AcDbEntity
  8
7
100
AcDbLine
 10
1.976377952755905
 20
4.83267716535433
 30
0.0
 11
1.987204724409448
 21
4.821850393700787
 31
0.0
  0
LINE
  5
32F2
330
1E
100
AcDbEntity
  8
7
100
AcDbLine
 10
1.987204724409448
 20
4.821850393700787
 30
0.0
 11
2.001968503937007
 21
4.817913385826771
 31
0.0
  0
LINE
  5
32F3
330
1E
100
AcDbEntity
  8
7
100
AcDbLine
 10
4.020669291338582
 20
4.81496062992126
 30
0.0
 11
4.025590551181101
 21
4.798228346456692
 31
0.0
  0
LINE
  5
32F4
330
1E
100
AcDbEntity
  8
7
100
AcDbLine
 10
4.025590551181101
 20
4.798228346456692
 30
0.0
 11
4.037401574803149
 21
4.785433070866141
 31
0.0
  0
LINE
  5
32F5
330
1E
100
AcDbEntity
  8
7
100
AcDbLine
 10
4.037401574803149
 20
4.785433070866141
 30
0.0
 11
4.05511811023622
 21
4.780511811023622
 31
0.0
  0
LINE
  5
32F6
330
1E
100
AcDbEntity
  8
7
100
AcDbLine
 10
4.05511811023622
 20
4.780511811023622
 30
0.0
 11
4.071850393700787
 21
4.785433070866141
 31
0.0
  0
LINE
  5
32F7
330
1E
100
AcDbEntity
  8
7
100
AcDbLine
 10
4.071850393700787
 20
4.785433070866141
 30
0.0
 11
4.084645669291337
 21
4.797244094488188
 31
0.0
  0
LINE
  5
32F8
330
1E
100
AcDbEntity
  8
7
100
AcDbLine
 10
4.084645669291337
 20
4.797244094488188
 30
0.0
 11
4.089566929133857
 21
4.81496062992126
 31
0.0
  0
LINE
  5
32F9
330
1E
100
AcDbEntity
  8
7
100
AcDbLine
 10
3.927165354330708
 20
4.891732283464566
 30
0.0
 11
3.912401574803149
 21
4.88779527559055
 31
0.0
  0
LINE
  5
32FA
330
1E
100
AcDbEntity
  8
7
100
AcDbLine
 10
3.912401574803149
 20
4.88779527559055
 30
0.0
 11
3.901574803149606
 21
4.876968503937007
 31
0.0
  0
LINE
  5
32FB
330
1E
100
AcDbEntity
  8
7
100
AcDbLine
 10
3.901574803149606
 20
4.876968503937007
 30
0.0
 11
3.89763779527559
 21
4.862204724409449
 31
0.0
  0
LINE
  5
32FC
330
1E
100
AcDbEntity
  8
7
100
AcDbLine
 10
4.047244094488188
 20
4.89271653543307
 30
0.0
 11
4.074803149606299
 21
4.896653543307086
 31
0.0
  0
LINE
  5
32FD
330
1E
100
AcDbEntity
  8
7
100
AcDbLine
 10
4.074803149606299
 20
4.896653543307086
 30
0.0
 11
4.099409448818897
 21
4.909448818897637
 31
0.0
  0
LINE
  5
32FE
330
1E
100
AcDbEntity
  8
7
100
AcDbLine
 10
4.099409448818897
 20
4.909448818897637
 30
0.0
 11
4.120078740157479
 21
4.93011811023622
 31
0.0
  0
LINE
  5
32FF
330
1E
100
AcDbEntity
  8
7
100
AcDbLine
 10
4.120078740157479
 20
4.93011811023622
 30
0.0
 11
4.13287401574803
 21
4.954724409448818
 31
0.0
  0
LINE
  5
3300
330
1E
100
AcDbEntity
  8
7
100
AcDbLine
 10
4.167322834645668
 20
5.089566929133858
 30
0.0
 11
4.15255905511811
 21
5.085629921259842
 31
0.0
  0
LINE
  5
3301
330
1E
100
AcDbEntity
  8
7
100
AcDbLine
 10
4.15255905511811
 20
5.085629921259842
 30
0.0
 11
4.141732283464566
 21
5.074803149606299
 31
0.0
  0
LINE
  5
3302
330
1E
100
AcDbEntity
  8
7
100
AcDbLine
 10
4.141732283464566
 20
5.074803149606299
 30
0.0
 11
4.13779527559055
 21
5.060039370078739
 31
0.0
  0
LINE
  5
3303
330
1E
100
AcDbEntity
  8
7
100
AcDbLine
 10
4.198818897637794
 20
5.01771653543307
 30
0.0
 11
4.179133858267715
 21
5.013779527559054
 31
0.0
  0
LINE
  5
3304
330
1E
100
AcDbEntity
  8
7
100
AcDbLine
 10
4.179133858267715
 20
5.013779527559054
 30
0.0
 11
4.164370078740157
 21
5.000984251968503
 31
0.0
  0
LINE
  5
3305
330
1E
100
AcDbEntity
  8
7
100
AcDbLine
 10
4.164370078740157
 20
5.000984251968503
 30
0.0
 11
4.155511811023621
 21
4.983267716535433
 31
0.0
  0
LINE
  5
3306
330
1E
100
AcDbEntity
  8
7
100
AcDbLine
 10
4.155511811023621
 20
4.983267716535433
 30
0.0
 11
4.155511811023621
 21
4.963582677165354
 31
0.0
  0
LINE
  5
3307
330
1E
100
AcDbEntity
  8
7
100
AcDbLine
 10
4.155511811023621
 20
4.963582677165354
 30
0.0
 11
4.164370078740157
 21
4.945866141732283
 31
0.0
  0
LINE
  5
3308
330
1E
100
AcDbEntity
  8
7
100
AcDbLine
 10
4.164370078740157
 20
4.945866141732283
 30
0.0
 11
4.179133858267715
 21
4.933070866141732
 31
0.0
  0
LINE
  5
3309
330
1E
100
AcDbEntity
  8
7
100
AcDbLine
 10
4.179133858267715
 20
4.933070866141732
 30
0.0
 11
4.198818897637794
 21
4.929133858267716
 31
0.0
  0
LINE
  5
330A
330
1E
100
AcDbEntity
  8
7
100
AcDbLine
 10
4.182086614173227
 20
4.817913385826771
 30
0.0
 11
4.19783464566929
 21
4.821850393700787
 31
0.0
  0
LINE
  5
330B
330
1E
100
AcDbEntity
  8
7
100
AcDbLine
 10
4.19783464566929
 20
4.821850393700787
 30
0.0
 11
4.208661417322834
 21
4.83267716535433
 31
0.0
  0
LINE
  5
330C
330
1E
100
AcDbEntity
  8
7
100
AcDbLine
 10
4.208661417322834
 20
4.83267716535433
 30
0.0
 11
4.21259842519685
 21
4.847440944881889
 31
0.0
  0
LINE
  5
330D
330
1E
100
AcDbEntity
  8
7
100
AcDbLine
 10
4.214566929133857
 20
6.866141732283464
 30
0.0
 11
4.231299212598425
 21
6.871062992125984
 31
0.0
  0
LINE
  5
330E
330
1E
100
AcDbEntity
  8
7
100
AcDbLine
 10
4.231299212598425
 20
6.871062992125984
 30
0.0
 11
4.244094488188975
 21
6.882874015748031
 31
0.0
  0
LINE
  5
330F
330
1E
100
AcDbEntity
  8
7
100
AcDbLine
 10
4.244094488188975
 20
6.882874015748031
 30
0.0
 11
4.249015748031495
 21
6.900590551181101
 31
0.0
  0
LINE
  5
3310
330
1E
100
AcDbEntity
  8
7
100
AcDbLine
 10
4.249015748031495
 20
6.900590551181101
 30
0.0
 11
4.244094488188975
 21
6.917322834645669
 31
0.0
  0
LINE
  5
3311
330
1E
100
AcDbEntity
  8
7
100
AcDbLine
 10
4.244094488188975
 20
6.917322834645669
 30
0.0
 11
4.232283464566928
 21
6.93011811023622
 31
0.0
  0
LINE
  5
3312
330
1E
100
AcDbEntity
  8
7
100
AcDbLine
 10
4.232283464566928
 20
6.93011811023622
 30
0.0
 11
4.214566929133857
 21
6.935039370078739
 31
0.0
  0
LINE
  5
3313
330
1E
100
AcDbEntity
  8
7
100
AcDbLine
 10
4.13779527559055
 20
6.81496062992126
 30
0.0
 11
4.141732283464566
 21
6.8001968503937
 31
0.0
  0
LINE
  5
3314
330
1E
100
AcDbEntity
  8
7
100
AcDbLine
 10
4.141732283464566
 20
6.8001968503937
 30
0.0
 11
4.15255905511811
 21
6.789370078740157
 31
0.0
  0
LINE
  5
3315
330
1E
100
AcDbEntity
  8
7
100
AcDbLine
 10
4.15255905511811
 20
6.789370078740157
 30
0.0
 11
4.167322834645668
 21
6.785433070866141
 31
0.0
  0
LINE
  5
3316
330
1E
100
AcDbEntity
  8
7
100
AcDbLine
 10
4.136811023622046
 20
6.89271653543307
 30
0.0
 11
4.13287401574803
 21
6.92027559055118
 31
0.0
  0
LINE
  5
3317
330
1E
100
AcDbEntity
  8
7
100
AcDbLine
 10
4.13287401574803
 20
6.92027559055118
 30
0.0
 11
4.120078740157479
 21
6.944881889763779
 31
0.0
  0
LINE
  5
3318
330
1E
100
AcDbEntity
  8
7
100
AcDbLine
 10
4.120078740157479
 20
6.944881889763779
 30
0.0
 11
4.099409448818897
 21
6.965551181102362
 31
0.0
  0
LINE
  5
3319
330
1E
100
AcDbEntity
  8
7
100
AcDbLine
 10
4.099409448818897
 20
6.965551181102362
 30
0.0
 11
4.074803149606299
 21
6.978346456692912
 31
0.0
  0
LINE
  5
331A
330
1E
100
AcDbEntity
  8
7
100
AcDbLine
 10
4.074803149606299
 20
6.978346456692912
 30
0.0
 11
4.047244094488188
 21
6.982283464566928
 31
0.0
  0
LINE
  5
331B
330
1E
100
AcDbEntity
  8
7
100
AcDbLine
 10
3.89763779527559
 20
7.01279527559055
 30
0.0
 11
3.901574803149606
 21
6.998031496062991
 31
0.0
  0
LINE
  5
331C
330
1E
100
AcDbEntity
  8
7
100
AcDbLine
 10
3.901574803149606
 20
6.998031496062991
 30
0.0
 11
3.912401574803149
 21
6.987204724409449
 31
0.0
  0
LINE
  5
331D
330
1E
100
AcDbEntity
  8
7
100
AcDbLine
 10
3.912401574803149
 20
6.987204724409449
 30
0.0
 11
3.927165354330708
 21
6.983267716535433
 31
0.0
  0
LINE
  5
331E
330
1E
100
AcDbEntity
  8
7
100
AcDbLine
 10
4.01279527559055
 20
7.044291338582676
 30
0.0
 11
4.016732283464566
 21
7.024606299212598
 31
0.0
  0
LINE
  5
331F
330
1E
100
AcDbEntity
  8
7
100
AcDbLine
 10
4.016732283464566
 20
7.024606299212598
 30
0.0
 11
4.029527559055117
 21
7.009842519685038
 31
0.0
  0
LINE
  5
3320
330
1E
100
AcDbEntity
  8
7
100
AcDbLine
 10
4.029527559055117
 20
7.009842519685038
 30
0.0
 11
4.047244094488188
 21
7.000984251968503
 31
0.0
  0
LINE
  5
3321
330
1E
100
AcDbEntity
  8
7
100
AcDbLine
 10
4.047244094488188
 20
7.000984251968503
 30
0.0
 11
4.066929133858267
 21
7.000984251968503
 31
0.0
  0
LINE
  5
3322
330
1E
100
AcDbEntity
  8
7
100
AcDbLine
 10
4.066929133858267
 20
7.000984251968503
 30
0.0
 11
4.084645669291337
 21
7.009842519685038
 31
0.0
  0
LINE
  5
3323
330
1E
100
AcDbEntity
  8
7
100
AcDbLine
 10
4.084645669291337
 20
7.009842519685038
 30
0.0
 11
4.097440944881888
 21
7.024606299212598
 31
0.0
  0
LINE
  5
3324
330
1E
100
AcDbEntity
  8
7
100
AcDbLine
 10
4.097440944881888
 20
7.024606299212598
 30
0.0
 11
4.101377952755904
 21
7.044291338582676
 31
0.0
  0
LINE
  5
3325
330
1E
100
AcDbEntity
  8
7
100
AcDbLine
 10
4.214566929133857
 20
6.935039370078739
 30
0.0
 11
4.21259842519685
 21
6.935039370078739
 31
0.0
  0
LINE
  5
3326
330
1E
100
AcDbEntity
  8
7
100
AcDbLine
 10
4.21259842519685
 20
6.935039370078739
 30
0.0
 11
4.21259842519685
 21
7.02755905511811
 31
0.0
  0
LINE
  5
3327
330
1E
100
AcDbEntity
  8
7
100
AcDbLine
 10
4.21259842519685
 20
7.02755905511811
 30
0.0
 11
4.208661417322834
 21
7.042322834645669
 31
0.0
  0
LINE
  5
3328
330
1E
100
AcDbEntity
  8
7
100
AcDbLine
 10
4.208661417322834
 20
7.042322834645669
 30
0.0
 11
4.19783464566929
 21
7.054133858267716
 31
0.0
  0
LINE
  5
3329
330
1E
100
AcDbEntity
  8
7
100
AcDbLine
 10
2.159448818897637
 20
7.076771653543307
 30
0.0
 11
2.14763779527559
 21
7.089566929133858
 31
0.0
  0
LINE
  5
332A
330
1E
100
AcDbEntity
  8
7
100
AcDbLine
 10
2.14763779527559
 20
7.089566929133858
 30
0.0
 11
2.129921259842519
 21
7.094488188976377
 31
0.0
  0
LINE
  5
332B
330
1E
100
AcDbEntity
  8
7
100
AcDbLine
 10
2.129921259842519
 20
7.094488188976377
 30
0.0
 11
2.113188976377952
 21
7.089566929133858
 31
0.0
  0
LINE
  5
332C
330
1E
100
AcDbEntity
  8
7
100
AcDbLine
 10
2.113188976377952
 20
7.089566929133858
 30
0.0
 11
2.100393700787401
 21
7.077755905511811
 31
0.0
  0
LINE
  5
332D
330
1E
100
AcDbEntity
  8
7
100
AcDbLine
 10
2.100393700787401
 20
7.077755905511811
 30
0.0
 11
2.095472440944881
 21
7.060039370078739
 31
0.0
  0
LINE
  5
332E
330
1E
100
AcDbEntity
  8
7
100
AcDbLine
 10
2.257874015748031
 20
6.983267716535433
 30
0.0
 11
2.27263779527559
 21
6.987204724409449
 31
0.0
  0
LINE
  5
332F
330
1E
100
AcDbEntity
  8
7
100
AcDbLine
 10
2.27263779527559
 20
6.987204724409449
 30
0.0
 11
2.283464566929133
 21
6.998031496062991
 31
0.0
  0
LINE
  5
3330
330
1E
100
AcDbEntity
  8
7
100
AcDbLine
 10
2.283464566929133
 20
6.998031496062991
 30
0.0
 11
2.287401574803149
 21
7.01279527559055
 31
0.0
  0
LINE
  5
3331
330
1E
100
AcDbEntity
  8
7
100
AcDbLine
 10
2.137795275590551
 20
6.982283464566928
 30
0.0
 11
2.11023622047244
 21
6.978346456692912
 31
0.0
  0
LINE
  5
3332
330
1E
100
AcDbEntity
  8
7
100
AcDbLine
 10
2.11023622047244
 20
6.978346456692912
 30
0.0
 11
2.085629921259842
 21
6.965551181102362
 31
0.0
  0
LINE
  5
3333
330
1E
100
AcDbEntity
  8
7
100
AcDbLine
 10
2.085629921259842
 20
6.965551181102362
 30
0.0
 11
2.064960629921259
 21
6.944881889763779
 31
0.0
  0
LINE
  5
3334
330
1E
100
AcDbEntity
  8
7
100
AcDbLine
 10
2.064960629921259
 20
6.944881889763779
 30
0.0
 11
2.052165354330708
 21
6.92027559055118
 31
0.0
  0
LINE
  5
3335
330
1E
100
AcDbEntity
  8
7
100
AcDbLine
 10
2.052165354330708
 20
6.92027559055118
 30
0.0
 11
2.048228346456693
 21
6.89271653543307
 31
0.0
  0
LINE
  5
3336
330
1E
100
AcDbEntity
  8
7
100
AcDbLine
 10
2.01771653543307
 20
6.785433070866141
 30
0.0
 11
2.03248031496063
 21
6.789370078740157
 31
0.0
  0
LINE
  5
3337
330
1E
100
AcDbEntity
  8
7
100
AcDbLine
 10
2.03248031496063
 20
6.789370078740157
 30
0.0
 11
2.043307086614173
 21
6.8001968503937
 31
0.0
  0
LINE
  5
3338
330
1E
100
AcDbEntity
  8
7
100
AcDbLine
 10
2.020669291338582
 20
6.875
 30
0.0
 11
2.029527559055118
 21
6.89271653543307
 31
0.0
  0
LINE
  5
3339
330
1E
100
AcDbEntity
  8
7
100
AcDbLine
 10
2.029527559055118
 20
6.89271653543307
 30
0.0
 11
2.029527559055118
 21
6.912401574803149
 31
0.0
  0
LINE
  5
333A
330
1E
100
AcDbEntity
  8
7
100
AcDbLine
 10
2.029527559055118
 20
6.912401574803149
 30
0.0
 11
2.020669291338582
 21
6.93011811023622
 31
0.0
  0
LINE
  5
333B
330
1E
100
AcDbEntity
  8
7
100
AcDbLine
 10
2.020669291338582
 20
6.93011811023622
 30
0.0
 11
2.005905511811023
 21
6.942913385826771
 31
0.0
  0
LINE
  5
333C
330
1E
100
AcDbEntity
  8
7
100
AcDbLine
 10
2.005905511811023
 20
6.942913385826771
 30
0.0
 11
1.986220472440944
 21
6.946850393700787
 31
0.0
  0
LINE
  5
333D
330
1E
100
AcDbEntity
  8
7
100
AcDbLine
 10
1.986220472440944
 20
6.858267716535433
 30
0.0
 11
2.005905511811023
 21
6.862204724409449
 31
0.0
  0
LINE
  5
333E
330
1E
100
AcDbEntity
  8
7
100
AcDbLine
 10
2.005905511811023
 20
6.862204724409449
 30
0.0
 11
2.020669291338582
 21
6.875
 31
0.0
  0
LINE
  5
333F
330
1E
100
AcDbEntity
  8
7
100
AcDbLine
 10
2.001968503937007
 20
7.058070866141732
 30
0.0
 11
1.987204724409448
 21
7.054133858267716
 31
0.0
  0
LINE
  5
3340
330
1E
100
AcDbEntity
  8
7
100
AcDbLine
 10
1.987204724409448
 20
7.054133858267716
 30
0.0
 11
1.976377952755905
 21
7.042322834645669
 31
0.0
  0
LINE
  5
3341
330
1E
100
AcDbEntity
  8
7
100
AcDbLine
 10
1.976377952755905
 20
7.042322834645669
 30
0.0
 11
1.972440944881889
 21
7.02755905511811
 31
0.0
  0
ENDSEC
  0
SECTION
  2
OBJECTS
  0
DICTIONARY
  5
C
330
0
100
AcDbDictionary
  3
ACAD_GROUP
350
D
  3
ACAD_MLINESTYLE
350
16
  3
ACAD_PLOTSETTINGS
350
18
  3
ACAD_LAYOUT
350
19
1001
ACAD
1000
TREAT_AS_HARD
1070
     0
  0
DICTIONARY
  5
472E
330
1E
100
AcDbDictionary
  3
ACAD_LAYOUTSELFREF
350
472F
  0
DICTIONARY
  5
472C
330
1A
100
AcDbDictionary
  3
ACAD_LAYOUTSELFREF
350
472D
  0
DICTIONARY
  5
D
102
{ACAD_REACTORS
330
C
102
}
330
C
100
AcDbDictionary
1001
ACAD
1000
TREAT_AS_HARD
1070
     0
  0
DICTIONARY
  5
16
102
{ACAD_REACTORS
330
C
102
}
330
C
100
AcDbDictionary
  3
STANDARD
350
17
1001
ACAD
1000
TREAT_AS_HARD
1070
     0
  0
DICTIONARY
  5
18
102
{ACAD_REACTORS
330
C
102
}
330
C
100
AcDbDictionary
1001
ACAD
1000
TREAT_AS_HARD
1070
     0
  0
DICTIONARY
  5
19
102
{ACAD_REACTORS
330
C
102
}
330
C
100
AcDbDictionary
1001
ACAD
1000
TREAT_AS_HARD
1070
     0
  0
XRECORD
  5
472F
102
{ACAD_REACTORS
330
472E
102
}
330
472E
100
AcDbXrecord
340
1E
  0
XRECORD
  5
472D
102
{ACAD_REACTORS
330
472C
102
}
330
472C
100
AcDbXrecord
340
1A
  0
MLINESTYLE
  5
17
102
{ACAD_REACTORS
330
16
102
}
330
16
100
AcDbMlineStyle
  2
STANDARD
 70
     0
  3

 62
   256
 51
90.0
 52
90.0
 71
     2
 49
0.5
 62
   256
  6
BYLAYER
 49
-0.5
 62
   256
  6
BYLAYER
  0
ENDSEC
  0
EOF
