  0
SECTION
  2
HEADER
  9
$ACADVER
  1
AC1014
  9
$ACADMAINTVER
 70
     9
  9
$DWGCODEPAGE
  3
ANSI_1252
  9
$INSBASE
 10
0.0
 20
0.0
 30
0.0
  9
$EXTMIN
 10
3.799568891525268
 20
3.344814777374267
 30
0.0
  9
$EXTMAX
 10
53.29158782958984
 20
31.9256591796875
 30
0.0
  9
$LIMMIN
 10
-0.5
 20
-0.5
  9
$LIMMAX
 10
5.0
 20
5.0
  9
$ORTHOMODE
 70
     0
  9
$REGENMODE
 70
     1
  9
$FILLMODE
 70
     1
  9
$QTEXTMODE
 70
     0
  9
$MIRRTEXT
 70
     1
  9
$DRAGMODE
 70
     2
  9
$LTSCALE
 40
1.0
  9
$OSMODE
 70
    37
  9
$ATTMODE
 70
     1
  9
$TEXTSIZE
 40
0.0
  9
$TRACEWID
 40
0.05
  9
$TEXTSTYLE
  7
STANDARD
  9
$CLAYER
  8
0
  9
$CELTYPE
  6
CONTINUOUS
  9
$CECOLOR
 62
   256
  9
$CELTSCALE
 40
1.0
  9
$DELOBJ
 70
     1
  9
$DISPSILH
 70
     0
  9
$DIMSCALE
 40
1.0
  9
$DIMASZ
 40
0.18
  9
$DIMEXO
 40
0.0625
  9
$DIMDLI
 40
0.38
  9
$DIMRND
 40
0.0
  9
$DIMDLE
 40
0.0
  9
$DIMEXE
 40
0.18
  9
$DIMTP
 40
0.0
  9
$DIMTM
 40
0.0
  9
$DIMTXT
 40
0.18
  9
$DIMCEN
 40
0.09
  9
$DIMTSZ
 40
0.0
  9
$DIMTOL
 70
     0
  9
$DIMLIM
 70
     0
  9
$DIMTIH
 70
     1
  9
$DIMTOH
 70
     1
  9
$DIMSE1
 70
     0
  9
$DIMSE2
 70
     0
  9
$DIMTAD
 70
     0
  9
$DIMZIN
 70
     0
  9
$DIMBLK
  1

  9
$DIMASO
 70
     1
  9
$DIMSHO
 70
     1
  9
$DIMPOST
  1

  9
$DIMAPOST
  1

  9
$DIMALT
 70
     0
  9
$DIMALTD
 70
     2
  9
$DIMALTF
 40
25.4
  9
$DIMLFAC
 40
1.0
  9
$DIMTOFL
 70
     0
  9
$DIMTVP
 40
0.0
  9
$DIMTIX
 70
     0
  9
$DIMSOXD
 70
     0
  9
$DIMSAH
 70
     0
  9
$DIMBLK1
  1

  9
$DIMBLK2
  1

  9
$DIMSTYLE
  2
STANDARD
  9
$DIMCLRD
 70
     0
  9
$DIMCLRE
 70
     0
  9
$DIMCLRT
 70
     0
  9
$DIMTFAC
 40
1.0
  9
$DIMGAP
 40
0.09
  9
$DIMJUST
 70
     0
  9
$DIMSD1
 70
     0
  9
$DIMSD2
 70
     0
  9
$DIMTOLJ
 70
     1
  9
$DIMTZIN
 70
     0
  9
$DIMALTZ
 70
     0
  9
$DIMALTTZ
 70
     0
  9
$DIMFIT
 70
     3
  9
$DIMUPT
 70
     0
  9
$DIMUNIT
 70
     2
  9
$DIMDEC
 70
     4
  9
$DIMTDEC
 70
     4
  9
$DIMALTU
 70
     2
  9
$DIMALTTD
 70
     2
  9
$DIMTXSTY
  7
STANDARD
  9
$DIMAUNIT
 70
     0
  9
$LUNITS
 70
     2
  9
$LUPREC
 70
     4
  9
$SKETCHINC
 40
0.1
  9
$FILLETRAD
 40
0.0
  9
$AUNITS
 70
     0
  9
$AUPREC
 70
     0
  9
$MENU
  1
acad
  9
$ELEVATION
 40
0.0
  9
$PELEVATION
 40
0.0
  9
$THICKNESS
 40
0.0
  9
$LIMCHECK
 70
     0
  9
$BLIPMODE
 70
     0
  9
$CHAMFERA
 40
0.0
  9
$CHAMFERB
 40
0.0
  9
$CHAMFERC
 40
0.0
  9
$CHAMFERD
 40
0.0
  9
$SKPOLY
 70
     0
  9
$TDCREATE
 40
2455055.593910220
  9
$TDUPDATE
 40
2455055.596710694
  9
$TDINDWG
 40
0.0028155093
  9
$TDUSRTIMER
 40
0.0028155093
  9
$USRTIMER
 70
     1
  9
$ANGBASE
 50
0.0
  9
$ANGDIR
 70
     0
  9
$PDMODE
 70
     0
  9
$PDSIZE
 40
0.0
  9
$PLINEWID
 40
0.0
  9
$COORDS
 70
     1
  9
$SPLFRAME
 70
     0
  9
$SPLINETYPE
 70
     6
  9
$SPLINESEGS
 70
     8
  9
$ATTDIA
 70
     0
  9
$ATTREQ
 70
     1
  9
$HANDLING
 70
-16383
  9
$HANDSEED
  5
2CD
  9
$SURFTAB1
 70
     6
  9
$SURFTAB2
 70
     6
  9
$SURFTYPE
 70
     6
  9
$SURFU
 70
     6
  9
$SURFV
 70
     6
  9
$UCSNAME
  2

  9
$UCSORG
 10
0.0
 20
0.0
 30
0.0
  9
$UCSXDIR
 10
1.0
 20
0.0
 30
0.0
  9
$UCSYDIR
 10
0.0
 20
1.0
 30
0.0
  9
$PUCSNAME
  2

  9
$PUCSORG
 10
0.0
 20
0.0
 30
0.0
  9
$PUCSXDIR
 10
1.0
 20
0.0
 30
0.0
  9
$PUCSYDIR
 10
0.0
 20
1.0
 30
0.0
  9
$USERI1
 70
     0
  9
$USERI2
 70
     0
  9
$USERI3
 70
     0
  9
$USERI4
 70
     0
  9
$USERI5
 70
     0
  9
$USERR1
 40
0.0
  9
$USERR2
 40
0.0
  9
$USERR3
 40
0.0
  9
$USERR4
 40
0.0
  9
$USERR5
 40
0.0
  9
$WORLDVIEW
 70
     1
  9
$SHADEDGE
 70
     3
  9
$SHADEDIF
 70
    70
  9
$TILEMODE
 70
     1
  9
$MAXACTVP
 70
    64
  9
$PINSBASE
 10
0.0
 20
0.0
 30
0.0
  9
$PLIMCHECK
 70
     0
  9
$PEXTMIN
 10
1.000000000000000E+20
 20
1.000000000000000E+20
 30
1.000000000000000E+20
  9
$PEXTMAX
 10
-1.000000000000000E+20
 20
-1.000000000000000E+20
 30
-1.000000000000000E+20
  9
$PLIMMIN
 10
-0.6912502979669047
 20
-0.691249997597041
  9
$PLIMMAX
 10
10.3087494617372
 20
7.808749762107067
  9
$UNITMODE
 70
     0
  9
$VISRETAIN
 70
     0
  9
$PLINEGEN
 70
     1
  9
$PSLTSCALE
 70
     0
  9
$TREEDEPTH
 70
  3020
  9
$PICKSTYLE
 70
     1
  9
$CMLSTYLE
  2
STANDARD
  9
$CMLJUST
 70
     0
  9
$CMLSCALE
 40
1.0
  9
$PROXYGRAPHICS
 70
     0
  9
$MEASUREMENT
 70
     0
  0
ENDSEC
  0
SECTION
  2
CLASSES
  0
CLASS
  1
LWPOLYLINE
  2
AcDbPolyline
  3
AutoCAD 2000
 90
        0
280
     0
281
     1
  0
CLASS
  1
IMAGE
  2
AcDbRasterImage
  3
ISM
 90
      127
280
     0
281
     1
  0
CLASS
  1
OLE2FRAME
  2
AcDbOle2Frame
  3
AutoCAD 2000
 90
        0
280
     0
281
     1
  0
CLASS
  1
HATCH
  2
AcDbHatch
  3
AutoCAD 2000
 90
        0
280
     0
281
     1
  0
CLASS
  1
DICTIONARYVAR
  2
AcDbDictionaryVar
  3
AutoCAD 2000
 90
        0
280
     0
281
     0
  0
CLASS
  1
RASTERVARIABLES
  2
AcDbRasterVariables
  3
ISM
 90
        0
280
     0
281
     0
  0
CLASS
  1
IMAGEDEF
  2
AcDbRasterImageDef
  3
ISM
 90
        0
280
     0
281
     0
  0
CLASS
  1
IMAGEDEF_REACTOR
  2
AcDbRasterImageDefReactor
  3
ISM
 90
        1
280
     0
281
     0
  0
CLASS
  1
IDBUFFER
  2
AcDbIdBuffer
  3
AutoCAD 2000
 90
        0
280
     0
281
     0
  0
CLASS
  1
SPATIAL_FILTER
  2
AcDbSpatialFilter
  3
AutoCAD 2000
 90
        0
280
     0
281
     0
  0
CLASS
  1
XRECORD
  2
AcDbXrecord
  3
AutoCAD 2000
 90
        0
280
     0
281
     0
  0
CLASS
  1
SORTENTSTABLE
  2
AcDbSortentsTable
  3
AutoCAD 2000
 90
        0
280
     0
281
     0
  0
CLASS
  1
LAYER_INDEX
  2
AcDbLayerIndex
  3
AutoCAD 2000
 90
        0
280
     0
281
     0
  0
CLASS
  1
SPATIAL_INDEX
  2
AcDbSpatialIndex
  3
AutoCAD 2000
 90
        0
280
     0
281
     0
  0
CLASS
  1
OBJECT_PTR
  2
CAseDLPNTableRecord
  3
ASE-LPNTableRecord
 90
        1
280
     0
281
     0
  0
CLASS
  1
LAYOUT
  2
AcDbLayout
  3
AutoCAD 2000
 90
        0
280
     0
281
     0
  0
CLASS
  1
PLOTSETTINGS
  2
AcDbPlotSettings
  3
AutoCAD 2000
 90
        0
280
     0
281
     0
  0
CLASS
  1
ACDBDICTIONARYWDFLT
  2
AcDbDictionaryWithDefault
  3
AutoCAD 2000
 90
        0
280
     0
281
     0
  0
CLASS
  1
ACDBPLACEHOLDER
  2
AcDbPlaceHolder
  3
AutoCAD 2000
 90
        0
280
     0
281
     0
  0
CLASS
  1
VBA_PROJECT
  2
AcDbVbaProject
  3
acadvba
 90
        0
280
     0
281
     0
  0
CLASS
  1
WIPEOUT
  2
AcDbWipeout
  3
WipeOut|AutoCAD Express Tool|expresstools@autodesk.com
 90
      127
280
     0
281
     1
  0
CLASS
  1
WIPEOUTVARIABLES
  2
AcDbWipeoutVariables
  3
WipeOut|AutoCAD Express Tool|expresstools@autodesk.com
 90
        0
280
     0
281
     0
  0
CLASS
  1
RTEXT
  2
RText
  3
RText|AutoCAD Express Tool|expresstools@autodesk.com
 90
        0
280
     0
281
     1
  0
CLASS
  1
ARCALIGNEDTEXT
  2
AcDbArcAlignedText
  3
ATEXT|AutoCAD Express Tool|expresstools@autodesk.com
 90
        0
280
     0
281
     1
  0
CLASS
  1
ACAD_PROXY_OBJECT_WRAPPER
  2
AcDbProxyObjectWrapper
  3
AutoCAD 2000
 90
        0
280
     0
281
     0
  0
CLASS
  1
LONG_TRANSACTION
  2
AcDbLongTransaction
  3
AutoCAD 2000
 90
        0
280
     0
281
     0
  0
CLASS
  1
LWPOLYLINE
  2
AcDbPolyline
  3
AutoCAD 2000
 90
        0
280
     0
281
     1
  0
CLASS
  1
HATCH
  2
AcDbHatch
  3
AutoCAD 2000
 90
        0
280
     0
281
     1
  0
CLASS
  1
XRECORD
  2
AcDbXrecord
  3
AutoCAD 2000
 90
        0
280
     0
281
     0
  0
ENDSEC
  0
SECTION
  2
TABLES
  0
TABLE
  2
VPORT
  5
7
330
0
100
AcDbSymbolTable
 70
    18
  0
VPORT
  5
22C
330
7
100
AcDbSymbolTableRecord
100
AcDbViewportTableRecord
  2
L1
 70
     0
 10
0.0
 20
0.0
 11
1.0
 21
1.0
 12
0.0
 22
0.0
 13
0.0
 23
0.0
 14
1.0
 24
1.0
 15
0.0
 25
0.0
 16
0.7188730927569434
 26
-0.5850486126764432
 36
0.3754192287502549
 17
0.0
 27
0.0
 37
0.0
 40
68.96750072793771
 41
0.688564
 42
50.0
 43
34.05957066112821
 44
-34.05957066112821
 50
0.0
 51
0.0
 71
    16
 72
   100
 73
     1
 74
     1
 75
     0
 76
     0
 77
     0
 78
     0
  0
VPORT
  5
22D
330
7
100
AcDbSymbolTableRecord
100
AcDbViewportTableRecord
  2
L2
 70
     0
 10
0.0
 20
0.0
 11
0.5
 21
1.0
 12
0.0
 22
0.0
 13
0.0
 23
0.0
 14
1.0
 24
1.0
 15
0.0
 25
0.0
 16
0.0
 26
-1.0
 36
0.0
 17
0.0
 27
0.0
 37
0.0
 40
66.45769885098189
 41
0.688564
 42
50.0
 43
34.36039777289748
 44
-34.36039777289748
 50
0.0
 51
0.0
 71
    16
 72
   100
 73
     1
 74
     1
 75
     0
 76
     0
 77
     0
 78
     0
  0
VPORT
  5
22E
330
7
100
AcDbSymbolTableRecord
100
AcDbViewportTableRecord
  2
L2
 70
     0
 10
0.5
 20
0.0
 11
1.0
 21
1.0
 12
0.0
 22
0.0
 13
0.0
 23
0.0
 14
1.0
 24
1.0
 15
0.0
 25
0.0
 16
1.0
 26
0.0
 36
0.0
 17
0.0
 27
0.0
 37
0.0
 40
66.45769885098189
 41
0.688564
 42
50.0
 43
33.57466616030683
 44
-33.57466616030683
 50
0.0
 51
0.0
 71
    16
 72
   100
 73
     1
 74
     1
 75
     0
 76
     0
 77
     0
 78
     0
  0
VPORT
  5
22F
330
7
100
AcDbSymbolTableRecord
100
AcDbViewportTableRecord
  2
L3
 70
     0
 10
0.0
 20
0.5
 11
1.0
 21
1.0
 12
0.0
 22
0.0
 13
0.0
 23
0.0
 14
1.0
 24
1.0
 15
0.0
 25
0.0
 16
0.0
 26
0.0
 36
1.0
 17
0.0
 27
0.0
 37
0.0
 40
9.61286089238845
 41
0.688564
 42
50.0
 43
33.22884942549094
 44
-33.22884942549094
 50
0.0
 51
0.0
 71
    16
 72
   100
 73
     1
 74
     1
 75
     0
 76
     0
 77
     0
 78
     0
  0
VPORT
  5
230
330
7
100
AcDbSymbolTableRecord
100
AcDbViewportTableRecord
  2
L3
 70
     0
 10
0.0
 20
0.0
 11
1.0
 21
0.5
 12
0.0
 22
0.0
 13
0.0
 23
0.0
 14
1.0
 24
1.0
 15
0.0
 25
0.0
 16
0.0
 26
-1.0
 36
0.0
 17
0.0
 27
0.0
 37
0.0
 40
66.45769885098189
 41
0.688564
 42
50.0
 43
34.36039777289748
 44
-34.36039777289748
 50
0.0
 51
0.0
 71
    16
 72
   100
 73
     1
 74
     1
 75
     0
 76
     0
 77
     0
 78
     0
  0
VPORT
  5
231
330
7
100
AcDbSymbolTableRecord
100
AcDbViewportTableRecord
  2
L4
 70
     0
 10
0.0
 20
0.5
 11
0.5
 21
1.0
 12
0.0
 22
0.0
 13
0.0
 23
0.0
 14
1.0
 24
1.0
 15
0.0
 25
0.0
 16
0.0
 26
0.0
 36
1.0
 17
0.0
 27
0.0
 37
0.0
 40
9.61286089238845
 41
0.688564
 42
50.0
 43
33.22884942549094
 44
-33.22884942549094
 50
0.0
 51
0.0
 71
    16
 72
   100
 73
     1
 74
     1
 75
     0
 76
     0
 77
     0
 78
     0
  0
VPORT
  5
232
330
7
100
AcDbSymbolTableRecord
100
AcDbViewportTableRecord
  2
L4
 70
     0
 10
0.0
 20
0.0
 11
0.5
 21
0.5
 12
0.0
 22
0.0
 13
0.0
 23
0.0
 14
1.0
 24
1.0
 15
0.0
 25
0.0
 16
0.0
 26
-1.0
 36
0.0
 17
0.0
 27
0.0
 37
0.0
 40
66.45769885098189
 41
0.688564
 42
50.0
 43
34.36039777289748
 44
-34.36039777289748
 50
0.0
 51
0.0
 71
    16
 72
   100
 73
     1
 74
     1
 75
     0
 76
     0
 77
     0
 78
     0
  0
VPORT
  5
233
330
7
100
AcDbSymbolTableRecord
100
AcDbViewportTableRecord
  2
L4
 70
     0
 10
0.5
 20
0.0
 11
1.0
 21
0.5
 12
0.0
 22
0.0
 13
0.0
 23
0.0
 14
1.0
 24
1.0
 15
0.0
 25
0.0
 16
1.0
 26
0.0
 36
0.0
 17
0.0
 27
0.0
 37
0.0
 40
66.45769885098189
 41
0.688564
 42
50.0
 43
33.57466616030683
 44
-33.57466616030683
 50
0.0
 51
0.0
 71
    16
 72
   100
 73
     1
 74
     1
 75
     0
 76
     0
 77
     0
 78
     0
  0
VPORT
  5
234
330
7
100
AcDbSymbolTableRecord
100
AcDbViewportTableRecord
  2
L4
 70
     0
 10
0.5
 20
0.5
 11
1.0
 21
1.0
 12
0.0
 22
0.0
 13
0.0
 23
0.0
 14
1.0
 24
1.0
 15
0.0
 25
0.0
 16
0.5773502691896259
 26
-0.5773502691896259
 36
0.5773502691896259
 17
0.0
 27
0.0
 37
0.0
 40
65.32743614768635
 41
0.688564
 42
50.0
 43
34.04031954589813
 44
-34.04031954589813
 50
0.0
 51
0.0
 71
    16
 72
   100
 73
     1
 74
     1
 75
     0
 76
     0
 77
     0
 78
     0
  0
VPORT
  5
235
330
7
100
AcDbSymbolTableRecord
100
AcDbViewportTableRecord
  2
L6
 70
     0
 10
0.0
 20
0.5
 11
0.3333333333333334
 21
1.0
 12
0.0
 22
0.0
 13
0.0
 23
0.0
 14
1.0
 24
1.0
 15
0.0
 25
0.0
 16
0.7188730927569434
 26
-0.5850486126764432
 36
0.3754192287502549
 17
0.0
 27
0.0
 37
0.0
 40
68.96750072793771
 41
0.688564
 42
50.0
 43
34.05957066112821
 44
-34.05957066112821
 50
0.0
 51
0.0
 71
    16
 72
   100
 73
     1
 74
     1
 75
     0
 76
     0
 77
     0
 78
     0
  0
VPORT
  5
236
330
7
100
AcDbSymbolTableRecord
100
AcDbViewportTableRecord
  2
L6
 70
     0
 10
0.0
 20
0.0
 11
0.3333333333333334
 21
0.5
 12
0.0
 22
0.0
 13
0.0
 23
0.0
 14
1.0
 24
1.0
 15
0.0
 25
0.0
 16
-1.0
 26
0.0
 36
0.0
 17
0.0
 27
0.0
 37
0.0
 40
66.45769885098189
 41
0.688564
 42
50.0
 43
33.57466616030683
 44
-33.57466616030683
 50
0.0
 51
0.0
 71
    16
 72
   100
 73
     1
 74
     1
 75
     0
 76
     0
 77
     0
 78
     0
  0
VPORT
  5
237
330
7
100
AcDbSymbolTableRecord
100
AcDbViewportTableRecord
  2
L6
 70
     0
 10
0.3333333333333334
 20
0.5
 11
0.6666666666666666
 21
1.0
 12
0.0
 22
0.0
 13
0.0
 23
0.0
 14
1.0
 24
1.0
 15
0.0
 25
0.0
 16
0.0
 26
0.0
 36
1.0
 17
0.0
 27
0.0
 37
0.0
 40
9.61286089238845
 41
0.688564
 42
50.0
 43
33.22884942549094
 44
-33.22884942549094
 50
0.0
 51
0.0
 71
    16
 72
   100
 73
     1
 74
     1
 75
     0
 76
     0
 77
     0
 78
     0
  0
VPORT
  5
238
330
7
100
AcDbSymbolTableRecord
100
AcDbViewportTableRecord
  2
L6
 70
     0
 10
0.3333333333333334
 20
0.0
 11
0.6666666666666666
 21
0.5
 12
0.0
 22
0.0
 13
0.0
 23
0.0
 14
1.0
 24
1.0
 15
0.0
 25
0.0
 16
0.0
 26
-1.0
 36
0.0
 17
0.0
 27
0.0
 37
0.0
 40
66.45769885098189
 41
0.688564
 42
50.0
 43
34.36039777289748
 44
-34.36039777289748
 50
0.0
 51
0.0
 71
    16
 72
   100
 73
     1
 74
     1
 75
     0
 76
     0
 77
     0
 78
     0
  0
VPORT
  5
239
330
7
100
AcDbSymbolTableRecord
100
AcDbViewportTableRecord
  2
L6
 70
     0
 10
0.6666666666666666
 20
0.5
 11
1.0
 21
1.0
 12
0.0
 22
0.0
 13
0.0
 23
0.0
 14
1.0
 24
1.0
 15
0.0
 25
0.0
 16
0.5773502691896259
 26
-0.5773502691896259
 36
0.5773502691896259
 17
0.0
 27
0.0
 37
0.0
 40
65.32743614768635
 41
0.688564
 42
50.0
 43
34.04031954589813
 44
-34.04031954589813
 50
0.0
 51
0.0
 71
    16
 72
   100
 73
     1
 74
     1
 75
     0
 76
     0
 77
     0
 78
     0
  0
VPORT
  5
23A
330
7
100
AcDbSymbolTableRecord
100
AcDbViewportTableRecord
  2
L6
 70
     0
 10
0.6666666666666666
 20
0.0
 11
1.0
 21
0.5
 12
0.0
 22
0.0
 13
0.0
 23
0.0
 14
1.0
 24
1.0
 15
0.0
 25
0.0
 16
1.0
 26
0.0
 36
0.0
 17
0.0
 27
0.0
 37
0.0
 40
66.45769885098189
 41
0.688564
 42
50.0
 43
33.57466616030683
 44
-33.57466616030683
 50
0.0
 51
0.0
 71
    16
 72
   100
 73
     1
 74
     1
 75
     0
 76
     0
 77
     0
 78
     0
  0
VPORT
  5
2A7
330
7
100
AcDbSymbolTableRecord
100
AcDbViewportTableRecord
  2
*ACTIVE
 70
     0
 10
0.0
 20
0.0
 11
1.0
 21
1.0
 12
28.54557836055755
 22
17.63523697853088
 13
0.0
 23
0.0
 14
1.0
 24
1.0
 15
0.0
 25
0.0
 16
0.0
 26
0.0
 36
1.0
 17
0.0
 27
0.0
 37
0.0
 40
34.05035818560478
 41
1.965686274509803
 42
50.0
 43
34.05957066112821
 44
-34.05957066112821
 50
0.0
 51
0.0
 71
    16
 72
   100
 73
     1
 74
     1
 75
     0
 76
     0
 77
     0
 78
     0
  0
ENDTAB
  0
TABLE
  2
LTYPE
  5
4
330
0
100
AcDbSymbolTable
 70
     7
  0
LTYPE
  5
11
330
4
100
AcDbSymbolTableRecord
100
AcDbLinetypeTableRecord
  2
BYBLOCK
 70
     0
  3

 72
    65
 73
     0
 40
0.0
  0
LTYPE
  5
12
330
4
100
AcDbSymbolTableRecord
100
AcDbLinetypeTableRecord
  2
BYLAYER
 70
     0
  3

 72
    65
 73
     0
 40
0.0
  0
LTYPE
  5
13
330
4
100
AcDbSymbolTableRecord
100
AcDbLinetypeTableRecord
  2
CONTINUOUS
 70
     0
  3
Solid line
 72
    65
 73
     0
 40
0.0
  0
LTYPE
  5
24
330
4
100
AcDbSymbolTableRecord
100
AcDbLinetypeTableRecord
  2
DASHED
 70
     0
  3
__ __ __ __ __ __ __ __ __
 72
    65
 73
     2
 40
25.72
 49
12.86
 74
     0
 49
-12.86
 74
     0
  0
LTYPE
  5
25
330
4
100
AcDbSymbolTableRecord
100
AcDbLinetypeTableRecord
  2
HIDDEN
 70
     0
  3
_ _ _ _ _ _ _ _ _ _ _ _ _ _ _
 72
    65
 73
     2
 40
0.5
 49
0.25
 74
     0
 49
-0.25
 74
     0
  0
LTYPE
  5
26
330
4
100
AcDbSymbolTableRecord
100
AcDbLinetypeTableRecord
  2
PHANTOM
 70
     0
  3
____ _ _ ____ _ _ _____ _ _ ____
 72
    65
 73
     6
 40
50.5
 49
18.0
 74
     0
 49
-6.5
 74
     0
 49
6.5
 74
     0
 49
-6.5
 74
     0
 49
6.5
 74
     0
 49
-6.5
 74
     0
  0
LTYPE
  5
27
330
4
100
AcDbSymbolTableRecord
100
AcDbLinetypeTableRecord
  2
CENTER
 70
     0
  3
____ _ ____ _ ____ _ ____
 72
    65
 73
     4
 40
47.5
 49
22.0
 74
     0
 49
-8.5
 74
     0
 49
8.5
 74
     0
 49
-8.5
 74
     0
  0
LTYPE
  5
28
330
4
100
AcDbSymbolTableRecord
100
AcDbLinetypeTableRecord
  2
DOT
 70
     0
  3
.........................
 72
    65
 73
     2
 40
10.0
 49
0.0
 74
     0
 49
-10.0
 74
     0
  0
LTYPE
  5
29
330
4
100
AcDbSymbolTableRecord
100
AcDbLinetypeTableRecord
  2
DASHDOT
 70
     0
  3
_._._._._._._._._._._._._._._._.
 72
    65
 73
     4
 40
70.0
 49
31.0
 74
     0
 49
-13.0
 74
     0
 49
13.0
 74
     0
 49
-13.0
 74
     0
  0
ENDTAB
  0
TABLE
  2
LAYER
  5
2
330
0
100
AcDbSymbolTable
 70
     2
  0
LAYER
  5
14
330
2
100
AcDbSymbolTableRecord
100
AcDbLayerTableRecord
  2
0
 70
     0
 62
     7
  6
CONTINUOUS
  0
LAYER
  5
2B
330
2
100
AcDbSymbolTableRecord
100
AcDbLayerTableRecord
  2
TFR-TRI
 70
     0
 62
     7
  6
CONTINUOUS
  0
ENDTAB
  0
TABLE
  2
STYLE
  5
3
330
0
100
AcDbSymbolTable
 70
     1
  0
STYLE
  5
17
330
3
100
AcDbSymbolTableRecord
100
AcDbTextStyleTableRecord
  2
STANDARD
 70
     0
 40
0.0
 41
1.0
 50
0.0
 71
     0
 42
0.0
  3
txt
  4

  0
ENDTAB
  0
TABLE
  2
VIEW
  5
5
330
0
100
AcDbSymbolTable
 70
     8
  0
VIEW
  5
223
330
5
100
AcDbSymbolTableRecord
100
AcDbViewTableRecord
  2
TOP
 70
     0
 40
9.61286089238845
 10
0.0
 20
0.0
 41
17.49062617172853
 11
0.0
 21
0.0
 31
1.0
 12
0.0
 22
0.0
 32
0.0
 42
50.0
 43
33.22884942549094
 44
-33.22884942549094
 50
0.0
 71
    16
  0
VIEW
  5
224
330
5
100
AcDbSymbolTableRecord
100
AcDbViewTableRecord
  2
FRONT
 70
     0
 40
66.45769885098189
 10
0.0
 20
0.0
 41
17.49062617172853
 11
0.0
 21
-1.0
 31
0.0
 12
0.0
 22
0.0
 32
0.0
 42
50.0
 43
34.36039777289748
 44
-34.36039777289748
 50
0.0
 71
    16
  0
VIEW
  5
225
330
5
100
AcDbSymbolTableRecord
100
AcDbViewTableRecord
  2
RIGHT
 70
     0
 40
66.45769885098189
 10
0.0
 20
0.0
 41
9.61286089238845
 11
1.0
 21
0.0
 31
0.0
 12
0.0
 22
0.0
 32
0.0
 42
50.0
 43
33.57466616030683
 44
-33.57466616030683
 50
0.0
 71
    16
  0
VIEW
  5
226
330
5
100
AcDbSymbolTableRecord
100
AcDbViewTableRecord
  2
BACK
 70
     0
 40
66.45769885098189
 10
0.0
 20
0.0
 41
17.49062617172853
 11
0.0
 21
1.0
 31
0.0
 12
0.0
 22
0.0
 32
0.0
 42
50.0
 43
34.36039777289748
 44
-34.36039777289748
 50
0.0
 71
    16
  0
VIEW
  5
227
330
5
100
AcDbSymbolTableRecord
100
AcDbViewTableRecord
  2
BOTTOM
 70
     0
 40
9.61286089238845
 10
0.0
 20
0.0
 41
17.49062617172853
 11
0.0
 21
0.0
 31
-1.0
 12
0.0
 22
0.0
 32
0.0
 42
50.0
 43
33.22884942549094
 44
-33.22884942549094
 50
180.0
 71
    16
  0
VIEW
  5
228
330
5
100
AcDbSymbolTableRecord
100
AcDbViewTableRecord
  2
LEFT
 70
     0
 40
66.45769885098189
 10
0.0
 20
0.0
 41
9.61286089238845
 11
-1.0
 21
0.0
 31
0.0
 12
0.0
 22
0.0
 32
0.0
 42
50.0
 43
33.57466616030683
 44
-33.57466616030683
 50
0.0
 71
    16
  0
VIEW
  5
229
330
5
100
AcDbSymbolTableRecord
100
AcDbViewTableRecord
  2
TFR-ISO
 70
     0
 40
65.32743614768635
 10
0.0
 20
0.0
 41
19.16505949683899
 11
0.5773502691896259
 21
-0.5773502691896259
 31
0.5773502691896259
 12
0.0
 22
0.0
 32
0.0
 42
50.0
 43
34.04031954589813
 44
-34.04031954589813
 50
0.0
 71
    16
  0
VIEW
  5
22A
330
5
100
AcDbSymbolTableRecord
100
AcDbViewTableRecord
  2
TFR-TRI
 70
     0
 40
68.96750072793771
 10
0.0
 20
0.0
 41
18.49619574220415
 11
0.7188730927569434
 21
-0.5850486126764432
 31
0.3754192287502549
 12
0.0
 22
0.0
 32
0.0
 42
50.0
 43
34.05957066112821
 44
-34.05957066112821
 50
0.0
 71
    16
  0
ENDTAB
  0
TABLE
  2
UCS
  5
6
330
0
100
AcDbSymbolTable
 70
     0
  0
ENDTAB
  0
TABLE
  2
APPID
  5
8
330
0
100
AcDbSymbolTable
 70
     1
  0
APPID
  5
16
330
8
100
AcDbSymbolTableRecord
100
AcDbRegAppTableRecord
  2
ACAD
 70
     0
  0
ENDTAB
  0
TABLE
  2
DIMSTYLE
  5
9
330
0
100
AcDbSymbolTable
 70
     1
  0
DIMSTYLE
105
18
330
9
100
AcDbSymbolTableRecord
100
AcDbDimStyleTableRecord
  2
STANDARD
 70
     0
  3

  4

  5

  6

  7

 40
1.0
 41
0.18
 42
0.0625
 43
0.38
 44
0.18
 45
0.0
 46
0.0
 47
0.0
 48
0.0
140
0.18
141
0.09
142
0.0
143
25.4
144
1.0
145
0.0
146
1.0
147
0.09
 71
     0
 72
     0
 73
     1
 74
     1
 75
     0
 76
     0
 77
     0
 78
     0
170
     0
171
     2
172
     0
173
     0
174
     0
175
     0
176
     0
177
     0
178
     0
270
     2
271
     4
272
     4
273
     2
274
     2
340
17
275
     0
280
     0
281
     0
282
     0
283
     1
284
     0
285
     0
286
     0
287
     3
288
     0
  0
ENDTAB
  0
TABLE
  2
BLOCK_RECORD
  5
1
330
0
100
AcDbSymbolTable
 70
     0
  0
BLOCK_RECORD
  5
A
102
{ACAD_XDICTIONARY
360
2C9
102
}
330
1
100
AcDbSymbolTableRecord
100
AcDbBlockTableRecord
  2
*MODEL_SPACE
  0
BLOCK_RECORD
  5
B
102
{ACAD_XDICTIONARY
360
2CB
102
}
330
1
100
AcDbSymbolTableRecord
100
AcDbBlockTableRecord
  2
*PAPER_SPACE
  0
ENDTAB
  0
ENDSEC
  0
SECTION
  2
BLOCKS
  0
BLOCK
  5
D
330
A
100
AcDbEntity
  8
0
100
AcDbBlockBegin
  2
*MODEL_SPACE
 70
     0
 10
0.0
 20
0.0
 30
0.0
  3
*MODEL_SPACE
  1

  0
ENDBLK
  5
E
330
A
100
AcDbEntity
  8
0
100
AcDbBlockEnd
  0
BLOCK
  5
F
330
B
100
AcDbEntity
 67
     1
  8
0
100
AcDbBlockBegin
  2
*PAPER_SPACE
 70
     0
 10
0.0
 20
0.0
 30
0.0
  3
*PAPER_SPACE
  1

  0
ENDBLK
  5
10
330
B
100
AcDbEntity
 67
     1
  8
0
100
AcDbBlockEnd
  0
ENDSEC
  0
SECTION
  2
ENTITIES
  0
LINE
  5
2A
330
A
100
AcDbEntity
  8
TFR-TRI
  6
CONTINUOUS
 62
    30
100
AcDbLine
 10
12.37193775177002
 20
25.39094734191894
 30
0.0
 11
10.25061702728271
 21
27.51226806640625
 31
0.0
  0
LINE
  5
2C
330
A
100
AcDbEntity
  8
TFR-TRI
  6
CONTINUOUS
 62
    30
100
AcDbLine
 10
22.73706817626953
 20
8.458858489990234
 30
0.0
 11
22.70692062377929
 21
8.458858489990234
 31
0.0
  0
LINE
  5
2D
330
A
100
AcDbEntity
  8
TFR-TRI
  6
CONTINUOUS
 62
    30
100
AcDbLine
 10
12.10677242279052
 20
14.72578239440918
 30
0.0
 11
9.985452651977539
 21
16.84710311889648
 31
0.0
  0
LINE
  5
2E
330
A
100
AcDbEntity
  8
TFR-TRI
  6
CONTINUOUS
 62
    30
100
AcDbLine
 10
22.51706886291504
 20
4.70731496810913
 30
0.0
 11
22.39206886291503
 21
4.70731496810913
 31
0.0
  0
LINE
  5
2F
330
A
100
AcDbEntity
  8
TFR-TRI
  6
CONTINUOUS
 62
     2
100
AcDbLine
 10
41.93318939208984
 20
3.381426334381103
 30
0.0
 11
41.93318939208984
 21
3.407314777374267
 31
0.0
  0
LINE
  5
30
330
A
100
AcDbEntity
  8
TFR-TRI
  6
CONTINUOUS
 62
    30
100
AcDbLine
 10
29.93318939208984
 20
3.381426334381103
 30
0.0
 11
29.93318939208984
 21
3.36156153678894
 31
0.0
  0
LINE
  5
31
330
A
100
AcDbEntity
  8
TFR-TRI
  6
CONTINUOUS
 62
     2
100
AcDbLine
 10
14.7118968963623
 20
20.6756591796875
 30
0.0
 11
15.24208450317382
 21
20.6756591796875
 31
0.0
  0
LINE
  5
32
330
A
100
AcDbEntity
  8
TFR-TRI
  6
CONTINUOUS
 62
     2
100
AcDbLine
 10
3.862068891525268
 20
20.56725883483886
 30
0.0
 11
3.836180686950683
 21
20.56725883483886
 31
0.0
  0
LINE
  5
33
330
A
100
AcDbEntity
  8
TFR-TRI
  6
CONTINUOUS
 62
     2
100
AcDbLine
 10
3.836180686950683
 20
20.56725883483886
 30
0.0
 11
3.81631588935852
 21
20.56725883483886
 31
0.0
  0
LINE
  5
34
330
A
100
AcDbEntity
  8
TFR-TRI
  6
CONTINUOUS
 62
     2
100
AcDbLine
 10
3.81631588935852
 20
20.56725883483886
 30
0.0
 11
3.803828239440917
 21
20.56725883483886
 31
0.0
  0
LINE
  5
35
330
A
100
AcDbEntity
  8
TFR-TRI
  6
CONTINUOUS
 62
    30
100
AcDbLine
 10
30.04158782958984
 20
5.069814682006835
 30
0.0
 11
30.04158782958984
 21
5.065098762512207
 31
0.0
  0
LINE
  5
36
330
A
100
AcDbEntity
  8
TFR-TRI
  6
CONTINUOUS
 62
    30
100
AcDbLine
 10
5.477200031280517
 20
25.39094734191894
 30
0.0
 11
7.598520755767822
 21
27.51226806640625
 31
0.0
  0
LINE
  5
37
330
A
100
AcDbEntity
  8
TFR-TRI
  6
CONTINUOUS
 62
    30
100
AcDbLine
 10
22.67456817626953
 20
5.069814682006835
 30
0.0
 11
22.19956970214843
 21
5.069814682006835
 31
0.0
  0
LINE
  5
38
330
A
100
AcDbEntity
  8
TFR-TRI
  6
CONTINUOUS
 62
    30
100
AcDbLine
 10
22.11118125915527
 20
8.567258834838867
 30
0.0
 11
22.13706970214843
 21
8.567258834838867
 31
0.0
  0
LINE
  5
39
330
A
100
AcDbEntity
  8
TFR-TRI
  6
CONTINUOUS
 62
    30
100
AcDbLine
 10
42.04158782958984
 20
4.20821475982666
 30
0.0
 11
53.29158782958984
 21
4.20821475982666
 31
0.0
  0
LINE
  5
3A
330
A
100
AcDbEntity
  8
TFR-TRI
  6
CONTINUOUS
 62
    30
100
AcDbLine
 10
53.29158782958984
 20
5.065098762512207
 30
0.0
 11
53.29158782958984
 21
5.051272869110107
 31
0.0
  0
LINE
  5
3B
330
A
100
AcDbEntity
  8
TFR-TRI
  6
CONTINUOUS
 62
     2
100
AcDbLine
 10
3.81631588935852
 20
20.6756591796875
 30
0.0
 11
3.836180686950683
 21
20.6756591796875
 31
0.0
  0
LINE
  5
3C
330
A
100
AcDbEntity
  8
TFR-TRI
  6
CONTINUOUS
 62
     2
100
AcDbLine
 10
22.09756660461426
 20
20.6756591796875
 30
0.0
 11
22.11742973327636
 21
20.6756591796875
 31
0.0
  0
LINE
  5
3D
330
A
100
AcDbEntity
  8
TFR-TRI
  6
CONTINUOUS
 62
    30
100
AcDbLine
 10
22.76295661926269
 20
8.567258834838867
 30
0.0
 11
22.78282165527343
 21
8.567258834838867
 31
0.0
  0
LINE
  5
3E
330
A
100
AcDbEntity
  8
TFR-TRI
  6
CONTINUOUS
 62
    30
100
AcDbLine
 10
53.29158782958984
 20
4.931414604187011
 30
0.0
 11
53.29158782958984
 21
4.20821475982666
 31
0.0
  0
LINE
  5
3F
330
A
100
AcDbEntity
  8
TFR-TRI
  6
CONTINUOUS
 62
     2
100
AcDbLine
 10
4.455819129943847
 20
20.6756591796875
 30
0.0
 11
4.481707096099853
 21
20.6756591796875
 31
0.0
  0
LINE
  5
40
330
A
100
AcDbEntity
  8
TFR-TRI
  6
CONTINUOUS
 62
    30
100
AcDbLine
 10
5.742365360260009
 20
17.3257827758789
 30
0.0
 11
7.863685607910156
 21
19.44710350036621
 31
0.0
  0
LINE
  5
41
330
A
100
AcDbEntity
  8
TFR-TRI
  6
CONTINUOUS
 62
    30
100
AcDbLine
 10
3.862068891525268
 20
8.567258834838867
 30
0.0
 11
3.892216682434082
 21
8.567258834838867
 31
0.0
  0
LINE
  5
42
330
A
100
AcDbEntity
  8
TFR-TRI
  6
CONTINUOUS
 62
     2
100
AcDbLine
 10
20.10674095153808
 20
20.6756591796875
 30
0.0
 11
20.63719367980957
 21
20.6756591796875
 31
0.0
  0
LINE
  5
43
330
A
100
AcDbEntity
  8
TFR-TRI
  6
CONTINUOUS
 62
    30
100
AcDbLine
 10
30.79158782958984
 20
4.172394275665283
 30
0.0
 11
30.79158782958984
 21
4.139014720916748
 31
0.0
  0
LINE
  5
44
330
A
100
AcDbEntity
  8
TFR-TRI
  6
CONTINUOUS
 62
     2
100
AcDbLine
 10
41.52583694458008
 20
3.344814777374267
 30
0.0
 11
41.49568939208984
 21
3.344814777374267
 31
0.0
  0
LINE
  5
45
330
A
100
AcDbEntity
  8
TFR-TRI
  6
CONTINUOUS
 62
     2
100
AcDbLine
 10
22.76295661926269
 20
20.6756591796875
 30
0.0
 11
22.78282165527343
 21
20.6756591796875
 31
0.0
  0
LINE
  5
46
330
A
100
AcDbEntity
  8
TFR-TRI
  6
CONTINUOUS
 62
    30
100
AcDbLine
 10
4.507822036743164
 20
8.567258834838867
 30
0.0
 11
4.520309925079345
 21
8.567258834838867
 31
0.0
  0
LINE
  5
47
330
A
100
AcDbEntity
  8
TFR-TRI
  6
CONTINUOUS
 62
    30
100
AcDbLine
 10
53.29158782958984
 20
4.139014720916748
 30
0.0
 11
53.29158782958984
 21
4.110351085662841
 31
0.0
  0
LINE
  5
48
330
A
100
AcDbEntity
  8
TFR-TRI
  6
CONTINUOUS
 62
     2
100
AcDbLine
 10
14.17241287231445
 20
20.06975936889648
 30
0.0
 11
14.63619422912597
 21
20.06975936889648
 31
0.0
  0
LINE
  5
49
330
A
100
AcDbEntity
  8
TFR-TRI
  6
CONTINUOUS
 62
    30
100
AcDbLine
 10
3.924568891525268
 20
8.567258834838867
 30
0.0
 11
3.924568891525268
 21
8.458858489990234
 31
0.0
  0
LINE
  5
4A
330
A
100
AcDbEntity
  8
TFR-TRI
  6
CONTINUOUS
 62
    30
100
AcDbLine
 10
21.91116905212402
 20
8.6756591796875
 30
0.0
 11
21.91116905212402
 21
31.9256591796875
 31
0.0
  0
LINE
  5
4B
330
A
100
AcDbEntity
  8
TFR-TRI
  6
CONTINUOUS
 62
    30
100
AcDbLine
 10
21.98036956787109
 20
8.6756591796875
 30
0.0
 11
22.00903320312499
 21
8.6756591796875
 31
0.0
  0
LINE
  5
4C
330
A
100
AcDbEntity
  8
TFR-TRI
  6
CONTINUOUS
 62
     2
100
AcDbLine
 10
22.78282165527343
 20
20.56725883483886
 30
0.0
 11
22.76295661926269
 21
20.56725883483886
 31
0.0
  0
LINE
  5
4D
330
A
100
AcDbEntity
  8
TFR-TRI
  6
CONTINUOUS
 62
    30
100
AcDbLine
 10
21.87196922302246
 20
8.597258567810058
 30
0.0
 11
21.87196922302246
 21
8.561438560485839
 31
0.0
  0
LINE
  5
4E
330
A
100
AcDbEntity
  8
TFR-TRI
  6
CONTINUOUS
 62
    30
100
AcDbLine
 10
3.924568891525268
 20
5.069814682006835
 30
0.0
 11
4.399569034576416
 21
5.069814682006835
 31
0.0
  0
LINE
  5
4F
330
A
100
AcDbEntity
  8
TFR-TRI
  6
CONTINUOUS
 62
    30
100
AcDbLine
 10
3.924568891525268
 20
8.458858489990234
 30
0.0
 11
4.399569034576416
 21
8.458858489990234
 31
0.0
  0
LINE
  5
50
330
A
100
AcDbEntity
  8
TFR-TRI
  6
CONTINUOUS
 62
    30
100
AcDbLine
 10
3.924568891525268
 20
8.458858489990234
 30
0.0
 11
3.892216682434082
 21
8.458858489990234
 31
0.0
  0
LINE
  5
51
330
A
100
AcDbEntity
  8
TFR-TRI
  6
CONTINUOUS
 62
     2
100
AcDbLine
 10
22.78282165527343
 20
20.6756591796875
 30
0.0
 11
22.79530906677246
 21
20.6756591796875
 31
0.0
  0
LINE
  5
52
330
A
100
AcDbEntity
  8
TFR-TRI
  6
CONTINUOUS
 62
    30
100
AcDbLine
 10
22.67456817626953
 20
8.458858489990234
 30
0.0
 11
22.19956970214843
 21
8.458858489990234
 31
0.0
  0
LINE
  5
53
330
A
100
AcDbEntity
  8
TFR-TRI
  6
CONTINUOUS
 62
    30
100
AcDbLine
 10
4.590105533599853
 20
31.9256591796875
 30
0.0
 11
4.568110942840576
 21
31.9256591796875
 31
0.0
  0
LINE
  5
54
330
A
100
AcDbEntity
  8
TFR-TRI
  6
CONTINUOUS
 62
    30
100
AcDbLine
 10
21.87196922302246
 20
8.458858489990234
 30
0.0
 11
22.07456970214843
 21
8.458858489990234
 31
0.0
  0
LINE
  5
55
330
A
100
AcDbEntity
  8
TFR-TRI
  6
CONTINUOUS
 62
     2
100
AcDbLine
 10
22.73706817626953
 20
20.56725883483886
 30
0.0
 11
22.70692062377929
 21
20.56725883483886
 31
0.0
  0
LINE
  5
56
330
A
100
AcDbEntity
  8
TFR-TRI
  6
CONTINUOUS
 62
     2
100
AcDbLine
 10
22.14331817626953
 20
20.6756591796875
 30
0.0
 11
22.17346572875976
 21
20.6756591796875
 31
0.0
  0
LINE
  5
57
330
A
100
AcDbEntity
  8
TFR-TRI
  6
CONTINUOUS
 62
    30
100
AcDbLine
 10
4.568110942840576
 20
8.6756591796875
 30
0.0
 11
4.554285049438476
 21
8.6756591796875
 31
0.0
  0
LINE
  5
58
330
A
100
AcDbEntity
  8
TFR-TRI
  6
CONTINUOUS
 62
    30
100
AcDbLine
 10
30.79158782958984
 20
4.20821475982666
 30
0.0
 11
30.79158782958984
 21
4.172394275665283
 31
0.0
  0
LINE
  5
59
330
A
100
AcDbEntity
  8
TFR-TRI
  6
CONTINUOUS
 62
     2
100
AcDbLine
 10
41.43318939208984
 20
3.344814777374267
 30
0.0
 11
41.43318939208984
 21
3.453214645385742
 31
0.0
  0
LINE
  5
5A
330
A
100
AcDbEntity
  8
TFR-TRI
  6
CONTINUOUS
 62
    30
100
AcDbLine
 10
22.00903320312499
 20
31.9256591796875
 30
0.0
 11
22.03102684020996
 21
31.9256591796875
 31
0.0
  0
LINE
  5
5B
330
A
100
AcDbEntity
  8
TFR-TRI
  6
CONTINUOUS
 62
     2
100
AcDbLine
 10
41.93318939208984
 20
4.977167129516601
 30
0.0
 11
41.93318939208984
 21
5.007314682006835
 31
0.0
  0
LINE
  5
5C
330
A
100
AcDbEntity
  8
TFR-TRI
  6
CONTINUOUS
 62
    30
100
AcDbLine
 10
4.727169036865234
 20
5.069814682006835
 30
0.0
 11
21.87196922302246
 21
5.069814682006835
 31
0.0
  0
LINE
  5
5D
330
A
100
AcDbEntity
  8
TFR-TRI
  6
CONTINUOUS
 62
    30
100
AcDbLine
 10
14.49236488342285
 20
14.72578239440918
 30
0.0
 11
16.61368560791015
 21
16.84710311889648
 31
0.0
  0
LINE
  5
5E
330
A
100
AcDbEntity
  8
TFR-TRI
  6
CONTINUOUS
 62
    30
100
AcDbLine
 10
29.82478904724121
 20
4.977167129516601
 30
0.0
 11
29.82478904724121
 21
5.007314682006835
 31
0.0
  0
LINE
  5
5F
330
A
100
AcDbEntity
  8
TFR-TRI
  6
CONTINUOUS
 62
     2
100
AcDbLine
 10
42.04158782958984
 20
3.469814777374267
 30
0.0
 11
42.04158782958984
 21
4.944814682006835
 31
0.0
  0
LINE
  5
60
330
A
100
AcDbEntity
  8
TFR-TRI
  6
CONTINUOUS
 62
    30
100
AcDbLine
 10
5.742365360260009
 20
25.12578201293945
 30
0.0
 11
7.863685607910156
 21
27.24710273742676
 31
0.0
  0
LINE
  5
61
330
A
100
AcDbEntity
  8
TFR-TRI
  6
CONTINUOUS
 62
    30
100
AcDbLine
 10
21.94698905944824
 20
8.6756591796875
 30
0.0
 11
21.98036956787109
 21
8.6756591796875
 31
0.0
  0
LINE
  5
62
330
A
100
AcDbEntity
  8
TFR-TRI
  6
CONTINUOUS
 62
     2
100
AcDbLine
 10
42.04158782958984
 20
3.349074125289916
 30
0.0
 11
42.04158782958984
 21
3.344814777374267
 31
0.0
  0
LINE
  5
63
330
A
100
AcDbEntity
  8
TFR-TRI
  6
CONTINUOUS
 62
    30
100
AcDbLine
 10
12.37193775177002
 20
20.19094848632812
 30
0.0
 11
10.25061702728271
 21
22.31226730346679
 31
0.0
  0
LINE
  5
64
330
A
100
AcDbEntity
  8
TFR-TRI
  6
CONTINUOUS
 62
    30
100
AcDbLine
 10
22.51706886291504
 20
3.707314729690551
 30
0.0
 11
22.39206886291503
 21
3.707314729690551
 31
0.0
  0
LINE
  5
65
330
A
100
AcDbEntity
  8
TFR-TRI
  6
CONTINUOUS
 62
     2
100
AcDbLine
 10
22.20581817626953
 20
20.56725883483886
 30
0.0
 11
22.67456817626953
 21
20.56725883483886
 31
0.0
  0
LINE
  5
66
330
A
100
AcDbEntity
  8
TFR-TRI
  6
CONTINUOUS
 62
    30
100
AcDbLine
 10
21.1219367980957
 20
25.39094734191894
 30
0.0
 11
19.00061798095703
 21
27.51226806640625
 31
0.0
  0
LINE
  5
67
330
A
100
AcDbEntity
  8
TFR-TRI
  6
CONTINUOUS
 62
    30
100
AcDbLine
 10
22.79956817626953
 20
8.458858489990234
 30
0.0
 11
22.79530906677246
 21
8.458858489990234
 31
0.0
  0
LINE
  5
68
330
A
100
AcDbEntity
  8
TFR-TRI
  6
CONTINUOUS
 62
    30
100
AcDbLine
 10
29.93318939208984
 20
3.469814777374267
 30
0.0
 11
29.93318939208984
 21
3.437462329864501
 31
0.0
  0
LINE
  5
69
330
A
100
AcDbEntity
  8
TFR-TRI
  6
CONTINUOUS
 62
    30
100
AcDbLine
 10
12.10677242279052
 20
12.12578296661376
 30
0.0
 11
9.985452651977539
 21
14.24710273742675
 31
0.0
  0
LINE
  5
6A
330
A
100
AcDbEntity
  8
TFR-TRI
  6
CONTINUOUS
 62
    30
100
AcDbLine
 10
4.082068920135498
 20
3.457314729690551
 30
0.0
 11
4.207068920135498
 21
3.457314729690551
 31
0.0
  0
LINE
  5
6B
330
A
100
AcDbEntity
  8
TFR-TRI
  6
CONTINUOUS
 62
    30
100
AcDbLine
 10
29.93318939208984
 20
4.944814682006835
 30
0.0
 11
29.82478904724121
 21
4.944814682006835
 31
0.0
  0
LINE
  5
6C
330
A
100
AcDbEntity
  8
TFR-TRI
  6
CONTINUOUS
 62
     2
100
AcDbLine
 10
22.67456817626953
 20
20.56725883483886
 30
0.0
 11
22.67456817626953
 21
20.6756591796875
 31
0.0
  0
LINE
  5
6D
330
A
100
AcDbEntity
  8
TFR-TRI
  6
CONTINUOUS
 62
    30
100
AcDbLine
 10
30.04158782958984
 20
5.000614643096923
 30
0.0
 11
30.04158782958984
 21
4.967235088348388
 31
0.0
  0
LINE
  5
6E
330
A
100
AcDbEntity
  8
TFR-TRI
  6
CONTINUOUS
 62
    30
100
AcDbLine
 10
5.477200031280517
 20
22.79094696044921
 30
0.0
 11
7.598520755767822
 21
24.91226768493652
 31
0.0
  0
LINE
  5
6F
330
A
100
AcDbEntity
  8
TFR-TRI
  6
CONTINUOUS
 62
    30
100
AcDbLine
 10
22.67456817626953
 20
8.567258834838867
 30
0.0
 11
22.70692062377929
 21
8.567258834838867
 31
0.0
  0
LINE
  5
70
330
A
100
AcDbEntity
  8
TFR-TRI
  6
CONTINUOUS
 62
    30
100
AcDbLine
 10
53.29158782958984
 20
4.967235088348388
 30
0.0
 11
53.29158782958984
 21
4.931414604187011
 31
0.0
  0
LINE
  5
71
330
A
100
AcDbEntity
  8
TFR-TRI
  6
CONTINUOUS
 62
     2
100
AcDbLine
 10
4.393319129943847
 20
20.6756591796875
 30
0.0
 11
3.924568891525268
 21
20.6756591796875
 31
0.0
  0
LINE
  5
72
330
A
100
AcDbEntity
  8
TFR-TRI
  6
CONTINUOUS
 62
    30
100
AcDbLine
 10
3.803828239440917
 20
8.567258834838867
 30
0.0
 11
3.81631588935852
 21
8.567258834838867
 31
0.0
  0
LINE
  5
73
330
A
100
AcDbEntity
  8
TFR-TRI
  6
CONTINUOUS
 62
    30
100
AcDbLine
 10
30.79158782958984
 20
4.20821475982666
 30
0.0
 11
41.93330764770507
 21
4.20821475982666
 31
0.0
  0
LINE
  5
74
330
A
100
AcDbEntity
  8
TFR-TRI
  6
CONTINUOUS
 62
    30
100
AcDbLine
 10
29.93318939208984
 20
5.033203125
 30
0.0
 11
29.93318939208984
 21
5.007314682006835
 31
0.0
  0
LINE
  5
75
330
A
100
AcDbEntity
  8
TFR-TRI
  6
CONTINUOUS
 62
     2
100
AcDbLine
 10
4.518319129943847
 20
20.6756591796875
 30
0.0
 11
4.526365756988525
 21
20.6756591796875
 31
0.0
  0
LINE
  5
76
330
A
100
AcDbEntity
  8
TFR-TRI
  6
CONTINUOUS
 62
     2
100
AcDbLine
 10
41.55818939208984
 20
3.453214645385742
 30
0.0
 11
41.55818939208984
 21
3.344814777374267
 31
0.0
  0
LINE
  5
77
330
A
100
AcDbEntity
  8
TFR-TRI
  6
CONTINUOUS
 62
     2
100
AcDbLine
 10
4.393319129943847
 20
20.56725883483886
 30
0.0
 11
4.393319129943847
 21
20.6756591796875
 31
0.0
  0
LINE
  5
78
330
A
100
AcDbEntity
  8
TFR-TRI
  6
CONTINUOUS
 62
    30
100
AcDbLine
 10
4.431921482086181
 20
8.567258834838867
 30
0.0
 11
4.462069034576416
 21
8.567258834838867
 31
0.0
  0
LINE
  5
79
330
A
100
AcDbEntity
  8
TFR-TRI
  6
CONTINUOUS
 62
    30
100
AcDbLine
 10
30.79158782958984
 20
4.074530601501464
 30
0.0
 11
30.79158782958984
 21
4.069814682006835
 31
0.0
  0
LINE
  5
7A
330
A
100
AcDbEntity
  8
TFR-TRI
  6
CONTINUOUS
 62
     2
100
AcDbLine
 10
41.43744659423828
 20
3.344814777374267
 30
0.0
 11
41.43318939208984
 21
3.344814777374267
 31
0.0
  0
LINE
  5
7B
330
A
100
AcDbEntity
  8
TFR-TRI
  6
CONTINUOUS
 62
     2
100
AcDbLine
 10
20.275146484375
 20
20.50725936889648
 30
0.0
 11
20.80560111999511
 21
20.50725936889648
 31
0.0
  0
LINE
  5
7C
330
A
100
AcDbEntity
  8
TFR-TRI
  6
CONTINUOUS
 62
    30
100
AcDbLine
 10
3.799568891525268
 20
8.458858489990234
 30
0.0
 11
3.799568891525268
 21
8.567258834838867
 31
0.0
  0
LINE
  5
7D
330
A
100
AcDbEntity
  8
TFR-TRI
  6
CONTINUOUS
 62
    30
100
AcDbLine
 10
29.82478904724121
 20
3.349074125289916
 30
0.0
 11
29.82478904724121
 21
3.36156153678894
 31
0.0
  0
LINE
  5
7E
330
A
100
AcDbEntity
  8
TFR-TRI
  6
CONTINUOUS
 62
    30
100
AcDbLine
 10
30.79158782958984
 20
4.069814682006835
 30
0.0
 11
41.93330764770507
 21
4.069814682006835
 31
0.0
  0
LINE
  5
7F
330
A
100
AcDbEntity
  8
TFR-TRI
  6
CONTINUOUS
 62
    30
100
AcDbLine
 10
22.67456817626953
 20
8.458858489990234
 30
0.0
 11
22.67456817626953
 21
8.567258834838867
 31
0.0
  0
LINE
  5
80
330
A
100
AcDbEntity
  8
TFR-TRI
  6
CONTINUOUS
 62
    30
100
AcDbLine
 10
4.727169036865234
 20
8.499395370483398
 30
0.0
 11
4.727169036865234
 21
8.477400779724121
 31
0.0
  0
LINE
  5
81
330
A
100
AcDbEntity
  8
TFR-TRI
  6
CONTINUOUS
 62
    30
100
AcDbLine
 10
4.727169036865234
 20
4.931414604187011
 30
0.0
 11
4.524569034576416
 21
4.931414604187011
 31
0.0
  0
LINE
  5
82
330
A
100
AcDbEntity
  8
TFR-TRI
  6
CONTINUOUS
 62
    30
100
AcDbLine
 10
4.727169036865234
 20
8.597258567810058
 30
0.0
 11
4.727169036865234
 21
8.6756591796875
 31
0.0
  0
LINE
  5
83
330
A
100
AcDbEntity
  8
TFR-TRI
  6
CONTINUOUS
 62
    30
100
AcDbLine
 10
21.91116905212402
 20
31.9256591796875
 30
0.0
 11
21.94698905944824
 21
31.9256591796875
 31
0.0
  0
LINE
  5
84
330
A
100
AcDbEntity
  8
TFR-TRI
  6
CONTINUOUS
 62
    30
100
AcDbLine
 10
21.87196922302246
 20
8.477400779724121
 30
0.0
 11
21.87196922302246
 21
8.463574409484863
 31
0.0
  0
LINE
  5
85
330
A
100
AcDbEntity
  8
TFR-TRI
  6
CONTINUOUS
 62
    30
100
AcDbLine
 10
3.924568891525268
 20
3.344814777374267
 30
0.0
 11
22.67456817626953
 21
3.344814777374267
 31
0.0
  0
LINE
  5
86
330
A
100
AcDbEntity
  8
TFR-TRI
  6
CONTINUOUS
 62
    30
100
AcDbLine
 10
4.687968730926513
 20
31.9256591796875
 30
0.0
 11
4.652148246765136
 21
31.9256591796875
 31
0.0
  0
LINE
  5
87
330
A
100
AcDbEntity
  8
TFR-TRI
  6
CONTINUOUS
 62
    30
100
AcDbLine
 10
22.11118125915527
 20
8.458858489990234
 30
0.0
 11
22.09131622314453
 21
8.458858489990234
 31
0.0
  0
LINE
  5
88
330
A
100
AcDbEntity
  8
TFR-TRI
  6
CONTINUOUS
 62
     2
100
AcDbLine
 10
41.93318939208984
 20
5.069814682006835
 30
0.0
 11
42.04158782958984
 21
5.069814682006835
 31
0.0
  0
LINE
  5
89
330
A
100
AcDbEntity
  8
TFR-TRI
  6
CONTINUOUS
 62
    30
100
AcDbLine
 10
4.652148246765136
 20
8.6756591796875
 30
0.0
 11
4.618769168853759
 21
8.6756591796875
 31
0.0
  0
LINE
  5
8A
330
A
100
AcDbEntity
  8
TFR-TRI
  6
CONTINUOUS
 62
    30
100
AcDbLine
 10
20.85677337646484
 20
9.525782585144042
 30
0.0
 11
18.73545265197753
 21
11.64710330963134
 31
0.0
  0
LINE
  5
8B
330
A
100
AcDbEntity
  8
TFR-TRI
  6
CONTINUOUS
 62
    30
100
AcDbLine
 10
4.507822036743164
 20
8.458858489990234
 30
0.0
 11
4.48795747756958
 21
8.458858489990234
 31
0.0
  0
LINE
  5
8C
330
A
100
AcDbEntity
  8
TFR-TRI
  6
CONTINUOUS
 62
     2
100
AcDbLine
 10
41.46979904174805
 20
3.453214645385742
 30
0.0
 11
41.49568939208984
 21
3.453214645385742
 31
0.0
  0
LINE
  5
8D
330
A
100
AcDbEntity
  8
TFR-TRI
  6
CONTINUOUS
 62
    30
100
AcDbLine
 10
4.727169036865234
 20
4.961414813995361
 30
0.0
 11
4.687968730926513
 21
4.961414813995361
 31
0.0
  0
LINE
  5
8E
330
A
100
AcDbEntity
  8
TFR-TRI
  6
CONTINUOUS
 62
     2
100
AcDbLine
 10
41.93318939208984
 20
3.437462329864501
 30
0.0
 11
41.93318939208984
 21
3.469814777374267
 31
0.0
  0
LINE
  5
8F
330
A
100
AcDbEntity
  8
TFR-TRI
  6
CONTINUOUS
 62
     2
100
AcDbLine
 10
22.09756660461426
 20
20.56725883483886
 30
0.0
 11
22.0850772857666
 21
20.56725883483886
 31
0.0
  0
LINE
  5
90
330
A
100
AcDbEntity
  8
TFR-TRI
  6
CONTINUOUS
 62
    30
100
AcDbLine
 10
4.727169036865234
 20
5.02927827835083
 30
0.0
 11
4.727169036865234
 21
5.000614643096923
 31
0.0
  0
LINE
  5
91
330
A
100
AcDbEntity
  8
TFR-TRI
  6
CONTINUOUS
 62
     2
100
AcDbLine
 10
4.526365756988525
 20
20.56725883483886
 30
0.0
 11
4.518319129943847
 21
20.56725883483886
 31
0.0
  0
LINE
  5
92
330
A
100
AcDbEntity
  8
TFR-TRI
  6
CONTINUOUS
 62
     2
100
AcDbLine
 10
4.518319129943847
 20
20.56725883483886
 30
0.0
 11
4.514059543609619
 21
20.56725883483886
 31
0.0
  0
LINE
  5
93
330
A
100
AcDbEntity
  8
TFR-TRI
  6
CONTINUOUS
 62
    30
100
AcDbLine
 10
14.49236488342285
 20
12.12578296661376
 30
0.0
 11
16.61368560791015
 21
14.24710273742675
 31
0.0
  0
LINE
  5
94
330
A
100
AcDbEntity
  8
TFR-TRI
  6
CONTINUOUS
 62
     2
100
AcDbLine
 10
42.04158782958984
 20
3.407314777374267
 30
0.0
 11
42.04158782958984
 21
3.381426334381103
 31
0.0
  0
LINE
  5
95
330
A
100
AcDbEntity
  8
TFR-TRI
  6
CONTINUOUS
 62
    30
100
AcDbLine
 10
29.82478904724121
 20
3.469814777374267
 30
0.0
 11
29.93318939208984
 21
3.469814777374267
 31
0.0
  0
LINE
  5
96
330
A
100
AcDbEntity
  8
TFR-TRI
  6
CONTINUOUS
 62
    30
100
AcDbLine
 10
29.82478904724121
 20
5.033203125
 30
0.0
 11
29.82478904724121
 21
5.053067684173583
 31
0.0
  0
LINE
  5
97
330
A
100
AcDbEntity
  8
TFR-TRI
  6
CONTINUOUS
 62
     2
100
AcDbLine
 10
42.04158782958984
 20
5.033203125
 30
0.0
 11
42.04158782958984
 21
5.007314682006835
 31
0.0
  0
LINE
  5
98
330
A
100
AcDbEntity
  8
TFR-TRI
  6
CONTINUOUS
 62
    30
100
AcDbLine
 10
4.431921482086181
 20
8.458858489990234
 30
0.0
 11
4.399569034576416
 21
8.458858489990234
 31
0.0
  0
LINE
  5
99
330
A
100
AcDbEntity
  8
TFR-TRI
  6
CONTINUOUS
 62
    30
100
AcDbLine
 10
22.51706886291504
 20
4.33231496810913
 30
0.0
 11
22.39206886291503
 21
4.33231496810913
 31
0.0
  0
LINE
  5
9A
330
A
100
AcDbEntity
  8
TFR-TRI
  6
CONTINUOUS
 62
    30
100
AcDbLine
 10
3.892216682434082
 20
8.458858489990234
 30
0.0
 11
3.862068891525268
 21
8.458858489990234
 31
0.0
  0
LINE
  5
9B
330
A
100
AcDbEntity
  8
TFR-TRI
  6
CONTINUOUS
 62
    30
100
AcDbLine
 10
14.49236488342285
 20
22.52578353881836
 30
0.0
 11
16.61368560791015
 21
24.64710235595703
 31
0.0
  0
LINE
  5
9C
330
A
100
AcDbEntity
  8
TFR-TRI
  6
CONTINUOUS
 62
    30
100
AcDbLine
 10
3.862068891525268
 20
8.458858489990234
 30
0.0
 11
3.836180686950683
 21
8.458858489990234
 31
0.0
  0
LINE
  5
9D
330
A
100
AcDbEntity
  8
TFR-TRI
  6
CONTINUOUS
 62
    30
100
AcDbLine
 10
3.836180686950683
 20
8.458858489990234
 30
0.0
 11
3.81631588935852
 21
8.458858489990234
 31
0.0
  0
LINE
  5
9E
330
A
100
AcDbEntity
  8
TFR-TRI
  6
CONTINUOUS
 62
    30
100
AcDbLine
 10
22.70692062377929
 20
8.458858489990234
 30
0.0
 11
22.67456817626953
 21
8.458858489990234
 31
0.0
  0
LINE
  5
9F
330
A
100
AcDbEntity
  8
TFR-TRI
  6
CONTINUOUS
 62
    30
100
AcDbLine
 10
21.87196922302246
 20
5.069814682006835
 30
0.0
 11
21.87196922302246
 21
5.065098762512207
 31
0.0
  0
LINE
  5
A0
330
A
100
AcDbEntity
  8
TFR-TRI
  6
CONTINUOUS
 62
     2
100
AcDbLine
 10
22.20581817626953
 20
20.56725883483886
 30
0.0
 11
22.17346572875976
 21
20.56725883483886
 31
0.0
  0
LINE
  5
A1
330
A
100
AcDbEntity
  8
TFR-TRI
  6
CONTINUOUS
 62
    30
100
AcDbLine
 10
29.93318939208984
 20
3.36156153678894
 30
0.0
 11
29.93318939208984
 21
3.349074125289916
 31
0.0
  0
LINE
  5
A2
330
A
100
AcDbEntity
  8
TFR-TRI
  6
CONTINUOUS
 62
    30
100
AcDbLine
 10
20.85677337646484
 20
22.52578353881836
 30
0.0
 11
18.73545265197753
 21
24.64710235595703
 31
0.0
  0
LINE
  5
A3
330
A
100
AcDbEntity
  8
TFR-TRI
  6
CONTINUOUS
 62
    30
100
AcDbLine
 10
12.10677242279052
 20
9.525782585144042
 30
0.0
 11
9.985452651977539
 21
11.64710330963134
 31
0.0
  0
LINE
  5
A4
330
A
100
AcDbEntity
  8
TFR-TRI
  6
CONTINUOUS
 62
     2
100
AcDbLine
 10
3.803828239440917
 20
20.56725883483886
 30
0.0
 11
3.799568891525268
 21
20.56725883483886
 31
0.0
  0
LINE
  5
A5
330
A
100
AcDbEntity
  8
TFR-TRI
  6
CONTINUOUS
 62
    30
100
AcDbLine
 10
30.04158782958984
 20
5.065098762512207
 30
0.0
 11
30.04158782958984
 21
5.051272869110107
 31
0.0
  0
LINE
  5
A6
330
A
100
AcDbEntity
  8
TFR-TRI
  6
CONTINUOUS
 62
    30
100
AcDbLine
 10
22.13706970214843
 20
8.567258834838867
 30
0.0
 11
22.16721725463867
 21
8.567258834838867
 31
0.0
  0
LINE
  5
A7
330
A
100
AcDbEntity
  8
TFR-TRI
  6
CONTINUOUS
 62
     2
100
AcDbLine
 10
4.549570560455322
 20
20.56725883483886
 30
0.0
 11
4.526365756988525
 21
20.56725883483886
 31
0.0
  0
LINE
  5
A8
330
A
100
AcDbEntity
  8
TFR-TRI
  6
CONTINUOUS
 62
    30
100
AcDbLine
 10
53.29158782958984
 20
5.051272869110107
 30
0.0
 11
53.29158782958984
 21
5.02927827835083
 31
0.0
  0
LINE
  5
A9
330
A
100
AcDbEntity
  8
TFR-TRI
  6
CONTINUOUS
 62
     2
100
AcDbLine
 10
3.836180686950683
 20
20.6756591796875
 30
0.0
 11
3.862068891525268
 21
20.6756591796875
 31
0.0
  0
LINE
  5
AA
330
A
100
AcDbEntity
  8
TFR-TRI
  6
CONTINUOUS
 62
    30
100
AcDbLine
 10
5.477200031280517
 20
20.19094848632812
 30
0.0
 11
7.598520755767822
 21
22.31226730346679
 31
0.0
  0
LINE
  5
AB
330
A
100
AcDbEntity
  8
TFR-TRI
  6
CONTINUOUS
 62
     2
100
AcDbLine
 10
22.11742973327636
 20
20.6756591796875
 30
0.0
 11
22.14331817626953
 21
20.6756591796875
 31
0.0
  0
LINE
  5
AC
330
A
100
AcDbEntity
  8
TFR-TRI
  6
CONTINUOUS
 62
    30
100
AcDbLine
 10
22.78282165527343
 20
8.567258834838867
 30
0.0
 11
22.79530906677246
 21
8.567258834838867
 31
0.0
  0
LINE
  5
AD
330
A
100
AcDbEntity
  8
TFR-TRI
  6
CONTINUOUS
 62
     2
100
AcDbLine
 10
4.481707096099853
 20
20.6756591796875
 30
0.0
 11
4.501572132110595
 21
20.6756591796875
 31
0.0
  0
LINE
  5
AE
330
A
100
AcDbEntity
  8
TFR-TRI
  6
CONTINUOUS
 62
     2
100
AcDbLine
 10
41.87318801879882
 20
3.453214645385742
 30
0.0
 11
41.87318801879882
 21
3.344814777374267
 31
0.0
  0
LINE
  5
AF
330
A
100
AcDbEntity
  8
TFR-TRI
  6
CONTINUOUS
 62
    30
100
AcDbLine
 10
3.892216682434082
 20
8.567258834838867
 30
0.0
 11
3.924568891525268
 21
8.567258834838867
 31
0.0
  0
LINE
  5
B0
330
A
100
AcDbEntity
  8
TFR-TRI
  6
CONTINUOUS
 62
    30
100
AcDbLine
 10
30.79158782958984
 20
4.139014720916748
 30
0.0
 11
30.79158782958984
 21
4.110351085662841
 31
0.0
  0
LINE
  5
B1
330
A
100
AcDbEntity
  8
TFR-TRI
  6
CONTINUOUS
 62
     2
100
AcDbLine
 10
3.892216682434082
 20
20.56725883483886
 30
0.0
 11
3.862068891525268
 21
20.56725883483886
 31
0.0
  0
LINE
  5
B2
330
A
100
AcDbEntity
  8
TFR-TRI
  6
CONTINUOUS
 62
     2
100
AcDbLine
 10
41.49568939208984
 20
3.344814777374267
 30
0.0
 11
41.46979904174805
 21
3.344814777374267
 31
0.0
  0
LINE
  5
B3
330
A
100
AcDbEntity
  8
TFR-TRI
  6
CONTINUOUS
 62
     2
100
AcDbLine
 10
5.793537616729736
 20
20.50725936889648
 30
0.0
 11
6.323990821838378
 21
20.50725936889648
 31
0.0
  0
LINE
  5
B4
330
A
100
AcDbEntity
  8
TFR-TRI
  6
CONTINUOUS
 62
    30
100
AcDbLine
 10
4.520309925079345
 20
8.567258834838867
 30
0.0
 11
4.524569034576416
 21
8.567258834838867
 31
0.0
  0
LINE
  5
B5
330
A
100
AcDbEntity
  8
TFR-TRI
  6
CONTINUOUS
 62
    30
100
AcDbLine
 10
53.29158782958984
 20
4.110351085662841
 30
0.0
 11
53.29158782958984
 21
4.088356971740722
 31
0.0
  0
LINE
  5
B6
330
A
100
AcDbEntity
  8
TFR-TRI
  6
CONTINUOUS
 62
     2
100
AcDbLine
 10
3.924568891525268
 20
20.56725883483886
 30
0.0
 11
3.892216682434082
 21
20.56725883483886
 31
0.0
  0
LINE
  5
B7
330
A
100
AcDbEntity
  8
TFR-TRI
  6
CONTINUOUS
 62
    30
100
AcDbLine
 10
22.04485321044921
 20
8.6756591796875
 30
0.0
 11
22.04956817626953
 21
8.6756591796875
 31
0.0
  0
LINE
  5
B8
330
A
100
AcDbEntity
  8
TFR-TRI
  6
CONTINUOUS
 62
     2
100
AcDbLine
 10
20.71263122558594
 20
20.06975936889648
 30
0.0
 11
21.17641258239746
 21
20.06975936889648
 31
0.0
  0
LINE
  5
B9
330
A
100
AcDbEntity
  8
TFR-TRI
  6
CONTINUOUS
 62
    30
100
AcDbLine
 10
4.399569034576416
 20
8.458858489990234
 30
0.0
 11
4.399569034576416
 21
8.567258834838867
 31
0.0
  0
LINE
  5
BA
330
A
100
AcDbEntity
  8
TFR-TRI
  6
CONTINUOUS
 62
    30
100
AcDbLine
 10
4.727169036865234
 20
8.597258567810058
 30
0.0
 11
4.727169036865234
 21
8.561438560485839
 31
0.0
  0
LINE
  5
BB
330
A
100
AcDbEntity
  8
TFR-TRI
  6
CONTINUOUS
 62
    30
100
AcDbLine
 10
14.22720050811767
 20
20.19094848632812
 30
0.0
 11
16.34852027893066
 21
22.31226730346679
 31
0.0
  0
LINE
  5
BC
330
A
100
AcDbEntity
  8
TFR-TRI
  6
CONTINUOUS
 62
    30
100
AcDbLine
 10
21.87196922302246
 20
8.528059005737304
 30
0.0
 11
21.87196922302246
 21
8.499395370483398
 31
0.0
  0
LINE
  5
BD
330
A
100
AcDbEntity
  8
TFR-TRI
  6
CONTINUOUS
 62
    30
100
AcDbLine
 10
4.687968730926513
 20
31.9256591796875
 30
0.0
 11
21.91116905212402
 21
31.9256591796875
 31
0.0
  0
LINE
  5
BE
330
A
100
AcDbEntity
  8
TFR-TRI
  6
CONTINUOUS
 62
    30
100
AcDbLine
 10
22.00903320312499
 20
8.6756591796875
 30
0.0
 11
22.03102684020996
 21
8.6756591796875
 31
0.0
  0
LINE
  5
BF
330
A
100
AcDbEntity
  8
TFR-TRI
  6
CONTINUOUS
 62
    30
100
AcDbLine
 10
14.22720050811767
 20
25.39094734191894
 30
0.0
 11
16.34852027893066
 21
27.51226806640625
 31
0.0
  0
LINE
  5
C0
330
A
100
AcDbEntity
  8
TFR-TRI
  6
CONTINUOUS
 62
     2
100
AcDbLine
 10
22.04956626892089
 20
20.6756591796875
 30
0.0
 11
22.07277297973632
 21
20.6756591796875
 31
0.0
  0
LINE
  5
C1
330
A
100
AcDbEntity
  8
TFR-TRI
  6
CONTINUOUS
 62
    30
100
AcDbLine
 10
21.87196922302246
 20
8.561438560485839
 30
0.0
 11
21.87196922302246
 21
8.528059005737304
 31
0.0
  0
LINE
  5
C2
330
A
100
AcDbEntity
  8
TFR-TRI
  6
CONTINUOUS
 62
    30
100
AcDbLine
 10
30.04158782958984
 20
5.069814682006835
 30
0.0
 11
29.96318817138671
 21
5.069814682006835
 31
0.0
  0
LINE
  5
C3
330
A
100
AcDbEntity
  8
TFR-TRI
  6
CONTINUOUS
 62
    30
100
AcDbLine
 10
22.03102684020996
 20
31.9256591796875
 30
0.0
 11
22.04485321044921
 21
31.9256591796875
 31
0.0
  0
LINE
  5
C4
330
A
100
AcDbEntity
  8
TFR-TRI
  6
CONTINUOUS
 62
    30
100
AcDbLine
 10
21.87196922302246
 20
5.051272869110107
 30
0.0
 11
21.87196922302246
 21
5.02927827835083
 31
0.0
  0
LINE
  5
C5
330
A
100
AcDbEntity
  8
TFR-TRI
  6
CONTINUOUS
 62
    30
100
AcDbLine
 10
22.19956970214843
 20
8.458858489990234
 30
0.0
 11
22.16721725463867
 21
8.458858489990234
 31
0.0
  0
LINE
  5
C6
330
A
100
AcDbEntity
  8
TFR-TRI
  6
CONTINUOUS
 62
    30
100
AcDbLine
 10
4.568110942840576
 20
31.9256591796875
 30
0.0
 11
4.554285049438476
 21
31.9256591796875
 31
0.0
  0
LINE
  5
C7
330
A
100
AcDbEntity
  8
TFR-TRI
  6
CONTINUOUS
 62
     2
100
AcDbLine
 10
22.79530906677246
 20
20.56725883483886
 30
0.0
 11
22.78282165527343
 21
20.56725883483886
 31
0.0
  0
LINE
  5
C8
330
A
100
AcDbEntity
  8
TFR-TRI
  6
CONTINUOUS
 62
     2
100
AcDbLine
 10
41.93318939208984
 20
3.36156153678894
 30
0.0
 11
41.93318939208984
 21
3.381426334381103
 31
0.0
  0
LINE
  5
C9
330
A
100
AcDbEntity
  8
TFR-TRI
  6
CONTINUOUS
 62
    30
100
AcDbLine
 10
4.727169036865234
 20
8.458858489990234
 30
0.0
 11
4.524569034576416
 21
8.458858489990234
 31
0.0
  0
LINE
  5
CA
330
A
100
AcDbEntity
  8
TFR-TRI
  6
CONTINUOUS
 62
    30
100
AcDbLine
 10
21.1219367980957
 20
12.39094829559326
 30
0.0
 11
19.00061798095703
 21
14.51226806640625
 31
0.0
  0
LINE
  5
CB
330
A
100
AcDbEntity
  8
TFR-TRI
  6
CONTINUOUS
 62
    30
100
AcDbLine
 10
4.554285049438476
 20
8.6756591796875
 30
0.0
 11
4.549569129943847
 21
8.6756591796875
 31
0.0
  0
LINE
  5
CC
330
A
100
AcDbEntity
  8
TFR-TRI
  6
CONTINUOUS
 62
    30
100
AcDbLine
 10
22.51706886291504
 20
4.08231496810913
 30
0.0
 11
22.39206886291503
 21
4.08231496810913
 31
0.0
  0
LINE
  5
CD
330
A
100
AcDbEntity
  8
TFR-TRI
  6
CONTINUOUS
 62
    30
100
AcDbLine
 10
12.37193775177002
 20
17.59094810485839
 30
0.0
 11
10.25061702728271
 21
19.7122688293457
 31
0.0
  0
LINE
  5
CE
330
A
100
AcDbEntity
  8
TFR-TRI
  6
CONTINUOUS
 62
     2
100
AcDbLine
 10
41.93318939208984
 20
5.007314682006835
 30
0.0
 11
41.93318939208984
 21
5.033203125
 31
0.0
  0
LINE
  5
CF
330
A
100
AcDbEntity
  8
TFR-TRI
  6
CONTINUOUS
 62
     2
100
AcDbLine
 10
42.04158782958984
 20
4.944814682006835
 30
0.0
 11
41.93318939208984
 21
4.944814682006835
 31
0.0
  0
LINE
  5
D0
330
A
100
AcDbEntity
  8
TFR-TRI
  6
CONTINUOUS
 62
     2
100
AcDbLine
 10
4.514059543609619
 20
20.56725883483886
 30
0.0
 11
4.501572132110595
 21
20.56725883483886
 31
0.0
  0
LINE
  5
D1
330
A
100
AcDbEntity
  8
TFR-TRI
  6
CONTINUOUS
 62
    30
100
AcDbLine
 10
21.87196922302246
 20
5.065098762512207
 30
0.0
 11
21.87196922302246
 21
5.051272869110107
 31
0.0
  0
LINE
  5
D2
330
A
100
AcDbEntity
  8
TFR-TRI
  6
CONTINUOUS
 62
    30
100
AcDbLine
 10
14.49236488342285
 20
9.525782585144042
 30
0.0
 11
16.61368560791015
 21
11.64710330963134
 31
0.0
  0
LINE
  5
D3
330
A
100
AcDbEntity
  8
TFR-TRI
  6
CONTINUOUS
 62
    30
100
AcDbLine
 10
29.82478904724121
 20
4.944814682006835
 30
0.0
 11
29.82478904724121
 21
4.977167129516601
 31
0.0
  0
LINE
  5
D4
330
A
100
AcDbEntity
  8
TFR-TRI
  6
CONTINUOUS
 62
     2
100
AcDbLine
 10
42.04158782958984
 20
5.069814682006835
 30
0.0
 11
42.04158782958984
 21
5.065555572509765
 31
0.0
  0
LINE
  5
D5
330
A
100
AcDbEntity
  8
TFR-TRI
  6
CONTINUOUS
 62
    30
100
AcDbLine
 10
12.37193775177002
 20
27.99094772338867
 30
0.0
 11
10.25061702728271
 21
30.11226844787597
 31
0.0
  0
LINE
  5
D6
330
A
100
AcDbEntity
  8
TFR-TRI
  6
CONTINUOUS
 62
    30
100
AcDbLine
 10
22.78282165527343
 20
8.458858489990234
 30
0.0
 11
22.76295661926269
 21
8.458858489990234
 31
0.0
  0
LINE
  5
D7
330
A
100
AcDbEntity
  8
TFR-TRI
  6
CONTINUOUS
 62
    30
100
AcDbLine
 10
12.37193775177002
 20
14.99094772338867
 30
0.0
 11
10.25061702728271
 21
17.11226844787597
 31
0.0
  0
LINE
  5
D8
330
A
100
AcDbEntity
  8
TFR-TRI
  6
CONTINUOUS
 62
    30
100
AcDbLine
 10
22.51706886291504
 20
4.95731496810913
 30
0.0
 11
22.39206886291503
 21
4.95731496810913
 31
0.0
  0
LINE
  5
D9
330
A
100
AcDbEntity
  8
TFR-TRI
  6
CONTINUOUS
 62
     2
100
AcDbLine
 10
4.481707096099853
 20
20.56725883483886
 30
0.0
 11
4.455819129943847
 21
20.56725883483886
 31
0.0
  0
LINE
  5
DA
330
A
100
AcDbEntity
  8
TFR-TRI
  6
CONTINUOUS
 62
    30
100
AcDbLine
 10
29.82478904724121
 20
5.007314682006835
 30
0.0
 11
29.82478904724121
 21
5.033203125
 31
0.0
  0
LINE
  5
DB
330
A
100
AcDbEntity
  8
TFR-TRI
  6
CONTINUOUS
 62
    30
100
AcDbLine
 10
29.93318939208984
 20
3.437462329864501
 30
0.0
 11
29.93318939208984
 21
3.407314777374267
 31
0.0
  0
LINE
  5
DC
330
A
100
AcDbEntity
  8
TFR-TRI
  6
CONTINUOUS
 62
     2
100
AcDbLine
 10
5.961944103240966
 20
20.6756591796875
 30
0.0
 11
6.492397308349609
 21
20.6756591796875
 31
0.0
  0
LINE
  5
DD
330
A
100
AcDbEntity
  8
TFR-TRI
  6
CONTINUOUS
 62
    30
100
AcDbLine
 10
4.082068920135498
 20
4.70731496810913
 30
0.0
 11
4.207068920135498
 21
4.70731496810913
 31
0.0
  0
LINE
  5
DE
330
A
100
AcDbEntity
  8
TFR-TRI
  6
CONTINUOUS
 62
    30
100
AcDbLine
 10
21.1219367980957
 20
17.59094810485839
 30
0.0
 11
19.00061798095703
 21
19.7122688293457
 31
0.0
  0
LINE
  5
DF
330
A
100
AcDbEntity
  8
TFR-TRI
  6
CONTINUOUS
 62
    30
100
AcDbLine
 10
30.04158782958984
 20
4.967235088348388
 30
0.0
 11
30.04158782958984
 21
4.931414604187011
 31
0.0
  0
LINE
  5
E0
330
A
100
AcDbEntity
  8
TFR-TRI
  6
CONTINUOUS
 62
     2
100
AcDbLine
 10
22.79956817626953
 20
20.6756591796875
 30
0.0
 11
22.79956817626953
 21
20.56725883483886
 31
0.0
  0
LINE
  5
E1
330
A
100
AcDbEntity
  8
TFR-TRI
  6
CONTINUOUS
 62
     2
100
AcDbLine
 10
3.799568891525268
 20
20.56725883483886
 30
0.0
 11
3.799568891525268
 21
20.6756591796875
 31
0.0
  0
LINE
  5
E2
330
A
100
AcDbEntity
  8
TFR-TRI
  6
CONTINUOUS
 62
     2
100
AcDbLine
 10
3.799568891525268
 20
20.6756591796875
 30
0.0
 11
3.803828239440917
 21
20.6756591796875
 31
0.0
  0
LINE
  5
E3
330
A
100
AcDbEntity
  8
TFR-TRI
  6
CONTINUOUS
 62
    30
100
AcDbLine
 10
22.70692062377929
 20
8.567258834838867
 30
0.0
 11
22.73706817626953
 21
8.567258834838867
 31
0.0
  0
LINE
  5
E4
330
A
100
AcDbEntity
  8
TFR-TRI
  6
CONTINUOUS
 62
     2
100
AcDbLine
 10
22.79530906677246
 20
20.6756591796875
 30
0.0
 11
22.79956817626953
 21
20.6756591796875
 31
0.0
  0
LINE
  5
E5
330
A
100
AcDbEntity
  8
TFR-TRI
  6
CONTINUOUS
 62
    30
100
AcDbLine
 10
30.04158782958984
 20
4.931414604187011
 30
0.0
 11
30.04158782958984
 21
4.268214702606201
 31
0.0
  0
LINE
  5
E6
330
A
100
AcDbEntity
  8
TFR-TRI
  6
CONTINUOUS
 62
    30
100
AcDbLine
 10
30.04158782958984
 20
4.931414604187011
 30
0.0
 11
41.9328727722168
 21
4.931414604187011
 31
0.0
  0
LINE
  5
E7
330
A
100
AcDbEntity
  8
TFR-TRI
  6
CONTINUOUS
 62
     2
100
AcDbLine
 10
4.393319129943847
 20
20.6756591796875
 30
0.0
 11
4.425671577453613
 21
20.6756591796875
 31
0.0
  0
LINE
  5
E8
330
A
100
AcDbEntity
  8
TFR-TRI
  6
CONTINUOUS
 62
    30
100
AcDbLine
 10
5.477200031280517
 20
17.59094810485839
 30
0.0
 11
7.598520755767822
 21
19.7122688293457
 31
0.0
  0
LINE
  5
E9
330
A
100
AcDbEntity
  8
TFR-TRI
  6
CONTINUOUS
 62
    30
100
AcDbLine
 10
3.81631588935852
 20
8.567258834838867
 30
0.0
 11
3.836180686950683
 21
8.567258834838867
 31
0.0
  0
LINE
  5
EA
330
A
100
AcDbEntity
  8
TFR-TRI
  6
CONTINUOUS
 62
     2
100
AcDbLine
 10
4.526365756988525
 20
20.6756591796875
 30
0.0
 11
4.549570560455322
 21
20.6756591796875
 31
0.0
  0
LINE
  5
EB
330
A
100
AcDbEntity
  8
TFR-TRI
  6
CONTINUOUS
 62
     2
100
AcDbLine
 10
22.70692062377929
 20
20.6756591796875
 30
0.0
 11
22.73706817626953
 21
20.6756591796875
 31
0.0
  0
LINE
  5
EC
330
A
100
AcDbEntity
  8
TFR-TRI
  6
CONTINUOUS
 62
     2
100
AcDbLine
 10
41.87318801879882
 20
3.344814777374267
 30
0.0
 11
41.55818939208984
 21
3.344814777374267
 31
0.0
  0
LINE
  5
ED
330
A
100
AcDbEntity
  8
TFR-TRI
  6
CONTINUOUS
 62
     2
100
AcDbLine
 10
3.924568891525268
 20
20.6756591796875
 30
0.0
 11
3.924568891525268
 21
20.56725883483886
 31
0.0
  0
LINE
  5
EE
330
A
100
AcDbEntity
  8
TFR-TRI
  6
CONTINUOUS
 62
    30
100
AcDbLine
 10
4.462069034576416
 20
8.567258834838867
 30
0.0
 11
4.48795747756958
 21
8.567258834838867
 31
0.0
  0
LINE
  5
EF
330
A
100
AcDbEntity
  8
TFR-TRI
  6
CONTINUOUS
 62
    30
100
AcDbLine
 10
53.29158782958984
 20
4.20821475982666
 30
0.0
 11
53.29158782958984
 21
4.172394275665283
 31
0.0
  0
LINE
  5
F0
330
A
100
AcDbEntity
  8
TFR-TRI
  6
CONTINUOUS
 62
     2
100
AcDbLine
 10
41.43318939208984
 20
3.453214645385742
 30
0.0
 11
41.43744659423828
 21
3.453214645385742
 31
0.0
  0
LINE
  5
F1
330
A
100
AcDbEntity
  8
TFR-TRI
  6
CONTINUOUS
 62
     2
100
AcDbLine
 10
5.422725200653076
 20
20.06975936889648
 30
0.0
 11
5.886506557464599
 21
20.06975936889648
 31
0.0
  0
LINE
  5
F2
330
A
100
AcDbEntity
  8
TFR-TRI
  6
CONTINUOUS
 62
    30
100
AcDbLine
 10
22.79956817626953
 20
8.567258834838867
 30
0.0
 11
22.79956817626953
 21
8.458858489990234
 31
0.0
  0
LINE
  5
F3
330
A
100
AcDbEntity
  8
TFR-TRI
  6
CONTINUOUS
 62
    30
100
AcDbLine
 10
4.48795747756958
 20
8.567258834838867
 30
0.0
 11
4.507822036743164
 21
8.567258834838867
 31
0.0
  0
LINE
  5
F4
330
A
100
AcDbEntity
  8
TFR-TRI
  6
CONTINUOUS
 62
    30
100
AcDbLine
 10
42.04158782958984
 20
4.069814682006835
 30
0.0
 11
53.29158782958984
 21
4.069814682006835
 31
0.0
  0
LINE
  5
F5
330
A
100
AcDbEntity
  8
TFR-TRI
  6
CONTINUOUS
 62
     2
100
AcDbLine
 10
20.88661575317382
 20
19.90135955810546
 30
0.0
 11
21.09167861938476
 21
19.90135955810546
 31
0.0
  0
LINE
  5
F6
330
A
100
AcDbEntity
  8
TFR-TRI
  6
CONTINUOUS
 62
    30
100
AcDbLine
 10
21.91116905212402
 20
8.6756591796875
 30
0.0
 11
21.94698905944824
 21
8.6756591796875
 31
0.0
  0
LINE
  5
F7
330
A
100
AcDbEntity
  8
TFR-TRI
  6
CONTINUOUS
 62
    30
100
AcDbLine
 10
4.727169036865234
 20
8.477400779724121
 30
0.0
 11
4.727169036865234
 21
8.463574409484863
 31
0.0
  0
LINE
  5
F8
330
A
100
AcDbEntity
  8
TFR-TRI
  6
CONTINUOUS
 62
    30
100
AcDbLine
 10
4.524569034576416
 20
4.931414604187011
 30
0.0
 11
4.524569034576416
 21
4.944814682006835
 31
0.0
  0
LINE
  5
F9
330
A
100
AcDbEntity
  8
TFR-TRI
  6
CONTINUOUS
 62
    30
100
AcDbLine
 10
4.727169036865234
 20
8.597258567810058
 30
0.0
 11
21.87196922302246
 21
8.597258567810058
 31
0.0
  0
LINE
  5
FA
330
A
100
AcDbEntity
  8
TFR-TRI
  6
CONTINUOUS
 62
    30
100
AcDbLine
 10
21.94698905944824
 20
31.9256591796875
 30
0.0
 11
21.98036956787109
 21
31.9256591796875
 31
0.0
  0
LINE
  5
FB
330
A
100
AcDbEntity
  8
TFR-TRI
  6
CONTINUOUS
 62
    30
100
AcDbLine
 10
21.87196922302246
 20
8.463574409484863
 30
0.0
 11
21.87196922302246
 21
8.458858489990234
 31
0.0
  0
LINE
  5
FC
330
A
100
AcDbEntity
  8
TFR-TRI
  6
CONTINUOUS
 62
    30
100
AcDbLine
 10
20.85677337646484
 20
19.92578315734863
 30
0.0
 11
18.73545265197753
 21
22.04710388183593
 31
0.0
  0
LINE
  5
FD
330
A
100
AcDbEntity
  8
TFR-TRI
  6
CONTINUOUS
 62
    30
100
AcDbLine
 10
22.09131622314453
 20
8.458858489990234
 30
0.0
 11
22.0788288116455
 21
8.458858489990234
 31
0.0
  0
LINE
  5
FE
330
A
100
AcDbEntity
  8
TFR-TRI
  6
CONTINUOUS
 62
     2
100
AcDbLine
 10
42.04158782958984
 20
3.344814777374267
 30
0.0
 11
41.93318939208984
 21
3.344814777374267
 31
0.0
  0
LINE
  5
FF
330
A
100
AcDbEntity
  8
TFR-TRI
  6
CONTINUOUS
 62
    30
100
AcDbLine
 10
5.477200031280517
 20
14.99094772338867
 30
0.0
 11
7.598520755767822
 21
17.11226844787597
 31
0.0
  0
LINE
  5
100
330
A
100
AcDbEntity
  8
TFR-TRI
  6
CONTINUOUS
 62
    30
100
AcDbLine
 10
5.477200031280517
 20
9.790947914123535
 30
0.0
 11
7.598520755767822
 21
11.91226863861084
 31
0.0
  0
LINE
  5
101
330
A
100
AcDbEntity
  8
TFR-TRI
  6
CONTINUOUS
 62
    30
100
AcDbLine
 10
5.742365360260009
 20
14.72578239440918
 30
0.0
 11
7.863685607910156
 21
16.84710311889648
 31
0.0
  0
LINE
  5
102
330
A
100
AcDbEntity
  8
TFR-TRI
  6
CONTINUOUS
 62
    30
100
AcDbLine
 10
4.48795747756958
 20
8.458858489990234
 30
0.0
 11
4.462069034576416
 21
8.458858489990234
 31
0.0
  0
LINE
  5
103
330
A
100
AcDbEntity
  8
TFR-TRI
  6
CONTINUOUS
 62
     2
100
AcDbLine
 10
22.17346572875976
 20
20.56725883483886
 30
0.0
 11
22.14331817626953
 21
20.56725883483886
 31
0.0
  0
LINE
  5
104
330
A
100
AcDbEntity
  8
TFR-TRI
  6
CONTINUOUS
 62
     2
100
AcDbLine
 10
22.0850772857666
 20
20.56725883483886
 30
0.0
 11
22.08081817626953
 21
20.56725883483886
 31
0.0
  0
LINE
  5
105
330
A
100
AcDbEntity
  8
TFR-TRI
  6
CONTINUOUS
 62
    30
100
AcDbLine
 10
21.87196922302246
 20
4.931414604187011
 30
0.0
 11
22.07456970214843
 21
4.931414604187011
 31
0.0
  0
LINE
  5
106
330
A
100
AcDbEntity
  8
TFR-TRI
  6
CONTINUOUS
 62
    30
100
AcDbLine
 10
14.49236488342285
 20
25.12578201293945
 30
0.0
 11
16.61368560791015
 21
27.24710273742676
 31
0.0
  0
LINE
  5
107
330
A
100
AcDbEntity
  8
TFR-TRI
  6
CONTINUOUS
 62
    30
100
AcDbLine
 10
14.22720050811767
 20
17.59094810485839
 30
0.0
 11
16.34852027893066
 21
19.7122688293457
 31
0.0
  0
LINE
  5
108
330
A
100
AcDbEntity
  8
TFR-TRI
  6
CONTINUOUS
 62
    30
100
AcDbLine
 10
4.727169036865234
 20
5.000614643096923
 30
0.0
 11
4.727169036865234
 21
4.967235088348388
 31
0.0
  0
LINE
  5
109
330
A
100
AcDbEntity
  8
TFR-TRI
  6
CONTINUOUS
 62
    30
100
AcDbLine
 10
4.727169036865234
 20
5.069814682006835
 30
0.0
 11
4.727169036865234
 21
5.065098762512207
 31
0.0
  0
LINE
  5
10A
330
A
100
AcDbEntity
  8
TFR-TRI
  6
CONTINUOUS
 62
    30
100
AcDbLine
 10
29.93318939208984
 20
5.065555572509765
 30
0.0
 11
29.93318939208984
 21
5.053067684173583
 31
0.0
  0
LINE
  5
10B
330
A
100
AcDbEntity
  8
TFR-TRI
  6
CONTINUOUS
 62
    30
100
AcDbLine
 10
29.82478904724121
 20
3.407314777374267
 30
0.0
 11
29.82478904724121
 21
3.437462329864501
 31
0.0
  0
LINE
  5
10C
330
A
100
AcDbEntity
  8
TFR-TRI
  6
CONTINUOUS
 62
     2
100
AcDbLine
 10
42.04158782958984
 20
3.381426334381103
 30
0.0
 11
42.04158782958984
 21
3.36156153678894
 31
0.0
  0
LINE
  5
10D
330
A
100
AcDbEntity
  8
TFR-TRI
  6
CONTINUOUS
 62
    30
100
AcDbLine
 10
21.87196922302246
 20
4.967235088348388
 30
0.0
 11
21.87196922302246
 21
4.931414604187011
 31
0.0
  0
LINE
  5
10E
330
A
100
AcDbEntity
  8
TFR-TRI
  6
CONTINUOUS
 62
    30
100
AcDbLine
 10
20.85677337646484
 20
27.72578239440917
 30
0.0
 11
18.73545265197753
 21
29.84710311889648
 31
0.0
  0
LINE
  5
10F
330
A
100
AcDbEntity
  8
TFR-TRI
  6
CONTINUOUS
 62
    30
100
AcDbLine
 10
29.82478904724121
 20
3.469814777374267
 30
0.0
 11
29.82478904724121
 21
4.944814682006835
 31
0.0
  0
LINE
  5
110
330
A
100
AcDbEntity
  8
TFR-TRI
  6
CONTINUOUS
 62
     2
100
AcDbLine
 10
42.04158782958984
 20
5.007314682006835
 30
0.0
 11
42.04158782958984
 21
4.977167129516601
 31
0.0
  0
LINE
  5
111
330
A
100
AcDbEntity
  8
TFR-TRI
  6
CONTINUOUS
 62
    30
100
AcDbLine
 10
3.81631588935852
 20
8.458858489990234
 30
0.0
 11
3.803828239440917
 21
8.458858489990234
 31
0.0
  0
LINE
  5
112
330
A
100
AcDbEntity
  8
TFR-TRI
  6
CONTINUOUS
 62
    30
100
AcDbLine
 10
22.07456970214843
 20
8.567258834838867
 30
0.0
 11
22.0788288116455
 21
8.567258834838867
 31
0.0
  0
LINE
  5
113
330
A
100
AcDbEntity
  8
TFR-TRI
  6
CONTINUOUS
 62
    30
100
AcDbLine
 10
29.93318939208984
 20
4.977167129516601
 30
0.0
 11
29.93318939208984
 21
4.944814682006835
 31
0.0
  0
LINE
  5
114
330
A
100
AcDbEntity
  8
TFR-TRI
  6
CONTINUOUS
 62
    30
100
AcDbLine
 10
12.37193775177002
 20
12.39094829559326
 30
0.0
 11
10.25061702728271
 21
14.51226806640625
 31
0.0
  0
LINE
  5
115
330
A
100
AcDbEntity
  8
TFR-TRI
  6
CONTINUOUS
 62
    30
100
AcDbLine
 10
4.082068920135498
 20
3.707314729690551
 30
0.0
 11
4.207068920135498
 21
3.707314729690551
 31
0.0
  0
LINE
  5
116
330
A
100
AcDbEntity
  8
TFR-TRI
  6
CONTINUOUS
 62
    30
100
AcDbLine
 10
29.93318939208984
 20
3.349074125289916
 30
0.0
 11
29.93318939208984
 21
3.344814777374267
 31
0.0
  0
LINE
  5
117
330
A
100
AcDbEntity
  8
TFR-TRI
  6
CONTINUOUS
 62
    30
100
AcDbLine
 10
12.10677242279052
 20
19.92578315734863
 30
0.0
 11
9.985452651977539
 21
22.04710388183593
 31
0.0
  0
LINE
  5
118
330
A
100
AcDbEntity
  8
TFR-TRI
  6
CONTINUOUS
 62
     2
100
AcDbLine
 10
22.67456817626953
 20
20.6756591796875
 30
0.0
 11
22.20581817626953
 21
20.6756591796875
 31
0.0
  0
LINE
  5
119
330
A
100
AcDbEntity
  8
TFR-TRI
  6
CONTINUOUS
 62
    30
100
AcDbLine
 10
4.727169036865234
 20
4.931414604187011
 30
0.0
 11
21.87196922302246
 21
4.931414604187011
 31
0.0
  0
LINE
  5
11A
330
A
100
AcDbEntity
  8
TFR-TRI
  6
CONTINUOUS
 62
    30
100
AcDbLine
 10
14.49236488342285
 20
19.92578315734863
 30
0.0
 11
16.61368560791015
 21
22.04710388183593
 31
0.0
  0
LINE
  5
11B
330
A
100
AcDbEntity
  8
TFR-TRI
  6
CONTINUOUS
 62
    30
100
AcDbLine
 10
53.29158782958984
 20
5.02927827835083
 30
0.0
 11
53.29158782958984
 21
5.000614643096923
 31
0.0
  0
LINE
  5
11C
330
A
100
AcDbEntity
  8
TFR-TRI
  6
CONTINUOUS
 62
    30
100
AcDbLine
 10
22.79530906677246
 20
8.567258834838867
 30
0.0
 11
22.79956817626953
 21
8.567258834838867
 31
0.0
  0
LINE
  5
11D
330
A
100
AcDbEntity
  8
TFR-TRI
  6
CONTINUOUS
 62
     2
100
AcDbLine
 10
22.08081817626953
 20
20.6756591796875
 30
0.0
 11
22.0850772857666
 21
20.6756591796875
 31
0.0
  0
LINE
  5
11E
330
A
100
AcDbEntity
  8
TFR-TRI
  6
CONTINUOUS
 62
     2
100
AcDbLine
 10
41.52583694458008
 20
3.453214645385742
 30
0.0
 11
41.55818939208984
 21
3.453214645385742
 31
0.0
  0
LINE
  5
11F
330
A
100
AcDbEntity
  8
TFR-TRI
  6
CONTINUOUS
 62
    30
100
AcDbLine
 10
5.742365360260009
 20
27.72578239440917
 30
0.0
 11
7.863685607910156
 21
29.84710311889648
 31
0.0
  0
LINE
  5
120
330
A
100
AcDbEntity
  8
TFR-TRI
  6
CONTINUOUS
 62
    30
100
AcDbLine
 10
30.07158851623535
 20
4.238214969635009
 30
0.0
 11
30.79158782958984
 21
4.238214969635009
 31
0.0
  0
LINE
  5
121
330
A
100
AcDbEntity
  8
TFR-TRI
  6
CONTINUOUS
 62
     2
100
AcDbLine
 10
4.501572132110595
 20
20.6756591796875
 30
0.0
 11
4.514059543609619
 21
20.6756591796875
 31
0.0
  0
LINE
  5
122
330
A
100
AcDbEntity
  8
TFR-TRI
  6
CONTINUOUS
 62
    30
100
AcDbLine
 10
3.924568891525268
 20
8.567258834838867
 30
0.0
 11
4.399569034576416
 21
8.567258834838867
 31
0.0
  0
LINE
  5
123
330
A
100
AcDbEntity
  8
TFR-TRI
  6
CONTINUOUS
 62
    30
100
AcDbLine
 10
21.87196922302246
 20
8.567258834838867
 30
0.0
 11
22.07456970214843
 21
8.567258834838867
 31
0.0
  0
LINE
  5
124
330
A
100
AcDbEntity
  8
TFR-TRI
  6
CONTINUOUS
 62
     2
100
AcDbLine
 10
41.46979904174805
 20
3.344814777374267
 30
0.0
 11
41.44993591308593
 21
3.344814777374267
 31
0.0
  0
LINE
  5
125
330
A
100
AcDbEntity
  8
TFR-TRI
  6
CONTINUOUS
 62
    30
100
AcDbLine
 10
4.727169036865234
 20
8.567258834838867
 30
0.0
 11
4.524569034576416
 21
8.567258834838867
 31
0.0
  0
LINE
  5
126
330
A
100
AcDbEntity
  8
TFR-TRI
  6
CONTINUOUS
 62
    30
100
AcDbLine
 10
53.29158782958984
 20
4.088356971740722
 30
0.0
 11
53.29158782958984
 21
4.074530601501464
 31
0.0
  0
LINE
  5
127
330
A
100
AcDbEntity
  8
TFR-TRI
  6
CONTINUOUS
 62
    30
100
AcDbLine
 10
5.742365360260009
 20
12.12578296661376
 30
0.0
 11
7.863685607910156
 21
14.24710273742675
 31
0.0
  0
LINE
  5
128
330
A
100
AcDbEntity
  8
TFR-TRI
  6
CONTINUOUS
 62
    30
100
AcDbLine
 10
42.04149627685547
 20
5.069814682006835
 30
0.0
 11
53.29158782958984
 21
5.069814682006835
 31
0.0
  0
LINE
  5
129
330
A
100
AcDbEntity
  8
TFR-TRI
  6
CONTINUOUS
 62
     2
100
AcDbLine
 10
5.507459640502929
 20
19.90135955810546
 30
0.0
 11
5.712522029876708
 21
19.90135955810546
 31
0.0
  0
LINE
  5
12A
330
A
100
AcDbEntity
  8
TFR-TRI
  6
CONTINUOUS
 62
    30
100
AcDbLine
 10
21.98036956787109
 20
31.9256591796875
 30
0.0
 11
22.00903320312499
 21
31.9256591796875
 31
0.0
  0
LINE
  5
12B
330
A
100
AcDbEntity
  8
TFR-TRI
  6
CONTINUOUS
 62
    30
100
AcDbLine
 10
22.07456970214843
 20
8.458858489990234
 30
0.0
 11
22.07456970214843
 21
8.567258834838867
 31
0.0
  0
LINE
  5
12C
330
A
100
AcDbEntity
  8
TFR-TRI
  6
CONTINUOUS
 62
    30
100
AcDbLine
 10
4.727169036865234
 20
8.561438560485839
 30
0.0
 11
4.727169036865234
 21
8.528059005737304
 31
0.0
  0
LINE
  5
12D
330
A
100
AcDbEntity
  8
TFR-TRI
  6
CONTINUOUS
 62
    30
100
AcDbLine
 10
22.07456970214843
 20
4.931414604187011
 30
0.0
 11
22.07456970214843
 21
4.944814682006835
 31
0.0
  0
LINE
  5
12E
330
A
100
AcDbEntity
  8
TFR-TRI
  6
CONTINUOUS
 62
    30
100
AcDbLine
 10
22.03102684020996
 20
8.6756591796875
 30
0.0
 11
22.04485321044921
 21
8.6756591796875
 31
0.0
  0
LINE
  5
12F
330
A
100
AcDbEntity
  8
TFR-TRI
  6
CONTINUOUS
 62
    30
100
AcDbLine
 10
21.1219367980957
 20
14.99094772338867
 30
0.0
 11
19.00061798095703
 21
17.11226844787597
 31
0.0
  0
LINE
  5
130
330
A
100
AcDbEntity
  8
TFR-TRI
  6
CONTINUOUS
 62
     2
100
AcDbLine
 10
41.49568939208984
 20
3.453214645385742
 30
0.0
 11
41.52583694458008
 21
3.453214645385742
 31
0.0
  0
LINE
  5
131
330
A
100
AcDbEntity
  8
TFR-TRI
  6
CONTINUOUS
 62
    30
100
AcDbLine
 10
12.10677242279052
 20
22.52578353881836
 30
0.0
 11
9.985452651977539
 21
24.64710235595703
 31
0.0
  0
LINE
  5
132
330
A
100
AcDbEntity
  8
TFR-TRI
  6
CONTINUOUS
 62
    30
100
AcDbLine
 10
3.799568891525268
 20
4.944814682006835
 30
0.0
 11
3.799568891525268
 21
3.469814777374267
 31
0.0
  0
LINE
  5
133
330
A
100
AcDbEntity
  8
TFR-TRI
  6
CONTINUOUS
 62
    30
100
AcDbLine
 10
14.49236488342285
 20
27.72578239440917
 30
0.0
 11
16.61368560791015
 21
29.84710311889648
 31
0.0
  0
LINE
  5
134
330
A
100
AcDbEntity
  8
TFR-TRI
  6
CONTINUOUS
 62
    30
100
AcDbLine
 10
22.04485321044921
 20
31.9256591796875
 30
0.0
 11
22.04956817626953
 21
31.9256591796875
 31
0.0
  0
LINE
  5
135
330
A
100
AcDbEntity
  8
TFR-TRI
  6
CONTINUOUS
 62
    30
100
AcDbLine
 10
22.16721725463867
 20
8.458858489990234
 30
0.0
 11
22.13706970214843
 21
8.458858489990234
 31
0.0
  0
LINE
  5
136
330
A
100
AcDbEntity
  8
TFR-TRI
  6
CONTINUOUS
 62
    30
100
AcDbLine
 10
29.82478904724121
 20
3.344814777374267
 30
0.0
 11
29.82478904724121
 21
3.349074125289916
 31
0.0
  0
LINE
  5
137
330
A
100
AcDbEntity
  8
TFR-TRI
  6
CONTINUOUS
 62
    30
100
AcDbLine
 10
4.554285049438476
 20
31.9256591796875
 30
0.0
 11
4.549569129943847
 21
31.9256591796875
 31
0.0
  0
LINE
  5
138
330
A
100
AcDbEntity
  8
TFR-TRI
  6
CONTINUOUS
 62
    30
100
AcDbLine
 10
12.10677242279052
 20
27.72578239440917
 30
0.0
 11
9.985452651977539
 21
29.84710311889648
 31
0.0
  0
LINE
  5
139
330
A
100
AcDbEntity
  8
TFR-TRI
  6
CONTINUOUS
 62
    30
100
AcDbLine
 10
4.524569034576416
 20
8.458858489990234
 30
0.0
 11
4.520309925079345
 21
8.458858489990234
 31
0.0
  0
LINE
  5
13A
330
A
100
AcDbEntity
  8
TFR-TRI
  6
CONTINUOUS
 62
     2
100
AcDbLine
 10
22.70692062377929
 20
20.56725883483886
 30
0.0
 11
22.67456817626953
 21
20.56725883483886
 31
0.0
  0
LINE
  5
13B
330
A
100
AcDbEntity
  8
TFR-TRI
  6
CONTINUOUS
 62
    30
100
AcDbLine
 10
4.549569129943847
 20
31.9256591796875
 30
0.0
 11
4.549569129943847
 21
8.6756591796875
 31
0.0
  0
LINE
  5
13C
330
A
100
AcDbEntity
  8
TFR-TRI
  6
CONTINUOUS
 62
    30
100
AcDbLine
 10
29.82478904724121
 20
5.053067684173583
 30
0.0
 11
29.82478904724121
 21
5.065555572509765
 31
0.0
  0
LINE
  5
13D
330
A
100
AcDbEntity
  8
TFR-TRI
  6
CONTINUOUS
 62
    30
100
AcDbLine
 10
21.87196922302246
 20
5.02927827835083
 30
0.0
 11
21.87196922302246
 21
5.000614643096923
 31
0.0
  0
LINE
  5
13E
330
A
100
AcDbEntity
  8
TFR-TRI
  6
CONTINUOUS
 62
    30
100
AcDbLine
 10
29.96318817138671
 20
4.961414813995361
 30
0.0
 11
30.04158782958984
 21
4.961414813995361
 31
0.0
  0
LINE
  5
13F
330
A
100
AcDbEntity
  8
TFR-TRI
  6
CONTINUOUS
 62
    30
100
AcDbLine
 10
20.85677337646484
 20
12.12578296661376
 30
0.0
 11
18.73545265197753
 21
14.24710273742675
 31
0.0
  0
LINE
  5
140
330
A
100
AcDbEntity
  8
TFR-TRI
  6
CONTINUOUS
 62
     2
100
AcDbLine
 10
41.93318939208984
 20
5.033203125
 30
0.0
 11
41.93318939208984
 21
5.053067684173583
 31
0.0
  0
LINE
  5
141
330
A
100
AcDbEntity
  8
TFR-TRI
  6
CONTINUOUS
 62
     2
100
AcDbLine
 10
22.67456817626953
 20
20.6756591796875
 30
0.0
 11
22.70692062377929
 21
20.6756591796875
 31
0.0
  0
LINE
  5
142
330
A
100
AcDbEntity
  8
TFR-TRI
  6
CONTINUOUS
 62
    30
100
AcDbLine
 10
4.727169036865234
 20
5.065098762512207
 30
0.0
 11
4.727169036865234
 21
5.051272869110107
 31
0.0
  0
LINE
  5
143
330
A
100
AcDbEntity
  8
TFR-TRI
  6
CONTINUOUS
 62
     2
100
AcDbLine
 10
22.07277297973632
 20
20.56725883483886
 30
0.0
 11
22.04956626892089
 21
20.56725883483886
 31
0.0
  0
LINE
  5
144
330
A
100
AcDbEntity
  8
TFR-TRI
  6
CONTINUOUS
 62
    30
100
AcDbLine
 10
4.687968730926513
 20
31.9256591796875
 30
0.0
 11
4.687968730926513
 21
8.6756591796875
 31
0.0
  0
LINE
  5
145
330
A
100
AcDbEntity
  8
TFR-TRI
  6
CONTINUOUS
 62
    30
100
AcDbLine
 10
12.10677242279052
 20
25.12578201293945
 30
0.0
 11
9.985452651977539
 21
27.24710273742676
 31
0.0
  0
LINE
  5
146
330
A
100
AcDbEntity
  8
TFR-TRI
  6
CONTINUOUS
 62
    30
100
AcDbLine
 10
14.22720050811767
 20
12.39094829559326
 30
0.0
 11
16.34852027893066
 21
14.51226806640625
 31
0.0
  0
LINE
  5
147
330
A
100
AcDbEntity
  8
TFR-TRI
  6
CONTINUOUS
 62
     2
100
AcDbLine
 10
42.04158782958984
 20
3.469814777374267
 30
0.0
 11
42.04158782958984
 21
3.437462329864501
 31
0.0
  0
LINE
  5
148
330
A
100
AcDbEntity
  8
TFR-TRI
  6
CONTINUOUS
 62
    30
100
AcDbLine
 10
29.82478904724121
 20
3.381426334381103
 30
0.0
 11
29.82478904724121
 21
3.407314777374267
 31
0.0
  0
LINE
  5
149
330
A
100
AcDbEntity
  8
TFR-TRI
  6
CONTINUOUS
 62
     2
100
AcDbLine
 10
4.501572132110595
 20
20.56725883483886
 30
0.0
 11
4.481707096099853
 21
20.56725883483886
 31
0.0
  0
LINE
  5
14A
330
A
100
AcDbEntity
  8
TFR-TRI
  6
CONTINUOUS
 62
    30
100
AcDbLine
 10
20.85677337646484
 20
17.3257827758789
 30
0.0
 11
18.73545265197753
 21
19.44710350036621
 31
0.0
  0
LINE
  5
14B
330
A
100
AcDbEntity
  8
TFR-TRI
  6
CONTINUOUS
 62
     2
100
AcDbLine
 10
42.04158782958984
 20
5.065555572509765
 30
0.0
 11
42.04158782958984
 21
5.053067684173583
 31
0.0
  0
LINE
  5
14C
330
A
100
AcDbEntity
  8
TFR-TRI
  6
CONTINUOUS
 62
    30
100
AcDbLine
 10
22.76295661926269
 20
8.458858489990234
 30
0.0
 11
22.73706817626953
 21
8.458858489990234
 31
0.0
  0
LINE
  5
14D
330
A
100
AcDbEntity
  8
TFR-TRI
  6
CONTINUOUS
 62
    30
100
AcDbLine
 10
29.93318939208984
 20
5.053067684173583
 30
0.0
 11
29.93318939208984
 21
5.033203125
 31
0.0
  0
LINE
  5
14E
330
A
100
AcDbEntity
  8
TFR-TRI
  6
CONTINUOUS
 62
     2
100
AcDbLine
 10
4.518319129943847
 20
20.6756591796875
 30
0.0
 11
4.518319129943847
 21
20.56725883483886
 31
0.0
  0
LINE
  5
14F
330
A
100
AcDbEntity
  8
TFR-TRI
  6
CONTINUOUS
 62
     2
100
AcDbLine
 10
22.0850772857666
 20
20.6756591796875
 30
0.0
 11
22.09756660461426
 21
20.6756591796875
 31
0.0
  0
LINE
  5
150
330
A
100
AcDbEntity
  8
TFR-TRI
  6
CONTINUOUS
 62
    30
100
AcDbLine
 10
29.93318939208984
 20
3.407314777374267
 30
0.0
 11
29.93318939208984
 21
3.381426334381103
 31
0.0
  0
LINE
  5
151
330
A
100
AcDbEntity
  8
TFR-TRI
  6
CONTINUOUS
 62
     2
100
AcDbLine
 10
3.924568891525268
 20
20.56725883483886
 30
0.0
 11
4.393319129943847
 21
20.56725883483886
 31
0.0
  0
LINE
  5
152
330
A
100
AcDbEntity
  8
TFR-TRI
  6
CONTINUOUS
 62
    30
100
AcDbLine
 10
12.37193775177002
 20
9.790947914123535
 30
0.0
 11
10.25061702728271
 21
11.91226863861084
 31
0.0
  0
LINE
  5
153
330
A
100
AcDbEntity
  8
TFR-TRI
  6
CONTINUOUS
 62
    30
100
AcDbLine
 10
4.082068920135498
 20
4.33231496810913
 30
0.0
 11
4.207068920135498
 21
4.33231496810913
 31
0.0
  0
LINE
  5
154
330
A
100
AcDbEntity
  8
TFR-TRI
  6
CONTINUOUS
 62
    30
100
AcDbLine
 10
20.85677337646484
 20
25.12578201293945
 30
0.0
 11
18.73545265197753
 21
27.24710273742676
 31
0.0
  0
LINE
  5
155
330
A
100
AcDbEntity
  8
TFR-TRI
  6
CONTINUOUS
 62
    30
100
AcDbLine
 10
29.82478904724121
 20
5.069814682006835
 30
0.0
 11
29.93318939208984
 21
5.069814682006835
 31
0.0
  0
LINE
  5
156
330
A
100
AcDbEntity
  8
TFR-TRI
  6
CONTINUOUS
 62
     2
100
AcDbLine
 10
11.35705375671386
 20
20.6756591796875
 30
0.0
 11
11.88724040985107
 21
20.6756591796875
 31
0.0
  0
LINE
  5
157
330
A
100
AcDbEntity
  8
TFR-TRI
  6
CONTINUOUS
 62
    30
100
AcDbLine
 10
22.09131622314453
 20
8.567258834838867
 30
0.0
 11
22.11118125915527
 21
8.567258834838867
 31
0.0
  0
LINE
  5
158
330
A
100
AcDbEntity
  8
TFR-TRI
  6
CONTINUOUS
 62
    30
100
AcDbLine
 10
53.29158782958984
 20
5.069814682006835
 30
0.0
 11
53.29158782958984
 21
5.065098762512207
 31
0.0
  0
LINE
  5
159
330
A
100
AcDbEntity
  8
TFR-TRI
  6
CONTINUOUS
 62
     2
100
AcDbLine
 10
3.803828239440917
 20
20.6756591796875
 30
0.0
 11
3.81631588935852
 21
20.6756591796875
 31
0.0
  0
LINE
  5
15A
330
A
100
AcDbEntity
  8
TFR-TRI
  6
CONTINUOUS
 62
    30
100
AcDbLine
 10
5.742365360260009
 20
22.52578353881836
 30
0.0
 11
7.863685607910156
 21
24.64710235595703
 31
0.0
  0
LINE
  5
15B
330
A
100
AcDbEntity
  8
TFR-TRI
  6
CONTINUOUS
 62
    30
100
AcDbLine
 10
22.73706817626953
 20
8.567258834838867
 30
0.0
 11
22.76295661926269
 21
8.567258834838867
 31
0.0
  0
LINE
  5
15C
330
A
100
AcDbEntity
  8
TFR-TRI
  6
CONTINUOUS
 62
     2
100
AcDbLine
 10
41.93318939208984
 20
5.065555572509765
 30
0.0
 11
41.93318939208984
 21
5.069814682006835
 31
0.0
  0
LINE
  5
15D
330
A
100
AcDbEntity
  8
TFR-TRI
  6
CONTINUOUS
 62
    30
100
AcDbLine
 10
42.04149627685547
 20
4.931414604187011
 30
0.0
 11
53.29158782958984
 21
4.931414604187011
 31
0.0
  0
LINE
  5
15E
330
A
100
AcDbEntity
  8
TFR-TRI
  6
CONTINUOUS
 62
     2
100
AcDbLine
 10
4.425671577453613
 20
20.6756591796875
 30
0.0
 11
4.455819129943847
 21
20.6756591796875
 31
0.0
  0
LINE
  5
15F
330
A
100
AcDbEntity
  8
TFR-TRI
  6
CONTINUOUS
 62
     2
100
AcDbLine
 10
22.73706817626953
 20
20.6756591796875
 30
0.0
 11
22.76295661926269
 21
20.6756591796875
 31
0.0
  0
LINE
  5
160
330
A
100
AcDbEntity
  8
TFR-TRI
  6
CONTINUOUS
 62
     2
100
AcDbLine
 10
4.455819129943847
 20
20.56725883483886
 30
0.0
 11
4.425671577453613
 21
20.56725883483886
 31
0.0
  0
LINE
  5
161
330
A
100
AcDbEntity
  8
TFR-TRI
  6
CONTINUOUS
 62
     2
100
AcDbLine
 10
41.93318939208984
 20
3.349074125289916
 30
0.0
 11
41.93318939208984
 21
3.36156153678894
 31
0.0
  0
LINE
  5
162
330
A
100
AcDbEntity
  8
TFR-TRI
  6
CONTINUOUS
 62
     2
100
AcDbLine
 10
41.55818939208984
 20
3.344814777374267
 30
0.0
 11
41.52583694458008
 21
3.344814777374267
 31
0.0
  0
LINE
  5
163
330
A
100
AcDbEntity
  8
TFR-TRI
  6
CONTINUOUS
 62
     2
100
AcDbLine
 10
22.08081817626953
 20
20.56725883483886
 30
0.0
 11
22.08081817626953
 21
20.6756591796875
 31
0.0
  0
LINE
  5
164
330
A
100
AcDbEntity
  8
TFR-TRI
  6
CONTINUOUS
 62
    30
100
AcDbLine
 10
30.04158782958984
 20
5.051272869110107
 30
0.0
 11
30.04158782958984
 21
5.02927827835083
 31
0.0
  0
LINE
  5
165
330
A
100
AcDbEntity
  8
TFR-TRI
  6
CONTINUOUS
 62
    30
100
AcDbLine
 10
3.836180686950683
 20
8.567258834838867
 30
0.0
 11
3.862068891525268
 21
8.567258834838867
 31
0.0
  0
LINE
  5
166
330
A
100
AcDbEntity
  8
TFR-TRI
  6
CONTINUOUS
 62
    30
100
AcDbLine
 10
53.29158782958984
 20
4.172394275665283
 30
0.0
 11
53.29158782958984
 21
4.139014720916748
 31
0.0
  0
LINE
  5
167
330
A
100
AcDbEntity
  8
TFR-TRI
  6
CONTINUOUS
 62
     2
100
AcDbLine
 10
41.43744659423828
 20
3.453214645385742
 30
0.0
 11
41.44993591308593
 21
3.453214645385742
 31
0.0
  0
LINE
  5
168
330
A
100
AcDbEntity
  8
TFR-TRI
  6
CONTINUOUS
 62
    30
100
AcDbLine
 10
5.477200031280517
 20
12.39094829559326
 30
0.0
 11
7.598520755767822
 21
14.51226806640625
 31
0.0
  0
LINE
  5
169
330
A
100
AcDbEntity
  8
TFR-TRI
  6
CONTINUOUS
 62
     2
100
AcDbLine
 10
11.96294403076171
 20
20.06975936889648
 30
0.0
 11
12.42672538757324
 21
20.06975936889648
 31
0.0
  0
LINE
  5
16A
330
A
100
AcDbEntity
  8
TFR-TRI
  6
CONTINUOUS
 62
    30
100
AcDbLine
 10
4.524569034576416
 20
8.567258834838867
 30
0.0
 11
4.524569034576416
 21
8.458858489990234
 31
0.0
  0
LINE
  5
16B
330
A
100
AcDbEntity
  8
TFR-TRI
  6
CONTINUOUS
 62
    30
100
AcDbLine
 10
5.742365360260009
 20
9.525782585144042
 30
0.0
 11
7.863685607910156
 21
11.64710330963134
 31
0.0
  0
LINE
  5
16C
330
A
100
AcDbEntity
  8
TFR-TRI
  6
CONTINUOUS
 62
    30
100
AcDbLine
 10
21.87196922302246
 20
8.6756591796875
 30
0.0
 11
21.91116905212402
 21
8.6756591796875
 31
0.0
  0
LINE
  5
16D
330
A
100
AcDbEntity
  8
TFR-TRI
  6
CONTINUOUS
 62
     2
100
AcDbLine
 10
22.79956817626953
 20
20.56725883483886
 30
0.0
 11
22.79530906677246
 21
20.56725883483886
 31
0.0
  0
LINE
  5
16E
330
A
100
AcDbEntity
  8
TFR-TRI
  6
CONTINUOUS
 62
    30
100
AcDbLine
 10
14.22720050811767
 20
22.79094696044921
 30
0.0
 11
16.34852027893066
 21
24.91226768493652
 31
0.0
  0
LINE
  5
16F
330
A
100
AcDbEntity
  8
TFR-TRI
  6
CONTINUOUS
 62
    30
100
AcDbLine
 10
4.727169036865234
 20
8.463574409484863
 30
0.0
 11
4.727169036865234
 21
8.458858489990234
 31
0.0
  0
LINE
  5
170
330
A
100
AcDbEntity
  8
TFR-TRI
  6
CONTINUOUS
 62
    30
100
AcDbLine
 10
21.87196922302246
 20
8.6756591796875
 30
0.0
 11
21.87196922302246
 21
8.597258567810058
 31
0.0
  0
LINE
  5
171
330
A
100
AcDbEntity
  8
TFR-TRI
  6
CONTINUOUS
 62
     2
100
AcDbLine
 10
22.08081817626953
 20
20.56725883483886
 30
0.0
 11
22.07277297973632
 21
20.56725883483886
 31
0.0
  0
LINE
  5
172
330
A
100
AcDbEntity
  8
TFR-TRI
  6
CONTINUOUS
 62
     2
100
AcDbLine
 10
22.76295661926269
 20
20.56725883483886
 30
0.0
 11
22.73706817626953
 21
20.56725883483886
 31
0.0
  0
LINE
  5
173
330
A
100
AcDbEntity
  8
TFR-TRI
  6
CONTINUOUS
 62
    30
100
AcDbLine
 10
4.727169036865234
 20
8.458858489990234
 30
0.0
 11
21.87196922302246
 21
8.458858489990234
 31
0.0
  0
LINE
  5
174
330
A
100
AcDbEntity
  8
TFR-TRI
  6
CONTINUOUS
 62
    30
100
AcDbLine
 10
22.79956817626953
 20
3.469814777374267
 30
0.0
 11
22.79956817626953
 21
4.944814682006835
 31
0.0
  0
LINE
  5
175
330
A
100
AcDbEntity
  8
TFR-TRI
  6
CONTINUOUS
 62
    30
100
AcDbLine
 10
14.22720050811767
 20
27.99094772338867
 30
0.0
 11
16.34852027893066
 21
30.11226844787597
 31
0.0
  0
LINE
  5
176
330
A
100
AcDbEntity
  8
TFR-TRI
  6
CONTINUOUS
 62
    30
100
AcDbLine
 10
4.618769168853759
 20
31.9256591796875
 30
0.0
 11
4.590105533599853
 21
31.9256591796875
 31
0.0
  0
LINE
  5
177
330
A
100
AcDbEntity
  8
TFR-TRI
  6
CONTINUOUS
 62
     2
100
AcDbLine
 10
41.93318939208984
 20
3.344814777374267
 30
0.0
 11
41.93318939208984
 21
3.349074125289916
 31
0.0
  0
LINE
  5
178
330
A
100
AcDbEntity
  8
TFR-TRI
  6
CONTINUOUS
 62
    30
100
AcDbLine
 10
29.93318939208984
 20
5.007314682006835
 30
0.0
 11
29.93318939208984
 21
4.977167129516601
 31
0.0
  0
LINE
  5
179
330
A
100
AcDbEntity
  8
TFR-TRI
  6
CONTINUOUS
 62
    30
100
AcDbLine
 10
4.462069034576416
 20
8.458858489990234
 30
0.0
 11
4.431921482086181
 21
8.458858489990234
 31
0.0
  0
LINE
  5
17A
330
A
100
AcDbEntity
  8
TFR-TRI
  6
CONTINUOUS
 62
    30
100
AcDbLine
 10
21.87196922302246
 20
5.069814682006835
 30
0.0
 11
21.91116905212402
 21
5.069814682006835
 31
0.0
  0
LINE
  5
17B
330
A
100
AcDbEntity
  8
TFR-TRI
  6
CONTINUOUS
 62
     2
100
AcDbLine
 10
41.93318939208984
 20
4.944814682006835
 30
0.0
 11
41.93318939208984
 21
4.977167129516601
 31
0.0
  0
LINE
  5
17C
330
A
100
AcDbEntity
  8
TFR-TRI
  6
CONTINUOUS
 62
    30
100
AcDbLine
 10
4.727169036865234
 20
5.069814682006835
 30
0.0
 11
4.687968730926513
 21
5.069814682006835
 31
0.0
  0
LINE
  5
17D
330
A
100
AcDbEntity
  8
TFR-TRI
  6
CONTINUOUS
 62
    30
100
AcDbLine
 10
21.87196922302246
 20
5.000614643096923
 30
0.0
 11
21.87196922302246
 21
4.967235088348388
 31
0.0
  0
LINE
  5
17E
330
A
100
AcDbEntity
  8
TFR-TRI
  6
CONTINUOUS
 62
    30
100
AcDbLine
 10
4.727169036865234
 20
4.967235088348388
 30
0.0
 11
4.727169036865234
 21
4.931414604187011
 31
0.0
  0
LINE
  5
17F
330
A
100
AcDbEntity
  8
TFR-TRI
  6
CONTINUOUS
 62
    30
100
AcDbLine
 10
14.22720050811767
 20
9.790947914123535
 30
0.0
 11
16.34852027893066
 21
11.91226863861084
 31
0.0
  0
LINE
  5
180
330
A
100
AcDbEntity
  8
TFR-TRI
  6
CONTINUOUS
 62
     2
100
AcDbLine
 10
42.04158782958984
 20
3.36156153678894
 30
0.0
 11
42.04158782958984
 21
3.349074125289916
 31
0.0
  0
LINE
  5
181
330
A
100
AcDbEntity
  8
TFR-TRI
  6
CONTINUOUS
 62
    30
100
AcDbLine
 10
29.82478904724121
 20
5.065555572509765
 30
0.0
 11
29.82478904724121
 21
5.069814682006835
 31
0.0
  0
LINE
  5
182
330
A
100
AcDbEntity
  8
TFR-TRI
  6
CONTINUOUS
 62
    30
100
AcDbLine
 10
22.51706886291504
 20
3.457314729690551
 30
0.0
 11
22.39206886291503
 21
3.457314729690551
 31
0.0
  0
LINE
  5
183
330
A
100
AcDbEntity
  8
TFR-TRI
  6
CONTINUOUS
 62
    30
100
AcDbLine
 10
12.10677242279052
 20
17.3257827758789
 30
0.0
 11
9.985452651977539
 21
19.44710350036621
 31
0.0
  0
LINE
  5
184
330
A
100
AcDbEntity
  8
TFR-TRI
  6
CONTINUOUS
 62
    30
100
AcDbLine
 10
30.79158782958984
 20
4.110351085662841
 30
0.0
 11
30.79158782958984
 21
4.088356971740722
 31
0.0
  0
LINE
  5
185
330
A
100
AcDbEntity
  8
TFR-TRI
  6
CONTINUOUS
 62
    30
100
AcDbLine
 10
3.803828239440917
 20
8.458858489990234
 30
0.0
 11
3.799568891525268
 21
8.458858489990234
 31
0.0
  0
LINE
  5
186
330
A
100
AcDbEntity
  8
TFR-TRI
  6
CONTINUOUS
 62
    30
100
AcDbLine
 10
22.0788288116455
 20
8.567258834838867
 30
0.0
 11
22.09131622314453
 21
8.567258834838867
 31
0.0
  0
LINE
  5
187
330
A
100
AcDbEntity
  8
TFR-TRI
  6
CONTINUOUS
 62
    30
100
AcDbLine
 10
29.93318939208984
 20
4.944814682006835
 30
0.0
 11
29.93318939208984
 21
3.469814777374267
 31
0.0
  0
LINE
  5
188
330
A
100
AcDbEntity
  8
TFR-TRI
  6
CONTINUOUS
 62
    30
100
AcDbLine
 10
21.1219367980957
 20
22.79094696044921
 30
0.0
 11
19.00061798095703
 21
24.91226768493652
 31
0.0
  0
LINE
  5
189
330
A
100
AcDbEntity
  8
TFR-TRI
  6
CONTINUOUS
 62
     2
100
AcDbLine
 10
4.425671577453613
 20
20.56725883483886
 30
0.0
 11
4.393319129943847
 21
20.56725883483886
 31
0.0
  0
LINE
  5
18A
330
A
100
AcDbEntity
  8
TFR-TRI
  6
CONTINUOUS
 62
    30
100
AcDbLine
 10
4.082068920135498
 20
4.08231496810913
 30
0.0
 11
4.207068920135498
 21
4.08231496810913
 31
0.0
  0
LINE
  5
18B
330
A
100
AcDbEntity
  8
TFR-TRI
  6
CONTINUOUS
 62
    30
100
AcDbLine
 10
29.93318939208984
 20
3.344814777374267
 30
0.0
 11
29.82478904724121
 21
3.344814777374267
 31
0.0
  0
LINE
  5
18C
330
A
100
AcDbEntity
  8
TFR-TRI
  6
CONTINUOUS
 62
     2
100
AcDbLine
 10
42.04158782958984
 20
4.977167129516601
 30
0.0
 11
42.04158782958984
 21
4.944814682006835
 31
0.0
  0
LINE
  5
18D
330
A
100
AcDbEntity
  8
TFR-TRI
  6
CONTINUOUS
 62
    30
100
AcDbLine
 10
5.477200031280517
 20
27.99094772338867
 30
0.0
 11
7.598520755767822
 21
30.11226844787597
 31
0.0
  0
LINE
  5
18E
330
A
100
AcDbEntity
  8
TFR-TRI
  6
CONTINUOUS
 62
    30
100
AcDbLine
 10
4.082068920135498
 20
4.95731496810913
 30
0.0
 11
4.207068920135498
 21
4.95731496810913
 31
0.0
  0
LINE
  5
18F
330
A
100
AcDbEntity
  8
TFR-TRI
  6
CONTINUOUS
 62
     2
100
AcDbLine
 10
41.93318939208984
 20
4.944814682006835
 30
0.0
 11
41.93318939208984
 21
3.469814777374267
 31
0.0
  0
LINE
  5
190
330
A
100
AcDbEntity
  8
TFR-TRI
  6
CONTINUOUS
 62
     2
100
AcDbLine
 10
22.20581817626953
 20
20.6756591796875
 30
0.0
 11
22.20581817626953
 21
20.56725883483886
 31
0.0
  0
LINE
  5
191
330
A
100
AcDbEntity
  8
TFR-TRI
  6
CONTINUOUS
 62
    30
100
AcDbLine
 10
30.04158782958984
 20
5.02927827835083
 30
0.0
 11
30.04158782958984
 21
5.000614643096923
 31
0.0
  0
LINE
  5
192
330
A
100
AcDbEntity
  8
TFR-TRI
  6
CONTINUOUS
 62
    30
100
AcDbLine
 10
22.67456817626953
 20
8.567258834838867
 30
0.0
 11
22.19956970214843
 21
8.567258834838867
 31
0.0
  0
LINE
  5
193
330
A
100
AcDbEntity
  8
TFR-TRI
  6
CONTINUOUS
 62
     2
100
AcDbLine
 10
41.93318939208984
 20
3.469814777374267
 30
0.0
 11
42.04158782958984
 21
3.469814777374267
 31
0.0
  0
LINE
  5
194
330
A
100
AcDbEntity
  8
TFR-TRI
  6
CONTINUOUS
 62
    30
100
AcDbLine
 10
53.29158782958984
 20
5.000614643096923
 30
0.0
 11
53.29158782958984
 21
4.967235088348388
 31
0.0
  0
LINE
  5
195
330
A
100
AcDbEntity
  8
TFR-TRI
  6
CONTINUOUS
 62
    30
100
AcDbLine
 10
5.742365360260009
 20
19.92578315734863
 30
0.0
 11
7.863685607910156
 21
22.04710388183593
 31
0.0
  0
LINE
  5
196
330
A
100
AcDbEntity
  8
TFR-TRI
  6
CONTINUOUS
 62
     2
100
AcDbLine
 10
22.17346572875976
 20
20.6756591796875
 30
0.0
 11
22.20581817626953
 21
20.6756591796875
 31
0.0
  0
LINE
  5
197
330
A
100
AcDbEntity
  8
TFR-TRI
  6
CONTINUOUS
 62
    30
100
AcDbLine
 10
4.618769168853759
 20
8.6756591796875
 30
0.0
 11
4.590105533599853
 21
8.6756591796875
 31
0.0
  0
LINE
  5
198
330
A
100
AcDbEntity
  8
TFR-TRI
  6
CONTINUOUS
 62
    30
100
AcDbLine
 10
3.799568891525268
 20
8.567258834838867
 30
0.0
 11
3.803828239440917
 21
8.567258834838867
 31
0.0
  0
LINE
  5
199
330
A
100
AcDbEntity
  8
TFR-TRI
  6
CONTINUOUS
 62
    30
100
AcDbLine
 10
30.79158782958984
 20
4.238214969635009
 30
0.0
 11
30.79158782958984
 21
4.20821475982666
 31
0.0
  0
LINE
  5
19A
330
A
100
AcDbEntity
  8
TFR-TRI
  6
CONTINUOUS
 62
     2
100
AcDbLine
 10
4.514059543609619
 20
20.6756591796875
 30
0.0
 11
4.518319129943847
 21
20.6756591796875
 31
0.0
  0
LINE
  5
19B
330
A
100
AcDbEntity
  8
TFR-TRI
  6
CONTINUOUS
 62
     2
100
AcDbLine
 10
41.87318801879882
 20
3.453214645385742
 30
0.0
 11
41.55818939208984
 21
3.453214645385742
 31
0.0
  0
LINE
  5
19C
330
A
100
AcDbEntity
  8
TFR-TRI
  6
CONTINUOUS
 62
    30
100
AcDbLine
 10
4.399569034576416
 20
8.567258834838867
 30
0.0
 11
4.431921482086181
 21
8.567258834838867
 31
0.0
  0
LINE
  5
19D
330
A
100
AcDbEntity
  8
TFR-TRI
  6
CONTINUOUS
 62
    30
100
AcDbLine
 10
30.79158782958984
 20
4.088356971740722
 30
0.0
 11
30.79158782958984
 21
4.074530601501464
 31
0.0
  0
LINE
  5
19E
330
A
100
AcDbEntity
  8
TFR-TRI
  6
CONTINUOUS
 62
    30
100
AcDbLine
 10
22.0788288116455
 20
8.458858489990234
 30
0.0
 11
22.07456970214843
 21
8.458858489990234
 31
0.0
  0
LINE
  5
19F
330
A
100
AcDbEntity
  8
TFR-TRI
  6
CONTINUOUS
 62
    30
100
AcDbLine
 10
22.16721725463867
 20
8.567258834838867
 30
0.0
 11
22.19956970214843
 21
8.567258834838867
 31
0.0
  0
LINE
  5
1A0
330
A
100
AcDbEntity
  8
TFR-TRI
  6
CONTINUOUS
 62
     2
100
AcDbLine
 10
41.44993591308593
 20
3.344814777374267
 30
0.0
 11
41.43744659423828
 21
3.344814777374267
 31
0.0
  0
LINE
  5
1A1
330
A
100
AcDbEntity
  8
TFR-TRI
  6
CONTINUOUS
 62
    30
100
AcDbLine
 10
53.29158782958984
 20
4.074530601501464
 30
0.0
 11
53.29158782958984
 21
4.069814682006835
 31
0.0
  0
LINE
  5
1A2
330
A
100
AcDbEntity
  8
TFR-TRI
  6
CONTINUOUS
 62
     2
100
AcDbLine
 10
12.13692855834961
 20
19.90135955810546
 30
0.0
 11
12.34199047088623
 21
19.90135955810546
 31
0.0
  0
LINE
  5
1A3
330
A
100
AcDbEntity
  8
TFR-TRI
  6
CONTINUOUS
 62
    30
100
AcDbLine
 10
22.19956970214843
 20
8.567258834838867
 30
0.0
 11
22.19956970214843
 21
8.458858489990234
 31
0.0
  0
LINE
  5
1A4
330
A
100
AcDbEntity
  8
TFR-TRI
  6
CONTINUOUS
 62
    30
100
AcDbLine
 10
29.93318939208984
 20
5.069814682006835
 30
0.0
 11
29.93318939208984
 21
5.065555572509765
 31
0.0
  0
LINE
  5
1A5
330
A
100
AcDbEntity
  8
TFR-TRI
  6
CONTINUOUS
 62
     2
100
AcDbLine
 10
22.14331817626953
 20
20.56725883483886
 30
0.0
 11
22.11742973327636
 21
20.56725883483886
 31
0.0
  0
LINE
  5
1A6
330
A
100
AcDbEntity
  8
TFR-TRI
  6
CONTINUOUS
 62
    30
100
AcDbLine
 10
4.727169036865234
 20
8.528059005737304
 30
0.0
 11
4.727169036865234
 21
8.499395370483398
 31
0.0
  0
LINE
  5
1A7
330
A
100
AcDbEntity
  8
TFR-TRI
  6
CONTINUOUS
 62
    30
100
AcDbLine
 10
21.1219367980957
 20
9.790947914123535
 30
0.0
 11
19.00061798095703
 21
11.91226863861084
 31
0.0
  0
LINE
  5
1A8
330
A
100
AcDbEntity
  8
TFR-TRI
  6
CONTINUOUS
 62
     2
100
AcDbLine
 10
14.54349040985107
 20
20.50725936889648
 30
0.0
 11
15.07367801666259
 21
20.50725936889648
 31
0.0
  0
LINE
  5
1A9
330
A
100
AcDbEntity
  8
TFR-TRI
  6
CONTINUOUS
 62
     2
100
AcDbLine
 10
14.25714683532715
 20
19.90135955810546
 30
0.0
 11
14.46220970153808
 21
19.90135955810546
 31
0.0
  0
LINE
  5
1AA
330
A
100
AcDbEntity
  8
TFR-TRI
  6
CONTINUOUS
 62
    30
100
AcDbLine
 10
4.727169036865234
 20
8.6756591796875
 30
0.0
 11
4.687968730926513
 21
8.6756591796875
 31
0.0
  0
LINE
  5
1AB
330
A
100
AcDbEntity
  8
TFR-TRI
  6
CONTINUOUS
 62
    30
100
AcDbLine
 10
21.87196922302246
 20
8.499395370483398
 30
0.0
 11
21.87196922302246
 21
8.477400779724121
 31
0.0
  0
LINE
  5
1AC
330
A
100
AcDbEntity
  8
TFR-TRI
  6
CONTINUOUS
 62
    30
100
AcDbLine
 10
29.82478904724121
 20
3.437462329864501
 30
0.0
 11
29.82478904724121
 21
3.469814777374267
 31
0.0
  0
LINE
  5
1AD
330
A
100
AcDbEntity
  8
TFR-TRI
  6
CONTINUOUS
 62
    30
100
AcDbLine
 10
4.590105533599853
 20
8.6756591796875
 30
0.0
 11
4.568110942840576
 21
8.6756591796875
 31
0.0
  0
LINE
  5
1AE
330
A
100
AcDbEntity
  8
TFR-TRI
  6
CONTINUOUS
 62
    30
100
AcDbLine
 10
20.85677337646484
 20
14.72578239440918
 30
0.0
 11
18.73545265197753
 21
16.84710311889648
 31
0.0
  0
LINE
  5
1AF
330
A
100
AcDbEntity
  8
TFR-TRI
  6
CONTINUOUS
 62
    30
100
AcDbLine
 10
22.04956817626953
 20
8.6756591796875
 30
0.0
 11
22.04956817626953
 21
31.9256591796875
 31
0.0
  0
LINE
  5
1B0
330
A
100
AcDbEntity
  8
TFR-TRI
  6
CONTINUOUS
 62
    30
100
AcDbLine
 10
22.13706970214843
 20
8.458858489990234
 30
0.0
 11
22.11118125915527
 21
8.458858489990234
 31
0.0
  0
LINE
  5
1B1
330
A
100
AcDbEntity
  8
TFR-TRI
  6
CONTINUOUS
 62
    30
100
AcDbLine
 10
4.687968730926513
 20
8.6756591796875
 30
0.0
 11
4.652148246765136
 21
8.6756591796875
 31
0.0
  0
LINE
  5
1B2
330
A
100
AcDbEntity
  8
TFR-TRI
  6
CONTINUOUS
 62
    30
100
AcDbLine
 10
4.652148246765136
 20
31.9256591796875
 30
0.0
 11
4.618769168853759
 21
31.9256591796875
 31
0.0
  0
LINE
  5
1B3
330
A
100
AcDbEntity
  8
TFR-TRI
  6
CONTINUOUS
 62
     2
100
AcDbLine
 10
3.892216682434082
 20
20.6756591796875
 30
0.0
 11
3.924568891525268
 21
20.6756591796875
 31
0.0
  0
LINE
  5
1B4
330
A
100
AcDbEntity
  8
TFR-TRI
  6
CONTINUOUS
 62
    30
100
AcDbLine
 10
4.520309925079345
 20
8.458858489990234
 30
0.0
 11
4.507822036743164
 21
8.458858489990234
 31
0.0
  0
LINE
  5
1B5
330
A
100
AcDbEntity
  8
TFR-TRI
  6
CONTINUOUS
 62
     2
100
AcDbLine
 10
41.44993591308593
 20
3.453214645385742
 30
0.0
 11
41.46979904174805
 21
3.453214645385742
 31
0.0
  0
LINE
  5
1B6
330
A
100
AcDbEntity
  8
TFR-TRI
  6
CONTINUOUS
 62
     2
100
AcDbLine
 10
41.93318939208984
 20
3.407314777374267
 30
0.0
 11
41.93318939208984
 21
3.437462329864501
 31
0.0
  0
LINE
  5
1B7
330
A
100
AcDbEntity
  8
TFR-TRI
  6
CONTINUOUS
 62
     2
100
AcDbLine
 10
11.52545928955078
 20
20.50725936889648
 30
0.0
 11
12.0556468963623
 21
20.50725936889648
 31
0.0
  0
LINE
  5
1B8
330
A
100
AcDbEntity
  8
TFR-TRI
  6
CONTINUOUS
 62
    30
100
AcDbLine
 10
21.87196922302246
 20
4.961414813995361
 30
0.0
 11
21.91116905212402
 21
4.961414813995361
 31
0.0
  0
LINE
  5
1B9
330
A
100
AcDbEntity
  8
TFR-TRI
  6
CONTINUOUS
 62
    30
100
AcDbLine
 10
12.37193775177002
 20
22.79094696044921
 30
0.0
 11
10.25061702728271
 21
24.91226768493652
 31
0.0
  0
LINE
  5
1BA
330
A
100
AcDbEntity
  8
TFR-TRI
  6
CONTINUOUS
 62
     2
100
AcDbLine
 10
22.11742973327636
 20
20.56725883483886
 30
0.0
 11
22.09756660461426
 21
20.56725883483886
 31
0.0
  0
LINE
  5
1BB
330
A
100
AcDbEntity
  8
TFR-TRI
  6
CONTINUOUS
 62
    30
100
AcDbLine
 10
22.79530906677246
 20
8.458858489990234
 30
0.0
 11
22.78282165527343
 21
8.458858489990234
 31
0.0
  0
LINE
  5
1BC
330
A
100
AcDbEntity
  8
TFR-TRI
  6
CONTINUOUS
 62
    30
100
AcDbLine
 10
14.49236488342285
 20
17.3257827758789
 30
0.0
 11
16.61368560791015
 21
19.44710350036621
 31
0.0
  0
LINE
  5
1BD
330
A
100
AcDbEntity
  8
TFR-TRI
  6
CONTINUOUS
 62
    30
100
AcDbLine
 10
30.04158782958984
 20
5.069814682006835
 30
0.0
 11
41.9328727722168
 21
5.069814682006835
 31
0.0
  0
LINE
  5
1BE
330
A
100
AcDbEntity
  8
TFR-TRI
  6
CONTINUOUS
 62
    30
100
AcDbLine
 10
14.22720050811767
 20
14.99094772338867
 30
0.0
 11
16.34852027893066
 21
17.11226844787597
 31
0.0
  0
LINE
  5
1BF
330
A
100
AcDbEntity
  8
TFR-TRI
  6
CONTINUOUS
 62
    30
100
AcDbLine
 10
4.727169036865234
 20
5.051272869110107
 30
0.0
 11
4.727169036865234
 21
5.02927827835083
 31
0.0
  0
LINE
  5
1C0
330
A
100
AcDbEntity
  8
TFR-TRI
  6
CONTINUOUS
 62
     2
100
AcDbLine
 10
3.862068891525268
 20
20.6756591796875
 30
0.0
 11
3.892216682434082
 21
20.6756591796875
 31
0.0
  0
LINE
  5
1C1
330
A
100
AcDbEntity
  8
TFR-TRI
  6
CONTINUOUS
 62
    30
100
AcDbLine
 10
29.82478904724121
 20
3.36156153678894
 30
0.0
 11
29.82478904724121
 21
3.381426334381103
 31
0.0
  0
LINE
  5
1C2
330
A
100
AcDbEntity
  8
TFR-TRI
  6
CONTINUOUS
 62
     2
100
AcDbLine
 10
42.04158782958984
 20
3.437462329864501
 30
0.0
 11
42.04158782958984
 21
3.407314777374267
 31
0.0
  0
LINE
  5
1C3
330
A
100
AcDbEntity
  8
TFR-TRI
  6
CONTINUOUS
 62
     2
100
AcDbLine
 10
22.07277297973632
 20
20.6756591796875
 30
0.0
 11
22.08081817626953
 21
20.6756591796875
 31
0.0
  0
LINE
  5
1C4
330
A
100
AcDbEntity
  8
TFR-TRI
  6
CONTINUOUS
 62
    30
100
AcDbLine
 10
21.1219367980957
 20
27.99094772338867
 30
0.0
 11
19.00061798095703
 21
30.11226844787597
 31
0.0
  0
LINE
  5
1C5
330
A
100
AcDbEntity
  8
TFR-TRI
  6
CONTINUOUS
 62
     2
100
AcDbLine
 10
41.93318939208984
 20
5.053067684173583
 30
0.0
 11
41.93318939208984
 21
5.065555572509765
 31
0.0
  0
LINE
  5
1C6
330
A
100
AcDbEntity
  8
TFR-TRI
  6
CONTINUOUS
 62
     2
100
AcDbLine
 10
42.04158782958984
 20
5.053067684173583
 30
0.0
 11
42.04158782958984
 21
5.033203125
 31
0.0
  0
LINE
  5
1C7
330
A
100
AcDbEntity
  8
TFR-TRI
  6
CONTINUOUS
 62
    30
100
AcDbLine
 10
21.1219367980957
 20
20.19094848632812
 30
0.0
 11
19.00061798095703
 21
22.31226730346679
 31
0.0
  0
ARC
  5
1C8
330
A
100
AcDbEntity
  8
TFR-TRI
  6
CONTINUOUS
 62
    30
100
AcDbCircle
 10
22.19956970214843
 20
4.944814682006835
 30
0.0
 40
0.125
100
AcDbArc
 50
90.0
 51
180.0
  0
ARC
  5
1C9
330
A
100
AcDbEntity
  8
TFR-TRI
  6
CONTINUOUS
 62
    30
100
AcDbCircle
 10
12.23935508728027
 20
9.658365249633789
 30
0.0
 40
0.1875
100
AcDbArc
 50
225.0
 51
405.0
  0
ARC
  5
1CA
330
A
100
AcDbEntity
  8
TFR-TRI
  6
CONTINUOUS
 62
    30
100
AcDbCircle
 10
5.609782695770263
 20
22.65836524963379
 30
0.0
 40
0.1875
100
AcDbArc
 50
135.0
 51
315.0
  0
ARC
  5
1CB
330
A
100
AcDbEntity
  8
TFR-TRI
  6
CONTINUOUS
 62
     2
100
AcDbCircle
 10
41.87318801879882
 20
3.513214826583862
 30
0.0
 40
0.0599999986588955
100
AcDbArc
 50
270.0
 51
360.0
  0
ARC
  5
1CC
330
A
100
AcDbEntity
  8
TFR-TRI
  6
CONTINUOUS
 62
    30
100
AcDbCircle
 10
5.609782695770263
 20
9.658365249633789
 30
0.0
 40
0.1875
100
AcDbArc
 50
135.0
 51
315.0
  0
ARC
  5
1CD
330
A
100
AcDbEntity
  8
TFR-TRI
  6
CONTINUOUS
 62
    30
100
AcDbCircle
 10
12.23935508728027
 20
22.65836524963379
 30
0.0
 40
0.1875
100
AcDbArc
 50
225.0
 51
405.0
  0
ARC
  5
1CE
330
A
100
AcDbEntity
  8
TFR-TRI
  6
CONTINUOUS
 62
    30
100
AcDbCircle
 10
22.67456817626953
 20
4.944814682006835
 30
0.0
 40
0.125
100
AcDbArc
 50
0.0
 51
90.0
  0
ARC
  5
1CF
330
A
100
AcDbEntity
  8
TFR-TRI
  6
CONTINUOUS
 62
    30
100
AcDbCircle
 10
18.86803436279296
 20
16.97968482971191
 30
0.0
 40
0.1875
100
AcDbArc
 50
45.0
 51
225.0
  0
ARC
  5
1D0
330
A
100
AcDbEntity
  8
TFR-TRI
  6
CONTINUOUS
 62
    30
100
AcDbCircle
 10
14.35978317260742
 20
20.05836486816406
 30
0.0
 40
0.1875
100
AcDbArc
 50
135.0
 51
315.0
  0
ARC
  5
1D1
330
A
100
AcDbEntity
  8
TFR-TRI
  6
CONTINUOUS
 62
    30
100
AcDbCircle
 10
16.48110389709472
 20
11.77968597412109
 30
0.0
 40
0.1875
100
AcDbArc
 50
315.0
 51
494.9999999999999
  0
ARC
  5
1D2
330
A
100
AcDbEntity
  8
TFR-TRI
  6
CONTINUOUS
 62
    30
100
AcDbCircle
 10
10.11803531646728
 20
19.57968521118164
 30
0.0
 40
0.1875
100
AcDbArc
 50
45.0
 51
225.0
  0
ARC
  5
1D3
330
A
100
AcDbEntity
  8
TFR-TRI
  6
CONTINUOUS
 62
    30
100
AcDbCircle
 10
22.39206886291503
 20
4.20731496810913
 30
0.0
 40
0.125
100
AcDbArc
 50
90.0
 51
270.0
  0
ARC
  5
1D4
330
A
100
AcDbEntity
  8
TFR-TRI
  6
CONTINUOUS
 62
    30
100
AcDbCircle
 10
7.73110294342041
 20
29.97968482971191
 30
0.0
 40
0.1875
100
AcDbArc
 50
315.0
 51
494.9999999999999
  0
ARC
  5
1D5
330
A
100
AcDbEntity
  8
TFR-TRI
  6
CONTINUOUS
 62
    30
100
AcDbCircle
 10
5.609782695770263
 20
20.05836486816406
 30
0.0
 40
0.1875
100
AcDbArc
 50
135.0
 51
315.0
  0
ARC
  5
1D6
330
A
100
AcDbEntity
  8
TFR-TRI
  6
CONTINUOUS
 62
    30
100
AcDbCircle
 10
10.11803531646728
 20
16.97968482971191
 30
0.0
 40
0.1875
100
AcDbArc
 50
45.0
 51
225.0
  0
ARC
  5
1D7
330
A
100
AcDbEntity
  8
TFR-TRI
  6
CONTINUOUS
 62
    30
100
AcDbCircle
 10
4.687968730926513
 20
4.931414604187011
 30
0.0
 40
0.1384000033140182
100
AcDbArc
 50
90.0
 51
180.0
  0
ARC
  5
1D8
330
A
100
AcDbEntity
  8
TFR-TRI
  6
CONTINUOUS
 62
    30
100
AcDbCircle
 10
14.35978317260742
 20
22.65836524963379
 30
0.0
 40
0.1875
100
AcDbArc
 50
135.0
 51
315.0
  0
ARC
  5
1D9
330
A
100
AcDbEntity
  8
TFR-TRI
  6
CONTINUOUS
 62
    30
100
AcDbCircle
 10
14.35978317260742
 20
25.25836563110351
 30
0.0
 40
0.1875
100
AcDbArc
 50
135.0
 51
315.0
  0
ARC
  5
1DA
330
A
100
AcDbEntity
  8
TFR-TRI
  6
CONTINUOUS
 62
    30
100
AcDbCircle
 10
7.73110294342041
 20
14.3796854019165
 30
0.0
 40
0.1875
100
AcDbArc
 50
315.0
 51
494.9999999999999
  0
ARC
  5
1DB
330
A
100
AcDbEntity
  8
TFR-TRI
  6
CONTINUOUS
 62
    30
100
AcDbCircle
 10
22.51706886291504
 20
3.582314729690551
 30
0.0
 40
0.125
100
AcDbArc
 50
270.0
 51
450.0
  0
ARC
  5
1DC
330
A
100
AcDbEntity
  8
TFR-TRI
  6
CONTINUOUS
 62
    30
100
AcDbCircle
 10
20.98935508728027
 20
27.85836601257324
 30
0.0
 40
0.1875
100
AcDbArc
 50
225.0
 51
405.0
  0
ARC
  5
1DD
330
A
100
AcDbEntity
  8
TFR-TRI
  6
CONTINUOUS
 62
    30
100
AcDbCircle
 10
29.96318817138671
 20
4.931414604187011
 30
0.0
 40
0.1384000033140182
100
AcDbArc
 50
90.0
 51
102.5198440669588
  0
ARC
  5
1DE
330
A
100
AcDbEntity
  8
TFR-TRI
  6
CONTINUOUS
 62
    30
100
AcDbCircle
 10
20.98935508728027
 20
22.65836524963379
 30
0.0
 40
0.1875
100
AcDbArc
 50
225.0
 51
405.0
  0
ARC
  5
1DF
330
A
100
AcDbEntity
  8
TFR-TRI
  6
CONTINUOUS
 62
    30
100
AcDbCircle
 10
18.86803436279296
 20
14.3796854019165
 30
0.0
 40
0.1875
100
AcDbArc
 50
45.0
 51
225.0
  0
ARC
  5
1E0
330
A
100
AcDbEntity
  8
TFR-TRI
  6
CONTINUOUS
 62
    30
100
AcDbCircle
 10
16.48110389709472
 20
22.17968559265136
 30
0.0
 40
0.1875
100
AcDbArc
 50
315.0
 51
494.9999999999999
  0
ARC
  5
1E1
330
A
100
AcDbEntity
  8
TFR-TRI
  6
CONTINUOUS
 62
    30
100
AcDbCircle
 10
30.07158851623535
 20
4.268214702606201
 30
0.0
 40
0.0299999993294478
100
AcDbArc
 50
180.0
 51
270.0
  0
ARC
  5
1E2
330
A
100
AcDbEntity
  8
TFR-TRI
  6
CONTINUOUS
 62
    30
100
AcDbCircle
 10
5.609782695770263
 20
17.45836448669433
 30
0.0
 40
0.1875
100
AcDbArc
 50
135.0
 51
315.0
  0
ARC
  5
1E3
330
A
100
AcDbEntity
  8
TFR-TRI
  6
CONTINUOUS
 62
    30
100
AcDbCircle
 10
10.11803531646728
 20
11.77968597412109
 30
0.0
 40
0.1875
100
AcDbArc
 50
45.0
 51
225.0
  0
ARC
  5
1E4
330
A
100
AcDbEntity
  8
TFR-TRI
  6
CONTINUOUS
 62
    30
100
AcDbCircle
 10
22.51706886291504
 20
4.20731496810913
 30
0.0
 40
0.125
100
AcDbArc
 50
270.0
 51
450.0
  0
ARC
  5
1E5
330
A
100
AcDbEntity
  8
TFR-TRI
  6
CONTINUOUS
 62
    30
100
AcDbCircle
 10
3.924568891525268
 20
4.944814682006835
 30
0.0
 40
0.125
100
AcDbArc
 50
90.0
 51
180.0
  0
ARC
  5
1E6
330
A
100
AcDbEntity
  8
TFR-TRI
  6
CONTINUOUS
 62
    30
100
AcDbCircle
 10
12.23935508728027
 20
25.25836563110351
 30
0.0
 40
0.1875
100
AcDbArc
 50
225.0
 51
405.0
  0
ARC
  5
1E7
330
A
100
AcDbEntity
  8
TFR-TRI
  6
CONTINUOUS
 62
    30
100
AcDbCircle
 10
21.91116905212402
 20
4.931414604187011
 30
0.0
 40
0.1384000033140182
100
AcDbArc
 50
0.0
 51
90.0
  0
ARC
  5
1E8
330
A
100
AcDbEntity
  8
TFR-TRI
  6
CONTINUOUS
 62
    30
100
AcDbCircle
 10
20.98935508728027
 20
17.45836448669433
 30
0.0
 40
0.1875
100
AcDbArc
 50
225.0
 51
405.0
  0
ARC
  5
1E9
330
A
100
AcDbEntity
  8
TFR-TRI
  6
CONTINUOUS
 62
    30
100
AcDbCircle
 10
14.35978317260742
 20
14.85836505889892
 30
0.0
 40
0.1875
100
AcDbArc
 50
135.0
 51
315.0
  0
ARC
  5
1EA
330
A
100
AcDbEntity
  8
TFR-TRI
  6
CONTINUOUS
 62
    30
100
AcDbCircle
 10
16.48110389709472
 20
29.97968482971191
 30
0.0
 40
0.1875
100
AcDbArc
 50
315.0
 51
494.9999999999999
  0
ARC
  5
1EB
330
A
100
AcDbEntity
  8
TFR-TRI
  6
CONTINUOUS
 62
    30
100
AcDbCircle
 10
10.11803531646728
 20
14.3796854019165
 30
0.0
 40
0.1875
100
AcDbArc
 50
45.0
 51
225.0
  0
ARC
  5
1EC
330
A
100
AcDbEntity
  8
TFR-TRI
  6
CONTINUOUS
 62
    30
100
AcDbCircle
 10
4.082068920135498
 20
3.582314729690551
 30
0.0
 40
0.125
100
AcDbArc
 50
90.0
 51
270.0
  0
ARC
  5
1ED
330
A
100
AcDbEntity
  8
TFR-TRI
  6
CONTINUOUS
 62
    30
100
AcDbCircle
 10
20.98935508728027
 20
12.25836563110351
 30
0.0
 40
0.1875
100
AcDbArc
 50
225.0
 51
405.0
  0
ARC
  5
1EE
330
A
100
AcDbEntity
  8
TFR-TRI
  6
CONTINUOUS
 62
    30
100
AcDbCircle
 10
7.73110294342041
 20
27.37968635559082
 30
0.0
 40
0.1875
100
AcDbArc
 50
315.0
 51
494.9999999999999
  0
ARC
  5
1EF
330
A
100
AcDbEntity
  8
TFR-TRI
  6
CONTINUOUS
 62
    30
100
AcDbCircle
 10
7.73110294342041
 20
24.77968597412109
 30
0.0
 40
0.1875
100
AcDbArc
 50
315.0
 51
494.9999999999999
  0
ARC
  5
1F0
330
A
100
AcDbEntity
  8
TFR-TRI
  6
CONTINUOUS
 62
    30
100
AcDbCircle
 10
22.67456817626953
 20
3.469814777374267
 30
0.0
 40
0.125
100
AcDbArc
 50
270.0
 51
360.0
  0
ARC
  5
1F1
330
A
100
AcDbEntity
  8
TFR-TRI
  6
CONTINUOUS
 62
    30
100
AcDbCircle
 10
12.23935508728027
 20
20.05836486816406
 30
0.0
 40
0.1875
100
AcDbArc
 50
225.0
 51
405.0
  0
ARC
  5
1F2
330
A
100
AcDbEntity
  8
TFR-TRI
  6
CONTINUOUS
 62
    30
100
AcDbCircle
 10
14.35978317260742
 20
12.25836563110351
 30
0.0
 40
0.1875
100
AcDbArc
 50
135.0
 51
315.0
  0
ARC
  5
1F3
330
A
100
AcDbEntity
  8
TFR-TRI
  6
CONTINUOUS
 62
    30
100
AcDbCircle
 10
18.86803436279296
 20
24.77968597412109
 30
0.0
 40
0.1875
100
AcDbArc
 50
45.0
 51
225.0
  0
ARC
  5
1F4
330
A
100
AcDbEntity
  8
TFR-TRI
  6
CONTINUOUS
 62
    30
100
AcDbCircle
 10
20.98935508728027
 20
20.05836486816406
 30
0.0
 40
0.1875
100
AcDbArc
 50
225.0
 51
405.0
  0
ARC
  5
1F5
330
A
100
AcDbEntity
  8
TFR-TRI
  6
CONTINUOUS
 62
    30
100
AcDbCircle
 10
4.082068920135498
 20
4.20731496810913
 30
0.0
 40
0.125
100
AcDbArc
 50
90.0
 51
270.0
  0
ARC
  5
1F6
330
A
100
AcDbEntity
  8
TFR-TRI
  6
CONTINUOUS
 62
    30
100
AcDbCircle
 10
7.73110294342041
 20
22.17968559265136
 30
0.0
 40
0.1875
100
AcDbArc
 50
315.0
 51
494.9999999999999
  0
ARC
  5
1F7
330
A
100
AcDbEntity
  8
TFR-TRI
  6
CONTINUOUS
 62
    30
100
AcDbCircle
 10
20.98935508728027
 20
25.25836563110351
 30
0.0
 40
0.1875
100
AcDbArc
 50
225.0
 51
405.0
  0
ARC
  5
1F8
330
A
100
AcDbEntity
  8
TFR-TRI
  6
CONTINUOUS
 62
     2
100
AcDbCircle
 10
41.87318801879882
 20
3.513214826583862
 30
0.0
 40
0.1684000045061111
100
AcDbArc
 50
270.0
 51
290.8729673910333
  0
ARC
  5
1F9
330
A
100
AcDbEntity
  8
TFR-TRI
  6
CONTINUOUS
 62
    30
100
AcDbCircle
 10
21.91116905212402
 20
4.931414604187011
 30
0.0
 40
0.0299999993294478
100
AcDbArc
 50
0.0
 51
90.0
  0
ARC
  5
1FA
330
A
100
AcDbEntity
  8
TFR-TRI
  6
CONTINUOUS
 62
    30
100
AcDbCircle
 10
16.48110389709472
 20
24.77968597412109
 30
0.0
 40
0.1875
100
AcDbArc
 50
315.0
 51
494.9999999999999
  0
ARC
  5
1FB
330
A
100
AcDbEntity
  8
TFR-TRI
  6
CONTINUOUS
 62
    30
100
AcDbCircle
 10
16.48110389709472
 20
19.57968521118164
 30
0.0
 40
0.1875
100
AcDbArc
 50
315.0
 51
494.9999999999999
  0
ARC
  5
1FC
330
A
100
AcDbEntity
  8
TFR-TRI
  6
CONTINUOUS
 62
    30
100
AcDbCircle
 10
20.98935508728027
 20
14.85836505889892
 30
0.0
 40
0.1875
100
AcDbArc
 50
225.0
 51
405.0
  0
ARC
  5
1FD
330
A
100
AcDbEntity
  8
TFR-TRI
  6
CONTINUOUS
 62
    30
100
AcDbCircle
 10
14.35978317260742
 20
9.658365249633789
 30
0.0
 40
0.1875
100
AcDbArc
 50
135.0
 51
315.0
  0
ARC
  5
1FE
330
A
100
AcDbEntity
  8
TFR-TRI
  6
CONTINUOUS
 62
    30
100
AcDbCircle
 10
12.23935508728027
 20
14.85836505889892
 30
0.0
 40
0.1875
100
AcDbArc
 50
225.0
 51
405.0
  0
ARC
  5
1FF
330
A
100
AcDbEntity
  8
TFR-TRI
  6
CONTINUOUS
 62
    30
100
AcDbCircle
 10
22.51706886291504
 20
4.83231496810913
 30
0.0
 40
0.125
100
AcDbArc
 50
270.0
 51
450.0
  0
ARC
  5
200
330
A
100
AcDbEntity
  8
TFR-TRI
  6
CONTINUOUS
 62
    30
100
AcDbCircle
 10
22.39206886291503
 20
4.83231496810913
 30
0.0
 40
0.125
100
AcDbArc
 50
90.0
 51
270.0
  0
ARC
  5
201
330
A
100
AcDbEntity
  8
TFR-TRI
  6
CONTINUOUS
 62
    30
100
AcDbCircle
 10
5.609782695770263
 20
27.85836601257324
 30
0.0
 40
0.1875
100
AcDbArc
 50
135.0
 51
315.0
  0
ARC
  5
202
330
A
100
AcDbEntity
  8
TFR-TRI
  6
CONTINUOUS
 62
    30
100
AcDbCircle
 10
4.207068920135498
 20
4.83231496810913
 30
0.0
 40
0.125
100
AcDbArc
 50
270.0
 51
450.0
  0
ARC
  5
203
330
A
100
AcDbEntity
  8
TFR-TRI
  6
CONTINUOUS
 62
    30
100
AcDbCircle
 10
4.207068920135498
 20
3.582314729690551
 30
0.0
 40
0.125
100
AcDbArc
 50
270.0
 51
450.0
  0
ARC
  5
204
330
A
100
AcDbEntity
  8
TFR-TRI
  6
CONTINUOUS
 62
    30
100
AcDbCircle
 10
7.73110294342041
 20
19.57968521118164
 30
0.0
 40
0.1875
100
AcDbArc
 50
315.0
 51
494.9999999999999
  0
ARC
  5
205
330
A
100
AcDbEntity
  8
TFR-TRI
  6
CONTINUOUS
 62
    30
100
AcDbCircle
 10
10.11803531646728
 20
29.97968482971191
 30
0.0
 40
0.1875
100
AcDbArc
 50
45.0
 51
225.0
  0
ARC
  5
206
330
A
100
AcDbEntity
  8
TFR-TRI
  6
CONTINUOUS
 62
    30
100
AcDbCircle
 10
10.11803531646728
 20
27.37968635559082
 30
0.0
 40
0.1875
100
AcDbArc
 50
45.0
 51
225.0
  0
ARC
  5
207
330
A
100
AcDbEntity
  8
TFR-TRI
  6
CONTINUOUS
 62
    30
100
AcDbCircle
 10
4.399569034576416
 20
4.944814682006835
 30
0.0
 40
0.125
100
AcDbArc
 50
0.0
 51
90.0
  0
ARC
  5
208
330
A
100
AcDbEntity
  8
TFR-TRI
  6
CONTINUOUS
 62
    30
100
AcDbCircle
 10
18.86803436279296
 20
11.77968597412109
 30
0.0
 40
0.1875
100
AcDbArc
 50
45.0
 51
225.0
  0
ARC
  5
209
330
A
100
AcDbEntity
  8
TFR-TRI
  6
CONTINUOUS
 62
    30
100
AcDbCircle
 10
7.73110294342041
 20
11.77968597412109
 30
0.0
 40
0.1875
100
AcDbArc
 50
315.0
 51
494.9999999999999
  0
ARC
  5
20A
330
A
100
AcDbEntity
  8
TFR-TRI
  6
CONTINUOUS
 62
    30
100
AcDbCircle
 10
20.98935508728027
 20
9.658365249633789
 30
0.0
 40
0.1875
100
AcDbArc
 50
225.0
 51
405.0
  0
ARC
  5
20B
330
A
100
AcDbEntity
  8
TFR-TRI
  6
CONTINUOUS
 62
    30
100
AcDbCircle
 10
18.86803436279296
 20
22.17968559265136
 30
0.0
 40
0.1875
100
AcDbArc
 50
45.0
 51
225.0
  0
ARC
  5
20C
330
A
100
AcDbEntity
  8
TFR-TRI
  6
CONTINUOUS
 62
    30
100
AcDbCircle
 10
16.48110389709472
 20
16.97968482971191
 30
0.0
 40
0.1875
100
AcDbArc
 50
315.0
 51
494.9999999999999
  0
ARC
  5
20D
330
A
100
AcDbEntity
  8
TFR-TRI
  6
CONTINUOUS
 62
    30
100
AcDbCircle
 10
29.96318817138671
 20
4.931414604187011
 30
0.0
 40
0.0299999993294478
100
AcDbArc
 50
90.0
 51
180.0
  0
ARC
  5
20E
330
A
100
AcDbEntity
  8
TFR-TRI
  6
CONTINUOUS
 62
    30
100
AcDbCircle
 10
14.35978317260742
 20
17.45836448669433
 30
0.0
 40
0.1875
100
AcDbArc
 50
135.0
 51
315.0
  0
ARC
  5
20F
330
A
100
AcDbEntity
  8
TFR-TRI
  6
CONTINUOUS
 62
    30
100
AcDbCircle
 10
10.11803531646728
 20
24.77968597412109
 30
0.0
 40
0.1875
100
AcDbArc
 50
45.0
 51
225.0
  0
ARC
  5
210
330
A
100
AcDbEntity
  8
TFR-TRI
  6
CONTINUOUS
 62
    30
100
AcDbCircle
 10
18.86803436279296
 20
29.97968482971191
 30
0.0
 40
0.1875
100
AcDbArc
 50
45.0
 51
225.0
  0
ARC
  5
211
330
A
100
AcDbEntity
  8
TFR-TRI
  6
CONTINUOUS
 62
    30
100
AcDbCircle
 10
12.23935508728027
 20
12.25836563110351
 30
0.0
 40
0.1875
100
AcDbArc
 50
225.0
 51
405.0
  0
ARC
  5
212
330
A
100
AcDbEntity
  8
TFR-TRI
  6
CONTINUOUS
 62
    30
100
AcDbCircle
 10
3.924568891525268
 20
3.469814777374267
 30
0.0
 40
0.125
100
AcDbArc
 50
180.0
 51
270.0
  0
ARC
  5
213
330
A
100
AcDbEntity
  8
TFR-TRI
  6
CONTINUOUS
 62
    30
100
AcDbCircle
 10
18.86803436279296
 20
27.37968635559082
 30
0.0
 40
0.1875
100
AcDbArc
 50
45.0
 51
225.0
  0
ARC
  5
214
330
A
100
AcDbEntity
  8
TFR-TRI
  6
CONTINUOUS
 62
    30
100
AcDbCircle
 10
4.207068920135498
 20
4.20731496810913
 30
0.0
 40
0.125
100
AcDbArc
 50
270.0
 51
450.0
  0
ARC
  5
215
330
A
100
AcDbEntity
  8
TFR-TRI
  6
CONTINUOUS
 62
    30
100
AcDbCircle
 10
5.609782695770263
 20
25.25836563110351
 30
0.0
 40
0.1875
100
AcDbArc
 50
135.0
 51
315.0
  0
ARC
  5
216
330
A
100
AcDbEntity
  8
TFR-TRI
  6
CONTINUOUS
 62
    30
100
AcDbCircle
 10
5.609782695770263
 20
12.25836563110351
 30
0.0
 40
0.1875
100
AcDbArc
 50
135.0
 51
315.0
  0
ARC
  5
217
330
A
100
AcDbEntity
  8
TFR-TRI
  6
CONTINUOUS
 62
    30
100
AcDbCircle
 10
18.86803436279296
 20
19.57968521118164
 30
0.0
 40
0.1875
100
AcDbArc
 50
45.0
 51
225.0
  0
ARC
  5
218
330
A
100
AcDbEntity
  8
TFR-TRI
  6
CONTINUOUS
 62
    30
100
AcDbCircle
 10
7.73110294342041
 20
16.97968482971191
 30
0.0
 40
0.1875
100
AcDbArc
 50
315.0
 51
494.9999999999999
  0
ARC
  5
219
330
A
100
AcDbEntity
  8
TFR-TRI
  6
CONTINUOUS
 62
    30
100
AcDbCircle
 10
5.609782695770263
 20
14.85836505889892
 30
0.0
 40
0.1875
100
AcDbArc
 50
135.0
 51
315.0
  0
ARC
  5
21A
330
A
100
AcDbEntity
  8
TFR-TRI
  6
CONTINUOUS
 62
    30
100
AcDbCircle
 10
12.23935508728027
 20
17.45836448669433
 30
0.0
 40
0.1875
100
AcDbArc
 50
225.0
 51
405.0
  0
ARC
  5
21B
330
A
100
AcDbEntity
  8
TFR-TRI
  6
CONTINUOUS
 62
    30
100
AcDbCircle
 10
16.48110389709472
 20
27.37968635559082
 30
0.0
 40
0.1875
100
AcDbArc
 50
315.0
 51
494.9999999999999
  0
ARC
  5
21C
330
A
100
AcDbEntity
  8
TFR-TRI
  6
CONTINUOUS
 62
    30
100
AcDbCircle
 10
14.35978317260742
 20
27.85836601257324
 30
0.0
 40
0.1875
100
AcDbArc
 50
135.0
 51
315.0
  0
ARC
  5
21D
330
A
100
AcDbEntity
  8
TFR-TRI
  6
CONTINUOUS
 62
    30
100
AcDbCircle
 10
4.687968730926513
 20
4.931414604187011
 30
0.0
 40
0.0299999993294478
100
AcDbArc
 50
90.0
 51
180.0
  0
ARC
  5
21E
330
A
100
AcDbEntity
  8
TFR-TRI
  6
CONTINUOUS
 62
    30
100
AcDbCircle
 10
12.23935508728027
 20
27.85836601257324
 30
0.0
 40
0.1875
100
AcDbArc
 50
225.0
 51
405.0
  0
ARC
  5
21F
330
A
100
AcDbEntity
  8
TFR-TRI
  6
CONTINUOUS
 62
    30
100
AcDbCircle
 10
16.48110389709472
 20
14.3796854019165
 30
0.0
 40
0.1875
100
AcDbArc
 50
315.0
 51
494.9999999999999
  0
ARC
  5
220
330
A
100
AcDbEntity
  8
TFR-TRI
  6
CONTINUOUS
 62
    30
100
AcDbCircle
 10
4.082068920135498
 20
4.83231496810913
 30
0.0
 40
0.125
100
AcDbArc
 50
90.0
 51
270.0
  0
ARC
  5
221
330
A
100
AcDbEntity
  8
TFR-TRI
  6
CONTINUOUS
 62
    30
100
AcDbCircle
 10
10.11803531646728
 20
22.17968559265136
 30
0.0
 40
0.1875
100
AcDbArc
 50
45.0
 51
225.0
  0
ARC
  5
222
330
A
100
AcDbEntity
  8
TFR-TRI
  6
CONTINUOUS
 62
    30
100
AcDbCircle
 10
22.39206886291503
 20
3.582314729690551
 30
0.0
 40
0.125
100
AcDbArc
 50
90.0
 51
270.0
  0
VIEWPORT
  5
240
330
B
100
AcDbEntity
 67
     1
  8
0
  6
CONTINUOUS
100
AcDbViewport
 10
3.556930693069306
 20
2.25
 30
0.0
 40
8.113861386138612
 41
5.5
 68
     1
 69
     1
1001
ACAD
1000
MVIEW
1002
{
1070
    16
1010
0.0
1020
0.0
1030
0.0
1010
0.0
1020
0.0
1030
1.0
1040
0.0
1040
5.5
1040
3.556930693069306
1040
2.25
1040
50.0
1040
0.0
1040
0.0
1070
     0
1070
   100
1070
     1
1070
     1
1070
     0
1070
     0
1070
     0
1070
     0
1040
0.0
1040
0.0
1040
0.0
1040
1.0
1040
1.0
1040
0.0
1040
0.0
1070
     0
1002
{
1002
}
1002
}
  0
ENDSEC
  0
SECTION
  2
OBJECTS
  0
DICTIONARY
  5
19
330
0
100
AcDbDictionary
  3
ACAD_GROUP
350
1A
  3
ACAD_LAYOUT
350
1E
  3
ACAD_MLINESTYLE
350
1B
  3
ACAD_PLOTSETTINGS
350
22
  3
ACAD_PLOTSTYLENAME
350
1F
  3
ACAD_WIPEOUT_VARS
350
23
  3
ACDBHEADERROUNDTRIPXREC
350
2A8
  0
DICTIONARY
  5
2C9
330
A
100
AcDbDictionary
280
     1
  3
ACAD_LAYOUTSELFREF
360
2CA
  0
DICTIONARY
  5
2CB
330
B
100
AcDbDictionary
280
     1
  3
ACAD_LAYOUTSELFREF
360
2CC
  0
DICTIONARY
  5
1A
102
{ACAD_REACTORS
330
19
102
}
330
19
100
AcDbDictionary
  0
DICTIONARY
  5
1E
102
{ACAD_REACTORS
330
19
102
}
330
19
100
AcDbDictionary
  0
DICTIONARY
  5
1B
102
{ACAD_REACTORS
330
19
102
}
330
19
100
AcDbDictionary
  3
STANDARD
350
1C
  0
DICTIONARY
  5
22
102
{ACAD_REACTORS
330
19
102
}
330
19
100
AcDbDictionary
  0
ACDBDICTIONARYWDFLT
  5
1F
102
{ACAD_REACTORS
330
19
102
}
330
19
100
AcDbDictionary
281
     1
  3
Normal
350
1D
100
AcDbDictionaryWithDefault
340
1D
  0
ACAD_PROXY_OBJECT
  5
23
330
19
100
AcDbProxyObject
 90
      499
 91
      524
 93
       10
310
4041
 94
        0
1001
ACAD
1000
AcadProxyRoundTripData
1071
      521
1071
   655383
1070
     0
  0
DICTIONARY
  5
2A8
102
{ACAD_REACTORS
330
19
102
}
330
19
100
AcDbDictionary
  3
CEPSNTYPE
350
2B2
  3
DIMSTYLEDATA
350
2B6
  3
FINGERPRINTGUID
350
2B3
  3
HYPERLINKBASE
350
2AB
  3
INSUNITS
350
2B1
  3
LAYOUTDICT
350
2AD
  3
LWETCUNION
350
2B0
  3
PLOTSETDICT
350
2AE
  3
PLOTSTYLNAMDICT
350
2AF
  3
PSVPSCALE
350
2B5
  3
PUCSBASE
350
2B9
  3
PUCSORGBACK
350
2BF
  3
PUCSORGBOTTOM
350
2BB
  3
PUCSORGFRONT
350
2BE
  3
PUCSORGLEFT
350
2BC
  3
PUCSORGRIGHT
350
2BD
  3
PUCSORGTOP
350
2BA
  3
PUCSORTHOREF
350
2B7
  3
PUCSORTHOVIEW
350
2B8
  3
STYLESHEET
350
2AC
  3
TSTACKALIGN
350
2A9
  3
TSTACKSIZE
350
2AA
  3
UCSBASE
350
2C2
  3
UCSORGBACK
350
2C8
  3
UCSORGBOTTOM
350
2C4
  3
UCSORGFRONT
350
2C7
  3
UCSORGLEFT
350
2C5
  3
UCSORGRIGHT
350
2C6
  3
UCSORGTOP
350
2C3
  3
UCSORTHOREF
350
2C0
  3
UCSORTHOVIEW
350
2C1
  3
VERSIONGUID
350
2B4
  0
XRECORD
  5
2CA
102
{ACAD_REACTORS
330
2C9
102
}
330
2C9
100
AcDbXrecord
340
A
  0
XRECORD
  5
2CC
102
{ACAD_REACTORS
330
2CB
102
}
330
2CB
100
AcDbXrecord
340
B
  0
MLINESTYLE
  5
1C
102
{ACAD_REACTORS
330
1B
102
}
330
1B
100
AcDbMlineStyle
  2
STANDARD
 70
     0
  3

 62
     0
 51
90.0
 52
90.0
 71
     2
 49
0.5
 62
   256
  6
BYLAYER
 49
-0.5
 62
   256
  6
BYLAYER
  0
ACDBPLACEHOLDER
  5
1D
102
{ACAD_REACTORS
330
1F
102
}
330
1F
100
AcDbPlaceHolder
280
     0
  0
XRECORD
  5
2B2
102
{ACAD_REACTORS
330
2A8
102
}
330
2A8
100
AcDbXrecord
 90
        0
  0
XRECORD
  5
2B6
102
{ACAD_REACTORS
330
2A8
102
}
330
2A8
100
AcDbXrecord
1000
DSTYLE
1002
{
1070
   278
 70
     0
1070
   371
 70
     0
1070
   372
 70
     0
1002
}
  0
XRECORD
  5
2B3
102
{ACAD_REACTORS
330
2A8
102
}
330
2A8
100
AcDbXrecord
  1

  0
XRECORD
  5
2AB
102
{ACAD_REACTORS
330
2A8
102
}
330
2A8
100
AcDbXrecord
  1

  0
XRECORD
  5
2B1
102
{ACAD_REACTORS
330
2A8
102
}
330
2A8
100
AcDbXrecord
 90
        0
  0
XRECORD
  5
2AD
102
{ACAD_REACTORS
330
2A8
102
}
330
2A8
100
AcDbXrecord
340
1E
  0
XRECORD
  5
2B0
102
{ACAD_REACTORS
330
2A8
102
}
330
2A8
100
AcDbXrecord
 90
    10752
  0
XRECORD
  5
2AE
102
{ACAD_REACTORS
330
2A8
102
}
330
2A8
100
AcDbXrecord
340
22
  0
XRECORD
  5
2AF
102
{ACAD_REACTORS
330
2A8
102
}
330
2A8
100
AcDbXrecord
340
1F
  0
XRECORD
  5
2B5
102
{ACAD_REACTORS
330
2A8
102
}
330
2A8
100
AcDbXrecord
 40
0.0
  0
XRECORD
  5
2B9
102
{ACAD_REACTORS
330
2A8
102
}
330
2A8
100
AcDbXrecord
340
0
  0
XRECORD
  5
2BF
102
{ACAD_REACTORS
330
2A8
102
}
330
2A8
100
AcDbXrecord
 10
0.0
 20
0.0
 30
0.0
  0
XRECORD
  5
2BB
102
{ACAD_REACTORS
330
2A8
102
}
330
2A8
100
AcDbXrecord
 10
0.0
 20
0.0
 30
0.0
  0
XRECORD
  5
2BE
102
{ACAD_REACTORS
330
2A8
102
}
330
2A8
100
AcDbXrecord
 10
0.0
 20
0.0
 30
0.0
  0
XRECORD
  5
2BC
102
{ACAD_REACTORS
330
2A8
102
}
330
2A8
100
AcDbXrecord
 10
0.0
 20
0.0
 30
0.0
  0
XRECORD
  5
2BD
102
{ACAD_REACTORS
330
2A8
102
}
330
2A8
100
AcDbXrecord
 10
0.0
 20
0.0
 30
0.0
  0
XRECORD
  5
2BA
102
{ACAD_REACTORS
330
2A8
102
}
330
2A8
100
AcDbXrecord
 10
0.0
 20
0.0
 30
0.0
  0
XRECORD
  5
2B7
102
{ACAD_REACTORS
330
2A8
102
}
330
2A8
100
AcDbXrecord
340
0
  0
XRECORD
  5
2B8
102
{ACAD_REACTORS
330
2A8
102
}
330
2A8
100
AcDbXrecord
 70
     0
  0
XRECORD
  5
2AC
102
{ACAD_REACTORS
330
2A8
102
}
330
2A8
100
AcDbXrecord
  1

  0
XRECORD
  5
2A9
102
{ACAD_REACTORS
330
2A8
102
}
330
2A8
100
AcDbXrecord
 90
        1
  0
XRECORD
  5
2AA
102
{ACAD_REACTORS
330
2A8
102
}
330
2A8
100
AcDbXrecord
 90
       70
  0
XRECORD
  5
2C2
102
{ACAD_REACTORS
330
2A8
102
}
330
2A8
100
AcDbXrecord
340
0
  0
XRECORD
  5
2C8
102
{ACAD_REACTORS
330
2A8
102
}
330
2A8
100
AcDbXrecord
 10
0.0
 20
0.0
 30
0.0
  0
XRECORD
  5
2C4
102
{ACAD_REACTORS
330
2A8
102
}
330
2A8
100
AcDbXrecord
 10
0.0
 20
0.0
 30
0.0
  0
XRECORD
  5
2C7
102
{ACAD_REACTORS
330
2A8
102
}
330
2A8
100
AcDbXrecord
 10
0.0
 20
0.0
 30
0.0
  0
XRECORD
  5
2C5
102
{ACAD_REACTORS
330
2A8
102
}
330
2A8
100
AcDbXrecord
 10
0.0
 20
0.0
 30
0.0
  0
XRECORD
  5
2C6
102
{ACAD_REACTORS
330
2A8
102
}
330
2A8
100
AcDbXrecord
 10
0.0
 20
0.0
 30
0.0
  0
XRECORD
  5
2C3
102
{ACAD_REACTORS
330
2A8
102
}
330
2A8
100
AcDbXrecord
 10
0.0
 20
0.0
 30
0.0
  0
XRECORD
  5
2C0
102
{ACAD_REACTORS
330
2A8
102
}
330
2A8
100
AcDbXrecord
340
0
  0
XRECORD
  5
2C1
102
{ACAD_REACTORS
330
2A8
102
}
330
2A8
100
AcDbXrecord
 70
     1
  0
XRECORD
  5
2B4
102
{ACAD_REACTORS
330
2A8
102
}
330
2A8
100
AcDbXrecord
  1
{D5A84DC1-60F7-4095-8FA8-15127064324D}
  0
ENDSEC
  0
EOF
