  0
SECTION
  2
HEADER
  9
$ACADVER
  1
AC1012
  9
$DWGCODEPAGE
  3
ANSI_1252
  9
$INSBASE
 10
0.0
 20
0.0
 30
0.0
  9
$EXTMIN
 10
2.489868194900765
 20
4.105178858741627
 30
-0.0015258207003583
  9
$EXTMAX
 10
3.392578142919319
 20
6.233779924961016
 30
0.0000000349246037
  9
$LIMMIN
 10
0.0
 20
0.0
  9
$LIMMAX
 10
12.0
 20
9.0
  9
$ORTHOMODE
 70
     1
  9
$REGENMODE
 70
     1
  9
$FILLMODE
 70
     1
  9
$QTEXTMODE
 70
     0
  9
$MIRRTEXT
 70
     1
  9
$DRAGMODE
 70
     2
  9
$LTSCALE
 40
1.0
  9
$OSMODE
 70
    37
  9
$ATTMODE
 70
     1
  9
$TEXTSIZE
 40
0.2
  9
$TRACEWID
 40
0.05
  9
$TEXTSTYLE
  7
STANDARD
  9
$CLAYER
  8
0
  9
$CELTYPE
  6
BYLAYER
  9
$CECOLOR
 62
   256
  9
$CELTSCALE
 40
1.0
  9
$DELOBJ
 70
     1
  9
$DISPSILH
 70
     0
  9
$DIMSCALE
 40
1.0
  9
$DIMASZ
 40
0.18
  9
$DIMEXO
 40
0.0625
  9
$DIMDLI
 40
0.38
  9
$DIMRND
 40
0.0
  9
$DIMDLE
 40
0.0
  9
$DIMEXE
 40
0.18
  9
$DIMTP
 40
0.0
  9
$DIMTM
 40
0.0
  9
$DIMTXT
 40
0.18
  9
$DIMCEN
 40
0.09
  9
$DIMTSZ
 40
0.0
  9
$DIMTOL
 70
     0
  9
$DIMLIM
 70
     0
  9
$DIMTIH
 70
     1
  9
$DIMTOH
 70
     1
  9
$DIMSE1
 70
     0
  9
$DIMSE2
 70
     0
  9
$DIMTAD
 70
     0
  9
$DIMZIN
 70
     0
  9
$DIMBLK
  1

  9
$DIMASO
 70
     1
  9
$DIMSHO
 70
     1
  9
$DIMPOST
  1

  9
$DIMAPOST
  1

  9
$DIMALT
 70
     0
  9
$DIMALTD
 70
     2
  9
$DIMALTF
 40
25.4
  9
$DIMLFAC
 40
1.0
  9
$DIMTOFL
 70
     0
  9
$DIMTVP
 40
0.0
  9
$DIMTIX
 70
     0
  9
$DIMSOXD
 70
     0
  9
$DIMSAH
 70
     0
  9
$DIMBLK1
  1

  9
$DIMBLK2
  1

  9
$DIMSTYLE
  2
STANDARD
  9
$DIMCLRD
 70
     0
  9
$DIMCLRE
 70
     0
  9
$DIMCLRT
 70
     0
  9
$DIMTFAC
 40
1.0
  9
$DIMGAP
 40
0.09
  9
$DIMJUST
 70
     0
  9
$DIMSD1
 70
     0
  9
$DIMSD2
 70
     0
  9
$DIMTOLJ
 70
     1
  9
$DIMTZIN
 70
     0
  9
$DIMALTZ
 70
     0
  9
$DIMALTTZ
 70
     0
  9
$DIMFIT
 70
     5
  9
$DIMUPT
 70
     0
  9
$DIMUNIT
 70
     2
  9
$DIMDEC
 70
     4
  9
$DIMTDEC
 70
     4
  9
$DIMALTU
 70
     2
  9
$DIMALTTD
 70
     2
  9
$DIMTXSTY
  7
STANDARD
  9
$DIMAUNIT
 70
     0
  9
$LUNITS
 70
     2
  9
$LUPREC
 70
     4
  9
$SKETCHINC
 40
0.1
  9
$FILLETRAD
 40
0.0
  9
$AUNITS
 70
     0
  9
$AUPREC
 70
     0
  9
$MENU
  1
acad
  9
$ELEVATION
 40
0.0
  9
$PELEVATION
 40
0.0
  9
$THICKNESS
 40
0.0
  9
$LIMCHECK
 70
     0
  9
$BLIPMODE
 70
     0
  9
$CHAMFERA
 40
0.0
  9
$CHAMFERB
 40
0.0
  9
$CHAMFERC
 40
0.0
  9
$CHAMFERD
 40
0.0
  9
$SKPOLY
 70
     0
  9
$TDCREATE
 40
2454294.373379629
  9
$TDUPDATE
 40
2454294.375853298
  9
$TDINDWG
 40
0.0007557060
  9
$TDUSRTIMER
 40
0.0007557060
  9
$USRTIMER
 70
     1
  9
$ANGBASE
 50
0.0
  9
$ANGDIR
 70
     0
  9
$PDMODE
 70
     0
  9
$PDSIZE
 40
0.0
  9
$PLINEWID
 40
0.0
  9
$COORDS
 70
     1
  9
$SPLFRAME
 70
     0
  9
$SPLINETYPE
 70
     6
  9
$SPLINESEGS
 70
     8
  9
$ATTDIA
 70
     0
  9
$ATTREQ
 70
     1
  9
$HANDLING
 70
  4097
  9
$HANDSEED
  5
20B6
  9
$SURFTAB1
 70
     6
  9
$SURFTAB2
 70
     6
  9
$SURFTYPE
 70
     6
  9
$SURFU
 70
     6
  9
$SURFV
 70
     6
  9
$UCSNAME
  2

  9
$UCSORG
 10
0.0
 20
0.0
 30
0.0
  9
$UCSXDIR
 10
1.0
 20
0.0
 30
0.0
  9
$UCSYDIR
 10
0.0
 20
1.0
 30
0.0
  9
$PUCSNAME
  2

  9
$PUCSORG
 10
0.0
 20
0.0
 30
0.0
  9
$PUCSXDIR
 10
1.0
 20
0.0
 30
0.0
  9
$PUCSYDIR
 10
0.0
 20
1.0
 30
0.0
  9
$USERI1
 70
     0
  9
$USERI2
 70
     0
  9
$USERI3
 70
     0
  9
$USERI4
 70
     0
  9
$USERI5
 70
     0
  9
$USERR1
 40
0.0
  9
$USERR2
 40
0.0
  9
$USERR3
 40
0.0
  9
$USERR4
 40
0.0
  9
$USERR5
 40
0.0
  9
$WORLDVIEW
 70
     1
  9
$SHADEDGE
 70
     3
  9
$SHADEDIF
 70
    70
  9
$TILEMODE
 70
     1
  9
$MAXACTVP
 70
    16
  9
$PINSBASE
 10
0.0
 20
0.0
 30
0.0
  9
$PLIMCHECK
 70
     0
  9
$PEXTMIN
 10
1.000000000000000E+20
 20
1.000000000000000E+20
 30
1.000000000000000E+20
  9
$PEXTMAX
 10
-1.000000000000000E+20
 20
-1.000000000000000E+20
 30
-1.000000000000000E+20
  9
$PLIMMIN
 10
0.0
 20
0.0
  9
$PLIMMAX
 10
12.0
 20
9.0
  9
$UNITMODE
 70
     0
  9
$VISRETAIN
 70
     0
  9
$PLINEGEN
 70
     0
  9
$PSLTSCALE
 70
     1
  9
$TREEDEPTH
 70
  3020
  9
$PICKSTYLE
 70
     1
  9
$CMLSTYLE
  2
STANDARD
  9
$CMLJUST
 70
     0
  9
$CMLSCALE
 40
1.0
  9
$SAVEIMAGES
 70
     1
  0
ENDSEC
  0
SECTION
  2
CLASSES
  0
CLASS
  1
ACDBDICTIONARYWDFLT
  2
AcDbDictionaryWithDefault
  3
AutoCAD 2000
 90
    32768
280
     0
281
     0
  0
CLASS
  1
ACDBPLACEHOLDER
  2
AcDbPlaceHolder
  3
AutoCAD 2000
 90
    32768
280
     0
281
     0
  0
CLASS
  1
LAYOUT
  2
AcDbLayout
  3
AutoCAD 2000
 90
    32768
280
     0
281
     0
  0
CLASS
  1
LONG_TRANSACTION
  2
AcDbLongTransaction
  3
AutoCAD 2000
 90
    32768
280
     0
281
     0
  0
CLASS
  1
LWPOLYLINE
  2
AcDbPolyline
  3
AutoCAD 2000
 90
    32768
280
     0
281
     1
  0
CLASS
  1
HATCH
  2
AcDbHatch
  3
AutoCAD 2000
 90
    32768
280
     0
281
     1
  0
CLASS
  1
XRECORD
  2
AcDbXrecord
  3
AutoCAD 2000
 90
    32768
280
     0
281
     0
  0
ENDSEC
  0
SECTION
  2
TABLES
  0
TABLE
  2
VPORT
  5
8
330
0
100
AcDbSymbolTable
 70
     3
  0
VPORT
  5
1FD5
330
8
100
AcDbSymbolTableRecord
100
AcDbViewportTableRecord
  2
*ACTIVE
 70
     0
 10
0.0
 20
0.0
 11
1.0
 21
1.0
 12
2.941223168910042
 22
5.169479391851321
 13
0.0
 23
0.0
 14
1.0
 24
1.0
 15
0.0
 25
0.0
 16
0.0
 26
0.0
 36
1.0
 17
0.0
 27
0.0
 37
0.0
 40
2.154042513225995
 41
1.838323353293413
 42
50.0
 43
0.0
 44
0.0
 50
0.0
 51
0.0
 71
     0
 72
   100
 73
     1
 74
     1
 75
     0
 76
     0
 77
     0
 78
     0
  0
ENDTAB
  0
TABLE
  2
LTYPE
  5
5
330
0
100
AcDbSymbolTable
 70
    25
  0
LTYPE
  5
13
330
5
100
AcDbSymbolTableRecord
100
AcDbLinetypeTableRecord
  2
BYBLOCK
 70
     0
  3

 72
    65
 73
     0
 40
0.0
  0
LTYPE
  5
14
330
5
100
AcDbSymbolTableRecord
100
AcDbLinetypeTableRecord
  2
BYLAYER
 70
     0
  3

 72
    65
 73
     0
 40
0.0
  0
LTYPE
  5
15
330
5
100
AcDbSymbolTableRecord
100
AcDbLinetypeTableRecord
  2
CONTINUOUS
 70
     0
  3
Solid line
 72
    65
 73
     0
 40
0.0
  0
LTYPE
  5
22
330
5
100
AcDbSymbolTableRecord
100
AcDbLinetypeTableRecord
  2
BORDER
 70
     0
  3
__ __ . __ __ . __ __ . __ __ . __ __ . __ __ .
 72
    65
 73
     6
 40
1.75
 49
0.5
 74
     0
 49
-0.25
 74
     0
 49
0.5
 74
     0
 49
-0.25
 74
     0
 49
0.5
 74
     0
 49
-0.25
 74
     0
  0
LTYPE
  5
23
330
5
100
AcDbSymbolTableRecord
100
AcDbLinetypeTableRecord
  2
BORDER2
 70
     0
  3
__.__.__.__.__.__.__.__.
 72
    65
 73
     6
 40
0.875
 49
0.25
 74
     0
 49
-0.125
 74
     0
 49
0.25
 74
     0
 49
-0.125
 74
     0
 49
0.25
 74
     0
 49
-0.125
 74
     0
  0
LTYPE
  5
24
330
5
100
AcDbSymbolTableRecord
100
AcDbLinetypeTableRecord
  2
BORDERX2
 70
     0
  3
____  ____  .  
 72
    65
 73
     6
 40
3.5
 49
1.0
 74
     0
 49
-0.5
 74
     0
 49
1.0
 74
     0
 49
-0.5
 74
     0
 49
1.0
 74
     0
 49
-0.5
 74
     0
  0
LTYPE
  5
25
330
5
100
AcDbSymbolTableRecord
100
AcDbLinetypeTableRecord
  2
CENTER
 70
     0
  3
____ _ ____ _ ____ _ 
 72
    65
 73
     4
 40
2.0
 49
1.25
 74
     0
 49
-0.25
 74
     0
 49
0.25
 74
     0
 49
-0.25
 74
     0
  0
LTYPE
  5
26
330
5
100
AcDbSymbolTableRecord
100
AcDbLinetypeTableRecord
  2
CENTER2
 70
     0
  3
____ _ ____ _ ____ _ 
 72
    65
 73
     4
 40
1.125
 49
0.75
 74
     0
 49
-0.125
 74
     0
 49
0.125
 74
     0
 49
-0.125
 74
     0
  0
LTYPE
  5
27
330
5
100
AcDbSymbolTableRecord
100
AcDbLinetypeTableRecord
  2
CENTERX2
 70
     0
  3
________  __  
 72
    65
 73
     4
 40
4.0
 49
2.5
 74
     0
 49
-0.5
 74
     0
 49
0.5
 74
     0
 49
-0.5
 74
     0
  0
LTYPE
  5
28
330
5
100
AcDbSymbolTableRecord
100
AcDbLinetypeTableRecord
  2
DASHDOT
 70
     0
  3
__ . __ . __ . __ . 
 72
    65
 73
     4
 40
1.0
 49
0.5
 74
     0
 49
-0.25
 74
     0
 49
0.0
 74
     0
 49
-0.25
 74
     0
  0
LTYPE
  5
29
330
5
100
AcDbSymbolTableRecord
100
AcDbLinetypeTableRecord
  2
DASHDOT2
 70
     0
  3
_._._._._._._._._.
 72
    65
 73
     4
 40
0.5
 49
0.25
 74
     0
 49
-0.125
 74
     0
 49
0.0
 74
     0
 49
-0.125
 74
     0
  0
LTYPE
  5
2A
330
5
100
AcDbSymbolTableRecord
100
AcDbLinetypeTableRecord
  2
DASHDOTX2
 70
     0
  3
____  .  ____  .  
 72
    65
 73
     4
 40
2.0
 49
1.0
 74
     0
 49
-0.5
 74
     0
 49
0.0
 74
     0
 49
-0.5
 74
     0
  0
LTYPE
  5
2B
330
5
100
AcDbSymbolTableRecord
100
AcDbLinetypeTableRecord
  2
DASHED
 70
     0
  3
__ __ __ __ __ __ __ 
 72
    65
 73
     2
 40
0.75
 49
0.5
 74
     0
 49
-0.25
 74
     0
  0
LTYPE
  5
2C
330
5
100
AcDbSymbolTableRecord
100
AcDbLinetypeTableRecord
  2
DASHED2
 70
     0
  3
_ _ _ _ _ _ _ _ _ _ 
 72
    65
 73
     2
 40
0.375
 49
0.25
 74
     0
 49
-0.125
 74
     0
  0
LTYPE
  5
2D
330
5
100
AcDbSymbolTableRecord
100
AcDbLinetypeTableRecord
  2
DASHEDX2
 70
     0
  3
____  ____  ____  
 72
    65
 73
     2
 40
1.5
 49
1.0
 74
     0
 49
-0.5
 74
     0
  0
LTYPE
  5
2E
330
5
100
AcDbSymbolTableRecord
100
AcDbLinetypeTableRecord
  2
DIVIDE
 70
     0
  3
____ . . ____ . . 
 72
    65
 73
     6
 40
1.25
 49
0.5
 74
     0
 49
-0.25
 74
     0
 49
0.0
 74
     0
 49
-0.25
 74
     0
 49
0.0
 74
     0
 49
-0.25
 74
     0
  0
LTYPE
  5
2F
330
5
100
AcDbSymbolTableRecord
100
AcDbLinetypeTableRecord
  2
DIVIDE2
 70
     0
  3
__..__..__..__..__..
 72
    65
 73
     6
 40
0.625
 49
0.25
 74
     0
 49
-0.125
 74
     0
 49
0.0
 74
     0
 49
-0.125
 74
     0
 49
0.0
 74
     0
 49
-0.125
 74
     0
  0
LTYPE
  5
30
330
5
100
AcDbSymbolTableRecord
100
AcDbLinetypeTableRecord
  2
DIVIDEX2
 70
     0
  3
________  .  .  
 72
    65
 73
     6
 40
2.5
 49
1.0
 74
     0
 49
-0.5
 74
     0
 49
0.0
 74
     0
 49
-0.5
 74
     0
 49
0.0
 74
     0
 49
-0.5
 74
     0
  0
LTYPE
  5
31
330
5
100
AcDbSymbolTableRecord
100
AcDbLinetypeTableRecord
  2
DOT
 70
     0
  3
. . . . . . . . . 
 72
    65
 73
     2
 40
0.25
 49
0.0
 74
     0
 49
-0.25
 74
     0
  0
LTYPE
  5
32
330
5
100
AcDbSymbolTableRecord
100
AcDbLinetypeTableRecord
  2
DOT2
 70
     0
  3
..................
 72
    65
 73
     2
 40
0.125
 49
0.0
 74
     0
 49
-0.125
 74
     0
  0
LTYPE
  5
33
330
5
100
AcDbSymbolTableRecord
100
AcDbLinetypeTableRecord
  2
DOTX2
 70
     0
  3
.  .  .  .  .  .  
 72
    65
 73
     2
 40
0.5
 49
0.0
 74
     0
 49
-0.5
 74
     0
  0
LTYPE
  5
34
330
5
100
AcDbSymbolTableRecord
100
AcDbLinetypeTableRecord
  2
HIDDEN
 70
     0
  3
__ __ __ __ __ __ 
 72
    65
 73
     2
 40
0.375
 49
0.25
 74
     0
 49
-0.125
 74
     0
  0
LTYPE
  5
35
330
5
100
AcDbSymbolTableRecord
100
AcDbLinetypeTableRecord
  2
HIDDEN2
 70
     0
  3
_ _ _ _ _ _ _ _ _ 
 72
    65
 73
     2
 40
0.1875
 49
0.125
 74
     0
 49
-0.0625
 74
     0
  0
LTYPE
  5
36
330
5
100
AcDbSymbolTableRecord
100
AcDbLinetypeTableRecord
  2
HIDDENX2
 70
     0
  3
____ ____ ____ ____ 
 72
    65
 73
     2
 40
0.75
 49
0.5
 74
     0
 49
-0.25
 74
     0
  0
LTYPE
  5
37
330
5
100
AcDbSymbolTableRecord
100
AcDbLinetypeTableRecord
  2
PHANTOM
 70
     0
  3
______  __  __  
 72
    65
 73
     6
 40
2.5
 49
1.25
 74
     0
 49
-0.25
 74
     0
 49
0.25
 74
     0
 49
-0.25
 74
     0
 49
0.25
 74
     0
 49
-0.25
 74
     0
  0
LTYPE
  5
38
330
5
100
AcDbSymbolTableRecord
100
AcDbLinetypeTableRecord
  2
PHANTOM2
 70
     0
  3
___ _ _ ___ _ _ 
 72
    65
 73
     6
 40
1.25
 49
0.625
 74
     0
 49
-0.125
 74
     0
 49
0.125
 74
     0
 49
-0.125
 74
     0
 49
0.125
 74
     0
 49
-0.125
 74
     0
  0
LTYPE
  5
39
330
5
100
AcDbSymbolTableRecord
100
AcDbLinetypeTableRecord
  2
PHANTOMX2
 70
     0
  3
___ _ _ ___ _ _ 
 72
    65
 73
     6
 40
5.0
 49
2.5
 74
     0
 49
-0.5
 74
     0
 49
0.5
 74
     0
 49
-0.5
 74
     0
 49
0.5
 74
     0
 49
-0.5
 74
     0
  0
ENDTAB
  0
TABLE
  2
LAYER
  5
2
330
0
100
AcDbSymbolTable
 70
   256
  0
LAYER
  5
10
330
2
100
AcDbSymbolTableRecord
100
AcDbLayerTableRecord
  2
0
 70
     0
 62
     7
  6
CONTINUOUS
  0
LAYER
  5
3A
330
2
100
AcDbSymbolTableRecord
100
AcDbLayerTableRecord
  2
1
 70
     0
 62
     1
  6
CONTINUOUS
  0
LAYER
  5
3B
330
2
100
AcDbSymbolTableRecord
100
AcDbLayerTableRecord
  2
2
 70
     0
 62
     2
  6
CONTINUOUS
  0
LAYER
  5
3C
330
2
100
AcDbSymbolTableRecord
100
AcDbLayerTableRecord
  2
3
 70
     0
 62
     3
  6
CONTINUOUS
  0
LAYER
  5
3D
330
2
100
AcDbSymbolTableRecord
100
AcDbLayerTableRecord
  2
4
 70
     0
 62
     4
  6
CONTINUOUS
  0
LAYER
  5
3E
330
2
100
AcDbSymbolTableRecord
100
AcDbLayerTableRecord
  2
5
 70
     0
 62
     5
  6
CONTINUOUS
  0
LAYER
  5
3F
330
2
100
AcDbSymbolTableRecord
100
AcDbLayerTableRecord
  2
6
 70
     0
 62
     6
  6
CONTINUOUS
  0
LAYER
  5
40
330
2
100
AcDbSymbolTableRecord
100
AcDbLayerTableRecord
  2
7
 70
     0
 62
     7
  6
CONTINUOUS
  0
LAYER
  5
41
330
2
100
AcDbSymbolTableRecord
100
AcDbLayerTableRecord
  2
8
 70
     0
 62
     8
  6
CONTINUOUS
  0
LAYER
  5
42
330
2
100
AcDbSymbolTableRecord
100
AcDbLayerTableRecord
  2
9
 70
     0
 62
     9
  6
CONTINUOUS
  0
LAYER
  5
43
330
2
100
AcDbSymbolTableRecord
100
AcDbLayerTableRecord
  2
10
 70
     0
 62
    10
  6
CONTINUOUS
  0
LAYER
  5
44
330
2
100
AcDbSymbolTableRecord
100
AcDbLayerTableRecord
  2
11
 70
     0
 62
    11
  6
CONTINUOUS
  0
LAYER
  5
45
330
2
100
AcDbSymbolTableRecord
100
AcDbLayerTableRecord
  2
12
 70
     0
 62
    12
  6
CONTINUOUS
  0
LAYER
  5
46
330
2
100
AcDbSymbolTableRecord
100
AcDbLayerTableRecord
  2
13
 70
     0
 62
    13
  6
CONTINUOUS
  0
LAYER
  5
47
330
2
100
AcDbSymbolTableRecord
100
AcDbLayerTableRecord
  2
14
 70
     0
 62
    14
  6
CONTINUOUS
  0
LAYER
  5
48
330
2
100
AcDbSymbolTableRecord
100
AcDbLayerTableRecord
  2
15
 70
     0
 62
    15
  6
CONTINUOUS
  0
LAYER
  5
49
330
2
100
AcDbSymbolTableRecord
100
AcDbLayerTableRecord
  2
16
 70
     0
 62
    16
  6
CONTINUOUS
  0
LAYER
  5
4A
330
2
100
AcDbSymbolTableRecord
100
AcDbLayerTableRecord
  2
17
 70
     0
 62
    17
  6
CONTINUOUS
  0
LAYER
  5
4B
330
2
100
AcDbSymbolTableRecord
100
AcDbLayerTableRecord
  2
18
 70
     0
 62
    18
  6
CONTINUOUS
  0
LAYER
  5
4C
330
2
100
AcDbSymbolTableRecord
100
AcDbLayerTableRecord
  2
19
 70
     0
 62
    19
  6
CONTINUOUS
  0
LAYER
  5
4D
330
2
100
AcDbSymbolTableRecord
100
AcDbLayerTableRecord
  2
20
 70
     0
 62
    20
  6
CONTINUOUS
  0
LAYER
  5
4E
330
2
100
AcDbSymbolTableRecord
100
AcDbLayerTableRecord
  2
21
 70
     0
 62
    21
  6
CONTINUOUS
  0
LAYER
  5
4F
330
2
100
AcDbSymbolTableRecord
100
AcDbLayerTableRecord
  2
22
 70
     0
 62
    22
  6
CONTINUOUS
  0
LAYER
  5
50
330
2
100
AcDbSymbolTableRecord
100
AcDbLayerTableRecord
  2
23
 70
     0
 62
    23
  6
CONTINUOUS
  0
LAYER
  5
51
330
2
100
AcDbSymbolTableRecord
100
AcDbLayerTableRecord
  2
24
 70
     0
 62
    24
  6
CONTINUOUS
  0
LAYER
  5
52
330
2
100
AcDbSymbolTableRecord
100
AcDbLayerTableRecord
  2
25
 70
     0
 62
    25
  6
CONTINUOUS
  0
LAYER
  5
53
330
2
100
AcDbSymbolTableRecord
100
AcDbLayerTableRecord
  2
26
 70
     0
 62
    26
  6
CONTINUOUS
  0
LAYER
  5
54
330
2
100
AcDbSymbolTableRecord
100
AcDbLayerTableRecord
  2
27
 70
     0
 62
    27
  6
CONTINUOUS
  0
LAYER
  5
55
330
2
100
AcDbSymbolTableRecord
100
AcDbLayerTableRecord
  2
28
 70
     0
 62
    28
  6
CONTINUOUS
  0
LAYER
  5
56
330
2
100
AcDbSymbolTableRecord
100
AcDbLayerTableRecord
  2
29
 70
     0
 62
    29
  6
CONTINUOUS
  0
LAYER
  5
57
330
2
100
AcDbSymbolTableRecord
100
AcDbLayerTableRecord
  2
30
 70
     0
 62
    30
  6
CONTINUOUS
  0
LAYER
  5
58
330
2
100
AcDbSymbolTableRecord
100
AcDbLayerTableRecord
  2
31
 70
     0
 62
    31
  6
CONTINUOUS
  0
LAYER
  5
59
330
2
100
AcDbSymbolTableRecord
100
AcDbLayerTableRecord
  2
32
 70
     0
 62
    32
  6
CONTINUOUS
  0
LAYER
  5
5A
330
2
100
AcDbSymbolTableRecord
100
AcDbLayerTableRecord
  2
33
 70
     0
 62
    33
  6
CONTINUOUS
  0
LAYER
  5
5B
330
2
100
AcDbSymbolTableRecord
100
AcDbLayerTableRecord
  2
34
 70
     0
 62
    34
  6
CONTINUOUS
  0
LAYER
  5
5C
330
2
100
AcDbSymbolTableRecord
100
AcDbLayerTableRecord
  2
35
 70
     0
 62
    35
  6
CONTINUOUS
  0
LAYER
  5
5D
330
2
100
AcDbSymbolTableRecord
100
AcDbLayerTableRecord
  2
36
 70
     0
 62
    36
  6
CONTINUOUS
  0
LAYER
  5
5E
330
2
100
AcDbSymbolTableRecord
100
AcDbLayerTableRecord
  2
37
 70
     0
 62
    37
  6
CONTINUOUS
  0
LAYER
  5
5F
330
2
100
AcDbSymbolTableRecord
100
AcDbLayerTableRecord
  2
38
 70
     0
 62
    38
  6
CONTINUOUS
  0
LAYER
  5
60
330
2
100
AcDbSymbolTableRecord
100
AcDbLayerTableRecord
  2
39
 70
     0
 62
    39
  6
CONTINUOUS
  0
LAYER
  5
61
330
2
100
AcDbSymbolTableRecord
100
AcDbLayerTableRecord
  2
40
 70
     0
 62
    40
  6
CONTINUOUS
  0
LAYER
  5
62
330
2
100
AcDbSymbolTableRecord
100
AcDbLayerTableRecord
  2
41
 70
     0
 62
    41
  6
CONTINUOUS
  0
LAYER
  5
63
330
2
100
AcDbSymbolTableRecord
100
AcDbLayerTableRecord
  2
42
 70
     0
 62
    42
  6
CONTINUOUS
  0
LAYER
  5
64
330
2
100
AcDbSymbolTableRecord
100
AcDbLayerTableRecord
  2
43
 70
     0
 62
    43
  6
CONTINUOUS
  0
LAYER
  5
65
330
2
100
AcDbSymbolTableRecord
100
AcDbLayerTableRecord
  2
44
 70
     0
 62
    44
  6
CONTINUOUS
  0
LAYER
  5
66
330
2
100
AcDbSymbolTableRecord
100
AcDbLayerTableRecord
  2
45
 70
     0
 62
    45
  6
CONTINUOUS
  0
LAYER
  5
67
330
2
100
AcDbSymbolTableRecord
100
AcDbLayerTableRecord
  2
46
 70
     0
 62
    46
  6
CONTINUOUS
  0
LAYER
  5
68
330
2
100
AcDbSymbolTableRecord
100
AcDbLayerTableRecord
  2
47
 70
     0
 62
    47
  6
CONTINUOUS
  0
LAYER
  5
69
330
2
100
AcDbSymbolTableRecord
100
AcDbLayerTableRecord
  2
48
 70
     0
 62
    48
  6
CONTINUOUS
  0
LAYER
  5
6A
330
2
100
AcDbSymbolTableRecord
100
AcDbLayerTableRecord
  2
49
 70
     0
 62
    49
  6
CONTINUOUS
  0
LAYER
  5
6B
330
2
100
AcDbSymbolTableRecord
100
AcDbLayerTableRecord
  2
50
 70
     0
 62
    50
  6
CONTINUOUS
  0
LAYER
  5
6C
330
2
100
AcDbSymbolTableRecord
100
AcDbLayerTableRecord
  2
51
 70
     0
 62
    51
  6
CONTINUOUS
  0
LAYER
  5
6D
330
2
100
AcDbSymbolTableRecord
100
AcDbLayerTableRecord
  2
52
 70
     0
 62
    52
  6
CONTINUOUS
  0
LAYER
  5
6E
330
2
100
AcDbSymbolTableRecord
100
AcDbLayerTableRecord
  2
53
 70
     0
 62
    53
  6
CONTINUOUS
  0
LAYER
  5
6F
330
2
100
AcDbSymbolTableRecord
100
AcDbLayerTableRecord
  2
54
 70
     0
 62
    54
  6
CONTINUOUS
  0
LAYER
  5
70
330
2
100
AcDbSymbolTableRecord
100
AcDbLayerTableRecord
  2
55
 70
     0
 62
    55
  6
CONTINUOUS
  0
LAYER
  5
71
330
2
100
AcDbSymbolTableRecord
100
AcDbLayerTableRecord
  2
56
 70
     0
 62
    56
  6
CONTINUOUS
  0
LAYER
  5
72
330
2
100
AcDbSymbolTableRecord
100
AcDbLayerTableRecord
  2
57
 70
     0
 62
    57
  6
CONTINUOUS
  0
LAYER
  5
73
330
2
100
AcDbSymbolTableRecord
100
AcDbLayerTableRecord
  2
58
 70
     0
 62
    58
  6
CONTINUOUS
  0
LAYER
  5
74
330
2
100
AcDbSymbolTableRecord
100
AcDbLayerTableRecord
  2
59
 70
     0
 62
    59
  6
CONTINUOUS
  0
LAYER
  5
75
330
2
100
AcDbSymbolTableRecord
100
AcDbLayerTableRecord
  2
60
 70
     0
 62
    60
  6
CONTINUOUS
  0
LAYER
  5
76
330
2
100
AcDbSymbolTableRecord
100
AcDbLayerTableRecord
  2
61
 70
     0
 62
    61
  6
CONTINUOUS
  0
LAYER
  5
77
330
2
100
AcDbSymbolTableRecord
100
AcDbLayerTableRecord
  2
62
 70
     0
 62
    62
  6
CONTINUOUS
  0
LAYER
  5
78
330
2
100
AcDbSymbolTableRecord
100
AcDbLayerTableRecord
  2
63
 70
     0
 62
    63
  6
CONTINUOUS
  0
LAYER
  5
79
330
2
100
AcDbSymbolTableRecord
100
AcDbLayerTableRecord
  2
64
 70
     0
 62
    64
  6
CONTINUOUS
  0
LAYER
  5
7A
330
2
100
AcDbSymbolTableRecord
100
AcDbLayerTableRecord
  2
65
 70
     0
 62
    65
  6
CONTINUOUS
  0
LAYER
  5
7B
330
2
100
AcDbSymbolTableRecord
100
AcDbLayerTableRecord
  2
66
 70
     0
 62
    66
  6
CONTINUOUS
  0
LAYER
  5
7C
330
2
100
AcDbSymbolTableRecord
100
AcDbLayerTableRecord
  2
67
 70
     0
 62
    67
  6
CONTINUOUS
  0
LAYER
  5
7D
330
2
100
AcDbSymbolTableRecord
100
AcDbLayerTableRecord
  2
68
 70
     0
 62
    68
  6
CONTINUOUS
  0
LAYER
  5
7E
330
2
100
AcDbSymbolTableRecord
100
AcDbLayerTableRecord
  2
69
 70
     0
 62
    69
  6
CONTINUOUS
  0
LAYER
  5
7F
330
2
100
AcDbSymbolTableRecord
100
AcDbLayerTableRecord
  2
70
 70
     0
 62
    70
  6
CONTINUOUS
  0
LAYER
  5
80
330
2
100
AcDbSymbolTableRecord
100
AcDbLayerTableRecord
  2
71
 70
     0
 62
    71
  6
CONTINUOUS
  0
LAYER
  5
81
330
2
100
AcDbSymbolTableRecord
100
AcDbLayerTableRecord
  2
72
 70
     0
 62
    72
  6
CONTINUOUS
  0
LAYER
  5
82
330
2
100
AcDbSymbolTableRecord
100
AcDbLayerTableRecord
  2
73
 70
     0
 62
    73
  6
CONTINUOUS
  0
LAYER
  5
83
330
2
100
AcDbSymbolTableRecord
100
AcDbLayerTableRecord
  2
74
 70
     0
 62
    74
  6
CONTINUOUS
  0
LAYER
  5
84
330
2
100
AcDbSymbolTableRecord
100
AcDbLayerTableRecord
  2
75
 70
     0
 62
    75
  6
CONTINUOUS
  0
LAYER
  5
85
330
2
100
AcDbSymbolTableRecord
100
AcDbLayerTableRecord
  2
76
 70
     0
 62
    76
  6
CONTINUOUS
  0
LAYER
  5
86
330
2
100
AcDbSymbolTableRecord
100
AcDbLayerTableRecord
  2
77
 70
     0
 62
    77
  6
CONTINUOUS
  0
LAYER
  5
87
330
2
100
AcDbSymbolTableRecord
100
AcDbLayerTableRecord
  2
78
 70
     0
 62
    78
  6
CONTINUOUS
  0
LAYER
  5
88
330
2
100
AcDbSymbolTableRecord
100
AcDbLayerTableRecord
  2
79
 70
     0
 62
    79
  6
CONTINUOUS
  0
LAYER
  5
89
330
2
100
AcDbSymbolTableRecord
100
AcDbLayerTableRecord
  2
80
 70
     0
 62
    80
  6
CONTINUOUS
  0
LAYER
  5
8A
330
2
100
AcDbSymbolTableRecord
100
AcDbLayerTableRecord
  2
81
 70
     0
 62
    81
  6
CONTINUOUS
  0
LAYER
  5
8B
330
2
100
AcDbSymbolTableRecord
100
AcDbLayerTableRecord
  2
82
 70
     0
 62
    82
  6
CONTINUOUS
  0
LAYER
  5
8C
330
2
100
AcDbSymbolTableRecord
100
AcDbLayerTableRecord
  2
83
 70
     0
 62
    83
  6
CONTINUOUS
  0
LAYER
  5
8D
330
2
100
AcDbSymbolTableRecord
100
AcDbLayerTableRecord
  2
84
 70
     0
 62
    84
  6
CONTINUOUS
  0
LAYER
  5
8E
330
2
100
AcDbSymbolTableRecord
100
AcDbLayerTableRecord
  2
85
 70
     0
 62
    85
  6
CONTINUOUS
  0
LAYER
  5
8F
330
2
100
AcDbSymbolTableRecord
100
AcDbLayerTableRecord
  2
86
 70
     0
 62
    86
  6
CONTINUOUS
  0
LAYER
  5
90
330
2
100
AcDbSymbolTableRecord
100
AcDbLayerTableRecord
  2
87
 70
     0
 62
    87
  6
CONTINUOUS
  0
LAYER
  5
91
330
2
100
AcDbSymbolTableRecord
100
AcDbLayerTableRecord
  2
88
 70
     0
 62
    88
  6
CONTINUOUS
  0
LAYER
  5
92
330
2
100
AcDbSymbolTableRecord
100
AcDbLayerTableRecord
  2
89
 70
     0
 62
    89
  6
CONTINUOUS
  0
LAYER
  5
93
330
2
100
AcDbSymbolTableRecord
100
AcDbLayerTableRecord
  2
90
 70
     0
 62
    90
  6
CONTINUOUS
  0
LAYER
  5
94
330
2
100
AcDbSymbolTableRecord
100
AcDbLayerTableRecord
  2
91
 70
     0
 62
    91
  6
CONTINUOUS
  0
LAYER
  5
95
330
2
100
AcDbSymbolTableRecord
100
AcDbLayerTableRecord
  2
92
 70
     0
 62
    92
  6
CONTINUOUS
  0
LAYER
  5
96
330
2
100
AcDbSymbolTableRecord
100
AcDbLayerTableRecord
  2
93
 70
     0
 62
    93
  6
CONTINUOUS
  0
LAYER
  5
97
330
2
100
AcDbSymbolTableRecord
100
AcDbLayerTableRecord
  2
94
 70
     0
 62
    94
  6
CONTINUOUS
  0
LAYER
  5
98
330
2
100
AcDbSymbolTableRecord
100
AcDbLayerTableRecord
  2
95
 70
     0
 62
    95
  6
CONTINUOUS
  0
LAYER
  5
99
330
2
100
AcDbSymbolTableRecord
100
AcDbLayerTableRecord
  2
96
 70
     0
 62
    96
  6
CONTINUOUS
  0
LAYER
  5
9A
330
2
100
AcDbSymbolTableRecord
100
AcDbLayerTableRecord
  2
97
 70
     0
 62
    97
  6
CONTINUOUS
  0
LAYER
  5
9B
330
2
100
AcDbSymbolTableRecord
100
AcDbLayerTableRecord
  2
98
 70
     0
 62
    98
  6
CONTINUOUS
  0
LAYER
  5
9C
330
2
100
AcDbSymbolTableRecord
100
AcDbLayerTableRecord
  2
99
 70
     0
 62
    99
  6
CONTINUOUS
  0
LAYER
  5
9D
330
2
100
AcDbSymbolTableRecord
100
AcDbLayerTableRecord
  2
100
 70
     0
 62
   100
  6
CONTINUOUS
  0
LAYER
  5
9E
330
2
100
AcDbSymbolTableRecord
100
AcDbLayerTableRecord
  2
101
 70
     0
 62
   101
  6
CONTINUOUS
  0
LAYER
  5
9F
330
2
100
AcDbSymbolTableRecord
100
AcDbLayerTableRecord
  2
102
 70
     0
 62
   102
  6
CONTINUOUS
  0
LAYER
  5
A0
330
2
100
AcDbSymbolTableRecord
100
AcDbLayerTableRecord
  2
103
 70
     0
 62
   103
  6
CONTINUOUS
  0
LAYER
  5
A1
330
2
100
AcDbSymbolTableRecord
100
AcDbLayerTableRecord
  2
104
 70
     0
 62
   104
  6
CONTINUOUS
  0
LAYER
  5
A2
330
2
100
AcDbSymbolTableRecord
100
AcDbLayerTableRecord
  2
105
 70
     0
 62
   105
  6
CONTINUOUS
  0
LAYER
  5
A3
330
2
100
AcDbSymbolTableRecord
100
AcDbLayerTableRecord
  2
106
 70
     0
 62
   106
  6
CONTINUOUS
  0
LAYER
  5
A4
330
2
100
AcDbSymbolTableRecord
100
AcDbLayerTableRecord
  2
107
 70
     0
 62
   107
  6
CONTINUOUS
  0
LAYER
  5
A5
330
2
100
AcDbSymbolTableRecord
100
AcDbLayerTableRecord
  2
108
 70
     0
 62
   108
  6
CONTINUOUS
  0
LAYER
  5
A6
330
2
100
AcDbSymbolTableRecord
100
AcDbLayerTableRecord
  2
109
 70
     0
 62
   109
  6
CONTINUOUS
  0
LAYER
  5
A7
330
2
100
AcDbSymbolTableRecord
100
AcDbLayerTableRecord
  2
110
 70
     0
 62
   110
  6
CONTINUOUS
  0
LAYER
  5
A8
330
2
100
AcDbSymbolTableRecord
100
AcDbLayerTableRecord
  2
111
 70
     0
 62
   111
  6
CONTINUOUS
  0
LAYER
  5
A9
330
2
100
AcDbSymbolTableRecord
100
AcDbLayerTableRecord
  2
112
 70
     0
 62
   112
  6
CONTINUOUS
  0
LAYER
  5
AA
330
2
100
AcDbSymbolTableRecord
100
AcDbLayerTableRecord
  2
113
 70
     0
 62
   113
  6
CONTINUOUS
  0
LAYER
  5
AB
330
2
100
AcDbSymbolTableRecord
100
AcDbLayerTableRecord
  2
114
 70
     0
 62
   114
  6
CONTINUOUS
  0
LAYER
  5
AC
330
2
100
AcDbSymbolTableRecord
100
AcDbLayerTableRecord
  2
115
 70
     0
 62
   115
  6
CONTINUOUS
  0
LAYER
  5
AD
330
2
100
AcDbSymbolTableRecord
100
AcDbLayerTableRecord
  2
116
 70
     0
 62
   116
  6
CONTINUOUS
  0
LAYER
  5
AE
330
2
100
AcDbSymbolTableRecord
100
AcDbLayerTableRecord
  2
117
 70
     0
 62
   117
  6
CONTINUOUS
  0
LAYER
  5
AF
330
2
100
AcDbSymbolTableRecord
100
AcDbLayerTableRecord
  2
118
 70
     0
 62
   118
  6
CONTINUOUS
  0
LAYER
  5
B0
330
2
100
AcDbSymbolTableRecord
100
AcDbLayerTableRecord
  2
119
 70
     0
 62
   119
  6
CONTINUOUS
  0
LAYER
  5
B1
330
2
100
AcDbSymbolTableRecord
100
AcDbLayerTableRecord
  2
120
 70
     0
 62
   120
  6
CONTINUOUS
  0
LAYER
  5
B2
330
2
100
AcDbSymbolTableRecord
100
AcDbLayerTableRecord
  2
121
 70
     0
 62
   121
  6
CONTINUOUS
  0
LAYER
  5
B3
330
2
100
AcDbSymbolTableRecord
100
AcDbLayerTableRecord
  2
122
 70
     0
 62
   122
  6
CONTINUOUS
  0
LAYER
  5
B4
330
2
100
AcDbSymbolTableRecord
100
AcDbLayerTableRecord
  2
123
 70
     0
 62
   123
  6
CONTINUOUS
  0
LAYER
  5
B5
330
2
100
AcDbSymbolTableRecord
100
AcDbLayerTableRecord
  2
124
 70
     0
 62
   124
  6
CONTINUOUS
  0
LAYER
  5
B6
330
2
100
AcDbSymbolTableRecord
100
AcDbLayerTableRecord
  2
125
 70
     0
 62
   125
  6
CONTINUOUS
  0
LAYER
  5
B7
330
2
100
AcDbSymbolTableRecord
100
AcDbLayerTableRecord
  2
126
 70
     0
 62
   126
  6
CONTINUOUS
  0
LAYER
  5
B8
330
2
100
AcDbSymbolTableRecord
100
AcDbLayerTableRecord
  2
127
 70
     0
 62
   127
  6
CONTINUOUS
  0
LAYER
  5
B9
330
2
100
AcDbSymbolTableRecord
100
AcDbLayerTableRecord
  2
128
 70
     0
 62
   128
  6
CONTINUOUS
  0
LAYER
  5
BA
330
2
100
AcDbSymbolTableRecord
100
AcDbLayerTableRecord
  2
129
 70
     0
 62
   129
  6
CONTINUOUS
  0
LAYER
  5
BB
330
2
100
AcDbSymbolTableRecord
100
AcDbLayerTableRecord
  2
130
 70
     0
 62
   130
  6
CONTINUOUS
  0
LAYER
  5
BC
330
2
100
AcDbSymbolTableRecord
100
AcDbLayerTableRecord
  2
131
 70
     0
 62
   131
  6
CONTINUOUS
  0
LAYER
  5
BD
330
2
100
AcDbSymbolTableRecord
100
AcDbLayerTableRecord
  2
132
 70
     0
 62
   132
  6
CONTINUOUS
  0
LAYER
  5
BE
330
2
100
AcDbSymbolTableRecord
100
AcDbLayerTableRecord
  2
133
 70
     0
 62
   133
  6
CONTINUOUS
  0
LAYER
  5
BF
330
2
100
AcDbSymbolTableRecord
100
AcDbLayerTableRecord
  2
134
 70
     0
 62
   134
  6
CONTINUOUS
  0
LAYER
  5
C0
330
2
100
AcDbSymbolTableRecord
100
AcDbLayerTableRecord
  2
135
 70
     0
 62
   135
  6
CONTINUOUS
  0
LAYER
  5
C1
330
2
100
AcDbSymbolTableRecord
100
AcDbLayerTableRecord
  2
136
 70
     0
 62
   136
  6
CONTINUOUS
  0
LAYER
  5
C2
330
2
100
AcDbSymbolTableRecord
100
AcDbLayerTableRecord
  2
137
 70
     0
 62
   137
  6
CONTINUOUS
  0
LAYER
  5
C3
330
2
100
AcDbSymbolTableRecord
100
AcDbLayerTableRecord
  2
138
 70
     0
 62
   138
  6
CONTINUOUS
  0
LAYER
  5
C4
330
2
100
AcDbSymbolTableRecord
100
AcDbLayerTableRecord
  2
139
 70
     0
 62
   139
  6
CONTINUOUS
  0
LAYER
  5
C5
330
2
100
AcDbSymbolTableRecord
100
AcDbLayerTableRecord
  2
140
 70
     0
 62
   140
  6
CONTINUOUS
  0
LAYER
  5
C6
330
2
100
AcDbSymbolTableRecord
100
AcDbLayerTableRecord
  2
141
 70
     0
 62
   141
  6
CONTINUOUS
  0
LAYER
  5
C7
330
2
100
AcDbSymbolTableRecord
100
AcDbLayerTableRecord
  2
142
 70
     0
 62
   142
  6
CONTINUOUS
  0
LAYER
  5
C8
330
2
100
AcDbSymbolTableRecord
100
AcDbLayerTableRecord
  2
143
 70
     0
 62
   143
  6
CONTINUOUS
  0
LAYER
  5
C9
330
2
100
AcDbSymbolTableRecord
100
AcDbLayerTableRecord
  2
144
 70
     0
 62
   144
  6
CONTINUOUS
  0
LAYER
  5
CA
330
2
100
AcDbSymbolTableRecord
100
AcDbLayerTableRecord
  2
145
 70
     0
 62
   145
  6
CONTINUOUS
  0
LAYER
  5
CB
330
2
100
AcDbSymbolTableRecord
100
AcDbLayerTableRecord
  2
146
 70
     0
 62
   146
  6
CONTINUOUS
  0
LAYER
  5
CC
330
2
100
AcDbSymbolTableRecord
100
AcDbLayerTableRecord
  2
147
 70
     0
 62
   147
  6
CONTINUOUS
  0
LAYER
  5
CD
330
2
100
AcDbSymbolTableRecord
100
AcDbLayerTableRecord
  2
148
 70
     0
 62
   148
  6
CONTINUOUS
  0
LAYER
  5
CE
330
2
100
AcDbSymbolTableRecord
100
AcDbLayerTableRecord
  2
149
 70
     0
 62
   149
  6
CONTINUOUS
  0
LAYER
  5
CF
330
2
100
AcDbSymbolTableRecord
100
AcDbLayerTableRecord
  2
150
 70
     0
 62
   150
  6
CONTINUOUS
  0
LAYER
  5
D0
330
2
100
AcDbSymbolTableRecord
100
AcDbLayerTableRecord
  2
151
 70
     0
 62
   151
  6
CONTINUOUS
  0
LAYER
  5
D1
330
2
100
AcDbSymbolTableRecord
100
AcDbLayerTableRecord
  2
152
 70
     0
 62
   152
  6
CONTINUOUS
  0
LAYER
  5
D2
330
2
100
AcDbSymbolTableRecord
100
AcDbLayerTableRecord
  2
153
 70
     0
 62
   153
  6
CONTINUOUS
  0
LAYER
  5
D3
330
2
100
AcDbSymbolTableRecord
100
AcDbLayerTableRecord
  2
154
 70
     0
 62
   154
  6
CONTINUOUS
  0
LAYER
  5
D4
330
2
100
AcDbSymbolTableRecord
100
AcDbLayerTableRecord
  2
155
 70
     0
 62
   155
  6
CONTINUOUS
  0
LAYER
  5
D5
330
2
100
AcDbSymbolTableRecord
100
AcDbLayerTableRecord
  2
156
 70
     0
 62
   156
  6
CONTINUOUS
  0
LAYER
  5
D6
330
2
100
AcDbSymbolTableRecord
100
AcDbLayerTableRecord
  2
157
 70
     0
 62
   157
  6
CONTINUOUS
  0
LAYER
  5
D7
330
2
100
AcDbSymbolTableRecord
100
AcDbLayerTableRecord
  2
158
 70
     0
 62
   158
  6
CONTINUOUS
  0
LAYER
  5
D8
330
2
100
AcDbSymbolTableRecord
100
AcDbLayerTableRecord
  2
159
 70
     0
 62
   159
  6
CONTINUOUS
  0
LAYER
  5
D9
330
2
100
AcDbSymbolTableRecord
100
AcDbLayerTableRecord
  2
160
 70
     0
 62
   160
  6
CONTINUOUS
  0
LAYER
  5
DA
330
2
100
AcDbSymbolTableRecord
100
AcDbLayerTableRecord
  2
161
 70
     0
 62
   161
  6
CONTINUOUS
  0
LAYER
  5
DB
330
2
100
AcDbSymbolTableRecord
100
AcDbLayerTableRecord
  2
162
 70
     0
 62
   162
  6
CONTINUOUS
  0
LAYER
  5
DC
330
2
100
AcDbSymbolTableRecord
100
AcDbLayerTableRecord
  2
163
 70
     0
 62
   163
  6
CONTINUOUS
  0
LAYER
  5
DD
330
2
100
AcDbSymbolTableRecord
100
AcDbLayerTableRecord
  2
164
 70
     0
 62
   164
  6
CONTINUOUS
  0
LAYER
  5
DE
330
2
100
AcDbSymbolTableRecord
100
AcDbLayerTableRecord
  2
165
 70
     0
 62
   165
  6
CONTINUOUS
  0
LAYER
  5
DF
330
2
100
AcDbSymbolTableRecord
100
AcDbLayerTableRecord
  2
166
 70
     0
 62
   166
  6
CONTINUOUS
  0
LAYER
  5
E0
330
2
100
AcDbSymbolTableRecord
100
AcDbLayerTableRecord
  2
167
 70
     0
 62
   167
  6
CONTINUOUS
  0
LAYER
  5
E1
330
2
100
AcDbSymbolTableRecord
100
AcDbLayerTableRecord
  2
168
 70
     0
 62
   168
  6
CONTINUOUS
  0
LAYER
  5
E2
330
2
100
AcDbSymbolTableRecord
100
AcDbLayerTableRecord
  2
169
 70
     0
 62
   169
  6
CONTINUOUS
  0
LAYER
  5
E3
330
2
100
AcDbSymbolTableRecord
100
AcDbLayerTableRecord
  2
170
 70
     0
 62
   170
  6
CONTINUOUS
  0
LAYER
  5
E4
330
2
100
AcDbSymbolTableRecord
100
AcDbLayerTableRecord
  2
171
 70
     0
 62
   171
  6
CONTINUOUS
  0
LAYER
  5
E5
330
2
100
AcDbSymbolTableRecord
100
AcDbLayerTableRecord
  2
172
 70
     0
 62
   172
  6
CONTINUOUS
  0
LAYER
  5
E6
330
2
100
AcDbSymbolTableRecord
100
AcDbLayerTableRecord
  2
173
 70
     0
 62
   173
  6
CONTINUOUS
  0
LAYER
  5
E7
330
2
100
AcDbSymbolTableRecord
100
AcDbLayerTableRecord
  2
174
 70
     0
 62
   174
  6
CONTINUOUS
  0
LAYER
  5
E8
330
2
100
AcDbSymbolTableRecord
100
AcDbLayerTableRecord
  2
175
 70
     0
 62
   175
  6
CONTINUOUS
  0
LAYER
  5
E9
330
2
100
AcDbSymbolTableRecord
100
AcDbLayerTableRecord
  2
176
 70
     0
 62
   176
  6
CONTINUOUS
  0
LAYER
  5
EA
330
2
100
AcDbSymbolTableRecord
100
AcDbLayerTableRecord
  2
177
 70
     0
 62
   177
  6
CONTINUOUS
  0
LAYER
  5
EB
330
2
100
AcDbSymbolTableRecord
100
AcDbLayerTableRecord
  2
178
 70
     0
 62
   178
  6
CONTINUOUS
  0
LAYER
  5
EC
330
2
100
AcDbSymbolTableRecord
100
AcDbLayerTableRecord
  2
179
 70
     0
 62
   179
  6
CONTINUOUS
  0
LAYER
  5
ED
330
2
100
AcDbSymbolTableRecord
100
AcDbLayerTableRecord
  2
180
 70
     0
 62
   180
  6
CONTINUOUS
  0
LAYER
  5
EE
330
2
100
AcDbSymbolTableRecord
100
AcDbLayerTableRecord
  2
181
 70
     0
 62
   181
  6
CONTINUOUS
  0
LAYER
  5
EF
330
2
100
AcDbSymbolTableRecord
100
AcDbLayerTableRecord
  2
182
 70
     0
 62
   182
  6
CONTINUOUS
  0
LAYER
  5
F0
330
2
100
AcDbSymbolTableRecord
100
AcDbLayerTableRecord
  2
183
 70
     0
 62
   183
  6
CONTINUOUS
  0
LAYER
  5
F1
330
2
100
AcDbSymbolTableRecord
100
AcDbLayerTableRecord
  2
184
 70
     0
 62
   184
  6
CONTINUOUS
  0
LAYER
  5
F2
330
2
100
AcDbSymbolTableRecord
100
AcDbLayerTableRecord
  2
185
 70
     0
 62
   185
  6
CONTINUOUS
  0
LAYER
  5
F3
330
2
100
AcDbSymbolTableRecord
100
AcDbLayerTableRecord
  2
186
 70
     0
 62
   186
  6
CONTINUOUS
  0
LAYER
  5
F4
330
2
100
AcDbSymbolTableRecord
100
AcDbLayerTableRecord
  2
187
 70
     0
 62
   187
  6
CONTINUOUS
  0
LAYER
  5
F5
330
2
100
AcDbSymbolTableRecord
100
AcDbLayerTableRecord
  2
188
 70
     0
 62
   188
  6
CONTINUOUS
  0
LAYER
  5
F6
330
2
100
AcDbSymbolTableRecord
100
AcDbLayerTableRecord
  2
189
 70
     0
 62
   189
  6
CONTINUOUS
  0
LAYER
  5
F7
330
2
100
AcDbSymbolTableRecord
100
AcDbLayerTableRecord
  2
190
 70
     0
 62
   190
  6
CONTINUOUS
  0
LAYER
  5
F8
330
2
100
AcDbSymbolTableRecord
100
AcDbLayerTableRecord
  2
191
 70
     0
 62
   191
  6
CONTINUOUS
  0
LAYER
  5
F9
330
2
100
AcDbSymbolTableRecord
100
AcDbLayerTableRecord
  2
192
 70
     0
 62
   192
  6
CONTINUOUS
  0
LAYER
  5
FA
330
2
100
AcDbSymbolTableRecord
100
AcDbLayerTableRecord
  2
193
 70
     0
 62
   193
  6
CONTINUOUS
  0
LAYER
  5
FB
330
2
100
AcDbSymbolTableRecord
100
AcDbLayerTableRecord
  2
194
 70
     0
 62
   194
  6
CONTINUOUS
  0
LAYER
  5
FC
330
2
100
AcDbSymbolTableRecord
100
AcDbLayerTableRecord
  2
195
 70
     0
 62
   195
  6
CONTINUOUS
  0
LAYER
  5
FD
330
2
100
AcDbSymbolTableRecord
100
AcDbLayerTableRecord
  2
196
 70
     0
 62
   196
  6
CONTINUOUS
  0
LAYER
  5
FE
330
2
100
AcDbSymbolTableRecord
100
AcDbLayerTableRecord
  2
197
 70
     0
 62
   197
  6
CONTINUOUS
  0
LAYER
  5
FF
330
2
100
AcDbSymbolTableRecord
100
AcDbLayerTableRecord
  2
198
 70
     0
 62
   198
  6
CONTINUOUS
  0
LAYER
  5
100
330
2
100
AcDbSymbolTableRecord
100
AcDbLayerTableRecord
  2
199
 70
     0
 62
   199
  6
CONTINUOUS
  0
LAYER
  5
101
330
2
100
AcDbSymbolTableRecord
100
AcDbLayerTableRecord
  2
200
 70
     0
 62
   200
  6
CONTINUOUS
  0
LAYER
  5
102
330
2
100
AcDbSymbolTableRecord
100
AcDbLayerTableRecord
  2
201
 70
     0
 62
   201
  6
CONTINUOUS
  0
LAYER
  5
103
330
2
100
AcDbSymbolTableRecord
100
AcDbLayerTableRecord
  2
202
 70
     0
 62
   202
  6
CONTINUOUS
  0
LAYER
  5
104
330
2
100
AcDbSymbolTableRecord
100
AcDbLayerTableRecord
  2
203
 70
     0
 62
   203
  6
CONTINUOUS
  0
LAYER
  5
105
330
2
100
AcDbSymbolTableRecord
100
AcDbLayerTableRecord
  2
204
 70
     0
 62
   204
  6
CONTINUOUS
  0
LAYER
  5
106
330
2
100
AcDbSymbolTableRecord
100
AcDbLayerTableRecord
  2
205
 70
     0
 62
   205
  6
CONTINUOUS
  0
LAYER
  5
107
330
2
100
AcDbSymbolTableRecord
100
AcDbLayerTableRecord
  2
206
 70
     0
 62
   206
  6
CONTINUOUS
  0
LAYER
  5
108
330
2
100
AcDbSymbolTableRecord
100
AcDbLayerTableRecord
  2
207
 70
     0
 62
   207
  6
CONTINUOUS
  0
LAYER
  5
109
330
2
100
AcDbSymbolTableRecord
100
AcDbLayerTableRecord
  2
208
 70
     0
 62
   208
  6
CONTINUOUS
  0
LAYER
  5
10A
330
2
100
AcDbSymbolTableRecord
100
AcDbLayerTableRecord
  2
209
 70
     0
 62
   209
  6
CONTINUOUS
  0
LAYER
  5
10B
330
2
100
AcDbSymbolTableRecord
100
AcDbLayerTableRecord
  2
210
 70
     0
 62
   210
  6
CONTINUOUS
  0
LAYER
  5
10C
330
2
100
AcDbSymbolTableRecord
100
AcDbLayerTableRecord
  2
211
 70
     0
 62
   211
  6
CONTINUOUS
  0
LAYER
  5
10D
330
2
100
AcDbSymbolTableRecord
100
AcDbLayerTableRecord
  2
212
 70
     0
 62
   212
  6
CONTINUOUS
  0
LAYER
  5
10E
330
2
100
AcDbSymbolTableRecord
100
AcDbLayerTableRecord
  2
213
 70
     0
 62
   213
  6
CONTINUOUS
  0
LAYER
  5
10F
330
2
100
AcDbSymbolTableRecord
100
AcDbLayerTableRecord
  2
214
 70
     0
 62
   214
  6
CONTINUOUS
  0
LAYER
  5
110
330
2
100
AcDbSymbolTableRecord
100
AcDbLayerTableRecord
  2
215
 70
     0
 62
   215
  6
CONTINUOUS
  0
LAYER
  5
111
330
2
100
AcDbSymbolTableRecord
100
AcDbLayerTableRecord
  2
216
 70
     0
 62
   216
  6
CONTINUOUS
  0
LAYER
  5
112
330
2
100
AcDbSymbolTableRecord
100
AcDbLayerTableRecord
  2
217
 70
     0
 62
   217
  6
CONTINUOUS
  0
LAYER
  5
113
330
2
100
AcDbSymbolTableRecord
100
AcDbLayerTableRecord
  2
218
 70
     0
 62
   218
  6
CONTINUOUS
  0
LAYER
  5
114
330
2
100
AcDbSymbolTableRecord
100
AcDbLayerTableRecord
  2
219
 70
     0
 62
   219
  6
CONTINUOUS
  0
LAYER
  5
115
330
2
100
AcDbSymbolTableRecord
100
AcDbLayerTableRecord
  2
220
 70
     0
 62
   220
  6
CONTINUOUS
  0
LAYER
  5
116
330
2
100
AcDbSymbolTableRecord
100
AcDbLayerTableRecord
  2
221
 70
     0
 62
   221
  6
CONTINUOUS
  0
LAYER
  5
117
330
2
100
AcDbSymbolTableRecord
100
AcDbLayerTableRecord
  2
222
 70
     0
 62
   222
  6
CONTINUOUS
  0
LAYER
  5
118
330
2
100
AcDbSymbolTableRecord
100
AcDbLayerTableRecord
  2
223
 70
     0
 62
   223
  6
CONTINUOUS
  0
LAYER
  5
119
330
2
100
AcDbSymbolTableRecord
100
AcDbLayerTableRecord
  2
224
 70
     0
 62
   224
  6
CONTINUOUS
  0
LAYER
  5
11A
330
2
100
AcDbSymbolTableRecord
100
AcDbLayerTableRecord
  2
225
 70
     0
 62
   225
  6
CONTINUOUS
  0
LAYER
  5
11B
330
2
100
AcDbSymbolTableRecord
100
AcDbLayerTableRecord
  2
226
 70
     0
 62
   226
  6
CONTINUOUS
  0
LAYER
  5
11C
330
2
100
AcDbSymbolTableRecord
100
AcDbLayerTableRecord
  2
227
 70
     0
 62
   227
  6
CONTINUOUS
  0
LAYER
  5
11D
330
2
100
AcDbSymbolTableRecord
100
AcDbLayerTableRecord
  2
228
 70
     0
 62
   228
  6
CONTINUOUS
  0
LAYER
  5
11E
330
2
100
AcDbSymbolTableRecord
100
AcDbLayerTableRecord
  2
229
 70
     0
 62
   229
  6
CONTINUOUS
  0
LAYER
  5
11F
330
2
100
AcDbSymbolTableRecord
100
AcDbLayerTableRecord
  2
230
 70
     0
 62
   230
  6
CONTINUOUS
  0
LAYER
  5
120
330
2
100
AcDbSymbolTableRecord
100
AcDbLayerTableRecord
  2
231
 70
     0
 62
   231
  6
CONTINUOUS
  0
LAYER
  5
121
330
2
100
AcDbSymbolTableRecord
100
AcDbLayerTableRecord
  2
232
 70
     0
 62
   232
  6
CONTINUOUS
  0
LAYER
  5
122
330
2
100
AcDbSymbolTableRecord
100
AcDbLayerTableRecord
  2
233
 70
     0
 62
   233
  6
CONTINUOUS
  0
LAYER
  5
123
330
2
100
AcDbSymbolTableRecord
100
AcDbLayerTableRecord
  2
234
 70
     0
 62
   234
  6
CONTINUOUS
  0
LAYER
  5
124
330
2
100
AcDbSymbolTableRecord
100
AcDbLayerTableRecord
  2
235
 70
     0
 62
   235
  6
CONTINUOUS
  0
LAYER
  5
125
330
2
100
AcDbSymbolTableRecord
100
AcDbLayerTableRecord
  2
236
 70
     0
 62
   236
  6
CONTINUOUS
  0
LAYER
  5
126
330
2
100
AcDbSymbolTableRecord
100
AcDbLayerTableRecord
  2
237
 70
     0
 62
   237
  6
CONTINUOUS
  0
LAYER
  5
127
330
2
100
AcDbSymbolTableRecord
100
AcDbLayerTableRecord
  2
238
 70
     0
 62
   238
  6
CONTINUOUS
  0
LAYER
  5
128
330
2
100
AcDbSymbolTableRecord
100
AcDbLayerTableRecord
  2
239
 70
     0
 62
   239
  6
CONTINUOUS
  0
LAYER
  5
129
330
2
100
AcDbSymbolTableRecord
100
AcDbLayerTableRecord
  2
240
 70
     0
 62
   240
  6
CONTINUOUS
  0
LAYER
  5
12A
330
2
100
AcDbSymbolTableRecord
100
AcDbLayerTableRecord
  2
241
 70
     0
 62
   241
  6
CONTINUOUS
  0
LAYER
  5
12B
330
2
100
AcDbSymbolTableRecord
100
AcDbLayerTableRecord
  2
242
 70
     0
 62
   242
  6
CONTINUOUS
  0
LAYER
  5
12C
330
2
100
AcDbSymbolTableRecord
100
AcDbLayerTableRecord
  2
243
 70
     0
 62
   243
  6
CONTINUOUS
  0
LAYER
  5
12D
330
2
100
AcDbSymbolTableRecord
100
AcDbLayerTableRecord
  2
244
 70
     0
 62
   244
  6
CONTINUOUS
  0
LAYER
  5
12E
330
2
100
AcDbSymbolTableRecord
100
AcDbLayerTableRecord
  2
245
 70
     0
 62
   245
  6
CONTINUOUS
  0
LAYER
  5
12F
330
2
100
AcDbSymbolTableRecord
100
AcDbLayerTableRecord
  2
246
 70
     0
 62
   246
  6
CONTINUOUS
  0
LAYER
  5
130
330
2
100
AcDbSymbolTableRecord
100
AcDbLayerTableRecord
  2
247
 70
     0
 62
   247
  6
CONTINUOUS
  0
LAYER
  5
131
330
2
100
AcDbSymbolTableRecord
100
AcDbLayerTableRecord
  2
248
 70
     0
 62
   248
  6
CONTINUOUS
  0
LAYER
  5
132
330
2
100
AcDbSymbolTableRecord
100
AcDbLayerTableRecord
  2
249
 70
     0
 62
   249
  6
CONTINUOUS
  0
LAYER
  5
133
330
2
100
AcDbSymbolTableRecord
100
AcDbLayerTableRecord
  2
250
 70
     0
 62
   250
  6
CONTINUOUS
  0
LAYER
  5
134
330
2
100
AcDbSymbolTableRecord
100
AcDbLayerTableRecord
  2
251
 70
     0
 62
   251
  6
CONTINUOUS
  0
LAYER
  5
135
330
2
100
AcDbSymbolTableRecord
100
AcDbLayerTableRecord
  2
252
 70
     0
 62
   252
  6
CONTINUOUS
  0
LAYER
  5
136
330
2
100
AcDbSymbolTableRecord
100
AcDbLayerTableRecord
  2
253
 70
     0
 62
   253
  6
CONTINUOUS
  0
LAYER
  5
137
330
2
100
AcDbSymbolTableRecord
100
AcDbLayerTableRecord
  2
254
 70
     0
 62
   254
  6
CONTINUOUS
  0
LAYER
  5
138
330
2
100
AcDbSymbolTableRecord
100
AcDbLayerTableRecord
  2
255
 70
     0
 62
   255
  6
CONTINUOUS
  0
ENDTAB
  0
TABLE
  2
STYLE
  5
3
330
0
100
AcDbSymbolTable
 70
     1
  0
STYLE
  5
11
330
3
100
AcDbSymbolTableRecord
100
AcDbTextStyleTableRecord
  2
STANDARD
 70
     0
 40
0.0
 41
1.0
 50
0.0
 71
     0
 42
0.2
  3
txt
  4

  0
ENDTAB
  0
TABLE
  2
VIEW
  5
6
330
0
100
AcDbSymbolTable
 70
     0
  0
ENDTAB
  0
TABLE
  2
UCS
  5
7
330
0
100
AcDbSymbolTable
 70
     0
  0
ENDTAB
  0
TABLE
  2
APPID
  5
9
330
0
100
AcDbSymbolTable
 70
     1
  0
APPID
  5
12
330
9
100
AcDbSymbolTableRecord
100
AcDbRegAppTableRecord
  2
ACAD
 70
     0
  0
ENDTAB
  0
TABLE
  2
DIMSTYLE
  5
A
330
0
100
AcDbSymbolTable
 70
     1
  0
DIMSTYLE
105
1FD1
330
A
100
AcDbSymbolTableRecord
100
AcDbDimStyleTableRecord
  2
STANDARD
 70
     0
  3

  4

  5

  6

  7

 40
1.0
 41
0.18
 42
0.0625
 43
0.38
 44
0.18
 45
0.0
 46
0.0
 47
0.0
 48
0.0
140
0.18
141
0.09
142
0.0
143
25.4
144
1.0
145
0.0
146
1.0
147
0.09
 71
     0
 72
     0
 73
     1
 74
     1
 75
     0
 76
     0
 77
     0
 78
     0
170
     0
171
     2
172
     0
173
     0
174
     0
175
     0
176
     0
177
     0
178
     0
270
     2
271
     4
272
     4
273
     2
274
     2
340
11
275
     0
280
     0
281
     0
282
     0
283
     1
284
     0
285
     0
286
     0
287
     3
288
     0
  0
ENDTAB
  0
TABLE
  2
BLOCK_RECORD
  5
1
330
0
100
AcDbSymbolTable
 70
     0
  0
BLOCK_RECORD
  5
1E
102
{ACAD_XDICTIONARY
360
1FD8
102
}
330
1
100
AcDbSymbolTableRecord
100
AcDbBlockTableRecord
  2
*MODEL_SPACE
  0
BLOCK_RECORD
  5
1A
102
{ACAD_XDICTIONARY
360
1FD6
102
}
330
1
100
AcDbSymbolTableRecord
100
AcDbBlockTableRecord
  2
*PAPER_SPACE
  0
ENDTAB
  0
ENDSEC
  0
SECTION
  2
BLOCKS
  0
BLOCK
  5
13B
330
1E
100
AcDbEntity
  8
0
100
AcDbBlockBegin
  2
*MODEL_SPACE
 70
     0
 10
0.0
 20
0.0
 30
0.0
  3
*MODEL_SPACE
  1

  0
ENDBLK
  5
13C
330
1E
100
AcDbEntity
  8
0
100
AcDbBlockEnd
  0
BLOCK
  5
139
330
1A
100
AcDbEntity
 67
     1
  8
0
100
AcDbBlockBegin
  2
*PAPER_SPACE
 70
     0
 10
0.0
 20
0.0
 30
0.0
  3
*PAPER_SPACE
  1

  0
ENDBLK
  5
13A
330
1A
100
AcDbEntity
 67
     1
  8
0
100
AcDbBlockEnd
  0
ENDSEC
  0
SECTION
  2
ENTITIES
  0
LINE
  5
1E3C
330
1E
100
AcDbEntity
  8
0
100
AcDbLine
 10
3.035433070866141
 20
6.233195236964651
 30
0.0
 11
2.845472440944881
 21
6.233195236964651
 31
0.0
  0
POLYLINE
  5
1E3D
330
1E
100
AcDbEntity
  8
0
100
AcDb2dPolyline
 66
     1
 10
0.0
 20
0.0
 30
0.0
  0
VERTEX
  5
1FDA
330
1E3D
100
AcDbEntity
  8
0
100
AcDbVertex
100
AcDb2dVertex
 10
2.806102362204724
 20
5.484179488933155
 30
0.0
  0
VERTEX
  5
1FDB
330
1E3D
100
AcDbEntity
  8
0
100
AcDbVertex
100
AcDb2dVertex
 10
2.822834645669291
 20
5.484179488933155
 30
0.0
  0
VERTEX
  5
1FDC
330
1E3D
100
AcDbEntity
  8
0
100
AcDbVertex
100
AcDb2dVertex
 10
2.840551181102362
 20
5.484179488933155
 30
0.0
  0
SEQEND
  5
1FDD
330
1E3D
100
AcDbEntity
  8
0
  0
POLYLINE
  5
1E42
330
1E
100
AcDbEntity
  8
0
100
AcDb2dPolyline
 66
     1
 10
0.0
 20
0.0
 30
0.0
  0
VERTEX
  5
1FDE
330
1E42
100
AcDbEntity
  8
0
100
AcDbVertex
100
AcDb2dVertex
 10
2.806102362204724
 20
5.484179488933155
 30
0.0
  0
VERTEX
  5
1FDF
330
1E42
100
AcDbEntity
  8
0
100
AcDbVertex
100
AcDb2dVertex
 10
2.756889763779527
 20
5.484179488933155
 30
0.0
  0
VERTEX
  5
1FE0
330
1E42
100
AcDbEntity
  8
0
100
AcDbVertex
100
AcDb2dVertex
 10
2.711614173228346
 20
5.484179488933155
 30
0.0
  0
VERTEX
  5
1FE1
330
1E42
100
AcDbEntity
  8
0
100
AcDbVertex
100
AcDb2dVertex
 10
2.672244094488188
 20
5.484179488933155
 30
0.0
  0
VERTEX
  5
1FE2
330
1E42
100
AcDbEntity
  8
0
100
AcDbVertex
100
AcDb2dVertex
 10
2.639763779527558
 20
5.484179488933155
 30
0.0
  0
VERTEX
  5
1FE3
330
1E42
100
AcDbEntity
  8
0
100
AcDbVertex
100
AcDb2dVertex
 10
2.61515748031496
 20
5.484179488933155
 30
0.0
  0
VERTEX
  5
1FE4
330
1E42
100
AcDbEntity
  8
0
100
AcDbVertex
100
AcDb2dVertex
 10
2.600393700787401
 20
5.484179488933155
 30
0.0
  0
VERTEX
  5
1FE5
330
1E42
100
AcDbEntity
  8
0
100
AcDbVertex
100
AcDb2dVertex
 10
2.595472440944881
 20
5.484179488933155
 30
0.0
  0
SEQEND
  5
1FE6
330
1E42
100
AcDbEntity
  8
0
  0
LINE
  5
1E4C
330
1E
100
AcDbEntity
  8
0
100
AcDbLine
 10
3.363188976377952
 20
5.643628307830793
 30
0.0
 11
3.391732283464566
 21
5.642644055862289
 31
0.0
  0
LINE
  5
1E4D
330
1E
100
AcDbEntity
  8
0
100
AcDbLine
 10
3.364173228346456
 20
5.537329095232368
 30
0.0
 11
3.366141732283464
 21
5.537329095232368
 31
0.0
  0
LINE
  5
1E4E
330
1E
100
AcDbEntity
  8
0
100
AcDbLine
 10
3.366141732283464
 20
5.537329095232368
 30
0.0
 11
3.390748031496062
 21
5.608195236964651
 31
0.0
  0
LINE
  5
1E4F
330
1E
100
AcDbEntity
  8
0
100
AcDbLine
 10
3.390748031496062
 20
5.608195236964651
 30
0.0
 11
3.391732283464566
 21
5.612132244838667
 31
0.0
  0
LINE
  5
1E50
330
1E
100
AcDbEntity
  8
0
100
AcDbLine
 10
3.391732283464566
 20
5.612132244838667
 30
0.0
 11
3.391732283464566
 21
5.642644055862289
 31
0.0
  0
LINE
  5
1E51
330
1E
100
AcDbEntity
  8
0
100
AcDbLine
 10
2.518700787401574
 20
5.643628307830793
 30
0.0
 11
2.49015748031496
 21
5.642644055862289
 31
0.0
  0
LINE
  5
1E52
330
1E
100
AcDbEntity
  8
0
100
AcDbLine
 10
2.49015748031496
 20
5.642644055862289
 30
0.0
 11
2.49015748031496
 21
5.612132244838667
 31
0.0
  0
LINE
  5
1E53
330
1E
100
AcDbEntity
  8
0
100
AcDbLine
 10
2.49015748031496
 20
5.612132244838667
 30
0.0
 11
2.49015748031496
 21
5.608195236964651
 31
0.0
  0
LINE
  5
1E54
330
1E
100
AcDbEntity
  8
0
100
AcDbLine
 10
2.49015748031496
 20
5.608195236964651
 30
0.0
 11
2.514763779527558
 21
5.537329095232368
 31
0.0
  0
LINE
  5
1E55
330
1E
100
AcDbEntity
  8
0
100
AcDbLine
 10
2.516732283464566
 20
5.537329095232368
 30
0.0
 11
2.514763779527558
 21
5.537329095232368
 31
0.0
  0
LINE
  5
1E56
330
1E
100
AcDbEntity
  8
0
100
AcDbLine
 10
2.521653543307086
 20
5.827683425941029
 30
0.0
 11
2.571850393700787
 21
5.827683425941029
 31
0.0
  0
LINE
  5
1E57
330
1E
100
AcDbEntity
  8
0
100
AcDbLine
 10
2.776574803149606
 20
5.827683425941029
 30
0.0
 11
2.571850393700787
 21
5.827683425941029
 31
0.0
  0
LINE
  5
1E58
330
1E
100
AcDbEntity
  8
0
100
AcDbLine
 10
3.310039370078739
 20
5.827683425941029
 30
0.0
 11
3.104330708661417
 21
5.827683425941029
 31
0.0
  0
LINE
  5
1E59
330
1E
100
AcDbEntity
  8
0
100
AcDbLine
 10
3.310039370078739
 20
5.827683425941029
 30
0.0
 11
3.359251968503937
 21
5.827683425941029
 31
0.0
  0
LINE
  5
1E5A
330
1E
100
AcDbEntity
  8
0
100
AcDbLine
 10
3.359251968503937
 20
5.827683425941029
 30
0.0
 11
3.364173228346456
 21
5.537329095232368
 31
0.0
  0
POLYLINE
  5
1E5B
330
1E
100
AcDbEntity
  8
0
100
AcDb2dPolyline
 66
     1
 10
0.0
 20
0.0
 30
0.0
  0
VERTEX
  5
1FE7
330
1E5B
100
AcDbEntity
  8
0
100
AcDbVertex
100
AcDb2dVertex
 10
3.035433070866141
 20
6.233195236964651
 30
0.0
  0
VERTEX
  5
1FE8
330
1E5B
100
AcDbEntity
  8
0
100
AcDbVertex
100
AcDb2dVertex
 10
3.035433070866141
 20
6.227289725153627
 30
0.0
  0
VERTEX
  5
1FE9
330
1E5B
100
AcDbEntity
  8
0
100
AcDbVertex
100
AcDb2dVertex
 10
3.036417322834645
 20
6.213510197594573
 30
0.0
  0
VERTEX
  5
1FEA
330
1E5B
100
AcDbEntity
  8
0
100
AcDbVertex
100
AcDb2dVertex
 10
3.037401574803149
 20
6.193825158224494
 30
0.0
  0
SEQEND
  5
1FEB
330
1E5B
100
AcDbEntity
  8
0
  0
LINE
  5
1E61
330
1E
100
AcDbEntity
  8
0
100
AcDbLine
 10
3.037401574803149
 20
6.193825158224494
 30
0.0
 11
3.054133858267716
 21
5.874927520429218
 31
0.0
  0
LINE
  5
1E62
330
1E
100
AcDbEntity
  8
0
100
AcDbLine
 10
3.037401574803149
 20
6.193825158224494
 30
0.0
 11
2.843503937007874
 21
6.193825158224494
 31
0.0
  0
LINE
  5
1E63
330
1E
100
AcDbEntity
  8
0
100
AcDbLine
 10
2.826771653543307
 20
5.874927520429218
 30
0.0
 11
2.843503937007874
 21
6.193825158224494
 31
0.0
  0
POLYLINE
  5
1E64
330
1E
100
AcDbEntity
  8
0
100
AcDb2dPolyline
 66
     1
 10
0.0
 20
0.0
 30
0.0
  0
VERTEX
  5
1FEC
330
1E64
100
AcDbEntity
  8
0
100
AcDbVertex
100
AcDb2dVertex
 10
2.826771653543307
 20
5.874927520429218
 30
0.0
  0
VERTEX
  5
1FED
330
1E64
100
AcDbEntity
  8
0
100
AcDbVertex
100
AcDb2dVertex
 10
2.821850393700787
 20
5.856226733027643
 30
0.0
  0
VERTEX
  5
1FEE
330
1E64
100
AcDbEntity
  8
0
100
AcDbVertex
100
AcDb2dVertex
 10
2.811023622047244
 20
5.841462953500084
 30
0.0
  0
VERTEX
  5
1FEF
330
1E64
100
AcDbEntity
  8
0
100
AcDbVertex
100
AcDb2dVertex
 10
2.795275590551181
 20
5.831620433815045
 30
0.0
  0
VERTEX
  5
1FF0
330
1E64
100
AcDbEntity
  8
0
100
AcDbVertex
100
AcDb2dVertex
 10
2.776574803149606
 20
5.827683425941029
 30
0.0
  0
SEQEND
  5
1FF1
330
1E64
100
AcDbEntity
  8
0
  0
LINE
  5
1E6B
330
1E
100
AcDbEntity
  8
0
100
AcDbLine
 10
2.571850393700787
 20
5.827683425941029
 30
0.0
 11
2.566929133858267
 21
5.537329095232368
 31
0.0
  0
LINE
  5
1E6C
330
1E
100
AcDbEntity
  8
0
100
AcDbLine
 10
2.632874015748031
 20
5.537329095232368
 30
0.0
 11
2.566929133858267
 21
5.537329095232368
 31
0.0
  0
LINE
  5
1E6D
330
1E
100
AcDbEntity
  8
0
100
AcDbLine
 10
2.783464566929133
 20
5.643628307830793
 30
0.0
 11
2.64271653543307
 21
5.643628307830793
 31
0.0
  0
LINE
  5
1E6E
330
1E
100
AcDbEntity
  8
0
100
AcDbLine
 10
3.314960629921259
 20
5.537329095232368
 30
0.0
 11
2.793307086614173
 21
5.537329095232368
 31
0.0
  0
LINE
  5
1E6F
330
1E
100
AcDbEntity
  8
0
100
AcDbLine
 10
3.314960629921259
 20
5.537329095232368
 30
0.0
 11
3.310039370078739
 21
5.827683425941029
 31
0.0
  0
POLYLINE
  5
1E70
330
1E
100
AcDbEntity
  8
0
100
AcDb2dPolyline
 66
     1
 10
0.0
 20
0.0
 30
0.0
  0
VERTEX
  5
1FF2
330
1E70
100
AcDbEntity
  8
0
100
AcDbVertex
100
AcDb2dVertex
 10
3.104330708661417
 20
5.827683425941029
 30
0.0
  0
VERTEX
  5
1FF3
330
1E70
100
AcDbEntity
  8
0
100
AcDbVertex
100
AcDb2dVertex
 10
3.085629921259842
 20
5.831620433815045
 30
0.0
  0
VERTEX
  5
1FF4
330
1E70
100
AcDbEntity
  8
0
100
AcDbVertex
100
AcDb2dVertex
 10
3.069881889763779
 20
5.841462953500084
 30
0.0
  0
VERTEX
  5
1FF5
330
1E70
100
AcDbEntity
  8
0
100
AcDbVertex
100
AcDb2dVertex
 10
3.059055118110236
 20
5.856226733027643
 30
0.0
  0
VERTEX
  5
1FF6
330
1E70
100
AcDbEntity
  8
0
100
AcDbVertex
100
AcDb2dVertex
 10
3.054133858267716
 20
5.874927520429218
 30
0.0
  0
SEQEND
  5
1FF7
330
1E70
100
AcDbEntity
  8
0
  0
POLYLINE
  5
1E77
330
1E
100
AcDbEntity
  8
0
100
AcDb2dPolyline
 66
     1
 10
0.0
 20
0.0
 30
0.0
  0
VERTEX
  5
1FF8
330
1E77
100
AcDbEntity
  8
0
100
AcDbVertex
100
AcDb2dVertex
 10
2.843503937007874
 20
6.193825158224494
 30
0.0
  0
VERTEX
  5
1FF9
330
1E77
100
AcDbEntity
  8
0
100
AcDbVertex
100
AcDb2dVertex
 10
2.844488188976377
 20
6.213510197594573
 30
0.0
  0
VERTEX
  5
1FFA
330
1E77
100
AcDbEntity
  8
0
100
AcDbVertex
100
AcDb2dVertex
 10
2.845472440944881
 20
6.227289725153627
 30
0.0
  0
VERTEX
  5
1FFB
330
1E77
100
AcDbEntity
  8
0
100
AcDbVertex
100
AcDb2dVertex
 10
2.845472440944881
 20
6.233195236964651
 30
0.0
  0
SEQEND
  5
1FFC
330
1E77
100
AcDbEntity
  8
0
  0
LINE
  5
1E7D
330
1E
100
AcDbEntity
  8
0
100
AcDbLine
 10
2.516732283464566
 20
5.537329095232368
 30
0.0
 11
2.521653543307086
 21
5.827683425941029
 31
0.0
  0
LINE
  5
1E7E
330
1E
100
AcDbEntity
  8
0
100
AcDbLine
 10
3.074803149606299
 20
5.484179488933155
 30
0.0
 11
3.071850393700787
 21
5.537329095232368
 31
0.0
  0
POLYLINE
  5
1E7F
330
1E
100
AcDbEntity
  8
0
100
AcDb2dPolyline
 66
     1
 10
0.0
 20
0.0
 30
0.0
  0
VERTEX
  5
1FFD
330
1E7F
100
AcDbEntity
  8
0
100
AcDbVertex
100
AcDb2dVertex
 10
3.285433070866141
 20
5.484179488933155
 30
0.0
  0
VERTEX
  5
1FFE
330
1E7F
100
AcDbEntity
  8
0
100
AcDbVertex
100
AcDb2dVertex
 10
3.280511811023621
 20
5.484179488933155
 30
0.0
  0
VERTEX
  5
1FFF
330
1E7F
100
AcDbEntity
  8
0
100
AcDbVertex
100
AcDb2dVertex
 10
3.265748031496062
 20
5.484179488933155
 30
0.0
  0
VERTEX
  5
2000
330
1E7F
100
AcDbEntity
  8
0
100
AcDbVertex
100
AcDb2dVertex
 10
3.242125984251968
 20
5.484179488933155
 30
0.0
  0
VERTEX
  5
2001
330
1E7F
100
AcDbEntity
  8
0
100
AcDbVertex
100
AcDb2dVertex
 10
3.209645669291338
 20
5.484179488933155
 30
0.0
  0
VERTEX
  5
2002
330
1E7F
100
AcDbEntity
  8
0
100
AcDbVertex
100
AcDb2dVertex
 10
3.169291338582676
 20
5.484179488933155
 30
0.0
  0
VERTEX
  5
2003
330
1E7F
100
AcDbEntity
  8
0
100
AcDbVertex
100
AcDb2dVertex
 10
3.124015748031495
 20
5.484179488933155
 30
0.0
  0
VERTEX
  5
2004
330
1E7F
100
AcDbEntity
  8
0
100
AcDbVertex
100
AcDb2dVertex
 10
3.074803149606299
 20
5.484179488933155
 30
0.0
  0
SEQEND
  5
2005
330
1E7F
100
AcDbEntity
  8
0
  0
LINE
  5
1E89
330
1E
100
AcDbEntity
  8
0
100
AcDbLine
 10
3.310039370078739
 20
5.537329095232368
 30
0.0
 11
3.285433070866141
 21
5.484179488933155
 31
0.0
  0
LINE
  5
1E8A
330
1E
100
AcDbEntity
  8
0
100
AcDbLine
 10
2.809055118110236
 20
5.537329095232368
 30
0.0
 11
2.806102362204724
 21
5.484179488933155
 31
0.0
  0
LINE
  5
1E8B
330
1E
100
AcDbEntity
  8
0
100
AcDbLine
 10
2.595472440944881
 20
5.484179488933155
 30
0.0
 11
2.570866141732283
 21
5.537329095232368
 31
0.0
  0
POLYLINE
  5
1E8C
330
1E
100
AcDbEntity
  8
0
100
AcDb2dPolyline
 66
     1
 10
0.0
 20
0.0
 30
0.0
  0
VERTEX
  5
2006
330
1E8C
100
AcDbEntity
  8
0
100
AcDbVertex
100
AcDb2dVertex
 10
3.040354330708661
 20
5.484179488933155
 30
0.0
  0
VERTEX
  5
2007
330
1E8C
100
AcDbEntity
  8
0
100
AcDbVertex
100
AcDb2dVertex
 10
3.058070866141731
 20
5.484179488933155
 30
0.0
  0
VERTEX
  5
2008
330
1E8C
100
AcDbEntity
  8
0
100
AcDbVertex
100
AcDb2dVertex
 10
3.074803149606299
 20
5.484179488933155
 30
0.0
  0
SEQEND
  5
2009
330
1E8C
100
AcDbEntity
  8
0
  0
LINE
  5
1E91
330
1E
100
AcDbEntity
  8
0
100
AcDbLine
 10
2.840551181102362
 20
5.484179488933155
 30
0.0
 11
2.845472440944881
 21
5.537329095232368
 31
0.0
  0
LINE
  5
1E92
330
1E
100
AcDbEntity
  8
0
100
AcDbLine
 10
3.036417322834645
 20
5.537329095232368
 30
0.0
 11
3.040354330708661
 21
5.484179488933155
 31
0.0
  0
LINE
  5
1E93
330
1E
100
AcDbEntity
  8
0
100
AcDbLine
 10
3.364173228346456
 20
5.537329095232368
 30
0.0
 11
3.314960629921259
 21
5.537329095232368
 31
0.0
  0
LINE
  5
1E94
330
1E
100
AcDbEntity
  8
0
100
AcDbLine
 10
2.793307086614173
 20
5.537329095232368
 30
0.0
 11
2.632874015748031
 21
5.537329095232368
 31
0.0
  0
LINE
  5
1E95
330
1E
100
AcDbEntity
  8
0
100
AcDbLine
 10
2.566929133858267
 20
5.537329095232368
 30
0.0
 11
2.516732283464566
 21
5.537329095232368
 31
0.0
  0
LINE
  5
1E96
330
1E
100
AcDbEntity
  8
0
100
AcDbLine
 10
2.639763779527558
 20
5.612132244838667
 30
0.0
 11
2.64271653543307
 21
5.642644055862289
 31
0.0
  0
LINE
  5
1E97
330
1E
100
AcDbEntity
  8
0
100
AcDbLine
 10
2.639763779527558
 20
5.612132244838667
 30
0.0
 11
2.786417322834645
 21
5.612132244838667
 31
0.0
  0
LINE
  5
1E98
330
1E
100
AcDbEntity
  8
0
100
AcDbLine
 10
2.783464566929133
 20
5.642644055862289
 30
0.0
 11
2.786417322834645
 21
5.612132244838667
 31
0.0
  0
LINE
  5
1E99
330
1E
100
AcDbEntity
  8
0
100
AcDbLine
 10
2.783464566929133
 20
5.642644055862289
 30
0.0
 11
2.64271653543307
 21
5.642644055862289
 31
0.0
  0
LINE
  5
1E9A
330
1E
100
AcDbEntity
  8
0
100
AcDbLine
 10
2.64271653543307
 20
5.643628307830793
 30
0.0
 11
2.64271653543307
 21
5.642644055862289
 31
0.0
  0
LINE
  5
1E9B
330
1E
100
AcDbEntity
  8
0
100
AcDbLine
 10
2.632874015748031
 20
5.537329095232368
 30
0.0
 11
2.639763779527558
 21
5.608195236964651
 31
0.0
  0
LINE
  5
1E9C
330
1E
100
AcDbEntity
  8
0
100
AcDbLine
 10
2.639763779527558
 20
5.608195236964651
 30
0.0
 11
2.639763779527558
 21
5.612132244838667
 31
0.0
  0
LINE
  5
1E9D
330
1E
100
AcDbEntity
  8
0
100
AcDbLine
 10
2.783464566929133
 20
5.643628307830793
 30
0.0
 11
2.783464566929133
 21
5.642644055862289
 31
0.0
  0
LINE
  5
1E9E
330
1E
100
AcDbEntity
  8
0
100
AcDbLine
 10
2.786417322834645
 20
5.612132244838667
 30
0.0
 11
2.786417322834645
 21
5.608195236964651
 31
0.0
  0
LINE
  5
1E9F
330
1E
100
AcDbEntity
  8
0
100
AcDbLine
 10
2.786417322834645
 20
5.608195236964651
 30
0.0
 11
2.793307086614173
 21
5.537329095232368
 31
0.0
  0
LINE
  5
1EA0
330
1E
100
AcDbEntity
  8
0
100
AcDbLine
 10
2.786417322834645
 20
5.608195236964651
 30
0.0
 11
2.639763779527558
 21
5.608195236964651
 31
0.0
  0
LINE
  5
1EA1
330
1E
100
AcDbEntity
  8
0
100
AcDbLine
 10
2.811023622047244
 20
4.845472440944881
 30
0.0
 11
2.811023622047244
 21
4.910433070866141
 31
0.0
  0
POLYLINE
  5
1EA2
330
1E
100
AcDbEntity
  8
0
100
AcDb2dPolyline
 66
     1
 10
0.0
 20
0.0
 30
0.0
  0
VERTEX
  5
200A
330
1EA2
100
AcDbEntity
  8
0
100
AcDbVertex
100
AcDb2dVertex
 10
2.644685039370078
 20
4.630905511811023
 30
0.0
  0
VERTEX
  5
200B
330
1EA2
100
AcDbEntity
  8
0
100
AcDbVertex
100
AcDb2dVertex
 10
2.649606299212598
 20
4.68011811023622
 30
0.0
  0
VERTEX
  5
200C
330
1EA2
100
AcDbEntity
  8
0
100
AcDbVertex
100
AcDb2dVertex
 10
2.665354330708661
 20
4.725393700787401
 30
0.0
  0
VERTEX
  5
200D
330
1EA2
100
AcDbEntity
  8
0
100
AcDbVertex
100
AcDb2dVertex
 10
2.690944881889763
 20
4.766732283464566
 30
0.0
  0
VERTEX
  5
200E
330
1EA2
100
AcDbEntity
  8
0
100
AcDbVertex
100
AcDb2dVertex
 10
2.724409448818897
 20
4.802165354330708
 30
0.0
  0
VERTEX
  5
200F
330
1EA2
100
AcDbEntity
  8
0
100
AcDbVertex
100
AcDb2dVertex
 10
2.765748031496062
 20
4.828740157480314
 30
0.0
  0
VERTEX
  5
2010
330
1EA2
100
AcDbEntity
  8
0
100
AcDbVertex
100
AcDb2dVertex
 10
2.811023622047244
 20
4.845472440944881
 30
0.0
  0
SEQEND
  5
2011
330
1EA2
100
AcDbEntity
  8
0
  0
LINE
  5
1EAB
330
1E
100
AcDbEntity
  8
0
100
AcDbLine
 10
2.644685039370078
 20
4.481299212598425
 30
0.0
 11
2.644685039370078
 21
4.630905511811023
 31
0.0
  0
POLYLINE
  5
1EAC
330
1E
100
AcDbEntity
  8
0
100
AcDb2dPolyline
 66
     1
 10
0.0
 20
0.0
 30
0.0
  0
VERTEX
  5
2012
330
1EAC
100
AcDbEntity
  8
0
100
AcDbVertex
100
AcDb2dVertex
 10
2.848425196850393
 20
4.260826771653543
 30
0.0
  0
VERTEX
  5
2013
330
1EAC
100
AcDbEntity
  8
0
100
AcDbVertex
100
AcDb2dVertex
 10
2.802165354330708
 20
4.269685039370078
 30
0.0
  0
VERTEX
  5
2014
330
1EAC
100
AcDbEntity
  8
0
100
AcDbVertex
100
AcDb2dVertex
 10
2.758858267716535
 20
4.287401574803149
 30
0.0
  0
VERTEX
  5
2015
330
1EAC
100
AcDbEntity
  8
0
100
AcDbVertex
100
AcDb2dVertex
 10
2.719488188976377
 20
4.31496062992126
 30
0.0
  0
VERTEX
  5
2016
330
1EAC
100
AcDbEntity
  8
0
100
AcDbVertex
100
AcDb2dVertex
 10
2.687992125984251
 20
4.349409448818897
 30
0.0
  0
VERTEX
  5
2017
330
1EAC
100
AcDbEntity
  8
0
100
AcDbVertex
100
AcDb2dVertex
 10
2.664370078740157
 20
4.389763779527559
 30
0.0
  0
VERTEX
  5
2018
330
1EAC
100
AcDbEntity
  8
0
100
AcDbVertex
100
AcDb2dVertex
 10
2.649606299212598
 20
4.434055118110236
 30
0.0
  0
VERTEX
  5
2019
330
1EAC
100
AcDbEntity
  8
0
100
AcDbVertex
100
AcDb2dVertex
 10
2.644685039370078
 20
4.481299212598425
 30
0.0
  0
SEQEND
  5
201A
330
1EAC
100
AcDbEntity
  8
0
  0
LINE
  5
1EB6
330
1E
100
AcDbEntity
  8
0
100
AcDbLine
 10
2.848425196850393
 20
4.186023622047244
 30
0.0
 11
2.848425196850393
 21
4.260826771653543
 31
0.0
  0
LINE
  5
1EB7
330
1E
100
AcDbEntity
  8
0
100
AcDbLine
 10
3.033464566929133
 20
4.260826771653543
 30
0.0
 11
3.033464566929133
 21
4.186023622047244
 31
0.0
  0
POLYLINE
  5
1EB8
330
1E
100
AcDbEntity
  8
0
100
AcDb2dPolyline
 66
     1
 10
0.0
 20
0.0
 30
0.0
  0
VERTEX
  5
201B
330
1EB8
100
AcDbEntity
  8
0
100
AcDbVertex
100
AcDb2dVertex
 10
3.237204724409448
 20
4.481299212598425
 30
0.0
  0
VERTEX
  5
201C
330
1EB8
100
AcDbEntity
  8
0
100
AcDbVertex
100
AcDb2dVertex
 10
3.232283464566929
 20
4.434055118110236
 30
0.0
  0
VERTEX
  5
201D
330
1EB8
100
AcDbEntity
  8
0
100
AcDbVertex
100
AcDb2dVertex
 10
3.216535433070866
 20
4.389763779527559
 30
0.0
  0
VERTEX
  5
201E
330
1EB8
100
AcDbEntity
  8
0
100
AcDbVertex
100
AcDb2dVertex
 10
3.192913385826771
 20
4.349409448818897
 30
0.0
  0
VERTEX
  5
201F
330
1EB8
100
AcDbEntity
  8
0
100
AcDbVertex
100
AcDb2dVertex
 10
3.161417322834645
 20
4.31496062992126
 30
0.0
  0
VERTEX
  5
2020
330
1EB8
100
AcDbEntity
  8
0
100
AcDbVertex
100
AcDb2dVertex
 10
3.123031496062992
 20
4.287401574803149
 30
0.0
  0
VERTEX
  5
2021
330
1EB8
100
AcDbEntity
  8
0
100
AcDbVertex
100
AcDb2dVertex
 10
3.079724409448818
 20
4.269685039370078
 30
0.0
  0
VERTEX
  5
2022
330
1EB8
100
AcDbEntity
  8
0
100
AcDbVertex
100
AcDb2dVertex
 10
3.033464566929133
 20
4.260826771653543
 30
0.0
  0
SEQEND
  5
2023
330
1EB8
100
AcDbEntity
  8
0
  0
LINE
  5
1EC2
330
1E
100
AcDbEntity
  8
0
100
AcDbLine
 10
3.237204724409448
 20
4.630905511811023
 30
0.0
 11
3.237204724409448
 21
4.481299212598425
 31
0.0
  0
POLYLINE
  5
1EC3
330
1E
100
AcDbEntity
  8
0
100
AcDb2dPolyline
 66
     1
 10
0.0
 20
0.0
 30
0.0
  0
VERTEX
  5
2024
330
1EC3
100
AcDbEntity
  8
0
100
AcDbVertex
100
AcDb2dVertex
 10
3.069881889763779
 20
4.845472440944881
 30
0.0
  0
VERTEX
  5
2025
330
1EC3
100
AcDbEntity
  8
0
100
AcDbVertex
100
AcDb2dVertex
 10
3.116141732283464
 20
4.828740157480314
 30
0.0
  0
VERTEX
  5
2026
330
1EC3
100
AcDbEntity
  8
0
100
AcDbVertex
100
AcDb2dVertex
 10
3.156496062992125
 20
4.802165354330708
 30
0.0
  0
VERTEX
  5
2027
330
1EC3
100
AcDbEntity
  8
0
100
AcDbVertex
100
AcDb2dVertex
 10
3.189960629921259
 20
4.766732283464566
 30
0.0
  0
VERTEX
  5
2028
330
1EC3
100
AcDbEntity
  8
0
100
AcDbVertex
100
AcDb2dVertex
 10
3.215551181102362
 20
4.725393700787401
 30
0.0
  0
VERTEX
  5
2029
330
1EC3
100
AcDbEntity
  8
0
100
AcDbVertex
100
AcDb2dVertex
 10
3.231299212598425
 20
4.68011811023622
 30
0.0
  0
VERTEX
  5
202A
330
1EC3
100
AcDbEntity
  8
0
100
AcDbVertex
100
AcDb2dVertex
 10
3.237204724409448
 20
4.630905511811023
 30
0.0
  0
SEQEND
  5
202B
330
1EC3
100
AcDbEntity
  8
0
  0
LINE
  5
1ECC
330
1E
100
AcDbEntity
  8
0
100
AcDbLine
 10
3.069881889763779
 20
4.910433070866141
 30
0.0
 11
3.069881889763779
 21
4.845472440944881
 31
0.0
  0
LINE
  5
1ECD
330
1E
100
AcDbEntity
  8
0
100
AcDbLine
 10
3.066929133858267
 20
4.911417322834645
 30
0.0
 11
3.069881889763779
 21
4.910433070866141
 31
0.0
  0
LINE
  5
1ECE
330
1E
100
AcDbEntity
  8
0
100
AcDbLine
 10
2.840551181102362
 20
4.238188976377952
 30
0.0
 11
2.840551181102362
 21
4.21259842519685
 31
0.0
  0
POLYLINE
  5
1ECF
330
1E
100
AcDbEntity
  8
0
100
AcDb2dPolyline
 66
     1
 10
0.0
 20
0.0
 30
0.0
  0
VERTEX
  5
202C
330
1ECF
100
AcDbEntity
  8
0
100
AcDbVertex
100
AcDb2dVertex
 10
2.621062992125984
 20
4.481299212598425
 30
0.0
  0
VERTEX
  5
202D
330
1ECF
100
AcDbEntity
  8
0
100
AcDbVertex
100
AcDb2dVertex
 10
2.625
 20
4.437007874015748
 30
0.0
  0
VERTEX
  5
202E
330
1ECF
100
AcDbEntity
  8
0
100
AcDbVertex
100
AcDb2dVertex
 10
2.636811023622047
 20
4.393700787401574
 30
0.0
  0
VERTEX
  5
202F
330
1ECF
100
AcDbEntity
  8
0
100
AcDbVertex
100
AcDb2dVertex
 10
2.656496062992125
 20
4.353346456692912
 30
0.0
  0
VERTEX
  5
2030
330
1ECF
100
AcDbEntity
  8
0
100
AcDbVertex
100
AcDb2dVertex
 10
2.684055118110236
 20
4.316929133858267
 30
0.0
  0
VERTEX
  5
2031
330
1ECF
100
AcDbEntity
  8
0
100
AcDbVertex
100
AcDb2dVertex
 10
2.716535433070866
 20
4.287401574803149
 30
0.0
  0
VERTEX
  5
2032
330
1ECF
100
AcDbEntity
  8
0
100
AcDbVertex
100
AcDb2dVertex
 10
2.754921259842519
 20
4.26279527559055
 30
0.0
  0
VERTEX
  5
2033
330
1ECF
100
AcDbEntity
  8
0
100
AcDbVertex
100
AcDb2dVertex
 10
2.796259842519684
 20
4.246062992125984
 30
0.0
  0
VERTEX
  5
2034
330
1ECF
100
AcDbEntity
  8
0
100
AcDbVertex
100
AcDb2dVertex
 10
2.840551181102362
 20
4.238188976377952
 30
0.0
  0
SEQEND
  5
2035
330
1ECF
100
AcDbEntity
  8
0
  0
LINE
  5
1EDA
330
1E
100
AcDbEntity
  8
0
100
AcDbLine
 10
2.621062992125984
 20
4.481299212598425
 30
0.0
 11
2.621062992125984
 21
4.630905511811023
 31
0.0
  0
POLYLINE
  5
1EDB
330
1E
100
AcDbEntity
  8
0
100
AcDb2dPolyline
 66
     1
 10
0.0
 20
0.0
 30
0.0
  0
VERTEX
  5
2036
330
1EDB
100
AcDbEntity
  8
0
100
AcDbVertex
100
AcDb2dVertex
 10
2.806102362204724
 20
4.869094488188975
 30
0.0
  0
VERTEX
  5
2037
330
1EDB
100
AcDbEntity
  8
0
100
AcDbVertex
100
AcDb2dVertex
 10
2.76279527559055
 20
4.853346456692912
 30
0.0
  0
VERTEX
  5
2038
330
1EDB
100
AcDbEntity
  8
0
100
AcDbVertex
100
AcDb2dVertex
 10
2.722440944881889
 20
4.829724409448818
 30
0.0
  0
VERTEX
  5
2039
330
1EDB
100
AcDbEntity
  8
0
100
AcDbVertex
100
AcDb2dVertex
 10
2.687992125984251
 20
4.799212598425197
 30
0.0
  0
VERTEX
  5
203A
330
1EDB
100
AcDbEntity
  8
0
100
AcDbVertex
100
AcDb2dVertex
 10
2.659448818897637
 20
4.76279527559055
 30
0.0
  0
VERTEX
  5
203B
330
1EDB
100
AcDbEntity
  8
0
100
AcDbVertex
100
AcDb2dVertex
 10
2.63779527559055
 20
4.721456692913386
 30
0.0
  0
VERTEX
  5
203C
330
1EDB
100
AcDbEntity
  8
0
100
AcDbVertex
100
AcDb2dVertex
 10
2.625
 20
4.677165354330708
 30
0.0
  0
VERTEX
  5
203D
330
1EDB
100
AcDbEntity
  8
0
100
AcDbVertex
100
AcDb2dVertex
 10
2.621062992125984
 20
4.630905511811023
 30
0.0
  0
SEQEND
  5
203E
330
1EDB
100
AcDbEntity
  8
0
  0
LINE
  5
1EE5
330
1E
100
AcDbEntity
  8
0
100
AcDbLine
 10
2.806102362204724
 20
4.894685039370078
 30
0.0
 11
2.806102362204724
 21
4.869094488188975
 31
0.0
  0
POLYLINE
  5
1EE6
330
1E
100
AcDbEntity
  8
0
100
AcDb2dPolyline
 66
     1
 10
0.0
 20
0.0
 30
0.0
  0
VERTEX
  5
203F
330
1EE6
100
AcDbEntity
  8
0
100
AcDbVertex
100
AcDb2dVertex
 10
2.806102362204724
 20
4.894685039370078
 30
0.0
  0
VERTEX
  5
2040
330
1EE6
100
AcDbEntity
  8
0
100
AcDbVertex
100
AcDb2dVertex
 10
2.756889763779527
 20
4.878937007874015
 30
0.0
  0
VERTEX
  5
2041
330
1EE6
100
AcDbEntity
  8
0
100
AcDbVertex
100
AcDb2dVertex
 10
2.711614173228346
 20
4.853346456692912
 30
0.0
  0
VERTEX
  5
2042
330
1EE6
100
AcDbEntity
  8
0
100
AcDbVertex
100
AcDb2dVertex
 10
2.672244094488188
 20
4.819881889763779
 30
0.0
  0
VERTEX
  5
2043
330
1EE6
100
AcDbEntity
  8
0
100
AcDbVertex
100
AcDb2dVertex
 10
2.639763779527558
 20
4.778543307086613
 30
0.0
  0
VERTEX
  5
2044
330
1EE6
100
AcDbEntity
  8
0
100
AcDbVertex
100
AcDb2dVertex
 10
2.61515748031496
 20
4.733267716535433
 30
0.0
  0
VERTEX
  5
2045
330
1EE6
100
AcDbEntity
  8
0
100
AcDbVertex
100
AcDb2dVertex
 10
2.600393700787401
 20
4.683070866141732
 30
0.0
  0
VERTEX
  5
2046
330
1EE6
100
AcDbEntity
  8
0
100
AcDbVertex
100
AcDb2dVertex
 10
2.595472440944881
 20
4.630905511811023
 30
0.0
  0
SEQEND
  5
2047
330
1EE6
100
AcDbEntity
  8
0
  0
LINE
  5
1EF0
330
1E
100
AcDbEntity
  8
0
100
AcDbLine
 10
2.595472440944881
 20
4.481299212598425
 30
0.0
 11
2.595472440944881
 21
4.630905511811023
 31
0.0
  0
POLYLINE
  5
1EF1
330
1E
100
AcDbEntity
  8
0
100
AcDb2dPolyline
 66
     1
 10
0.0
 20
0.0
 30
0.0
  0
VERTEX
  5
2048
330
1EF1
100
AcDbEntity
  8
0
100
AcDbVertex
100
AcDb2dVertex
 10
2.595472440944881
 20
4.481299212598425
 30
0.0
  0
VERTEX
  5
2049
330
1EF1
100
AcDbEntity
  8
0
100
AcDbVertex
100
AcDb2dVertex
 10
2.600393700787401
 20
4.432086614173228
 30
0.0
  0
VERTEX
  5
204A
330
1EF1
100
AcDbEntity
  8
0
100
AcDbVertex
100
AcDb2dVertex
 10
2.614173228346456
 20
4.383858267716535
 30
0.0
  0
VERTEX
  5
204B
330
1EF1
100
AcDbEntity
  8
0
100
AcDbVertex
100
AcDb2dVertex
 10
2.635826771653543
 20
4.339566929133858
 30
0.0
  0
VERTEX
  5
204C
330
1EF1
100
AcDbEntity
  8
0
100
AcDbVertex
100
AcDb2dVertex
 10
2.666338582677165
 20
4.299212598425197
 30
0.0
  0
VERTEX
  5
204D
330
1EF1
100
AcDbEntity
  8
0
100
AcDbVertex
100
AcDb2dVertex
 10
2.702755905511811
 20
4.265748031496062
 30
0.0
  0
VERTEX
  5
204E
330
1EF1
100
AcDbEntity
  8
0
100
AcDbVertex
100
AcDb2dVertex
 10
2.74507874015748
 20
4.24015748031496
 30
0.0
  0
VERTEX
  5
204F
330
1EF1
100
AcDbEntity
  8
0
100
AcDbVertex
100
AcDb2dVertex
 10
2.791338582677165
 20
4.221456692913386
 30
0.0
  0
VERTEX
  5
2050
330
1EF1
100
AcDbEntity
  8
0
100
AcDbVertex
100
AcDb2dVertex
 10
2.840551181102362
 20
4.21259842519685
 30
0.0
  0
SEQEND
  5
2051
330
1EF1
100
AcDbEntity
  8
0
  0
LINE
  5
1EFC
330
1E
100
AcDbEntity
  8
0
100
AcDbLine
 10
3.364173228346456
 20
4.864173228346456
 30
0.0
 11
3.366141732283464
 21
4.864173228346456
 31
0.0
  0
LINE
  5
1EFD
330
1E
100
AcDbEntity
  8
0
100
AcDbLine
 10
3.366141732283464
 20
4.864173228346456
 30
0.0
 11
3.390748031496062
 21
4.857283464566928
 31
0.0
  0
LINE
  5
1EFE
330
1E
100
AcDbEntity
  8
0
100
AcDbLine
 10
3.390748031496062
 20
4.857283464566928
 30
0.0
 11
3.391732283464566
 21
4.857283464566928
 31
0.0
  0
LINE
  5
1EFF
330
1E
100
AcDbEntity
  8
0
100
AcDbLine
 10
3.391732283464566
 20
4.710629921259842
 30
0.0
 11
3.390748031496062
 21
4.709645669291338
 31
0.0
  0
LINE
  5
1F00
330
1E
100
AcDbEntity
  8
0
100
AcDbLine
 10
3.390748031496062
 20
4.709645669291338
 30
0.0
 11
3.366141732283464
 21
4.703740157480314
 31
0.0
  0
LINE
  5
1F01
330
1E
100
AcDbEntity
  8
0
100
AcDbLine
 10
3.364173228346456
 20
4.703740157480314
 30
0.0
 11
3.366141732283464
 21
4.703740157480314
 31
0.0
  0
LINE
  5
1F02
330
1E
100
AcDbEntity
  8
0
100
AcDbLine
 10
3.391732283464566
 20
4.857283464566928
 30
0.0
 11
3.391732283464566
 21
4.710629921259842
 31
0.0
  0
LINE
  5
1F03
330
1E
100
AcDbEntity
  8
0
100
AcDbLine
 10
3.390748031496062
 20
4.709645669291338
 30
0.0
 11
3.390748031496062
 21
4.857283464566928
 31
0.0
  0
LINE
  5
1F04
330
1E
100
AcDbEntity
  8
0
100
AcDbLine
 10
3.366141732283464
 20
4.703740157480314
 30
0.0
 11
3.366141732283464
 21
4.864173228346456
 31
0.0
  0
LINE
  5
1F05
330
1E
100
AcDbEntity
  8
0
100
AcDbLine
 10
2.516732283464566
 20
4.249015748031496
 30
0.0
 11
2.514763779527558
 21
4.249015748031496
 31
0.0
  0
LINE
  5
1F06
330
1E
100
AcDbEntity
  8
0
100
AcDbLine
 10
2.514763779527558
 20
4.249015748031496
 30
0.0
 11
2.49015748031496
 21
4.254921259842519
 31
0.0
  0
LINE
  5
1F07
330
1E
100
AcDbEntity
  8
0
100
AcDbLine
 10
2.49015748031496
 20
4.254921259842519
 30
0.0
 11
2.49015748031496
 21
4.254921259842519
 31
0.0
  0
LINE
  5
1F08
330
1E
100
AcDbEntity
  8
0
100
AcDbLine
 10
2.49015748031496
 20
4.40255905511811
 30
0.0
 11
2.49015748031496
 21
4.40255905511811
 31
0.0
  0
LINE
  5
1F09
330
1E
100
AcDbEntity
  8
0
100
AcDbLine
 10
2.49015748031496
 20
4.40255905511811
 30
0.0
 11
2.514763779527558
 21
4.408464566929133
 31
0.0
  0
LINE
  5
1F0A
330
1E
100
AcDbEntity
  8
0
100
AcDbLine
 10
2.516732283464566
 20
4.408464566929133
 30
0.0
 11
2.514763779527558
 21
4.408464566929133
 31
0.0
  0
LINE
  5
1F0B
330
1E
100
AcDbEntity
  8
0
100
AcDbLine
 10
2.49015748031496
 20
4.254921259842519
 30
0.0
 11
2.49015748031496
 21
4.40255905511811
 31
0.0
  0
LINE
  5
1F0C
330
1E
100
AcDbEntity
  8
0
100
AcDbLine
 10
2.49015748031496
 20
4.40255905511811
 30
0.0
 11
2.49015748031496
 21
4.254921259842519
 31
0.0
  0
LINE
  5
1F0D
330
1E
100
AcDbEntity
  8
0
100
AcDbLine
 10
2.514763779527558
 20
4.408464566929133
 30
0.0
 11
2.514763779527558
 21
4.249015748031496
 31
0.0
  0
LINE
  5
1F0E
330
1E
100
AcDbEntity
  8
0
100
AcDbLine
 10
3.364173228346456
 20
4.864173228346456
 30
0.0
 11
3.364173228346456
 21
4.93011811023622
 31
0.0
  0
LINE
  5
1F0F
330
1E
100
AcDbEntity
  8
0
100
AcDbLine
 10
3.364173228346456
 20
4.182086614173228
 30
0.0
 11
3.364173228346456
 21
4.703740157480314
 31
0.0
  0
LINE
  5
1F10
330
1E
100
AcDbEntity
  8
0
100
AcDbLine
 10
3.043307086614173
 20
4.899606299212598
 30
0.0
 11
3.066929133858267
 21
4.911417322834645
 31
0.0
  0
POLYLINE
  5
1F11
330
1E
100
AcDbEntity
  8
0
100
AcDb2dPolyline
 66
     1
 10
0.0
 20
0.0
 30
0.0
  0
VERTEX
  5
2052
330
1F11
100
AcDbEntity
  8
0
100
AcDbVertex
100
AcDb2dVertex
 10
3.043307086614173
 20
4.899606299212598
 30
0.0
  0
VERTEX
  5
2053
330
1F11
100
AcDbEntity
  8
0
100
AcDbVertex
100
AcDb2dVertex
 10
3.042322834645668
 20
4.894685039370078
 30
0.0
  0
VERTEX
  5
2054
330
1F11
100
AcDbEntity
  8
0
100
AcDbVertex
100
AcDb2dVertex
 10
3.042322834645668
 20
4.883858267716535
 30
0.0
  0
SEQEND
  5
2055
330
1F11
100
AcDbEntity
  8
0
  0
LINE
  5
1F16
330
1E
100
AcDbEntity
  8
0
100
AcDbLine
 10
3.042322834645668
 20
4.873031496062991
 30
0.0
 11
3.042322834645668
 21
4.883858267716535
 31
0.0
  0
POLYLINE
  5
1F17
330
1E
100
AcDbEntity
  8
0
100
AcDb2dPolyline
 66
     1
 10
0.0
 20
0.0
 30
0.0
  0
VERTEX
  5
2056
330
1F17
100
AcDbEntity
  8
0
100
AcDbVertex
100
AcDb2dVertex
 10
3.043307086614173
 20
4.836614173228346
 30
0.0
  0
VERTEX
  5
2057
330
1F17
100
AcDbEntity
  8
0
100
AcDbVertex
100
AcDb2dVertex
 10
3.042322834645668
 20
4.853346456692912
 30
0.0
  0
VERTEX
  5
2058
330
1F17
100
AcDbEntity
  8
0
100
AcDbVertex
100
AcDb2dVertex
 10
3.042322834645668
 20
4.873031496062991
 30
0.0
  0
SEQEND
  5
2059
330
1F17
100
AcDbEntity
  8
0
  0
LINE
  5
1F1C
330
1E
100
AcDbEntity
  8
0
100
AcDbLine
 10
3.043307086614173
 20
4.836614173228346
 30
0.0
 11
3.043307086614173
 21
4.83267716535433
 31
0.0
  0
LINE
  5
1F1D
330
1E
100
AcDbEntity
  8
0
100
AcDbLine
 10
3.043307086614173
 20
4.822834645669291
 30
0.0
 11
3.043307086614173
 21
4.83267716535433
 31
0.0
  0
LINE
  5
1F1E
330
1E
100
AcDbEntity
  8
0
100
AcDbLine
 10
2.632874015748031
 20
4.980314960629921
 30
0.0
 11
2.566929133858267
 21
4.980314960629921
 31
0.0
  0
LINE
  5
1F1F
330
1E
100
AcDbEntity
  8
0
100
AcDbLine
 10
3.314960629921259
 20
4.980314960629921
 30
0.0
 11
2.793307086614173
 21
4.980314960629921
 31
0.0
  0
LINE
  5
1F20
330
1E
100
AcDbEntity
  8
0
100
AcDbLine
 10
2.813976377952755
 20
4.911417322834645
 30
0.0
 11
2.83759842519685
 21
4.899606299212598
 31
0.0
  0
LINE
  5
1F21
330
1E
100
AcDbEntity
  8
0
100
AcDbLine
 10
2.83759842519685
 20
4.899606299212598
 30
0.0
 11
3.043307086614173
 21
4.899606299212598
 31
0.0
  0
LINE
  5
1F22
330
1E
100
AcDbEntity
  8
0
100
AcDbLine
 10
3.066929133858267
 20
4.911417322834645
 30
0.0
 11
3.071850393700787
 21
4.913385826771653
 31
0.0
  0
LINE
  5
1F23
330
1E
100
AcDbEntity
  8
0
100
AcDbLine
 10
2.809055118110236
 20
4.913385826771653
 30
0.0
 11
3.071850393700787
 21
4.913385826771653
 31
0.0
  0
LINE
  5
1F24
330
1E
100
AcDbEntity
  8
0
100
AcDbLine
 10
2.809055118110236
 20
4.913385826771653
 30
0.0
 11
2.813976377952755
 21
4.911417322834645
 31
0.0
  0
LINE
  5
1F25
330
1E
100
AcDbEntity
  8
0
100
AcDbLine
 10
2.83759842519685
 20
4.822834645669291
 30
0.0
 11
2.83759842519685
 21
4.83267716535433
 31
0.0
  0
LINE
  5
1F26
330
1E
100
AcDbEntity
  8
0
100
AcDbLine
 10
2.83759842519685
 20
4.836614173228346
 30
0.0
 11
2.83759842519685
 21
4.83267716535433
 31
0.0
  0
POLYLINE
  5
1F27
330
1E
100
AcDbEntity
  8
0
100
AcDb2dPolyline
 66
     1
 10
0.0
 20
0.0
 30
0.0
  0
VERTEX
  5
205A
330
1F27
100
AcDbEntity
  8
0
100
AcDbVertex
100
AcDb2dVertex
 10
2.83759842519685
 20
4.836614173228346
 30
0.0
  0
VERTEX
  5
205B
330
1F27
100
AcDbEntity
  8
0
100
AcDbVertex
100
AcDb2dVertex
 10
2.838582677165354
 20
4.853346456692912
 30
0.0
  0
VERTEX
  5
205C
330
1F27
100
AcDbEntity
  8
0
100
AcDbVertex
100
AcDb2dVertex
 10
2.838582677165354
 20
4.873031496062991
 30
0.0
  0
SEQEND
  5
205D
330
1F27
100
AcDbEntity
  8
0
  0
LINE
  5
1F2C
330
1E
100
AcDbEntity
  8
0
100
AcDbLine
 10
2.838582677165354
 20
4.873031496062991
 30
0.0
 11
2.838582677165354
 21
4.883858267716535
 31
0.0
  0
POLYLINE
  5
1F2D
330
1E
100
AcDbEntity
  8
0
100
AcDb2dPolyline
 66
     1
 10
0.0
 20
0.0
 30
0.0
  0
VERTEX
  5
205E
330
1F2D
100
AcDbEntity
  8
0
100
AcDbVertex
100
AcDb2dVertex
 10
2.838582677165354
 20
4.883858267716535
 30
0.0
  0
VERTEX
  5
205F
330
1F2D
100
AcDbEntity
  8
0
100
AcDbVertex
100
AcDb2dVertex
 10
2.838582677165354
 20
4.894685039370078
 30
0.0
  0
VERTEX
  5
2060
330
1F2D
100
AcDbEntity
  8
0
100
AcDbVertex
100
AcDb2dVertex
 10
2.83759842519685
 20
4.899606299212598
 30
0.0
  0
SEQEND
  5
2061
330
1F2D
100
AcDbEntity
  8
0
  0
LINE
  5
1F32
330
1E
100
AcDbEntity
  8
0
100
AcDbLine
 10
2.516732283464566
 20
4.182086614173228
 30
0.0
 11
2.516732283464566
 21
4.249015748031496
 31
0.0
  0
LINE
  5
1F33
330
1E
100
AcDbEntity
  8
0
100
AcDbLine
 10
2.516732283464566
 20
4.408464566929133
 30
0.0
 11
2.516732283464566
 21
4.93011811023622
 31
0.0
  0
LINE
  5
1F34
330
1E
100
AcDbEntity
  8
0
100
AcDbLine
 10
2.811023622047244
 20
4.910433070866141
 30
0.0
 11
2.813976377952755
 21
4.911417322834645
 31
0.0
  0
LINE
  5
1F35
330
1E
100
AcDbEntity
  8
0
100
AcDbLine
 10
3.042322834645668
 20
4.883858267716535
 30
0.0
 11
2.838582677165354
 21
4.883858267716535
 31
0.0
  0
LINE
  5
1F36
330
1E
100
AcDbEntity
  8
0
100
AcDbLine
 10
2.838582677165354
 20
4.873031496062991
 30
0.0
 11
3.042322834645668
 21
4.873031496062991
 31
0.0
  0
LINE
  5
1F37
330
1E
100
AcDbEntity
  8
0
100
AcDbLine
 10
2.83759842519685
 20
4.836614173228346
 30
0.0
 11
3.043307086614173
 21
4.836614173228346
 31
0.0
  0
LINE
  5
1F38
330
1E
100
AcDbEntity
  8
0
100
AcDbLine
 10
2.83759842519685
 20
4.83267716535433
 30
0.0
 11
3.043307086614173
 21
4.83267716535433
 31
0.0
  0
LINE
  5
1F39
330
1E
100
AcDbEntity
  8
0
100
AcDbLine
 10
2.83759842519685
 20
4.822834645669291
 30
0.0
 11
3.043307086614173
 21
4.822834645669291
 31
0.0
  0
POLYLINE
  5
1F3A
330
1E
100
AcDbEntity
  8
0
100
AcDb2dPolyline
 66
     1
 10
0.0
 20
0.0
 30
0.0
  0
VERTEX
  5
2062
330
1F3A
100
AcDbEntity
  8
0
100
AcDbVertex
100
AcDb2dVertex
 10
3.071850393700787
 20
4.920275590551181
 30
0.0
  0
VERTEX
  5
2063
330
1F3A
100
AcDbEntity
  8
0
100
AcDbVertex
100
AcDb2dVertex
 10
3.121062992125984
 20
4.906496062992125
 30
0.0
  0
VERTEX
  5
2064
330
1F3A
100
AcDbEntity
  8
0
100
AcDbVertex
100
AcDb2dVertex
 10
3.166338582677165
 20
4.884842519685038
 30
0.0
  0
VERTEX
  5
2065
330
1F3A
100
AcDbEntity
  8
0
100
AcDbVertex
100
AcDb2dVertex
 10
3.20767716535433
 20
4.855314960629921
 30
0.0
  0
VERTEX
  5
2066
330
1F3A
100
AcDbEntity
  8
0
100
AcDbVertex
100
AcDb2dVertex
 10
3.243110236220472
 20
4.818897637795275
 30
0.0
  0
VERTEX
  5
2067
330
1F3A
100
AcDbEntity
  8
0
100
AcDbVertex
100
AcDb2dVertex
 10
3.271653543307086
 20
4.776574803149606
 30
0.0
  0
VERTEX
  5
2068
330
1F3A
100
AcDbEntity
  8
0
100
AcDbVertex
100
AcDb2dVertex
 10
3.293307086614173
 20
4.731299212598425
 30
0.0
  0
VERTEX
  5
2069
330
1F3A
100
AcDbEntity
  8
0
100
AcDbVertex
100
AcDb2dVertex
 10
3.306102362204724
 20
4.682086614173228
 30
0.0
  0
VERTEX
  5
206A
330
1F3A
100
AcDbEntity
  8
0
100
AcDbVertex
100
AcDb2dVertex
 10
3.310039370078739
 20
4.630905511811023
 30
0.0
  0
SEQEND
  5
206B
330
1F3A
100
AcDbEntity
  8
0
  0
LINE
  5
1F45
330
1E
100
AcDbEntity
  8
0
100
AcDbLine
 10
3.074803149606299
 20
4.894685039370078
 30
0.0
 11
3.071850393700787
 21
4.920275590551181
 31
0.0
  0
POLYLINE
  5
1F46
330
1E
100
AcDbEntity
  8
0
100
AcDb2dPolyline
 66
     1
 10
0.0
 20
0.0
 30
0.0
  0
VERTEX
  5
206C
330
1F46
100
AcDbEntity
  8
0
100
AcDbVertex
100
AcDb2dVertex
 10
3.285433070866141
 20
4.630905511811023
 30
0.0
  0
VERTEX
  5
206D
330
1F46
100
AcDbEntity
  8
0
100
AcDbVertex
100
AcDb2dVertex
 10
3.280511811023621
 20
4.683070866141732
 30
0.0
  0
VERTEX
  5
206E
330
1F46
100
AcDbEntity
  8
0
100
AcDbVertex
100
AcDb2dVertex
 10
3.265748031496062
 20
4.733267716535433
 30
0.0
  0
VERTEX
  5
206F
330
1F46
100
AcDbEntity
  8
0
100
AcDbVertex
100
AcDb2dVertex
 10
3.242125984251968
 20
4.778543307086613
 30
0.0
  0
VERTEX
  5
2070
330
1F46
100
AcDbEntity
  8
0
100
AcDbVertex
100
AcDb2dVertex
 10
3.209645669291338
 20
4.819881889763779
 30
0.0
  0
VERTEX
  5
2071
330
1F46
100
AcDbEntity
  8
0
100
AcDbVertex
100
AcDb2dVertex
 10
3.169291338582676
 20
4.853346456692912
 30
0.0
  0
VERTEX
  5
2072
330
1F46
100
AcDbEntity
  8
0
100
AcDbVertex
100
AcDb2dVertex
 10
3.124015748031495
 20
4.878937007874015
 30
0.0
  0
VERTEX
  5
2073
330
1F46
100
AcDbEntity
  8
0
100
AcDbVertex
100
AcDb2dVertex
 10
3.074803149606299
 20
4.894685039370078
 30
0.0
  0
SEQEND
  5
2074
330
1F46
100
AcDbEntity
  8
0
  0
LINE
  5
1F50
330
1E
100
AcDbEntity
  8
0
100
AcDbLine
 10
3.310039370078739
 20
4.630905511811023
 30
0.0
 11
3.285433070866141
 21
4.630905511811023
 31
0.0
  0
LINE
  5
1F51
330
1E
100
AcDbEntity
  8
0
100
AcDbLine
 10
2.809055118110236
 20
4.920275590551181
 30
0.0
 11
2.806102362204724
 21
4.894685039370078
 31
0.0
  0
POLYLINE
  5
1F52
330
1E
100
AcDbEntity
  8
0
100
AcDb2dPolyline
 66
     1
 10
0.0
 20
0.0
 30
0.0
  0
VERTEX
  5
2075
330
1F52
100
AcDbEntity
  8
0
100
AcDbVertex
100
AcDb2dVertex
 10
2.570866141732283
 20
4.630905511811023
 30
0.0
  0
VERTEX
  5
2076
330
1F52
100
AcDbEntity
  8
0
100
AcDbVertex
100
AcDb2dVertex
 10
2.574803149606299
 20
4.682086614173228
 30
0.0
  0
VERTEX
  5
2077
330
1F52
100
AcDbEntity
  8
0
100
AcDbVertex
100
AcDb2dVertex
 10
2.588582677165354
 20
4.731299212598425
 30
0.0
  0
VERTEX
  5
2078
330
1F52
100
AcDbEntity
  8
0
100
AcDbVertex
100
AcDb2dVertex
 10
2.609251968503937
 20
4.776574803149606
 30
0.0
  0
VERTEX
  5
2079
330
1F52
100
AcDbEntity
  8
0
100
AcDbVertex
100
AcDb2dVertex
 10
2.63779527559055
 20
4.818897637795275
 30
0.0
  0
VERTEX
  5
207A
330
1F52
100
AcDbEntity
  8
0
100
AcDbVertex
100
AcDb2dVertex
 10
2.673228346456692
 20
4.855314960629921
 30
0.0
  0
VERTEX
  5
207B
330
1F52
100
AcDbEntity
  8
0
100
AcDbVertex
100
AcDb2dVertex
 10
2.714566929133858
 20
4.884842519685038
 30
0.0
  0
VERTEX
  5
207C
330
1F52
100
AcDbEntity
  8
0
100
AcDbVertex
100
AcDb2dVertex
 10
2.760826771653543
 20
4.906496062992125
 30
0.0
  0
VERTEX
  5
207D
330
1F52
100
AcDbEntity
  8
0
100
AcDbVertex
100
AcDb2dVertex
 10
2.809055118110236
 20
4.920275590551181
 30
0.0
  0
SEQEND
  5
207E
330
1F52
100
AcDbEntity
  8
0
  0
LINE
  5
1F5D
330
1E
100
AcDbEntity
  8
0
100
AcDbLine
 10
2.595472440944881
 20
4.630905511811023
 30
0.0
 11
2.570866141732283
 21
4.630905511811023
 31
0.0
  0
LINE
  5
1F5E
330
1E
100
AcDbEntity
  8
0
100
AcDbLine
 10
2.570866141732283
 20
4.481299212598425
 30
0.0
 11
2.570866141732283
 21
4.630905511811023
 31
0.0
  0
LINE
  5
1F5F
330
1E
100
AcDbEntity
  8
0
100
AcDbLine
 10
2.570866141732283
 20
4.481299212598425
 30
0.0
 11
2.595472440944881
 21
4.481299212598425
 31
0.0
  0
LINE
  5
1F60
330
1E
100
AcDbEntity
  8
0
100
AcDbLine
 10
2.840551181102362
 20
4.21259842519685
 30
0.0
 11
2.845472440944881
 21
4.187007874015748
 31
0.0
  0
POLYLINE
  5
1F61
330
1E
100
AcDbEntity
  8
0
100
AcDb2dPolyline
 66
     1
 10
0.0
 20
0.0
 30
0.0
  0
VERTEX
  5
207F
330
1F61
100
AcDbEntity
  8
0
100
AcDbVertex
100
AcDb2dVertex
 10
2.845472440944881
 20
4.187007874015748
 30
0.0
  0
VERTEX
  5
2080
330
1F61
100
AcDbEntity
  8
0
100
AcDbVertex
100
AcDb2dVertex
 10
2.796259842519684
 20
4.194881889763779
 30
0.0
  0
VERTEX
  5
2081
330
1F61
100
AcDbEntity
  8
0
100
AcDbVertex
100
AcDb2dVertex
 10
2.75
 20
4.210629921259842
 30
0.0
  0
VERTEX
  5
2082
330
1F61
100
AcDbEntity
  8
0
100
AcDbVertex
100
AcDb2dVertex
 10
2.706692913385826
 20
4.233267716535433
 30
0.0
  0
VERTEX
  5
2083
330
1F61
100
AcDbEntity
  8
0
100
AcDbVertex
100
AcDb2dVertex
 10
2.667322834645668
 20
4.26279527559055
 30
0.0
  0
VERTEX
  5
2084
330
1F61
100
AcDbEntity
  8
0
100
AcDbVertex
100
AcDb2dVertex
 10
2.633858267716535
 20
4.299212598425197
 30
0.0
  0
VERTEX
  5
2085
330
1F61
100
AcDbEntity
  8
0
100
AcDbVertex
100
AcDb2dVertex
 10
2.607283464566929
 20
4.339566929133858
 30
0.0
  0
VERTEX
  5
2086
330
1F61
100
AcDbEntity
  8
0
100
AcDbVertex
100
AcDb2dVertex
 10
2.586614173228346
 20
4.384842519685038
 30
0.0
  0
VERTEX
  5
2087
330
1F61
100
AcDbEntity
  8
0
100
AcDbVertex
100
AcDb2dVertex
 10
2.574803149606299
 20
4.432086614173228
 30
0.0
  0
VERTEX
  5
2088
330
1F61
100
AcDbEntity
  8
0
100
AcDbVertex
100
AcDb2dVertex
 10
2.570866141732283
 20
4.481299212598425
 30
0.0
  0
SEQEND
  5
2089
330
1F61
100
AcDbEntity
  8
0
  0
LINE
  5
1F6D
330
1E
100
AcDbEntity
  8
0
100
AcDbLine
 10
3.036417322834645
 20
4.187007874015748
 30
0.0
 11
3.040354330708661
 21
4.21259842519685
 31
0.0
  0
POLYLINE
  5
1F6E
330
1E
100
AcDbEntity
  8
0
100
AcDb2dPolyline
 66
     1
 10
0.0
 20
0.0
 30
0.0
  0
VERTEX
  5
208A
330
1F6E
100
AcDbEntity
  8
0
100
AcDbVertex
100
AcDb2dVertex
 10
3.310039370078739
 20
4.481299212598425
 30
0.0
  0
VERTEX
  5
208B
330
1F6E
100
AcDbEntity
  8
0
100
AcDbVertex
100
AcDb2dVertex
 10
3.306102362204724
 20
4.432086614173228
 30
0.0
  0
VERTEX
  5
208C
330
1F6E
100
AcDbEntity
  8
0
100
AcDbVertex
100
AcDb2dVertex
 10
3.294291338582676
 20
4.384842519685038
 30
0.0
  0
VERTEX
  5
208D
330
1F6E
100
AcDbEntity
  8
0
100
AcDbVertex
100
AcDb2dVertex
 10
3.274606299212598
 20
4.339566929133858
 30
0.0
  0
VERTEX
  5
208E
330
1F6E
100
AcDbEntity
  8
0
100
AcDbVertex
100
AcDb2dVertex
 10
3.247047244094487
 20
4.299212598425197
 30
0.0
  0
VERTEX
  5
208F
330
1F6E
100
AcDbEntity
  8
0
100
AcDbVertex
100
AcDb2dVertex
 10
3.213582677165354
 20
4.26279527559055
 30
0.0
  0
VERTEX
  5
2090
330
1F6E
100
AcDbEntity
  8
0
100
AcDbVertex
100
AcDb2dVertex
 10
3.174212598425196
 20
4.233267716535433
 30
0.0
  0
VERTEX
  5
2091
330
1F6E
100
AcDbEntity
  8
0
100
AcDbVertex
100
AcDb2dVertex
 10
3.130905511811023
 20
4.210629921259842
 30
0.0
  0
VERTEX
  5
2092
330
1F6E
100
AcDbEntity
  8
0
100
AcDbVertex
100
AcDb2dVertex
 10
3.084645669291338
 20
4.194881889763779
 30
0.0
  0
VERTEX
  5
2093
330
1F6E
100
AcDbEntity
  8
0
100
AcDbVertex
100
AcDb2dVertex
 10
3.036417322834645
 20
4.187007874015748
 30
0.0
  0
SEQEND
  5
2094
330
1F6E
100
AcDbEntity
  8
0
  0
LINE
  5
1F7A
330
1E
100
AcDbEntity
  8
0
100
AcDbLine
 10
3.285433070866141
 20
4.481299212598425
 30
0.0
 11
3.310039370078739
 21
4.481299212598425
 31
0.0
  0
POLYLINE
  5
1F7B
330
1E
100
AcDbEntity
  8
0
100
AcDb2dPolyline
 66
     1
 10
0.0
 20
0.0
 30
0.0
  0
VERTEX
  5
2095
330
1F7B
100
AcDbEntity
  8
0
100
AcDbVertex
100
AcDb2dVertex
 10
3.040354330708661
 20
4.21259842519685
 30
0.0
  0
VERTEX
  5
2096
330
1F7B
100
AcDbEntity
  8
0
100
AcDbVertex
100
AcDb2dVertex
 10
3.089566929133858
 20
4.221456692913386
 30
0.0
  0
VERTEX
  5
2097
330
1F7B
100
AcDbEntity
  8
0
100
AcDbVertex
100
AcDb2dVertex
 10
3.135826771653543
 20
4.24015748031496
 30
0.0
  0
VERTEX
  5
2098
330
1F7B
100
AcDbEntity
  8
0
100
AcDbVertex
100
AcDb2dVertex
 10
3.178149606299212
 20
4.265748031496062
 30
0.0
  0
VERTEX
  5
2099
330
1F7B
100
AcDbEntity
  8
0
100
AcDbVertex
100
AcDb2dVertex
 10
3.215551181102362
 20
4.299212598425197
 30
0.0
  0
VERTEX
  5
209A
330
1F7B
100
AcDbEntity
  8
0
100
AcDbVertex
100
AcDb2dVertex
 10
3.24507874015748
 20
4.339566929133858
 30
0.0
  0
VERTEX
  5
209B
330
1F7B
100
AcDbEntity
  8
0
100
AcDbVertex
100
AcDb2dVertex
 10
3.26771653543307
 20
4.383858267716535
 30
0.0
  0
VERTEX
  5
209C
330
1F7B
100
AcDbEntity
  8
0
100
AcDbVertex
100
AcDb2dVertex
 10
3.280511811023621
 20
4.432086614173228
 30
0.0
  0
VERTEX
  5
209D
330
1F7B
100
AcDbEntity
  8
0
100
AcDbVertex
100
AcDb2dVertex
 10
3.285433070866141
 20
4.481299212598425
 30
0.0
  0
SEQEND
  5
209E
330
1F7B
100
AcDbEntity
  8
0
  0
LINE
  5
1F86
330
1E
100
AcDbEntity
  8
0
100
AcDbLine
 10
3.040354330708661
 20
4.21259842519685
 30
0.0
 11
3.040354330708661
 21
4.238188976377952
 31
0.0
  0
LINE
  5
1F87
330
1E
100
AcDbEntity
  8
0
100
AcDbLine
 10
3.285433070866141
 20
4.481299212598425
 30
0.0
 11
3.285433070866141
 21
4.630905511811023
 31
0.0
  0
LINE
  5
1F88
330
1E
100
AcDbEntity
  8
0
100
AcDbLine
 10
3.074803149606299
 20
4.869094488188975
 30
0.0
 11
3.074803149606299
 21
4.894685039370078
 31
0.0
  0
POLYLINE
  5
1F89
330
1E
100
AcDbEntity
  8
0
100
AcDb2dPolyline
 66
     1
 10
0.0
 20
0.0
 30
0.0
  0
VERTEX
  5
209F
330
1F89
100
AcDbEntity
  8
0
100
AcDbVertex
100
AcDb2dVertex
 10
3.260826771653543
 20
4.630905511811023
 30
0.0
  0
VERTEX
  5
20A0
330
1F89
100
AcDbEntity
  8
0
100
AcDbVertex
100
AcDb2dVertex
 10
3.255905511811023
 20
4.677165354330708
 30
0.0
  0
VERTEX
  5
20A1
330
1F89
100
AcDbEntity
  8
0
100
AcDbVertex
100
AcDb2dVertex
 10
3.243110236220472
 20
4.721456692913386
 30
0.0
  0
VERTEX
  5
20A2
330
1F89
100
AcDbEntity
  8
0
100
AcDbVertex
100
AcDb2dVertex
 10
3.221456692913385
 20
4.76279527559055
 30
0.0
  0
VERTEX
  5
20A3
330
1F89
100
AcDbEntity
  8
0
100
AcDbVertex
100
AcDb2dVertex
 10
3.192913385826771
 20
4.799212598425197
 30
0.0
  0
VERTEX
  5
20A4
330
1F89
100
AcDbEntity
  8
0
100
AcDbVertex
100
AcDb2dVertex
 10
3.158464566929133
 20
4.829724409448818
 30
0.0
  0
VERTEX
  5
20A5
330
1F89
100
AcDbEntity
  8
0
100
AcDbVertex
100
AcDb2dVertex
 10
3.118110236220472
 20
4.853346456692912
 30
0.0
  0
VERTEX
  5
20A6
330
1F89
100
AcDbEntity
  8
0
100
AcDbVertex
100
AcDb2dVertex
 10
3.074803149606299
 20
4.869094488188975
 30
0.0
  0
SEQEND
  5
20A7
330
1F89
100
AcDbEntity
  8
0
  0
LINE
  5
1F93
330
1E
100
AcDbEntity
  8
0
100
AcDbLine
 10
3.260826771653543
 20
4.481299212598425
 30
0.0
 11
3.260826771653543
 21
4.630905511811023
 31
0.0
  0
POLYLINE
  5
1F94
330
1E
100
AcDbEntity
  8
0
100
AcDb2dPolyline
 66
     1
 10
0.0
 20
0.0
 30
0.0
  0
VERTEX
  5
20A8
330
1F94
100
AcDbEntity
  8
0
100
AcDbVertex
100
AcDb2dVertex
 10
3.040354330708661
 20
4.238188976377952
 30
0.0
  0
VERTEX
  5
20A9
330
1F94
100
AcDbEntity
  8
0
100
AcDbVertex
100
AcDb2dVertex
 10
3.084645669291338
 20
4.246062992125984
 30
0.0
  0
VERTEX
  5
20AA
330
1F94
100
AcDbEntity
  8
0
100
AcDbVertex
100
AcDb2dVertex
 10
3.125984251968503
 20
4.26279527559055
 30
0.0
  0
VERTEX
  5
20AB
330
1F94
100
AcDbEntity
  8
0
100
AcDbVertex
100
AcDb2dVertex
 10
3.164370078740157
 20
4.287401574803149
 30
0.0
  0
VERTEX
  5
20AC
330
1F94
100
AcDbEntity
  8
0
100
AcDbVertex
100
AcDb2dVertex
 10
3.197834645669291
 20
4.316929133858267
 30
0.0
  0
VERTEX
  5
20AD
330
1F94
100
AcDbEntity
  8
0
100
AcDbVertex
100
AcDb2dVertex
 10
3.224409448818897
 20
4.353346456692912
 30
0.0
  0
VERTEX
  5
20AE
330
1F94
100
AcDbEntity
  8
0
100
AcDbVertex
100
AcDb2dVertex
 10
3.244094488188976
 20
4.393700787401574
 30
0.0
  0
VERTEX
  5
20AF
330
1F94
100
AcDbEntity
  8
0
100
AcDbVertex
100
AcDb2dVertex
 10
3.255905511811023
 20
4.437007874015748
 30
0.0
  0
VERTEX
  5
20B0
330
1F94
100
AcDbEntity
  8
0
100
AcDbVertex
100
AcDb2dVertex
 10
3.260826771653543
 20
4.481299212598425
 30
0.0
  0
SEQEND
  5
20B1
330
1F94
100
AcDbEntity
  8
0
  0
LINE
  5
1F9F
330
1E
100
AcDbEntity
  8
0
100
AcDbLine
 10
2.840551181102362
 20
4.238188976377952
 30
0.0
 11
2.848425196850393
 21
4.260826771653543
 31
0.0
  0
LINE
  5
1FA0
330
1E
100
AcDbEntity
  8
0
100
AcDbLine
 10
2.644685039370078
 20
4.481299212598425
 30
0.0
 11
2.621062992125984
 21
4.481299212598425
 31
0.0
  0
LINE
  5
1FA1
330
1E
100
AcDbEntity
  8
0
100
AcDbLine
 10
2.621062992125984
 20
4.630905511811023
 30
0.0
 11
2.644685039370078
 21
4.630905511811023
 31
0.0
  0
POLYLINE
  5
1FA2
330
1E
100
AcDbEntity
  8
0
100
AcDb2dPolyline
 66
     1
 10
0.0
 20
0.0
 30
0.0
  0
VERTEX
  5
20B2
330
1FA2
100
AcDbEntity
  8
0
100
AcDbVertex
100
AcDb2dVertex
 10
2.811023622047244
 20
4.845472440944881
 30
0.0
  0
VERTEX
  5
20B3
330
1FA2
100
AcDbEntity
  8
0
100
AcDbVertex
100
AcDb2dVertex
 10
2.809055118110236
 20
4.857283464566928
 30
0.0
  0
VERTEX
  5
20B4
330
1FA2
100
AcDbEntity
  8
0
100
AcDbVertex
100
AcDb2dVertex
 10
2.806102362204724
 20
4.869094488188975
 30
0.0
  0
SEQEND
  5
20B5
330
1FA2
100
AcDbEntity
  8
0
  0
LINE
  5
1FA7
330
1E
100
AcDbEntity
  8
0
100
AcDbLine
 10
3.074803149606299
 20
4.869094488188975
 30
0.0
 11
3.069881889763779
 21
4.845472440944881
 31
0.0
  0
LINE
  5
1FA8
330
1E
100
AcDbEntity
  8
0
100
AcDbLine
 10
3.237204724409448
 20
4.630905511811023
 30
0.0
 11
3.260826771653543
 21
4.630905511811023
 31
0.0
  0
LINE
  5
1FA9
330
1E
100
AcDbEntity
  8
0
100
AcDbLine
 10
3.260826771653543
 20
4.481299212598425
 30
0.0
 11
3.237204724409448
 21
4.481299212598425
 31
0.0
  0
LINE
  5
1FAA
330
1E
100
AcDbEntity
  8
0
100
AcDbLine
 10
3.033464566929133
 20
4.260826771653543
 30
0.0
 11
3.040354330708661
 21
4.238188976377952
 31
0.0
  0
LINE
  5
1FAB
330
1E
100
AcDbEntity
  8
0
100
AcDbLine
 10
3.310039370078739
 20
4.481299212598425
 30
0.0
 11
3.310039370078739
 21
4.630905511811023
 31
0.0
  0
LINE
  5
1FAC
330
1E
100
AcDbEntity
  8
0
100
AcDbLine
 10
3.036417322834645
 20
4.18011811023622
 30
0.0
 11
2.845472440944881
 21
4.18011811023622
 31
0.0
  0
LINE
  5
1FAD
330
1E
100
AcDbEntity
  8
0
100
AcDbLine
 10
2.845472440944881
 20
4.18011811023622
 30
0.0
 11
2.845472440944881
 21
4.187007874015748
 31
0.0
  0
LINE
  5
1FAE
330
1E
100
AcDbEntity
  8
0
100
AcDbLine
 10
2.809055118110236
 20
4.920275590551181
 30
0.0
 11
2.809055118110236
 21
4.913385826771653
 31
0.0
  0
LINE
  5
1FAF
330
1E
100
AcDbEntity
  8
0
100
AcDbLine
 10
3.071850393700787
 20
4.913385826771653
 30
0.0
 11
3.071850393700787
 21
4.920275590551181
 31
0.0
  0
LINE
  5
1FB0
330
1E
100
AcDbEntity
  8
0
100
AcDbLine
 10
3.036417322834645
 20
4.187007874015748
 30
0.0
 11
3.036417322834645
 21
4.18011811023622
 31
0.0
  0
LINE
  5
1FB1
330
1E
100
AcDbEntity
  8
0
100
AcDbLine
 10
3.364173228346456
 20
4.93011811023622
 30
0.0
 11
3.314960629921259
 21
4.980314960629921
 31
0.0
  0
LINE
  5
1FB2
330
1E
100
AcDbEntity
  8
0
100
AcDbLine
 10
2.793307086614173
 20
4.980314960629921
 30
0.0
 11
2.793307086614173
 21
4.982283464566928
 31
0.0
  0
LINE
  5
1FB3
330
1E
100
AcDbEntity
  8
0
100
AcDbLine
 10
2.793307086614173
 20
4.982283464566928
 30
0.0
 11
2.632874015748031
 21
4.982283464566928
 31
0.0
  0
LINE
  5
1FB4
330
1E
100
AcDbEntity
  8
0
100
AcDbLine
 10
2.632874015748031
 20
4.980314960629921
 30
0.0
 11
2.632874015748031
 21
4.982283464566928
 31
0.0
  0
LINE
  5
1FB5
330
1E
100
AcDbEntity
  8
0
100
AcDbLine
 10
2.566929133858267
 20
4.980314960629921
 30
0.0
 11
2.516732283464566
 21
4.93011811023622
 31
0.0
  0
LINE
  5
1FB6
330
1E
100
AcDbEntity
  8
0
100
AcDbLine
 10
2.516732283464566
 20
4.182086614173228
 30
0.0
 11
2.566929133858267
 21
4.131889763779527
 31
0.0
  0
LINE
  5
1FB7
330
1E
100
AcDbEntity
  8
0
100
AcDbLine
 10
3.08759842519685
 20
4.131889763779527
 30
0.0
 11
2.566929133858267
 21
4.131889763779527
 31
0.0
  0
LINE
  5
1FB8
330
1E
100
AcDbEntity
  8
0
100
AcDbLine
 10
3.08759842519685
 20
4.131889763779527
 30
0.0
 11
3.08759842519685
 21
4.129921259842519
 31
0.0
  0
LINE
  5
1FB9
330
1E
100
AcDbEntity
  8
0
100
AcDbLine
 10
3.08759842519685
 20
4.129921259842519
 30
0.0
 11
3.248031496062992
 21
4.129921259842519
 31
0.0
  0
LINE
  5
1FBA
330
1E
100
AcDbEntity
  8
0
100
AcDbLine
 10
3.248031496062992
 20
4.131889763779527
 30
0.0
 11
3.248031496062992
 21
4.129921259842519
 31
0.0
  0
LINE
  5
1FBB
330
1E
100
AcDbEntity
  8
0
100
AcDbLine
 10
3.314960629921259
 20
4.131889763779527
 30
0.0
 11
3.248031496062992
 21
4.131889763779527
 31
0.0
  0
LINE
  5
1FBC
330
1E
100
AcDbEntity
  8
0
100
AcDbLine
 10
3.314960629921259
 20
4.131889763779527
 30
0.0
 11
3.364173228346456
 21
4.182086614173228
 31
0.0
  0
LINE
  5
1FBD
330
1E
100
AcDbEntity
  8
0
100
AcDbLine
 10
2.639763779527558
 20
5.006889763779527
 30
0.0
 11
2.786417322834645
 21
5.006889763779527
 31
0.0
  0
LINE
  5
1FBE
330
1E
100
AcDbEntity
  8
0
100
AcDbLine
 10
2.632874015748031
 20
4.982283464566928
 30
0.0
 11
2.639763779527558
 21
5.006889763779527
 31
0.0
  0
LINE
  5
1FBF
330
1E
100
AcDbEntity
  8
0
100
AcDbLine
 10
2.639763779527558
 20
5.006889763779527
 30
0.0
 11
2.639763779527558
 21
5.006889763779527
 31
0.0
  0
LINE
  5
1FC0
330
1E
100
AcDbEntity
  8
0
100
AcDbLine
 10
2.786417322834645
 20
5.006889763779527
 30
0.0
 11
2.786417322834645
 21
5.006889763779527
 31
0.0
  0
LINE
  5
1FC1
330
1E
100
AcDbEntity
  8
0
100
AcDbLine
 10
2.786417322834645
 20
5.006889763779527
 30
0.0
 11
2.793307086614173
 21
4.982283464566928
 31
0.0
  0
LINE
  5
1FC2
330
1E
100
AcDbEntity
  8
0
100
AcDbLine
 10
2.786417322834645
 20
5.006889763779527
 30
0.0
 11
2.639763779527558
 21
5.006889763779527
 31
0.0
  0
LINE
  5
1FC3
330
1E
100
AcDbEntity
  8
0
100
AcDbLine
 10
2.848425196850393
 20
4.186023622047244
 30
0.0
 11
2.853346456692913
 21
4.181102362204724
 31
0.0
  0
LINE
  5
1FC4
330
1E
100
AcDbEntity
  8
0
100
AcDbLine
 10
3.028543307086613
 20
4.181102362204724
 30
0.0
 11
3.033464566929133
 21
4.186023622047244
 31
0.0
  0
LINE
  5
1FC5
330
1E
100
AcDbEntity
  8
0
100
AcDbLine
 10
3.242125984251968
 20
4.106299212598425
 30
0.0
 11
3.241141732283464
 21
4.105314960629921
 31
0.0
  0
LINE
  5
1FC6
330
1E
100
AcDbEntity
  8
0
100
AcDbLine
 10
3.094488188976377
 20
4.106299212598425
 30
0.0
 11
3.242125984251968
 21
4.106299212598425
 31
0.0
  0
LINE
  5
1FC7
330
1E
100
AcDbEntity
  8
0
100
AcDbLine
 10
3.094488188976377
 20
4.105314960629921
 30
0.0
 11
3.094488188976377
 21
4.106299212598425
 31
0.0
  0
LINE
  5
1FC8
330
1E
100
AcDbEntity
  8
0
100
AcDbLine
 10
3.241141732283464
 20
4.105314960629921
 30
0.0
 11
3.094488188976377
 21
4.105314960629921
 31
0.0
  0
LINE
  5
1FC9
330
1E
100
AcDbEntity
  8
0
100
AcDbLine
 10
3.248031496062992
 20
4.129921259842519
 30
0.0
 11
3.242125984251968
 21
4.106299212598425
 31
0.0
  0
LINE
  5
1FCA
330
1E
100
AcDbEntity
  8
0
100
AcDbLine
 10
3.094488188976377
 20
4.106299212598425
 30
0.0
 11
3.08759842519685
 21
4.129921259842519
 31
0.0
  0
LINE
  5
1FCB
330
1E
100
AcDbEntity
  8
0
100
AcDbLine
 10
2.853346456692913
 20
4.224409448818897
 30
0.0
 11
2.853346456692913
 21
4.181102362204724
 31
0.0
  0
LINE
  5
1FCC
330
1E
100
AcDbEntity
  8
0
100
AcDbLine
 10
2.853346456692913
 20
4.181102362204724
 30
0.0
 11
3.028543307086613
 21
4.181102362204724
 31
0.0
  0
LINE
  5
1FCD
330
1E
100
AcDbEntity
  8
0
100
AcDbLine
 10
3.028543307086613
 20
4.224409448818897
 30
0.0
 11
3.028543307086613
 21
4.181102362204724
 31
0.0
  0
LINE
  5
1FCE
330
1E
100
AcDbEntity
  8
0
100
AcDbLine
 10
3.028543307086613
 20
4.224409448818897
 30
0.0
 11
2.853346456692913
 21
4.224409448818897
 31
0.0
  0
LINE
  5
1FCF
330
1E
100
AcDbEntity
  8
0
100
AcDbLine
 10
3.036417322834645
 20
4.18011811023622
 30
0.0
 11
3.028543307086613
 21
4.181102362204724
 31
0.0
  0
LINE
  5
1FD0
330
1E
100
AcDbEntity
  8
0
100
AcDbLine
 10
2.853346456692913
 20
4.181102362204724
 30
0.0
 11
2.845472440944881
 21
4.18011811023622
 31
0.0
  0
ENDSEC
  0
SECTION
  2
OBJECTS
  0
DICTIONARY
  5
C
330
0
100
AcDbDictionary
  3
ACAD_GROUP
350
D
  3
ACAD_MLINESTYLE
350
16
  3
ACAD_PLOTSETTINGS
350
18
  3
ACAD_LAYOUT
350
19
1001
ACAD
1000
TREAT_AS_HARD
1070
     0
  0
DICTIONARY
  5
1FD8
330
1E
100
AcDbDictionary
  3
ACAD_LAYOUTSELFREF
350
1FD9
  0
DICTIONARY
  5
1FD6
330
1A
100
AcDbDictionary
  3
ACAD_LAYOUTSELFREF
350
1FD7
  0
DICTIONARY
  5
D
102
{ACAD_REACTORS
330
C
102
}
330
C
100
AcDbDictionary
1001
ACAD
1000
TREAT_AS_HARD
1070
     0
  0
DICTIONARY
  5
16
102
{ACAD_REACTORS
330
C
102
}
330
C
100
AcDbDictionary
  3
STANDARD
350
17
1001
ACAD
1000
TREAT_AS_HARD
1070
     0
  0
DICTIONARY
  5
18
102
{ACAD_REACTORS
330
C
102
}
330
C
100
AcDbDictionary
1001
ACAD
1000
TREAT_AS_HARD
1070
     0
  0
DICTIONARY
  5
19
102
{ACAD_REACTORS
330
C
102
}
330
C
100
AcDbDictionary
1001
ACAD
1000
TREAT_AS_HARD
1070
     0
  0
XRECORD
  5
1FD9
102
{ACAD_REACTORS
330
1FD8
102
}
330
1FD8
100
AcDbXrecord
340
1E
  0
XRECORD
  5
1FD7
102
{ACAD_REACTORS
330
1FD6
102
}
330
1FD6
100
AcDbXrecord
340
1A
  0
MLINESTYLE
  5
17
102
{ACAD_REACTORS
330
16
102
}
330
16
100
AcDbMlineStyle
  2
STANDARD
 70
     0
  3

 62
   256
 51
90.0
 52
90.0
 71
     2
 49
0.5
 62
   256
  6
BYLAYER
 49
-0.5
 62
   256
  6
BYLAYER
  0
ENDSEC
  0
EOF
