  0
SECTION
  2
HEADER
  9
$ACADVER
  1
AC1015
  9
$ACADMAINTVER
 70
     6
  9
$DWGCODEPAGE
  3
ANSI_1252
  9
$INSBASE
 10
0.0
 20
0.0
 30
0.0
  9
$EXTMIN
 10
-0.0003661829982491
 20
-0.0002746372486868
 30
-0.0015258207003583
  9
$EXTMAX
 10
3.610473650985483
 20
2.431137098268532
 30
0.0000000349246037
  9
$LIMMIN
 10
0.0
 20
0.0
  9
$LIMMAX
 10
12.0
 20
9.0
  9
$ORTHOMODE
 70
     0
  9
$REGENMODE
 70
     1
  9
$FILLMODE
 70
     1
  9
$QTEXTMODE
 70
     0
  9
$MIRRTEXT
 70
     1
  9
$LTSCALE
 40
1.0
  9
$ATTMODE
 70
     1
  9
$TEXTSIZE
 40
0.2
  9
$TRACEWID
 40
0.05
  9
$TEXTSTYLE
  7
STANDARD
  9
$CLAYER
  8
0
  9
$CELTYPE
  6
ByLayer
  9
$CECOLOR
 62
   256
  9
$CELTSCALE
 40
1.0
  9
$DISPSILH
 70
     0
  9
$DIMSCALE
 40
1.0
  9
$DIMASZ
 40
0.18
  9
$DIMEXO
 40
0.0625
  9
$DIMDLI
 40
0.38
  9
$DIMRND
 40
0.0
  9
$DIMDLE
 40
0.0
  9
$DIMEXE
 40
0.18
  9
$DIMTP
 40
0.0
  9
$DIMTM
 40
0.0
  9
$DIMTXT
 40
0.18
  9
$DIMCEN
 40
0.09
  9
$DIMTSZ
 40
0.0
  9
$DIMTOL
 70
     0
  9
$DIMLIM
 70
     0
  9
$DIMTIH
 70
     1
  9
$DIMTOH
 70
     1
  9
$DIMSE1
 70
     0
  9
$DIMSE2
 70
     0
  9
$DIMTAD
 70
     0
  9
$DIMZIN
 70
     0
  9
$DIMBLK
  1

  9
$DIMASO
 70
     1
  9
$DIMSHO
 70
     1
  9
$DIMPOST
  1

  9
$DIMAPOST
  1

  9
$DIMALT
 70
     0
  9
$DIMALTD
 70
     2
  9
$DIMALTF
 40
25.4
  9
$DIMLFAC
 40
1.0
  9
$DIMTOFL
 70
     0
  9
$DIMTVP
 40
0.0
  9
$DIMTIX
 70
     0
  9
$DIMSOXD
 70
     0
  9
$DIMSAH
 70
     0
  9
$DIMBLK1
  1

  9
$DIMBLK2
  1

  9
$DIMSTYLE
  2
Standard
  9
$DIMCLRD
 70
     0
  9
$DIMCLRE
 70
     0
  9
$DIMCLRT
 70
     0
  9
$DIMTFAC
 40
1.0
  9
$DIMGAP
 40
0.09
  9
$DIMJUST
 70
     0
  9
$DIMSD1
 70
     0
  9
$DIMSD2
 70
     0
  9
$DIMTOLJ
 70
     1
  9
$DIMTZIN
 70
     0
  9
$DIMALTZ
 70
     0
  9
$DIMALTTZ
 70
     0
  9
$DIMUPT
 70
     0
  9
$DIMDEC
 70
     4
  9
$DIMTDEC
 70
     4
  9
$DIMALTU
 70
     2
  9
$DIMALTTD
 70
     2
  9
$DIMTXSTY
  7
STANDARD
  9
$DIMAUNIT
 70
     0
  9
$DIMADEC
 70
     0
  9
$DIMALTRND
 40
0.0
  9
$DIMAZIN
 70
     0
  9
$DIMDSEP
 70
    46
  9
$DIMATFIT
 70
     3
  9
$DIMFRAC
 70
     0
  9
$DIMLDRBLK
  1

  9
$DIMLUNIT
 70
     2
  9
$DIMLWD
 70
    -2
  9
$DIMLWE
 70
    -2
  9
$DIMTMOVE
 70
     2
  9
$LUNITS
 70
     2
  9
$LUPREC
 70
     4
  9
$SKETCHINC
 40
0.1
  9
$FILLETRAD
 40
0.0
  9
$AUNITS
 70
     0
  9
$AUPREC
 70
     0
  9
$MENU
  1
acad
  9
$ELEVATION
 40
0.0
  9
$PELEVATION
 40
0.0
  9
$THICKNESS
 40
0.0
  9
$LIMCHECK
 70
     0
  9
$CHAMFERA
 40
0.0
  9
$CHAMFERB
 40
0.0
  9
$CHAMFERC
 40
0.0
  9
$CHAMFERD
 40
0.0
  9
$SKPOLY
 70
     0
  9
$TDCREATE
 40
2454341.603749999
  9
$TDUCREATE
 40
2454341.812083333
  9
$TDUPDATE
 40
2454341.610079803
  9
$TDUUPDATE
 40
2454341.818413136
  9
$TDINDWG
 40
0.0002610648
  9
$TDUSRTIMER
 40
0.0002610648
  9
$USRTIMER
 70
     1
  9
$ANGBASE
 50
0.0
  9
$ANGDIR
 70
     0
  9
$PDMODE
 70
     0
  9
$PDSIZE
 40
0.0
  9
$PLINEWID
 40
0.0
  9
$SPLFRAME
 70
     0
  9
$SPLINETYPE
 70
     6
  9
$SPLINESEGS
 70
     8
  9
$HANDSEED
  5
5F5
  9
$SURFTAB1
 70
     6
  9
$SURFTAB2
 70
     6
  9
$SURFTYPE
 70
     6
  9
$SURFU
 70
     6
  9
$SURFV
 70
     6
  9
$UCSBASE
  2

  9
$UCSNAME
  2

  9
$UCSORG
 10
0.0
 20
0.0
 30
0.0
  9
$UCSXDIR
 10
1.0
 20
0.0
 30
0.0
  9
$UCSYDIR
 10
0.0
 20
1.0
 30
0.0
  9
$UCSORTHOREF
  2

  9
$UCSORTHOVIEW
 70
     0
  9
$UCSORGTOP
 10
0.0
 20
0.0
 30
0.0
  9
$UCSORGBOTTOM
 10
0.0
 20
0.0
 30
0.0
  9
$UCSORGLEFT
 10
0.0
 20
0.0
 30
0.0
  9
$UCSORGRIGHT
 10
0.0
 20
0.0
 30
0.0
  9
$UCSORGFRONT
 10
0.0
 20
0.0
 30
0.0
  9
$UCSORGBACK
 10
0.0
 20
0.0
 30
0.0
  9
$PUCSBASE
  2

  9
$PUCSNAME
  2

  9
$PUCSORG
 10
0.0
 20
0.0
 30
0.0
  9
$PUCSXDIR
 10
1.0
 20
0.0
 30
0.0
  9
$PUCSYDIR
 10
0.0
 20
1.0
 30
0.0
  9
$PUCSORTHOREF
  2

  9
$PUCSORTHOVIEW
 70
     0
  9
$PUCSORGTOP
 10
0.0
 20
0.0
 30
0.0
  9
$PUCSORGBOTTOM
 10
0.0
 20
0.0
 30
0.0
  9
$PUCSORGLEFT
 10
0.0
 20
0.0
 30
0.0
  9
$PUCSORGRIGHT
 10
0.0
 20
0.0
 30
0.0
  9
$PUCSORGFRONT
 10
0.0
 20
0.0
 30
0.0
  9
$PUCSORGBACK
 10
0.0
 20
0.0
 30
0.0
  9
$USERI1
 70
     0
  9
$USERI2
 70
     0
  9
$USERI3
 70
     0
  9
$USERI4
 70
     0
  9
$USERI5
 70
     0
  9
$USERR1
 40
0.0
  9
$USERR2
 40
0.0
  9
$USERR3
 40
0.0
  9
$USERR4
 40
0.0
  9
$USERR5
 40
0.0
  9
$WORLDVIEW
 70
     1
  9
$SHADEDGE
 70
     3
  9
$SHADEDIF
 70
    70
  9
$TILEMODE
 70
     1
  9
$MAXACTVP
 70
    16
  9
$PINSBASE
 10
0.0
 20
0.0
 30
0.0
  9
$PLIMCHECK
 70
     0
  9
$PEXTMIN
 10
1.000000000000000E+20
 20
1.000000000000000E+20
 30
1.000000000000000E+20
  9
$PEXTMAX
 10
-1.000000000000000E+20
 20
-1.000000000000000E+20
 30
-1.000000000000000E+20
  9
$PLIMMIN
 10
0.0
 20
0.0
  9
$PLIMMAX
 10
12.0
 20
9.0
  9
$UNITMODE
 70
     0
  9
$VISRETAIN
 70
     0
  9
$PLINEGEN
 70
     0
  9
$PSLTSCALE
 70
     1
  9
$TREEDEPTH
 70
  3020
  9
$CMLSTYLE
  2
Standard
  9
$CMLJUST
 70
     0
  9
$CMLSCALE
 40
1.0
  9
$PROXYGRAPHICS
 70
     1
  9
$MEASUREMENT
 70
     0
  9
$CELWEIGHT
370
    -1
  9
$ENDCAPS
280
     0
  9
$JOINSTYLE
280
     0
  9
$LWDISPLAY
290
     0
  9
$INSUNITS
 70
     0
  9
$HYPERLINKBASE
  1

  9
$STYLESHEET
  1

  9
$XEDIT
290
     1
  9
$CEPSNTYPE
380
     0
  9
$PSTYLEMODE
290
     1
  9
$FINGERPRINTGUID
  2
{64BA70A5-4C52-4768-B98E-2F16B67721A3}
  9
$VERSIONGUID
  2
{EA0126C7-BAC2-4BA7-BE57-BAC517E475A3}
  9
$EXTNAMES
290
     1
  9
$PSVPSCALE
 40
0.0
  9
$OLESTARTUP
290
     0
  0
ENDSEC
  0
SECTION
  2
CLASSES
  0
CLASS
  1
ACDBDICTIONARYWDFLT
  2
AcDbDictionaryWithDefault
  3
AutoCAD 2000
 90
        0
280
     0
281
     0
  0
CLASS
  1
ACDBPLACEHOLDER
  2
AcDbPlaceHolder
  3
AutoCAD 2000
 90
        0
280
     0
281
     0
  0
CLASS
  1
LAYOUT
  2
AcDbLayout
  3
AutoCAD 2000
 90
        0
280
     0
281
     0
  0
ENDSEC
  0
SECTION
  2
TABLES
  0
TABLE
  2
VPORT
  5
8
330
0
100
AcDbSymbolTable
 70
     2
  0
VPORT
  5
5F4
330
8
100
AcDbSymbolTableRecord
100
AcDbViewportTableRecord
  2
*Active
 70
     0
 10
0.0
 20
0.0
 11
1.0
 21
1.0
 12
1.805053733993617
 22
1.215431230509922
 13
0.0
 23
0.0
 14
1.0
 24
1.0
 15
0.0
 25
0.0
 16
0.0
 26
0.0
 36
1.0
 17
0.0
 27
0.0
 37
0.0
 40
2.450456736056518
 41
1.609150326797385
 42
50.0
 43
0.0
 44
0.0
 50
0.0
 51
0.0
 71
     0
 72
   100
 73
     1
 74
     1
 75
     0
 76
     0
 77
     0
 78
     0
281
     0
 65
     1
110
0.0
120
0.0
130
0.0
111
1.0
121
0.0
131
0.0
112
0.0
122
1.0
132
0.0
 79
     0
146
0.0
  0
ENDTAB
  0
TABLE
  2
LTYPE
  5
5
330
0
100
AcDbSymbolTable
 70
    25
  0
LTYPE
  5
13
330
5
100
AcDbSymbolTableRecord
100
AcDbLinetypeTableRecord
  2
ByBlock
 70
     0
  3

 72
    65
 73
     0
 40
0.0
  0
LTYPE
  5
14
330
5
100
AcDbSymbolTableRecord
100
AcDbLinetypeTableRecord
  2
ByLayer
 70
     0
  3

 72
    65
 73
     0
 40
0.0
  0
LTYPE
  5
15
330
5
100
AcDbSymbolTableRecord
100
AcDbLinetypeTableRecord
  2
CONTINUOUS
 70
     0
  3
Solid line
 72
    65
 73
     0
 40
0.0
  0
LTYPE
  5
22
330
5
100
AcDbSymbolTableRecord
100
AcDbLinetypeTableRecord
  2
BORDER
 70
     0
  3
__ __ . __ __ . __ __ . __ __ . __ __ . __ __ .
 72
    65
 73
     6
 40
1.75
 49
0.5
 74
     0
 49
-0.25
 74
     0
 49
0.5
 74
     0
 49
-0.25
 74
     0
 49
0.5
 74
     0
 49
-0.25
 74
     0
  0
LTYPE
  5
23
330
5
100
AcDbSymbolTableRecord
100
AcDbLinetypeTableRecord
  2
BORDER2
 70
     0
  3
__.__.__.__.__.__.__.__.
 72
    65
 73
     6
 40
0.875
 49
0.25
 74
     0
 49
-0.125
 74
     0
 49
0.25
 74
     0
 49
-0.125
 74
     0
 49
0.25
 74
     0
 49
-0.125
 74
     0
  0
LTYPE
  5
24
330
5
100
AcDbSymbolTableRecord
100
AcDbLinetypeTableRecord
  2
BORDERX2
 70
     0
  3
____  ____  .  
 72
    65
 73
     6
 40
3.5
 49
1.0
 74
     0
 49
-0.5
 74
     0
 49
1.0
 74
     0
 49
-0.5
 74
     0
 49
1.0
 74
     0
 49
-0.5
 74
     0
  0
LTYPE
  5
25
330
5
100
AcDbSymbolTableRecord
100
AcDbLinetypeTableRecord
  2
CENTER
 70
     0
  3
____ _ ____ _ ____ _ 
 72
    65
 73
     4
 40
2.0
 49
1.25
 74
     0
 49
-0.25
 74
     0
 49
0.25
 74
     0
 49
-0.25
 74
     0
  0
LTYPE
  5
26
330
5
100
AcDbSymbolTableRecord
100
AcDbLinetypeTableRecord
  2
CENTER2
 70
     0
  3
____ _ ____ _ ____ _ 
 72
    65
 73
     4
 40
1.125
 49
0.75
 74
     0
 49
-0.125
 74
     0
 49
0.125
 74
     0
 49
-0.125
 74
     0
  0
LTYPE
  5
27
330
5
100
AcDbSymbolTableRecord
100
AcDbLinetypeTableRecord
  2
CENTERX2
 70
     0
  3
________  __  
 72
    65
 73
     4
 40
4.0
 49
2.5
 74
     0
 49
-0.5
 74
     0
 49
0.5
 74
     0
 49
-0.5
 74
     0
  0
LTYPE
  5
28
330
5
100
AcDbSymbolTableRecord
100
AcDbLinetypeTableRecord
  2
DASHDOT
 70
     0
  3
__ . __ . __ . __ . 
 72
    65
 73
     4
 40
1.0
 49
0.5
 74
     0
 49
-0.25
 74
     0
 49
0.0
 74
     0
 49
-0.25
 74
     0
  0
LTYPE
  5
29
330
5
100
AcDbSymbolTableRecord
100
AcDbLinetypeTableRecord
  2
DASHDOT2
 70
     0
  3
_._._._._._._._._.
 72
    65
 73
     4
 40
0.5
 49
0.25
 74
     0
 49
-0.125
 74
     0
 49
0.0
 74
     0
 49
-0.125
 74
     0
  0
LTYPE
  5
2A
330
5
100
AcDbSymbolTableRecord
100
AcDbLinetypeTableRecord
  2
DASHDOTX2
 70
     0
  3
____  .  ____  .  
 72
    65
 73
     4
 40
2.0
 49
1.0
 74
     0
 49
-0.5
 74
     0
 49
0.0
 74
     0
 49
-0.5
 74
     0
  0
LTYPE
  5
2B
330
5
100
AcDbSymbolTableRecord
100
AcDbLinetypeTableRecord
  2
DASHED
 70
     0
  3
__ __ __ __ __ __ __ 
 72
    65
 73
     2
 40
0.75
 49
0.5
 74
     0
 49
-0.25
 74
     0
  0
LTYPE
  5
2C
330
5
100
AcDbSymbolTableRecord
100
AcDbLinetypeTableRecord
  2
DASHED2
 70
     0
  3
_ _ _ _ _ _ _ _ _ _ 
 72
    65
 73
     2
 40
0.375
 49
0.25
 74
     0
 49
-0.125
 74
     0
  0
LTYPE
  5
2D
330
5
100
AcDbSymbolTableRecord
100
AcDbLinetypeTableRecord
  2
DASHEDX2
 70
     0
  3
____  ____  ____  
 72
    65
 73
     2
 40
1.5
 49
1.0
 74
     0
 49
-0.5
 74
     0
  0
LTYPE
  5
2E
330
5
100
AcDbSymbolTableRecord
100
AcDbLinetypeTableRecord
  2
DIVIDE
 70
     0
  3
____ . . ____ . . 
 72
    65
 73
     6
 40
1.25
 49
0.5
 74
     0
 49
-0.25
 74
     0
 49
0.0
 74
     0
 49
-0.25
 74
     0
 49
0.0
 74
     0
 49
-0.25
 74
     0
  0
LTYPE
  5
2F
330
5
100
AcDbSymbolTableRecord
100
AcDbLinetypeTableRecord
  2
DIVIDE2
 70
     0
  3
__..__..__..__..__..
 72
    65
 73
     6
 40
0.625
 49
0.25
 74
     0
 49
-0.125
 74
     0
 49
0.0
 74
     0
 49
-0.125
 74
     0
 49
0.0
 74
     0
 49
-0.125
 74
     0
  0
LTYPE
  5
30
330
5
100
AcDbSymbolTableRecord
100
AcDbLinetypeTableRecord
  2
DIVIDEX2
 70
     0
  3
________  .  .  
 72
    65
 73
     6
 40
2.5
 49
1.0
 74
     0
 49
-0.5
 74
     0
 49
0.0
 74
     0
 49
-0.5
 74
     0
 49
0.0
 74
     0
 49
-0.5
 74
     0
  0
LTYPE
  5
31
330
5
100
AcDbSymbolTableRecord
100
AcDbLinetypeTableRecord
  2
DOT
 70
     0
  3
. . . . . . . . . 
 72
    65
 73
     2
 40
0.25
 49
0.0
 74
     0
 49
-0.25
 74
     0
  0
LTYPE
  5
32
330
5
100
AcDbSymbolTableRecord
100
AcDbLinetypeTableRecord
  2
DOT2
 70
     0
  3
..................
 72
    65
 73
     2
 40
0.125
 49
0.0
 74
     0
 49
-0.125
 74
     0
  0
LTYPE
  5
33
330
5
100
AcDbSymbolTableRecord
100
AcDbLinetypeTableRecord
  2
DOTX2
 70
     0
  3
.  .  .  .  .  .  
 72
    65
 73
     2
 40
0.5
 49
0.0
 74
     0
 49
-0.5
 74
     0
  0
LTYPE
  5
34
330
5
100
AcDbSymbolTableRecord
100
AcDbLinetypeTableRecord
  2
HIDDEN
 70
     0
  3
__ __ __ __ __ __ 
 72
    65
 73
     2
 40
0.375
 49
0.25
 74
     0
 49
-0.125
 74
     0
  0
LTYPE
  5
35
330
5
100
AcDbSymbolTableRecord
100
AcDbLinetypeTableRecord
  2
HIDDEN2
 70
     0
  3
_ _ _ _ _ _ _ _ _ 
 72
    65
 73
     2
 40
0.1875
 49
0.125
 74
     0
 49
-0.0625
 74
     0
  0
LTYPE
  5
36
330
5
100
AcDbSymbolTableRecord
100
AcDbLinetypeTableRecord
  2
HIDDENX2
 70
     0
  3
____ ____ ____ ____ 
 72
    65
 73
     2
 40
0.75
 49
0.5
 74
     0
 49
-0.25
 74
     0
  0
LTYPE
  5
37
330
5
100
AcDbSymbolTableRecord
100
AcDbLinetypeTableRecord
  2
PHANTOM
 70
     0
  3
______  __  __  
 72
    65
 73
     6
 40
2.5
 49
1.25
 74
     0
 49
-0.25
 74
     0
 49
0.25
 74
     0
 49
-0.25
 74
     0
 49
0.25
 74
     0
 49
-0.25
 74
     0
  0
LTYPE
  5
38
330
5
100
AcDbSymbolTableRecord
100
AcDbLinetypeTableRecord
  2
PHANTOM2
 70
     0
  3
___ _ _ ___ _ _ 
 72
    65
 73
     6
 40
1.25
 49
0.625
 74
     0
 49
-0.125
 74
     0
 49
0.125
 74
     0
 49
-0.125
 74
     0
 49
0.125
 74
     0
 49
-0.125
 74
     0
  0
LTYPE
  5
39
330
5
100
AcDbSymbolTableRecord
100
AcDbLinetypeTableRecord
  2
PHANTOMX2
 70
     0
  3
___ _ _ ___ _ _ 
 72
    65
 73
     6
 40
5.0
 49
2.5
 74
     0
 49
-0.5
 74
     0
 49
0.5
 74
     0
 49
-0.5
 74
     0
 49
0.5
 74
     0
 49
-0.5
 74
     0
  0
ENDTAB
  0
TABLE
  2
LAYER
  5
2
330
0
100
AcDbSymbolTable
 70
   256
  0
LAYER
  5
10
330
2
100
AcDbSymbolTableRecord
100
AcDbLayerTableRecord
  2
0
 70
     0
 62
     7
  6
CONTINUOUS
370
    -3
390
F
  0
LAYER
  5
3A
330
2
100
AcDbSymbolTableRecord
100
AcDbLayerTableRecord
  2
1
 70
     0
 62
     1
  6
CONTINUOUS
370
    -3
390
F
  0
LAYER
  5
3B
330
2
100
AcDbSymbolTableRecord
100
AcDbLayerTableRecord
  2
2
 70
     0
 62
     2
  6
CONTINUOUS
370
    -3
390
F
  0
LAYER
  5
3C
330
2
100
AcDbSymbolTableRecord
100
AcDbLayerTableRecord
  2
3
 70
     0
 62
     3
  6
CONTINUOUS
370
    -3
390
F
  0
LAYER
  5
3D
330
2
100
AcDbSymbolTableRecord
100
AcDbLayerTableRecord
  2
4
 70
     0
 62
     4
  6
CONTINUOUS
370
    -3
390
F
  0
LAYER
  5
3E
330
2
100
AcDbSymbolTableRecord
100
AcDbLayerTableRecord
  2
5
 70
     0
 62
     5
  6
CONTINUOUS
370
    -3
390
F
  0
LAYER
  5
3F
330
2
100
AcDbSymbolTableRecord
100
AcDbLayerTableRecord
  2
6
 70
     0
 62
     6
  6
CONTINUOUS
370
    -3
390
F
  0
LAYER
  5
40
330
2
100
AcDbSymbolTableRecord
100
AcDbLayerTableRecord
  2
7
 70
     0
 62
     7
  6
CONTINUOUS
370
    -3
390
F
  0
LAYER
  5
41
330
2
100
AcDbSymbolTableRecord
100
AcDbLayerTableRecord
  2
8
 70
     0
 62
     8
  6
CONTINUOUS
370
    -3
390
F
  0
LAYER
  5
42
330
2
100
AcDbSymbolTableRecord
100
AcDbLayerTableRecord
  2
9
 70
     0
 62
     9
  6
CONTINUOUS
370
    -3
390
F
  0
LAYER
  5
43
330
2
100
AcDbSymbolTableRecord
100
AcDbLayerTableRecord
  2
10
 70
     0
 62
    10
  6
CONTINUOUS
370
    -3
390
F
  0
LAYER
  5
44
330
2
100
AcDbSymbolTableRecord
100
AcDbLayerTableRecord
  2
11
 70
     0
 62
    11
  6
CONTINUOUS
370
    -3
390
F
  0
LAYER
  5
45
330
2
100
AcDbSymbolTableRecord
100
AcDbLayerTableRecord
  2
12
 70
     0
 62
    12
  6
CONTINUOUS
370
    -3
390
F
  0
LAYER
  5
46
330
2
100
AcDbSymbolTableRecord
100
AcDbLayerTableRecord
  2
13
 70
     0
 62
    13
  6
CONTINUOUS
370
    -3
390
F
  0
LAYER
  5
47
330
2
100
AcDbSymbolTableRecord
100
AcDbLayerTableRecord
  2
14
 70
     0
 62
    14
  6
CONTINUOUS
370
    -3
390
F
  0
LAYER
  5
48
330
2
100
AcDbSymbolTableRecord
100
AcDbLayerTableRecord
  2
15
 70
     0
 62
    15
  6
CONTINUOUS
370
    -3
390
F
  0
LAYER
  5
49
330
2
100
AcDbSymbolTableRecord
100
AcDbLayerTableRecord
  2
16
 70
     0
 62
    16
  6
CONTINUOUS
370
    -3
390
F
  0
LAYER
  5
4A
330
2
100
AcDbSymbolTableRecord
100
AcDbLayerTableRecord
  2
17
 70
     0
 62
    17
  6
CONTINUOUS
370
    -3
390
F
  0
LAYER
  5
4B
330
2
100
AcDbSymbolTableRecord
100
AcDbLayerTableRecord
  2
18
 70
     0
 62
    18
  6
CONTINUOUS
370
    -3
390
F
  0
LAYER
  5
4C
330
2
100
AcDbSymbolTableRecord
100
AcDbLayerTableRecord
  2
19
 70
     0
 62
    19
  6
CONTINUOUS
370
    -3
390
F
  0
LAYER
  5
4D
330
2
100
AcDbSymbolTableRecord
100
AcDbLayerTableRecord
  2
20
 70
     0
 62
    20
  6
CONTINUOUS
370
    -3
390
F
  0
LAYER
  5
4E
330
2
100
AcDbSymbolTableRecord
100
AcDbLayerTableRecord
  2
21
 70
     0
 62
    21
  6
CONTINUOUS
370
    -3
390
F
  0
LAYER
  5
4F
330
2
100
AcDbSymbolTableRecord
100
AcDbLayerTableRecord
  2
22
 70
     0
 62
    22
  6
CONTINUOUS
370
    -3
390
F
  0
LAYER
  5
50
330
2
100
AcDbSymbolTableRecord
100
AcDbLayerTableRecord
  2
23
 70
     0
 62
    23
  6
CONTINUOUS
370
    -3
390
F
  0
LAYER
  5
51
330
2
100
AcDbSymbolTableRecord
100
AcDbLayerTableRecord
  2
24
 70
     0
 62
    24
  6
CONTINUOUS
370
    -3
390
F
  0
LAYER
  5
52
330
2
100
AcDbSymbolTableRecord
100
AcDbLayerTableRecord
  2
25
 70
     0
 62
    25
  6
CONTINUOUS
370
    -3
390
F
  0
LAYER
  5
53
330
2
100
AcDbSymbolTableRecord
100
AcDbLayerTableRecord
  2
26
 70
     0
 62
    26
  6
CONTINUOUS
370
    -3
390
F
  0
LAYER
  5
54
330
2
100
AcDbSymbolTableRecord
100
AcDbLayerTableRecord
  2
27
 70
     0
 62
    27
  6
CONTINUOUS
370
    -3
390
F
  0
LAYER
  5
55
330
2
100
AcDbSymbolTableRecord
100
AcDbLayerTableRecord
  2
28
 70
     0
 62
    28
  6
CONTINUOUS
370
    -3
390
F
  0
LAYER
  5
56
330
2
100
AcDbSymbolTableRecord
100
AcDbLayerTableRecord
  2
29
 70
     0
 62
    29
  6
CONTINUOUS
370
    -3
390
F
  0
LAYER
  5
57
330
2
100
AcDbSymbolTableRecord
100
AcDbLayerTableRecord
  2
30
 70
     0
 62
    30
  6
CONTINUOUS
370
    -3
390
F
  0
LAYER
  5
58
330
2
100
AcDbSymbolTableRecord
100
AcDbLayerTableRecord
  2
31
 70
     0
 62
    31
  6
CONTINUOUS
370
    -3
390
F
  0
LAYER
  5
59
330
2
100
AcDbSymbolTableRecord
100
AcDbLayerTableRecord
  2
32
 70
     0
 62
    32
  6
CONTINUOUS
370
    -3
390
F
  0
LAYER
  5
5A
330
2
100
AcDbSymbolTableRecord
100
AcDbLayerTableRecord
  2
33
 70
     0
 62
    33
  6
CONTINUOUS
370
    -3
390
F
  0
LAYER
  5
5B
330
2
100
AcDbSymbolTableRecord
100
AcDbLayerTableRecord
  2
34
 70
     0
 62
    34
  6
CONTINUOUS
370
    -3
390
F
  0
LAYER
  5
5C
330
2
100
AcDbSymbolTableRecord
100
AcDbLayerTableRecord
  2
35
 70
     0
 62
    35
  6
CONTINUOUS
370
    -3
390
F
  0
LAYER
  5
5D
330
2
100
AcDbSymbolTableRecord
100
AcDbLayerTableRecord
  2
36
 70
     0
 62
    36
  6
CONTINUOUS
370
    -3
390
F
  0
LAYER
  5
5E
330
2
100
AcDbSymbolTableRecord
100
AcDbLayerTableRecord
  2
37
 70
     0
 62
    37
  6
CONTINUOUS
370
    -3
390
F
  0
LAYER
  5
5F
330
2
100
AcDbSymbolTableRecord
100
AcDbLayerTableRecord
  2
38
 70
     0
 62
    38
  6
CONTINUOUS
370
    -3
390
F
  0
LAYER
  5
60
330
2
100
AcDbSymbolTableRecord
100
AcDbLayerTableRecord
  2
39
 70
     0
 62
    39
  6
CONTINUOUS
370
    -3
390
F
  0
LAYER
  5
61
330
2
100
AcDbSymbolTableRecord
100
AcDbLayerTableRecord
  2
40
 70
     0
 62
    40
  6
CONTINUOUS
370
    -3
390
F
  0
LAYER
  5
62
330
2
100
AcDbSymbolTableRecord
100
AcDbLayerTableRecord
  2
41
 70
     0
 62
    41
  6
CONTINUOUS
370
    -3
390
F
  0
LAYER
  5
63
330
2
100
AcDbSymbolTableRecord
100
AcDbLayerTableRecord
  2
42
 70
     0
 62
    42
  6
CONTINUOUS
370
    -3
390
F
  0
LAYER
  5
64
330
2
100
AcDbSymbolTableRecord
100
AcDbLayerTableRecord
  2
43
 70
     0
 62
    43
  6
CONTINUOUS
370
    -3
390
F
  0
LAYER
  5
65
330
2
100
AcDbSymbolTableRecord
100
AcDbLayerTableRecord
  2
44
 70
     0
 62
    44
  6
CONTINUOUS
370
    -3
390
F
  0
LAYER
  5
66
330
2
100
AcDbSymbolTableRecord
100
AcDbLayerTableRecord
  2
45
 70
     0
 62
    45
  6
CONTINUOUS
370
    -3
390
F
  0
LAYER
  5
67
330
2
100
AcDbSymbolTableRecord
100
AcDbLayerTableRecord
  2
46
 70
     0
 62
    46
  6
CONTINUOUS
370
    -3
390
F
  0
LAYER
  5
68
330
2
100
AcDbSymbolTableRecord
100
AcDbLayerTableRecord
  2
47
 70
     0
 62
    47
  6
CONTINUOUS
370
    -3
390
F
  0
LAYER
  5
69
330
2
100
AcDbSymbolTableRecord
100
AcDbLayerTableRecord
  2
48
 70
     0
 62
    48
  6
CONTINUOUS
370
    -3
390
F
  0
LAYER
  5
6A
330
2
100
AcDbSymbolTableRecord
100
AcDbLayerTableRecord
  2
49
 70
     0
 62
    49
  6
CONTINUOUS
370
    -3
390
F
  0
LAYER
  5
6B
330
2
100
AcDbSymbolTableRecord
100
AcDbLayerTableRecord
  2
50
 70
     0
 62
    50
  6
CONTINUOUS
370
    -3
390
F
  0
LAYER
  5
6C
330
2
100
AcDbSymbolTableRecord
100
AcDbLayerTableRecord
  2
51
 70
     0
 62
    51
  6
CONTINUOUS
370
    -3
390
F
  0
LAYER
  5
6D
330
2
100
AcDbSymbolTableRecord
100
AcDbLayerTableRecord
  2
52
 70
     0
 62
    52
  6
CONTINUOUS
370
    -3
390
F
  0
LAYER
  5
6E
330
2
100
AcDbSymbolTableRecord
100
AcDbLayerTableRecord
  2
53
 70
     0
 62
    53
  6
CONTINUOUS
370
    -3
390
F
  0
LAYER
  5
6F
330
2
100
AcDbSymbolTableRecord
100
AcDbLayerTableRecord
  2
54
 70
     0
 62
    54
  6
CONTINUOUS
370
    -3
390
F
  0
LAYER
  5
70
330
2
100
AcDbSymbolTableRecord
100
AcDbLayerTableRecord
  2
55
 70
     0
 62
    55
  6
CONTINUOUS
370
    -3
390
F
  0
LAYER
  5
71
330
2
100
AcDbSymbolTableRecord
100
AcDbLayerTableRecord
  2
56
 70
     0
 62
    56
  6
CONTINUOUS
370
    -3
390
F
  0
LAYER
  5
72
330
2
100
AcDbSymbolTableRecord
100
AcDbLayerTableRecord
  2
57
 70
     0
 62
    57
  6
CONTINUOUS
370
    -3
390
F
  0
LAYER
  5
73
330
2
100
AcDbSymbolTableRecord
100
AcDbLayerTableRecord
  2
58
 70
     0
 62
    58
  6
CONTINUOUS
370
    -3
390
F
  0
LAYER
  5
74
330
2
100
AcDbSymbolTableRecord
100
AcDbLayerTableRecord
  2
59
 70
     0
 62
    59
  6
CONTINUOUS
370
    -3
390
F
  0
LAYER
  5
75
330
2
100
AcDbSymbolTableRecord
100
AcDbLayerTableRecord
  2
60
 70
     0
 62
    60
  6
CONTINUOUS
370
    -3
390
F
  0
LAYER
  5
76
330
2
100
AcDbSymbolTableRecord
100
AcDbLayerTableRecord
  2
61
 70
     0
 62
    61
  6
CONTINUOUS
370
    -3
390
F
  0
LAYER
  5
77
330
2
100
AcDbSymbolTableRecord
100
AcDbLayerTableRecord
  2
62
 70
     0
 62
    62
  6
CONTINUOUS
370
    -3
390
F
  0
LAYER
  5
78
330
2
100
AcDbSymbolTableRecord
100
AcDbLayerTableRecord
  2
63
 70
     0
 62
    63
  6
CONTINUOUS
370
    -3
390
F
  0
LAYER
  5
79
330
2
100
AcDbSymbolTableRecord
100
AcDbLayerTableRecord
  2
64
 70
     0
 62
    64
  6
CONTINUOUS
370
    -3
390
F
  0
LAYER
  5
7A
330
2
100
AcDbSymbolTableRecord
100
AcDbLayerTableRecord
  2
65
 70
     0
 62
    65
  6
CONTINUOUS
370
    -3
390
F
  0
LAYER
  5
7B
330
2
100
AcDbSymbolTableRecord
100
AcDbLayerTableRecord
  2
66
 70
     0
 62
    66
  6
CONTINUOUS
370
    -3
390
F
  0
LAYER
  5
7C
330
2
100
AcDbSymbolTableRecord
100
AcDbLayerTableRecord
  2
67
 70
     0
 62
    67
  6
CONTINUOUS
370
    -3
390
F
  0
LAYER
  5
7D
330
2
100
AcDbSymbolTableRecord
100
AcDbLayerTableRecord
  2
68
 70
     0
 62
    68
  6
CONTINUOUS
370
    -3
390
F
  0
LAYER
  5
7E
330
2
100
AcDbSymbolTableRecord
100
AcDbLayerTableRecord
  2
69
 70
     0
 62
    69
  6
CONTINUOUS
370
    -3
390
F
  0
LAYER
  5
7F
330
2
100
AcDbSymbolTableRecord
100
AcDbLayerTableRecord
  2
70
 70
     0
 62
    70
  6
CONTINUOUS
370
    -3
390
F
  0
LAYER
  5
80
330
2
100
AcDbSymbolTableRecord
100
AcDbLayerTableRecord
  2
71
 70
     0
 62
    71
  6
CONTINUOUS
370
    -3
390
F
  0
LAYER
  5
81
330
2
100
AcDbSymbolTableRecord
100
AcDbLayerTableRecord
  2
72
 70
     0
 62
    72
  6
CONTINUOUS
370
    -3
390
F
  0
LAYER
  5
82
330
2
100
AcDbSymbolTableRecord
100
AcDbLayerTableRecord
  2
73
 70
     0
 62
    73
  6
CONTINUOUS
370
    -3
390
F
  0
LAYER
  5
83
330
2
100
AcDbSymbolTableRecord
100
AcDbLayerTableRecord
  2
74
 70
     0
 62
    74
  6
CONTINUOUS
370
    -3
390
F
  0
LAYER
  5
84
330
2
100
AcDbSymbolTableRecord
100
AcDbLayerTableRecord
  2
75
 70
     0
 62
    75
  6
CONTINUOUS
370
    -3
390
F
  0
LAYER
  5
85
330
2
100
AcDbSymbolTableRecord
100
AcDbLayerTableRecord
  2
76
 70
     0
 62
    76
  6
CONTINUOUS
370
    -3
390
F
  0
LAYER
  5
86
330
2
100
AcDbSymbolTableRecord
100
AcDbLayerTableRecord
  2
77
 70
     0
 62
    77
  6
CONTINUOUS
370
    -3
390
F
  0
LAYER
  5
87
330
2
100
AcDbSymbolTableRecord
100
AcDbLayerTableRecord
  2
78
 70
     0
 62
    78
  6
CONTINUOUS
370
    -3
390
F
  0
LAYER
  5
88
330
2
100
AcDbSymbolTableRecord
100
AcDbLayerTableRecord
  2
79
 70
     0
 62
    79
  6
CONTINUOUS
370
    -3
390
F
  0
LAYER
  5
89
330
2
100
AcDbSymbolTableRecord
100
AcDbLayerTableRecord
  2
80
 70
     0
 62
    80
  6
CONTINUOUS
370
    -3
390
F
  0
LAYER
  5
8A
330
2
100
AcDbSymbolTableRecord
100
AcDbLayerTableRecord
  2
81
 70
     0
 62
    81
  6
CONTINUOUS
370
    -3
390
F
  0
LAYER
  5
8B
330
2
100
AcDbSymbolTableRecord
100
AcDbLayerTableRecord
  2
82
 70
     0
 62
    82
  6
CONTINUOUS
370
    -3
390
F
  0
LAYER
  5
8C
330
2
100
AcDbSymbolTableRecord
100
AcDbLayerTableRecord
  2
83
 70
     0
 62
    83
  6
CONTINUOUS
370
    -3
390
F
  0
LAYER
  5
8D
330
2
100
AcDbSymbolTableRecord
100
AcDbLayerTableRecord
  2
84
 70
     0
 62
    84
  6
CONTINUOUS
370
    -3
390
F
  0
LAYER
  5
8E
330
2
100
AcDbSymbolTableRecord
100
AcDbLayerTableRecord
  2
85
 70
     0
 62
    85
  6
CONTINUOUS
370
    -3
390
F
  0
LAYER
  5
8F
330
2
100
AcDbSymbolTableRecord
100
AcDbLayerTableRecord
  2
86
 70
     0
 62
    86
  6
CONTINUOUS
370
    -3
390
F
  0
LAYER
  5
90
330
2
100
AcDbSymbolTableRecord
100
AcDbLayerTableRecord
  2
87
 70
     0
 62
    87
  6
CONTINUOUS
370
    -3
390
F
  0
LAYER
  5
91
330
2
100
AcDbSymbolTableRecord
100
AcDbLayerTableRecord
  2
88
 70
     0
 62
    88
  6
CONTINUOUS
370
    -3
390
F
  0
LAYER
  5
92
330
2
100
AcDbSymbolTableRecord
100
AcDbLayerTableRecord
  2
89
 70
     0
 62
    89
  6
CONTINUOUS
370
    -3
390
F
  0
LAYER
  5
93
330
2
100
AcDbSymbolTableRecord
100
AcDbLayerTableRecord
  2
90
 70
     0
 62
    90
  6
CONTINUOUS
370
    -3
390
F
  0
LAYER
  5
94
330
2
100
AcDbSymbolTableRecord
100
AcDbLayerTableRecord
  2
91
 70
     0
 62
    91
  6
CONTINUOUS
370
    -3
390
F
  0
LAYER
  5
95
330
2
100
AcDbSymbolTableRecord
100
AcDbLayerTableRecord
  2
92
 70
     0
 62
    92
  6
CONTINUOUS
370
    -3
390
F
  0
LAYER
  5
96
330
2
100
AcDbSymbolTableRecord
100
AcDbLayerTableRecord
  2
93
 70
     0
 62
    93
  6
CONTINUOUS
370
    -3
390
F
  0
LAYER
  5
97
330
2
100
AcDbSymbolTableRecord
100
AcDbLayerTableRecord
  2
94
 70
     0
 62
    94
  6
CONTINUOUS
370
    -3
390
F
  0
LAYER
  5
98
330
2
100
AcDbSymbolTableRecord
100
AcDbLayerTableRecord
  2
95
 70
     0
 62
    95
  6
CONTINUOUS
370
    -3
390
F
  0
LAYER
  5
99
330
2
100
AcDbSymbolTableRecord
100
AcDbLayerTableRecord
  2
96
 70
     0
 62
    96
  6
CONTINUOUS
370
    -3
390
F
  0
LAYER
  5
9A
330
2
100
AcDbSymbolTableRecord
100
AcDbLayerTableRecord
  2
97
 70
     0
 62
    97
  6
CONTINUOUS
370
    -3
390
F
  0
LAYER
  5
9B
330
2
100
AcDbSymbolTableRecord
100
AcDbLayerTableRecord
  2
98
 70
     0
 62
    98
  6
CONTINUOUS
370
    -3
390
F
  0
LAYER
  5
9C
330
2
100
AcDbSymbolTableRecord
100
AcDbLayerTableRecord
  2
99
 70
     0
 62
    99
  6
CONTINUOUS
370
    -3
390
F
  0
LAYER
  5
9D
330
2
100
AcDbSymbolTableRecord
100
AcDbLayerTableRecord
  2
100
 70
     0
 62
   100
  6
CONTINUOUS
370
    -3
390
F
  0
LAYER
  5
9E
330
2
100
AcDbSymbolTableRecord
100
AcDbLayerTableRecord
  2
101
 70
     0
 62
   101
  6
CONTINUOUS
370
    -3
390
F
  0
LAYER
  5
9F
330
2
100
AcDbSymbolTableRecord
100
AcDbLayerTableRecord
  2
102
 70
     0
 62
   102
  6
CONTINUOUS
370
    -3
390
F
  0
LAYER
  5
A0
330
2
100
AcDbSymbolTableRecord
100
AcDbLayerTableRecord
  2
103
 70
     0
 62
   103
  6
CONTINUOUS
370
    -3
390
F
  0
LAYER
  5
A1
330
2
100
AcDbSymbolTableRecord
100
AcDbLayerTableRecord
  2
104
 70
     0
 62
   104
  6
CONTINUOUS
370
    -3
390
F
  0
LAYER
  5
A2
330
2
100
AcDbSymbolTableRecord
100
AcDbLayerTableRecord
  2
105
 70
     0
 62
   105
  6
CONTINUOUS
370
    -3
390
F
  0
LAYER
  5
A3
330
2
100
AcDbSymbolTableRecord
100
AcDbLayerTableRecord
  2
106
 70
     0
 62
   106
  6
CONTINUOUS
370
    -3
390
F
  0
LAYER
  5
A4
330
2
100
AcDbSymbolTableRecord
100
AcDbLayerTableRecord
  2
107
 70
     0
 62
   107
  6
CONTINUOUS
370
    -3
390
F
  0
LAYER
  5
A5
330
2
100
AcDbSymbolTableRecord
100
AcDbLayerTableRecord
  2
108
 70
     0
 62
   108
  6
CONTINUOUS
370
    -3
390
F
  0
LAYER
  5
A6
330
2
100
AcDbSymbolTableRecord
100
AcDbLayerTableRecord
  2
109
 70
     0
 62
   109
  6
CONTINUOUS
370
    -3
390
F
  0
LAYER
  5
A7
330
2
100
AcDbSymbolTableRecord
100
AcDbLayerTableRecord
  2
110
 70
     0
 62
   110
  6
CONTINUOUS
370
    -3
390
F
  0
LAYER
  5
A8
330
2
100
AcDbSymbolTableRecord
100
AcDbLayerTableRecord
  2
111
 70
     0
 62
   111
  6
CONTINUOUS
370
    -3
390
F
  0
LAYER
  5
A9
330
2
100
AcDbSymbolTableRecord
100
AcDbLayerTableRecord
  2
112
 70
     0
 62
   112
  6
CONTINUOUS
370
    -3
390
F
  0
LAYER
  5
AA
330
2
100
AcDbSymbolTableRecord
100
AcDbLayerTableRecord
  2
113
 70
     0
 62
   113
  6
CONTINUOUS
370
    -3
390
F
  0
LAYER
  5
AB
330
2
100
AcDbSymbolTableRecord
100
AcDbLayerTableRecord
  2
114
 70
     0
 62
   114
  6
CONTINUOUS
370
    -3
390
F
  0
LAYER
  5
AC
330
2
100
AcDbSymbolTableRecord
100
AcDbLayerTableRecord
  2
115
 70
     0
 62
   115
  6
CONTINUOUS
370
    -3
390
F
  0
LAYER
  5
AD
330
2
100
AcDbSymbolTableRecord
100
AcDbLayerTableRecord
  2
116
 70
     0
 62
   116
  6
CONTINUOUS
370
    -3
390
F
  0
LAYER
  5
AE
330
2
100
AcDbSymbolTableRecord
100
AcDbLayerTableRecord
  2
117
 70
     0
 62
   117
  6
CONTINUOUS
370
    -3
390
F
  0
LAYER
  5
AF
330
2
100
AcDbSymbolTableRecord
100
AcDbLayerTableRecord
  2
118
 70
     0
 62
   118
  6
CONTINUOUS
370
    -3
390
F
  0
LAYER
  5
B0
330
2
100
AcDbSymbolTableRecord
100
AcDbLayerTableRecord
  2
119
 70
     0
 62
   119
  6
CONTINUOUS
370
    -3
390
F
  0
LAYER
  5
B1
330
2
100
AcDbSymbolTableRecord
100
AcDbLayerTableRecord
  2
120
 70
     0
 62
   120
  6
CONTINUOUS
370
    -3
390
F
  0
LAYER
  5
B2
330
2
100
AcDbSymbolTableRecord
100
AcDbLayerTableRecord
  2
121
 70
     0
 62
   121
  6
CONTINUOUS
370
    -3
390
F
  0
LAYER
  5
B3
330
2
100
AcDbSymbolTableRecord
100
AcDbLayerTableRecord
  2
122
 70
     0
 62
   122
  6
CONTINUOUS
370
    -3
390
F
  0
LAYER
  5
B4
330
2
100
AcDbSymbolTableRecord
100
AcDbLayerTableRecord
  2
123
 70
     0
 62
   123
  6
CONTINUOUS
370
    -3
390
F
  0
LAYER
  5
B5
330
2
100
AcDbSymbolTableRecord
100
AcDbLayerTableRecord
  2
124
 70
     0
 62
   124
  6
CONTINUOUS
370
    -3
390
F
  0
LAYER
  5
B6
330
2
100
AcDbSymbolTableRecord
100
AcDbLayerTableRecord
  2
125
 70
     0
 62
   125
  6
CONTINUOUS
370
    -3
390
F
  0
LAYER
  5
B7
330
2
100
AcDbSymbolTableRecord
100
AcDbLayerTableRecord
  2
126
 70
     0
 62
   126
  6
CONTINUOUS
370
    -3
390
F
  0
LAYER
  5
B8
330
2
100
AcDbSymbolTableRecord
100
AcDbLayerTableRecord
  2
127
 70
     0
 62
   127
  6
CONTINUOUS
370
    -3
390
F
  0
LAYER
  5
B9
330
2
100
AcDbSymbolTableRecord
100
AcDbLayerTableRecord
  2
128
 70
     0
 62
   128
  6
CONTINUOUS
370
    -3
390
F
  0
LAYER
  5
BA
330
2
100
AcDbSymbolTableRecord
100
AcDbLayerTableRecord
  2
129
 70
     0
 62
   129
  6
CONTINUOUS
370
    -3
390
F
  0
LAYER
  5
BB
330
2
100
AcDbSymbolTableRecord
100
AcDbLayerTableRecord
  2
130
 70
     0
 62
   130
  6
CONTINUOUS
370
    -3
390
F
  0
LAYER
  5
BC
330
2
100
AcDbSymbolTableRecord
100
AcDbLayerTableRecord
  2
131
 70
     0
 62
   131
  6
CONTINUOUS
370
    -3
390
F
  0
LAYER
  5
BD
330
2
100
AcDbSymbolTableRecord
100
AcDbLayerTableRecord
  2
132
 70
     0
 62
   132
  6
CONTINUOUS
370
    -3
390
F
  0
LAYER
  5
BE
330
2
100
AcDbSymbolTableRecord
100
AcDbLayerTableRecord
  2
133
 70
     0
 62
   133
  6
CONTINUOUS
370
    -3
390
F
  0
LAYER
  5
BF
330
2
100
AcDbSymbolTableRecord
100
AcDbLayerTableRecord
  2
134
 70
     0
 62
   134
  6
CONTINUOUS
370
    -3
390
F
  0
LAYER
  5
C0
330
2
100
AcDbSymbolTableRecord
100
AcDbLayerTableRecord
  2
135
 70
     0
 62
   135
  6
CONTINUOUS
370
    -3
390
F
  0
LAYER
  5
C1
330
2
100
AcDbSymbolTableRecord
100
AcDbLayerTableRecord
  2
136
 70
     0
 62
   136
  6
CONTINUOUS
370
    -3
390
F
  0
LAYER
  5
C2
330
2
100
AcDbSymbolTableRecord
100
AcDbLayerTableRecord
  2
137
 70
     0
 62
   137
  6
CONTINUOUS
370
    -3
390
F
  0
LAYER
  5
C3
330
2
100
AcDbSymbolTableRecord
100
AcDbLayerTableRecord
  2
138
 70
     0
 62
   138
  6
CONTINUOUS
370
    -3
390
F
  0
LAYER
  5
C4
330
2
100
AcDbSymbolTableRecord
100
AcDbLayerTableRecord
  2
139
 70
     0
 62
   139
  6
CONTINUOUS
370
    -3
390
F
  0
LAYER
  5
C5
330
2
100
AcDbSymbolTableRecord
100
AcDbLayerTableRecord
  2
140
 70
     0
 62
   140
  6
CONTINUOUS
370
    -3
390
F
  0
LAYER
  5
C6
330
2
100
AcDbSymbolTableRecord
100
AcDbLayerTableRecord
  2
141
 70
     0
 62
   141
  6
CONTINUOUS
370
    -3
390
F
  0
LAYER
  5
C7
330
2
100
AcDbSymbolTableRecord
100
AcDbLayerTableRecord
  2
142
 70
     0
 62
   142
  6
CONTINUOUS
370
    -3
390
F
  0
LAYER
  5
C8
330
2
100
AcDbSymbolTableRecord
100
AcDbLayerTableRecord
  2
143
 70
     0
 62
   143
  6
CONTINUOUS
370
    -3
390
F
  0
LAYER
  5
C9
330
2
100
AcDbSymbolTableRecord
100
AcDbLayerTableRecord
  2
144
 70
     0
 62
   144
  6
CONTINUOUS
370
    -3
390
F
  0
LAYER
  5
CA
330
2
100
AcDbSymbolTableRecord
100
AcDbLayerTableRecord
  2
145
 70
     0
 62
   145
  6
CONTINUOUS
370
    -3
390
F
  0
LAYER
  5
CB
330
2
100
AcDbSymbolTableRecord
100
AcDbLayerTableRecord
  2
146
 70
     0
 62
   146
  6
CONTINUOUS
370
    -3
390
F
  0
LAYER
  5
CC
330
2
100
AcDbSymbolTableRecord
100
AcDbLayerTableRecord
  2
147
 70
     0
 62
   147
  6
CONTINUOUS
370
    -3
390
F
  0
LAYER
  5
CD
330
2
100
AcDbSymbolTableRecord
100
AcDbLayerTableRecord
  2
148
 70
     0
 62
   148
  6
CONTINUOUS
370
    -3
390
F
  0
LAYER
  5
CE
330
2
100
AcDbSymbolTableRecord
100
AcDbLayerTableRecord
  2
149
 70
     0
 62
   149
  6
CONTINUOUS
370
    -3
390
F
  0
LAYER
  5
CF
330
2
100
AcDbSymbolTableRecord
100
AcDbLayerTableRecord
  2
150
 70
     0
 62
   150
  6
CONTINUOUS
370
    -3
390
F
  0
LAYER
  5
D0
330
2
100
AcDbSymbolTableRecord
100
AcDbLayerTableRecord
  2
151
 70
     0
 62
   151
  6
CONTINUOUS
370
    -3
390
F
  0
LAYER
  5
D1
330
2
100
AcDbSymbolTableRecord
100
AcDbLayerTableRecord
  2
152
 70
     0
 62
   152
  6
CONTINUOUS
370
    -3
390
F
  0
LAYER
  5
D2
330
2
100
AcDbSymbolTableRecord
100
AcDbLayerTableRecord
  2
153
 70
     0
 62
   153
  6
CONTINUOUS
370
    -3
390
F
  0
LAYER
  5
D3
330
2
100
AcDbSymbolTableRecord
100
AcDbLayerTableRecord
  2
154
 70
     0
 62
   154
  6
CONTINUOUS
370
    -3
390
F
  0
LAYER
  5
D4
330
2
100
AcDbSymbolTableRecord
100
AcDbLayerTableRecord
  2
155
 70
     0
 62
   155
  6
CONTINUOUS
370
    -3
390
F
  0
LAYER
  5
D5
330
2
100
AcDbSymbolTableRecord
100
AcDbLayerTableRecord
  2
156
 70
     0
 62
   156
  6
CONTINUOUS
370
    -3
390
F
  0
LAYER
  5
D6
330
2
100
AcDbSymbolTableRecord
100
AcDbLayerTableRecord
  2
157
 70
     0
 62
   157
  6
CONTINUOUS
370
    -3
390
F
  0
LAYER
  5
D7
330
2
100
AcDbSymbolTableRecord
100
AcDbLayerTableRecord
  2
158
 70
     0
 62
   158
  6
CONTINUOUS
370
    -3
390
F
  0
LAYER
  5
D8
330
2
100
AcDbSymbolTableRecord
100
AcDbLayerTableRecord
  2
159
 70
     0
 62
   159
  6
CONTINUOUS
370
    -3
390
F
  0
LAYER
  5
D9
330
2
100
AcDbSymbolTableRecord
100
AcDbLayerTableRecord
  2
160
 70
     0
 62
   160
  6
CONTINUOUS
370
    -3
390
F
  0
LAYER
  5
DA
330
2
100
AcDbSymbolTableRecord
100
AcDbLayerTableRecord
  2
161
 70
     0
 62
   161
  6
CONTINUOUS
370
    -3
390
F
  0
LAYER
  5
DB
330
2
100
AcDbSymbolTableRecord
100
AcDbLayerTableRecord
  2
162
 70
     0
 62
   162
  6
CONTINUOUS
370
    -3
390
F
  0
LAYER
  5
DC
330
2
100
AcDbSymbolTableRecord
100
AcDbLayerTableRecord
  2
163
 70
     0
 62
   163
  6
CONTINUOUS
370
    -3
390
F
  0
LAYER
  5
DD
330
2
100
AcDbSymbolTableRecord
100
AcDbLayerTableRecord
  2
164
 70
     0
 62
   164
  6
CONTINUOUS
370
    -3
390
F
  0
LAYER
  5
DE
330
2
100
AcDbSymbolTableRecord
100
AcDbLayerTableRecord
  2
165
 70
     0
 62
   165
  6
CONTINUOUS
370
    -3
390
F
  0
LAYER
  5
DF
330
2
100
AcDbSymbolTableRecord
100
AcDbLayerTableRecord
  2
166
 70
     0
 62
   166
  6
CONTINUOUS
370
    -3
390
F
  0
LAYER
  5
E0
330
2
100
AcDbSymbolTableRecord
100
AcDbLayerTableRecord
  2
167
 70
     0
 62
   167
  6
CONTINUOUS
370
    -3
390
F
  0
LAYER
  5
E1
330
2
100
AcDbSymbolTableRecord
100
AcDbLayerTableRecord
  2
168
 70
     0
 62
   168
  6
CONTINUOUS
370
    -3
390
F
  0
LAYER
  5
E2
330
2
100
AcDbSymbolTableRecord
100
AcDbLayerTableRecord
  2
169
 70
     0
 62
   169
  6
CONTINUOUS
370
    -3
390
F
  0
LAYER
  5
E3
330
2
100
AcDbSymbolTableRecord
100
AcDbLayerTableRecord
  2
170
 70
     0
 62
   170
  6
CONTINUOUS
370
    -3
390
F
  0
LAYER
  5
E4
330
2
100
AcDbSymbolTableRecord
100
AcDbLayerTableRecord
  2
171
 70
     0
 62
   171
  6
CONTINUOUS
370
    -3
390
F
  0
LAYER
  5
E5
330
2
100
AcDbSymbolTableRecord
100
AcDbLayerTableRecord
  2
172
 70
     0
 62
   172
  6
CONTINUOUS
370
    -3
390
F
  0
LAYER
  5
E6
330
2
100
AcDbSymbolTableRecord
100
AcDbLayerTableRecord
  2
173
 70
     0
 62
   173
  6
CONTINUOUS
370
    -3
390
F
  0
LAYER
  5
E7
330
2
100
AcDbSymbolTableRecord
100
AcDbLayerTableRecord
  2
174
 70
     0
 62
   174
  6
CONTINUOUS
370
    -3
390
F
  0
LAYER
  5
E8
330
2
100
AcDbSymbolTableRecord
100
AcDbLayerTableRecord
  2
175
 70
     0
 62
   175
  6
CONTINUOUS
370
    -3
390
F
  0
LAYER
  5
E9
330
2
100
AcDbSymbolTableRecord
100
AcDbLayerTableRecord
  2
176
 70
     0
 62
   176
  6
CONTINUOUS
370
    -3
390
F
  0
LAYER
  5
EA
330
2
100
AcDbSymbolTableRecord
100
AcDbLayerTableRecord
  2
177
 70
     0
 62
   177
  6
CONTINUOUS
370
    -3
390
F
  0
LAYER
  5
EB
330
2
100
AcDbSymbolTableRecord
100
AcDbLayerTableRecord
  2
178
 70
     0
 62
   178
  6
CONTINUOUS
370
    -3
390
F
  0
LAYER
  5
EC
330
2
100
AcDbSymbolTableRecord
100
AcDbLayerTableRecord
  2
179
 70
     0
 62
   179
  6
CONTINUOUS
370
    -3
390
F
  0
LAYER
  5
ED
330
2
100
AcDbSymbolTableRecord
100
AcDbLayerTableRecord
  2
180
 70
     0
 62
   180
  6
CONTINUOUS
370
    -3
390
F
  0
LAYER
  5
EE
330
2
100
AcDbSymbolTableRecord
100
AcDbLayerTableRecord
  2
181
 70
     0
 62
   181
  6
CONTINUOUS
370
    -3
390
F
  0
LAYER
  5
EF
330
2
100
AcDbSymbolTableRecord
100
AcDbLayerTableRecord
  2
182
 70
     0
 62
   182
  6
CONTINUOUS
370
    -3
390
F
  0
LAYER
  5
F0
330
2
100
AcDbSymbolTableRecord
100
AcDbLayerTableRecord
  2
183
 70
     0
 62
   183
  6
CONTINUOUS
370
    -3
390
F
  0
LAYER
  5
F1
330
2
100
AcDbSymbolTableRecord
100
AcDbLayerTableRecord
  2
184
 70
     0
 62
   184
  6
CONTINUOUS
370
    -3
390
F
  0
LAYER
  5
F2
330
2
100
AcDbSymbolTableRecord
100
AcDbLayerTableRecord
  2
185
 70
     0
 62
   185
  6
CONTINUOUS
370
    -3
390
F
  0
LAYER
  5
F3
330
2
100
AcDbSymbolTableRecord
100
AcDbLayerTableRecord
  2
186
 70
     0
 62
   186
  6
CONTINUOUS
370
    -3
390
F
  0
LAYER
  5
F4
330
2
100
AcDbSymbolTableRecord
100
AcDbLayerTableRecord
  2
187
 70
     0
 62
   187
  6
CONTINUOUS
370
    -3
390
F
  0
LAYER
  5
F5
330
2
100
AcDbSymbolTableRecord
100
AcDbLayerTableRecord
  2
188
 70
     0
 62
   188
  6
CONTINUOUS
370
    -3
390
F
  0
LAYER
  5
F6
330
2
100
AcDbSymbolTableRecord
100
AcDbLayerTableRecord
  2
189
 70
     0
 62
   189
  6
CONTINUOUS
370
    -3
390
F
  0
LAYER
  5
F7
330
2
100
AcDbSymbolTableRecord
100
AcDbLayerTableRecord
  2
190
 70
     0
 62
   190
  6
CONTINUOUS
370
    -3
390
F
  0
LAYER
  5
F8
330
2
100
AcDbSymbolTableRecord
100
AcDbLayerTableRecord
  2
191
 70
     0
 62
   191
  6
CONTINUOUS
370
    -3
390
F
  0
LAYER
  5
F9
330
2
100
AcDbSymbolTableRecord
100
AcDbLayerTableRecord
  2
192
 70
     0
 62
   192
  6
CONTINUOUS
370
    -3
390
F
  0
LAYER
  5
FA
330
2
100
AcDbSymbolTableRecord
100
AcDbLayerTableRecord
  2
193
 70
     0
 62
   193
  6
CONTINUOUS
370
    -3
390
F
  0
LAYER
  5
FB
330
2
100
AcDbSymbolTableRecord
100
AcDbLayerTableRecord
  2
194
 70
     0
 62
   194
  6
CONTINUOUS
370
    -3
390
F
  0
LAYER
  5
FC
330
2
100
AcDbSymbolTableRecord
100
AcDbLayerTableRecord
  2
195
 70
     0
 62
   195
  6
CONTINUOUS
370
    -3
390
F
  0
LAYER
  5
FD
330
2
100
AcDbSymbolTableRecord
100
AcDbLayerTableRecord
  2
196
 70
     0
 62
   196
  6
CONTINUOUS
370
    -3
390
F
  0
LAYER
  5
FE
330
2
100
AcDbSymbolTableRecord
100
AcDbLayerTableRecord
  2
197
 70
     0
 62
   197
  6
CONTINUOUS
370
    -3
390
F
  0
LAYER
  5
FF
330
2
100
AcDbSymbolTableRecord
100
AcDbLayerTableRecord
  2
198
 70
     0
 62
   198
  6
CONTINUOUS
370
    -3
390
F
  0
LAYER
  5
100
330
2
100
AcDbSymbolTableRecord
100
AcDbLayerTableRecord
  2
199
 70
     0
 62
   199
  6
CONTINUOUS
370
    -3
390
F
  0
LAYER
  5
101
330
2
100
AcDbSymbolTableRecord
100
AcDbLayerTableRecord
  2
200
 70
     0
 62
   200
  6
CONTINUOUS
370
    -3
390
F
  0
LAYER
  5
102
330
2
100
AcDbSymbolTableRecord
100
AcDbLayerTableRecord
  2
201
 70
     0
 62
   201
  6
CONTINUOUS
370
    -3
390
F
  0
LAYER
  5
103
330
2
100
AcDbSymbolTableRecord
100
AcDbLayerTableRecord
  2
202
 70
     0
 62
   202
  6
CONTINUOUS
370
    -3
390
F
  0
LAYER
  5
104
330
2
100
AcDbSymbolTableRecord
100
AcDbLayerTableRecord
  2
203
 70
     0
 62
   203
  6
CONTINUOUS
370
    -3
390
F
  0
LAYER
  5
105
330
2
100
AcDbSymbolTableRecord
100
AcDbLayerTableRecord
  2
204
 70
     0
 62
   204
  6
CONTINUOUS
370
    -3
390
F
  0
LAYER
  5
106
330
2
100
AcDbSymbolTableRecord
100
AcDbLayerTableRecord
  2
205
 70
     0
 62
   205
  6
CONTINUOUS
370
    -3
390
F
  0
LAYER
  5
107
330
2
100
AcDbSymbolTableRecord
100
AcDbLayerTableRecord
  2
206
 70
     0
 62
   206
  6
CONTINUOUS
370
    -3
390
F
  0
LAYER
  5
108
330
2
100
AcDbSymbolTableRecord
100
AcDbLayerTableRecord
  2
207
 70
     0
 62
   207
  6
CONTINUOUS
370
    -3
390
F
  0
LAYER
  5
109
330
2
100
AcDbSymbolTableRecord
100
AcDbLayerTableRecord
  2
208
 70
     0
 62
   208
  6
CONTINUOUS
370
    -3
390
F
  0
LAYER
  5
10A
330
2
100
AcDbSymbolTableRecord
100
AcDbLayerTableRecord
  2
209
 70
     0
 62
   209
  6
CONTINUOUS
370
    -3
390
F
  0
LAYER
  5
10B
330
2
100
AcDbSymbolTableRecord
100
AcDbLayerTableRecord
  2
210
 70
     0
 62
   210
  6
CONTINUOUS
370
    -3
390
F
  0
LAYER
  5
10C
330
2
100
AcDbSymbolTableRecord
100
AcDbLayerTableRecord
  2
211
 70
     0
 62
   211
  6
CONTINUOUS
370
    -3
390
F
  0
LAYER
  5
10D
330
2
100
AcDbSymbolTableRecord
100
AcDbLayerTableRecord
  2
212
 70
     0
 62
   212
  6
CONTINUOUS
370
    -3
390
F
  0
LAYER
  5
10E
330
2
100
AcDbSymbolTableRecord
100
AcDbLayerTableRecord
  2
213
 70
     0
 62
   213
  6
CONTINUOUS
370
    -3
390
F
  0
LAYER
  5
10F
330
2
100
AcDbSymbolTableRecord
100
AcDbLayerTableRecord
  2
214
 70
     0
 62
   214
  6
CONTINUOUS
370
    -3
390
F
  0
LAYER
  5
110
330
2
100
AcDbSymbolTableRecord
100
AcDbLayerTableRecord
  2
215
 70
     0
 62
   215
  6
CONTINUOUS
370
    -3
390
F
  0
LAYER
  5
111
330
2
100
AcDbSymbolTableRecord
100
AcDbLayerTableRecord
  2
216
 70
     0
 62
   216
  6
CONTINUOUS
370
    -3
390
F
  0
LAYER
  5
112
330
2
100
AcDbSymbolTableRecord
100
AcDbLayerTableRecord
  2
217
 70
     0
 62
   217
  6
CONTINUOUS
370
    -3
390
F
  0
LAYER
  5
113
330
2
100
AcDbSymbolTableRecord
100
AcDbLayerTableRecord
  2
218
 70
     0
 62
   218
  6
CONTINUOUS
370
    -3
390
F
  0
LAYER
  5
114
330
2
100
AcDbSymbolTableRecord
100
AcDbLayerTableRecord
  2
219
 70
     0
 62
   219
  6
CONTINUOUS
370
    -3
390
F
  0
LAYER
  5
115
330
2
100
AcDbSymbolTableRecord
100
AcDbLayerTableRecord
  2
220
 70
     0
 62
   220
  6
CONTINUOUS
370
    -3
390
F
  0
LAYER
  5
116
330
2
100
AcDbSymbolTableRecord
100
AcDbLayerTableRecord
  2
221
 70
     0
 62
   221
  6
CONTINUOUS
370
    -3
390
F
  0
LAYER
  5
117
330
2
100
AcDbSymbolTableRecord
100
AcDbLayerTableRecord
  2
222
 70
     0
 62
   222
  6
CONTINUOUS
370
    -3
390
F
  0
LAYER
  5
118
330
2
100
AcDbSymbolTableRecord
100
AcDbLayerTableRecord
  2
223
 70
     0
 62
   223
  6
CONTINUOUS
370
    -3
390
F
  0
LAYER
  5
119
330
2
100
AcDbSymbolTableRecord
100
AcDbLayerTableRecord
  2
224
 70
     0
 62
   224
  6
CONTINUOUS
370
    -3
390
F
  0
LAYER
  5
11A
330
2
100
AcDbSymbolTableRecord
100
AcDbLayerTableRecord
  2
225
 70
     0
 62
   225
  6
CONTINUOUS
370
    -3
390
F
  0
LAYER
  5
11B
330
2
100
AcDbSymbolTableRecord
100
AcDbLayerTableRecord
  2
226
 70
     0
 62
   226
  6
CONTINUOUS
370
    -3
390
F
  0
LAYER
  5
11C
330
2
100
AcDbSymbolTableRecord
100
AcDbLayerTableRecord
  2
227
 70
     0
 62
   227
  6
CONTINUOUS
370
    -3
390
F
  0
LAYER
  5
11D
330
2
100
AcDbSymbolTableRecord
100
AcDbLayerTableRecord
  2
228
 70
     0
 62
   228
  6
CONTINUOUS
370
    -3
390
F
  0
LAYER
  5
11E
330
2
100
AcDbSymbolTableRecord
100
AcDbLayerTableRecord
  2
229
 70
     0
 62
   229
  6
CONTINUOUS
370
    -3
390
F
  0
LAYER
  5
11F
330
2
100
AcDbSymbolTableRecord
100
AcDbLayerTableRecord
  2
230
 70
     0
 62
   230
  6
CONTINUOUS
370
    -3
390
F
  0
LAYER
  5
120
330
2
100
AcDbSymbolTableRecord
100
AcDbLayerTableRecord
  2
231
 70
     0
 62
   231
  6
CONTINUOUS
370
    -3
390
F
  0
LAYER
  5
121
330
2
100
AcDbSymbolTableRecord
100
AcDbLayerTableRecord
  2
232
 70
     0
 62
   232
  6
CONTINUOUS
370
    -3
390
F
  0
LAYER
  5
122
330
2
100
AcDbSymbolTableRecord
100
AcDbLayerTableRecord
  2
233
 70
     0
 62
   233
  6
CONTINUOUS
370
    -3
390
F
  0
LAYER
  5
123
330
2
100
AcDbSymbolTableRecord
100
AcDbLayerTableRecord
  2
234
 70
     0
 62
   234
  6
CONTINUOUS
370
    -3
390
F
  0
LAYER
  5
124
330
2
100
AcDbSymbolTableRecord
100
AcDbLayerTableRecord
  2
235
 70
     0
 62
   235
  6
CONTINUOUS
370
    -3
390
F
  0
LAYER
  5
125
330
2
100
AcDbSymbolTableRecord
100
AcDbLayerTableRecord
  2
236
 70
     0
 62
   236
  6
CONTINUOUS
370
    -3
390
F
  0
LAYER
  5
126
330
2
100
AcDbSymbolTableRecord
100
AcDbLayerTableRecord
  2
237
 70
     0
 62
   237
  6
CONTINUOUS
370
    -3
390
F
  0
LAYER
  5
127
330
2
100
AcDbSymbolTableRecord
100
AcDbLayerTableRecord
  2
238
 70
     0
 62
   238
  6
CONTINUOUS
370
    -3
390
F
  0
LAYER
  5
128
330
2
100
AcDbSymbolTableRecord
100
AcDbLayerTableRecord
  2
239
 70
     0
 62
   239
  6
CONTINUOUS
370
    -3
390
F
  0
LAYER
  5
129
330
2
100
AcDbSymbolTableRecord
100
AcDbLayerTableRecord
  2
240
 70
     0
 62
   240
  6
CONTINUOUS
370
    -3
390
F
  0
LAYER
  5
12A
330
2
100
AcDbSymbolTableRecord
100
AcDbLayerTableRecord
  2
241
 70
     0
 62
   241
  6
CONTINUOUS
370
    -3
390
F
  0
LAYER
  5
12B
330
2
100
AcDbSymbolTableRecord
100
AcDbLayerTableRecord
  2
242
 70
     0
 62
   242
  6
CONTINUOUS
370
    -3
390
F
  0
LAYER
  5
12C
330
2
100
AcDbSymbolTableRecord
100
AcDbLayerTableRecord
  2
243
 70
     0
 62
   243
  6
CONTINUOUS
370
    -3
390
F
  0
LAYER
  5
12D
330
2
100
AcDbSymbolTableRecord
100
AcDbLayerTableRecord
  2
244
 70
     0
 62
   244
  6
CONTINUOUS
370
    -3
390
F
  0
LAYER
  5
12E
330
2
100
AcDbSymbolTableRecord
100
AcDbLayerTableRecord
  2
245
 70
     0
 62
   245
  6
CONTINUOUS
370
    -3
390
F
  0
LAYER
  5
12F
330
2
100
AcDbSymbolTableRecord
100
AcDbLayerTableRecord
  2
246
 70
     0
 62
   246
  6
CONTINUOUS
370
    -3
390
F
  0
LAYER
  5
130
330
2
100
AcDbSymbolTableRecord
100
AcDbLayerTableRecord
  2
247
 70
     0
 62
   247
  6
CONTINUOUS
370
    -3
390
F
  0
LAYER
  5
131
330
2
100
AcDbSymbolTableRecord
100
AcDbLayerTableRecord
  2
248
 70
     0
 62
   248
  6
CONTINUOUS
370
    -3
390
F
  0
LAYER
  5
132
330
2
100
AcDbSymbolTableRecord
100
AcDbLayerTableRecord
  2
249
 70
     0
 62
   249
  6
CONTINUOUS
370
    -3
390
F
  0
LAYER
  5
133
330
2
100
AcDbSymbolTableRecord
100
AcDbLayerTableRecord
  2
250
 70
     0
 62
   250
  6
CONTINUOUS
370
    -3
390
F
  0
LAYER
  5
134
330
2
100
AcDbSymbolTableRecord
100
AcDbLayerTableRecord
  2
251
 70
     0
 62
   251
  6
CONTINUOUS
370
    -3
390
F
  0
LAYER
  5
135
330
2
100
AcDbSymbolTableRecord
100
AcDbLayerTableRecord
  2
252
 70
     0
 62
   252
  6
CONTINUOUS
370
    -3
390
F
  0
LAYER
  5
136
330
2
100
AcDbSymbolTableRecord
100
AcDbLayerTableRecord
  2
253
 70
     0
 62
   253
  6
CONTINUOUS
370
    -3
390
F
  0
LAYER
  5
137
330
2
100
AcDbSymbolTableRecord
100
AcDbLayerTableRecord
  2
254
 70
     0
 62
   254
  6
CONTINUOUS
370
    -3
390
F
  0
LAYER
  5
138
330
2
100
AcDbSymbolTableRecord
100
AcDbLayerTableRecord
  2
255
 70
     0
 62
   255
  6
CONTINUOUS
370
    -3
390
F
  0
ENDTAB
  0
TABLE
  2
STYLE
  5
3
330
0
100
AcDbSymbolTable
 70
     1
  0
STYLE
  5
11
330
3
100
AcDbSymbolTableRecord
100
AcDbTextStyleTableRecord
  2
STANDARD
 70
     0
 40
0.0
 41
1.0
 50
0.0
 71
     0
 42
0.2
  3
txt
  4

  0
ENDTAB
  0
TABLE
  2
VIEW
  5
6
330
0
100
AcDbSymbolTable
 70
     0
  0
ENDTAB
  0
TABLE
  2
UCS
  5
7
330
0
100
AcDbSymbolTable
 70
     0
  0
ENDTAB
  0
TABLE
  2
APPID
  5
9
330
0
100
AcDbSymbolTable
 70
     1
  0
APPID
  5
12
330
9
100
AcDbSymbolTableRecord
100
AcDbRegAppTableRecord
  2
ACAD
 70
     0
  0
ENDTAB
  0
TABLE
  2
DIMSTYLE
  5
A
330
0
100
AcDbSymbolTable
 70
     1
100
AcDbDimStyleTable
 71
     0
  0
DIMSTYLE
105
5F1
330
A
100
AcDbSymbolTableRecord
100
AcDbDimStyleTableRecord
  2
Standard
 70
     0
340
11
  0
ENDTAB
  0
TABLE
  2
BLOCK_RECORD
  5
1
330
0
100
AcDbSymbolTable
 70
     0
  0
BLOCK_RECORD
  5
1E
330
1
100
AcDbSymbolTableRecord
100
AcDbBlockTableRecord
  2
*Model_Space
340
21
  0
BLOCK_RECORD
  5
1A
330
1
100
AcDbSymbolTableRecord
100
AcDbBlockTableRecord
  2
*Paper_Space
340
1D
  0
ENDTAB
  0
ENDSEC
  0
SECTION
  2
BLOCKS
  0
BLOCK
  5
13B
330
1E
100
AcDbEntity
  8
0
100
AcDbBlockBegin
  2
*Model_Space
 70
     0
 10
0.0
 20
0.0
 30
0.0
  3
*Model_Space
  1

  0
ENDBLK
  5
13C
330
1E
100
AcDbEntity
  8
0
100
AcDbBlockEnd
  0
BLOCK
  5
139
330
1A
100
AcDbEntity
 67
     1
  8
0
100
AcDbBlockBegin
  2
*Paper_Space
 70
     0
 10
0.0
 20
0.0
 30
0.0
  3
*Paper_Space
  1

  0
ENDBLK
  5
13A
330
1A
100
AcDbEntity
 67
     1
  8
0
100
AcDbBlockEnd
  0
ENDSEC
  0
SECTION
  2
ENTITIES
  0
LWPOLYLINE
  5
13E
330
1E
100
AcDbEntity
  8
0
100
AcDbPolyline
 90
        3
 70
     0
 43
0.0
 10
0.0
 20
0.0049212598425197
 10
0.0
 20
0.0
 10
0.0049212598425197
 20
0.0
  0
LWPOLYLINE
  5
143
330
1E
100
AcDbEntity
  8
0
100
AcDbPolyline
 90
        3
 70
     0
 43
0.0
 10
3.61023622047244
 20
2.426181102362204
 10
3.61023622047244
 20
2.431102362204724
 10
3.605314960629921
 20
2.431102362204724
  0
LINE
  5
148
330
1E
100
AcDbEntity
  8
0
100
AcDbLine
 10
0.9714566929133857
 20
1.352362204724409
 30
0.0
 11
0.9704724409448818
 21
1.354330708661417
 31
0.0
  0
LINE
  5
149
330
1E
100
AcDbEntity
  8
0
100
AcDbLine
 10
0.9704724409448818
 20
1.354330708661417
 30
0.0
 11
0.812992125984252
 21
1.354330708661417
 31
0.0
  0
LINE
  5
14A
330
1E
100
AcDbEntity
  8
0
100
AcDbLine
 10
0.8120078740157479
 20
1.352362204724409
 30
0.0
 11
0.812992125984252
 21
1.354330708661417
 31
0.0
  0
LINE
  5
14B
330
1E
100
AcDbEntity
  8
0
100
AcDbLine
 10
0.781496062992126
 20
1.384842519685039
 30
0.0
 11
1.001968503937007
 21
1.384842519685039
 31
0.0
  0
LINE
  5
14C
330
1E
100
AcDbEntity
  8
0
100
AcDbLine
 10
1.001968503937007
 20
1.384842519685039
 30
0.0
 11
1.001968503937007
 21
1.339566929133858
 31
0.0
  0
LINE
  5
14D
330
1E
100
AcDbEntity
  8
0
100
AcDbLine
 10
1.001968503937007
 20
1.339566929133858
 30
0.0
 11
1.045275590551181
 21
1.339566929133858
 31
0.0
  0
LINE
  5
14E
330
1E
100
AcDbEntity
  8
0
100
AcDbLine
 10
1.045275590551181
 20
1.339566929133858
 30
0.0
 11
1.045275590551181
 21
1.274606299212598
 31
0.0
  0
LINE
  5
14F
330
1E
100
AcDbEntity
  8
0
100
AcDbLine
 10
1.045275590551181
 20
1.274606299212598
 30
0.0
 11
1.157480314960629
 21
1.274606299212598
 31
0.0
  0
LINE
  5
150
330
1E
100
AcDbEntity
  8
0
100
AcDbLine
 10
1.157480314960629
 20
1.274606299212598
 30
0.0
 11
1.157480314960629
 21
0.9438976377952755
 31
0.0
  0
LINE
  5
151
330
1E
100
AcDbEntity
  8
0
100
AcDbLine
 10
1.157480314960629
 20
0.9438976377952755
 30
0.0
 11
1.156496062992125
 21
0.9438976377952755
 31
0.0
  0
LINE
  5
152
330
1E
100
AcDbEntity
  8
0
100
AcDbLine
 10
0.6269685039370079
 20
0.9438976377952755
 30
0.0
 11
0.6259842519685039
 21
0.9438976377952755
 31
0.0
  0
LINE
  5
153
330
1E
100
AcDbEntity
  8
0
100
AcDbLine
 10
0.6259842519685039
 20
0.9438976377952755
 30
0.0
 11
0.6259842519685039
 21
1.274606299212598
 31
0.0
  0
LINE
  5
154
330
1E
100
AcDbEntity
  8
0
100
AcDbLine
 10
0.6259842519685039
 20
1.274606299212598
 30
0.0
 11
0.7381889763779528
 21
1.274606299212598
 31
0.0
  0
LINE
  5
155
330
1E
100
AcDbEntity
  8
0
100
AcDbLine
 10
0.7381889763779528
 20
1.274606299212598
 30
0.0
 11
0.7381889763779528
 21
1.339566929133858
 31
0.0
  0
LINE
  5
156
330
1E
100
AcDbEntity
  8
0
100
AcDbLine
 10
0.7381889763779528
 20
1.339566929133858
 30
0.0
 11
0.781496062992126
 21
1.339566929133858
 31
0.0
  0
LINE
  5
157
330
1E
100
AcDbEntity
  8
0
100
AcDbLine
 10
0.781496062992126
 20
1.339566929133858
 30
0.0
 11
0.781496062992126
 21
1.384842519685039
 31
0.0
  0
LWPOLYLINE
  5
158
330
1E
100
AcDbEntity
  8
0
100
AcDbPolyline
 90
        3
 70
     0
 43
0.0
 10
1.194881889763779
 20
0.8090551181102362
 10
1.143700787401574
 20
0.7588582677165354
 10
1.084645669291338
 20
0.718503937007874
  0
LINE
  5
15D
330
1E
100
AcDbEntity
  8
0
100
AcDbLine
 10
1.194881889763779
 20
0.8090551181102362
 30
0.0
 11
1.194881889763779
 21
1.352362204724409
 31
0.0
  0
LWPOLYLINE
  5
15E
330
1E
100
AcDbEntity
  8
0
100
AcDbPolyline
 90
        3
 70
     0
 43
0.0
 10
1.097440944881889
 20
1.433070866141732
 10
1.149606299212598
 20
1.396653543307086
 10
1.194881889763779
 20
1.352362204724409
  0
LINE
  5
163
330
1E
100
AcDbEntity
  8
0
100
AcDbLine
 10
1.097440944881889
 20
1.433070866141732
 30
0.0
 11
0.6860236220472441
 21
1.433070866141732
 31
0.0
  0
LWPOLYLINE
  5
164
330
1E
100
AcDbEntity
  8
0
100
AcDbPolyline
 90
        3
 70
     0
 43
0.0
 10
0.5885826771653543
 20
1.352362204724409
 10
0.6338582677165354
 20
1.396653543307086
 10
0.6860236220472441
 20
1.433070866141732
  0
LINE
  5
169
330
1E
100
AcDbEntity
  8
0
100
AcDbLine
 10
0.5885826771653543
 20
1.352362204724409
 30
0.0
 11
0.5885826771653543
 21
0.8090551181102362
 31
0.0
  0
LWPOLYLINE
  5
16A
330
1E
100
AcDbEntity
  8
0
100
AcDbPolyline
 90
        3
 70
     0
 43
0.0
 10
0.6988188976377953
 20
0.718503937007874
 10
0.6397637795275591
 20
0.7588582677165354
 10
0.5885826771653543
 20
0.8090551181102362
  0
LINE
  5
16F
330
1E
100
AcDbEntity
  8
0
100
AcDbLine
 10
0.7785433070866141
 20
0.718503937007874
 30
0.0
 11
0.6988188976377953
 21
0.718503937007874
 31
0.0
  0
LINE
  5
170
330
1E
100
AcDbEntity
  8
0
100
AcDbLine
 10
0.7785433070866141
 20
0.718503937007874
 30
0.0
 11
0.7795275590551181
 21
0.7411417322834647
 31
0.0
  0
LWPOLYLINE
  5
171
330
1E
100
AcDbEntity
  8
0
100
AcDbPolyline
 90
        3
 70
     0
 43
0.0
 10
0.7795275590551181
 20
0.7411417322834647
 10
0.7854330708661417
 20
0.7549212598425197
 10
0.7992125984251969
 20
0.7608267716535434
  0
LINE
  5
176
330
1E
100
AcDbEntity
  8
0
100
AcDbLine
 10
0.7992125984251969
 20
0.7608267716535434
 30
0.0
 11
0.984251968503937
 21
0.7608267716535434
 31
0.0
  0
LWPOLYLINE
  5
177
330
1E
100
AcDbEntity
  8
0
100
AcDbPolyline
 90
        3
 70
     0
 43
0.0
 10
0.984251968503937
 20
0.7608267716535434
 10
0.9980314960629922
 20
0.7549212598425197
 10
1.003937007874015
 20
0.7411417322834647
  0
LINE
  5
17C
330
1E
100
AcDbEntity
  8
0
100
AcDbLine
 10
1.003937007874015
 20
0.7411417322834647
 30
0.0
 11
1.004921259842519
 21
0.718503937007874
 31
0.0
  0
LINE
  5
17D
330
1E
100
AcDbEntity
  8
0
100
AcDbLine
 10
1.004921259842519
 20
0.718503937007874
 30
0.0
 11
1.084645669291338
 21
0.718503937007874
 31
0.0
  0
LINE
  5
17E
330
1E
100
AcDbEntity
  8
0
100
AcDbLine
 10
1.015748031496062
 20
1.202755905511811
 30
0.0
 11
1.126968503937007
 21
1.202755905511811
 31
0.0
  0
LINE
  5
17F
330
1E
100
AcDbEntity
  8
0
100
AcDbLine
 10
0.7677165354330709
 20
1.202755905511811
 30
0.0
 11
0.656496062992126
 21
1.202755905511811
 31
0.0
  0
LINE
  5
180
330
1E
100
AcDbEntity
  8
0
100
AcDbLine
 10
1.125984251968503
 20
0.9960629921259842
 30
0.0
 11
1.126968503937007
 21
0.9753937007874014
 31
0.0
  0
LWPOLYLINE
  5
181
330
1E
100
AcDbEntity
  8
0
100
AcDbPolyline
 90
        3
 70
     0
 43
0.0
 10
0.6860236220472441
 20
1.433070866141732
 10
0.6850393700787402
 20
1.438976377952755
 10
0.6840551181102362
 20
1.438976377952755
  0
LWPOLYLINE
  5
186
330
1E
100
AcDbEntity
  8
0
100
AcDbPolyline
 90
        3
 70
     0
 43
0.0
 10
0.6840551181102362
 20
1.438976377952755
 10
0.6299212598425197
 20
1.400590551181102
 10
0.5816929133858268
 20
1.354330708661417
  0
LINE
  5
18B
330
1E
100
AcDbEntity
  8
0
100
AcDbLine
 10
0.5885826771653543
 20
1.352362204724409
 30
0.0
 11
0.5816929133858268
 21
1.354330708661417
 31
0.0
  0
LINE
  5
18C
330
1E
100
AcDbEntity
  8
0
100
AcDbLine
 10
1.202755905511811
 20
1.440944881889763
 30
0.0
 11
1.201771653543307
 21
1.438976377952755
 31
0.0
  0
LINE
  5
18D
330
1E
100
AcDbEntity
  8
0
100
AcDbLine
 10
1.202755905511811
 20
1.440944881889763
 30
0.0
 11
1.129921259842519
 21
1.440944881889763
 31
0.0
  0
LINE
  5
18E
330
1E
100
AcDbEntity
  8
0
100
AcDbLine
 10
1.129921259842519
 20
1.440944881889763
 30
0.0
 11
1.129921259842519
 21
1.439960629921259
 31
0.0
  0
LWPOLYLINE
  5
18F
330
1E
100
AcDbEntity
  8
0
100
AcDbPolyline
 90
        4
 70
     0
 43
0.0
 10
1.129921259842519
 20
1.439960629921259
 10
1.126968503937007
 20
1.439960629921259
 10
1.12007874015748
 20
1.439960629921259
 10
1.109251968503937
 20
1.439960629921259
  0
LINE
  5
195
330
1E
100
AcDbEntity
  8
0
100
AcDbLine
 10
1.109251968503937
 20
1.439960629921259
 30
0.0
 11
1.104330708661417
 21
1.439960629921259
 31
0.0
  0
LWPOLYLINE
  5
196
330
1E
100
AcDbEntity
  8
0
100
AcDbPolyline
 90
        3
 70
     0
 43
0.0
 10
1.104330708661417
 20
1.439960629921259
 10
1.090551181102362
 20
1.439960629921259
 10
1.085629921259842
 20
1.438976377952755
  0
LINE
  5
19B
330
1E
100
AcDbEntity
  8
0
100
AcDbLine
 10
1.085629921259842
 20
1.438976377952755
 30
0.0
 11
1.085629921259842
 21
1.436023622047243
 31
0.0
  0
LWPOLYLINE
  5
19C
330
1E
100
AcDbEntity
  8
0
100
AcDbPolyline
 90
        4
 70
     0
 43
0.0
 10
1.085629921259842
 20
1.436023622047243
 10
1.08267716535433
 20
1.43503937007874
 10
1.074803149606299
 20
1.43503937007874
 10
1.063976377952755
 20
1.43503937007874
  0
LINE
  5
1A2
330
1E
100
AcDbEntity
  8
0
100
AcDbLine
 10
1.063976377952755
 20
1.43503937007874
 30
0.0
 11
0.7194881889763779
 21
1.43503937007874
 31
0.0
  0
LWPOLYLINE
  5
1A3
330
1E
100
AcDbEntity
  8
0
100
AcDbPolyline
 90
        4
 70
     0
 43
0.0
 10
0.7194881889763779
 20
1.43503937007874
 10
0.7086614173228347
 20
1.43503937007874
 10
0.7007874015748032
 20
1.43503937007874
 10
0.6978346456692913
 20
1.436023622047243
  0
LINE
  5
1A9
330
1E
100
AcDbEntity
  8
0
100
AcDbLine
 10
0.6978346456692913
 20
1.438976377952755
 30
0.0
 11
0.6978346456692913
 21
1.436023622047243
 31
0.0
  0
LWPOLYLINE
  5
1AA
330
1E
100
AcDbEntity
  8
0
100
AcDbPolyline
 90
        3
 70
     0
 43
0.0
 10
0.6978346456692913
 20
1.438976377952755
 10
0.6929133858267717
 20
1.439960629921259
 10
0.6791338582677166
 20
1.439960629921259
  0
LINE
  5
1AF
330
1E
100
AcDbEntity
  8
0
100
AcDbLine
 10
0.6791338582677166
 20
1.439960629921259
 30
0.0
 11
0.6742125984251969
 21
1.439960629921259
 31
0.0
  0
LWPOLYLINE
  5
1B0
330
1E
100
AcDbEntity
  8
0
100
AcDbPolyline
 90
        4
 70
     0
 43
0.0
 10
0.6742125984251969
 20
1.439960629921259
 10
0.6633858267716536
 20
1.439960629921259
 10
0.656496062992126
 20
1.439960629921259
 10
0.6535433070866141
 20
1.439960629921259
  0
LINE
  5
1B6
330
1E
100
AcDbEntity
  8
0
100
AcDbLine
 10
0.6535433070866141
 20
1.439960629921259
 30
0.0
 11
0.6535433070866141
 21
1.440944881889763
 31
0.0
  0
LINE
  5
1B7
330
1E
100
AcDbEntity
  8
0
100
AcDbLine
 10
0.6535433070866141
 20
1.440944881889763
 30
0.0
 11
0.5807086614173228
 21
1.440944881889763
 31
0.0
  0
LINE
  5
1B8
330
1E
100
AcDbEntity
  8
0
100
AcDbLine
 10
0.5807086614173228
 20
1.440944881889763
 30
0.0
 11
0.5816929133858268
 21
1.438976377952755
 31
0.0
  0
LINE
  5
1B9
330
1E
100
AcDbEntity
  8
0
100
AcDbLine
 10
0.6840551181102362
 20
1.438976377952755
 30
0.0
 11
0.5816929133858268
 21
1.438976377952755
 31
0.0
  0
LWPOLYLINE
  5
1BA
330
1E
100
AcDbEntity
  8
0
100
AcDbPolyline
 90
        3
 70
     0
 43
0.0
 10
1.099409448818897
 20
1.438976377952755
 10
1.098425196850393
 20
1.438976377952755
 10
1.097440944881889
 20
1.433070866141732
  0
LINE
  5
1BF
330
1E
100
AcDbEntity
  8
0
100
AcDbLine
 10
1.099409448818897
 20
1.438976377952755
 30
0.0
 11
1.201771653543307
 21
1.438976377952755
 31
0.0
  0
LINE
  5
1C0
330
1E
100
AcDbEntity
  8
0
100
AcDbLine
 10
1.201771653543307
 20
1.354330708661417
 30
0.0
 11
1.194881889763779
 21
1.352362204724409
 31
0.0
  0
LWPOLYLINE
  5
1C1
330
1E
100
AcDbEntity
  8
0
100
AcDbPolyline
 90
        3
 70
     0
 43
0.0
 10
1.201771653543307
 20
1.354330708661417
 10
1.153543307086614
 20
1.400590551181102
 10
1.099409448818897
 20
1.438976377952755
  0
LINE
  5
1C6
330
1E
100
AcDbEntity
  8
0
100
AcDbLine
 10
0.7677165354330709
 20
1.309055118110236
 30
0.0
 11
0.7677165354330709
 21
1.244094488188976
 31
0.0
  0
LINE
  5
1C7
330
1E
100
AcDbEntity
  8
0
100
AcDbLine
 10
0.7677165354330709
 20
1.244094488188976
 30
0.0
 11
0.7677165354330709
 21
1.243110236220472
 31
0.0
  0
LINE
  5
1C8
330
1E
100
AcDbEntity
  8
0
100
AcDbLine
 10
0.7677165354330709
 20
1.202755905511811
 30
0.0
 11
0.7677165354330709
 21
1.243110236220472
 31
0.0
  0
LINE
  5
1C9
330
1E
100
AcDbEntity
  8
0
100
AcDbLine
 10
0.7677165354330709
 20
1.153543307086614
 30
0.0
 11
0.7677165354330709
 21
1.202755905511811
 31
0.0
  0
LINE
  5
1CA
330
1E
100
AcDbEntity
  8
0
100
AcDbLine
 10
1.015748031496062
 20
1.244094488188976
 30
0.0
 11
1.015748031496062
 21
1.243110236220472
 31
0.0
  0
LINE
  5
1CB
330
1E
100
AcDbEntity
  8
0
100
AcDbLine
 10
1.015748031496062
 20
1.244094488188976
 30
0.0
 11
1.015748031496062
 21
1.309055118110236
 31
0.0
  0
LINE
  5
1CC
330
1E
100
AcDbEntity
  8
0
100
AcDbLine
 10
1.015748031496062
 20
1.153543307086614
 30
0.0
 11
1.015748031496062
 21
1.202755905511811
 31
0.0
  0
LINE
  5
1CD
330
1E
100
AcDbEntity
  8
0
100
AcDbLine
 10
1.015748031496062
 20
1.202755905511811
 30
0.0
 11
1.015748031496062
 21
1.243110236220472
 31
0.0
  0
LINE
  5
1CE
330
1E
100
AcDbEntity
  8
0
100
AcDbLine
 10
1.201771653543307
 20
0.718503937007874
 30
0.0
 11
1.202755905511811
 21
0.718503937007874
 31
0.0
  0
LINE
  5
1CF
330
1E
100
AcDbEntity
  8
0
100
AcDbLine
 10
1.201771653543307
 20
0.718503937007874
 30
0.0
 11
1.097440944881889
 21
0.718503937007874
 31
0.0
  0
LINE
  5
1D0
330
1E
100
AcDbEntity
  8
0
100
AcDbLine
 10
1.097440944881889
 20
0.718503937007874
 30
0.0
 11
1.084645669291338
 21
0.718503937007874
 31
0.0
  0
LWPOLYLINE
  5
1D1
330
1E
100
AcDbEntity
  8
0
100
AcDbPolyline
 90
        3
 70
     0
 43
0.0
 10
1.097440944881889
 20
0.718503937007874
 10
1.153543307086614
 20
0.7578740157480315
 10
1.201771653543307
 20
0.8070866141732283
  0
LINE
  5
1D6
330
1E
100
AcDbEntity
  8
0
100
AcDbLine
 10
1.194881889763779
 20
0.8090551181102362
 30
0.0
 11
1.201771653543307
 21
0.8070866141732283
 31
0.0
  0
LINE
  5
1D7
330
1E
100
AcDbEntity
  8
0
100
AcDbLine
 10
0.5816929133858268
 20
0.8070866141732283
 30
0.0
 11
0.5885826771653543
 21
0.8090551181102362
 31
0.0
  0
LWPOLYLINE
  5
1D8
330
1E
100
AcDbEntity
  8
0
100
AcDbPolyline
 90
        3
 70
     0
 43
0.0
 10
0.5816929133858268
 20
0.8070866141732283
 10
0.6299212598425197
 20
0.7578740157480315
 10
0.6860236220472441
 20
0.718503937007874
  0
LINE
  5
1DD
330
1E
100
AcDbEntity
  8
0
100
AcDbLine
 10
0.6988188976377953
 20
0.718503937007874
 30
0.0
 11
0.6860236220472441
 21
0.718503937007874
 31
0.0
  0
LINE
  5
1DE
330
1E
100
AcDbEntity
  8
0
100
AcDbLine
 10
0.6860236220472441
 20
0.718503937007874
 30
0.0
 11
0.5816929133858268
 21
0.718503937007874
 31
0.0
  0
LINE
  5
1DF
330
1E
100
AcDbEntity
  8
0
100
AcDbLine
 10
0.5816929133858268
 20
0.718503937007874
 30
0.0
 11
0.5807086614173228
 21
0.718503937007874
 31
0.0
  0
LINE
  5
1E0
330
1E
100
AcDbEntity
  8
0
100
AcDbLine
 10
0.656496062992126
 20
1.243110236220472
 30
0.0
 11
0.6555118110236221
 21
1.244094488188976
 31
0.0
  0
LINE
  5
1E1
330
1E
100
AcDbEntity
  8
0
100
AcDbLine
 10
0.6555118110236221
 20
1.244094488188976
 30
0.0
 11
0.6555118110236221
 21
0.9744094488188975
 31
0.0
  0
LINE
  5
1E2
330
1E
100
AcDbEntity
  8
0
100
AcDbLine
 10
0.6555118110236221
 20
0.9744094488188975
 30
0.0
 11
0.6555118110236221
 21
0.9744094488188975
 31
0.0
  0
LINE
  5
1E3
330
1E
100
AcDbEntity
  8
0
100
AcDbLine
 10
0.6555118110236221
 20
0.9744094488188975
 30
0.0
 11
0.656496062992126
 21
0.9753937007874014
 31
0.0
  0
LINE
  5
1E4
330
1E
100
AcDbEntity
  8
0
100
AcDbLine
 10
0.656496062992126
 20
0.9753937007874014
 30
0.0
 11
0.6574803149606299
 21
0.9960629921259842
 31
0.0
  0
LINE
  5
1E5
330
1E
100
AcDbEntity
  8
0
100
AcDbLine
 10
0.6574803149606299
 20
0.9960629921259842
 30
0.0
 11
0.6574803149606299
 21
0.9980314960629922
 31
0.0
  0
LINE
  5
1E6
330
1E
100
AcDbEntity
  8
0
100
AcDbLine
 10
0.6574803149606299
 20
1.202755905511811
 30
0.0
 11
0.6574803149606299
 21
0.9980314960629922
 31
0.0
  0
LINE
  5
1E7
330
1E
100
AcDbEntity
  8
0
100
AcDbLine
 10
0.656496062992126
 20
1.243110236220472
 30
0.0
 11
0.656496062992126
 21
1.202755905511811
 31
0.0
  0
LINE
  5
1E8
330
1E
100
AcDbEntity
  8
0
100
AcDbLine
 10
0.5816929133858268
 20
1.354330708661417
 30
0.0
 11
0.5816929133858268
 21
1.438976377952755
 31
0.0
  0
LINE
  5
1E9
330
1E
100
AcDbEntity
  8
0
100
AcDbLine
 10
0.5807086614173228
 20
1.440944881889763
 30
0.0
 11
0.5807086614173228
 21
1.334645669291338
 31
0.0
  0
LINE
  5
1EA
330
1E
100
AcDbEntity
  8
0
100
AcDbLine
 10
0.5807086614173228
 20
1.334645669291338
 30
0.0
 11
0.5807086614173228
 21
1.005905511811023
 31
0.0
  0
LINE
  5
1EB
330
1E
100
AcDbEntity
  8
0
100
AcDbLine
 10
0.5807086614173228
 20
0.718503937007874
 30
0.0
 11
0.5807086614173228
 21
1.005905511811023
 31
0.0
  0
LINE
  5
1EC
330
1E
100
AcDbEntity
  8
0
100
AcDbLine
 10
0.5816929133858268
 20
0.718503937007874
 30
0.0
 11
0.5816929133858268
 21
0.8070866141732283
 31
0.0
  0
LINE
  5
1ED
330
1E
100
AcDbEntity
  8
0
100
AcDbLine
 10
1.202755905511811
 20
0.718503937007874
 30
0.0
 11
1.202755905511811
 21
1.005905511811023
 31
0.0
  0
LINE
  5
1EE
330
1E
100
AcDbEntity
  8
0
100
AcDbLine
 10
1.202755905511811
 20
1.005905511811023
 30
0.0
 11
1.202755905511811
 21
1.334645669291338
 31
0.0
  0
LINE
  5
1EF
330
1E
100
AcDbEntity
  8
0
100
AcDbLine
 10
1.202755905511811
 20
1.334645669291338
 30
0.0
 11
1.202755905511811
 21
1.440944881889763
 31
0.0
  0
LINE
  5
1F0
330
1E
100
AcDbEntity
  8
0
100
AcDbLine
 10
1.201771653543307
 20
1.438976377952755
 30
0.0
 11
1.201771653543307
 21
1.354330708661417
 31
0.0
  0
LINE
  5
1F1
330
1E
100
AcDbEntity
  8
0
100
AcDbLine
 10
1.201771653543307
 20
0.8070866141732283
 30
0.0
 11
1.201771653543307
 21
0.718503937007874
 31
0.0
  0
LINE
  5
1F2
330
1E
100
AcDbEntity
  8
0
100
AcDbLine
 10
0.9714566929133857
 20
1.309055118110236
 30
0.0
 11
0.9714566929133857
 21
1.309055118110236
 31
0.0
  0
LINE
  5
1F3
330
1E
100
AcDbEntity
  8
0
100
AcDbLine
 10
0.9714566929133857
 20
1.309055118110236
 30
0.0
 11
0.9714566929133857
 21
1.376968503937007
 31
0.0
  0
LINE
  5
1F4
330
1E
100
AcDbEntity
  8
0
100
AcDbLine
 10
0.9714566929133857
 20
1.376968503937007
 30
0.0
 11
0.9714566929133857
 21
1.364173228346456
 31
0.0
  0
LWPOLYLINE
  5
1F5
330
1E
100
AcDbEntity
  8
0
100
AcDbPolyline
 90
        3
 70
     0
 43
0.0
 10
0.9704724409448818
 20
1.364173228346456
 10
0.9704724409448818
 20
1.361220472440944
 10
0.9704724409448818
 20
1.354330708661417
  0
LINE
  5
1FA
330
1E
100
AcDbEntity
  8
0
100
AcDbLine
 10
0.9714566929133857
 20
1.309055118110236
 30
0.0
 11
0.9714566929133857
 21
1.352362204724409
 31
0.0
  0
LINE
  5
1FB
330
1E
100
AcDbEntity
  8
0
100
AcDbLine
 10
0.9714566929133857
 20
1.309055118110236
 30
0.0
 11
0.9714566929133857
 21
1.309055118110236
 31
0.0
  0
LINE
  5
1FC
330
1E
100
AcDbEntity
  8
0
100
AcDbLine
 10
1.126968503937007
 20
1.243110236220472
 30
0.0
 11
1.127952755905511
 21
1.244094488188976
 31
0.0
  0
LINE
  5
1FD
330
1E
100
AcDbEntity
  8
0
100
AcDbLine
 10
1.127952755905511
 20
1.244094488188976
 30
0.0
 11
1.015748031496062
 21
1.244094488188976
 31
0.0
  0
LINE
  5
1FE
330
1E
100
AcDbEntity
  8
0
100
AcDbLine
 10
1.015748031496062
 20
1.244094488188976
 30
0.0
 11
1.015748031496062
 21
1.244094488188976
 31
0.0
  0
LINE
  5
1FF
330
1E
100
AcDbEntity
  8
0
100
AcDbLine
 10
1.126968503937007
 20
1.243110236220472
 30
0.0
 11
1.015748031496062
 21
1.243110236220472
 31
0.0
  0
LINE
  5
200
330
1E
100
AcDbEntity
  8
0
100
AcDbLine
 10
0.7677165354330709
 20
1.244094488188976
 30
0.0
 11
0.7677165354330709
 21
1.244094488188976
 31
0.0
  0
LINE
  5
201
330
1E
100
AcDbEntity
  8
0
100
AcDbLine
 10
0.7677165354330709
 20
1.244094488188976
 30
0.0
 11
0.6555118110236221
 21
1.244094488188976
 31
0.0
  0
LINE
  5
202
330
1E
100
AcDbEntity
  8
0
100
AcDbLine
 10
0.656496062992126
 20
1.243110236220472
 30
0.0
 11
0.7677165354330709
 21
1.243110236220472
 31
0.0
  0
LINE
  5
203
330
1E
100
AcDbEntity
  8
0
100
AcDbLine
 10
0.8120078740157479
 20
1.364173228346456
 30
0.0
 11
0.8120078740157479
 21
1.376968503937007
 31
0.0
  0
LINE
  5
204
330
1E
100
AcDbEntity
  8
0
100
AcDbLine
 10
0.8120078740157479
 20
1.376968503937007
 30
0.0
 11
0.8120078740157479
 21
1.309055118110236
 31
0.0
  0
LINE
  5
205
330
1E
100
AcDbEntity
  8
0
100
AcDbLine
 10
0.8120078740157479
 20
1.309055118110236
 30
0.0
 11
0.8120078740157479
 21
1.309055118110236
 31
0.0
  0
LINE
  5
206
330
1E
100
AcDbEntity
  8
0
100
AcDbLine
 10
0.8120078740157479
 20
1.309055118110236
 30
0.0
 11
0.8120078740157479
 21
1.309055118110236
 31
0.0
  0
LINE
  5
207
330
1E
100
AcDbEntity
  8
0
100
AcDbLine
 10
0.8120078740157479
 20
1.309055118110236
 30
0.0
 11
0.8120078740157479
 21
1.352362204724409
 31
0.0
  0
LWPOLYLINE
  5
208
330
1E
100
AcDbEntity
  8
0
100
AcDbPolyline
 90
        3
 70
     0
 43
0.0
 10
0.812992125984252
 20
1.354330708661417
 10
0.812992125984252
 20
1.361220472440944
 10
0.812992125984252
 20
1.364173228346456
  0
LINE
  5
20D
330
1E
100
AcDbEntity
  8
0
100
AcDbLine
 10
0.9714566929133857
 20
1.364173228346456
 30
0.0
 11
0.8120078740157479
 21
1.364173228346456
 31
0.0
  0
LINE
  5
20E
330
1E
100
AcDbEntity
  8
0
100
AcDbLine
 10
0.984251968503937
 20
0.7391732283464567
 30
0.0
 11
0.984251968503937
 21
0.7608267716535434
 31
0.0
  0
LINE
  5
20F
330
1E
100
AcDbEntity
  8
0
100
AcDbLine
 10
0.7992125984251969
 20
0.7608267716535434
 30
0.0
 11
0.7992125984251969
 21
0.7391732283464567
 31
0.0
  0
LINE
  5
210
330
1E
100
AcDbEntity
  8
0
100
AcDbLine
 10
0.984251968503937
 20
0.7391732283464567
 30
0.0
 11
0.7992125984251969
 21
0.7391732283464567
 31
0.0
  0
LWPOLYLINE
  5
211
330
1E
100
AcDbEntity
  8
0
100
AcDbPolyline
 90
        3
 70
     0
 43
0.0
 10
0.7992125984251969
 20
0.7391732283464567
 10
0.7844488188976378
 20
0.7332677165354332
 10
0.7785433070866141
 20
0.7194881889763779
  0
LINE
  5
216
330
1E
100
AcDbEntity
  8
0
100
AcDbLine
 10
0.7992125984251969
 20
0.7391732283464567
 30
0.0
 11
0.7992125984251969
 21
0.7391732283464567
 31
0.0
  0
LINE
  5
217
330
1E
100
AcDbEntity
  8
0
100
AcDbLine
 10
0.984251968503937
 20
0.7391732283464567
 30
0.0
 11
0.984251968503937
 21
0.7391732283464567
 31
0.0
  0
LWPOLYLINE
  5
218
330
1E
100
AcDbEntity
  8
0
100
AcDbPolyline
 90
        3
 70
     0
 43
0.0
 10
1.004921259842519
 20
0.7194881889763779
 10
0.9990157480314961
 20
0.7332677165354332
 10
0.984251968503937
 20
0.7391732283464567
  0
LINE
  5
21D
330
1E
100
AcDbEntity
  8
0
100
AcDbLine
 10
1.148622047244094
 20
0.9242125984251968
 30
0.0
 11
0.6348425196850394
 21
0.9242125984251968
 31
0.0
  0
LWPOLYLINE
  5
21E
330
1E
100
AcDbEntity
  8
0
100
AcDbPolyline
 90
        3
 70
     0
 43
0.0
 10
1.156496062992125
 20
0.9320866141732283
 10
1.154527559055118
 20
0.9261811023622048
 10
1.148622047244094
 20
0.9242125984251968
  0
LINE
  5
223
330
1E
100
AcDbEntity
  8
0
100
AcDbLine
 10
1.156496062992125
 20
0.9320866141732283
 30
0.0
 11
1.156496062992125
 21
0.9438976377952755
 31
0.0
  0
LINE
  5
224
330
1E
100
AcDbEntity
  8
0
100
AcDbLine
 10
1.156496062992125
 20
0.9438976377952755
 30
0.0
 11
0.6269685039370079
 21
0.9438976377952755
 31
0.0
  0
LINE
  5
225
330
1E
100
AcDbEntity
  8
0
100
AcDbLine
 10
0.6269685039370079
 20
0.9320866141732283
 30
0.0
 11
0.6269685039370079
 21
0.9438976377952755
 31
0.0
  0
LWPOLYLINE
  5
226
330
1E
100
AcDbEntity
  8
0
100
AcDbPolyline
 90
        3
 70
     0
 43
0.0
 10
0.6269685039370079
 20
0.9320866141732283
 10
0.6289370078740158
 20
0.9261811023622048
 10
0.6348425196850394
 20
0.9242125984251968
  0
LINE
  5
22B
330
1E
100
AcDbEntity
  8
0
100
AcDbLine
 10
1.015748031496062
 20
1.309055118110236
 30
0.0
 11
0.9714566929133857
 21
1.309055118110236
 31
0.0
  0
LINE
  5
22C
330
1E
100
AcDbEntity
  8
0
100
AcDbLine
 10
0.8120078740157479
 20
1.309055118110236
 30
0.0
 11
0.7677165354330709
 21
1.309055118110236
 31
0.0
  0
LWPOLYLINE
  5
22D
330
1E
100
AcDbEntity
  8
0
100
AcDbPolyline
 90
        4
 70
     0
 43
0.0
 10
0.781496062992126
 20
1.384842519685039
 10
0.7962598425196851
 20
1.383858267716535
 10
0.8070866141732283
 20
1.380905511811023
 10
0.8120078740157479
 20
1.376968503937007
  0
LWPOLYLINE
  5
233
330
1E
100
AcDbEntity
  8
0
100
AcDbPolyline
 90
        4
 70
     0
 43
0.0
 10
0.9714566929133857
 20
1.376968503937007
 10
0.9763779527559055
 20
1.380905511811023
 10
0.9872047244094488
 20
1.383858267716535
 10
1.001968503937007
 20
1.384842519685039
  0
LINE
  5
239
330
1E
100
AcDbEntity
  8
0
100
AcDbLine
 10
0.6555118110236221
 20
0.9744094488188975
 30
0.0
 11
1.127952755905511
 21
0.9744094488188975
 31
0.0
  0
LINE
  5
23A
330
1E
100
AcDbEntity
  8
0
100
AcDbLine
 10
0.7391732283464567
 20
0.9753937007874014
 30
0.0
 11
0.7401574803149607
 21
0.9744094488188975
 31
0.0
  0
LINE
  5
23B
330
1E
100
AcDbEntity
  8
0
100
AcDbLine
 10
0.7637795275590551
 20
0.9744094488188975
 30
0.0
 11
0.7401574803149607
 21
0.9744094488188975
 31
0.0
  0
LINE
  5
23C
330
1E
100
AcDbEntity
  8
0
100
AcDbLine
 10
0.7647637795275591
 20
0.9753937007874014
 30
0.0
 11
0.7637795275590551
 21
0.9744094488188975
 31
0.0
  0
LINE
  5
23D
330
1E
100
AcDbEntity
  8
0
100
AcDbLine
 10
0.7795275590551181
 20
0.9753937007874014
 30
0.0
 11
0.7647637795275591
 21
0.9753937007874014
 31
0.0
  0
LINE
  5
23E
330
1E
100
AcDbEntity
  8
0
100
AcDbLine
 10
0.7795275590551181
 20
0.9753937007874014
 30
0.0
 11
0.7795275590551181
 21
0.9744094488188975
 31
0.0
  0
LINE
  5
23F
330
1E
100
AcDbEntity
  8
0
100
AcDbLine
 10
0.8041338582677164
 20
0.9744094488188975
 30
0.0
 11
0.7795275590551181
 21
0.9744094488188975
 31
0.0
  0
LINE
  5
240
330
1E
100
AcDbEntity
  8
0
100
AcDbLine
 10
0.8051181102362205
 20
0.9753937007874014
 30
0.0
 11
0.8041338582677164
 21
0.9744094488188975
 31
0.0
  0
LINE
  5
241
330
1E
100
AcDbEntity
  8
0
100
AcDbLine
 10
0.8188976377952755
 20
0.9753937007874014
 30
0.0
 11
0.8051181102362205
 21
0.9753937007874014
 31
0.0
  0
LINE
  5
242
330
1E
100
AcDbEntity
  8
0
100
AcDbLine
 10
0.8188976377952755
 20
0.9753937007874014
 30
0.0
 11
0.8198818897637794
 21
0.9744094488188975
 31
0.0
  0
LINE
  5
243
330
1E
100
AcDbEntity
  8
0
100
AcDbLine
 10
0.8435039370078738
 20
0.9744094488188975
 30
0.0
 11
0.8198818897637794
 21
0.9744094488188975
 31
0.0
  0
LINE
  5
244
330
1E
100
AcDbEntity
  8
0
100
AcDbLine
 10
0.8444881889763779
 20
0.9753937007874014
 30
0.0
 11
0.8435039370078738
 21
0.9744094488188975
 31
0.0
  0
LINE
  5
245
330
1E
100
AcDbEntity
  8
0
100
AcDbLine
 10
0.859251968503937
 20
0.9753937007874014
 30
0.0
 11
0.8444881889763779
 21
0.9753937007874014
 31
0.0
  0
LINE
  5
246
330
1E
100
AcDbEntity
  8
0
100
AcDbLine
 10
0.859251968503937
 20
0.9753937007874014
 30
0.0
 11
0.8602362204724409
 21
0.9744094488188975
 31
0.0
  0
LINE
  5
247
330
1E
100
AcDbEntity
  8
0
100
AcDbLine
 10
0.8838582677165353
 20
0.9744094488188975
 30
0.0
 11
0.8602362204724409
 21
0.9744094488188975
 31
0.0
  0
LINE
  5
248
330
1E
100
AcDbEntity
  8
0
100
AcDbLine
 10
0.8848425196850392
 20
0.9753937007874014
 30
0.0
 11
0.8838582677165353
 21
0.9744094488188975
 31
0.0
  0
LINE
  5
249
330
1E
100
AcDbEntity
  8
0
100
AcDbLine
 10
0.8996062992125983
 20
0.9753937007874014
 30
0.0
 11
0.8848425196850392
 21
0.9753937007874014
 31
0.0
  0
LINE
  5
24A
330
1E
100
AcDbEntity
  8
0
100
AcDbLine
 10
0.8996062992125983
 20
0.9753937007874014
 30
0.0
 11
0.8996062992125983
 21
0.9744094488188975
 31
0.0
  0
LINE
  5
24B
330
1E
100
AcDbEntity
  8
0
100
AcDbLine
 10
0.8996062992125983
 20
0.9744094488188975
 30
0.0
 11
0.9242125984251968
 21
0.9744094488188975
 31
0.0
  0
LINE
  5
24C
330
1E
100
AcDbEntity
  8
0
100
AcDbLine
 10
0.9242125984251968
 20
0.9753937007874014
 30
0.0
 11
0.9242125984251968
 21
0.9744094488188975
 31
0.0
  0
LINE
  5
24D
330
1E
100
AcDbEntity
  8
0
100
AcDbLine
 10
0.9242125984251968
 20
0.9753937007874014
 30
0.0
 11
0.9389763779527559
 21
0.9753937007874014
 31
0.0
  0
LINE
  5
24E
330
1E
100
AcDbEntity
  8
0
100
AcDbLine
 10
0.9389763779527559
 20
0.9753937007874014
 30
0.0
 11
0.9399606299212598
 21
0.9744094488188975
 31
0.0
  0
LINE
  5
24F
330
1E
100
AcDbEntity
  8
0
100
AcDbLine
 10
0.9399606299212598
 20
0.9744094488188975
 30
0.0
 11
0.9635826771653542
 21
0.9744094488188975
 31
0.0
  0
LINE
  5
250
330
1E
100
AcDbEntity
  8
0
100
AcDbLine
 10
0.9645669291338581
 20
0.9753937007874014
 30
0.0
 11
0.9635826771653542
 21
0.9744094488188975
 31
0.0
  0
LINE
  5
251
330
1E
100
AcDbEntity
  8
0
100
AcDbLine
 10
0.9645669291338581
 20
0.9753937007874014
 30
0.0
 11
0.9793307086614174
 21
0.9753937007874014
 31
0.0
  0
LINE
  5
252
330
1E
100
AcDbEntity
  8
0
100
AcDbLine
 10
0.9793307086614174
 20
0.9753937007874014
 30
0.0
 11
0.9803149606299212
 21
0.9744094488188975
 31
0.0
  0
LINE
  5
253
330
1E
100
AcDbEntity
  8
0
100
AcDbLine
 10
0.9803149606299212
 20
0.9744094488188975
 30
0.0
 11
1.003937007874015
 21
0.9744094488188975
 31
0.0
  0
LINE
  5
254
330
1E
100
AcDbEntity
  8
0
100
AcDbLine
 10
1.004921259842519
 20
0.9753937007874014
 30
0.0
 11
1.003937007874015
 21
0.9744094488188975
 31
0.0
  0
LINE
  5
255
330
1E
100
AcDbEntity
  8
0
100
AcDbLine
 10
1.004921259842519
 20
0.9753937007874014
 30
0.0
 11
1.018700787401574
 21
0.9753937007874014
 31
0.0
  0
LINE
  5
256
330
1E
100
AcDbEntity
  8
0
100
AcDbLine
 10
1.018700787401574
 20
0.9753937007874014
 30
0.0
 11
1.019685039370078
 21
0.9744094488188975
 31
0.0
  0
LINE
  5
257
330
1E
100
AcDbEntity
  8
0
100
AcDbLine
 10
1.019685039370078
 20
0.9744094488188975
 30
0.0
 11
1.044291338582677
 21
0.9744094488188975
 31
0.0
  0
LINE
  5
258
330
1E
100
AcDbEntity
  8
0
100
AcDbLine
 10
1.044291338582677
 20
0.9753937007874014
 30
0.0
 11
1.044291338582677
 21
0.9744094488188975
 31
0.0
  0
LINE
  5
259
330
1E
100
AcDbEntity
  8
0
100
AcDbLine
 10
0.7391732283464567
 20
0.9753937007874014
 30
0.0
 11
0.7244094488188977
 21
0.9753937007874014
 31
0.0
  0
LINE
  5
25A
330
1E
100
AcDbEntity
  8
0
100
AcDbLine
 10
1.044291338582677
 20
0.9753937007874014
 30
0.0
 11
1.059055118110236
 21
0.9753937007874014
 31
0.0
  0
LINE
  5
25B
330
1E
100
AcDbEntity
  8
0
100
AcDbLine
 10
1.059055118110236
 20
0.9753937007874014
 30
0.0
 11
1.061023622047243
 21
0.9744094488188975
 31
0.0
  0
LINE
  5
25C
330
1E
100
AcDbEntity
  8
0
100
AcDbLine
 10
0.7244094488188977
 20
0.9753937007874014
 30
0.0
 11
0.7224409448818898
 21
0.9744094488188975
 31
0.0
  0
LINE
  5
25D
330
1E
100
AcDbEntity
  8
0
100
AcDbLine
 10
1.127952755905511
 20
0.9744094488188975
 30
0.0
 11
1.126968503937007
 21
0.9753937007874014
 31
0.0
  0
LINE
  5
25E
330
1E
100
AcDbEntity
  8
0
100
AcDbLine
 10
1.125984251968503
 20
0.9980314960629922
 30
0.0
 11
1.125984251968503
 21
0.9960629921259842
 31
0.0
  0
LINE
  5
25F
330
1E
100
AcDbEntity
  8
0
100
AcDbLine
 10
1.125984251968503
 20
0.9980314960629922
 30
0.0
 11
1.043307086614173
 21
0.9980314960629922
 31
0.0
  0
LINE
  5
260
330
1E
100
AcDbEntity
  8
0
100
AcDbLine
 10
0.7401574803149607
 20
0.9980314960629922
 30
0.0
 11
0.6574803149606299
 21
0.9980314960629922
 31
0.0
  0
LINE
  5
261
330
1E
100
AcDbEntity
  8
0
100
AcDbLine
 10
1.126968503937007
 20
1.243110236220472
 30
0.0
 11
1.126968503937007
 21
1.202755905511811
 31
0.0
  0
LINE
  5
262
330
1E
100
AcDbEntity
  8
0
100
AcDbLine
 10
0.7677165354330709
 20
1.204724409448818
 30
0.0
 11
1.015748031496062
 21
1.204724409448818
 31
0.0
  0
LINE
  5
263
330
1E
100
AcDbEntity
  8
0
100
AcDbLine
 10
0.7677165354330709
 20
1.186023622047243
 30
0.0
 11
1.015748031496062
 21
1.186023622047243
 31
0.0
  0
LINE
  5
264
330
1E
100
AcDbEntity
  8
0
100
AcDbLine
 10
0.7401574803149607
 20
1.096456692913385
 30
0.0
 11
0.7401574803149607
 21
0.9980314960629922
 31
0.0
  0
LINE
  5
265
330
1E
100
AcDbEntity
  8
0
100
AcDbLine
 10
0.7637795275590551
 20
1.096456692913385
 30
0.0
 11
0.7401574803149607
 21
1.096456692913385
 31
0.0
  0
LINE
  5
266
330
1E
100
AcDbEntity
  8
0
100
AcDbLine
 10
0.7637795275590551
 20
1.096456692913385
 30
0.0
 11
0.7637795275590551
 21
0.9980314960629922
 31
0.0
  0
LINE
  5
267
330
1E
100
AcDbEntity
  8
0
100
AcDbLine
 10
0.7795275590551181
 20
0.9980314960629922
 30
0.0
 11
0.7637795275590551
 21
0.9980314960629922
 31
0.0
  0
LINE
  5
268
330
1E
100
AcDbEntity
  8
0
100
AcDbLine
 10
0.7795275590551181
 20
1.096456692913385
 30
0.0
 11
0.7795275590551181
 21
0.9980314960629922
 31
0.0
  0
LINE
  5
269
330
1E
100
AcDbEntity
  8
0
100
AcDbLine
 10
0.8041338582677164
 20
1.096456692913385
 30
0.0
 11
0.7795275590551181
 21
1.096456692913385
 31
0.0
  0
LINE
  5
26A
330
1E
100
AcDbEntity
  8
0
100
AcDbLine
 10
0.8041338582677164
 20
1.096456692913385
 30
0.0
 11
0.8041338582677164
 21
0.9980314960629922
 31
0.0
  0
LINE
  5
26B
330
1E
100
AcDbEntity
  8
0
100
AcDbLine
 10
0.8198818897637794
 20
0.9980314960629922
 30
0.0
 11
0.8041338582677164
 21
0.9980314960629922
 31
0.0
  0
LINE
  5
26C
330
1E
100
AcDbEntity
  8
0
100
AcDbLine
 10
0.8198818897637794
 20
1.096456692913385
 30
0.0
 11
0.8198818897637794
 21
0.9980314960629922
 31
0.0
  0
LINE
  5
26D
330
1E
100
AcDbEntity
  8
0
100
AcDbLine
 10
0.8435039370078738
 20
1.096456692913385
 30
0.0
 11
0.8198818897637794
 21
1.096456692913385
 31
0.0
  0
LINE
  5
26E
330
1E
100
AcDbEntity
  8
0
100
AcDbLine
 10
0.8435039370078738
 20
1.096456692913385
 30
0.0
 11
0.8435039370078738
 21
0.9980314960629922
 31
0.0
  0
LINE
  5
26F
330
1E
100
AcDbEntity
  8
0
100
AcDbLine
 10
0.859251968503937
 20
0.9980314960629922
 30
0.0
 11
0.8435039370078738
 21
0.9980314960629922
 31
0.0
  0
LINE
  5
270
330
1E
100
AcDbEntity
  8
0
100
AcDbLine
 10
0.859251968503937
 20
1.096456692913385
 30
0.0
 11
0.859251968503937
 21
0.9980314960629922
 31
0.0
  0
LINE
  5
271
330
1E
100
AcDbEntity
  8
0
100
AcDbLine
 10
0.8838582677165353
 20
1.096456692913385
 30
0.0
 11
0.859251968503937
 21
1.096456692913385
 31
0.0
  0
LINE
  5
272
330
1E
100
AcDbEntity
  8
0
100
AcDbLine
 10
0.8838582677165353
 20
1.096456692913385
 30
0.0
 11
0.8838582677165353
 21
0.9980314960629922
 31
0.0
  0
LINE
  5
273
330
1E
100
AcDbEntity
  8
0
100
AcDbLine
 10
0.8996062992125983
 20
0.9980314960629922
 30
0.0
 11
0.8838582677165353
 21
0.9980314960629922
 31
0.0
  0
LINE
  5
274
330
1E
100
AcDbEntity
  8
0
100
AcDbLine
 10
0.8996062992125983
 20
1.096456692913385
 30
0.0
 11
0.8996062992125983
 21
0.9980314960629922
 31
0.0
  0
LINE
  5
275
330
1E
100
AcDbEntity
  8
0
100
AcDbLine
 10
0.9242125984251968
 20
1.096456692913385
 30
0.0
 11
0.8996062992125983
 21
1.096456692913385
 31
0.0
  0
LINE
  5
276
330
1E
100
AcDbEntity
  8
0
100
AcDbLine
 10
0.9242125984251968
 20
1.096456692913385
 30
0.0
 11
0.9242125984251968
 21
0.9980314960629922
 31
0.0
  0
LINE
  5
277
330
1E
100
AcDbEntity
  8
0
100
AcDbLine
 10
0.9242125984251968
 20
0.9980314960629922
 30
0.0
 11
0.9399606299212598
 21
0.9980314960629922
 31
0.0
  0
LINE
  5
278
330
1E
100
AcDbEntity
  8
0
100
AcDbLine
 10
0.9399606299212598
 20
1.096456692913385
 30
0.0
 11
0.9399606299212598
 21
0.9980314960629922
 31
0.0
  0
LINE
  5
279
330
1E
100
AcDbEntity
  8
0
100
AcDbLine
 10
0.9635826771653542
 20
1.096456692913385
 30
0.0
 11
0.9399606299212598
 21
1.096456692913385
 31
0.0
  0
LINE
  5
27A
330
1E
100
AcDbEntity
  8
0
100
AcDbLine
 10
0.9635826771653542
 20
1.096456692913385
 30
0.0
 11
0.9635826771653542
 21
0.9980314960629922
 31
0.0
  0
LINE
  5
27B
330
1E
100
AcDbEntity
  8
0
100
AcDbLine
 10
0.9635826771653542
 20
0.9980314960629922
 30
0.0
 11
0.9793307086614174
 21
0.9980314960629922
 31
0.0
  0
LINE
  5
27C
330
1E
100
AcDbEntity
  8
0
100
AcDbLine
 10
0.9793307086614174
 20
1.096456692913385
 30
0.0
 11
0.9793307086614174
 21
0.9980314960629922
 31
0.0
  0
LINE
  5
27D
330
1E
100
AcDbEntity
  8
0
100
AcDbLine
 10
1.003937007874015
 20
1.096456692913385
 30
0.0
 11
0.9793307086614174
 21
1.096456692913385
 31
0.0
  0
LINE
  5
27E
330
1E
100
AcDbEntity
  8
0
100
AcDbLine
 10
1.003937007874015
 20
1.096456692913385
 30
0.0
 11
1.003937007874015
 21
0.9980314960629922
 31
0.0
  0
LINE
  5
27F
330
1E
100
AcDbEntity
  8
0
100
AcDbLine
 10
1.003937007874015
 20
0.9980314960629922
 30
0.0
 11
1.019685039370078
 21
0.9980314960629922
 31
0.0
  0
LINE
  5
280
330
1E
100
AcDbEntity
  8
0
100
AcDbLine
 10
1.019685039370078
 20
1.096456692913385
 30
0.0
 11
1.019685039370078
 21
0.9980314960629922
 31
0.0
  0
LINE
  5
281
330
1E
100
AcDbEntity
  8
0
100
AcDbLine
 10
1.043307086614173
 20
1.096456692913385
 30
0.0
 11
1.019685039370078
 21
1.096456692913385
 31
0.0
  0
LINE
  5
282
330
1E
100
AcDbEntity
  8
0
100
AcDbLine
 10
1.043307086614173
 20
1.096456692913385
 30
0.0
 11
1.043307086614173
 21
0.9980314960629922
 31
0.0
  0
LINE
  5
283
330
1E
100
AcDbEntity
  8
0
100
AcDbLine
 10
1.125984251968503
 20
1.202755905511811
 30
0.0
 11
1.125984251968503
 21
0.9980314960629922
 31
0.0
  0
LINE
  5
284
330
1E
100
AcDbEntity
  8
0
100
AcDbLine
 10
1.015748031496062
 20
1.153543307086614
 30
0.0
 11
0.7677165354330709
 21
1.153543307086614
 31
0.0
  0
LINE
  5
285
330
1E
100
AcDbEntity
  8
0
100
AcDbLine
 10
1.015748031496062
 20
1.155511811023621
 30
0.0
 11
0.7677165354330709
 21
1.155511811023621
 31
0.0
  0
LINE
  5
286
330
1E
100
AcDbEntity
  8
0
100
AcDbLine
 10
0.9970472440944881
 20
0.7214566929133858
 30
0.0
 11
0.9960629921259842
 21
0.735236220472441
 31
0.0
  0
LINE
  5
287
330
1E
100
AcDbEntity
  8
0
100
AcDbLine
 10
1.004921259842519
 20
0.7204724409448819
 30
0.0
 11
0.9970472440944881
 21
0.7214566929133858
 31
0.0
  0
LINE
  5
288
330
1E
100
AcDbEntity
  8
0
100
AcDbLine
 10
0.7874015748031496
 20
0.735236220472441
 30
0.0
 11
0.7864173228346456
 21
0.7214566929133858
 31
0.0
  0
LINE
  5
289
330
1E
100
AcDbEntity
  8
0
100
AcDbLine
 10
0.7864173228346456
 20
0.7214566929133858
 30
0.0
 11
0.9970472440944881
 21
0.7214566929133858
 31
0.0
  0
LINE
  5
28A
330
1E
100
AcDbEntity
  8
0
100
AcDbLine
 10
0.7864173228346456
 20
0.7214566929133858
 30
0.0
 11
0.7785433070866141
 21
0.7204724409448819
 31
0.0
  0
LINE
  5
28B
330
1E
100
AcDbEntity
  8
0
100
AcDbLine
 10
1.127952755905511
 20
0.9744094488188975
 30
0.0
 11
1.127952755905511
 21
0.9744094488188975
 31
0.0
  0
LINE
  5
28C
330
1E
100
AcDbEntity
  8
0
100
AcDbLine
 10
1.127952755905511
 20
0.9744094488188975
 30
0.0
 11
1.127952755905511
 21
1.244094488188976
 31
0.0
  0
LWPOLYLINE
  5
28D
330
1E
100
AcDbEntity
  8
0
100
AcDbPolyline
 90
        5
 70
     0
 43
0.0
 10
0.8120078740157479
 20
1.309055118110236
 10
0.8090551181102362
 20
1.311023622047243
 10
0.8031496062992125
 20
1.317913385826771
 10
0.7933070866141733
 20
1.327755905511811
 10
0.781496062992126
 20
1.339566929133858
  0
LWPOLYLINE
  5
294
330
1E
100
AcDbEntity
  8
0
100
AcDbPolyline
 90
        5
 70
     0
 43
0.0
 10
0.7677165354330709
 20
1.309055118110236
 10
0.765748031496063
 20
1.311023622047243
 10
0.7588582677165354
 20
1.317913385826771
 10
0.7490157480314961
 20
1.327755905511811
 10
0.7381889763779528
 20
1.339566929133858
  0
LWPOLYLINE
  5
29B
330
1E
100
AcDbEntity
  8
0
100
AcDbPolyline
 90
        5
 70
     0
 43
0.0
 10
0.7677165354330709
 20
1.244094488188976
 10
0.765748031496063
 20
1.247047244094488
 10
0.7588582677165354
 20
1.252952755905511
 10
0.7490157480314961
 20
1.262795275590551
 10
0.7381889763779528
 20
1.274606299212598
  0
LWPOLYLINE
  5
2A2
330
1E
100
AcDbEntity
  8
0
100
AcDbPolyline
 90
        5
 70
     0
 43
0.0
 10
0.6555118110236221
 20
1.244094488188976
 10
0.6535433070866141
 20
1.247047244094488
 10
0.6466535433070866
 20
1.252952755905511
 10
0.6368110236220473
 20
1.262795275590551
 10
0.6259842519685039
 20
1.274606299212598
  0
LWPOLYLINE
  5
2A9
330
1E
100
AcDbEntity
  8
0
100
AcDbPolyline
 90
        5
 70
     0
 43
0.0
 10
0.6555118110236221
 20
0.9744094488188975
 10
0.6535433070866141
 20
0.9714566929133857
 10
0.6466535433070866
 20
0.9655511811023622
 10
0.6368110236220473
 20
0.9557086614173227
 10
0.6259842519685039
 20
0.9438976377952755
  0
LWPOLYLINE
  5
2B0
330
1E
100
AcDbEntity
  8
0
100
AcDbPolyline
 90
        5
 70
     0
 43
0.0
 10
1.127952755905511
 20
0.9744094488188975
 10
1.129921259842519
 20
0.9714566929133857
 10
1.136811023622047
 20
0.9655511811023622
 10
1.146653543307086
 20
0.9557086614173227
 10
1.157480314960629
 20
0.9438976377952755
  0
LWPOLYLINE
  5
2B7
330
1E
100
AcDbEntity
  8
0
100
AcDbPolyline
 90
        5
 70
     0
 43
0.0
 10
1.127952755905511
 20
1.244094488188976
 10
1.129921259842519
 20
1.247047244094488
 10
1.136811023622047
 20
1.252952755905511
 10
1.146653543307086
 20
1.262795275590551
 10
1.157480314960629
 20
1.274606299212598
  0
LWPOLYLINE
  5
2BE
330
1E
100
AcDbEntity
  8
0
100
AcDbPolyline
 90
        5
 70
     0
 43
0.0
 10
1.015748031496062
 20
1.244094488188976
 10
1.01771653543307
 20
1.247047244094488
 10
1.024606299212598
 20
1.252952755905511
 10
1.034448818897637
 20
1.262795275590551
 10
1.045275590551181
 20
1.274606299212598
  0
LWPOLYLINE
  5
2C5
330
1E
100
AcDbEntity
  8
0
100
AcDbPolyline
 90
        5
 70
     0
 43
0.0
 10
1.015748031496062
 20
1.309055118110236
 10
1.01771653543307
 20
1.311023622047243
 10
1.024606299212598
 20
1.317913385826771
 10
1.034448818897637
 20
1.327755905511811
 10
1.045275590551181
 20
1.339566929133858
  0
LWPOLYLINE
  5
2CC
330
1E
100
AcDbEntity
  8
0
100
AcDbPolyline
 90
        5
 70
     0
 43
0.0
 10
0.9714566929133857
 20
1.309055118110236
 10
0.9744094488188975
 20
1.311023622047243
 10
0.9803149606299212
 20
1.317913385826771
 10
0.9901574803149607
 20
1.327755905511811
 10
1.001968503937007
 20
1.339566929133858
  0
LWPOLYLINE
  5
2D3
330
1E
100
AcDbEntity
  8
0
100
AcDbPolyline
 90
        3
 70
     0
 43
0.0
 10
0.7913385826771654
 20
1.242125984251968
 10
0.7854330708661417
 20
1.243110236220472
 10
0.7805118110236221
 20
1.248031496062992
  0
LWPOLYLINE
  5
2D8
330
1E
100
AcDbEntity
  8
0
100
AcDbPolyline
 90
        3
 70
     0
 43
0.0
 10
0.7795275590551181
 20
1.261811023622047
 10
0.7913385826771654
 20
1.268700787401574
 10
0.8041338582677164
 20
1.261811023622047
  0
LWPOLYLINE
  5
2DD
330
1E
100
AcDbEntity
  8
0
100
AcDbPolyline
 90
        3
 70
     0
 43
0.0
 10
0.8021653543307087
 20
1.248031496062992
 10
0.798228346456693
 20
1.243110236220472
 10
0.7913385826771654
 20
1.242125984251968
  0
LWPOLYLINE
  5
2E2
330
1E
100
AcDbEntity
  8
0
100
AcDbPolyline
 90
        3
 70
     0
 43
0.0
 10
0.951771653543307
 20
1.21751968503937
 10
0.9448818897637794
 20
1.218503937007874
 10
0.9399606299212598
 20
1.223425196850393
  0
LWPOLYLINE
  5
2E7
330
1E
100
AcDbEntity
  8
0
100
AcDbPolyline
 90
        3
 70
     0
 43
0.0
 10
0.9399606299212598
 20
1.237204724409448
 10
0.951771653543307
 20
1.244094488188976
 10
0.9635826771653542
 20
1.237204724409448
  0
LWPOLYLINE
  5
2EC
330
1E
100
AcDbEntity
  8
0
100
AcDbPolyline
 90
        3
 70
     0
 43
0.0
 10
0.9635826771653542
 20
1.223425196850393
 10
0.9586614173228346
 20
1.218503937007874
 10
0.951771653543307
 20
1.21751968503937
  0
LWPOLYLINE
  5
2F1
330
1E
100
AcDbEntity
  8
0
100
AcDbPolyline
 90
        3
 70
     0
 43
0.0
 10
0.9921259842519685
 20
1.279527559055118
 10
0.9852362204724409
 20
1.280511811023622
 10
0.9812992125984251
 20
1.284448818897637
  0
LWPOLYLINE
  5
2F6
330
1E
100
AcDbEntity
  8
0
100
AcDbPolyline
 90
        3
 70
     0
 43
0.0
 10
0.9793307086614174
 20
1.299212598425196
 10
0.9921259842519685
 20
1.306102362204724
 10
1.003937007874015
 20
1.299212598425196
  0
LWPOLYLINE
  5
2FB
330
1E
100
AcDbEntity
  8
0
100
AcDbPolyline
 90
        3
 70
     0
 43
0.0
 10
1.002952755905511
 20
1.284448818897637
 10
0.9980314960629922
 20
1.280511811023622
 10
0.9921259842519685
 20
1.279527559055118
  0
LWPOLYLINE
  5
300
330
1E
100
AcDbEntity
  8
0
100
AcDbPolyline
 90
        3
 70
     0
 43
0.0
 10
0.8316929133858266
 20
1.303149606299212
 10
0.8257874015748031
 20
1.304133858267716
 10
0.8208661417322835
 20
1.309055118110236
  0
LWPOLYLINE
  5
305
330
1E
100
AcDbEntity
  8
0
100
AcDbPolyline
 90
        3
 70
     0
 43
0.0
 10
0.8198818897637794
 20
1.322834645669291
 10
0.8316929133858266
 20
1.329724409448818
 10
0.8435039370078738
 20
1.322834645669291
  0
LWPOLYLINE
  5
30A
330
1E
100
AcDbEntity
  8
0
100
AcDbPolyline
 90
        3
 70
     0
 43
0.0
 10
0.84251968503937
 20
1.309055118110236
 10
0.8375984251968503
 20
1.30511811023622
 10
0.8316929133858266
 20
1.303149606299212
  0
LWPOLYLINE
  5
30F
330
1E
100
AcDbEntity
  8
0
100
AcDbPolyline
 90
        3
 70
     0
 43
0.0
 10
0.9114173228346455
 20
1.303149606299212
 10
0.905511811023622
 20
1.304133858267716
 10
0.9005905511811022
 20
1.309055118110236
  0
LWPOLYLINE
  5
314
330
1E
100
AcDbEntity
  8
0
100
AcDbPolyline
 90
        3
 70
     0
 43
0.0
 10
0.8996062992125983
 20
1.322834645669291
 10
0.9114173228346455
 20
1.329724409448818
 10
0.9242125984251968
 20
1.322834645669291
  0
LWPOLYLINE
  5
319
330
1E
100
AcDbEntity
  8
0
100
AcDbPolyline
 90
        3
 70
     0
 43
0.0
 10
0.922244094488189
 20
1.309055118110236
 10
0.9183070866141733
 20
1.304133858267716
 10
0.9114173228346455
 20
1.303149606299212
  0
LWPOLYLINE
  5
31E
330
1E
100
AcDbEntity
  8
0
100
AcDbPolyline
 90
        3
 70
     0
 43
0.0
 10
0.8720472440944881
 20
1.21751968503937
 10
0.8651574803149607
 20
1.218503937007874
 10
0.8602362204724409
 20
1.223425196850393
  0
LWPOLYLINE
  5
323
330
1E
100
AcDbEntity
  8
0
100
AcDbPolyline
 90
        3
 70
     0
 43
0.0
 10
0.8602362204724409
 20
1.237204724409448
 10
0.8720472440944881
 20
1.244094488188976
 10
0.8828740157480314
 20
1.237204724409448
  0
LWPOLYLINE
  5
328
330
1E
100
AcDbEntity
  8
0
100
AcDbPolyline
 90
        3
 70
     0
 43
0.0
 10
0.8828740157480314
 20
1.223425196850393
 10
0.8779527559055118
 20
1.218503937007874
 10
0.8720472440944881
 20
1.21751968503937
  0
LINE
  5
32D
330
1E
100
AcDbEntity
  8
0
100
AcDbLine
 10
0.8248031496062992
 20
1.327755905511811
 30
0.0
 11
0.8395669291338581
 21
1.327755905511811
 31
0.0
  0
LINE
  5
32E
330
1E
100
AcDbEntity
  8
0
100
AcDbLine
 10
0.9045275590551181
 20
1.327755905511811
 30
0.0
 11
0.9192913385826772
 21
1.327755905511811
 31
0.0
  0
LINE
  5
32F
330
1E
100
AcDbEntity
  8
0
100
AcDbLine
 10
0.9143700787401575
 20
1.303149606299212
 30
0.0
 11
0.9084645669291337
 21
1.303149606299212
 31
0.0
  0
LINE
  5
330
330
1E
100
AcDbEntity
  8
0
100
AcDbLine
 10
0.984251968503937
 20
1.304133858267716
 30
0.0
 11
0.9990157480314961
 21
1.304133858267716
 31
0.0
  0
LINE
  5
331
330
1E
100
AcDbEntity
  8
0
100
AcDbLine
 10
0.8375984251968503
 20
1.309055118110236
 30
0.0
 11
0.8208661417322835
 21
1.309055118110236
 31
0.0
  0
LINE
  5
332
330
1E
100
AcDbEntity
  8
0
100
AcDbLine
 10
0.8375984251968503
 20
1.309055118110236
 30
0.0
 11
0.8375984251968503
 21
1.309055118110236
 31
0.0
  0
LINE
  5
333
330
1E
100
AcDbEntity
  8
0
100
AcDbLine
 10
0.8375984251968503
 20
1.322834645669291
 30
0.0
 11
0.8375984251968503
 21
1.322834645669291
 31
0.0
  0
LINE
  5
334
330
1E
100
AcDbEntity
  8
0
100
AcDbLine
 10
0.8375984251968503
 20
1.322834645669291
 30
0.0
 11
0.8198818897637794
 21
1.322834645669291
 31
0.0
  0
LINE
  5
335
330
1E
100
AcDbEntity
  8
0
100
AcDbLine
 10
0.8346456692913385
 20
1.303149606299212
 30
0.0
 11
0.8287401574803149
 21
1.303149606299212
 31
0.0
  0
LINE
  5
336
330
1E
100
AcDbEntity
  8
0
100
AcDbLine
 10
0.84251968503937
 20
1.308070866141732
 30
0.0
 11
0.84251968503937
 21
1.309055118110236
 31
0.0
  0
LINE
  5
337
330
1E
100
AcDbEntity
  8
0
100
AcDbLine
 10
0.84251968503937
 20
1.308070866141732
 30
0.0
 11
0.84251968503937
 21
1.309055118110236
 31
0.0
  0
LINE
  5
338
330
1E
100
AcDbEntity
  8
0
100
AcDbLine
 10
0.84251968503937
 20
1.308070866141732
 30
0.0
 11
0.84251968503937
 21
1.308070866141732
 31
0.0
  0
LINE
  5
339
330
1E
100
AcDbEntity
  8
0
100
AcDbLine
 10
0.84251968503937
 20
1.322834645669291
 30
0.0
 11
0.84251968503937
 21
1.322834645669291
 31
0.0
  0
LINE
  5
33A
330
1E
100
AcDbEntity
  8
0
100
AcDbLine
 10
0.84251968503937
 20
1.322834645669291
 30
0.0
 11
0.84251968503937
 21
1.322834645669291
 31
0.0
  0
LINE
  5
33B
330
1E
100
AcDbEntity
  8
0
100
AcDbLine
 10
0.9064960629921259
 20
1.304133858267716
 30
0.0
 11
0.9064960629921259
 21
1.309055118110236
 31
0.0
  0
LINE
  5
33C
330
1E
100
AcDbEntity
  8
0
100
AcDbLine
 10
0.9064960629921259
 20
1.303149606299212
 30
0.0
 11
0.9064960629921259
 21
1.308070866141732
 31
0.0
  0
LINE
  5
33D
330
1E
100
AcDbEntity
  8
0
100
AcDbLine
 10
0.9064960629921259
 20
1.309055118110236
 30
0.0
 11
0.9064960629921259
 21
1.308070866141732
 31
0.0
  0
LINE
  5
33E
330
1E
100
AcDbEntity
  8
0
100
AcDbLine
 10
0.9064960629921259
 20
1.322834645669291
 30
0.0
 11
0.9064960629921259
 21
1.322834645669291
 31
0.0
  0
LINE
  5
33F
330
1E
100
AcDbEntity
  8
0
100
AcDbLine
 10
0.9064960629921259
 20
1.322834645669291
 30
0.0
 11
0.9064960629921259
 21
1.322834645669291
 31
0.0
  0
LINE
  5
340
330
1E
100
AcDbEntity
  8
0
100
AcDbLine
 10
0.9803149606299212
 20
1.298228346456692
 30
0.0
 11
0.9803149606299212
 21
1.299212598425196
 31
0.0
  0
LINE
  5
341
330
1E
100
AcDbEntity
  8
0
100
AcDbLine
 10
0.9803149606299212
 20
1.299212598425196
 30
0.0
 11
0.9803149606299212
 21
1.298228346456692
 31
0.0
  0
LINE
  5
342
330
1E
100
AcDbEntity
  8
0
100
AcDbLine
 10
1.002952755905511
 20
1.298228346456692
 30
0.0
 11
1.002952755905511
 21
1.299212598425196
 31
0.0
  0
LINE
  5
343
330
1E
100
AcDbEntity
  8
0
100
AcDbLine
 10
1.002952755905511
 20
1.298228346456692
 30
0.0
 11
1.002952755905511
 21
1.299212598425196
 31
0.0
  0
LINE
  5
344
330
1E
100
AcDbEntity
  8
0
100
AcDbLine
 10
0.9064960629921259
 20
1.308070866141732
 30
0.0
 11
0.922244094488189
 21
1.308070866141732
 31
0.0
  0
LINE
  5
345
330
1E
100
AcDbEntity
  8
0
100
AcDbLine
 10
0.922244094488189
 20
1.309055118110236
 30
0.0
 11
0.9114173228346455
 21
1.309055118110236
 31
0.0
  0
LINE
  5
346
330
1E
100
AcDbEntity
  8
0
100
AcDbLine
 10
0.9114173228346455
 20
1.309055118110236
 30
0.0
 11
0.9064960629921259
 21
1.309055118110236
 31
0.0
  0
LINE
  5
347
330
1E
100
AcDbEntity
  8
0
100
AcDbLine
 10
0.8208661417322835
 20
1.308070866141732
 30
0.0
 11
0.84251968503937
 21
1.308070866141732
 31
0.0
  0
LINE
  5
348
330
1E
100
AcDbEntity
  8
0
100
AcDbLine
 10
0.84251968503937
 20
1.309055118110236
 30
0.0
 11
0.8375984251968503
 21
1.309055118110236
 31
0.0
  0
LINE
  5
349
330
1E
100
AcDbEntity
  8
0
100
AcDbLine
 10
0.9242125984251968
 20
1.322834645669291
 30
0.0
 11
0.9114173228346455
 21
1.322834645669291
 31
0.0
  0
LINE
  5
34A
330
1E
100
AcDbEntity
  8
0
100
AcDbLine
 10
0.9114173228346455
 20
1.322834645669291
 30
0.0
 11
0.9114173228346455
 21
1.322834645669291
 31
0.0
  0
LINE
  5
34B
330
1E
100
AcDbEntity
  8
0
100
AcDbLine
 10
0.9114173228346455
 20
1.309055118110236
 30
0.0
 11
0.9114173228346455
 21
1.309055118110236
 31
0.0
  0
LINE
  5
34C
330
1E
100
AcDbEntity
  8
0
100
AcDbLine
 10
1.003937007874015
 20
1.299212598425196
 30
0.0
 11
0.9793307086614174
 21
1.299212598425196
 31
0.0
  0
LINE
  5
34D
330
1E
100
AcDbEntity
  8
0
100
AcDbLine
 10
0.9793307086614174
 20
1.299212598425196
 30
0.0
 11
0.9803149606299212
 21
1.299212598425196
 31
0.0
  0
LINE
  5
34E
330
1E
100
AcDbEntity
  8
0
100
AcDbLine
 10
1.002952755905511
 20
1.299212598425196
 30
0.0
 11
1.003937007874015
 21
1.299212598425196
 31
0.0
  0
LINE
  5
34F
330
1E
100
AcDbEntity
  8
0
100
AcDbLine
 10
0.9242125984251968
 20
1.322834645669291
 30
0.0
 11
0.8996062992125983
 21
1.322834645669291
 31
0.0
  0
LINE
  5
350
330
1E
100
AcDbEntity
  8
0
100
AcDbLine
 10
0.9064960629921259
 20
1.322834645669291
 30
0.0
 11
0.9114173228346455
 21
1.322834645669291
 31
0.0
  0
LINE
  5
351
330
1E
100
AcDbEntity
  8
0
100
AcDbLine
 10
0.8435039370078738
 20
1.322834645669291
 30
0.0
 11
0.8198818897637794
 21
1.322834645669291
 31
0.0
  0
LINE
  5
352
330
1E
100
AcDbEntity
  8
0
100
AcDbLine
 10
0.8375984251968503
 20
1.322834645669291
 30
0.0
 11
0.84251968503937
 21
1.322834645669291
 31
0.0
  0
LINE
  5
353
330
1E
100
AcDbEntity
  8
0
100
AcDbLine
 10
0.9990157480314961
 20
1.284448818897637
 30
0.0
 11
1.0
 21
1.281496062992125
 31
0.0
  0
LINE
  5
354
330
1E
100
AcDbEntity
  8
0
100
AcDbLine
 10
0.8218503937007874
 20
1.322834645669291
 30
0.0
 11
0.8218503937007874
 21
1.309055118110236
 31
0.0
  0
LWPOLYLINE
  5
355
330
1E
100
AcDbEntity
  8
0
100
AcDbPolyline
 90
        3
 70
     0
 43
0.0
 10
0.8238188976377951
 20
1.309055118110236
 10
0.8228346456692912
 20
1.309055118110236
 10
0.8218503937007874
 20
1.309055118110236
  0
LINE
  5
35A
330
1E
100
AcDbEntity
  8
0
100
AcDbLine
 10
0.8238188976377951
 20
1.322834645669291
 30
0.0
 11
0.8238188976377951
 21
1.309055118110236
 31
0.0
  0
LWPOLYLINE
  5
35B
330
1E
100
AcDbEntity
  8
0
100
AcDbPolyline
 90
        3
 70
     0
 43
0.0
 10
0.8238188976377951
 20
1.322834645669291
 10
0.8228346456692912
 20
1.322834645669291
 10
0.8218503937007874
 20
1.322834645669291
  0
LINE
  5
360
330
1E
100
AcDbEntity
  8
0
100
AcDbLine
 10
0.8248031496062992
 20
1.309055118110236
 30
0.0
 11
0.8238188976377951
 21
1.309055118110236
 31
0.0
  0
LINE
  5
361
330
1E
100
AcDbEntity
  8
0
100
AcDbLine
 10
0.8248031496062992
 20
1.322834645669291
 30
0.0
 11
0.8238188976377951
 21
1.322834645669291
 31
0.0
  0
LINE
  5
362
330
1E
100
AcDbEntity
  8
0
100
AcDbLine
 10
0.8248031496062992
 20
1.309055118110236
 30
0.0
 11
0.8248031496062992
 21
1.322834645669291
 31
0.0
  0
LINE
  5
363
330
1E
100
AcDbEntity
  8
0
100
AcDbLine
 10
0.8385826771653542
 20
1.309055118110236
 30
0.0
 11
0.8385826771653542
 21
1.322834645669291
 31
0.0
  0
LINE
  5
364
330
1E
100
AcDbEntity
  8
0
100
AcDbLine
 10
0.8385826771653542
 20
1.309055118110236
 30
0.0
 11
0.8395669291338581
 21
1.309055118110236
 31
0.0
  0
LINE
  5
365
330
1E
100
AcDbEntity
  8
0
100
AcDbLine
 10
0.8395669291338581
 20
1.322834645669291
 30
0.0
 11
0.8395669291338581
 21
1.309055118110236
 31
0.0
  0
LINE
  5
366
330
1E
100
AcDbEntity
  8
0
100
AcDbLine
 10
0.8385826771653542
 20
1.322834645669291
 30
0.0
 11
0.8395669291338581
 21
1.322834645669291
 31
0.0
  0
LWPOLYLINE
  5
367
330
1E
100
AcDbEntity
  8
0
100
AcDbPolyline
 90
        3
 70
     0
 43
0.0
 10
0.8415354330708661
 20
1.309055118110236
 10
0.8405511811023622
 20
1.309055118110236
 10
0.8395669291338581
 20
1.309055118110236
  0
LINE
  5
36C
330
1E
100
AcDbEntity
  8
0
100
AcDbLine
 10
0.8415354330708661
 20
1.322834645669291
 30
0.0
 11
0.8415354330708661
 21
1.309055118110236
 31
0.0
  0
LWPOLYLINE
  5
36D
330
1E
100
AcDbEntity
  8
0
100
AcDbPolyline
 90
        3
 70
     0
 43
0.0
 10
0.8415354330708661
 20
1.322834645669291
 10
0.8405511811023622
 20
1.322834645669291
 10
0.8395669291338581
 20
1.322834645669291
  0
LWPOLYLINE
  5
372
330
1E
100
AcDbEntity
  8
0
100
AcDbPolyline
 90
        3
 70
     0
 43
0.0
 10
0.8484251968503937
 20
1.309055118110236
 10
0.8474409448818896
 20
1.309055118110236
 10
0.8415354330708661
 20
1.309055118110236
  0
LWPOLYLINE
  5
377
330
1E
100
AcDbEntity
  8
0
100
AcDbPolyline
 90
        3
 70
     0
 43
0.0
 10
0.8484251968503937
 20
1.322834645669291
 10
0.8474409448818896
 20
1.322834645669291
 10
0.8415354330708661
 20
1.322834645669291
  0
LWPOLYLINE
  5
37C
330
1E
100
AcDbEntity
  8
0
100
AcDbPolyline
 90
        3
 70
     0
 43
0.0
 10
0.8218503937007874
 20
1.322834645669291
 10
0.8169291338582677
 20
1.322834645669291
 10
0.8149606299212598
 20
1.322834645669291
  0
LWPOLYLINE
  5
381
330
1E
100
AcDbEntity
  8
0
100
AcDbPolyline
 90
        3
 70
     0
 43
0.0
 10
0.8218503937007874
 20
1.309055118110236
 10
0.8169291338582677
 20
1.309055118110236
 10
0.8149606299212598
 20
1.309055118110236
  0
LINE
  5
386
330
1E
100
AcDbEntity
  8
0
100
AcDbLine
 10
0.8248031496062992
 20
1.322834645669291
 30
0.0
 11
0.8277559055118109
 21
1.322834645669291
 31
0.0
  0
LWPOLYLINE
  5
387
330
1E
100
AcDbEntity
  8
0
100
AcDbPolyline
 90
        3
 70
     0
 43
0.0
 10
0.8356299212598424
 20
1.322834645669291
 10
0.8316929133858266
 20
1.322834645669291
 10
0.8277559055118109
 20
1.322834645669291
  0
LINE
  5
38C
330
1E
100
AcDbEntity
  8
0
100
AcDbLine
 10
0.8385826771653542
 20
1.322834645669291
 30
0.0
 11
0.8356299212598424
 21
1.322834645669291
 31
0.0
  0
LINE
  5
38D
330
1E
100
AcDbEntity
  8
0
100
AcDbLine
 10
0.8385826771653542
 20
1.309055118110236
 30
0.0
 11
0.8356299212598424
 21
1.309055118110236
 31
0.0
  0
LWPOLYLINE
  5
38E
330
1E
100
AcDbEntity
  8
0
100
AcDbPolyline
 90
        3
 70
     0
 43
0.0
 10
0.8356299212598424
 20
1.309055118110236
 10
0.8316929133858266
 20
1.309055118110236
 10
0.8277559055118109
 20
1.309055118110236
  0
LINE
  5
393
330
1E
100
AcDbEntity
  8
0
100
AcDbLine
 10
0.8248031496062992
 20
1.309055118110236
 30
0.0
 11
0.8277559055118109
 21
1.309055118110236
 31
0.0
  0
LINE
  5
394
330
1E
100
AcDbEntity
  8
0
100
AcDbLine
 10
0.8356299212598424
 20
1.322834645669291
 30
0.0
 11
0.8356299212598424
 21
1.309055118110236
 31
0.0
  0
LINE
  5
395
330
1E
100
AcDbEntity
  8
0
100
AcDbLine
 10
0.8277559055118109
 20
1.322834645669291
 30
0.0
 11
0.8277559055118109
 21
1.309055118110236
 31
0.0
  0
LINE
  5
396
330
1E
100
AcDbEntity
  8
0
100
AcDbLine
 10
0.905511811023622
 20
1.30511811023622
 30
0.0
 11
0.9064960629921259
 21
1.30511811023622
 31
0.0
  0
LWPOLYLINE
  5
397
330
1E
100
AcDbEntity
  8
0
100
AcDbPolyline
 90
        3
 70
     0
 43
0.0
 10
0.905511811023622
 20
1.30511811023622
 10
0.9045275590551181
 20
1.306102362204724
 10
0.903543307086614
 20
1.306102362204724
  0
LINE
  5
39C
330
1E
100
AcDbEntity
  8
0
100
AcDbLine
 10
0.9183070866141733
 20
1.309055118110236
 30
0.0
 11
0.9163385826771653
 21
1.309055118110236
 31
0.0
  0
LWPOLYLINE
  5
39D
330
1E
100
AcDbEntity
  8
0
100
AcDbPolyline
 90
        3
 70
     0
 43
0.0
 10
0.9163385826771653
 20
1.309055118110236
 10
0.9114173228346455
 20
1.309055118110236
 10
0.9074803149606298
 20
1.309055118110236
  0
LINE
  5
3A2
330
1E
100
AcDbEntity
  8
0
100
AcDbLine
 10
0.9045275590551181
 20
1.309055118110236
 30
0.0
 11
0.9074803149606298
 21
1.309055118110236
 31
0.0
  0
LINE
  5
3A3
330
1E
100
AcDbEntity
  8
0
100
AcDbLine
 10
0.9045275590551181
 20
1.309055118110236
 30
0.0
 11
0.903543307086614
 21
1.309055118110236
 31
0.0
  0
LWPOLYLINE
  5
3A4
330
1E
100
AcDbEntity
  8
0
100
AcDbPolyline
 90
        3
 70
     0
 43
0.0
 10
0.903543307086614
 20
1.309055118110236
 10
0.9025590551181101
 20
1.309055118110236
 10
0.9015748031496062
 20
1.309055118110236
  0
LWPOLYLINE
  5
3A9
330
1E
100
AcDbEntity
  8
0
100
AcDbPolyline
 90
        3
 70
     0
 43
0.0
 10
0.9015748031496062
 20
1.309055118110236
 10
0.8966535433070866
 20
1.309055118110236
 10
0.8946850393700787
 20
1.309055118110236
  0
LWPOLYLINE
  5
3AE
330
1E
100
AcDbEntity
  8
0
100
AcDbPolyline
 90
        3
 70
     0
 43
0.0
 10
0.9291338582677164
 20
1.309055118110236
 10
0.9271653543307087
 20
1.309055118110236
 10
0.921259842519685
 20
1.309055118110236
  0
LINE
  5
3B3
330
1E
100
AcDbEntity
  8
0
100
AcDbLine
 10
0.921259842519685
 20
1.309055118110236
 30
0.0
 11
0.9192913385826772
 21
1.309055118110236
 31
0.0
  0
LINE
  5
3B4
330
1E
100
AcDbEntity
  8
0
100
AcDbLine
 10
0.9183070866141733
 20
1.309055118110236
 30
0.0
 11
0.9192913385826772
 21
1.309055118110236
 31
0.0
  0
LINE
  5
3B5
330
1E
100
AcDbEntity
  8
0
100
AcDbLine
 10
0.9045275590551181
 20
1.322834645669291
 30
0.0
 11
0.9074803149606298
 21
1.322834645669291
 31
0.0
  0
LWPOLYLINE
  5
3B6
330
1E
100
AcDbEntity
  8
0
100
AcDbPolyline
 90
        3
 70
     0
 43
0.0
 10
0.9163385826771653
 20
1.322834645669291
 10
0.9114173228346455
 20
1.322834645669291
 10
0.9074803149606298
 20
1.322834645669291
  0
LINE
  5
3BB
330
1E
100
AcDbEntity
  8
0
100
AcDbLine
 10
0.9183070866141733
 20
1.322834645669291
 30
0.0
 11
0.9163385826771653
 21
1.322834645669291
 31
0.0
  0
LINE
  5
3BC
330
1E
100
AcDbEntity
  8
0
100
AcDbLine
 10
0.9183070866141733
 20
1.322834645669291
 30
0.0
 11
0.9192913385826772
 21
1.322834645669291
 31
0.0
  0
LINE
  5
3BD
330
1E
100
AcDbEntity
  8
0
100
AcDbLine
 10
0.921259842519685
 20
1.322834645669291
 30
0.0
 11
0.9192913385826772
 21
1.322834645669291
 31
0.0
  0
LWPOLYLINE
  5
3BE
330
1E
100
AcDbEntity
  8
0
100
AcDbPolyline
 90
        3
 70
     0
 43
0.0
 10
0.9291338582677164
 20
1.322834645669291
 10
0.9271653543307087
 20
1.322834645669291
 10
0.921259842519685
 20
1.322834645669291
  0
LWPOLYLINE
  5
3C3
330
1E
100
AcDbEntity
  8
0
100
AcDbPolyline
 90
        3
 70
     0
 43
0.0
 10
0.9015748031496062
 20
1.322834645669291
 10
0.8966535433070866
 20
1.322834645669291
 10
0.8946850393700787
 20
1.322834645669291
  0
LWPOLYLINE
  5
3C8
330
1E
100
AcDbEntity
  8
0
100
AcDbPolyline
 90
        3
 70
     0
 43
0.0
 10
0.903543307086614
 20
1.322834645669291
 10
0.9025590551181101
 20
1.322834645669291
 10
0.9015748031496062
 20
1.322834645669291
  0
LINE
  5
3CD
330
1E
100
AcDbEntity
  8
0
100
AcDbLine
 10
0.9045275590551181
 20
1.322834645669291
 30
0.0
 11
0.903543307086614
 21
1.322834645669291
 31
0.0
  0
LINE
  5
3CE
330
1E
100
AcDbEntity
  8
0
100
AcDbLine
 10
0.9045275590551181
 20
1.309055118110236
 30
0.0
 11
0.9045275590551181
 21
1.322834645669291
 31
0.0
  0
LINE
  5
3CF
330
1E
100
AcDbEntity
  8
0
100
AcDbLine
 10
0.9183070866141733
 20
1.309055118110236
 30
0.0
 11
0.9183070866141733
 21
1.322834645669291
 31
0.0
  0
LINE
  5
3D0
330
1E
100
AcDbEntity
  8
0
100
AcDbLine
 10
0.903543307086614
 20
1.322834645669291
 30
0.0
 11
0.903543307086614
 21
1.309055118110236
 31
0.0
  0
LINE
  5
3D1
330
1E
100
AcDbEntity
  8
0
100
AcDbLine
 10
0.9015748031496062
 20
1.322834645669291
 30
0.0
 11
0.9015748031496062
 21
1.309055118110236
 31
0.0
  0
LINE
  5
3D2
330
1E
100
AcDbEntity
  8
0
100
AcDbLine
 10
0.921259842519685
 20
1.322834645669291
 30
0.0
 11
0.921259842519685
 21
1.309055118110236
 31
0.0
  0
LINE
  5
3D3
330
1E
100
AcDbEntity
  8
0
100
AcDbLine
 10
0.9192913385826772
 20
1.322834645669291
 30
0.0
 11
0.9192913385826772
 21
1.309055118110236
 31
0.0
  0
LINE
  5
3D4
330
1E
100
AcDbEntity
  8
0
100
AcDbLine
 10
0.905511811023622
 20
1.309055118110236
 30
0.0
 11
0.905511811023622
 21
1.30511811023622
 31
0.0
  0
LINE
  5
3D5
330
1E
100
AcDbEntity
  8
0
100
AcDbLine
 10
0.9074803149606298
 20
1.322834645669291
 30
0.0
 11
0.9074803149606298
 21
1.309055118110236
 31
0.0
  0
LINE
  5
3D6
330
1E
100
AcDbEntity
  8
0
100
AcDbLine
 10
0.9163385826771653
 20
1.322834645669291
 30
0.0
 11
0.9163385826771653
 21
1.309055118110236
 31
0.0
  0
LINE
  5
3D7
330
1E
100
AcDbEntity
  8
0
100
AcDbLine
 10
0.8789370078740157
 20
1.223425196850393
 30
0.0
 11
0.8759842519685038
 21
1.223425196850393
 31
0.0
  0
LWPOLYLINE
  5
3D8
330
1E
100
AcDbEntity
  8
0
100
AcDbPolyline
 90
        3
 70
     0
 43
0.0
 10
0.8759842519685038
 20
1.223425196850393
 10
0.8720472440944881
 20
1.223425196850393
 10
0.8671259842519685
 20
1.223425196850393
  0
LINE
  5
3DD
330
1E
100
AcDbEntity
  8
0
100
AcDbLine
 10
0.8651574803149607
 20
1.223425196850393
 30
0.0
 11
0.8671259842519685
 21
1.223425196850393
 31
0.0
  0
LINE
  5
3DE
330
1E
100
AcDbEntity
  8
0
100
AcDbLine
 10
0.8651574803149607
 20
1.223425196850393
 30
0.0
 11
0.8641732283464566
 21
1.223425196850393
 31
0.0
  0
LINE
  5
3DF
330
1E
100
AcDbEntity
  8
0
100
AcDbLine
 10
0.8622047244094488
 20
1.223425196850393
 30
0.0
 11
0.8641732283464566
 21
1.223425196850393
 31
0.0
  0
LWPOLYLINE
  5
3E0
330
1E
100
AcDbEntity
  8
0
100
AcDbPolyline
 90
        3
 70
     0
 43
0.0
 10
0.8543307086614174
 20
1.223425196850393
 10
0.8562992125984251
 20
1.223425196850393
 10
0.8622047244094488
 20
1.223425196850393
  0
LWPOLYLINE
  5
3E5
330
1E
100
AcDbEntity
  8
0
100
AcDbPolyline
 90
        3
 70
     0
 43
0.0
 10
0.8818897637795275
 20
1.223425196850393
 10
0.8868110236220472
 20
1.223425196850393
 10
0.8887795275590551
 20
1.223425196850393
  0
LWPOLYLINE
  5
3EA
330
1E
100
AcDbEntity
  8
0
100
AcDbPolyline
 90
        3
 70
     0
 43
0.0
 10
0.8799212598425196
 20
1.223425196850393
 10
0.8809055118110237
 20
1.223425196850393
 10
0.8818897637795275
 20
1.223425196850393
  0
LINE
  5
3EF
330
1E
100
AcDbEntity
  8
0
100
AcDbLine
 10
0.8789370078740157
 20
1.223425196850393
 30
0.0
 11
0.8799212598425196
 21
1.223425196850393
 31
0.0
  0
LINE
  5
3F0
330
1E
100
AcDbEntity
  8
0
100
AcDbLine
 10
0.8651574803149607
 20
1.237204724409448
 30
0.0
 11
0.8671259842519685
 21
1.237204724409448
 31
0.0
  0
LWPOLYLINE
  5
3F1
330
1E
100
AcDbEntity
  8
0
100
AcDbPolyline
 90
        3
 70
     0
 43
0.0
 10
0.8759842519685038
 20
1.237204724409448
 10
0.8720472440944881
 20
1.237204724409448
 10
0.8671259842519685
 20
1.237204724409448
  0
LINE
  5
3F6
330
1E
100
AcDbEntity
  8
0
100
AcDbLine
 10
0.8789370078740157
 20
1.237204724409448
 30
0.0
 11
0.8759842519685038
 21
1.237204724409448
 31
0.0
  0
LINE
  5
3F7
330
1E
100
AcDbEntity
  8
0
100
AcDbLine
 10
0.8789370078740157
 20
1.237204724409448
 30
0.0
 11
0.8799212598425196
 21
1.237204724409448
 31
0.0
  0
LWPOLYLINE
  5
3F8
330
1E
100
AcDbEntity
  8
0
100
AcDbPolyline
 90
        3
 70
     0
 43
0.0
 10
0.8799212598425196
 20
1.237204724409448
 10
0.8809055118110237
 20
1.237204724409448
 10
0.8818897637795275
 20
1.237204724409448
  0
LWPOLYLINE
  5
3FD
330
1E
100
AcDbEntity
  8
0
100
AcDbPolyline
 90
        3
 70
     0
 43
0.0
 10
0.8818897637795275
 20
1.237204724409448
 10
0.8868110236220472
 20
1.237204724409448
 10
0.8887795275590551
 20
1.237204724409448
  0
LWPOLYLINE
  5
402
330
1E
100
AcDbEntity
  8
0
100
AcDbPolyline
 90
        3
 70
     0
 43
0.0
 10
0.8543307086614174
 20
1.237204724409448
 10
0.8562992125984251
 20
1.237204724409448
 10
0.8622047244094488
 20
1.237204724409448
  0
LINE
  5
407
330
1E
100
AcDbEntity
  8
0
100
AcDbLine
 10
0.8622047244094488
 20
1.237204724409448
 30
0.0
 11
0.8641732283464566
 21
1.237204724409448
 31
0.0
  0
LINE
  5
408
330
1E
100
AcDbEntity
  8
0
100
AcDbLine
 10
0.8651574803149607
 20
1.237204724409448
 30
0.0
 11
0.8641732283464566
 21
1.237204724409448
 31
0.0
  0
LINE
  5
409
330
1E
100
AcDbEntity
  8
0
100
AcDbLine
 10
0.8651574803149607
 20
1.223425196850393
 30
0.0
 11
0.8651574803149607
 21
1.237204724409448
 31
0.0
  0
LINE
  5
40A
330
1E
100
AcDbEntity
  8
0
100
AcDbLine
 10
0.8789370078740157
 20
1.223425196850393
 30
0.0
 11
0.8789370078740157
 21
1.237204724409448
 31
0.0
  0
LINE
  5
40B
330
1E
100
AcDbEntity
  8
0
100
AcDbLine
 10
0.8828740157480314
 20
1.237204724409448
 30
0.0
 11
0.8828740157480314
 21
1.238188976377952
 31
0.0
  0
LINE
  5
40C
330
1E
100
AcDbEntity
  8
0
100
AcDbLine
 10
0.8641732283464566
 20
1.237204724409448
 30
0.0
 11
0.8641732283464566
 21
1.223425196850393
 31
0.0
  0
LINE
  5
40D
330
1E
100
AcDbEntity
  8
0
100
AcDbLine
 10
0.8622047244094488
 20
1.237204724409448
 30
0.0
 11
0.8622047244094488
 21
1.223425196850393
 31
0.0
  0
LINE
  5
40E
330
1E
100
AcDbEntity
  8
0
100
AcDbLine
 10
0.8818897637795275
 20
1.237204724409448
 30
0.0
 11
0.8818897637795275
 21
1.223425196850393
 31
0.0
  0
LINE
  5
40F
330
1E
100
AcDbEntity
  8
0
100
AcDbLine
 10
0.8799212598425196
 20
1.237204724409448
 30
0.0
 11
0.8799212598425196
 21
1.223425196850393
 31
0.0
  0
LINE
  5
410
330
1E
100
AcDbEntity
  8
0
100
AcDbLine
 10
0.8759842519685038
 20
1.237204724409448
 30
0.0
 11
0.8759842519685038
 21
1.223425196850393
 31
0.0
  0
LINE
  5
411
330
1E
100
AcDbEntity
  8
0
100
AcDbLine
 10
0.8671259842519685
 20
1.237204724409448
 30
0.0
 11
0.8671259842519685
 21
1.223425196850393
 31
0.0
  0
LWPOLYLINE
  5
412
330
1E
100
AcDbEntity
  8
0
100
AcDbPolyline
 90
        3
 70
     0
 43
0.0
 10
0.9419291338582677
 20
1.223425196850393
 10
0.9429133858267716
 20
1.223425196850393
 10
0.9438976377952755
 20
1.223425196850393
  0
LINE
  5
417
330
1E
100
AcDbEntity
  8
0
100
AcDbLine
 10
0.9438976377952755
 20
1.237204724409448
 30
0.0
 11
0.9438976377952755
 21
1.223425196850393
 31
0.0
  0
LWPOLYLINE
  5
418
330
1E
100
AcDbEntity
  8
0
100
AcDbPolyline
 90
        3
 70
     0
 43
0.0
 10
0.9419291338582677
 20
1.237204724409448
 10
0.9429133858267716
 20
1.237204724409448
 10
0.9438976377952755
 20
1.237204724409448
  0
LINE
  5
41D
330
1E
100
AcDbEntity
  8
0
100
AcDbLine
 10
0.9419291338582677
 20
1.237204724409448
 30
0.0
 11
0.9419291338582677
 21
1.223425196850393
 31
0.0
  0
LWPOLYLINE
  5
41E
330
1E
100
AcDbEntity
  8
0
100
AcDbPolyline
 90
        3
 70
     0
 43
0.0
 10
0.9350393700787401
 20
1.223425196850393
 10
0.9370078740157479
 20
1.223425196850393
 10
0.9419291338582677
 20
1.223425196850393
  0
LWPOLYLINE
  5
423
330
1E
100
AcDbEntity
  8
0
100
AcDbPolyline
 90
        3
 70
     0
 43
0.0
 10
0.9350393700787401
 20
1.237204724409448
 10
0.9370078740157479
 20
1.237204724409448
 10
0.9419291338582677
 20
1.237204724409448
  0
LWPOLYLINE
  5
428
330
1E
100
AcDbEntity
  8
0
100
AcDbPolyline
 90
        3
 70
     0
 43
0.0
 10
0.9616141732283464
 20
1.223425196850393
 10
0.96751968503937
 20
1.223425196850393
 10
0.9685039370078738
 20
1.223425196850393
  0
LWPOLYLINE
  5
42D
330
1E
100
AcDbEntity
  8
0
100
AcDbPolyline
 90
        3
 70
     0
 43
0.0
 10
0.9616141732283464
 20
1.237204724409448
 10
0.96751968503937
 20
1.237204724409448
 10
0.9685039370078738
 20
1.237204724409448
  0
LINE
  5
432
330
1E
100
AcDbEntity
  8
0
100
AcDbLine
 10
0.9616141732283464
 20
1.237204724409448
 30
0.0
 11
0.9616141732283464
 21
1.223425196850393
 31
0.0
  0
LWPOLYLINE
  5
433
330
1E
100
AcDbEntity
  8
0
100
AcDbPolyline
 90
        3
 70
     0
 43
0.0
 10
0.9596456692913385
 20
1.223425196850393
 10
0.9606299212598424
 20
1.223425196850393
 10
0.9616141732283464
 20
1.223425196850393
  0
LWPOLYLINE
  5
438
330
1E
100
AcDbEntity
  8
0
100
AcDbPolyline
 90
        3
 70
     0
 43
0.0
 10
0.9596456692913385
 20
1.237204724409448
 10
0.9606299212598424
 20
1.237204724409448
 10
0.9616141732283464
 20
1.237204724409448
  0
LINE
  5
43D
330
1E
100
AcDbEntity
  8
0
100
AcDbLine
 10
0.9596456692913385
 20
1.237204724409448
 30
0.0
 11
0.9596456692913385
 21
1.223425196850393
 31
0.0
  0
LINE
  5
43E
330
1E
100
AcDbEntity
  8
0
100
AcDbLine
 10
0.9448818897637794
 20
1.223425196850393
 30
0.0
 11
0.9438976377952755
 21
1.223425196850393
 31
0.0
  0
LINE
  5
43F
330
1E
100
AcDbEntity
  8
0
100
AcDbLine
 10
0.9448818897637794
 20
1.237204724409448
 30
0.0
 11
0.9438976377952755
 21
1.237204724409448
 31
0.0
  0
LINE
  5
440
330
1E
100
AcDbEntity
  8
0
100
AcDbLine
 10
0.9586614173228346
 20
1.223425196850393
 30
0.0
 11
0.9596456692913385
 21
1.223425196850393
 31
0.0
  0
LINE
  5
441
330
1E
100
AcDbEntity
  8
0
100
AcDbLine
 10
0.9586614173228346
 20
1.237204724409448
 30
0.0
 11
0.9596456692913385
 21
1.237204724409448
 31
0.0
  0
LINE
  5
442
330
1E
100
AcDbEntity
  8
0
100
AcDbLine
 10
0.9586614173228346
 20
1.223425196850393
 30
0.0
 11
0.9586614173228346
 21
1.237204724409448
 31
0.0
  0
LINE
  5
443
330
1E
100
AcDbEntity
  8
0
100
AcDbLine
 10
0.9448818897637794
 20
1.223425196850393
 30
0.0
 11
0.9448818897637794
 21
1.237204724409448
 31
0.0
  0
LINE
  5
444
330
1E
100
AcDbEntity
  8
0
100
AcDbLine
 10
0.9448818897637794
 20
1.237204724409448
 30
0.0
 11
0.9478346456692912
 21
1.237204724409448
 31
0.0
  0
LWPOLYLINE
  5
445
330
1E
100
AcDbEntity
  8
0
100
AcDbPolyline
 90
        3
 70
     0
 43
0.0
 10
0.9557086614173227
 20
1.237204724409448
 10
0.951771653543307
 20
1.237204724409448
 10
0.9478346456692912
 20
1.237204724409448
  0
LINE
  5
44A
330
1E
100
AcDbEntity
  8
0
100
AcDbLine
 10
0.9586614173228346
 20
1.237204724409448
 30
0.0
 11
0.9557086614173227
 21
1.237204724409448
 31
0.0
  0
LINE
  5
44B
330
1E
100
AcDbEntity
  8
0
100
AcDbLine
 10
0.9586614173228346
 20
1.223425196850393
 30
0.0
 11
0.9557086614173227
 21
1.223425196850393
 31
0.0
  0
LWPOLYLINE
  5
44C
330
1E
100
AcDbEntity
  8
0
100
AcDbPolyline
 90
        3
 70
     0
 43
0.0
 10
0.9557086614173227
 20
1.223425196850393
 10
0.951771653543307
 20
1.223425196850393
 10
0.9478346456692912
 20
1.223425196850393
  0
LINE
  5
451
330
1E
100
AcDbEntity
  8
0
100
AcDbLine
 10
0.9448818897637794
 20
1.223425196850393
 30
0.0
 11
0.9478346456692912
 21
1.223425196850393
 31
0.0
  0
LINE
  5
452
330
1E
100
AcDbEntity
  8
0
100
AcDbLine
 10
0.9557086614173227
 20
1.237204724409448
 30
0.0
 11
0.9557086614173227
 21
1.223425196850393
 31
0.0
  0
LINE
  5
453
330
1E
100
AcDbEntity
  8
0
100
AcDbLine
 10
0.9478346456692912
 20
1.237204724409448
 30
0.0
 11
0.9478346456692912
 21
1.223425196850393
 31
0.0
  0
LINE
  5
454
330
1E
100
AcDbEntity
  8
0
100
AcDbLine
 10
0.9566929133858266
 20
1.21751968503937
 30
0.0
 11
0.9468503937007874
 21
1.21751968503937
 31
0.0
  0
LINE
  5
455
330
1E
100
AcDbEntity
  8
0
100
AcDbLine
 10
0.8759842519685038
 20
1.21751968503937
 30
0.0
 11
0.8671259842519685
 21
1.21751968503937
 31
0.0
  0
LINE
  5
456
330
1E
100
AcDbEntity
  8
0
100
AcDbLine
 10
0.8651574803149607
 20
1.242125984251968
 30
0.0
 11
0.8720472440944881
 21
1.242125984251968
 31
0.0
  0
LINE
  5
457
330
1E
100
AcDbEntity
  8
0
100
AcDbLine
 10
0.8720472440944881
 20
1.242125984251968
 30
0.0
 11
0.8720472440944881
 21
1.244094488188976
 31
0.0
  0
LINE
  5
458
330
1E
100
AcDbEntity
  8
0
100
AcDbLine
 10
0.7952755905511811
 20
1.242125984251968
 30
0.0
 11
0.7883858267716536
 21
1.242125984251968
 31
0.0
  0
LINE
  5
459
330
1E
100
AcDbEntity
  8
0
100
AcDbLine
 10
0.9409448818897637
 20
1.223425196850393
 30
0.0
 11
0.9409448818897637
 21
1.223425196850393
 31
0.0
  0
LINE
  5
45A
330
1E
100
AcDbEntity
  8
0
100
AcDbLine
 10
0.9409448818897637
 20
1.223425196850393
 30
0.0
 11
0.9409448818897637
 21
1.223425196850393
 31
0.0
  0
LINE
  5
45B
330
1E
100
AcDbEntity
  8
0
100
AcDbLine
 10
0.8031496062992125
 20
1.262795275590551
 30
0.0
 11
0.8031496062992125
 21
1.261811023622047
 31
0.0
  0
LINE
  5
45C
330
1E
100
AcDbEntity
  8
0
100
AcDbLine
 10
0.7805118110236221
 20
1.261811023622047
 30
0.0
 11
0.7805118110236221
 21
1.262795275590551
 31
0.0
  0
LINE
  5
45D
330
1E
100
AcDbEntity
  8
0
100
AcDbLine
 10
0.8779527559055118
 20
1.223425196850393
 30
0.0
 11
0.8779527559055118
 21
1.223425196850393
 31
0.0
  0
LINE
  5
45E
330
1E
100
AcDbEntity
  8
0
100
AcDbLine
 10
0.8779527559055118
 20
1.223425196850393
 30
0.0
 11
0.8779527559055118
 21
1.223425196850393
 31
0.0
  0
LINE
  5
45F
330
1E
100
AcDbEntity
  8
0
100
AcDbLine
 10
0.8779527559055118
 20
1.223425196850393
 30
0.0
 11
0.8779527559055118
 21
1.223425196850393
 31
0.0
  0
LINE
  5
460
330
1E
100
AcDbEntity
  8
0
100
AcDbLine
 10
0.7824803149606299
 20
1.265748031496062
 30
0.0
 11
0.7824803149606299
 21
1.265748031496062
 31
0.0
  0
LINE
  5
461
330
1E
100
AcDbEntity
  8
0
100
AcDbLine
 10
0.8011811023622048
 20
1.265748031496062
 30
0.0
 11
0.8011811023622048
 21
1.265748031496062
 31
0.0
  0
LINE
  5
462
330
1E
100
AcDbEntity
  8
0
100
AcDbLine
 10
0.8779527559055118
 20
1.237204724409448
 30
0.0
 11
0.8779527559055118
 21
1.243110236220472
 31
0.0
  0
LINE
  5
463
330
1E
100
AcDbEntity
  8
0
100
AcDbLine
 10
0.781496062992126
 20
1.247047244094488
 30
0.0
 11
0.8021653543307087
 21
1.247047244094488
 31
0.0
  0
LINE
  5
464
330
1E
100
AcDbEntity
  8
0
100
AcDbLine
 10
0.8602362204724409
 20
1.223425196850393
 30
0.0
 11
0.8720472440944881
 21
1.223425196850393
 31
0.0
  0
LINE
  5
465
330
1E
100
AcDbEntity
  8
0
100
AcDbLine
 10
0.8720472440944881
 20
1.223425196850393
 30
0.0
 11
0.8720472440944881
 21
1.223425196850393
 31
0.0
  0
LINE
  5
466
330
1E
100
AcDbEntity
  8
0
100
AcDbLine
 10
0.8769685039370077
 20
1.223425196850393
 30
0.0
 11
0.8720472440944881
 21
1.223425196850393
 31
0.0
  0
LINE
  5
467
330
1E
100
AcDbEntity
  8
0
100
AcDbLine
 10
0.8769685039370077
 20
1.242125984251968
 30
0.0
 11
0.8769685039370077
 21
1.237204724409448
 31
0.0
  0
LINE
  5
468
330
1E
100
AcDbEntity
  8
0
100
AcDbLine
 10
0.8769685039370077
 20
1.223425196850393
 30
0.0
 11
0.8769685039370077
 21
1.223425196850393
 31
0.0
  0
LINE
  5
469
330
1E
100
AcDbEntity
  8
0
100
AcDbLine
 10
0.8769685039370077
 20
1.242125984251968
 30
0.0
 11
0.8740157480314961
 21
1.237204724409448
 31
0.0
  0
LINE
  5
46A
330
1E
100
AcDbEntity
  8
0
100
AcDbLine
 10
0.8602362204724409
 20
1.223425196850393
 30
0.0
 11
0.8828740157480314
 21
1.223425196850393
 31
0.0
  0
LINE
  5
46B
330
1E
100
AcDbEntity
  8
0
100
AcDbLine
 10
0.9458661417322835
 20
1.223425196850393
 30
0.0
 11
0.9409448818897637
 21
1.223425196850393
 31
0.0
  0
LINE
  5
46C
330
1E
100
AcDbEntity
  8
0
100
AcDbLine
 10
0.9458661417322835
 20
1.223425196850393
 30
0.0
 11
0.9458661417322835
 21
1.223425196850393
 31
0.0
  0
LINE
  5
46D
330
1E
100
AcDbEntity
  8
0
100
AcDbLine
 10
0.9438976377952755
 20
1.237204724409448
 30
0.0
 11
0.9419291338582677
 21
1.239173228346456
 31
0.0
  0
LINE
  5
46E
330
1E
100
AcDbEntity
  8
0
100
AcDbLine
 10
0.9409448818897637
 20
1.223425196850393
 30
0.0
 11
0.9409448818897637
 21
1.223425196850393
 31
0.0
  0
LINE
  5
46F
330
1E
100
AcDbEntity
  8
0
100
AcDbLine
 10
0.9409448818897637
 20
1.237204724409448
 30
0.0
 11
0.9409448818897637
 21
1.238188976377952
 31
0.0
  0
LINE
  5
470
330
1E
100
AcDbEntity
  8
0
100
AcDbLine
 10
0.9625984251968503
 20
1.223425196850393
 30
0.0
 11
0.9458661417322835
 21
1.223425196850393
 31
0.0
  0
LINE
  5
471
330
1E
100
AcDbEntity
  8
0
100
AcDbLine
 10
0.9409448818897637
 20
1.223425196850393
 30
0.0
 11
0.9625984251968503
 21
1.223425196850393
 31
0.0
  0
LINE
  5
472
330
1E
100
AcDbEntity
  8
0
100
AcDbLine
 10
0.9458661417322835
 20
1.243110236220472
 30
0.0
 11
0.9458661417322835
 21
1.242125984251968
 31
0.0
  0
LINE
  5
473
330
1E
100
AcDbEntity
  8
0
100
AcDbLine
 10
0.9458661417322835
 20
1.242125984251968
 30
0.0
 11
0.9586614173228346
 21
1.242125984251968
 31
0.0
  0
LINE
  5
474
330
1E
100
AcDbEntity
  8
0
100
AcDbLine
 10
0.9448818897637794
 20
1.242125984251968
 30
0.0
 11
0.9458661417322835
 21
1.242125984251968
 31
0.0
  0
LINE
  5
475
330
1E
100
AcDbEntity
  8
0
100
AcDbLine
 10
0.9409448818897637
 20
1.223425196850393
 30
0.0
 11
0.9409448818897637
 21
1.223425196850393
 31
0.0
  0
LINE
  5
476
330
1E
100
AcDbEntity
  8
0
100
AcDbLine
 10
0.9409448818897637
 20
1.238188976377952
 30
0.0
 11
0.9409448818897637
 21
1.237204724409448
 31
0.0
  0
LINE
  5
477
330
1E
100
AcDbEntity
  8
0
100
AcDbLine
 10
0.9409448818897637
 20
1.223425196850393
 30
0.0
 11
0.9409448818897637
 21
1.223425196850393
 31
0.0
  0
LINE
  5
478
330
1E
100
AcDbEntity
  8
0
100
AcDbLine
 10
0.8769685039370077
 20
1.223425196850393
 30
0.0
 11
0.8779527559055118
 21
1.223425196850393
 31
0.0
  0
LINE
  5
479
330
1E
100
AcDbEntity
  8
0
100
AcDbLine
 10
0.8769685039370077
 20
1.242125984251968
 30
0.0
 11
0.8769685039370077
 21
1.242125984251968
 31
0.0
  0
LINE
  5
47A
330
1E
100
AcDbEntity
  8
0
100
AcDbLine
 10
0.8769685039370077
 20
1.243110236220472
 30
0.0
 11
0.8769685039370077
 21
1.242125984251968
 31
0.0
  0
LWPOLYLINE
  5
47B
330
1E
100
AcDbEntity
  8
0
100
AcDbPolyline
 90
        3
 70
     0
 43
0.0
 10
0.8720472440944881
 20
1.242125984251968
 10
0.8720472440944881
 20
1.239173228346456
 10
0.8720472440944881
 20
1.237204724409448
  0
LWPOLYLINE
  5
480
330
1E
100
AcDbEntity
  8
0
100
AcDbPolyline
 90
        3
 70
     0
 43
0.0
 10
0.8769685039370077
 20
1.242125984251968
 10
0.8759842519685038
 20
1.242125984251968
 10
0.8720472440944881
 20
1.242125984251968
  0
LWPOLYLINE
  5
485
330
1E
100
AcDbEntity
  8
0
100
AcDbPolyline
 90
        3
 70
     0
 43
0.0
 10
0.8769685039370077
 20
1.242125984251968
 10
0.8759842519685038
 20
1.239173228346456
 10
0.8740157480314961
 20
1.237204724409448
  0
LWPOLYLINE
  5
48A
330
1E
100
AcDbEntity
  8
0
100
AcDbPolyline
 90
        3
 70
     0
 43
0.0
 10
0.9419291338582677
 20
1.239173228346456
 10
0.9429133858267716
 20
1.238188976377952
 10
0.9438976377952755
 20
1.237204724409448
  0
LWPOLYLINE
  5
48F
330
1E
100
AcDbEntity
  8
0
100
AcDbPolyline
 90
        3
 70
     0
 43
0.0
 10
0.9458661417322835
 20
1.242125984251968
 10
0.9458661417322835
 20
1.239173228346456
 10
0.9458661417322835
 20
1.237204724409448
  0
LINE
  5
494
330
1E
100
AcDbEntity
  8
0
100
AcDbLine
 10
0.8789370078740157
 20
1.242125984251968
 30
0.0
 11
0.8779527559055118
 21
1.242125984251968
 31
0.0
  0
LINE
  5
495
330
1E
100
AcDbEntity
  8
0
100
AcDbLine
 10
0.7992125984251969
 20
1.248031496062992
 30
0.0
 11
0.7962598425196851
 21
1.248031496062992
 31
0.0
  0
LWPOLYLINE
  5
496
330
1E
100
AcDbEntity
  8
0
100
AcDbPolyline
 90
        3
 70
     0
 43
0.0
 10
0.7962598425196851
 20
1.248031496062992
 10
0.7913385826771654
 20
1.248031496062992
 10
0.7874015748031496
 20
1.248031496062992
  0
LINE
  5
49B
330
1E
100
AcDbEntity
  8
0
100
AcDbLine
 10
0.7844488188976378
 20
1.248031496062992
 30
0.0
 11
0.7874015748031496
 21
1.248031496062992
 31
0.0
  0
LINE
  5
49C
330
1E
100
AcDbEntity
  8
0
100
AcDbLine
 10
0.7844488188976378
 20
1.248031496062992
 30
0.0
 11
0.7834645669291338
 21
1.248031496062992
 31
0.0
  0
LWPOLYLINE
  5
49D
330
1E
100
AcDbEntity
  8
0
100
AcDbPolyline
 90
        3
 70
     0
 43
0.0
 10
0.781496062992126
 20
1.248031496062992
 10
0.7824803149606299
 20
1.248031496062992
 10
0.7834645669291338
 20
1.248031496062992
  0
LWPOLYLINE
  5
4A2
330
1E
100
AcDbEntity
  8
0
100
AcDbPolyline
 90
        3
 70
     0
 43
0.0
 10
0.7746062992125984
 20
1.248031496062992
 10
0.7765748031496063
 20
1.248031496062992
 10
0.781496062992126
 20
1.248031496062992
  0
LWPOLYLINE
  5
4A7
330
1E
100
AcDbEntity
  8
0
100
AcDbPolyline
 90
        3
 70
     0
 43
0.0
 10
0.8011811023622048
 20
1.248031496062992
 10
0.8070866141732283
 20
1.248031496062992
 10
0.8090551181102362
 20
1.248031496062992
  0
LINE
  5
4AC
330
1E
100
AcDbEntity
  8
0
100
AcDbLine
 10
0.8001968503937007
 20
1.248031496062992
 30
0.0
 11
0.8011811023622048
 21
1.248031496062992
 31
0.0
  0
LINE
  5
4AD
330
1E
100
AcDbEntity
  8
0
100
AcDbLine
 10
0.7992125984251969
 20
1.248031496062992
 30
0.0
 11
0.8001968503937007
 21
1.248031496062992
 31
0.0
  0
LINE
  5
4AE
330
1E
100
AcDbEntity
  8
0
100
AcDbLine
 10
0.7844488188976378
 20
1.261811023622047
 30
0.0
 11
0.7874015748031496
 21
1.261811023622047
 31
0.0
  0
LWPOLYLINE
  5
4AF
330
1E
100
AcDbEntity
  8
0
100
AcDbPolyline
 90
        3
 70
     0
 43
0.0
 10
0.7962598425196851
 20
1.261811023622047
 10
0.7913385826771654
 20
1.261811023622047
 10
0.7874015748031496
 20
1.261811023622047
  0
LINE
  5
4B4
330
1E
100
AcDbEntity
  8
0
100
AcDbLine
 10
0.7992125984251969
 20
1.261811023622047
 30
0.0
 11
0.7962598425196851
 21
1.261811023622047
 31
0.0
  0
LINE
  5
4B5
330
1E
100
AcDbEntity
  8
0
100
AcDbLine
 10
0.7992125984251969
 20
1.261811023622047
 30
0.0
 11
0.8001968503937007
 21
1.261811023622047
 31
0.0
  0
LINE
  5
4B6
330
1E
100
AcDbEntity
  8
0
100
AcDbLine
 10
0.8001968503937007
 20
1.261811023622047
 30
0.0
 11
0.8011811023622048
 21
1.261811023622047
 31
0.0
  0
LWPOLYLINE
  5
4B7
330
1E
100
AcDbEntity
  8
0
100
AcDbPolyline
 90
        3
 70
     0
 43
0.0
 10
0.8011811023622048
 20
1.261811023622047
 10
0.8070866141732283
 20
1.261811023622047
 10
0.8090551181102362
 20
1.261811023622047
  0
LWPOLYLINE
  5
4BC
330
1E
100
AcDbEntity
  8
0
100
AcDbPolyline
 90
        3
 70
     0
 43
0.0
 10
0.7746062992125984
 20
1.261811023622047
 10
0.7765748031496063
 20
1.261811023622047
 10
0.781496062992126
 20
1.261811023622047
  0
LWPOLYLINE
  5
4C1
330
1E
100
AcDbEntity
  8
0
100
AcDbPolyline
 90
        3
 70
     0
 43
0.0
 10
0.781496062992126
 20
1.261811023622047
 10
0.7824803149606299
 20
1.261811023622047
 10
0.7834645669291338
 20
1.261811023622047
  0
LINE
  5
4C6
330
1E
100
AcDbEntity
  8
0
100
AcDbLine
 10
0.7844488188976378
 20
1.261811023622047
 30
0.0
 11
0.7834645669291338
 21
1.261811023622047
 31
0.0
  0
LWPOLYLINE
  5
4C7
330
1E
100
AcDbEntity
  8
0
100
AcDbPolyline
 90
        3
 70
     0
 43
0.0
 10
0.8011811023622048
 20
1.261811023622047
 10
0.8011811023622048
 20
1.262795275590551
 10
0.8011811023622048
 20
1.265748031496062
  0
LWPOLYLINE
  5
4CC
330
1E
100
AcDbEntity
  8
0
100
AcDbPolyline
 90
        3
 70
     0
 43
0.0
 10
0.7824803149606299
 20
1.261811023622047
 10
0.7824803149606299
 20
1.262795275590551
 10
0.7824803149606299
 20
1.265748031496062
  0
LINE
  5
4D1
330
1E
100
AcDbEntity
  8
0
100
AcDbLine
 10
0.7844488188976378
 20
1.248031496062992
 30
0.0
 11
0.7844488188976378
 21
1.261811023622047
 31
0.0
  0
LINE
  5
4D2
330
1E
100
AcDbEntity
  8
0
100
AcDbLine
 10
0.7992125984251969
 20
1.248031496062992
 30
0.0
 11
0.7992125984251969
 21
1.261811023622047
 31
0.0
  0
LINE
  5
4D3
330
1E
100
AcDbEntity
  8
0
100
AcDbLine
 10
0.797244094488189
 20
1.26771653543307
 30
0.0
 11
0.7864173228346456
 21
1.26771653543307
 31
0.0
  0
LINE
  5
4D4
330
1E
100
AcDbEntity
  8
0
100
AcDbLine
 10
0.8001968503937007
 20
1.261811023622047
 30
0.0
 11
0.8001968503937007
 21
1.248031496062992
 31
0.0
  0
LINE
  5
4D5
330
1E
100
AcDbEntity
  8
0
100
AcDbLine
 10
0.8011811023622048
 20
1.261811023622047
 30
0.0
 11
0.8011811023622048
 21
1.248031496062992
 31
0.0
  0
LINE
  5
4D6
330
1E
100
AcDbEntity
  8
0
100
AcDbLine
 10
0.781496062992126
 20
1.261811023622047
 30
0.0
 11
0.781496062992126
 21
1.248031496062992
 31
0.0
  0
LINE
  5
4D7
330
1E
100
AcDbEntity
  8
0
100
AcDbLine
 10
0.7834645669291338
 20
1.261811023622047
 30
0.0
 11
0.7834645669291338
 21
1.248031496062992
 31
0.0
  0
LINE
  5
4D8
330
1E
100
AcDbEntity
  8
0
100
AcDbLine
 10
0.7962598425196851
 20
1.261811023622047
 30
0.0
 11
0.7962598425196851
 21
1.248031496062992
 31
0.0
  0
LINE
  5
4D9
330
1E
100
AcDbEntity
  8
0
100
AcDbLine
 10
0.7874015748031496
 20
1.261811023622047
 30
0.0
 11
0.7874015748031496
 21
1.248031496062992
 31
0.0
  0
LWPOLYLINE
  5
4DA
330
1E
100
AcDbEntity
  8
0
100
AcDbPolyline
 90
        3
 70
     0
 43
0.0
 10
0.9744094488188975
 20
1.298228346456692
 10
0.9763779527559055
 20
1.298228346456692
 10
0.9822834645669292
 20
1.298228346456692
  0
LINE
  5
4DF
330
1E
100
AcDbEntity
  8
0
100
AcDbLine
 10
0.9822834645669292
 20
1.298228346456692
 30
0.0
 11
0.9832677165354331
 21
1.298228346456692
 31
0.0
  0
LINE
  5
4E0
330
1E
100
AcDbEntity
  8
0
100
AcDbLine
 10
0.984251968503937
 20
1.298228346456692
 30
0.0
 11
0.9832677165354331
 21
1.298228346456692
 31
0.0
  0
LINE
  5
4E1
330
1E
100
AcDbEntity
  8
0
100
AcDbLine
 10
0.984251968503937
 20
1.298228346456692
 30
0.0
 11
0.9872047244094488
 21
1.298228346456692
 31
0.0
  0
LWPOLYLINE
  5
4E2
330
1E
100
AcDbEntity
  8
0
100
AcDbPolyline
 90
        3
 70
     0
 43
0.0
 10
0.9960629921259842
 20
1.298228346456692
 10
0.9921259842519685
 20
1.298228346456692
 10
0.9872047244094488
 20
1.298228346456692
  0
LINE
  5
4E7
330
1E
100
AcDbEntity
  8
0
100
AcDbLine
 10
0.9990157480314961
 20
1.298228346456692
 30
0.0
 11
0.9960629921259842
 21
1.298228346456692
 31
0.0
  0
LINE
  5
4E8
330
1E
100
AcDbEntity
  8
0
100
AcDbLine
 10
0.9990157480314961
 20
1.298228346456692
 30
0.0
 11
1.0
 21
1.298228346456692
 31
0.0
  0
LWPOLYLINE
  5
4E9
330
1E
100
AcDbEntity
  8
0
100
AcDbPolyline
 90
        3
 70
     0
 43
0.0
 10
1.0
 20
1.298228346456692
 10
1.000984251968503
 20
1.298228346456692
 10
1.001968503937007
 20
1.298228346456692
  0
LWPOLYLINE
  5
4EE
330
1E
100
AcDbEntity
  8
0
100
AcDbPolyline
 90
        3
 70
     0
 43
0.0
 10
1.001968503937007
 20
1.298228346456692
 10
1.006889763779527
 20
1.298228346456692
 10
1.008858267716535
 20
1.298228346456692
  0
LWPOLYLINE
  5
4F3
330
1E
100
AcDbEntity
  8
0
100
AcDbPolyline
 90
        3
 70
     0
 43
0.0
 10
1.001968503937007
 20
1.284448818897637
 10
1.006889763779527
 20
1.284448818897637
 10
1.008858267716535
 20
1.284448818897637
  0
LWPOLYLINE
  5
4F8
330
1E
100
AcDbEntity
  8
0
100
AcDbPolyline
 90
        3
 70
     0
 43
0.0
 10
1.0
 20
1.284448818897637
 10
1.000984251968503
 20
1.284448818897637
 10
1.001968503937007
 20
1.284448818897637
  0
LINE
  5
4FD
330
1E
100
AcDbEntity
  8
0
100
AcDbLine
 10
0.9990157480314961
 20
1.284448818897637
 30
0.0
 11
1.0
 21
1.284448818897637
 31
0.0
  0
LINE
  5
4FE
330
1E
100
AcDbEntity
  8
0
100
AcDbLine
 10
0.9990157480314961
 20
1.284448818897637
 30
0.0
 11
0.9960629921259842
 21
1.284448818897637
 31
0.0
  0
LWPOLYLINE
  5
4FF
330
1E
100
AcDbEntity
  8
0
100
AcDbPolyline
 90
        3
 70
     0
 43
0.0
 10
0.9960629921259842
 20
1.284448818897637
 10
0.9921259842519685
 20
1.284448818897637
 10
0.9872047244094488
 20
1.284448818897637
  0
LINE
  5
504
330
1E
100
AcDbEntity
  8
0
100
AcDbLine
 10
0.984251968503937
 20
1.284448818897637
 30
0.0
 11
0.9872047244094488
 21
1.284448818897637
 31
0.0
  0
LINE
  5
505
330
1E
100
AcDbEntity
  8
0
100
AcDbLine
 10
0.984251968503937
 20
1.284448818897637
 30
0.0
 11
0.9832677165354331
 21
1.284448818897637
 31
0.0
  0
LINE
  5
506
330
1E
100
AcDbEntity
  8
0
100
AcDbLine
 10
0.9822834645669292
 20
1.284448818897637
 30
0.0
 11
0.9832677165354331
 21
1.284448818897637
 31
0.0
  0
LWPOLYLINE
  5
507
330
1E
100
AcDbEntity
  8
0
100
AcDbPolyline
 90
        3
 70
     0
 43
0.0
 10
0.9744094488188975
 20
1.284448818897637
 10
0.9763779527559055
 20
1.284448818897637
 10
0.9822834645669292
 20
1.284448818897637
  0
LINE
  5
50C
330
1E
100
AcDbEntity
  8
0
100
AcDbLine
 10
0.9822834645669292
 20
1.298228346456692
 30
0.0
 11
0.9822834645669292
 21
1.284448818897637
 31
0.0
  0
LINE
  5
50D
330
1E
100
AcDbEntity
  8
0
100
AcDbLine
 10
0.9832677165354331
 20
1.298228346456692
 30
0.0
 11
0.9832677165354331
 21
1.284448818897637
 31
0.0
  0
LINE
  5
50E
330
1E
100
AcDbEntity
  8
0
100
AcDbLine
 10
0.984251968503937
 20
1.284448818897637
 30
0.0
 11
0.984251968503937
 21
1.298228346456692
 31
0.0
  0
LINE
  5
50F
330
1E
100
AcDbEntity
  8
0
100
AcDbLine
 10
0.9990157480314961
 20
1.284448818897637
 30
0.0
 11
0.9990157480314961
 21
1.298228346456692
 31
0.0
  0
LINE
  5
510
330
1E
100
AcDbEntity
  8
0
100
AcDbLine
 10
1.0
 20
1.298228346456692
 30
0.0
 11
1.0
 21
1.284448818897637
 31
0.0
  0
LINE
  5
511
330
1E
100
AcDbEntity
  8
0
100
AcDbLine
 10
1.001968503937007
 20
1.298228346456692
 30
0.0
 11
1.001968503937007
 21
1.284448818897637
 31
0.0
  0
LINE
  5
512
330
1E
100
AcDbEntity
  8
0
100
AcDbLine
 10
0.9960629921259842
 20
1.298228346456692
 30
0.0
 11
0.9960629921259842
 21
1.284448818897637
 31
0.0
  0
LINE
  5
513
330
1E
100
AcDbEntity
  8
0
100
AcDbLine
 10
0.9872047244094488
 20
1.298228346456692
 30
0.0
 11
0.9872047244094488
 21
1.284448818897637
 31
0.0
  0
LINE
  5
514
330
1E
100
AcDbEntity
  8
0
100
AcDbLine
 10
0.7608267716535434
 20
0.9744094488188975
 30
0.0
 11
0.7608267716535434
 21
1.096456692913385
 31
0.0
  0
LINE
  5
515
330
1E
100
AcDbEntity
  8
0
100
AcDbLine
 10
0.7431102362204724
 20
0.9744094488188975
 30
0.0
 11
0.7431102362204724
 21
1.096456692913385
 31
0.0
  0
LINE
  5
516
330
1E
100
AcDbEntity
  8
0
100
AcDbLine
 10
0.8405511811023622
 20
0.9744094488188975
 30
0.0
 11
0.8405511811023622
 21
1.096456692913385
 31
0.0
  0
LINE
  5
517
330
1E
100
AcDbEntity
  8
0
100
AcDbLine
 10
0.8228346456692912
 20
0.9744094488188975
 30
0.0
 11
0.8228346456692912
 21
1.096456692913385
 31
0.0
  0
LINE
  5
518
330
1E
100
AcDbEntity
  8
0
100
AcDbLine
 10
0.9025590551181101
 20
0.9744094488188975
 30
0.0
 11
0.9025590551181101
 21
1.096456692913385
 31
0.0
  0
LINE
  5
519
330
1E
100
AcDbEntity
  8
0
100
AcDbLine
 10
0.9202755905511811
 20
0.9744094488188975
 30
0.0
 11
0.9202755905511811
 21
1.096456692913385
 31
0.0
  0
LINE
  5
51A
330
1E
100
AcDbEntity
  8
0
100
AcDbLine
 10
0.8809055118110237
 20
0.9744094488188975
 30
0.0
 11
0.8809055118110237
 21
1.096456692913385
 31
0.0
  0
LINE
  5
51B
330
1E
100
AcDbEntity
  8
0
100
AcDbLine
 10
0.8631889763779527
 20
0.9744094488188975
 30
0.0
 11
0.8631889763779527
 21
1.096456692913385
 31
0.0
  0
LINE
  5
51C
330
1E
100
AcDbEntity
  8
0
100
AcDbLine
 10
0.9606299212598424
 20
0.9744094488188975
 30
0.0
 11
0.9606299212598424
 21
1.096456692913385
 31
0.0
  0
LINE
  5
51D
330
1E
100
AcDbEntity
  8
0
100
AcDbLine
 10
0.9429133858267716
 20
0.9744094488188975
 30
0.0
 11
0.9429133858267716
 21
1.096456692913385
 31
0.0
  0
LINE
  5
51E
330
1E
100
AcDbEntity
  8
0
100
AcDbLine
 10
1.040354330708661
 20
0.9744094488188975
 30
0.0
 11
1.040354330708661
 21
1.096456692913385
 31
0.0
  0
LINE
  5
51F
330
1E
100
AcDbEntity
  8
0
100
AcDbLine
 10
1.02263779527559
 20
0.9744094488188975
 30
0.0
 11
1.02263779527559
 21
1.096456692913385
 31
0.0
  0
LINE
  5
520
330
1E
100
AcDbEntity
  8
0
100
AcDbLine
 10
0.6988188976377953
 20
0.9940944881889762
 30
0.0
 11
0.6998031496062992
 21
0.9744094488188975
 31
0.0
  0
LINE
  5
521
330
1E
100
AcDbEntity
  8
0
100
AcDbLine
 10
1.084645669291338
 20
0.9940944881889762
 30
0.0
 11
1.083661417322834
 21
0.9744094488188975
 31
0.0
  0
LINE
  5
522
330
1E
100
AcDbEntity
  8
0
100
AcDbLine
 10
1.114173228346456
 20
0.9744094488188975
 30
0.0
 11
1.114173228346456
 21
0.9940944881889762
 31
0.0
  0
LINE
  5
523
330
1E
100
AcDbEntity
  8
0
100
AcDbLine
 10
1.084645669291338
 20
0.9940944881889762
 30
0.0
 11
1.114173228346456
 21
0.9940944881889762
 31
0.0
  0
LINE
  5
524
330
1E
100
AcDbEntity
  8
0
100
AcDbLine
 10
0.6988188976377953
 20
0.9940944881889762
 30
0.0
 11
0.6692913385826773
 21
0.9940944881889762
 31
0.0
  0
LINE
  5
525
330
1E
100
AcDbEntity
  8
0
100
AcDbLine
 10
0.6692913385826773
 20
0.9744094488188975
 30
0.0
 11
0.6692913385826773
 21
0.9940944881889762
 31
0.0
  0
LINE
  5
526
330
1E
100
AcDbEntity
  8
0
100
AcDbLine
 10
0.656496062992126
 20
0.9940944881889762
 30
0.0
 11
0.6692913385826773
 21
0.9940944881889762
 31
0.0
  0
LINE
  5
527
330
1E
100
AcDbEntity
  8
0
100
AcDbLine
 10
1.114173228346456
 20
0.9940944881889762
 30
0.0
 11
1.126968503937007
 21
0.9940944881889762
 31
0.0
  0
LINE
  5
528
330
1E
100
AcDbEntity
  8
0
100
AcDbLine
 10
0.7234251968503937
 20
0.9940944881889762
 30
0.0
 11
0.7234251968503937
 21
0.9744094488188975
 31
0.0
  0
LINE
  5
529
330
1E
100
AcDbEntity
  8
0
100
AcDbLine
 10
0.7401574803149607
 20
0.9940944881889762
 30
0.0
 11
0.7401574803149607
 21
0.9744094488188975
 31
0.0
  0
LINE
  5
52A
330
1E
100
AcDbEntity
  8
0
100
AcDbLine
 10
0.7401574803149607
 20
0.9940944881889762
 30
0.0
 11
0.7234251968503937
 21
0.9940944881889762
 31
0.0
  0
LINE
  5
52B
330
1E
100
AcDbEntity
  8
0
100
AcDbLine
 10
0.7637795275590551
 20
0.9940944881889762
 30
0.0
 11
0.7637795275590551
 21
0.9744094488188975
 31
0.0
  0
LINE
  5
52C
330
1E
100
AcDbEntity
  8
0
100
AcDbLine
 10
0.7795275590551181
 20
0.9940944881889762
 30
0.0
 11
0.7805118110236221
 21
0.9744094488188975
 31
0.0
  0
LINE
  5
52D
330
1E
100
AcDbEntity
  8
0
100
AcDbLine
 10
0.7795275590551181
 20
0.9940944881889762
 30
0.0
 11
0.7637795275590551
 21
0.9940944881889762
 31
0.0
  0
LINE
  5
52E
330
1E
100
AcDbEntity
  8
0
100
AcDbLine
 10
0.8041338582677164
 20
0.9940944881889762
 30
0.0
 11
0.8031496062992125
 21
0.9744094488188975
 31
0.0
  0
LINE
  5
52F
330
1E
100
AcDbEntity
  8
0
100
AcDbLine
 10
0.8198818897637794
 20
0.9940944881889762
 30
0.0
 11
0.8198818897637794
 21
0.9744094488188975
 31
0.0
  0
LINE
  5
530
330
1E
100
AcDbEntity
  8
0
100
AcDbLine
 10
0.8198818897637794
 20
0.9940944881889762
 30
0.0
 11
0.8041338582677164
 21
0.9940944881889762
 31
0.0
  0
LINE
  5
531
330
1E
100
AcDbEntity
  8
0
100
AcDbLine
 10
0.8435039370078738
 20
0.9940944881889762
 30
0.0
 11
0.8435039370078738
 21
0.9744094488188975
 31
0.0
  0
LINE
  5
532
330
1E
100
AcDbEntity
  8
0
100
AcDbLine
 10
0.859251968503937
 20
0.9940944881889762
 30
0.0
 11
0.8602362204724409
 21
0.9744094488188975
 31
0.0
  0
LINE
  5
533
330
1E
100
AcDbEntity
  8
0
100
AcDbLine
 10
0.859251968503937
 20
0.9940944881889762
 30
0.0
 11
0.8435039370078738
 21
0.9940944881889762
 31
0.0
  0
LINE
  5
534
330
1E
100
AcDbEntity
  8
0
100
AcDbLine
 10
0.8838582677165353
 20
0.9940944881889762
 30
0.0
 11
0.8838582677165353
 21
0.9744094488188975
 31
0.0
  0
LINE
  5
535
330
1E
100
AcDbEntity
  8
0
100
AcDbLine
 10
0.8996062992125983
 20
0.9940944881889762
 30
0.0
 11
0.8996062992125983
 21
0.9744094488188975
 31
0.0
  0
LINE
  5
536
330
1E
100
AcDbEntity
  8
0
100
AcDbLine
 10
0.8996062992125983
 20
0.9940944881889762
 30
0.0
 11
0.8838582677165353
 21
0.9940944881889762
 31
0.0
  0
LINE
  5
537
330
1E
100
AcDbEntity
  8
0
100
AcDbLine
 10
0.9242125984251968
 20
0.9940944881889762
 30
0.0
 11
0.9232283464566929
 21
0.9744094488188975
 31
0.0
  0
LINE
  5
538
330
1E
100
AcDbEntity
  8
0
100
AcDbLine
 10
0.9399606299212598
 20
0.9940944881889762
 30
0.0
 11
0.9399606299212598
 21
0.9744094488188975
 31
0.0
  0
LINE
  5
539
330
1E
100
AcDbEntity
  8
0
100
AcDbLine
 10
0.9399606299212598
 20
0.9940944881889762
 30
0.0
 11
0.9242125984251968
 21
0.9940944881889762
 31
0.0
  0
LINE
  5
53A
330
1E
100
AcDbEntity
  8
0
100
AcDbLine
 10
0.9635826771653542
 20
0.9940944881889762
 30
0.0
 11
0.9635826771653542
 21
0.9744094488188975
 31
0.0
  0
LINE
  5
53B
330
1E
100
AcDbEntity
  8
0
100
AcDbLine
 10
0.9793307086614174
 20
0.9940944881889762
 30
0.0
 11
0.9803149606299212
 21
0.9744094488188975
 31
0.0
  0
LINE
  5
53C
330
1E
100
AcDbEntity
  8
0
100
AcDbLine
 10
0.9793307086614174
 20
0.9940944881889762
 30
0.0
 11
0.9635826771653542
 21
0.9940944881889762
 31
0.0
  0
LINE
  5
53D
330
1E
100
AcDbEntity
  8
0
100
AcDbLine
 10
1.003937007874015
 20
0.9940944881889762
 30
0.0
 11
1.002952755905511
 21
0.9744094488188975
 31
0.0
  0
LINE
  5
53E
330
1E
100
AcDbEntity
  8
0
100
AcDbLine
 10
1.019685039370078
 20
0.9940944881889762
 30
0.0
 11
1.019685039370078
 21
0.9744094488188975
 31
0.0
  0
LINE
  5
53F
330
1E
100
AcDbEntity
  8
0
100
AcDbLine
 10
1.019685039370078
 20
0.9940944881889762
 30
0.0
 11
1.003937007874015
 21
0.9940944881889762
 31
0.0
  0
LINE
  5
540
330
1E
100
AcDbEntity
  8
0
100
AcDbLine
 10
1.043307086614173
 20
0.9940944881889762
 30
0.0
 11
1.043307086614173
 21
0.9744094488188975
 31
0.0
  0
LINE
  5
541
330
1E
100
AcDbEntity
  8
0
100
AcDbLine
 10
1.06003937007874
 20
0.9940944881889762
 30
0.0
 11
1.06003937007874
 21
0.9744094488188975
 31
0.0
  0
LINE
  5
542
330
1E
100
AcDbEntity
  8
0
100
AcDbLine
 10
1.06003937007874
 20
0.9940944881889762
 30
0.0
 11
1.043307086614173
 21
0.9940944881889762
 31
0.0
  0
LINE
  5
543
330
1E
100
AcDbEntity
  8
0
100
AcDbLine
 10
0.8011811023622048
 20
0.9744094488188975
 30
0.0
 11
0.8011811023622048
 21
1.096456692913385
 31
0.0
  0
LINE
  5
544
330
1E
100
AcDbEntity
  8
0
100
AcDbLine
 10
0.7824803149606299
 20
0.9744094488188975
 30
0.0
 11
0.7824803149606299
 21
1.096456692913385
 31
0.0
  0
LINE
  5
545
330
1E
100
AcDbEntity
  8
0
100
AcDbLine
 10
1.000984251968503
 20
0.9744094488188975
 30
0.0
 11
1.000984251968503
 21
1.096456692913385
 31
0.0
  0
LINE
  5
546
330
1E
100
AcDbEntity
  8
0
100
AcDbLine
 10
0.9822834645669292
 20
0.9744094488188975
 30
0.0
 11
0.9822834645669292
 21
1.096456692913385
 31
0.0
  0
LINE
  5
547
330
1E
100
AcDbEntity
  8
0
100
AcDbLine
 10
0.8208661417322835
 20
1.43503937007874
 30
0.0
 11
0.8208661417322835
 21
1.436023622047243
 31
0.0
  0
LINE
  5
548
330
1E
100
AcDbEntity
  8
0
100
AcDbLine
 10
0.9625984251968503
 20
1.43503937007874
 30
0.0
 11
0.9625984251968503
 21
1.436023622047243
 31
0.0
  0
LINE
  5
549
330
1E
100
AcDbEntity
  8
0
100
AcDbLine
 10
1.203740157480315
 20
0.7214566929133858
 30
0.0
 11
1.202755905511811
 21
0.7214566929133858
 31
0.0
  0
LINE
  5
54A
330
1E
100
AcDbEntity
  8
0
100
AcDbLine
 10
1.203740157480315
 20
0.8297244094488188
 30
0.0
 11
1.203740157480315
 21
0.7214566929133858
 31
0.0
  0
LINE
  5
54B
330
1E
100
AcDbEntity
  8
0
100
AcDbLine
 10
1.202755905511811
 20
0.811023622047244
 30
0.0
 11
1.203740157480315
 21
0.8297244094488188
 31
0.0
  0
LINE
  5
54C
330
1E
100
AcDbEntity
  8
0
100
AcDbLine
 10
0.5807086614173228
 20
0.7214566929133858
 30
0.0
 11
0.5797244094488189
 21
0.7214566929133858
 31
0.0
  0
LINE
  5
54D
330
1E
100
AcDbEntity
  8
0
100
AcDbLine
 10
0.5807086614173228
 20
0.811023622047244
 30
0.0
 11
0.5797244094488189
 21
0.8297244094488188
 31
0.0
  0
LINE
  5
54E
330
1E
100
AcDbEntity
  8
0
100
AcDbLine
 10
0.5797244094488189
 20
0.7214566929133858
 30
0.0
 11
0.5797244094488189
 21
0.8297244094488188
 31
0.0
  0
LINE
  5
54F
330
1E
100
AcDbEntity
  8
0
100
AcDbLine
 10
1.203740157480315
 20
1.440944881889763
 30
0.0
 11
1.202755905511811
 21
1.440944881889763
 31
0.0
  0
LINE
  5
550
330
1E
100
AcDbEntity
  8
0
100
AcDbLine
 10
1.129921259842519
 20
1.440944881889763
 30
0.0
 11
1.016732283464566
 21
1.440944881889763
 31
0.0
  0
LINE
  5
551
330
1E
100
AcDbEntity
  8
0
100
AcDbLine
 10
0.7667322834645669
 20
1.440944881889763
 30
0.0
 11
0.6535433070866141
 21
1.440944881889763
 31
0.0
  0
LINE
  5
552
330
1E
100
AcDbEntity
  8
0
100
AcDbLine
 10
0.5807086614173228
 20
1.440944881889763
 30
0.0
 11
0.5797244094488189
 21
1.440944881889763
 31
0.0
  0
LINE
  5
553
330
1E
100
AcDbEntity
  8
0
100
AcDbLine
 10
1.016732283464566
 20
1.440944881889763
 30
0.0
 11
0.7667322834645669
 21
1.440944881889763
 31
0.0
  0
LINE
  5
554
330
1E
100
AcDbEntity
  8
0
100
AcDbLine
 10
1.016732283464566
 20
1.439960629921259
 30
0.0
 11
1.016732283464566
 21
1.440944881889763
 31
0.0
  0
LINE
  5
555
330
1E
100
AcDbEntity
  8
0
100
AcDbLine
 10
0.7667322834645669
 20
1.439960629921259
 30
0.0
 11
0.7667322834645669
 21
1.440944881889763
 31
0.0
  0
LINE
  5
556
330
1E
100
AcDbEntity
  8
0
100
AcDbLine
 10
1.203740157480315
 20
1.440944881889763
 30
0.0
 11
1.203740157480315
 21
0.9232283464566929
 31
0.0
  0
LINE
  5
557
330
1E
100
AcDbEntity
  8
0
100
AcDbLine
 10
1.203740157480315
 20
0.9232283464566929
 30
0.0
 11
1.203740157480315
 21
0.8297244094488188
 31
0.0
  0
LINE
  5
558
330
1E
100
AcDbEntity
  8
0
100
AcDbLine
 10
0.5797244094488189
 20
0.8297244094488188
 30
0.0
 11
0.5797244094488189
 21
0.9232283464566929
 31
0.0
  0
LINE
  5
559
330
1E
100
AcDbEntity
  8
0
100
AcDbLine
 10
0.5797244094488189
 20
0.9232283464566929
 30
0.0
 11
0.5797244094488189
 21
1.440944881889763
 31
0.0
  0
LINE
  5
55A
330
1E
100
AcDbEntity
  8
0
100
AcDbLine
 10
1.203740157480315
 20
0.9232283464566929
 30
0.0
 11
1.202755905511811
 21
0.9232283464566929
 31
0.0
  0
LWPOLYLINE
  5
55B
330
1E
100
AcDbEntity
  8
0
100
AcDbPolyline
 90
        4
 70
     0
 43
0.0
 10
1.203740157480315
 20
0.9635826771653542
 10
1.203740157480315
 20
0.9576771653543307
 10
1.203740157480315
 20
0.9429133858267716
 10
1.203740157480315
 20
0.9232283464566929
  0
LINE
  5
561
330
1E
100
AcDbEntity
  8
0
100
AcDbLine
 10
1.202755905511811
 20
0.9635826771653542
 30
0.0
 11
1.203740157480315
 21
0.9635826771653542
 31
0.0
  0
LINE
  5
562
330
1E
100
AcDbEntity
  8
0
100
AcDbLine
 10
1.202755905511811
 20
0.8297244094488188
 30
0.0
 11
1.203740157480315
 21
0.8297244094488188
 31
0.0
  0
LINE
  5
563
330
1E
100
AcDbEntity
  8
0
100
AcDbLine
 10
1.203740157480315
 20
0.9635826771653542
 30
0.0
 11
1.202755905511811
 21
0.9635826771653542
 31
0.0
  0
LINE
  5
564
330
1E
100
AcDbEntity
  8
0
100
AcDbLine
 10
1.203740157480315
 20
1.440944881889763
 30
0.0
 11
1.202755905511811
 21
1.439960629921259
 31
0.0
  0
LINE
  5
565
330
1E
100
AcDbEntity
  8
0
100
AcDbLine
 10
0.8208661417322835
 20
1.436023622047243
 30
0.0
 11
0.8257874015748031
 21
1.436023622047243
 31
0.0
  0
LINE
  5
566
330
1E
100
AcDbEntity
  8
0
100
AcDbLine
 10
0.9576771653543307
 20
1.436023622047243
 30
0.0
 11
0.8257874015748031
 21
1.436023622047243
 31
0.0
  0
LINE
  5
567
330
1E
100
AcDbEntity
  8
0
100
AcDbLine
 10
0.9576771653543307
 20
1.436023622047243
 30
0.0
 11
0.9625984251968503
 21
1.436023622047243
 31
0.0
  0
LWPOLYLINE
  5
568
330
1E
100
AcDbEntity
  8
0
100
AcDbPolyline
 90
        3
 70
     0
 43
0.0
 10
1.016732283464566
 20
1.439960629921259
 10
1.013779527559055
 20
1.438976377952755
 10
1.006889763779527
 20
1.438976377952755
  0
LINE
  5
56D
330
1E
100
AcDbEntity
  8
0
100
AcDbLine
 10
0.7765748031496063
 20
1.438976377952755
 30
0.0
 11
1.006889763779527
 21
1.438976377952755
 31
0.0
  0
LWPOLYLINE
  5
56E
330
1E
100
AcDbEntity
  8
0
100
AcDbPolyline
 90
        3
 70
     0
 43
0.0
 10
0.7765748031496063
 20
1.438976377952755
 10
0.7696850393700787
 20
1.438976377952755
 10
0.7667322834645669
 20
1.439960629921259
  0
LINE
  5
573
330
1E
100
AcDbEntity
  8
0
100
AcDbLine
 10
0.5797244094488189
 20
1.440944881889763
 30
0.0
 11
0.5807086614173228
 21
1.439960629921259
 31
0.0
  0
LINE
  5
574
330
1E
100
AcDbEntity
  8
0
100
AcDbLine
 10
0.6978346456692913
 20
1.437007874015747
 30
0.0
 11
0.7017716535433071
 21
1.436023622047243
 31
0.0
  0
LINE
  5
575
330
1E
100
AcDbEntity
  8
0
100
AcDbLine
 10
0.7017716535433071
 20
1.436023622047243
 30
0.0
 11
0.7027559055118111
 21
1.43503937007874
 31
0.0
  0
LINE
  5
576
330
1E
100
AcDbEntity
  8
0
100
AcDbLine
 10
1.081692913385826
 20
1.436023622047243
 30
0.0
 11
1.080708661417322
 21
1.43503937007874
 31
0.0
  0
LINE
  5
577
330
1E
100
AcDbEntity
  8
0
100
AcDbLine
 10
1.081692913385826
 20
1.436023622047243
 30
0.0
 11
1.085629921259842
 21
1.437007874015747
 31
0.0
  0
LINE
  5
578
330
1E
100
AcDbEntity
  8
0
100
AcDbLine
 10
0.5797244094488189
 20
0.8297244094488188
 30
0.0
 11
0.5807086614173228
 21
0.8297244094488188
 31
0.0
  0
LINE
  5
579
330
1E
100
AcDbEntity
  8
0
100
AcDbLine
 10
0.5807086614173228
 20
0.9232283464566929
 30
0.0
 11
0.5797244094488189
 21
0.9232283464566929
 31
0.0
  0
LWPOLYLINE
  5
57A
330
1E
100
AcDbEntity
  8
0
100
AcDbPolyline
 90
        4
 70
     0
 43
0.0
 10
0.5797244094488189
 20
0.9232283464566929
 10
0.5797244094488189
 20
0.9429133858267716
 10
0.5797244094488189
 20
0.9576771653543307
 10
0.5797244094488189
 20
0.9635826771653542
  0
LINE
  5
580
330
1E
100
AcDbEntity
  8
0
100
AcDbLine
 10
0.5797244094488189
 20
0.9635826771653542
 30
0.0
 11
0.5807086614173228
 21
0.9635826771653542
 31
0.0
  0
LINE
  5
581
330
1E
100
AcDbEntity
  8
0
100
AcDbLine
 10
0.5797244094488189
 20
0.9635826771653542
 30
0.0
 11
0.5807086614173228
 21
0.9635826771653542
 31
0.0
  0
LINE
  5
582
330
1E
100
AcDbEntity
  8
0
100
AcDbLine
 10
0.8257874015748031
 20
1.436023622047243
 30
0.0
 11
0.8257874015748031
 21
1.43503937007874
 31
0.0
  0
LINE
  5
583
330
1E
100
AcDbEntity
  8
0
100
AcDbLine
 10
0.9576771653543307
 20
1.43503937007874
 30
0.0
 11
0.9576771653543307
 21
1.436023622047243
 31
0.0
  0
LINE
  5
584
330
1E
100
AcDbEntity
  8
0
100
AcDbLine
 10
0.7017716535433071
 20
1.436023622047243
 30
0.0
 11
0.7017716535433071
 21
1.43503937007874
 31
0.0
  0
LINE
  5
585
330
1E
100
AcDbEntity
  8
0
100
AcDbLine
 10
1.081692913385826
 20
1.43503937007874
 30
0.0
 11
1.081692913385826
 21
1.436023622047243
 31
0.0
  0
LINE
  5
586
330
1E
100
AcDbEntity
  8
0
100
AcDbLine
 10
2.475393700787401
 20
1.352362204724409
 30
0.0
 11
2.475393700787401
 21
1.357283464566929
 31
0.0
  0
LWPOLYLINE
  5
587
330
1E
100
AcDbEntity
  8
0
100
AcDbPolyline
 90
        3
 70
     0
 43
0.0
 10
1.976377952755905
 20
0.8090551181102362
 10
1.976377952755905
 20
0.7588582677165354
 10
1.976377952755905
 20
0.718503937007874
  0
LINE
  5
58C
330
1E
100
AcDbEntity
  8
0
100
AcDbLine
 10
1.976377952755905
 20
0.8090551181102362
 30
0.0
 11
1.976377952755905
 21
1.352362204724409
 31
0.0
  0
LWPOLYLINE
  5
58D
330
1E
100
AcDbEntity
  8
0
100
AcDbPolyline
 90
        3
 70
     0
 43
0.0
 10
1.976377952755905
 20
1.433070866141732
 10
1.976377952755905
 20
1.396653543307086
 10
1.976377952755905
 20
1.352362204724409
  0
LINE
  5
592
330
1E
100
AcDbEntity
  8
0
100
AcDbLine
 10
2.426181102362204
 20
1.440944881889763
 30
0.0
 11
2.334645669291338
 21
1.438976377952755
 31
0.0
  0
LWPOLYLINE
  5
593
330
1E
100
AcDbEntity
  8
0
100
AcDbPolyline
 90
        3
 70
     0
 43
0.0
 10
2.334645669291338
 20
1.438976377952755
 10
2.296259842519685
 20
1.438976377952755
 10
1.976377952755905
 20
1.433070866141732
  0
LINE
  5
598
330
1E
100
AcDbEntity
  8
0
100
AcDbLine
 10
2.327755905511811
 20
1.354330708661417
 30
0.0
 11
1.976377952755905
 21
1.352362204724409
 31
0.0
  0
LINE
  5
599
330
1E
100
AcDbEntity
  8
0
100
AcDbLine
 10
2.334645669291338
 20
0.718503937007874
 30
0.0
 11
2.426181102362204
 21
0.718503937007874
 31
0.0
  0
LINE
  5
59A
330
1E
100
AcDbEntity
  8
0
100
AcDbLine
 10
2.334645669291338
 20
0.718503937007874
 30
0.0
 11
1.976377952755905
 21
0.718503937007874
 31
0.0
  0
LINE
  5
59B
330
1E
100
AcDbEntity
  8
0
100
AcDbLine
 10
1.976377952755905
 20
0.8090551181102362
 30
0.0
 11
2.326771653543306
 21
0.8070866141732283
 31
0.0
  0
LINE
  5
59C
330
1E
100
AcDbEntity
  8
0
100
AcDbLine
 10
2.426181102362204
 20
0.718503937007874
 30
0.0
 11
2.426181102362204
 21
1.005905511811023
 31
0.0
  0
LINE
  5
59D
330
1E
100
AcDbEntity
  8
0
100
AcDbLine
 10
2.426181102362204
 20
1.005905511811023
 30
0.0
 11
2.426181102362204
 21
1.334645669291338
 31
0.0
  0
LINE
  5
59E
330
1E
100
AcDbEntity
  8
0
100
AcDbLine
 10
2.426181102362204
 20
1.334645669291338
 30
0.0
 11
2.426181102362204
 21
1.440944881889763
 31
0.0
  0
LINE
  5
59F
330
1E
100
AcDbEntity
  8
0
100
AcDbLine
 10
2.334645669291338
 20
1.438976377952755
 30
0.0
 11
2.327755905511811
 21
1.354330708661417
 31
0.0
  0
LINE
  5
5A0
330
1E
100
AcDbEntity
  8
0
100
AcDbLine
 10
2.326771653543306
 20
0.8070866141732283
 30
0.0
 11
2.334645669291338
 21
0.718503937007874
 31
0.0
  0
LWPOLYLINE
  5
5A1
330
1E
100
AcDbEntity
  8
0
100
AcDbPolyline
 90
        3
 70
     0
 43
0.0
 10
1.966535433070866
 20
0.9320866141732283
 10
1.966535433070866
 20
0.9261811023622048
 10
1.966535433070866
 20
0.9242125984251968
  0
LINE
  5
5A6
330
1E
100
AcDbEntity
  8
0
100
AcDbLine
 10
1.966535433070866
 20
0.9320866141732283
 30
0.0
 11
1.966535433070866
 21
0.9438976377952755
 31
0.0
  0
LINE
  5
5A7
330
1E
100
AcDbEntity
  8
0
100
AcDbLine
 10
1.966535433070866
 20
0.9242125984251968
 30
0.0
 11
1.976377952755905
 21
0.9242125984251968
 31
0.0
  0
LINE
  5
5A8
330
1E
100
AcDbEntity
  8
0
100
AcDbLine
 10
1.966535433070866
 20
0.9438976377952755
 30
0.0
 11
1.976377952755905
 21
0.9438976377952755
 31
0.0
  0
LINE
  5
5A9
330
1E
100
AcDbEntity
  8
0
100
AcDbLine
 10
1.976377952755905
 20
0.9320866141732283
 30
0.0
 11
1.966535433070866
 21
0.9320866141732283
 31
0.0
  0
LINE
  5
5AA
330
1E
100
AcDbEntity
  8
0
100
AcDbLine
 10
2.509842519685039
 20
1.439960629921259
 30
0.0
 11
2.509842519685039
 21
1.440944881889763
 31
0.0
  0
LINE
  5
5AB
330
1E
100
AcDbEntity
  8
0
100
AcDbLine
 10
2.509842519685039
 20
1.372047244094488
 30
0.0
 11
2.426181102362204
 21
1.334645669291338
 31
0.0
  0
LINE
  5
5AC
330
1E
100
AcDbEntity
  8
0
100
AcDbLine
 10
2.509842519685039
 20
1.440944881889763
 30
0.0
 11
2.426181102362204
 21
1.440944881889763
 31
0.0
  0
LWPOLYLINE
  5
5AD
330
1E
100
AcDbEntity
  8
0
100
AcDbPolyline
 90
        4
 70
     0
 43
0.0
 10
2.465551181102362
 20
0.9665354330708661
 10
2.445866141732283
 20
0.9724409448818896
 10
2.432086614173228
 20
0.9872047244094488
 10
2.426181102362204
 20
1.005905511811023
  0
LINE
  5
5B3
330
1E
100
AcDbEntity
  8
0
100
AcDbLine
 10
2.488188976377952
 20
0.9655511811023622
 30
0.0
 11
2.465551181102362
 21
0.9665354330708661
 31
0.0
  0
LWPOLYLINE
  5
5B4
330
1E
100
AcDbEntity
  8
0
100
AcDbPolyline
 90
        4
 70
     0
 43
0.0
 10
2.588582677165354
 20
0.9232283464566929
 10
2.583661417322834
 20
0.9429133858267716
 10
2.568897637795275
 20
0.9576771653543307
 10
2.5501968503937
 20
0.9635826771653542
  0
LINE
  5
5BA
330
1E
100
AcDbEntity
  8
0
100
AcDbLine
 10
2.588582677165354
 20
0.8336614173228346
 30
0.0
 11
2.588582677165354
 21
0.9232283464566929
 31
0.0
  0
LINE
  5
5BB
330
1E
100
AcDbEntity
  8
0
100
AcDbLine
 10
2.509842519685039
 20
0.7952755905511811
 30
0.0
 11
2.588582677165354
 21
0.8336614173228346
 31
0.0
  0
LINE
  5
5BC
330
1E
100
AcDbEntity
  8
0
100
AcDbLine
 10
2.539370078740157
 20
0.7214566929133858
 30
0.0
 11
2.539370078740157
 21
0.7204724409448819
 31
0.0
  0
LINE
  5
5BD
330
1E
100
AcDbEntity
  8
0
100
AcDbLine
 10
2.539370078740157
 20
0.7204724409448819
 30
0.0
 11
2.580708661417322
 21
0.7214566929133858
 31
0.0
  0
LWPOLYLINE
  5
5BE
330
1E
100
AcDbEntity
  8
0
100
AcDbPolyline
 90
        4
 70
     0
 43
0.0
 10
2.539370078740157
 20
0.7204724409448819
 10
2.524606299212598
 20
0.7204724409448819
 10
2.513779527559055
 20
0.7204724409448819
 10
2.509842519685039
 20
0.7194881889763779
  0
LINE
  5
5C4
330
1E
100
AcDbEntity
  8
0
100
AcDbLine
 10
2.509842519685039
 20
0.7194881889763779
 30
0.0
 11
2.509842519685039
 21
0.7214566929133858
 31
0.0
  0
LINE
  5
5C5
330
1E
100
AcDbEntity
  8
0
100
AcDbLine
 10
2.509842519685039
 20
0.7923228346456694
 30
0.0
 11
2.509842519685039
 21
0.7952755905511811
 31
0.0
  0
LINE
  5
5C6
330
1E
100
AcDbEntity
  8
0
100
AcDbLine
 10
2.426181102362204
 20
0.718503937007874
 30
0.0
 11
2.509842519685039
 21
0.7194881889763779
 31
0.0
  0
LINE
  5
5C7
330
1E
100
AcDbEntity
  8
0
100
AcDbLine
 10
2.478346456692913
 20
1.354330708661417
 30
0.0
 11
2.478346456692913
 21
1.355314960629921
 31
0.0
  0
LINE
  5
5C8
330
1E
100
AcDbEntity
  8
0
100
AcDbLine
 10
2.478346456692913
 20
1.355314960629921
 30
0.0
 11
2.482283464566929
 21
1.356299212598425
 31
0.0
  0
LINE
  5
5C9
330
1E
100
AcDbEntity
  8
0
100
AcDbLine
 10
2.996062992125984
 20
0.7283464566929135
 30
0.0
 11
2.592519685039369
 21
0.7214566929133858
 31
0.0
  0
LINE
  5
5CA
330
1E
100
AcDbEntity
  8
0
100
AcDbLine
 10
2.996062992125984
 20
0.7283464566929135
 30
0.0
 11
3.094488188976377
 21
0.7303149606299213
 31
0.0
  0
LINE
  5
5CB
330
1E
100
AcDbEntity
  8
0
100
AcDbLine
 10
2.592519685039369
 20
0.7214566929133858
 30
0.0
 11
2.509842519685039
 21
0.7214566929133858
 31
0.0
  0
LINE
  5
5CC
330
1E
100
AcDbEntity
  8
0
100
AcDbLine
 10
2.592519685039369
 20
0.8297244094488188
 30
0.0
 11
2.592519685039369
 21
0.7214566929133858
 31
0.0
  0
LINE
  5
5CD
330
1E
100
AcDbEntity
  8
0
100
AcDbLine
 10
2.509842519685039
 20
0.7923228346456694
 30
0.0
 11
2.592519685039369
 21
0.8297244094488188
 31
0.0
  0
LINE
  5
5CE
330
1E
100
AcDbEntity
  8
0
100
AcDbLine
 10
2.509842519685039
 20
0.7214566929133858
 30
0.0
 11
2.509842519685039
 21
0.7923228346456694
 31
0.0
  0
LINE
  5
5CF
330
1E
100
AcDbEntity
  8
0
100
AcDbLine
 10
3.094488188976377
 20
1.440944881889763
 30
0.0
 11
2.592519685039369
 21
1.440944881889763
 31
0.0
  0
LWPOLYLINE
  5
5D0
330
1E
100
AcDbEntity
  8
0
100
AcDbPolyline
 90
        3
 70
     0
 43
0.0
 10
3.104330708661417
 20
1.232283464566929
 10
3.104330708661417
 20
1.238188976377952
 10
3.104330708661417
 20
1.24015748031496
  0
LINE
  5
5D5
330
1E
100
AcDbEntity
  8
0
100
AcDbLine
 10
3.104330708661417
 20
1.232283464566929
 30
0.0
 11
3.104330708661417
 21
1.220472440944881
 31
0.0
  0
LINE
  5
5D6
330
1E
100
AcDbEntity
  8
0
100
AcDbLine
 10
3.104330708661417
 20
1.24015748031496
 30
0.0
 11
3.094488188976377
 21
1.24015748031496
 31
0.0
  0
LINE
  5
5D7
330
1E
100
AcDbEntity
  8
0
100
AcDbLine
 10
3.094488188976377
 20
1.232283464566929
 30
0.0
 11
3.104330708661417
 21
1.232283464566929
 31
0.0
  0
LINE
  5
5D8
330
1E
100
AcDbEntity
  8
0
100
AcDbLine
 10
3.104330708661417
 20
1.220472440944881
 30
0.0
 11
3.094488188976377
 21
1.220472440944881
 31
0.0
  0
LINE
  5
5D9
330
1E
100
AcDbEntity
  8
0
100
AcDbLine
 10
3.094488188976377
 20
0.7303149606299213
 30
0.0
 11
3.094488188976377
 21
0.7913385826771654
 31
0.0
  0
LINE
  5
5DA
330
1E
100
AcDbEntity
  8
0
100
AcDbLine
 10
3.094488188976377
 20
0.7913385826771654
 30
0.0
 11
3.094488188976377
 21
1.440944881889763
 31
0.0
  0
LINE
  5
5DB
330
1E
100
AcDbEntity
  8
0
100
AcDbLine
 10
3.094488188976377
 20
0.7913385826771654
 30
0.0
 11
2.996062992125984
 21
0.7903543307086615
 31
0.0
  0
LINE
  5
5DC
330
1E
100
AcDbEntity
  8
0
100
AcDbLine
 10
2.996062992125984
 20
0.7903543307086615
 30
0.0
 11
2.996062992125984
 21
0.7283464566929135
 31
0.0
  0
LINE
  5
5DD
330
1E
100
AcDbEntity
  8
0
100
AcDbLine
 10
2.592519685039369
 20
1.440944881889763
 30
0.0
 11
2.592519685039369
 21
0.9232283464566929
 31
0.0
  0
LINE
  5
5DE
330
1E
100
AcDbEntity
  8
0
100
AcDbLine
 10
2.592519685039369
 20
0.9232283464566929
 30
0.0
 11
2.592519685039369
 21
0.8297244094488188
 31
0.0
  0
LWPOLYLINE
  5
5DF
330
1E
100
AcDbEntity
  8
0
100
AcDbPolyline
 90
        4
 70
     0
 43
0.0
 10
2.554133858267716
 20
0.9635826771653542
 10
2.572834645669291
 20
0.9576771653543307
 10
2.58759842519685
 20
0.9429133858267716
 10
2.592519685039369
 20
0.9232283464566929
  0
LWPOLYLINE
  5
5E5
330
1E
100
AcDbEntity
  8
0
100
AcDbPolyline
 90
        4
 70
     0
 43
0.0
 10
2.43011811023622
 20
1.005905511811023
 10
2.436023622047243
 20
0.9862204724409448
 10
2.449803149606299
 20
0.9724409448818896
 10
2.469488188976377
 20
0.9665354330708661
  0
LINE
  5
5EB
330
1E
100
AcDbEntity
  8
0
100
AcDbLine
 10
2.43011811023622
 20
1.005905511811023
 30
0.0
 11
2.43011811023622
 21
1.330708661417322
 31
0.0
  0
LINE
  5
5EC
330
1E
100
AcDbEntity
  8
0
100
AcDbLine
 10
2.509842519685039
 20
1.369094488188976
 30
0.0
 11
2.43011811023622
 21
1.330708661417322
 31
0.0
  0
LINE
  5
5ED
330
1E
100
AcDbEntity
  8
0
100
AcDbLine
 10
2.554133858267716
 20
0.9635826771653542
 30
0.0
 11
2.488188976377952
 21
0.9655511811023622
 31
0.0
  0
LINE
  5
5EE
330
1E
100
AcDbEntity
  8
0
100
AcDbLine
 10
2.543307086614173
 20
0.8120078740157479
 30
0.0
 11
2.543307086614173
 21
0.8070866141732283
 31
0.0
  0
LINE
  5
5EF
330
1E
100
AcDbEntity
  8
0
100
AcDbLine
 10
2.592519685039369
 20
1.440944881889763
 30
0.0
 11
2.509842519685039
 21
1.439960629921259
 31
0.0
  0
LINE
  5
5F0
330
1E
100
AcDbEntity
  8
0
100
AcDbLine
 10
2.509842519685039
 20
1.369094488188976
 30
0.0
 11
2.509842519685039
 21
1.439960629921259
 31
0.0
  0
ENDSEC
  0
SECTION
  2
OBJECTS
  0
DICTIONARY
  5
C
330
0
100
AcDbDictionary
281
     1
  3
ACAD_GROUP
350
D
  3
ACAD_PLOTSTYLENAME
350
E
  3
ACAD_MLINESTYLE
350
16
  3
ACAD_PLOTSETTINGS
350
18
  3
ACAD_LAYOUT
350
19
  0
DICTIONARY
  5
D
102
{ACAD_REACTORS
330
C
102
}
330
C
100
AcDbDictionary
281
     1
  0
ACDBDICTIONARYWDFLT
  5
E
102
{ACAD_REACTORS
330
C
102
}
330
C
100
AcDbDictionary
281
     1
  3
Normal
350
F
100
AcDbDictionaryWithDefault
340
F
  0
DICTIONARY
  5
16
102
{ACAD_REACTORS
330
C
102
}
330
C
100
AcDbDictionary
281
     1
  3
Standard
350
17
  0
DICTIONARY
  5
18
102
{ACAD_REACTORS
330
C
102
}
330
C
100
AcDbDictionary
281
     1
  0
DICTIONARY
  5
19
102
{ACAD_REACTORS
330
C
102
}
330
C
100
AcDbDictionary
281
     1
  3
Layout1
350
1D
  3
Model
350
21
  0
ACDBPLACEHOLDER
  5
F
102
{ACAD_REACTORS
330
E
102
}
330
E
  0
MLINESTYLE
  5
17
102
{ACAD_REACTORS
330
16
102
}
330
16
100
AcDbMlineStyle
  2
STANDARD
 70
     0
  3

 62
   256
 51
90.0
 52
90.0
 71
     2
 49
0.5
 62
   256
  6
BYLAYER
 49
-0.5
 62
   256
  6
BYLAYER
  0
LAYOUT
  5
1D
102
{ACAD_REACTORS
330
19
102
}
330
19
100
AcDbPlotSettings
  1

  2
\\NSENG\OPLaser1
  4

  6

 40
0.0
 41
0.0
 42
0.0
 43
0.0
 44
0.0
 45
0.0
 46
0.0
 47
0.0
 48
0.0
 49
0.0
140
0.0
141
0.0
142
1.0
143
1.0
 70
   688
 72
     0
 73
     0
 74
     5
  7

 75
    16
147
1.0
148
0.0
149
0.0
100
AcDbLayout
  1
Layout1
 70
     1
 71
     1
 10
0.0
 20
0.0
 11
12.0
 21
9.0
 12
0.0
 22
0.0
 32
0.0
 14
1.000000000000000E+20
 24
1.000000000000000E+20
 34
1.000000000000000E+20
 15
-1.000000000000000E+20
 25
-1.000000000000000E+20
 35
-1.000000000000000E+20
146
0.0
 13
0.0
 23
0.0
 33
0.0
 16
1.0
 26
0.0
 36
0.0
 17
0.0
 27
1.0
 37
0.0
 76
     0
330
1A
  0
LAYOUT
  5
21
102
{ACAD_REACTORS
330
19
102
}
330
19
100
AcDbPlotSettings
  1

  2
\\NSENG\OPLaser1
  4

  6

 40
0.0
 41
0.0
 42
0.0
 43
0.0
 44
0.0
 45
0.0
 46
0.0
 47
0.0
 48
0.0
 49
0.0
140
0.0
141
0.0
142
1.0
143
1.0
 70
  1712
 72
     0
 73
     0
 74
     0
  7

 75
     0
147
1.0
148
0.0
149
0.0
100
AcDbLayout
  1
Model
 70
     1
 71
     0
 10
0.0
 20
0.0
 11
12.0
 21
9.0
 12
0.0
 22
0.0
 32
0.0
 14
0.0
 24
0.0
 34
0.0
 15
0.0
 25
0.0
 35
0.0
146
0.0
 13
0.0
 23
0.0
 33
0.0
 16
1.0
 26
0.0
 36
0.0
 17
0.0
 27
1.0
 37
0.0
 76
     0
330
1E
  0
ENDSEC
  0
EOF
