  0
SECTION
  2
HEADER
  9
$ACADVER
  1
AC1012
  9
$DWGCODEPAGE
  3
ANSI_1252
  9
$INSBASE
 10
0.0
 20
0.0
 30
0.0
  9
$EXTMIN
 10
3.026342075487463
 20
8.345286822654003
 30
-0.0000000349181948
  9
$EXTMAX
 10
12.03331241652755
 20
16.28052725516101
 30
0.0000000814935746
  9
$LIMMIN
 10
0.0
 20
0.0
  9
$LIMMAX
 10
12.0
 20
9.0
  9
$ORTHOMODE
 70
     0
  9
$REGENMODE
 70
     1
  9
$FILLMODE
 70
     1
  9
$QTEXTMODE
 70
     0
  9
$MIRRTEXT
 70
     1
  9
$DRAGMODE
 70
     2
  9
$LTSCALE
 40
1.0
  9
$OSMODE
 70
    33
  9
$ATTMODE
 70
     1
  9
$TEXTSIZE
 40
0.2
  9
$TRACEWID
 40
0.05
  9
$TEXTSTYLE
  7
STANDARD
  9
$CLAYER
  8
0
  9
$CELTYPE
  6
BYLAYER
  9
$CECOLOR
 62
   256
  9
$CELTSCALE
 40
1.0
  9
$DELOBJ
 70
     1
  9
$DISPSILH
 70
     0
  9
$DIMSCALE
 40
1.0
  9
$DIMASZ
 40
0.18
  9
$DIMEXO
 40
0.0625
  9
$DIMDLI
 40
0.38
  9
$DIMRND
 40
0.0
  9
$DIMDLE
 40
0.0
  9
$DIMEXE
 40
0.18
  9
$DIMTP
 40
0.0
  9
$DIMTM
 40
0.0
  9
$DIMTXT
 40
0.18
  9
$DIMCEN
 40
0.09
  9
$DIMTSZ
 40
0.0
  9
$DIMTOL
 70
     0
  9
$DIMLIM
 70
     0
  9
$DIMTIH
 70
     1
  9
$DIMTOH
 70
     1
  9
$DIMSE1
 70
     0
  9
$DIMSE2
 70
     0
  9
$DIMTAD
 70
     0
  9
$DIMZIN
 70
     0
  9
$DIMBLK
  1

  9
$DIMASO
 70
     1
  9
$DIMSHO
 70
     1
  9
$DIMPOST
  1

  9
$DIMAPOST
  1

  9
$DIMALT
 70
     0
  9
$DIMALTD
 70
     2
  9
$DIMALTF
 40
25.4
  9
$DIMLFAC
 40
1.0
  9
$DIMTOFL
 70
     0
  9
$DIMTVP
 40
0.0
  9
$DIMTIX
 70
     0
  9
$DIMSOXD
 70
     0
  9
$DIMSAH
 70
     0
  9
$DIMBLK1
  1

  9
$DIMBLK2
  1

  9
$DIMSTYLE
  2
STANDARD
  9
$DIMCLRD
 70
     0
  9
$DIMCLRE
 70
     0
  9
$DIMCLRT
 70
     0
  9
$DIMTFAC
 40
1.0
  9
$DIMGAP
 40
0.09
  9
$DIMJUST
 70
     0
  9
$DIMSD1
 70
     0
  9
$DIMSD2
 70
     0
  9
$DIMTOLJ
 70
     1
  9
$DIMTZIN
 70
     0
  9
$DIMALTZ
 70
     0
  9
$DIMALTTZ
 70
     0
  9
$DIMFIT
 70
     5
  9
$DIMUPT
 70
     0
  9
$DIMUNIT
 70
     2
  9
$DIMDEC
 70
     4
  9
$DIMTDEC
 70
     4
  9
$DIMALTU
 70
     2
  9
$DIMALTTD
 70
     2
  9
$DIMTXSTY
  7
STANDARD
  9
$DIMAUNIT
 70
     0
  9
$LUNITS
 70
     2
  9
$LUPREC
 70
     4
  9
$SKETCHINC
 40
0.1
  9
$FILLETRAD
 40
0.0
  9
$AUNITS
 70
     0
  9
$AUPREC
 70
     0
  9
$MENU
  1
acad
  9
$ELEVATION
 40
0.0
  9
$PELEVATION
 40
0.0
  9
$THICKNESS
 40
0.0
  9
$LIMCHECK
 70
     0
  9
$BLIPMODE
 70
     0
  9
$CHAMFERA
 40
0.0
  9
$CHAMFERB
 40
0.0
  9
$CHAMFERC
 40
0.0
  9
$CHAMFERD
 40
0.0
  9
$SKPOLY
 70
     0
  9
$TDCREATE
 40
2451955.356620370
  9
$TDUPDATE
 40
2452338.355227916
  9
$TDINDWG
 40
0.0026962153
  9
$TDUSRTIMER
 40
0.0026962153
  9
$USRTIMER
 70
     1
  9
$ANGBASE
 50
0.0
  9
$ANGDIR
 70
     0
  9
$PDMODE
 70
     0
  9
$PDSIZE
 40
0.0
  9
$PLINEWID
 40
0.0
  9
$COORDS
 70
     2
  9
$SPLFRAME
 70
     0
  9
$SPLINETYPE
 70
     6
  9
$SPLINESEGS
 70
     8
  9
$ATTDIA
 70
     0
  9
$ATTREQ
 70
     1
  9
$HANDLING
 70
  4097
  9
$HANDSEED
  5
35C7
  9
$SURFTAB1
 70
     6
  9
$SURFTAB2
 70
     6
  9
$SURFTYPE
 70
     6
  9
$SURFU
 70
     6
  9
$SURFV
 70
     6
  9
$UCSNAME
  2

  9
$UCSORG
 10
0.0
 20
0.0
 30
0.0
  9
$UCSXDIR
 10
1.0
 20
0.0
 30
0.0
  9
$UCSYDIR
 10
0.0
 20
1.0
 30
0.0
  9
$PUCSNAME
  2

  9
$PUCSORG
 10
0.0
 20
0.0
 30
0.0
  9
$PUCSXDIR
 10
1.0
 20
0.0
 30
0.0
  9
$PUCSYDIR
 10
0.0
 20
1.0
 30
0.0
  9
$USERI1
 70
     0
  9
$USERI2
 70
     0
  9
$USERI3
 70
     0
  9
$USERI4
 70
     0
  9
$USERI5
 70
     0
  9
$USERR1
 40
0.0
  9
$USERR2
 40
0.0
  9
$USERR3
 40
0.0
  9
$USERR4
 40
0.0
  9
$USERR5
 40
0.0
  9
$WORLDVIEW
 70
     1
  9
$SHADEDGE
 70
     3
  9
$SHADEDIF
 70
    70
  9
$TILEMODE
 70
     1
  9
$MAXACTVP
 70
    16
  9
$PINSBASE
 10
0.0
 20
0.0
 30
0.0
  9
$PLIMCHECK
 70
     0
  9
$PEXTMIN
 10
1.000000000000000E+20
 20
1.000000000000000E+20
 30
1.000000000000000E+20
  9
$PEXTMAX
 10
-1.000000000000000E+20
 20
-1.000000000000000E+20
 30
-1.000000000000000E+20
  9
$PLIMMIN
 10
0.0
 20
0.0
  9
$PLIMMAX
 10
12.0
 20
9.0
  9
$UNITMODE
 70
     0
  9
$VISRETAIN
 70
     0
  9
$PLINEGEN
 70
     0
  9
$PSLTSCALE
 70
     1
  9
$TREEDEPTH
 70
  3020
  9
$PICKSTYLE
 70
     1
  9
$CMLSTYLE
  2
STANDARD
  9
$CMLJUST
 70
     0
  9
$CMLSCALE
 40
1.0
  9
$SAVEIMAGES
 70
     1
  0
ENDSEC
  0
SECTION
  2
CLASSES
  0
CLASS
  1
ACDBDICTIONARYWDFLT
  2
AcDbDictionaryWithDefault
  3
AutoCAD 2000
 90
    32768
280
     0
281
     0
  0
CLASS
  1
ACDBPLACEHOLDER
  2
AcDbPlaceHolder
  3
AutoCAD 2000
 90
    32768
280
     0
281
     0
  0
CLASS
  1
LAYOUT
  2
AcDbLayout
  3
AutoCAD 2000
 90
    32768
280
     0
281
     0
  0
CLASS
  1
LONG_TRANSACTION
  2
AcDbLongTransaction
  3
AutoCAD 2000
 90
    32768
280
     0
281
     0
  0
CLASS
  1
LWPOLYLINE
  2
AcDbPolyline
  3
AutoCAD 2000
 90
    32768
280
     0
281
     1
  0
CLASS
  1
HATCH
  2
AcDbHatch
  3
AutoCAD 2000
 90
    32768
280
     0
281
     1
  0
CLASS
  1
XRECORD
  2
AcDbXrecord
  3
AutoCAD 2000
 90
    32768
280
     0
281
     0
  0
ENDSEC
  0
SECTION
  2
TABLES
  0
TABLE
  2
VPORT
  5
8
330
0
100
AcDbSymbolTable
 70
     2
  0
VPORT
  5
35C2
330
8
100
AcDbSymbolTableRecord
100
AcDbViewportTableRecord
  2
*ACTIVE
 70
     0
 10
0.0
 20
0.0
 11
1.0
 21
1.0
 12
7.529827246007505
 22
12.31290703890751
 13
0.0
 23
0.0
 14
1.0
 24
1.0
 15
0.0
 25
0.0
 16
0.0
 26
0.0
 36
1.0
 17
0.0
 27
0.0
 37
0.0
 40
7.997073474838238
 41
1.637191157347204
 42
50.0
 43
0.0
 44
0.0
 50
0.0
 51
0.0
 71
     0
 72
   100
 73
     1
 74
     1
 75
     0
 76
     0
 77
     0
 78
     0
  0
ENDTAB
  0
TABLE
  2
LTYPE
  5
5
330
0
100
AcDbSymbolTable
 70
    25
  0
LTYPE
  5
13
330
5
100
AcDbSymbolTableRecord
100
AcDbLinetypeTableRecord
  2
BYBLOCK
 70
     0
  3

 72
    65
 73
     0
 40
0.0
  0
LTYPE
  5
14
330
5
100
AcDbSymbolTableRecord
100
AcDbLinetypeTableRecord
  2
BYLAYER
 70
     0
  3

 72
    65
 73
     0
 40
0.0
  0
LTYPE
  5
15
330
5
100
AcDbSymbolTableRecord
100
AcDbLinetypeTableRecord
  2
CONTINUOUS
 70
     0
  3
Solid line
 72
    65
 73
     0
 40
0.0
  0
LTYPE
  5
22
330
5
100
AcDbSymbolTableRecord
100
AcDbLinetypeTableRecord
  2
BORDER
 70
     0
  3
__ __ . __ __ . __ __ . __ __ . __ __ . __ __ .
 72
    65
 73
     6
 40
1.75
 49
0.5
 74
     0
 49
-0.25
 74
     0
 49
0.5
 74
     0
 49
-0.25
 74
     0
 49
0.5
 74
     0
 49
-0.25
 74
     0
  0
LTYPE
  5
23
330
5
100
AcDbSymbolTableRecord
100
AcDbLinetypeTableRecord
  2
BORDER2
 70
     0
  3
__.__.__.__.__.__.__.__.__.__.__.__.__.__.__.__
 72
    65
 73
     6
 40
0.875
 49
0.25
 74
     0
 49
-0.125
 74
     0
 49
0.25
 74
     0
 49
-0.125
 74
     0
 49
0.25
 74
     0
 49
-0.125
 74
     0
  0
LTYPE
  5
24
330
5
100
AcDbSymbolTableRecord
100
AcDbLinetypeTableRecord
  2
BORDERX2
 70
     0
  3
____  ____  .  ____  ____  .  
 72
    65
 73
     6
 40
3.5
 49
1.0
 74
     0
 49
-0.5
 74
     0
 49
1.0
 74
     0
 49
-0.5
 74
     0
 49
1.0
 74
     0
 49
-0.5
 74
     0
  0
LTYPE
  5
25
330
5
100
AcDbSymbolTableRecord
100
AcDbLinetypeTableRecord
  2
CENTER
 70
     0
  3
____ _ ____ _ ____ _ ____ _ ____ _ ____ _ ____
 72
    65
 73
     4
 40
2.0
 49
1.25
 74
     0
 49
-0.25
 74
     0
 49
0.25
 74
     0
 49
-0.25
 74
     0
  0
LTYPE
  5
26
330
5
100
AcDbSymbolTableRecord
100
AcDbLinetypeTableRecord
  2
CENTER2
 70
     0
  3
____ _ ____ _ ____ _ ____ _ ____ _ ____ _ ____
 72
    65
 73
     4
 40
1.125
 49
0.75
 74
     0
 49
-0.125
 74
     0
 49
0.125
 74
     0
 49
-0.125
 74
     0
  0
LTYPE
  5
27
330
5
100
AcDbSymbolTableRecord
100
AcDbLinetypeTableRecord
  2
CENTERX2
 70
     0
  3
________  __  ________  __  ________  __  
 72
    65
 73
     4
 40
4.0
 49
2.5
 74
     0
 49
-0.5
 74
     0
 49
0.5
 74
     0
 49
-0.5
 74
     0
  0
LTYPE
  5
28
330
5
100
AcDbSymbolTableRecord
100
AcDbLinetypeTableRecord
  2
DASHDOT
 70
     0
  3
__ . __ . __ . __ . __ . __ . __ . 
 72
    65
 73
     4
 40
1.0
 49
0.5
 74
     0
 49
-0.25
 74
     0
 49
0.0
 74
     0
 49
-0.25
 74
     0
  0
LTYPE
  5
29
330
5
100
AcDbSymbolTableRecord
100
AcDbLinetypeTableRecord
  2
DASHDOT2
 70
     0
  3
_._._._._._._._._._._._._._._._.
 72
    65
 73
     4
 40
0.5
 49
0.25
 74
     0
 49
-0.125
 74
     0
 49
0.0
 74
     0
 49
-0.125
 74
     0
  0
LTYPE
  5
2A
330
5
100
AcDbSymbolTableRecord
100
AcDbLinetypeTableRecord
  2
DASHDOTX2
 70
     0
  3
____  .  ____  .  ____  .  ____  .  
 72
    65
 73
     4
 40
2.0
 49
1.0
 74
     0
 49
-0.5
 74
     0
 49
0.0
 74
     0
 49
-0.5
 74
     0
  0
LTYPE
  5
2B
330
5
100
AcDbSymbolTableRecord
100
AcDbLinetypeTableRecord
  2
DASHED
 70
     0
  3
__ __ __ __ __ __ __ __ __ __ __ __ 
 72
    65
 73
     2
 40
0.75
 49
0.5
 74
     0
 49
-0.25
 74
     0
  0
LTYPE
  5
2C
330
5
100
AcDbSymbolTableRecord
100
AcDbLinetypeTableRecord
  2
DASHED2
 70
     0
  3
_ _ _ _ _ _ _ _ _ _ _ _ _ _ _ _ _ _ 
 72
    65
 73
     2
 40
0.375
 49
0.25
 74
     0
 49
-0.125
 74
     0
  0
LTYPE
  5
2D
330
5
100
AcDbSymbolTableRecord
100
AcDbLinetypeTableRecord
  2
DASHEDX2
 70
     0
  3
____  ____  ____  ____  ____  ____  
 72
    65
 73
     2
 40
1.5
 49
1.0
 74
     0
 49
-0.5
 74
     0
  0
LTYPE
  5
2E
330
5
100
AcDbSymbolTableRecord
100
AcDbLinetypeTableRecord
  2
DIVIDE
 70
     0
  3
____ . . ____ . . ____ . . ____ . . 
 72
    65
 73
     6
 40
1.25
 49
0.5
 74
     0
 49
-0.25
 74
     0
 49
0.0
 74
     0
 49
-0.25
 74
     0
 49
0.0
 74
     0
 49
-0.25
 74
     0
  0
LTYPE
  5
2F
330
5
100
AcDbSymbolTableRecord
100
AcDbLinetypeTableRecord
  2
DIVIDE2
 70
     0
  3
__..__..__..__..__..__..__..__..__..
 72
    65
 73
     6
 40
0.625
 49
0.25
 74
     0
 49
-0.125
 74
     0
 49
0.0
 74
     0
 49
-0.125
 74
     0
 49
0.0
 74
     0
 49
-0.125
 74
     0
  0
LTYPE
  5
30
330
5
100
AcDbSymbolTableRecord
100
AcDbLinetypeTableRecord
  2
DIVIDEX2
 70
     0
  3
________  .  .  ________  .  .  ________  .  . 
 72
    65
 73
     6
 40
2.5
 49
1.0
 74
     0
 49
-0.5
 74
     0
 49
0.0
 74
     0
 49
-0.5
 74
     0
 49
0.0
 74
     0
 49
-0.5
 74
     0
  0
LTYPE
  5
31
330
5
100
AcDbSymbolTableRecord
100
AcDbLinetypeTableRecord
  2
DOT
 70
     0
  3
. . . . . . . . . . . . . . . . . . 
 72
    65
 73
     2
 40
0.25
 49
0.0
 74
     0
 49
-0.25
 74
     0
  0
LTYPE
  5
32
330
5
100
AcDbSymbolTableRecord
100
AcDbLinetypeTableRecord
  2
DOT2
 70
     0
  3
....................................
 72
    65
 73
     2
 40
0.125
 49
0.0
 74
     0
 49
-0.125
 74
     0
  0
LTYPE
  5
33
330
5
100
AcDbSymbolTableRecord
100
AcDbLinetypeTableRecord
  2
DOTX2
 70
     0
  3
.  .  .  .  .  .  .  .  .  .  .  .  .  
 72
    65
 73
     2
 40
0.5
 49
0.0
 74
     0
 49
-0.5
 74
     0
  0
LTYPE
  5
34
330
5
100
AcDbSymbolTableRecord
100
AcDbLinetypeTableRecord
  2
HIDDEN
 70
     0
  3
__ __ __ __ __ __ __ __ __ __ __ __ 
 72
    65
 73
     2
 40
0.375
 49
0.25
 74
     0
 49
-0.125
 74
     0
  0
LTYPE
  5
35
330
5
100
AcDbSymbolTableRecord
100
AcDbLinetypeTableRecord
  2
HIDDEN2
 70
     0
  3
_ _ _ _ _ _ _ _ _ _ _ _ _ _ _ _ _ _ 
 72
    65
 73
     2
 40
0.1875
 49
0.125
 74
     0
 49
-0.0625
 74
     0
  0
LTYPE
  5
36
330
5
100
AcDbSymbolTableRecord
100
AcDbLinetypeTableRecord
  2
HIDDENX2
 70
     0
  3
____ ____ ____ ____ ____ ____ ____ 
 72
    65
 73
     2
 40
0.75
 49
0.5
 74
     0
 49
-0.25
 74
     0
  0
LTYPE
  5
37
330
5
100
AcDbSymbolTableRecord
100
AcDbLinetypeTableRecord
  2
PHANTOM
 70
     0
  3
______  __  __  ______  __  __  
 72
    65
 73
     6
 40
2.5
 49
1.25
 74
     0
 49
-0.25
 74
     0
 49
0.25
 74
     0
 49
-0.25
 74
     0
 49
0.25
 74
     0
 49
-0.25
 74
     0
  0
LTYPE
  5
38
330
5
100
AcDbSymbolTableRecord
100
AcDbLinetypeTableRecord
  2
PHANTOM2
 70
     0
  3
___ _ _ ___ _ _ ___ _ _ ___ _ _ 
 72
    65
 73
     6
 40
1.25
 49
0.625
 74
     0
 49
-0.125
 74
     0
 49
0.125
 74
     0
 49
-0.125
 74
     0
 49
0.125
 74
     0
 49
-0.125
 74
     0
  0
LTYPE
  5
39
330
5
100
AcDbSymbolTableRecord
100
AcDbLinetypeTableRecord
  2
PHANTOMX2
 70
     0
  3
___ _ _ ___ _ _ ___ _ _ ___ _ _ 
 72
    65
 73
     6
 40
5.0
 49
2.5
 74
     0
 49
-0.5
 74
     0
 49
0.5
 74
     0
 49
-0.5
 74
     0
 49
0.5
 74
     0
 49
-0.5
 74
     0
  0
ENDTAB
  0
TABLE
  2
LAYER
  5
2
330
0
100
AcDbSymbolTable
 70
   257
  0
LAYER
  5
10
330
2
100
AcDbSymbolTableRecord
100
AcDbLayerTableRecord
  2
0
 70
     0
 62
     7
  6
CONTINUOUS
  0
LAYER
  5
3A
330
2
100
AcDbSymbolTableRecord
100
AcDbLayerTableRecord
  2
1
 70
     0
 62
     1
  6
CONTINUOUS
  0
LAYER
  5
3B
330
2
100
AcDbSymbolTableRecord
100
AcDbLayerTableRecord
  2
2
 70
     0
 62
     2
  6
CONTINUOUS
  0
LAYER
  5
3C
330
2
100
AcDbSymbolTableRecord
100
AcDbLayerTableRecord
  2
3
 70
     0
 62
     3
  6
CONTINUOUS
  0
LAYER
  5
3D
330
2
100
AcDbSymbolTableRecord
100
AcDbLayerTableRecord
  2
4
 70
     0
 62
     4
  6
CONTINUOUS
  0
LAYER
  5
3E
330
2
100
AcDbSymbolTableRecord
100
AcDbLayerTableRecord
  2
5
 70
     0
 62
     5
  6
CONTINUOUS
  0
LAYER
  5
3F
330
2
100
AcDbSymbolTableRecord
100
AcDbLayerTableRecord
  2
6
 70
     0
 62
     6
  6
CONTINUOUS
  0
LAYER
  5
40
330
2
100
AcDbSymbolTableRecord
100
AcDbLayerTableRecord
  2
7
 70
     0
 62
     7
  6
CONTINUOUS
  0
LAYER
  5
41
330
2
100
AcDbSymbolTableRecord
100
AcDbLayerTableRecord
  2
8
 70
     0
 62
     8
  6
CONTINUOUS
  0
LAYER
  5
42
330
2
100
AcDbSymbolTableRecord
100
AcDbLayerTableRecord
  2
9
 70
     0
 62
     9
  6
CONTINUOUS
  0
LAYER
  5
43
330
2
100
AcDbSymbolTableRecord
100
AcDbLayerTableRecord
  2
10
 70
     0
 62
    10
  6
CONTINUOUS
  0
LAYER
  5
44
330
2
100
AcDbSymbolTableRecord
100
AcDbLayerTableRecord
  2
11
 70
     0
 62
    11
  6
CONTINUOUS
  0
LAYER
  5
45
330
2
100
AcDbSymbolTableRecord
100
AcDbLayerTableRecord
  2
12
 70
     0
 62
    12
  6
CONTINUOUS
  0
LAYER
  5
46
330
2
100
AcDbSymbolTableRecord
100
AcDbLayerTableRecord
  2
13
 70
     0
 62
    13
  6
CONTINUOUS
  0
LAYER
  5
47
330
2
100
AcDbSymbolTableRecord
100
AcDbLayerTableRecord
  2
14
 70
     0
 62
    14
  6
CONTINUOUS
  0
LAYER
  5
48
330
2
100
AcDbSymbolTableRecord
100
AcDbLayerTableRecord
  2
15
 70
     0
 62
    15
  6
CONTINUOUS
  0
LAYER
  5
49
330
2
100
AcDbSymbolTableRecord
100
AcDbLayerTableRecord
  2
16
 70
     0
 62
    16
  6
CONTINUOUS
  0
LAYER
  5
4A
330
2
100
AcDbSymbolTableRecord
100
AcDbLayerTableRecord
  2
17
 70
     0
 62
    17
  6
CONTINUOUS
  0
LAYER
  5
4B
330
2
100
AcDbSymbolTableRecord
100
AcDbLayerTableRecord
  2
18
 70
     0
 62
    18
  6
CONTINUOUS
  0
LAYER
  5
4C
330
2
100
AcDbSymbolTableRecord
100
AcDbLayerTableRecord
  2
19
 70
     0
 62
    19
  6
CONTINUOUS
  0
LAYER
  5
4D
330
2
100
AcDbSymbolTableRecord
100
AcDbLayerTableRecord
  2
20
 70
     0
 62
    20
  6
CONTINUOUS
  0
LAYER
  5
4E
330
2
100
AcDbSymbolTableRecord
100
AcDbLayerTableRecord
  2
21
 70
     0
 62
    21
  6
CONTINUOUS
  0
LAYER
  5
4F
330
2
100
AcDbSymbolTableRecord
100
AcDbLayerTableRecord
  2
22
 70
     0
 62
    22
  6
CONTINUOUS
  0
LAYER
  5
50
330
2
100
AcDbSymbolTableRecord
100
AcDbLayerTableRecord
  2
23
 70
     0
 62
    23
  6
CONTINUOUS
  0
LAYER
  5
51
330
2
100
AcDbSymbolTableRecord
100
AcDbLayerTableRecord
  2
24
 70
     0
 62
    24
  6
CONTINUOUS
  0
LAYER
  5
52
330
2
100
AcDbSymbolTableRecord
100
AcDbLayerTableRecord
  2
25
 70
     0
 62
    25
  6
CONTINUOUS
  0
LAYER
  5
53
330
2
100
AcDbSymbolTableRecord
100
AcDbLayerTableRecord
  2
26
 70
     0
 62
    26
  6
CONTINUOUS
  0
LAYER
  5
54
330
2
100
AcDbSymbolTableRecord
100
AcDbLayerTableRecord
  2
27
 70
     0
 62
    27
  6
CONTINUOUS
  0
LAYER
  5
55
330
2
100
AcDbSymbolTableRecord
100
AcDbLayerTableRecord
  2
28
 70
     0
 62
    28
  6
CONTINUOUS
  0
LAYER
  5
56
330
2
100
AcDbSymbolTableRecord
100
AcDbLayerTableRecord
  2
29
 70
     0
 62
    29
  6
CONTINUOUS
  0
LAYER
  5
57
330
2
100
AcDbSymbolTableRecord
100
AcDbLayerTableRecord
  2
30
 70
     0
 62
    30
  6
CONTINUOUS
  0
LAYER
  5
58
330
2
100
AcDbSymbolTableRecord
100
AcDbLayerTableRecord
  2
31
 70
     0
 62
    31
  6
CONTINUOUS
  0
LAYER
  5
59
330
2
100
AcDbSymbolTableRecord
100
AcDbLayerTableRecord
  2
32
 70
     0
 62
    32
  6
CONTINUOUS
  0
LAYER
  5
5A
330
2
100
AcDbSymbolTableRecord
100
AcDbLayerTableRecord
  2
33
 70
     0
 62
    33
  6
CONTINUOUS
  0
LAYER
  5
5B
330
2
100
AcDbSymbolTableRecord
100
AcDbLayerTableRecord
  2
34
 70
     0
 62
    34
  6
CONTINUOUS
  0
LAYER
  5
5C
330
2
100
AcDbSymbolTableRecord
100
AcDbLayerTableRecord
  2
35
 70
     0
 62
    35
  6
CONTINUOUS
  0
LAYER
  5
5D
330
2
100
AcDbSymbolTableRecord
100
AcDbLayerTableRecord
  2
36
 70
     0
 62
    36
  6
CONTINUOUS
  0
LAYER
  5
5E
330
2
100
AcDbSymbolTableRecord
100
AcDbLayerTableRecord
  2
37
 70
     0
 62
    37
  6
CONTINUOUS
  0
LAYER
  5
5F
330
2
100
AcDbSymbolTableRecord
100
AcDbLayerTableRecord
  2
38
 70
     0
 62
    38
  6
CONTINUOUS
  0
LAYER
  5
60
330
2
100
AcDbSymbolTableRecord
100
AcDbLayerTableRecord
  2
39
 70
     0
 62
    39
  6
CONTINUOUS
  0
LAYER
  5
61
330
2
100
AcDbSymbolTableRecord
100
AcDbLayerTableRecord
  2
40
 70
     0
 62
    40
  6
CONTINUOUS
  0
LAYER
  5
62
330
2
100
AcDbSymbolTableRecord
100
AcDbLayerTableRecord
  2
41
 70
     0
 62
    41
  6
CONTINUOUS
  0
LAYER
  5
63
330
2
100
AcDbSymbolTableRecord
100
AcDbLayerTableRecord
  2
42
 70
     0
 62
    42
  6
CONTINUOUS
  0
LAYER
  5
64
330
2
100
AcDbSymbolTableRecord
100
AcDbLayerTableRecord
  2
43
 70
     0
 62
    43
  6
CONTINUOUS
  0
LAYER
  5
65
330
2
100
AcDbSymbolTableRecord
100
AcDbLayerTableRecord
  2
44
 70
     0
 62
    44
  6
CONTINUOUS
  0
LAYER
  5
66
330
2
100
AcDbSymbolTableRecord
100
AcDbLayerTableRecord
  2
45
 70
     0
 62
    45
  6
CONTINUOUS
  0
LAYER
  5
67
330
2
100
AcDbSymbolTableRecord
100
AcDbLayerTableRecord
  2
46
 70
     0
 62
    46
  6
CONTINUOUS
  0
LAYER
  5
68
330
2
100
AcDbSymbolTableRecord
100
AcDbLayerTableRecord
  2
47
 70
     0
 62
    47
  6
CONTINUOUS
  0
LAYER
  5
69
330
2
100
AcDbSymbolTableRecord
100
AcDbLayerTableRecord
  2
48
 70
     0
 62
    48
  6
CONTINUOUS
  0
LAYER
  5
6A
330
2
100
AcDbSymbolTableRecord
100
AcDbLayerTableRecord
  2
49
 70
     0
 62
    49
  6
CONTINUOUS
  0
LAYER
  5
6B
330
2
100
AcDbSymbolTableRecord
100
AcDbLayerTableRecord
  2
50
 70
     0
 62
    50
  6
CONTINUOUS
  0
LAYER
  5
6C
330
2
100
AcDbSymbolTableRecord
100
AcDbLayerTableRecord
  2
51
 70
     0
 62
    51
  6
CONTINUOUS
  0
LAYER
  5
6D
330
2
100
AcDbSymbolTableRecord
100
AcDbLayerTableRecord
  2
52
 70
     0
 62
    52
  6
CONTINUOUS
  0
LAYER
  5
6E
330
2
100
AcDbSymbolTableRecord
100
AcDbLayerTableRecord
  2
53
 70
     0
 62
    53
  6
CONTINUOUS
  0
LAYER
  5
6F
330
2
100
AcDbSymbolTableRecord
100
AcDbLayerTableRecord
  2
54
 70
     0
 62
    54
  6
CONTINUOUS
  0
LAYER
  5
70
330
2
100
AcDbSymbolTableRecord
100
AcDbLayerTableRecord
  2
55
 70
     0
 62
    55
  6
CONTINUOUS
  0
LAYER
  5
71
330
2
100
AcDbSymbolTableRecord
100
AcDbLayerTableRecord
  2
56
 70
     0
 62
    56
  6
CONTINUOUS
  0
LAYER
  5
72
330
2
100
AcDbSymbolTableRecord
100
AcDbLayerTableRecord
  2
57
 70
     0
 62
    57
  6
CONTINUOUS
  0
LAYER
  5
73
330
2
100
AcDbSymbolTableRecord
100
AcDbLayerTableRecord
  2
58
 70
     0
 62
    58
  6
CONTINUOUS
  0
LAYER
  5
74
330
2
100
AcDbSymbolTableRecord
100
AcDbLayerTableRecord
  2
59
 70
     0
 62
    59
  6
CONTINUOUS
  0
LAYER
  5
75
330
2
100
AcDbSymbolTableRecord
100
AcDbLayerTableRecord
  2
60
 70
     0
 62
    60
  6
CONTINUOUS
  0
LAYER
  5
76
330
2
100
AcDbSymbolTableRecord
100
AcDbLayerTableRecord
  2
61
 70
     0
 62
    61
  6
CONTINUOUS
  0
LAYER
  5
77
330
2
100
AcDbSymbolTableRecord
100
AcDbLayerTableRecord
  2
62
 70
     0
 62
    62
  6
CONTINUOUS
  0
LAYER
  5
78
330
2
100
AcDbSymbolTableRecord
100
AcDbLayerTableRecord
  2
63
 70
     0
 62
    63
  6
CONTINUOUS
  0
LAYER
  5
79
330
2
100
AcDbSymbolTableRecord
100
AcDbLayerTableRecord
  2
64
 70
     0
 62
    64
  6
CONTINUOUS
  0
LAYER
  5
7A
330
2
100
AcDbSymbolTableRecord
100
AcDbLayerTableRecord
  2
65
 70
     0
 62
    65
  6
CONTINUOUS
  0
LAYER
  5
7B
330
2
100
AcDbSymbolTableRecord
100
AcDbLayerTableRecord
  2
66
 70
     0
 62
    66
  6
CONTINUOUS
  0
LAYER
  5
7C
330
2
100
AcDbSymbolTableRecord
100
AcDbLayerTableRecord
  2
67
 70
     0
 62
    67
  6
CONTINUOUS
  0
LAYER
  5
7D
330
2
100
AcDbSymbolTableRecord
100
AcDbLayerTableRecord
  2
68
 70
     0
 62
    68
  6
CONTINUOUS
  0
LAYER
  5
7E
330
2
100
AcDbSymbolTableRecord
100
AcDbLayerTableRecord
  2
69
 70
     0
 62
    69
  6
CONTINUOUS
  0
LAYER
  5
7F
330
2
100
AcDbSymbolTableRecord
100
AcDbLayerTableRecord
  2
70
 70
     0
 62
    70
  6
CONTINUOUS
  0
LAYER
  5
80
330
2
100
AcDbSymbolTableRecord
100
AcDbLayerTableRecord
  2
71
 70
     0
 62
    71
  6
CONTINUOUS
  0
LAYER
  5
81
330
2
100
AcDbSymbolTableRecord
100
AcDbLayerTableRecord
  2
72
 70
     0
 62
    72
  6
CONTINUOUS
  0
LAYER
  5
82
330
2
100
AcDbSymbolTableRecord
100
AcDbLayerTableRecord
  2
73
 70
     0
 62
    73
  6
CONTINUOUS
  0
LAYER
  5
83
330
2
100
AcDbSymbolTableRecord
100
AcDbLayerTableRecord
  2
74
 70
     0
 62
    74
  6
CONTINUOUS
  0
LAYER
  5
84
330
2
100
AcDbSymbolTableRecord
100
AcDbLayerTableRecord
  2
75
 70
     0
 62
    75
  6
CONTINUOUS
  0
LAYER
  5
85
330
2
100
AcDbSymbolTableRecord
100
AcDbLayerTableRecord
  2
76
 70
     0
 62
    76
  6
CONTINUOUS
  0
LAYER
  5
86
330
2
100
AcDbSymbolTableRecord
100
AcDbLayerTableRecord
  2
77
 70
     0
 62
    77
  6
CONTINUOUS
  0
LAYER
  5
87
330
2
100
AcDbSymbolTableRecord
100
AcDbLayerTableRecord
  2
78
 70
     0
 62
    78
  6
CONTINUOUS
  0
LAYER
  5
88
330
2
100
AcDbSymbolTableRecord
100
AcDbLayerTableRecord
  2
79
 70
     0
 62
    79
  6
CONTINUOUS
  0
LAYER
  5
89
330
2
100
AcDbSymbolTableRecord
100
AcDbLayerTableRecord
  2
80
 70
     0
 62
    80
  6
CONTINUOUS
  0
LAYER
  5
8A
330
2
100
AcDbSymbolTableRecord
100
AcDbLayerTableRecord
  2
81
 70
     0
 62
    81
  6
CONTINUOUS
  0
LAYER
  5
8B
330
2
100
AcDbSymbolTableRecord
100
AcDbLayerTableRecord
  2
82
 70
     0
 62
    82
  6
CONTINUOUS
  0
LAYER
  5
8C
330
2
100
AcDbSymbolTableRecord
100
AcDbLayerTableRecord
  2
83
 70
     0
 62
    83
  6
CONTINUOUS
  0
LAYER
  5
8D
330
2
100
AcDbSymbolTableRecord
100
AcDbLayerTableRecord
  2
84
 70
     0
 62
    84
  6
CONTINUOUS
  0
LAYER
  5
8E
330
2
100
AcDbSymbolTableRecord
100
AcDbLayerTableRecord
  2
85
 70
     0
 62
    85
  6
CONTINUOUS
  0
LAYER
  5
8F
330
2
100
AcDbSymbolTableRecord
100
AcDbLayerTableRecord
  2
86
 70
     0
 62
    86
  6
CONTINUOUS
  0
LAYER
  5
90
330
2
100
AcDbSymbolTableRecord
100
AcDbLayerTableRecord
  2
87
 70
     0
 62
    87
  6
CONTINUOUS
  0
LAYER
  5
91
330
2
100
AcDbSymbolTableRecord
100
AcDbLayerTableRecord
  2
88
 70
     0
 62
    88
  6
CONTINUOUS
  0
LAYER
  5
92
330
2
100
AcDbSymbolTableRecord
100
AcDbLayerTableRecord
  2
89
 70
     0
 62
    89
  6
CONTINUOUS
  0
LAYER
  5
93
330
2
100
AcDbSymbolTableRecord
100
AcDbLayerTableRecord
  2
90
 70
     0
 62
    90
  6
CONTINUOUS
  0
LAYER
  5
94
330
2
100
AcDbSymbolTableRecord
100
AcDbLayerTableRecord
  2
91
 70
     0
 62
    91
  6
CONTINUOUS
  0
LAYER
  5
95
330
2
100
AcDbSymbolTableRecord
100
AcDbLayerTableRecord
  2
92
 70
     0
 62
    92
  6
CONTINUOUS
  0
LAYER
  5
96
330
2
100
AcDbSymbolTableRecord
100
AcDbLayerTableRecord
  2
93
 70
     0
 62
    93
  6
CONTINUOUS
  0
LAYER
  5
97
330
2
100
AcDbSymbolTableRecord
100
AcDbLayerTableRecord
  2
94
 70
     0
 62
    94
  6
CONTINUOUS
  0
LAYER
  5
98
330
2
100
AcDbSymbolTableRecord
100
AcDbLayerTableRecord
  2
95
 70
     0
 62
    95
  6
CONTINUOUS
  0
LAYER
  5
99
330
2
100
AcDbSymbolTableRecord
100
AcDbLayerTableRecord
  2
96
 70
     0
 62
    96
  6
CONTINUOUS
  0
LAYER
  5
9A
330
2
100
AcDbSymbolTableRecord
100
AcDbLayerTableRecord
  2
97
 70
     0
 62
    97
  6
CONTINUOUS
  0
LAYER
  5
9B
330
2
100
AcDbSymbolTableRecord
100
AcDbLayerTableRecord
  2
98
 70
     0
 62
    98
  6
CONTINUOUS
  0
LAYER
  5
9C
330
2
100
AcDbSymbolTableRecord
100
AcDbLayerTableRecord
  2
99
 70
     0
 62
    99
  6
CONTINUOUS
  0
LAYER
  5
9D
330
2
100
AcDbSymbolTableRecord
100
AcDbLayerTableRecord
  2
100
 70
     0
 62
   100
  6
CONTINUOUS
  0
LAYER
  5
9E
330
2
100
AcDbSymbolTableRecord
100
AcDbLayerTableRecord
  2
101
 70
     0
 62
   101
  6
CONTINUOUS
  0
LAYER
  5
9F
330
2
100
AcDbSymbolTableRecord
100
AcDbLayerTableRecord
  2
102
 70
     0
 62
   102
  6
CONTINUOUS
  0
LAYER
  5
A0
330
2
100
AcDbSymbolTableRecord
100
AcDbLayerTableRecord
  2
103
 70
     0
 62
   103
  6
CONTINUOUS
  0
LAYER
  5
A1
330
2
100
AcDbSymbolTableRecord
100
AcDbLayerTableRecord
  2
104
 70
     0
 62
   104
  6
CONTINUOUS
  0
LAYER
  5
A2
330
2
100
AcDbSymbolTableRecord
100
AcDbLayerTableRecord
  2
105
 70
     0
 62
   105
  6
CONTINUOUS
  0
LAYER
  5
A3
330
2
100
AcDbSymbolTableRecord
100
AcDbLayerTableRecord
  2
106
 70
     0
 62
   106
  6
CONTINUOUS
  0
LAYER
  5
A4
330
2
100
AcDbSymbolTableRecord
100
AcDbLayerTableRecord
  2
107
 70
     0
 62
   107
  6
CONTINUOUS
  0
LAYER
  5
A5
330
2
100
AcDbSymbolTableRecord
100
AcDbLayerTableRecord
  2
108
 70
     0
 62
   108
  6
CONTINUOUS
  0
LAYER
  5
A6
330
2
100
AcDbSymbolTableRecord
100
AcDbLayerTableRecord
  2
109
 70
     0
 62
   109
  6
CONTINUOUS
  0
LAYER
  5
A7
330
2
100
AcDbSymbolTableRecord
100
AcDbLayerTableRecord
  2
110
 70
     0
 62
   110
  6
CONTINUOUS
  0
LAYER
  5
A8
330
2
100
AcDbSymbolTableRecord
100
AcDbLayerTableRecord
  2
111
 70
     0
 62
   111
  6
CONTINUOUS
  0
LAYER
  5
A9
330
2
100
AcDbSymbolTableRecord
100
AcDbLayerTableRecord
  2
112
 70
     0
 62
   112
  6
CONTINUOUS
  0
LAYER
  5
AA
330
2
100
AcDbSymbolTableRecord
100
AcDbLayerTableRecord
  2
113
 70
     0
 62
   113
  6
CONTINUOUS
  0
LAYER
  5
AB
330
2
100
AcDbSymbolTableRecord
100
AcDbLayerTableRecord
  2
114
 70
     0
 62
   114
  6
CONTINUOUS
  0
LAYER
  5
AC
330
2
100
AcDbSymbolTableRecord
100
AcDbLayerTableRecord
  2
115
 70
     0
 62
   115
  6
CONTINUOUS
  0
LAYER
  5
AD
330
2
100
AcDbSymbolTableRecord
100
AcDbLayerTableRecord
  2
116
 70
     0
 62
   116
  6
CONTINUOUS
  0
LAYER
  5
AE
330
2
100
AcDbSymbolTableRecord
100
AcDbLayerTableRecord
  2
117
 70
     0
 62
   117
  6
CONTINUOUS
  0
LAYER
  5
AF
330
2
100
AcDbSymbolTableRecord
100
AcDbLayerTableRecord
  2
118
 70
     0
 62
   118
  6
CONTINUOUS
  0
LAYER
  5
B0
330
2
100
AcDbSymbolTableRecord
100
AcDbLayerTableRecord
  2
119
 70
     0
 62
   119
  6
CONTINUOUS
  0
LAYER
  5
B1
330
2
100
AcDbSymbolTableRecord
100
AcDbLayerTableRecord
  2
120
 70
     0
 62
   120
  6
CONTINUOUS
  0
LAYER
  5
B2
330
2
100
AcDbSymbolTableRecord
100
AcDbLayerTableRecord
  2
121
 70
     0
 62
   121
  6
CONTINUOUS
  0
LAYER
  5
B3
330
2
100
AcDbSymbolTableRecord
100
AcDbLayerTableRecord
  2
122
 70
     0
 62
   122
  6
CONTINUOUS
  0
LAYER
  5
B4
330
2
100
AcDbSymbolTableRecord
100
AcDbLayerTableRecord
  2
123
 70
     0
 62
   123
  6
CONTINUOUS
  0
LAYER
  5
B5
330
2
100
AcDbSymbolTableRecord
100
AcDbLayerTableRecord
  2
124
 70
     0
 62
   124
  6
CONTINUOUS
  0
LAYER
  5
B6
330
2
100
AcDbSymbolTableRecord
100
AcDbLayerTableRecord
  2
125
 70
     0
 62
   125
  6
CONTINUOUS
  0
LAYER
  5
B7
330
2
100
AcDbSymbolTableRecord
100
AcDbLayerTableRecord
  2
126
 70
     0
 62
   126
  6
CONTINUOUS
  0
LAYER
  5
B8
330
2
100
AcDbSymbolTableRecord
100
AcDbLayerTableRecord
  2
127
 70
     0
 62
   127
  6
CONTINUOUS
  0
LAYER
  5
B9
330
2
100
AcDbSymbolTableRecord
100
AcDbLayerTableRecord
  2
128
 70
     0
 62
   128
  6
CONTINUOUS
  0
LAYER
  5
BA
330
2
100
AcDbSymbolTableRecord
100
AcDbLayerTableRecord
  2
129
 70
     0
 62
   129
  6
CONTINUOUS
  0
LAYER
  5
BB
330
2
100
AcDbSymbolTableRecord
100
AcDbLayerTableRecord
  2
130
 70
     0
 62
   130
  6
CONTINUOUS
  0
LAYER
  5
BC
330
2
100
AcDbSymbolTableRecord
100
AcDbLayerTableRecord
  2
131
 70
     0
 62
   131
  6
CONTINUOUS
  0
LAYER
  5
BD
330
2
100
AcDbSymbolTableRecord
100
AcDbLayerTableRecord
  2
132
 70
     0
 62
   132
  6
CONTINUOUS
  0
LAYER
  5
BE
330
2
100
AcDbSymbolTableRecord
100
AcDbLayerTableRecord
  2
133
 70
     0
 62
   133
  6
CONTINUOUS
  0
LAYER
  5
BF
330
2
100
AcDbSymbolTableRecord
100
AcDbLayerTableRecord
  2
134
 70
     0
 62
   134
  6
CONTINUOUS
  0
LAYER
  5
C0
330
2
100
AcDbSymbolTableRecord
100
AcDbLayerTableRecord
  2
135
 70
     0
 62
   135
  6
CONTINUOUS
  0
LAYER
  5
C1
330
2
100
AcDbSymbolTableRecord
100
AcDbLayerTableRecord
  2
136
 70
     0
 62
   136
  6
CONTINUOUS
  0
LAYER
  5
C2
330
2
100
AcDbSymbolTableRecord
100
AcDbLayerTableRecord
  2
137
 70
     0
 62
   137
  6
CONTINUOUS
  0
LAYER
  5
C3
330
2
100
AcDbSymbolTableRecord
100
AcDbLayerTableRecord
  2
138
 70
     0
 62
   138
  6
CONTINUOUS
  0
LAYER
  5
C4
330
2
100
AcDbSymbolTableRecord
100
AcDbLayerTableRecord
  2
139
 70
     0
 62
   139
  6
CONTINUOUS
  0
LAYER
  5
C5
330
2
100
AcDbSymbolTableRecord
100
AcDbLayerTableRecord
  2
140
 70
     0
 62
   140
  6
CONTINUOUS
  0
LAYER
  5
C6
330
2
100
AcDbSymbolTableRecord
100
AcDbLayerTableRecord
  2
141
 70
     0
 62
   141
  6
CONTINUOUS
  0
LAYER
  5
C7
330
2
100
AcDbSymbolTableRecord
100
AcDbLayerTableRecord
  2
142
 70
     0
 62
   142
  6
CONTINUOUS
  0
LAYER
  5
C8
330
2
100
AcDbSymbolTableRecord
100
AcDbLayerTableRecord
  2
143
 70
     0
 62
   143
  6
CONTINUOUS
  0
LAYER
  5
C9
330
2
100
AcDbSymbolTableRecord
100
AcDbLayerTableRecord
  2
144
 70
     0
 62
   144
  6
CONTINUOUS
  0
LAYER
  5
CA
330
2
100
AcDbSymbolTableRecord
100
AcDbLayerTableRecord
  2
145
 70
     0
 62
   145
  6
CONTINUOUS
  0
LAYER
  5
CB
330
2
100
AcDbSymbolTableRecord
100
AcDbLayerTableRecord
  2
146
 70
     0
 62
   146
  6
CONTINUOUS
  0
LAYER
  5
CC
330
2
100
AcDbSymbolTableRecord
100
AcDbLayerTableRecord
  2
147
 70
     0
 62
   147
  6
CONTINUOUS
  0
LAYER
  5
CD
330
2
100
AcDbSymbolTableRecord
100
AcDbLayerTableRecord
  2
148
 70
     0
 62
   148
  6
CONTINUOUS
  0
LAYER
  5
CE
330
2
100
AcDbSymbolTableRecord
100
AcDbLayerTableRecord
  2
149
 70
     0
 62
   149
  6
CONTINUOUS
  0
LAYER
  5
CF
330
2
100
AcDbSymbolTableRecord
100
AcDbLayerTableRecord
  2
150
 70
     0
 62
   150
  6
CONTINUOUS
  0
LAYER
  5
D0
330
2
100
AcDbSymbolTableRecord
100
AcDbLayerTableRecord
  2
151
 70
     0
 62
   151
  6
CONTINUOUS
  0
LAYER
  5
D1
330
2
100
AcDbSymbolTableRecord
100
AcDbLayerTableRecord
  2
152
 70
     0
 62
   152
  6
CONTINUOUS
  0
LAYER
  5
D2
330
2
100
AcDbSymbolTableRecord
100
AcDbLayerTableRecord
  2
153
 70
     0
 62
   153
  6
CONTINUOUS
  0
LAYER
  5
D3
330
2
100
AcDbSymbolTableRecord
100
AcDbLayerTableRecord
  2
154
 70
     0
 62
   154
  6
CONTINUOUS
  0
LAYER
  5
D4
330
2
100
AcDbSymbolTableRecord
100
AcDbLayerTableRecord
  2
155
 70
     0
 62
   155
  6
CONTINUOUS
  0
LAYER
  5
D5
330
2
100
AcDbSymbolTableRecord
100
AcDbLayerTableRecord
  2
156
 70
     0
 62
   156
  6
CONTINUOUS
  0
LAYER
  5
D6
330
2
100
AcDbSymbolTableRecord
100
AcDbLayerTableRecord
  2
157
 70
     0
 62
   157
  6
CONTINUOUS
  0
LAYER
  5
D7
330
2
100
AcDbSymbolTableRecord
100
AcDbLayerTableRecord
  2
158
 70
     0
 62
   158
  6
CONTINUOUS
  0
LAYER
  5
D8
330
2
100
AcDbSymbolTableRecord
100
AcDbLayerTableRecord
  2
159
 70
     0
 62
   159
  6
CONTINUOUS
  0
LAYER
  5
D9
330
2
100
AcDbSymbolTableRecord
100
AcDbLayerTableRecord
  2
160
 70
     0
 62
   160
  6
CONTINUOUS
  0
LAYER
  5
DA
330
2
100
AcDbSymbolTableRecord
100
AcDbLayerTableRecord
  2
161
 70
     0
 62
   161
  6
CONTINUOUS
  0
LAYER
  5
DB
330
2
100
AcDbSymbolTableRecord
100
AcDbLayerTableRecord
  2
162
 70
     0
 62
   162
  6
CONTINUOUS
  0
LAYER
  5
DC
330
2
100
AcDbSymbolTableRecord
100
AcDbLayerTableRecord
  2
163
 70
     0
 62
   163
  6
CONTINUOUS
  0
LAYER
  5
DD
330
2
100
AcDbSymbolTableRecord
100
AcDbLayerTableRecord
  2
164
 70
     0
 62
   164
  6
CONTINUOUS
  0
LAYER
  5
DE
330
2
100
AcDbSymbolTableRecord
100
AcDbLayerTableRecord
  2
165
 70
     0
 62
   165
  6
CONTINUOUS
  0
LAYER
  5
DF
330
2
100
AcDbSymbolTableRecord
100
AcDbLayerTableRecord
  2
166
 70
     0
 62
   166
  6
CONTINUOUS
  0
LAYER
  5
E0
330
2
100
AcDbSymbolTableRecord
100
AcDbLayerTableRecord
  2
167
 70
     0
 62
   167
  6
CONTINUOUS
  0
LAYER
  5
E1
330
2
100
AcDbSymbolTableRecord
100
AcDbLayerTableRecord
  2
168
 70
     0
 62
   168
  6
CONTINUOUS
  0
LAYER
  5
E2
330
2
100
AcDbSymbolTableRecord
100
AcDbLayerTableRecord
  2
169
 70
     0
 62
   169
  6
CONTINUOUS
  0
LAYER
  5
E3
330
2
100
AcDbSymbolTableRecord
100
AcDbLayerTableRecord
  2
170
 70
     0
 62
   170
  6
CONTINUOUS
  0
LAYER
  5
E4
330
2
100
AcDbSymbolTableRecord
100
AcDbLayerTableRecord
  2
171
 70
     0
 62
   171
  6
CONTINUOUS
  0
LAYER
  5
E5
330
2
100
AcDbSymbolTableRecord
100
AcDbLayerTableRecord
  2
172
 70
     0
 62
   172
  6
CONTINUOUS
  0
LAYER
  5
E6
330
2
100
AcDbSymbolTableRecord
100
AcDbLayerTableRecord
  2
173
 70
     0
 62
   173
  6
CONTINUOUS
  0
LAYER
  5
E7
330
2
100
AcDbSymbolTableRecord
100
AcDbLayerTableRecord
  2
174
 70
     0
 62
   174
  6
CONTINUOUS
  0
LAYER
  5
E8
330
2
100
AcDbSymbolTableRecord
100
AcDbLayerTableRecord
  2
175
 70
     0
 62
   175
  6
CONTINUOUS
  0
LAYER
  5
E9
330
2
100
AcDbSymbolTableRecord
100
AcDbLayerTableRecord
  2
176
 70
     0
 62
   176
  6
CONTINUOUS
  0
LAYER
  5
EA
330
2
100
AcDbSymbolTableRecord
100
AcDbLayerTableRecord
  2
177
 70
     0
 62
   177
  6
CONTINUOUS
  0
LAYER
  5
EB
330
2
100
AcDbSymbolTableRecord
100
AcDbLayerTableRecord
  2
178
 70
     0
 62
   178
  6
CONTINUOUS
  0
LAYER
  5
EC
330
2
100
AcDbSymbolTableRecord
100
AcDbLayerTableRecord
  2
179
 70
     0
 62
   179
  6
CONTINUOUS
  0
LAYER
  5
ED
330
2
100
AcDbSymbolTableRecord
100
AcDbLayerTableRecord
  2
180
 70
     0
 62
   180
  6
CONTINUOUS
  0
LAYER
  5
EE
330
2
100
AcDbSymbolTableRecord
100
AcDbLayerTableRecord
  2
181
 70
     0
 62
   181
  6
CONTINUOUS
  0
LAYER
  5
EF
330
2
100
AcDbSymbolTableRecord
100
AcDbLayerTableRecord
  2
182
 70
     0
 62
   182
  6
CONTINUOUS
  0
LAYER
  5
F0
330
2
100
AcDbSymbolTableRecord
100
AcDbLayerTableRecord
  2
183
 70
     0
 62
   183
  6
CONTINUOUS
  0
LAYER
  5
F1
330
2
100
AcDbSymbolTableRecord
100
AcDbLayerTableRecord
  2
184
 70
     0
 62
   184
  6
CONTINUOUS
  0
LAYER
  5
F2
330
2
100
AcDbSymbolTableRecord
100
AcDbLayerTableRecord
  2
185
 70
     0
 62
   185
  6
CONTINUOUS
  0
LAYER
  5
F3
330
2
100
AcDbSymbolTableRecord
100
AcDbLayerTableRecord
  2
186
 70
     0
 62
   186
  6
CONTINUOUS
  0
LAYER
  5
F4
330
2
100
AcDbSymbolTableRecord
100
AcDbLayerTableRecord
  2
187
 70
     0
 62
   187
  6
CONTINUOUS
  0
LAYER
  5
F5
330
2
100
AcDbSymbolTableRecord
100
AcDbLayerTableRecord
  2
188
 70
     0
 62
   188
  6
CONTINUOUS
  0
LAYER
  5
F6
330
2
100
AcDbSymbolTableRecord
100
AcDbLayerTableRecord
  2
189
 70
     0
 62
   189
  6
CONTINUOUS
  0
LAYER
  5
F7
330
2
100
AcDbSymbolTableRecord
100
AcDbLayerTableRecord
  2
190
 70
     0
 62
   190
  6
CONTINUOUS
  0
LAYER
  5
F8
330
2
100
AcDbSymbolTableRecord
100
AcDbLayerTableRecord
  2
191
 70
     0
 62
   191
  6
CONTINUOUS
  0
LAYER
  5
F9
330
2
100
AcDbSymbolTableRecord
100
AcDbLayerTableRecord
  2
192
 70
     0
 62
   192
  6
CONTINUOUS
  0
LAYER
  5
FA
330
2
100
AcDbSymbolTableRecord
100
AcDbLayerTableRecord
  2
193
 70
     0
 62
   193
  6
CONTINUOUS
  0
LAYER
  5
FB
330
2
100
AcDbSymbolTableRecord
100
AcDbLayerTableRecord
  2
194
 70
     0
 62
   194
  6
CONTINUOUS
  0
LAYER
  5
FC
330
2
100
AcDbSymbolTableRecord
100
AcDbLayerTableRecord
  2
195
 70
     0
 62
   195
  6
CONTINUOUS
  0
LAYER
  5
FD
330
2
100
AcDbSymbolTableRecord
100
AcDbLayerTableRecord
  2
196
 70
     0
 62
   196
  6
CONTINUOUS
  0
LAYER
  5
FE
330
2
100
AcDbSymbolTableRecord
100
AcDbLayerTableRecord
  2
197
 70
     0
 62
   197
  6
CONTINUOUS
  0
LAYER
  5
FF
330
2
100
AcDbSymbolTableRecord
100
AcDbLayerTableRecord
  2
198
 70
     0
 62
   198
  6
CONTINUOUS
  0
LAYER
  5
100
330
2
100
AcDbSymbolTableRecord
100
AcDbLayerTableRecord
  2
199
 70
     0
 62
   199
  6
CONTINUOUS
  0
LAYER
  5
101
330
2
100
AcDbSymbolTableRecord
100
AcDbLayerTableRecord
  2
200
 70
     0
 62
   200
  6
CONTINUOUS
  0
LAYER
  5
102
330
2
100
AcDbSymbolTableRecord
100
AcDbLayerTableRecord
  2
201
 70
     0
 62
   201
  6
CONTINUOUS
  0
LAYER
  5
103
330
2
100
AcDbSymbolTableRecord
100
AcDbLayerTableRecord
  2
202
 70
     0
 62
   202
  6
CONTINUOUS
  0
LAYER
  5
104
330
2
100
AcDbSymbolTableRecord
100
AcDbLayerTableRecord
  2
203
 70
     0
 62
   203
  6
CONTINUOUS
  0
LAYER
  5
105
330
2
100
AcDbSymbolTableRecord
100
AcDbLayerTableRecord
  2
204
 70
     0
 62
   204
  6
CONTINUOUS
  0
LAYER
  5
106
330
2
100
AcDbSymbolTableRecord
100
AcDbLayerTableRecord
  2
205
 70
     0
 62
   205
  6
CONTINUOUS
  0
LAYER
  5
107
330
2
100
AcDbSymbolTableRecord
100
AcDbLayerTableRecord
  2
206
 70
     0
 62
   206
  6
CONTINUOUS
  0
LAYER
  5
108
330
2
100
AcDbSymbolTableRecord
100
AcDbLayerTableRecord
  2
207
 70
     0
 62
   207
  6
CONTINUOUS
  0
LAYER
  5
109
330
2
100
AcDbSymbolTableRecord
100
AcDbLayerTableRecord
  2
208
 70
     0
 62
   208
  6
CONTINUOUS
  0
LAYER
  5
10A
330
2
100
AcDbSymbolTableRecord
100
AcDbLayerTableRecord
  2
209
 70
     0
 62
   209
  6
CONTINUOUS
  0
LAYER
  5
10B
330
2
100
AcDbSymbolTableRecord
100
AcDbLayerTableRecord
  2
210
 70
     0
 62
   210
  6
CONTINUOUS
  0
LAYER
  5
10C
330
2
100
AcDbSymbolTableRecord
100
AcDbLayerTableRecord
  2
211
 70
     0
 62
   211
  6
CONTINUOUS
  0
LAYER
  5
10D
330
2
100
AcDbSymbolTableRecord
100
AcDbLayerTableRecord
  2
212
 70
     0
 62
   212
  6
CONTINUOUS
  0
LAYER
  5
10E
330
2
100
AcDbSymbolTableRecord
100
AcDbLayerTableRecord
  2
213
 70
     0
 62
   213
  6
CONTINUOUS
  0
LAYER
  5
10F
330
2
100
AcDbSymbolTableRecord
100
AcDbLayerTableRecord
  2
214
 70
     0
 62
   214
  6
CONTINUOUS
  0
LAYER
  5
110
330
2
100
AcDbSymbolTableRecord
100
AcDbLayerTableRecord
  2
215
 70
     0
 62
   215
  6
CONTINUOUS
  0
LAYER
  5
111
330
2
100
AcDbSymbolTableRecord
100
AcDbLayerTableRecord
  2
216
 70
     0
 62
   216
  6
CONTINUOUS
  0
LAYER
  5
112
330
2
100
AcDbSymbolTableRecord
100
AcDbLayerTableRecord
  2
217
 70
     0
 62
   217
  6
CONTINUOUS
  0
LAYER
  5
113
330
2
100
AcDbSymbolTableRecord
100
AcDbLayerTableRecord
  2
218
 70
     0
 62
   218
  6
CONTINUOUS
  0
LAYER
  5
114
330
2
100
AcDbSymbolTableRecord
100
AcDbLayerTableRecord
  2
219
 70
     0
 62
   219
  6
CONTINUOUS
  0
LAYER
  5
115
330
2
100
AcDbSymbolTableRecord
100
AcDbLayerTableRecord
  2
220
 70
     0
 62
   220
  6
CONTINUOUS
  0
LAYER
  5
116
330
2
100
AcDbSymbolTableRecord
100
AcDbLayerTableRecord
  2
221
 70
     0
 62
   221
  6
CONTINUOUS
  0
LAYER
  5
117
330
2
100
AcDbSymbolTableRecord
100
AcDbLayerTableRecord
  2
222
 70
     0
 62
   222
  6
CONTINUOUS
  0
LAYER
  5
118
330
2
100
AcDbSymbolTableRecord
100
AcDbLayerTableRecord
  2
223
 70
     0
 62
   223
  6
CONTINUOUS
  0
LAYER
  5
119
330
2
100
AcDbSymbolTableRecord
100
AcDbLayerTableRecord
  2
224
 70
     0
 62
   224
  6
CONTINUOUS
  0
LAYER
  5
11A
330
2
100
AcDbSymbolTableRecord
100
AcDbLayerTableRecord
  2
225
 70
     0
 62
   225
  6
CONTINUOUS
  0
LAYER
  5
11B
330
2
100
AcDbSymbolTableRecord
100
AcDbLayerTableRecord
  2
226
 70
     0
 62
   226
  6
CONTINUOUS
  0
LAYER
  5
11C
330
2
100
AcDbSymbolTableRecord
100
AcDbLayerTableRecord
  2
227
 70
     0
 62
   227
  6
CONTINUOUS
  0
LAYER
  5
11D
330
2
100
AcDbSymbolTableRecord
100
AcDbLayerTableRecord
  2
228
 70
     0
 62
   228
  6
CONTINUOUS
  0
LAYER
  5
11E
330
2
100
AcDbSymbolTableRecord
100
AcDbLayerTableRecord
  2
229
 70
     0
 62
   229
  6
CONTINUOUS
  0
LAYER
  5
11F
330
2
100
AcDbSymbolTableRecord
100
AcDbLayerTableRecord
  2
230
 70
     0
 62
   230
  6
CONTINUOUS
  0
LAYER
  5
120
330
2
100
AcDbSymbolTableRecord
100
AcDbLayerTableRecord
  2
231
 70
     0
 62
   231
  6
CONTINUOUS
  0
LAYER
  5
121
330
2
100
AcDbSymbolTableRecord
100
AcDbLayerTableRecord
  2
232
 70
     0
 62
   232
  6
CONTINUOUS
  0
LAYER
  5
122
330
2
100
AcDbSymbolTableRecord
100
AcDbLayerTableRecord
  2
233
 70
     0
 62
   233
  6
CONTINUOUS
  0
LAYER
  5
123
330
2
100
AcDbSymbolTableRecord
100
AcDbLayerTableRecord
  2
234
 70
     0
 62
   234
  6
CONTINUOUS
  0
LAYER
  5
124
330
2
100
AcDbSymbolTableRecord
100
AcDbLayerTableRecord
  2
235
 70
     0
 62
   235
  6
CONTINUOUS
  0
LAYER
  5
125
330
2
100
AcDbSymbolTableRecord
100
AcDbLayerTableRecord
  2
236
 70
     0
 62
   236
  6
CONTINUOUS
  0
LAYER
  5
126
330
2
100
AcDbSymbolTableRecord
100
AcDbLayerTableRecord
  2
237
 70
     0
 62
   237
  6
CONTINUOUS
  0
LAYER
  5
127
330
2
100
AcDbSymbolTableRecord
100
AcDbLayerTableRecord
  2
238
 70
     0
 62
   238
  6
CONTINUOUS
  0
LAYER
  5
128
330
2
100
AcDbSymbolTableRecord
100
AcDbLayerTableRecord
  2
239
 70
     0
 62
   239
  6
CONTINUOUS
  0
LAYER
  5
129
330
2
100
AcDbSymbolTableRecord
100
AcDbLayerTableRecord
  2
240
 70
     0
 62
   240
  6
CONTINUOUS
  0
LAYER
  5
12A
330
2
100
AcDbSymbolTableRecord
100
AcDbLayerTableRecord
  2
241
 70
     0
 62
   241
  6
CONTINUOUS
  0
LAYER
  5
12B
330
2
100
AcDbSymbolTableRecord
100
AcDbLayerTableRecord
  2
242
 70
     0
 62
   242
  6
CONTINUOUS
  0
LAYER
  5
12C
330
2
100
AcDbSymbolTableRecord
100
AcDbLayerTableRecord
  2
243
 70
     0
 62
   243
  6
CONTINUOUS
  0
LAYER
  5
12D
330
2
100
AcDbSymbolTableRecord
100
AcDbLayerTableRecord
  2
244
 70
     0
 62
   244
  6
CONTINUOUS
  0
LAYER
  5
12E
330
2
100
AcDbSymbolTableRecord
100
AcDbLayerTableRecord
  2
245
 70
     0
 62
   245
  6
CONTINUOUS
  0
LAYER
  5
12F
330
2
100
AcDbSymbolTableRecord
100
AcDbLayerTableRecord
  2
246
 70
     0
 62
   246
  6
CONTINUOUS
  0
LAYER
  5
130
330
2
100
AcDbSymbolTableRecord
100
AcDbLayerTableRecord
  2
247
 70
     0
 62
   247
  6
CONTINUOUS
  0
LAYER
  5
131
330
2
100
AcDbSymbolTableRecord
100
AcDbLayerTableRecord
  2
248
 70
     0
 62
   248
  6
CONTINUOUS
  0
LAYER
  5
132
330
2
100
AcDbSymbolTableRecord
100
AcDbLayerTableRecord
  2
249
 70
     0
 62
   249
  6
CONTINUOUS
  0
LAYER
  5
133
330
2
100
AcDbSymbolTableRecord
100
AcDbLayerTableRecord
  2
250
 70
     0
 62
   250
  6
CONTINUOUS
  0
LAYER
  5
134
330
2
100
AcDbSymbolTableRecord
100
AcDbLayerTableRecord
  2
251
 70
     0
 62
   251
  6
CONTINUOUS
  0
LAYER
  5
135
330
2
100
AcDbSymbolTableRecord
100
AcDbLayerTableRecord
  2
252
 70
     0
 62
   252
  6
CONTINUOUS
  0
LAYER
  5
136
330
2
100
AcDbSymbolTableRecord
100
AcDbLayerTableRecord
  2
253
 70
     0
 62
   253
  6
CONTINUOUS
  0
LAYER
  5
137
330
2
100
AcDbSymbolTableRecord
100
AcDbLayerTableRecord
  2
254
 70
     0
 62
   254
  6
CONTINUOUS
  0
LAYER
  5
138
330
2
100
AcDbSymbolTableRecord
100
AcDbLayerTableRecord
  2
255
 70
     0
 62
   255
  6
CONTINUOUS
  0
LAYER
  5
35AA
330
2
100
AcDbSymbolTableRecord
100
AcDbLayerTableRecord
  2
DEFPOINTS
 70
     0
 62
     7
  6
CONTINUOUS
  0
ENDTAB
  0
TABLE
  2
STYLE
  5
3
330
0
100
AcDbSymbolTable
 70
     1
  0
STYLE
  5
11
330
3
100
AcDbSymbolTableRecord
100
AcDbTextStyleTableRecord
  2
STANDARD
 70
     0
 40
0.0
 41
1.0
 50
0.0
 71
     0
 42
0.2
  3
monotxt
  4

  0
ENDTAB
  0
TABLE
  2
VIEW
  5
6
330
0
100
AcDbSymbolTable
 70
     0
  0
ENDTAB
  0
TABLE
  2
UCS
  5
7
330
0
100
AcDbSymbolTable
 70
     0
  0
ENDTAB
  0
TABLE
  2
APPID
  5
9
330
0
100
AcDbSymbolTable
 70
     1
  0
APPID
  5
12
330
9
100
AcDbSymbolTableRecord
100
AcDbRegAppTableRecord
  2
ACAD
 70
     0
  0
ENDTAB
  0
TABLE
  2
DIMSTYLE
  5
A
330
0
100
AcDbSymbolTable
 70
     1
  0
DIMSTYLE
105
2DB7
102
{ACAD_REACTORS
330
35A9
102
}
330
A
100
AcDbSymbolTableRecord
100
AcDbDimStyleTableRecord
  2
STANDARD
 70
     0
  3

  4

  5

  6

  7

 40
1.0
 41
0.18
 42
0.0625
 43
0.38
 44
0.18
 45
0.0
 46
0.0
 47
0.0
 48
0.0
140
0.18
141
0.09
142
0.0
143
25.4
144
1.0
145
0.0
146
1.0
147
0.09
 71
     0
 72
     0
 73
     1
 74
     1
 75
     0
 76
     0
 77
     0
 78
     0
170
     0
171
     2
172
     0
173
     0
174
     0
175
     0
176
     0
177
     0
178
     0
270
     2
271
     4
272
     4
273
     2
274
     2
340
11
275
     0
280
     0
281
     0
282
     0
283
     1
284
     0
285
     0
286
     0
287
     3
288
     0
  0
ENDTAB
  0
TABLE
  2
BLOCK_RECORD
  5
1
330
0
100
AcDbSymbolTable
 70
     1
  0
BLOCK_RECORD
  5
1E
102
{ACAD_XDICTIONARY
360
35C5
102
}
330
1
100
AcDbSymbolTableRecord
100
AcDbBlockTableRecord
  2
*MODEL_SPACE
  0
BLOCK_RECORD
  5
1A
102
{ACAD_XDICTIONARY
360
35C3
102
}
330
1
100
AcDbSymbolTableRecord
100
AcDbBlockTableRecord
  2
*PAPER_SPACE
  0
BLOCK_RECORD
  5
35AB
330
1
100
AcDbSymbolTableRecord
100
AcDbBlockTableRecord
  2
*D0
  0
ENDTAB
  0
ENDSEC
  0
SECTION
  2
BLOCKS
  0
BLOCK
  5
13B
330
1E
100
AcDbEntity
  8
0
100
AcDbBlockBegin
  2
*MODEL_SPACE
 70
     0
 10
0.0
 20
0.0
 30
0.0
  3
*MODEL_SPACE
  1

  0
ENDBLK
  5
13C
330
1E
100
AcDbEntity
  8
0
100
AcDbBlockEnd
  0
BLOCK
  5
139
330
1A
100
AcDbEntity
 67
     1
  8
0
100
AcDbBlockBegin
  2
*PAPER_SPACE
 70
     0
 10
0.0
 20
0.0
 30
0.0
  3
*PAPER_SPACE
  1

  0
ENDBLK
  5
13A
330
1A
100
AcDbEntity
 67
     1
  8
0
100
AcDbBlockEnd
  0
BLOCK
  5
35B6
330
35AB
100
AcDbEntity
  8
0
100
AcDbBlockBegin
  2
*D0
 70
     1
 10
0.0
 20
0.0
 30
0.0
  3
*D0
  1

  0
LINE
  5
35B8
330
35AB
100
AcDbEntity
  8
0
 62
     0
100
AcDbLine
 10
3.032535256634384
 20
10.0340630244536
 30
0.0
 11
3.032535256634384
 21
11.12708736152992
 31
0.0
  0
LINE
  5
35B9
330
35AB
100
AcDbEntity
  8
0
 62
     0
100
AcDbLine
 10
12.03255325663438
 20
10.0340630244536
 30
0.0
 11
12.03255325663438
 21
11.12708736152992
 31
0.0
  0
LINE
  5
35BA
330
35AB
100
AcDbEntity
  8
0
 62
     0
100
AcDbLine
 10
3.212535256634384
 20
10.94708736152992
 30
0.0
 11
6.932544256634384
 21
10.94708736152992
 31
0.0
  0
LINE
  5
35BB
330
35AB
100
AcDbEntity
  8
0
 62
     0
100
AcDbLine
 10
11.85255325663438
 20
10.94708736152992
 30
0.0
 11
8.132544256634384
 21
10.94708736152992
 31
0.0
  0
SOLID
  5
35BC
330
35AB
100
AcDbEntity
  8
0
 62
     0
100
AcDbTrace
 10
3.212535256634384
 20
10.97708736152992
 30
0.0
 11
3.212535256634384
 21
10.91708736152992
 31
0.0
 12
3.032535256634384
 22
10.94708736152992
 32
0.0
 13
3.032535256634384
 23
10.94708736152992
 33
0.0
  0
SOLID
  5
35BD
330
35AB
100
AcDbEntity
  8
0
 62
     0
100
AcDbTrace
 10
11.85255325663438
 20
10.97708736152992
 30
0.0
 11
11.85255325663438
 21
10.91708736152992
 31
0.0
 12
12.03255325663438
 22
10.94708736152992
 32
0.0
 13
12.03255325663438
 23
10.94708736152992
 33
0.0
  0
MTEXT
  5
35BE
330
35AB
100
AcDbEntity
  8
0
 62
     0
100
AcDbMText
 10
7.532544256634384
 20
10.94708736152992
 30
0.0
 40
0.18
 41
0.0
 71
     5
 72
     1
  1
\A1;9.0000
1001
ACAD
1000
MTEXTBEGIN
1070
    73
1070
     1
1070
    44
1040
1.0
1070
    74
1070
     0
1000
MTEXTEND
  0
POINT
  5
35BF
330
35AB
100
AcDbEntity
  8
DEFPOINTS
 62
     0
100
AcDbPoint
 10
3.032535256634384
 20
9.971563024453608
 30
0.0
  0
POINT
  5
35C0
330
35AB
100
AcDbEntity
  8
DEFPOINTS
 62
     0
100
AcDbPoint
 10
12.03255325663438
 20
9.971563024453608
 30
0.0
  0
POINT
  5
35C1
330
35AB
100
AcDbEntity
  8
DEFPOINTS
 62
     0
100
AcDbPoint
 10
12.03255325663438
 20
10.94708736152992
 30
0.0
  0
ENDBLK
  5
35B7
330
35AB
100
AcDbEntity
  8
0
100
AcDbBlockEnd
  0
ENDSEC
  0
SECTION
  2
ENTITIES
  0
LINE
  5
2B57
330
1E
100
AcDbEntity
  8
7
100
AcDbLine
 10
11.78224025600938
 20
9.783125147578612
 30
0.0
 11
11.78224025600938
 21
8.658122897578614
 31
0.0
  0
LINE
  5
2B5E
330
1E
100
AcDbEntity
  8
7
100
AcDbLine
 10
9.248172687884379
 20
8.534372650078612
 30
0.0
 11
11.65849000850937
 21
8.534372650078612
 31
0.0
  0
LINE
  5
2B65
330
1E
100
AcDbEntity
  8
7
100
AcDbLine
 10
9.121609934759376
 20
9.783125147578612
 30
0.0
 11
9.121609934759376
 21
8.658122897578614
 31
0.0
  0
LINE
  5
2B6C
330
1E
100
AcDbEntity
  8
7
100
AcDbLine
 10
9.248172687884379
 20
9.909687900703612
 30
0.0
 11
11.65849000850937
 21
9.909687900703612
 31
0.0
  0
LINE
  5
2B73
330
1E
100
AcDbEntity
  8
7
100
AcDbLine
 10
5.943478578509381
 20
9.783125147578612
 30
0.0
 11
5.943478578509381
 21
8.658122897578614
 31
0.0
  0
LINE
  5
2B7A
330
1E
100
AcDbEntity
  8
7
100
AcDbLine
 10
3.40659850475938
 20
8.534372650078612
 30
0.0
 11
5.81691582538438
 21
8.534372650078612
 31
0.0
  0
LINE
  5
2B80
330
1E
100
AcDbEntity
  8
7
100
AcDbLine
 10
3.344723381009384
 20
8.551247683828608
 30
0.0
 11
3.40659850475938
 21
8.534372650078612
 31
0.0
  0
LINE
  5
2B81
330
1E
100
AcDbEntity
  8
7
100
AcDbLine
 10
3.282848257259383
 20
9.783125147578612
 30
0.0
 11
3.282848257259383
 21
8.658122897578614
 31
0.0
  0
LINE
  5
2B88
330
1E
100
AcDbEntity
  8
7
100
AcDbLine
 10
3.40659850475938
 20
9.909687900703612
 30
0.0
 11
5.81691582538438
 21
9.909687900703612
 31
0.0
  0
LINE
  5
2B8F
330
1E
100
AcDbEntity
  8
7
100
AcDbLine
 10
8.862859417259382
 20
9.783125147578612
 30
0.0
 11
8.862859417259382
 21
8.658122897578614
 31
0.0
  0
LINE
  5
2B96
330
1E
100
AcDbEntity
  8
7
100
AcDbLine
 10
6.32879184913438
 20
8.534372650078612
 30
0.0
 11
8.73910916975938
 21
8.534372650078612
 31
0.0
  0
LINE
  5
2B9D
330
1E
100
AcDbEntity
  8
7
100
AcDbLine
 10
6.202229096009384
 20
9.783125147578612
 30
0.0
 11
6.202229096009384
 21
8.658122897578614
 31
0.0
  0
LINE
  5
2BA4
330
1E
100
AcDbEntity
  8
7
100
AcDbLine
 10
6.32879184913438
 20
9.909687900703612
 30
0.0
 11
8.73910916975938
 21
9.909687900703612
 31
0.0
  0
LINE
  5
2BB5
330
1E
100
AcDbEntity
  8
7
100
AcDbLine
 10
12.03255325663438
 20
8.469685020703616
 30
0.0
 11
12.03255325663438
 21
9.97156302445361
 31
0.0
  0
LINE
  5
2BC1
330
1E
100
AcDbEntity
  8
7
100
AcDbLine
 10
3.094410380384379
 20
9.97156302445361
 30
0.0
 11
3.04941029038438
 21
9.97156302445361
 31
0.0
  0
LINE
  5
2BC2
330
1E
100
AcDbEntity
  8
7
100
AcDbLine
 10
3.04941029038438
 20
9.97156302445361
 30
0.0
 11
3.032535256634384
 21
9.97156302445361
 31
0.0
  0
LINE
  5
2BC9
330
1E
100
AcDbEntity
  8
7
100
AcDbLine
 10
3.032535256634384
 20
9.97156302445361
 30
0.0
 11
3.032535256634384
 21
8.469685020703616
 31
0.0
  0
LINE
  5
2BD5
330
1E
100
AcDbEntity
  8
7
100
AcDbLine
 10
11.96505312163438
 20
8.455622492578608
 30
0.0
 11
11.96786562725937
 21
8.45280998695361
 31
0.0
  0
LINE
  5
2BEB
330
1E
100
AcDbEntity
  8
7
100
AcDbLine
 10
11.28442676038438
 20
9.018123617578613
 30
0.0
 11
11.28442676038438
 21
9.220624022578608
 31
0.0
  0
LINE
  5
2BF8
330
1E
100
AcDbEntity
  8
7
100
AcDbLine
 10
11.50098969350938
 20
9.012498606328614
 30
0.0
 11
11.50098969350938
 21
9.220624022578608
 31
0.0
  0
LINE
  5
2BF9
330
1E
100
AcDbEntity
  8
7
100
AcDbLine
 10
11.03411375975937
 20
9.909687900703612
 30
0.0
 11
11.03411375975937
 21
8.534372650078612
 31
0.0
  0
LINE
  5
2C10
330
1E
100
AcDbEntity
  8
7
100
AcDbLine
 10
3.836911865384383
 20
8.978748538828611
 30
0.0
 11
3.780661752884381
 21
9.020936123203613
 31
0.0
  0
LINE
  5
2C11
330
1E
100
AcDbEntity
  8
7
100
AcDbLine
 10
3.564098819759379
 20
9.006873595078616
 30
0.0
 11
3.564098819759379
 21
9.220624022578608
 31
0.0
  0
LINE
  5
2C1B
330
1E
100
AcDbEntity
  8
7
100
AcDbLine
 10
3.783474258509381
 20
9.023748628828611
 30
0.0
 11
3.783474258509381
 21
9.220624022578608
 31
0.0
  0
LINE
  5
2C1C
330
1E
100
AcDbEntity
  8
7
100
AcDbLine
 10
4.030974753509379
 20
8.534372650078612
 30
0.0
 11
4.030974753509379
 21
9.909687900703612
 31
0.0
  0
LINE
  5
2C2C
330
1E
100
AcDbEntity
  8
7
100
AcDbLine
 10
11.91161551475938
 20
10.0221881257036
 30
0.0
 11
11.90880300913438
 21
10.03343814820361
 31
0.0
  0
LINE
  5
2C2D
330
1E
100
AcDbEntity
  8
7
100
AcDbLine
 10
11.90880300913438
 20
10.09531327195361
 30
0.0
 11
3.156285504134381
 21
10.09531327195361
 31
0.0
  0
LINE
  5
2C39
330
1E
100
AcDbEntity
  8
7
100
AcDbLine
 10
3.156285504134381
 20
8.41062240257861
 30
0.0
 11
3.156285504134381
 21
8.36280980695361
 31
0.0
  0
LINE
  5
2C3A
330
1E
100
AcDbEntity
  8
7
100
AcDbLine
 10
3.156285504134381
 20
8.36280980695361
 30
0.0
 11
3.156285504134381
 21
8.345934773203612
 31
0.0
  0
LINE
  5
2C41
330
1E
100
AcDbEntity
  8
7
100
AcDbLine
 10
3.156285504134381
 20
8.345934773203612
 30
0.0
 11
11.90880300913438
 21
8.345934773203612
 31
0.0
  0
LINE
  5
2C60
330
1E
100
AcDbEntity
  8
7
100
AcDbLine
 10
3.156285504134381
 20
8.41062240257861
 30
0.0
 11
3.046597784759381
 21
8.41062240257861
 31
0.0
  0
LINE
  5
2C7D
330
1E
100
AcDbEntity
  8
7
100
AcDbLine
 10
10.78098825350938
 20
14.17063392257861
 30
0.0
 11
10.93848856850938
 21
14.17063392257861
 31
0.0
  0
LINE
  5
2C7E
330
1E
100
AcDbEntity
  8
7
100
AcDbLine
 10
10.78098825350938
 20
14.17063392257861
 30
0.0
 11
10.78098825350938
 21
13.95125848382861
 31
0.0
  0
LINE
  5
2C7F
330
1E
100
AcDbEntity
  8
7
100
AcDbLine
 10
10.88223845600938
 20
13.95125848382861
 30
0.0
 11
10.78098825350938
 21
13.95125848382861
 31
0.0
  0
LINE
  5
2C80
330
1E
100
AcDbEntity
  8
7
100
AcDbLine
 10
10.88223845600938
 20
14.01875861882861
 30
0.0
 11
10.88223845600938
 21
13.95125848382861
 31
0.0
  0
LINE
  5
2C86
330
1E
100
AcDbEntity
  8
7
100
AcDbLine
 10
10.94130107413437
 20
13.95125848382861
 30
0.0
 11
10.97223863600938
 21
14.02719613570361
 31
0.0
  0
LINE
  5
2C87
330
1E
100
AcDbEntity
  8
7
100
AcDbLine
 10
10.99192617538437
 20
13.95125848382861
 30
0.0
 11
10.94130107413437
 21
13.95125848382861
 31
0.0
  0
LINE
  5
2C88
330
1E
100
AcDbEntity
  8
7
100
AcDbLine
 10
10.99192617538437
 20
13.95125848382861
 30
0.0
 11
11.00036369225938
 21
13.97375852882861
 31
0.0
  0
LINE
  5
2C89
330
1E
100
AcDbEntity
  8
7
100
AcDbLine
 10
11.06786382725938
 20
13.97375852882861
 30
0.0
 11
11.00036369225938
 21
13.97375852882861
 31
0.0
  0
LINE
  5
2C8A
330
1E
100
AcDbEntity
  8
7
100
AcDbLine
 10
11.07911384975937
 20
13.95125848382861
 30
0.0
 11
11.06786382725938
 21
13.97375852882861
 31
0.0
  0
LINE
  5
2C8B
330
1E
100
AcDbEntity
  8
7
100
AcDbLine
 10
11.07911384975937
 20
13.95125848382861
 30
0.0
 11
11.15786400725938
 21
13.95125848382861
 31
0.0
  0
LINE
  5
2C8C
330
1E
100
AcDbEntity
  8
7
100
AcDbLine
 10
11.15786400725938
 20
14.02157112445361
 30
0.0
 11
11.15786400725938
 21
13.95125848382861
 31
0.0
  0
LINE
  5
2C8D
330
1E
100
AcDbEntity
  8
7
100
AcDbLine
 10
11.18880156913438
 20
13.95125848382861
 30
0.0
 11
11.15786400725938
 21
14.02157112445361
 31
0.0
  0
LINE
  5
2C98
330
1E
100
AcDbEntity
  8
7
100
AcDbLine
 10
11.05661380475938
 20
14.12000882132861
 30
0.0
 11
11.11005141163438
 21
14.01032110195361
 31
0.0
  0
LINE
  5
2C99
330
1E
100
AcDbEntity
  8
7
100
AcDbLine
 10
11.05661380475938
 20
14.12000882132861
 30
0.0
 11
11.01161371475938
 21
14.12000882132861
 31
0.0
  0
LINE
  5
2CA0
330
1E
100
AcDbEntity
  8
7
100
AcDbLine
 10
10.90473850100937
 20
14.1312588438286
 30
0.0
 11
10.88223845600938
 21
14.1312588438286
 31
0.0
  0
LINE
  5
2CA1
330
1E
100
AcDbEntity
  8
7
100
AcDbLine
 10
10.91598852350938
 20
14.12000882132861
 30
0.0
 11
10.90473850100937
 21
14.1312588438286
 31
0.0
  0
LINE
  5
2CA2
330
1E
100
AcDbEntity
  8
7
100
AcDbLine
 10
10.91598852350938
 20
14.12000882132861
 30
0.0
 11
10.91598852350938
 21
14.06375870882861
 31
0.0
  0
LINE
  5
2CA3
330
1E
100
AcDbEntity
  8
7
100
AcDbLine
 10
10.90473850100937
 20
14.05532119195361
 30
0.0
 11
10.91598852350938
 21
14.06375870882861
 31
0.0
  0
LINE
  5
2CA4
330
1E
100
AcDbEntity
  8
7
100
AcDbLine
 10
10.90473850100937
 20
14.05532119195361
 30
0.0
 11
10.88223845600938
 21
14.05532119195361
 31
0.0
  0
LINE
  5
2CA5
330
1E
100
AcDbEntity
  8
7
100
AcDbLine
 10
10.88223845600938
 20
14.1312588438286
 30
0.0
 11
10.88223845600938
 21
14.05532119195361
 31
0.0
  0
LINE
  5
2CA6
330
1E
100
AcDbEntity
  8
7
100
AcDbLine
 10
11.65286499725938
 20
14.08344624820361
 30
0.0
 11
11.65286499725938
 21
14.12000882132861
 31
0.0
  0
LINE
  5
2CA7
330
1E
100
AcDbEntity
  8
7
100
AcDbLine
 10
11.77942775038438
 20
14.12000882132861
 30
0.0
 11
11.65286499725938
 21
14.12000882132861
 31
0.0
  0
LINE
  5
2CA8
330
1E
100
AcDbEntity
  8
7
100
AcDbLine
 10
11.77942775038438
 20
14.08344624820361
 30
0.0
 11
11.77942775038438
 21
14.12000882132861
 31
0.0
  0
LINE
  5
2CA9
330
1E
100
AcDbEntity
  8
7
100
AcDbLine
 10
11.74005267163438
 20
14.08344624820361
 30
0.0
 11
11.77942775038438
 21
14.08344624820361
 31
0.0
  0
LINE
  5
2CAA
330
1E
100
AcDbEntity
  8
7
100
AcDbLine
 10
11.74005267163438
 20
14.08344624820361
 30
0.0
 11
11.74005267163438
 21
13.95125848382861
 31
0.0
  0
LINE
  5
2CAB
330
1E
100
AcDbEntity
  8
7
100
AcDbLine
 10
11.68661506475938
 20
13.95125848382861
 30
0.0
 11
11.74005267163438
 21
13.95125848382861
 31
0.0
  0
LINE
  5
2CAC
330
1E
100
AcDbEntity
  8
7
100
AcDbLine
 10
11.68661506475938
 20
14.08344624820361
 30
0.0
 11
11.68661506475938
 21
13.95125848382861
 31
0.0
  0
LINE
  5
2CAD
330
1E
100
AcDbEntity
  8
7
100
AcDbLine
 10
11.68661506475938
 20
14.08344624820361
 30
0.0
 11
11.65286499725938
 21
14.08344624820361
 31
0.0
  0
LINE
  5
2CAE
330
1E
100
AcDbEntity
  8
7
100
AcDbLine
 10
11.90317799788438
 20
13.77969564070361
 30
0.0
 11
3.147847987259383
 21
13.77969564070361
 31
0.0
  0
LINE
  5
2CAF
330
1E
100
AcDbEntity
  8
7
100
AcDbLine
 10
11.96224061600938
 20
13.90344588820361
 30
0.0
 11
11.96224061600938
 21
13.79657067445361
 31
0.0
  0
LINE
  5
2CC3
330
1E
100
AcDbEntity
  8
7
100
AcDbLine
 10
11.90317799788438
 20
13.77969564070361
 30
0.0
 11
11.92005303163438
 21
13.78250814632861
 31
0.0
  0
LINE
  5
2CC4
330
1E
100
AcDbEntity
  8
7
100
AcDbLine
 10
12.02692824538438
 20
13.90344588820361
 30
0.0
 11
12.02692824538438
 21
16.15626289382861
 31
0.0
  0
LINE
  5
2CC5
330
1E
100
AcDbEntity
  8
7
100
AcDbLine
 10
11.96224061600938
 20
13.90344588820361
 30
0.0
 11
11.96224061600938
 21
16.15626289382861
 31
0.0
  0
LINE
  5
2CDE
330
1E
100
AcDbEntity
  8
7
100
AcDbLine
 10
3.088785369134381
 20
13.90344588820361
 30
0.0
 11
3.088785369134381
 21
16.15626289382861
 31
0.0
  0
LINE
  5
2CDF
330
1E
100
AcDbEntity
  8
7
100
AcDbLine
 10
3.02691024538438
 20
13.90344588820361
 30
0.0
 11
3.02691024538438
 21
16.15626289382861
 31
0.0
  0
LINE
  5
2CEB
330
1E
100
AcDbEntity
  8
7
100
AcDbLine
 10
11.90317799788438
 20
16.28001314132861
 30
0.0
 11
11.08755136663437
 21
16.28001314132861
 31
0.0
  0
LINE
  5
2CEC
330
1E
100
AcDbEntity
  8
7
100
AcDbLine
 10
11.90317799788438
 20
16.21813801757861
 30
0.0
 11
11.08755136663437
 21
16.21813801757861
 31
0.0
  0
LINE
  5
2CF7
330
1E
100
AcDbEntity
  8
7
100
AcDbLine
 10
11.02567624288438
 20
16.21813801757861
 30
0.0
 11
11.02567624288438
 21
16.28001314132861
 31
0.0
  0
LINE
  5
2D03
330
1E
100
AcDbEntity
  8
7
100
AcDbLine
 10
3.147847987259383
 20
16.21813801757861
 30
0.0
 11
3.96628712413438
 21
16.21813801757861
 31
0.0
  0
LINE
  5
2D04
330
1E
100
AcDbEntity
  8
7
100
AcDbLine
 10
3.147847987259383
 20
16.28001314132861
 30
0.0
 11
3.96628712413438
 21
16.28001314132861
 31
0.0
  0
LINE
  5
2D0A
330
1E
100
AcDbEntity
  8
7
100
AcDbLine
 10
3.96628712413438
 20
16.28001314132861
 30
0.0
 11
4.00847470850938
 21
16.28001314132861
 31
0.0
  0
LINE
  5
2D36
330
1E
100
AcDbEntity
  8
7
100
AcDbLine
 10
3.147847987259383
 20
13.90344588820361
 30
0.0
 11
3.147847987259383
 21
14.28032164195361
 31
0.0
  0
LINE
  5
2D4F
330
1E
100
AcDbEntity
  8
7
100
AcDbLine
 10
11.90317799788438
 20
16.15626289382861
 30
0.0
 11
11.52630224413437
 21
16.15626289382861
 31
0.0
  0
LINE
  5
2D50
330
1E
100
AcDbEntity
  8
7
100
AcDbLine
 10
11.90317799788438
 20
14.34219676570361
 30
0.0
 11
11.52630224413437
 21
14.34219676570361
 31
0.0
  0
LINE
  5
2D64
330
1E
100
AcDbEntity
  8
7
100
AcDbLine
 10
11.52630224413437
 20
16.15626289382861
 30
0.0
 11
11.52630224413437
 21
14.34219676570361
 31
0.0
  0
LINE
  5
2D75
330
1E
100
AcDbEntity
  8
7
100
AcDbLine
 10
3.147847987259383
 20
14.34219676570361
 30
0.0
 11
3.524723741009383
 21
14.34219676570361
 31
0.0
  0
LINE
  5
2D76
330
1E
100
AcDbEntity
  8
7
100
AcDbLine
 10
3.147847987259383
 20
16.15626289382861
 30
0.0
 11
3.524723741009383
 21
16.15626289382861
 31
0.0
  0
LINE
  5
2D8A
330
1E
100
AcDbEntity
  8
7
100
AcDbLine
 10
3.524723741009383
 20
14.34219676570361
 30
0.0
 11
3.524723741009383
 21
16.15626289382861
 31
0.0
  0
LINE
  5
2D90
330
1E
100
AcDbEntity
  8
7
100
AcDbLine
 10
11.62192743538437
 20
14.12000882132861
 30
0.0
 11
11.62192743538437
 21
13.95125848382861
 31
0.0
  0
LINE
  5
2D91
330
1E
100
AcDbEntity
  8
7
100
AcDbLine
 10
11.62192743538437
 20
14.12000882132861
 30
0.0
 11
11.57692734538437
 21
14.12000882132861
 31
0.0
  0
LINE
  5
2D9A
330
1E
100
AcDbEntity
  8
7
100
AcDbLine
 10
11.51786472725938
 20
13.95125848382861
 30
0.0
 11
11.45598960350938
 21
13.95125848382861
 31
0.0
  0
LINE
  5
2DA3
330
1E
100
AcDbEntity
  8
7
100
AcDbLine
 10
11.50380219913438
 20
13.98782105695361
 30
0.0
 11
11.51223971600938
 21
13.99625857382861
 31
0.0
  0
LINE
  5
2DA4
330
1E
100
AcDbEntity
  8
7
100
AcDbLine
 10
11.50380219913438
 20
13.98782105695361
 30
0.0
 11
11.48973967100937
 21
13.98782105695361
 31
0.0
  0
LINE
  5
2DA5
330
1E
100
AcDbEntity
  8
7
100
AcDbLine
 10
11.48130215413438
 20
13.99625857382861
 30
0.0
 11
11.48973967100937
 21
13.98782105695361
 31
0.0
  0
LINE
  5
2DB1
330
1E
100
AcDbEntity
  8
7
100
AcDbLine
 10
11.33786436725938
 20
13.98782105695361
 30
0.0
 11
11.32098933350938
 21
13.98782105695361
 31
0.0
  0
LINE
  5
2DB2
330
1E
100
AcDbEntity
  8
7
100
AcDbLine
 10
11.32098933350938
 20
14.08344624820361
 30
0.0
 11
11.32098933350938
 21
13.98782105695361
 31
0.0
  0
LINE
  5
2DB3
330
1E
100
AcDbEntity
  8
7
100
AcDbLine
 10
11.33786436725938
 20
14.08344624820361
 30
0.0
 11
11.32098933350938
 21
14.08344624820361
 31
0.0
  0
LINE
  5
2DB4
330
1E
100
AcDbEntity
  8
7
100
AcDbLine
 10
11.34630188413437
 20
14.07500873132861
 30
0.0
 11
11.33786436725938
 21
14.08344624820361
 31
0.0
  0
LINE
  5
2DB5
330
1E
100
AcDbEntity
  8
7
100
AcDbLine
 10
11.34630188413437
 20
13.99625857382861
 30
0.0
 11
11.34630188413437
 21
14.07500873132861
 31
0.0
  0
LINE
  5
2DB6
330
1E
100
AcDbEntity
  8
7
100
AcDbLine
 10
11.33786436725938
 20
13.98782105695361
 30
0.0
 11
11.34630188413437
 21
13.99625857382861
 31
0.0
  0
LINE
  5
2DBE
330
1E
100
AcDbEntity
  8
7
100
AcDbLine
 10
11.39692698538437
 20
14.0890712594536
 30
0.0
 11
11.38848946850938
 21
14.10875879882861
 31
0.0
  0
LINE
  5
2DBF
330
1E
100
AcDbEntity
  8
7
100
AcDbLine
 10
11.38848946850938
 20
14.10875879882861
 30
0.0
 11
11.36598942350938
 21
14.12000882132861
 31
0.0
  0
LINE
  5
2DC0
330
1E
100
AcDbEntity
  8
7
100
AcDbLine
 10
11.36598942350938
 20
14.12000882132861
 30
0.0
 11
11.26755172663438
 21
14.12000882132861
 31
0.0
  0
LINE
  5
2DC1
330
1E
100
AcDbEntity
  8
7
100
AcDbLine
 10
11.26755172663438
 20
14.12000882132861
 30
0.0
 11
11.26755172663438
 21
13.95125848382861
 31
0.0
  0
LINE
  5
2DC2
330
1E
100
AcDbEntity
  8
7
100
AcDbLine
 10
11.26755172663438
 20
13.95125848382861
 30
0.0
 11
11.36598942350938
 21
13.95125848382861
 31
0.0
  0
LINE
  5
2DC3
330
1E
100
AcDbEntity
  8
7
100
AcDbLine
 10
11.36598942350938
 20
13.95125848382861
 30
0.0
 11
11.38848946850938
 21
13.95969600070361
 31
0.0
  0
LINE
  5
2DC4
330
1E
100
AcDbEntity
  8
7
100
AcDbLine
 10
11.38848946850938
 20
13.95969600070361
 30
0.0
 11
11.39692698538437
 21
13.97938354007861
 31
0.0
  0
LINE
  5
2DC5
330
1E
100
AcDbEntity
  8
7
100
AcDbLine
 10
11.39692698538437
 20
13.97938354007861
 30
0.0
 11
11.39692698538437
 21
14.0890712594536
 31
0.0
  0
LINE
  5
2DC6
330
1E
100
AcDbEntity
  8
7
100
AcDbLine
 10
11.51786472725938
 20
13.95125848382861
 30
0.0
 11
11.53755226663438
 21
13.95969600070361
 31
0.0
  0
LINE
  5
2DC7
330
1E
100
AcDbEntity
  8
7
100
AcDbLine
 10
11.53755226663438
 20
13.95969600070361
 30
0.0
 11
11.54880228913438
 21
13.97938354007861
 31
0.0
  0
LINE
  5
2DC8
330
1E
100
AcDbEntity
  8
7
100
AcDbLine
 10
11.54880228913438
 20
13.97938354007861
 30
0.0
 11
11.54880228913438
 21
14.12000882132861
 31
0.0
  0
LINE
  5
2DC9
330
1E
100
AcDbEntity
  8
7
100
AcDbLine
 10
11.54880228913438
 20
14.12000882132861
 30
0.0
 11
11.51223971600938
 21
14.12000882132861
 31
0.0
  0
LINE
  5
2DCA
330
1E
100
AcDbEntity
  8
7
100
AcDbLine
 10
11.51223971600938
 20
14.12000882132861
 30
0.0
 11
11.51223971600938
 21
13.99625857382861
 31
0.0
  0
LINE
  5
2DCB
330
1E
100
AcDbEntity
  8
7
100
AcDbLine
 10
11.48130215413438
 20
13.99625857382861
 30
0.0
 11
11.48130215413438
 21
14.12000882132861
 31
0.0
  0
LINE
  5
2DCC
330
1E
100
AcDbEntity
  8
7
100
AcDbLine
 10
11.48130215413438
 20
14.12000882132861
 30
0.0
 11
11.42505204163438
 21
14.12000882132861
 31
0.0
  0
LINE
  5
2DCD
330
1E
100
AcDbEntity
  8
7
100
AcDbLine
 10
11.42505204163438
 20
14.12000882132861
 30
0.0
 11
11.42505204163438
 21
13.97938354007861
 31
0.0
  0
LINE
  5
2DCE
330
1E
100
AcDbEntity
  8
7
100
AcDbLine
 10
11.42505204163438
 20
13.97938354007861
 30
0.0
 11
11.43348955850937
 21
13.95969600070361
 31
0.0
  0
LINE
  5
2DCF
330
1E
100
AcDbEntity
  8
7
100
AcDbLine
 10
11.43348955850937
 20
13.95969600070361
 30
0.0
 11
11.45598960350938
 21
13.95125848382861
 31
0.0
  0
LINE
  5
2DD0
330
1E
100
AcDbEntity
  8
7
100
AcDbLine
 10
11.57692734538437
 20
14.12000882132861
 30
0.0
 11
11.57692734538437
 21
13.95125848382861
 31
0.0
  0
LINE
  5
2DD1
330
1E
100
AcDbEntity
  8
7
100
AcDbLine
 10
11.57692734538437
 20
13.95125848382861
 30
0.0
 11
11.62192743538437
 21
13.95125848382861
 31
0.0
  0
LINE
  5
2DD2
330
1E
100
AcDbEntity
  8
7
100
AcDbLine
 10
3.322223336009384
 20
15.35751129632861
 30
0.0
 11
3.27441074038438
 21
15.3378237569536
 31
0.0
  0
LINE
  5
2DD3
330
1E
100
AcDbEntity
  8
7
100
AcDbLine
 10
3.27441074038438
 20
15.3378237569536
 30
0.0
 11
3.240660672884382
 21
15.30126118382861
 31
0.0
  0
LINE
  5
2DD4
330
1E
100
AcDbEntity
  8
7
100
AcDbLine
 10
3.240660672884382
 20
15.30126118382861
 30
0.0
 11
3.229410650384379
 21
15.2506360825786
 31
0.0
  0
LINE
  5
2DD5
330
1E
100
AcDbEntity
  8
7
100
AcDbLine
 10
3.229410650384379
 20
15.2506360825786
 30
0.0
 11
3.240660672884382
 21
15.2000109813286
 31
0.0
  0
LINE
  5
2DD6
330
1E
100
AcDbEntity
  8
7
100
AcDbLine
 10
3.240660672884382
 20
15.2000109813286
 30
0.0
 11
3.27441074038438
 21
15.16344840820361
 31
0.0
  0
LINE
  5
2DD7
330
1E
100
AcDbEntity
  8
7
100
AcDbLine
 10
3.27441074038438
 20
15.16344840820361
 30
0.0
 11
3.322223336009384
 21
15.14376086882861
 31
0.0
  0
LINE
  5
2DD8
330
1E
100
AcDbEntity
  8
7
100
AcDbLine
 10
3.322223336009384
 20
15.14376086882861
 30
0.0
 11
3.372848437259382
 21
15.1493858800786
 31
0.0
  0
LINE
  5
2DD9
330
1E
100
AcDbEntity
  8
7
100
AcDbLine
 10
3.372848437259382
 20
15.1493858800786
 30
0.0
 11
3.415036021634383
 21
15.18032344195361
 31
0.0
  0
LINE
  5
2DDA
330
1E
100
AcDbEntity
  8
7
100
AcDbLine
 10
3.415036021634383
 20
15.18032344195361
 30
0.0
 11
3.440348572259383
 21
15.22532353195361
 31
0.0
  0
LINE
  5
2DDB
330
1E
100
AcDbEntity
  8
7
100
AcDbLine
 10
3.440348572259383
 20
15.22532353195361
 30
0.0
 11
3.440348572259383
 21
15.27594863320361
 31
0.0
  0
LINE
  5
2DDC
330
1E
100
AcDbEntity
  8
7
100
AcDbLine
 10
3.440348572259383
 20
15.27594863320361
 30
0.0
 11
3.415036021634383
 21
15.32094872320361
 31
0.0
  0
LINE
  5
2DDD
330
1E
100
AcDbEntity
  8
7
100
AcDbLine
 10
3.415036021634383
 20
15.32094872320361
 30
0.0
 11
3.372848437259382
 21
15.35188628507861
 31
0.0
  0
LINE
  5
2DDE
330
1E
100
AcDbEntity
  8
7
100
AcDbLine
 10
3.372848437259382
 20
15.35188628507861
 30
0.0
 11
3.322223336009384
 21
15.35751129632861
 31
0.0
  0
LINE
  5
2DDF
330
1E
100
AcDbEntity
  8
7
100
AcDbLine
 10
3.088785369134381
 20
14.28313414757861
 30
0.0
 11
3.088785369134381
 21
14.30282168695361
 31
0.0
  0
LINE
  5
2DE0
330
1E
100
AcDbEntity
  8
7
100
AcDbLine
 10
3.088785369134381
 20
14.30282168695361
 30
0.0
 11
3.09159787475938
 21
14.31969672070361
 31
0.0
  0
LINE
  5
2DE1
330
1E
100
AcDbEntity
  8
7
100
AcDbLine
 10
3.09159787475938
 20
14.31969672070361
 30
0.0
 11
3.094410380384379
 21
14.33375924882861
 31
0.0
  0
LINE
  5
2DE2
330
1E
100
AcDbEntity
  8
7
100
AcDbLine
 10
3.094410380384379
 20
14.33375924882861
 30
0.0
 11
3.102847897259383
 21
14.33938426007861
 31
0.0
  0
LINE
  5
2DE3
330
1E
100
AcDbEntity
  8
7
100
AcDbLine
 10
3.102847897259383
 20
14.33938426007861
 30
0.0
 11
3.11409791975938
 21
14.34219676570361
 31
0.0
  0
LINE
  5
2DE4
330
1E
100
AcDbEntity
  8
7
100
AcDbLine
 10
3.11409791975938
 20
14.34219676570361
 30
0.0
 11
3.130972953509382
 21
14.34219676570361
 31
0.0
  0
LINE
  5
2DE5
330
1E
100
AcDbEntity
  8
7
100
AcDbLine
 10
3.130972953509382
 20
14.34219676570361
 30
0.0
 11
3.147847987259383
 21
14.34219676570361
 31
0.0
  0
LINE
  5
2DE6
330
1E
100
AcDbEntity
  8
7
100
AcDbLine
 10
3.147847987259383
 20
14.34219676570361
 30
0.0
 11
3.147847987259383
 21
16.15626289382861
 31
0.0
  0
LINE
  5
2DE7
330
1E
100
AcDbEntity
  8
7
100
AcDbLine
 10
3.147847987259383
 20
16.15626289382861
 30
0.0
 11
3.128160447884383
 21
16.15626289382861
 31
0.0
  0
LINE
  5
2DE8
330
1E
100
AcDbEntity
  8
7
100
AcDbLine
 10
3.128160447884383
 20
16.15626289382861
 30
0.0
 11
3.111285414134381
 21
16.15907539945361
 31
0.0
  0
LINE
  5
2DE9
330
1E
100
AcDbEntity
  8
7
100
AcDbLine
 10
3.111285414134381
 20
16.15907539945361
 30
0.0
 11
3.100035391634383
 21
16.16188790507861
 31
0.0
  0
LINE
  5
2DEA
330
1E
100
AcDbEntity
  8
7
100
AcDbLine
 10
3.100035391634383
 20
16.16188790507861
 30
0.0
 11
3.09159787475938
 21
16.17032542195361
 31
0.0
  0
LINE
  5
2DEB
330
1E
100
AcDbEntity
  8
7
100
AcDbLine
 10
3.09159787475938
 20
16.17032542195361
 30
0.0
 11
3.09159787475938
 21
16.17595043320361
 31
0.0
  0
LINE
  5
2DEC
330
1E
100
AcDbEntity
  8
7
100
AcDbLine
 10
11.70067759288437
 20
15.14376086882861
 30
0.0
 11
11.75130269413437
 21
15.1493858800786
 31
0.0
  0
LINE
  5
2DED
330
1E
100
AcDbEntity
  8
7
100
AcDbLine
 10
11.75130269413437
 20
15.1493858800786
 30
0.0
 11
11.79349027850937
 21
15.18032344195361
 31
0.0
  0
LINE
  5
2DEE
330
1E
100
AcDbEntity
  8
7
100
AcDbLine
 10
11.79349027850937
 20
15.18032344195361
 30
0.0
 11
11.81880282913438
 21
15.22532353195361
 31
0.0
  0
LINE
  5
2DEF
330
1E
100
AcDbEntity
  8
7
100
AcDbLine
 10
11.81880282913438
 20
15.22532353195361
 30
0.0
 11
11.81880282913438
 21
15.27594863320361
 31
0.0
  0
LINE
  5
2DF0
330
1E
100
AcDbEntity
  8
7
100
AcDbLine
 10
11.81880282913438
 20
15.27594863320361
 30
0.0
 11
11.79349027850937
 21
15.32094872320361
 31
0.0
  0
LINE
  5
2DF1
330
1E
100
AcDbEntity
  8
7
100
AcDbLine
 10
11.79349027850937
 20
15.32094872320361
 30
0.0
 11
11.75130269413437
 21
15.35188628507861
 31
0.0
  0
LINE
  5
2DF2
330
1E
100
AcDbEntity
  8
7
100
AcDbLine
 10
11.75130269413437
 20
15.35188628507861
 30
0.0
 11
11.70067759288437
 21
15.35751129632861
 31
0.0
  0
LINE
  5
2DF3
330
1E
100
AcDbEntity
  8
7
100
AcDbLine
 10
11.70067759288437
 20
15.35751129632861
 30
0.0
 11
11.65286499725938
 21
15.3378237569536
 31
0.0
  0
LINE
  5
2DF4
330
1E
100
AcDbEntity
  8
7
100
AcDbLine
 10
11.65286499725938
 20
15.3378237569536
 30
0.0
 11
11.61911492975937
 21
15.30126118382861
 31
0.0
  0
LINE
  5
2DF5
330
1E
100
AcDbEntity
  8
7
100
AcDbLine
 10
11.61911492975937
 20
15.30126118382861
 30
0.0
 11
11.60786490725937
 21
15.2506360825786
 31
0.0
  0
LINE
  5
2DF6
330
1E
100
AcDbEntity
  8
7
100
AcDbLine
 10
11.60786490725937
 20
15.2506360825786
 30
0.0
 11
11.61911492975937
 21
15.2000109813286
 31
0.0
  0
LINE
  5
2DF7
330
1E
100
AcDbEntity
  8
7
100
AcDbLine
 10
11.61911492975937
 20
15.2000109813286
 30
0.0
 11
11.65286499725938
 21
15.16344840820361
 31
0.0
  0
LINE
  5
2DF8
330
1E
100
AcDbEntity
  8
7
100
AcDbLine
 10
11.65286499725938
 20
15.16344840820361
 30
0.0
 11
11.70067759288437
 21
15.14376086882861
 31
0.0
  0
LINE
  5
2DF9
330
1E
100
AcDbEntity
  8
7
100
AcDbLine
 10
11.95380309913438
 20
14.33657175445361
 30
0.0
 11
11.95942811038438
 21
14.32813423757861
 31
0.0
  0
LINE
  5
2DFA
330
1E
100
AcDbEntity
  8
7
100
AcDbLine
 10
11.95942811038438
 20
14.32813423757861
 30
0.0
 11
11.96224061600938
 21
14.31688421507861
 31
0.0
  0
LINE
  5
2DFB
330
1E
100
AcDbEntity
  8
7
100
AcDbLine
 10
11.96224061600938
 20
14.31688421507861
 30
0.0
 11
11.96224061600938
 21
14.30000918132861
 31
0.0
  0
LINE
  5
2DFC
330
1E
100
AcDbEntity
  8
7
100
AcDbLine
 10
11.96224061600938
 20
14.30000918132861
 30
0.0
 11
11.96224061600938
 21
14.28313414757861
 31
0.0
  0
LINE
  5
2DFD
330
1E
100
AcDbEntity
  8
7
100
AcDbLine
 10
11.95942811038438
 20
16.17595043320361
 30
0.0
 11
11.95661560475938
 21
16.16470041070361
 31
0.0
  0
LINE
  5
2DFE
330
1E
100
AcDbEntity
  8
7
100
AcDbLine
 10
11.95661560475938
 20
16.16470041070361
 30
0.0
 11
11.94536558225938
 21
16.15907539945361
 31
0.0
  0
LINE
  5
2DFF
330
1E
100
AcDbEntity
  8
7
100
AcDbLine
 10
11.94536558225938
 20
16.15907539945361
 30
0.0
 11
11.93411555975937
 21
16.15907539945361
 31
0.0
  0
LINE
  5
2E00
330
1E
100
AcDbEntity
  8
7
100
AcDbLine
 10
11.93411555975937
 20
16.15907539945361
 30
0.0
 11
11.91724052600938
 21
16.15626289382861
 31
0.0
  0
LINE
  5
2E01
330
1E
100
AcDbEntity
  8
7
100
AcDbLine
 10
11.91724052600938
 20
16.15626289382861
 30
0.0
 11
11.90317799788438
 21
16.15626289382861
 31
0.0
  0
LINE
  5
2E02
330
1E
100
AcDbEntity
  8
7
100
AcDbLine
 10
11.90317799788438
 20
16.15626289382861
 30
0.0
 11
11.90317799788438
 21
14.34219676570361
 31
0.0
  0
LINE
  5
2E03
330
1E
100
AcDbEntity
  8
7
100
AcDbLine
 10
11.90317799788438
 20
14.34219676570361
 30
0.0
 11
11.92286553725937
 21
14.34219676570361
 31
0.0
  0
LINE
  5
2E04
330
1E
100
AcDbEntity
  8
7
100
AcDbLine
 10
11.92286553725937
 20
14.34219676570361
 30
0.0
 11
11.93974057100938
 21
14.34219676570361
 31
0.0
  0
LINE
  5
2E05
330
1E
100
AcDbEntity
  8
7
100
AcDbLine
 10
11.93974057100938
 20
14.34219676570361
 30
0.0
 11
11.95380309913438
 21
14.33657175445361
 31
0.0
  0
LINE
  5
2E06
330
1E
100
AcDbEntity
  8
7
100
AcDbLine
 10
11.90317799788438
 20
13.90344588820361
 30
0.0
 11
11.90317799788438
 21
14.28032164195361
 31
0.0
  0
LINE
  5
2E07
330
1E
100
AcDbEntity
  8
7
100
AcDbLine
 10
11.90317799788438
 20
14.28032164195361
 30
0.0
 11
3.147847987259383
 21
14.28032164195361
 31
0.0
  0
LINE
  5
2E08
330
1E
100
AcDbEntity
  8
7
100
AcDbLine
 10
3.147847987259383
 20
13.79657067445361
 30
0.0
 11
3.145035481634383
 21
13.78813315757861
 31
0.0
  0
LINE
  5
2E09
330
1E
100
AcDbEntity
  8
7
100
AcDbLine
 10
3.145035481634383
 20
13.78813315757861
 30
0.0
 11
3.13659796475938
 21
13.78250814632861
 31
0.0
  0
LINE
  5
2E0A
330
1E
100
AcDbEntity
  8
7
100
AcDbLine
 10
3.13659796475938
 20
13.78250814632861
 30
0.0
 11
3.130972953509382
 21
13.78250814632861
 31
0.0
  0
LINE
  5
2E0B
330
1E
100
AcDbEntity
  8
7
100
AcDbLine
 10
11.92005303163438
 20
13.78250814632861
 30
0.0
 11
11.90880300913438
 21
13.78532065195361
 31
0.0
  0
LINE
  5
2E0C
330
1E
100
AcDbEntity
  8
7
100
AcDbLine
 10
11.90880300913438
 20
13.78532065195361
 30
0.0
 11
11.90317799788438
 21
13.79094566320361
 31
0.0
  0
LINE
  5
2E0D
330
1E
100
AcDbEntity
  8
7
100
AcDbLine
 10
11.90317799788438
 20
13.79094566320361
 30
0.0
 11
11.90317799788438
 21
13.79657067445361
 31
0.0
  0
LINE
  5
2E0E
330
1E
100
AcDbEntity
  8
7
100
AcDbLine
 10
11.90317799788438
 20
13.90344588820361
 30
0.0
 11
11.90317799788438
 21
13.88375834882861
 31
0.0
  0
LINE
  5
2E0F
330
1E
100
AcDbEntity
  8
7
100
AcDbLine
 10
11.90317799788438
 20
13.88375834882861
 30
0.0
 11
11.90599050350938
 21
13.8668833150786
 31
0.0
  0
LINE
  5
2E10
330
1E
100
AcDbEntity
  8
7
100
AcDbLine
 10
11.90599050350938
 20
13.8668833150786
 30
0.0
 11
11.90880300913438
 21
13.85282078695361
 31
0.0
  0
LINE
  5
2E11
330
1E
100
AcDbEntity
  8
7
100
AcDbLine
 10
11.90880300913438
 20
13.85282078695361
 30
0.0
 11
11.91724052600938
 21
13.84719577570361
 31
0.0
  0
LINE
  5
2E12
330
1E
100
AcDbEntity
  8
7
100
AcDbLine
 10
11.91724052600938
 20
13.84719577570361
 30
0.0
 11
11.92005303163438
 21
13.84719577570361
 31
0.0
  0
LINE
  5
2E13
330
1E
100
AcDbEntity
  8
7
100
AcDbLine
 10
3.130972953509382
 20
13.84719577570361
 30
0.0
 11
3.142222976009384
 21
13.85282078695361
 31
0.0
  0
LINE
  5
2E14
330
1E
100
AcDbEntity
  8
7
100
AcDbLine
 10
3.142222976009384
 20
13.85282078695361
 30
0.0
 11
3.145035481634383
 21
13.8612583038286
 31
0.0
  0
LINE
  5
2E15
330
1E
100
AcDbEntity
  8
7
100
AcDbLine
 10
3.145035481634383
 20
13.8612583038286
 30
0.0
 11
3.147847987259383
 21
13.87250832632861
 31
0.0
  0
LINE
  5
2E16
330
1E
100
AcDbEntity
  8
7
100
AcDbLine
 10
3.147847987259383
 20
13.87250832632861
 30
0.0
 11
3.147847987259383
 21
13.88938336007861
 31
0.0
  0
LINE
  5
2E17
330
1E
100
AcDbEntity
  8
7
100
AcDbLine
 10
3.147847987259383
 20
13.88938336007861
 30
0.0
 11
3.147847987259383
 21
13.90344588820361
 31
0.0
  0
LINE
  5
2E18
330
1E
100
AcDbEntity
  8
7
100
AcDbLine
 10
11.90317799788438
 20
13.79657067445361
 30
0.0
 11
11.90317799788438
 21
13.84157076445361
 31
0.0
  0
LINE
  5
2E19
330
1E
100
AcDbEntity
  8
7
100
AcDbLine
 10
11.90317799788438
 20
13.84157076445361
 30
0.0
 11
11.90317799788438
 21
13.90344588820361
 31
0.0
  0
LINE
  5
2E1A
330
1E
100
AcDbEntity
  8
7
100
AcDbLine
 10
3.147847987259383
 20
13.79657067445361
 30
0.0
 11
3.147847987259383
 21
13.84157076445361
 31
0.0
  0
LINE
  5
2E1B
330
1E
100
AcDbEntity
  8
7
100
AcDbLine
 10
3.147847987259383
 20
13.84157076445361
 30
0.0
 11
3.147847987259383
 21
13.90344588820361
 31
0.0
  0
LINE
  5
2E1C
330
1E
100
AcDbEntity
  8
7
100
AcDbLine
 10
4.00847470850938
 20
16.28001314132861
 30
0.0
 11
4.025349742259381
 21
16.28001314132861
 31
0.0
  0
LINE
  5
2E1D
330
1E
100
AcDbEntity
  8
7
100
AcDbLine
 10
4.025349742259381
 20
16.28001314132861
 30
0.0
 11
4.025349742259381
 21
16.21813801757861
 31
0.0
  0
LINE
  5
2E1E
330
1E
100
AcDbEntity
  8
7
100
AcDbLine
 10
4.025349742259381
 20
16.21813801757861
 30
0.0
 11
4.00847470850938
 21
16.21813801757861
 31
0.0
  0
LINE
  5
2E1F
330
1E
100
AcDbEntity
  8
7
100
AcDbLine
 10
4.00847470850938
 20
16.21813801757861
 30
0.0
 11
3.96628712413438
 21
16.21813801757861
 31
0.0
  0
LINE
  5
2E20
330
1E
100
AcDbEntity
  8
7
100
AcDbLine
 10
3.147847987259383
 20
16.2772006357036
 30
0.0
 11
3.088785369134381
 21
16.26032560195361
 31
0.0
  0
LINE
  5
2E21
330
1E
100
AcDbEntity
  8
7
100
AcDbLine
 10
3.088785369134381
 20
16.26032560195361
 30
0.0
 11
3.043785279134382
 21
16.21813801757861
 31
0.0
  0
LINE
  5
2E22
330
1E
100
AcDbEntity
  8
7
100
AcDbLine
 10
3.043785279134382
 20
16.21813801757861
 30
0.0
 11
3.02691024538438
 21
16.15626289382861
 31
0.0
  0
LINE
  5
2E23
330
1E
100
AcDbEntity
  8
7
100
AcDbLine
 10
3.147847987259383
 20
16.21532551195361
 30
0.0
 11
3.105660402884383
 21
16.19845047820361
 31
0.0
  0
LINE
  5
2E24
330
1E
100
AcDbEntity
  8
7
100
AcDbLine
 10
3.105660402884383
 20
16.19845047820361
 30
0.0
 11
3.088785369134381
 21
16.15626289382861
 31
0.0
  0
LINE
  5
2E25
330
1E
100
AcDbEntity
  8
7
100
AcDbLine
 10
11.02567624288438
 20
16.28001314132861
 30
0.0
 11
11.04536378225938
 21
16.28001314132861
 31
0.0
  0
LINE
  5
2E26
330
1E
100
AcDbEntity
  8
7
100
AcDbLine
 10
11.04536378225938
 20
16.28001314132861
 30
0.0
 11
11.08755136663437
 21
16.28001314132861
 31
0.0
  0
LINE
  5
2E27
330
1E
100
AcDbEntity
  8
7
100
AcDbLine
 10
11.08755136663437
 20
16.21813801757861
 30
0.0
 11
11.04536378225938
 21
16.21813801757861
 31
0.0
  0
LINE
  5
2E28
330
1E
100
AcDbEntity
  8
7
100
AcDbLine
 10
11.04536378225938
 20
16.21813801757861
 30
0.0
 11
11.02567624288438
 21
16.21813801757861
 31
0.0
  0
LINE
  5
2E29
330
1E
100
AcDbEntity
  8
7
100
AcDbLine
 10
11.96224061600938
 20
16.15626289382861
 30
0.0
 11
11.94536558225938
 21
16.19845047820361
 31
0.0
  0
LINE
  5
2E2A
330
1E
100
AcDbEntity
  8
7
100
AcDbLine
 10
11.94536558225938
 20
16.19845047820361
 30
0.0
 11
11.90317799788438
 21
16.21532551195361
 31
0.0
  0
LINE
  5
2E2B
330
1E
100
AcDbEntity
  8
7
100
AcDbLine
 10
12.02411573975937
 20
16.15626289382861
 30
0.0
 11
12.00724070600938
 21
16.21532551195361
 31
0.0
  0
LINE
  5
2E2C
330
1E
100
AcDbEntity
  8
7
100
AcDbLine
 10
12.00724070600938
 20
16.21532551195361
 30
0.0
 11
11.96505312163438
 21
16.26032560195361
 31
0.0
  0
LINE
  5
2E2D
330
1E
100
AcDbEntity
  8
7
100
AcDbLine
 10
11.96505312163438
 20
16.26032560195361
 30
0.0
 11
11.90317799788438
 21
16.2772006357036
 31
0.0
  0
LINE
  5
2E2E
330
1E
100
AcDbEntity
  8
7
100
AcDbLine
 10
3.147847987259383
 20
13.77969564070361
 30
0.0
 11
3.130972953509382
 21
13.78250814632861
 31
0.0
  0
LINE
  5
2E2F
330
1E
100
AcDbEntity
  8
7
100
AcDbLine
 10
3.130972953509382
 20
13.78250814632861
 30
0.0
 11
3.11691042538438
 21
13.78532065195361
 31
0.0
  0
LINE
  5
2E30
330
1E
100
AcDbEntity
  8
7
100
AcDbLine
 10
3.11691042538438
 20
13.78532065195361
 30
0.0
 11
3.100035391634383
 21
13.79094566320361
 31
0.0
  0
LINE
  5
2E31
330
1E
100
AcDbEntity
  8
7
100
AcDbLine
 10
3.100035391634383
 20
13.79094566320361
 30
0.0
 11
3.088785369134381
 21
13.79657067445361
 31
0.0
  0
LINE
  5
2E32
330
1E
100
AcDbEntity
  8
7
100
AcDbLine
 10
3.09159787475938
 20
13.88375834882861
 30
0.0
 11
3.102847897259383
 21
13.8668833150786
 31
0.0
  0
LINE
  5
2E33
330
1E
100
AcDbEntity
  8
7
100
AcDbLine
 10
3.102847897259383
 20
13.8668833150786
 30
0.0
 11
3.11691042538438
 21
13.85282078695361
 31
0.0
  0
LINE
  5
2E34
330
1E
100
AcDbEntity
  8
7
100
AcDbLine
 10
3.11691042538438
 20
13.85282078695361
 30
0.0
 11
3.128160447884383
 21
13.84719577570361
 31
0.0
  0
LINE
  5
2E35
330
1E
100
AcDbEntity
  8
7
100
AcDbLine
 10
3.128160447884383
 20
13.84719577570361
 30
0.0
 11
3.130972953509382
 21
13.84719577570361
 31
0.0
  0
LINE
  5
2E36
330
1E
100
AcDbEntity
  8
7
100
AcDbLine
 10
3.088785369134381
 20
13.79657067445361
 30
0.0
 11
3.088785369134381
 21
13.90344588820361
 31
0.0
  0
LINE
  5
2E37
330
1E
100
AcDbEntity
  8
7
100
AcDbLine
 10
3.088785369134381
 20
13.90344588820361
 30
0.0
 11
3.09159787475938
 21
13.88375834882861
 31
0.0
  0
LINE
  5
2E38
330
1E
100
AcDbEntity
  8
7
100
AcDbLine
 10
3.02691024538438
 20
13.90344588820361
 30
0.0
 11
3.043785279134382
 21
13.84157076445361
 31
0.0
  0
LINE
  5
2E39
330
1E
100
AcDbEntity
  8
7
100
AcDbLine
 10
3.043785279134382
 20
13.84157076445361
 30
0.0
 11
3.088785369134381
 21
13.79657067445361
 31
0.0
  0
LINE
  5
2E3A
330
1E
100
AcDbEntity
  8
7
100
AcDbLine
 10
11.96224061600938
 20
13.79657067445361
 30
0.0
 11
11.94536558225938
 21
13.78813315757861
 31
0.0
  0
LINE
  5
2E3B
330
1E
100
AcDbEntity
  8
7
100
AcDbLine
 10
11.94536558225938
 20
13.78813315757861
 30
0.0
 11
11.92849054850937
 21
13.78250814632861
 31
0.0
  0
LINE
  5
2E3C
330
1E
100
AcDbEntity
  8
7
100
AcDbLine
 10
11.92849054850937
 20
13.78250814632861
 30
0.0
 11
11.92005303163438
 21
13.78250814632861
 31
0.0
  0
LINE
  5
2E3D
330
1E
100
AcDbEntity
  8
7
100
AcDbLine
 10
11.92005303163438
 20
13.84719577570361
 30
0.0
 11
11.93411555975937
 21
13.85282078695361
 31
0.0
  0
LINE
  5
2E3E
330
1E
100
AcDbEntity
  8
7
100
AcDbLine
 10
11.93411555975937
 20
13.85282078695361
 30
0.0
 11
11.94536558225938
 21
13.8612583038286
 31
0.0
  0
LINE
  5
2E3F
330
1E
100
AcDbEntity
  8
7
100
AcDbLine
 10
11.94536558225938
 20
13.8612583038286
 30
0.0
 11
11.95380309913438
 21
13.87250832632861
 31
0.0
  0
LINE
  5
2E40
330
1E
100
AcDbEntity
  8
7
100
AcDbLine
 10
11.95380309913438
 20
13.87250832632861
 30
0.0
 11
11.96224061600938
 21
13.88938336007861
 31
0.0
  0
LINE
  5
2E41
330
1E
100
AcDbEntity
  8
7
100
AcDbLine
 10
11.96224061600938
 20
13.88938336007861
 30
0.0
 11
11.96224061600938
 21
13.90344588820361
 31
0.0
  0
LINE
  5
2E42
330
1E
100
AcDbEntity
  8
7
100
AcDbLine
 10
11.96224061600938
 20
13.79657067445361
 30
0.0
 11
12.00724070600938
 21
13.84157076445361
 31
0.0
  0
LINE
  5
2E43
330
1E
100
AcDbEntity
  8
7
100
AcDbLine
 10
12.00724070600938
 20
13.84157076445361
 30
0.0
 11
12.02411573975937
 21
13.90344588820361
 31
0.0
  0
LINE
  5
2E44
330
1E
100
AcDbEntity
  8
7
100
AcDbLine
 10
11.01161371475938
 20
14.01032110195361
 30
0.0
 11
11.03411375975937
 21
14.05813369757861
 31
0.0
  0
LINE
  5
2E45
330
1E
100
AcDbEntity
  8
7
100
AcDbLine
 10
11.03411375975937
 20
14.05813369757861
 30
0.0
 11
11.05661380475938
 21
14.01032110195361
 31
0.0
  0
LINE
  5
2E46
330
1E
100
AcDbEntity
  8
7
100
AcDbLine
 10
11.05661380475938
 20
14.01032110195361
 30
0.0
 11
11.01161371475938
 21
14.01032110195361
 31
0.0
  0
LINE
  5
2E47
330
1E
100
AcDbEntity
  8
7
100
AcDbLine
 10
11.18880156913438
 20
13.95125848382861
 30
0.0
 11
11.24223917600938
 21
13.95125848382861
 31
0.0
  0
LINE
  5
2E48
330
1E
100
AcDbEntity
  8
7
100
AcDbLine
 10
11.24223917600938
 20
13.95125848382861
 30
0.0
 11
11.24223917600938
 21
14.12000882132861
 31
0.0
  0
LINE
  5
2E49
330
1E
100
AcDbEntity
  8
7
100
AcDbLine
 10
11.24223917600938
 20
14.12000882132861
 30
0.0
 11
11.19723908600938
 21
14.12000882132861
 31
0.0
  0
LINE
  5
2E4A
330
1E
100
AcDbEntity
  8
7
100
AcDbLine
 10
11.19723908600938
 20
14.12000882132861
 30
0.0
 11
11.19723908600938
 21
14.05532119195361
 31
0.0
  0
LINE
  5
2E4B
330
1E
100
AcDbEntity
  8
7
100
AcDbLine
 10
11.19723908600938
 20
14.05532119195361
 30
0.0
 11
11.16630152413437
 21
14.12000882132861
 31
0.0
  0
LINE
  5
2E4C
330
1E
100
AcDbEntity
  8
7
100
AcDbLine
 10
11.16630152413437
 20
14.12000882132861
 30
0.0
 11
11.11005141163438
 21
14.12000882132861
 31
0.0
  0
LINE
  5
2E4D
330
1E
100
AcDbEntity
  8
7
100
AcDbLine
 10
11.11005141163438
 20
14.12000882132861
 30
0.0
 11
11.11005141163438
 21
14.01032110195361
 31
0.0
  0
LINE
  5
2E4E
330
1E
100
AcDbEntity
  8
7
100
AcDbLine
 10
10.88223845600938
 20
14.01875861882861
 30
0.0
 11
10.93848856850938
 21
14.01875861882861
 31
0.0
  0
LINE
  5
2E4F
330
1E
100
AcDbEntity
  8
7
100
AcDbLine
 10
10.93848856850938
 20
14.01875861882861
 30
0.0
 11
10.97223863600938
 21
14.02719613570361
 31
0.0
  0
LINE
  5
2E50
330
1E
100
AcDbEntity
  8
7
100
AcDbLine
 10
11.01161371475938
 20
14.12000882132861
 30
0.0
 11
10.98348865850937
 21
14.15657139445361
 31
0.0
  0
LINE
  5
2E51
330
1E
100
AcDbEntity
  8
7
100
AcDbLine
 10
10.98348865850937
 20
14.15657139445361
 30
0.0
 11
10.93848856850938
 21
14.17063392257861
 31
0.0
  0
LINE
  5
2E52
330
1E
100
AcDbEntity
  8
7
100
AcDbLine
 10
3.046597784759381
 20
8.41062240257861
 30
0.0
 11
3.038160267884382
 21
8.427497436328614
 31
0.0
  0
LINE
  5
2E53
330
1E
100
AcDbEntity
  8
7
100
AcDbLine
 10
3.038160267884382
 20
8.427497436328614
 30
0.0
 11
3.035347762259383
 21
8.444372470078612
 31
0.0
  0
LINE
  5
2E54
330
1E
100
AcDbEntity
  8
7
100
AcDbLine
 10
3.035347762259383
 20
8.444372470078612
 30
0.0
 11
3.032535256634384
 21
8.458434998203609
 31
0.0
  0
LINE
  5
2E55
330
1E
100
AcDbEntity
  8
7
100
AcDbLine
 10
3.032535256634384
 20
8.458434998203609
 30
0.0
 11
3.032535256634384
 21
8.466872515078616
 31
0.0
  0
LINE
  5
2E56
330
1E
100
AcDbEntity
  8
7
100
AcDbLine
 10
3.032535256634384
 20
8.466872515078616
 30
0.0
 11
3.032535256634384
 21
8.469685020703616
 31
0.0
  0
LINE
  5
2E57
330
1E
100
AcDbEntity
  8
7
100
AcDbLine
 10
3.094410380384379
 20
8.469685020703616
 30
0.0
 11
3.094410380384379
 21
8.466872515078616
 31
0.0
  0
LINE
  5
2E58
330
1E
100
AcDbEntity
  8
7
100
AcDbLine
 10
3.094410380384379
 20
8.466872515078616
 30
0.0
 11
3.097222886009384
 21
8.455622492578608
 31
0.0
  0
LINE
  5
2E59
330
1E
100
AcDbEntity
  8
7
100
AcDbLine
 10
3.097222886009384
 20
8.455622492578608
 30
0.0
 11
3.102847897259383
 21
8.444372470078612
 31
0.0
  0
LINE
  5
2E5A
330
1E
100
AcDbEntity
  8
7
100
AcDbLine
 10
3.102847897259383
 20
8.444372470078612
 30
0.0
 11
3.111285414134381
 21
8.430309941953614
 31
0.0
  0
LINE
  5
2E5B
330
1E
100
AcDbEntity
  8
7
100
AcDbLine
 10
3.111285414134381
 20
8.430309941953614
 30
0.0
 11
3.122535436634383
 21
8.419059919453607
 31
0.0
  0
LINE
  5
2E5C
330
1E
100
AcDbEntity
  8
7
100
AcDbLine
 10
3.122535436634383
 20
8.419059919453607
 30
0.0
 11
3.13659796475938
 21
8.413434908203608
 31
0.0
  0
LINE
  5
2E5D
330
1E
100
AcDbEntity
  8
7
100
AcDbLine
 10
3.13659796475938
 20
8.413434908203608
 30
0.0
 11
3.156285504134381
 21
8.41062240257861
 31
0.0
  0
LINE
  5
2E5E
330
1E
100
AcDbEntity
  8
7
100
AcDbLine
 10
3.04941029038438
 20
8.41062240257861
 30
0.0
 11
3.094410380384379
 21
8.365622312578608
 31
0.0
  0
LINE
  5
2E5F
330
1E
100
AcDbEntity
  8
7
100
AcDbLine
 10
3.094410380384379
 20
8.365622312578608
 30
0.0
 11
3.156285504134381
 21
8.348747278828614
 31
0.0
  0
LINE
  5
2E60
330
1E
100
AcDbEntity
  8
7
100
AcDbLine
 10
12.03255325663438
 20
8.469685020703616
 30
0.0
 11
12.03255325663438
 21
8.466872515078616
 31
0.0
  0
LINE
  5
2E61
330
1E
100
AcDbEntity
  8
7
100
AcDbLine
 10
12.03255325663438
 20
8.466872515078616
 30
0.0
 11
12.03255325663438
 21
8.455622492578608
 31
0.0
  0
LINE
  5
2E62
330
1E
100
AcDbEntity
  8
7
100
AcDbLine
 10
12.03255325663438
 20
8.455622492578608
 30
0.0
 11
12.02974075100938
 21
8.441559964453613
 31
0.0
  0
LINE
  5
2E63
330
1E
100
AcDbEntity
  8
7
100
AcDbLine
 10
12.02974075100938
 20
8.441559964453613
 30
0.0
 11
12.02411573975937
 21
8.424684930703616
 31
0.0
  0
LINE
  5
2E64
330
1E
100
AcDbEntity
  8
7
100
AcDbLine
 10
12.02411573975937
 20
8.424684930703616
 30
0.0
 11
12.01849072850937
 21
8.41062240257861
 31
0.0
  0
LINE
  5
2E65
330
1E
100
AcDbEntity
  8
7
100
AcDbLine
 10
12.01849072850937
 20
8.41062240257861
 30
0.0
 11
11.90880300913438
 21
8.41062240257861
 31
0.0
  0
LINE
  5
2E66
330
1E
100
AcDbEntity
  8
7
100
AcDbLine
 10
11.90880300913438
 20
8.41062240257861
 30
0.0
 11
11.92849054850937
 21
8.413434908203608
 31
0.0
  0
LINE
  5
2E67
330
1E
100
AcDbEntity
  8
7
100
AcDbLine
 10
11.92849054850937
 20
8.413434908203608
 30
0.0
 11
11.94817808788438
 21
8.421872425078618
 31
0.0
  0
LINE
  5
2E68
330
1E
100
AcDbEntity
  8
7
100
AcDbLine
 10
11.94817808788438
 20
8.421872425078618
 30
0.0
 11
11.95942811038438
 21
8.435934953203613
 31
0.0
  0
LINE
  5
2E69
330
1E
100
AcDbEntity
  8
7
100
AcDbLine
 10
11.95942811038438
 20
8.435934953203613
 30
0.0
 11
11.96505312163438
 21
8.44999748132861
 31
0.0
  0
LINE
  5
2E6A
330
1E
100
AcDbEntity
  8
7
100
AcDbLine
 10
11.96505312163438
 20
8.44999748132861
 30
0.0
 11
11.96786562725937
 21
8.458434998203609
 31
0.0
  0
LINE
  5
2E6B
330
1E
100
AcDbEntity
  8
7
100
AcDbLine
 10
11.96786562725937
 20
8.458434998203609
 30
0.0
 11
11.97067813288438
 21
8.466872515078616
 31
0.0
  0
LINE
  5
2E6C
330
1E
100
AcDbEntity
  8
7
100
AcDbLine
 10
11.97067813288438
 20
8.466872515078616
 30
0.0
 11
11.97067813288438
 21
8.469685020703616
 31
0.0
  0
LINE
  5
2E6D
330
1E
100
AcDbEntity
  8
7
100
AcDbLine
 10
11.90880300913438
 20
8.348747278828614
 30
0.0
 11
11.97067813288438
 21
8.365622312578608
 31
0.0
  0
LINE
  5
2E6E
330
1E
100
AcDbEntity
  8
7
100
AcDbLine
 10
11.97067813288438
 20
8.365622312578608
 30
0.0
 11
12.01567822288438
 21
8.41062240257861
 31
0.0
  0
LINE
  5
2E6F
330
1E
100
AcDbEntity
  8
7
100
AcDbLine
 10
11.90880300913438
 20
8.41062240257861
 30
0.0
 11
11.91161551475938
 21
8.427497436328614
 31
0.0
  0
LINE
  5
2E70
330
1E
100
AcDbEntity
  8
7
100
AcDbLine
 10
11.91161551475938
 20
8.427497436328614
 30
0.0
 11
11.92005303163438
 21
8.444372470078612
 31
0.0
  0
LINE
  5
2E71
330
1E
100
AcDbEntity
  8
7
100
AcDbLine
 10
11.92005303163438
 20
8.444372470078612
 30
0.0
 11
11.92849054850937
 21
8.45280998695361
 31
0.0
  0
LINE
  5
2E72
330
1E
100
AcDbEntity
  8
7
100
AcDbLine
 10
3.13941047038438
 20
8.45280998695361
 30
0.0
 11
3.147847987259383
 21
8.435934953203613
 31
0.0
  0
LINE
  5
2E73
330
1E
100
AcDbEntity
  8
7
100
AcDbLine
 10
3.147847987259383
 20
8.435934953203613
 30
0.0
 11
3.153472998509381
 21
8.419059919453607
 31
0.0
  0
LINE
  5
2E74
330
1E
100
AcDbEntity
  8
7
100
AcDbLine
 10
3.153472998509381
 20
8.419059919453607
 30
0.0
 11
3.156285504134381
 21
8.41062240257861
 31
0.0
  0
LINE
  5
2E75
330
1E
100
AcDbEntity
  8
7
100
AcDbLine
 10
11.90880300913438
 20
8.41062240257861
 30
0.0
 11
11.90880300913438
 21
8.36280980695361
 31
0.0
  0
LINE
  5
2E76
330
1E
100
AcDbEntity
  8
7
100
AcDbLine
 10
11.90880300913438
 20
8.36280980695361
 30
0.0
 11
11.90880300913438
 21
8.345934773203612
 31
0.0
  0
LINE
  5
2E77
330
1E
100
AcDbEntity
  8
7
100
AcDbLine
 10
3.156285504134381
 20
10.03343814820361
 30
0.0
 11
3.153472998509381
 21
10.01375060882861
 31
0.0
  0
LINE
  5
2E78
330
1E
100
AcDbEntity
  8
7
100
AcDbLine
 10
3.153472998509381
 20
10.01375060882861
 30
0.0
 11
3.145035481634383
 21
9.996875575078615
 31
0.0
  0
LINE
  5
2E79
330
1E
100
AcDbEntity
  8
7
100
AcDbLine
 10
3.145035481634383
 20
9.996875575078615
 30
0.0
 11
3.13941047038438
 21
9.991250563828614
 31
0.0
  0
LINE
  5
2E7A
330
1E
100
AcDbEntity
  8
7
100
AcDbLine
 10
11.92849054850937
 20
9.991250563828614
 30
0.0
 11
11.91724052600938
 21
10.00531309195361
 31
0.0
  0
LINE
  5
2E7B
330
1E
100
AcDbEntity
  8
7
100
AcDbLine
 10
11.91724052600938
 20
10.00531309195361
 30
0.0
 11
11.91161551475938
 21
10.0221881257036
 31
0.0
  0
LINE
  5
2E7C
330
1E
100
AcDbEntity
  8
7
100
AcDbLine
 10
11.90880300913438
 20
10.03343814820361
 30
0.0
 11
11.90880300913438
 21
10.07843823820361
 31
0.0
  0
LINE
  5
2E7D
330
1E
100
AcDbEntity
  8
7
100
AcDbLine
 10
11.90880300913438
 20
10.07843823820361
 30
0.0
 11
11.90880300913438
 21
10.09531327195361
 31
0.0
  0
LINE
  5
2E7E
330
1E
100
AcDbEntity
  8
7
100
AcDbLine
 10
3.156285504134381
 20
10.03343814820361
 30
0.0
 11
3.156285504134381
 21
10.07843823820361
 31
0.0
  0
LINE
  5
2E7F
330
1E
100
AcDbEntity
  8
7
100
AcDbLine
 10
3.156285504134381
 20
10.07843823820361
 30
0.0
 11
3.156285504134381
 21
10.09531327195361
 31
0.0
  0
LINE
  5
2E80
330
1E
100
AcDbEntity
  8
7
100
AcDbLine
 10
3.780661752884381
 20
9.220624022578608
 30
0.0
 11
3.766599224759384
 21
9.274061629453616
 31
0.0
  0
LINE
  5
2E81
330
1E
100
AcDbEntity
  8
7
100
AcDbLine
 10
3.766599224759384
 20
9.274061629453616
 30
0.0
 11
3.727224146009383
 21
9.313436708203617
 31
0.0
  0
LINE
  5
2E82
330
1E
100
AcDbEntity
  8
7
100
AcDbLine
 10
3.727224146009383
 20
9.313436708203617
 30
0.0
 11
3.67378653913438
 21
9.327499236328613
 31
0.0
  0
LINE
  5
2E83
330
1E
100
AcDbEntity
  8
7
100
AcDbLine
 10
3.67378653913438
 20
9.327499236328613
 30
0.0
 11
3.620348932259382
 21
9.313436708203617
 31
0.0
  0
LINE
  5
2E84
330
1E
100
AcDbEntity
  8
7
100
AcDbLine
 10
3.620348932259382
 20
9.313436708203617
 30
0.0
 11
3.580973853509381
 21
9.274061629453616
 31
0.0
  0
LINE
  5
2E85
330
1E
100
AcDbEntity
  8
7
100
AcDbLine
 10
3.580973853509381
 20
9.274061629453616
 30
0.0
 11
3.566911325384384
 21
9.220624022578608
 31
0.0
  0
LINE
  5
2E86
330
1E
100
AcDbEntity
  8
7
100
AcDbLine
 10
3.564098819759379
 20
9.004061089453616
 30
0.0
 11
3.51628622413438
 21
8.953435988203608
 31
0.0
  0
LINE
  5
2E87
330
1E
100
AcDbEntity
  8
7
100
AcDbLine
 10
3.51628622413438
 20
8.953435988203608
 30
0.0
 11
3.488161167884382
 21
8.891560864453612
 31
0.0
  0
LINE
  5
2E88
330
1E
100
AcDbEntity
  8
7
100
AcDbLine
 10
3.488161167884382
 20
8.891560864453612
 30
0.0
 11
3.482536156634383
 21
8.821248223828607
 31
0.0
  0
LINE
  5
2E89
330
1E
100
AcDbEntity
  8
7
100
AcDbLine
 10
3.482536156634383
 20
8.821248223828607
 30
0.0
 11
3.502223696009383
 21
8.756560594453612
 31
0.0
  0
LINE
  5
2E8A
330
1E
100
AcDbEntity
  8
7
100
AcDbLine
 10
3.502223696009383
 20
8.756560594453612
 30
0.0
 11
3.54159877475938
 21
8.700310481953614
 31
0.0
  0
LINE
  5
2E8B
330
1E
100
AcDbEntity
  8
7
100
AcDbLine
 10
3.54159877475938
 20
8.700310481953614
 30
0.0
 11
3.597848887259382
 21
8.660935403203612
 31
0.0
  0
LINE
  5
2E8C
330
1E
100
AcDbEntity
  8
7
100
AcDbLine
 10
3.597848887259382
 20
8.660935403203612
 30
0.0
 11
3.665349022259382
 21
8.641247863828606
 31
0.0
  0
LINE
  5
2E8D
330
1E
100
AcDbEntity
  8
7
100
AcDbLine
 10
3.665349022259382
 20
8.641247863828606
 30
0.0
 11
3.735661662884381
 21
8.646872875078617
 31
0.0
  0
LINE
  5
2E8E
330
1E
100
AcDbEntity
  8
7
100
AcDbLine
 10
3.735661662884381
 20
8.646872875078617
 30
0.0
 11
3.797536786634382
 21
8.67499793132861
 31
0.0
  0
LINE
  5
2E8F
330
1E
100
AcDbEntity
  8
7
100
AcDbLine
 10
3.797536786634382
 20
8.67499793132861
 30
0.0
 11
3.848161887884381
 21
8.722810526953608
 31
0.0
  0
LINE
  5
2E90
330
1E
100
AcDbEntity
  8
7
100
AcDbLine
 10
3.848161887884381
 20
8.722810526953608
 30
0.0
 11
3.879099449759384
 21
8.784685650703615
 31
0.0
  0
LINE
  5
2E91
330
1E
100
AcDbEntity
  8
7
100
AcDbLine
 10
3.879099449759384
 20
8.784685650703615
 30
0.0
 11
3.887536966634382
 21
8.852185785703611
 31
0.0
  0
LINE
  5
2E92
330
1E
100
AcDbEntity
  8
7
100
AcDbLine
 10
3.887536966634382
 20
8.852185785703611
 30
0.0
 11
3.87347443850938
 21
8.919685920703615
 31
0.0
  0
LINE
  5
2E93
330
1E
100
AcDbEntity
  8
7
100
AcDbLine
 10
3.87347443850938
 20
8.919685920703615
 30
0.0
 11
3.836911865384383
 21
8.978748538828611
 31
0.0
  0
LINE
  5
2E94
330
1E
100
AcDbEntity
  8
7
100
AcDbLine
 10
3.097222886009384
 20
8.45280998695361
 30
0.0
 11
3.102847897259383
 21
8.461247503828609
 31
0.0
  0
LINE
  5
2E95
330
1E
100
AcDbEntity
  8
7
100
AcDbLine
 10
3.102847897259383
 20
8.461247503828609
 30
0.0
 11
3.11409791975938
 21
8.466872515078616
 31
0.0
  0
LINE
  5
2E96
330
1E
100
AcDbEntity
  8
7
100
AcDbLine
 10
11.33786436725938
 20
9.313436708203617
 30
0.0
 11
11.29848928850938
 21
9.274061629453616
 31
0.0
  0
LINE
  5
2E97
330
1E
100
AcDbEntity
  8
7
100
AcDbLine
 10
11.29848928850938
 20
9.274061629453616
 30
0.0
 11
11.28442676038438
 21
9.220624022578608
 31
0.0
  0
LINE
  5
2E98
330
1E
100
AcDbEntity
  8
7
100
AcDbLine
 10
11.49817718788438
 20
9.220624022578608
 30
0.0
 11
11.48411465975937
 21
9.274061629453616
 31
0.0
  0
LINE
  5
2E99
330
1E
100
AcDbEntity
  8
7
100
AcDbLine
 10
11.48411465975937
 20
9.274061629453616
 30
0.0
 11
11.44473958100937
 21
9.313436708203617
 31
0.0
  0
LINE
  5
2E9A
330
1E
100
AcDbEntity
  8
7
100
AcDbLine
 10
11.44473958100937
 20
9.313436708203617
 30
0.0
 11
11.39130197413438
 21
9.327499236328613
 31
0.0
  0
LINE
  5
2E9B
330
1E
100
AcDbEntity
  8
7
100
AcDbLine
 10
11.39130197413438
 20
9.327499236328613
 30
0.0
 11
11.33786436725938
 21
9.313436708203617
 31
0.0
  0
LINE
  5
2E9C
330
1E
100
AcDbEntity
  8
7
100
AcDbLine
 10
11.53473976100937
 20
8.705935493203613
 30
0.0
 11
11.57130233413438
 21
8.76499811132861
 31
0.0
  0
LINE
  5
2E9D
330
1E
100
AcDbEntity
  8
7
100
AcDbLine
 10
11.57130233413438
 20
8.76499811132861
 30
0.0
 11
11.58817736788438
 21
8.829685740703615
 31
0.0
  0
LINE
  5
2E9E
330
1E
100
AcDbEntity
  8
7
100
AcDbLine
 10
11.58817736788438
 20
8.829685740703615
 30
0.0
 11
11.57973985100938
 21
8.899998381328609
 31
0.0
  0
LINE
  5
2E9F
330
1E
100
AcDbEntity
  8
7
100
AcDbLine
 10
11.57973985100938
 20
8.899998381328609
 30
0.0
 11
11.54880228913438
 21
8.961873505078616
 31
0.0
  0
LINE
  5
2EA0
330
1E
100
AcDbEntity
  8
7
100
AcDbLine
 10
11.54880228913438
 20
8.961873505078616
 30
0.0
 11
11.50098969350938
 21
9.009686100703614
 31
0.0
  0
LINE
  5
2EA1
330
1E
100
AcDbEntity
  8
7
100
AcDbLine
 10
11.28161425475938
 20
9.018123617578613
 30
0.0
 11
11.23098915350938
 21
8.973123527578612
 31
0.0
  0
LINE
  5
2EA2
330
1E
100
AcDbEntity
  8
7
100
AcDbLine
 10
11.23098915350938
 20
8.973123527578612
 30
0.0
 11
11.19442658038438
 21
8.914060909453617
 31
0.0
  0
LINE
  5
2EA3
330
1E
100
AcDbEntity
  8
7
100
AcDbLine
 10
11.19442658038438
 20
8.914060909453617
 30
0.0
 11
11.18317655788438
 21
8.846560774453612
 31
0.0
  0
LINE
  5
2EA4
330
1E
100
AcDbEntity
  8
7
100
AcDbLine
 10
11.18317655788438
 20
8.846560774453612
 30
0.0
 11
11.19442658038438
 21
8.776248133828607
 31
0.0
  0
LINE
  5
2EA5
330
1E
100
AcDbEntity
  8
7
100
AcDbLine
 10
11.19442658038438
 20
8.776248133828607
 30
0.0
 11
11.22817664788438
 21
8.71718551570361
 31
0.0
  0
LINE
  5
2EA6
330
1E
100
AcDbEntity
  8
7
100
AcDbLine
 10
11.22817664788438
 20
8.71718551570361
 30
0.0
 11
11.27880174913438
 21
8.672185425703609
 31
0.0
  0
LINE
  5
2EA7
330
1E
100
AcDbEntity
  8
7
100
AcDbLine
 10
11.27880174913438
 20
8.672185425703609
 30
0.0
 11
11.34348937850938
 21
8.646872875078617
 31
0.0
  0
LINE
  5
2EA8
330
1E
100
AcDbEntity
  8
7
100
AcDbLine
 10
11.34348937850938
 20
8.646872875078617
 30
0.0
 11
11.41380201913438
 21
8.644060369453617
 31
0.0
  0
LINE
  5
2EA9
330
1E
100
AcDbEntity
  8
7
100
AcDbLine
 10
11.41380201913438
 20
8.644060369453617
 30
0.0
 11
11.47848964850938
 21
8.663747908828613
 31
0.0
  0
LINE
  5
2EAA
330
1E
100
AcDbEntity
  8
7
100
AcDbLine
 10
11.47848964850938
 20
8.663747908828613
 30
0.0
 11
11.53473976100937
 21
8.705935493203613
 31
0.0
  0
LINE
  5
2EAB
330
1E
100
AcDbEntity
  8
7
100
AcDbLine
 10
11.95099059350938
 20
8.466872515078616
 30
0.0
 11
11.95942811038438
 21
8.464060009453607
 31
0.0
  0
LINE
  5
2EAC
330
1E
100
AcDbEntity
  8
7
100
AcDbLine
 10
11.95942811038438
 20
8.464060009453607
 30
0.0
 11
11.96505312163438
 21
8.455622492578608
 31
0.0
  0
LINE
  5
2EAD
330
1E
100
AcDbEntity
  8
7
100
AcDbLine
 10
3.094410380384379
 20
8.469685020703616
 30
0.0
 11
3.11409791975938
 21
8.466872515078616
 31
0.0
  0
LINE
  5
2EAE
330
1E
100
AcDbEntity
  8
7
100
AcDbLine
 10
3.11409791975938
 20
8.466872515078616
 30
0.0
 11
3.130972953509382
 21
8.458434998203609
 31
0.0
  0
LINE
  5
2EAF
330
1E
100
AcDbEntity
  8
7
100
AcDbLine
 10
3.130972953509382
 20
8.458434998203609
 30
0.0
 11
3.13941047038438
 21
8.45280998695361
 31
0.0
  0
LINE
  5
2EB0
330
1E
100
AcDbEntity
  8
7
100
AcDbLine
 10
3.13941047038438
 20
9.991250563828614
 30
0.0
 11
3.122535436634383
 21
9.980000541328607
 31
0.0
  0
LINE
  5
2EB1
330
1E
100
AcDbEntity
  8
7
100
AcDbLine
 10
3.122535436634383
 20
9.980000541328607
 30
0.0
 11
3.105660402884383
 21
9.974375530078608
 31
0.0
  0
LINE
  5
2EB2
330
1E
100
AcDbEntity
  8
7
100
AcDbLine
 10
3.105660402884383
 20
9.974375530078608
 30
0.0
 11
3.094410380384379
 21
9.97156302445361
 31
0.0
  0
LINE
  5
2EB3
330
1E
100
AcDbEntity
  8
7
100
AcDbLine
 10
3.094410380384379
 20
8.469685020703616
 30
0.0
 11
3.04941029038438
 21
8.469685020703616
 31
0.0
  0
LINE
  5
2EB4
330
1E
100
AcDbEntity
  8
7
100
AcDbLine
 10
3.04941029038438
 20
8.469685020703616
 30
0.0
 11
3.032535256634384
 21
8.469685020703616
 31
0.0
  0
LINE
  5
2EB5
330
1E
100
AcDbEntity
  8
7
100
AcDbLine
 10
11.97067813288438
 20
9.97156302445361
 30
0.0
 11
11.95099059350938
 21
9.974375530078608
 31
0.0
  0
LINE
  5
2EB6
330
1E
100
AcDbEntity
  8
7
100
AcDbLine
 10
11.95099059350938
 20
9.974375530078608
 30
0.0
 11
11.93411555975937
 21
9.985625552578616
 31
0.0
  0
LINE
  5
2EB7
330
1E
100
AcDbEntity
  8
7
100
AcDbLine
 10
11.93411555975937
 20
9.985625552578616
 30
0.0
 11
11.92849054850937
 21
9.991250563828614
 31
0.0
  0
LINE
  5
2EB8
330
1E
100
AcDbEntity
  8
7
100
AcDbLine
 10
11.92849054850937
 20
8.45280998695361
 30
0.0
 11
11.94255307663438
 21
8.464060009453607
 31
0.0
  0
LINE
  5
2EB9
330
1E
100
AcDbEntity
  8
7
100
AcDbLine
 10
11.94255307663438
 20
8.464060009453607
 30
0.0
 11
11.95942811038438
 21
8.469685020703616
 31
0.0
  0
LINE
  5
2EBA
330
1E
100
AcDbEntity
  8
7
100
AcDbLine
 10
11.95942811038438
 20
8.469685020703616
 30
0.0
 11
11.97067813288438
 21
8.469685020703616
 31
0.0
  0
LINE
  5
2EBB
330
1E
100
AcDbEntity
  8
7
100
AcDbLine
 10
11.97067813288438
 20
8.469685020703616
 30
0.0
 11
12.01567822288438
 21
8.469685020703616
 31
0.0
  0
LINE
  5
2EBC
330
1E
100
AcDbEntity
  8
7
100
AcDbLine
 10
12.01567822288438
 20
8.469685020703616
 30
0.0
 11
12.03255325663438
 21
8.469685020703616
 31
0.0
  0
LINE
  5
2EBD
330
1E
100
AcDbEntity
  8
7
100
AcDbLine
 10
11.97067813288438
 20
9.97156302445361
 30
0.0
 11
12.01567822288438
 21
9.97156302445361
 31
0.0
  0
LINE
  5
2EBE
330
1E
100
AcDbEntity
  8
7
100
AcDbLine
 10
12.01567822288438
 20
9.97156302445361
 30
0.0
 11
12.03255325663438
 21
9.97156302445361
 31
0.0
  0
LINE
  5
2EBF
330
1E
100
AcDbEntity
  8
7
100
AcDbLine
 10
6.32879184913438
 20
9.906875395078614
 30
0.0
 11
6.266916725384384
 21
9.890000361328608
 31
0.0
  0
LINE
  5
2EC0
330
1E
100
AcDbEntity
  8
7
100
AcDbLine
 10
6.266916725384384
 20
9.890000361328608
 30
0.0
 11
6.221916635384384
 21
9.845000271328608
 31
0.0
  0
LINE
  5
2EC1
330
1E
100
AcDbEntity
  8
7
100
AcDbLine
 10
6.221916635384384
 20
9.845000271328608
 30
0.0
 11
6.205041601634383
 21
9.783125147578612
 31
0.0
  0
LINE
  5
2EC2
330
1E
100
AcDbEntity
  8
7
100
AcDbLine
 10
6.205041601634383
 20
8.658122897578614
 30
0.0
 11
6.221916635384384
 21
8.596247773828608
 31
0.0
  0
LINE
  5
2EC3
330
1E
100
AcDbEntity
  8
7
100
AcDbLine
 10
6.221916635384384
 20
8.596247773828608
 30
0.0
 11
6.266916725384384
 21
8.551247683828608
 31
0.0
  0
LINE
  5
2EC4
330
1E
100
AcDbEntity
  8
7
100
AcDbLine
 10
6.266916725384384
 20
8.551247683828608
 30
0.0
 11
6.32879184913438
 21
8.534372650078612
 31
0.0
  0
LINE
  5
2EC5
330
1E
100
AcDbEntity
  8
7
100
AcDbLine
 10
8.73910916975938
 20
8.534372650078612
 30
0.0
 11
8.800984293509381
 21
8.551247683828608
 31
0.0
  0
LINE
  5
2EC6
330
1E
100
AcDbEntity
  8
7
100
AcDbLine
 10
8.800984293509381
 20
8.551247683828608
 30
0.0
 11
8.845984383509382
 21
8.596247773828608
 31
0.0
  0
LINE
  5
2EC7
330
1E
100
AcDbEntity
  8
7
100
AcDbLine
 10
8.845984383509382
 20
8.596247773828608
 30
0.0
 11
8.862859417259382
 21
8.658122897578614
 31
0.0
  0
LINE
  5
2EC8
330
1E
100
AcDbEntity
  8
7
100
AcDbLine
 10
8.862859417259382
 20
9.783125147578612
 30
0.0
 11
8.845984383509382
 21
9.845000271328608
 31
0.0
  0
LINE
  5
2EC9
330
1E
100
AcDbEntity
  8
7
100
AcDbLine
 10
8.845984383509382
 20
9.845000271328608
 30
0.0
 11
8.800984293509381
 21
9.890000361328608
 31
0.0
  0
LINE
  5
2ECA
330
1E
100
AcDbEntity
  8
7
100
AcDbLine
 10
8.800984293509381
 20
9.890000361328608
 30
0.0
 11
8.73910916975938
 21
9.906875395078614
 31
0.0
  0
LINE
  5
2ECB
330
1E
100
AcDbEntity
  8
7
100
AcDbLine
 10
3.40659850475938
 20
9.906875395078614
 30
0.0
 11
3.344723381009384
 21
9.890000361328608
 31
0.0
  0
LINE
  5
2ECC
330
1E
100
AcDbEntity
  8
7
100
AcDbLine
 10
3.344723381009384
 20
9.890000361328608
 30
0.0
 11
3.299723291009384
 21
9.845000271328608
 31
0.0
  0
LINE
  5
2ECD
330
1E
100
AcDbEntity
  8
7
100
AcDbLine
 10
3.299723291009384
 20
9.845000271328608
 30
0.0
 11
3.282848257259383
 21
9.783125147578612
 31
0.0
  0
LINE
  5
2ECE
330
1E
100
AcDbEntity
  8
7
100
AcDbLine
 10
3.282848257259383
 20
8.658122897578614
 30
0.0
 11
3.299723291009384
 21
8.596247773828608
 31
0.0
  0
LINE
  5
2ECF
330
1E
100
AcDbEntity
  8
7
100
AcDbLine
 10
3.299723291009384
 20
8.596247773828608
 30
0.0
 11
3.344723381009384
 21
8.551247683828608
 31
0.0
  0
LINE
  5
2ED0
330
1E
100
AcDbEntity
  8
7
100
AcDbLine
 10
5.81691582538438
 20
8.534372650078612
 30
0.0
 11
5.878790949134381
 21
8.551247683828608
 31
0.0
  0
LINE
  5
2ED1
330
1E
100
AcDbEntity
  8
7
100
AcDbLine
 10
5.878790949134381
 20
8.551247683828608
 30
0.0
 11
5.923791039134381
 21
8.596247773828608
 31
0.0
  0
LINE
  5
2ED2
330
1E
100
AcDbEntity
  8
7
100
AcDbLine
 10
5.923791039134381
 20
8.596247773828608
 30
0.0
 11
5.940666072884383
 21
8.658122897578614
 31
0.0
  0
LINE
  5
2ED3
330
1E
100
AcDbEntity
  8
7
100
AcDbLine
 10
5.940666072884383
 20
9.783125147578612
 30
0.0
 11
5.923791039134381
 21
9.845000271328608
 31
0.0
  0
LINE
  5
2ED4
330
1E
100
AcDbEntity
  8
7
100
AcDbLine
 10
5.923791039134381
 20
9.845000271328608
 30
0.0
 11
5.878790949134381
 21
9.890000361328608
 31
0.0
  0
LINE
  5
2ED5
330
1E
100
AcDbEntity
  8
7
100
AcDbLine
 10
5.878790949134381
 20
9.890000361328608
 30
0.0
 11
5.81691582538438
 21
9.906875395078614
 31
0.0
  0
LINE
  5
2ED6
330
1E
100
AcDbEntity
  8
7
100
AcDbLine
 10
9.248172687884379
 20
9.906875395078614
 30
0.0
 11
9.186297564134383
 21
9.890000361328608
 31
0.0
  0
LINE
  5
2ED7
330
1E
100
AcDbEntity
  8
7
100
AcDbLine
 10
9.186297564134383
 20
9.890000361328608
 30
0.0
 11
9.141297474134383
 21
9.845000271328608
 31
0.0
  0
LINE
  5
2ED8
330
1E
100
AcDbEntity
  8
7
100
AcDbLine
 10
9.141297474134383
 20
9.845000271328608
 30
0.0
 11
9.124422440384387
 21
9.783125147578612
 31
0.0
  0
LINE
  5
2ED9
330
1E
100
AcDbEntity
  8
7
100
AcDbLine
 10
9.124422440384387
 20
8.658122897578614
 30
0.0
 11
9.141297474134383
 21
8.596247773828608
 31
0.0
  0
LINE
  5
2EDA
330
1E
100
AcDbEntity
  8
7
100
AcDbLine
 10
9.141297474134383
 20
8.596247773828608
 30
0.0
 11
9.186297564134383
 21
8.551247683828608
 31
0.0
  0
LINE
  5
2EDB
330
1E
100
AcDbEntity
  8
7
100
AcDbLine
 10
9.186297564134383
 20
8.551247683828608
 30
0.0
 11
9.248172687884379
 21
8.534372650078612
 31
0.0
  0
LINE
  5
2EDC
330
1E
100
AcDbEntity
  8
7
100
AcDbLine
 10
11.65849000850937
 20
8.534372650078612
 30
0.0
 11
11.72036513225938
 21
8.551247683828608
 31
0.0
  0
LINE
  5
2EDD
330
1E
100
AcDbEntity
  8
7
100
AcDbLine
 10
11.72036513225938
 20
8.551247683828608
 30
0.0
 11
11.76536522225938
 21
8.596247773828608
 31
0.0
  0
LINE
  5
2EDE
330
1E
100
AcDbEntity
  8
7
100
AcDbLine
 10
11.76536522225938
 20
8.596247773828608
 30
0.0
 11
11.78224025600938
 21
8.658122897578614
 31
0.0
  0
LINE
  5
2EDF
330
1E
100
AcDbEntity
  8
7
100
AcDbLine
 10
11.78224025600938
 20
9.783125147578612
 30
0.0
 11
11.76536522225938
 21
9.845000271328608
 31
0.0
  0
LINE
  5
2EE0
330
1E
100
AcDbEntity
  8
7
100
AcDbLine
 10
11.76536522225938
 20
9.845000271328608
 30
0.0
 11
11.72036513225938
 21
9.890000361328608
 31
0.0
  0
LINE
  5
2EE1
330
1E
100
AcDbEntity
  8
7
100
AcDbLine
 10
11.72036513225938
 20
9.890000361328608
 30
0.0
 11
11.65849000850937
 21
9.906875395078614
 31
0.0
  0
ENDSEC
  0
SECTION
  2
OBJECTS
  0
DICTIONARY
  5
C
330
0
100
AcDbDictionary
  3
ACAD_GROUP
350
D
  3
ACAD_LAYOUT
350
19
  3
ACAD_MLINESTYLE
350
16
  3
ACAD_PLOTSETTINGS
350
18
1001
ACAD
1000
TREAT_AS_HARD
1070
     0
  0
DICTIONARY
  5
35C5
330
1E
100
AcDbDictionary
  3
ACAD_LAYOUTSELFREF
350
35C6
  0
DICTIONARY
  5
35C3
330
1A
100
AcDbDictionary
  3
ACAD_LAYOUTSELFREF
350
35C4
  0
DICTIONARY
  5
D
102
{ACAD_REACTORS
330
C
102
}
330
C
100
AcDbDictionary
1001
ACAD
1000
TREAT_AS_HARD
1070
     0
  0
DICTIONARY
  5
19
102
{ACAD_REACTORS
330
C
102
}
330
C
100
AcDbDictionary
1001
ACAD
1000
TREAT_AS_HARD
1070
     0
  0
DICTIONARY
  5
16
102
{ACAD_REACTORS
330
C
102
}
330
C
100
AcDbDictionary
  3
STANDARD
350
17
1001
ACAD
1000
TREAT_AS_HARD
1070
     0
  0
DICTIONARY
  5
18
102
{ACAD_REACTORS
330
C
102
}
330
C
100
AcDbDictionary
1001
ACAD
1000
TREAT_AS_HARD
1070
     0
  0
XRECORD
  5
35C6
102
{ACAD_REACTORS
330
35C5
102
}
330
35C5
100
AcDbXrecord
340
1E
  0
XRECORD
  5
35C4
102
{ACAD_REACTORS
330
35C3
102
}
330
35C3
100
AcDbXrecord
340
1A
  0
MLINESTYLE
  5
17
102
{ACAD_REACTORS
330
16
102
}
330
16
100
AcDbMlineStyle
  2
STANDARD
 70
     0
  3

 62
   256
 51
90.0
 52
90.0
 71
     2
 49
0.5
 62
   256
  6
BYLAYER
 49
-0.5
 62
   256
  6
BYLAYER
  0
ENDSEC
  0
EOF
