  0
SECTION
  2
HEADER
  9
$ACADVER
  1
AC1012
  9
$DWGCODEPAGE
  3
ANSI_1252
  9
$INSBASE
 10
0.0
 20
0.0
 30
0.0
  9
$EXTMIN
 10
11.19012455268544
 20
11.84230044978007
 30
-0.0015258207003583
  9
$EXTMAX
 10
17.17401126443176
 20
16.34257510274483
 30
0.0000000349246037
  9
$LIMMIN
 10
0.0
 20
0.0
  9
$LIMMAX
 10
12.0
 20
9.0
  9
$ORTHOMODE
 70
     0
  9
$REGENMODE
 70
     1
  9
$FILLMODE
 70
     1
  9
$QTEXTMODE
 70
     0
  9
$MIRRTEXT
 70
     1
  9
$DRAGMODE
 70
     2
  9
$LTSCALE
 40
1.0
  9
$OSMODE
 70
    33
  9
$ATTMODE
 70
     1
  9
$TEXTSIZE
 40
0.2
  9
$TRACEWID
 40
0.05
  9
$TEXTSTYLE
  7
STANDARD
  9
$CLAYER
  8
0
  9
$CELTYPE
  6
BYLAYER
  9
$CECOLOR
 62
   256
  9
$CELTSCALE
 40
1.0
  9
$DELOBJ
 70
     1
  9
$DISPSILH
 70
     0
  9
$DIMSCALE
 40
1.0
  9
$DIMASZ
 40
0.18
  9
$DIMEXO
 40
0.0625
  9
$DIMDLI
 40
0.38
  9
$DIMRND
 40
0.0
  9
$DIMDLE
 40
0.0
  9
$DIMEXE
 40
0.18
  9
$DIMTP
 40
0.0
  9
$DIMTM
 40
0.0
  9
$DIMTXT
 40
0.18
  9
$DIMCEN
 40
0.09
  9
$DIMTSZ
 40
0.0
  9
$DIMTOL
 70
     0
  9
$DIMLIM
 70
     0
  9
$DIMTIH
 70
     1
  9
$DIMTOH
 70
     1
  9
$DIMSE1
 70
     0
  9
$DIMSE2
 70
     0
  9
$DIMTAD
 70
     0
  9
$DIMZIN
 70
     0
  9
$DIMBLK
  1

  9
$DIMASO
 70
     1
  9
$DIMSHO
 70
     1
  9
$DIMPOST
  1

  9
$DIMAPOST
  1

  9
$DIMALT
 70
     0
  9
$DIMALTD
 70
     2
  9
$DIMALTF
 40
25.4
  9
$DIMLFAC
 40
1.0
  9
$DIMTOFL
 70
     0
  9
$DIMTVP
 40
0.0
  9
$DIMTIX
 70
     0
  9
$DIMSOXD
 70
     0
  9
$DIMSAH
 70
     0
  9
$DIMBLK1
  1

  9
$DIMBLK2
  1

  9
$DIMSTYLE
  2
STANDARD
  9
$DIMCLRD
 70
     0
  9
$DIMCLRE
 70
     0
  9
$DIMCLRT
 70
     0
  9
$DIMTFAC
 40
1.0
  9
$DIMGAP
 40
0.09
  9
$DIMJUST
 70
     0
  9
$DIMSD1
 70
     0
  9
$DIMSD2
 70
     0
  9
$DIMTOLJ
 70
     1
  9
$DIMTZIN
 70
     0
  9
$DIMALTZ
 70
     0
  9
$DIMALTTZ
 70
     0
  9
$DIMFIT
 70
     5
  9
$DIMUPT
 70
     0
  9
$DIMUNIT
 70
     2
  9
$DIMDEC
 70
     4
  9
$DIMTDEC
 70
     4
  9
$DIMALTU
 70
     2
  9
$DIMALTTD
 70
     2
  9
$DIMTXSTY
  7
STANDARD
  9
$DIMAUNIT
 70
     0
  9
$LUNITS
 70
     2
  9
$LUPREC
 70
     4
  9
$SKETCHINC
 40
0.1
  9
$FILLETRAD
 40
0.0
  9
$AUNITS
 70
     0
  9
$AUPREC
 70
     0
  9
$MENU
  1
acad
  9
$ELEVATION
 40
0.0
  9
$PELEVATION
 40
0.0
  9
$THICKNESS
 40
0.0
  9
$LIMCHECK
 70
     0
  9
$BLIPMODE
 70
     0
  9
$CHAMFERA
 40
0.0
  9
$CHAMFERB
 40
0.0
  9
$CHAMFERC
 40
0.0
  9
$CHAMFERD
 40
0.0
  9
$SKPOLY
 70
     0
  9
$TDCREATE
 40
2452489.374166666
  9
$TDUPDATE
 40
2452489.410039988
  9
$TDINDWG
 40
0.0007062037
  9
$TDUSRTIMER
 40
0.0007062037
  9
$USRTIMER
 70
     1
  9
$ANGBASE
 50
0.0
  9
$ANGDIR
 70
     0
  9
$PDMODE
 70
     0
  9
$PDSIZE
 40
0.0
  9
$PLINEWID
 40
0.0
  9
$COORDS
 70
     0
  9
$SPLFRAME
 70
     0
  9
$SPLINETYPE
 70
     6
  9
$SPLINESEGS
 70
     8
  9
$ATTDIA
 70
     0
  9
$ATTREQ
 70
     1
  9
$HANDLING
 70
  4097
  9
$HANDSEED
  5
4C61
  9
$SURFTAB1
 70
     6
  9
$SURFTAB2
 70
     6
  9
$SURFTYPE
 70
     6
  9
$SURFU
 70
     6
  9
$SURFV
 70
     6
  9
$UCSNAME
  2

  9
$UCSORG
 10
0.0
 20
0.0
 30
0.0
  9
$UCSXDIR
 10
1.0
 20
0.0
 30
0.0
  9
$UCSYDIR
 10
0.0
 20
1.0
 30
0.0
  9
$PUCSNAME
  2

  9
$PUCSORG
 10
0.0
 20
0.0
 30
0.0
  9
$PUCSXDIR
 10
1.0
 20
0.0
 30
0.0
  9
$PUCSYDIR
 10
0.0
 20
1.0
 30
0.0
  9
$USERI1
 70
     0
  9
$USERI2
 70
     0
  9
$USERI3
 70
     0
  9
$USERI4
 70
     0
  9
$USERI5
 70
     0
  9
$USERR1
 40
0.0
  9
$USERR2
 40
0.0
  9
$USERR3
 40
0.0
  9
$USERR4
 40
0.0
  9
$USERR5
 40
0.0
  9
$WORLDVIEW
 70
     1
  9
$SHADEDGE
 70
     3
  9
$SHADEDIF
 70
    70
  9
$TILEMODE
 70
     1
  9
$MAXACTVP
 70
    16
  9
$PINSBASE
 10
0.0
 20
0.0
 30
0.0
  9
$PLIMCHECK
 70
     0
  9
$PEXTMIN
 10
1.000000000000000E+20
 20
1.000000000000000E+20
 30
1.000000000000000E+20
  9
$PEXTMAX
 10
-1.000000000000000E+20
 20
-1.000000000000000E+20
 30
-1.000000000000000E+20
  9
$PLIMMIN
 10
0.0
 20
0.0
  9
$PLIMMAX
 10
12.0
 20
9.0
  9
$UNITMODE
 70
     0
  9
$VISRETAIN
 70
     0
  9
$PLINEGEN
 70
     0
  9
$PSLTSCALE
 70
     1
  9
$TREEDEPTH
 70
  3020
  9
$PICKSTYLE
 70
     1
  9
$CMLSTYLE
  2
STANDARD
  9
$CMLJUST
 70
     0
  9
$CMLSCALE
 40
1.0
  9
$SAVEIMAGES
 70
     1
  0
ENDSEC
  0
SECTION
  2
CLASSES
  0
CLASS
  1
ACDBDICTIONARYWDFLT
  2
AcDbDictionaryWithDefault
  3
AutoCAD 2000
 90
    32768
280
     0
281
     0
  0
CLASS
  1
ACDBPLACEHOLDER
  2
AcDbPlaceHolder
  3
AutoCAD 2000
 90
    32768
280
     0
281
     0
  0
CLASS
  1
LAYOUT
  2
AcDbLayout
  3
AutoCAD 2000
 90
    32768
280
     0
281
     0
  0
CLASS
  1
LONG_TRANSACTION
  2
AcDbLongTransaction
  3
AutoCAD 2000
 90
    32768
280
     0
281
     0
  0
CLASS
  1
LWPOLYLINE
  2
AcDbPolyline
  3
AutoCAD 2000
 90
    32768
280
     0
281
     1
  0
CLASS
  1
HATCH
  2
AcDbHatch
  3
AutoCAD 2000
 90
    32768
280
     0
281
     1
  0
CLASS
  1
XRECORD
  2
AcDbXrecord
  3
AutoCAD 2000
 90
    32768
280
     0
281
     0
  0
ENDSEC
  0
SECTION
  2
TABLES
  0
TABLE
  2
VPORT
  5
8
330
0
100
AcDbSymbolTable
 70
     2
  0
VPORT
  5
4C5C
330
8
100
AcDbSymbolTableRecord
100
AcDbViewportTableRecord
  2
*ACTIVE
 70
     0
 10
0.0
 20
0.0
 11
1.0
 21
1.0
 12
14.18206790855861
 22
14.09243777626245
 13
0.0
 23
0.0
 14
1.0
 24
1.0
 15
0.0
 25
0.0
 16
0.0
 26
0.0
 36
1.0
 17
0.0
 27
0.0
 37
0.0
 40
4.53561712406134
 41
1.618610747051113
 42
50.0
 43
0.0
 44
0.0
 50
0.0
 51
0.0
 71
     0
 72
   100
 73
     1
 74
     1
 75
     0
 76
     0
 77
     0
 78
     0
  0
ENDTAB
  0
TABLE
  2
LTYPE
  5
5
330
0
100
AcDbSymbolTable
 70
    25
  0
LTYPE
  5
13
330
5
100
AcDbSymbolTableRecord
100
AcDbLinetypeTableRecord
  2
BYBLOCK
 70
     0
  3

 72
    65
 73
     0
 40
0.0
  0
LTYPE
  5
14
330
5
100
AcDbSymbolTableRecord
100
AcDbLinetypeTableRecord
  2
BYLAYER
 70
     0
  3

 72
    65
 73
     0
 40
0.0
  0
LTYPE
  5
15
330
5
100
AcDbSymbolTableRecord
100
AcDbLinetypeTableRecord
  2
CONTINUOUS
 70
     0
  3
Solid line
 72
    65
 73
     0
 40
0.0
  0
LTYPE
  5
22
330
5
100
AcDbSymbolTableRecord
100
AcDbLinetypeTableRecord
  2
BORDER
 70
     0
  3
__ __ . __ __ . __ __ . __ __ . __ __ . __ __ .
 72
    65
 73
     6
 40
1.75
 49
0.5
 74
     0
 49
-0.25
 74
     0
 49
0.5
 74
     0
 49
-0.25
 74
     0
 49
0.5
 74
     0
 49
-0.25
 74
     0
  0
LTYPE
  5
23
330
5
100
AcDbSymbolTableRecord
100
AcDbLinetypeTableRecord
  2
BORDER2
 70
     0
  3
__.__.__.__.__.__.__.__.__.__.__.__.__.__.__.__
 72
    65
 73
     6
 40
0.875
 49
0.25
 74
     0
 49
-0.125
 74
     0
 49
0.25
 74
     0
 49
-0.125
 74
     0
 49
0.25
 74
     0
 49
-0.125
 74
     0
  0
LTYPE
  5
24
330
5
100
AcDbSymbolTableRecord
100
AcDbLinetypeTableRecord
  2
BORDERX2
 70
     0
  3
____  ____  .  ____  ____  .  
 72
    65
 73
     6
 40
3.5
 49
1.0
 74
     0
 49
-0.5
 74
     0
 49
1.0
 74
     0
 49
-0.5
 74
     0
 49
1.0
 74
     0
 49
-0.5
 74
     0
  0
LTYPE
  5
25
330
5
100
AcDbSymbolTableRecord
100
AcDbLinetypeTableRecord
  2
CENTER
 70
     0
  3
____ _ ____ _ ____ _ ____ _ ____ _ ____ _ ____
 72
    65
 73
     4
 40
2.0
 49
1.25
 74
     0
 49
-0.25
 74
     0
 49
0.25
 74
     0
 49
-0.25
 74
     0
  0
LTYPE
  5
26
330
5
100
AcDbSymbolTableRecord
100
AcDbLinetypeTableRecord
  2
CENTER2
 70
     0
  3
____ _ ____ _ ____ _ ____ _ ____ _ ____ _ ____
 72
    65
 73
     4
 40
1.125
 49
0.75
 74
     0
 49
-0.125
 74
     0
 49
0.125
 74
     0
 49
-0.125
 74
     0
  0
LTYPE
  5
27
330
5
100
AcDbSymbolTableRecord
100
AcDbLinetypeTableRecord
  2
CENTERX2
 70
     0
  3
________  __  ________  __  ________  __  
 72
    65
 73
     4
 40
4.0
 49
2.5
 74
     0
 49
-0.5
 74
     0
 49
0.5
 74
     0
 49
-0.5
 74
     0
  0
LTYPE
  5
28
330
5
100
AcDbSymbolTableRecord
100
AcDbLinetypeTableRecord
  2
DASHDOT
 70
     0
  3
__ . __ . __ . __ . __ . __ . __ . 
 72
    65
 73
     4
 40
1.0
 49
0.5
 74
     0
 49
-0.25
 74
     0
 49
0.0
 74
     0
 49
-0.25
 74
     0
  0
LTYPE
  5
29
330
5
100
AcDbSymbolTableRecord
100
AcDbLinetypeTableRecord
  2
DASHDOT2
 70
     0
  3
_._._._._._._._._._._._._._._._.
 72
    65
 73
     4
 40
0.5
 49
0.25
 74
     0
 49
-0.125
 74
     0
 49
0.0
 74
     0
 49
-0.125
 74
     0
  0
LTYPE
  5
2A
330
5
100
AcDbSymbolTableRecord
100
AcDbLinetypeTableRecord
  2
DASHDOTX2
 70
     0
  3
____  .  ____  .  ____  .  ____  .  
 72
    65
 73
     4
 40
2.0
 49
1.0
 74
     0
 49
-0.5
 74
     0
 49
0.0
 74
     0
 49
-0.5
 74
     0
  0
LTYPE
  5
2B
330
5
100
AcDbSymbolTableRecord
100
AcDbLinetypeTableRecord
  2
DASHED
 70
     0
  3
__ __ __ __ __ __ __ __ __ __ __ __ 
 72
    65
 73
     2
 40
0.75
 49
0.5
 74
     0
 49
-0.25
 74
     0
  0
LTYPE
  5
2C
330
5
100
AcDbSymbolTableRecord
100
AcDbLinetypeTableRecord
  2
DASHED2
 70
     0
  3
_ _ _ _ _ _ _ _ _ _ _ _ _ _ _ _ _ _ 
 72
    65
 73
     2
 40
0.375
 49
0.25
 74
     0
 49
-0.125
 74
     0
  0
LTYPE
  5
2D
330
5
100
AcDbSymbolTableRecord
100
AcDbLinetypeTableRecord
  2
DASHEDX2
 70
     0
  3
____  ____  ____  ____  ____  ____  
 72
    65
 73
     2
 40
1.5
 49
1.0
 74
     0
 49
-0.5
 74
     0
  0
LTYPE
  5
2E
330
5
100
AcDbSymbolTableRecord
100
AcDbLinetypeTableRecord
  2
DIVIDE
 70
     0
  3
____ . . ____ . . ____ . . ____ . . 
 72
    65
 73
     6
 40
1.25
 49
0.5
 74
     0
 49
-0.25
 74
     0
 49
0.0
 74
     0
 49
-0.25
 74
     0
 49
0.0
 74
     0
 49
-0.25
 74
     0
  0
LTYPE
  5
2F
330
5
100
AcDbSymbolTableRecord
100
AcDbLinetypeTableRecord
  2
DIVIDE2
 70
     0
  3
__..__..__..__..__..__..__..__..__..
 72
    65
 73
     6
 40
0.625
 49
0.25
 74
     0
 49
-0.125
 74
     0
 49
0.0
 74
     0
 49
-0.125
 74
     0
 49
0.0
 74
     0
 49
-0.125
 74
     0
  0
LTYPE
  5
30
330
5
100
AcDbSymbolTableRecord
100
AcDbLinetypeTableRecord
  2
DIVIDEX2
 70
     0
  3
________  .  .  ________  .  .  ________  .  . 
 72
    65
 73
     6
 40
2.5
 49
1.0
 74
     0
 49
-0.5
 74
     0
 49
0.0
 74
     0
 49
-0.5
 74
     0
 49
0.0
 74
     0
 49
-0.5
 74
     0
  0
LTYPE
  5
31
330
5
100
AcDbSymbolTableRecord
100
AcDbLinetypeTableRecord
  2
DOT
 70
     0
  3
. . . . . . . . . . . . . . . . . . 
 72
    65
 73
     2
 40
0.25
 49
0.0
 74
     0
 49
-0.25
 74
     0
  0
LTYPE
  5
32
330
5
100
AcDbSymbolTableRecord
100
AcDbLinetypeTableRecord
  2
DOT2
 70
     0
  3
....................................
 72
    65
 73
     2
 40
0.125
 49
0.0
 74
     0
 49
-0.125
 74
     0
  0
LTYPE
  5
33
330
5
100
AcDbSymbolTableRecord
100
AcDbLinetypeTableRecord
  2
DOTX2
 70
     0
  3
.  .  .  .  .  .  .  .  .  .  .  .  .  
 72
    65
 73
     2
 40
0.5
 49
0.0
 74
     0
 49
-0.5
 74
     0
  0
LTYPE
  5
34
330
5
100
AcDbSymbolTableRecord
100
AcDbLinetypeTableRecord
  2
HIDDEN
 70
     0
  3
__ __ __ __ __ __ __ __ __ __ __ __ 
 72
    65
 73
     2
 40
0.375
 49
0.25
 74
     0
 49
-0.125
 74
     0
  0
LTYPE
  5
35
330
5
100
AcDbSymbolTableRecord
100
AcDbLinetypeTableRecord
  2
HIDDEN2
 70
     0
  3
_ _ _ _ _ _ _ _ _ _ _ _ _ _ _ _ _ _ 
 72
    65
 73
     2
 40
0.1875
 49
0.125
 74
     0
 49
-0.0625
 74
     0
  0
LTYPE
  5
36
330
5
100
AcDbSymbolTableRecord
100
AcDbLinetypeTableRecord
  2
HIDDENX2
 70
     0
  3
____ ____ ____ ____ ____ ____ ____ 
 72
    65
 73
     2
 40
0.75
 49
0.5
 74
     0
 49
-0.25
 74
     0
  0
LTYPE
  5
37
330
5
100
AcDbSymbolTableRecord
100
AcDbLinetypeTableRecord
  2
PHANTOM
 70
     0
  3
______  __  __  ______  __  __  
 72
    65
 73
     6
 40
2.5
 49
1.25
 74
     0
 49
-0.25
 74
     0
 49
0.25
 74
     0
 49
-0.25
 74
     0
 49
0.25
 74
     0
 49
-0.25
 74
     0
  0
LTYPE
  5
38
330
5
100
AcDbSymbolTableRecord
100
AcDbLinetypeTableRecord
  2
PHANTOM2
 70
     0
  3
___ _ _ ___ _ _ ___ _ _ ___ _ _ 
 72
    65
 73
     6
 40
1.25
 49
0.625
 74
     0
 49
-0.125
 74
     0
 49
0.125
 74
     0
 49
-0.125
 74
     0
 49
0.125
 74
     0
 49
-0.125
 74
     0
  0
LTYPE
  5
39
330
5
100
AcDbSymbolTableRecord
100
AcDbLinetypeTableRecord
  2
PHANTOMX2
 70
     0
  3
___ _ _ ___ _ _ ___ _ _ ___ _ _ 
 72
    65
 73
     6
 40
5.0
 49
2.5
 74
     0
 49
-0.5
 74
     0
 49
0.5
 74
     0
 49
-0.5
 74
     0
 49
0.5
 74
     0
 49
-0.5
 74
     0
  0
ENDTAB
  0
TABLE
  2
LAYER
  5
2
330
0
100
AcDbSymbolTable
 70
   256
  0
LAYER
  5
10
330
2
100
AcDbSymbolTableRecord
100
AcDbLayerTableRecord
  2
0
 70
     0
 62
     7
  6
CONTINUOUS
  0
LAYER
  5
3A
330
2
100
AcDbSymbolTableRecord
100
AcDbLayerTableRecord
  2
1
 70
     0
 62
     1
  6
CONTINUOUS
  0
LAYER
  5
3B
330
2
100
AcDbSymbolTableRecord
100
AcDbLayerTableRecord
  2
2
 70
     0
 62
     2
  6
CONTINUOUS
  0
LAYER
  5
3C
330
2
100
AcDbSymbolTableRecord
100
AcDbLayerTableRecord
  2
3
 70
     0
 62
     3
  6
CONTINUOUS
  0
LAYER
  5
3D
330
2
100
AcDbSymbolTableRecord
100
AcDbLayerTableRecord
  2
4
 70
     0
 62
     4
  6
CONTINUOUS
  0
LAYER
  5
3E
330
2
100
AcDbSymbolTableRecord
100
AcDbLayerTableRecord
  2
5
 70
     0
 62
     5
  6
CONTINUOUS
  0
LAYER
  5
3F
330
2
100
AcDbSymbolTableRecord
100
AcDbLayerTableRecord
  2
6
 70
     0
 62
     6
  6
CONTINUOUS
  0
LAYER
  5
40
330
2
100
AcDbSymbolTableRecord
100
AcDbLayerTableRecord
  2
7
 70
     0
 62
     7
  6
CONTINUOUS
  0
LAYER
  5
41
330
2
100
AcDbSymbolTableRecord
100
AcDbLayerTableRecord
  2
8
 70
     0
 62
     8
  6
CONTINUOUS
  0
LAYER
  5
42
330
2
100
AcDbSymbolTableRecord
100
AcDbLayerTableRecord
  2
9
 70
     0
 62
     9
  6
CONTINUOUS
  0
LAYER
  5
43
330
2
100
AcDbSymbolTableRecord
100
AcDbLayerTableRecord
  2
10
 70
     0
 62
    10
  6
CONTINUOUS
  0
LAYER
  5
44
330
2
100
AcDbSymbolTableRecord
100
AcDbLayerTableRecord
  2
11
 70
     0
 62
    11
  6
CONTINUOUS
  0
LAYER
  5
45
330
2
100
AcDbSymbolTableRecord
100
AcDbLayerTableRecord
  2
12
 70
     0
 62
    12
  6
CONTINUOUS
  0
LAYER
  5
46
330
2
100
AcDbSymbolTableRecord
100
AcDbLayerTableRecord
  2
13
 70
     0
 62
    13
  6
CONTINUOUS
  0
LAYER
  5
47
330
2
100
AcDbSymbolTableRecord
100
AcDbLayerTableRecord
  2
14
 70
     0
 62
    14
  6
CONTINUOUS
  0
LAYER
  5
48
330
2
100
AcDbSymbolTableRecord
100
AcDbLayerTableRecord
  2
15
 70
     0
 62
    15
  6
CONTINUOUS
  0
LAYER
  5
49
330
2
100
AcDbSymbolTableRecord
100
AcDbLayerTableRecord
  2
16
 70
     0
 62
    16
  6
CONTINUOUS
  0
LAYER
  5
4A
330
2
100
AcDbSymbolTableRecord
100
AcDbLayerTableRecord
  2
17
 70
     0
 62
    17
  6
CONTINUOUS
  0
LAYER
  5
4B
330
2
100
AcDbSymbolTableRecord
100
AcDbLayerTableRecord
  2
18
 70
     0
 62
    18
  6
CONTINUOUS
  0
LAYER
  5
4C
330
2
100
AcDbSymbolTableRecord
100
AcDbLayerTableRecord
  2
19
 70
     0
 62
    19
  6
CONTINUOUS
  0
LAYER
  5
4D
330
2
100
AcDbSymbolTableRecord
100
AcDbLayerTableRecord
  2
20
 70
     0
 62
    20
  6
CONTINUOUS
  0
LAYER
  5
4E
330
2
100
AcDbSymbolTableRecord
100
AcDbLayerTableRecord
  2
21
 70
     0
 62
    21
  6
CONTINUOUS
  0
LAYER
  5
4F
330
2
100
AcDbSymbolTableRecord
100
AcDbLayerTableRecord
  2
22
 70
     0
 62
    22
  6
CONTINUOUS
  0
LAYER
  5
50
330
2
100
AcDbSymbolTableRecord
100
AcDbLayerTableRecord
  2
23
 70
     0
 62
    23
  6
CONTINUOUS
  0
LAYER
  5
51
330
2
100
AcDbSymbolTableRecord
100
AcDbLayerTableRecord
  2
24
 70
     0
 62
    24
  6
CONTINUOUS
  0
LAYER
  5
52
330
2
100
AcDbSymbolTableRecord
100
AcDbLayerTableRecord
  2
25
 70
     0
 62
    25
  6
CONTINUOUS
  0
LAYER
  5
53
330
2
100
AcDbSymbolTableRecord
100
AcDbLayerTableRecord
  2
26
 70
     0
 62
    26
  6
CONTINUOUS
  0
LAYER
  5
54
330
2
100
AcDbSymbolTableRecord
100
AcDbLayerTableRecord
  2
27
 70
     0
 62
    27
  6
CONTINUOUS
  0
LAYER
  5
55
330
2
100
AcDbSymbolTableRecord
100
AcDbLayerTableRecord
  2
28
 70
     0
 62
    28
  6
CONTINUOUS
  0
LAYER
  5
56
330
2
100
AcDbSymbolTableRecord
100
AcDbLayerTableRecord
  2
29
 70
     0
 62
    29
  6
CONTINUOUS
  0
LAYER
  5
57
330
2
100
AcDbSymbolTableRecord
100
AcDbLayerTableRecord
  2
30
 70
     0
 62
    30
  6
CONTINUOUS
  0
LAYER
  5
58
330
2
100
AcDbSymbolTableRecord
100
AcDbLayerTableRecord
  2
31
 70
     0
 62
    31
  6
CONTINUOUS
  0
LAYER
  5
59
330
2
100
AcDbSymbolTableRecord
100
AcDbLayerTableRecord
  2
32
 70
     0
 62
    32
  6
CONTINUOUS
  0
LAYER
  5
5A
330
2
100
AcDbSymbolTableRecord
100
AcDbLayerTableRecord
  2
33
 70
     0
 62
    33
  6
CONTINUOUS
  0
LAYER
  5
5B
330
2
100
AcDbSymbolTableRecord
100
AcDbLayerTableRecord
  2
34
 70
     0
 62
    34
  6
CONTINUOUS
  0
LAYER
  5
5C
330
2
100
AcDbSymbolTableRecord
100
AcDbLayerTableRecord
  2
35
 70
     0
 62
    35
  6
CONTINUOUS
  0
LAYER
  5
5D
330
2
100
AcDbSymbolTableRecord
100
AcDbLayerTableRecord
  2
36
 70
     0
 62
    36
  6
CONTINUOUS
  0
LAYER
  5
5E
330
2
100
AcDbSymbolTableRecord
100
AcDbLayerTableRecord
  2
37
 70
     0
 62
    37
  6
CONTINUOUS
  0
LAYER
  5
5F
330
2
100
AcDbSymbolTableRecord
100
AcDbLayerTableRecord
  2
38
 70
     0
 62
    38
  6
CONTINUOUS
  0
LAYER
  5
60
330
2
100
AcDbSymbolTableRecord
100
AcDbLayerTableRecord
  2
39
 70
     0
 62
    39
  6
CONTINUOUS
  0
LAYER
  5
61
330
2
100
AcDbSymbolTableRecord
100
AcDbLayerTableRecord
  2
40
 70
     0
 62
    40
  6
CONTINUOUS
  0
LAYER
  5
62
330
2
100
AcDbSymbolTableRecord
100
AcDbLayerTableRecord
  2
41
 70
     0
 62
    41
  6
CONTINUOUS
  0
LAYER
  5
63
330
2
100
AcDbSymbolTableRecord
100
AcDbLayerTableRecord
  2
42
 70
     0
 62
    42
  6
CONTINUOUS
  0
LAYER
  5
64
330
2
100
AcDbSymbolTableRecord
100
AcDbLayerTableRecord
  2
43
 70
     0
 62
    43
  6
CONTINUOUS
  0
LAYER
  5
65
330
2
100
AcDbSymbolTableRecord
100
AcDbLayerTableRecord
  2
44
 70
     0
 62
    44
  6
CONTINUOUS
  0
LAYER
  5
66
330
2
100
AcDbSymbolTableRecord
100
AcDbLayerTableRecord
  2
45
 70
     0
 62
    45
  6
CONTINUOUS
  0
LAYER
  5
67
330
2
100
AcDbSymbolTableRecord
100
AcDbLayerTableRecord
  2
46
 70
     0
 62
    46
  6
CONTINUOUS
  0
LAYER
  5
68
330
2
100
AcDbSymbolTableRecord
100
AcDbLayerTableRecord
  2
47
 70
     0
 62
    47
  6
CONTINUOUS
  0
LAYER
  5
69
330
2
100
AcDbSymbolTableRecord
100
AcDbLayerTableRecord
  2
48
 70
     0
 62
    48
  6
CONTINUOUS
  0
LAYER
  5
6A
330
2
100
AcDbSymbolTableRecord
100
AcDbLayerTableRecord
  2
49
 70
     0
 62
    49
  6
CONTINUOUS
  0
LAYER
  5
6B
330
2
100
AcDbSymbolTableRecord
100
AcDbLayerTableRecord
  2
50
 70
     0
 62
    50
  6
CONTINUOUS
  0
LAYER
  5
6C
330
2
100
AcDbSymbolTableRecord
100
AcDbLayerTableRecord
  2
51
 70
     0
 62
    51
  6
CONTINUOUS
  0
LAYER
  5
6D
330
2
100
AcDbSymbolTableRecord
100
AcDbLayerTableRecord
  2
52
 70
     0
 62
    52
  6
CONTINUOUS
  0
LAYER
  5
6E
330
2
100
AcDbSymbolTableRecord
100
AcDbLayerTableRecord
  2
53
 70
     0
 62
    53
  6
CONTINUOUS
  0
LAYER
  5
6F
330
2
100
AcDbSymbolTableRecord
100
AcDbLayerTableRecord
  2
54
 70
     0
 62
    54
  6
CONTINUOUS
  0
LAYER
  5
70
330
2
100
AcDbSymbolTableRecord
100
AcDbLayerTableRecord
  2
55
 70
     0
 62
    55
  6
CONTINUOUS
  0
LAYER
  5
71
330
2
100
AcDbSymbolTableRecord
100
AcDbLayerTableRecord
  2
56
 70
     0
 62
    56
  6
CONTINUOUS
  0
LAYER
  5
72
330
2
100
AcDbSymbolTableRecord
100
AcDbLayerTableRecord
  2
57
 70
     0
 62
    57
  6
CONTINUOUS
  0
LAYER
  5
73
330
2
100
AcDbSymbolTableRecord
100
AcDbLayerTableRecord
  2
58
 70
     0
 62
    58
  6
CONTINUOUS
  0
LAYER
  5
74
330
2
100
AcDbSymbolTableRecord
100
AcDbLayerTableRecord
  2
59
 70
     0
 62
    59
  6
CONTINUOUS
  0
LAYER
  5
75
330
2
100
AcDbSymbolTableRecord
100
AcDbLayerTableRecord
  2
60
 70
     0
 62
    60
  6
CONTINUOUS
  0
LAYER
  5
76
330
2
100
AcDbSymbolTableRecord
100
AcDbLayerTableRecord
  2
61
 70
     0
 62
    61
  6
CONTINUOUS
  0
LAYER
  5
77
330
2
100
AcDbSymbolTableRecord
100
AcDbLayerTableRecord
  2
62
 70
     0
 62
    62
  6
CONTINUOUS
  0
LAYER
  5
78
330
2
100
AcDbSymbolTableRecord
100
AcDbLayerTableRecord
  2
63
 70
     0
 62
    63
  6
CONTINUOUS
  0
LAYER
  5
79
330
2
100
AcDbSymbolTableRecord
100
AcDbLayerTableRecord
  2
64
 70
     0
 62
    64
  6
CONTINUOUS
  0
LAYER
  5
7A
330
2
100
AcDbSymbolTableRecord
100
AcDbLayerTableRecord
  2
65
 70
     0
 62
    65
  6
CONTINUOUS
  0
LAYER
  5
7B
330
2
100
AcDbSymbolTableRecord
100
AcDbLayerTableRecord
  2
66
 70
     0
 62
    66
  6
CONTINUOUS
  0
LAYER
  5
7C
330
2
100
AcDbSymbolTableRecord
100
AcDbLayerTableRecord
  2
67
 70
     0
 62
    67
  6
CONTINUOUS
  0
LAYER
  5
7D
330
2
100
AcDbSymbolTableRecord
100
AcDbLayerTableRecord
  2
68
 70
     0
 62
    68
  6
CONTINUOUS
  0
LAYER
  5
7E
330
2
100
AcDbSymbolTableRecord
100
AcDbLayerTableRecord
  2
69
 70
     0
 62
    69
  6
CONTINUOUS
  0
LAYER
  5
7F
330
2
100
AcDbSymbolTableRecord
100
AcDbLayerTableRecord
  2
70
 70
     0
 62
    70
  6
CONTINUOUS
  0
LAYER
  5
80
330
2
100
AcDbSymbolTableRecord
100
AcDbLayerTableRecord
  2
71
 70
     0
 62
    71
  6
CONTINUOUS
  0
LAYER
  5
81
330
2
100
AcDbSymbolTableRecord
100
AcDbLayerTableRecord
  2
72
 70
     0
 62
    72
  6
CONTINUOUS
  0
LAYER
  5
82
330
2
100
AcDbSymbolTableRecord
100
AcDbLayerTableRecord
  2
73
 70
     0
 62
    73
  6
CONTINUOUS
  0
LAYER
  5
83
330
2
100
AcDbSymbolTableRecord
100
AcDbLayerTableRecord
  2
74
 70
     0
 62
    74
  6
CONTINUOUS
  0
LAYER
  5
84
330
2
100
AcDbSymbolTableRecord
100
AcDbLayerTableRecord
  2
75
 70
     0
 62
    75
  6
CONTINUOUS
  0
LAYER
  5
85
330
2
100
AcDbSymbolTableRecord
100
AcDbLayerTableRecord
  2
76
 70
     0
 62
    76
  6
CONTINUOUS
  0
LAYER
  5
86
330
2
100
AcDbSymbolTableRecord
100
AcDbLayerTableRecord
  2
77
 70
     0
 62
    77
  6
CONTINUOUS
  0
LAYER
  5
87
330
2
100
AcDbSymbolTableRecord
100
AcDbLayerTableRecord
  2
78
 70
     0
 62
    78
  6
CONTINUOUS
  0
LAYER
  5
88
330
2
100
AcDbSymbolTableRecord
100
AcDbLayerTableRecord
  2
79
 70
     0
 62
    79
  6
CONTINUOUS
  0
LAYER
  5
89
330
2
100
AcDbSymbolTableRecord
100
AcDbLayerTableRecord
  2
80
 70
     0
 62
    80
  6
CONTINUOUS
  0
LAYER
  5
8A
330
2
100
AcDbSymbolTableRecord
100
AcDbLayerTableRecord
  2
81
 70
     0
 62
    81
  6
CONTINUOUS
  0
LAYER
  5
8B
330
2
100
AcDbSymbolTableRecord
100
AcDbLayerTableRecord
  2
82
 70
     0
 62
    82
  6
CONTINUOUS
  0
LAYER
  5
8C
330
2
100
AcDbSymbolTableRecord
100
AcDbLayerTableRecord
  2
83
 70
     0
 62
    83
  6
CONTINUOUS
  0
LAYER
  5
8D
330
2
100
AcDbSymbolTableRecord
100
AcDbLayerTableRecord
  2
84
 70
     0
 62
    84
  6
CONTINUOUS
  0
LAYER
  5
8E
330
2
100
AcDbSymbolTableRecord
100
AcDbLayerTableRecord
  2
85
 70
     0
 62
    85
  6
CONTINUOUS
  0
LAYER
  5
8F
330
2
100
AcDbSymbolTableRecord
100
AcDbLayerTableRecord
  2
86
 70
     0
 62
    86
  6
CONTINUOUS
  0
LAYER
  5
90
330
2
100
AcDbSymbolTableRecord
100
AcDbLayerTableRecord
  2
87
 70
     0
 62
    87
  6
CONTINUOUS
  0
LAYER
  5
91
330
2
100
AcDbSymbolTableRecord
100
AcDbLayerTableRecord
  2
88
 70
     0
 62
    88
  6
CONTINUOUS
  0
LAYER
  5
92
330
2
100
AcDbSymbolTableRecord
100
AcDbLayerTableRecord
  2
89
 70
     0
 62
    89
  6
CONTINUOUS
  0
LAYER
  5
93
330
2
100
AcDbSymbolTableRecord
100
AcDbLayerTableRecord
  2
90
 70
     0
 62
    90
  6
CONTINUOUS
  0
LAYER
  5
94
330
2
100
AcDbSymbolTableRecord
100
AcDbLayerTableRecord
  2
91
 70
     0
 62
    91
  6
CONTINUOUS
  0
LAYER
  5
95
330
2
100
AcDbSymbolTableRecord
100
AcDbLayerTableRecord
  2
92
 70
     0
 62
    92
  6
CONTINUOUS
  0
LAYER
  5
96
330
2
100
AcDbSymbolTableRecord
100
AcDbLayerTableRecord
  2
93
 70
     0
 62
    93
  6
CONTINUOUS
  0
LAYER
  5
97
330
2
100
AcDbSymbolTableRecord
100
AcDbLayerTableRecord
  2
94
 70
     0
 62
    94
  6
CONTINUOUS
  0
LAYER
  5
98
330
2
100
AcDbSymbolTableRecord
100
AcDbLayerTableRecord
  2
95
 70
     0
 62
    95
  6
CONTINUOUS
  0
LAYER
  5
99
330
2
100
AcDbSymbolTableRecord
100
AcDbLayerTableRecord
  2
96
 70
     0
 62
    96
  6
CONTINUOUS
  0
LAYER
  5
9A
330
2
100
AcDbSymbolTableRecord
100
AcDbLayerTableRecord
  2
97
 70
     0
 62
    97
  6
CONTINUOUS
  0
LAYER
  5
9B
330
2
100
AcDbSymbolTableRecord
100
AcDbLayerTableRecord
  2
98
 70
     0
 62
    98
  6
CONTINUOUS
  0
LAYER
  5
9C
330
2
100
AcDbSymbolTableRecord
100
AcDbLayerTableRecord
  2
99
 70
     0
 62
    99
  6
CONTINUOUS
  0
LAYER
  5
9D
330
2
100
AcDbSymbolTableRecord
100
AcDbLayerTableRecord
  2
100
 70
     0
 62
   100
  6
CONTINUOUS
  0
LAYER
  5
9E
330
2
100
AcDbSymbolTableRecord
100
AcDbLayerTableRecord
  2
101
 70
     0
 62
   101
  6
CONTINUOUS
  0
LAYER
  5
9F
330
2
100
AcDbSymbolTableRecord
100
AcDbLayerTableRecord
  2
102
 70
     0
 62
   102
  6
CONTINUOUS
  0
LAYER
  5
A0
330
2
100
AcDbSymbolTableRecord
100
AcDbLayerTableRecord
  2
103
 70
     0
 62
   103
  6
CONTINUOUS
  0
LAYER
  5
A1
330
2
100
AcDbSymbolTableRecord
100
AcDbLayerTableRecord
  2
104
 70
     0
 62
   104
  6
CONTINUOUS
  0
LAYER
  5
A2
330
2
100
AcDbSymbolTableRecord
100
AcDbLayerTableRecord
  2
105
 70
     0
 62
   105
  6
CONTINUOUS
  0
LAYER
  5
A3
330
2
100
AcDbSymbolTableRecord
100
AcDbLayerTableRecord
  2
106
 70
     0
 62
   106
  6
CONTINUOUS
  0
LAYER
  5
A4
330
2
100
AcDbSymbolTableRecord
100
AcDbLayerTableRecord
  2
107
 70
     0
 62
   107
  6
CONTINUOUS
  0
LAYER
  5
A5
330
2
100
AcDbSymbolTableRecord
100
AcDbLayerTableRecord
  2
108
 70
     0
 62
   108
  6
CONTINUOUS
  0
LAYER
  5
A6
330
2
100
AcDbSymbolTableRecord
100
AcDbLayerTableRecord
  2
109
 70
     0
 62
   109
  6
CONTINUOUS
  0
LAYER
  5
A7
330
2
100
AcDbSymbolTableRecord
100
AcDbLayerTableRecord
  2
110
 70
     0
 62
   110
  6
CONTINUOUS
  0
LAYER
  5
A8
330
2
100
AcDbSymbolTableRecord
100
AcDbLayerTableRecord
  2
111
 70
     0
 62
   111
  6
CONTINUOUS
  0
LAYER
  5
A9
330
2
100
AcDbSymbolTableRecord
100
AcDbLayerTableRecord
  2
112
 70
     0
 62
   112
  6
CONTINUOUS
  0
LAYER
  5
AA
330
2
100
AcDbSymbolTableRecord
100
AcDbLayerTableRecord
  2
113
 70
     0
 62
   113
  6
CONTINUOUS
  0
LAYER
  5
AB
330
2
100
AcDbSymbolTableRecord
100
AcDbLayerTableRecord
  2
114
 70
     0
 62
   114
  6
CONTINUOUS
  0
LAYER
  5
AC
330
2
100
AcDbSymbolTableRecord
100
AcDbLayerTableRecord
  2
115
 70
     0
 62
   115
  6
CONTINUOUS
  0
LAYER
  5
AD
330
2
100
AcDbSymbolTableRecord
100
AcDbLayerTableRecord
  2
116
 70
     0
 62
   116
  6
CONTINUOUS
  0
LAYER
  5
AE
330
2
100
AcDbSymbolTableRecord
100
AcDbLayerTableRecord
  2
117
 70
     0
 62
   117
  6
CONTINUOUS
  0
LAYER
  5
AF
330
2
100
AcDbSymbolTableRecord
100
AcDbLayerTableRecord
  2
118
 70
     0
 62
   118
  6
CONTINUOUS
  0
LAYER
  5
B0
330
2
100
AcDbSymbolTableRecord
100
AcDbLayerTableRecord
  2
119
 70
     0
 62
   119
  6
CONTINUOUS
  0
LAYER
  5
B1
330
2
100
AcDbSymbolTableRecord
100
AcDbLayerTableRecord
  2
120
 70
     0
 62
   120
  6
CONTINUOUS
  0
LAYER
  5
B2
330
2
100
AcDbSymbolTableRecord
100
AcDbLayerTableRecord
  2
121
 70
     0
 62
   121
  6
CONTINUOUS
  0
LAYER
  5
B3
330
2
100
AcDbSymbolTableRecord
100
AcDbLayerTableRecord
  2
122
 70
     0
 62
   122
  6
CONTINUOUS
  0
LAYER
  5
B4
330
2
100
AcDbSymbolTableRecord
100
AcDbLayerTableRecord
  2
123
 70
     0
 62
   123
  6
CONTINUOUS
  0
LAYER
  5
B5
330
2
100
AcDbSymbolTableRecord
100
AcDbLayerTableRecord
  2
124
 70
     0
 62
   124
  6
CONTINUOUS
  0
LAYER
  5
B6
330
2
100
AcDbSymbolTableRecord
100
AcDbLayerTableRecord
  2
125
 70
     0
 62
   125
  6
CONTINUOUS
  0
LAYER
  5
B7
330
2
100
AcDbSymbolTableRecord
100
AcDbLayerTableRecord
  2
126
 70
     0
 62
   126
  6
CONTINUOUS
  0
LAYER
  5
B8
330
2
100
AcDbSymbolTableRecord
100
AcDbLayerTableRecord
  2
127
 70
     0
 62
   127
  6
CONTINUOUS
  0
LAYER
  5
B9
330
2
100
AcDbSymbolTableRecord
100
AcDbLayerTableRecord
  2
128
 70
     0
 62
   128
  6
CONTINUOUS
  0
LAYER
  5
BA
330
2
100
AcDbSymbolTableRecord
100
AcDbLayerTableRecord
  2
129
 70
     0
 62
   129
  6
CONTINUOUS
  0
LAYER
  5
BB
330
2
100
AcDbSymbolTableRecord
100
AcDbLayerTableRecord
  2
130
 70
     0
 62
   130
  6
CONTINUOUS
  0
LAYER
  5
BC
330
2
100
AcDbSymbolTableRecord
100
AcDbLayerTableRecord
  2
131
 70
     0
 62
   131
  6
CONTINUOUS
  0
LAYER
  5
BD
330
2
100
AcDbSymbolTableRecord
100
AcDbLayerTableRecord
  2
132
 70
     0
 62
   132
  6
CONTINUOUS
  0
LAYER
  5
BE
330
2
100
AcDbSymbolTableRecord
100
AcDbLayerTableRecord
  2
133
 70
     0
 62
   133
  6
CONTINUOUS
  0
LAYER
  5
BF
330
2
100
AcDbSymbolTableRecord
100
AcDbLayerTableRecord
  2
134
 70
     0
 62
   134
  6
CONTINUOUS
  0
LAYER
  5
C0
330
2
100
AcDbSymbolTableRecord
100
AcDbLayerTableRecord
  2
135
 70
     0
 62
   135
  6
CONTINUOUS
  0
LAYER
  5
C1
330
2
100
AcDbSymbolTableRecord
100
AcDbLayerTableRecord
  2
136
 70
     0
 62
   136
  6
CONTINUOUS
  0
LAYER
  5
C2
330
2
100
AcDbSymbolTableRecord
100
AcDbLayerTableRecord
  2
137
 70
     0
 62
   137
  6
CONTINUOUS
  0
LAYER
  5
C3
330
2
100
AcDbSymbolTableRecord
100
AcDbLayerTableRecord
  2
138
 70
     0
 62
   138
  6
CONTINUOUS
  0
LAYER
  5
C4
330
2
100
AcDbSymbolTableRecord
100
AcDbLayerTableRecord
  2
139
 70
     0
 62
   139
  6
CONTINUOUS
  0
LAYER
  5
C5
330
2
100
AcDbSymbolTableRecord
100
AcDbLayerTableRecord
  2
140
 70
     0
 62
   140
  6
CONTINUOUS
  0
LAYER
  5
C6
330
2
100
AcDbSymbolTableRecord
100
AcDbLayerTableRecord
  2
141
 70
     0
 62
   141
  6
CONTINUOUS
  0
LAYER
  5
C7
330
2
100
AcDbSymbolTableRecord
100
AcDbLayerTableRecord
  2
142
 70
     0
 62
   142
  6
CONTINUOUS
  0
LAYER
  5
C8
330
2
100
AcDbSymbolTableRecord
100
AcDbLayerTableRecord
  2
143
 70
     0
 62
   143
  6
CONTINUOUS
  0
LAYER
  5
C9
330
2
100
AcDbSymbolTableRecord
100
AcDbLayerTableRecord
  2
144
 70
     0
 62
   144
  6
CONTINUOUS
  0
LAYER
  5
CA
330
2
100
AcDbSymbolTableRecord
100
AcDbLayerTableRecord
  2
145
 70
     0
 62
   145
  6
CONTINUOUS
  0
LAYER
  5
CB
330
2
100
AcDbSymbolTableRecord
100
AcDbLayerTableRecord
  2
146
 70
     0
 62
   146
  6
CONTINUOUS
  0
LAYER
  5
CC
330
2
100
AcDbSymbolTableRecord
100
AcDbLayerTableRecord
  2
147
 70
     0
 62
   147
  6
CONTINUOUS
  0
LAYER
  5
CD
330
2
100
AcDbSymbolTableRecord
100
AcDbLayerTableRecord
  2
148
 70
     0
 62
   148
  6
CONTINUOUS
  0
LAYER
  5
CE
330
2
100
AcDbSymbolTableRecord
100
AcDbLayerTableRecord
  2
149
 70
     0
 62
   149
  6
CONTINUOUS
  0
LAYER
  5
CF
330
2
100
AcDbSymbolTableRecord
100
AcDbLayerTableRecord
  2
150
 70
     0
 62
   150
  6
CONTINUOUS
  0
LAYER
  5
D0
330
2
100
AcDbSymbolTableRecord
100
AcDbLayerTableRecord
  2
151
 70
     0
 62
   151
  6
CONTINUOUS
  0
LAYER
  5
D1
330
2
100
AcDbSymbolTableRecord
100
AcDbLayerTableRecord
  2
152
 70
     0
 62
   152
  6
CONTINUOUS
  0
LAYER
  5
D2
330
2
100
AcDbSymbolTableRecord
100
AcDbLayerTableRecord
  2
153
 70
     0
 62
   153
  6
CONTINUOUS
  0
LAYER
  5
D3
330
2
100
AcDbSymbolTableRecord
100
AcDbLayerTableRecord
  2
154
 70
     0
 62
   154
  6
CONTINUOUS
  0
LAYER
  5
D4
330
2
100
AcDbSymbolTableRecord
100
AcDbLayerTableRecord
  2
155
 70
     0
 62
   155
  6
CONTINUOUS
  0
LAYER
  5
D5
330
2
100
AcDbSymbolTableRecord
100
AcDbLayerTableRecord
  2
156
 70
     0
 62
   156
  6
CONTINUOUS
  0
LAYER
  5
D6
330
2
100
AcDbSymbolTableRecord
100
AcDbLayerTableRecord
  2
157
 70
     0
 62
   157
  6
CONTINUOUS
  0
LAYER
  5
D7
330
2
100
AcDbSymbolTableRecord
100
AcDbLayerTableRecord
  2
158
 70
     0
 62
   158
  6
CONTINUOUS
  0
LAYER
  5
D8
330
2
100
AcDbSymbolTableRecord
100
AcDbLayerTableRecord
  2
159
 70
     0
 62
   159
  6
CONTINUOUS
  0
LAYER
  5
D9
330
2
100
AcDbSymbolTableRecord
100
AcDbLayerTableRecord
  2
160
 70
     0
 62
   160
  6
CONTINUOUS
  0
LAYER
  5
DA
330
2
100
AcDbSymbolTableRecord
100
AcDbLayerTableRecord
  2
161
 70
     0
 62
   161
  6
CONTINUOUS
  0
LAYER
  5
DB
330
2
100
AcDbSymbolTableRecord
100
AcDbLayerTableRecord
  2
162
 70
     0
 62
   162
  6
CONTINUOUS
  0
LAYER
  5
DC
330
2
100
AcDbSymbolTableRecord
100
AcDbLayerTableRecord
  2
163
 70
     0
 62
   163
  6
CONTINUOUS
  0
LAYER
  5
DD
330
2
100
AcDbSymbolTableRecord
100
AcDbLayerTableRecord
  2
164
 70
     0
 62
   164
  6
CONTINUOUS
  0
LAYER
  5
DE
330
2
100
AcDbSymbolTableRecord
100
AcDbLayerTableRecord
  2
165
 70
     0
 62
   165
  6
CONTINUOUS
  0
LAYER
  5
DF
330
2
100
AcDbSymbolTableRecord
100
AcDbLayerTableRecord
  2
166
 70
     0
 62
   166
  6
CONTINUOUS
  0
LAYER
  5
E0
330
2
100
AcDbSymbolTableRecord
100
AcDbLayerTableRecord
  2
167
 70
     0
 62
   167
  6
CONTINUOUS
  0
LAYER
  5
E1
330
2
100
AcDbSymbolTableRecord
100
AcDbLayerTableRecord
  2
168
 70
     0
 62
   168
  6
CONTINUOUS
  0
LAYER
  5
E2
330
2
100
AcDbSymbolTableRecord
100
AcDbLayerTableRecord
  2
169
 70
     0
 62
   169
  6
CONTINUOUS
  0
LAYER
  5
E3
330
2
100
AcDbSymbolTableRecord
100
AcDbLayerTableRecord
  2
170
 70
     0
 62
   170
  6
CONTINUOUS
  0
LAYER
  5
E4
330
2
100
AcDbSymbolTableRecord
100
AcDbLayerTableRecord
  2
171
 70
     0
 62
   171
  6
CONTINUOUS
  0
LAYER
  5
E5
330
2
100
AcDbSymbolTableRecord
100
AcDbLayerTableRecord
  2
172
 70
     0
 62
   172
  6
CONTINUOUS
  0
LAYER
  5
E6
330
2
100
AcDbSymbolTableRecord
100
AcDbLayerTableRecord
  2
173
 70
     0
 62
   173
  6
CONTINUOUS
  0
LAYER
  5
E7
330
2
100
AcDbSymbolTableRecord
100
AcDbLayerTableRecord
  2
174
 70
     0
 62
   174
  6
CONTINUOUS
  0
LAYER
  5
E8
330
2
100
AcDbSymbolTableRecord
100
AcDbLayerTableRecord
  2
175
 70
     0
 62
   175
  6
CONTINUOUS
  0
LAYER
  5
E9
330
2
100
AcDbSymbolTableRecord
100
AcDbLayerTableRecord
  2
176
 70
     0
 62
   176
  6
CONTINUOUS
  0
LAYER
  5
EA
330
2
100
AcDbSymbolTableRecord
100
AcDbLayerTableRecord
  2
177
 70
     0
 62
   177
  6
CONTINUOUS
  0
LAYER
  5
EB
330
2
100
AcDbSymbolTableRecord
100
AcDbLayerTableRecord
  2
178
 70
     0
 62
   178
  6
CONTINUOUS
  0
LAYER
  5
EC
330
2
100
AcDbSymbolTableRecord
100
AcDbLayerTableRecord
  2
179
 70
     0
 62
   179
  6
CONTINUOUS
  0
LAYER
  5
ED
330
2
100
AcDbSymbolTableRecord
100
AcDbLayerTableRecord
  2
180
 70
     0
 62
   180
  6
CONTINUOUS
  0
LAYER
  5
EE
330
2
100
AcDbSymbolTableRecord
100
AcDbLayerTableRecord
  2
181
 70
     0
 62
   181
  6
CONTINUOUS
  0
LAYER
  5
EF
330
2
100
AcDbSymbolTableRecord
100
AcDbLayerTableRecord
  2
182
 70
     0
 62
   182
  6
CONTINUOUS
  0
LAYER
  5
F0
330
2
100
AcDbSymbolTableRecord
100
AcDbLayerTableRecord
  2
183
 70
     0
 62
   183
  6
CONTINUOUS
  0
LAYER
  5
F1
330
2
100
AcDbSymbolTableRecord
100
AcDbLayerTableRecord
  2
184
 70
     0
 62
   184
  6
CONTINUOUS
  0
LAYER
  5
F2
330
2
100
AcDbSymbolTableRecord
100
AcDbLayerTableRecord
  2
185
 70
     0
 62
   185
  6
CONTINUOUS
  0
LAYER
  5
F3
330
2
100
AcDbSymbolTableRecord
100
AcDbLayerTableRecord
  2
186
 70
     0
 62
   186
  6
CONTINUOUS
  0
LAYER
  5
F4
330
2
100
AcDbSymbolTableRecord
100
AcDbLayerTableRecord
  2
187
 70
     0
 62
   187
  6
CONTINUOUS
  0
LAYER
  5
F5
330
2
100
AcDbSymbolTableRecord
100
AcDbLayerTableRecord
  2
188
 70
     0
 62
   188
  6
CONTINUOUS
  0
LAYER
  5
F6
330
2
100
AcDbSymbolTableRecord
100
AcDbLayerTableRecord
  2
189
 70
     0
 62
   189
  6
CONTINUOUS
  0
LAYER
  5
F7
330
2
100
AcDbSymbolTableRecord
100
AcDbLayerTableRecord
  2
190
 70
     0
 62
   190
  6
CONTINUOUS
  0
LAYER
  5
F8
330
2
100
AcDbSymbolTableRecord
100
AcDbLayerTableRecord
  2
191
 70
     0
 62
   191
  6
CONTINUOUS
  0
LAYER
  5
F9
330
2
100
AcDbSymbolTableRecord
100
AcDbLayerTableRecord
  2
192
 70
     0
 62
   192
  6
CONTINUOUS
  0
LAYER
  5
FA
330
2
100
AcDbSymbolTableRecord
100
AcDbLayerTableRecord
  2
193
 70
     0
 62
   193
  6
CONTINUOUS
  0
LAYER
  5
FB
330
2
100
AcDbSymbolTableRecord
100
AcDbLayerTableRecord
  2
194
 70
     0
 62
   194
  6
CONTINUOUS
  0
LAYER
  5
FC
330
2
100
AcDbSymbolTableRecord
100
AcDbLayerTableRecord
  2
195
 70
     0
 62
   195
  6
CONTINUOUS
  0
LAYER
  5
FD
330
2
100
AcDbSymbolTableRecord
100
AcDbLayerTableRecord
  2
196
 70
     0
 62
   196
  6
CONTINUOUS
  0
LAYER
  5
FE
330
2
100
AcDbSymbolTableRecord
100
AcDbLayerTableRecord
  2
197
 70
     0
 62
   197
  6
CONTINUOUS
  0
LAYER
  5
FF
330
2
100
AcDbSymbolTableRecord
100
AcDbLayerTableRecord
  2
198
 70
     0
 62
   198
  6
CONTINUOUS
  0
LAYER
  5
100
330
2
100
AcDbSymbolTableRecord
100
AcDbLayerTableRecord
  2
199
 70
     0
 62
   199
  6
CONTINUOUS
  0
LAYER
  5
101
330
2
100
AcDbSymbolTableRecord
100
AcDbLayerTableRecord
  2
200
 70
     0
 62
   200
  6
CONTINUOUS
  0
LAYER
  5
102
330
2
100
AcDbSymbolTableRecord
100
AcDbLayerTableRecord
  2
201
 70
     0
 62
   201
  6
CONTINUOUS
  0
LAYER
  5
103
330
2
100
AcDbSymbolTableRecord
100
AcDbLayerTableRecord
  2
202
 70
     0
 62
   202
  6
CONTINUOUS
  0
LAYER
  5
104
330
2
100
AcDbSymbolTableRecord
100
AcDbLayerTableRecord
  2
203
 70
     0
 62
   203
  6
CONTINUOUS
  0
LAYER
  5
105
330
2
100
AcDbSymbolTableRecord
100
AcDbLayerTableRecord
  2
204
 70
     0
 62
   204
  6
CONTINUOUS
  0
LAYER
  5
106
330
2
100
AcDbSymbolTableRecord
100
AcDbLayerTableRecord
  2
205
 70
     0
 62
   205
  6
CONTINUOUS
  0
LAYER
  5
107
330
2
100
AcDbSymbolTableRecord
100
AcDbLayerTableRecord
  2
206
 70
     0
 62
   206
  6
CONTINUOUS
  0
LAYER
  5
108
330
2
100
AcDbSymbolTableRecord
100
AcDbLayerTableRecord
  2
207
 70
     0
 62
   207
  6
CONTINUOUS
  0
LAYER
  5
109
330
2
100
AcDbSymbolTableRecord
100
AcDbLayerTableRecord
  2
208
 70
     0
 62
   208
  6
CONTINUOUS
  0
LAYER
  5
10A
330
2
100
AcDbSymbolTableRecord
100
AcDbLayerTableRecord
  2
209
 70
     0
 62
   209
  6
CONTINUOUS
  0
LAYER
  5
10B
330
2
100
AcDbSymbolTableRecord
100
AcDbLayerTableRecord
  2
210
 70
     0
 62
   210
  6
CONTINUOUS
  0
LAYER
  5
10C
330
2
100
AcDbSymbolTableRecord
100
AcDbLayerTableRecord
  2
211
 70
     0
 62
   211
  6
CONTINUOUS
  0
LAYER
  5
10D
330
2
100
AcDbSymbolTableRecord
100
AcDbLayerTableRecord
  2
212
 70
     0
 62
   212
  6
CONTINUOUS
  0
LAYER
  5
10E
330
2
100
AcDbSymbolTableRecord
100
AcDbLayerTableRecord
  2
213
 70
     0
 62
   213
  6
CONTINUOUS
  0
LAYER
  5
10F
330
2
100
AcDbSymbolTableRecord
100
AcDbLayerTableRecord
  2
214
 70
     0
 62
   214
  6
CONTINUOUS
  0
LAYER
  5
110
330
2
100
AcDbSymbolTableRecord
100
AcDbLayerTableRecord
  2
215
 70
     0
 62
   215
  6
CONTINUOUS
  0
LAYER
  5
111
330
2
100
AcDbSymbolTableRecord
100
AcDbLayerTableRecord
  2
216
 70
     0
 62
   216
  6
CONTINUOUS
  0
LAYER
  5
112
330
2
100
AcDbSymbolTableRecord
100
AcDbLayerTableRecord
  2
217
 70
     0
 62
   217
  6
CONTINUOUS
  0
LAYER
  5
113
330
2
100
AcDbSymbolTableRecord
100
AcDbLayerTableRecord
  2
218
 70
     0
 62
   218
  6
CONTINUOUS
  0
LAYER
  5
114
330
2
100
AcDbSymbolTableRecord
100
AcDbLayerTableRecord
  2
219
 70
     0
 62
   219
  6
CONTINUOUS
  0
LAYER
  5
115
330
2
100
AcDbSymbolTableRecord
100
AcDbLayerTableRecord
  2
220
 70
     0
 62
   220
  6
CONTINUOUS
  0
LAYER
  5
116
330
2
100
AcDbSymbolTableRecord
100
AcDbLayerTableRecord
  2
221
 70
     0
 62
   221
  6
CONTINUOUS
  0
LAYER
  5
117
330
2
100
AcDbSymbolTableRecord
100
AcDbLayerTableRecord
  2
222
 70
     0
 62
   222
  6
CONTINUOUS
  0
LAYER
  5
118
330
2
100
AcDbSymbolTableRecord
100
AcDbLayerTableRecord
  2
223
 70
     0
 62
   223
  6
CONTINUOUS
  0
LAYER
  5
119
330
2
100
AcDbSymbolTableRecord
100
AcDbLayerTableRecord
  2
224
 70
     0
 62
   224
  6
CONTINUOUS
  0
LAYER
  5
11A
330
2
100
AcDbSymbolTableRecord
100
AcDbLayerTableRecord
  2
225
 70
     0
 62
   225
  6
CONTINUOUS
  0
LAYER
  5
11B
330
2
100
AcDbSymbolTableRecord
100
AcDbLayerTableRecord
  2
226
 70
     0
 62
   226
  6
CONTINUOUS
  0
LAYER
  5
11C
330
2
100
AcDbSymbolTableRecord
100
AcDbLayerTableRecord
  2
227
 70
     0
 62
   227
  6
CONTINUOUS
  0
LAYER
  5
11D
330
2
100
AcDbSymbolTableRecord
100
AcDbLayerTableRecord
  2
228
 70
     0
 62
   228
  6
CONTINUOUS
  0
LAYER
  5
11E
330
2
100
AcDbSymbolTableRecord
100
AcDbLayerTableRecord
  2
229
 70
     0
 62
   229
  6
CONTINUOUS
  0
LAYER
  5
11F
330
2
100
AcDbSymbolTableRecord
100
AcDbLayerTableRecord
  2
230
 70
     0
 62
   230
  6
CONTINUOUS
  0
LAYER
  5
120
330
2
100
AcDbSymbolTableRecord
100
AcDbLayerTableRecord
  2
231
 70
     0
 62
   231
  6
CONTINUOUS
  0
LAYER
  5
121
330
2
100
AcDbSymbolTableRecord
100
AcDbLayerTableRecord
  2
232
 70
     0
 62
   232
  6
CONTINUOUS
  0
LAYER
  5
122
330
2
100
AcDbSymbolTableRecord
100
AcDbLayerTableRecord
  2
233
 70
     0
 62
   233
  6
CONTINUOUS
  0
LAYER
  5
123
330
2
100
AcDbSymbolTableRecord
100
AcDbLayerTableRecord
  2
234
 70
     0
 62
   234
  6
CONTINUOUS
  0
LAYER
  5
124
330
2
100
AcDbSymbolTableRecord
100
AcDbLayerTableRecord
  2
235
 70
     0
 62
   235
  6
CONTINUOUS
  0
LAYER
  5
125
330
2
100
AcDbSymbolTableRecord
100
AcDbLayerTableRecord
  2
236
 70
     0
 62
   236
  6
CONTINUOUS
  0
LAYER
  5
126
330
2
100
AcDbSymbolTableRecord
100
AcDbLayerTableRecord
  2
237
 70
     0
 62
   237
  6
CONTINUOUS
  0
LAYER
  5
127
330
2
100
AcDbSymbolTableRecord
100
AcDbLayerTableRecord
  2
238
 70
     0
 62
   238
  6
CONTINUOUS
  0
LAYER
  5
128
330
2
100
AcDbSymbolTableRecord
100
AcDbLayerTableRecord
  2
239
 70
     0
 62
   239
  6
CONTINUOUS
  0
LAYER
  5
129
330
2
100
AcDbSymbolTableRecord
100
AcDbLayerTableRecord
  2
240
 70
     0
 62
   240
  6
CONTINUOUS
  0
LAYER
  5
12A
330
2
100
AcDbSymbolTableRecord
100
AcDbLayerTableRecord
  2
241
 70
     0
 62
   241
  6
CONTINUOUS
  0
LAYER
  5
12B
330
2
100
AcDbSymbolTableRecord
100
AcDbLayerTableRecord
  2
242
 70
     0
 62
   242
  6
CONTINUOUS
  0
LAYER
  5
12C
330
2
100
AcDbSymbolTableRecord
100
AcDbLayerTableRecord
  2
243
 70
     0
 62
   243
  6
CONTINUOUS
  0
LAYER
  5
12D
330
2
100
AcDbSymbolTableRecord
100
AcDbLayerTableRecord
  2
244
 70
     0
 62
   244
  6
CONTINUOUS
  0
LAYER
  5
12E
330
2
100
AcDbSymbolTableRecord
100
AcDbLayerTableRecord
  2
245
 70
     0
 62
   245
  6
CONTINUOUS
  0
LAYER
  5
12F
330
2
100
AcDbSymbolTableRecord
100
AcDbLayerTableRecord
  2
246
 70
     0
 62
   246
  6
CONTINUOUS
  0
LAYER
  5
130
330
2
100
AcDbSymbolTableRecord
100
AcDbLayerTableRecord
  2
247
 70
     0
 62
   247
  6
CONTINUOUS
  0
LAYER
  5
131
330
2
100
AcDbSymbolTableRecord
100
AcDbLayerTableRecord
  2
248
 70
     0
 62
   248
  6
CONTINUOUS
  0
LAYER
  5
132
330
2
100
AcDbSymbolTableRecord
100
AcDbLayerTableRecord
  2
249
 70
     0
 62
   249
  6
CONTINUOUS
  0
LAYER
  5
133
330
2
100
AcDbSymbolTableRecord
100
AcDbLayerTableRecord
  2
250
 70
     0
 62
   250
  6
CONTINUOUS
  0
LAYER
  5
134
330
2
100
AcDbSymbolTableRecord
100
AcDbLayerTableRecord
  2
251
 70
     0
 62
   251
  6
CONTINUOUS
  0
LAYER
  5
135
330
2
100
AcDbSymbolTableRecord
100
AcDbLayerTableRecord
  2
252
 70
     0
 62
   252
  6
CONTINUOUS
  0
LAYER
  5
136
330
2
100
AcDbSymbolTableRecord
100
AcDbLayerTableRecord
  2
253
 70
     0
 62
   253
  6
CONTINUOUS
  0
LAYER
  5
137
330
2
100
AcDbSymbolTableRecord
100
AcDbLayerTableRecord
  2
254
 70
     0
 62
   254
  6
CONTINUOUS
  0
LAYER
  5
138
330
2
100
AcDbSymbolTableRecord
100
AcDbLayerTableRecord
  2
255
 70
     0
 62
   255
  6
CONTINUOUS
  0
ENDTAB
  0
TABLE
  2
STYLE
  5
3
330
0
100
AcDbSymbolTable
 70
     1
  0
STYLE
  5
11
330
3
100
AcDbSymbolTableRecord
100
AcDbTextStyleTableRecord
  2
STANDARD
 70
     0
 40
0.0
 41
1.0
 50
0.0
 71
     0
 42
0.2
  3
monotxt
  4

  0
ENDTAB
  0
TABLE
  2
VIEW
  5
6
330
0
100
AcDbSymbolTable
 70
     0
  0
ENDTAB
  0
TABLE
  2
UCS
  5
7
330
0
100
AcDbSymbolTable
 70
     0
  0
ENDTAB
  0
TABLE
  2
APPID
  5
9
330
0
100
AcDbSymbolTable
 70
     1
  0
APPID
  5
12
330
9
100
AcDbSymbolTableRecord
100
AcDbRegAppTableRecord
  2
ACAD
 70
     0
  0
ENDTAB
  0
TABLE
  2
DIMSTYLE
  5
A
330
0
100
AcDbSymbolTable
 70
     1
  0
DIMSTYLE
105
356C
330
A
100
AcDbSymbolTableRecord
100
AcDbDimStyleTableRecord
  2
STANDARD
 70
     0
  3

  4

  5

  6

  7

 40
1.0
 41
0.18
 42
0.0625
 43
0.38
 44
0.18
 45
0.0
 46
0.0
 47
0.0
 48
0.0
140
0.18
141
0.09
142
0.0
143
25.4
144
1.0
145
0.0
146
1.0
147
0.09
 71
     0
 72
     0
 73
     1
 74
     1
 75
     0
 76
     0
 77
     0
 78
     0
170
     0
171
     2
172
     0
173
     0
174
     0
175
     0
176
     0
177
     0
178
     0
270
     2
271
     4
272
     4
273
     2
274
     2
340
11
275
     0
280
     0
281
     0
282
     0
283
     1
284
     0
285
     0
286
     0
287
     3
288
     0
  0
ENDTAB
  0
TABLE
  2
BLOCK_RECORD
  5
1
330
0
100
AcDbSymbolTable
 70
     0
  0
BLOCK_RECORD
  5
1E
102
{ACAD_XDICTIONARY
360
4C5F
102
}
330
1
100
AcDbSymbolTableRecord
100
AcDbBlockTableRecord
  2
*MODEL_SPACE
  0
BLOCK_RECORD
  5
1A
102
{ACAD_XDICTIONARY
360
4C5D
102
}
330
1
100
AcDbSymbolTableRecord
100
AcDbBlockTableRecord
  2
*PAPER_SPACE
  0
ENDTAB
  0
ENDSEC
  0
SECTION
  2
BLOCKS
  0
BLOCK
  5
13B
330
1E
100
AcDbEntity
  8
0
100
AcDbBlockBegin
  2
*MODEL_SPACE
 70
     0
 10
0.0
 20
0.0
 30
0.0
  3
*MODEL_SPACE
  1

  0
ENDBLK
  5
13C
330
1E
100
AcDbEntity
  8
0
100
AcDbBlockEnd
  0
BLOCK
  5
139
330
1A
100
AcDbEntity
 67
     1
  8
0
100
AcDbBlockBegin
  2
*PAPER_SPACE
 70
     0
 10
0.0
 20
0.0
 30
0.0
  3
*PAPER_SPACE
  1

  0
ENDBLK
  5
13A
330
1A
100
AcDbEntity
 67
     1
  8
0
100
AcDbBlockEnd
  0
ENDSEC
  0
SECTION
  2
ENTITIES
  0
LINE
  5
29E3
330
1E
100
AcDbEntity
  8
7
100
AcDbLine
 10
13.32560348942677
 20
14.2663234329795
 30
0.0
 11
13.44502606160525
 21
14.2663234329795
 31
0.0
  0
LINE
  5
29E4
330
1E
100
AcDbEntity
  8
7
100
AcDbLine
 10
13.44502606160525
 20
14.31225519150968
 30
0.0
 11
13.51326753142152
 21
14.31225519150968
 31
0.0
  0
LINE
  5
29E5
330
1E
100
AcDbEntity
  8
7
100
AcDbLine
 10
13.32560348942677
 20
12.76501109702149
 30
0.0
 11
13.44502606160525
 21
12.76501109702149
 31
0.0
  0
LINE
  5
29E6
330
1E
100
AcDbEntity
  8
7
100
AcDbLine
 10
13.44502606160525
 20
12.80963051959367
 30
0.0
 11
13.51326753142152
 21
12.80963051959367
 31
0.0
  0
LINE
  5
29EC
330
1E
100
AcDbEntity
  8
7
100
AcDbLine
 10
12.95552474926929
 20
12.71645466657529
 30
0.0
 11
13.44502606160525
 21
12.71645466657529
 31
0.0
  0
LINE
  5
29ED
330
1E
100
AcDbEntity
  8
7
100
AcDbLine
 10
12.95552474926929
 20
12.71645466657529
 30
0.0
 11
12.81116779388872
 21
12.71645466657529
 31
0.0
  0
LINE
  5
29EE
330
1E
100
AcDbEntity
  8
7
100
AcDbLine
 10
12.32035414559475
 20
12.71645466657529
 30
0.0
 11
12.81116779388872
 21
12.71645466657529
 31
0.0
  0
LINE
  5
29EF
330
1E
100
AcDbEntity
  8
7
100
AcDbLine
 10
12.32035414559475
 20
12.71645466657529
 30
0.0
 11
12.17599719021418
 21
12.71645466657529
 31
0.0
  0
LINE
  5
29F0
330
1E
100
AcDbEntity
  8
7
100
AcDbLine
 10
11.68518354192021
 20
12.71645466657529
 30
0.0
 11
12.17599719021418
 21
12.71645466657529
 31
0.0
  0
LINE
  5
29F1
330
1E
100
AcDbEntity
  8
7
100
AcDbLine
 10
11.68518354192021
 20
12.71645466657529
 30
0.0
 11
11.56576096974173
 21
12.71645466657529
 31
0.0
  0
LINE
  5
29F2
330
1E
100
AcDbEntity
  8
7
100
AcDbLine
 10
11.56576096974173
 20
12.24532605765142
 30
0.0
 11
11.56576096974173
 21
12.71645466657529
 31
0.0
  0
LINE
  5
29F3
330
1E
100
AcDbEntity
  8
7
100
AcDbLine
 10
13.56576096974174
 20
12.24532605765142
 30
0.0
 11
11.56576096974173
 21
12.24532605765142
 31
0.0
  0
LINE
  5
29F4
330
1E
100
AcDbEntity
  8
7
100
AcDbLine
 10
12.24292632407244
 20
12.52222894479052
 30
0.0
 11
12.21930427682835
 21
12.52222894479052
 31
0.0
  0
LINE
  5
29F5
330
1E
100
AcDbEntity
  8
7
100
AcDbLine
 10
12.24292632407244
 20
12.57341004715272
 30
0.0
 11
12.24292632407244
 21
12.52222894479052
 31
0.0
  0
LINE
  5
29F6
330
1E
100
AcDbEntity
  8
7
100
AcDbLine
 10
12.88728327945302
 20
12.57341004715272
 30
0.0
 11
12.24292632407244
 21
12.57341004715272
 31
0.0
  0
LINE
  5
29F7
330
1E
100
AcDbEntity
  8
7
100
AcDbLine
 10
12.88728327945302
 20
12.52222894479052
 30
0.0
 11
12.88728327945302
 21
12.57341004715272
 31
0.0
  0
LINE
  5
29F8
330
1E
100
AcDbEntity
  8
7
100
AcDbLine
 10
12.91221766265512
 20
12.52222894479052
 30
0.0
 11
12.88728327945302
 21
12.52222894479052
 31
0.0
  0
LINE
  5
29F9
330
1E
100
AcDbEntity
  8
7
100
AcDbLine
 10
12.91221766265512
 20
12.38049666132595
 30
0.0
 11
12.91221766265512
 21
12.52222894479052
 31
0.0
  0
LINE
  5
29FA
330
1E
100
AcDbEntity
  8
7
100
AcDbLine
 10
12.88728327945302
 20
12.38049666132595
 30
0.0
 11
12.91221766265512
 21
12.38049666132595
 31
0.0
  0
LINE
  5
29FB
330
1E
100
AcDbEntity
  8
7
100
AcDbLine
 10
12.88728327945302
 20
12.32931555896375
 30
0.0
 11
12.88728327945302
 21
12.38049666132595
 31
0.0
  0
LINE
  5
29FC
330
1E
100
AcDbEntity
  8
7
100
AcDbLine
 10
12.24292632407244
 20
12.32931555896375
 30
0.0
 11
12.88728327945302
 21
12.32931555896375
 31
0.0
  0
LINE
  5
29FD
330
1E
100
AcDbEntity
  8
7
100
AcDbLine
 10
12.24292632407244
 20
12.38049666132595
 30
0.0
 11
12.24292632407244
 21
12.32931555896375
 31
0.0
  0
LINE
  5
29FE
330
1E
100
AcDbEntity
  8
7
100
AcDbLine
 10
12.21930427682835
 20
12.38049666132595
 30
0.0
 11
12.24292632407244
 21
12.38049666132595
 31
0.0
  0
LINE
  5
29FF
330
1E
100
AcDbEntity
  8
7
100
AcDbLine
 10
12.21930427682835
 20
12.52222894479052
 30
0.0
 11
12.21930427682835
 21
12.38049666132595
 31
0.0
  0
LINE
  5
2A11
330
1E
100
AcDbEntity
  8
7
100
AcDbLine
 10
11.61169272827192
 20
15.06159902353068
 30
0.0
 11
11.61169272827192
 21
15.09571975843881
 31
0.0
  0
LINE
  5
2A12
330
1E
100
AcDbEntity
  8
7
100
AcDbLine
 10
13.51982921121155
 20
15.09571975843881
 30
0.0
 11
13.51982921121155
 21
15.06159902353068
 31
0.0
  0
LINE
  5
2A13
330
1E
100
AcDbEntity
  8
7
100
AcDbLine
 10
13.52245388312756
 20
15.09571975843881
 30
0.0
 11
13.51982921121155
 21
15.09571975843881
 31
0.0
  0
LINE
  5
2A14
330
1E
100
AcDbEntity
  8
7
100
AcDbLine
 10
13.54607593037166
 20
15.18102159570915
 30
0.0
 11
13.54607593037166
 21
15.10359377418684
 31
0.0
  0
LINE
  5
2A15
330
1E
100
AcDbEntity
  8
7
100
AcDbLine
 10
13.51982921121155
 20
15.18102159570915
 30
0.0
 11
13.54607593037166
 21
15.18102159570915
 31
0.0
  0
LINE
  5
2A16
330
1E
100
AcDbEntity
  8
7
100
AcDbLine
 10
13.51982921121155
 20
15.22432868232333
 30
0.0
 11
13.51982921121155
 21
15.18102159570915
 31
0.0
  0
LINE
  5
2A17
330
1E
100
AcDbEntity
  8
7
100
AcDbLine
 10
11.61169272827192
 20
15.22432868232333
 30
0.0
 11
13.51982921121155
 21
15.22432868232333
 31
0.0
  0
LINE
  5
2A18
330
1E
100
AcDbEntity
  8
7
100
AcDbLine
 10
11.61169272827192
 20
15.18102159570915
 30
0.0
 11
11.61169272827192
 21
15.22432868232333
 31
0.0
  0
LINE
  5
2A19
330
1E
100
AcDbEntity
  8
7
100
AcDbLine
 10
11.58544600911181
 20
15.18102159570915
 30
0.0
 11
11.61169272827192
 21
15.18102159570915
 31
0.0
  0
LINE
  5
2A1A
330
1E
100
AcDbEntity
  8
7
100
AcDbLine
 10
11.58544600911181
 20
15.10359377418684
 30
0.0
 11
11.58544600911181
 21
15.18102159570915
 31
0.0
  0
LINE
  5
2A1B
330
1E
100
AcDbEntity
  8
7
100
AcDbLine
 10
11.61169272827192
 20
15.09571975843881
 30
0.0
 11
11.60906805635591
 21
15.09571975843881
 31
0.0
  0
LINE
  5
2A29
330
1E
100
AcDbEntity
  8
7
100
AcDbLine
 10
11.90040663903307
 20
15.10884311801886
 30
0.0
 11
11.89384495924305
 21
15.12590348547293
 31
0.0
  0
LINE
  5
2A38
330
1E
100
AcDbEntity
  8
7
100
AcDbLine
 10
13.52114154716955
 20
15.0930950865228
 30
0.0
 11
13.52245388312756
 21
15.10359377418684
 31
0.0
  0
LINE
  5
2A39
330
1E
100
AcDbEntity
  8
7
100
AcDbLine
 10
13.54607593037166
 20
15.10359377418684
 30
0.0
 11
13.52245388312756
 21
15.10359377418684
 31
0.0
  0
LINE
  5
2A3A
330
1E
100
AcDbEntity
  8
7
100
AcDbLine
 10
13.52114154716955
 20
15.0930950865228
 30
0.0
 11
13.52114154716955
 21
15.06159902353068
 31
0.0
  0
LINE
  5
2A3B
330
1E
100
AcDbEntity
  8
7
100
AcDbLine
 10
13.52245388312756
 20
15.10359377418684
 30
0.0
 11
13.52245388312756
 21
15.06159902353068
 31
0.0
  0
LINE
  5
2A3C
330
1E
100
AcDbEntity
  8
7
100
AcDbLine
 10
11.60906805635591
 20
15.0930950865228
 30
0.0
 11
11.60906805635591
 21
15.06159902353068
 31
0.0
  0
LINE
  5
2A3D
330
1E
100
AcDbEntity
  8
7
100
AcDbLine
 10
11.60906805635591
 20
15.0930950865228
 30
0.0
 11
11.60906805635591
 21
15.10359377418684
 31
0.0
  0
LINE
  5
2A48
330
1E
100
AcDbEntity
  8
7
100
AcDbLine
 10
13.57101031357375
 20
15.41592973219209
 30
0.0
 11
13.5828213371958
 21
15.41592973219209
 31
0.0
  0
LINE
  5
2A49
330
1E
100
AcDbEntity
  8
7
100
AcDbLine
 10
13.56576096974174
 20
15.53535230437057
 30
0.0
 11
13.57101031357375
 21
15.41592973219209
 31
0.0
  0
LINE
  5
2A4A
330
1E
100
AcDbEntity
  8
7
100
AcDbLine
 10
13.56576096974174
 20
15.53535230437057
 30
0.0
 11
11.56576096974173
 21
15.53535230437057
 31
0.0
  0
LINE
  5
2A4B
330
1E
100
AcDbEntity
  8
7
100
AcDbLine
 10
11.55919928995171
 20
15.41592973219209
 30
0.0
 11
11.56576096974173
 21
15.53535230437057
 31
0.0
  0
LINE
  5
2A4C
330
1E
100
AcDbEntity
  8
7
100
AcDbLine
 10
11.54870060228767
 20
15.41592973219209
 30
0.0
 11
11.55919928995171
 21
15.41592973219209
 31
0.0
  0
LINE
  5
2A4D
330
1E
100
AcDbEntity
  8
7
100
AcDbLine
 10
11.54870060228767
 20
15.41592973219209
 30
0.0
 11
11.55919928995171
 21
14.98679587392437
 31
0.0
  0
LINE
  5
2A4E
330
1E
100
AcDbEntity
  8
7
100
AcDbLine
 10
13.52245388312756
 20
15.06159902353068
 30
0.0
 11
11.60906805635591
 21
15.06159902353068
 31
0.0
  0
LINE
  5
2A61
330
1E
100
AcDbEntity
  8
7
100
AcDbLine
 10
13.28754574664462
 20
14.86343629387188
 30
0.0
 11
13.30329377814068
 21
14.86343629387188
 31
0.0
  0
LINE
  5
2A62
330
1E
100
AcDbEntity
  8
7
100
AcDbLine
 10
13.09856936869186
 20
14.86343629387188
 30
0.0
 11
13.11300506422992
 21
14.86343629387188
 31
0.0
  0
LINE
  5
2A68
330
1E
100
AcDbEntity
  8
7
100
AcDbLine
 10
12.67074784638215
 20
14.83718957471178
 30
0.0
 11
12.66812317446614
 21
14.86343629387188
 31
0.0
  0
LINE
  5
2A69
330
1E
100
AcDbEntity
  8
7
100
AcDbLine
 10
12.65368747892809
 20
14.86343629387188
 30
0.0
 11
12.66812317446614
 21
14.86343629387188
 31
0.0
  0
LINE
  5
2A6A
330
1E
100
AcDbEntity
  8
7
100
AcDbLine
 10
12.46339876501733
 20
14.86343629387188
 30
0.0
 11
12.47783446055538
 21
14.86343629387188
 31
0.0
  0
LINE
  5
2A71
330
1E
100
AcDbEntity
  8
7
100
AcDbLine
 10
12.01851687525355
 20
14.86343629387188
 30
0.0
 11
12.0329525707916
 21
14.86343629387188
 31
0.0
  0
LINE
  5
2A72
330
1E
100
AcDbEntity
  8
7
100
AcDbLine
 10
13.28754574664462
 20
14.82931555896375
 30
0.0
 11
13.28754574664462
 21
14.86343629387188
 31
0.0
  0
LINE
  5
2A73
330
1E
100
AcDbEntity
  8
7
100
AcDbLine
 10
12.65368747892809
 20
14.82931555896375
 30
0.0
 11
12.65368747892809
 21
14.86343629387188
 31
0.0
  0
LINE
  5
2A74
330
1E
100
AcDbEntity
  8
7
100
AcDbLine
 10
12.01851687525355
 20
14.82931555896375
 30
0.0
 11
12.01851687525355
 21
14.86343629387188
 31
0.0
  0
LINE
  5
2A75
330
1E
100
AcDbEntity
  8
7
100
AcDbLine
 10
11.61825440806194
 20
14.31225519150968
 30
0.0
 11
11.68518354192021
 21
14.31225519150968
 31
0.0
  0
LINE
  5
2A76
330
1E
100
AcDbEntity
  8
7
100
AcDbLine
 10
11.68518354192021
 20
14.2663234329795
 30
0.0
 11
11.80591845005669
 21
14.2663234329795
 31
0.0
  0
LINE
  5
2A77
330
1E
100
AcDbEntity
  8
7
100
AcDbLine
 10
12.69043288575223
 20
14.2663234329795
 30
0.0
 11
12.81116779388872
 21
14.2663234329795
 31
0.0
  0
LINE
  5
2A78
330
1E
100
AcDbEntity
  8
7
100
AcDbLine
 10
12.81116779388872
 20
14.31225519150968
 30
0.0
 11
12.95552474926929
 21
14.31225519150968
 31
0.0
  0
LINE
  5
2A79
330
1E
100
AcDbEntity
  8
7
100
AcDbLine
 10
12.95552474926929
 20
14.2663234329795
 30
0.0
 11
13.07625965740577
 21
14.2663234329795
 31
0.0
  0
LINE
  5
2A7A
330
1E
100
AcDbEntity
  8
7
100
AcDbLine
 10
12.05526228207769
 20
14.2663234329795
 30
0.0
 11
12.17599719021418
 21
14.2663234329795
 31
0.0
  0
LINE
  5
2A7B
330
1E
100
AcDbEntity
  8
7
100
AcDbLine
 10
12.17599719021418
 20
14.31225519150968
 30
0.0
 11
12.32035414559475
 21
14.31225519150968
 31
0.0
  0
LINE
  5
2A7C
330
1E
100
AcDbEntity
  8
7
100
AcDbLine
 10
12.32035414559475
 20
14.2663234329795
 30
0.0
 11
12.44108905373124
 21
14.2663234329795
 31
0.0
  0
LINE
  5
2A7D
330
1E
100
AcDbEntity
  8
7
100
AcDbLine
 10
13.58019666527979
 20
14.50123156946244
 30
0.0
 11
13.57757199336378
 21
14.50123156946244
 31
0.0
  0
LINE
  5
2A84
330
1E
100
AcDbEntity
  8
7
100
AcDbLine
 10
11.55394994611969
 20
14.50123156946244
 30
0.0
 11
11.55132527420368
 21
14.50123156946244
 31
0.0
  0
LINE
  5
2A85
330
1E
100
AcDbEntity
  8
7
100
AcDbLine
 10
11.56576096974173
 20
14.2177670025333
 30
0.0
 11
11.55394994611969
 21
14.50123156946244
 31
0.0
  0
LINE
  5
2A86
330
1E
100
AcDbEntity
  8
7
100
AcDbLine
 10
11.68518354192021
 20
14.2177670025333
 30
0.0
 11
11.56576096974173
 21
14.2177670025333
 31
0.0
  0
LINE
  5
2A87
330
1E
100
AcDbEntity
  8
7
100
AcDbLine
 10
11.68518354192021
 20
14.26501109702149
 30
0.0
 11
11.68518354192021
 21
14.2177670025333
 31
0.0
  0
LINE
  5
2A88
330
1E
100
AcDbEntity
  8
7
100
AcDbLine
 10
11.61825440806194
 20
14.26501109702149
 30
0.0
 11
11.68518354192021
 21
14.26501109702149
 31
0.0
  0
LINE
  5
2A89
330
1E
100
AcDbEntity
  8
7
100
AcDbLine
 10
11.61825440806194
 20
14.83718957471178
 30
0.0
 11
11.61825440806194
 21
14.26501109702149
 31
0.0
  0
LINE
  5
2A8A
330
1E
100
AcDbEntity
  8
7
100
AcDbLine
 10
11.82560348942677
 20
14.83718957471178
 30
0.0
 11
11.61825440806194
 21
14.83718957471178
 31
0.0
  0
LINE
  5
2A8B
330
1E
100
AcDbEntity
  8
7
100
AcDbLine
 10
11.82429115346877
 20
14.86606096578789
 30
0.0
 11
11.82560348942677
 21
14.83718957471178
 31
0.0
  0
LINE
  5
2A8C
330
1E
100
AcDbEntity
  8
7
100
AcDbLine
 10
12.03688957866562
 20
14.86606096578789
 30
0.0
 11
11.82429115346877
 21
14.86606096578789
 31
0.0
  0
LINE
  5
2A8D
330
1E
100
AcDbEntity
  8
7
100
AcDbLine
 10
12.03557724270761
 20
14.83718957471178
 30
0.0
 11
12.03688957866562
 21
14.86606096578789
 31
0.0
  0
LINE
  5
2A8E
330
1E
100
AcDbEntity
  8
7
100
AcDbLine
 10
12.45946175714331
 20
14.86606096578789
 30
0.0
 11
12.46077409310131
 21
14.83718957471178
 31
0.0
  0
LINE
  5
2A8F
330
1E
100
AcDbEntity
  8
7
100
AcDbLine
 10
12.67074784638215
 20
14.86606096578789
 30
0.0
 11
12.45946175714331
 21
14.86606096578789
 31
0.0
  0
LINE
  5
2A90
330
1E
100
AcDbEntity
  8
7
100
AcDbLine
 10
12.67074784638215
 20
14.83718957471178
 30
0.0
 11
12.67074784638215
 21
14.86606096578789
 31
0.0
  0
LINE
  5
2A91
330
1E
100
AcDbEntity
  8
7
100
AcDbLine
 10
13.09463236081785
 20
14.86606096578789
 30
0.0
 11
13.09594469677585
 21
14.83718957471178
 31
0.0
  0
LINE
  5
2A92
330
1E
100
AcDbEntity
  8
7
100
AcDbLine
 10
13.30591845005669
 20
14.86606096578789
 30
0.0
 11
13.09463236081785
 21
14.86606096578789
 31
0.0
  0
LINE
  5
2A93
330
1E
100
AcDbEntity
  8
7
100
AcDbLine
 10
13.30591845005669
 20
14.83718957471178
 30
0.0
 11
13.30591845005669
 21
14.86606096578789
 31
0.0
  0
LINE
  5
2A94
330
1E
100
AcDbEntity
  8
7
100
AcDbLine
 10
13.51326753142152
 20
14.26501109702149
 30
0.0
 11
13.51326753142152
 21
14.83718957471178
 31
0.0
  0
LINE
  5
2A95
330
1E
100
AcDbEntity
  8
7
100
AcDbLine
 10
13.44502606160525
 20
14.26501109702149
 30
0.0
 11
13.51326753142152
 21
14.26501109702149
 31
0.0
  0
LINE
  5
2A96
330
1E
100
AcDbEntity
  8
7
100
AcDbLine
 10
13.44502606160525
 20
14.2177670025333
 30
0.0
 11
13.44502606160525
 21
14.26501109702149
 31
0.0
  0
LINE
  5
2A97
330
1E
100
AcDbEntity
  8
7
100
AcDbLine
 10
13.56576096974174
 20
14.2177670025333
 30
0.0
 11
13.44502606160525
 21
14.2177670025333
 31
0.0
  0
LINE
  5
2A98
330
1E
100
AcDbEntity
  8
7
100
AcDbLine
 10
13.57757199336378
 20
14.50123156946244
 30
0.0
 11
13.56576096974174
 21
14.2177670025333
 31
0.0
  0
LINE
  5
2A99
330
1E
100
AcDbEntity
  8
7
100
AcDbLine
 10
12.95552474926929
 20
14.26501109702149
 30
0.0
 11
12.95552474926929
 21
14.2177670025333
 31
0.0
  0
LINE
  5
2A9A
330
1E
100
AcDbEntity
  8
7
100
AcDbLine
 10
12.81116779388872
 20
14.26501109702149
 30
0.0
 11
12.95552474926929
 21
14.26501109702149
 31
0.0
  0
LINE
  5
2A9B
330
1E
100
AcDbEntity
  8
7
100
AcDbLine
 10
12.81116779388872
 20
14.2177670025333
 30
0.0
 11
12.81116779388872
 21
14.26501109702149
 31
0.0
  0
LINE
  5
2A9C
330
1E
100
AcDbEntity
  8
7
100
AcDbLine
 10
12.95552474926929
 20
14.2177670025333
 30
0.0
 11
12.81116779388872
 21
14.2177670025333
 31
0.0
  0
LINE
  5
2AAC
330
1E
100
AcDbEntity
  8
7
100
AcDbLine
 10
11.56576096974173
 20
15.53535230437057
 30
0.0
 11
11.56576096974173
 21
15.93955177943619
 31
0.0
  0
LINE
  5
2AAD
330
1E
100
AcDbEntity
  8
7
100
AcDbLine
 10
13.56576096974174
 20
15.53535230437057
 30
0.0
 11
13.56576096974174
 21
15.93955177943619
 31
0.0
  0
LINE
  5
2AB9
330
1E
100
AcDbEntity
  8
7
100
AcDbLine
 10
12.52901556291759
 20
13.62327881355692
 30
0.0
 11
12.53426490674961
 21
13.64033918101099
 31
0.0
  0
LINE
  5
2AC7
330
1E
100
AcDbEntity
  8
7
100
AcDbLine
 10
11.61169272827192
 20
13.59440742248081
 30
0.0
 11
11.61169272827192
 21
13.56028668757267
 31
0.0
  0
LINE
  5
2AC8
330
1E
100
AcDbEntity
  8
7
100
AcDbLine
 10
13.51982921121155
 20
13.56028668757267
 30
0.0
 11
13.51982921121155
 21
13.59440742248081
 31
0.0
  0
LINE
  5
2AC9
330
1E
100
AcDbEntity
  8
7
100
AcDbLine
 10
13.51982921121155
 20
13.59440742248081
 30
0.0
 11
13.52245388312756
 21
13.59440742248081
 31
0.0
  0
LINE
  5
2AD4
330
1E
100
AcDbEntity
  8
7
100
AcDbLine
 10
11.60906805635591
 20
13.59440742248081
 30
0.0
 11
11.61169272827192
 21
13.59440742248081
 31
0.0
  0
LINE
  5
2AF7
330
1E
100
AcDbEntity
  8
7
100
AcDbLine
 10
11.60906805635591
 20
13.5917827505648
 30
0.0
 11
11.60906805635591
 21
13.56028668757267
 31
0.0
  0
LINE
  5
2AFD
330
1E
100
AcDbEntity
  8
7
100
AcDbLine
 10
11.58413367315381
 20
13.60228143822884
 30
0.0
 11
11.60906805635591
 21
13.60228143822884
 31
0.0
  0
LINE
  5
2AFE
330
1E
100
AcDbEntity
  8
7
100
AcDbLine
 10
11.60906805635591
 20
13.74795072956742
 30
0.0
 11
11.60906805635591
 21
13.70595597891125
 31
0.0
  0
LINE
  5
2B04
330
1E
100
AcDbEntity
  8
7
100
AcDbLine
 10
11.60906805635591
 20
13.70595597891125
 30
0.0
 11
11.60906805635591
 21
13.7177670025333
 31
0.0
  0
LINE
  5
2B05
330
1E
100
AcDbEntity
  8
7
100
AcDbLine
 10
11.60906805635591
 20
13.70595597891125
 30
0.0
 11
11.58544600911181
 21
13.70595597891125
 31
0.0
  0
LINE
  5
2B06
330
1E
100
AcDbEntity
  8
7
100
AcDbLine
 10
11.60906805635591
 20
13.7177670025333
 30
0.0
 11
11.58413367315381
 21
13.7177670025333
 31
0.0
  0
LINE
  5
2B07
330
1E
100
AcDbEntity
  8
7
100
AcDbLine
 10
11.58544600911181
 20
13.70595597891125
 30
0.0
 11
11.58413367315381
 21
13.7177670025333
 31
0.0
  0
LINE
  5
2B08
330
1E
100
AcDbEntity
  8
7
100
AcDbLine
 10
13.54607593037166
 20
13.70595597891125
 30
0.0
 11
13.52114154716955
 21
13.70595597891125
 31
0.0
  0
LINE
  5
2B0E
330
1E
100
AcDbEntity
  8
7
100
AcDbLine
 10
13.52114154716955
 20
13.70595597891125
 30
0.0
 11
13.52245388312756
 21
13.7177670025333
 31
0.0
  0
LINE
  5
2B0F
330
1E
100
AcDbEntity
  8
7
100
AcDbLine
 10
13.52114154716955
 20
13.70595597891125
 30
0.0
 11
13.52114154716955
 21
13.74795072956742
 31
0.0
  0
LINE
  5
2B10
330
1E
100
AcDbEntity
  8
7
100
AcDbLine
 10
13.52245388312756
 20
13.7177670025333
 30
0.0
 11
13.52245388312756
 21
13.75976175318947
 31
0.0
  0
LINE
  5
2B11
330
1E
100
AcDbEntity
  8
7
100
AcDbLine
 10
13.52114154716955
 20
13.74795072956742
 30
0.0
 11
13.52245388312756
 21
13.75976175318947
 31
0.0
  0
LINE
  5
2B12
330
1E
100
AcDbEntity
  8
7
100
AcDbLine
 10
13.52114154716955
 20
13.5917827505648
 30
0.0
 11
13.52114154716955
 21
13.56028668757267
 31
0.0
  0
LINE
  5
2B13
330
1E
100
AcDbEntity
  8
7
100
AcDbLine
 10
13.52245388312756
 20
13.56028668757267
 30
0.0
 11
13.52245388312756
 21
13.60228143822884
 31
0.0
  0
LINE
  5
2B1E
330
1E
100
AcDbEntity
  8
7
100
AcDbLine
 10
11.55919928995171
 20
12.88837067707398
 30
0.0
 11
11.54870060228767
 21
12.88837067707398
 31
0.0
  0
LINE
  5
2B1F
330
1E
100
AcDbEntity
  8
7
100
AcDbLine
 10
11.56576096974173
 20
12.71645466657529
 30
0.0
 11
11.55919928995171
 21
12.88837067707398
 31
0.0
  0
LINE
  5
2B20
330
1E
100
AcDbEntity
  8
7
100
AcDbLine
 10
11.68518354192021
 20
12.76369876106349
 30
0.0
 11
11.68518354192021
 21
12.71645466657529
 31
0.0
  0
LINE
  5
2B21
330
1E
100
AcDbEntity
  8
7
100
AcDbLine
 10
11.61825440806194
 20
12.76369876106349
 30
0.0
 11
11.68518354192021
 21
12.76369876106349
 31
0.0
  0
LINE
  5
2B22
330
1E
100
AcDbEntity
  8
7
100
AcDbLine
 10
11.61825440806194
 20
13.33456490279577
 30
0.0
 11
11.61825440806194
 21
12.76369876106349
 31
0.0
  0
LINE
  5
2B23
330
1E
100
AcDbEntity
  8
7
100
AcDbLine
 10
11.82560348942677
 20
13.33456490279577
 30
0.0
 11
11.61825440806194
 21
13.33456490279577
 31
0.0
  0
LINE
  5
2B24
330
1E
100
AcDbEntity
  8
7
100
AcDbLine
 10
11.82560348942677
 20
13.33456490279577
 30
0.0
 11
11.82429115346877
 21
13.36474862982989
 31
0.0
  0
LINE
  5
2B2A
330
1E
100
AcDbEntity
  8
7
100
AcDbLine
 10
12.46077409310131
 20
13.33456490279577
 30
0.0
 11
12.03557724270761
 21
13.33456490279577
 31
0.0
  0
LINE
  5
2B31
330
1E
100
AcDbEntity
  8
7
100
AcDbLine
 10
13.09594469677585
 20
13.33456490279577
 30
0.0
 11
12.67074784638215
 21
13.33456490279577
 31
0.0
  0
LINE
  5
2B32
330
1E
100
AcDbEntity
  8
7
100
AcDbLine
 10
13.09594469677585
 20
13.33456490279577
 30
0.0
 11
13.09463236081785
 21
13.36474862982989
 31
0.0
  0
LINE
  5
2B38
330
1E
100
AcDbEntity
  8
7
100
AcDbLine
 10
13.51326753142152
 20
13.33456490279577
 30
0.0
 11
13.30591845005669
 21
13.33456490279577
 31
0.0
  0
LINE
  5
2B39
330
1E
100
AcDbEntity
  8
7
100
AcDbLine
 10
13.51326753142152
 20
12.76369876106349
 30
0.0
 11
13.51326753142152
 21
13.33456490279577
 31
0.0
  0
LINE
  5
2B3A
330
1E
100
AcDbEntity
  8
7
100
AcDbLine
 10
13.44502606160525
 20
12.76369876106349
 30
0.0
 11
13.51326753142152
 21
12.76369876106349
 31
0.0
  0
LINE
  5
2B3B
330
1E
100
AcDbEntity
  8
7
100
AcDbLine
 10
13.44502606160525
 20
12.71645466657529
 30
0.0
 11
13.44502606160525
 21
12.76369876106349
 31
0.0
  0
LINE
  5
2B3C
330
1E
100
AcDbEntity
  8
7
100
AcDbLine
 10
13.57232264953176
 20
12.88837067707398
 30
0.0
 11
13.56576096974174
 21
12.71645466657529
 31
0.0
  0
LINE
  5
2B3D
330
1E
100
AcDbEntity
  8
7
100
AcDbLine
 10
13.5828213371958
 20
12.88837067707398
 30
0.0
 11
13.57232264953176
 21
12.88837067707398
 31
0.0
  0
LINE
  5
2B3E
330
1E
100
AcDbEntity
  8
7
100
AcDbLine
 10
13.5828213371958
 20
12.88837067707398
 30
0.0
 11
13.57232264953176
 21
13.38837067707398
 31
0.0
  0
LINE
  5
2B3F
330
1E
100
AcDbEntity
  8
7
100
AcDbLine
 10
13.09594469677585
 20
13.33456490279577
 30
0.0
 11
13.09856936869186
 21
13.36081162195587
 31
0.0
  0
LINE
  5
2B40
330
1E
100
AcDbEntity
  8
7
100
AcDbLine
 10
12.66812317446614
 20
13.36081162195587
 30
0.0
 11
12.67074784638215
 21
13.33456490279577
 31
0.0
  0
LINE
  5
2B41
330
1E
100
AcDbEntity
  8
7
100
AcDbLine
 10
12.66812317446614
 20
13.36081162195587
 30
0.0
 11
12.65368747892809
 21
13.36081162195587
 31
0.0
  0
LINE
  5
2B42
330
1E
100
AcDbEntity
  8
7
100
AcDbLine
 10
13.11300506422992
 20
13.36081162195587
 30
0.0
 11
13.09856936869186
 21
13.36081162195587
 31
0.0
  0
LINE
  5
2B43
330
1E
100
AcDbEntity
  8
7
100
AcDbLine
 10
13.30329377814068
 20
13.36081162195587
 30
0.0
 11
13.30591845005669
 21
13.33456490279577
 31
0.0
  0
LINE
  5
2B44
330
1E
100
AcDbEntity
  8
7
100
AcDbLine
 10
13.30329377814068
 20
13.36081162195587
 30
0.0
 11
13.28754574664462
 21
13.36081162195587
 31
0.0
  0
LINE
  5
2B45
330
1E
100
AcDbEntity
  8
7
100
AcDbLine
 10
12.46077409310131
 20
13.33456490279577
 30
0.0
 11
12.46339876501733
 21
13.36081162195587
 31
0.0
  0
LINE
  5
2B46
330
1E
100
AcDbEntity
  8
7
100
AcDbLine
 10
12.0329525707916
 20
13.36081162195587
 30
0.0
 11
12.03557724270761
 21
13.33456490279577
 31
0.0
  0
LINE
  5
2B47
330
1E
100
AcDbEntity
  8
7
100
AcDbLine
 10
12.0329525707916
 20
13.36081162195587
 30
0.0
 11
12.01851687525355
 21
13.36081162195587
 31
0.0
  0
LINE
  5
2B48
330
1E
100
AcDbEntity
  8
7
100
AcDbLine
 10
12.47783446055538
 20
13.36081162195587
 30
0.0
 11
12.46339876501733
 21
13.36081162195587
 31
0.0
  0
LINE
  5
2B49
330
1E
100
AcDbEntity
  8
7
100
AcDbLine
 10
11.82560348942677
 20
13.33456490279577
 30
0.0
 11
11.82822816134278
 21
13.36081162195587
 31
0.0
  0
LINE
  5
2B4A
330
1E
100
AcDbEntity
  8
7
100
AcDbLine
 10
11.84266385688084
 20
13.36081162195587
 30
0.0
 11
11.82822816134278
 21
13.36081162195587
 31
0.0
  0
LINE
  5
2B4B
330
1E
100
AcDbEntity
  8
7
100
AcDbLine
 10
13.28754574664462
 20
13.36081162195587
 30
0.0
 11
13.28754574664462
 21
13.32800322300574
 31
0.0
  0
LINE
  5
2B4C
330
1E
100
AcDbEntity
  8
7
100
AcDbLine
 10
12.65368747892809
 20
13.36081162195587
 30
0.0
 11
12.65368747892809
 21
13.32800322300574
 31
0.0
  0
LINE
  5
2B4D
330
1E
100
AcDbEntity
  8
7
100
AcDbLine
 10
12.01851687525355
 20
13.36081162195587
 30
0.0
 11
12.01851687525355
 21
13.32800322300574
 31
0.0
  0
LINE
  5
2B4E
330
1E
100
AcDbEntity
  8
7
100
AcDbLine
 10
11.61825440806194
 20
12.80963051959367
 30
0.0
 11
11.68518354192021
 21
12.80963051959367
 31
0.0
  0
LINE
  5
2B4F
330
1E
100
AcDbEntity
  8
7
100
AcDbLine
 10
11.68518354192021
 20
12.76501109702149
 30
0.0
 11
11.80591845005669
 21
12.76501109702149
 31
0.0
  0
LINE
  5
2B50
330
1E
100
AcDbEntity
  8
7
100
AcDbLine
 10
12.69043288575223
 20
12.76501109702149
 30
0.0
 11
12.81116779388872
 21
12.76501109702149
 31
0.0
  0
LINE
  5
2B51
330
1E
100
AcDbEntity
  8
7
100
AcDbLine
 10
12.81116779388872
 20
12.80963051959367
 30
0.0
 11
12.95552474926929
 21
12.80963051959367
 31
0.0
  0
LINE
  5
2B52
330
1E
100
AcDbEntity
  8
7
100
AcDbLine
 10
12.95552474926929
 20
12.76501109702149
 30
0.0
 11
13.07625965740577
 21
12.76501109702149
 31
0.0
  0
LINE
  5
2B53
330
1E
100
AcDbEntity
  8
7
100
AcDbLine
 10
12.05526228207769
 20
12.76501109702149
 30
0.0
 11
12.17599719021418
 21
12.76501109702149
 31
0.0
  0
LINE
  5
2B54
330
1E
100
AcDbEntity
  8
7
100
AcDbLine
 10
12.17599719021418
 20
12.80963051959367
 30
0.0
 11
12.32035414559475
 21
12.80963051959367
 31
0.0
  0
LINE
  5
2B55
330
1E
100
AcDbEntity
  8
7
100
AcDbLine
 10
12.32035414559475
 20
12.76501109702149
 30
0.0
 11
12.44108905373124
 21
12.76501109702149
 31
0.0
  0
LINE
  5
2B56
330
1E
100
AcDbEntity
  8
7
100
AcDbLine
 10
12.95552474926929
 20
12.76369876106349
 30
0.0
 11
12.95552474926929
 21
12.71645466657529
 31
0.0
  0
LINE
  5
2B57
330
1E
100
AcDbEntity
  8
7
100
AcDbLine
 10
12.81116779388872
 20
12.76369876106349
 30
0.0
 11
12.95552474926929
 21
12.76369876106349
 31
0.0
  0
LINE
  5
2B58
330
1E
100
AcDbEntity
  8
7
100
AcDbLine
 10
12.81116779388872
 20
12.71645466657529
 30
0.0
 11
12.81116779388872
 21
12.76369876106349
 31
0.0
  0
LINE
  5
2B59
330
1E
100
AcDbEntity
  8
7
100
AcDbLine
 10
13.56576096974174
 20
14.03403996841257
 30
0.0
 11
13.56576096974174
 21
14.2177670025333
 31
0.0
  0
LINE
  5
2B5A
330
1E
100
AcDbEntity
  8
7
100
AcDbLine
 10
12.95552474926929
 20
14.2177670025333
 30
0.0
 11
13.44502606160525
 21
14.2177670025333
 31
0.0
  0
LINE
  5
2B5B
330
1E
100
AcDbEntity
  8
7
100
AcDbLine
 10
12.32035414559475
 20
14.2177670025333
 30
0.0
 11
12.81116779388872
 21
14.2177670025333
 31
0.0
  0
LINE
  5
2B5C
330
1E
100
AcDbEntity
  8
7
100
AcDbLine
 10
12.32035414559475
 20
14.2177670025333
 30
0.0
 11
12.17599719021418
 21
14.2177670025333
 31
0.0
  0
LINE
  5
2B5D
330
1E
100
AcDbEntity
  8
7
100
AcDbLine
 10
11.68518354192021
 20
14.2177670025333
 30
0.0
 11
12.17599719021418
 21
14.2177670025333
 31
0.0
  0
LINE
  5
2B5E
330
1E
100
AcDbEntity
  8
7
100
AcDbLine
 10
11.56576096974173
 20
14.03403996841257
 30
0.0
 11
11.56576096974173
 21
14.2177670025333
 31
0.0
  0
LINE
  5
2B5F
330
1E
100
AcDbEntity
  8
7
100
AcDbLine
 10
13.56576096974174
 20
14.03403996841257
 30
0.0
 11
11.56576096974173
 21
14.03403996841257
 31
0.0
  0
LINE
  5
2B65
330
1E
100
AcDbEntity
  8
7
100
AcDbLine
 10
13.56576096974174
 20
14.03403996841257
 30
0.0
 11
13.57757199336378
 21
13.79388248809761
 31
0.0
  0
LINE
  5
2B66
330
1E
100
AcDbEntity
  8
7
100
AcDbLine
 10
11.55394994611969
 20
13.79388248809761
 30
0.0
 11
11.55394994611969
 21
14.14821319675902
 31
0.0
  0
LINE
  5
2B67
330
1E
100
AcDbEntity
  8
7
100
AcDbLine
 10
11.55394994611969
 20
14.14821319675902
 30
0.0
 11
11.55394994611969
 21
14.50123156946244
 31
0.0
  0
LINE
  5
2B68
330
1E
100
AcDbEntity
  8
7
100
AcDbLine
 10
11.55394994611969
 20
13.79388248809761
 30
0.0
 11
11.56576096974173
 21
14.03403996841257
 31
0.0
  0
LINE
  5
2B69
330
1E
100
AcDbEntity
  8
7
100
AcDbLine
 10
12.62612842380997
 20
15.6180294697249
 30
0.0
 11
12.50539351567349
 21
15.6180294697249
 31
0.0
  0
LINE
  5
2B7A
330
1E
100
AcDbEntity
  8
7
100
AcDbLine
 10
12.50539351567349
 20
15.84768826237582
 30
0.0
 11
12.62612842380997
 21
15.84768826237582
 31
0.0
  0
LINE
  5
2B99
330
1E
100
AcDbEntity
  8
7
100
AcDbLine
 10
12.50539351567349
 20
15.80831818363567
 30
0.0
 11
12.62612842380997
 21
15.80831818363567
 31
0.0
  0
LINE
  5
2BA8
330
1E
100
AcDbEntity
  8
7
100
AcDbLine
 10
12.62612842380997
 20
15.65739954846506
 30
0.0
 11
12.50539351567349
 21
15.65739954846506
 31
0.0
  0
LINE
  5
2BB3
330
1E
100
AcDbEntity
  8
7
100
AcDbLine
 10
12.65499981488609
 20
15.80175650384564
 30
0.0
 11
12.62612842380997
 21
15.80700584767766
 31
0.0
  0
LINE
  5
2BB4
330
1E
100
AcDbEntity
  8
7
100
AcDbLine
 10
12.62612842380997
 20
15.80831818363567
 30
0.0
 11
12.50539351567349
 21
15.80831818363567
 31
0.0
  0
LINE
  5
2BBF
330
1E
100
AcDbEntity
  8
7
100
AcDbLine
 10
12.47652212459738
 20
15.66264889229708
 30
0.0
 11
12.50539351567349
 21
15.65739954846506
 31
0.0
  0
LINE
  5
2BC0
330
1E
100
AcDbEntity
  8
7
100
AcDbLine
 10
12.50539351567349
 20
15.65739954846506
 30
0.0
 11
12.62612842380997
 21
15.65739954846506
 31
0.0
  0
LINE
  5
2BC1
330
1E
100
AcDbEntity
  8
7
100
AcDbLine
 10
12.24686333194646
 20
15.61146778993487
 30
0.0
 11
12.24686333194646
 21
15.66527356421309
 31
0.0
  0
LINE
  5
2BC2
330
1E
100
AcDbEntity
  8
7
100
AcDbLine
 10
12.88465860753701
 20
15.61146778993487
 30
0.0
 11
12.24686333194646
 21
15.61146778993487
 31
0.0
  0
LINE
  5
2BC3
330
1E
100
AcDbEntity
  8
7
100
AcDbLine
 10
12.88465860753701
 20
15.66527356421309
 30
0.0
 11
12.88465860753701
 21
15.61146778993487
 31
0.0
  0
LINE
  5
2BC4
330
1E
100
AcDbEntity
  8
7
100
AcDbLine
 10
12.91090532669711
 20
15.66527356421309
 30
0.0
 11
12.88465860753701
 21
15.66527356421309
 31
0.0
  0
LINE
  5
2BC5
330
1E
100
AcDbEntity
  8
7
100
AcDbLine
 10
12.91090532669711
 20
15.80044416788763
 30
0.0
 11
12.91090532669711
 21
15.66527356421309
 31
0.0
  0
LINE
  5
2BC6
330
1E
100
AcDbEntity
  8
7
100
AcDbLine
 10
12.88465860753701
 20
15.80044416788763
 30
0.0
 11
12.91090532669711
 21
15.80044416788763
 31
0.0
  0
LINE
  5
2BC7
330
1E
100
AcDbEntity
  8
7
100
AcDbLine
 10
12.88465860753701
 20
15.85424994216585
 30
0.0
 11
12.88465860753701
 21
15.80044416788763
 31
0.0
  0
LINE
  5
2BC8
330
1E
100
AcDbEntity
  8
7
100
AcDbLine
 10
12.24686333194646
 20
15.85424994216585
 30
0.0
 11
12.88465860753701
 21
15.85424994216585
 31
0.0
  0
LINE
  5
2BC9
330
1E
100
AcDbEntity
  8
7
100
AcDbLine
 10
12.24686333194646
 20
15.80044416788763
 30
0.0
 11
12.24686333194646
 21
15.85424994216585
 31
0.0
  0
LINE
  5
2BCA
330
1E
100
AcDbEntity
  8
7
100
AcDbLine
 10
12.22061661278635
 20
15.80044416788763
 30
0.0
 11
12.24686333194646
 21
15.80044416788763
 31
0.0
  0
LINE
  5
2BCB
330
1E
100
AcDbEntity
  8
7
100
AcDbLine
 10
12.22061661278635
 20
15.66527356421309
 30
0.0
 11
12.22061661278635
 21
15.80044416788763
 31
0.0
  0
LINE
  5
2BCC
330
1E
100
AcDbEntity
  8
7
100
AcDbLine
 10
12.24686333194646
 20
15.66527356421309
 30
0.0
 11
12.22061661278635
 21
15.66527356421309
 31
0.0
  0
LINE
  5
2BDD
330
1E
100
AcDbEntity
  8
7
100
AcDbLine
 10
12.62612842380997
 20
15.61540479780889
 30
0.0
 11
12.50539351567349
 21
15.61540479780889
 31
0.0
  0
LINE
  5
2BEE
330
1E
100
AcDbEntity
  8
7
100
AcDbLine
 10
12.50539351567349
 20
15.84900059833383
 30
0.0
 11
12.62612842380997
 21
15.84900059833383
 31
0.0
  0
LINE
  5
2BEF
330
1E
100
AcDbEntity
  8
7
100
AcDbLine
 10
12.21930427682835
 20
15.80306883980364
 30
0.0
 11
12.21930427682835
 21
15.80438117576165
 31
0.0
  0
LINE
  5
2BF0
330
1E
100
AcDbEntity
  8
7
100
AcDbLine
 10
12.24423866003045
 20
15.80306883980364
 30
0.0
 11
12.21930427682835
 21
15.80306883980364
 31
0.0
  0
LINE
  5
2BF1
330
1E
100
AcDbEntity
  8
7
100
AcDbLine
 10
12.24423866003045
 20
15.80306883980364
 30
0.0
 11
12.24292632407244
 21
15.80438117576165
 31
0.0
  0
LINE
  5
2BF2
330
1E
100
AcDbEntity
  8
7
100
AcDbLine
 10
12.24423866003045
 20
15.85424994216585
 30
0.0
 11
12.24423866003045
 21
15.80306883980364
 31
0.0
  0
LINE
  5
2BF3
330
1E
100
AcDbEntity
  8
7
100
AcDbLine
 10
12.24423866003045
 20
15.85424994216585
 30
0.0
 11
12.24292632407244
 21
15.85424994216585
 31
0.0
  0
LINE
  5
2BF4
330
1E
100
AcDbEntity
  8
7
100
AcDbLine
 10
12.24423866003045
 20
15.61146778993487
 30
0.0
 11
12.24292632407244
 21
15.61015545397687
 31
0.0
  0
LINE
  5
2BF5
330
1E
100
AcDbEntity
  8
7
100
AcDbLine
 10
12.24423866003045
 20
15.66264889229708
 30
0.0
 11
12.24423866003045
 21
15.61146778993487
 31
0.0
  0
LINE
  5
2BF6
330
1E
100
AcDbEntity
  8
7
100
AcDbLine
 10
12.24423866003045
 20
15.66264889229708
 30
0.0
 11
12.24292632407244
 21
15.66133655633908
 31
0.0
  0
LINE
  5
2BF7
330
1E
100
AcDbEntity
  8
7
100
AcDbLine
 10
12.21930427682835
 20
15.66264889229708
 30
0.0
 11
12.24423866003045
 21
15.66264889229708
 31
0.0
  0
LINE
  5
2BF8
330
1E
100
AcDbEntity
  8
7
100
AcDbLine
 10
12.21930427682835
 20
15.66264889229708
 30
0.0
 11
12.21930427682835
 21
15.66133655633908
 31
0.0
  0
LINE
  5
2BF9
330
1E
100
AcDbEntity
  8
7
100
AcDbLine
 10
12.91090532669711
 20
15.66264889229708
 30
0.0
 11
12.91221766265512
 21
15.66133655633908
 31
0.0
  0
LINE
  5
2BFA
330
1E
100
AcDbEntity
  8
7
100
AcDbLine
 10
12.88597094349501
 20
15.66264889229708
 30
0.0
 11
12.91090532669711
 21
15.66264889229708
 31
0.0
  0
LINE
  5
2BFB
330
1E
100
AcDbEntity
  8
7
100
AcDbLine
 10
12.88597094349501
 20
15.66264889229708
 30
0.0
 11
12.88728327945302
 21
15.66133655633908
 31
0.0
  0
LINE
  5
2BFC
330
1E
100
AcDbEntity
  8
7
100
AcDbLine
 10
12.88597094349501
 20
15.61146778993487
 30
0.0
 11
12.88597094349501
 21
15.66264889229708
 31
0.0
  0
LINE
  5
2BFD
330
1E
100
AcDbEntity
  8
7
100
AcDbLine
 10
12.88597094349501
 20
15.61146778993487
 30
0.0
 11
12.88728327945302
 21
15.61015545397687
 31
0.0
  0
LINE
  5
2BFE
330
1E
100
AcDbEntity
  8
7
100
AcDbLine
 10
12.88597094349501
 20
15.85424994216585
 30
0.0
 11
12.88728327945302
 21
15.85424994216585
 31
0.0
  0
LINE
  5
2BFF
330
1E
100
AcDbEntity
  8
7
100
AcDbLine
 10
12.88597094349501
 20
15.80306883980364
 30
0.0
 11
12.88597094349501
 21
15.85424994216585
 31
0.0
  0
LINE
  5
2C00
330
1E
100
AcDbEntity
  8
7
100
AcDbLine
 10
12.88597094349501
 20
15.80306883980364
 30
0.0
 11
12.88728327945302
 21
15.80438117576165
 31
0.0
  0
LINE
  5
2C01
330
1E
100
AcDbEntity
  8
7
100
AcDbLine
 10
12.91090532669711
 20
15.80306883980364
 30
0.0
 11
12.88597094349501
 21
15.80306883980364
 31
0.0
  0
LINE
  5
2C02
330
1E
100
AcDbEntity
  8
7
100
AcDbLine
 10
12.91090532669711
 20
15.80306883980364
 30
0.0
 11
12.91221766265512
 21
15.80438117576165
 31
0.0
  0
LINE
  5
2C03
330
1E
100
AcDbEntity
  8
7
100
AcDbLine
 10
12.50539351567349
 20
12.5668483673627
 30
0.0
 11
12.62612842380997
 21
12.5668483673627
 31
0.0
  0
LINE
  5
2C11
330
1E
100
AcDbEntity
  8
7
100
AcDbLine
 10
12.62612842380997
 20
12.33718957471178
 30
0.0
 11
12.50539351567349
 21
12.33718957471178
 31
0.0
  0
LINE
  5
2C2A
330
1E
100
AcDbEntity
  8
7
100
AcDbLine
 10
12.50539351567349
 20
12.52747828862254
 30
0.0
 11
12.62612842380997
 21
12.52747828862254
 31
0.0
  0
LINE
  5
2C36
330
1E
100
AcDbEntity
  8
7
100
AcDbLine
 10
12.62612842380997
 20
12.37524731749393
 30
0.0
 11
12.50539351567349
 21
12.37524731749393
 31
0.0
  0
LINE
  5
2C42
330
1E
100
AcDbEntity
  8
7
100
AcDbLine
 10
12.62612842380997
 20
12.52616595266453
 30
0.0
 11
12.50539351567349
 21
12.52616595266453
 31
0.0
  0
LINE
  5
2C43
330
1E
100
AcDbEntity
  8
7
100
AcDbLine
 10
12.50539351567349
 20
12.52616595266453
 30
0.0
 11
12.47652212459738
 21
12.52091660883251
 31
0.0
  0
LINE
  5
2C4E
330
1E
100
AcDbEntity
  8
7
100
AcDbLine
 10
12.50539351567349
 20
12.37655965345194
 30
0.0
 11
12.62612842380997
 21
12.37655965345194
 31
0.0
  0
LINE
  5
2C61
330
1E
100
AcDbEntity
  8
7
100
AcDbLine
 10
12.50539351567349
 20
12.5681607033207
 30
0.0
 11
12.62612842380997
 21
12.5681607033207
 31
0.0
  0
LINE
  5
2C62
330
1E
100
AcDbEntity
  8
7
100
AcDbLine
 10
12.62612842380997
 20
12.33587723875377
 30
0.0
 11
12.66156149467612
 21
12.34112658258579
 31
0.0
  0
LINE
  5
2C6F
330
1E
100
AcDbEntity
  8
7
100
AcDbLine
 10
12.62612842380997
 20
12.33456490279577
 30
0.0
 11
12.50539351567349
 21
12.33456490279577
 31
0.0
  0
LINE
  5
2C7D
330
1E
100
AcDbEntity
  8
7
100
AcDbLine
 10
12.24423866003045
 20
12.57341004715272
 30
0.0
 11
12.24423866003045
 21
12.52222894479052
 31
0.0
  0
LINE
  5
2C7E
330
1E
100
AcDbEntity
  8
7
100
AcDbLine
 10
12.24423866003045
 20
12.57341004715272
 30
0.0
 11
12.24292632407244
 21
12.57341004715272
 31
0.0
  0
LINE
  5
2C7F
330
1E
100
AcDbEntity
  8
7
100
AcDbLine
 10
12.24423866003045
 20
12.52222894479052
 30
0.0
 11
12.24292632407244
 21
12.52222894479052
 31
0.0
  0
LINE
  5
2C80
330
1E
100
AcDbEntity
  8
7
100
AcDbLine
 10
12.24423866003045
 20
12.52222894479052
 30
0.0
 11
12.21930427682835
 21
12.52222894479052
 31
0.0
  0
LINE
  5
2C81
330
1E
100
AcDbEntity
  8
7
100
AcDbLine
 10
12.91090532669711
 20
12.52222894479052
 30
0.0
 11
12.88597094349501
 21
12.52222894479052
 31
0.0
  0
LINE
  5
2C82
330
1E
100
AcDbEntity
  8
7
100
AcDbLine
 10
12.91090532669711
 20
12.52222894479052
 30
0.0
 11
12.91221766265512
 21
12.52222894479052
 31
0.0
  0
LINE
  5
2C83
330
1E
100
AcDbEntity
  8
7
100
AcDbLine
 10
12.88597094349501
 20
12.52222894479052
 30
0.0
 11
12.88728327945302
 21
12.52222894479052
 31
0.0
  0
LINE
  5
2C84
330
1E
100
AcDbEntity
  8
7
100
AcDbLine
 10
12.88597094349501
 20
12.52222894479052
 30
0.0
 11
12.88597094349501
 21
12.57341004715272
 31
0.0
  0
LINE
  5
2C85
330
1E
100
AcDbEntity
  8
7
100
AcDbLine
 10
12.88597094349501
 20
12.57341004715272
 30
0.0
 11
12.88728327945302
 21
12.57341004715272
 31
0.0
  0
LINE
  5
2C86
330
1E
100
AcDbEntity
  8
7
100
AcDbLine
 10
12.21930427682835
 20
12.38180899728396
 30
0.0
 11
12.24423866003045
 21
12.38180899728396
 31
0.0
  0
LINE
  5
2C87
330
1E
100
AcDbEntity
  8
7
100
AcDbLine
 10
12.21930427682835
 20
12.38180899728396
 30
0.0
 11
12.21930427682835
 21
12.38049666132595
 31
0.0
  0
LINE
  5
2C88
330
1E
100
AcDbEntity
  8
7
100
AcDbLine
 10
12.24423866003045
 20
12.38180899728396
 30
0.0
 11
12.24292632407244
 21
12.38049666132595
 31
0.0
  0
LINE
  5
2C8E
330
1E
100
AcDbEntity
  8
7
100
AcDbLine
 10
13.91090532669711
 20
11.8424389185438
 30
0.0
 11
13.88859561541102
 21
11.86343629387188
 31
0.0
  0
LINE
  5
2C94
330
1E
100
AcDbEntity
  8
7
100
AcDbLine
 10
13.91090532669711
 20
11.8424389185438
 30
0.0
 11
11.22061661278635
 21
11.8424389185438
 31
0.0
  0
LINE
  5
2C95
330
1E
100
AcDbEntity
  8
7
100
AcDbLine
 10
13.94108905373124
 20
11.87262264557792
 30
0.0
 11
13.94108905373124
 21
16.31225519150968
 31
0.0
  0
LINE
  5
2CA6
330
1E
100
AcDbEntity
  8
7
100
AcDbLine
 10
13.91090532669711
 20
16.3424389185438
 30
0.0
 11
11.22061661278635
 21
16.3424389185438
 31
0.0
  0
LINE
  5
2D72
330
1E
100
AcDbEntity
  8
7
100
AcDbLine
 10
12.22061661278635
 20
12.38443366919997
 30
0.0
 11
12.21930427682835
 21
12.38180899728396
 31
0.0
  0
LINE
  5
2D73
330
1E
100
AcDbEntity
  8
7
100
AcDbLine
 10
12.22061661278635
 20
12.51960427287451
 30
0.0
 11
12.21930427682835
 21
12.52222894479052
 31
0.0
  0
LINE
  5
2D74
330
1E
100
AcDbEntity
  8
7
100
AcDbLine
 10
12.88465860753701
 20
12.33062789492175
 30
0.0
 11
12.88597094349501
 21
12.32931555896375
 31
0.0
  0
LINE
  5
2D75
330
1E
100
AcDbEntity
  8
7
100
AcDbLine
 10
12.24686333194646
 20
12.33062789492175
 30
0.0
 11
12.24423866003045
 21
12.32931555896375
 31
0.0
  0
LINE
  5
2D76
330
1E
100
AcDbEntity
  8
7
100
AcDbLine
 10
12.88597094349501
 20
12.32931555896375
 30
0.0
 11
12.88728327945302
 21
12.32931555896375
 31
0.0
  0
LINE
  5
2D77
330
1E
100
AcDbEntity
  8
7
100
AcDbLine
 10
12.88597094349501
 20
12.38180899728396
 30
0.0
 11
12.88728327945302
 21
12.38049666132595
 31
0.0
  0
LINE
  5
2D78
330
1E
100
AcDbEntity
  8
7
100
AcDbLine
 10
12.88597094349501
 20
12.38180899728396
 30
0.0
 11
12.88597094349501
 21
12.32931555896375
 31
0.0
  0
LINE
  5
2D79
330
1E
100
AcDbEntity
  8
7
100
AcDbLine
 10
12.91090532669711
 20
12.38180899728396
 30
0.0
 11
12.91221766265512
 21
12.38049666132595
 31
0.0
  0
LINE
  5
2D7A
330
1E
100
AcDbEntity
  8
7
100
AcDbLine
 10
12.91090532669711
 20
12.38180899728396
 30
0.0
 11
12.88597094349501
 21
12.38180899728396
 31
0.0
  0
LINE
  5
2D7B
330
1E
100
AcDbEntity
  8
7
100
AcDbLine
 10
12.91090532669711
 20
12.51960427287451
 30
0.0
 11
12.91090532669711
 21
12.52222894479052
 31
0.0
  0
LINE
  5
2D7C
330
1E
100
AcDbEntity
  8
7
100
AcDbLine
 10
12.91090532669711
 20
12.38443366919997
 30
0.0
 11
12.91090532669711
 21
12.38180899728396
 31
0.0
  0
LINE
  5
2D7D
330
1E
100
AcDbEntity
  8
7
100
AcDbLine
 10
12.88465860753701
 20
12.57209771119472
 30
0.0
 11
12.88597094349501
 21
12.57341004715272
 31
0.0
  0
LINE
  5
2D7E
330
1E
100
AcDbEntity
  8
7
100
AcDbLine
 10
12.24686333194646
 20
12.57209771119472
 30
0.0
 11
12.24423866003045
 21
12.57341004715272
 31
0.0
  0
LINE
  5
2D7F
330
1E
100
AcDbEntity
  8
7
100
AcDbLine
 10
12.62612842380997
 20
12.5668483673627
 30
0.0
 11
12.62612842380997
 21
12.5681607033207
 31
0.0
  0
LINE
  5
2D80
330
1E
100
AcDbEntity
  8
7
100
AcDbLine
 10
12.50539351567349
 20
12.5668483673627
 30
0.0
 11
12.50539351567349
 21
12.5681607033207
 31
0.0
  0
LINE
  5
2D81
330
1E
100
AcDbEntity
  8
7
100
AcDbLine
 10
12.62612842380997
 20
12.33718957471178
 30
0.0
 11
12.62612842380997
 21
12.33456490279577
 31
0.0
  0
LINE
  5
2D82
330
1E
100
AcDbEntity
  8
7
100
AcDbLine
 10
12.50539351567349
 20
12.33718957471178
 30
0.0
 11
12.50539351567349
 21
12.33456490279577
 31
0.0
  0
LINE
  5
2D83
330
1E
100
AcDbEntity
  8
7
100
AcDbLine
 10
12.62612842380997
 20
12.52616595266453
 30
0.0
 11
12.62612842380997
 21
12.52747828862254
 31
0.0
  0
LINE
  5
2D84
330
1E
100
AcDbEntity
  8
7
100
AcDbLine
 10
12.50539351567349
 20
12.52616595266453
 30
0.0
 11
12.50539351567349
 21
12.52747828862254
 31
0.0
  0
LINE
  5
2D85
330
1E
100
AcDbEntity
  8
7
100
AcDbLine
 10
12.62612842380997
 20
12.37655965345194
 30
0.0
 11
12.62612842380997
 21
12.37524731749393
 31
0.0
  0
LINE
  5
2D86
330
1E
100
AcDbEntity
  8
7
100
AcDbLine
 10
12.50539351567349
 20
12.37655965345194
 30
0.0
 11
12.50539351567349
 21
12.37524731749393
 31
0.0
  0
LINE
  5
2D87
330
1E
100
AcDbEntity
  8
7
100
AcDbLine
 10
12.22061661278635
 20
15.80044416788763
 30
0.0
 11
12.21930427682835
 21
15.80306883980364
 31
0.0
  0
LINE
  5
2D88
330
1E
100
AcDbEntity
  8
7
100
AcDbLine
 10
12.22061661278635
 20
15.66527356421309
 30
0.0
 11
12.21930427682835
 21
15.66264889229708
 31
0.0
  0
LINE
  5
2D89
330
1E
100
AcDbEntity
  8
7
100
AcDbLine
 10
12.88465860753701
 20
15.85424994216585
 30
0.0
 11
12.88597094349501
 21
15.85424994216585
 31
0.0
  0
LINE
  5
2D8A
330
1E
100
AcDbEntity
  8
7
100
AcDbLine
 10
12.24686333194646
 20
15.85424994216585
 30
0.0
 11
12.24423866003045
 21
15.85424994216585
 31
0.0
  0
LINE
  5
2D8B
330
1E
100
AcDbEntity
  8
7
100
AcDbLine
 10
12.91090532669711
 20
15.66527356421309
 30
0.0
 11
12.91090532669711
 21
15.66264889229708
 31
0.0
  0
LINE
  5
2D8C
330
1E
100
AcDbEntity
  8
7
100
AcDbLine
 10
12.91090532669711
 20
15.80044416788763
 30
0.0
 11
12.91090532669711
 21
15.80306883980364
 31
0.0
  0
LINE
  5
2D8D
330
1E
100
AcDbEntity
  8
7
100
AcDbLine
 10
12.24686333194646
 20
15.61146778993487
 30
0.0
 11
12.24423866003045
 21
15.61146778993487
 31
0.0
  0
LINE
  5
2D8E
330
1E
100
AcDbEntity
  8
7
100
AcDbLine
 10
12.88465860753701
 20
15.61146778993487
 30
0.0
 11
12.88597094349501
 21
15.61146778993487
 31
0.0
  0
LINE
  5
2D8F
330
1E
100
AcDbEntity
  8
7
100
AcDbLine
 10
12.50539351567349
 20
15.6180294697249
 30
0.0
 11
12.50539351567349
 21
15.61540479780889
 31
0.0
  0
LINE
  5
2D90
330
1E
100
AcDbEntity
  8
7
100
AcDbLine
 10
12.62612842380997
 20
15.6180294697249
 30
0.0
 11
12.62612842380997
 21
15.61540479780889
 31
0.0
  0
LINE
  5
2D91
330
1E
100
AcDbEntity
  8
7
100
AcDbLine
 10
12.50539351567349
 20
15.84768826237582
 30
0.0
 11
12.50539351567349
 21
15.84900059833383
 31
0.0
  0
LINE
  5
2D92
330
1E
100
AcDbEntity
  8
7
100
AcDbLine
 10
12.62612842380997
 20
15.84768826237582
 30
0.0
 11
12.62612842380997
 21
15.84900059833383
 31
0.0
  0
LINE
  5
2D93
330
1E
100
AcDbEntity
  8
7
100
AcDbLine
 10
12.32035414559475
 20
12.76369876106349
 30
0.0
 11
12.32035414559475
 21
12.71645466657529
 31
0.0
  0
LINE
  5
2D94
330
1E
100
AcDbEntity
  8
7
100
AcDbLine
 10
12.17599719021418
 20
12.76369876106349
 30
0.0
 11
12.32035414559475
 21
12.76369876106349
 31
0.0
  0
LINE
  5
2D95
330
1E
100
AcDbEntity
  8
7
100
AcDbLine
 10
12.17599719021418
 20
12.71645466657529
 30
0.0
 11
12.17599719021418
 21
12.76369876106349
 31
0.0
  0
LINE
  5
2D9B
330
1E
100
AcDbEntity
  8
7
100
AcDbLine
 10
11.46208642905932
 20
13.10359377418685
 30
0.0
 11
11.46864810884934
 21
13.43299009964616
 31
0.0
  0
LINE
  5
2D9C
330
1E
100
AcDbEntity
  8
7
100
AcDbLine
 10
11.46864810884934
 20
13.43299009964616
 30
0.0
 11
11.46339876501732
 21
13.64952553271703
 31
0.0
  0
LINE
  5
2D9D
330
1E
100
AcDbEntity
  8
7
100
AcDbLine
 10
11.58413367315381
 20
13.7177670025333
 30
0.0
 11
11.58413367315381
 21
13.60228143822884
 31
0.0
  0
LINE
  5
2D9E
330
1E
100
AcDbEntity
  8
7
100
AcDbLine
 10
13.52245388312756
 20
13.75976175318947
 30
0.0
 11
11.60906805635591
 21
13.75976175318947
 31
0.0
  0
LINE
  5
2D9F
330
1E
100
AcDbEntity
  8
7
100
AcDbLine
 10
13.54607593037166
 20
13.60228143822884
 30
0.0
 11
13.54607593037166
 21
13.7177670025333
 31
0.0
  0
LINE
  5
2DA0
330
1E
100
AcDbEntity
  8
7
100
AcDbLine
 10
11.60906805635591
 20
13.56028668757267
 30
0.0
 11
13.52245388312756
 21
13.56028668757267
 31
0.0
  0
LINE
  5
2DA7
330
1E
100
AcDbEntity
  8
7
100
AcDbLine
 10
11.68518354192021
 20
12.80963051959367
 30
0.0
 11
11.68518354192021
 21
12.76369876106349
 31
0.0
  0
LINE
  5
2DA8
330
1E
100
AcDbEntity
  8
7
100
AcDbLine
 10
12.03688957866562
 20
12.98285886605036
 30
0.0
 11
12.05526228207769
 21
12.76501109702149
 31
0.0
  0
LINE
  5
2DA9
330
1E
100
AcDbEntity
  8
7
100
AcDbLine
 10
12.03688957866562
 20
12.98285886605036
 30
0.0
 11
11.82429115346877
 21
12.98285886605036
 31
0.0
  0
LINE
  5
2DAA
330
1E
100
AcDbEntity
  8
7
100
AcDbLine
 10
11.82429115346877
 20
12.98285886605036
 30
0.0
 11
11.80591845005669
 21
12.76501109702149
 31
0.0
  0
LINE
  5
2DAB
330
1E
100
AcDbEntity
  8
7
100
AcDbLine
 10
12.17599719021418
 20
12.80963051959367
 30
0.0
 11
12.17599719021418
 21
12.76369876106349
 31
0.0
  0
LINE
  5
2DAC
330
1E
100
AcDbEntity
  8
7
100
AcDbLine
 10
12.32035414559475
 20
12.80963051959367
 30
0.0
 11
12.32035414559475
 21
12.76369876106349
 31
0.0
  0
LINE
  5
2DAD
330
1E
100
AcDbEntity
  8
7
100
AcDbLine
 10
12.67206018234016
 20
12.98285886605036
 30
0.0
 11
12.69043288575223
 21
12.76501109702149
 31
0.0
  0
LINE
  5
2DB3
330
1E
100
AcDbEntity
  8
7
100
AcDbLine
 10
12.81116779388872
 20
12.80963051959367
 30
0.0
 11
12.81116779388872
 21
12.76369876106349
 31
0.0
  0
LINE
  5
2DB4
330
1E
100
AcDbEntity
  8
7
100
AcDbLine
 10
12.95552474926929
 20
12.80963051959367
 30
0.0
 11
12.95552474926929
 21
12.76369876106349
 31
0.0
  0
LINE
  5
2DB5
330
1E
100
AcDbEntity
  8
7
100
AcDbLine
 10
13.3072307860147
 20
12.98285886605036
 30
0.0
 11
13.32560348942677
 21
12.76501109702149
 31
0.0
  0
LINE
  5
2DBB
330
1E
100
AcDbEntity
  8
7
100
AcDbLine
 10
13.44502606160525
 20
12.80963051959367
 30
0.0
 11
13.44502606160525
 21
12.76369876106349
 31
0.0
  0
LINE
  5
2DC2
330
1E
100
AcDbEntity
  8
7
100
AcDbLine
 10
12.03688957866562
 20
13.0668483673627
 30
0.0
 11
12.03820191462362
 21
13.05110033586664
 31
0.0
  0
LINE
  5
2DC3
330
1E
100
AcDbEntity
  8
7
100
AcDbLine
 10
12.03820191462362
 20
13.0432263201186
 30
0.0
 11
12.03820191462362
 21
13.0419139841606
 31
0.0
  0
LINE
  5
2DDB
330
1E
100
AcDbEntity
  8
7
100
AcDbLine
 10
12.03688957866562
 20
13.0169796009585
 30
0.0
 11
12.03688957866562
 21
13.00254390542044
 31
0.0
  0
LINE
  5
2DDC
330
1E
100
AcDbEntity
  8
7
100
AcDbLine
 10
12.03820191462362
 20
13.05110033586664
 30
0.0
 11
12.03820191462362
 21
13.0432263201186
 31
0.0
  0
LINE
  5
2DDD
330
1E
100
AcDbEntity
  8
7
100
AcDbLine
 10
12.03820191462362
 20
13.0419139841606
 30
0.0
 11
12.03820191462362
 21
13.03928931224459
 31
0.0
  0
LINE
  5
2DE3
330
1E
100
AcDbEntity
  8
7
100
AcDbLine
 10
11.82297881751076
 20
13.0432263201186
 30
0.0
 11
11.82297881751076
 21
13.05110033586664
 31
0.0
  0
LINE
  5
2DE9
330
1E
100
AcDbEntity
  8
7
100
AcDbLine
 10
11.82297881751076
 20
13.03928931224459
 30
0.0
 11
11.82297881751076
 21
13.0419139841606
 31
0.0
  0
LINE
  5
2DF0
330
1E
100
AcDbEntity
  8
7
100
AcDbLine
 10
12.67206018234016
 20
13.0668483673627
 30
0.0
 11
12.67337251829816
 21
13.05110033586664
 31
0.0
  0
LINE
  5
2DF1
330
1E
100
AcDbEntity
  8
7
100
AcDbLine
 10
12.67337251829816
 20
13.0432263201186
 30
0.0
 11
12.67337251829816
 21
13.0419139841606
 31
0.0
  0
LINE
  5
2E09
330
1E
100
AcDbEntity
  8
7
100
AcDbLine
 10
12.67206018234016
 20
13.0169796009585
 30
0.0
 11
12.67206018234016
 21
13.00254390542044
 31
0.0
  0
LINE
  5
2E0A
330
1E
100
AcDbEntity
  8
7
100
AcDbLine
 10
12.67337251829816
 20
13.05110033586664
 30
0.0
 11
12.67337251829816
 21
13.0432263201186
 31
0.0
  0
LINE
  5
2E0B
330
1E
100
AcDbEntity
  8
7
100
AcDbLine
 10
12.67337251829816
 20
13.0419139841606
 30
0.0
 11
12.67337251829816
 21
13.03928931224459
 31
0.0
  0
LINE
  5
2E11
330
1E
100
AcDbEntity
  8
7
100
AcDbLine
 10
12.4568370852273
 20
13.0432263201186
 30
0.0
 11
12.4581494211853
 21
13.05110033586664
 31
0.0
  0
LINE
  5
2E17
330
1E
100
AcDbEntity
  8
7
100
AcDbLine
 10
12.4581494211853
 20
13.03928931224459
 30
0.0
 11
12.4581494211853
 21
13.0419139841606
 31
0.0
  0
LINE
  5
2E1E
330
1E
100
AcDbEntity
  8
7
100
AcDbLine
 10
13.3072307860147
 20
13.0668483673627
 30
0.0
 11
13.30854312197271
 21
13.05110033586664
 31
0.0
  0
LINE
  5
2E1F
330
1E
100
AcDbEntity
  8
7
100
AcDbLine
 10
13.30854312197271
 20
13.0432263201186
 30
0.0
 11
13.30854312197271
 21
13.0419139841606
 31
0.0
  0
LINE
  5
2E2B
330
1E
100
AcDbEntity
  8
7
100
AcDbLine
 10
13.30854312197271
 20
13.03928931224459
 30
0.0
 11
13.09332002485984
 21
13.03928931224459
 31
0.0
  0
LINE
  5
2E37
330
1E
100
AcDbEntity
  8
7
100
AcDbLine
 10
13.3072307860147
 20
13.0169796009585
 30
0.0
 11
13.3072307860147
 21
13.00254390542044
 31
0.0
  0
LINE
  5
2E38
330
1E
100
AcDbEntity
  8
7
100
AcDbLine
 10
13.30854312197271
 20
13.05110033586664
 30
0.0
 11
13.30854312197271
 21
13.0432263201186
 31
0.0
  0
LINE
  5
2E39
330
1E
100
AcDbEntity
  8
7
100
AcDbLine
 10
13.30854312197271
 20
13.0419139841606
 30
0.0
 11
13.30854312197271
 21
13.03928931224459
 31
0.0
  0
LINE
  5
2E3F
330
1E
100
AcDbEntity
  8
7
100
AcDbLine
 10
13.09200768890184
 20
13.0432263201186
 30
0.0
 11
13.09200768890184
 21
13.05110033586664
 31
0.0
  0
LINE
  5
2E45
330
1E
100
AcDbEntity
  8
7
100
AcDbLine
 10
13.09332002485984
 20
13.03928931224459
 30
0.0
 11
13.09200768890184
 21
13.0419139841606
 31
0.0
  0
LINE
  5
2E46
330
1E
100
AcDbEntity
  8
7
100
AcDbLine
 10
12.01851687525355
 20
13.32800322300574
 30
0.0
 11
11.84266385688084
 21
13.32800322300574
 31
0.0
  0
LINE
  5
2E4C
330
1E
100
AcDbEntity
  8
7
100
AcDbLine
 10
12.65368747892809
 20
13.32800322300574
 30
0.0
 11
12.47783446055538
 21
13.32800322300574
 31
0.0
  0
LINE
  5
2E52
330
1E
100
AcDbEntity
  8
7
100
AcDbLine
 10
13.28754574664462
 20
13.32800322300574
 30
0.0
 11
13.11300506422992
 21
13.32800322300574
 31
0.0
  0
LINE
  5
2E58
330
1E
100
AcDbEntity
  8
7
100
AcDbLine
 10
11.82429115346877
 20
13.36474862982989
 30
0.0
 11
11.82822816134278
 21
13.36081162195587
 31
0.0
  0
LINE
  5
2E59
330
1E
100
AcDbEntity
  8
7
100
AcDbLine
 10
12.03688957866562
 20
13.36474862982989
 30
0.0
 11
12.0329525707916
 21
13.36081162195587
 31
0.0
  0
LINE
  5
2E5A
330
1E
100
AcDbEntity
  8
7
100
AcDbLine
 10
12.45946175714331
 20
13.36474862982989
 30
0.0
 11
12.46339876501733
 21
13.36081162195587
 31
0.0
  0
LINE
  5
2E5B
330
1E
100
AcDbEntity
  8
7
100
AcDbLine
 10
12.67074784638215
 20
13.36474862982989
 30
0.0
 11
12.66812317446614
 21
13.36081162195587
 31
0.0
  0
LINE
  5
2E5C
330
1E
100
AcDbEntity
  8
7
100
AcDbLine
 10
13.09463236081785
 20
13.36474862982989
 30
0.0
 11
13.09856936869186
 21
13.36081162195587
 31
0.0
  0
LINE
  5
2E5D
330
1E
100
AcDbEntity
  8
7
100
AcDbLine
 10
13.30591845005669
 20
13.36474862982989
 30
0.0
 11
13.30329377814068
 21
13.36081162195587
 31
0.0
  0
LINE
  5
2E5E
330
1E
100
AcDbEntity
  8
7
100
AcDbLine
 10
13.54607593037166
 20
13.67839692379314
 30
0.0
 11
13.54607593037166
 21
13.70595597891125
 31
0.0
  0
LINE
  5
2E5F
330
1E
100
AcDbEntity
  8
7
100
AcDbLine
 10
11.61169272827192
 20
13.72301634636532
 30
0.0
 11
11.60906805635591
 21
13.74795072956742
 31
0.0
  0
LINE
  5
2E60
330
1E
100
AcDbEntity
  8
7
100
AcDbLine
 10
13.51982921121155
 20
13.72301634636532
 30
0.0
 11
13.52114154716955
 21
13.74795072956742
 31
0.0
  0
LINE
  5
2E61
330
1E
100
AcDbEntity
  8
7
100
AcDbLine
 10
11.58544600911181
 20
13.67839692379314
 30
0.0
 11
11.58544600911181
 21
13.70595597891125
 31
0.0
  0
LINE
  5
2E86
330
1E
100
AcDbEntity
  8
7
100
AcDbLine
 10
11.46864810884934
 20
13.43299009964616
 30
0.0
 11
11.47652212459738
 21
13.4172420681501
 31
0.0
  0
LINE
  5
2EA2
330
1E
100
AcDbEntity
  8
7
100
AcDbLine
 10
12.32035414559475
 20
14.26501109702149
 30
0.0
 11
12.32035414559475
 21
14.2177670025333
 31
0.0
  0
LINE
  5
2EA3
330
1E
100
AcDbEntity
  8
7
100
AcDbLine
 10
12.17599719021418
 20
14.26501109702149
 30
0.0
 11
12.32035414559475
 21
14.26501109702149
 31
0.0
  0
LINE
  5
2EA4
330
1E
100
AcDbEntity
  8
7
100
AcDbLine
 10
12.17599719021418
 20
14.2177670025333
 30
0.0
 11
12.17599719021418
 21
14.26501109702149
 31
0.0
  0
LINE
  5
2EAF
330
1E
100
AcDbEntity
  8
7
100
AcDbLine
 10
11.82822816134278
 20
14.86343629387188
 30
0.0
 11
11.84266385688084
 21
14.86343629387188
 31
0.0
  0
LINE
  5
2EB0
330
1E
100
AcDbEntity
  8
7
100
AcDbLine
 10
11.82822816134278
 20
14.86343629387188
 30
0.0
 11
11.82560348942677
 21
14.83718957471178
 31
0.0
  0
LINE
  5
2EB1
330
1E
100
AcDbEntity
  8
7
100
AcDbLine
 10
11.68518354192021
 20
14.31225519150968
 30
0.0
 11
11.68518354192021
 21
14.26501109702149
 31
0.0
  0
LINE
  5
2EB2
330
1E
100
AcDbEntity
  8
7
100
AcDbLine
 10
12.03688957866562
 20
14.48417120200836
 30
0.0
 11
12.05526228207769
 21
14.2663234329795
 31
0.0
  0
LINE
  5
2EB8
330
1E
100
AcDbEntity
  8
7
100
AcDbLine
 10
12.17599719021418
 20
14.31225519150968
 30
0.0
 11
12.17599719021418
 21
14.26501109702149
 31
0.0
  0
LINE
  5
2EB9
330
1E
100
AcDbEntity
  8
7
100
AcDbLine
 10
12.32035414559475
 20
14.31225519150968
 30
0.0
 11
12.32035414559475
 21
14.26501109702149
 31
0.0
  0
LINE
  5
2EBA
330
1E
100
AcDbEntity
  8
7
100
AcDbLine
 10
12.67206018234016
 20
14.48417120200836
 30
0.0
 11
12.69043288575223
 21
14.2663234329795
 31
0.0
  0
LINE
  5
2EC0
330
1E
100
AcDbEntity
  8
7
100
AcDbLine
 10
12.81116779388872
 20
14.31225519150968
 30
0.0
 11
12.81116779388872
 21
14.26501109702149
 31
0.0
  0
LINE
  5
2EC1
330
1E
100
AcDbEntity
  8
7
100
AcDbLine
 10
12.95552474926929
 20
14.31225519150968
 30
0.0
 11
12.95552474926929
 21
14.26501109702149
 31
0.0
  0
LINE
  5
2EC2
330
1E
100
AcDbEntity
  8
7
100
AcDbLine
 10
13.3072307860147
 20
14.48417120200836
 30
0.0
 11
13.32560348942677
 21
14.2663234329795
 31
0.0
  0
LINE
  5
2EC8
330
1E
100
AcDbEntity
  8
7
100
AcDbLine
 10
13.44502606160525
 20
14.31225519150968
 30
0.0
 11
13.44502606160525
 21
14.26501109702149
 31
0.0
  0
LINE
  5
2ECE
330
1E
100
AcDbEntity
  8
7
100
AcDbLine
 10
12.03688957866562
 20
14.51960427287451
 30
0.0
 11
12.03688957866562
 21
14.50385624137845
 31
0.0
  0
LINE
  5
2ECF
330
1E
100
AcDbEntity
  8
7
100
AcDbLine
 10
12.03688957866562
 20
14.51960427287451
 30
0.0
 11
11.82429115346877
 21
14.51960427287451
 31
0.0
  0
LINE
  5
2ED6
330
1E
100
AcDbEntity
  8
7
100
AcDbLine
 10
12.03688957866562
 20
14.56947303927871
 30
0.0
 11
12.03820191462362
 21
14.55241267182464
 31
0.0
  0
LINE
  5
2ED7
330
1E
100
AcDbEntity
  8
7
100
AcDbLine
 10
12.03820191462362
 20
14.54585099203461
 30
0.0
 11
12.03820191462362
 21
14.5432263201186
 31
0.0
  0
LINE
  5
2EE9
330
1E
100
AcDbEntity
  8
7
100
AcDbLine
 10
12.03820191462362
 20
14.55241267182464
 30
0.0
 11
12.03820191462362
 21
14.54585099203461
 31
0.0
  0
LINE
  5
2EEA
330
1E
100
AcDbEntity
  8
7
100
AcDbLine
 10
12.03820191462362
 20
14.5432263201186
 30
0.0
 11
12.03820191462362
 21
14.54060164820259
 31
0.0
  0
LINE
  5
2EF0
330
1E
100
AcDbEntity
  8
7
100
AcDbLine
 10
11.82297881751076
 20
14.54585099203461
 30
0.0
 11
11.82297881751076
 21
14.55241267182464
 31
0.0
  0
LINE
  5
2EF6
330
1E
100
AcDbEntity
  8
7
100
AcDbLine
 10
11.82297881751076
 20
14.54060164820259
 30
0.0
 11
11.82297881751076
 21
14.5432263201186
 31
0.0
  0
LINE
  5
2EFC
330
1E
100
AcDbEntity
  8
7
100
AcDbLine
 10
12.67206018234016
 20
14.51960427287451
 30
0.0
 11
12.67206018234016
 21
14.50385624137845
 31
0.0
  0
LINE
  5
2EFD
330
1E
100
AcDbEntity
  8
7
100
AcDbLine
 10
12.67206018234016
 20
14.51960427287451
 30
0.0
 11
12.45946175714331
 21
14.51960427287451
 31
0.0
  0
LINE
  5
2F04
330
1E
100
AcDbEntity
  8
7
100
AcDbLine
 10
12.67206018234016
 20
14.56947303927871
 30
0.0
 11
12.67337251829816
 21
14.55241267182464
 31
0.0
  0
LINE
  5
2F05
330
1E
100
AcDbEntity
  8
7
100
AcDbLine
 10
12.67337251829816
 20
14.54585099203461
 30
0.0
 11
12.67337251829816
 21
14.5432263201186
 31
0.0
  0
LINE
  5
2F17
330
1E
100
AcDbEntity
  8
7
100
AcDbLine
 10
12.67337251829816
 20
14.55241267182464
 30
0.0
 11
12.67337251829816
 21
14.54585099203461
 31
0.0
  0
LINE
  5
2F18
330
1E
100
AcDbEntity
  8
7
100
AcDbLine
 10
12.67337251829816
 20
14.5432263201186
 30
0.0
 11
12.67337251829816
 21
14.54060164820259
 31
0.0
  0
LINE
  5
2F1E
330
1E
100
AcDbEntity
  8
7
100
AcDbLine
 10
12.4568370852273
 20
14.54585099203461
 30
0.0
 11
12.4581494211853
 21
14.55241267182464
 31
0.0
  0
LINE
  5
2F24
330
1E
100
AcDbEntity
  8
7
100
AcDbLine
 10
12.4581494211853
 20
14.54060164820259
 30
0.0
 11
12.4581494211853
 21
14.5432263201186
 31
0.0
  0
LINE
  5
2F2A
330
1E
100
AcDbEntity
  8
7
100
AcDbLine
 10
13.3072307860147
 20
14.51960427287451
 30
0.0
 11
13.3072307860147
 21
14.50385624137845
 31
0.0
  0
LINE
  5
2F2B
330
1E
100
AcDbEntity
  8
7
100
AcDbLine
 10
13.3072307860147
 20
14.51960427287451
 30
0.0
 11
13.09463236081785
 21
14.51960427287451
 31
0.0
  0
LINE
  5
2F32
330
1E
100
AcDbEntity
  8
7
100
AcDbLine
 10
13.3072307860147
 20
14.56947303927871
 30
0.0
 11
13.30854312197271
 21
14.55241267182464
 31
0.0
  0
LINE
  5
2F33
330
1E
100
AcDbEntity
  8
7
100
AcDbLine
 10
13.30854312197271
 20
14.54585099203461
 30
0.0
 11
13.30854312197271
 21
14.5432263201186
 31
0.0
  0
LINE
  5
2F45
330
1E
100
AcDbEntity
  8
7
100
AcDbLine
 10
13.30854312197271
 20
14.55241267182464
 30
0.0
 11
13.30854312197271
 21
14.54585099203461
 31
0.0
  0
LINE
  5
2F46
330
1E
100
AcDbEntity
  8
7
100
AcDbLine
 10
13.30854312197271
 20
14.5432263201186
 30
0.0
 11
13.30854312197271
 21
14.54060164820259
 31
0.0
  0
LINE
  5
2F4C
330
1E
100
AcDbEntity
  8
7
100
AcDbLine
 10
13.09200768890184
 20
14.54585099203461
 30
0.0
 11
13.09200768890184
 21
14.55241267182464
 31
0.0
  0
LINE
  5
2F52
330
1E
100
AcDbEntity
  8
7
100
AcDbLine
 10
13.09332002485984
 20
14.54060164820259
 30
0.0
 11
13.09200768890184
 21
14.5432263201186
 31
0.0
  0
LINE
  5
2F53
330
1E
100
AcDbEntity
  8
7
100
AcDbLine
 10
12.01851687525355
 20
14.82931555896375
 30
0.0
 11
11.84266385688084
 21
14.82931555896375
 31
0.0
  0
LINE
  5
2F54
330
1E
100
AcDbEntity
  8
7
100
AcDbLine
 10
12.01851687525355
 20
14.86343629387188
 30
0.0
 11
11.84266385688084
 21
14.86343629387188
 31
0.0
  0
LINE
  5
2F55
330
1E
100
AcDbEntity
  8
7
100
AcDbLine
 10
11.84266385688084
 20
14.82931555896375
 30
0.0
 11
11.84266385688084
 21
14.86343629387188
 31
0.0
  0
LINE
  5
2F56
330
1E
100
AcDbEntity
  8
7
100
AcDbLine
 10
12.65368747892809
 20
14.82931555896375
 30
0.0
 11
12.47783446055538
 21
14.82931555896375
 31
0.0
  0
LINE
  5
2F57
330
1E
100
AcDbEntity
  8
7
100
AcDbLine
 10
12.65368747892809
 20
14.86343629387188
 30
0.0
 11
12.47783446055538
 21
14.86343629387188
 31
0.0
  0
LINE
  5
2F58
330
1E
100
AcDbEntity
  8
7
100
AcDbLine
 10
12.47783446055538
 20
14.82931555896375
 30
0.0
 11
12.47783446055538
 21
14.86343629387188
 31
0.0
  0
LINE
  5
2F59
330
1E
100
AcDbEntity
  8
7
100
AcDbLine
 10
13.28754574664462
 20
14.82931555896375
 30
0.0
 11
13.11300506422992
 21
14.82931555896375
 31
0.0
  0
LINE
  5
2F5A
330
1E
100
AcDbEntity
  8
7
100
AcDbLine
 10
13.28754574664462
 20
14.86343629387188
 30
0.0
 11
13.11300506422992
 21
14.86343629387188
 31
0.0
  0
LINE
  5
2F5B
330
1E
100
AcDbEntity
  8
7
100
AcDbLine
 10
13.11300506422992
 20
14.82931555896375
 30
0.0
 11
13.11300506422992
 21
14.86343629387188
 31
0.0
  0
LINE
  5
2F5C
330
1E
100
AcDbEntity
  8
7
100
AcDbLine
 10
12.03688957866562
 20
14.86606096578789
 30
0.0
 11
12.0329525707916
 21
14.86343629387188
 31
0.0
  0
LINE
  5
2F5D
330
1E
100
AcDbEntity
  8
7
100
AcDbLine
 10
11.82429115346877
 20
14.86606096578789
 30
0.0
 11
11.82822816134278
 21
14.86343629387188
 31
0.0
  0
LINE
  5
2F5E
330
1E
100
AcDbEntity
  8
7
100
AcDbLine
 10
12.67074784638215
 20
14.86606096578789
 30
0.0
 11
12.66812317446614
 21
14.86343629387188
 31
0.0
  0
LINE
  5
2F5F
330
1E
100
AcDbEntity
  8
7
100
AcDbLine
 10
12.45946175714331
 20
14.86606096578789
 30
0.0
 11
12.46339876501733
 21
14.86343629387188
 31
0.0
  0
LINE
  5
2F60
330
1E
100
AcDbEntity
  8
7
100
AcDbLine
 10
13.30591845005669
 20
14.86606096578789
 30
0.0
 11
13.30329377814068
 21
14.86343629387188
 31
0.0
  0
LINE
  5
2F61
330
1E
100
AcDbEntity
  8
7
100
AcDbLine
 10
13.09463236081785
 20
14.86606096578789
 30
0.0
 11
13.09856936869186
 21
14.86343629387188
 31
0.0
  0
LINE
  5
2F67
330
1E
100
AcDbEntity
  8
7
100
AcDbLine
 10
11.60906805635591
 20
15.20858065082727
 30
0.0
 11
11.58544600911181
 21
15.20858065082727
 31
0.0
  0
LINE
  5
2F68
330
1E
100
AcDbEntity
  8
7
100
AcDbLine
 10
11.60906805635591
 20
15.20858065082727
 30
0.0
 11
11.60906805635591
 21
15.22039167444931
 31
0.0
  0
LINE
  5
2F69
330
1E
100
AcDbEntity
  8
7
100
AcDbLine
 10
11.60906805635591
 20
15.25057540148343
 30
0.0
 11
11.60906805635591
 21
15.20858065082727
 31
0.0
  0
LINE
  5
2F6A
330
1E
100
AcDbEntity
  8
7
100
AcDbLine
 10
11.60906805635591
 20
15.25057540148343
 30
0.0
 11
11.60906805635591
 21
15.26238642510548
 31
0.0
  0
LINE
  5
2F70
330
1E
100
AcDbEntity
  8
7
100
AcDbLine
 10
11.61169272827192
 20
15.22432868232333
 30
0.0
 11
11.60906805635591
 21
15.25057540148343
 31
0.0
  0
LINE
  5
2F7B
330
1E
100
AcDbEntity
  8
7
100
AcDbLine
 10
13.54607593037166
 20
15.18102159570915
 30
0.0
 11
13.54607593037166
 21
15.20858065082727
 31
0.0
  0
LINE
  5
2F8A
330
1E
100
AcDbEntity
  8
7
100
AcDbLine
 10
13.23505230832441
 20
15.11409246185089
 30
0.0
 11
13.22192894874436
 21
15.12984049334695
 31
0.0
  0
LINE
  5
2F9D
330
1E
100
AcDbEntity
  8
7
100
AcDbLine
 10
13.57232264953176
 20
14.89099534899
 30
0.0
 11
13.60644338443989
 21
14.89493235686401
 31
0.0
  0
LINE
  5
2FF5
330
1E
100
AcDbEntity
  8
7
100
AcDbLine
 10
13.06838564165774
 20
12.35949928599787
 30
0.0
 11
13.0565746180357
 21
12.35949928599787
 31
0.0
  0
LINE
  5
2FF6
330
1E
100
AcDbEntity
  8
7
100
AcDbLine
 10
13.0565746180357
 20
12.39886936473802
 30
0.0
 11
13.0565746180357
 21
12.35949928599787
 31
0.0
  0
LINE
  5
2FF7
330
1E
100
AcDbEntity
  8
7
100
AcDbLine
 10
13.06838564165774
 20
12.39886936473802
 30
0.0
 11
13.0565746180357
 21
12.39886936473802
 31
0.0
  0
LINE
  5
2FFD
330
1E
100
AcDbEntity
  8
7
100
AcDbLine
 10
13.07363498548976
 20
12.39362002090601
 30
0.0
 11
13.07363498548976
 21
12.36474862982989
 31
0.0
  0
LINE
  5
3003
330
1E
100
AcDbEntity
  8
7
100
AcDbLine
 10
13.1326901036
 20
12.36081162195587
 30
0.0
 11
13.14318879126404
 21
12.33718957471178
 31
0.0
  0
LINE
  5
3004
330
1E
100
AcDbEntity
  8
7
100
AcDbLine
 10
13.12219141593596
 20
12.33718957471178
 30
0.0
 11
13.1326901036
 21
12.36081162195587
 31
0.0
  0
LINE
  5
3005
330
1E
100
AcDbEntity
  8
7
100
AcDbLine
 10
13.14318879126404
 20
12.33718957471178
 30
0.0
 11
13.12219141593596
 21
12.33718957471178
 31
0.0
  0
LINE
  5
3006
330
1E
100
AcDbEntity
  8
7
100
AcDbLine
 10
13.14975047105407
 20
12.3175045353417
 30
0.0
 11
13.11562973614593
 21
12.3175045353417
 31
0.0
  0
LINE
  5
3007
330
1E
100
AcDbEntity
  8
7
100
AcDbLine
 10
13.15499981488609
 20
12.30569351171965
 30
0.0
 11
13.14975047105407
 21
12.3175045353417
 31
0.0
  0
LINE
  5
3008
330
1E
100
AcDbEntity
  8
7
100
AcDbLine
 10
13.15499981488609
 20
12.30569351171965
 30
0.0
 11
13.19436989362625
 21
12.30569351171965
 31
0.0
  0
LINE
  5
3009
330
1E
100
AcDbEntity
  8
7
100
AcDbLine
 10
13.19436989362625
 20
12.3424389185438
 30
0.0
 11
13.19436989362625
 21
12.30569351171965
 31
0.0
  0
LINE
  5
300A
330
1E
100
AcDbEntity
  8
7
100
AcDbLine
 10
13.21011792512231
 20
12.30569351171965
 30
0.0
 11
13.19436989362625
 21
12.3424389185438
 31
0.0
  0
LINE
  5
3015
330
1E
100
AcDbEntity
  8
7
100
AcDbLine
 10
13.14450112722205
 20
12.392307684948
 30
0.0
 11
13.16943551042415
 21
12.33587723875377
 31
0.0
  0
LINE
  5
3016
330
1E
100
AcDbEntity
  8
7
100
AcDbLine
 10
13.14450112722205
 20
12.392307684948
 30
0.0
 11
13.12219141593596
 21
12.392307684948
 31
0.0
  0
LINE
  5
301C
330
1E
100
AcDbEntity
  8
7
100
AcDbLine
 10
13.00539351567349
 20
12.41855440410811
 30
0.0
 11
13.08413367315381
 21
12.41855440410811
 31
0.0
  0
LINE
  5
301D
330
1E
100
AcDbEntity
  8
7
100
AcDbLine
 10
13.00539351567349
 20
12.41855440410811
 30
0.0
 11
13.00539351567349
 21
12.30569351171965
 31
0.0
  0
LINE
  5
301E
330
1E
100
AcDbEntity
  8
7
100
AcDbLine
 10
13.0565746180357
 20
12.30569351171965
 30
0.0
 11
13.00539351567349
 21
12.30569351171965
 31
0.0
  0
LINE
  5
301F
330
1E
100
AcDbEntity
  8
7
100
AcDbLine
 10
13.0565746180357
 20
12.34112658258579
 30
0.0
 11
13.0565746180357
 21
12.30569351171965
 31
0.0
  0
LINE
  5
3020
330
1E
100
AcDbEntity
  8
7
100
AcDbLine
 10
13.0565746180357
 20
12.34112658258579
 30
0.0
 11
13.08413367315381
 21
12.34112658258579
 31
0.0
  0
LINE
  5
3026
330
1E
100
AcDbEntity
  8
7
100
AcDbLine
 10
13.08675834506982
 20
12.30569351171965
 30
0.0
 11
13.10119404060787
 21
12.34506359045981
 31
0.0
  0
LINE
  5
3027
330
1E
100
AcDbEntity
  8
7
100
AcDbLine
 10
13.11038039231391
 20
12.30569351171965
 30
0.0
 11
13.08675834506982
 21
12.30569351171965
 31
0.0
  0
LINE
  5
3028
330
1E
100
AcDbEntity
  8
7
100
AcDbLine
 10
13.11038039231391
 20
12.30569351171965
 30
0.0
 11
13.11562973614593
 21
12.3175045353417
 31
0.0
  0
LINE
  5
3029
330
1E
100
AcDbEntity
  8
7
100
AcDbLine
 10
13.32691582538478
 20
12.392307684948
 30
0.0
 11
13.32691582538478
 21
12.32144154321572
 31
0.0
  0
LINE
  5
302F
330
1E
100
AcDbEntity
  8
7
100
AcDbLine
 10
13.37415991987297
 20
12.30569351171965
 30
0.0
 11
13.34266385688084
 21
12.30569351171965
 31
0.0
  0
LINE
  5
3040
330
1E
100
AcDbEntity
  8
7
100
AcDbLine
 10
13.36628590412494
 20
12.32537855108973
 30
0.0
 11
13.36103656029292
 21
12.32537855108973
 31
0.0
  0
LINE
  5
3050
330
1E
100
AcDbEntity
  8
7
100
AcDbLine
 10
13.48570847630341
 20
12.37524731749393
 30
0.0
 11
13.48570847630341
 21
12.30569351171965
 31
0.0
  0
LINE
  5
3057
330
1E
100
AcDbEntity
  8
7
100
AcDbLine
 10
13.44108905373124
 20
12.37524731749393
 30
0.0
 11
13.44108905373124
 21
12.392307684948
 31
0.0
  0
LINE
  5
3058
330
1E
100
AcDbEntity
  8
7
100
AcDbLine
 10
13.45946175714331
 20
12.37524731749393
 30
0.0
 11
13.44108905373124
 21
12.37524731749393
 31
0.0
  0
LINE
  5
305E
330
1E
100
AcDbEntity
  8
7
100
AcDbLine
 10
13.42665335819318
 20
12.392307684948
 30
0.0
 11
13.42665335819318
 21
12.30569351171965
 31
0.0
  0
LINE
  5
305F
330
1E
100
AcDbEntity
  8
7
100
AcDbLine
 10
13.42665335819318
 20
12.392307684948
 30
0.0
 11
13.40303131094908
 21
12.392307684948
 31
0.0
  0
LINE
  5
3060
330
1E
100
AcDbEntity
  8
7
100
AcDbLine
 10
13.27573472302257
 20
12.37393498153593
 30
0.0
 11
13.27573472302257
 21
12.32537855108973
 31
0.0
  0
LINE
  5
3061
330
1E
100
AcDbEntity
  8
7
100
AcDbLine
 10
13.28492107472861
 20
12.37393498153593
 30
0.0
 11
13.27573472302257
 21
12.37393498153593
 31
0.0
  0
LINE
  5
3067
330
1E
100
AcDbEntity
  8
7
100
AcDbLine
 10
13.28885808260263
 20
12.32931555896375
 30
0.0
 11
13.28885808260263
 21
12.36999797366191
 31
0.0
  0
LINE
  5
306D
330
1E
100
AcDbEntity
  8
7
100
AcDbLine
 10
13.28492107472861
 20
12.32537855108973
 30
0.0
 11
13.27573472302257
 21
12.32537855108973
 31
0.0
  0
LINE
  5
3078
330
1E
100
AcDbEntity
  8
7
100
AcDbLine
 10
13.31379246580473
 20
12.32144154321572
 30
0.0
 11
13.31379246580473
 21
12.37655965345194
 31
0.0
  0
LINE
  5
307E
330
1E
100
AcDbEntity
  8
7
100
AcDbLine
 10
13.29804443430866
 20
12.392307684948
 30
0.0
 11
13.24948800386247
 21
12.392307684948
 31
0.0
  0
LINE
  5
307F
330
1E
100
AcDbEntity
  8
7
100
AcDbLine
 10
16.09988170464987
 20
14.98679587392437
 30
0.0
 11
16.40040663903307
 21
15.41592973219209
 31
0.0
  0
LINE
  5
3080
330
1E
100
AcDbEntity
  8
7
100
AcDbLine
 10
16.32035414559475
 20
14.50123156946244
 30
0.0
 11
16.09594469677585
 21
14.89099534899
 31
0.0
  0
LINE
  5
3081
330
1E
100
AcDbEntity
  8
7
100
AcDbLine
 10
16.38465860753701
 20
12.88837067707398
 30
0.0
 11
16.09594469677585
 21
13.38837067707398
 31
0.0
  0
LINE
  5
3082
330
1E
100
AcDbEntity
  8
7
100
AcDbLine
 10
16.89253262328504
 20
11.8424389185438
 30
0.0
 11
16.58544600911181
 21
11.86343629387188
 31
0.0
  0
LINE
  5
3083
330
1E
100
AcDbEntity
  8
7
100
AcDbLine
 10
16.89253262328504
 20
11.87262264557792
 30
0.0
 11
16.89253262328504
 21
16.31225519150968
 31
0.0
  0
LINE
  5
3090
330
1E
100
AcDbEntity
  8
7
100
AcDbLine
 10
16.58544600911181
 20
16.32144154321571
 30
0.0
 11
16.89253262328504
 21
16.3424389185438
 31
0.0
  0
LINE
  5
30C0
330
1E
100
AcDbEntity
  8
7
100
AcDbLine
 10
16.09988170464987
 20
13.48548353796637
 30
0.0
 11
16.31641713772074
 21
13.79388248809761
 31
0.0
  0
LINE
  5
30C1
330
1E
100
AcDbEntity
  8
7
100
AcDbLine
 10
16.91877934244515
 20
12.98285886605036
 30
0.0
 11
16.89253262328504
 21
12.96579849859629
 31
0.0
  0
LINE
  5
30C2
330
1E
100
AcDbEntity
  8
7
100
AcDbLine
 10
16.89253262328504
 20
12.87393498153593
 30
0.0
 11
17.07101031357376
 21
12.99466988967241
 31
0.0
  0
LINE
  5
30C3
330
1E
100
AcDbEntity
  8
7
100
AcDbLine
 10
17.08675834506982
 20
12.99991923350443
 30
0.0
 11
17.1589368227601
 21
13.00385624137844
 31
0.0
  0
LINE
  5
30C4
330
1E
100
AcDbEntity
  8
7
100
AcDbLine
 10
17.17337251829817
 20
13.0182919369165
 30
0.0
 11
17.17337251829817
 21
13.04060164820259
 31
0.0
  0
LINE
  5
30CA
330
1E
100
AcDbEntity
  8
7
100
AcDbLine
 10
16.91615467052913
 20
13.0169796009585
 30
0.0
 11
16.89253262328504
 21
13.03797697628658
 31
0.0
  0
LINE
  5
30D1
330
1E
100
AcDbEntity
  8
7
100
AcDbLine
 10
17.07101031357376
 20
12.99466988967241
 30
0.0
 11
17.08675834506982
 21
12.99991923350443
 31
0.0
  0
LINE
  5
30F0
330
1E
100
AcDbEntity
  8
7
100
AcDbLine
 10
16.37678459178898
 20
15.23089036211335
 30
0.0
 11
16.17074784638216
 21
14.93561477156217
 31
0.0
  0
LINE
  5
30F1
330
1E
100
AcDbEntity
  8
7
100
AcDbLine
 10
16.17074784638216
 20
14.93561477156217
 30
0.0
 11
16.32822816134278
 21
14.66264889229708
 31
0.0
  0
LINE
  5
30F2
330
1E
100
AcDbEntity
  8
7
100
AcDbLine
 10
16.91877934244515
 20
14.48417120200836
 30
0.0
 11
16.89253262328504
 21
14.4684231705123
 31
0.0
  0
LINE
  5
30F3
330
1E
100
AcDbEntity
  8
7
100
AcDbLine
 10
16.91615467052913
 20
14.51960427287451
 30
0.0
 11
16.92402868627717
 21
14.50385624137845
 31
0.0
  0
LINE
  5
30F4
330
1E
100
AcDbEntity
  8
7
100
AcDbLine
 10
16.89253262328504
 20
14.37655965345194
 30
0.0
 11
17.07101031357376
 21
14.49598222563041
 31
0.0
  0
LINE
  5
30F5
330
1E
100
AcDbEntity
  8
7
100
AcDbLine
 10
17.08675834506982
 20
14.50123156946244
 30
0.0
 11
17.1589368227601
 21
14.50516857733645
 31
0.0
  0
LINE
  5
30F6
330
1E
100
AcDbEntity
  8
7
100
AcDbLine
 10
17.17337251829817
 20
14.52091660883251
 30
0.0
 11
17.17337251829817
 21
14.5419139841606
 31
0.0
  0
LINE
  5
30FC
330
1E
100
AcDbEntity
  8
7
100
AcDbLine
 10
16.91615467052913
 20
14.51960427287451
 30
0.0
 11
16.89253262328504
 21
14.53928931224459
 31
0.0
  0
LINE
  5
3102
330
1E
100
AcDbEntity
  8
7
100
AcDbLine
 10
17.07101031357376
 20
14.49598222563041
 30
0.0
 11
17.08675834506982
 21
14.50123156946244
 31
0.0
  0
LINE
  5
36A0
330
1E
100
AcDbEntity
  8
7
100
AcDbLine
 10
16.56051162590971
 20
11.88705834111598
 30
0.0
 11
16.56969797761575
 21
11.87131030961992
 31
0.0
  0
LINE
  5
36A1
330
1E
100
AcDbEntity
  8
7
100
AcDbLine
 10
16.56969797761575
 20
11.87131030961992
 30
0.0
 11
16.58544600911181
 21
11.86474862982989
 31
0.0
  0
LINE
  5
36A2
330
1E
100
AcDbEntity
  8
7
100
AcDbLine
 10
16.58544600911181
 20
11.89362002090601
 30
0.0
 11
16.56576096974173
 21
11.88968301303199
 31
0.0
  0
LINE
  5
36A3
330
1E
100
AcDbEntity
  8
7
100
AcDbLine
 10
16.56576096974173
 20
11.88968301303199
 30
0.0
 11
16.55919928995171
 21
11.88705834111598
 31
0.0
  0
LINE
  5
36A4
330
1E
100
AcDbEntity
  8
7
100
AcDbLine
 10
16.58544600911181
 20
16.29125781618159
 30
0.0
 11
16.56576096974173
 21
16.29519482405561
 31
0.0
  0
LINE
  5
36A5
330
1E
100
AcDbEntity
  8
7
100
AcDbLine
 10
16.56576096974173
 20
16.29519482405561
 30
0.0
 11
16.55919928995171
 21
16.29781949597162
 31
0.0
  0
LINE
  5
36A6
330
1E
100
AcDbEntity
  8
7
100
AcDbLine
 10
16.58544600911181
 20
16.32012920725771
 30
0.0
 11
16.56969797761575
 21
16.31356752746769
 31
0.0
  0
LINE
  5
36A7
330
1E
100
AcDbEntity
  8
7
100
AcDbLine
 10
16.56969797761575
 20
16.31356752746769
 30
0.0
 11
16.56051162590971
 21
16.29781949597162
 31
0.0
  0
LINE
  5
36A8
330
1E
100
AcDbEntity
  8
7
100
AcDbLine
 10
16.58544600911181
 20
16.32144154321571
 30
0.0
 11
16.58544600911181
 21
16.31225519150968
 31
0.0
  0
LINE
  5
36A9
330
1E
100
AcDbEntity
  8
7
100
AcDbLine
 10
16.58544600911181
 20
16.31225519150968
 30
0.0
 11
16.58544600911181
 21
16.29125781618159
 31
0.0
  0
LINE
  5
36AA
330
1E
100
AcDbEntity
  8
7
100
AcDbLine
 10
16.58544600911181
 20
11.89362002090601
 30
0.0
 11
16.58544600911181
 21
11.87262264557792
 31
0.0
  0
LINE
  5
36AB
330
1E
100
AcDbEntity
  8
7
100
AcDbLine
 10
16.58544600911181
 20
11.87262264557792
 30
0.0
 11
16.58544600911181
 21
11.86343629387188
 31
0.0
  0
LINE
  5
36AC
330
1E
100
AcDbEntity
  8
7
100
AcDbLine
 10
16.09988170464987
 20
14.98679587392437
 30
0.0
 11
16.10513104848189
 21
14.98285886605036
 31
0.0
  0
LINE
  5
36AD
330
1E
100
AcDbEntity
  8
7
100
AcDbLine
 10
16.10513104848189
 20
14.98285886605036
 30
0.0
 11
16.12087907997795
 21
14.97104784242831
 31
0.0
  0
LINE
  5
36AE
330
1E
100
AcDbEntity
  8
7
100
AcDbLine
 10
16.12087907997795
 20
14.97104784242831
 30
0.0
 11
16.14318879126404
 21
14.95529981093225
 31
0.0
  0
LINE
  5
36AF
330
1E
100
AcDbEntity
  8
7
100
AcDbLine
 10
16.14318879126404
 20
14.95529981093225
 30
0.0
 11
16.17074784638216
 21
14.93561477156217
 31
0.0
  0
LINE
  5
36B0
330
1E
100
AcDbEntity
  8
7
100
AcDbLine
 10
16.09594469677585
 20
14.89099534899
 30
0.0
 11
16.10119404060788
 21
14.89493235686401
 31
0.0
  0
LINE
  5
36B1
330
1E
100
AcDbEntity
  8
7
100
AcDbLine
 10
16.10119404060788
 20
14.89493235686401
 30
0.0
 11
16.11694207210394
 21
14.90411870857005
 31
0.0
  0
LINE
  5
36B2
330
1E
100
AcDbEntity
  8
7
100
AcDbLine
 10
16.11694207210394
 20
14.90411870857005
 30
0.0
 11
16.14187645530604
 21
14.9185544041081
 31
0.0
  0
LINE
  5
36B3
330
1E
100
AcDbEntity
  8
7
100
AcDbLine
 10
16.14187645530604
 20
14.9185544041081
 30
0.0
 11
16.17074784638216
 21
14.93561477156217
 31
0.0
  0
LINE
  5
36B4
330
1E
100
AcDbEntity
  8
7
100
AcDbLine
 10
16.09988170464987
 20
14.98679587392437
 30
0.0
 11
16.08675834506982
 21
14.95661214689026
 31
0.0
  0
LINE
  5
36B5
330
1E
100
AcDbEntity
  8
7
100
AcDbLine
 10
16.08675834506982
 20
14.95661214689026
 30
0.0
 11
16.08544600911181
 21
14.92249141198212
 31
0.0
  0
LINE
  5
36B6
330
1E
100
AcDbEntity
  8
7
100
AcDbLine
 10
16.08544600911181
 20
14.92249141198212
 30
0.0
 11
16.09594469677585
 21
14.89099534899
 31
0.0
  0
LINE
  5
36B7
330
1E
100
AcDbEntity
  8
7
100
AcDbLine
 10
17.17337251829817
 20
14.5419139841606
 30
0.0
 11
17.16943551042415
 21
14.55241267182464
 31
0.0
  0
LINE
  5
36B8
330
1E
100
AcDbEntity
  8
7
100
AcDbLine
 10
17.16943551042415
 20
14.55241267182464
 30
0.0
 11
17.1589368227601
 21
14.55766201565666
 31
0.0
  0
LINE
  5
36B9
330
1E
100
AcDbEntity
  8
7
100
AcDbLine
 10
17.1589368227601
 20
14.50516857733645
 30
0.0
 11
17.16943551042415
 21
14.51041792116847
 31
0.0
  0
LINE
  5
36BA
330
1E
100
AcDbEntity
  8
7
100
AcDbLine
 10
17.16943551042415
 20
14.51041792116847
 30
0.0
 11
17.17337251829817
 21
14.52091660883251
 31
0.0
  0
LINE
  5
36BB
330
1E
100
AcDbEntity
  8
7
100
AcDbLine
 10
16.92402868627717
 20
14.50385624137845
 30
0.0
 11
16.92534102223517
 21
14.4933575537144
 31
0.0
  0
LINE
  5
36BC
330
1E
100
AcDbEntity
  8
7
100
AcDbLine
 10
16.92534102223517
 20
14.4933575537144
 30
0.0
 11
16.91877934244515
 21
14.48417120200836
 31
0.0
  0
LINE
  5
36BD
330
1E
100
AcDbEntity
  8
7
100
AcDbLine
 10
17.1589368227601
 20
14.55766201565666
 30
0.0
 11
16.92402868627717
 21
14.56947303927871
 31
0.0
  0
LINE
  5
36BE
330
1E
100
AcDbEntity
  8
7
100
AcDbLine
 10
16.92402868627717
 20
14.56947303927871
 30
0.0
 11
16.89253262328504
 21
14.55503734374065
 31
0.0
  0
LINE
  5
36BF
330
1E
100
AcDbEntity
  8
7
100
AcDbLine
 10
16.09988170464987
 20
13.48548353796637
 30
0.0
 11
16.10513104848189
 21
13.48023419413435
 31
0.0
  0
LINE
  5
36C0
330
1E
100
AcDbEntity
  8
7
100
AcDbLine
 10
16.10513104848189
 20
13.48023419413435
 30
0.0
 11
16.12087907997795
 21
13.46973550647031
 31
0.0
  0
LINE
  5
36C1
330
1E
100
AcDbEntity
  8
7
100
AcDbLine
 10
16.12087907997795
 20
13.46973550647031
 30
0.0
 11
16.14318879126404
 21
13.45267513901624
 31
0.0
  0
LINE
  5
36C2
330
1E
100
AcDbEntity
  8
7
100
AcDbLine
 10
16.14318879126404
 20
13.45267513901624
 30
0.0
 11
16.17074784638216
 21
13.43299009964616
 31
0.0
  0
LINE
  5
36C3
330
1E
100
AcDbEntity
  8
7
100
AcDbLine
 10
16.09594469677585
 20
13.38837067707398
 30
0.0
 11
16.10119404060788
 21
13.392307684948
 31
0.0
  0
LINE
  5
36C4
330
1E
100
AcDbEntity
  8
7
100
AcDbLine
 10
16.10119404060788
 20
13.392307684948
 30
0.0
 11
16.11694207210394
 21
13.40280637261204
 31
0.0
  0
LINE
  5
36C5
330
1E
100
AcDbEntity
  8
7
100
AcDbLine
 10
16.11694207210394
 20
13.40280637261204
 30
0.0
 11
16.14187645530604
 21
13.4172420681501
 31
0.0
  0
LINE
  5
36C6
330
1E
100
AcDbEntity
  8
7
100
AcDbLine
 10
16.14187645530604
 20
13.4172420681501
 30
0.0
 11
16.17074784638216
 21
13.43299009964616
 31
0.0
  0
LINE
  5
36C7
330
1E
100
AcDbEntity
  8
7
100
AcDbLine
 10
16.09988170464987
 20
13.48417120200837
 30
0.0
 11
16.08675834506982
 21
13.45398747497425
 31
0.0
  0
LINE
  5
36C8
330
1E
100
AcDbEntity
  8
7
100
AcDbLine
 10
16.08675834506982
 20
13.45398747497425
 30
0.0
 11
16.08544600911181
 21
13.41986674006611
 31
0.0
  0
LINE
  5
36C9
330
1E
100
AcDbEntity
  8
7
100
AcDbLine
 10
16.08544600911181
 20
13.41986674006611
 30
0.0
 11
16.09594469677585
 21
13.38837067707398
 31
0.0
  0
LINE
  5
36CA
330
1E
100
AcDbEntity
  8
7
100
AcDbLine
 10
17.17337251829817
 20
13.04060164820259
 30
0.0
 11
17.16943551042415
 21
13.04978799990863
 31
0.0
  0
LINE
  5
36CB
330
1E
100
AcDbEntity
  8
7
100
AcDbLine
 10
17.16943551042415
 20
13.04978799990863
 30
0.0
 11
17.1589368227601
 21
13.05503734374065
 31
0.0
  0
LINE
  5
36CC
330
1E
100
AcDbEntity
  8
7
100
AcDbLine
 10
17.1589368227601
 20
13.00385624137844
 30
0.0
 11
17.16943551042415
 21
13.00779324925246
 31
0.0
  0
LINE
  5
36CD
330
1E
100
AcDbEntity
  8
7
100
AcDbLine
 10
17.16943551042415
 20
13.00779324925246
 30
0.0
 11
17.17337251829817
 21
13.0182919369165
 31
0.0
  0
LINE
  5
36CE
330
1E
100
AcDbEntity
  8
7
100
AcDbLine
 10
16.91615467052913
 20
13.0169796009585
 30
0.0
 11
16.92402868627717
 21
13.00254390542044
 31
0.0
  0
LINE
  5
36CF
330
1E
100
AcDbEntity
  8
7
100
AcDbLine
 10
16.92402868627717
 20
13.00254390542044
 30
0.0
 11
16.92534102223517
 21
12.99073288179839
 31
0.0
  0
LINE
  5
36D0
330
1E
100
AcDbEntity
  8
7
100
AcDbLine
 10
16.92534102223517
 20
12.99073288179839
 30
0.0
 11
16.91877934244515
 21
12.98285886605036
 31
0.0
  0
LINE
  5
36D1
330
1E
100
AcDbEntity
  8
7
100
AcDbLine
 10
17.1589368227601
 20
13.05503734374065
 30
0.0
 11
16.92402868627717
 21
13.0668483673627
 31
0.0
  0
LINE
  5
36D2
330
1E
100
AcDbEntity
  8
7
100
AcDbLine
 10
16.92402868627717
 20
13.0668483673627
 30
0.0
 11
16.89253262328504
 21
13.05241267182464
 31
0.0
  0
LINE
  5
36D3
330
1E
100
AcDbEntity
  8
7
100
AcDbLine
 10
16.32166648155276
 20
13.64952553271703
 30
0.0
 11
16.17074784638216
 21
13.43299009964616
 31
0.0
  0
LINE
  5
36D4
330
1E
100
AcDbEntity
  8
7
100
AcDbLine
 10
16.17074784638216
 20
13.43299009964616
 30
0.0
 11
16.36103656029292
 21
13.10359377418685
 31
0.0
  0
LINE
  5
36D5
330
1E
100
AcDbEntity
  8
7
100
AcDbLine
 10
16.38597094349501
 20
15.04060164820259
 30
0.0
 11
16.36103656029292
 21
14.72564101828133
 31
0.0
  0
LINE
  5
36D6
330
1E
100
AcDbEntity
  8
7
100
AcDbLine
 10
16.36103656029292
 20
14.72564101828133
 30
0.0
 11
16.34528852879685
 21
14.40936805240207
 31
0.0
  0
LINE
  5
36D7
330
1E
100
AcDbEntity
  8
7
100
AcDbLine
 10
16.34528852879685
 20
14.40936805240207
 30
0.0
 11
16.34003918496483
 21
14.0917827505648
 31
0.0
  0
LINE
  5
36D8
330
1E
100
AcDbEntity
  8
7
100
AcDbLine
 10
16.34003918496483
 20
14.0917827505648
 30
0.0
 11
16.34528852879685
 21
13.77550978468553
 31
0.0
  0
LINE
  5
36D9
330
1E
100
AcDbEntity
  8
7
100
AcDbLine
 10
16.34528852879685
 20
13.77550978468553
 30
0.0
 11
16.36103656029292
 21
13.45923681880627
 31
0.0
  0
LINE
  5
36DA
330
1E
100
AcDbEntity
  8
7
100
AcDbLine
 10
16.36103656029292
 20
13.45923681880627
 30
0.0
 11
16.38597094349501
 21
13.142963852927
 31
0.0
  0
LINE
  5
36DB
330
1E
100
AcDbEntity
  8
7
100
AcDbLine
 10
16.38597094349501
 20
13.142963852927
 30
0.0
 11
16.42009167840315
 21
12.82931555896375
 31
0.0
  0
LINE
  5
36DC
330
1E
100
AcDbEntity
  8
7
100
AcDbLine
 10
16.42009167840315
 20
12.82931555896375
 30
0.0
 11
16.46602343693333
 21
12.51566726500049
 31
0.0
  0
LINE
  5
36DD
330
1E
100
AcDbEntity
  8
7
100
AcDbLine
 10
16.46602343693333
 20
12.51566726500049
 30
0.0
 11
16.52114154716955
 21
12.20333130699525
 31
0.0
  0
LINE
  5
36DE
330
1E
100
AcDbEntity
  8
7
100
AcDbLine
 10
16.52114154716955
 20
12.20333130699525
 30
0.0
 11
16.58544600911181
 21
11.89362002090601
 31
0.0
  0
LINE
  5
36DF
330
1E
100
AcDbEntity
  8
7
100
AcDbLine
 10
16.58544600911181
 20
11.89362002090601
 30
0.0
 11
16.89253262328504
 21
11.87262264557792
 31
0.0
  0
LINE
  5
36E0
330
1E
100
AcDbEntity
  8
7
100
AcDbLine
 10
16.89253262328504
 20
16.31225519150968
 30
0.0
 11
16.58544600911181
 21
16.29125781618159
 31
0.0
  0
LINE
  5
36E1
330
1E
100
AcDbEntity
  8
7
100
AcDbLine
 10
16.58544600911181
 20
16.29125781618159
 30
0.0
 11
16.52114154716955
 21
15.98154653009236
 31
0.0
  0
LINE
  5
36E2
330
1E
100
AcDbEntity
  8
7
100
AcDbLine
 10
16.52114154716955
 20
15.98154653009236
 30
0.0
 11
16.46602343693333
 21
15.66921057208711
 31
0.0
  0
LINE
  5
36E3
330
1E
100
AcDbEntity
  8
7
100
AcDbLine
 10
16.46602343693333
 20
15.66921057208711
 30
0.0
 11
16.42009167840315
 21
15.35556227812385
 31
0.0
  0
LINE
  5
36E4
330
1E
100
AcDbEntity
  8
7
100
AcDbLine
 10
16.42009167840315
 20
15.35556227812385
 30
0.0
 11
16.38597094349501
 21
15.04060164820259
 31
0.0
  0
LINE
  5
36E5
330
1E
100
AcDbEntity
  8
7
100
AcDbLine
 10
16.3321651692168
 20
14.72695335423934
 30
0.0
 11
16.3570995524189
 21
15.0432263201186
 31
0.0
  0
LINE
  5
36E6
330
1E
100
AcDbEntity
  8
7
100
AcDbLine
 10
16.3570995524189
 20
15.0432263201186
 30
0.0
 11
16.39253262328504
 21
15.35949928599787
 31
0.0
  0
LINE
  5
36E7
330
1E
100
AcDbEntity
  8
7
100
AcDbLine
 10
16.39253262328504
 20
15.35949928599787
 30
0.0
 11
16.43846438181522
 21
15.67314757996112
 31
0.0
  0
LINE
  5
36E8
330
1E
100
AcDbEntity
  8
7
100
AcDbLine
 10
16.43846438181522
 20
15.67314757996112
 30
0.0
 11
16.49358249205144
 21
15.98679587392437
 31
0.0
  0
LINE
  5
36E9
330
1E
100
AcDbEntity
  8
7
100
AcDbLine
 10
16.49358249205144
 20
15.98679587392437
 30
0.0
 11
16.55919928995171
 21
16.29781949597162
 31
0.0
  0
LINE
  5
36EA
330
1E
100
AcDbEntity
  8
7
100
AcDbLine
 10
16.55919928995171
 20
11.88705834111598
 30
0.0
 11
16.49358249205144
 21
12.19808196316322
 31
0.0
  0
LINE
  5
36EB
330
1E
100
AcDbEntity
  8
7
100
AcDbLine
 10
16.49358249205144
 20
12.19808196316322
 30
0.0
 11
16.43846438181522
 21
12.51041792116847
 31
0.0
  0
LINE
  5
36EC
330
1E
100
AcDbEntity
  8
7
100
AcDbLine
 10
16.43846438181522
 20
12.51041792116847
 30
0.0
 11
16.39253262328504
 21
12.82537855108973
 31
0.0
  0
LINE
  5
36ED
330
1E
100
AcDbEntity
  8
7
100
AcDbLine
 10
16.39253262328504
 20
12.82537855108973
 30
0.0
 11
16.3570995524189
 21
13.14033918101099
 31
0.0
  0
LINE
  5
36EE
330
1E
100
AcDbEntity
  8
7
100
AcDbLine
 10
16.3570995524189
 20
13.14033918101099
 30
0.0
 11
16.3321651692168
 21
13.45792448284826
 31
0.0
  0
LINE
  5
36EF
330
1E
100
AcDbEntity
  8
7
100
AcDbLine
 10
16.3321651692168
 20
13.45792448284826
 30
0.0
 11
16.31772947367874
 21
13.77419744872753
 31
0.0
  0
LINE
  5
36F0
330
1E
100
AcDbEntity
  8
7
100
AcDbLine
 10
16.31772947367874
 20
13.77419744872753
 30
0.0
 11
16.31248012984672
 21
14.0917827505648
 31
0.0
  0
LINE
  5
36F1
330
1E
100
AcDbEntity
  8
7
100
AcDbLine
 10
16.31248012984672
 20
14.0917827505648
 30
0.0
 11
16.31772947367874
 21
14.40936805240207
 31
0.0
  0
LINE
  5
36F2
330
1E
100
AcDbEntity
  8
7
100
AcDbLine
 10
16.31772947367874
 20
14.40936805240207
 30
0.0
 11
16.3321651692168
 21
14.72695335423934
 31
0.0
  0
LINE
  5
36F3
330
1E
100
AcDbEntity
  8
7
100
AcDbLine
 10
16.89253262328504
 20
16.3424389185438
 30
0.0
 11
16.89253262328504
 21
16.33850191066978
 31
0.0
  0
LINE
  5
36F4
330
1E
100
AcDbEntity
  8
7
100
AcDbLine
 10
16.89253262328504
 20
16.33850191066978
 30
0.0
 11
16.89253262328504
 21
16.32669088704774
 31
0.0
  0
LINE
  5
36F5
330
1E
100
AcDbEntity
  8
7
100
AcDbLine
 10
16.89253262328504
 20
16.32669088704774
 30
0.0
 11
16.89253262328504
 21
16.31225519150968
 31
0.0
  0
LINE
  5
36F6
330
1E
100
AcDbEntity
  8
7
100
AcDbLine
 10
16.89253262328504
 20
11.87262264557792
 30
0.0
 11
16.89253262328504
 21
11.85687461408186
 31
0.0
  0
LINE
  5
36F7
330
1E
100
AcDbEntity
  8
7
100
AcDbLine
 10
16.89253262328504
 20
11.85687461408186
 30
0.0
 11
16.89253262328504
 21
11.84637592641782
 31
0.0
  0
LINE
  5
36F8
330
1E
100
AcDbEntity
  8
7
100
AcDbLine
 10
16.89253262328504
 20
11.84637592641782
 30
0.0
 11
16.89253262328504
 21
11.8424389185438
 31
0.0
  0
LINE
  5
36F9
330
1E
100
AcDbEntity
  8
7
100
AcDbLine
 10
13.31248012984672
 20
12.37655965345194
 30
0.0
 11
13.30854312197271
 21
12.38705834111598
 31
0.0
  0
LINE
  5
36FA
330
1E
100
AcDbEntity
  8
7
100
AcDbLine
 10
13.30854312197271
 20
12.38705834111598
 30
0.0
 11
13.29804443430866
 21
12.39099534899
 31
0.0
  0
LINE
  5
36FB
330
1E
100
AcDbEntity
  8
7
100
AcDbLine
 10
13.29804443430866
 20
12.30700584767766
 30
0.0
 11
13.30854312197271
 21
12.31094285555168
 31
0.0
  0
LINE
  5
36FC
330
1E
100
AcDbEntity
  8
7
100
AcDbLine
 10
13.30854312197271
 20
12.31094285555168
 30
0.0
 11
13.31248012984672
 21
12.32144154321572
 31
0.0
  0
LINE
  5
36FD
330
1E
100
AcDbEntity
  8
7
100
AcDbLine
 10
13.24948800386247
 20
12.392307684948
 30
0.0
 11
13.24948800386247
 21
12.30569351171965
 31
0.0
  0
LINE
  5
36FE
330
1E
100
AcDbEntity
  8
7
100
AcDbLine
 10
13.24948800386247
 20
12.30569351171965
 30
0.0
 11
13.29804443430866
 21
12.30569351171965
 31
0.0
  0
LINE
  5
36FF
330
1E
100
AcDbEntity
  8
7
100
AcDbLine
 10
13.28492107472861
 20
12.32537855108973
 30
0.0
 11
13.28754574664462
 21
12.32669088704774
 31
0.0
  0
LINE
  5
3700
330
1E
100
AcDbEntity
  8
7
100
AcDbLine
 10
13.28754574664462
 20
12.32669088704774
 30
0.0
 11
13.28885808260263
 21
12.32931555896375
 31
0.0
  0
LINE
  5
3701
330
1E
100
AcDbEntity
  8
7
100
AcDbLine
 10
13.28885808260263
 20
12.36999797366191
 30
0.0
 11
13.28754574664462
 21
12.37262264557792
 31
0.0
  0
LINE
  5
3702
330
1E
100
AcDbEntity
  8
7
100
AcDbLine
 10
13.28754574664462
 20
12.37262264557792
 30
0.0
 11
13.28492107472861
 21
12.37393498153593
 31
0.0
  0
LINE
  5
3703
330
1E
100
AcDbEntity
  8
7
100
AcDbLine
 10
13.40303131094908
 20
12.392307684948
 30
0.0
 11
13.40303131094908
 21
12.30569351171965
 31
0.0
  0
LINE
  5
3704
330
1E
100
AcDbEntity
  8
7
100
AcDbLine
 10
13.40303131094908
 20
12.30569351171965
 30
0.0
 11
13.42665335819318
 21
12.30569351171965
 31
0.0
  0
LINE
  5
3705
330
1E
100
AcDbEntity
  8
7
100
AcDbLine
 10
13.48570847630341
 20
12.37524731749393
 30
0.0
 11
13.50539351567349
 21
12.37524731749393
 31
0.0
  0
LINE
  5
3706
330
1E
100
AcDbEntity
  8
7
100
AcDbLine
 10
13.50539351567349
 20
12.37524731749393
 30
0.0
 11
13.50539351567349
 21
12.392307684948
 31
0.0
  0
LINE
  5
3707
330
1E
100
AcDbEntity
  8
7
100
AcDbLine
 10
13.50539351567349
 20
12.392307684948
 30
0.0
 11
13.44108905373124
 21
12.392307684948
 31
0.0
  0
LINE
  5
3708
330
1E
100
AcDbEntity
  8
7
100
AcDbLine
 10
13.45946175714331
 20
12.37524731749393
 30
0.0
 11
13.45946175714331
 21
12.30569351171965
 31
0.0
  0
LINE
  5
3709
330
1E
100
AcDbEntity
  8
7
100
AcDbLine
 10
13.45946175714331
 20
12.30569351171965
 30
0.0
 11
13.48570847630341
 21
12.30569351171965
 31
0.0
  0
LINE
  5
370A
330
1E
100
AcDbEntity
  8
7
100
AcDbLine
 10
13.35578721646089
 20
12.32931555896375
 30
0.0
 11
13.35578721646089
 21
12.392307684948
 31
0.0
  0
LINE
  5
370B
330
1E
100
AcDbEntity
  8
7
100
AcDbLine
 10
13.35578721646089
 20
12.392307684948
 30
0.0
 11
13.32691582538478
 21
12.392307684948
 31
0.0
  0
LINE
  5
370C
330
1E
100
AcDbEntity
  8
7
100
AcDbLine
 10
13.3570995524189
 20
12.32931555896375
 30
0.0
 11
13.35841188837691
 21
12.32669088704774
 31
0.0
  0
LINE
  5
370D
330
1E
100
AcDbEntity
  8
7
100
AcDbLine
 10
13.35841188837691
 20
12.32669088704774
 30
0.0
 11
13.36103656029292
 21
12.32537855108973
 31
0.0
  0
LINE
  5
370E
330
1E
100
AcDbEntity
  8
7
100
AcDbLine
 10
13.36628590412494
 20
12.32537855108973
 30
0.0
 11
13.36891057604095
 21
12.32669088704774
 31
0.0
  0
LINE
  5
370F
330
1E
100
AcDbEntity
  8
7
100
AcDbLine
 10
13.36891057604095
 20
12.32669088704774
 30
0.0
 11
13.37022291199895
 21
12.32931555896375
 31
0.0
  0
LINE
  5
3710
330
1E
100
AcDbEntity
  8
7
100
AcDbLine
 10
13.38990795136903
 20
12.32144154321572
 30
0.0
 11
13.38990795136903
 21
12.392307684948
 31
0.0
  0
LINE
  5
3711
330
1E
100
AcDbEntity
  8
7
100
AcDbLine
 10
13.38990795136903
 20
12.392307684948
 30
0.0
 11
13.37153524795696
 21
12.392307684948
 31
0.0
  0
LINE
  5
3712
330
1E
100
AcDbEntity
  8
7
100
AcDbLine
 10
13.37153524795696
 20
12.392307684948
 30
0.0
 11
13.37153524795696
 21
12.32931555896375
 31
0.0
  0
LINE
  5
3713
330
1E
100
AcDbEntity
  8
7
100
AcDbLine
 10
13.37415991987297
 20
12.30700584767766
 30
0.0
 11
13.38465860753701
 21
12.31094285555168
 31
0.0
  0
LINE
  5
3714
330
1E
100
AcDbEntity
  8
7
100
AcDbLine
 10
13.38465860753701
 20
12.31094285555168
 30
0.0
 11
13.38859561541102
 21
12.32144154321572
 31
0.0
  0
LINE
  5
3715
330
1E
100
AcDbEntity
  8
7
100
AcDbLine
 10
13.32822816134278
 20
12.32144154321572
 30
0.0
 11
13.3321651692168
 21
12.31094285555168
 31
0.0
  0
LINE
  5
3716
330
1E
100
AcDbEntity
  8
7
100
AcDbLine
 10
13.3321651692168
 20
12.31094285555168
 30
0.0
 11
13.34266385688084
 21
12.30700584767766
 31
0.0
  0
LINE
  5
3717
330
1E
100
AcDbEntity
  8
7
100
AcDbLine
 10
13.08413367315381
 20
12.3424389185438
 30
0.0
 11
13.09332002485984
 21
12.34375125450181
 31
0.0
  0
LINE
  5
3718
330
1E
100
AcDbEntity
  8
7
100
AcDbLine
 10
13.09332002485984
 20
12.34375125450181
 30
0.0
 11
13.10119404060787
 21
12.34637592641782
 31
0.0
  0
LINE
  5
3719
330
1E
100
AcDbEntity
  8
7
100
AcDbLine
 10
13.11956674401995
 20
12.392307684948
 30
0.0
 11
13.1064433844399
 21
12.41199272431808
 31
0.0
  0
LINE
  5
371A
330
1E
100
AcDbEntity
  8
7
100
AcDbLine
 10
13.1064433844399
 20
12.41199272431808
 30
0.0
 11
13.08413367315381
 21
12.41855440410811
 31
0.0
  0
LINE
  5
371B
330
1E
100
AcDbEntity
  8
7
100
AcDbLine
 10
13.21011792512231
 20
12.30569351171965
 30
0.0
 11
13.23636464428242
 21
12.30569351171965
 31
0.0
  0
LINE
  5
371C
330
1E
100
AcDbEntity
  8
7
100
AcDbLine
 10
13.23636464428242
 20
12.30569351171965
 30
0.0
 11
13.23636464428242
 21
12.392307684948
 31
0.0
  0
LINE
  5
371D
330
1E
100
AcDbEntity
  8
7
100
AcDbLine
 10
13.23636464428242
 20
12.392307684948
 30
0.0
 11
13.21405493299633
 21
12.392307684948
 31
0.0
  0
LINE
  5
371E
330
1E
100
AcDbEntity
  8
7
100
AcDbLine
 10
13.21405493299633
 20
12.392307684948
 30
0.0
 11
13.21405493299633
 21
12.35949928599787
 31
0.0
  0
LINE
  5
371F
330
1E
100
AcDbEntity
  8
7
100
AcDbLine
 10
13.21405493299633
 20
12.35949928599787
 30
0.0
 11
13.19830690150026
 21
12.392307684948
 31
0.0
  0
LINE
  5
3720
330
1E
100
AcDbEntity
  8
7
100
AcDbLine
 10
13.19830690150026
 20
12.392307684948
 30
0.0
 11
13.16943551042415
 21
12.392307684948
 31
0.0
  0
LINE
  5
3721
330
1E
100
AcDbEntity
  8
7
100
AcDbLine
 10
13.16943551042415
 20
12.392307684948
 30
0.0
 11
13.16943551042415
 21
12.33587723875377
 31
0.0
  0
LINE
  5
3722
330
1E
100
AcDbEntity
  8
7
100
AcDbLine
 10
13.06838564165774
 20
12.35949928599787
 30
0.0
 11
13.07232264953176
 21
12.36081162195587
 31
0.0
  0
LINE
  5
3723
330
1E
100
AcDbEntity
  8
7
100
AcDbLine
 10
13.07232264953176
 20
12.36081162195587
 30
0.0
 11
13.07363498548976
 21
12.36474862982989
 31
0.0
  0
LINE
  5
3724
330
1E
100
AcDbEntity
  8
7
100
AcDbLine
 10
13.07363498548976
 20
12.39362002090601
 30
0.0
 11
13.07232264953176
 21
12.39755702878002
 31
0.0
  0
LINE
  5
3725
330
1E
100
AcDbEntity
  8
7
100
AcDbLine
 10
13.07232264953176
 20
12.39755702878002
 30
0.0
 11
13.06838564165774
 21
12.39886936473802
 31
0.0
  0
LINE
  5
3726
330
1E
100
AcDbEntity
  8
7
100
AcDbLine
 10
11.24161398811444
 20
11.88705834111598
 30
0.0
 11
11.24161398811444
 21
11.87131030961992
 31
0.0
  0
LINE
  5
3727
330
1E
100
AcDbEntity
  8
7
100
AcDbLine
 10
11.24161398811444
 20
11.87131030961992
 30
0.0
 11
11.24161398811444
 21
11.86343629387188
 31
0.0
  0
LINE
  5
3728
330
1E
100
AcDbEntity
  8
7
100
AcDbLine
 10
13.88859561541102
 20
11.86343629387188
 30
0.0
 11
13.88859561541102
 21
11.87131030961992
 31
0.0
  0
LINE
  5
3729
330
1E
100
AcDbEntity
  8
7
100
AcDbLine
 10
13.88859561541102
 20
11.87131030961992
 30
0.0
 11
13.88859561541102
 21
11.88705834111598
 31
0.0
  0
LINE
  5
372A
330
1E
100
AcDbEntity
  8
7
100
AcDbLine
 10
11.24161398811444
 20
11.88705834111598
 30
0.0
 11
11.22192894874436
 21
11.88968301303199
 31
0.0
  0
LINE
  5
372B
330
1E
100
AcDbEntity
  8
7
100
AcDbLine
 10
11.22192894874436
 20
11.88968301303199
 30
0.0
 11
11.21143026108031
 21
11.89362002090601
 31
0.0
  0
LINE
  5
372C
330
1E
100
AcDbEntity
  8
7
100
AcDbLine
 10
13.91877934244514
 20
11.89362002090601
 30
0.0
 11
13.90959299073911
 21
11.88968301303199
 31
0.0
  0
LINE
  5
372D
330
1E
100
AcDbEntity
  8
7
100
AcDbLine
 10
13.90959299073911
 20
11.88968301303199
 30
0.0
 11
13.88859561541102
 21
11.88705834111598
 31
0.0
  0
LINE
  5
372E
330
1E
100
AcDbEntity
  8
7
100
AcDbLine
 10
11.24161398811444
 20
16.29781949597162
 30
0.0
 11
11.22192894874436
 21
16.29519482405561
 31
0.0
  0
LINE
  5
372F
330
1E
100
AcDbEntity
  8
7
100
AcDbLine
 10
11.22192894874436
 20
16.29519482405561
 30
0.0
 11
11.21143026108031
 21
16.29125781618159
 31
0.0
  0
LINE
  5
3730
330
1E
100
AcDbEntity
  8
7
100
AcDbLine
 10
13.91877934244514
 20
16.29125781618159
 30
0.0
 11
13.90959299073911
 21
16.29519482405561
 31
0.0
  0
LINE
  5
3731
330
1E
100
AcDbEntity
  8
7
100
AcDbLine
 10
13.90959299073911
 20
16.29519482405561
 30
0.0
 11
13.88859561541102
 21
16.29781949597162
 31
0.0
  0
LINE
  5
3732
330
1E
100
AcDbEntity
  8
7
100
AcDbLine
 10
11.24161398811444
 20
16.29781949597162
 30
0.0
 11
11.24161398811444
 21
16.31356752746769
 31
0.0
  0
LINE
  5
3733
330
1E
100
AcDbEntity
  8
7
100
AcDbLine
 10
11.24161398811444
 20
16.31356752746769
 30
0.0
 11
11.24161398811444
 21
16.32144154321571
 31
0.0
  0
LINE
  5
3734
330
1E
100
AcDbEntity
  8
7
100
AcDbLine
 10
13.88859561541102
 20
16.32144154321571
 30
0.0
 11
13.88859561541102
 21
16.31356752746769
 31
0.0
  0
LINE
  5
3735
330
1E
100
AcDbEntity
  8
7
100
AcDbLine
 10
13.88859561541102
 20
16.31356752746769
 30
0.0
 11
13.88859561541102
 21
16.29781949597162
 31
0.0
  0
LINE
  5
3736
330
1E
100
AcDbEntity
  8
7
100
AcDbLine
 10
11.24161398811444
 20
11.86343629387188
 30
0.0
 11
11.22061661278635
 21
11.87262264557792
 31
0.0
  0
LINE
  5
3737
330
1E
100
AcDbEntity
  8
7
100
AcDbLine
 10
11.22061661278635
 20
11.87262264557792
 30
0.0
 11
11.21143026108031
 21
11.89362002090601
 31
0.0
  0
LINE
  5
3738
330
1E
100
AcDbEntity
  8
7
100
AcDbLine
 10
13.88859561541102
 20
16.32144154321571
 30
0.0
 11
13.91090532669711
 21
16.31225519150968
 31
0.0
  0
LINE
  5
3739
330
1E
100
AcDbEntity
  8
7
100
AcDbLine
 10
13.91090532669711
 20
16.31225519150968
 30
0.0
 11
13.91877934244514
 21
16.29125781618159
 31
0.0
  0
LINE
  5
373A
330
1E
100
AcDbEntity
  8
7
100
AcDbLine
 10
11.21143026108031
 20
16.29125781618159
 30
0.0
 11
11.22061661278635
 21
16.31225519150968
 31
0.0
  0
LINE
  5
373B
330
1E
100
AcDbEntity
  8
7
100
AcDbLine
 10
11.22061661278635
 20
16.31225519150968
 30
0.0
 11
11.24161398811444
 21
16.32144154321571
 31
0.0
  0
LINE
  5
373C
330
1E
100
AcDbEntity
  8
7
100
AcDbLine
 10
13.91877934244514
 20
11.89362002090601
 30
0.0
 11
13.91090532669711
 21
11.87262264557792
 31
0.0
  0
LINE
  5
373D
330
1E
100
AcDbEntity
  8
7
100
AcDbLine
 10
13.91090532669711
 20
11.87262264557792
 30
0.0
 11
13.88859561541102
 21
11.86343629387188
 31
0.0
  0
LINE
  5
373E
330
1E
100
AcDbEntity
  8
7
100
AcDbLine
 10
11.46864810884934
 20
14.93561477156217
 30
0.0
 11
11.47652212459738
 21
14.95529981093225
 31
0.0
  0
LINE
  5
373F
330
1E
100
AcDbEntity
  8
7
100
AcDbLine
 10
11.47652212459738
 20
14.95529981093225
 30
0.0
 11
11.49620716396746
 21
14.97104784242831
 31
0.0
  0
LINE
  5
3740
330
1E
100
AcDbEntity
  8
7
100
AcDbLine
 10
11.49620716396746
 20
14.97104784242831
 30
0.0
 11
11.52507855504357
 21
14.98285886605036
 31
0.0
  0
LINE
  5
3741
330
1E
100
AcDbEntity
  8
7
100
AcDbLine
 10
11.52507855504357
 20
14.98285886605036
 30
0.0
 11
11.55919928995171
 21
14.98679587392437
 31
0.0
  0
LINE
  5
3742
330
1E
100
AcDbEntity
  8
7
100
AcDbLine
 10
11.46864810884934
 20
14.93561477156217
 30
0.0
 11
11.47652212459738
 21
14.9185544041081
 31
0.0
  0
LINE
  5
3743
330
1E
100
AcDbEntity
  8
7
100
AcDbLine
 10
11.47652212459738
 20
14.9185544041081
 30
0.0
 11
11.49620716396746
 21
14.90411870857005
 31
0.0
  0
LINE
  5
3744
330
1E
100
AcDbEntity
  8
7
100
AcDbLine
 10
11.49620716396746
 20
14.90411870857005
 30
0.0
 11
11.52507855504357
 21
14.89493235686401
 31
0.0
  0
LINE
  5
3745
330
1E
100
AcDbEntity
  8
7
100
AcDbLine
 10
11.52507855504357
 20
14.89493235686401
 30
0.0
 11
11.55919928995171
 21
14.89099534899
 31
0.0
  0
LINE
  5
3746
330
1E
100
AcDbEntity
  8
7
100
AcDbLine
 10
13.57232264953176
 20
14.98679587392437
 30
0.0
 11
13.60644338443989
 21
14.98285886605036
 31
0.0
  0
LINE
  5
3747
330
1E
100
AcDbEntity
  8
7
100
AcDbLine
 10
13.60644338443989
 20
14.98285886605036
 30
0.0
 11
13.63531477551601
 21
14.97104784242831
 31
0.0
  0
LINE
  5
3748
330
1E
100
AcDbEntity
  8
7
100
AcDbLine
 10
13.63531477551601
 20
14.97104784242831
 30
0.0
 11
13.65499981488609
 21
14.95529981093225
 31
0.0
  0
LINE
  5
3749
330
1E
100
AcDbEntity
  8
7
100
AcDbLine
 10
13.65499981488609
 20
14.95529981093225
 30
0.0
 11
13.66287383063412
 21
14.93561477156217
 31
0.0
  0
LINE
  5
374A
330
1E
100
AcDbEntity
  8
7
100
AcDbLine
 10
13.60644338443989
 20
14.89493235686401
 30
0.0
 11
13.63531477551601
 21
14.90411870857005
 31
0.0
  0
LINE
  5
374B
330
1E
100
AcDbEntity
  8
7
100
AcDbLine
 10
13.63531477551601
 20
14.90411870857005
 30
0.0
 11
13.65499981488609
 21
14.9185544041081
 31
0.0
  0
LINE
  5
374C
330
1E
100
AcDbEntity
  8
7
100
AcDbLine
 10
13.65499981488609
 20
14.9185544041081
 30
0.0
 11
13.66287383063412
 21
14.93561477156217
 31
0.0
  0
LINE
  5
374D
330
1E
100
AcDbEntity
  8
7
100
AcDbLine
 10
11.55919928995171
 20
14.98679587392437
 30
0.0
 11
11.55919928995171
 21
14.95661214689026
 31
0.0
  0
LINE
  5
374E
330
1E
100
AcDbEntity
  8
7
100
AcDbLine
 10
11.55919928995171
 20
14.95661214689026
 30
0.0
 11
11.55919928995171
 21
14.92249141198212
 31
0.0
  0
LINE
  5
374F
330
1E
100
AcDbEntity
  8
7
100
AcDbLine
 10
11.55919928995171
 20
14.92249141198212
 30
0.0
 11
11.55919928995171
 21
14.89099534899
 31
0.0
  0
LINE
  5
3750
330
1E
100
AcDbEntity
  8
7
100
AcDbLine
 10
13.57232264953176
 20
14.89099534899
 30
0.0
 11
13.57232264953176
 21
14.92249141198212
 31
0.0
  0
LINE
  5
3751
330
1E
100
AcDbEntity
  8
7
100
AcDbLine
 10
13.57232264953176
 20
14.92249141198212
 30
0.0
 11
13.57232264953176
 21
14.95661214689026
 31
0.0
  0
LINE
  5
3752
330
1E
100
AcDbEntity
  8
7
100
AcDbLine
 10
13.57232264953176
 20
14.95661214689026
 30
0.0
 11
13.57232264953176
 21
14.98679587392437
 31
0.0
  0
LINE
  5
3753
330
1E
100
AcDbEntity
  8
7
100
AcDbLine
 10
13.22192894874436
 20
15.12984049334695
 30
0.0
 11
13.20093157341627
 21
15.13508983717897
 31
0.0
  0
LINE
  5
3754
330
1E
100
AcDbEntity
  8
7
100
AcDbLine
 10
13.20093157341627
 20
15.13508983717897
 30
0.0
 11
13.17993419808819
 21
15.12984049334695
 31
0.0
  0
LINE
  5
3755
330
1E
100
AcDbEntity
  8
7
100
AcDbLine
 10
13.17993419808819
 20
15.12984049334695
 30
0.0
 11
13.16681083850814
 21
15.11409246185089
 31
0.0
  0
LINE
  5
3756
330
1E
100
AcDbEntity
  8
7
100
AcDbLine
 10
12.59988170464987
 20
15.11409246185089
 30
0.0
 11
12.58675834506982
 21
15.12984049334695
 31
0.0
  0
LINE
  5
3757
330
1E
100
AcDbEntity
  8
7
100
AcDbLine
 10
12.58675834506982
 20
15.12984049334695
 30
0.0
 11
12.56576096974173
 21
15.13508983717897
 31
0.0
  0
LINE
  5
3758
330
1E
100
AcDbEntity
  8
7
100
AcDbLine
 10
12.56576096974173
 20
15.13508983717897
 30
0.0
 11
12.54476359441365
 21
15.12984049334695
 31
0.0
  0
LINE
  5
3759
330
1E
100
AcDbEntity
  8
7
100
AcDbLine
 10
12.54476359441365
 20
15.12984049334695
 30
0.0
 11
12.5316402348336
 21
15.11409246185089
 31
0.0
  0
LINE
  5
375A
330
1E
100
AcDbEntity
  8
7
100
AcDbLine
 10
11.96471110097533
 20
15.11409246185089
 30
0.0
 11
11.95158774139527
 21
15.12984049334695
 31
0.0
  0
LINE
  5
375B
330
1E
100
AcDbEntity
  8
7
100
AcDbLine
 10
11.95158774139527
 20
15.12984049334695
 30
0.0
 11
11.93059036606719
 21
15.13508983717897
 31
0.0
  0
LINE
  5
375C
330
1E
100
AcDbEntity
  8
7
100
AcDbLine
 10
11.93059036606719
 20
15.13508983717897
 30
0.0
 11
11.90959299073911
 21
15.12984049334695
 31
0.0
  0
LINE
  5
375D
330
1E
100
AcDbEntity
  8
7
100
AcDbLine
 10
11.90959299073911
 20
15.12984049334695
 30
0.0
 11
11.89646963115906
 21
15.11409246185089
 31
0.0
  0
LINE
  5
375E
330
1E
100
AcDbEntity
  8
7
100
AcDbLine
 10
13.52114154716955
 20
15.20858065082727
 30
0.0
 11
13.54607593037166
 21
15.20858065082727
 31
0.0
  0
LINE
  5
375F
330
1E
100
AcDbEntity
  8
7
100
AcDbLine
 10
13.54607593037166
 20
15.20858065082727
 30
0.0
 11
13.54607593037166
 21
15.22039167444931
 31
0.0
  0
LINE
  5
3760
330
1E
100
AcDbEntity
  8
7
100
AcDbLine
 10
13.52114154716955
 20
15.25057540148343
 30
0.0
 11
13.52114154716955
 21
15.20858065082727
 31
0.0
  0
LINE
  5
3761
330
1E
100
AcDbEntity
  8
7
100
AcDbLine
 10
13.52114154716955
 20
15.20858065082727
 30
0.0
 11
13.52245388312756
 21
15.22039167444931
 31
0.0
  0
LINE
  5
3762
330
1E
100
AcDbEntity
  8
7
100
AcDbLine
 10
13.51982921121155
 20
15.22432868232333
 30
0.0
 11
13.52114154716955
 21
15.25057540148343
 31
0.0
  0
LINE
  5
3763
330
1E
100
AcDbEntity
  8
7
100
AcDbLine
 10
13.52114154716955
 20
15.25057540148343
 30
0.0
 11
13.52245388312756
 21
15.26238642510548
 31
0.0
  0
LINE
  5
3764
330
1E
100
AcDbEntity
  8
7
100
AcDbLine
 10
11.58544600911181
 20
15.18102159570915
 30
0.0
 11
11.58544600911181
 21
15.20858065082727
 31
0.0
  0
LINE
  5
3765
330
1E
100
AcDbEntity
  8
7
100
AcDbLine
 10
11.58544600911181
 20
15.20858065082727
 30
0.0
 11
11.58413367315381
 21
15.22039167444931
 31
0.0
  0
LINE
  5
3766
330
1E
100
AcDbEntity
  8
7
100
AcDbLine
 10
13.09463236081785
 20
14.48417120200836
 30
0.0
 11
13.09463236081785
 21
14.4933575537144
 31
0.0
  0
LINE
  5
3767
330
1E
100
AcDbEntity
  8
7
100
AcDbLine
 10
13.09463236081785
 20
14.4933575537144
 30
0.0
 11
13.09463236081785
 21
14.50385624137845
 31
0.0
  0
LINE
  5
3768
330
1E
100
AcDbEntity
  8
7
100
AcDbLine
 10
13.3072307860147
 20
14.50385624137845
 30
0.0
 11
13.3072307860147
 21
14.4933575537144
 31
0.0
  0
LINE
  5
3769
330
1E
100
AcDbEntity
  8
7
100
AcDbLine
 10
13.3072307860147
 20
14.4933575537144
 30
0.0
 11
13.3072307860147
 21
14.48417120200836
 31
0.0
  0
LINE
  5
376A
330
1E
100
AcDbEntity
  8
7
100
AcDbLine
 10
13.09463236081785
 20
14.51960427287451
 30
0.0
 11
13.09332002485984
 21
14.53272763245456
 31
0.0
  0
LINE
  5
376B
330
1E
100
AcDbEntity
  8
7
100
AcDbLine
 10
13.09332002485984
 20
14.53272763245456
 30
0.0
 11
13.09332002485984
 21
14.54060164820259
 31
0.0
  0
LINE
  5
376C
330
1E
100
AcDbEntity
  8
7
100
AcDbLine
 10
13.3072307860147
 20
14.51960427287451
 30
0.0
 11
13.3072307860147
 21
14.53272763245456
 31
0.0
  0
LINE
  5
376D
330
1E
100
AcDbEntity
  8
7
100
AcDbLine
 10
13.3072307860147
 20
14.53272763245456
 30
0.0
 11
13.30854312197271
 21
14.54060164820259
 31
0.0
  0
LINE
  5
376E
330
1E
100
AcDbEntity
  8
7
100
AcDbLine
 10
13.30854312197271
 20
14.54060164820259
 30
0.0
 11
13.09332002485984
 21
14.54060164820259
 31
0.0
  0
LINE
  5
376F
330
1E
100
AcDbEntity
  8
7
100
AcDbLine
 10
13.30854312197271
 20
14.54585099203461
 30
0.0
 11
13.09200768890184
 21
14.54585099203461
 31
0.0
  0
LINE
  5
3770
330
1E
100
AcDbEntity
  8
7
100
AcDbLine
 10
13.09200768890184
 20
14.54585099203461
 30
0.0
 11
13.09200768890184
 21
14.5432263201186
 31
0.0
  0
LINE
  5
3771
330
1E
100
AcDbEntity
  8
7
100
AcDbLine
 10
13.09200768890184
 20
14.5432263201186
 30
0.0
 11
13.30854312197271
 21
14.5432263201186
 31
0.0
  0
LINE
  5
3772
330
1E
100
AcDbEntity
  8
7
100
AcDbLine
 10
13.3072307860147
 20
14.56947303927871
 30
0.0
 11
13.09463236081785
 21
14.56947303927871
 31
0.0
  0
LINE
  5
3773
330
1E
100
AcDbEntity
  8
7
100
AcDbLine
 10
13.09463236081785
 20
14.56947303927871
 30
0.0
 11
13.09200768890184
 21
14.55241267182464
 31
0.0
  0
LINE
  5
3774
330
1E
100
AcDbEntity
  8
7
100
AcDbLine
 10
13.09200768890184
 20
14.55241267182464
 30
0.0
 11
13.30854312197271
 21
14.55241267182464
 31
0.0
  0
LINE
  5
3775
330
1E
100
AcDbEntity
  8
7
100
AcDbLine
 10
13.09463236081785
 20
14.51960427287451
 30
0.0
 11
13.09463236081785
 21
14.50385624137845
 31
0.0
  0
LINE
  5
3776
330
1E
100
AcDbEntity
  8
7
100
AcDbLine
 10
13.09463236081785
 20
14.50385624137845
 30
0.0
 11
13.3072307860147
 21
14.50385624137845
 31
0.0
  0
LINE
  5
3777
330
1E
100
AcDbEntity
  8
7
100
AcDbLine
 10
12.45946175714331
 20
14.48417120200836
 30
0.0
 11
12.45946175714331
 21
14.4933575537144
 31
0.0
  0
LINE
  5
3778
330
1E
100
AcDbEntity
  8
7
100
AcDbLine
 10
12.45946175714331
 20
14.4933575537144
 30
0.0
 11
12.45946175714331
 21
14.50385624137845
 31
0.0
  0
LINE
  5
3779
330
1E
100
AcDbEntity
  8
7
100
AcDbLine
 10
12.67206018234016
 20
14.50385624137845
 30
0.0
 11
12.67206018234016
 21
14.4933575537144
 31
0.0
  0
LINE
  5
377A
330
1E
100
AcDbEntity
  8
7
100
AcDbLine
 10
12.67206018234016
 20
14.4933575537144
 30
0.0
 11
12.67206018234016
 21
14.48417120200836
 31
0.0
  0
LINE
  5
377B
330
1E
100
AcDbEntity
  8
7
100
AcDbLine
 10
12.45946175714331
 20
14.51960427287451
 30
0.0
 11
12.4581494211853
 21
14.53272763245456
 31
0.0
  0
LINE
  5
377C
330
1E
100
AcDbEntity
  8
7
100
AcDbLine
 10
12.4581494211853
 20
14.53272763245456
 30
0.0
 11
12.4581494211853
 21
14.54060164820259
 31
0.0
  0
LINE
  5
377D
330
1E
100
AcDbEntity
  8
7
100
AcDbLine
 10
12.67206018234016
 20
14.51960427287451
 30
0.0
 11
12.67337251829816
 21
14.53272763245456
 31
0.0
  0
LINE
  5
377E
330
1E
100
AcDbEntity
  8
7
100
AcDbLine
 10
12.67337251829816
 20
14.53272763245456
 30
0.0
 11
12.67337251829816
 21
14.54060164820259
 31
0.0
  0
LINE
  5
377F
330
1E
100
AcDbEntity
  8
7
100
AcDbLine
 10
12.67337251829816
 20
14.54060164820259
 30
0.0
 11
12.4581494211853
 21
14.54060164820259
 31
0.0
  0
LINE
  5
3780
330
1E
100
AcDbEntity
  8
7
100
AcDbLine
 10
12.67337251829816
 20
14.54585099203461
 30
0.0
 11
12.4568370852273
 21
14.54585099203461
 31
0.0
  0
LINE
  5
3781
330
1E
100
AcDbEntity
  8
7
100
AcDbLine
 10
12.4568370852273
 20
14.54585099203461
 30
0.0
 11
12.4581494211853
 21
14.5432263201186
 31
0.0
  0
LINE
  5
3782
330
1E
100
AcDbEntity
  8
7
100
AcDbLine
 10
12.4581494211853
 20
14.5432263201186
 30
0.0
 11
12.67337251829816
 21
14.5432263201186
 31
0.0
  0
LINE
  5
3783
330
1E
100
AcDbEntity
  8
7
100
AcDbLine
 10
12.67206018234016
 20
14.56947303927871
 30
0.0
 11
12.45946175714331
 21
14.56947303927871
 31
0.0
  0
LINE
  5
3784
330
1E
100
AcDbEntity
  8
7
100
AcDbLine
 10
12.45946175714331
 20
14.56947303927871
 30
0.0
 11
12.4581494211853
 21
14.55241267182464
 31
0.0
  0
LINE
  5
3785
330
1E
100
AcDbEntity
  8
7
100
AcDbLine
 10
12.4581494211853
 20
14.55241267182464
 30
0.0
 11
12.67337251829816
 21
14.55241267182464
 31
0.0
  0
LINE
  5
3786
330
1E
100
AcDbEntity
  8
7
100
AcDbLine
 10
12.45946175714331
 20
14.51960427287451
 30
0.0
 11
12.45946175714331
 21
14.50385624137845
 31
0.0
  0
LINE
  5
3787
330
1E
100
AcDbEntity
  8
7
100
AcDbLine
 10
12.45946175714331
 20
14.50385624137845
 30
0.0
 11
12.67206018234016
 21
14.50385624137845
 31
0.0
  0
LINE
  5
3788
330
1E
100
AcDbEntity
  8
7
100
AcDbLine
 10
11.82429115346877
 20
14.48417120200836
 30
0.0
 11
11.82429115346877
 21
14.4933575537144
 31
0.0
  0
LINE
  5
3789
330
1E
100
AcDbEntity
  8
7
100
AcDbLine
 10
11.82429115346877
 20
14.4933575537144
 30
0.0
 11
11.82429115346877
 21
14.50385624137845
 31
0.0
  0
LINE
  5
378A
330
1E
100
AcDbEntity
  8
7
100
AcDbLine
 10
12.03688957866562
 20
14.50385624137845
 30
0.0
 11
12.03688957866562
 21
14.4933575537144
 31
0.0
  0
LINE
  5
378B
330
1E
100
AcDbEntity
  8
7
100
AcDbLine
 10
12.03688957866562
 20
14.4933575537144
 30
0.0
 11
12.03688957866562
 21
14.48417120200836
 31
0.0
  0
LINE
  5
378C
330
1E
100
AcDbEntity
  8
7
100
AcDbLine
 10
11.82429115346877
 20
14.51960427287451
 30
0.0
 11
11.82297881751076
 21
14.53272763245456
 31
0.0
  0
LINE
  5
378D
330
1E
100
AcDbEntity
  8
7
100
AcDbLine
 10
11.82297881751076
 20
14.53272763245456
 30
0.0
 11
11.82297881751076
 21
14.54060164820259
 31
0.0
  0
LINE
  5
378E
330
1E
100
AcDbEntity
  8
7
100
AcDbLine
 10
12.03688957866562
 20
14.51960427287451
 30
0.0
 11
12.03820191462362
 21
14.53272763245456
 31
0.0
  0
LINE
  5
378F
330
1E
100
AcDbEntity
  8
7
100
AcDbLine
 10
12.03820191462362
 20
14.53272763245456
 30
0.0
 11
12.03820191462362
 21
14.54060164820259
 31
0.0
  0
LINE
  5
3790
330
1E
100
AcDbEntity
  8
7
100
AcDbLine
 10
12.03820191462362
 20
14.54060164820259
 30
0.0
 11
11.82297881751076
 21
14.54060164820259
 31
0.0
  0
LINE
  5
3791
330
1E
100
AcDbEntity
  8
7
100
AcDbLine
 10
12.03820191462362
 20
14.54585099203461
 30
0.0
 11
11.82297881751076
 21
14.54585099203461
 31
0.0
  0
LINE
  5
3792
330
1E
100
AcDbEntity
  8
7
100
AcDbLine
 10
11.82297881751076
 20
14.54585099203461
 30
0.0
 11
11.82297881751076
 21
14.5432263201186
 31
0.0
  0
LINE
  5
3793
330
1E
100
AcDbEntity
  8
7
100
AcDbLine
 10
11.82297881751076
 20
14.5432263201186
 30
0.0
 11
12.03820191462362
 21
14.5432263201186
 31
0.0
  0
LINE
  5
3794
330
1E
100
AcDbEntity
  8
7
100
AcDbLine
 10
12.03688957866562
 20
14.56947303927871
 30
0.0
 11
11.82429115346877
 21
14.56947303927871
 31
0.0
  0
LINE
  5
3795
330
1E
100
AcDbEntity
  8
7
100
AcDbLine
 10
11.82429115346877
 20
14.56947303927871
 30
0.0
 11
11.82297881751076
 21
14.55241267182464
 31
0.0
  0
LINE
  5
3796
330
1E
100
AcDbEntity
  8
7
100
AcDbLine
 10
11.82297881751076
 20
14.55241267182464
 30
0.0
 11
12.03820191462362
 21
14.55241267182464
 31
0.0
  0
LINE
  5
3797
330
1E
100
AcDbEntity
  8
7
100
AcDbLine
 10
11.82429115346877
 20
14.51960427287451
 30
0.0
 11
11.82429115346877
 21
14.50385624137845
 31
0.0
  0
LINE
  5
3798
330
1E
100
AcDbEntity
  8
7
100
AcDbLine
 10
11.82429115346877
 20
14.50385624137845
 30
0.0
 11
12.03688957866562
 21
14.50385624137845
 31
0.0
  0
LINE
  5
3799
330
1E
100
AcDbEntity
  8
7
100
AcDbLine
 10
13.3072307860147
 20
14.48417120200836
 30
0.0
 11
13.09463236081785
 21
14.48417120200836
 31
0.0
  0
LINE
  5
379A
330
1E
100
AcDbEntity
  8
7
100
AcDbLine
 10
13.09463236081785
 20
14.48417120200836
 30
0.0
 11
13.07625965740577
 21
14.2663234329795
 31
0.0
  0
LINE
  5
379B
330
1E
100
AcDbEntity
  8
7
100
AcDbLine
 10
12.67206018234016
 20
14.48417120200836
 30
0.0
 11
12.45946175714331
 21
14.48417120200836
 31
0.0
  0
LINE
  5
379C
330
1E
100
AcDbEntity
  8
7
100
AcDbLine
 10
12.45946175714331
 20
14.48417120200836
 30
0.0
 11
12.44108905373124
 21
14.2663234329795
 31
0.0
  0
LINE
  5
379D
330
1E
100
AcDbEntity
  8
7
100
AcDbLine
 10
12.03688957866562
 20
14.48417120200836
 30
0.0
 11
11.82429115346877
 21
14.48417120200836
 31
0.0
  0
LINE
  5
379E
330
1E
100
AcDbEntity
  8
7
100
AcDbLine
 10
11.82429115346877
 20
14.48417120200836
 30
0.0
 11
11.80591845005669
 21
14.2663234329795
 31
0.0
  0
LINE
  5
379F
330
1E
100
AcDbEntity
  8
7
100
AcDbLine
 10
11.46339876501732
 20
14.66264889229708
 30
0.0
 11
11.46864810884934
 21
14.93561477156217
 31
0.0
  0
LINE
  5
37A0
330
1E
100
AcDbEntity
  8
7
100
AcDbLine
 10
11.46864810884934
 20
14.93561477156217
 30
0.0
 11
11.46208642905932
 21
15.23089036211335
 31
0.0
  0
LINE
  5
37A1
330
1E
100
AcDbEntity
  8
7
100
AcDbLine
 10
13.66943551042415
 20
15.23089036211335
 30
0.0
 11
13.66287383063412
 21
14.93561477156217
 31
0.0
  0
LINE
  5
37A2
330
1E
100
AcDbEntity
  8
7
100
AcDbLine
 10
13.66287383063412
 20
14.93561477156217
 30
0.0
 11
13.66812317446614
 21
14.66264889229708
 31
0.0
  0
LINE
  5
37A3
330
1E
100
AcDbEntity
  8
7
100
AcDbLine
 10
13.57232264953176
 20
13.48548353796637
 30
0.0
 11
13.60644338443989
 21
13.48023419413435
 31
0.0
  0
LINE
  5
37A4
330
1E
100
AcDbEntity
  8
7
100
AcDbLine
 10
13.60644338443989
 20
13.48023419413435
 30
0.0
 11
13.63531477551601
 21
13.46973550647031
 31
0.0
  0
LINE
  5
37A5
330
1E
100
AcDbEntity
  8
7
100
AcDbLine
 10
13.63531477551601
 20
13.46973550647031
 30
0.0
 11
13.65499981488609
 21
13.45267513901624
 31
0.0
  0
LINE
  5
37A6
330
1E
100
AcDbEntity
  8
7
100
AcDbLine
 10
13.65499981488609
 20
13.45267513901624
 30
0.0
 11
13.66287383063412
 21
13.43299009964616
 31
0.0
  0
LINE
  5
37A7
330
1E
100
AcDbEntity
  8
7
100
AcDbLine
 10
13.57232264953176
 20
13.38837067707398
 30
0.0
 11
13.60644338443989
 21
13.392307684948
 31
0.0
  0
LINE
  5
37A8
330
1E
100
AcDbEntity
  8
7
100
AcDbLine
 10
13.60644338443989
 20
13.392307684948
 30
0.0
 11
13.63531477551601
 21
13.40280637261204
 31
0.0
  0
LINE
  5
37A9
330
1E
100
AcDbEntity
  8
7
100
AcDbLine
 10
13.63531477551601
 20
13.40280637261204
 30
0.0
 11
13.65499981488609
 21
13.4172420681501
 31
0.0
  0
LINE
  5
37AA
330
1E
100
AcDbEntity
  8
7
100
AcDbLine
 10
13.65499981488609
 20
13.4172420681501
 30
0.0
 11
13.66287383063412
 21
13.43299009964616
 31
0.0
  0
LINE
  5
37AB
330
1E
100
AcDbEntity
  8
7
100
AcDbLine
 10
11.46864810884934
 20
13.43299009964616
 30
0.0
 11
11.47652212459738
 21
13.45267513901624
 31
0.0
  0
LINE
  5
37AC
330
1E
100
AcDbEntity
  8
7
100
AcDbLine
 10
11.47652212459738
 20
13.45267513901624
 30
0.0
 11
11.49620716396746
 21
13.46973550647031
 31
0.0
  0
LINE
  5
37AD
330
1E
100
AcDbEntity
  8
7
100
AcDbLine
 10
11.49620716396746
 20
13.46973550647031
 30
0.0
 11
11.52507855504357
 21
13.48023419413435
 31
0.0
  0
LINE
  5
37AE
330
1E
100
AcDbEntity
  8
7
100
AcDbLine
 10
11.52507855504357
 20
13.48023419413435
 30
0.0
 11
11.55919928995171
 21
13.48548353796637
 31
0.0
  0
LINE
  5
37AF
330
1E
100
AcDbEntity
  8
7
100
AcDbLine
 10
11.47652212459738
 20
13.4172420681501
 30
0.0
 11
11.49620716396746
 21
13.40280637261204
 31
0.0
  0
LINE
  5
37B0
330
1E
100
AcDbEntity
  8
7
100
AcDbLine
 10
11.49620716396746
 20
13.40280637261204
 30
0.0
 11
11.52507855504357
 21
13.392307684948
 31
0.0
  0
LINE
  5
37B1
330
1E
100
AcDbEntity
  8
7
100
AcDbLine
 10
11.52507855504357
 20
13.392307684948
 30
0.0
 11
11.55919928995171
 21
13.38837067707398
 31
0.0
  0
LINE
  5
37B2
330
1E
100
AcDbEntity
  8
7
100
AcDbLine
 10
13.57232264953176
 20
13.38837067707398
 30
0.0
 11
13.57232264953176
 21
13.42117907602411
 31
0.0
  0
LINE
  5
37B3
330
1E
100
AcDbEntity
  8
7
100
AcDbLine
 10
13.57232264953176
 20
13.42117907602411
 30
0.0
 11
13.57232264953176
 21
13.45398747497425
 31
0.0
  0
LINE
  5
37B4
330
1E
100
AcDbEntity
  8
7
100
AcDbLine
 10
13.57232264953176
 20
13.45398747497425
 30
0.0
 11
13.57232264953176
 21
13.48548353796637
 31
0.0
  0
LINE
  5
37B5
330
1E
100
AcDbEntity
  8
7
100
AcDbLine
 10
11.55919928995171
 20
13.48548353796637
 30
0.0
 11
11.55919928995171
 21
13.45398747497425
 31
0.0
  0
LINE
  5
37B6
330
1E
100
AcDbEntity
  8
7
100
AcDbLine
 10
11.55919928995171
 20
13.45398747497425
 30
0.0
 11
11.55919928995171
 21
13.42117907602411
 31
0.0
  0
LINE
  5
37B7
330
1E
100
AcDbEntity
  8
7
100
AcDbLine
 10
11.55919928995171
 20
13.42117907602411
 30
0.0
 11
11.55919928995171
 21
13.38837067707398
 31
0.0
  0
LINE
  5
37B8
330
1E
100
AcDbEntity
  8
7
100
AcDbLine
 10
13.20093157341627
 20
13.63246516526296
 30
0.0
 11
13.17993419808819
 21
13.62721582143094
 31
0.0
  0
LINE
  5
37B9
330
1E
100
AcDbEntity
  8
7
100
AcDbLine
 10
13.17993419808819
 20
13.62721582143094
 30
0.0
 11
13.16681083850814
 21
13.61278012589288
 31
0.0
  0
LINE
  5
37BA
330
1E
100
AcDbEntity
  8
7
100
AcDbLine
 10
13.23505230832441
 20
13.61278012589288
 30
0.0
 11
13.22192894874436
 21
13.62721582143094
 31
0.0
  0
LINE
  5
37BB
330
1E
100
AcDbEntity
  8
7
100
AcDbLine
 10
13.22192894874436
 20
13.62721582143094
 30
0.0
 11
13.20093157341627
 21
13.63246516526296
 31
0.0
  0
LINE
  5
37BC
330
1E
100
AcDbEntity
  8
7
100
AcDbLine
 10
12.59988170464987
 20
13.61278012589288
 30
0.0
 11
12.58675834506982
 21
13.62721582143094
 31
0.0
  0
LINE
  5
37BD
330
1E
100
AcDbEntity
  8
7
100
AcDbLine
 10
12.58675834506982
 20
13.62721582143094
 30
0.0
 11
12.56576096974173
 21
13.63246516526296
 31
0.0
  0
LINE
  5
37BE
330
1E
100
AcDbEntity
  8
7
100
AcDbLine
 10
12.56576096974173
 20
13.63246516526296
 30
0.0
 11
12.54476359441365
 21
13.62721582143094
 31
0.0
  0
LINE
  5
37BF
330
1E
100
AcDbEntity
  8
7
100
AcDbLine
 10
12.54476359441365
 20
13.62721582143094
 30
0.0
 11
12.5316402348336
 21
13.61278012589288
 31
0.0
  0
LINE
  5
37C0
330
1E
100
AcDbEntity
  8
7
100
AcDbLine
 10
11.96471110097533
 20
13.61278012589288
 30
0.0
 11
11.95158774139527
 21
13.62721582143094
 31
0.0
  0
LINE
  5
37C1
330
1E
100
AcDbEntity
  8
7
100
AcDbLine
 10
11.95158774139527
 20
13.62721582143094
 30
0.0
 11
11.93059036606719
 21
13.63246516526296
 31
0.0
  0
LINE
  5
37C2
330
1E
100
AcDbEntity
  8
7
100
AcDbLine
 10
11.93059036606719
 20
13.63246516526296
 30
0.0
 11
11.90959299073911
 21
13.62721582143094
 31
0.0
  0
LINE
  5
37C3
330
1E
100
AcDbEntity
  8
7
100
AcDbLine
 10
11.90959299073911
 20
13.62721582143094
 30
0.0
 11
11.89646963115906
 21
13.61278012589288
 31
0.0
  0
LINE
  5
37C4
330
1E
100
AcDbEntity
  8
7
100
AcDbLine
 10
13.28754574664462
 20
13.36081162195587
 30
0.0
 11
13.11300506422992
 21
13.36081162195587
 31
0.0
  0
LINE
  5
37C5
330
1E
100
AcDbEntity
  8
7
100
AcDbLine
 10
13.11300506422992
 20
13.36081162195587
 30
0.0
 11
13.11300506422992
 21
13.32800322300574
 31
0.0
  0
LINE
  5
37C6
330
1E
100
AcDbEntity
  8
7
100
AcDbLine
 10
12.65368747892809
 20
13.36081162195587
 30
0.0
 11
12.47783446055538
 21
13.36081162195587
 31
0.0
  0
LINE
  5
37C7
330
1E
100
AcDbEntity
  8
7
100
AcDbLine
 10
12.47783446055538
 20
13.36081162195587
 30
0.0
 11
12.47783446055538
 21
13.32800322300574
 31
0.0
  0
LINE
  5
37C8
330
1E
100
AcDbEntity
  8
7
100
AcDbLine
 10
12.01851687525355
 20
13.36081162195587
 30
0.0
 11
11.84266385688084
 21
13.36081162195587
 31
0.0
  0
LINE
  5
37C9
330
1E
100
AcDbEntity
  8
7
100
AcDbLine
 10
11.84266385688084
 20
13.36081162195587
 30
0.0
 11
11.84266385688084
 21
13.32800322300574
 31
0.0
  0
LINE
  5
37CA
330
1E
100
AcDbEntity
  8
7
100
AcDbLine
 10
13.09463236081785
 20
12.98285886605036
 30
0.0
 11
13.09463236081785
 21
12.99073288179839
 31
0.0
  0
LINE
  5
37CB
330
1E
100
AcDbEntity
  8
7
100
AcDbLine
 10
13.09463236081785
 20
12.99073288179839
 30
0.0
 11
13.09463236081785
 21
13.00254390542044
 31
0.0
  0
LINE
  5
37CC
330
1E
100
AcDbEntity
  8
7
100
AcDbLine
 10
13.3072307860147
 20
13.00254390542044
 30
0.0
 11
13.3072307860147
 21
12.99073288179839
 31
0.0
  0
LINE
  5
37CD
330
1E
100
AcDbEntity
  8
7
100
AcDbLine
 10
13.3072307860147
 20
12.99073288179839
 30
0.0
 11
13.3072307860147
 21
12.98285886605036
 31
0.0
  0
LINE
  5
37CE
330
1E
100
AcDbEntity
  8
7
100
AcDbLine
 10
13.3072307860147
 20
13.0169796009585
 30
0.0
 11
13.09463236081785
 21
13.0169796009585
 31
0.0
  0
LINE
  5
37CF
330
1E
100
AcDbEntity
  8
7
100
AcDbLine
 10
13.09463236081785
 20
13.0169796009585
 30
0.0
 11
13.09463236081785
 21
13.00254390542044
 31
0.0
  0
LINE
  5
37D0
330
1E
100
AcDbEntity
  8
7
100
AcDbLine
 10
13.09463236081785
 20
13.00254390542044
 30
0.0
 11
13.3072307860147
 21
13.00254390542044
 31
0.0
  0
LINE
  5
37D1
330
1E
100
AcDbEntity
  8
7
100
AcDbLine
 10
13.09463236081785
 20
13.0169796009585
 30
0.0
 11
13.09332002485984
 21
13.03010296053855
 31
0.0
  0
LINE
  5
37D2
330
1E
100
AcDbEntity
  8
7
100
AcDbLine
 10
13.09332002485984
 20
13.03010296053855
 30
0.0
 11
13.09332002485984
 21
13.03928931224459
 31
0.0
  0
LINE
  5
37D3
330
1E
100
AcDbEntity
  8
7
100
AcDbLine
 10
13.3072307860147
 20
13.0169796009585
 30
0.0
 11
13.3072307860147
 21
13.03010296053855
 31
0.0
  0
LINE
  5
37D4
330
1E
100
AcDbEntity
  8
7
100
AcDbLine
 10
13.3072307860147
 20
13.03010296053855
 30
0.0
 11
13.30854312197271
 21
13.03928931224459
 31
0.0
  0
LINE
  5
37D5
330
1E
100
AcDbEntity
  8
7
100
AcDbLine
 10
13.30854312197271
 20
13.0432263201186
 30
0.0
 11
13.09200768890184
 21
13.0432263201186
 31
0.0
  0
LINE
  5
37D6
330
1E
100
AcDbEntity
  8
7
100
AcDbLine
 10
13.09200768890184
 20
13.0432263201186
 30
0.0
 11
13.09200768890184
 21
13.0419139841606
 31
0.0
  0
LINE
  5
37D7
330
1E
100
AcDbEntity
  8
7
100
AcDbLine
 10
13.09200768890184
 20
13.0419139841606
 30
0.0
 11
13.30854312197271
 21
13.0419139841606
 31
0.0
  0
LINE
  5
37D8
330
1E
100
AcDbEntity
  8
7
100
AcDbLine
 10
13.3072307860147
 20
13.0668483673627
 30
0.0
 11
13.09463236081785
 21
13.0668483673627
 31
0.0
  0
LINE
  5
37D9
330
1E
100
AcDbEntity
  8
7
100
AcDbLine
 10
13.09463236081785
 20
13.0668483673627
 30
0.0
 11
13.09200768890184
 21
13.05110033586664
 31
0.0
  0
LINE
  5
37DA
330
1E
100
AcDbEntity
  8
7
100
AcDbLine
 10
13.09200768890184
 20
13.05110033586664
 30
0.0
 11
13.30854312197271
 21
13.05110033586664
 31
0.0
  0
LINE
  5
37DB
330
1E
100
AcDbEntity
  8
7
100
AcDbLine
 10
12.45946175714331
 20
12.98285886605036
 30
0.0
 11
12.45946175714331
 21
12.99073288179839
 31
0.0
  0
LINE
  5
37DC
330
1E
100
AcDbEntity
  8
7
100
AcDbLine
 10
12.45946175714331
 20
12.99073288179839
 30
0.0
 11
12.45946175714331
 21
13.00254390542044
 31
0.0
  0
LINE
  5
37DD
330
1E
100
AcDbEntity
  8
7
100
AcDbLine
 10
12.67206018234016
 20
13.00254390542044
 30
0.0
 11
12.67206018234016
 21
12.99073288179839
 31
0.0
  0
LINE
  5
37DE
330
1E
100
AcDbEntity
  8
7
100
AcDbLine
 10
12.67206018234016
 20
12.99073288179839
 30
0.0
 11
12.67206018234016
 21
12.98285886605036
 31
0.0
  0
LINE
  5
37DF
330
1E
100
AcDbEntity
  8
7
100
AcDbLine
 10
12.67206018234016
 20
13.0169796009585
 30
0.0
 11
12.45946175714331
 21
13.0169796009585
 31
0.0
  0
LINE
  5
37E0
330
1E
100
AcDbEntity
  8
7
100
AcDbLine
 10
12.45946175714331
 20
13.0169796009585
 30
0.0
 11
12.45946175714331
 21
13.00254390542044
 31
0.0
  0
LINE
  5
37E1
330
1E
100
AcDbEntity
  8
7
100
AcDbLine
 10
12.45946175714331
 20
13.00254390542044
 30
0.0
 11
12.67206018234016
 21
13.00254390542044
 31
0.0
  0
LINE
  5
37E2
330
1E
100
AcDbEntity
  8
7
100
AcDbLine
 10
12.45946175714331
 20
13.0169796009585
 30
0.0
 11
12.4581494211853
 21
13.03010296053855
 31
0.0
  0
LINE
  5
37E3
330
1E
100
AcDbEntity
  8
7
100
AcDbLine
 10
12.4581494211853
 20
13.03010296053855
 30
0.0
 11
12.4581494211853
 21
13.03928931224459
 31
0.0
  0
LINE
  5
37E4
330
1E
100
AcDbEntity
  8
7
100
AcDbLine
 10
12.67206018234016
 20
13.0169796009585
 30
0.0
 11
12.67337251829816
 21
13.03010296053855
 31
0.0
  0
LINE
  5
37E5
330
1E
100
AcDbEntity
  8
7
100
AcDbLine
 10
12.67337251829816
 20
13.03010296053855
 30
0.0
 11
12.67337251829816
 21
13.03928931224459
 31
0.0
  0
LINE
  5
37E6
330
1E
100
AcDbEntity
  8
7
100
AcDbLine
 10
12.67337251829816
 20
13.03928931224459
 30
0.0
 11
12.4581494211853
 21
13.03928931224459
 31
0.0
  0
LINE
  5
37E7
330
1E
100
AcDbEntity
  8
7
100
AcDbLine
 10
12.67337251829816
 20
13.0432263201186
 30
0.0
 11
12.4568370852273
 21
13.0432263201186
 31
0.0
  0
LINE
  5
37E8
330
1E
100
AcDbEntity
  8
7
100
AcDbLine
 10
12.4568370852273
 20
13.0432263201186
 30
0.0
 11
12.4581494211853
 21
13.0419139841606
 31
0.0
  0
LINE
  5
37E9
330
1E
100
AcDbEntity
  8
7
100
AcDbLine
 10
12.4581494211853
 20
13.0419139841606
 30
0.0
 11
12.67337251829816
 21
13.0419139841606
 31
0.0
  0
LINE
  5
37EA
330
1E
100
AcDbEntity
  8
7
100
AcDbLine
 10
12.67206018234016
 20
13.0668483673627
 30
0.0
 11
12.45946175714331
 21
13.0668483673627
 31
0.0
  0
LINE
  5
37EB
330
1E
100
AcDbEntity
  8
7
100
AcDbLine
 10
12.45946175714331
 20
13.0668483673627
 30
0.0
 11
12.4581494211853
 21
13.05110033586664
 31
0.0
  0
LINE
  5
37EC
330
1E
100
AcDbEntity
  8
7
100
AcDbLine
 10
12.4581494211853
 20
13.05110033586664
 30
0.0
 11
12.67337251829816
 21
13.05110033586664
 31
0.0
  0
LINE
  5
37ED
330
1E
100
AcDbEntity
  8
7
100
AcDbLine
 10
11.82429115346877
 20
12.98285886605036
 30
0.0
 11
11.82429115346877
 21
12.99073288179839
 31
0.0
  0
LINE
  5
37EE
330
1E
100
AcDbEntity
  8
7
100
AcDbLine
 10
11.82429115346877
 20
12.99073288179839
 30
0.0
 11
11.82429115346877
 21
13.00254390542044
 31
0.0
  0
LINE
  5
37EF
330
1E
100
AcDbEntity
  8
7
100
AcDbLine
 10
12.03688957866562
 20
13.00254390542044
 30
0.0
 11
12.03688957866562
 21
12.99073288179839
 31
0.0
  0
LINE
  5
37F0
330
1E
100
AcDbEntity
  8
7
100
AcDbLine
 10
12.03688957866562
 20
12.99073288179839
 30
0.0
 11
12.03688957866562
 21
12.98285886605036
 31
0.0
  0
LINE
  5
37F1
330
1E
100
AcDbEntity
  8
7
100
AcDbLine
 10
12.03688957866562
 20
13.0169796009585
 30
0.0
 11
11.82429115346877
 21
13.0169796009585
 31
0.0
  0
LINE
  5
37F2
330
1E
100
AcDbEntity
  8
7
100
AcDbLine
 10
11.82429115346877
 20
13.0169796009585
 30
0.0
 11
11.82429115346877
 21
13.00254390542044
 31
0.0
  0
LINE
  5
37F3
330
1E
100
AcDbEntity
  8
7
100
AcDbLine
 10
11.82429115346877
 20
13.00254390542044
 30
0.0
 11
12.03688957866562
 21
13.00254390542044
 31
0.0
  0
LINE
  5
37F4
330
1E
100
AcDbEntity
  8
7
100
AcDbLine
 10
11.82429115346877
 20
13.0169796009585
 30
0.0
 11
11.82297881751076
 21
13.03010296053855
 31
0.0
  0
LINE
  5
37F5
330
1E
100
AcDbEntity
  8
7
100
AcDbLine
 10
11.82297881751076
 20
13.03010296053855
 30
0.0
 11
11.82297881751076
 21
13.03928931224459
 31
0.0
  0
LINE
  5
37F6
330
1E
100
AcDbEntity
  8
7
100
AcDbLine
 10
12.03688957866562
 20
13.0169796009585
 30
0.0
 11
12.03820191462362
 21
13.03010296053855
 31
0.0
  0
LINE
  5
37F7
330
1E
100
AcDbEntity
  8
7
100
AcDbLine
 10
12.03820191462362
 20
13.03010296053855
 30
0.0
 11
12.03820191462362
 21
13.03928931224459
 31
0.0
  0
LINE
  5
37F8
330
1E
100
AcDbEntity
  8
7
100
AcDbLine
 10
12.03820191462362
 20
13.03928931224459
 30
0.0
 11
11.82297881751076
 21
13.03928931224459
 31
0.0
  0
LINE
  5
37F9
330
1E
100
AcDbEntity
  8
7
100
AcDbLine
 10
12.03820191462362
 20
13.0432263201186
 30
0.0
 11
11.82297881751076
 21
13.0432263201186
 31
0.0
  0
LINE
  5
37FA
330
1E
100
AcDbEntity
  8
7
100
AcDbLine
 10
11.82297881751076
 20
13.0432263201186
 30
0.0
 11
11.82297881751076
 21
13.0419139841606
 31
0.0
  0
LINE
  5
37FB
330
1E
100
AcDbEntity
  8
7
100
AcDbLine
 10
11.82297881751076
 20
13.0419139841606
 30
0.0
 11
12.03820191462362
 21
13.0419139841606
 31
0.0
  0
LINE
  5
37FC
330
1E
100
AcDbEntity
  8
7
100
AcDbLine
 10
12.03688957866562
 20
13.0668483673627
 30
0.0
 11
11.82429115346877
 21
13.0668483673627
 31
0.0
  0
LINE
  5
37FD
330
1E
100
AcDbEntity
  8
7
100
AcDbLine
 10
11.82429115346877
 20
13.0668483673627
 30
0.0
 11
11.82297881751076
 21
13.05110033586664
 31
0.0
  0
LINE
  5
37FE
330
1E
100
AcDbEntity
  8
7
100
AcDbLine
 10
11.82297881751076
 20
13.05110033586664
 30
0.0
 11
12.03820191462362
 21
13.05110033586664
 31
0.0
  0
LINE
  5
37FF
330
1E
100
AcDbEntity
  8
7
100
AcDbLine
 10
13.3072307860147
 20
12.98285886605036
 30
0.0
 11
13.09463236081785
 21
12.98285886605036
 31
0.0
  0
LINE
  5
3800
330
1E
100
AcDbEntity
  8
7
100
AcDbLine
 10
13.09463236081785
 20
12.98285886605036
 30
0.0
 11
13.07625965740577
 21
12.76501109702149
 31
0.0
  0
LINE
  5
3801
330
1E
100
AcDbEntity
  8
7
100
AcDbLine
 10
12.67206018234016
 20
12.98285886605036
 30
0.0
 11
12.45946175714331
 21
12.98285886605036
 31
0.0
  0
LINE
  5
3802
330
1E
100
AcDbEntity
  8
7
100
AcDbLine
 10
12.45946175714331
 20
12.98285886605036
 30
0.0
 11
12.44108905373124
 21
12.76501109702149
 31
0.0
  0
LINE
  5
3803
330
1E
100
AcDbEntity
  8
7
100
AcDbLine
 10
11.55132527420368
 20
13.79388248809761
 30
0.0
 11
11.55919928995171
 21
13.48548353796637
 31
0.0
  0
LINE
  5
3804
330
1E
100
AcDbEntity
  8
7
100
AcDbLine
 10
11.55919928995171
 20
13.48548353796637
 30
0.0
 11
13.57232264953176
 21
13.48548353796637
 31
0.0
  0
LINE
  5
3805
330
1E
100
AcDbEntity
  8
7
100
AcDbLine
 10
13.57232264953176
 20
13.48548353796637
 30
0.0
 11
13.58019666527979
 21
13.79388248809761
 31
0.0
  0
LINE
  5
3806
330
1E
100
AcDbEntity
  8
7
100
AcDbLine
 10
13.66812317446614
 20
13.64952553271703
 30
0.0
 11
13.66287383063412
 21
13.43299009964616
 31
0.0
  0
LINE
  5
3807
330
1E
100
AcDbEntity
  8
7
100
AcDbLine
 10
13.66287383063412
 20
13.43299009964616
 30
0.0
 11
13.66943551042415
 21
13.10359377418685
 31
0.0
  0
LINE
  5
3808
330
1E
100
AcDbEntity
  8
7
100
AcDbLine
 10
11.21667960491234
 20
15.98154653009236
 30
0.0
 11
11.21143026108031
 21
16.29125781618159
 31
0.0
  0
LINE
  5
3809
330
1E
100
AcDbEntity
  8
7
100
AcDbLine
 10
11.21143026108031
 20
16.29125781618159
 30
0.0
 11
11.19043288575223
 21
16.31225519150968
 31
0.0
  0
LINE
  5
380A
330
1E
100
AcDbEntity
  8
7
100
AcDbLine
 10
11.19043288575223
 20
11.87262264557792
 30
0.0
 11
11.21143026108031
 21
11.89362002090601
 31
0.0
  0
LINE
  5
380B
330
1E
100
AcDbEntity
  8
7
100
AcDbLine
 10
11.21143026108031
 20
11.89362002090601
 30
0.0
 11
11.21667960491234
 21
12.20333130699525
 31
0.0
  0
LINE
  5
380C
330
1E
100
AcDbEntity
  8
7
100
AcDbLine
 10
11.21667960491234
 20
12.20333130699525
 30
0.0
 11
11.22061661278635
 21
12.51566726500049
 31
0.0
  0
LINE
  5
380D
330
1E
100
AcDbEntity
  8
7
100
AcDbLine
 10
11.22061661278635
 20
12.51566726500049
 30
0.0
 11
11.22324128470236
 21
12.82931555896375
 31
0.0
  0
LINE
  5
380E
330
1E
100
AcDbEntity
  8
7
100
AcDbLine
 10
11.22324128470236
 20
12.82931555896375
 30
0.0
 11
11.22586595661837
 21
13.142963852927
 31
0.0
  0
LINE
  5
380F
330
1E
100
AcDbEntity
  8
7
100
AcDbLine
 10
11.22586595661837
 20
13.142963852927
 30
0.0
 11
11.22717829257638
 21
13.45923681880627
 31
0.0
  0
LINE
  5
3810
330
1E
100
AcDbEntity
  8
7
100
AcDbLine
 10
11.22717829257638
 20
13.45923681880627
 30
0.0
 11
11.22849062853438
 21
13.77550978468553
 31
0.0
  0
LINE
  5
3811
330
1E
100
AcDbEntity
  8
7
100
AcDbLine
 10
11.22849062853438
 20
13.77550978468553
 30
0.0
 11
11.22980296449239
 21
14.0917827505648
 31
0.0
  0
LINE
  5
3812
330
1E
100
AcDbEntity
  8
7
100
AcDbLine
 10
11.22980296449239
 20
14.0917827505648
 30
0.0
 11
11.22849062853438
 21
14.40936805240207
 31
0.0
  0
LINE
  5
3813
330
1E
100
AcDbEntity
  8
7
100
AcDbLine
 10
11.22849062853438
 20
14.40936805240207
 30
0.0
 11
11.22717829257638
 21
14.72564101828133
 31
0.0
  0
LINE
  5
3814
330
1E
100
AcDbEntity
  8
7
100
AcDbLine
 10
11.22717829257638
 20
14.72564101828133
 30
0.0
 11
11.22586595661837
 21
15.04060164820259
 31
0.0
  0
LINE
  5
3815
330
1E
100
AcDbEntity
  8
7
100
AcDbLine
 10
11.22586595661837
 20
15.04060164820259
 30
0.0
 11
11.22324128470236
 21
15.35556227812385
 31
0.0
  0
LINE
  5
3816
330
1E
100
AcDbEntity
  8
7
100
AcDbLine
 10
11.22324128470236
 20
15.35556227812385
 30
0.0
 11
11.22061661278635
 21
15.66921057208711
 31
0.0
  0
LINE
  5
3817
330
1E
100
AcDbEntity
  8
7
100
AcDbLine
 10
11.22061661278635
 20
15.66921057208711
 30
0.0
 11
11.21667960491234
 21
15.98154653009236
 31
0.0
  0
LINE
  5
3818
330
1E
100
AcDbEntity
  8
7
100
AcDbLine
 10
13.90565598286509
 20
15.04060164820259
 30
0.0
 11
13.90303131094908
 21
14.72564101828133
 31
0.0
  0
LINE
  5
3819
330
1E
100
AcDbEntity
  8
7
100
AcDbLine
 10
13.90303131094908
 20
14.72564101828133
 30
0.0
 11
13.90171897499108
 21
14.40936805240207
 31
0.0
  0
LINE
  5
381A
330
1E
100
AcDbEntity
  8
7
100
AcDbLine
 10
13.90171897499108
 20
14.40936805240207
 30
0.0
 11
13.90171897499108
 21
14.0917827505648
 31
0.0
  0
LINE
  5
381B
330
1E
100
AcDbEntity
  8
7
100
AcDbLine
 10
13.90171897499108
 20
14.0917827505648
 30
0.0
 11
13.90171897499108
 21
13.77550978468553
 31
0.0
  0
LINE
  5
381C
330
1E
100
AcDbEntity
  8
7
100
AcDbLine
 10
13.90171897499108
 20
13.77550978468553
 30
0.0
 11
13.90303131094908
 21
13.45923681880627
 31
0.0
  0
LINE
  5
381D
330
1E
100
AcDbEntity
  8
7
100
AcDbLine
 10
13.90303131094908
 20
13.45923681880627
 30
0.0
 11
13.90565598286509
 21
13.142963852927
 31
0.0
  0
LINE
  5
381E
330
1E
100
AcDbEntity
  8
7
100
AcDbLine
 10
13.90565598286509
 20
13.142963852927
 30
0.0
 11
13.9069683188231
 21
12.82931555896375
 31
0.0
  0
LINE
  5
381F
330
1E
100
AcDbEntity
  8
7
100
AcDbLine
 10
13.9069683188231
 20
12.82931555896375
 30
0.0
 11
13.91090532669711
 21
12.51566726500049
 31
0.0
  0
LINE
  5
3820
330
1E
100
AcDbEntity
  8
7
100
AcDbLine
 10
13.91090532669711
 20
12.51566726500049
 30
0.0
 11
13.91484233457113
 21
12.20333130699525
 31
0.0
  0
LINE
  5
3821
330
1E
100
AcDbEntity
  8
7
100
AcDbLine
 10
13.91484233457113
 20
12.20333130699525
 30
0.0
 11
13.91877934244514
 21
11.89362002090601
 31
0.0
  0
LINE
  5
3822
330
1E
100
AcDbEntity
  8
7
100
AcDbLine
 10
13.91877934244514
 20
11.89362002090601
 30
0.0
 11
13.94108905373124
 21
11.87262264557792
 31
0.0
  0
LINE
  5
3823
330
1E
100
AcDbEntity
  8
7
100
AcDbLine
 10
13.94108905373124
 20
16.31225519150968
 30
0.0
 11
13.91877934244514
 21
16.29125781618159
 31
0.0
  0
LINE
  5
3824
330
1E
100
AcDbEntity
  8
7
100
AcDbLine
 10
13.91877934244514
 20
16.29125781618159
 30
0.0
 11
13.91484233457113
 21
15.98154653009236
 31
0.0
  0
LINE
  5
3825
330
1E
100
AcDbEntity
  8
7
100
AcDbLine
 10
13.91484233457113
 20
15.98154653009236
 30
0.0
 11
13.91090532669711
 21
15.66921057208711
 31
0.0
  0
LINE
  5
3826
330
1E
100
AcDbEntity
  8
7
100
AcDbLine
 10
13.91090532669711
 20
15.66921057208711
 30
0.0
 11
13.9069683188231
 21
15.35556227812385
 31
0.0
  0
LINE
  5
3827
330
1E
100
AcDbEntity
  8
7
100
AcDbLine
 10
13.9069683188231
 20
15.35556227812385
 30
0.0
 11
13.90565598286509
 21
15.04060164820259
 31
0.0
  0
LINE
  5
3828
330
1E
100
AcDbEntity
  8
7
100
AcDbLine
 10
11.46208642905932
 20
15.23089036211335
 30
0.0
 11
11.46602343693333
 21
15.2912578161816
 31
0.0
  0
LINE
  5
3829
330
1E
100
AcDbEntity
  8
7
100
AcDbLine
 10
11.46602343693333
 20
15.2912578161816
 30
0.0
 11
11.4817714684294
 21
15.34900059833383
 31
0.0
  0
LINE
  5
382A
330
1E
100
AcDbEntity
  8
7
100
AcDbLine
 10
11.4817714684294
 20
15.34900059833383
 30
0.0
 11
11.49489482800945
 21
15.37655965345193
 31
0.0
  0
LINE
  5
382B
330
1E
100
AcDbEntity
  8
7
100
AcDbLine
 10
11.49489482800945
 20
15.37655965345193
 30
0.0
 11
11.51457986737953
 21
15.40018170069603
 31
0.0
  0
LINE
  5
382C
330
1E
100
AcDbEntity
  8
7
100
AcDbLine
 10
11.51457986737953
 20
15.40018170069603
 30
0.0
 11
11.52770322695958
 21
15.41068038836007
 31
0.0
  0
LINE
  5
382D
330
1E
100
AcDbEntity
  8
7
100
AcDbLine
 10
11.52770322695958
 20
15.41068038836007
 30
0.0
 11
11.54476359441365
 21
15.41592973219209
 31
0.0
  0
LINE
  5
382E
330
1E
100
AcDbEntity
  8
7
100
AcDbLine
 10
11.54476359441365
 20
15.41592973219209
 30
0.0
 11
11.54870060228767
 21
15.41592973219209
 31
0.0
  0
LINE
  5
382F
330
1E
100
AcDbEntity
  8
7
100
AcDbLine
 10
11.46208642905932
 20
15.23089036211335
 30
0.0
 11
11.46339876501732
 21
14.94611345922621
 31
0.0
  0
LINE
  5
3830
330
1E
100
AcDbEntity
  8
7
100
AcDbLine
 10
11.46339876501732
 20
14.94611345922621
 30
0.0
 11
11.46339876501732
 21
14.66264889229708
 31
0.0
  0
LINE
  5
3831
330
1E
100
AcDbEntity
  8
7
100
AcDbLine
 10
11.55132527420368
 20
14.50123156946244
 30
0.0
 11
11.53426490674961
 21
14.50385624137845
 31
0.0
  0
LINE
  5
3832
330
1E
100
AcDbEntity
  8
7
100
AcDbLine
 10
11.53426490674961
 20
14.50385624137845
 30
0.0
 11
11.51982921121155
 21
14.51173025712648
 31
0.0
  0
LINE
  5
3833
330
1E
100
AcDbEntity
  8
7
100
AcDbLine
 10
11.51982921121155
 20
14.51173025712648
 30
0.0
 11
11.49883183588346
 21
14.53272763245456
 31
0.0
  0
LINE
  5
3834
330
1E
100
AcDbEntity
  8
7
100
AcDbLine
 10
11.49883183588346
 20
14.53272763245456
 30
0.0
 11
11.47652212459738
 21
14.57603471906873
 31
0.0
  0
LINE
  5
3835
330
1E
100
AcDbEntity
  8
7
100
AcDbLine
 10
11.47652212459738
 20
14.57603471906873
 30
0.0
 11
11.46733577289134
 21
14.6180294697249
 31
0.0
  0
LINE
  5
3836
330
1E
100
AcDbEntity
  8
7
100
AcDbLine
 10
11.46733577289134
 20
14.6180294697249
 30
0.0
 11
11.46339876501732
 21
14.66264889229708
 31
0.0
  0
LINE
  5
3837
330
1E
100
AcDbEntity
  8
7
100
AcDbLine
 10
11.53426490674961
 20
13.7912578161816
 30
0.0
 11
11.55132527420368
 21
13.79388248809761
 31
0.0
  0
LINE
  5
3838
330
1E
100
AcDbEntity
  8
7
100
AcDbLine
 10
11.55132527420368
 20
13.79388248809761
 30
0.0
 11
11.55394994611969
 21
13.79388248809761
 31
0.0
  0
LINE
  5
3839
330
1E
100
AcDbEntity
  8
7
100
AcDbLine
 10
11.46339876501732
 20
13.64952553271703
 30
0.0
 11
11.46733577289134
 21
13.68889561145719
 31
0.0
  0
LINE
  5
383A
330
1E
100
AcDbEntity
  8
7
100
AcDbLine
 10
11.46733577289134
 20
13.68889561145719
 30
0.0
 11
11.47783446055538
 21
13.72695335423934
 31
0.0
  0
LINE
  5
383B
330
1E
100
AcDbEntity
  8
7
100
AcDbLine
 10
11.47783446055538
 20
13.72695335423934
 30
0.0
 11
11.49489482800945
 21
13.75976175318947
 31
0.0
  0
LINE
  5
383C
330
1E
100
AcDbEntity
  8
7
100
AcDbLine
 10
11.49489482800945
 20
13.75976175318947
 30
0.0
 11
11.51589220333754
 21
13.78207146447556
 31
0.0
  0
LINE
  5
383D
330
1E
100
AcDbEntity
  8
7
100
AcDbLine
 10
11.51589220333754
 20
13.78207146447556
 30
0.0
 11
11.53426490674961
 21
13.7912578161816
 31
0.0
  0
LINE
  5
383E
330
1E
100
AcDbEntity
  8
7
100
AcDbLine
 10
11.46339876501732
 20
13.64952553271703
 30
0.0
 11
11.46339876501732
 21
13.37655965345194
 31
0.0
  0
LINE
  5
383F
330
1E
100
AcDbEntity
  8
7
100
AcDbLine
 10
11.46339876501732
 20
13.37655965345194
 30
0.0
 11
11.46208642905932
 21
13.10359377418685
 31
0.0
  0
LINE
  5
3840
330
1E
100
AcDbEntity
  8
7
100
AcDbLine
 10
11.52245388312756
 20
12.89755702878002
 30
0.0
 11
11.50408117971549
 21
12.9172420681501
 31
0.0
  0
LINE
  5
3841
330
1E
100
AcDbEntity
  8
7
100
AcDbLine
 10
11.50408117971549
 20
12.9172420681501
 30
0.0
 11
11.49095782013543
 21
12.9421764513522
 31
0.0
  0
LINE
  5
3842
330
1E
100
AcDbEntity
  8
7
100
AcDbLine
 10
11.49095782013543
 20
12.9421764513522
 30
0.0
 11
11.4817714684294
 21
12.9671108345543
 31
0.0
  0
LINE
  5
3843
330
1E
100
AcDbEntity
  8
7
100
AcDbLine
 10
11.4817714684294
 20
12.9671108345543
 30
0.0
 11
11.46602343693333
 21
13.03403996841256
 31
0.0
  0
LINE
  5
3844
330
1E
100
AcDbEntity
  8
7
100
AcDbLine
 10
11.46602343693333
 20
13.03403996841256
 30
0.0
 11
11.46208642905932
 21
13.10359377418685
 31
0.0
  0
LINE
  5
3845
330
1E
100
AcDbEntity
  8
7
100
AcDbLine
 10
11.54870060228767
 20
12.88837067707398
 30
0.0
 11
11.53557724270761
 21
12.88968301303199
 31
0.0
  0
LINE
  5
3846
330
1E
100
AcDbEntity
  8
7
100
AcDbLine
 10
11.53557724270761
 20
12.88968301303199
 30
0.0
 11
11.52245388312756
 21
12.89755702878002
 31
0.0
  0
LINE
  5
3847
330
1E
100
AcDbEntity
  8
7
100
AcDbLine
 10
11.56576096974173
 20
12.24532605765142
 30
0.0
 11
11.56182396186772
 21
12.56553603140469
 31
0.0
  0
LINE
  5
3848
330
1E
100
AcDbEntity
  8
7
100
AcDbLine
 10
11.56182396186772
 20
12.56553603140469
 30
0.0
 11
11.55919928995171
 21
12.88837067707398
 31
0.0
  0
LINE
  5
3849
330
1E
100
AcDbEntity
  8
7
100
AcDbLine
 10
13.57232264953176
 20
12.88837067707398
 30
0.0
 11
13.56969797761575
 21
12.56553603140469
 31
0.0
  0
LINE
  5
384A
330
1E
100
AcDbEntity
  8
7
100
AcDbLine
 10
13.56969797761575
 20
12.56553603140469
 30
0.0
 11
13.56576096974174
 21
12.24532605765142
 31
0.0
  0
LINE
  5
384B
330
1E
100
AcDbEntity
  8
7
100
AcDbLine
 10
13.61825440806194
 20
12.90674338048606
 30
0.0
 11
13.60513104848189
 21
12.89493235686401
 31
0.0
  0
LINE
  5
384C
330
1E
100
AcDbEntity
  8
7
100
AcDbLine
 10
13.60513104848189
 20
12.89493235686401
 30
0.0
 11
13.58938301698583
 21
12.88837067707398
 31
0.0
  0
LINE
  5
384D
330
1E
100
AcDbEntity
  8
7
100
AcDbLine
 10
13.58938301698583
 20
12.88837067707398
 30
0.0
 11
13.5828213371958
 21
12.88837067707398
 31
0.0
  0
LINE
  5
384E
330
1E
100
AcDbEntity
  8
7
100
AcDbLine
 10
13.57757199336378
 20
13.79388248809761
 30
0.0
 11
13.58019666527979
 21
13.79388248809761
 31
0.0
  0
LINE
  5
384F
330
1E
100
AcDbEntity
  8
7
100
AcDbLine
 10
13.58019666527979
 20
13.79388248809761
 30
0.0
 11
13.60119404060788
 21
13.78994548022359
 31
0.0
  0
LINE
  5
3850
330
1E
100
AcDbEntity
  8
7
100
AcDbLine
 10
13.60119404060788
 20
13.78994548022359
 30
0.0
 11
13.61956674401995
 21
13.77944679255955
 31
0.0
  0
LINE
  5
3851
330
1E
100
AcDbEntity
  8
7
100
AcDbLine
 10
13.61956674401995
 20
13.77944679255955
 30
0.0
 11
13.64056411934803
 21
13.75451240935745
 31
0.0
  0
LINE
  5
3852
330
1E
100
AcDbEntity
  8
7
100
AcDbLine
 10
13.64056411934803
 20
13.75451240935745
 30
0.0
 11
13.66024915871811
 21
13.70464364295325
 31
0.0
  0
LINE
  5
3853
330
1E
100
AcDbEntity
  8
7
100
AcDbLine
 10
13.66024915871811
 20
13.70464364295325
 30
0.0
 11
13.66812317446614
 21
13.64952553271703
 31
0.0
  0
LINE
  5
3854
330
1E
100
AcDbEntity
  8
7
100
AcDbLine
 10
13.66812317446614
 20
13.64952553271703
 30
0.0
 11
13.66812317446614
 21
13.37655965345194
 31
0.0
  0
LINE
  5
3855
330
1E
100
AcDbEntity
  8
7
100
AcDbLine
 10
13.66812317446614
 20
13.37655965345194
 30
0.0
 11
13.66943551042415
 21
13.10359377418685
 31
0.0
  0
LINE
  5
3856
330
1E
100
AcDbEntity
  8
7
100
AcDbLine
 10
13.66943551042415
 20
13.10359377418685
 30
0.0
 11
13.66549850255013
 21
13.03928931224459
 31
0.0
  0
LINE
  5
3857
330
1E
100
AcDbEntity
  8
7
100
AcDbLine
 10
13.66549850255013
 20
13.03928931224459
 30
0.0
 11
13.65237514297008
 21
12.97498485030233
 31
0.0
  0
LINE
  5
3858
330
1E
100
AcDbEntity
  8
7
100
AcDbLine
 10
13.65237514297008
 20
12.97498485030233
 30
0.0
 11
13.63925178339003
 21
12.9421764513522
 31
0.0
  0
LINE
  5
3859
330
1E
100
AcDbEntity
  8
7
100
AcDbLine
 10
13.63925178339003
 20
12.9421764513522
 30
0.0
 11
13.61825440806194
 21
12.90674338048606
 31
0.0
  0
LINE
  5
385A
330
1E
100
AcDbEntity
  8
7
100
AcDbLine
 10
13.61300506422992
 20
15.40411870857004
 30
0.0
 11
13.6326901036
 21
15.38312133324196
 31
0.0
  0
LINE
  5
385B
330
1E
100
AcDbEntity
  8
7
100
AcDbLine
 10
13.6326901036
 20
15.38312133324196
 30
0.0
 11
13.64581346318005
 21
15.35949928599787
 31
0.0
  0
LINE
  5
385C
330
1E
100
AcDbEntity
  8
7
100
AcDbLine
 10
13.64581346318005
 20
15.35949928599787
 30
0.0
 11
13.65499981488609
 21
15.33325256683776
 31
0.0
  0
LINE
  5
385D
330
1E
100
AcDbEntity
  8
7
100
AcDbLine
 10
13.65499981488609
 20
15.33325256683776
 30
0.0
 11
13.66681083850814
 21
15.28207146447556
 31
0.0
  0
LINE
  5
385E
330
1E
100
AcDbEntity
  8
7
100
AcDbLine
 10
13.66681083850814
 20
15.28207146447556
 30
0.0
 11
13.66943551042415
 21
15.23089036211335
 31
0.0
  0
LINE
  5
385F
330
1E
100
AcDbEntity
  8
7
100
AcDbLine
 10
13.66943551042415
 20
15.23089036211335
 30
0.0
 11
13.66812317446614
 21
14.94611345922621
 31
0.0
  0
LINE
  5
3860
330
1E
100
AcDbEntity
  8
7
100
AcDbLine
 10
13.66812317446614
 20
14.94611345922621
 30
0.0
 11
13.66812317446614
 21
14.66264889229708
 31
0.0
  0
LINE
  5
3861
330
1E
100
AcDbEntity
  8
7
100
AcDbLine
 10
13.66812317446614
 20
14.66264889229708
 30
0.0
 11
13.66418616659213
 21
14.6167171337669
 31
0.0
  0
LINE
  5
3862
330
1E
100
AcDbEntity
  8
7
100
AcDbLine
 10
13.66418616659213
 20
14.6167171337669
 30
0.0
 11
13.65237514297008
 21
14.57209771119472
 31
0.0
  0
LINE
  5
3863
330
1E
100
AcDbEntity
  8
7
100
AcDbLine
 10
13.65237514297008
 20
14.57209771119472
 30
0.0
 11
13.63925178339003
 21
14.5432263201186
 31
0.0
  0
LINE
  5
3864
330
1E
100
AcDbEntity
  8
7
100
AcDbLine
 10
13.63925178339003
 20
14.5432263201186
 30
0.0
 11
13.61825440806194
 21
14.51829193691651
 31
0.0
  0
LINE
  5
3865
330
1E
100
AcDbEntity
  8
7
100
AcDbLine
 10
13.61825440806194
 20
14.51829193691651
 30
0.0
 11
13.60250637656588
 21
14.50648091329445
 31
0.0
  0
LINE
  5
3866
330
1E
100
AcDbEntity
  8
7
100
AcDbLine
 10
13.60250637656588
 20
14.50648091329445
 30
0.0
 11
13.5828213371958
 21
14.50123156946244
 31
0.0
  0
LINE
  5
3867
330
1E
100
AcDbEntity
  8
7
100
AcDbLine
 10
13.5828213371958
 20
14.50123156946244
 30
0.0
 11
13.58019666527979
 21
14.50123156946244
 31
0.0
  0
LINE
  5
3868
330
1E
100
AcDbEntity
  8
7
100
AcDbLine
 10
13.5828213371958
 20
15.41592973219209
 30
0.0
 11
13.59725703273386
 21
15.41330506027608
 31
0.0
  0
LINE
  5
3869
330
1E
100
AcDbEntity
  8
7
100
AcDbLine
 10
13.59725703273386
 20
15.41330506027608
 30
0.0
 11
13.61300506422992
 21
15.40411870857004
 31
0.0
  0
LINE
  5
386A
330
1E
100
AcDbEntity
  8
7
100
AcDbLine
 10
13.87547225583097
 20
13.14033918101099
 30
0.0
 11
13.87284758391496
 21
13.45792448284826
 31
0.0
  0
LINE
  5
386B
330
1E
100
AcDbEntity
  8
7
100
AcDbLine
 10
13.87284758391496
 20
13.45792448284826
 30
0.0
 11
13.87284758391496
 21
13.77419744872753
 31
0.0
  0
LINE
  5
386C
330
1E
100
AcDbEntity
  8
7
100
AcDbLine
 10
13.87284758391496
 20
13.77419744872753
 30
0.0
 11
13.87153524795696
 21
14.0917827505648
 31
0.0
  0
LINE
  5
386D
330
1E
100
AcDbEntity
  8
7
100
AcDbLine
 10
13.87153524795696
 20
14.0917827505648
 30
0.0
 11
13.87284758391496
 21
14.40936805240207
 31
0.0
  0
LINE
  5
386E
330
1E
100
AcDbEntity
  8
7
100
AcDbLine
 10
13.87284758391496
 20
14.40936805240207
 30
0.0
 11
13.87284758391496
 21
14.72695335423934
 31
0.0
  0
LINE
  5
386F
330
1E
100
AcDbEntity
  8
7
100
AcDbLine
 10
13.87284758391496
 20
14.72695335423934
 30
0.0
 11
13.87547225583097
 21
15.0432263201186
 31
0.0
  0
LINE
  5
3870
330
1E
100
AcDbEntity
  8
7
100
AcDbLine
 10
13.87547225583097
 20
15.0432263201186
 30
0.0
 11
13.87809692774698
 21
15.35949928599787
 31
0.0
  0
LINE
  5
3871
330
1E
100
AcDbEntity
  8
7
100
AcDbLine
 10
13.87809692774698
 20
15.35949928599787
 30
0.0
 11
13.88072159966299
 21
15.67314757996112
 31
0.0
  0
LINE
  5
3872
330
1E
100
AcDbEntity
  8
7
100
AcDbLine
 10
13.88072159966299
 20
15.67314757996112
 30
0.0
 11
13.88465860753701
 21
15.98679587392437
 31
0.0
  0
LINE
  5
3873
330
1E
100
AcDbEntity
  8
7
100
AcDbLine
 10
13.88465860753701
 20
15.98679587392437
 30
0.0
 11
13.88859561541102
 21
16.29781949597162
 31
0.0
  0
LINE
  5
3874
330
1E
100
AcDbEntity
  8
7
100
AcDbLine
 10
13.88859561541102
 20
16.29781949597162
 30
0.0
 11
11.24161398811444
 21
16.29781949597162
 31
0.0
  0
LINE
  5
3875
330
1E
100
AcDbEntity
  8
7
100
AcDbLine
 10
11.2586743555685
 20
14.0917827505648
 30
0.0
 11
11.2586743555685
 21
13.77419744872753
 31
0.0
  0
LINE
  5
3876
330
1E
100
AcDbEntity
  8
7
100
AcDbLine
 10
11.2586743555685
 20
13.77419744872753
 30
0.0
 11
11.2573620196105
 21
13.45792448284826
 31
0.0
  0
LINE
  5
3877
330
1E
100
AcDbEntity
  8
7
100
AcDbLine
 10
11.2573620196105
 20
13.45792448284826
 30
0.0
 11
11.2560496836525
 21
13.14033918101099
 31
0.0
  0
LINE
  5
3878
330
1E
100
AcDbEntity
  8
7
100
AcDbLine
 10
11.2560496836525
 20
13.14033918101099
 30
0.0
 11
11.25342501173648
 21
12.82537855108973
 31
0.0
  0
LINE
  5
3879
330
1E
100
AcDbEntity
  8
7
100
AcDbLine
 10
11.25342501173648
 20
12.82537855108973
 30
0.0
 11
11.25080033982047
 21
12.51041792116847
 31
0.0
  0
LINE
  5
387A
330
1E
100
AcDbEntity
  8
7
100
AcDbLine
 10
11.25080033982047
 20
12.51041792116847
 30
0.0
 11
11.24686333194646
 21
12.19808196316322
 31
0.0
  0
LINE
  5
387B
330
1E
100
AcDbEntity
  8
7
100
AcDbLine
 10
11.24686333194646
 20
12.19808196316322
 30
0.0
 11
11.24161398811444
 21
11.88705834111598
 31
0.0
  0
LINE
  5
387C
330
1E
100
AcDbEntity
  8
7
100
AcDbLine
 10
11.24161398811444
 20
11.88705834111598
 30
0.0
 11
13.88859561541102
 21
11.88705834111598
 31
0.0
  0
LINE
  5
387D
330
1E
100
AcDbEntity
  8
7
100
AcDbLine
 10
13.88859561541102
 20
11.88705834111598
 30
0.0
 11
13.88465860753701
 21
12.19808196316322
 31
0.0
  0
LINE
  5
387E
330
1E
100
AcDbEntity
  8
7
100
AcDbLine
 10
13.88465860753701
 20
12.19808196316322
 30
0.0
 11
13.88072159966299
 21
12.51041792116847
 31
0.0
  0
LINE
  5
387F
330
1E
100
AcDbEntity
  8
7
100
AcDbLine
 10
13.88072159966299
 20
12.51041792116847
 30
0.0
 11
13.87809692774698
 21
12.82537855108973
 31
0.0
  0
LINE
  5
3880
330
1E
100
AcDbEntity
  8
7
100
AcDbLine
 10
13.87809692774698
 20
12.82537855108973
 30
0.0
 11
13.87547225583097
 21
13.14033918101099
 31
0.0
  0
LINE
  5
3881
330
1E
100
AcDbEntity
  8
7
100
AcDbLine
 10
11.24161398811444
 20
16.29781949597162
 30
0.0
 11
11.24686333194646
 21
15.98679587392437
 31
0.0
  0
LINE
  5
3882
330
1E
100
AcDbEntity
  8
7
100
AcDbLine
 10
11.24686333194646
 20
15.98679587392437
 30
0.0
 11
11.25080033982047
 21
15.67314757996112
 31
0.0
  0
LINE
  5
3883
330
1E
100
AcDbEntity
  8
7
100
AcDbLine
 10
11.25080033982047
 20
15.67314757996112
 30
0.0
 11
11.25342501173648
 21
15.35949928599787
 31
0.0
  0
LINE
  5
3884
330
1E
100
AcDbEntity
  8
7
100
AcDbLine
 10
11.25342501173648
 20
15.35949928599787
 30
0.0
 11
11.2560496836525
 21
15.0432263201186
 31
0.0
  0
LINE
  5
3885
330
1E
100
AcDbEntity
  8
7
100
AcDbLine
 10
11.2560496836525
 20
15.0432263201186
 30
0.0
 11
11.2573620196105
 21
14.72695335423934
 31
0.0
  0
LINE
  5
3886
330
1E
100
AcDbEntity
  8
7
100
AcDbLine
 10
11.2573620196105
 20
14.72695335423934
 30
0.0
 11
11.2586743555685
 21
14.40936805240207
 31
0.0
  0
LINE
  5
3887
330
1E
100
AcDbEntity
  8
7
100
AcDbLine
 10
11.2586743555685
 20
14.40936805240207
 30
0.0
 11
11.2586743555685
 21
14.0917827505648
 31
0.0
  0
LINE
  5
3888
330
1E
100
AcDbEntity
  8
7
100
AcDbLine
 10
11.22061661278635
 20
16.3424389185438
 30
0.0
 11
11.24161398811444
 21
16.32144154321571
 31
0.0
  0
LINE
  5
3889
330
1E
100
AcDbEntity
  8
7
100
AcDbLine
 10
11.24161398811444
 20
16.32144154321571
 30
0.0
 11
13.88859561541102
 21
16.32144154321571
 31
0.0
  0
LINE
  5
388A
330
1E
100
AcDbEntity
  8
7
100
AcDbLine
 10
13.88859561541102
 20
16.32144154321571
 30
0.0
 11
13.91090532669711
 21
16.3424389185438
 31
0.0
  0
LINE
  5
388B
330
1E
100
AcDbEntity
  8
7
100
AcDbLine
 10
13.91090532669711
 20
16.3424389185438
 30
0.0
 11
13.92534102223517
 21
16.33850191066978
 31
0.0
  0
LINE
  5
388C
330
1E
100
AcDbEntity
  8
7
100
AcDbLine
 10
13.92534102223517
 20
16.33850191066978
 30
0.0
 11
13.93715204585722
 21
16.32669088704774
 31
0.0
  0
LINE
  5
388D
330
1E
100
AcDbEntity
  8
7
100
AcDbLine
 10
13.93715204585722
 20
16.32669088704774
 30
0.0
 11
13.94108905373124
 21
16.31225519150968
 31
0.0
  0
LINE
  5
388E
330
1E
100
AcDbEntity
  8
7
100
AcDbLine
 10
11.22061661278635
 20
11.8424389185438
 30
0.0
 11
11.2061809172483
 21
11.84637592641782
 31
0.0
  0
LINE
  5
388F
330
1E
100
AcDbEntity
  8
7
100
AcDbLine
 10
11.2061809172483
 20
11.84637592641782
 30
0.0
 11
11.19436989362625
 21
11.85687461408186
 31
0.0
  0
LINE
  5
3890
330
1E
100
AcDbEntity
  8
7
100
AcDbLine
 10
11.19436989362625
 20
11.85687461408186
 30
0.0
 11
11.19043288575223
 21
11.87262264557792
 31
0.0
  0
LINE
  5
3891
330
1E
100
AcDbEntity
  8
7
100
AcDbLine
 10
11.19043288575223
 20
11.87262264557792
 30
0.0
 11
11.19043288575223
 21
16.31225519150968
 31
0.0
  0
LINE
  5
3892
330
1E
100
AcDbEntity
  8
7
100
AcDbLine
 10
11.19043288575223
 20
16.31225519150968
 30
0.0
 11
11.19436989362625
 21
16.32669088704774
 31
0.0
  0
LINE
  5
3893
330
1E
100
AcDbEntity
  8
7
100
AcDbLine
 10
11.19436989362625
 20
16.32669088704774
 30
0.0
 11
11.2061809172483
 21
16.33850191066978
 31
0.0
  0
LINE
  5
3894
330
1E
100
AcDbEntity
  8
7
100
AcDbLine
 10
11.2061809172483
 20
16.33850191066978
 30
0.0
 11
11.22061661278635
 21
16.3424389185438
 31
0.0
  0
LINE
  5
3895
330
1E
100
AcDbEntity
  8
7
100
AcDbLine
 10
13.94108905373124
 20
11.87262264557792
 30
0.0
 11
13.93715204585722
 21
11.85687461408186
 31
0.0
  0
LINE
  5
3896
330
1E
100
AcDbEntity
  8
7
100
AcDbLine
 10
13.93715204585722
 20
11.85687461408186
 30
0.0
 11
13.92534102223517
 21
11.84637592641782
 31
0.0
  0
LINE
  5
3897
330
1E
100
AcDbEntity
  8
7
100
AcDbLine
 10
13.92534102223517
 20
11.84637592641782
 30
0.0
 11
13.91090532669711
 21
11.8424389185438
 31
0.0
  0
LINE
  5
3898
330
1E
100
AcDbEntity
  8
7
100
AcDbLine
 10
13.88859561541102
 20
11.86343629387188
 30
0.0
 11
11.24161398811444
 21
11.86343629387188
 31
0.0
  0
LINE
  5
3899
330
1E
100
AcDbEntity
  8
7
100
AcDbLine
 10
11.24161398811444
 20
11.86343629387188
 30
0.0
 11
11.22061661278635
 21
11.8424389185438
 31
0.0
  0
LINE
  5
389A
330
1E
100
AcDbEntity
  8
7
100
AcDbLine
 10
12.24423866003045
 20
12.38180899728396
 30
0.0
 11
12.24423866003045
 21
12.32931555896375
 31
0.0
  0
LINE
  5
389B
330
1E
100
AcDbEntity
  8
7
100
AcDbLine
 10
12.24423866003045
 20
12.32931555896375
 30
0.0
 11
12.24292632407244
 21
12.32931555896375
 31
0.0
  0
LINE
  5
389C
330
1E
100
AcDbEntity
  8
7
100
AcDbLine
 10
12.50539351567349
 20
12.5668483673627
 30
0.0
 11
12.46996044480735
 21
12.56159902353068
 31
0.0
  0
LINE
  5
389D
330
1E
100
AcDbEntity
  8
7
100
AcDbLine
 10
12.46996044480735
 20
12.56159902353068
 30
0.0
 11
12.43715204585722
 21
12.54453865607661
 31
0.0
  0
LINE
  5
389E
330
1E
100
AcDbEntity
  8
7
100
AcDbLine
 10
12.43715204585722
 20
12.54453865607661
 30
0.0
 11
12.41221766265512
 21
12.51960427287451
 31
0.0
  0
LINE
  5
389F
330
1E
100
AcDbEntity
  8
7
100
AcDbLine
 10
12.41221766265512
 20
12.51960427287451
 30
0.0
 11
12.39515729520105
 21
12.48679587392438
 31
0.0
  0
LINE
  5
38A0
330
1E
100
AcDbEntity
  8
7
100
AcDbLine
 10
12.39515729520105
 20
12.48679587392438
 30
0.0
 11
12.38990795136903
 21
12.45136280305824
 31
0.0
  0
LINE
  5
38A1
330
1E
100
AcDbEntity
  8
7
100
AcDbLine
 10
12.38990795136903
 20
12.45136280305824
 30
0.0
 11
12.39515729520105
 21
12.41592973219209
 31
0.0
  0
LINE
  5
38A2
330
1E
100
AcDbEntity
  8
7
100
AcDbLine
 10
12.39515729520105
 20
12.41592973219209
 30
0.0
 11
12.41221766265512
 21
12.38312133324196
 31
0.0
  0
LINE
  5
38A3
330
1E
100
AcDbEntity
  8
7
100
AcDbLine
 10
12.41221766265512
 20
12.38312133324196
 30
0.0
 11
12.43715204585722
 21
12.35818695003986
 31
0.0
  0
LINE
  5
38A4
330
1E
100
AcDbEntity
  8
7
100
AcDbLine
 10
12.43715204585722
 20
12.35818695003986
 30
0.0
 11
12.46996044480735
 21
12.34112658258579
 31
0.0
  0
LINE
  5
38A5
330
1E
100
AcDbEntity
  8
7
100
AcDbLine
 10
12.46996044480735
 20
12.34112658258579
 30
0.0
 11
12.50539351567349
 21
12.33587723875377
 31
0.0
  0
LINE
  5
38A6
330
1E
100
AcDbEntity
  8
7
100
AcDbLine
 10
12.66156149467612
 20
12.34112658258579
 30
0.0
 11
12.69436989362625
 21
12.35818695003986
 31
0.0
  0
LINE
  5
38A7
330
1E
100
AcDbEntity
  8
7
100
AcDbLine
 10
12.69436989362625
 20
12.35818695003986
 30
0.0
 11
12.71930427682835
 21
12.38312133324196
 31
0.0
  0
LINE
  5
38A8
330
1E
100
AcDbEntity
  8
7
100
AcDbLine
 10
12.71930427682835
 20
12.38312133324196
 30
0.0
 11
12.73636464428242
 21
12.41592973219209
 31
0.0
  0
LINE
  5
38A9
330
1E
100
AcDbEntity
  8
7
100
AcDbLine
 10
12.73636464428242
 20
12.41592973219209
 30
0.0
 11
12.74161398811444
 21
12.45136280305824
 31
0.0
  0
LINE
  5
38AA
330
1E
100
AcDbEntity
  8
7
100
AcDbLine
 10
12.74161398811444
 20
12.45136280305824
 30
0.0
 11
12.73636464428242
 21
12.48679587392438
 31
0.0
  0
LINE
  5
38AB
330
1E
100
AcDbEntity
  8
7
100
AcDbLine
 10
12.73636464428242
 20
12.48679587392438
 30
0.0
 11
12.71930427682835
 21
12.51960427287451
 31
0.0
  0
LINE
  5
38AC
330
1E
100
AcDbEntity
  8
7
100
AcDbLine
 10
12.71930427682835
 20
12.51960427287451
 30
0.0
 11
12.69436989362625
 21
12.54453865607661
 31
0.0
  0
LINE
  5
38AD
330
1E
100
AcDbEntity
  8
7
100
AcDbLine
 10
12.69436989362625
 20
12.54453865607661
 30
0.0
 11
12.66156149467612
 21
12.56159902353068
 31
0.0
  0
LINE
  5
38AE
330
1E
100
AcDbEntity
  8
7
100
AcDbLine
 10
12.66156149467612
 20
12.56159902353068
 30
0.0
 11
12.62612842380997
 21
12.5668483673627
 31
0.0
  0
LINE
  5
38AF
330
1E
100
AcDbEntity
  8
7
100
AcDbLine
 10
12.22061661278635
 20
12.51960427287451
 30
0.0
 11
12.22061661278635
 21
12.38443366919997
 31
0.0
  0
LINE
  5
38B0
330
1E
100
AcDbEntity
  8
7
100
AcDbLine
 10
12.22061661278635
 20
12.38443366919997
 30
0.0
 11
12.24686333194646
 21
12.38443366919997
 31
0.0
  0
LINE
  5
38B1
330
1E
100
AcDbEntity
  8
7
100
AcDbLine
 10
12.24686333194646
 20
12.38443366919997
 30
0.0
 11
12.24686333194646
 21
12.33062789492175
 31
0.0
  0
LINE
  5
38B2
330
1E
100
AcDbEntity
  8
7
100
AcDbLine
 10
12.24686333194646
 20
12.33062789492175
 30
0.0
 11
12.88465860753701
 21
12.33062789492175
 31
0.0
  0
LINE
  5
38B3
330
1E
100
AcDbEntity
  8
7
100
AcDbLine
 10
12.88465860753701
 20
12.33062789492175
 30
0.0
 11
12.88465860753701
 21
12.38443366919997
 31
0.0
  0
LINE
  5
38B4
330
1E
100
AcDbEntity
  8
7
100
AcDbLine
 10
12.88465860753701
 20
12.38443366919997
 30
0.0
 11
12.91090532669711
 21
12.38443366919997
 31
0.0
  0
LINE
  5
38B5
330
1E
100
AcDbEntity
  8
7
100
AcDbLine
 10
12.91090532669711
 20
12.38443366919997
 30
0.0
 11
12.91090532669711
 21
12.51960427287451
 31
0.0
  0
LINE
  5
38B6
330
1E
100
AcDbEntity
  8
7
100
AcDbLine
 10
12.91090532669711
 20
12.51960427287451
 30
0.0
 11
12.88465860753701
 21
12.51960427287451
 31
0.0
  0
LINE
  5
38B7
330
1E
100
AcDbEntity
  8
7
100
AcDbLine
 10
12.88465860753701
 20
12.51960427287451
 30
0.0
 11
12.88465860753701
 21
12.57209771119472
 31
0.0
  0
LINE
  5
38B8
330
1E
100
AcDbEntity
  8
7
100
AcDbLine
 10
12.88465860753701
 20
12.57209771119472
 30
0.0
 11
12.24686333194646
 21
12.57209771119472
 31
0.0
  0
LINE
  5
38B9
330
1E
100
AcDbEntity
  8
7
100
AcDbLine
 10
12.24686333194646
 20
12.57209771119472
 30
0.0
 11
12.24686333194646
 21
12.51960427287451
 31
0.0
  0
LINE
  5
38BA
330
1E
100
AcDbEntity
  8
7
100
AcDbLine
 10
12.24686333194646
 20
12.51960427287451
 30
0.0
 11
12.22061661278635
 21
12.51960427287451
 31
0.0
  0
LINE
  5
38BB
330
1E
100
AcDbEntity
  8
7
100
AcDbLine
 10
12.47652212459738
 20
12.52091660883251
 30
0.0
 11
12.45290007735328
 21
12.50385624137845
 31
0.0
  0
LINE
  5
38BC
330
1E
100
AcDbEntity
  8
7
100
AcDbLine
 10
12.45290007735328
 20
12.50385624137845
 30
0.0
 11
12.43583970989921
 21
12.48023419413435
 31
0.0
  0
LINE
  5
38BD
330
1E
100
AcDbEntity
  8
7
100
AcDbLine
 10
12.43583970989921
 20
12.48023419413435
 30
0.0
 11
12.43059036606719
 21
12.45136280305824
 31
0.0
  0
LINE
  5
38BE
330
1E
100
AcDbEntity
  8
7
100
AcDbLine
 10
12.43059036606719
 20
12.45136280305824
 30
0.0
 11
12.43583970989921
 21
12.42249141198212
 31
0.0
  0
LINE
  5
38BF
330
1E
100
AcDbEntity
  8
7
100
AcDbLine
 10
12.43583970989921
 20
12.42249141198212
 30
0.0
 11
12.45290007735328
 21
12.39886936473802
 31
0.0
  0
LINE
  5
38C0
330
1E
100
AcDbEntity
  8
7
100
AcDbLine
 10
12.45290007735328
 20
12.39886936473802
 30
0.0
 11
12.47652212459738
 21
12.38180899728396
 31
0.0
  0
LINE
  5
38C1
330
1E
100
AcDbEntity
  8
7
100
AcDbLine
 10
12.47652212459738
 20
12.38180899728396
 30
0.0
 11
12.50539351567349
 21
12.37655965345194
 31
0.0
  0
LINE
  5
38C2
330
1E
100
AcDbEntity
  8
7
100
AcDbLine
 10
12.62612842380997
 20
12.37655965345194
 30
0.0
 11
12.65499981488609
 21
12.38180899728396
 31
0.0
  0
LINE
  5
38C3
330
1E
100
AcDbEntity
  8
7
100
AcDbLine
 10
12.65499981488609
 20
12.38180899728396
 30
0.0
 11
12.67862186213019
 21
12.39886936473802
 31
0.0
  0
LINE
  5
38C4
330
1E
100
AcDbEntity
  8
7
100
AcDbLine
 10
12.67862186213019
 20
12.39886936473802
 30
0.0
 11
12.69568222958425
 21
12.42249141198212
 31
0.0
  0
LINE
  5
38C5
330
1E
100
AcDbEntity
  8
7
100
AcDbLine
 10
12.69568222958425
 20
12.42249141198212
 30
0.0
 11
12.70093157341627
 21
12.45136280305824
 31
0.0
  0
LINE
  5
38C6
330
1E
100
AcDbEntity
  8
7
100
AcDbLine
 10
12.70093157341627
 20
12.45136280305824
 30
0.0
 11
12.69568222958425
 21
12.48023419413435
 31
0.0
  0
LINE
  5
38C7
330
1E
100
AcDbEntity
  8
7
100
AcDbLine
 10
12.69568222958425
 20
12.48023419413435
 30
0.0
 11
12.67862186213019
 21
12.50385624137845
 31
0.0
  0
LINE
  5
38C8
330
1E
100
AcDbEntity
  8
7
100
AcDbLine
 10
12.67862186213019
 20
12.50385624137845
 30
0.0
 11
12.65499981488609
 21
12.52091660883251
 31
0.0
  0
LINE
  5
38C9
330
1E
100
AcDbEntity
  8
7
100
AcDbLine
 10
12.65499981488609
 20
12.52091660883251
 30
0.0
 11
12.62612842380997
 21
12.52616595266453
 31
0.0
  0
LINE
  5
38CA
330
1E
100
AcDbEntity
  8
7
100
AcDbLine
 10
12.62612842380997
 20
12.37655965345194
 30
0.0
 11
12.65499981488609
 21
12.38180899728396
 31
0.0
  0
LINE
  5
38CB
330
1E
100
AcDbEntity
  8
7
100
AcDbLine
 10
12.65499981488609
 20
12.38180899728396
 30
0.0
 11
12.67862186213019
 21
12.39886936473802
 31
0.0
  0
LINE
  5
38CC
330
1E
100
AcDbEntity
  8
7
100
AcDbLine
 10
12.67862186213019
 20
12.39886936473802
 30
0.0
 11
12.69568222958425
 21
12.42249141198212
 31
0.0
  0
LINE
  5
38CD
330
1E
100
AcDbEntity
  8
7
100
AcDbLine
 10
12.69568222958425
 20
12.42249141198212
 30
0.0
 11
12.70093157341627
 21
12.45136280305824
 31
0.0
  0
LINE
  5
38CE
330
1E
100
AcDbEntity
  8
7
100
AcDbLine
 10
12.70093157341627
 20
12.45136280305824
 30
0.0
 11
12.69568222958425
 21
12.48023419413435
 31
0.0
  0
LINE
  5
38CF
330
1E
100
AcDbEntity
  8
7
100
AcDbLine
 10
12.69568222958425
 20
12.48023419413435
 30
0.0
 11
12.67862186213019
 21
12.50385624137845
 31
0.0
  0
LINE
  5
38D0
330
1E
100
AcDbEntity
  8
7
100
AcDbLine
 10
12.67862186213019
 20
12.50385624137845
 30
0.0
 11
12.65499981488609
 21
12.52091660883251
 31
0.0
  0
LINE
  5
38D1
330
1E
100
AcDbEntity
  8
7
100
AcDbLine
 10
12.65499981488609
 20
12.52091660883251
 30
0.0
 11
12.62612842380997
 21
12.52616595266453
 31
0.0
  0
LINE
  5
38D2
330
1E
100
AcDbEntity
  8
7
100
AcDbLine
 10
12.50539351567349
 20
12.52616595266453
 30
0.0
 11
12.47652212459738
 21
12.52091660883251
 31
0.0
  0
LINE
  5
38D3
330
1E
100
AcDbEntity
  8
7
100
AcDbLine
 10
12.47652212459738
 20
12.52091660883251
 30
0.0
 11
12.45290007735328
 21
12.50385624137845
 31
0.0
  0
LINE
  5
38D4
330
1E
100
AcDbEntity
  8
7
100
AcDbLine
 10
12.45290007735328
 20
12.50385624137845
 30
0.0
 11
12.43583970989921
 21
12.48023419413435
 31
0.0
  0
LINE
  5
38D5
330
1E
100
AcDbEntity
  8
7
100
AcDbLine
 10
12.43583970989921
 20
12.48023419413435
 30
0.0
 11
12.43059036606719
 21
12.45136280305824
 31
0.0
  0
LINE
  5
38D6
330
1E
100
AcDbEntity
  8
7
100
AcDbLine
 10
12.43059036606719
 20
12.45136280305824
 30
0.0
 11
12.43583970989921
 21
12.42249141198212
 31
0.0
  0
LINE
  5
38D7
330
1E
100
AcDbEntity
  8
7
100
AcDbLine
 10
12.43583970989921
 20
12.42249141198212
 30
0.0
 11
12.45290007735328
 21
12.39886936473802
 31
0.0
  0
LINE
  5
38D8
330
1E
100
AcDbEntity
  8
7
100
AcDbLine
 10
12.45290007735328
 20
12.39886936473802
 30
0.0
 11
12.47652212459738
 21
12.38180899728396
 31
0.0
  0
LINE
  5
38D9
330
1E
100
AcDbEntity
  8
7
100
AcDbLine
 10
12.47652212459738
 20
12.38180899728396
 30
0.0
 11
12.50539351567349
 21
12.37655965345194
 31
0.0
  0
LINE
  5
38DA
330
1E
100
AcDbEntity
  8
7
100
AcDbLine
 10
12.62612842380997
 20
12.33718957471178
 30
0.0
 11
12.66156149467612
 21
12.3424389185438
 31
0.0
  0
LINE
  5
38DB
330
1E
100
AcDbEntity
  8
7
100
AcDbLine
 10
12.66156149467612
 20
12.3424389185438
 30
0.0
 11
12.69305755766824
 21
12.35949928599787
 31
0.0
  0
LINE
  5
38DC
330
1E
100
AcDbEntity
  8
7
100
AcDbLine
 10
12.69305755766824
 20
12.35949928599787
 30
0.0
 11
12.71799194087034
 21
12.38443366919997
 31
0.0
  0
LINE
  5
38DD
330
1E
100
AcDbEntity
  8
7
100
AcDbLine
 10
12.71799194087034
 20
12.38443366919997
 30
0.0
 11
12.73505230832441
 21
12.41592973219209
 31
0.0
  0
LINE
  5
38DE
330
1E
100
AcDbEntity
  8
7
100
AcDbLine
 10
12.73505230832441
 20
12.41592973219209
 30
0.0
 11
12.74030165215643
 21
12.45136280305824
 31
0.0
  0
LINE
  5
38DF
330
1E
100
AcDbEntity
  8
7
100
AcDbLine
 10
12.74030165215643
 20
12.45136280305824
 30
0.0
 11
12.73505230832441
 21
12.48679587392438
 31
0.0
  0
LINE
  5
38E0
330
1E
100
AcDbEntity
  8
7
100
AcDbLine
 10
12.73505230832441
 20
12.48679587392438
 30
0.0
 11
12.71799194087034
 21
12.51829193691651
 31
0.0
  0
LINE
  5
38E1
330
1E
100
AcDbEntity
  8
7
100
AcDbLine
 10
12.71799194087034
 20
12.51829193691651
 30
0.0
 11
12.69305755766824
 21
12.5432263201186
 31
0.0
  0
LINE
  5
38E2
330
1E
100
AcDbEntity
  8
7
100
AcDbLine
 10
12.69305755766824
 20
12.5432263201186
 30
0.0
 11
12.66156149467612
 21
12.56028668757267
 31
0.0
  0
LINE
  5
38E3
330
1E
100
AcDbEntity
  8
7
100
AcDbLine
 10
12.66156149467612
 20
12.56028668757267
 30
0.0
 11
12.62612842380997
 21
12.56553603140469
 31
0.0
  0
LINE
  5
38E4
330
1E
100
AcDbEntity
  8
7
100
AcDbLine
 10
12.50539351567349
 20
12.56553603140469
 30
0.0
 11
12.46996044480735
 21
12.56028668757267
 31
0.0
  0
LINE
  5
38E5
330
1E
100
AcDbEntity
  8
7
100
AcDbLine
 10
12.46996044480735
 20
12.56028668757267
 30
0.0
 11
12.43846438181522
 21
12.5432263201186
 31
0.0
  0
LINE
  5
38E6
330
1E
100
AcDbEntity
  8
7
100
AcDbLine
 10
12.43846438181522
 20
12.5432263201186
 30
0.0
 11
12.41352999861312
 21
12.51829193691651
 31
0.0
  0
LINE
  5
38E7
330
1E
100
AcDbEntity
  8
7
100
AcDbLine
 10
12.41352999861312
 20
12.51829193691651
 30
0.0
 11
12.39646963115906
 21
12.48679587392438
 31
0.0
  0
LINE
  5
38E8
330
1E
100
AcDbEntity
  8
7
100
AcDbLine
 10
12.39646963115906
 20
12.48679587392438
 30
0.0
 11
12.39122028732704
 21
12.45136280305824
 31
0.0
  0
LINE
  5
38E9
330
1E
100
AcDbEntity
  8
7
100
AcDbLine
 10
12.39122028732704
 20
12.45136280305824
 30
0.0
 11
12.39646963115906
 21
12.41592973219209
 31
0.0
  0
LINE
  5
38EA
330
1E
100
AcDbEntity
  8
7
100
AcDbLine
 10
12.39646963115906
 20
12.41592973219209
 30
0.0
 11
12.41352999861312
 21
12.38443366919997
 31
0.0
  0
LINE
  5
38EB
330
1E
100
AcDbEntity
  8
7
100
AcDbLine
 10
12.41352999861312
 20
12.38443366919997
 30
0.0
 11
12.43846438181522
 21
12.35949928599787
 31
0.0
  0
LINE
  5
38EC
330
1E
100
AcDbEntity
  8
7
100
AcDbLine
 10
12.43846438181522
 20
12.35949928599787
 30
0.0
 11
12.46996044480735
 21
12.3424389185438
 31
0.0
  0
LINE
  5
38ED
330
1E
100
AcDbEntity
  8
7
100
AcDbLine
 10
12.46996044480735
 20
12.3424389185438
 30
0.0
 11
12.50539351567349
 21
12.33718957471178
 31
0.0
  0
LINE
  5
38EE
330
1E
100
AcDbEntity
  8
7
100
AcDbLine
 10
12.39515729520105
 20
15.7676357689375
 30
0.0
 11
12.38990795136903
 21
15.73220269807136
 31
0.0
  0
LINE
  5
38EF
330
1E
100
AcDbEntity
  8
7
100
AcDbLine
 10
12.38990795136903
 20
15.73220269807136
 30
0.0
 11
12.39515729520105
 21
15.69676962720522
 31
0.0
  0
LINE
  5
38F0
330
1E
100
AcDbEntity
  8
7
100
AcDbLine
 10
12.39515729520105
 20
15.69676962720522
 30
0.0
 11
12.41221766265512
 21
15.66396122825508
 31
0.0
  0
LINE
  5
38F1
330
1E
100
AcDbEntity
  8
7
100
AcDbLine
 10
12.41221766265512
 20
15.66396122825508
 30
0.0
 11
12.43715204585722
 21
15.63902684505299
 31
0.0
  0
LINE
  5
38F2
330
1E
100
AcDbEntity
  8
7
100
AcDbLine
 10
12.43715204585722
 20
15.63902684505299
 30
0.0
 11
12.46996044480735
 21
15.62196647759892
 31
0.0
  0
LINE
  5
38F3
330
1E
100
AcDbEntity
  8
7
100
AcDbLine
 10
12.46996044480735
 20
15.62196647759892
 30
0.0
 11
12.50539351567349
 21
15.6167171337669
 31
0.0
  0
LINE
  5
38F4
330
1E
100
AcDbEntity
  8
7
100
AcDbLine
 10
12.50539351567349
 20
15.84768826237582
 30
0.0
 11
12.46996044480735
 21
15.8424389185438
 31
0.0
  0
LINE
  5
38F5
330
1E
100
AcDbEntity
  8
7
100
AcDbLine
 10
12.46996044480735
 20
15.8424389185438
 30
0.0
 11
12.43715204585722
 21
15.82537855108973
 31
0.0
  0
LINE
  5
38F6
330
1E
100
AcDbEntity
  8
7
100
AcDbLine
 10
12.43715204585722
 20
15.82537855108973
 30
0.0
 11
12.41221766265512
 21
15.80044416788763
 31
0.0
  0
LINE
  5
38F7
330
1E
100
AcDbEntity
  8
7
100
AcDbLine
 10
12.41221766265512
 20
15.80044416788763
 30
0.0
 11
12.39515729520105
 21
15.7676357689375
 31
0.0
  0
LINE
  5
38F8
330
1E
100
AcDbEntity
  8
7
100
AcDbLine
 10
12.73636464428242
 20
15.7676357689375
 30
0.0
 11
12.71930427682835
 21
15.80044416788763
 31
0.0
  0
LINE
  5
38F9
330
1E
100
AcDbEntity
  8
7
100
AcDbLine
 10
12.71930427682835
 20
15.80044416788763
 30
0.0
 11
12.69436989362625
 21
15.82537855108973
 31
0.0
  0
LINE
  5
38FA
330
1E
100
AcDbEntity
  8
7
100
AcDbLine
 10
12.69436989362625
 20
15.82537855108973
 30
0.0
 11
12.66156149467612
 21
15.8424389185438
 31
0.0
  0
LINE
  5
38FB
330
1E
100
AcDbEntity
  8
7
100
AcDbLine
 10
12.66156149467612
 20
15.8424389185438
 30
0.0
 11
12.62612842380997
 21
15.84768826237582
 31
0.0
  0
LINE
  5
38FC
330
1E
100
AcDbEntity
  8
7
100
AcDbLine
 10
12.62612842380997
 20
15.6167171337669
 30
0.0
 11
12.66156149467612
 21
15.62196647759892
 31
0.0
  0
LINE
  5
38FD
330
1E
100
AcDbEntity
  8
7
100
AcDbLine
 10
12.66156149467612
 20
15.62196647759892
 30
0.0
 11
12.69436989362625
 21
15.63902684505299
 31
0.0
  0
LINE
  5
38FE
330
1E
100
AcDbEntity
  8
7
100
AcDbLine
 10
12.69436989362625
 20
15.63902684505299
 30
0.0
 11
12.71930427682835
 21
15.66396122825508
 31
0.0
  0
LINE
  5
38FF
330
1E
100
AcDbEntity
  8
7
100
AcDbLine
 10
12.71930427682835
 20
15.66396122825508
 30
0.0
 11
12.73636464428242
 21
15.69676962720522
 31
0.0
  0
LINE
  5
3900
330
1E
100
AcDbEntity
  8
7
100
AcDbLine
 10
12.73636464428242
 20
15.69676962720522
 30
0.0
 11
12.74161398811444
 21
15.73220269807136
 31
0.0
  0
LINE
  5
3901
330
1E
100
AcDbEntity
  8
7
100
AcDbLine
 10
12.74161398811444
 20
15.73220269807136
 30
0.0
 11
12.73636464428242
 21
15.7676357689375
 31
0.0
  0
LINE
  5
3902
330
1E
100
AcDbEntity
  8
7
100
AcDbLine
 10
12.50539351567349
 20
15.80700584767766
 30
0.0
 11
12.47652212459738
 21
15.80175650384564
 31
0.0
  0
LINE
  5
3903
330
1E
100
AcDbEntity
  8
7
100
AcDbLine
 10
12.47652212459738
 20
15.80175650384564
 30
0.0
 11
12.45290007735328
 21
15.78469613639157
 31
0.0
  0
LINE
  5
3904
330
1E
100
AcDbEntity
  8
7
100
AcDbLine
 10
12.45290007735328
 20
15.78469613639157
 30
0.0
 11
12.43583970989921
 21
15.76107408914747
 31
0.0
  0
LINE
  5
3905
330
1E
100
AcDbEntity
  8
7
100
AcDbLine
 10
12.43583970989921
 20
15.76107408914747
 30
0.0
 11
12.43059036606719
 21
15.73220269807136
 31
0.0
  0
LINE
  5
3906
330
1E
100
AcDbEntity
  8
7
100
AcDbLine
 10
12.43059036606719
 20
15.73220269807136
 30
0.0
 11
12.43583970989921
 21
15.70333130699524
 31
0.0
  0
LINE
  5
3907
330
1E
100
AcDbEntity
  8
7
100
AcDbLine
 10
12.43583970989921
 20
15.70333130699524
 30
0.0
 11
12.45290007735328
 21
15.67970925975115
 31
0.0
  0
LINE
  5
3908
330
1E
100
AcDbEntity
  8
7
100
AcDbLine
 10
12.45290007735328
 20
15.67970925975115
 30
0.0
 11
12.47652212459738
 21
15.66264889229708
 31
0.0
  0
LINE
  5
3909
330
1E
100
AcDbEntity
  8
7
100
AcDbLine
 10
12.62612842380997
 20
15.65739954846506
 30
0.0
 11
12.65499981488609
 21
15.66264889229708
 31
0.0
  0
LINE
  5
390A
330
1E
100
AcDbEntity
  8
7
100
AcDbLine
 10
12.65499981488609
 20
15.66264889229708
 30
0.0
 11
12.67862186213019
 21
15.67970925975115
 31
0.0
  0
LINE
  5
390B
330
1E
100
AcDbEntity
  8
7
100
AcDbLine
 10
12.67862186213019
 20
15.67970925975115
 30
0.0
 11
12.69568222958425
 21
15.70333130699524
 31
0.0
  0
LINE
  5
390C
330
1E
100
AcDbEntity
  8
7
100
AcDbLine
 10
12.69568222958425
 20
15.70333130699524
 30
0.0
 11
12.70093157341627
 21
15.73220269807136
 31
0.0
  0
LINE
  5
390D
330
1E
100
AcDbEntity
  8
7
100
AcDbLine
 10
12.70093157341627
 20
15.73220269807136
 30
0.0
 11
12.69568222958425
 21
15.76107408914747
 31
0.0
  0
LINE
  5
390E
330
1E
100
AcDbEntity
  8
7
100
AcDbLine
 10
12.69568222958425
 20
15.76107408914747
 30
0.0
 11
12.67862186213019
 21
15.78469613639157
 31
0.0
  0
LINE
  5
390F
330
1E
100
AcDbEntity
  8
7
100
AcDbLine
 10
12.67862186213019
 20
15.78469613639157
 30
0.0
 11
12.65499981488609
 21
15.80175650384564
 31
0.0
  0
LINE
  5
3910
330
1E
100
AcDbEntity
  8
7
100
AcDbLine
 10
12.67862186213019
 20
15.78469613639157
 30
0.0
 11
12.65499981488609
 21
15.80175650384564
 31
0.0
  0
LINE
  5
3911
330
1E
100
AcDbEntity
  8
7
100
AcDbLine
 10
12.65499981488609
 20
15.80175650384564
 30
0.0
 11
12.62612842380997
 21
15.80700584767766
 31
0.0
  0
LINE
  5
3912
330
1E
100
AcDbEntity
  8
7
100
AcDbLine
 10
12.62612842380997
 20
15.65739954846506
 30
0.0
 11
12.65499981488609
 21
15.66264889229708
 31
0.0
  0
LINE
  5
3913
330
1E
100
AcDbEntity
  8
7
100
AcDbLine
 10
12.65499981488609
 20
15.66264889229708
 30
0.0
 11
12.67862186213019
 21
15.67970925975115
 31
0.0
  0
LINE
  5
3914
330
1E
100
AcDbEntity
  8
7
100
AcDbLine
 10
12.67862186213019
 20
15.67970925975115
 30
0.0
 11
12.69568222958425
 21
15.70333130699524
 31
0.0
  0
LINE
  5
3915
330
1E
100
AcDbEntity
  8
7
100
AcDbLine
 10
12.69568222958425
 20
15.70333130699524
 30
0.0
 11
12.70093157341627
 21
15.73220269807136
 31
0.0
  0
LINE
  5
3916
330
1E
100
AcDbEntity
  8
7
100
AcDbLine
 10
12.70093157341627
 20
15.73220269807136
 30
0.0
 11
12.69568222958425
 21
15.76107408914747
 31
0.0
  0
LINE
  5
3917
330
1E
100
AcDbEntity
  8
7
100
AcDbLine
 10
12.69568222958425
 20
15.76107408914747
 30
0.0
 11
12.67862186213019
 21
15.78469613639157
 31
0.0
  0
LINE
  5
3918
330
1E
100
AcDbEntity
  8
7
100
AcDbLine
 10
12.43059036606719
 20
15.73220269807136
 30
0.0
 11
12.43583970989921
 21
15.70333130699524
 31
0.0
  0
LINE
  5
3919
330
1E
100
AcDbEntity
  8
7
100
AcDbLine
 10
12.43583970989921
 20
15.70333130699524
 30
0.0
 11
12.45290007735328
 21
15.67970925975115
 31
0.0
  0
LINE
  5
391A
330
1E
100
AcDbEntity
  8
7
100
AcDbLine
 10
12.45290007735328
 20
15.67970925975115
 30
0.0
 11
12.47652212459738
 21
15.66264889229708
 31
0.0
  0
LINE
  5
391B
330
1E
100
AcDbEntity
  8
7
100
AcDbLine
 10
12.47652212459738
 20
15.66264889229708
 30
0.0
 11
12.50539351567349
 21
15.65739954846506
 31
0.0
  0
LINE
  5
391C
330
1E
100
AcDbEntity
  8
7
100
AcDbLine
 10
12.50539351567349
 20
15.80700584767766
 30
0.0
 11
12.47652212459738
 21
15.80175650384564
 31
0.0
  0
LINE
  5
391D
330
1E
100
AcDbEntity
  8
7
100
AcDbLine
 10
12.47652212459738
 20
15.80175650384564
 30
0.0
 11
12.45290007735328
 21
15.78469613639157
 31
0.0
  0
LINE
  5
391E
330
1E
100
AcDbEntity
  8
7
100
AcDbLine
 10
12.45290007735328
 20
15.78469613639157
 30
0.0
 11
12.43583970989921
 21
15.76107408914747
 31
0.0
  0
LINE
  5
391F
330
1E
100
AcDbEntity
  8
7
100
AcDbLine
 10
12.43583970989921
 20
15.76107408914747
 30
0.0
 11
12.43059036606719
 21
15.73220269807136
 31
0.0
  0
LINE
  5
3920
330
1E
100
AcDbEntity
  8
7
100
AcDbLine
 10
12.41352999861312
 20
15.79913183192962
 30
0.0
 11
12.39646963115906
 21
15.7676357689375
 31
0.0
  0
LINE
  5
3921
330
1E
100
AcDbEntity
  8
7
100
AcDbLine
 10
12.39646963115906
 20
15.7676357689375
 30
0.0
 11
12.39122028732704
 21
15.73220269807136
 31
0.0
  0
LINE
  5
3922
330
1E
100
AcDbEntity
  8
7
100
AcDbLine
 10
12.39122028732704
 20
15.73220269807136
 30
0.0
 11
12.39646963115906
 21
15.69676962720522
 31
0.0
  0
LINE
  5
3923
330
1E
100
AcDbEntity
  8
7
100
AcDbLine
 10
12.39646963115906
 20
15.69676962720522
 30
0.0
 11
12.41352999861312
 21
15.66527356421309
 31
0.0
  0
LINE
  5
3924
330
1E
100
AcDbEntity
  8
7
100
AcDbLine
 10
12.41352999861312
 20
15.66527356421309
 30
0.0
 11
12.43846438181522
 21
15.64033918101099
 31
0.0
  0
LINE
  5
3925
330
1E
100
AcDbEntity
  8
7
100
AcDbLine
 10
12.43846438181522
 20
15.64033918101099
 30
0.0
 11
12.46996044480735
 21
15.62327881355692
 31
0.0
  0
LINE
  5
3926
330
1E
100
AcDbEntity
  8
7
100
AcDbLine
 10
12.46996044480735
 20
15.62327881355692
 30
0.0
 11
12.50539351567349
 21
15.6180294697249
 31
0.0
  0
LINE
  5
3927
330
1E
100
AcDbEntity
  8
7
100
AcDbLine
 10
12.50539351567349
 20
15.84637592641781
 30
0.0
 11
12.46996044480735
 21
15.84112658258579
 31
0.0
  0
LINE
  5
3928
330
1E
100
AcDbEntity
  8
7
100
AcDbLine
 10
12.46996044480735
 20
15.84112658258579
 30
0.0
 11
12.43846438181522
 21
15.82406621513173
 31
0.0
  0
LINE
  5
3929
330
1E
100
AcDbEntity
  8
7
100
AcDbLine
 10
12.43846438181522
 20
15.82406621513173
 30
0.0
 11
12.41352999861312
 21
15.79913183192962
 31
0.0
  0
LINE
  5
392A
330
1E
100
AcDbEntity
  8
7
100
AcDbLine
 10
12.73505230832441
 20
15.7676357689375
 30
0.0
 11
12.71799194087034
 21
15.79913183192962
 31
0.0
  0
LINE
  5
392B
330
1E
100
AcDbEntity
  8
7
100
AcDbLine
 10
12.71799194087034
 20
15.79913183192962
 30
0.0
 11
12.69305755766824
 21
15.82406621513173
 31
0.0
  0
LINE
  5
392C
330
1E
100
AcDbEntity
  8
7
100
AcDbLine
 10
12.69305755766824
 20
15.82406621513173
 30
0.0
 11
12.66156149467612
 21
15.84112658258579
 31
0.0
  0
LINE
  5
392D
330
1E
100
AcDbEntity
  8
7
100
AcDbLine
 10
12.66156149467612
 20
15.84112658258579
 30
0.0
 11
12.62612842380997
 21
15.84637592641781
 31
0.0
  0
LINE
  5
392E
330
1E
100
AcDbEntity
  8
7
100
AcDbLine
 10
12.62612842380997
 20
15.6180294697249
 30
0.0
 11
12.66156149467612
 21
15.62327881355692
 31
0.0
  0
LINE
  5
392F
330
1E
100
AcDbEntity
  8
7
100
AcDbLine
 10
12.66156149467612
 20
15.62327881355692
 30
0.0
 11
12.69305755766824
 21
15.64033918101099
 31
0.0
  0
LINE
  5
3930
330
1E
100
AcDbEntity
  8
7
100
AcDbLine
 10
12.69305755766824
 20
15.64033918101099
 30
0.0
 11
12.71799194087034
 21
15.66527356421309
 31
0.0
  0
LINE
  5
3931
330
1E
100
AcDbEntity
  8
7
100
AcDbLine
 10
12.71799194087034
 20
15.66527356421309
 30
0.0
 11
12.73505230832441
 21
15.69676962720522
 31
0.0
  0
LINE
  5
3932
330
1E
100
AcDbEntity
  8
7
100
AcDbLine
 10
12.73505230832441
 20
15.69676962720522
 30
0.0
 11
12.74030165215643
 21
15.73220269807136
 31
0.0
  0
LINE
  5
3933
330
1E
100
AcDbEntity
  8
7
100
AcDbLine
 10
12.74030165215643
 20
15.73220269807136
 30
0.0
 11
12.73505230832441
 21
15.7676357689375
 31
0.0
  0
LINE
  5
3934
330
1E
100
AcDbEntity
  8
7
100
AcDbLine
 10
13.57757199336378
 20
14.50123156946244
 30
0.0
 11
13.57757199336378
 21
14.14821319675902
 31
0.0
  0
LINE
  5
3935
330
1E
100
AcDbEntity
  8
7
100
AcDbLine
 10
13.57757199336378
 20
14.14821319675902
 30
0.0
 11
13.57757199336378
 21
13.79388248809761
 31
0.0
  0
LINE
  5
3936
330
1E
100
AcDbEntity
  8
7
100
AcDbLine
 10
13.09463236081785
 20
13.36474862982989
 30
0.0
 11
13.30591845005669
 21
13.36474862982989
 31
0.0
  0
LINE
  5
3937
330
1E
100
AcDbEntity
  8
7
100
AcDbLine
 10
13.30591845005669
 20
13.36474862982989
 30
0.0
 11
13.30591845005669
 21
13.33456490279577
 31
0.0
  0
LINE
  5
3938
330
1E
100
AcDbEntity
  8
7
100
AcDbLine
 10
12.46077409310131
 20
13.33456490279577
 30
0.0
 11
12.45946175714331
 21
13.36474862982989
 31
0.0
  0
LINE
  5
3939
330
1E
100
AcDbEntity
  8
7
100
AcDbLine
 10
12.45946175714331
 20
13.36474862982989
 30
0.0
 11
12.67074784638215
 21
13.36474862982989
 31
0.0
  0
LINE
  5
393A
330
1E
100
AcDbEntity
  8
7
100
AcDbLine
 10
12.67074784638215
 20
13.36474862982989
 30
0.0
 11
12.67074784638215
 21
13.33456490279577
 31
0.0
  0
LINE
  5
393B
330
1E
100
AcDbEntity
  8
7
100
AcDbLine
 10
11.82429115346877
 20
13.36474862982989
 30
0.0
 11
12.03688957866562
 21
13.36474862982989
 31
0.0
  0
LINE
  5
393C
330
1E
100
AcDbEntity
  8
7
100
AcDbLine
 10
12.03688957866562
 20
13.36474862982989
 30
0.0
 11
12.03557724270761
 21
13.33456490279577
 31
0.0
  0
LINE
  5
393D
330
1E
100
AcDbEntity
  8
7
100
AcDbLine
 10
13.57232264953176
 20
13.38837067707398
 30
0.0
 11
11.55919928995171
 21
13.38837067707398
 31
0.0
  0
LINE
  5
393E
330
1E
100
AcDbEntity
  8
7
100
AcDbLine
 10
11.55919928995171
 20
13.38837067707398
 30
0.0
 11
11.54870060228767
 21
12.88837067707398
 31
0.0
  0
LINE
  5
393F
330
1E
100
AcDbEntity
  8
7
100
AcDbLine
 10
13.52114154716955
 20
13.5917827505648
 30
0.0
 11
13.52245388312756
 21
13.60228143822884
 31
0.0
  0
LINE
  5
3940
330
1E
100
AcDbEntity
  8
7
100
AcDbLine
 10
13.52245388312756
 20
13.60228143822884
 30
0.0
 11
13.54607593037166
 21
13.60228143822884
 31
0.0
  0
LINE
  5
3941
330
1E
100
AcDbEntity
  8
7
100
AcDbLine
 10
13.54607593037166
 20
13.70595597891125
 30
0.0
 11
13.54607593037166
 21
13.7177670025333
 31
0.0
  0
LINE
  5
3942
330
1E
100
AcDbEntity
  8
7
100
AcDbLine
 10
13.54607593037166
 20
13.7177670025333
 30
0.0
 11
13.52245388312756
 21
13.7177670025333
 31
0.0
  0
LINE
  5
3943
330
1E
100
AcDbEntity
  8
7
100
AcDbLine
 10
11.60906805635591
 20
13.74795072956742
 30
0.0
 11
11.60906805635591
 21
13.75976175318947
 31
0.0
  0
LINE
  5
3944
330
1E
100
AcDbEntity
  8
7
100
AcDbLine
 10
11.60906805635591
 20
13.75976175318947
 30
0.0
 11
11.60906805635591
 21
13.7177670025333
 31
0.0
  0
LINE
  5
3945
330
1E
100
AcDbEntity
  8
7
100
AcDbLine
 10
11.60906805635591
 20
13.5917827505648
 30
0.0
 11
11.60906805635591
 21
13.60228143822884
 31
0.0
  0
LINE
  5
3946
330
1E
100
AcDbEntity
  8
7
100
AcDbLine
 10
11.60906805635591
 20
13.60228143822884
 30
0.0
 11
11.60906805635591
 21
13.56028668757267
 31
0.0
  0
LINE
  5
3947
330
1E
100
AcDbEntity
  8
7
100
AcDbLine
 10
13.23636464428242
 20
13.61540479780889
 30
0.0
 11
13.22455362066037
 21
13.60096910227084
 31
0.0
  0
LINE
  5
3948
330
1E
100
AcDbEntity
  8
7
100
AcDbLine
 10
13.22455362066037
 20
13.60096910227084
 30
0.0
 11
13.2061809172483
 21
13.59440742248081
 31
0.0
  0
LINE
  5
3949
330
1E
100
AcDbEntity
  8
7
100
AcDbLine
 10
13.2061809172483
 20
13.59440742248081
 30
0.0
 11
13.18518354192021
 21
13.59571975843881
 31
0.0
  0
LINE
  5
394A
330
1E
100
AcDbEntity
  8
7
100
AcDbLine
 10
13.18518354192021
 20
13.59571975843881
 30
0.0
 11
13.16943551042415
 21
13.60753078206086
 31
0.0
  0
LINE
  5
394B
330
1E
100
AcDbEntity
  8
7
100
AcDbLine
 10
13.16943551042415
 20
13.60753078206086
 30
0.0
 11
13.16418616659213
 21
13.62327881355692
 31
0.0
  0
LINE
  5
394C
330
1E
100
AcDbEntity
  8
7
100
AcDbLine
 10
13.16418616659213
 20
13.62327881355692
 30
0.0
 11
13.16943551042415
 21
13.64033918101099
 31
0.0
  0
LINE
  5
394D
330
1E
100
AcDbEntity
  8
7
100
AcDbLine
 10
13.16943551042415
 20
13.64033918101099
 30
0.0
 11
13.18518354192021
 21
13.65083786867503
 31
0.0
  0
LINE
  5
394E
330
1E
100
AcDbEntity
  8
7
100
AcDbLine
 10
13.18518354192021
 20
13.65083786867503
 30
0.0
 11
13.2061809172483
 21
13.65346254059104
 31
0.0
  0
LINE
  5
394F
330
1E
100
AcDbEntity
  8
7
100
AcDbLine
 10
13.2061809172483
 20
13.65346254059104
 30
0.0
 11
13.22455362066037
 21
13.64558852484301
 31
0.0
  0
LINE
  5
3950
330
1E
100
AcDbEntity
  8
7
100
AcDbLine
 10
13.22455362066037
 20
13.64558852484301
 30
0.0
 11
13.23636464428242
 21
13.63246516526296
 31
0.0
  0
LINE
  5
3951
330
1E
100
AcDbEntity
  8
7
100
AcDbLine
 10
13.23636464428242
 20
13.63246516526296
 30
0.0
 11
13.23636464428242
 21
13.61540479780889
 31
0.0
  0
LINE
  5
3952
330
1E
100
AcDbEntity
  8
7
100
AcDbLine
 10
11.93583970989921
 20
13.65346254059104
 30
0.0
 11
11.95421241331129
 21
13.64558852484301
 31
0.0
  0
LINE
  5
3953
330
1E
100
AcDbEntity
  8
7
100
AcDbLine
 10
11.95421241331129
 20
13.64558852484301
 30
0.0
 11
11.96602343693333
 21
13.63246516526296
 31
0.0
  0
LINE
  5
3954
330
1E
100
AcDbEntity
  8
7
100
AcDbLine
 10
11.96602343693333
 20
13.63246516526296
 30
0.0
 11
11.96602343693333
 21
13.61540479780889
 31
0.0
  0
LINE
  5
3955
330
1E
100
AcDbEntity
  8
7
100
AcDbLine
 10
11.96602343693333
 20
13.61540479780889
 30
0.0
 11
11.95421241331129
 21
13.60096910227084
 31
0.0
  0
LINE
  5
3956
330
1E
100
AcDbEntity
  8
7
100
AcDbLine
 10
11.95421241331129
 20
13.60096910227084
 30
0.0
 11
11.93583970989921
 21
13.59440742248081
 31
0.0
  0
LINE
  5
3957
330
1E
100
AcDbEntity
  8
7
100
AcDbLine
 10
11.93583970989921
 20
13.59440742248081
 30
0.0
 11
11.91484233457113
 21
13.59571975843881
 31
0.0
  0
LINE
  5
3958
330
1E
100
AcDbEntity
  8
7
100
AcDbLine
 10
11.91484233457113
 20
13.59571975843881
 30
0.0
 11
11.90040663903307
 21
13.60753078206086
 31
0.0
  0
LINE
  5
3959
330
1E
100
AcDbEntity
  8
7
100
AcDbLine
 10
11.90040663903307
 20
13.60753078206086
 30
0.0
 11
11.89384495924305
 21
13.62327881355692
 31
0.0
  0
LINE
  5
395A
330
1E
100
AcDbEntity
  8
7
100
AcDbLine
 10
11.89384495924305
 20
13.62327881355692
 30
0.0
 11
11.90040663903307
 21
13.64033918101099
 31
0.0
  0
LINE
  5
395B
330
1E
100
AcDbEntity
  8
7
100
AcDbLine
 10
11.90040663903307
 20
13.64033918101099
 30
0.0
 11
11.91484233457113
 21
13.65083786867503
 31
0.0
  0
LINE
  5
395C
330
1E
100
AcDbEntity
  8
7
100
AcDbLine
 10
11.91484233457113
 20
13.65083786867503
 30
0.0
 11
11.93583970989921
 21
13.65346254059104
 31
0.0
  0
LINE
  5
395D
330
1E
100
AcDbEntity
  8
7
100
AcDbLine
 10
13.54607593037166
 20
13.60228143822884
 30
0.0
 11
13.54607593037166
 21
13.67839692379314
 31
0.0
  0
LINE
  5
395E
330
1E
100
AcDbEntity
  8
7
100
AcDbLine
 10
13.54607593037166
 20
13.67839692379314
 30
0.0
 11
13.51982921121155
 21
13.67839692379314
 31
0.0
  0
LINE
  5
395F
330
1E
100
AcDbEntity
  8
7
100
AcDbLine
 10
13.51982921121155
 20
13.67839692379314
 30
0.0
 11
13.51982921121155
 21
13.72301634636532
 31
0.0
  0
LINE
  5
3960
330
1E
100
AcDbEntity
  8
7
100
AcDbLine
 10
13.51982921121155
 20
13.72301634636532
 30
0.0
 11
11.61169272827192
 21
13.72301634636532
 31
0.0
  0
LINE
  5
3961
330
1E
100
AcDbEntity
  8
7
100
AcDbLine
 10
11.61169272827192
 20
13.72301634636532
 30
0.0
 11
11.61169272827192
 21
13.67839692379314
 31
0.0
  0
LINE
  5
3962
330
1E
100
AcDbEntity
  8
7
100
AcDbLine
 10
11.61169272827192
 20
13.67839692379314
 30
0.0
 11
11.58544600911181
 21
13.67839692379314
 31
0.0
  0
LINE
  5
3963
330
1E
100
AcDbEntity
  8
7
100
AcDbLine
 10
11.58544600911181
 20
13.67839692379314
 30
0.0
 11
11.58544600911181
 21
13.60228143822884
 31
0.0
  0
LINE
  5
3964
330
1E
100
AcDbEntity
  8
7
100
AcDbLine
 10
12.53426490674961
 20
13.64033918101099
 30
0.0
 11
12.55001293824567
 21
13.65083786867503
 31
0.0
  0
LINE
  5
3965
330
1E
100
AcDbEntity
  8
7
100
AcDbLine
 10
12.55001293824567
 20
13.65083786867503
 30
0.0
 11
12.57101031357375
 21
13.65346254059104
 31
0.0
  0
LINE
  5
3966
330
1E
100
AcDbEntity
  8
7
100
AcDbLine
 10
12.57101031357375
 20
13.65346254059104
 30
0.0
 11
12.58938301698583
 21
13.64558852484301
 31
0.0
  0
LINE
  5
3967
330
1E
100
AcDbEntity
  8
7
100
AcDbLine
 10
12.58938301698583
 20
13.64558852484301
 30
0.0
 11
12.60119404060787
 21
13.63246516526296
 31
0.0
  0
LINE
  5
3968
330
1E
100
AcDbEntity
  8
7
100
AcDbLine
 10
12.60119404060787
 20
13.63246516526296
 30
0.0
 11
12.60119404060787
 21
13.61540479780889
 31
0.0
  0
LINE
  5
3969
330
1E
100
AcDbEntity
  8
7
100
AcDbLine
 10
12.60119404060787
 20
13.61540479780889
 30
0.0
 11
12.58938301698583
 21
13.60096910227084
 31
0.0
  0
LINE
  5
396A
330
1E
100
AcDbEntity
  8
7
100
AcDbLine
 10
12.58938301698583
 20
13.60096910227084
 30
0.0
 11
12.57101031357375
 21
13.59440742248081
 31
0.0
  0
LINE
  5
396B
330
1E
100
AcDbEntity
  8
7
100
AcDbLine
 10
12.57101031357375
 20
13.59440742248081
 30
0.0
 11
12.55001293824567
 21
13.59571975843881
 31
0.0
  0
LINE
  5
396C
330
1E
100
AcDbEntity
  8
7
100
AcDbLine
 10
12.55001293824567
 20
13.59571975843881
 30
0.0
 11
12.53426490674961
 21
13.60753078206086
 31
0.0
  0
LINE
  5
396D
330
1E
100
AcDbEntity
  8
7
100
AcDbLine
 10
12.53426490674961
 20
13.60753078206086
 30
0.0
 11
12.52901556291759
 21
13.62327881355692
 31
0.0
  0
LINE
  5
396E
330
1E
100
AcDbEntity
  8
7
100
AcDbLine
 10
11.55919928995171
 20
15.41592973219209
 30
0.0
 11
11.56182396186772
 21
15.67839692379314
 31
0.0
  0
LINE
  5
396F
330
1E
100
AcDbEntity
  8
7
100
AcDbLine
 10
11.56182396186772
 20
15.67839692379314
 30
0.0
 11
11.56576096974173
 21
15.93955177943619
 31
0.0
  0
LINE
  5
3970
330
1E
100
AcDbEntity
  8
7
100
AcDbLine
 10
11.56576096974173
 20
15.93955177943619
 30
0.0
 11
13.56576096974174
 21
15.93955177943619
 31
0.0
  0
LINE
  5
3971
330
1E
100
AcDbEntity
  8
7
100
AcDbLine
 10
13.56576096974174
 20
15.93955177943619
 30
0.0
 11
13.56838564165774
 21
15.67839692379314
 31
0.0
  0
LINE
  5
3972
330
1E
100
AcDbEntity
  8
7
100
AcDbLine
 10
13.56838564165774
 20
15.67839692379314
 30
0.0
 11
13.57101031357375
 21
15.41592973219209
 31
0.0
  0
LINE
  5
3973
330
1E
100
AcDbEntity
  8
7
100
AcDbLine
 10
12.24292632407244
 20
15.61015545397687
 30
0.0
 11
12.24292632407244
 21
15.66133655633908
 31
0.0
  0
LINE
  5
3974
330
1E
100
AcDbEntity
  8
7
100
AcDbLine
 10
12.24292632407244
 20
15.66133655633908
 30
0.0
 11
12.21930427682835
 21
15.66133655633908
 31
0.0
  0
LINE
  5
3975
330
1E
100
AcDbEntity
  8
7
100
AcDbLine
 10
12.21930427682835
 20
15.66133655633908
 30
0.0
 11
12.21930427682835
 21
15.80438117576165
 31
0.0
  0
LINE
  5
3976
330
1E
100
AcDbEntity
  8
7
100
AcDbLine
 10
12.21930427682835
 20
15.80438117576165
 30
0.0
 11
12.24292632407244
 21
15.80438117576165
 31
0.0
  0
LINE
  5
3977
330
1E
100
AcDbEntity
  8
7
100
AcDbLine
 10
12.24292632407244
 20
15.80438117576165
 30
0.0
 11
12.24292632407244
 21
15.85424994216585
 31
0.0
  0
LINE
  5
3978
330
1E
100
AcDbEntity
  8
7
100
AcDbLine
 10
12.24292632407244
 20
15.85424994216585
 30
0.0
 11
12.88728327945302
 21
15.85424994216585
 31
0.0
  0
LINE
  5
3979
330
1E
100
AcDbEntity
  8
7
100
AcDbLine
 10
12.88728327945302
 20
15.85424994216585
 30
0.0
 11
12.88728327945302
 21
15.80438117576165
 31
0.0
  0
LINE
  5
397A
330
1E
100
AcDbEntity
  8
7
100
AcDbLine
 10
12.88728327945302
 20
15.80438117576165
 30
0.0
 11
12.91221766265512
 21
15.80438117576165
 31
0.0
  0
LINE
  5
397B
330
1E
100
AcDbEntity
  8
7
100
AcDbLine
 10
12.91221766265512
 20
15.80438117576165
 30
0.0
 11
12.91221766265512
 21
15.66133655633908
 31
0.0
  0
LINE
  5
397C
330
1E
100
AcDbEntity
  8
7
100
AcDbLine
 10
12.91221766265512
 20
15.66133655633908
 30
0.0
 11
12.88728327945302
 21
15.66133655633908
 31
0.0
  0
LINE
  5
397D
330
1E
100
AcDbEntity
  8
7
100
AcDbLine
 10
12.88728327945302
 20
15.66133655633908
 30
0.0
 11
12.88728327945302
 21
15.61015545397687
 31
0.0
  0
LINE
  5
397E
330
1E
100
AcDbEntity
  8
7
100
AcDbLine
 10
12.88728327945302
 20
15.61015545397687
 30
0.0
 11
12.24292632407244
 21
15.61015545397687
 31
0.0
  0
LINE
  5
397F
330
1E
100
AcDbEntity
  8
7
100
AcDbLine
 10
13.58019666527979
 20
14.50123156946244
 30
0.0
 11
13.57232264953176
 21
14.89099534899
 31
0.0
  0
LINE
  5
3980
330
1E
100
AcDbEntity
  8
7
100
AcDbLine
 10
13.57232264953176
 20
14.89099534899
 30
0.0
 11
11.55919928995171
 21
14.89099534899
 31
0.0
  0
LINE
  5
3981
330
1E
100
AcDbEntity
  8
7
100
AcDbLine
 10
11.55919928995171
 20
14.89099534899
 30
0.0
 11
11.55132527420368
 21
14.50123156946244
 31
0.0
  0
LINE
  5
3982
330
1E
100
AcDbEntity
  8
7
100
AcDbLine
 10
12.46339876501733
 20
14.86343629387188
 30
0.0
 11
12.46077409310131
 21
14.83718957471178
 31
0.0
  0
LINE
  5
3983
330
1E
100
AcDbEntity
  8
7
100
AcDbLine
 10
12.46077409310131
 20
14.83718957471178
 30
0.0
 11
12.03557724270761
 21
14.83718957471178
 31
0.0
  0
LINE
  5
3984
330
1E
100
AcDbEntity
  8
7
100
AcDbLine
 10
12.03557724270761
 20
14.83718957471178
 30
0.0
 11
12.0329525707916
 21
14.86343629387188
 31
0.0
  0
LINE
  5
3985
330
1E
100
AcDbEntity
  8
7
100
AcDbLine
 10
13.09856936869186
 20
14.86343629387188
 30
0.0
 11
13.09594469677585
 21
14.83718957471178
 31
0.0
  0
LINE
  5
3986
330
1E
100
AcDbEntity
  8
7
100
AcDbLine
 10
13.09594469677585
 20
14.83718957471178
 30
0.0
 11
12.67074784638215
 21
14.83718957471178
 31
0.0
  0
LINE
  5
3987
330
1E
100
AcDbEntity
  8
7
100
AcDbLine
 10
13.51326753142152
 20
14.83718957471178
 30
0.0
 11
13.30591845005669
 21
14.83718957471178
 31
0.0
  0
LINE
  5
3988
330
1E
100
AcDbEntity
  8
7
100
AcDbLine
 10
13.30591845005669
 20
14.83718957471178
 30
0.0
 11
13.30329377814068
 21
14.86343629387188
 31
0.0
  0
LINE
  5
3989
330
1E
100
AcDbEntity
  8
7
100
AcDbLine
 10
13.52245388312756
 20
15.22039167444931
 30
0.0
 11
13.54607593037166
 21
15.22039167444931
 31
0.0
  0
LINE
  5
398A
330
1E
100
AcDbEntity
  8
7
100
AcDbLine
 10
13.54607593037166
 20
15.22039167444931
 30
0.0
 11
13.54607593037166
 21
15.10359377418684
 31
0.0
  0
LINE
  5
398B
330
1E
100
AcDbEntity
  8
7
100
AcDbLine
 10
11.58413367315381
 20
15.10359377418684
 30
0.0
 11
11.58413367315381
 21
15.22039167444931
 31
0.0
  0
LINE
  5
398C
330
1E
100
AcDbEntity
  8
7
100
AcDbLine
 10
11.58413367315381
 20
15.22039167444931
 30
0.0
 11
11.60906805635591
 21
15.22039167444931
 31
0.0
  0
LINE
  5
398D
330
1E
100
AcDbEntity
  8
7
100
AcDbLine
 10
11.60906805635591
 20
15.22039167444931
 30
0.0
 11
11.60906805635591
 21
15.26238642510548
 31
0.0
  0
LINE
  5
398E
330
1E
100
AcDbEntity
  8
7
100
AcDbLine
 10
11.60906805635591
 20
15.26238642510548
 30
0.0
 11
13.52245388312756
 21
15.26238642510548
 31
0.0
  0
LINE
  5
398F
330
1E
100
AcDbEntity
  8
7
100
AcDbLine
 10
13.52245388312756
 20
15.26238642510548
 30
0.0
 11
13.52245388312756
 21
15.22039167444931
 31
0.0
  0
LINE
  5
3990
330
1E
100
AcDbEntity
  8
7
100
AcDbLine
 10
11.55919928995171
 20
14.98679587392437
 30
0.0
 11
13.57232264953176
 21
14.98679587392437
 31
0.0
  0
LINE
  5
3991
330
1E
100
AcDbEntity
  8
7
100
AcDbLine
 10
13.57232264953176
 20
14.98679587392437
 30
0.0
 11
13.5828213371958
 21
15.41592973219209
 31
0.0
  0
LINE
  5
3992
330
1E
100
AcDbEntity
  8
7
100
AcDbLine
 10
11.60906805635591
 20
15.06159902353068
 30
0.0
 11
11.60906805635591
 21
15.10359377418684
 31
0.0
  0
LINE
  5
3993
330
1E
100
AcDbEntity
  8
7
100
AcDbLine
 10
11.60906805635591
 20
15.10359377418684
 30
0.0
 11
11.58413367315381
 21
15.10359377418684
 31
0.0
  0
LINE
  5
3994
330
1E
100
AcDbEntity
  8
7
100
AcDbLine
 10
13.16418616659213
 20
15.12590348547293
 30
0.0
 11
13.16943551042415
 21
15.141651516969
 31
0.0
  0
LINE
  5
3995
330
1E
100
AcDbEntity
  8
7
100
AcDbLine
 10
13.16943551042415
 20
15.141651516969
 30
0.0
 11
13.18518354192021
 21
15.15215020463304
 31
0.0
  0
LINE
  5
3996
330
1E
100
AcDbEntity
  8
7
100
AcDbLine
 10
13.18518354192021
 20
15.15215020463304
 30
0.0
 11
13.2061809172483
 21
15.15477487654905
 31
0.0
  0
LINE
  5
3997
330
1E
100
AcDbEntity
  8
7
100
AcDbLine
 10
13.2061809172483
 20
15.15477487654905
 30
0.0
 11
13.22455362066037
 21
15.14821319675902
 31
0.0
  0
LINE
  5
3998
330
1E
100
AcDbEntity
  8
7
100
AcDbLine
 10
13.22455362066037
 20
15.14821319675902
 30
0.0
 11
13.23636464428242
 21
15.13377750122096
 31
0.0
  0
LINE
  5
3999
330
1E
100
AcDbEntity
  8
7
100
AcDbLine
 10
13.23636464428242
 20
15.13377750122096
 30
0.0
 11
13.23636464428242
 21
15.1167171337669
 31
0.0
  0
LINE
  5
399A
330
1E
100
AcDbEntity
  8
7
100
AcDbLine
 10
13.23636464428242
 20
15.1167171337669
 30
0.0
 11
13.22455362066037
 21
15.10228143822884
 31
0.0
  0
LINE
  5
399B
330
1E
100
AcDbEntity
  8
7
100
AcDbLine
 10
13.22455362066037
 20
15.10228143822884
 30
0.0
 11
13.2061809172483
 21
15.09571975843881
 31
0.0
  0
LINE
  5
399C
330
1E
100
AcDbEntity
  8
7
100
AcDbLine
 10
13.2061809172483
 20
15.09571975843881
 30
0.0
 11
13.18518354192021
 21
15.09834443035482
 31
0.0
  0
LINE
  5
399D
330
1E
100
AcDbEntity
  8
7
100
AcDbLine
 10
13.18518354192021
 20
15.09834443035482
 30
0.0
 11
13.16943551042415
 21
15.10884311801886
 31
0.0
  0
LINE
  5
399E
330
1E
100
AcDbEntity
  8
7
100
AcDbLine
 10
13.16943551042415
 20
15.10884311801886
 30
0.0
 11
13.16418616659213
 21
15.12590348547293
 31
0.0
  0
LINE
  5
399F
330
1E
100
AcDbEntity
  8
7
100
AcDbLine
 10
11.89384495924305
 20
15.12590348547293
 30
0.0
 11
11.90040663903307
 21
15.141651516969
 31
0.0
  0
LINE
  5
39A0
330
1E
100
AcDbEntity
  8
7
100
AcDbLine
 10
11.90040663903307
 20
15.141651516969
 30
0.0
 11
11.91484233457113
 21
15.15215020463304
 31
0.0
  0
LINE
  5
39A1
330
1E
100
AcDbEntity
  8
7
100
AcDbLine
 10
11.91484233457113
 20
15.15215020463304
 30
0.0
 11
11.93583970989921
 21
15.15477487654905
 31
0.0
  0
LINE
  5
39A2
330
1E
100
AcDbEntity
  8
7
100
AcDbLine
 10
11.93583970989921
 20
15.15477487654905
 30
0.0
 11
11.95421241331129
 21
15.14821319675902
 31
0.0
  0
LINE
  5
39A3
330
1E
100
AcDbEntity
  8
7
100
AcDbLine
 10
11.95421241331129
 20
15.14821319675902
 30
0.0
 11
11.96602343693333
 21
15.13377750122096
 31
0.0
  0
LINE
  5
39A4
330
1E
100
AcDbEntity
  8
7
100
AcDbLine
 10
11.96602343693333
 20
15.13377750122096
 30
0.0
 11
11.96602343693333
 21
15.1167171337669
 31
0.0
  0
LINE
  5
39A5
330
1E
100
AcDbEntity
  8
7
100
AcDbLine
 10
11.96602343693333
 20
15.1167171337669
 30
0.0
 11
11.95421241331129
 21
15.10228143822884
 31
0.0
  0
LINE
  5
39A6
330
1E
100
AcDbEntity
  8
7
100
AcDbLine
 10
11.95421241331129
 20
15.10228143822884
 30
0.0
 11
11.93583970989921
 21
15.09571975843881
 31
0.0
  0
LINE
  5
39A7
330
1E
100
AcDbEntity
  8
7
100
AcDbLine
 10
11.93583970989921
 20
15.09571975843881
 30
0.0
 11
11.91484233457113
 21
15.09834443035482
 31
0.0
  0
LINE
  5
39A8
330
1E
100
AcDbEntity
  8
7
100
AcDbLine
 10
11.91484233457113
 20
15.09834443035482
 30
0.0
 11
11.90040663903307
 21
15.10884311801886
 31
0.0
  0
LINE
  5
39A9
330
1E
100
AcDbEntity
  8
7
100
AcDbLine
 10
12.58938301698583
 20
15.10228143822884
 30
0.0
 11
12.57101031357375
 21
15.09571975843881
 31
0.0
  0
LINE
  5
39AA
330
1E
100
AcDbEntity
  8
7
100
AcDbLine
 10
12.57101031357375
 20
15.09571975843881
 30
0.0
 11
12.55001293824567
 21
15.09834443035482
 31
0.0
  0
LINE
  5
39AB
330
1E
100
AcDbEntity
  8
7
100
AcDbLine
 10
12.55001293824567
 20
15.09834443035482
 30
0.0
 11
12.53426490674961
 21
15.10884311801886
 31
0.0
  0
LINE
  5
39AC
330
1E
100
AcDbEntity
  8
7
100
AcDbLine
 10
12.53426490674961
 20
15.10884311801886
 30
0.0
 11
12.52901556291759
 21
15.12590348547293
 31
0.0
  0
LINE
  5
39AD
330
1E
100
AcDbEntity
  8
7
100
AcDbLine
 10
12.52901556291759
 20
15.12590348547293
 30
0.0
 11
12.53426490674961
 21
15.141651516969
 31
0.0
  0
LINE
  5
39AE
330
1E
100
AcDbEntity
  8
7
100
AcDbLine
 10
12.53426490674961
 20
15.141651516969
 30
0.0
 11
12.55001293824567
 21
15.15215020463304
 31
0.0
  0
LINE
  5
39AF
330
1E
100
AcDbEntity
  8
7
100
AcDbLine
 10
12.55001293824567
 20
15.15215020463304
 30
0.0
 11
12.57101031357375
 21
15.15477487654905
 31
0.0
  0
LINE
  5
39B0
330
1E
100
AcDbEntity
  8
7
100
AcDbLine
 10
12.57101031357375
 20
15.15477487654905
 30
0.0
 11
12.58938301698583
 21
15.14821319675902
 31
0.0
  0
LINE
  5
39B1
330
1E
100
AcDbEntity
  8
7
100
AcDbLine
 10
12.58938301698583
 20
15.14821319675902
 30
0.0
 11
12.60119404060787
 21
15.13377750122096
 31
0.0
  0
LINE
  5
39B2
330
1E
100
AcDbEntity
  8
7
100
AcDbLine
 10
12.60119404060787
 20
15.13377750122096
 30
0.0
 11
12.60119404060787
 21
15.1167171337669
 31
0.0
  0
LINE
  5
39B3
330
1E
100
AcDbEntity
  8
7
100
AcDbLine
 10
12.60119404060787
 20
15.1167171337669
 30
0.0
 11
12.58938301698583
 21
15.10228143822884
 31
0.0
  0
LINE
  5
39B4
330
1E
100
AcDbEntity
  8
7
100
AcDbLine
 10
13.56576096974174
 20
12.24532605765142
 30
0.0
 11
13.56576096974174
 21
12.71645466657529
 31
0.0
  0
LINE
  5
39B5
330
1E
100
AcDbEntity
  8
7
100
AcDbLine
 10
13.56576096974174
 20
12.71645466657529
 30
0.0
 11
13.44502606160525
 21
12.71645466657529
 31
0.0
  0
ENDSEC
  0
SECTION
  2
OBJECTS
  0
DICTIONARY
  5
C
330
0
100
AcDbDictionary
  3
ACAD_GROUP
350
D
  3
ACAD_MLINESTYLE
350
16
  3
ACAD_PLOTSETTINGS
350
18
  3
ACAD_LAYOUT
350
19
1001
ACAD
1000
TREAT_AS_HARD
1070
     0
  0
DICTIONARY
  5
4C5F
330
1E
100
AcDbDictionary
  3
ACAD_LAYOUTSELFREF
350
4C60
  0
DICTIONARY
  5
4C5D
330
1A
100
AcDbDictionary
  3
ACAD_LAYOUTSELFREF
350
4C5E
  0
DICTIONARY
  5
D
102
{ACAD_REACTORS
330
C
102
}
330
C
100
AcDbDictionary
1001
ACAD
1000
TREAT_AS_HARD
1070
     0
  0
DICTIONARY
  5
16
102
{ACAD_REACTORS
330
C
102
}
330
C
100
AcDbDictionary
  3
STANDARD
350
17
1001
ACAD
1000
TREAT_AS_HARD
1070
     0
  0
DICTIONARY
  5
18
102
{ACAD_REACTORS
330
C
102
}
330
C
100
AcDbDictionary
1001
ACAD
1000
TREAT_AS_HARD
1070
     0
  0
DICTIONARY
  5
19
102
{ACAD_REACTORS
330
C
102
}
330
C
100
AcDbDictionary
1001
ACAD
1000
TREAT_AS_HARD
1070
     0
  0
XRECORD
  5
4C60
102
{ACAD_REACTORS
330
4C5F
102
}
330
4C5F
100
AcDbXrecord
340
1E
  0
XRECORD
  5
4C5E
102
{ACAD_REACTORS
330
4C5D
102
}
330
4C5D
100
AcDbXrecord
340
1A
  0
MLINESTYLE
  5
17
102
{ACAD_REACTORS
330
16
102
}
330
16
100
AcDbMlineStyle
  2
STANDARD
 70
     0
  3

 62
   256
 51
90.0
 52
90.0
 71
     2
 49
0.5
 62
   256
  6
BYLAYER
 49
-0.5
 62
   256
  6
BYLAYER
  0
ENDSEC
  0
EOF
