  0
SECTION
  2
HEADER
  9
$ACADVER
  1
AC1012
  9
$DWGCODEPAGE
  3
ANSI_1252
  9
$INSBASE
 10
0.0
 20
0.0
 30
0.0
  9
$EXTMIN
 10
1.780334502668509
 20
3.574401880584659
 30
-0.0000000000112498
  9
$EXTMAX
 10
6.064086935091864
 20
7.677795429571759
 30
0.0000000000002956
  9
$LIMMIN
 10
0.0
 20
0.0
  9
$LIMMAX
 10
12.0
 20
9.0
  9
$ORTHOMODE
 70
     0
  9
$REGENMODE
 70
     1
  9
$FILLMODE
 70
     1
  9
$QTEXTMODE
 70
     0
  9
$MIRRTEXT
 70
     1
  9
$DRAGMODE
 70
     2
  9
$LTSCALE
 40
1.0
  9
$OSMODE
 70
   547
  9
$ATTMODE
 70
     1
  9
$TEXTSIZE
 40
0.2
  9
$TRACEWID
 40
0.05
  9
$TEXTSTYLE
  7
STANDARD
  9
$CLAYER
  8
0
  9
$CELTYPE
  6
BYLAYER
  9
$CECOLOR
 62
   256
  9
$CELTSCALE
 40
1.0
  9
$DELOBJ
 70
     1
  9
$DISPSILH
 70
     0
  9
$DIMSCALE
 40
1.0
  9
$DIMASZ
 40
0.18
  9
$DIMEXO
 40
0.0625
  9
$DIMDLI
 40
0.38
  9
$DIMRND
 40
0.0
  9
$DIMDLE
 40
0.0
  9
$DIMEXE
 40
0.18
  9
$DIMTP
 40
0.0
  9
$DIMTM
 40
0.0
  9
$DIMTXT
 40
0.18
  9
$DIMCEN
 40
0.09
  9
$DIMTSZ
 40
0.0
  9
$DIMTOL
 70
     0
  9
$DIMLIM
 70
     0
  9
$DIMTIH
 70
     1
  9
$DIMTOH
 70
     1
  9
$DIMSE1
 70
     0
  9
$DIMSE2
 70
     0
  9
$DIMTAD
 70
     0
  9
$DIMZIN
 70
     0
  9
$DIMBLK
  1

  9
$DIMASO
 70
     1
  9
$DIMSHO
 70
     1
  9
$DIMPOST
  1

  9
$DIMAPOST
  1

  9
$DIMALT
 70
     0
  9
$DIMALTD
 70
     2
  9
$DIMALTF
 40
25.4
  9
$DIMLFAC
 40
1.0
  9
$DIMTOFL
 70
     0
  9
$DIMTVP
 40
0.0
  9
$DIMTIX
 70
     0
  9
$DIMSOXD
 70
     0
  9
$DIMSAH
 70
     0
  9
$DIMBLK1
  1

  9
$DIMBLK2
  1

  9
$DIMSTYLE
  2
STANDARD
  9
$DIMCLRD
 70
     0
  9
$DIMCLRE
 70
     0
  9
$DIMCLRT
 70
     0
  9
$DIMTFAC
 40
1.0
  9
$DIMGAP
 40
0.09
  9
$DIMJUST
 70
     0
  9
$DIMSD1
 70
     0
  9
$DIMSD2
 70
     0
  9
$DIMTOLJ
 70
     1
  9
$DIMTZIN
 70
     0
  9
$DIMALTZ
 70
     0
  9
$DIMALTTZ
 70
     0
  9
$DIMFIT
 70
     5
  9
$DIMUPT
 70
     0
  9
$DIMUNIT
 70
     2
  9
$DIMDEC
 70
     4
  9
$DIMTDEC
 70
     4
  9
$DIMALTU
 70
     2
  9
$DIMALTTD
 70
     2
  9
$DIMTXSTY
  7
STANDARD
  9
$DIMAUNIT
 70
     0
  9
$LUNITS
 70
     2
  9
$LUPREC
 70
     4
  9
$SKETCHINC
 40
0.1
  9
$FILLETRAD
 40
0.0
  9
$AUNITS
 70
     0
  9
$AUPREC
 70
     0
  9
$MENU
  1
acad
  9
$ELEVATION
 40
0.0
  9
$PELEVATION
 40
0.0
  9
$THICKNESS
 40
0.0
  9
$LIMCHECK
 70
     0
  9
$BLIPMODE
 70
     0
  9
$CHAMFERA
 40
0.0
  9
$CHAMFERB
 40
0.0
  9
$CHAMFERC
 40
0.0
  9
$CHAMFERD
 40
0.0
  9
$SKPOLY
 70
     0
  9
$TDCREATE
 40
2452221.535439814
  9
$TDUPDATE
 40
2453944.462845972
  9
$TDINDWG
 40
0.0021909375
  9
$TDUSRTIMER
 40
0.0021909375
  9
$USRTIMER
 70
     1
  9
$ANGBASE
 50
0.0
  9
$ANGDIR
 70
     0
  9
$PDMODE
 70
     0
  9
$PDSIZE
 40
0.0
  9
$PLINEWID
 40
0.0
  9
$COORDS
 70
     1
  9
$SPLFRAME
 70
     0
  9
$SPLINETYPE
 70
     6
  9
$SPLINESEGS
 70
     8
  9
$ATTDIA
 70
     0
  9
$ATTREQ
 70
     1
  9
$HANDLING
 70
  4097
  9
$HANDSEED
  5
325D
  9
$SURFTAB1
 70
     6
  9
$SURFTAB2
 70
     6
  9
$SURFTYPE
 70
     6
  9
$SURFU
 70
     6
  9
$SURFV
 70
     6
  9
$UCSNAME
  2

  9
$UCSORG
 10
0.0
 20
0.0
 30
0.0
  9
$UCSXDIR
 10
1.0
 20
0.0
 30
0.0
  9
$UCSYDIR
 10
0.0
 20
1.0
 30
0.0
  9
$PUCSNAME
  2

  9
$PUCSORG
 10
0.0
 20
0.0
 30
0.0
  9
$PUCSXDIR
 10
1.0
 20
0.0
 30
0.0
  9
$PUCSYDIR
 10
0.0
 20
1.0
 30
0.0
  9
$USERI1
 70
     0
  9
$USERI2
 70
     0
  9
$USERI3
 70
     0
  9
$USERI4
 70
     0
  9
$USERI5
 70
     0
  9
$USERR1
 40
0.0
  9
$USERR2
 40
0.0
  9
$USERR3
 40
0.0
  9
$USERR4
 40
0.0
  9
$USERR5
 40
0.0
  9
$WORLDVIEW
 70
     1
  9
$SHADEDGE
 70
     3
  9
$SHADEDIF
 70
    70
  9
$TILEMODE
 70
     1
  9
$MAXACTVP
 70
    16
  9
$PINSBASE
 10
0.0
 20
0.0
 30
0.0
  9
$PLIMCHECK
 70
     0
  9
$PEXTMIN
 10
1.000000000000000E+20
 20
1.000000000000000E+20
 30
1.000000000000000E+20
  9
$PEXTMAX
 10
-1.000000000000000E+20
 20
-1.000000000000000E+20
 30
-1.000000000000000E+20
  9
$PLIMMIN
 10
0.0
 20
0.0
  9
$PLIMMAX
 10
12.0
 20
9.0
  9
$UNITMODE
 70
     0
  9
$VISRETAIN
 70
     0
  9
$PLINEGEN
 70
     0
  9
$PSLTSCALE
 70
     1
  9
$TREEDEPTH
 70
  3020
  9
$PICKSTYLE
 70
     1
  9
$CMLSTYLE
  2
STANDARD
  9
$CMLJUST
 70
     0
  9
$CMLSCALE
 40
1.0
  9
$SAVEIMAGES
 70
     1
  0
ENDSEC
  0
SECTION
  2
CLASSES
  0
CLASS
  1
ACDBDICTIONARYWDFLT
  2
AcDbDictionaryWithDefault
  3
AutoCAD 2000
 90
    32768
280
     0
281
     0
  0
CLASS
  1
ACDBPLACEHOLDER
  2
AcDbPlaceHolder
  3
AutoCAD 2000
 90
    32768
280
     0
281
     0
  0
CLASS
  1
LAYOUT
  2
AcDbLayout
  3
AutoCAD 2000
 90
    32768
280
     0
281
     0
  0
CLASS
  1
LONG_TRANSACTION
  2
AcDbLongTransaction
  3
AutoCAD 2000
 90
    32768
280
     0
281
     0
  0
CLASS
  1
LWPOLYLINE
  2
AcDbPolyline
  3
AutoCAD 2000
 90
    32768
280
     0
281
     1
  0
CLASS
  1
HATCH
  2
AcDbHatch
  3
AutoCAD 2000
 90
    32768
280
     0
281
     1
  0
CLASS
  1
XRECORD
  2
AcDbXrecord
  3
AutoCAD 2000
 90
    32768
280
     0
281
     0
  0
CLASS
  1
LONG_TRANSACTION
  2
AcDbLongTransaction
  3
AutoCAD 2000
 90
    32768
280
     0
281
     0
  0
CLASS
  1
LWPOLYLINE
  2
AcDbPolyline
  3
AutoCAD 2000
 90
    32768
280
     0
281
     1
  0
CLASS
  1
HATCH
  2
AcDbHatch
  3
AutoCAD 2000
 90
    32768
280
     0
281
     1
  0
CLASS
  1
XRECORD
  2
AcDbXrecord
  3
AutoCAD 2000
 90
    32768
280
     0
281
     0
  0
CLASS
  1
LONG_TRANSACTION
  2
AcDbLongTransaction
  3
AutoCAD 2000
 90
    32768
280
     0
281
     0
  0
CLASS
  1
LWPOLYLINE
  2
AcDbPolyline
  3
AutoCAD 2000
 90
    32768
280
     0
281
     1
  0
CLASS
  1
HATCH
  2
AcDbHatch
  3
AutoCAD 2000
 90
    32768
280
     0
281
     1
  0
CLASS
  1
XRECORD
  2
AcDbXrecord
  3
AutoCAD 2000
 90
    32768
280
     0
281
     0
  0
ENDSEC
  0
SECTION
  2
TABLES
  0
TABLE
  2
VPORT
  5
8
330
0
100
AcDbSymbolTable
 70
     3
  0
VPORT
  5
325A
330
8
100
AcDbSymbolTableRecord
100
AcDbViewportTableRecord
  2
*ACTIVE
 70
     0
 10
0.0
 20
0.0
 11
1.0
 21
1.0
 12
3.922210718880186
 22
5.626098655078209
 13
0.0
 23
0.0
 14
1.0
 24
1.0
 15
0.0
 25
0.0
 16
0.0
 26
0.0
 36
1.0
 17
0.0
 27
0.0
 37
0.0
 40
4.146063152616081
 41
1.647569444444444
 42
50.0
 43
0.0
 44
0.0
 50
0.0
 51
0.0
 71
     0
 72
   100
 73
     1
 74
     1
 75
     0
 76
     0
 77
     0
 78
     0
  0
ENDTAB
  0
TABLE
  2
LTYPE
  5
5
330
0
100
AcDbSymbolTable
 70
    25
  0
LTYPE
  5
13
330
5
100
AcDbSymbolTableRecord
100
AcDbLinetypeTableRecord
  2
BYBLOCK
 70
     0
  3

 72
    65
 73
     0
 40
0.0
  0
LTYPE
  5
14
330
5
100
AcDbSymbolTableRecord
100
AcDbLinetypeTableRecord
  2
BYLAYER
 70
     0
  3

 72
    65
 73
     0
 40
0.0
  0
LTYPE
  5
15
330
5
100
AcDbSymbolTableRecord
100
AcDbLinetypeTableRecord
  2
CONTINUOUS
 70
     0
  3
Solid line
 72
    65
 73
     0
 40
0.0
  0
LTYPE
  5
22
330
5
100
AcDbSymbolTableRecord
100
AcDbLinetypeTableRecord
  2
BORDER
 70
     0
  3
__ __ . __ __ . __ __ . __ __ . __ __ . __ __ .
 72
    65
 73
     6
 40
1.75
 49
0.5
 74
     0
 49
-0.25
 74
     0
 49
0.5
 74
     0
 49
-0.25
 74
     0
 49
0.5
 74
     0
 49
-0.25
 74
     0
  0
LTYPE
  5
23
330
5
100
AcDbSymbolTableRecord
100
AcDbLinetypeTableRecord
  2
BORDER2
 70
     0
  3
__.__.__.__.__.__.__.__.__.__.__.__.__.__.__.__
 72
    65
 73
     6
 40
0.875
 49
0.25
 74
     0
 49
-0.125
 74
     0
 49
0.25
 74
     0
 49
-0.125
 74
     0
 49
0.25
 74
     0
 49
-0.125
 74
     0
  0
LTYPE
  5
24
330
5
100
AcDbSymbolTableRecord
100
AcDbLinetypeTableRecord
  2
BORDERX2
 70
     0
  3
____  ____  .  ____  ____  .  
 72
    65
 73
     6
 40
3.5
 49
1.0
 74
     0
 49
-0.5
 74
     0
 49
1.0
 74
     0
 49
-0.5
 74
     0
 49
1.0
 74
     0
 49
-0.5
 74
     0
  0
LTYPE
  5
25
330
5
100
AcDbSymbolTableRecord
100
AcDbLinetypeTableRecord
  2
CENTER
 70
     0
  3
____ _ ____ _ ____ _ ____ _ ____ _ ____ _ ____
 72
    65
 73
     4
 40
2.0
 49
1.25
 74
     0
 49
-0.25
 74
     0
 49
0.25
 74
     0
 49
-0.25
 74
     0
  0
LTYPE
  5
26
330
5
100
AcDbSymbolTableRecord
100
AcDbLinetypeTableRecord
  2
CENTER2
 70
     0
  3
____ _ ____ _ ____ _ ____ _ ____ _ ____ _ ____
 72
    65
 73
     4
 40
1.125
 49
0.75
 74
     0
 49
-0.125
 74
     0
 49
0.125
 74
     0
 49
-0.125
 74
     0
  0
LTYPE
  5
27
330
5
100
AcDbSymbolTableRecord
100
AcDbLinetypeTableRecord
  2
CENTERX2
 70
     0
  3
________  __  ________  __  ________  __  
 72
    65
 73
     4
 40
4.0
 49
2.5
 74
     0
 49
-0.5
 74
     0
 49
0.5
 74
     0
 49
-0.5
 74
     0
  0
LTYPE
  5
28
330
5
100
AcDbSymbolTableRecord
100
AcDbLinetypeTableRecord
  2
DASHDOT
 70
     0
  3
__ . __ . __ . __ . __ . __ . __ . 
 72
    65
 73
     4
 40
1.0
 49
0.5
 74
     0
 49
-0.25
 74
     0
 49
0.0
 74
     0
 49
-0.25
 74
     0
  0
LTYPE
  5
29
330
5
100
AcDbSymbolTableRecord
100
AcDbLinetypeTableRecord
  2
DASHDOT2
 70
     0
  3
_._._._._._._._._._._._._._._._.
 72
    65
 73
     4
 40
0.5
 49
0.25
 74
     0
 49
-0.125
 74
     0
 49
0.0
 74
     0
 49
-0.125
 74
     0
  0
LTYPE
  5
2A
330
5
100
AcDbSymbolTableRecord
100
AcDbLinetypeTableRecord
  2
DASHDOTX2
 70
     0
  3
____  .  ____  .  ____  .  ____  .  
 72
    65
 73
     4
 40
2.0
 49
1.0
 74
     0
 49
-0.5
 74
     0
 49
0.0
 74
     0
 49
-0.5
 74
     0
  0
LTYPE
  5
2B
330
5
100
AcDbSymbolTableRecord
100
AcDbLinetypeTableRecord
  2
DASHED
 70
     0
  3
__ __ __ __ __ __ __ __ __ __ __ __ 
 72
    65
 73
     2
 40
0.75
 49
0.5
 74
     0
 49
-0.25
 74
     0
  0
LTYPE
  5
2C
330
5
100
AcDbSymbolTableRecord
100
AcDbLinetypeTableRecord
  2
DASHED2
 70
     0
  3
_ _ _ _ _ _ _ _ _ _ _ _ _ _ _ _ _ _ 
 72
    65
 73
     2
 40
0.375
 49
0.25
 74
     0
 49
-0.125
 74
     0
  0
LTYPE
  5
2D
330
5
100
AcDbSymbolTableRecord
100
AcDbLinetypeTableRecord
  2
DASHEDX2
 70
     0
  3
____  ____  ____  ____  ____  ____  
 72
    65
 73
     2
 40
1.5
 49
1.0
 74
     0
 49
-0.5
 74
     0
  0
LTYPE
  5
2E
330
5
100
AcDbSymbolTableRecord
100
AcDbLinetypeTableRecord
  2
DIVIDE
 70
     0
  3
____ . . ____ . . ____ . . ____ . . 
 72
    65
 73
     6
 40
1.25
 49
0.5
 74
     0
 49
-0.25
 74
     0
 49
0.0
 74
     0
 49
-0.25
 74
     0
 49
0.0
 74
     0
 49
-0.25
 74
     0
  0
LTYPE
  5
2F
330
5
100
AcDbSymbolTableRecord
100
AcDbLinetypeTableRecord
  2
DIVIDE2
 70
     0
  3
__..__..__..__..__..__..__..__..__..
 72
    65
 73
     6
 40
0.625
 49
0.25
 74
     0
 49
-0.125
 74
     0
 49
0.0
 74
     0
 49
-0.125
 74
     0
 49
0.0
 74
     0
 49
-0.125
 74
     0
  0
LTYPE
  5
30
330
5
100
AcDbSymbolTableRecord
100
AcDbLinetypeTableRecord
  2
DIVIDEX2
 70
     0
  3
________  .  .  ________  .  .  ________  .  . 
 72
    65
 73
     6
 40
2.5
 49
1.0
 74
     0
 49
-0.5
 74
     0
 49
0.0
 74
     0
 49
-0.5
 74
     0
 49
0.0
 74
     0
 49
-0.5
 74
     0
  0
LTYPE
  5
31
330
5
100
AcDbSymbolTableRecord
100
AcDbLinetypeTableRecord
  2
DOT
 70
     0
  3
. . . . . . . . . . . . . . . . . . 
 72
    65
 73
     2
 40
0.25
 49
0.0
 74
     0
 49
-0.25
 74
     0
  0
LTYPE
  5
32
330
5
100
AcDbSymbolTableRecord
100
AcDbLinetypeTableRecord
  2
DOT2
 70
     0
  3
....................................
 72
    65
 73
     2
 40
0.125
 49
0.0
 74
     0
 49
-0.125
 74
     0
  0
LTYPE
  5
33
330
5
100
AcDbSymbolTableRecord
100
AcDbLinetypeTableRecord
  2
DOTX2
 70
     0
  3
.  .  .  .  .  .  .  .  .  .  .  .  .  
 72
    65
 73
     2
 40
0.5
 49
0.0
 74
     0
 49
-0.5
 74
     0
  0
LTYPE
  5
34
330
5
100
AcDbSymbolTableRecord
100
AcDbLinetypeTableRecord
  2
HIDDEN
 70
     0
  3
__ __ __ __ __ __ __ __ __ __ __ __ 
 72
    65
 73
     2
 40
0.375
 49
0.25
 74
     0
 49
-0.125
 74
     0
  0
LTYPE
  5
35
330
5
100
AcDbSymbolTableRecord
100
AcDbLinetypeTableRecord
  2
HIDDEN2
 70
     0
  3
_ _ _ _ _ _ _ _ _ _ _ _ _ _ _ _ _ _ 
 72
    65
 73
     2
 40
0.1875
 49
0.125
 74
     0
 49
-0.0625
 74
     0
  0
LTYPE
  5
36
330
5
100
AcDbSymbolTableRecord
100
AcDbLinetypeTableRecord
  2
HIDDENX2
 70
     0
  3
____ ____ ____ ____ ____ ____ ____ 
 72
    65
 73
     2
 40
0.75
 49
0.5
 74
     0
 49
-0.25
 74
     0
  0
LTYPE
  5
37
330
5
100
AcDbSymbolTableRecord
100
AcDbLinetypeTableRecord
  2
PHANTOM
 70
     0
  3
______  __  __  ______  __  __  
 72
    65
 73
     6
 40
2.5
 49
1.25
 74
     0
 49
-0.25
 74
     0
 49
0.25
 74
     0
 49
-0.25
 74
     0
 49
0.25
 74
     0
 49
-0.25
 74
     0
  0
LTYPE
  5
38
330
5
100
AcDbSymbolTableRecord
100
AcDbLinetypeTableRecord
  2
PHANTOM2
 70
     0
  3
___ _ _ ___ _ _ ___ _ _ ___ _ _ 
 72
    65
 73
     6
 40
1.25
 49
0.625
 74
     0
 49
-0.125
 74
     0
 49
0.125
 74
     0
 49
-0.125
 74
     0
 49
0.125
 74
     0
 49
-0.125
 74
     0
  0
LTYPE
  5
39
330
5
100
AcDbSymbolTableRecord
100
AcDbLinetypeTableRecord
  2
PHANTOMX2
 70
     0
  3
___ _ _ ___ _ _ ___ _ _ ___ _ _ 
 72
    65
 73
     6
 40
5.0
 49
2.5
 74
     0
 49
-0.5
 74
     0
 49
0.5
 74
     0
 49
-0.5
 74
     0
 49
0.5
 74
     0
 49
-0.5
 74
     0
  0
ENDTAB
  0
TABLE
  2
LAYER
  5
2
330
0
100
AcDbSymbolTable
 70
   257
  0
LAYER
  5
10
330
2
100
AcDbSymbolTableRecord
100
AcDbLayerTableRecord
  2
0
 70
     0
 62
     7
  6
CONTINUOUS
  0
LAYER
  5
3A
330
2
100
AcDbSymbolTableRecord
100
AcDbLayerTableRecord
  2
1
 70
     0
 62
     1
  6
CONTINUOUS
  0
LAYER
  5
3B
330
2
100
AcDbSymbolTableRecord
100
AcDbLayerTableRecord
  2
2
 70
     0
 62
     2
  6
CONTINUOUS
  0
LAYER
  5
3C
330
2
100
AcDbSymbolTableRecord
100
AcDbLayerTableRecord
  2
3
 70
     0
 62
     3
  6
CONTINUOUS
  0
LAYER
  5
3D
330
2
100
AcDbSymbolTableRecord
100
AcDbLayerTableRecord
  2
4
 70
     0
 62
     4
  6
CONTINUOUS
  0
LAYER
  5
3E
330
2
100
AcDbSymbolTableRecord
100
AcDbLayerTableRecord
  2
5
 70
     0
 62
     5
  6
CONTINUOUS
  0
LAYER
  5
3F
330
2
100
AcDbSymbolTableRecord
100
AcDbLayerTableRecord
  2
6
 70
     0
 62
     6
  6
CONTINUOUS
  0
LAYER
  5
40
330
2
100
AcDbSymbolTableRecord
100
AcDbLayerTableRecord
  2
7
 70
     0
 62
     7
  6
CONTINUOUS
  0
LAYER
  5
41
330
2
100
AcDbSymbolTableRecord
100
AcDbLayerTableRecord
  2
8
 70
     0
 62
     8
  6
CONTINUOUS
  0
LAYER
  5
42
330
2
100
AcDbSymbolTableRecord
100
AcDbLayerTableRecord
  2
9
 70
     0
 62
     9
  6
CONTINUOUS
  0
LAYER
  5
43
330
2
100
AcDbSymbolTableRecord
100
AcDbLayerTableRecord
  2
10
 70
     0
 62
    10
  6
CONTINUOUS
  0
LAYER
  5
44
330
2
100
AcDbSymbolTableRecord
100
AcDbLayerTableRecord
  2
11
 70
     0
 62
    11
  6
CONTINUOUS
  0
LAYER
  5
45
330
2
100
AcDbSymbolTableRecord
100
AcDbLayerTableRecord
  2
12
 70
     0
 62
    12
  6
CONTINUOUS
  0
LAYER
  5
46
330
2
100
AcDbSymbolTableRecord
100
AcDbLayerTableRecord
  2
13
 70
     0
 62
    13
  6
CONTINUOUS
  0
LAYER
  5
47
330
2
100
AcDbSymbolTableRecord
100
AcDbLayerTableRecord
  2
14
 70
     0
 62
    14
  6
CONTINUOUS
  0
LAYER
  5
48
330
2
100
AcDbSymbolTableRecord
100
AcDbLayerTableRecord
  2
15
 70
     0
 62
    15
  6
CONTINUOUS
  0
LAYER
  5
49
330
2
100
AcDbSymbolTableRecord
100
AcDbLayerTableRecord
  2
16
 70
     0
 62
    16
  6
CONTINUOUS
  0
LAYER
  5
4A
330
2
100
AcDbSymbolTableRecord
100
AcDbLayerTableRecord
  2
17
 70
     0
 62
    17
  6
CONTINUOUS
  0
LAYER
  5
4B
330
2
100
AcDbSymbolTableRecord
100
AcDbLayerTableRecord
  2
18
 70
     0
 62
    18
  6
CONTINUOUS
  0
LAYER
  5
4C
330
2
100
AcDbSymbolTableRecord
100
AcDbLayerTableRecord
  2
19
 70
     0
 62
    19
  6
CONTINUOUS
  0
LAYER
  5
4D
330
2
100
AcDbSymbolTableRecord
100
AcDbLayerTableRecord
  2
20
 70
     0
 62
    20
  6
CONTINUOUS
  0
LAYER
  5
4E
330
2
100
AcDbSymbolTableRecord
100
AcDbLayerTableRecord
  2
21
 70
     0
 62
    21
  6
CONTINUOUS
  0
LAYER
  5
4F
330
2
100
AcDbSymbolTableRecord
100
AcDbLayerTableRecord
  2
22
 70
     0
 62
    22
  6
CONTINUOUS
  0
LAYER
  5
50
330
2
100
AcDbSymbolTableRecord
100
AcDbLayerTableRecord
  2
23
 70
     0
 62
    23
  6
CONTINUOUS
  0
LAYER
  5
51
330
2
100
AcDbSymbolTableRecord
100
AcDbLayerTableRecord
  2
24
 70
     0
 62
    24
  6
CONTINUOUS
  0
LAYER
  5
52
330
2
100
AcDbSymbolTableRecord
100
AcDbLayerTableRecord
  2
25
 70
     0
 62
    25
  6
CONTINUOUS
  0
LAYER
  5
53
330
2
100
AcDbSymbolTableRecord
100
AcDbLayerTableRecord
  2
26
 70
     0
 62
    26
  6
CONTINUOUS
  0
LAYER
  5
54
330
2
100
AcDbSymbolTableRecord
100
AcDbLayerTableRecord
  2
27
 70
     0
 62
    27
  6
CONTINUOUS
  0
LAYER
  5
55
330
2
100
AcDbSymbolTableRecord
100
AcDbLayerTableRecord
  2
28
 70
     0
 62
    28
  6
CONTINUOUS
  0
LAYER
  5
56
330
2
100
AcDbSymbolTableRecord
100
AcDbLayerTableRecord
  2
29
 70
     0
 62
    29
  6
CONTINUOUS
  0
LAYER
  5
57
330
2
100
AcDbSymbolTableRecord
100
AcDbLayerTableRecord
  2
30
 70
     0
 62
    30
  6
CONTINUOUS
  0
LAYER
  5
58
330
2
100
AcDbSymbolTableRecord
100
AcDbLayerTableRecord
  2
31
 70
     0
 62
    31
  6
CONTINUOUS
  0
LAYER
  5
59
330
2
100
AcDbSymbolTableRecord
100
AcDbLayerTableRecord
  2
32
 70
     0
 62
    32
  6
CONTINUOUS
  0
LAYER
  5
5A
330
2
100
AcDbSymbolTableRecord
100
AcDbLayerTableRecord
  2
33
 70
     0
 62
    33
  6
CONTINUOUS
  0
LAYER
  5
5B
330
2
100
AcDbSymbolTableRecord
100
AcDbLayerTableRecord
  2
34
 70
     0
 62
    34
  6
CONTINUOUS
  0
LAYER
  5
5C
330
2
100
AcDbSymbolTableRecord
100
AcDbLayerTableRecord
  2
35
 70
     0
 62
    35
  6
CONTINUOUS
  0
LAYER
  5
5D
330
2
100
AcDbSymbolTableRecord
100
AcDbLayerTableRecord
  2
36
 70
     0
 62
    36
  6
CONTINUOUS
  0
LAYER
  5
5E
330
2
100
AcDbSymbolTableRecord
100
AcDbLayerTableRecord
  2
37
 70
     0
 62
    37
  6
CONTINUOUS
  0
LAYER
  5
5F
330
2
100
AcDbSymbolTableRecord
100
AcDbLayerTableRecord
  2
38
 70
     0
 62
    38
  6
CONTINUOUS
  0
LAYER
  5
60
330
2
100
AcDbSymbolTableRecord
100
AcDbLayerTableRecord
  2
39
 70
     0
 62
    39
  6
CONTINUOUS
  0
LAYER
  5
61
330
2
100
AcDbSymbolTableRecord
100
AcDbLayerTableRecord
  2
40
 70
     0
 62
    40
  6
CONTINUOUS
  0
LAYER
  5
62
330
2
100
AcDbSymbolTableRecord
100
AcDbLayerTableRecord
  2
41
 70
     0
 62
    41
  6
CONTINUOUS
  0
LAYER
  5
63
330
2
100
AcDbSymbolTableRecord
100
AcDbLayerTableRecord
  2
42
 70
     0
 62
    42
  6
CONTINUOUS
  0
LAYER
  5
64
330
2
100
AcDbSymbolTableRecord
100
AcDbLayerTableRecord
  2
43
 70
     0
 62
    43
  6
CONTINUOUS
  0
LAYER
  5
65
330
2
100
AcDbSymbolTableRecord
100
AcDbLayerTableRecord
  2
44
 70
     0
 62
    44
  6
CONTINUOUS
  0
LAYER
  5
66
330
2
100
AcDbSymbolTableRecord
100
AcDbLayerTableRecord
  2
45
 70
     0
 62
    45
  6
CONTINUOUS
  0
LAYER
  5
67
330
2
100
AcDbSymbolTableRecord
100
AcDbLayerTableRecord
  2
46
 70
     0
 62
    46
  6
CONTINUOUS
  0
LAYER
  5
68
330
2
100
AcDbSymbolTableRecord
100
AcDbLayerTableRecord
  2
47
 70
     0
 62
    47
  6
CONTINUOUS
  0
LAYER
  5
69
330
2
100
AcDbSymbolTableRecord
100
AcDbLayerTableRecord
  2
48
 70
     0
 62
    48
  6
CONTINUOUS
  0
LAYER
  5
6A
330
2
100
AcDbSymbolTableRecord
100
AcDbLayerTableRecord
  2
49
 70
     0
 62
    49
  6
CONTINUOUS
  0
LAYER
  5
6B
330
2
100
AcDbSymbolTableRecord
100
AcDbLayerTableRecord
  2
50
 70
     0
 62
    50
  6
CONTINUOUS
  0
LAYER
  5
6C
330
2
100
AcDbSymbolTableRecord
100
AcDbLayerTableRecord
  2
51
 70
     0
 62
    51
  6
CONTINUOUS
  0
LAYER
  5
6D
330
2
100
AcDbSymbolTableRecord
100
AcDbLayerTableRecord
  2
52
 70
     0
 62
    52
  6
CONTINUOUS
  0
LAYER
  5
6E
330
2
100
AcDbSymbolTableRecord
100
AcDbLayerTableRecord
  2
53
 70
     0
 62
    53
  6
CONTINUOUS
  0
LAYER
  5
6F
330
2
100
AcDbSymbolTableRecord
100
AcDbLayerTableRecord
  2
54
 70
     0
 62
    54
  6
CONTINUOUS
  0
LAYER
  5
70
330
2
100
AcDbSymbolTableRecord
100
AcDbLayerTableRecord
  2
55
 70
     0
 62
    55
  6
CONTINUOUS
  0
LAYER
  5
71
330
2
100
AcDbSymbolTableRecord
100
AcDbLayerTableRecord
  2
56
 70
     0
 62
    56
  6
CONTINUOUS
  0
LAYER
  5
72
330
2
100
AcDbSymbolTableRecord
100
AcDbLayerTableRecord
  2
57
 70
     0
 62
    57
  6
CONTINUOUS
  0
LAYER
  5
73
330
2
100
AcDbSymbolTableRecord
100
AcDbLayerTableRecord
  2
58
 70
     0
 62
    58
  6
CONTINUOUS
  0
LAYER
  5
74
330
2
100
AcDbSymbolTableRecord
100
AcDbLayerTableRecord
  2
59
 70
     0
 62
    59
  6
CONTINUOUS
  0
LAYER
  5
75
330
2
100
AcDbSymbolTableRecord
100
AcDbLayerTableRecord
  2
60
 70
     0
 62
    60
  6
CONTINUOUS
  0
LAYER
  5
76
330
2
100
AcDbSymbolTableRecord
100
AcDbLayerTableRecord
  2
61
 70
     0
 62
    61
  6
CONTINUOUS
  0
LAYER
  5
77
330
2
100
AcDbSymbolTableRecord
100
AcDbLayerTableRecord
  2
62
 70
     0
 62
    62
  6
CONTINUOUS
  0
LAYER
  5
78
330
2
100
AcDbSymbolTableRecord
100
AcDbLayerTableRecord
  2
63
 70
     0
 62
    63
  6
CONTINUOUS
  0
LAYER
  5
79
330
2
100
AcDbSymbolTableRecord
100
AcDbLayerTableRecord
  2
64
 70
     0
 62
    64
  6
CONTINUOUS
  0
LAYER
  5
7A
330
2
100
AcDbSymbolTableRecord
100
AcDbLayerTableRecord
  2
65
 70
     0
 62
    65
  6
CONTINUOUS
  0
LAYER
  5
7B
330
2
100
AcDbSymbolTableRecord
100
AcDbLayerTableRecord
  2
66
 70
     0
 62
    66
  6
CONTINUOUS
  0
LAYER
  5
7C
330
2
100
AcDbSymbolTableRecord
100
AcDbLayerTableRecord
  2
67
 70
     0
 62
    67
  6
CONTINUOUS
  0
LAYER
  5
7D
330
2
100
AcDbSymbolTableRecord
100
AcDbLayerTableRecord
  2
68
 70
     0
 62
    68
  6
CONTINUOUS
  0
LAYER
  5
7E
330
2
100
AcDbSymbolTableRecord
100
AcDbLayerTableRecord
  2
69
 70
     0
 62
    69
  6
CONTINUOUS
  0
LAYER
  5
7F
330
2
100
AcDbSymbolTableRecord
100
AcDbLayerTableRecord
  2
70
 70
     0
 62
    70
  6
CONTINUOUS
  0
LAYER
  5
80
330
2
100
AcDbSymbolTableRecord
100
AcDbLayerTableRecord
  2
71
 70
     0
 62
    71
  6
CONTINUOUS
  0
LAYER
  5
81
330
2
100
AcDbSymbolTableRecord
100
AcDbLayerTableRecord
  2
72
 70
     0
 62
    72
  6
CONTINUOUS
  0
LAYER
  5
82
330
2
100
AcDbSymbolTableRecord
100
AcDbLayerTableRecord
  2
73
 70
     0
 62
    73
  6
CONTINUOUS
  0
LAYER
  5
83
330
2
100
AcDbSymbolTableRecord
100
AcDbLayerTableRecord
  2
74
 70
     0
 62
    74
  6
CONTINUOUS
  0
LAYER
  5
84
330
2
100
AcDbSymbolTableRecord
100
AcDbLayerTableRecord
  2
75
 70
     0
 62
    75
  6
CONTINUOUS
  0
LAYER
  5
85
330
2
100
AcDbSymbolTableRecord
100
AcDbLayerTableRecord
  2
76
 70
     0
 62
    76
  6
CONTINUOUS
  0
LAYER
  5
86
330
2
100
AcDbSymbolTableRecord
100
AcDbLayerTableRecord
  2
77
 70
     0
 62
    77
  6
CONTINUOUS
  0
LAYER
  5
87
330
2
100
AcDbSymbolTableRecord
100
AcDbLayerTableRecord
  2
78
 70
     0
 62
    78
  6
CONTINUOUS
  0
LAYER
  5
88
330
2
100
AcDbSymbolTableRecord
100
AcDbLayerTableRecord
  2
79
 70
     0
 62
    79
  6
CONTINUOUS
  0
LAYER
  5
89
330
2
100
AcDbSymbolTableRecord
100
AcDbLayerTableRecord
  2
80
 70
     0
 62
    80
  6
CONTINUOUS
  0
LAYER
  5
8A
330
2
100
AcDbSymbolTableRecord
100
AcDbLayerTableRecord
  2
81
 70
     0
 62
    81
  6
CONTINUOUS
  0
LAYER
  5
8B
330
2
100
AcDbSymbolTableRecord
100
AcDbLayerTableRecord
  2
82
 70
     0
 62
    82
  6
CONTINUOUS
  0
LAYER
  5
8C
330
2
100
AcDbSymbolTableRecord
100
AcDbLayerTableRecord
  2
83
 70
     0
 62
    83
  6
CONTINUOUS
  0
LAYER
  5
8D
330
2
100
AcDbSymbolTableRecord
100
AcDbLayerTableRecord
  2
84
 70
     0
 62
    84
  6
CONTINUOUS
  0
LAYER
  5
8E
330
2
100
AcDbSymbolTableRecord
100
AcDbLayerTableRecord
  2
85
 70
     0
 62
    85
  6
CONTINUOUS
  0
LAYER
  5
8F
330
2
100
AcDbSymbolTableRecord
100
AcDbLayerTableRecord
  2
86
 70
     0
 62
    86
  6
CONTINUOUS
  0
LAYER
  5
90
330
2
100
AcDbSymbolTableRecord
100
AcDbLayerTableRecord
  2
87
 70
     0
 62
    87
  6
CONTINUOUS
  0
LAYER
  5
91
330
2
100
AcDbSymbolTableRecord
100
AcDbLayerTableRecord
  2
88
 70
     0
 62
    88
  6
CONTINUOUS
  0
LAYER
  5
92
330
2
100
AcDbSymbolTableRecord
100
AcDbLayerTableRecord
  2
89
 70
     0
 62
    89
  6
CONTINUOUS
  0
LAYER
  5
93
330
2
100
AcDbSymbolTableRecord
100
AcDbLayerTableRecord
  2
90
 70
     0
 62
    90
  6
CONTINUOUS
  0
LAYER
  5
94
330
2
100
AcDbSymbolTableRecord
100
AcDbLayerTableRecord
  2
91
 70
     0
 62
    91
  6
CONTINUOUS
  0
LAYER
  5
95
330
2
100
AcDbSymbolTableRecord
100
AcDbLayerTableRecord
  2
92
 70
     0
 62
    92
  6
CONTINUOUS
  0
LAYER
  5
96
330
2
100
AcDbSymbolTableRecord
100
AcDbLayerTableRecord
  2
93
 70
     0
 62
    93
  6
CONTINUOUS
  0
LAYER
  5
97
330
2
100
AcDbSymbolTableRecord
100
AcDbLayerTableRecord
  2
94
 70
     0
 62
    94
  6
CONTINUOUS
  0
LAYER
  5
98
330
2
100
AcDbSymbolTableRecord
100
AcDbLayerTableRecord
  2
95
 70
     0
 62
    95
  6
CONTINUOUS
  0
LAYER
  5
99
330
2
100
AcDbSymbolTableRecord
100
AcDbLayerTableRecord
  2
96
 70
     0
 62
    96
  6
CONTINUOUS
  0
LAYER
  5
9A
330
2
100
AcDbSymbolTableRecord
100
AcDbLayerTableRecord
  2
97
 70
     0
 62
    97
  6
CONTINUOUS
  0
LAYER
  5
9B
330
2
100
AcDbSymbolTableRecord
100
AcDbLayerTableRecord
  2
98
 70
     0
 62
    98
  6
CONTINUOUS
  0
LAYER
  5
9C
330
2
100
AcDbSymbolTableRecord
100
AcDbLayerTableRecord
  2
99
 70
     0
 62
    99
  6
CONTINUOUS
  0
LAYER
  5
9D
330
2
100
AcDbSymbolTableRecord
100
AcDbLayerTableRecord
  2
100
 70
     0
 62
   100
  6
CONTINUOUS
  0
LAYER
  5
9E
330
2
100
AcDbSymbolTableRecord
100
AcDbLayerTableRecord
  2
101
 70
     0
 62
   101
  6
CONTINUOUS
  0
LAYER
  5
9F
330
2
100
AcDbSymbolTableRecord
100
AcDbLayerTableRecord
  2
102
 70
     0
 62
   102
  6
CONTINUOUS
  0
LAYER
  5
A0
330
2
100
AcDbSymbolTableRecord
100
AcDbLayerTableRecord
  2
103
 70
     0
 62
   103
  6
CONTINUOUS
  0
LAYER
  5
A1
330
2
100
AcDbSymbolTableRecord
100
AcDbLayerTableRecord
  2
104
 70
     0
 62
   104
  6
CONTINUOUS
  0
LAYER
  5
A2
330
2
100
AcDbSymbolTableRecord
100
AcDbLayerTableRecord
  2
105
 70
     0
 62
   105
  6
CONTINUOUS
  0
LAYER
  5
A3
330
2
100
AcDbSymbolTableRecord
100
AcDbLayerTableRecord
  2
106
 70
     0
 62
   106
  6
CONTINUOUS
  0
LAYER
  5
A4
330
2
100
AcDbSymbolTableRecord
100
AcDbLayerTableRecord
  2
107
 70
     0
 62
   107
  6
CONTINUOUS
  0
LAYER
  5
A5
330
2
100
AcDbSymbolTableRecord
100
AcDbLayerTableRecord
  2
108
 70
     0
 62
   108
  6
CONTINUOUS
  0
LAYER
  5
A6
330
2
100
AcDbSymbolTableRecord
100
AcDbLayerTableRecord
  2
109
 70
     0
 62
   109
  6
CONTINUOUS
  0
LAYER
  5
A7
330
2
100
AcDbSymbolTableRecord
100
AcDbLayerTableRecord
  2
110
 70
     0
 62
   110
  6
CONTINUOUS
  0
LAYER
  5
A8
330
2
100
AcDbSymbolTableRecord
100
AcDbLayerTableRecord
  2
111
 70
     0
 62
   111
  6
CONTINUOUS
  0
LAYER
  5
A9
330
2
100
AcDbSymbolTableRecord
100
AcDbLayerTableRecord
  2
112
 70
     0
 62
   112
  6
CONTINUOUS
  0
LAYER
  5
AA
330
2
100
AcDbSymbolTableRecord
100
AcDbLayerTableRecord
  2
113
 70
     0
 62
   113
  6
CONTINUOUS
  0
LAYER
  5
AB
330
2
100
AcDbSymbolTableRecord
100
AcDbLayerTableRecord
  2
114
 70
     0
 62
   114
  6
CONTINUOUS
  0
LAYER
  5
AC
330
2
100
AcDbSymbolTableRecord
100
AcDbLayerTableRecord
  2
115
 70
     0
 62
   115
  6
CONTINUOUS
  0
LAYER
  5
AD
330
2
100
AcDbSymbolTableRecord
100
AcDbLayerTableRecord
  2
116
 70
     0
 62
   116
  6
CONTINUOUS
  0
LAYER
  5
AE
330
2
100
AcDbSymbolTableRecord
100
AcDbLayerTableRecord
  2
117
 70
     0
 62
   117
  6
CONTINUOUS
  0
LAYER
  5
AF
330
2
100
AcDbSymbolTableRecord
100
AcDbLayerTableRecord
  2
118
 70
     0
 62
   118
  6
CONTINUOUS
  0
LAYER
  5
B0
330
2
100
AcDbSymbolTableRecord
100
AcDbLayerTableRecord
  2
119
 70
     0
 62
   119
  6
CONTINUOUS
  0
LAYER
  5
B1
330
2
100
AcDbSymbolTableRecord
100
AcDbLayerTableRecord
  2
120
 70
     0
 62
   120
  6
CONTINUOUS
  0
LAYER
  5
B2
330
2
100
AcDbSymbolTableRecord
100
AcDbLayerTableRecord
  2
121
 70
     0
 62
   121
  6
CONTINUOUS
  0
LAYER
  5
B3
330
2
100
AcDbSymbolTableRecord
100
AcDbLayerTableRecord
  2
122
 70
     0
 62
   122
  6
CONTINUOUS
  0
LAYER
  5
B4
330
2
100
AcDbSymbolTableRecord
100
AcDbLayerTableRecord
  2
123
 70
     0
 62
   123
  6
CONTINUOUS
  0
LAYER
  5
B5
330
2
100
AcDbSymbolTableRecord
100
AcDbLayerTableRecord
  2
124
 70
     0
 62
   124
  6
CONTINUOUS
  0
LAYER
  5
B6
330
2
100
AcDbSymbolTableRecord
100
AcDbLayerTableRecord
  2
125
 70
     0
 62
   125
  6
CONTINUOUS
  0
LAYER
  5
B7
330
2
100
AcDbSymbolTableRecord
100
AcDbLayerTableRecord
  2
126
 70
     0
 62
   126
  6
CONTINUOUS
  0
LAYER
  5
B8
330
2
100
AcDbSymbolTableRecord
100
AcDbLayerTableRecord
  2
127
 70
     0
 62
   127
  6
CONTINUOUS
  0
LAYER
  5
B9
330
2
100
AcDbSymbolTableRecord
100
AcDbLayerTableRecord
  2
128
 70
     0
 62
   128
  6
CONTINUOUS
  0
LAYER
  5
BA
330
2
100
AcDbSymbolTableRecord
100
AcDbLayerTableRecord
  2
129
 70
     0
 62
   129
  6
CONTINUOUS
  0
LAYER
  5
BB
330
2
100
AcDbSymbolTableRecord
100
AcDbLayerTableRecord
  2
130
 70
     0
 62
   130
  6
CONTINUOUS
  0
LAYER
  5
BC
330
2
100
AcDbSymbolTableRecord
100
AcDbLayerTableRecord
  2
131
 70
     0
 62
   131
  6
CONTINUOUS
  0
LAYER
  5
BD
330
2
100
AcDbSymbolTableRecord
100
AcDbLayerTableRecord
  2
132
 70
     0
 62
   132
  6
CONTINUOUS
  0
LAYER
  5
BE
330
2
100
AcDbSymbolTableRecord
100
AcDbLayerTableRecord
  2
133
 70
     0
 62
   133
  6
CONTINUOUS
  0
LAYER
  5
BF
330
2
100
AcDbSymbolTableRecord
100
AcDbLayerTableRecord
  2
134
 70
     0
 62
   134
  6
CONTINUOUS
  0
LAYER
  5
C0
330
2
100
AcDbSymbolTableRecord
100
AcDbLayerTableRecord
  2
135
 70
     0
 62
   135
  6
CONTINUOUS
  0
LAYER
  5
C1
330
2
100
AcDbSymbolTableRecord
100
AcDbLayerTableRecord
  2
136
 70
     0
 62
   136
  6
CONTINUOUS
  0
LAYER
  5
C2
330
2
100
AcDbSymbolTableRecord
100
AcDbLayerTableRecord
  2
137
 70
     0
 62
   137
  6
CONTINUOUS
  0
LAYER
  5
C3
330
2
100
AcDbSymbolTableRecord
100
AcDbLayerTableRecord
  2
138
 70
     0
 62
   138
  6
CONTINUOUS
  0
LAYER
  5
C4
330
2
100
AcDbSymbolTableRecord
100
AcDbLayerTableRecord
  2
139
 70
     0
 62
   139
  6
CONTINUOUS
  0
LAYER
  5
C5
330
2
100
AcDbSymbolTableRecord
100
AcDbLayerTableRecord
  2
140
 70
     0
 62
   140
  6
CONTINUOUS
  0
LAYER
  5
C6
330
2
100
AcDbSymbolTableRecord
100
AcDbLayerTableRecord
  2
141
 70
     0
 62
   141
  6
CONTINUOUS
  0
LAYER
  5
C7
330
2
100
AcDbSymbolTableRecord
100
AcDbLayerTableRecord
  2
142
 70
     0
 62
   142
  6
CONTINUOUS
  0
LAYER
  5
C8
330
2
100
AcDbSymbolTableRecord
100
AcDbLayerTableRecord
  2
143
 70
     0
 62
   143
  6
CONTINUOUS
  0
LAYER
  5
C9
330
2
100
AcDbSymbolTableRecord
100
AcDbLayerTableRecord
  2
144
 70
     0
 62
   144
  6
CONTINUOUS
  0
LAYER
  5
CA
330
2
100
AcDbSymbolTableRecord
100
AcDbLayerTableRecord
  2
145
 70
     0
 62
   145
  6
CONTINUOUS
  0
LAYER
  5
CB
330
2
100
AcDbSymbolTableRecord
100
AcDbLayerTableRecord
  2
146
 70
     0
 62
   146
  6
CONTINUOUS
  0
LAYER
  5
CC
330
2
100
AcDbSymbolTableRecord
100
AcDbLayerTableRecord
  2
147
 70
     0
 62
   147
  6
CONTINUOUS
  0
LAYER
  5
CD
330
2
100
AcDbSymbolTableRecord
100
AcDbLayerTableRecord
  2
148
 70
     0
 62
   148
  6
CONTINUOUS
  0
LAYER
  5
CE
330
2
100
AcDbSymbolTableRecord
100
AcDbLayerTableRecord
  2
149
 70
     0
 62
   149
  6
CONTINUOUS
  0
LAYER
  5
CF
330
2
100
AcDbSymbolTableRecord
100
AcDbLayerTableRecord
  2
150
 70
     0
 62
   150
  6
CONTINUOUS
  0
LAYER
  5
D0
330
2
100
AcDbSymbolTableRecord
100
AcDbLayerTableRecord
  2
151
 70
     0
 62
   151
  6
CONTINUOUS
  0
LAYER
  5
D1
330
2
100
AcDbSymbolTableRecord
100
AcDbLayerTableRecord
  2
152
 70
     0
 62
   152
  6
CONTINUOUS
  0
LAYER
  5
D2
330
2
100
AcDbSymbolTableRecord
100
AcDbLayerTableRecord
  2
153
 70
     0
 62
   153
  6
CONTINUOUS
  0
LAYER
  5
D3
330
2
100
AcDbSymbolTableRecord
100
AcDbLayerTableRecord
  2
154
 70
     0
 62
   154
  6
CONTINUOUS
  0
LAYER
  5
D4
330
2
100
AcDbSymbolTableRecord
100
AcDbLayerTableRecord
  2
155
 70
     0
 62
   155
  6
CONTINUOUS
  0
LAYER
  5
D5
330
2
100
AcDbSymbolTableRecord
100
AcDbLayerTableRecord
  2
156
 70
     0
 62
   156
  6
CONTINUOUS
  0
LAYER
  5
D6
330
2
100
AcDbSymbolTableRecord
100
AcDbLayerTableRecord
  2
157
 70
     0
 62
   157
  6
CONTINUOUS
  0
LAYER
  5
D7
330
2
100
AcDbSymbolTableRecord
100
AcDbLayerTableRecord
  2
158
 70
     0
 62
   158
  6
CONTINUOUS
  0
LAYER
  5
D8
330
2
100
AcDbSymbolTableRecord
100
AcDbLayerTableRecord
  2
159
 70
     0
 62
   159
  6
CONTINUOUS
  0
LAYER
  5
D9
330
2
100
AcDbSymbolTableRecord
100
AcDbLayerTableRecord
  2
160
 70
     0
 62
   160
  6
CONTINUOUS
  0
LAYER
  5
DA
330
2
100
AcDbSymbolTableRecord
100
AcDbLayerTableRecord
  2
161
 70
     0
 62
   161
  6
CONTINUOUS
  0
LAYER
  5
DB
330
2
100
AcDbSymbolTableRecord
100
AcDbLayerTableRecord
  2
162
 70
     0
 62
   162
  6
CONTINUOUS
  0
LAYER
  5
DC
330
2
100
AcDbSymbolTableRecord
100
AcDbLayerTableRecord
  2
163
 70
     0
 62
   163
  6
CONTINUOUS
  0
LAYER
  5
DD
330
2
100
AcDbSymbolTableRecord
100
AcDbLayerTableRecord
  2
164
 70
     0
 62
   164
  6
CONTINUOUS
  0
LAYER
  5
DE
330
2
100
AcDbSymbolTableRecord
100
AcDbLayerTableRecord
  2
165
 70
     0
 62
   165
  6
CONTINUOUS
  0
LAYER
  5
DF
330
2
100
AcDbSymbolTableRecord
100
AcDbLayerTableRecord
  2
166
 70
     0
 62
   166
  6
CONTINUOUS
  0
LAYER
  5
E0
330
2
100
AcDbSymbolTableRecord
100
AcDbLayerTableRecord
  2
167
 70
     0
 62
   167
  6
CONTINUOUS
  0
LAYER
  5
E1
330
2
100
AcDbSymbolTableRecord
100
AcDbLayerTableRecord
  2
168
 70
     0
 62
   168
  6
CONTINUOUS
  0
LAYER
  5
E2
330
2
100
AcDbSymbolTableRecord
100
AcDbLayerTableRecord
  2
169
 70
     0
 62
   169
  6
CONTINUOUS
  0
LAYER
  5
E3
330
2
100
AcDbSymbolTableRecord
100
AcDbLayerTableRecord
  2
170
 70
     0
 62
   170
  6
CONTINUOUS
  0
LAYER
  5
E4
330
2
100
AcDbSymbolTableRecord
100
AcDbLayerTableRecord
  2
171
 70
     0
 62
   171
  6
CONTINUOUS
  0
LAYER
  5
E5
330
2
100
AcDbSymbolTableRecord
100
AcDbLayerTableRecord
  2
172
 70
     0
 62
   172
  6
CONTINUOUS
  0
LAYER
  5
E6
330
2
100
AcDbSymbolTableRecord
100
AcDbLayerTableRecord
  2
173
 70
     0
 62
   173
  6
CONTINUOUS
  0
LAYER
  5
E7
330
2
100
AcDbSymbolTableRecord
100
AcDbLayerTableRecord
  2
174
 70
     0
 62
   174
  6
CONTINUOUS
  0
LAYER
  5
E8
330
2
100
AcDbSymbolTableRecord
100
AcDbLayerTableRecord
  2
175
 70
     0
 62
   175
  6
CONTINUOUS
  0
LAYER
  5
E9
330
2
100
AcDbSymbolTableRecord
100
AcDbLayerTableRecord
  2
176
 70
     0
 62
   176
  6
CONTINUOUS
  0
LAYER
  5
EA
330
2
100
AcDbSymbolTableRecord
100
AcDbLayerTableRecord
  2
177
 70
     0
 62
   177
  6
CONTINUOUS
  0
LAYER
  5
EB
330
2
100
AcDbSymbolTableRecord
100
AcDbLayerTableRecord
  2
178
 70
     0
 62
   178
  6
CONTINUOUS
  0
LAYER
  5
EC
330
2
100
AcDbSymbolTableRecord
100
AcDbLayerTableRecord
  2
179
 70
     0
 62
   179
  6
CONTINUOUS
  0
LAYER
  5
ED
330
2
100
AcDbSymbolTableRecord
100
AcDbLayerTableRecord
  2
180
 70
     0
 62
   180
  6
CONTINUOUS
  0
LAYER
  5
EE
330
2
100
AcDbSymbolTableRecord
100
AcDbLayerTableRecord
  2
181
 70
     0
 62
   181
  6
CONTINUOUS
  0
LAYER
  5
EF
330
2
100
AcDbSymbolTableRecord
100
AcDbLayerTableRecord
  2
182
 70
     0
 62
   182
  6
CONTINUOUS
  0
LAYER
  5
F0
330
2
100
AcDbSymbolTableRecord
100
AcDbLayerTableRecord
  2
183
 70
     0
 62
   183
  6
CONTINUOUS
  0
LAYER
  5
F1
330
2
100
AcDbSymbolTableRecord
100
AcDbLayerTableRecord
  2
184
 70
     0
 62
   184
  6
CONTINUOUS
  0
LAYER
  5
F2
330
2
100
AcDbSymbolTableRecord
100
AcDbLayerTableRecord
  2
185
 70
     0
 62
   185
  6
CONTINUOUS
  0
LAYER
  5
F3
330
2
100
AcDbSymbolTableRecord
100
AcDbLayerTableRecord
  2
186
 70
     0
 62
   186
  6
CONTINUOUS
  0
LAYER
  5
F4
330
2
100
AcDbSymbolTableRecord
100
AcDbLayerTableRecord
  2
187
 70
     0
 62
   187
  6
CONTINUOUS
  0
LAYER
  5
F5
330
2
100
AcDbSymbolTableRecord
100
AcDbLayerTableRecord
  2
188
 70
     0
 62
   188
  6
CONTINUOUS
  0
LAYER
  5
F6
330
2
100
AcDbSymbolTableRecord
100
AcDbLayerTableRecord
  2
189
 70
     0
 62
   189
  6
CONTINUOUS
  0
LAYER
  5
F7
330
2
100
AcDbSymbolTableRecord
100
AcDbLayerTableRecord
  2
190
 70
     0
 62
   190
  6
CONTINUOUS
  0
LAYER
  5
F8
330
2
100
AcDbSymbolTableRecord
100
AcDbLayerTableRecord
  2
191
 70
     0
 62
   191
  6
CONTINUOUS
  0
LAYER
  5
F9
330
2
100
AcDbSymbolTableRecord
100
AcDbLayerTableRecord
  2
192
 70
     0
 62
   192
  6
CONTINUOUS
  0
LAYER
  5
FA
330
2
100
AcDbSymbolTableRecord
100
AcDbLayerTableRecord
  2
193
 70
     0
 62
   193
  6
CONTINUOUS
  0
LAYER
  5
FB
330
2
100
AcDbSymbolTableRecord
100
AcDbLayerTableRecord
  2
194
 70
     0
 62
   194
  6
CONTINUOUS
  0
LAYER
  5
FC
330
2
100
AcDbSymbolTableRecord
100
AcDbLayerTableRecord
  2
195
 70
     0
 62
   195
  6
CONTINUOUS
  0
LAYER
  5
FD
330
2
100
AcDbSymbolTableRecord
100
AcDbLayerTableRecord
  2
196
 70
     0
 62
   196
  6
CONTINUOUS
  0
LAYER
  5
FE
330
2
100
AcDbSymbolTableRecord
100
AcDbLayerTableRecord
  2
197
 70
     0
 62
   197
  6
CONTINUOUS
  0
LAYER
  5
FF
330
2
100
AcDbSymbolTableRecord
100
AcDbLayerTableRecord
  2
198
 70
     0
 62
   198
  6
CONTINUOUS
  0
LAYER
  5
100
330
2
100
AcDbSymbolTableRecord
100
AcDbLayerTableRecord
  2
199
 70
     0
 62
   199
  6
CONTINUOUS
  0
LAYER
  5
101
330
2
100
AcDbSymbolTableRecord
100
AcDbLayerTableRecord
  2
200
 70
     0
 62
   200
  6
CONTINUOUS
  0
LAYER
  5
102
330
2
100
AcDbSymbolTableRecord
100
AcDbLayerTableRecord
  2
201
 70
     0
 62
   201
  6
CONTINUOUS
  0
LAYER
  5
103
330
2
100
AcDbSymbolTableRecord
100
AcDbLayerTableRecord
  2
202
 70
     0
 62
   202
  6
CONTINUOUS
  0
LAYER
  5
104
330
2
100
AcDbSymbolTableRecord
100
AcDbLayerTableRecord
  2
203
 70
     0
 62
   203
  6
CONTINUOUS
  0
LAYER
  5
105
330
2
100
AcDbSymbolTableRecord
100
AcDbLayerTableRecord
  2
204
 70
     0
 62
   204
  6
CONTINUOUS
  0
LAYER
  5
106
330
2
100
AcDbSymbolTableRecord
100
AcDbLayerTableRecord
  2
205
 70
     0
 62
   205
  6
CONTINUOUS
  0
LAYER
  5
107
330
2
100
AcDbSymbolTableRecord
100
AcDbLayerTableRecord
  2
206
 70
     0
 62
   206
  6
CONTINUOUS
  0
LAYER
  5
108
330
2
100
AcDbSymbolTableRecord
100
AcDbLayerTableRecord
  2
207
 70
     0
 62
   207
  6
CONTINUOUS
  0
LAYER
  5
109
330
2
100
AcDbSymbolTableRecord
100
AcDbLayerTableRecord
  2
208
 70
     0
 62
   208
  6
CONTINUOUS
  0
LAYER
  5
10A
330
2
100
AcDbSymbolTableRecord
100
AcDbLayerTableRecord
  2
209
 70
     0
 62
   209
  6
CONTINUOUS
  0
LAYER
  5
10B
330
2
100
AcDbSymbolTableRecord
100
AcDbLayerTableRecord
  2
210
 70
     0
 62
   210
  6
CONTINUOUS
  0
LAYER
  5
10C
330
2
100
AcDbSymbolTableRecord
100
AcDbLayerTableRecord
  2
211
 70
     0
 62
   211
  6
CONTINUOUS
  0
LAYER
  5
10D
330
2
100
AcDbSymbolTableRecord
100
AcDbLayerTableRecord
  2
212
 70
     0
 62
   212
  6
CONTINUOUS
  0
LAYER
  5
10E
330
2
100
AcDbSymbolTableRecord
100
AcDbLayerTableRecord
  2
213
 70
     0
 62
   213
  6
CONTINUOUS
  0
LAYER
  5
10F
330
2
100
AcDbSymbolTableRecord
100
AcDbLayerTableRecord
  2
214
 70
     0
 62
   214
  6
CONTINUOUS
  0
LAYER
  5
110
330
2
100
AcDbSymbolTableRecord
100
AcDbLayerTableRecord
  2
215
 70
     0
 62
   215
  6
CONTINUOUS
  0
LAYER
  5
111
330
2
100
AcDbSymbolTableRecord
100
AcDbLayerTableRecord
  2
216
 70
     0
 62
   216
  6
CONTINUOUS
  0
LAYER
  5
112
330
2
100
AcDbSymbolTableRecord
100
AcDbLayerTableRecord
  2
217
 70
     0
 62
   217
  6
CONTINUOUS
  0
LAYER
  5
113
330
2
100
AcDbSymbolTableRecord
100
AcDbLayerTableRecord
  2
218
 70
     0
 62
   218
  6
CONTINUOUS
  0
LAYER
  5
114
330
2
100
AcDbSymbolTableRecord
100
AcDbLayerTableRecord
  2
219
 70
     0
 62
   219
  6
CONTINUOUS
  0
LAYER
  5
115
330
2
100
AcDbSymbolTableRecord
100
AcDbLayerTableRecord
  2
220
 70
     0
 62
   220
  6
CONTINUOUS
  0
LAYER
  5
116
330
2
100
AcDbSymbolTableRecord
100
AcDbLayerTableRecord
  2
221
 70
     0
 62
   221
  6
CONTINUOUS
  0
LAYER
  5
117
330
2
100
AcDbSymbolTableRecord
100
AcDbLayerTableRecord
  2
222
 70
     0
 62
   222
  6
CONTINUOUS
  0
LAYER
  5
118
330
2
100
AcDbSymbolTableRecord
100
AcDbLayerTableRecord
  2
223
 70
     0
 62
   223
  6
CONTINUOUS
  0
LAYER
  5
119
330
2
100
AcDbSymbolTableRecord
100
AcDbLayerTableRecord
  2
224
 70
     0
 62
   224
  6
CONTINUOUS
  0
LAYER
  5
11A
330
2
100
AcDbSymbolTableRecord
100
AcDbLayerTableRecord
  2
225
 70
     0
 62
   225
  6
CONTINUOUS
  0
LAYER
  5
11B
330
2
100
AcDbSymbolTableRecord
100
AcDbLayerTableRecord
  2
226
 70
     0
 62
   226
  6
CONTINUOUS
  0
LAYER
  5
11C
330
2
100
AcDbSymbolTableRecord
100
AcDbLayerTableRecord
  2
227
 70
     0
 62
   227
  6
CONTINUOUS
  0
LAYER
  5
11D
330
2
100
AcDbSymbolTableRecord
100
AcDbLayerTableRecord
  2
228
 70
     0
 62
   228
  6
CONTINUOUS
  0
LAYER
  5
11E
330
2
100
AcDbSymbolTableRecord
100
AcDbLayerTableRecord
  2
229
 70
     0
 62
   229
  6
CONTINUOUS
  0
LAYER
  5
11F
330
2
100
AcDbSymbolTableRecord
100
AcDbLayerTableRecord
  2
230
 70
     0
 62
   230
  6
CONTINUOUS
  0
LAYER
  5
120
330
2
100
AcDbSymbolTableRecord
100
AcDbLayerTableRecord
  2
231
 70
     0
 62
   231
  6
CONTINUOUS
  0
LAYER
  5
121
330
2
100
AcDbSymbolTableRecord
100
AcDbLayerTableRecord
  2
232
 70
     0
 62
   232
  6
CONTINUOUS
  0
LAYER
  5
122
330
2
100
AcDbSymbolTableRecord
100
AcDbLayerTableRecord
  2
233
 70
     0
 62
   233
  6
CONTINUOUS
  0
LAYER
  5
123
330
2
100
AcDbSymbolTableRecord
100
AcDbLayerTableRecord
  2
234
 70
     0
 62
   234
  6
CONTINUOUS
  0
LAYER
  5
124
330
2
100
AcDbSymbolTableRecord
100
AcDbLayerTableRecord
  2
235
 70
     0
 62
   235
  6
CONTINUOUS
  0
LAYER
  5
125
330
2
100
AcDbSymbolTableRecord
100
AcDbLayerTableRecord
  2
236
 70
     0
 62
   236
  6
CONTINUOUS
  0
LAYER
  5
126
330
2
100
AcDbSymbolTableRecord
100
AcDbLayerTableRecord
  2
237
 70
     0
 62
   237
  6
CONTINUOUS
  0
LAYER
  5
127
330
2
100
AcDbSymbolTableRecord
100
AcDbLayerTableRecord
  2
238
 70
     0
 62
   238
  6
CONTINUOUS
  0
LAYER
  5
128
330
2
100
AcDbSymbolTableRecord
100
AcDbLayerTableRecord
  2
239
 70
     0
 62
   239
  6
CONTINUOUS
  0
LAYER
  5
129
330
2
100
AcDbSymbolTableRecord
100
AcDbLayerTableRecord
  2
240
 70
     0
 62
   240
  6
CONTINUOUS
  0
LAYER
  5
12A
330
2
100
AcDbSymbolTableRecord
100
AcDbLayerTableRecord
  2
241
 70
     0
 62
   241
  6
CONTINUOUS
  0
LAYER
  5
12B
330
2
100
AcDbSymbolTableRecord
100
AcDbLayerTableRecord
  2
242
 70
     0
 62
   242
  6
CONTINUOUS
  0
LAYER
  5
12C
330
2
100
AcDbSymbolTableRecord
100
AcDbLayerTableRecord
  2
243
 70
     0
 62
   243
  6
CONTINUOUS
  0
LAYER
  5
12D
330
2
100
AcDbSymbolTableRecord
100
AcDbLayerTableRecord
  2
244
 70
     0
 62
   244
  6
CONTINUOUS
  0
LAYER
  5
12E
330
2
100
AcDbSymbolTableRecord
100
AcDbLayerTableRecord
  2
245
 70
     0
 62
   245
  6
CONTINUOUS
  0
LAYER
  5
12F
330
2
100
AcDbSymbolTableRecord
100
AcDbLayerTableRecord
  2
246
 70
     0
 62
   246
  6
CONTINUOUS
  0
LAYER
  5
130
330
2
100
AcDbSymbolTableRecord
100
AcDbLayerTableRecord
  2
247
 70
     0
 62
   247
  6
CONTINUOUS
  0
LAYER
  5
131
330
2
100
AcDbSymbolTableRecord
100
AcDbLayerTableRecord
  2
248
 70
     0
 62
   248
  6
CONTINUOUS
  0
LAYER
  5
132
330
2
100
AcDbSymbolTableRecord
100
AcDbLayerTableRecord
  2
249
 70
     0
 62
   249
  6
CONTINUOUS
  0
LAYER
  5
133
330
2
100
AcDbSymbolTableRecord
100
AcDbLayerTableRecord
  2
250
 70
     0
 62
   250
  6
CONTINUOUS
  0
LAYER
  5
134
330
2
100
AcDbSymbolTableRecord
100
AcDbLayerTableRecord
  2
251
 70
     0
 62
   251
  6
CONTINUOUS
  0
LAYER
  5
135
330
2
100
AcDbSymbolTableRecord
100
AcDbLayerTableRecord
  2
252
 70
     0
 62
   252
  6
CONTINUOUS
  0
LAYER
  5
136
330
2
100
AcDbSymbolTableRecord
100
AcDbLayerTableRecord
  2
253
 70
     0
 62
   253
  6
CONTINUOUS
  0
LAYER
  5
137
330
2
100
AcDbSymbolTableRecord
100
AcDbLayerTableRecord
  2
254
 70
     0
 62
   254
  6
CONTINUOUS
  0
LAYER
  5
138
330
2
100
AcDbSymbolTableRecord
100
AcDbLayerTableRecord
  2
255
 70
     0
 62
   255
  6
CONTINUOUS
  0
LAYER
  5
31DA
330
2
100
AcDbSymbolTableRecord
100
AcDbLayerTableRecord
  2
DEFPOINTS
 70
     0
 62
     7
  6
CONTINUOUS
  0
ENDTAB
  0
TABLE
  2
STYLE
  5
3
330
0
100
AcDbSymbolTable
 70
     1
  0
STYLE
  5
11
330
3
100
AcDbSymbolTableRecord
100
AcDbTextStyleTableRecord
  2
STANDARD
 70
     0
 40
0.0
 41
1.0
 50
0.0
 71
     0
 42
0.2
  3
monotxt
  4

  0
ENDTAB
  0
TABLE
  2
VIEW
  5
6
330
0
100
AcDbSymbolTable
 70
     0
  0
ENDTAB
  0
TABLE
  2
UCS
  5
7
330
0
100
AcDbSymbolTable
 70
     0
  0
ENDTAB
  0
TABLE
  2
APPID
  5
9
330
0
100
AcDbSymbolTable
 70
     1
  0
APPID
  5
12
330
9
100
AcDbSymbolTableRecord
100
AcDbRegAppTableRecord
  2
ACAD
 70
     0
  0
ENDTAB
  0
TABLE
  2
DIMSTYLE
  5
A
330
0
100
AcDbSymbolTable
 70
     1
  0
DIMSTYLE
105
2ADD
330
A
100
AcDbSymbolTableRecord
100
AcDbDimStyleTableRecord
  2
STANDARD
 70
     0
  3

  4

  5

  6

  7

 40
1.0
 41
0.18
 42
0.0625
 43
0.38
 44
0.18
 45
0.0
 46
0.0
 47
0.0
 48
0.0
140
0.18
141
0.09
142
0.0
143
25.4
144
1.0
145
0.0
146
1.0
147
0.09
 71
     0
 72
     0
 73
     1
 74
     1
 75
     0
 76
     0
 77
     0
 78
     0
170
     0
171
     2
172
     0
173
     0
174
     0
175
     0
176
     0
177
     0
178
     0
270
     2
271
     4
272
     4
273
     2
274
     2
340
11
275
     0
280
     0
281
     0
282
     0
283
     1
284
     0
285
     0
286
     0
287
     3
288
     0
  0
ENDTAB
  0
TABLE
  2
BLOCK_RECORD
  5
1
330
0
100
AcDbSymbolTable
 70
     1
  0
BLOCK_RECORD
  5
1E
102
{ACAD_XDICTIONARY
360
31A3
102
}
330
1
100
AcDbSymbolTableRecord
100
AcDbBlockTableRecord
  2
*MODEL_SPACE
  0
BLOCK_RECORD
  5
1A
102
{ACAD_XDICTIONARY
360
31A5
102
}
330
1
100
AcDbSymbolTableRecord
100
AcDbBlockTableRecord
  2
*PAPER_SPACE
  0
ENDTAB
  0
ENDSEC
  0
SECTION
  2
BLOCKS
  0
BLOCK
  5
13B
330
1E
100
AcDbEntity
  8
0
100
AcDbBlockBegin
  2
*MODEL_SPACE
 70
     0
 10
0.0
 20
0.0
 30
0.0
  3
*MODEL_SPACE
  1

  0
ENDBLK
  5
13C
330
1E
100
AcDbEntity
  8
0
100
AcDbBlockEnd
  0
BLOCK
  5
139
330
1A
100
AcDbEntity
 67
     1
  8
0
100
AcDbBlockBegin
  2
*PAPER_SPACE
 70
     0
 10
0.0
 20
0.0
 30
0.0
  3
*PAPER_SPACE
  1

  0
ENDBLK
  5
13A
330
1A
100
AcDbEntity
 67
     1
  8
0
100
AcDbBlockEnd
  0
ENDSEC
  0
SECTION
  2
ENTITIES
  0
LINE
  5
2141
330
1E
100
AcDbEntity
  8
3
100
AcDbLine
 10
1.919291338582677
 20
5.581692913385826
 30
0.0
 11
1.933070866141732
 21
5.614173228346456
 31
0.0
  0
LINE
  5
2142
330
1E
100
AcDbEntity
  8
3
100
AcDbLine
 10
2.008858267716535
 20
5.581692913385826
 30
0.0
 11
1.977362204724409
 21
5.581692913385826
 31
0.0
  0
LINE
  5
2143
330
1E
100
AcDbEntity
  8
3
100
AcDbLine
 10
2.026574803149606
 20
5.625984251968503
 30
0.0
 11
2.012795275590551
 21
5.653543307086613
 31
0.0
  0
LINE
  5
2144
330
1E
100
AcDbEntity
  8
3
100
AcDbLine
 10
1.989173228346456
 20
5.653543307086613
 30
0.0
 11
2.012795275590551
 21
5.653543307086613
 31
0.0
  0
LINE
  5
2145
330
1E
100
AcDbEntity
  8
3
100
AcDbLine
 10
1.989173228346456
 20
5.606299212598425
 30
0.0
 11
1.989173228346456
 21
5.653543307086613
 31
0.0
  0
LINE
  5
2146
330
1E
100
AcDbEntity
  8
3
100
AcDbLine
 10
1.958661417322834
 20
5.627952755905512
 30
0.0
 11
1.96751968503937
 21
5.607283464566929
 31
0.0
  0
LINE
  5
2147
330
1E
100
AcDbEntity
  8
3
100
AcDbLine
 10
2.056102362204724
 20
5.581692913385826
 30
0.0
 11
2.056102362204724
 21
5.653543307086613
 31
0.0
  0
LINE
  5
214D
330
1E
100
AcDbEntity
  8
3
100
AcDbLine
 10
2.044291338582677
 20
5.581692913385826
 30
0.0
 11
2.02263779527559
 21
5.581692913385826
 31
0.0
  0
LINE
  5
214E
330
1E
100
AcDbEntity
  8
3
100
AcDbLine
 10
2.044291338582677
 20
5.653543307086613
 30
0.0
 11
2.044291338582677
 21
5.581692913385826
 31
0.0
  0
LINE
  5
214F
330
1E
100
AcDbEntity
  8
3
100
AcDbLine
 10
2.025590551181102
 20
5.653543307086613
 30
0.0
 11
2.044291338582677
 21
5.653543307086613
 31
0.0
  0
LINE
  5
2150
330
1E
100
AcDbEntity
  8
3
100
AcDbLine
 10
2.025590551181102
 20
5.625984251968503
 30
0.0
 11
2.025590551181102
 21
5.653543307086613
 31
0.0
  0
LINE
  5
2151
330
1E
100
AcDbEntity
  8
3
100
AcDbLine
 10
2.077755905511811
 20
5.638779527559055
 30
0.0
 11
2.084645669291338
 21
5.638779527559055
 31
0.0
  0
LINE
  5
2152
330
1E
100
AcDbEntity
  8
3
100
AcDbLine
 10
2.077755905511811
 20
5.598425196850393
 30
0.0
 11
2.077755905511811
 21
5.638779527559055
 31
0.0
  0
LINE
  5
2153
330
1E
100
AcDbEntity
  8
3
100
AcDbLine
 10
2.232283464566929
 20
5.581692913385826
 30
0.0
 11
2.232283464566929
 21
5.638779527559055
 31
0.0
  0
LINE
  5
2154
330
1E
100
AcDbEntity
  8
3
100
AcDbLine
 10
2.21751968503937
 20
5.638779527559055
 30
0.0
 11
2.232283464566929
 21
5.638779527559055
 31
0.0
  0
LINE
  5
2155
330
1E
100
AcDbEntity
  8
3
100
AcDbLine
 10
2.270669291338582
 20
5.638779527559055
 30
0.0
 11
2.253937007874015
 21
5.638779527559055
 31
0.0
  0
LINE
  5
2156
330
1E
100
AcDbEntity
  8
3
100
AcDbLine
 10
2.253937007874015
 20
5.581692913385826
 30
0.0
 11
2.253937007874015
 21
5.638779527559055
 31
0.0
  0
LINE
  5
2157
330
1E
100
AcDbEntity
  8
3
100
AcDbLine
 10
2.253937007874015
 20
5.581692913385826
 30
0.0
 11
2.232283464566929
 21
5.581692913385826
 31
0.0
  0
LINE
  5
2158
330
1E
100
AcDbEntity
  8
3
100
AcDbLine
 10
2.21751968503937
 20
5.653543307086613
 30
0.0
 11
2.21751968503937
 21
5.638779527559055
 31
0.0
  0
LINE
  5
2159
330
1E
100
AcDbEntity
  8
3
100
AcDbLine
 10
2.21751968503937
 20
5.653543307086613
 30
0.0
 11
2.270669291338582
 21
5.653543307086613
 31
0.0
  0
LINE
  5
215A
330
1E
100
AcDbEntity
  8
3
100
AcDbLine
 10
2.270669291338582
 20
5.638779527559055
 30
0.0
 11
2.270669291338582
 21
5.653543307086613
 31
0.0
  0
LINE
  5
215B
330
1E
100
AcDbEntity
  8
3
100
AcDbLine
 10
2.204724409448818
 20
5.581692913385826
 30
0.0
 11
2.204724409448818
 21
5.653543307086613
 31
0.0
  0
LINE
  5
2162
330
1E
100
AcDbEntity
  8
3
100
AcDbLine
 10
2.096456692913386
 20
5.581692913385826
 30
0.0
 11
2.056102362204724
 21
5.581692913385826
 31
0.0
  0
LINE
  5
2163
330
1E
100
AcDbEntity
  8
3
100
AcDbLine
 10
2.109251968503937
 20
5.640748031496062
 30
0.0
 11
2.109251968503937
 21
5.594488188976377
 31
0.0
  0
LINE
  5
2164
330
1E
100
AcDbEntity
  8
3
100
AcDbLine
 10
2.056102362204724
 20
5.653543307086613
 30
0.0
 11
2.096456692913386
 21
5.653543307086613
 31
0.0
  0
LINE
  5
2165
330
1E
100
AcDbEntity
  8
3
100
AcDbLine
 10
1.940944881889763
 20
5.581692913385826
 30
0.0
 11
1.919291338582677
 21
5.581692913385826
 31
0.0
  0
LINE
  5
2166
330
1E
100
AcDbEntity
  8
3
100
AcDbLine
 10
1.940944881889763
 20
5.581692913385826
 30
0.0
 11
1.944881889763779
 21
5.591535433070865
 31
0.0
  0
LINE
  5
2167
330
1E
100
AcDbEntity
  8
3
100
AcDbLine
 10
1.944881889763779
 20
5.591535433070865
 30
0.0
 11
1.972440944881889
 21
5.591535433070865
 31
0.0
  0
LINE
  5
2168
330
1E
100
AcDbEntity
  8
3
100
AcDbLine
 10
1.972440944881889
 20
5.591535433070865
 30
0.0
 11
1.977362204724409
 21
5.581692913385826
 31
0.0
  0
LINE
  5
2169
330
1E
100
AcDbEntity
  8
3
100
AcDbLine
 10
1.968503937007873
 20
5.653543307086613
 30
0.0
 11
1.989173228346456
 21
5.606299212598425
 31
0.0
  0
LINE
  5
216A
330
1E
100
AcDbEntity
  8
3
100
AcDbLine
 10
1.948818897637795
 20
5.653543307086613
 30
0.0
 11
1.968503937007873
 21
5.653543307086613
 31
0.0
  0
LINE
  5
216B
330
1E
100
AcDbEntity
  8
3
100
AcDbLine
 10
1.895669291338582
 20
5.658464566929134
 30
0.0
 11
1.904527559055118
 21
5.658464566929134
 31
0.0
  0
LINE
  5
216C
330
1E
100
AcDbEntity
  8
3
100
AcDbLine
 10
1.895669291338582
 20
5.625984251968503
 30
0.0
 11
1.895669291338582
 21
5.658464566929134
 31
0.0
  0
LINE
  5
216D
330
1E
100
AcDbEntity
  8
3
100
AcDbLine
 10
1.895669291338582
 20
5.581692913385826
 30
0.0
 11
1.853346456692913
 21
5.581692913385826
 31
0.0
  0
LINE
  5
216E
330
1E
100
AcDbEntity
  8
3
100
AcDbLine
 10
1.895669291338582
 20
5.611220472440945
 30
0.0
 11
1.895669291338582
 21
5.581692913385826
 31
0.0
  0
LINE
  5
216F
330
1E
100
AcDbEntity
  8
3
100
AcDbLine
 10
1.895669291338582
 20
5.611220472440945
 30
0.0
 11
1.918307086614173
 21
5.611220472440945
 31
0.0
  0
LINE
  5
2170
330
1E
100
AcDbEntity
  8
3
100
AcDbLine
 10
1.853346456692913
 20
5.6751968503937
 30
0.0
 11
1.918307086614173
 21
5.6751968503937
 31
0.0
  0
LINE
  5
2171
330
1E
100
AcDbEntity
  8
3
100
AcDbLine
 10
1.853346456692913
 20
5.581692913385826
 30
0.0
 11
1.853346456692913
 21
5.6751968503937
 31
0.0
  0
LINE
  5
2172
330
1E
100
AcDbEntity
  8
3
100
AcDbLine
 10
2.134842519685039
 20
5.581692913385826
 30
0.0
 11
2.160433070866141
 21
5.581692913385826
 31
0.0
  0
LINE
  5
2173
330
1E
100
AcDbEntity
  8
3
100
AcDbLine
 10
2.173228346456693
 20
5.653543307086613
 30
0.0
 11
2.173228346456693
 21
5.594488188976377
 31
0.0
  0
LINE
  5
2174
330
1E
100
AcDbEntity
  8
3
100
AcDbLine
 10
2.158464566929133
 20
5.653543307086613
 30
0.0
 11
2.173228346456693
 21
5.653543307086613
 31
0.0
  0
LINE
  5
2175
330
1E
100
AcDbEntity
  8
3
100
AcDbLine
 10
2.158464566929133
 20
5.601377952755905
 30
0.0
 11
2.158464566929133
 21
5.653543307086613
 31
0.0
  0
LINE
  5
2176
330
1E
100
AcDbEntity
  8
3
100
AcDbLine
 10
2.149606299212598
 20
5.598425196850393
 30
0.0
 11
2.154527559055118
 21
5.598425196850393
 31
0.0
  0
LINE
  5
2177
330
1E
100
AcDbEntity
  8
3
100
AcDbLine
 10
2.145669291338582
 20
5.653543307086613
 30
0.0
 11
2.145669291338582
 21
5.601377952755905
 31
0.0
  0
LINE
  5
2178
330
1E
100
AcDbEntity
  8
3
100
AcDbLine
 10
2.122047244094488
 20
5.653543307086613
 30
0.0
 11
2.145669291338582
 21
5.653543307086613
 31
0.0
  0
LINE
  5
2179
330
1E
100
AcDbEntity
  8
3
100
AcDbLine
 10
2.122047244094488
 20
5.594488188976377
 30
0.0
 11
2.122047244094488
 21
5.653543307086613
 31
0.0
  0
LINE
  5
217A
330
1E
100
AcDbEntity
  8
3
100
AcDbLine
 10
2.077755905511811
 20
5.598425196850393
 30
0.0
 11
2.084645669291338
 21
5.598425196850393
 31
0.0
  0
LINE
  5
217B
330
1E
100
AcDbEntity
  8
3
100
AcDbLine
 10
2.088582677165354
 20
5.634842519685039
 30
0.0
 11
2.088582677165354
 21
5.601377952755905
 31
0.0
  0
LINE
  5
217C
330
1E
100
AcDbEntity
  8
3
100
AcDbLine
 10
2.186023622047243
 20
5.581692913385826
 30
0.0
 11
2.186023622047243
 21
5.653543307086613
 31
0.0
  0
LINE
  5
217D
330
1E
100
AcDbEntity
  8
3
100
AcDbLine
 10
2.204724409448818
 20
5.581692913385826
 30
0.0
 11
2.204724409448818
 21
5.653543307086613
 31
0.0
  0
LINE
  5
217E
330
1E
100
AcDbEntity
  8
3
100
AcDbLine
 10
2.204724409448818
 20
5.581692913385826
 30
0.0
 11
2.186023622047243
 21
5.581692913385826
 31
0.0
  0
LINE
  5
217F
330
1E
100
AcDbEntity
  8
3
100
AcDbLine
 10
2.21751968503937
 20
5.653543307086613
 30
0.0
 11
2.270669291338582
 21
5.653543307086613
 31
0.0
  0
LINE
  5
2180
330
1E
100
AcDbEntity
  8
3
100
AcDbLine
 10
2.270669291338582
 20
5.638779527559055
 30
0.0
 11
2.253937007874015
 21
5.638779527559055
 31
0.0
  0
LINE
  5
2181
330
1E
100
AcDbEntity
  8
3
100
AcDbLine
 10
2.253937007874015
 20
5.581692913385826
 30
0.0
 11
2.253937007874015
 21
5.638779527559055
 31
0.0
  0
LINE
  5
2182
330
1E
100
AcDbEntity
  8
3
100
AcDbLine
 10
2.232283464566929
 20
5.581692913385826
 30
0.0
 11
2.232283464566929
 21
5.638779527559055
 31
0.0
  0
LINE
  5
2183
330
1E
100
AcDbEntity
  8
3
100
AcDbLine
 10
2.077755905511811
 20
5.638779527559055
 30
0.0
 11
2.084645669291338
 21
5.638779527559055
 31
0.0
  0
LINE
  5
2184
330
1E
100
AcDbEntity
  8
3
100
AcDbLine
 10
2.077755905511811
 20
5.598425196850393
 30
0.0
 11
2.077755905511811
 21
5.638779527559055
 31
0.0
  0
LINE
  5
2185
330
1E
100
AcDbEntity
  8
3
100
AcDbLine
 10
2.096456692913386
 20
5.581692913385826
 30
0.0
 11
2.056102362204724
 21
5.581692913385826
 31
0.0
  0
LINE
  5
2186
330
1E
100
AcDbEntity
  8
3
100
AcDbLine
 10
2.109251968503937
 20
5.640748031496062
 30
0.0
 11
2.109251968503937
 21
5.594488188976377
 31
0.0
  0
LINE
  5
2187
330
1E
100
AcDbEntity
  8
3
100
AcDbLine
 10
2.056102362204724
 20
5.653543307086613
 30
0.0
 11
2.096456692913386
 21
5.653543307086613
 31
0.0
  0
LINE
  5
2188
330
1E
100
AcDbEntity
  8
3
100
AcDbLine
 10
2.056102362204724
 20
5.581692913385826
 30
0.0
 11
2.056102362204724
 21
5.653543307086613
 31
0.0
  0
LINE
  5
218E
330
1E
100
AcDbEntity
  8
3
100
AcDbLine
 10
2.044291338582677
 20
5.581692913385826
 30
0.0
 11
2.02263779527559
 21
5.581692913385826
 31
0.0
  0
LINE
  5
218F
330
1E
100
AcDbEntity
  8
3
100
AcDbLine
 10
2.044291338582677
 20
5.653543307086613
 30
0.0
 11
2.044291338582677
 21
5.581692913385826
 31
0.0
  0
LINE
  5
2190
330
1E
100
AcDbEntity
  8
3
100
AcDbLine
 10
2.025590551181102
 20
5.653543307086613
 30
0.0
 11
2.044291338582677
 21
5.653543307086613
 31
0.0
  0
LINE
  5
2191
330
1E
100
AcDbEntity
  8
3
100
AcDbLine
 10
2.025590551181102
 20
5.625984251968503
 30
0.0
 11
2.025590551181102
 21
5.653543307086613
 31
0.0
  0
LINE
  5
2192
330
1E
100
AcDbEntity
  8
3
100
AcDbLine
 10
2.026574803149606
 20
5.625984251968503
 30
0.0
 11
2.012795275590551
 21
5.653543307086613
 31
0.0
  0
LINE
  5
2193
330
1E
100
AcDbEntity
  8
3
100
AcDbLine
 10
1.989173228346456
 20
5.653543307086613
 30
0.0
 11
2.012795275590551
 21
5.653543307086613
 31
0.0
  0
LINE
  5
2194
330
1E
100
AcDbEntity
  8
3
100
AcDbLine
 10
1.989173228346456
 20
5.606299212598425
 30
0.0
 11
1.989173228346456
 21
5.653543307086613
 31
0.0
  0
LINE
  5
2195
330
1E
100
AcDbEntity
  8
3
100
AcDbLine
 10
1.958661417322834
 20
5.627952755905512
 30
0.0
 11
1.96751968503937
 21
5.607283464566929
 31
0.0
  0
LINE
  5
2196
330
1E
100
AcDbEntity
  8
3
100
AcDbLine
 10
1.949803149606299
 20
5.607283464566929
 30
0.0
 11
1.958661417322834
 21
5.627952755905512
 31
0.0
  0
LINE
  5
2197
330
1E
100
AcDbEntity
  8
3
100
AcDbLine
 10
1.949803149606299
 20
5.607283464566929
 30
0.0
 11
1.96751968503937
 21
5.607283464566929
 31
0.0
  0
LINE
  5
2198
330
1E
100
AcDbEntity
  8
3
100
AcDbLine
 10
2.008858267716535
 20
5.581692913385826
 30
0.0
 11
1.977362204724409
 21
5.581692913385826
 31
0.0
  0
LINE
  5
2199
330
1E
100
AcDbEntity
  8
3
100
AcDbLine
 10
1.940944881889763
 20
5.581692913385826
 30
0.0
 11
1.919291338582677
 21
5.581692913385826
 31
0.0
  0
LINE
  5
219F
330
1E
100
AcDbEntity
  8
3
100
AcDbLine
 10
1.968503937007873
 20
5.653543307086613
 30
0.0
 11
1.989173228346456
 21
5.606299212598425
 31
0.0
  0
LINE
  5
21A0
330
1E
100
AcDbEntity
  8
3
100
AcDbLine
 10
1.895669291338582
 20
5.625984251968503
 30
0.0
 11
1.904527559055118
 21
5.625984251968503
 31
0.0
  0
LINE
  5
21A1
330
1E
100
AcDbEntity
  8
3
100
AcDbLine
 10
1.909448818897637
 20
5.630905511811024
 30
0.0
 11
1.909448818897637
 21
5.654527559055118
 31
0.0
  0
LINE
  5
21A2
330
1E
100
AcDbEntity
  8
3
100
AcDbLine
 10
1.895669291338582
 20
5.625984251968503
 30
0.0
 11
1.895669291338582
 21
5.658464566929134
 31
0.0
  0
LINE
  5
21A3
330
1E
100
AcDbEntity
  8
3
100
AcDbLine
 10
1.895669291338582
 20
5.581692913385826
 30
0.0
 11
1.853346456692913
 21
5.581692913385826
 31
0.0
  0
LINE
  5
21A4
330
1E
100
AcDbEntity
  8
3
100
AcDbLine
 10
1.895669291338582
 20
5.611220472440945
 30
0.0
 11
1.895669291338582
 21
5.581692913385826
 31
0.0
  0
LINE
  5
21A5
330
1E
100
AcDbEntity
  8
3
100
AcDbLine
 10
1.895669291338582
 20
5.611220472440945
 30
0.0
 11
1.918307086614173
 21
5.611220472440945
 31
0.0
  0
LINE
  5
21A6
330
1E
100
AcDbEntity
  8
3
100
AcDbLine
 10
1.853346456692913
 20
5.6751968503937
 30
0.0
 11
1.918307086614173
 21
5.6751968503937
 31
0.0
  0
LINE
  5
21A7
330
1E
100
AcDbEntity
  8
3
100
AcDbLine
 10
1.853346456692913
 20
5.581692913385826
 30
0.0
 11
1.853346456692913
 21
5.6751968503937
 31
0.0
  0
LINE
  5
21A8
330
1E
100
AcDbEntity
  8
3
100
AcDbLine
 10
2.134842519685039
 20
5.581692913385826
 30
0.0
 11
2.160433070866141
 21
5.581692913385826
 31
0.0
  0
LINE
  5
21A9
330
1E
100
AcDbEntity
  8
3
100
AcDbLine
 10
2.173228346456693
 20
5.653543307086613
 30
0.0
 11
2.173228346456693
 21
5.594488188976377
 31
0.0
  0
LINE
  5
21AA
330
1E
100
AcDbEntity
  8
3
100
AcDbLine
 10
2.158464566929133
 20
5.653543307086613
 30
0.0
 11
2.173228346456693
 21
5.653543307086613
 31
0.0
  0
LINE
  5
21AB
330
1E
100
AcDbEntity
  8
3
100
AcDbLine
 10
2.158464566929133
 20
5.601377952755905
 30
0.0
 11
2.158464566929133
 21
5.653543307086613
 31
0.0
  0
LINE
  5
21AC
330
1E
100
AcDbEntity
  8
3
100
AcDbLine
 10
2.149606299212598
 20
5.598425196850393
 30
0.0
 11
2.154527559055118
 21
5.598425196850393
 31
0.0
  0
LINE
  5
21AD
330
1E
100
AcDbEntity
  8
3
100
AcDbLine
 10
2.145669291338582
 20
5.653543307086613
 30
0.0
 11
2.145669291338582
 21
5.601377952755905
 31
0.0
  0
LINE
  5
21AE
330
1E
100
AcDbEntity
  8
3
100
AcDbLine
 10
2.122047244094488
 20
5.653543307086613
 30
0.0
 11
2.145669291338582
 21
5.653543307086613
 31
0.0
  0
LINE
  5
21AF
330
1E
100
AcDbEntity
  8
3
100
AcDbLine
 10
2.122047244094488
 20
5.594488188976377
 30
0.0
 11
2.122047244094488
 21
5.653543307086613
 31
0.0
  0
LINE
  5
21B0
330
1E
100
AcDbEntity
  8
3
100
AcDbLine
 10
2.077755905511811
 20
5.598425196850393
 30
0.0
 11
2.084645669291338
 21
5.598425196850393
 31
0.0
  0
LINE
  5
21B1
330
1E
100
AcDbEntity
  8
3
100
AcDbLine
 10
2.088582677165354
 20
5.634842519685039
 30
0.0
 11
2.088582677165354
 21
5.601377952755905
 31
0.0
  0
LINE
  5
21B2
330
1E
100
AcDbEntity
  8
3
100
AcDbLine
 10
1.940944881889763
 20
5.581692913385826
 30
0.0
 11
1.944881889763779
 21
5.591535433070865
 31
0.0
  0
LINE
  5
21B3
330
1E
100
AcDbEntity
  8
3
100
AcDbLine
 10
2.186023622047243
 20
5.653543307086613
 30
0.0
 11
2.204724409448818
 21
5.653543307086613
 31
0.0
  0
LINE
  5
21B4
330
1E
100
AcDbEntity
  8
3
100
AcDbLine
 10
2.253937007874015
 20
5.581692913385826
 30
0.0
 11
2.232283464566929
 21
5.581692913385826
 31
0.0
  0
LINE
  5
21B5
330
1E
100
AcDbEntity
  8
3
100
AcDbLine
 10
2.270669291338582
 20
5.638779527559055
 30
0.0
 11
2.270669291338582
 21
5.653543307086613
 31
0.0
  0
LINE
  5
21B6
330
1E
100
AcDbEntity
  8
3
100
AcDbLine
 10
2.21751968503937
 20
5.653543307086613
 30
0.0
 11
2.21751968503937
 21
5.638779527559055
 31
0.0
  0
LINE
  5
21B7
330
1E
100
AcDbEntity
  8
3
100
AcDbLine
 10
1.919291338582677
 20
5.581692913385826
 30
0.0
 11
1.933070866141732
 21
5.614173228346456
 31
0.0
  0
LINE
  5
21B8
330
1E
100
AcDbEntity
  8
3
100
AcDbLine
 10
2.21751968503937
 20
5.638779527559055
 30
0.0
 11
2.232283464566929
 21
5.638779527559055
 31
0.0
  0
LINE
  5
21B9
330
1E
100
AcDbEntity
  8
3
100
AcDbLine
 10
1.895669291338582
 20
5.658464566929134
 30
0.0
 11
1.904527559055118
 21
5.658464566929134
 31
0.0
  0
LINE
  5
21BA
330
1E
100
AcDbEntity
  8
3
100
AcDbLine
 10
1.948818897637795
 20
5.653543307086613
 30
0.0
 11
1.968503937007873
 21
5.653543307086613
 31
0.0
  0
LINE
  5
21BB
330
1E
100
AcDbEntity
  8
3
100
AcDbLine
 10
1.949803149606299
 20
5.607283464566929
 30
0.0
 11
1.958661417322834
 21
5.627952755905512
 31
0.0
  0
LINE
  5
21BC
330
1E
100
AcDbEntity
  8
3
100
AcDbLine
 10
1.949803149606299
 20
5.607283464566929
 30
0.0
 11
1.96751968503937
 21
5.607283464566929
 31
0.0
  0
LINE
  5
21BD
330
1E
100
AcDbEntity
  8
3
100
AcDbLine
 10
1.895669291338582
 20
5.625984251968503
 30
0.0
 11
1.904527559055118
 21
5.625984251968503
 31
0.0
  0
LINE
  5
21BE
330
1E
100
AcDbEntity
  8
3
100
AcDbLine
 10
1.909448818897637
 20
5.630905511811024
 30
0.0
 11
1.909448818897637
 21
5.654527559055118
 31
0.0
  0
LINE
  5
21C8
330
1E
100
AcDbEntity
  8
7
100
AcDbLine
 10
2.823818897637795
 20
5.662401574803149
 30
0.0
 11
2.836614173228346
 21
5.645669291338582
 31
0.0
  0
LINE
  5
21CE
330
1E
100
AcDbEntity
  8
7
100
AcDbLine
 10
2.891732283464567
 20
5.629921259842519
 30
0.0
 11
2.861220472440944
 21
5.629921259842519
 31
0.0
  0
LINE
  5
21D4
330
1E
100
AcDbEntity
  8
7
100
AcDbLine
 10
2.952755905511811
 20
5.581692913385826
 30
0.0
 11
2.968503937007874
 21
5.581692913385826
 31
0.0
  0
LINE
  5
21D5
330
1E
100
AcDbEntity
  8
7
100
AcDbLine
 10
3.040354330708661
 20
5.581692913385826
 30
0.0
 11
3.053149606299212
 21
5.590551181102362
 31
0.0
  0
LINE
  5
21FB
330
1E
100
AcDbEntity
  8
7
100
AcDbLine
 10
2.025590551181102
 20
4.433070866141732
 30
0.0
 11
2.106299212598425
 21
4.433070866141732
 31
0.0
  0
LINE
  5
21FC
330
1E
100
AcDbEntity
  8
7
100
AcDbLine
 10
2.158464566929133
 20
4.380905511811024
 30
0.0
 11
2.106299212598425
 21
4.433070866141732
 31
0.0
  0
LINE
  5
21FD
330
1E
100
AcDbEntity
  8
7
100
AcDbLine
 10
2.875
 20
4.369094488188976
 30
0.0
 11
2.187007874015748
 21
4.369094488188976
 31
0.0
  0
LINE
  5
21FE
330
1E
100
AcDbEntity
  8
7
100
AcDbLine
 10
2.89271653543307
 20
4.308070866141732
 30
0.0
 11
2.169291338582677
 21
4.308070866141732
 31
0.0
  0
LINE
  5
21FF
330
1E
100
AcDbEntity
  8
7
100
AcDbLine
 10
2.903543307086614
 20
4.380905511811024
 30
0.0
 11
2.955708661417323
 21
4.433070866141732
 31
0.0
  0
LINE
  5
2200
330
1E
100
AcDbEntity
  8
7
100
AcDbLine
 10
2.106299212598425
 20
5.294291338582676
 30
0.0
 11
2.025590551181102
 21
5.294291338582676
 31
0.0
  0
LINE
  5
2201
330
1E
100
AcDbEntity
  8
7
100
AcDbLine
 10
2.106299212598425
 20
5.294291338582676
 30
0.0
 11
2.158464566929133
 21
5.346456692913386
 31
0.0
  0
LINE
  5
2202
330
1E
100
AcDbEntity
  8
7
100
AcDbLine
 10
2.187007874015748
 20
5.358267716535433
 30
0.0
 11
2.875
 21
5.358267716535433
 31
0.0
  0
LINE
  5
2203
330
1E
100
AcDbEntity
  8
7
100
AcDbLine
 10
2.955708661417323
 20
5.294291338582676
 30
0.0
 11
2.903543307086614
 21
5.346456692913386
 31
0.0
  0
LINE
  5
2204
330
1E
100
AcDbEntity
  8
7
100
AcDbLine
 10
2.955708661417323
 20
5.294291338582676
 30
0.0
 11
3.035433070866141
 21
5.294291338582676
 31
0.0
  0
LINE
  5
2205
330
1E
100
AcDbEntity
  8
7
100
AcDbLine
 10
2.025590551181102
 20
5.96259842519685
 30
0.0
 11
2.106299212598425
 21
5.96259842519685
 31
0.0
  0
LINE
  5
2206
330
1E
100
AcDbEntity
  8
7
100
AcDbLine
 10
2.158464566929133
 20
5.910433070866141
 30
0.0
 11
2.106299212598425
 21
5.96259842519685
 31
0.0
  0
LINE
  5
2207
330
1E
100
AcDbEntity
  8
7
100
AcDbLine
 10
2.875
 20
5.898622047244094
 30
0.0
 11
2.187007874015748
 21
5.898622047244094
 31
0.0
  0
LINE
  5
2208
330
1E
100
AcDbEntity
  8
7
100
AcDbLine
 10
2.89271653543307
 20
5.83759842519685
 30
0.0
 11
2.169291338582677
 21
5.83759842519685
 31
0.0
  0
LINE
  5
2209
330
1E
100
AcDbEntity
  8
7
100
AcDbLine
 10
2.903543307086614
 20
5.910433070866141
 30
0.0
 11
2.955708661417323
 21
5.96259842519685
 31
0.0
  0
LINE
  5
220A
330
1E
100
AcDbEntity
  8
7
100
AcDbLine
 10
3.173228346456693
 20
6.990157480314961
 30
0.0
 11
3.174212598425196
 21
6.991141732283464
 31
0.0
  0
LINE
  5
220B
330
1E
100
AcDbEntity
  8
7
100
AcDbLine
 10
1.887795275590551
 20
6.991141732283464
 30
0.0
 11
1.888779527559055
 21
6.990157480314961
 31
0.0
  0
LINE
  5
220C
330
1E
100
AcDbEntity
  8
7
100
AcDbLine
 10
1.887795275590551
 20
6.991141732283464
 30
0.0
 11
3.174212598425196
 21
6.991141732283464
 31
0.0
  0
LINE
  5
220D
330
1E
100
AcDbEntity
  8
7
100
AcDbLine
 10
3.233267716535433
 20
5.881889763779527
 30
0.0
 11
3.234251968503937
 21
5.880905511811024
 31
0.0
  0
LINE
  5
220E
330
1E
100
AcDbEntity
  8
7
100
AcDbLine
 10
3.234251968503937
 20
6.931102362204724
 30
0.0
 11
3.233267716535433
 21
6.93011811023622
 31
0.0
  0
LINE
  5
220F
330
1E
100
AcDbEntity
  8
7
100
AcDbLine
 10
3.234251968503937
 20
6.931102362204724
 30
0.0
 11
3.234251968503937
 21
5.880905511811024
 31
0.0
  0
LINE
  5
2210
330
1E
100
AcDbEntity
  8
7
100
AcDbLine
 10
1.888779527559055
 20
5.821850393700787
 30
0.0
 11
1.887795275590551
 21
5.820866141732283
 31
0.0
  0
LINE
  5
2211
330
1E
100
AcDbEntity
  8
7
100
AcDbLine
 10
3.174212598425196
 20
5.820866141732283
 30
0.0
 11
3.173228346456693
 21
5.821850393700787
 31
0.0
  0
LINE
  5
2212
330
1E
100
AcDbEntity
  8
7
100
AcDbLine
 10
1.888779527559055
 20
6.990157480314961
 30
0.0
 11
3.173228346456693
 21
6.990157480314961
 31
0.0
  0
LINE
  5
2213
330
1E
100
AcDbEntity
  8
7
100
AcDbLine
 10
3.233267716535433
 20
6.93011811023622
 30
0.0
 11
3.233267716535433
 21
5.881889763779527
 31
0.0
  0
LINE
  5
2214
330
1E
100
AcDbEntity
  8
7
100
AcDbLine
 10
1.828740157480314
 20
6.93011811023622
 30
0.0
 11
1.82775590551181
 21
6.931102362204724
 31
0.0
  0
LINE
  5
2215
330
1E
100
AcDbEntity
  8
7
100
AcDbLine
 10
1.828740157480314
 20
6.93011811023622
 30
0.0
 11
1.828740157480314
 21
5.881889763779527
 31
0.0
  0
LINE
  5
2216
330
1E
100
AcDbEntity
  8
7
100
AcDbLine
 10
1.82775590551181
 20
6.931102362204724
 30
0.0
 11
1.82775590551181
 21
5.880905511811024
 31
0.0
  0
LINE
  5
2217
330
1E
100
AcDbEntity
  8
7
100
AcDbLine
 10
3.233267716535433
 20
4.326771653543307
 30
0.0
 11
3.234251968503937
 21
4.325787401574802
 31
0.0
  0
LINE
  5
2218
330
1E
100
AcDbEntity
  8
7
100
AcDbLine
 10
1.888779527559055
 20
4.266732283464566
 30
0.0
 11
1.887795275590551
 21
4.265748031496062
 31
0.0
  0
LINE
  5
2219
330
1E
100
AcDbEntity
  8
7
100
AcDbLine
 10
3.174212598425196
 20
4.265748031496062
 30
0.0
 11
3.173228346456693
 21
4.266732283464566
 31
0.0
  0
LINE
  5
221A
330
1E
100
AcDbEntity
  8
7
100
AcDbLine
 10
1.887795275590551
 20
4.265748031496062
 30
0.0
 11
3.174212598425196
 21
4.265748031496062
 31
0.0
  0
LINE
  5
221B
330
1E
100
AcDbEntity
  8
7
100
AcDbLine
 10
3.233267716535433
 20
5.375
 30
0.0
 11
3.233267716535433
 21
4.326771653543307
 31
0.0
  0
LINE
  5
221C
330
1E
100
AcDbEntity
  8
7
100
AcDbLine
 10
1.888779527559055
 20
4.266732283464566
 30
0.0
 11
3.173228346456693
 21
4.266732283464566
 31
0.0
  0
LINE
  5
221D
330
1E
100
AcDbEntity
  8
7
100
AcDbLine
 10
1.82775590551181
 20
4.325787401574802
 30
0.0
 11
1.828740157480314
 21
4.326771653543307
 31
0.0
  0
LINE
  5
221E
330
1E
100
AcDbEntity
  8
7
100
AcDbLine
 10
1.828740157480314
 20
5.375
 30
0.0
 11
1.82775590551181
 21
5.375984251968503
 31
0.0
  0
LINE
  5
221F
330
1E
100
AcDbEntity
  8
7
100
AcDbLine
 10
1.828740157480314
 20
5.375
 30
0.0
 11
1.828740157480314
 21
4.326771653543307
 31
0.0
  0
LINE
  5
2220
330
1E
100
AcDbEntity
  8
7
100
AcDbLine
 10
2.485236220472441
 20
7.317913385826771
 30
0.0
 11
2.485236220472441
 21
7.349409448818897
 31
0.0
  0
LINE
  5
2221
330
1E
100
AcDbEntity
  8
7
100
AcDbLine
 10
2.575787401574803
 20
7.317913385826771
 30
0.0
 11
2.485236220472441
 21
7.317913385826771
 31
0.0
  0
LINE
  5
2222
330
1E
100
AcDbEntity
  8
7
100
AcDbLine
 10
2.575787401574803
 20
7.317913385826771
 30
0.0
 11
2.575787401574803
 21
7.349409448818897
 31
0.0
  0
LINE
  5
2223
330
1E
100
AcDbEntity
  8
7
100
AcDbLine
 10
2.486220472440944
 20
7.349409448818897
 30
0.0
 11
2.575787401574803
 21
7.349409448818897
 31
0.0
  0
LINE
  5
2224
330
1E
100
AcDbEntity
  8
7
100
AcDbLine
 10
2.485236220472441
 20
7.220472440944881
 30
0.0
 11
2.575787401574803
 21
7.220472440944881
 31
0.0
  0
LINE
  5
2225
330
1E
100
AcDbEntity
  8
7
100
AcDbLine
 10
2.485236220472441
 20
7.220472440944881
 30
0.0
 11
2.485236220472441
 21
7.188976377952755
 31
0.0
  0
LINE
  5
222B
330
1E
100
AcDbEntity
  8
7
100
AcDbLine
 10
2.485236220472441
 20
4.037401574803149
 30
0.0
 11
2.575787401574803
 21
4.037401574803149
 31
0.0
  0
LINE
  5
222C
330
1E
100
AcDbEntity
  8
7
100
AcDbLine
 10
2.485236220472441
 20
4.037401574803149
 30
0.0
 11
2.485236220472441
 21
4.067913385826771
 31
0.0
  0
LINE
  5
222D
330
1E
100
AcDbEntity
  8
7
100
AcDbLine
 10
2.575787401574803
 20
4.037401574803149
 30
0.0
 11
2.575787401574803
 21
4.067913385826771
 31
0.0
  0
LINE
  5
222E
330
1E
100
AcDbEntity
  8
7
100
AcDbLine
 10
2.486220472440944
 20
4.067913385826771
 30
0.0
 11
2.575787401574803
 21
4.067913385826771
 31
0.0
  0
LINE
  5
222F
330
1E
100
AcDbEntity
  8
7
100
AcDbLine
 10
2.485236220472441
 20
3.938976377952755
 30
0.0
 11
2.485236220472441
 21
3.908464566929133
 31
0.0
  0
LINE
  5
2230
330
1E
100
AcDbEntity
  8
7
100
AcDbLine
 10
2.575787401574803
 20
3.938976377952755
 30
0.0
 11
2.485236220472441
 21
3.938976377952755
 31
0.0
  0
LINE
  5
2231
330
1E
100
AcDbEntity
  8
7
100
AcDbLine
 10
2.575787401574803
 20
3.938976377952755
 30
0.0
 11
2.575787401574803
 21
3.908464566929133
 31
0.0
  0
LINE
  5
2232
330
1E
100
AcDbEntity
  8
7
100
AcDbLine
 10
2.575787401574803
 20
3.907480314960629
 30
0.0
 11
2.486220472440944
 21
3.907480314960629
 31
0.0
  0
LINE
  5
2233
330
1E
100
AcDbEntity
  8
7
100
AcDbLine
 10
2.575787401574803
 20
7.4251968503937
 30
0.0
 11
2.575787401574803
 21
7.426181102362204
 31
0.0
  0
LINE
  5
2234
330
1E
100
AcDbEntity
  8
7
100
AcDbLine
 10
2.486220472440944
 20
7.112204724409449
 30
0.0
 11
2.575787401574803
 21
7.112204724409449
 31
0.0
  0
LINE
  5
2235
330
1E
100
AcDbEntity
  8
7
100
AcDbLine
 10
2.575787401574803
 20
7.426181102362204
 30
0.0
 11
2.486220472440944
 21
7.426181102362204
 31
0.0
  0
LINE
  5
2236
330
1E
100
AcDbEntity
  8
7
100
AcDbLine
 10
2.486220472440944
 20
4.144685039370078
 30
0.0
 11
2.575787401574803
 21
4.144685039370078
 31
0.0
  0
LINE
  5
2237
330
1E
100
AcDbEntity
  8
7
100
AcDbLine
 10
2.575787401574803
 20
3.830708661417323
 30
0.0
 11
2.486220472440944
 21
3.830708661417323
 31
0.0
  0
LINE
  5
2238
330
1E
100
AcDbEntity
  8
7
100
AcDbLine
 10
2.769685039370078
 20
3.753937007874015
 30
0.0
 11
2.968503937007874
 21
3.953740157480314
 31
0.0
  0
LINE
  5
2239
330
1E
100
AcDbEntity
  8
7
100
AcDbLine
 10
2.969488188976378
 20
3.974409448818897
 30
0.0
 11
2.968503937007874
 21
3.957677165354331
 31
0.0
  0
LINE
  5
223F
330
1E
100
AcDbEntity
  8
7
100
AcDbLine
 10
2.292322834645669
 20
3.753937007874015
 30
0.0
 11
2.093503937007874
 21
3.953740157480314
 31
0.0
  0
LINE
  5
2240
330
1E
100
AcDbEntity
  8
7
100
AcDbLine
 10
2.313976377952756
 20
3.753937007874015
 30
0.0
 11
2.296259842519685
 21
3.753937007874015
 31
0.0
  0
LINE
  5
2246
330
1E
100
AcDbEntity
  8
7
100
AcDbLine
 10
2.769685039370078
 20
7.502952755905512
 30
0.0
 11
2.968503937007874
 21
7.304133858267716
 31
0.0
  0
LINE
  5
2247
330
1E
100
AcDbEntity
  8
7
100
AcDbLine
 10
2.748031496062992
 20
7.503937007874015
 30
0.0
 11
2.765748031496062
 21
7.502952755905512
 31
0.0
  0
LINE
  5
2248
330
1E
100
AcDbEntity
  8
7
100
AcDbLine
 10
2.969488188976378
 20
7.282480314960629
 30
0.0
 11
2.968503937007874
 21
7.299212598425197
 31
0.0
  0
LINE
  5
2249
330
1E
100
AcDbEntity
  8
7
100
AcDbLine
 10
2.292322834645669
 20
7.502952755905512
 30
0.0
 11
2.093503937007874
 21
7.304133858267716
 31
0.0
  0
LINE
  5
224A
330
1E
100
AcDbEntity
  8
7
100
AcDbLine
 10
2.093503937007874
 20
7.299212598425197
 30
0.0
 11
2.09251968503937
 21
7.282480314960629
 31
0.0
  0
LINE
  5
224B
330
1E
100
AcDbEntity
  8
7
100
AcDbLine
 10
2.296259842519685
 20
7.502952755905512
 30
0.0
 11
2.313976377952756
 21
7.503937007874015
 31
0.0
  0
LINE
  5
224C
330
1E
100
AcDbEntity
  8
7
100
AcDbLine
 10
2.09251968503937
 20
7.282480314960629
 30
0.0
 11
2.09251968503937
 21
7.161417322834645
 31
0.0
  0
LINE
  5
224D
330
1E
100
AcDbEntity
  8
7
100
AcDbLine
 10
2.313976377952756
 20
7.503937007874015
 30
0.0
 11
2.748031496062992
 21
7.503937007874015
 31
0.0
  0
LINE
  5
224E
330
1E
100
AcDbEntity
  8
7
100
AcDbLine
 10
1.843503937007873
 20
7.096456692913386
 30
0.0
 11
1.843503937007873
 21
7.098425196850393
 31
0.0
  0
LINE
  5
224F
330
1E
100
AcDbEntity
  8
7
100
AcDbLine
 10
1.782480314960629
 20
7.036417322834645
 30
0.0
 11
1.780511811023622
 21
7.036417322834645
 31
0.0
  0
LINE
  5
2250
330
1E
100
AcDbEntity
  8
7
100
AcDbLine
 10
1.782480314960629
 20
4.221456692913386
 30
0.0
 11
1.780511811023622
 21
4.221456692913386
 31
0.0
  0
LINE
  5
2251
330
1E
100
AcDbEntity
  8
7
100
AcDbLine
 10
1.843503937007873
 20
4.160433070866141
 30
0.0
 11
1.843503937007873
 21
4.158464566929134
 31
0.0
  0
LINE
  5
2252
330
1E
100
AcDbEntity
  8
7
100
AcDbLine
 10
1.782480314960629
 20
4.221456692913386
 30
0.0
 11
1.782480314960629
 21
7.036417322834645
 31
0.0
  0
LINE
  5
2253
330
1E
100
AcDbEntity
  8
7
100
AcDbLine
 10
1.780511811023622
 20
4.221456692913386
 30
0.0
 11
1.780511811023622
 21
7.036417322834645
 31
0.0
  0
LINE
  5
2254
330
1E
100
AcDbEntity
  8
7
100
AcDbLine
 10
3.279527559055118
 20
7.036417322834645
 30
0.0
 11
3.279527559055118
 21
5.702755905511811
 31
0.0
  0
LINE
  5
2255
330
1E
100
AcDbEntity
  8
7
100
AcDbLine
 10
3.280511811023622
 20
7.036417322834645
 30
0.0
 11
3.280511811023622
 21
4.221456692913386
 31
0.0
  0
LINE
  5
2256
330
1E
100
AcDbEntity
  8
7
100
AcDbLine
 10
2.029527559055118
 20
7.096456692913386
 30
0.0
 11
2.029527559055118
 21
7.098425196850393
 31
0.0
  0
LINE
  5
2257
330
1E
100
AcDbEntity
  8
7
100
AcDbLine
 10
2.094488188976378
 20
7.161417322834645
 30
0.0
 11
2.09251968503937
 21
7.161417322834645
 31
0.0
  0
LINE
  5
2258
330
1E
100
AcDbEntity
  8
7
100
AcDbLine
 10
2.96751968503937
 20
7.161417322834645
 30
0.0
 11
2.969488188976378
 21
7.161417322834645
 31
0.0
  0
LINE
  5
2259
330
1E
100
AcDbEntity
  8
7
100
AcDbLine
 10
3.031496062992125
 20
7.096456692913386
 30
0.0
 11
3.031496062992125
 21
7.098425196850393
 31
0.0
  0
LINE
  5
225A
330
1E
100
AcDbEntity
  8
7
100
AcDbLine
 10
3.218503937007874
 20
7.096456692913386
 30
0.0
 11
3.218503937007874
 21
7.098425196850393
 31
0.0
  0
LINE
  5
225B
330
1E
100
AcDbEntity
  8
7
100
AcDbLine
 10
3.031496062992125
 20
7.096456692913386
 30
0.0
 11
3.218503937007874
 21
7.096456692913386
 31
0.0
  0
LINE
  5
225C
330
1E
100
AcDbEntity
  8
7
100
AcDbLine
 10
2.96751968503937
 20
7.161417322834645
 30
0.0
 11
2.96751968503937
 21
7.304133858267716
 31
0.0
  0
LINE
  5
225D
330
1E
100
AcDbEntity
  8
7
100
AcDbLine
 10
2.291338582677165
 20
7.501968503937008
 30
0.0
 11
2.770669291338582
 21
7.501968503937008
 31
0.0
  0
LINE
  5
225E
330
1E
100
AcDbEntity
  8
7
100
AcDbLine
 10
2.094488188976378
 20
7.304133858267716
 30
0.0
 11
2.094488188976378
 21
7.161417322834645
 31
0.0
  0
LINE
  5
225F
330
1E
100
AcDbEntity
  8
7
100
AcDbLine
 10
1.843503937007873
 20
7.096456692913386
 30
0.0
 11
2.029527559055118
 21
7.096456692913386
 31
0.0
  0
LINE
  5
2260
330
1E
100
AcDbEntity
  8
7
100
AcDbLine
 10
1.843503937007873
 20
7.098425196850393
 30
0.0
 11
2.029527559055118
 21
7.098425196850393
 31
0.0
  0
LINE
  5
2261
330
1E
100
AcDbEntity
  8
7
100
AcDbLine
 10
2.969488188976378
 20
7.161417322834645
 30
0.0
 11
2.969488188976378
 21
7.282480314960629
 31
0.0
  0
LINE
  5
2262
330
1E
100
AcDbEntity
  8
7
100
AcDbLine
 10
3.031496062992125
 20
7.098425196850393
 30
0.0
 11
3.218503937007874
 21
7.098425196850393
 31
0.0
  0
LINE
  5
2263
330
1E
100
AcDbEntity
  8
7
100
AcDbLine
 10
3.279527559055118
 20
7.036417322834645
 30
0.0
 11
3.280511811023622
 21
7.036417322834645
 31
0.0
  0
LINE
  5
2264
330
1E
100
AcDbEntity
  8
7
100
AcDbLine
 10
3.279527559055118
 20
4.221456692913386
 30
0.0
 11
3.280511811023622
 21
4.221456692913386
 31
0.0
  0
LINE
  5
2265
330
1E
100
AcDbEntity
  8
7
100
AcDbLine
 10
3.218503937007874
 20
4.160433070866141
 30
0.0
 11
3.218503937007874
 21
4.158464566929134
 31
0.0
  0
LINE
  5
2266
330
1E
100
AcDbEntity
  8
7
100
AcDbLine
 10
3.031496062992125
 20
4.160433070866141
 30
0.0
 11
3.031496062992125
 21
4.158464566929134
 31
0.0
  0
LINE
  5
2267
330
1E
100
AcDbEntity
  8
7
100
AcDbLine
 10
2.96751968503937
 20
4.096456692913386
 30
0.0
 11
2.969488188976378
 21
4.096456692913386
 31
0.0
  0
LINE
  5
2268
330
1E
100
AcDbEntity
  8
7
100
AcDbLine
 10
2.094488188976378
 20
4.096456692913386
 30
0.0
 11
2.09251968503937
 21
4.096456692913386
 31
0.0
  0
LINE
  5
2269
330
1E
100
AcDbEntity
  8
7
100
AcDbLine
 10
2.094488188976378
 20
3.952755905511811
 30
0.0
 11
2.094488188976378
 21
4.096456692913386
 31
0.0
  0
LINE
  5
226A
330
1E
100
AcDbEntity
  8
7
100
AcDbLine
 10
2.770669291338582
 20
3.754921259842519
 30
0.0
 11
2.291338582677165
 21
3.754921259842519
 31
0.0
  0
LINE
  5
226B
330
1E
100
AcDbEntity
  8
7
100
AcDbLine
 10
2.96751968503937
 20
4.096456692913386
 30
0.0
 11
2.96751968503937
 21
3.952755905511811
 31
0.0
  0
LINE
  5
226C
330
1E
100
AcDbEntity
  8
7
100
AcDbLine
 10
3.218503937007874
 20
4.160433070866141
 30
0.0
 11
3.031496062992125
 21
4.160433070866141
 31
0.0
  0
LINE
  5
226D
330
1E
100
AcDbEntity
  8
7
100
AcDbLine
 10
3.218503937007874
 20
4.158464566929134
 30
0.0
 11
3.031496062992125
 21
4.158464566929134
 31
0.0
  0
LINE
  5
226E
330
1E
100
AcDbEntity
  8
7
100
AcDbLine
 10
2.029527559055118
 20
4.160433070866141
 30
0.0
 11
2.029527559055118
 21
4.158464566929134
 31
0.0
  0
LINE
  5
226F
330
1E
100
AcDbEntity
  8
7
100
AcDbLine
 10
2.029527559055118
 20
4.160433070866141
 30
0.0
 11
1.843503937007873
 21
4.160433070866141
 31
0.0
  0
LINE
  5
2270
330
1E
100
AcDbEntity
  8
7
100
AcDbLine
 10
2.029527559055118
 20
4.158464566929134
 30
0.0
 11
1.843503937007873
 21
4.158464566929134
 31
0.0
  0
LINE
  5
2271
330
1E
100
AcDbEntity
  8
7
100
AcDbLine
 10
2.975393700787401
 20
4.503937007874015
 30
0.0
 11
3.093503937007874
 21
4.503937007874015
 31
0.0
  0
LINE
  5
2272
330
1E
100
AcDbEntity
  8
7
100
AcDbLine
 10
2.340551181102362
 20
4.503937007874015
 30
0.0
 11
2.458661417322834
 21
4.503937007874015
 31
0.0
  0
LINE
  5
2273
330
1E
100
AcDbEntity
  8
7
100
AcDbLine
 10
1.968503937007873
 20
4.503937007874015
 30
0.0
 11
1.96751968503937
 21
4.502952755905512
 31
0.0
  0
LINE
  5
2279
330
1E
100
AcDbEntity
  8
7
100
AcDbLine
 10
1.900590551181102
 20
4.568897637795275
 30
0.0
 11
1.968503937007873
 21
4.568897637795275
 31
0.0
  0
LINE
  5
227A
330
1E
100
AcDbEntity
  8
7
100
AcDbLine
 10
1.900590551181102
 20
4.568897637795275
 30
0.0
 11
1.900590551181102
 21
5.229330708661417
 31
0.0
  0
LINE
  5
227B
330
1E
100
AcDbEntity
  8
7
100
AcDbLine
 10
2.067913385826771
 20
5.229330708661417
 30
0.0
 11
2.067913385826771
 21
5.210629921259842
 31
0.0
  0
LINE
  5
227C
330
1E
100
AcDbEntity
  8
7
100
AcDbLine
 10
1.899606299212598
 20
5.230314960629921
 30
0.0
 11
1.900590551181102
 21
5.229330708661417
 31
0.0
  0
LINE
  5
227D
330
1E
100
AcDbEntity
  8
7
100
AcDbLine
 10
2.067913385826771
 20
5.229330708661417
 30
0.0
 11
1.900590551181102
 21
5.229330708661417
 31
0.0
  0
LINE
  5
227E
330
1E
100
AcDbEntity
  8
7
100
AcDbLine
 10
1.899606299212598
 20
5.230314960629921
 30
0.0
 11
3.162401574803149
 21
5.230314960629921
 31
0.0
  0
LINE
  5
227F
330
1E
100
AcDbEntity
  8
7
100
AcDbLine
 10
1.899606299212598
 20
5.230314960629921
 30
0.0
 11
1.899606299212598
 21
4.567913385826771
 31
0.0
  0
LINE
  5
2280
330
1E
100
AcDbEntity
  8
7
100
AcDbLine
 10
1.96751968503937
 20
4.567913385826771
 30
0.0
 11
1.899606299212598
 21
4.567913385826771
 31
0.0
  0
LINE
  5
2281
330
1E
100
AcDbEntity
  8
7
100
AcDbLine
 10
1.96751968503937
 20
4.502952755905512
 30
0.0
 11
1.96751968503937
 21
4.567913385826771
 31
0.0
  0
LINE
  5
2282
330
1E
100
AcDbEntity
  8
7
100
AcDbLine
 10
2.358267716535433
 20
5.200787401574802
 30
0.0
 11
2.067913385826771
 21
5.200787401574802
 31
0.0
  0
LINE
  5
2283
330
1E
100
AcDbEntity
  8
7
100
AcDbLine
 10
2.358267716535433
 20
5.210629921259842
 30
0.0
 11
2.067913385826771
 21
5.210629921259842
 31
0.0
  0
LINE
  5
2284
330
1E
100
AcDbEntity
  8
7
100
AcDbLine
 10
2.358267716535433
 20
5.229330708661417
 30
0.0
 11
2.358267716535433
 21
5.210629921259842
 31
0.0
  0
LINE
  5
2285
330
1E
100
AcDbEntity
  8
7
100
AcDbLine
 10
2.703740157480315
 20
5.229330708661417
 30
0.0
 11
2.703740157480315
 21
5.210629921259842
 31
0.0
  0
LINE
  5
2286
330
1E
100
AcDbEntity
  8
7
100
AcDbLine
 10
2.703740157480315
 20
5.229330708661417
 30
0.0
 11
2.358267716535433
 21
5.229330708661417
 31
0.0
  0
LINE
  5
2287
330
1E
100
AcDbEntity
  8
7
100
AcDbLine
 10
2.067913385826771
 20
5.229330708661417
 30
0.0
 11
2.358267716535433
 21
5.229330708661417
 31
0.0
  0
LINE
  5
2288
330
1E
100
AcDbEntity
  8
7
100
AcDbLine
 10
3.094488188976378
 20
4.567913385826771
 30
0.0
 11
3.093503937007874
 21
4.568897637795275
 31
0.0
  0
LINE
  5
2289
330
1E
100
AcDbEntity
  8
7
100
AcDbLine
 10
3.094488188976378
 20
4.502952755905512
 30
0.0
 11
3.093503937007874
 21
4.503937007874015
 31
0.0
  0
LINE
  5
228A
330
1E
100
AcDbEntity
  8
7
100
AcDbLine
 10
3.160433070866141
 20
4.568897637795275
 30
0.0
 11
3.162401574803149
 21
4.567913385826771
 31
0.0
  0
LINE
  5
228B
330
1E
100
AcDbEntity
  8
7
100
AcDbLine
 10
3.160433070866141
 20
4.568897637795275
 30
0.0
 11
3.160433070866141
 21
5.229330708661417
 31
0.0
  0
LINE
  5
228C
330
1E
100
AcDbEntity
  8
7
100
AcDbLine
 10
3.160433070866141
 20
4.568897637795275
 30
0.0
 11
3.093503937007874
 21
4.568897637795275
 31
0.0
  0
LINE
  5
228D
330
1E
100
AcDbEntity
  8
7
100
AcDbLine
 10
3.093503937007874
 20
4.503937007874015
 30
0.0
 11
3.093503937007874
 21
4.568897637795275
 31
0.0
  0
LINE
  5
228E
330
1E
100
AcDbEntity
  8
7
100
AcDbLine
 10
2.993110236220472
 20
5.229330708661417
 30
0.0
 11
2.993110236220472
 21
5.210629921259842
 31
0.0
  0
LINE
  5
228F
330
1E
100
AcDbEntity
  8
7
100
AcDbLine
 10
2.993110236220472
 20
5.200787401574802
 30
0.0
 11
2.703740157480315
 21
5.200787401574802
 31
0.0
  0
LINE
  5
2290
330
1E
100
AcDbEntity
  8
7
100
AcDbLine
 10
2.993110236220472
 20
5.210629921259842
 30
0.0
 11
2.703740157480315
 21
5.210629921259842
 31
0.0
  0
LINE
  5
2291
330
1E
100
AcDbEntity
  8
7
100
AcDbLine
 10
3.160433070866141
 20
5.229330708661417
 30
0.0
 11
3.162401574803149
 21
5.230314960629921
 31
0.0
  0
LINE
  5
229C
330
1E
100
AcDbEntity
  8
7
100
AcDbLine
 10
3.162401574803149
 20
5.230314960629921
 30
0.0
 11
3.162401574803149
 21
4.567913385826771
 31
0.0
  0
LINE
  5
229D
330
1E
100
AcDbEntity
  8
7
100
AcDbLine
 10
2.975393700787401
 20
4.503937007874015
 30
0.0
 11
2.951771653543307
 21
4.515748031496062
 31
0.0
  0
LINE
  5
22A3
330
1E
100
AcDbEntity
  8
7
100
AcDbLine
 10
2.459645669291338
 20
4.567913385826771
 30
0.0
 11
2.458661417322834
 21
4.568897637795275
 31
0.0
  0
LINE
  5
22AE
330
1E
100
AcDbEntity
  8
7
100
AcDbLine
 10
2.459645669291338
 20
4.567913385826771
 30
0.0
 11
2.459645669291338
 21
4.502952755905512
 31
0.0
  0
LINE
  5
22B4
330
1E
100
AcDbEntity
  8
7
100
AcDbLine
 10
2.458661417322834
 20
4.503937007874015
 30
0.0
 11
2.459645669291338
 21
4.502952755905512
 31
0.0
  0
LINE
  5
22B5
330
1E
100
AcDbEntity
  8
7
100
AcDbLine
 10
2.086614173228346
 20
4.503937007874015
 30
0.0
 11
1.968503937007873
 21
4.503937007874015
 31
0.0
  0
LINE
  5
22B6
330
1E
100
AcDbEntity
  8
7
100
AcDbLine
 10
1.96751968503937
 20
4.502952755905512
 30
0.0
 11
2.459645669291338
 21
4.502952755905512
 31
0.0
  0
LINE
  5
22B7
330
1E
100
AcDbEntity
  8
7
100
AcDbLine
 10
2.086614173228346
 20
4.503937007874015
 30
0.0
 11
2.110236220472441
 21
4.515748031496062
 31
0.0
  0
LINE
  5
22B8
330
1E
100
AcDbEntity
  8
7
100
AcDbLine
 10
2.340551181102362
 20
4.503937007874015
 30
0.0
 11
2.316929133858267
 21
4.515748031496062
 31
0.0
  0
LINE
  5
22B9
330
1E
100
AcDbEntity
  8
7
100
AcDbLine
 10
2.111220472440944
 20
4.531496062992125
 30
0.0
 11
2.315944881889763
 21
4.531496062992125
 31
0.0
  0
LINE
  5
22BA
330
1E
100
AcDbEntity
  8
7
100
AcDbLine
 10
2.316929133858267
 20
4.515748031496062
 30
0.0
 11
2.110236220472441
 21
4.515748031496062
 31
0.0
  0
LINE
  5
22BB
330
1E
100
AcDbEntity
  8
7
100
AcDbLine
 10
2.315944881889763
 20
4.542322834645669
 30
0.0
 11
2.315944881889763
 21
4.531496062992125
 31
0.0
  0
LINE
  5
22BC
330
1E
100
AcDbEntity
  8
7
100
AcDbLine
 10
2.111220472440944
 20
4.542322834645669
 30
0.0
 11
2.111220472440944
 21
4.531496062992125
 31
0.0
  0
LINE
  5
22BD
330
1E
100
AcDbEntity
  8
7
100
AcDbLine
 10
2.111220472440944
 20
4.542322834645669
 30
0.0
 11
2.315944881889763
 21
4.542322834645669
 31
0.0
  0
LINE
  5
22BE
330
1E
100
AcDbEntity
  8
7
100
AcDbLine
 10
2.315944881889763
 20
4.577755905511811
 30
0.0
 11
2.110236220472441
 21
4.577755905511811
 31
0.0
  0
LINE
  5
22BF
330
1E
100
AcDbEntity
  8
7
100
AcDbLine
 10
2.110236220472441
 20
4.58267716535433
 30
0.0
 11
2.316929133858267
 21
4.58267716535433
 31
0.0
  0
LINE
  5
22C0
330
1E
100
AcDbEntity
  8
7
100
AcDbLine
 10
2.110236220472441
 20
4.612204724409449
 30
0.0
 11
2.316929133858267
 21
4.612204724409449
 31
0.0
  0
LINE
  5
22C1
330
1E
100
AcDbEntity
  8
7
100
AcDbLine
 10
2.114173228346456
 20
4.581692913385826
 30
0.0
 11
2.164370078740157
 21
4.581692913385826
 31
0.0
  0
LINE
  5
22C2
330
1E
100
AcDbEntity
  8
7
100
AcDbLine
 10
2.111220472440944
 20
4.611220472440945
 30
0.0
 11
2.315944881889763
 21
4.611220472440945
 31
0.0
  0
LINE
  5
22C3
330
1E
100
AcDbEntity
  8
7
100
AcDbLine
 10
2.110236220472441
 20
4.612204724409449
 30
0.0
 11
2.111220472440944
 21
4.611220472440945
 31
0.0
  0
LINE
  5
22C4
330
1E
100
AcDbEntity
  8
7
100
AcDbLine
 10
2.110236220472441
 20
4.612204724409449
 30
0.0
 11
2.110236220472441
 21
4.58267716535433
 31
0.0
  0
LINE
  5
22C5
330
1E
100
AcDbEntity
  8
7
100
AcDbLine
 10
2.316929133858267
 20
4.612204724409449
 30
0.0
 11
2.316929133858267
 21
4.58267716535433
 31
0.0
  0
LINE
  5
22C6
330
1E
100
AcDbEntity
  8
7
100
AcDbLine
 10
2.316929133858267
 20
4.612204724409449
 30
0.0
 11
2.315944881889763
 21
4.611220472440945
 31
0.0
  0
LINE
  5
22C7
330
1E
100
AcDbEntity
  8
7
100
AcDbLine
 10
2.721456692913386
 20
4.503937007874015
 30
0.0
 11
2.74507874015748
 21
4.515748031496062
 31
0.0
  0
LINE
  5
22C8
330
1E
100
AcDbEntity
  8
7
100
AcDbLine
 10
2.746062992125984
 20
4.531496062992125
 30
0.0
 11
2.950787401574803
 21
4.531496062992125
 31
0.0
  0
LINE
  5
22C9
330
1E
100
AcDbEntity
  8
7
100
AcDbLine
 10
2.951771653543307
 20
4.515748031496062
 30
0.0
 11
2.74507874015748
 21
4.515748031496062
 31
0.0
  0
LINE
  5
22CA
330
1E
100
AcDbEntity
  8
7
100
AcDbLine
 10
2.950787401574803
 20
4.542322834645669
 30
0.0
 11
2.950787401574803
 21
4.531496062992125
 31
0.0
  0
LINE
  5
22CB
330
1E
100
AcDbEntity
  8
7
100
AcDbLine
 10
2.746062992125984
 20
4.542322834645669
 30
0.0
 11
2.746062992125984
 21
4.531496062992125
 31
0.0
  0
LINE
  5
22CC
330
1E
100
AcDbEntity
  8
7
100
AcDbLine
 10
2.602362204724409
 20
4.502952755905512
 30
0.0
 11
3.094488188976378
 21
4.502952755905512
 31
0.0
  0
LINE
  5
22CD
330
1E
100
AcDbEntity
  8
7
100
AcDbLine
 10
2.746062992125984
 20
4.611220472440945
 30
0.0
 11
2.950787401574803
 21
4.611220472440945
 31
0.0
  0
LINE
  5
22CE
330
1E
100
AcDbEntity
  8
7
100
AcDbLine
 10
2.74507874015748
 20
4.612204724409449
 30
0.0
 11
2.951771653543307
 21
4.612204724409449
 31
0.0
  0
LINE
  5
22CF
330
1E
100
AcDbEntity
  8
7
100
AcDbLine
 10
2.74507874015748
 20
4.58267716535433
 30
0.0
 11
2.951771653543307
 21
4.58267716535433
 31
0.0
  0
LINE
  5
22D0
330
1E
100
AcDbEntity
  8
7
100
AcDbLine
 10
2.74507874015748
 20
4.612204724409449
 30
0.0
 11
2.746062992125984
 21
4.611220472440945
 31
0.0
  0
LINE
  5
22D1
330
1E
100
AcDbEntity
  8
7
100
AcDbLine
 10
2.74507874015748
 20
4.612204724409449
 30
0.0
 11
2.74507874015748
 21
4.58267716535433
 31
0.0
  0
LINE
  5
22D2
330
1E
100
AcDbEntity
  8
7
100
AcDbLine
 10
2.951771653543307
 20
4.612204724409449
 30
0.0
 11
2.951771653543307
 21
4.58267716535433
 31
0.0
  0
LINE
  5
22D3
330
1E
100
AcDbEntity
  8
7
100
AcDbLine
 10
2.951771653543307
 20
4.612204724409449
 30
0.0
 11
2.950787401574803
 21
4.611220472440945
 31
0.0
  0
LINE
  5
22D4
330
1E
100
AcDbEntity
  8
7
100
AcDbLine
 10
2.951771653543307
 20
4.577755905511811
 30
0.0
 11
2.74507874015748
 21
4.577755905511811
 31
0.0
  0
LINE
  5
22D5
330
1E
100
AcDbEntity
  8
7
100
AcDbLine
 10
2.75
 20
4.581692913385826
 30
0.0
 11
2.8001968503937
 21
4.581692913385826
 31
0.0
  0
LINE
  5
22D6
330
1E
100
AcDbEntity
  8
7
100
AcDbLine
 10
2.746062992125984
 20
4.542322834645669
 30
0.0
 11
2.950787401574803
 21
4.542322834645669
 31
0.0
  0
LINE
  5
22D7
330
1E
100
AcDbEntity
  8
7
100
AcDbLine
 10
2.975393700787401
 20
6.038385826771653
 30
0.0
 11
3.093503937007874
 21
6.038385826771653
 31
0.0
  0
LINE
  5
22D8
330
1E
100
AcDbEntity
  8
7
100
AcDbLine
 10
2.340551181102362
 20
6.038385826771653
 30
0.0
 11
2.458661417322834
 21
6.038385826771653
 31
0.0
  0
LINE
  5
22D9
330
1E
100
AcDbEntity
  8
7
100
AcDbLine
 10
1.96751968503937
 20
6.102362204724409
 30
0.0
 11
1.968503937007873
 21
6.103346456692913
 31
0.0
  0
LINE
  5
22DA
330
1E
100
AcDbEntity
  8
7
100
AcDbLine
 10
1.968503937007873
 20
6.103346456692913
 30
0.0
 11
1.968503937007873
 21
6.038385826771653
 31
0.0
  0
LINE
  5
22DB
330
1E
100
AcDbEntity
  8
7
100
AcDbLine
 10
1.900590551181102
 20
6.103346456692913
 30
0.0
 11
1.968503937007873
 21
6.103346456692913
 31
0.0
  0
LINE
  5
22DC
330
1E
100
AcDbEntity
  8
7
100
AcDbLine
 10
2.067913385826771
 20
6.763779527559055
 30
0.0
 11
2.067913385826771
 21
6.74507874015748
 31
0.0
  0
LINE
  5
22DD
330
1E
100
AcDbEntity
  8
7
100
AcDbLine
 10
1.899606299212598
 20
6.764763779527559
 30
0.0
 11
1.900590551181102
 21
6.763779527559055
 31
0.0
  0
LINE
  5
22DE
330
1E
100
AcDbEntity
  8
7
100
AcDbLine
 10
2.067913385826771
 20
6.763779527559055
 30
0.0
 11
1.900590551181102
 21
6.763779527559055
 31
0.0
  0
LINE
  5
22DF
330
1E
100
AcDbEntity
  8
7
100
AcDbLine
 10
1.899606299212598
 20
6.764763779527559
 30
0.0
 11
3.162401574803149
 21
6.764763779527559
 31
0.0
  0
LINE
  5
22E0
330
1E
100
AcDbEntity
  8
7
100
AcDbLine
 10
1.899606299212598
 20
6.764763779527559
 30
0.0
 11
1.899606299212598
 21
6.102362204724409
 31
0.0
  0
LINE
  5
22E1
330
1E
100
AcDbEntity
  8
7
100
AcDbLine
 10
1.96751968503937
 20
6.102362204724409
 30
0.0
 11
1.899606299212598
 21
6.102362204724409
 31
0.0
  0
LINE
  5
22E2
330
1E
100
AcDbEntity
  8
7
100
AcDbLine
 10
1.96751968503937
 20
6.037401574803149
 30
0.0
 11
1.96751968503937
 21
6.102362204724409
 31
0.0
  0
LINE
  5
22E3
330
1E
100
AcDbEntity
  8
7
100
AcDbLine
 10
2.358267716535433
 20
6.73523622047244
 30
0.0
 11
2.067913385826771
 21
6.73523622047244
 31
0.0
  0
LINE
  5
22E4
330
1E
100
AcDbEntity
  8
7
100
AcDbLine
 10
2.358267716535433
 20
6.74507874015748
 30
0.0
 11
2.067913385826771
 21
6.74507874015748
 31
0.0
  0
LINE
  5
22E5
330
1E
100
AcDbEntity
  8
7
100
AcDbLine
 10
2.358267716535433
 20
6.763779527559055
 30
0.0
 11
2.358267716535433
 21
6.74507874015748
 31
0.0
  0
LINE
  5
22E6
330
1E
100
AcDbEntity
  8
7
100
AcDbLine
 10
2.703740157480315
 20
6.763779527559055
 30
0.0
 11
2.703740157480315
 21
6.74507874015748
 31
0.0
  0
LINE
  5
22E7
330
1E
100
AcDbEntity
  8
7
100
AcDbLine
 10
2.703740157480315
 20
6.763779527559055
 30
0.0
 11
2.358267716535433
 21
6.763779527559055
 31
0.0
  0
LINE
  5
22E8
330
1E
100
AcDbEntity
  8
7
100
AcDbLine
 10
2.067913385826771
 20
6.763779527559055
 30
0.0
 11
2.358267716535433
 21
6.763779527559055
 31
0.0
  0
LINE
  5
22E9
330
1E
100
AcDbEntity
  8
7
100
AcDbLine
 10
3.094488188976378
 20
6.102362204724409
 30
0.0
 11
3.093503937007874
 21
6.103346456692913
 31
0.0
  0
LINE
  5
22EA
330
1E
100
AcDbEntity
  8
7
100
AcDbLine
 10
3.094488188976378
 20
6.037401574803149
 30
0.0
 11
3.093503937007874
 21
6.038385826771653
 31
0.0
  0
LINE
  5
22EB
330
1E
100
AcDbEntity
  8
7
100
AcDbLine
 10
3.160433070866141
 20
6.103346456692913
 30
0.0
 11
3.160433070866141
 21
6.763779527559055
 31
0.0
  0
LINE
  5
22EC
330
1E
100
AcDbEntity
  8
7
100
AcDbLine
 10
3.160433070866141
 20
6.103346456692913
 30
0.0
 11
3.093503937007874
 21
6.103346456692913
 31
0.0
  0
LINE
  5
22ED
330
1E
100
AcDbEntity
  8
7
100
AcDbLine
 10
3.093503937007874
 20
6.038385826771653
 30
0.0
 11
3.093503937007874
 21
6.103346456692913
 31
0.0
  0
LINE
  5
22EE
330
1E
100
AcDbEntity
  8
7
100
AcDbLine
 10
2.993110236220472
 20
6.763779527559055
 30
0.0
 11
2.993110236220472
 21
6.74507874015748
 31
0.0
  0
LINE
  5
22EF
330
1E
100
AcDbEntity
  8
7
100
AcDbLine
 10
2.993110236220472
 20
6.73523622047244
 30
0.0
 11
2.703740157480315
 21
6.73523622047244
 31
0.0
  0
LINE
  5
22F0
330
1E
100
AcDbEntity
  8
7
100
AcDbLine
 10
2.993110236220472
 20
6.74507874015748
 30
0.0
 11
2.703740157480315
 21
6.74507874015748
 31
0.0
  0
LINE
  5
22F1
330
1E
100
AcDbEntity
  8
7
100
AcDbLine
 10
3.160433070866141
 20
6.763779527559055
 30
0.0
 11
3.162401574803149
 21
6.764763779527559
 31
0.0
  0
LINE
  5
22F2
330
1E
100
AcDbEntity
  8
7
100
AcDbLine
 10
3.160433070866141
 20
6.763779527559055
 30
0.0
 11
2.993110236220472
 21
6.763779527559055
 31
0.0
  0
LINE
  5
22F8
330
1E
100
AcDbEntity
  8
7
100
AcDbLine
 10
3.162401574803149
 20
6.764763779527559
 30
0.0
 11
3.162401574803149
 21
6.102362204724409
 31
0.0
  0
LINE
  5
22F9
330
1E
100
AcDbEntity
  8
7
100
AcDbLine
 10
2.975393700787401
 20
6.038385826771653
 30
0.0
 11
2.951771653543307
 21
6.0501968503937
 31
0.0
  0
LINE
  5
22FF
330
1E
100
AcDbEntity
  8
7
100
AcDbLine
 10
2.459645669291338
 20
6.102362204724409
 30
0.0
 11
2.458661417322834
 21
6.103346456692913
 31
0.0
  0
LINE
  5
230A
330
1E
100
AcDbEntity
  8
7
100
AcDbLine
 10
2.459645669291338
 20
6.102362204724409
 30
0.0
 11
2.459645669291338
 21
6.037401574803149
 31
0.0
  0
LINE
  5
2310
330
1E
100
AcDbEntity
  8
7
100
AcDbLine
 10
2.086614173228346
 20
6.038385826771653
 30
0.0
 11
1.968503937007873
 21
6.038385826771653
 31
0.0
  0
LINE
  5
2311
330
1E
100
AcDbEntity
  8
7
100
AcDbLine
 10
1.96751968503937
 20
6.037401574803149
 30
0.0
 11
2.459645669291338
 21
6.037401574803149
 31
0.0
  0
LINE
  5
2312
330
1E
100
AcDbEntity
  8
7
100
AcDbLine
 10
2.086614173228346
 20
6.038385826771653
 30
0.0
 11
2.110236220472441
 21
6.0501968503937
 31
0.0
  0
LINE
  5
2313
330
1E
100
AcDbEntity
  8
7
100
AcDbLine
 10
2.340551181102362
 20
6.038385826771653
 30
0.0
 11
2.316929133858267
 21
6.0501968503937
 31
0.0
  0
LINE
  5
2314
330
1E
100
AcDbEntity
  8
7
100
AcDbLine
 10
2.111220472440944
 20
6.06496062992126
 30
0.0
 11
2.315944881889763
 21
6.06496062992126
 31
0.0
  0
LINE
  5
2315
330
1E
100
AcDbEntity
  8
7
100
AcDbLine
 10
2.316929133858267
 20
6.0501968503937
 30
0.0
 11
2.110236220472441
 21
6.0501968503937
 31
0.0
  0
LINE
  5
2316
330
1E
100
AcDbEntity
  8
7
100
AcDbLine
 10
2.315944881889763
 20
6.076771653543307
 30
0.0
 11
2.315944881889763
 21
6.06496062992126
 31
0.0
  0
LINE
  5
2317
330
1E
100
AcDbEntity
  8
7
100
AcDbLine
 10
2.111220472440944
 20
6.076771653543307
 30
0.0
 11
2.111220472440944
 21
6.06496062992126
 31
0.0
  0
LINE
  5
2318
330
1E
100
AcDbEntity
  8
7
100
AcDbLine
 10
2.164370078740157
 20
6.037401574803149
 30
0.0
 11
2.262795275590551
 21
6.037401574803149
 31
0.0
  0
LINE
  5
2319
330
1E
100
AcDbEntity
  8
7
100
AcDbLine
 10
2.111220472440944
 20
6.076771653543307
 30
0.0
 11
2.315944881889763
 21
6.076771653543307
 31
0.0
  0
LINE
  5
231A
330
1E
100
AcDbEntity
  8
7
100
AcDbLine
 10
2.315944881889763
 20
6.112204724409449
 30
0.0
 11
2.110236220472441
 21
6.112204724409449
 31
0.0
  0
LINE
  5
231B
330
1E
100
AcDbEntity
  8
7
100
AcDbLine
 10
2.110236220472441
 20
6.117125984251968
 30
0.0
 11
2.316929133858267
 21
6.117125984251968
 31
0.0
  0
LINE
  5
231C
330
1E
100
AcDbEntity
  8
7
100
AcDbLine
 10
2.110236220472441
 20
6.146653543307087
 30
0.0
 11
2.316929133858267
 21
6.146653543307087
 31
0.0
  0
LINE
  5
2322
330
1E
100
AcDbEntity
  8
7
100
AcDbLine
 10
2.111220472440944
 20
6.145669291338582
 30
0.0
 11
2.315944881889763
 21
6.145669291338582
 31
0.0
  0
LINE
  5
2323
330
1E
100
AcDbEntity
  8
7
100
AcDbLine
 10
2.261811023622047
 20
6.116141732283464
 30
0.0
 11
2.312007874015748
 21
6.116141732283464
 31
0.0
  0
LINE
  5
2324
330
1E
100
AcDbEntity
  8
7
100
AcDbLine
 10
2.110236220472441
 20
6.146653543307087
 30
0.0
 11
2.111220472440944
 21
6.145669291338582
 31
0.0
  0
LINE
  5
2325
330
1E
100
AcDbEntity
  8
7
100
AcDbLine
 10
2.110236220472441
 20
6.146653543307087
 30
0.0
 11
2.110236220472441
 21
6.117125984251968
 31
0.0
  0
LINE
  5
2326
330
1E
100
AcDbEntity
  8
7
100
AcDbLine
 10
2.316929133858267
 20
6.146653543307087
 30
0.0
 11
2.316929133858267
 21
6.117125984251968
 31
0.0
  0
LINE
  5
2327
330
1E
100
AcDbEntity
  8
7
100
AcDbLine
 10
2.316929133858267
 20
6.146653543307087
 30
0.0
 11
2.315944881889763
 21
6.145669291338582
 31
0.0
  0
LINE
  5
2328
330
1E
100
AcDbEntity
  8
7
100
AcDbLine
 10
2.721456692913386
 20
6.038385826771653
 30
0.0
 11
2.74507874015748
 21
6.0501968503937
 31
0.0
  0
LINE
  5
2329
330
1E
100
AcDbEntity
  8
7
100
AcDbLine
 10
2.746062992125984
 20
6.06496062992126
 30
0.0
 11
2.950787401574803
 21
6.06496062992126
 31
0.0
  0
LINE
  5
232A
330
1E
100
AcDbEntity
  8
7
100
AcDbLine
 10
2.951771653543307
 20
6.0501968503937
 30
0.0
 11
2.74507874015748
 21
6.0501968503937
 31
0.0
  0
LINE
  5
232B
330
1E
100
AcDbEntity
  8
7
100
AcDbLine
 10
2.950787401574803
 20
6.076771653543307
 30
0.0
 11
2.950787401574803
 21
6.06496062992126
 31
0.0
  0
LINE
  5
232C
330
1E
100
AcDbEntity
  8
7
100
AcDbLine
 10
2.746062992125984
 20
6.076771653543307
 30
0.0
 11
2.746062992125984
 21
6.06496062992126
 31
0.0
  0
LINE
  5
232D
330
1E
100
AcDbEntity
  8
7
100
AcDbLine
 10
2.602362204724409
 20
6.037401574803149
 30
0.0
 11
3.094488188976378
 21
6.037401574803149
 31
0.0
  0
LINE
  5
232E
330
1E
100
AcDbEntity
  8
7
100
AcDbLine
 10
2.746062992125984
 20
6.145669291338582
 30
0.0
 11
2.950787401574803
 21
6.145669291338582
 31
0.0
  0
LINE
  5
232F
330
1E
100
AcDbEntity
  8
7
100
AcDbLine
 10
2.74507874015748
 20
6.146653543307087
 30
0.0
 11
2.951771653543307
 21
6.146653543307087
 31
0.0
  0
LINE
  5
2330
330
1E
100
AcDbEntity
  8
7
100
AcDbLine
 10
2.74507874015748
 20
6.117125984251968
 30
0.0
 11
2.951771653543307
 21
6.117125984251968
 31
0.0
  0
LINE
  5
2331
330
1E
100
AcDbEntity
  8
7
100
AcDbLine
 10
2.74507874015748
 20
6.146653543307087
 30
0.0
 11
2.746062992125984
 21
6.145669291338582
 31
0.0
  0
LINE
  5
2332
330
1E
100
AcDbEntity
  8
7
100
AcDbLine
 10
2.74507874015748
 20
6.146653543307087
 30
0.0
 11
2.74507874015748
 21
6.117125984251968
 31
0.0
  0
LINE
  5
2333
330
1E
100
AcDbEntity
  8
7
100
AcDbLine
 10
2.951771653543307
 20
6.146653543307087
 30
0.0
 11
2.951771653543307
 21
6.117125984251968
 31
0.0
  0
LINE
  5
2334
330
1E
100
AcDbEntity
  8
7
100
AcDbLine
 10
2.951771653543307
 20
6.146653543307087
 30
0.0
 11
2.950787401574803
 21
6.145669291338582
 31
0.0
  0
LINE
  5
2335
330
1E
100
AcDbEntity
  8
7
100
AcDbLine
 10
2.896653543307086
 20
6.116141732283464
 30
0.0
 11
2.946850393700787
 21
6.116141732283464
 31
0.0
  0
LINE
  5
2336
330
1E
100
AcDbEntity
  8
7
100
AcDbLine
 10
2.951771653543307
 20
6.112204724409449
 30
0.0
 11
2.74507874015748
 21
6.112204724409449
 31
0.0
  0
LINE
  5
2337
330
1E
100
AcDbEntity
  8
7
100
AcDbLine
 10
2.75
 20
6.116141732283464
 30
0.0
 11
2.8001968503937
 21
6.116141732283464
 31
0.0
  0
LINE
  5
2338
330
1E
100
AcDbEntity
  8
7
100
AcDbLine
 10
2.746062992125984
 20
6.076771653543307
 30
0.0
 11
2.950787401574803
 21
6.076771653543307
 31
0.0
  0
LINE
  5
2339
330
1E
100
AcDbEntity
  8
7
100
AcDbLine
 10
2.158464566929133
 20
6.875984251968503
 30
0.0
 11
2.15748031496063
 21
6.876968503937008
 31
0.0
  0
LINE
  5
233A
330
1E
100
AcDbEntity
  8
7
100
AcDbLine
 10
2.186023622047243
 20
6.888779527559055
 30
0.0
 11
2.875984251968504
 21
6.888779527559055
 31
0.0
  0
LINE
  5
233B
330
1E
100
AcDbEntity
  8
7
100
AcDbLine
 10
2.105314960629921
 20
6.824803149606299
 30
0.0
 11
2.106299212598425
 21
6.823818897637795
 31
0.0
  0
LINE
  5
233C
330
1E
100
AcDbEntity
  8
7
100
AcDbLine
 10
2.169291338582677
 20
6.947834645669291
 30
0.0
 11
2.89271653543307
 21
6.947834645669291
 31
0.0
  0
LINE
  5
233D
330
1E
100
AcDbEntity
  8
7
100
AcDbLine
 10
2.956692913385826
 20
6.824803149606299
 30
0.0
 11
3.033464566929133
 21
6.824803149606299
 31
0.0
  0
LINE
  5
233E
330
1E
100
AcDbEntity
  8
7
100
AcDbLine
 10
2.956692913385826
 20
6.824803149606299
 30
0.0
 11
2.903543307086614
 21
6.876968503937008
 31
0.0
  0
LINE
  5
233F
330
1E
100
AcDbEntity
  8
7
100
AcDbLine
 10
2.105314960629921
 20
6.824803149606299
 30
0.0
 11
2.15748031496063
 21
6.876968503937008
 31
0.0
  0
LINE
  5
2340
330
1E
100
AcDbEntity
  8
7
100
AcDbLine
 10
2.105314960629921
 20
6.824803149606299
 30
0.0
 11
2.028543307086614
 21
6.824803149606299
 31
0.0
  0
LINE
  5
2341
330
1E
100
AcDbEntity
  8
7
100
AcDbLine
 10
2.875
 20
5.898622047244094
 30
0.0
 11
2.875984251968504
 21
5.89763779527559
 31
0.0
  0
LINE
  5
2342
330
1E
100
AcDbEntity
  8
7
100
AcDbLine
 10
2.903543307086614
 20
5.909448818897637
 30
0.0
 11
2.903543307086614
 21
5.910433070866141
 31
0.0
  0
LINE
  5
2343
330
1E
100
AcDbEntity
  8
7
100
AcDbLine
 10
2.158464566929133
 20
5.910433070866141
 30
0.0
 11
2.15748031496063
 21
5.909448818897637
 31
0.0
  0
LINE
  5
2344
330
1E
100
AcDbEntity
  8
7
100
AcDbLine
 10
2.186023622047243
 20
5.89763779527559
 30
0.0
 11
2.187007874015748
 21
5.898622047244094
 31
0.0
  0
LINE
  5
2345
330
1E
100
AcDbEntity
  8
7
100
AcDbLine
 10
2.186023622047243
 20
5.89763779527559
 30
0.0
 11
2.875984251968504
 21
5.89763779527559
 31
0.0
  0
LINE
  5
2346
330
1E
100
AcDbEntity
  8
7
100
AcDbLine
 10
2.956692913385826
 20
5.961614173228346
 30
0.0
 11
2.955708661417323
 21
5.96259842519685
 31
0.0
  0
LINE
  5
2347
330
1E
100
AcDbEntity
  8
7
100
AcDbLine
 10
2.169291338582677
 20
5.839566929133858
 30
0.0
 11
2.89271653543307
 21
5.839566929133858
 31
0.0
  0
LINE
  5
2348
330
1E
100
AcDbEntity
  8
7
100
AcDbLine
 10
2.956692913385826
 20
5.961614173228346
 30
0.0
 11
3.033464566929133
 21
5.961614173228346
 31
0.0
  0
LINE
  5
2349
330
1E
100
AcDbEntity
  8
7
100
AcDbLine
 10
2.956692913385826
 20
5.961614173228346
 30
0.0
 11
2.903543307086614
 21
5.909448818897637
 31
0.0
  0
LINE
  5
234A
330
1E
100
AcDbEntity
  8
7
100
AcDbLine
 10
2.105314960629921
 20
5.961614173228346
 30
0.0
 11
2.15748031496063
 21
5.909448818897637
 31
0.0
  0
LINE
  5
234B
330
1E
100
AcDbEntity
  8
7
100
AcDbLine
 10
2.105314960629921
 20
5.961614173228346
 30
0.0
 11
2.028543307086614
 21
5.961614173228346
 31
0.0
  0
LINE
  5
234C
330
1E
100
AcDbEntity
  8
7
100
AcDbLine
 10
2.955708661417323
 20
5.96259842519685
 30
0.0
 11
3.035433070866141
 21
5.96259842519685
 31
0.0
  0
LINE
  5
234D
330
1E
100
AcDbEntity
  8
7
100
AcDbLine
 10
2.875
 20
5.358267716535433
 30
0.0
 11
2.875984251968504
 21
5.359251968503937
 31
0.0
  0
LINE
  5
234E
330
1E
100
AcDbEntity
  8
7
100
AcDbLine
 10
2.903543307086614
 20
5.347440944881889
 30
0.0
 11
2.903543307086614
 21
5.346456692913386
 31
0.0
  0
LINE
  5
234F
330
1E
100
AcDbEntity
  8
7
100
AcDbLine
 10
2.158464566929133
 20
5.346456692913386
 30
0.0
 11
2.15748031496063
 21
5.347440944881889
 31
0.0
  0
LINE
  5
2350
330
1E
100
AcDbEntity
  8
7
100
AcDbLine
 10
2.186023622047243
 20
5.359251968503937
 30
0.0
 11
2.187007874015748
 21
5.358267716535433
 31
0.0
  0
LINE
  5
2351
330
1E
100
AcDbEntity
  8
7
100
AcDbLine
 10
2.186023622047243
 20
5.359251968503937
 30
0.0
 11
2.875984251968504
 21
5.359251968503937
 31
0.0
  0
LINE
  5
2352
330
1E
100
AcDbEntity
  8
7
100
AcDbLine
 10
2.105314960629921
 20
5.295275590551181
 30
0.0
 11
2.106299212598425
 21
5.294291338582676
 31
0.0
  0
LINE
  5
2353
330
1E
100
AcDbEntity
  8
7
100
AcDbLine
 10
2.956692913385826
 20
5.295275590551181
 30
0.0
 11
2.955708661417323
 21
5.294291338582676
 31
0.0
  0
LINE
  5
2354
330
1E
100
AcDbEntity
  8
7
100
AcDbLine
 10
2.169291338582677
 20
5.417322834645669
 30
0.0
 11
2.89271653543307
 21
5.417322834645669
 31
0.0
  0
LINE
  5
2355
330
1E
100
AcDbEntity
  8
7
100
AcDbLine
 10
2.956692913385826
 20
5.295275590551181
 30
0.0
 11
3.033464566929133
 21
5.295275590551181
 31
0.0
  0
LINE
  5
2356
330
1E
100
AcDbEntity
  8
7
100
AcDbLine
 10
2.956692913385826
 20
5.295275590551181
 30
0.0
 11
2.903543307086614
 21
5.347440944881889
 31
0.0
  0
LINE
  5
2357
330
1E
100
AcDbEntity
  8
7
100
AcDbLine
 10
2.105314960629921
 20
5.295275590551181
 30
0.0
 11
2.15748031496063
 21
5.347440944881889
 31
0.0
  0
LINE
  5
2358
330
1E
100
AcDbEntity
  8
7
100
AcDbLine
 10
2.105314960629921
 20
5.295275590551181
 30
0.0
 11
2.028543307086614
 21
5.295275590551181
 31
0.0
  0
LINE
  5
2359
330
1E
100
AcDbEntity
  8
7
100
AcDbLine
 10
2.169291338582677
 20
5.419291338582676
 30
0.0
 11
2.89271653543307
 21
5.419291338582676
 31
0.0
  0
LINE
  5
235A
330
1E
100
AcDbEntity
  8
7
100
AcDbLine
 10
2.875
 20
4.369094488188976
 30
0.0
 11
2.875984251968504
 21
4.368110236220472
 31
0.0
  0
LINE
  5
235B
330
1E
100
AcDbEntity
  8
7
100
AcDbLine
 10
2.903543307086614
 20
4.379921259842519
 30
0.0
 11
2.903543307086614
 21
4.380905511811024
 31
0.0
  0
LINE
  5
235C
330
1E
100
AcDbEntity
  8
7
100
AcDbLine
 10
2.158464566929133
 20
4.380905511811024
 30
0.0
 11
2.15748031496063
 21
4.379921259842519
 31
0.0
  0
LINE
  5
235D
330
1E
100
AcDbEntity
  8
7
100
AcDbLine
 10
2.186023622047243
 20
4.368110236220472
 30
0.0
 11
2.187007874015748
 21
4.369094488188976
 31
0.0
  0
LINE
  5
235E
330
1E
100
AcDbEntity
  8
7
100
AcDbLine
 10
2.186023622047243
 20
4.368110236220472
 30
0.0
 11
2.875984251968504
 21
4.368110236220472
 31
0.0
  0
LINE
  5
235F
330
1E
100
AcDbEntity
  8
7
100
AcDbLine
 10
2.105314960629921
 20
4.432086614173228
 30
0.0
 11
2.106299212598425
 21
4.433070866141732
 31
0.0
  0
LINE
  5
2360
330
1E
100
AcDbEntity
  8
7
100
AcDbLine
 10
2.956692913385826
 20
4.432086614173228
 30
0.0
 11
2.955708661417323
 21
4.433070866141732
 31
0.0
  0
LINE
  5
2361
330
1E
100
AcDbEntity
  8
7
100
AcDbLine
 10
2.169291338582677
 20
4.309055118110236
 30
0.0
 11
2.89271653543307
 21
4.309055118110236
 31
0.0
  0
LINE
  5
2362
330
1E
100
AcDbEntity
  8
7
100
AcDbLine
 10
2.956692913385826
 20
4.432086614173228
 30
0.0
 11
3.033464566929133
 21
4.432086614173228
 31
0.0
  0
LINE
  5
2363
330
1E
100
AcDbEntity
  8
7
100
AcDbLine
 10
2.956692913385826
 20
4.432086614173228
 30
0.0
 11
2.903543307086614
 21
4.379921259842519
 31
0.0
  0
LINE
  5
2364
330
1E
100
AcDbEntity
  8
7
100
AcDbLine
 10
2.105314960629921
 20
4.432086614173228
 30
0.0
 11
2.15748031496063
 21
4.379921259842519
 31
0.0
  0
LINE
  5
2365
330
1E
100
AcDbEntity
  8
7
100
AcDbLine
 10
2.105314960629921
 20
4.432086614173228
 30
0.0
 11
2.028543307086614
 21
4.432086614173228
 31
0.0
  0
LINE
  5
2366
330
1E
100
AcDbEntity
  8
7
100
AcDbLine
 10
2.955708661417323
 20
4.433070866141732
 30
0.0
 11
3.035433070866141
 21
4.433070866141732
 31
0.0
  0
LINE
  5
2367
330
1E
100
AcDbEntity
  8
7
100
AcDbLine
 10
2.769685039370078
 20
3.753937007874015
 30
0.0
 11
2.968503937007874
 21
3.953740157480314
 31
0.0
  0
LINE
  5
2368
330
1E
100
AcDbEntity
  8
7
100
AcDbLine
 10
2.292322834645669
 20
3.753937007874015
 30
0.0
 11
2.093503937007874
 21
3.953740157480314
 31
0.0
  0
LINE
  5
2369
330
1E
100
AcDbEntity
  8
7
100
AcDbLine
 10
2.106299212598425
 20
3.579724409448818
 30
0.0
 11
2.106299212598425
 21
3.580708661417323
 31
0.0
  0
LINE
  5
236A
330
1E
100
AcDbEntity
  8
7
100
AcDbLine
 10
2.968503937007874
 20
7.303149606299212
 30
0.0
 11
2.769685039370078
 21
7.502952755905512
 31
0.0
  0
LINE
  5
236B
330
1E
100
AcDbEntity
  8
7
100
AcDbLine
 10
2.955708661417323
 20
7.676181102362204
 30
0.0
 11
2.955708661417323
 21
7.677165354330708
 31
0.0
  0
LINE
  5
236C
330
1E
100
AcDbEntity
  8
7
100
AcDbLine
 10
2.093503937007874
 20
7.303149606299212
 30
0.0
 11
2.292322834645669
 21
7.502952755905512
 31
0.0
  0
LINE
  5
236D
330
1E
100
AcDbEntity
  8
7
100
AcDbLine
 10
2.414370078740157
 20
5.435039370078739
 30
0.0
 11
2.411417322834645
 21
5.436023622047244
 31
0.0
  0
LINE
  5
2373
330
1E
100
AcDbEntity
  8
7
100
AcDbLine
 10
2.608267716535433
 20
5.421259842519685
 30
0.0
 11
2.452755905511811
 21
5.421259842519685
 31
0.0
  0
LINE
  5
2374
330
1E
100
AcDbEntity
  8
7
100
AcDbLine
 10
2.64763779527559
 20
5.435039370078739
 30
0.0
 11
2.608267716535433
 21
5.421259842519685
 31
0.0
  0
LINE
  5
2375
330
1E
100
AcDbEntity
  8
7
100
AcDbLine
 10
2.64763779527559
 20
5.435039370078739
 30
0.0
 11
2.650590551181102
 21
5.436023622047244
 31
0.0
  0
LINE
  5
2376
330
1E
100
AcDbEntity
  8
7
100
AcDbLine
 10
2.64763779527559
 20
5.435039370078739
 30
0.0
 11
3.173228346456693
 21
5.435039370078739
 31
0.0
  0
LINE
  5
2381
330
1E
100
AcDbEntity
  8
7
100
AcDbLine
 10
2.608267716535433
 20
5.835629921259842
 30
0.0
 11
2.452755905511811
 21
5.835629921259842
 31
0.0
  0
LINE
  5
23B0
330
1E
100
AcDbEntity
  8
7
100
AcDbLine
 10
3.279527559055118
 20
4.221456692913386
 30
0.0
 11
3.279527559055118
 21
5.554133858267716
 31
0.0
  0
LINE
  5
2446
330
1E
100
AcDbEntity
  8
7
100
AcDbLine
 10
5.380905511811024
 20
6.98523622047244
 30
0.0
 11
5.431102362204724
 21
6.986220472440945
 31
0.0
  0
LINE
  5
2447
330
1E
100
AcDbEntity
  8
7
100
AcDbLine
 10
5.431102362204724
 20
5.815944881889763
 30
0.0
 11
5.380905511811024
 21
5.816929133858267
 31
0.0
  0
LINE
  5
2448
330
1E
100
AcDbEntity
  8
7
100
AcDbLine
 10
5.380905511811024
 20
6.9251968503937
 30
0.0
 11
5.380905511811024
 21
5.876968503937008
 31
0.0
  0
LINE
  5
2449
330
1E
100
AcDbEntity
  8
7
100
AcDbLine
 10
5.380905511811024
 20
5.431102362204724
 30
0.0
 11
5.431102362204724
 21
5.432086614173228
 31
0.0
  0
LINE
  5
244A
330
1E
100
AcDbEntity
  8
7
100
AcDbLine
 10
5.431102362204724
 20
4.261811023622047
 30
0.0
 11
5.380905511811024
 21
4.26279527559055
 31
0.0
  0
LINE
  5
244B
330
1E
100
AcDbEntity
  8
7
100
AcDbLine
 10
5.380905511811024
 20
5.371062992125984
 30
0.0
 11
5.380905511811024
 21
4.322834645669291
 31
0.0
  0
LINE
  5
244C
330
1E
100
AcDbEntity
  8
7
100
AcDbLine
 10
5.431102362204724
 20
3.946850393700787
 30
0.0
 11
5.431102362204724
 21
4.091535433070866
 31
0.0
  0
LINE
  5
244D
330
1E
100
AcDbEntity
  8
7
100
AcDbLine
 10
5.431102362204724
 20
7.278543307086613
 30
0.0
 11
5.431102362204724
 21
7.499015748031496
 31
0.0
  0
LINE
  5
244E
330
1E
100
AcDbEntity
  8
7
100
AcDbLine
 10
5.431102362204724
 20
4.216535433070866
 30
0.0
 11
5.431102362204724
 21
7.031496062992125
 31
0.0
  0
LINE
  5
244F
330
1E
100
AcDbEntity
  8
7
100
AcDbLine
 10
5.523622047244094
 20
7.031496062992125
 30
0.0
 11
5.523622047244094
 21
5.698818897637795
 31
0.0
  0
LINE
  5
2450
330
1E
100
AcDbEntity
  8
7
100
AcDbLine
 10
5.523622047244094
 20
7.156496062992125
 30
0.0
 11
5.523622047244094
 21
7.3001968503937
 31
0.0
  0
LINE
  5
2451
330
1E
100
AcDbEntity
  8
7
100
AcDbLine
 10
5.431102362204724
 20
7.156496062992125
 30
0.0
 11
5.431102362204724
 21
7.278543307086613
 31
0.0
  0
LINE
  5
2452
330
1E
100
AcDbEntity
  8
7
100
AcDbLine
 10
5.523622047244094
 20
4.091535433070866
 30
0.0
 11
5.523622047244094
 21
3.947834645669291
 31
0.0
  0
LINE
  5
2453
330
1E
100
AcDbEntity
  8
7
100
AcDbLine
 10
5.723425196850393
 20
4.506889763779527
 30
0.0
 11
5.889763779527559
 21
4.511811023622047
 31
0.0
  0
LINE
  5
2454
330
1E
100
AcDbEntity
  8
7
100
AcDbLine
 10
5.904527559055118
 20
4.537401574803149
 30
0.0
 11
5.904527559055118
 21
4.526574803149606
 31
0.0
  0
LINE
  5
2455
330
1E
100
AcDbEntity
  8
7
100
AcDbLine
 10
5.891732283464566
 20
4.608267716535433
 30
0.0
 11
5.891732283464566
 21
4.578740157480314
 31
0.0
  0
LINE
  5
2456
330
1E
100
AcDbEntity
  8
7
100
AcDbLine
 10
5.891732283464566
 20
4.608267716535433
 30
0.0
 11
5.911417322834645
 21
4.606299212598425
 31
0.0
  0
LINE
  5
2457
330
1E
100
AcDbEntity
  8
7
100
AcDbLine
 10
5.973425196850393
 20
4.538385826771653
 30
0.0
 11
5.973425196850393
 21
4.577755905511811
 31
0.0
  0
LINE
  5
2458
330
1E
100
AcDbEntity
  8
7
100
AcDbLine
 10
5.990157480314961
 20
4.441929133858267
 30
0.0
 11
5.990157480314961
 21
4.422244094488188
 31
0.0
  0
LINE
  5
2459
330
1E
100
AcDbEntity
  8
7
100
AcDbLine
 10
5.723425196850393
 20
4.393700787401574
 30
0.0
 11
5.970472440944881
 21
4.401574803149606
 31
0.0
  0
LINE
  5
245A
330
1E
100
AcDbEntity
  8
7
100
AcDbLine
 10
6.037401574803149
 20
4.444881889763779
 30
0.0
 11
5.723425196850393
 21
4.423228346456692
 31
0.0
  0
LINE
  5
245B
330
1E
100
AcDbEntity
  8
7
100
AcDbLine
 10
6.056102362204724
 20
4.49507874015748
 30
0.0
 11
5.973425196850393
 21
4.577755905511811
 31
0.0
  0
LINE
  5
245C
330
1E
100
AcDbEntity
  8
7
100
AcDbLine
 10
6.056102362204724
 20
4.49507874015748
 30
0.0
 11
6.009842519685039
 21
4.499015748031496
 31
0.0
  0
LINE
  5
245D
330
1E
100
AcDbEntity
  8
7
100
AcDbLine
 10
5.723425196850393
 20
6.041338582677165
 30
0.0
 11
5.889763779527559
 21
6.046259842519685
 31
0.0
  0
LINE
  5
245E
330
1E
100
AcDbEntity
  8
7
100
AcDbLine
 10
5.904527559055118
 20
6.071850393700787
 30
0.0
 11
5.904527559055118
 21
6.061023622047244
 31
0.0
  0
LINE
  5
245F
330
1E
100
AcDbEntity
  8
7
100
AcDbLine
 10
5.891732283464566
 20
6.142716535433071
 30
0.0
 11
5.891732283464566
 21
6.113188976377952
 31
0.0
  0
LINE
  5
2460
330
1E
100
AcDbEntity
  8
7
100
AcDbLine
 10
5.891732283464566
 20
6.142716535433071
 30
0.0
 11
5.911417322834645
 21
6.140748031496062
 31
0.0
  0
LINE
  5
2461
330
1E
100
AcDbEntity
  8
7
100
AcDbLine
 10
5.973425196850393
 20
6.072834645669291
 30
0.0
 11
5.973425196850393
 21
6.112204724409449
 31
0.0
  0
LINE
  5
2462
330
1E
100
AcDbEntity
  8
7
100
AcDbLine
 10
5.990157480314961
 20
5.975393700787401
 30
0.0
 11
5.990157480314961
 21
5.956692913385826
 31
0.0
  0
LINE
  5
2463
330
1E
100
AcDbEntity
  8
7
100
AcDbLine
 10
5.723425196850393
 20
5.928149606299212
 30
0.0
 11
5.970472440944881
 21
5.936023622047244
 31
0.0
  0
LINE
  5
2464
330
1E
100
AcDbEntity
  8
7
100
AcDbLine
 10
6.037401574803149
 20
5.979330708661417
 30
0.0
 11
5.723425196850393
 21
5.95767716535433
 31
0.0
  0
LINE
  5
2465
330
1E
100
AcDbEntity
  8
7
100
AcDbLine
 10
6.056102362204724
 20
6.028543307086613
 30
0.0
 11
5.973425196850393
 21
6.112204724409449
 31
0.0
  0
LINE
  5
2466
330
1E
100
AcDbEntity
  8
7
100
AcDbLine
 10
6.056102362204724
 20
6.028543307086613
 30
0.0
 11
6.009842519685039
 21
6.033464566929134
 31
0.0
  0
LINE
  5
2467
330
1E
100
AcDbEntity
  8
7
100
AcDbLine
 10
5.380905511811024
 20
6.883858267716535
 30
0.0
 11
5.311023622047244
 21
6.884842519685039
 31
0.0
  0
LINE
  5
2468
330
1E
100
AcDbEntity
  8
7
100
AcDbLine
 10
5.311023622047244
 20
6.873031496062992
 30
0.0
 11
5.380905511811024
 21
6.872047244094487
 31
0.0
  0
LINE
  5
2469
330
1E
100
AcDbEntity
  8
7
100
AcDbLine
 10
5.311023622047244
 20
6.820866141732283
 30
0.0
 11
5.380905511811024
 21
6.819881889763779
 31
0.0
  0
LINE
  5
246A
330
1E
100
AcDbEntity
  8
7
100
AcDbLine
 10
5.380905511811024
 20
5.894685039370078
 30
0.0
 11
5.311023622047244
 21
5.893700787401574
 31
0.0
  0
LINE
  5
246B
330
1E
100
AcDbEntity
  8
7
100
AcDbLine
 10
5.311023622047244
 20
5.905511811023622
 30
0.0
 11
5.380905511811024
 21
5.906496062992125
 31
0.0
  0
LINE
  5
246C
330
1E
100
AcDbEntity
  8
7
100
AcDbLine
 10
5.311023622047244
 20
5.95767716535433
 30
0.0
 11
5.380905511811024
 21
5.958661417322834
 31
0.0
  0
LINE
  5
246D
330
1E
100
AcDbEntity
  8
7
100
AcDbLine
 10
5.380905511811024
 20
5.353346456692913
 30
0.0
 11
5.311023622047244
 21
5.354330708661417
 31
0.0
  0
LINE
  5
246E
330
1E
100
AcDbEntity
  8
7
100
AcDbLine
 10
5.311023622047244
 20
5.343503937007874
 30
0.0
 11
5.380905511811024
 21
5.341535433070865
 31
0.0
  0
LINE
  5
246F
330
1E
100
AcDbEntity
  8
7
100
AcDbLine
 10
5.311023622047244
 20
5.290354330708661
 30
0.0
 11
5.380905511811024
 21
5.289370078740157
 31
0.0
  0
LINE
  5
2470
330
1E
100
AcDbEntity
  8
7
100
AcDbLine
 10
5.380905511811024
 20
4.365157480314961
 30
0.0
 11
5.311023622047244
 21
4.363188976377952
 31
0.0
  0
LINE
  5
2471
330
1E
100
AcDbEntity
  8
7
100
AcDbLine
 10
5.311023622047244
 20
4.375
 30
0.0
 11
5.380905511811024
 21
4.375984251968503
 31
0.0
  0
LINE
  5
2472
330
1E
100
AcDbEntity
  8
7
100
AcDbLine
 10
5.311023622047244
 20
4.427165354330708
 30
0.0
 11
5.380905511811024
 21
4.429133858267716
 31
0.0
  0
LINE
  5
2473
330
1E
100
AcDbEntity
  8
7
100
AcDbLine
 10
5.431102362204724
 20
3.574803149606299
 30
0.0
 11
5.523622047244094
 21
3.576771653543306
 31
0.0
  0
LINE
  5
2474
330
1E
100
AcDbEntity
  8
7
100
AcDbLine
 10
5.523622047244094
 20
7.671259842519685
 30
0.0
 11
5.431102362204724
 21
7.673228346456692
 31
0.0
  0
LINE
  5
2475
330
1E
100
AcDbEntity
  8
7
100
AcDbLine
 10
5.523622047244094
 20
4.320866141732283
 30
0.0
 11
5.523622047244094
 21
6.953740157480314
 31
0.0
  0
LINE
  5
2476
330
1E
100
AcDbEntity
  8
7
100
AcDbLine
 10
5.723425196850393
 20
7.025590551181102
 30
0.0
 11
5.523622047244094
 21
7.029527559055118
 31
0.0
  0
LINE
  5
2477
330
1E
100
AcDbEntity
  8
7
100
AcDbLine
 10
5.723425196850393
 20
4.324803149606299
 30
0.0
 11
5.723425196850393
 21
6.950787401574802
 31
0.0
  0
LINE
  5
2478
330
1E
100
AcDbEntity
  8
7
100
AcDbLine
 10
5.523622047244094
 20
6.944881889763779
 30
0.0
 11
5.523622047244094
 21
6.938976377952755
 31
0.0
  0
LINE
  5
2479
330
1E
100
AcDbEntity
  8
7
100
AcDbLine
 10
5.723425196850393
 20
6.948818897637795
 30
0.0
 11
5.723425196850393
 21
5.830708661417323
 31
0.0
  0
LINE
  5
247A
330
1E
100
AcDbEntity
  8
7
100
AcDbLine
 10
5.523622047244094
 20
7.029527559055118
 30
0.0
 11
5.723425196850393
 21
7.025590551181102
 31
0.0
  0
LINE
  5
247B
330
1E
100
AcDbEntity
  8
7
100
AcDbLine
 10
5.723425196850393
 20
6.950787401574802
 30
0.0
 11
5.723425196850393
 21
4.324803149606299
 31
0.0
  0
LINE
  5
247C
330
1E
100
AcDbEntity
  8
7
100
AcDbLine
 10
5.523622047244094
 20
6.953740157480314
 30
0.0
 11
5.523622047244094
 21
5.698818897637795
 31
0.0
  0
LINE
  5
247D
330
1E
100
AcDbEntity
  8
7
100
AcDbLine
 10
5.523622047244094
 20
6.944881889763779
 30
0.0
 11
5.523622047244094
 21
6.938976377952755
 31
0.0
  0
LINE
  5
247E
330
1E
100
AcDbEntity
  8
7
100
AcDbLine
 10
5.723425196850393
 20
5.830708661417323
 30
0.0
 11
5.723425196850393
 21
6.948818897637795
 31
0.0
  0
LINE
  5
247F
330
1E
100
AcDbEntity
  8
7
100
AcDbLine
 10
5.723425196850393
 20
4.326771653543307
 30
0.0
 11
5.723425196850393
 21
5.443897637795275
 31
0.0
  0
LINE
  5
2480
330
1E
100
AcDbEntity
  8
7
100
AcDbLine
 10
5.723425196850393
 20
4.249015748031496
 30
0.0
 11
5.523622047244094
 21
4.246062992125984
 31
0.0
  0
LINE
  5
2481
330
1E
100
AcDbEntity
  8
7
100
AcDbLine
 10
5.523622047244094
 20
4.246062992125984
 30
0.0
 11
5.723425196850393
 21
4.249015748031496
 31
0.0
  0
LINE
  5
2482
330
1E
100
AcDbEntity
  8
7
100
AcDbLine
 10
5.723425196850393
 20
5.443897637795275
 30
0.0
 11
5.723425196850393
 21
4.326771653543307
 31
0.0
  0
LINE
  5
2483
330
1E
100
AcDbEntity
  8
7
100
AcDbLine
 10
5.431102362204724
 20
7.671259842519685
 30
0.0
 11
5.523622047244094
 21
7.671259842519685
 31
0.0
  0
LINE
  5
2484
330
1E
100
AcDbEntity
  8
7
100
AcDbLine
 10
5.723425196850393
 20
5.776574803149606
 30
0.0
 11
5.823818897637795
 21
5.776574803149606
 31
0.0
  0
LINE
  5
2485
330
1E
100
AcDbEntity
  8
7
100
AcDbLine
 10
5.723425196850393
 20
5.471456692913386
 30
0.0
 11
5.823818897637795
 21
5.471456692913386
 31
0.0
  0
LINE
  5
2486
330
1E
100
AcDbEntity
  8
7
100
AcDbLine
 10
5.431102362204724
 20
3.576771653543306
 30
0.0
 11
5.523622047244094
 21
3.576771653543306
 31
0.0
  0
LINE
  5
2487
330
1E
100
AcDbEntity
  8
7
100
AcDbLine
 10
5.431102362204724
 20
4.216535433070866
 30
0.0
 11
5.431102362204724
 21
4.261811023622047
 31
0.0
  0
LINE
  5
2488
330
1E
100
AcDbEntity
  8
7
100
AcDbLine
 10
5.523622047244094
 20
4.216535433070866
 30
0.0
 11
5.523622047244094
 21
5.549212598425197
 31
0.0
  0
LINE
  5
2489
330
1E
100
AcDbEntity
  8
7
100
AcDbLine
 10
5.523622047244094
 20
5.698818897637795
 30
0.0
 11
5.523622047244094
 21
5.549212598425197
 31
0.0
  0
LINE
  5
24E1
330
1E
100
AcDbEntity
  8
3
100
AcDbLine
 10
1.934055118110236
 20
5.670275590551181
 30
0.0
 11
1.918307086614173
 21
5.674212598425197
 31
0.0
  0
LINE
  5
251E
330
1E
100
AcDbEntity
  8
7
100
AcDbLine
 10
2.608267716535433
 20
5.628937007874015
 30
0.0
 11
2.604330708661417
 21
5.654527559055118
 31
0.0
  0
LINE
  5
258D
330
1E
100
AcDbEntity
  8
7
100
AcDbLine
 10
2.575787401574803
 20
7.112204724409449
 30
0.0
 11
2.613188976377952
 21
7.117125984251968
 31
0.0
  0
LINE
  5
25BC
330
1E
100
AcDbEntity
  8
7
100
AcDbLine
 10
2.613188976377952
 20
4.139763779527559
 30
0.0
 11
2.575787401574803
 21
4.144685039370078
 31
0.0
  0
LINE
  5
25EA
330
1E
100
AcDbEntity
  8
7
100
AcDbLine
 10
3.024606299212598
 20
3.940944881889763
 30
0.0
 11
2.987204724409449
 21
3.950787401574803
 31
0.0
  0
LINE
  5
264D
330
1E
100
AcDbEntity
  8
7
100
AcDbLine
 10
1.843503937007873
 20
7.098425196850393
 30
0.0
 11
1.819881889763779
 21
7.093503937007874
 31
0.0
  0
LINE
  5
2685
330
1E
100
AcDbEntity
  8
7
100
AcDbLine
 10
2.291338582677165
 20
7.501968503937008
 30
0.0
 11
2.284448818897637
 21
7.539370078740157
 31
0.0
  0
LINE
  5
26B8
330
1E
100
AcDbEntity
  8
7
100
AcDbLine
 10
3.007874015748031
 20
7.104330708661417
 30
0.0
 11
3.031496062992125
 21
7.099409448818897
 31
0.0
  0
LINE
  5
2710
330
1E
100
AcDbEntity
  8
7
100
AcDbLine
 10
3.218503937007874
 20
4.159448818897637
 30
0.0
 11
3.242125984251968
 21
4.164370078740157
 31
0.0
  0
LINE
  5
280F
330
1E
100
AcDbEntity
  8
7
100
AcDbLine
 10
5.523622047244094
 20
7.031496062992125
 30
0.0
 11
5.523622047244094
 21
7.05511811023622
 31
0.0
  0
LINE
  5
2839
330
1E
100
AcDbEntity
  8
7
100
AcDbLine
 10
5.431102362204724
 20
7.156496062992125
 30
0.0
 11
5.431102362204724
 21
7.132874015748031
 31
0.0
  0
LINE
  5
2863
330
1E
100
AcDbEntity
  8
7
100
AcDbLine
 10
5.523622047244094
 20
4.155511811023622
 30
0.0
 11
5.523622047244094
 21
4.150590551181102
 31
0.0
  0
LINE
  5
2878
330
1E
100
AcDbEntity
  8
7
100
AcDbLine
 10
5.431102362204724
 20
4.154527559055118
 30
0.0
 11
5.431102362204724
 21
4.149606299212598
 31
0.0
  0
LINE
  5
28F5
330
1E
100
AcDbEntity
  8
7
100
AcDbLine
 10
3.228346456692913
 20
4.304133858267716
 30
0.0
 11
3.233267716535433
 21
4.326771653543307
 31
0.0
  0
LINE
  5
2904
330
1E
100
AcDbEntity
  8
7
100
AcDbLine
 10
2.765748031496062
 20
3.753937007874015
 30
0.0
 11
2.769685039370078
 21
3.753937007874015
 31
0.0
  0
LINE
  5
2905
330
1E
100
AcDbEntity
  8
7
100
AcDbLine
 10
2.968503937007874
 20
3.953740157480314
 30
0.0
 11
2.968503937007874
 21
3.957677165354331
 31
0.0
  0
LINE
  5
2906
330
1E
100
AcDbEntity
  8
7
100
AcDbLine
 10
2.987204724409449
 20
3.951771653543307
 30
0.0
 11
2.972440944881889
 21
3.952755905511811
 31
0.0
  0
LINE
  5
2907
330
1E
100
AcDbEntity
  8
7
100
AcDbLine
 10
2.769685039370078
 20
3.75
 30
0.0
 11
2.770669291338582
 21
3.735236220472441
 31
0.0
  0
LINE
  5
2908
330
1E
100
AcDbEntity
  8
7
100
AcDbLine
 10
2.093503937007874
 20
3.957677165354331
 30
0.0
 11
2.093503937007874
 21
3.953740157480314
 31
0.0
  0
LINE
  5
2909
330
1E
100
AcDbEntity
  8
7
100
AcDbLine
 10
2.292322834645669
 20
3.753937007874015
 30
0.0
 11
2.296259842519685
 21
3.753937007874015
 31
0.0
  0
LINE
  5
290A
330
1E
100
AcDbEntity
  8
7
100
AcDbLine
 10
2.089566929133858
 20
3.952755905511811
 30
0.0
 11
2.073818897637795
 21
3.951771653543307
 31
0.0
  0
LINE
  5
290B
330
1E
100
AcDbEntity
  8
7
100
AcDbLine
 10
2.290354330708661
 20
3.735236220472441
 30
0.0
 11
2.292322834645669
 21
3.75
 31
0.0
  0
LINE
  5
290C
330
1E
100
AcDbEntity
  8
7
100
AcDbLine
 10
2.769685039370078
 20
7.506889763779527
 30
0.0
 11
2.770669291338582
 21
7.521653543307087
 31
0.0
  0
LINE
  5
290D
330
1E
100
AcDbEntity
  8
7
100
AcDbLine
 10
2.769685039370078
 20
7.502952755905512
 30
0.0
 11
2.765748031496062
 21
7.502952755905512
 31
0.0
  0
LINE
  5
290E
330
1E
100
AcDbEntity
  8
7
100
AcDbLine
 10
2.987204724409449
 20
7.30511811023622
 30
0.0
 11
2.972440944881889
 21
7.304133858267716
 31
0.0
  0
LINE
  5
290F
330
1E
100
AcDbEntity
  8
7
100
AcDbLine
 10
2.968503937007874
 20
7.299212598425197
 30
0.0
 11
2.968503937007874
 21
7.304133858267716
 31
0.0
  0
LINE
  5
2910
330
1E
100
AcDbEntity
  8
7
100
AcDbLine
 10
2.073818897637795
 20
7.30511811023622
 30
0.0
 11
2.089566929133858
 21
7.304133858267716
 31
0.0
  0
LINE
  5
2911
330
1E
100
AcDbEntity
  8
7
100
AcDbLine
 10
2.093503937007874
 20
7.304133858267716
 30
0.0
 11
2.093503937007874
 21
7.299212598425197
 31
0.0
  0
LINE
  5
2912
330
1E
100
AcDbEntity
  8
7
100
AcDbLine
 10
2.292322834645669
 20
7.506889763779527
 30
0.0
 11
2.290354330708661
 21
7.521653543307087
 31
0.0
  0
LINE
  5
2913
330
1E
100
AcDbEntity
  8
7
100
AcDbLine
 10
2.296259842519685
 20
7.502952755905512
 30
0.0
 11
2.292322834645669
 21
7.502952755905512
 31
0.0
  0
LINE
  5
291E
330
1E
100
AcDbEntity
  8
7
100
AcDbLine
 10
2.110236220472441
 20
4.58267716535433
 30
0.0
 11
2.110236220472441
 21
4.577755905511811
 31
0.0
  0
LINE
  5
2929
330
1E
100
AcDbEntity
  8
7
100
AcDbLine
 10
2.315944881889763
 20
4.577755905511811
 30
0.0
 11
2.316929133858267
 21
4.58267716535433
 31
0.0
  0
LINE
  5
2934
330
1E
100
AcDbEntity
  8
7
100
AcDbLine
 10
2.74507874015748
 20
4.58267716535433
 30
0.0
 11
2.74507874015748
 21
4.577755905511811
 31
0.0
  0
LINE
  5
2935
330
1E
100
AcDbEntity
  8
7
100
AcDbLine
 10
2.951771653543307
 20
4.577755905511811
 30
0.0
 11
2.951771653543307
 21
4.58267716535433
 31
0.0
  0
LINE
  5
294F
330
1E
100
AcDbEntity
  8
7
100
AcDbLine
 10
2.110236220472441
 20
6.117125984251968
 30
0.0
 11
2.110236220472441
 21
6.112204724409449
 31
0.0
  0
LINE
  5
295A
330
1E
100
AcDbEntity
  8
7
100
AcDbLine
 10
2.315944881889763
 20
6.112204724409449
 30
0.0
 11
2.316929133858267
 21
6.117125984251968
 31
0.0
  0
LINE
  5
296F
330
1E
100
AcDbEntity
  8
7
100
AcDbLine
 10
2.74507874015748
 20
6.117125984251968
 30
0.0
 11
2.74507874015748
 21
6.112204724409449
 31
0.0
  0
LINE
  5
2970
330
1E
100
AcDbEntity
  8
7
100
AcDbLine
 10
2.951771653543307
 20
6.112204724409449
 30
0.0
 11
2.951771653543307
 21
6.117125984251968
 31
0.0
  0
LINE
  5
29C9
330
1E
100
AcDbEntity
  8
7
100
AcDbLine
 10
5.893700787401574
 20
4.573818897637795
 30
0.0
 11
5.891732283464566
 21
4.578740157480314
 31
0.0
  0
LINE
  5
29F1
330
1E
100
AcDbEntity
  8
7
100
AcDbLine
 10
5.893700787401574
 20
6.108267716535433
 30
0.0
 11
5.891732283464566
 21
6.113188976377952
 31
0.0
  0
LINE
  5
2A85
330
1E
100
AcDbEntity
  8
7
100
AcDbLine
 10
2.972440944881889
 20
3.952755905511811
 30
0.0
 11
2.971456692913386
 21
3.952755905511811
 31
0.0
  0
LINE
  5
2AAD
330
1E
100
AcDbEntity
  8
7
100
AcDbLine
 10
2.089566929133858
 20
7.304133858267716
 30
0.0
 11
2.090551181102362
 21
7.304133858267716
 31
0.0
  0
LINE
  5
2ABB
330
1E
100
AcDbEntity
  8
7
100
AcDbLine
 10
2.094488188976378
 20
7.304133858267716
 30
0.0
 11
2.093503937007874
 21
7.304133858267716
 31
0.0
  0
LINE
  5
2ABC
330
1E
100
AcDbEntity
  8
7
100
AcDbLine
 10
2.291338582677165
 20
7.501968503937008
 30
0.0
 11
2.292322834645669
 21
7.502952755905512
 31
0.0
  0
LINE
  5
2ABD
330
1E
100
AcDbEntity
  8
7
100
AcDbLine
 10
2.770669291338582
 20
7.501968503937008
 30
0.0
 11
2.769685039370078
 21
7.502952755905512
 31
0.0
  0
LINE
  5
2ABE
330
1E
100
AcDbEntity
  8
7
100
AcDbLine
 10
2.96751968503937
 20
7.304133858267716
 30
0.0
 11
2.968503937007874
 21
7.304133858267716
 31
0.0
  0
LINE
  5
2ABF
330
1E
100
AcDbEntity
  8
7
100
AcDbLine
 10
2.96751968503937
 20
3.952755905511811
 30
0.0
 11
2.968503937007874
 21
3.953740157480314
 31
0.0
  0
LINE
  5
2AC0
330
1E
100
AcDbEntity
  8
7
100
AcDbLine
 10
2.770669291338582
 20
3.754921259842519
 30
0.0
 11
2.769685039370078
 21
3.753937007874015
 31
0.0
  0
LINE
  5
2AC1
330
1E
100
AcDbEntity
  8
7
100
AcDbLine
 10
2.291338582677165
 20
3.754921259842519
 30
0.0
 11
2.292322834645669
 21
3.753937007874015
 31
0.0
  0
LINE
  5
2AC2
330
1E
100
AcDbEntity
  8
7
100
AcDbLine
 10
2.094488188976378
 20
3.952755905511811
 30
0.0
 11
2.093503937007874
 21
3.953740157480314
 31
0.0
  0
LINE
  5
2AC3
330
1E
100
AcDbEntity
  8
7
100
AcDbLine
 10
2.89271653543307
 20
5.839566929133858
 30
0.0
 11
2.89271653543307
 21
5.83759842519685
 31
0.0
  0
LINE
  5
2AC4
330
1E
100
AcDbEntity
  8
7
100
AcDbLine
 10
2.169291338582677
 20
5.839566929133858
 30
0.0
 11
2.169291338582677
 21
5.83759842519685
 31
0.0
  0
LINE
  5
2AC5
330
1E
100
AcDbEntity
  8
7
100
AcDbLine
 10
2.028543307086614
 20
5.961614173228346
 30
0.0
 11
2.025590551181102
 21
5.96259842519685
 31
0.0
  0
LINE
  5
2AC6
330
1E
100
AcDbEntity
  8
7
100
AcDbLine
 10
3.033464566929133
 20
5.961614173228346
 30
0.0
 11
3.035433070866141
 21
5.96259842519685
 31
0.0
  0
LINE
  5
2AC7
330
1E
100
AcDbEntity
  8
7
100
AcDbLine
 10
2.89271653543307
 20
5.417322834645669
 30
0.0
 11
2.89271653543307
 21
5.419291338582676
 31
0.0
  0
LINE
  5
2AC8
330
1E
100
AcDbEntity
  8
7
100
AcDbLine
 10
2.169291338582677
 20
5.417322834645669
 30
0.0
 11
2.169291338582677
 21
5.419291338582676
 31
0.0
  0
LINE
  5
2AC9
330
1E
100
AcDbEntity
  8
7
100
AcDbLine
 10
2.028543307086614
 20
5.295275590551181
 30
0.0
 11
2.025590551181102
 21
5.294291338582676
 31
0.0
  0
LINE
  5
2ACA
330
1E
100
AcDbEntity
  8
7
100
AcDbLine
 10
3.033464566929133
 20
5.295275590551181
 30
0.0
 11
3.035433070866141
 21
5.294291338582676
 31
0.0
  0
LINE
  5
2ACB
330
1E
100
AcDbEntity
  8
7
100
AcDbLine
 10
2.89271653543307
 20
4.309055118110236
 30
0.0
 11
2.89271653543307
 21
4.308070866141732
 31
0.0
  0
LINE
  5
2ACC
330
1E
100
AcDbEntity
  8
7
100
AcDbLine
 10
2.169291338582677
 20
4.309055118110236
 30
0.0
 11
2.169291338582677
 21
4.308070866141732
 31
0.0
  0
LINE
  5
2ACD
330
1E
100
AcDbEntity
  8
7
100
AcDbLine
 10
2.028543307086614
 20
4.432086614173228
 30
0.0
 11
2.025590551181102
 21
4.433070866141732
 31
0.0
  0
LINE
  5
2ACE
330
1E
100
AcDbEntity
  8
7
100
AcDbLine
 10
3.033464566929133
 20
4.432086614173228
 30
0.0
 11
3.035433070866141
 21
4.433070866141732
 31
0.0
  0
LINE
  5
2ACF
330
1E
100
AcDbEntity
  8
7
100
AcDbLine
 10
5.311023622047244
 20
6.943897637795275
 30
0.0
 11
5.380905511811024
 21
6.944881889763779
 31
0.0
  0
LINE
  5
2AD0
330
1E
100
AcDbEntity
  8
7
100
AcDbLine
 10
5.311023622047244
 20
6.943897637795275
 30
0.0
 11
5.380905511811024
 21
6.944881889763779
 31
0.0
  0
LINE
  5
2AD1
330
1E
100
AcDbEntity
  8
7
100
AcDbLine
 10
5.311023622047244
 20
6.820866141732283
 30
0.0
 11
5.380905511811024
 21
6.819881889763779
 31
0.0
  0
LINE
  5
2AD2
330
1E
100
AcDbEntity
  8
7
100
AcDbLine
 10
5.311023622047244
 20
6.820866141732283
 30
0.0
 11
5.380905511811024
 21
6.819881889763779
 31
0.0
  0
LINE
  5
2AD3
330
1E
100
AcDbEntity
  8
7
100
AcDbLine
 10
5.311023622047244
 20
5.834645669291338
 30
0.0
 11
5.380905511811024
 21
5.833661417322834
 31
0.0
  0
LINE
  5
2AD4
330
1E
100
AcDbEntity
  8
7
100
AcDbLine
 10
5.311023622047244
 20
5.834645669291338
 30
0.0
 11
5.380905511811024
 21
5.833661417322834
 31
0.0
  0
LINE
  5
2AD5
330
1E
100
AcDbEntity
  8
7
100
AcDbLine
 10
5.311023622047244
 20
5.95767716535433
 30
0.0
 11
5.380905511811024
 21
5.958661417322834
 31
0.0
  0
LINE
  5
2AD6
330
1E
100
AcDbEntity
  8
7
100
AcDbLine
 10
5.311023622047244
 20
5.95767716535433
 30
0.0
 11
5.380905511811024
 21
5.958661417322834
 31
0.0
  0
LINE
  5
2AD7
330
1E
100
AcDbEntity
  8
7
100
AcDbLine
 10
5.311023622047244
 20
5.413385826771653
 30
0.0
 11
5.380905511811024
 21
5.414370078740157
 31
0.0
  0
LINE
  5
2AD8
330
1E
100
AcDbEntity
  8
7
100
AcDbLine
 10
5.311023622047244
 20
5.413385826771653
 30
0.0
 11
5.380905511811024
 21
5.414370078740157
 31
0.0
  0
LINE
  5
2AD9
330
1E
100
AcDbEntity
  8
7
100
AcDbLine
 10
5.311023622047244
 20
5.290354330708661
 30
0.0
 11
5.380905511811024
 21
5.289370078740157
 31
0.0
  0
LINE
  5
2ADA
330
1E
100
AcDbEntity
  8
7
100
AcDbLine
 10
5.311023622047244
 20
5.290354330708661
 30
0.0
 11
5.380905511811024
 21
5.289370078740157
 31
0.0
  0
LINE
  5
2ADB
330
1E
100
AcDbEntity
  8
7
100
AcDbLine
 10
5.311023622047244
 20
4.30511811023622
 30
0.0
 11
5.380905511811024
 21
4.303149606299212
 31
0.0
  0
LINE
  5
2ADC
330
1E
100
AcDbEntity
  8
7
100
AcDbLine
 10
5.311023622047244
 20
4.427165354330708
 30
0.0
 11
5.380905511811024
 21
4.429133858267716
 31
0.0
  0
LINE
  5
2AE0
330
1E
100
AcDbEntity
  8
7
100
AcDbLine
 10
2.292322834645669
 20
7.502952755905512
 30
0.0
 11
2.292322834645669
 21
7.503937007874015
 31
0.0
  0
LINE
  5
2AE1
330
1E
100
AcDbEntity
  8
7
100
AcDbLine
 10
2.292322834645669
 20
7.503937007874015
 30
0.0
 11
2.292322834645669
 21
7.504921259842519
 31
0.0
  0
LINE
  5
2AE2
330
1E
100
AcDbEntity
  8
7
100
AcDbLine
 10
2.292322834645669
 20
7.504921259842519
 30
0.0
 11
2.292322834645669
 21
7.505905511811024
 31
0.0
  0
LINE
  5
2AE3
330
1E
100
AcDbEntity
  8
7
100
AcDbLine
 10
2.292322834645669
 20
7.505905511811024
 30
0.0
 11
2.292322834645669
 21
7.506889763779527
 31
0.0
  0
LINE
  5
2AE4
330
1E
100
AcDbEntity
  8
7
100
AcDbLine
 10
2.090551181102362
 20
7.304133858267716
 30
0.0
 11
2.091535433070866
 21
7.304133858267716
 31
0.0
  0
LINE
  5
2AE5
330
1E
100
AcDbEntity
  8
7
100
AcDbLine
 10
2.091535433070866
 20
7.304133858267716
 30
0.0
 11
2.09251968503937
 21
7.304133858267716
 31
0.0
  0
LINE
  5
2AE6
330
1E
100
AcDbEntity
  8
7
100
AcDbLine
 10
2.09251968503937
 20
7.304133858267716
 30
0.0
 11
2.093503937007874
 21
7.304133858267716
 31
0.0
  0
LINE
  5
2AE7
330
1E
100
AcDbEntity
  8
7
100
AcDbLine
 10
2.292322834645669
 20
7.506889763779527
 30
0.0
 11
2.292322834645669
 21
7.504921259842519
 31
0.0
  0
LINE
  5
2AE8
330
1E
100
AcDbEntity
  8
7
100
AcDbLine
 10
2.292322834645669
 20
7.504921259842519
 30
0.0
 11
2.292322834645669
 21
7.502952755905512
 31
0.0
  0
LINE
  5
2AE9
330
1E
100
AcDbEntity
  8
7
100
AcDbLine
 10
2.769685039370078
 20
7.502952755905512
 30
0.0
 11
2.769685039370078
 21
7.503937007874015
 31
0.0
  0
LINE
  5
2AEA
330
1E
100
AcDbEntity
  8
7
100
AcDbLine
 10
2.769685039370078
 20
7.503937007874015
 30
0.0
 11
2.769685039370078
 21
7.504921259842519
 31
0.0
  0
LINE
  5
2AEB
330
1E
100
AcDbEntity
  8
7
100
AcDbLine
 10
2.769685039370078
 20
7.504921259842519
 30
0.0
 11
2.769685039370078
 21
7.505905511811024
 31
0.0
  0
LINE
  5
2AEC
330
1E
100
AcDbEntity
  8
7
100
AcDbLine
 10
2.769685039370078
 20
7.505905511811024
 30
0.0
 11
2.769685039370078
 21
7.506889763779527
 31
0.0
  0
LINE
  5
2AED
330
1E
100
AcDbEntity
  8
7
100
AcDbLine
 10
2.972440944881889
 20
7.304133858267716
 30
0.0
 11
2.971456692913386
 21
7.304133858267716
 31
0.0
  0
LINE
  5
2AEE
330
1E
100
AcDbEntity
  8
7
100
AcDbLine
 10
2.971456692913386
 20
7.304133858267716
 30
0.0
 11
2.970472440944881
 21
7.304133858267716
 31
0.0
  0
LINE
  5
2AEF
330
1E
100
AcDbEntity
  8
7
100
AcDbLine
 10
2.970472440944881
 20
7.304133858267716
 30
0.0
 11
2.969488188976378
 21
7.304133858267716
 31
0.0
  0
LINE
  5
2AF0
330
1E
100
AcDbEntity
  8
7
100
AcDbLine
 10
2.969488188976378
 20
7.304133858267716
 30
0.0
 11
2.968503937007874
 21
7.304133858267716
 31
0.0
  0
LINE
  5
2AF1
330
1E
100
AcDbEntity
  8
7
100
AcDbLine
 10
2.292322834645669
 20
3.753937007874015
 30
0.0
 11
2.292322834645669
 21
3.752952755905512
 31
0.0
  0
LINE
  5
2AF2
330
1E
100
AcDbEntity
  8
7
100
AcDbLine
 10
2.292322834645669
 20
3.752952755905512
 30
0.0
 11
2.292322834645669
 21
3.751968503937007
 31
0.0
  0
LINE
  5
2AF3
330
1E
100
AcDbEntity
  8
7
100
AcDbLine
 10
2.292322834645669
 20
3.751968503937007
 30
0.0
 11
2.292322834645669
 21
3.750984251968504
 31
0.0
  0
LINE
  5
2AF4
330
1E
100
AcDbEntity
  8
7
100
AcDbLine
 10
2.292322834645669
 20
3.750984251968504
 30
0.0
 11
2.292322834645669
 21
3.75
 31
0.0
  0
LINE
  5
2AF5
330
1E
100
AcDbEntity
  8
7
100
AcDbLine
 10
2.089566929133858
 20
3.952755905511811
 30
0.0
 11
2.090551181102362
 21
3.952755905511811
 31
0.0
  0
LINE
  5
2AF6
330
1E
100
AcDbEntity
  8
7
100
AcDbLine
 10
2.090551181102362
 20
3.952755905511811
 30
0.0
 11
2.091535433070866
 21
3.952755905511811
 31
0.0
  0
LINE
  5
2AF7
330
1E
100
AcDbEntity
  8
7
100
AcDbLine
 10
2.091535433070866
 20
3.952755905511811
 30
0.0
 11
2.09251968503937
 21
3.953740157480314
 31
0.0
  0
LINE
  5
2AF8
330
1E
100
AcDbEntity
  8
7
100
AcDbLine
 10
2.09251968503937
 20
3.953740157480314
 30
0.0
 11
2.093503937007874
 21
3.953740157480314
 31
0.0
  0
LINE
  5
2AF9
330
1E
100
AcDbEntity
  8
7
100
AcDbLine
 10
2.971456692913386
 20
3.952755905511811
 30
0.0
 11
2.970472440944881
 21
3.952755905511811
 31
0.0
  0
LINE
  5
2AFA
330
1E
100
AcDbEntity
  8
7
100
AcDbLine
 10
2.970472440944881
 20
3.952755905511811
 30
0.0
 11
2.969488188976378
 21
3.953740157480314
 31
0.0
  0
LINE
  5
2AFB
330
1E
100
AcDbEntity
  8
7
100
AcDbLine
 10
2.969488188976378
 20
3.953740157480314
 30
0.0
 11
2.968503937007874
 21
3.953740157480314
 31
0.0
  0
LINE
  5
2AFC
330
1E
100
AcDbEntity
  8
7
100
AcDbLine
 10
2.769685039370078
 20
3.753937007874015
 30
0.0
 11
2.769685039370078
 21
3.752952755905512
 31
0.0
  0
LINE
  5
2AFD
330
1E
100
AcDbEntity
  8
7
100
AcDbLine
 10
2.769685039370078
 20
3.752952755905512
 30
0.0
 11
2.769685039370078
 21
3.751968503937007
 31
0.0
  0
LINE
  5
2AFE
330
1E
100
AcDbEntity
  8
7
100
AcDbLine
 10
2.769685039370078
 20
3.751968503937007
 30
0.0
 11
2.769685039370078
 21
3.750984251968504
 31
0.0
  0
LINE
  5
2AFF
330
1E
100
AcDbEntity
  8
7
100
AcDbLine
 10
2.769685039370078
 20
3.750984251968504
 30
0.0
 11
2.769685039370078
 21
3.75
 31
0.0
  0
LINE
  5
2B00
330
1E
100
AcDbEntity
  8
7
100
AcDbLine
 10
5.723425196850393
 20
4.326771653543307
 30
0.0
 11
5.723425196850393
 21
4.312007874015748
 31
0.0
  0
LINE
  5
2B01
330
1E
100
AcDbEntity
  8
7
100
AcDbLine
 10
5.723425196850393
 20
4.312007874015748
 30
0.0
 11
5.723425196850393
 21
4.301181102362204
 31
0.0
  0
LINE
  5
2B02
330
1E
100
AcDbEntity
  8
7
100
AcDbLine
 10
5.723425196850393
 20
4.301181102362204
 30
0.0
 11
5.723425196850393
 21
4.297244094488188
 31
0.0
  0
LINE
  5
2B03
330
1E
100
AcDbEntity
  8
7
100
AcDbLine
 10
5.723425196850393
 20
4.263779527559055
 30
0.0
 11
5.723425196850393
 21
4.252952755905512
 31
0.0
  0
LINE
  5
2B04
330
1E
100
AcDbEntity
  8
7
100
AcDbLine
 10
5.723425196850393
 20
4.252952755905512
 30
0.0
 11
5.723425196850393
 21
4.249015748031496
 31
0.0
  0
LINE
  5
2B05
330
1E
100
AcDbEntity
  8
7
100
AcDbLine
 10
5.723425196850393
 20
4.324803149606299
 30
0.0
 11
5.723425196850393
 21
4.301181102362204
 31
0.0
  0
LINE
  5
2B06
330
1E
100
AcDbEntity
  8
7
100
AcDbLine
 10
5.723425196850393
 20
4.301181102362204
 30
0.0
 11
5.723425196850393
 21
4.280511811023622
 31
0.0
  0
LINE
  5
2B07
330
1E
100
AcDbEntity
  8
7
100
AcDbLine
 10
5.723425196850393
 20
4.280511811023622
 30
0.0
 11
5.723425196850393
 21
4.263779527559055
 31
0.0
  0
LINE
  5
2B08
330
1E
100
AcDbEntity
  8
7
100
AcDbLine
 10
5.523622047244094
 20
4.320866141732283
 30
0.0
 11
5.523622047244094
 21
4.298228346456692
 31
0.0
  0
LINE
  5
2B09
330
1E
100
AcDbEntity
  8
7
100
AcDbLine
 10
5.523622047244094
 20
4.298228346456692
 30
0.0
 11
5.523622047244094
 21
4.276574803149606
 31
0.0
  0
LINE
  5
2B0A
330
1E
100
AcDbEntity
  8
7
100
AcDbLine
 10
5.523622047244094
 20
4.276574803149606
 30
0.0
 11
5.523622047244094
 21
4.259842519685039
 31
0.0
  0
LINE
  5
2B0B
330
1E
100
AcDbEntity
  8
7
100
AcDbLine
 10
5.523622047244094
 20
4.259842519685039
 30
0.0
 11
5.523622047244094
 21
4.25
 31
0.0
  0
LINE
  5
2B0C
330
1E
100
AcDbEntity
  8
7
100
AcDbLine
 10
5.523622047244094
 20
4.25
 30
0.0
 11
5.523622047244094
 21
4.246062992125984
 31
0.0
  0
LINE
  5
2B0D
330
1E
100
AcDbEntity
  8
7
100
AcDbLine
 10
5.723425196850393
 20
4.249015748031496
 30
0.0
 11
5.723425196850393
 21
4.252952755905512
 31
0.0
  0
LINE
  5
2B0E
330
1E
100
AcDbEntity
  8
7
100
AcDbLine
 10
5.723425196850393
 20
4.252952755905512
 30
0.0
 11
5.723425196850393
 21
4.263779527559055
 31
0.0
  0
LINE
  5
2B0F
330
1E
100
AcDbEntity
  8
7
100
AcDbLine
 10
5.723425196850393
 20
4.263779527559055
 30
0.0
 11
5.723425196850393
 21
4.280511811023622
 31
0.0
  0
LINE
  5
2B10
330
1E
100
AcDbEntity
  8
7
100
AcDbLine
 10
5.723425196850393
 20
4.280511811023622
 30
0.0
 11
5.723425196850393
 21
4.301181102362204
 31
0.0
  0
LINE
  5
2B11
330
1E
100
AcDbEntity
  8
7
100
AcDbLine
 10
5.723425196850393
 20
4.301181102362204
 30
0.0
 11
5.723425196850393
 21
4.324803149606299
 31
0.0
  0
LINE
  5
2B12
330
1E
100
AcDbEntity
  8
7
100
AcDbLine
 10
5.523622047244094
 20
4.246062992125984
 30
0.0
 11
5.523622047244094
 21
4.25
 31
0.0
  0
LINE
  5
2B13
330
1E
100
AcDbEntity
  8
7
100
AcDbLine
 10
5.523622047244094
 20
4.25
 30
0.0
 11
5.523622047244094
 21
4.259842519685039
 31
0.0
  0
LINE
  5
2B14
330
1E
100
AcDbEntity
  8
7
100
AcDbLine
 10
5.523622047244094
 20
4.259842519685039
 30
0.0
 11
5.523622047244094
 21
4.276574803149606
 31
0.0
  0
LINE
  5
2B15
330
1E
100
AcDbEntity
  8
7
100
AcDbLine
 10
5.523622047244094
 20
4.276574803149606
 30
0.0
 11
5.523622047244094
 21
4.298228346456692
 31
0.0
  0
LINE
  5
2B16
330
1E
100
AcDbEntity
  8
7
100
AcDbLine
 10
5.523622047244094
 20
4.298228346456692
 30
0.0
 11
5.523622047244094
 21
4.320866141732283
 31
0.0
  0
LINE
  5
2B17
330
1E
100
AcDbEntity
  8
7
100
AcDbLine
 10
5.723425196850393
 20
4.297244094488188
 30
0.0
 11
5.723425196850393
 21
4.301181102362204
 31
0.0
  0
LINE
  5
2B18
330
1E
100
AcDbEntity
  8
7
100
AcDbLine
 10
5.723425196850393
 20
4.301181102362204
 30
0.0
 11
5.723425196850393
 21
4.312007874015748
 31
0.0
  0
LINE
  5
2B19
330
1E
100
AcDbEntity
  8
7
100
AcDbLine
 10
5.723425196850393
 20
4.312007874015748
 30
0.0
 11
5.723425196850393
 21
4.326771653543307
 31
0.0
  0
LINE
  5
2B1A
330
1E
100
AcDbEntity
  8
7
100
AcDbLine
 10
5.723425196850393
 20
6.948818897637795
 30
0.0
 11
5.723425196850393
 21
6.963582677165354
 31
0.0
  0
LINE
  5
2B1B
330
1E
100
AcDbEntity
  8
7
100
AcDbLine
 10
5.723425196850393
 20
6.963582677165354
 30
0.0
 11
5.723425196850393
 21
6.974409448818897
 31
0.0
  0
LINE
  5
2B1C
330
1E
100
AcDbEntity
  8
7
100
AcDbLine
 10
5.723425196850393
 20
6.974409448818897
 30
0.0
 11
5.723425196850393
 21
6.978346456692912
 31
0.0
  0
LINE
  5
2B1D
330
1E
100
AcDbEntity
  8
7
100
AcDbLine
 10
5.523622047244094
 20
6.944881889763779
 30
0.0
 11
5.523622047244094
 21
6.959645669291338
 31
0.0
  0
LINE
  5
2B1E
330
1E
100
AcDbEntity
  8
7
100
AcDbLine
 10
5.523622047244094
 20
6.959645669291338
 30
0.0
 11
5.523622047244094
 21
6.970472440944881
 31
0.0
  0
LINE
  5
2B1F
330
1E
100
AcDbEntity
  8
7
100
AcDbLine
 10
5.523622047244094
 20
6.970472440944881
 30
0.0
 11
5.523622047244094
 21
6.974409448818897
 31
0.0
  0
LINE
  5
2B20
330
1E
100
AcDbEntity
  8
7
100
AcDbLine
 10
5.723425196850393
 20
6.950787401574802
 30
0.0
 11
5.723425196850393
 21
6.973425196850393
 31
0.0
  0
LINE
  5
2B21
330
1E
100
AcDbEntity
  8
7
100
AcDbLine
 10
5.723425196850393
 20
6.973425196850393
 30
0.0
 11
5.723425196850393
 21
6.99507874015748
 31
0.0
  0
LINE
  5
2B22
330
1E
100
AcDbEntity
  8
7
100
AcDbLine
 10
5.723425196850393
 20
6.99507874015748
 30
0.0
 11
5.723425196850393
 21
7.010826771653543
 31
0.0
  0
LINE
  5
2B23
330
1E
100
AcDbEntity
  8
7
100
AcDbLine
 10
5.723425196850393
 20
7.010826771653543
 30
0.0
 11
5.723425196850393
 21
7.021653543307087
 31
0.0
  0
LINE
  5
2B24
330
1E
100
AcDbEntity
  8
7
100
AcDbLine
 10
5.723425196850393
 20
7.021653543307087
 30
0.0
 11
5.723425196850393
 21
7.025590551181102
 31
0.0
  0
LINE
  5
2B25
330
1E
100
AcDbEntity
  8
7
100
AcDbLine
 10
5.523622047244094
 20
6.953740157480314
 30
0.0
 11
5.523622047244094
 21
6.977362204724409
 31
0.0
  0
LINE
  5
2B26
330
1E
100
AcDbEntity
  8
7
100
AcDbLine
 10
5.523622047244094
 20
6.977362204724409
 30
0.0
 11
5.523622047244094
 21
6.998031496062992
 31
0.0
  0
LINE
  5
2B27
330
1E
100
AcDbEntity
  8
7
100
AcDbLine
 10
5.523622047244094
 20
6.998031496062992
 30
0.0
 11
5.523622047244094
 21
7.014763779527559
 31
0.0
  0
LINE
  5
2B28
330
1E
100
AcDbEntity
  8
7
100
AcDbLine
 10
5.523622047244094
 20
7.014763779527559
 30
0.0
 11
5.523622047244094
 21
7.025590551181102
 31
0.0
  0
LINE
  5
2B29
330
1E
100
AcDbEntity
  8
7
100
AcDbLine
 10
5.523622047244094
 20
7.025590551181102
 30
0.0
 11
5.523622047244094
 21
7.029527559055118
 31
0.0
  0
LINE
  5
2B2A
330
1E
100
AcDbEntity
  8
7
100
AcDbLine
 10
5.523622047244094
 20
6.974409448818897
 30
0.0
 11
5.523622047244094
 21
6.970472440944881
 31
0.0
  0
LINE
  5
2B2B
330
1E
100
AcDbEntity
  8
7
100
AcDbLine
 10
5.523622047244094
 20
6.970472440944881
 30
0.0
 11
5.523622047244094
 21
6.959645669291338
 31
0.0
  0
LINE
  5
2B2C
330
1E
100
AcDbEntity
  8
7
100
AcDbLine
 10
5.523622047244094
 20
6.959645669291338
 30
0.0
 11
5.523622047244094
 21
6.944881889763779
 31
0.0
  0
LINE
  5
2B2D
330
1E
100
AcDbEntity
  8
7
100
AcDbLine
 10
5.723425196850393
 20
6.978346456692912
 30
0.0
 11
5.723425196850393
 21
6.974409448818897
 31
0.0
  0
LINE
  5
2B2E
330
1E
100
AcDbEntity
  8
7
100
AcDbLine
 10
5.723425196850393
 20
6.974409448818897
 30
0.0
 11
5.723425196850393
 21
6.963582677165354
 31
0.0
  0
LINE
  5
2B2F
330
1E
100
AcDbEntity
  8
7
100
AcDbLine
 10
5.723425196850393
 20
6.963582677165354
 30
0.0
 11
5.723425196850393
 21
6.948818897637795
 31
0.0
  0
LINE
  5
2B30
330
1E
100
AcDbEntity
  8
7
100
AcDbLine
 10
5.723425196850393
 20
7.025590551181102
 30
0.0
 11
5.723425196850393
 21
7.021653543307087
 31
0.0
  0
LINE
  5
2B31
330
1E
100
AcDbEntity
  8
7
100
AcDbLine
 10
5.723425196850393
 20
7.021653543307087
 30
0.0
 11
5.723425196850393
 21
7.010826771653543
 31
0.0
  0
LINE
  5
2B32
330
1E
100
AcDbEntity
  8
7
100
AcDbLine
 10
5.723425196850393
 20
7.010826771653543
 30
0.0
 11
5.723425196850393
 21
6.99507874015748
 31
0.0
  0
LINE
  5
2B33
330
1E
100
AcDbEntity
  8
7
100
AcDbLine
 10
5.723425196850393
 20
6.99507874015748
 30
0.0
 11
5.723425196850393
 21
6.973425196850393
 31
0.0
  0
LINE
  5
2B34
330
1E
100
AcDbEntity
  8
7
100
AcDbLine
 10
5.723425196850393
 20
6.973425196850393
 30
0.0
 11
5.723425196850393
 21
6.950787401574802
 31
0.0
  0
LINE
  5
2B35
330
1E
100
AcDbEntity
  8
7
100
AcDbLine
 10
5.523622047244094
 20
7.029527559055118
 30
0.0
 11
5.523622047244094
 21
7.025590551181102
 31
0.0
  0
LINE
  5
2B36
330
1E
100
AcDbEntity
  8
7
100
AcDbLine
 10
5.523622047244094
 20
7.025590551181102
 30
0.0
 11
5.523622047244094
 21
7.014763779527559
 31
0.0
  0
LINE
  5
2B37
330
1E
100
AcDbEntity
  8
7
100
AcDbLine
 10
5.523622047244094
 20
7.014763779527559
 30
0.0
 11
5.523622047244094
 21
6.998031496062992
 31
0.0
  0
LINE
  5
2B38
330
1E
100
AcDbEntity
  8
7
100
AcDbLine
 10
5.523622047244094
 20
6.998031496062992
 30
0.0
 11
5.523622047244094
 21
6.977362204724409
 31
0.0
  0
LINE
  5
2B39
330
1E
100
AcDbEntity
  8
7
100
AcDbLine
 10
5.523622047244094
 20
6.977362204724409
 30
0.0
 11
5.523622047244094
 21
6.953740157480314
 31
0.0
  0
LINE
  5
2B3A
330
1E
100
AcDbEntity
  8
7
100
AcDbLine
 10
6.009842519685039
 20
6.033464566929134
 30
0.0
 11
5.991141732283464
 21
6.039370078740157
 31
0.0
  0
LINE
  5
2B3B
330
1E
100
AcDbEntity
  8
7
100
AcDbLine
 10
5.991141732283464
 20
6.039370078740157
 30
0.0
 11
5.977362204724409
 21
6.054133858267716
 31
0.0
  0
LINE
  5
2B3C
330
1E
100
AcDbEntity
  8
7
100
AcDbLine
 10
5.977362204724409
 20
6.054133858267716
 30
0.0
 11
5.973425196850393
 21
6.072834645669291
 31
0.0
  0
LINE
  5
2B3D
330
1E
100
AcDbEntity
  8
7
100
AcDbLine
 10
5.893700787401574
 20
6.108267716535433
 30
0.0
 11
5.90255905511811
 21
6.091535433070865
 31
0.0
  0
LINE
  5
2B3E
330
1E
100
AcDbEntity
  8
7
100
AcDbLine
 10
5.90255905511811
 20
6.091535433070865
 30
0.0
 11
5.904527559055118
 21
6.071850393700787
 31
0.0
  0
LINE
  5
2B3F
330
1E
100
AcDbEntity
  8
7
100
AcDbLine
 10
5.904527559055118
 20
6.071850393700787
 30
0.0
 11
5.90255905511811
 21
6.091535433070865
 31
0.0
  0
LINE
  5
2B40
330
1E
100
AcDbEntity
  8
7
100
AcDbLine
 10
5.90255905511811
 20
6.091535433070865
 30
0.0
 11
5.893700787401574
 21
6.108267716535433
 31
0.0
  0
LINE
  5
2B41
330
1E
100
AcDbEntity
  8
7
100
AcDbLine
 10
6.037401574803149
 20
5.979330708661417
 30
0.0
 11
6.053149606299212
 21
5.98523622047244
 31
0.0
  0
LINE
  5
2B42
330
1E
100
AcDbEntity
  8
7
100
AcDbLine
 10
6.053149606299212
 20
5.98523622047244
 30
0.0
 11
6.062992125984251
 21
5.998031496062992
 31
0.0
  0
LINE
  5
2B43
330
1E
100
AcDbEntity
  8
7
100
AcDbLine
 10
6.062992125984251
 20
5.998031496062992
 30
0.0
 11
6.063976377952755
 21
6.014763779527559
 31
0.0
  0
LINE
  5
2B44
330
1E
100
AcDbEntity
  8
7
100
AcDbLine
 10
6.063976377952755
 20
6.014763779527559
 30
0.0
 11
6.056102362204724
 21
6.028543307086613
 31
0.0
  0
LINE
  5
2B45
330
1E
100
AcDbEntity
  8
7
100
AcDbLine
 10
6.056102362204724
 20
6.028543307086613
 30
0.0
 11
6.063976377952755
 21
6.014763779527559
 31
0.0
  0
LINE
  5
2B46
330
1E
100
AcDbEntity
  8
7
100
AcDbLine
 10
6.063976377952755
 20
6.014763779527559
 30
0.0
 11
6.062992125984251
 21
5.998031496062992
 31
0.0
  0
LINE
  5
2B47
330
1E
100
AcDbEntity
  8
7
100
AcDbLine
 10
6.062992125984251
 20
5.998031496062992
 30
0.0
 11
6.053149606299212
 21
5.98523622047244
 31
0.0
  0
LINE
  5
2B48
330
1E
100
AcDbEntity
  8
7
100
AcDbLine
 10
6.053149606299212
 20
5.98523622047244
 30
0.0
 11
6.037401574803149
 21
5.979330708661417
 31
0.0
  0
LINE
  5
2B49
330
1E
100
AcDbEntity
  8
7
100
AcDbLine
 10
5.970472440944881
 20
5.936023622047244
 30
0.0
 11
5.984251968503937
 21
5.941929133858267
 31
0.0
  0
LINE
  5
2B4A
330
1E
100
AcDbEntity
  8
7
100
AcDbLine
 10
5.984251968503937
 20
5.941929133858267
 30
0.0
 11
5.990157480314961
 21
5.956692913385826
 31
0.0
  0
LINE
  5
2B4B
330
1E
100
AcDbEntity
  8
7
100
AcDbLine
 10
5.911417322834645
 20
6.140748031496062
 30
0.0
 11
5.944881889763779
 21
6.131889763779527
 31
0.0
  0
LINE
  5
2B4C
330
1E
100
AcDbEntity
  8
7
100
AcDbLine
 10
5.944881889763779
 20
6.131889763779527
 30
0.0
 11
5.973425196850393
 21
6.112204724409449
 31
0.0
  0
LINE
  5
2B4D
330
1E
100
AcDbEntity
  8
7
100
AcDbLine
 10
5.904527559055118
 20
6.061023622047244
 30
0.0
 11
5.900590551181102
 21
6.0501968503937
 31
0.0
  0
LINE
  5
2B4E
330
1E
100
AcDbEntity
  8
7
100
AcDbLine
 10
5.900590551181102
 20
6.0501968503937
 30
0.0
 11
5.889763779527559
 21
6.046259842519685
 31
0.0
  0
LINE
  5
2B4F
330
1E
100
AcDbEntity
  8
7
100
AcDbLine
 10
6.009842519685039
 20
4.499015748031496
 30
0.0
 11
5.991141732283464
 21
4.504921259842519
 31
0.0
  0
LINE
  5
2B50
330
1E
100
AcDbEntity
  8
7
100
AcDbLine
 10
5.991141732283464
 20
4.504921259842519
 30
0.0
 11
5.977362204724409
 21
4.519685039370078
 31
0.0
  0
LINE
  5
2B51
330
1E
100
AcDbEntity
  8
7
100
AcDbLine
 10
5.977362204724409
 20
4.519685039370078
 30
0.0
 11
5.973425196850393
 21
4.538385826771653
 31
0.0
  0
LINE
  5
2B52
330
1E
100
AcDbEntity
  8
7
100
AcDbLine
 10
5.904527559055118
 20
4.537401574803149
 30
0.0
 11
5.90255905511811
 21
4.557086614173228
 31
0.0
  0
LINE
  5
2B53
330
1E
100
AcDbEntity
  8
7
100
AcDbLine
 10
5.90255905511811
 20
4.557086614173228
 30
0.0
 11
5.893700787401574
 21
4.573818897637795
 31
0.0
  0
LINE
  5
2B54
330
1E
100
AcDbEntity
  8
7
100
AcDbLine
 10
5.893700787401574
 20
4.573818897637795
 30
0.0
 11
5.90255905511811
 21
4.557086614173228
 31
0.0
  0
LINE
  5
2B55
330
1E
100
AcDbEntity
  8
7
100
AcDbLine
 10
5.90255905511811
 20
4.557086614173228
 30
0.0
 11
5.904527559055118
 21
4.537401574803149
 31
0.0
  0
LINE
  5
2B56
330
1E
100
AcDbEntity
  8
7
100
AcDbLine
 10
6.037401574803149
 20
4.444881889763779
 30
0.0
 11
6.053149606299212
 21
4.450787401574802
 31
0.0
  0
LINE
  5
2B57
330
1E
100
AcDbEntity
  8
7
100
AcDbLine
 10
6.053149606299212
 20
4.450787401574802
 30
0.0
 11
6.062992125984251
 21
4.463582677165354
 31
0.0
  0
LINE
  5
2B58
330
1E
100
AcDbEntity
  8
7
100
AcDbLine
 10
6.062992125984251
 20
4.463582677165354
 30
0.0
 11
6.063976377952755
 21
4.480314960629921
 31
0.0
  0
LINE
  5
2B59
330
1E
100
AcDbEntity
  8
7
100
AcDbLine
 10
6.063976377952755
 20
4.480314960629921
 30
0.0
 11
6.056102362204724
 21
4.49507874015748
 31
0.0
  0
LINE
  5
2B5A
330
1E
100
AcDbEntity
  8
7
100
AcDbLine
 10
6.056102362204724
 20
4.49507874015748
 30
0.0
 11
6.063976377952755
 21
4.480314960629921
 31
0.0
  0
LINE
  5
2B5B
330
1E
100
AcDbEntity
  8
7
100
AcDbLine
 10
6.063976377952755
 20
4.480314960629921
 30
0.0
 11
6.062992125984251
 21
4.463582677165354
 31
0.0
  0
LINE
  5
2B5C
330
1E
100
AcDbEntity
  8
7
100
AcDbLine
 10
6.062992125984251
 20
4.463582677165354
 30
0.0
 11
6.053149606299212
 21
4.450787401574802
 31
0.0
  0
LINE
  5
2B5D
330
1E
100
AcDbEntity
  8
7
100
AcDbLine
 10
6.053149606299212
 20
4.450787401574802
 30
0.0
 11
6.037401574803149
 21
4.444881889763779
 31
0.0
  0
LINE
  5
2B5E
330
1E
100
AcDbEntity
  8
7
100
AcDbLine
 10
5.970472440944881
 20
4.401574803149606
 30
0.0
 11
5.984251968503937
 21
4.408464566929134
 31
0.0
  0
LINE
  5
2B5F
330
1E
100
AcDbEntity
  8
7
100
AcDbLine
 10
5.984251968503937
 20
4.408464566929134
 30
0.0
 11
5.990157480314961
 21
4.422244094488188
 31
0.0
  0
LINE
  5
2B60
330
1E
100
AcDbEntity
  8
7
100
AcDbLine
 10
5.911417322834645
 20
4.606299212598425
 30
0.0
 11
5.944881889763779
 21
4.597440944881889
 31
0.0
  0
LINE
  5
2B61
330
1E
100
AcDbEntity
  8
7
100
AcDbLine
 10
5.944881889763779
 20
4.597440944881889
 30
0.0
 11
5.973425196850393
 21
4.577755905511811
 31
0.0
  0
LINE
  5
2B62
330
1E
100
AcDbEntity
  8
7
100
AcDbLine
 10
5.904527559055118
 20
4.526574803149606
 30
0.0
 11
5.900590551181102
 21
4.515748031496062
 31
0.0
  0
LINE
  5
2B63
330
1E
100
AcDbEntity
  8
7
100
AcDbLine
 10
5.900590551181102
 20
4.515748031496062
 30
0.0
 11
5.889763779527559
 21
4.511811023622047
 31
0.0
  0
LINE
  5
2B64
330
1E
100
AcDbEntity
  8
7
100
AcDbLine
 10
5.380905511811024
 20
5.371062992125984
 30
0.0
 11
5.380905511811024
 21
5.393700787401574
 31
0.0
  0
LINE
  5
2B65
330
1E
100
AcDbEntity
  8
7
100
AcDbLine
 10
5.380905511811024
 20
5.393700787401574
 30
0.0
 11
5.380905511811024
 21
5.413385826771653
 31
0.0
  0
LINE
  5
2B66
330
1E
100
AcDbEntity
  8
7
100
AcDbLine
 10
5.380905511811024
 20
5.413385826771653
 30
0.0
 11
5.380905511811024
 21
5.426181102362204
 31
0.0
  0
LINE
  5
2B67
330
1E
100
AcDbEntity
  8
7
100
AcDbLine
 10
5.380905511811024
 20
5.426181102362204
 30
0.0
 11
5.380905511811024
 21
5.431102362204724
 31
0.0
  0
LINE
  5
2B68
330
1E
100
AcDbEntity
  8
7
100
AcDbLine
 10
5.380905511811024
 20
4.26279527559055
 30
0.0
 11
5.380905511811024
 21
4.267716535433071
 31
0.0
  0
LINE
  5
2B69
330
1E
100
AcDbEntity
  8
7
100
AcDbLine
 10
5.380905511811024
 20
4.267716535433071
 30
0.0
 11
5.380905511811024
 21
4.280511811023622
 31
0.0
  0
LINE
  5
2B6A
330
1E
100
AcDbEntity
  8
7
100
AcDbLine
 10
5.380905511811024
 20
4.280511811023622
 30
0.0
 11
5.380905511811024
 21
4.3001968503937
 31
0.0
  0
LINE
  5
2B6B
330
1E
100
AcDbEntity
  8
7
100
AcDbLine
 10
5.380905511811024
 20
4.3001968503937
 30
0.0
 11
5.380905511811024
 21
4.322834645669291
 31
0.0
  0
LINE
  5
2B6C
330
1E
100
AcDbEntity
  8
7
100
AcDbLine
 10
5.380905511811024
 20
6.9251968503937
 30
0.0
 11
5.380905511811024
 21
6.948818897637795
 31
0.0
  0
LINE
  5
2B6D
330
1E
100
AcDbEntity
  8
7
100
AcDbLine
 10
5.380905511811024
 20
6.948818897637795
 30
0.0
 11
5.380905511811024
 21
6.96751968503937
 31
0.0
  0
LINE
  5
2B6E
330
1E
100
AcDbEntity
  8
7
100
AcDbLine
 10
5.380905511811024
 20
6.96751968503937
 30
0.0
 11
5.380905511811024
 21
6.981299212598425
 31
0.0
  0
LINE
  5
2B6F
330
1E
100
AcDbEntity
  8
7
100
AcDbLine
 10
5.380905511811024
 20
6.981299212598425
 30
0.0
 11
5.380905511811024
 21
6.98523622047244
 31
0.0
  0
LINE
  5
2B70
330
1E
100
AcDbEntity
  8
7
100
AcDbLine
 10
5.380905511811024
 20
5.816929133858267
 30
0.0
 11
5.380905511811024
 21
5.821850393700787
 31
0.0
  0
LINE
  5
2B71
330
1E
100
AcDbEntity
  8
7
100
AcDbLine
 10
5.380905511811024
 20
5.821850393700787
 30
0.0
 11
5.380905511811024
 21
5.834645669291338
 31
0.0
  0
LINE
  5
2B72
330
1E
100
AcDbEntity
  8
7
100
AcDbLine
 10
5.380905511811024
 20
5.834645669291338
 30
0.0
 11
5.380905511811024
 21
5.854330708661417
 31
0.0
  0
LINE
  5
2B73
330
1E
100
AcDbEntity
  8
7
100
AcDbLine
 10
5.380905511811024
 20
5.854330708661417
 30
0.0
 11
5.380905511811024
 21
5.876968503937008
 31
0.0
  0
LINE
  5
2B74
330
1E
100
AcDbEntity
  8
7
100
AcDbLine
 10
2.15748031496063
 20
4.379921259842519
 30
0.0
 11
2.171259842519685
 21
4.371062992125984
 31
0.0
  0
LINE
  5
2B75
330
1E
100
AcDbEntity
  8
7
100
AcDbLine
 10
2.171259842519685
 20
4.371062992125984
 30
0.0
 11
2.186023622047243
 21
4.368110236220472
 31
0.0
  0
LINE
  5
2B76
330
1E
100
AcDbEntity
  8
7
100
AcDbLine
 10
2.875984251968504
 20
4.368110236220472
 30
0.0
 11
2.890748031496062
 21
4.371062992125984
 31
0.0
  0
LINE
  5
2B77
330
1E
100
AcDbEntity
  8
7
100
AcDbLine
 10
2.890748031496062
 20
4.371062992125984
 30
0.0
 11
2.903543307086614
 21
4.379921259842519
 31
0.0
  0
LINE
  5
2B78
330
1E
100
AcDbEntity
  8
7
100
AcDbLine
 10
2.186023622047243
 20
5.359251968503937
 30
0.0
 11
2.171259842519685
 21
5.356299212598425
 31
0.0
  0
LINE
  5
2B79
330
1E
100
AcDbEntity
  8
7
100
AcDbLine
 10
2.171259842519685
 20
5.356299212598425
 30
0.0
 11
2.15748031496063
 21
5.347440944881889
 31
0.0
  0
LINE
  5
2B7A
330
1E
100
AcDbEntity
  8
7
100
AcDbLine
 10
2.903543307086614
 20
5.347440944881889
 30
0.0
 11
2.890748031496062
 21
5.356299212598425
 31
0.0
  0
LINE
  5
2B7B
330
1E
100
AcDbEntity
  8
7
100
AcDbLine
 10
2.890748031496062
 20
5.356299212598425
 30
0.0
 11
2.875984251968504
 21
5.359251968503937
 31
0.0
  0
LINE
  5
2B7C
330
1E
100
AcDbEntity
  8
7
100
AcDbLine
 10
2.15748031496063
 20
5.909448818897637
 30
0.0
 11
2.171259842519685
 21
5.900590551181102
 31
0.0
  0
LINE
  5
2B7D
330
1E
100
AcDbEntity
  8
7
100
AcDbLine
 10
2.171259842519685
 20
5.900590551181102
 30
0.0
 11
2.186023622047243
 21
5.89763779527559
 31
0.0
  0
LINE
  5
2B7E
330
1E
100
AcDbEntity
  8
7
100
AcDbLine
 10
2.875984251968504
 20
5.89763779527559
 30
0.0
 11
2.890748031496062
 21
5.900590551181102
 31
0.0
  0
LINE
  5
2B7F
330
1E
100
AcDbEntity
  8
7
100
AcDbLine
 10
2.890748031496062
 20
5.900590551181102
 30
0.0
 11
2.903543307086614
 21
5.909448818897637
 31
0.0
  0
LINE
  5
2B80
330
1E
100
AcDbEntity
  8
7
100
AcDbLine
 10
2.186023622047243
 20
6.888779527559055
 30
0.0
 11
2.171259842519685
 21
6.885826771653543
 31
0.0
  0
LINE
  5
2B81
330
1E
100
AcDbEntity
  8
7
100
AcDbLine
 10
2.171259842519685
 20
6.885826771653543
 30
0.0
 11
2.15748031496063
 21
6.876968503937008
 31
0.0
  0
LINE
  5
2B82
330
1E
100
AcDbEntity
  8
7
100
AcDbLine
 10
2.903543307086614
 20
6.876968503937008
 30
0.0
 11
2.890748031496062
 21
6.885826771653543
 31
0.0
  0
LINE
  5
2B83
330
1E
100
AcDbEntity
  8
7
100
AcDbLine
 10
2.890748031496062
 20
6.885826771653543
 30
0.0
 11
2.875984251968504
 21
6.888779527559055
 31
0.0
  0
LINE
  5
2B84
330
1E
100
AcDbEntity
  8
7
100
AcDbLine
 10
2.951771653543307
 20
6.112204724409449
 30
0.0
 11
2.950787401574803
 21
6.095472440944881
 31
0.0
  0
LINE
  5
2B85
330
1E
100
AcDbEntity
  8
7
100
AcDbLine
 10
2.950787401574803
 20
6.095472440944881
 30
0.0
 11
2.950787401574803
 21
6.076771653543307
 31
0.0
  0
LINE
  5
2B86
330
1E
100
AcDbEntity
  8
7
100
AcDbLine
 10
2.746062992125984
 20
6.076771653543307
 30
0.0
 11
2.746062992125984
 21
6.095472440944881
 31
0.0
  0
LINE
  5
2B87
330
1E
100
AcDbEntity
  8
7
100
AcDbLine
 10
2.746062992125984
 20
6.095472440944881
 30
0.0
 11
2.74507874015748
 21
6.112204724409449
 31
0.0
  0
LINE
  5
2B88
330
1E
100
AcDbEntity
  8
7
100
AcDbLine
 10
2.950787401574803
 20
6.145669291338582
 30
0.0
 11
2.948818897637795
 21
6.136811023622047
 31
0.0
  0
LINE
  5
2B89
330
1E
100
AcDbEntity
  8
7
100
AcDbLine
 10
2.948818897637795
 20
6.136811023622047
 30
0.0
 11
2.946850393700787
 21
6.116141732283464
 31
0.0
  0
LINE
  5
2B8A
330
1E
100
AcDbEntity
  8
7
100
AcDbLine
 10
2.75
 20
6.116141732283464
 30
0.0
 11
2.748031496062992
 21
6.136811023622047
 31
0.0
  0
LINE
  5
2B8B
330
1E
100
AcDbEntity
  8
7
100
AcDbLine
 10
2.748031496062992
 20
6.136811023622047
 30
0.0
 11
2.746062992125984
 21
6.145669291338582
 31
0.0
  0
LINE
  5
2B8C
330
1E
100
AcDbEntity
  8
7
100
AcDbLine
 10
2.74507874015748
 20
6.0501968503937
 30
0.0
 11
2.746062992125984
 21
6.05511811023622
 31
0.0
  0
LINE
  5
2B8D
330
1E
100
AcDbEntity
  8
7
100
AcDbLine
 10
2.746062992125984
 20
6.05511811023622
 30
0.0
 11
2.746062992125984
 21
6.06496062992126
 31
0.0
  0
LINE
  5
2B8E
330
1E
100
AcDbEntity
  8
7
100
AcDbLine
 10
2.950787401574803
 20
6.06496062992126
 30
0.0
 11
2.950787401574803
 21
6.05511811023622
 31
0.0
  0
LINE
  5
2B8F
330
1E
100
AcDbEntity
  8
7
100
AcDbLine
 10
2.950787401574803
 20
6.05511811023622
 30
0.0
 11
2.951771653543307
 21
6.0501968503937
 31
0.0
  0
LINE
  5
2B90
330
1E
100
AcDbEntity
  8
7
100
AcDbLine
 10
2.315944881889763
 20
6.145669291338582
 30
0.0
 11
2.313976377952756
 21
6.136811023622047
 31
0.0
  0
LINE
  5
2B91
330
1E
100
AcDbEntity
  8
7
100
AcDbLine
 10
2.313976377952756
 20
6.136811023622047
 30
0.0
 11
2.312007874015748
 21
6.116141732283464
 31
0.0
  0
LINE
  5
2B92
330
1E
100
AcDbEntity
  8
7
100
AcDbLine
 10
2.315944881889763
 20
6.112204724409449
 30
0.0
 11
2.315944881889763
 21
6.095472440944881
 31
0.0
  0
LINE
  5
2B93
330
1E
100
AcDbEntity
  8
7
100
AcDbLine
 10
2.315944881889763
 20
6.095472440944881
 30
0.0
 11
2.315944881889763
 21
6.076771653543307
 31
0.0
  0
LINE
  5
2B94
330
1E
100
AcDbEntity
  8
7
100
AcDbLine
 10
2.111220472440944
 20
6.076771653543307
 30
0.0
 11
2.111220472440944
 21
6.095472440944881
 31
0.0
  0
LINE
  5
2B95
330
1E
100
AcDbEntity
  8
7
100
AcDbLine
 10
2.111220472440944
 20
6.095472440944881
 30
0.0
 11
2.110236220472441
 21
6.112204724409449
 31
0.0
  0
LINE
  5
2B96
330
1E
100
AcDbEntity
  8
7
100
AcDbLine
 10
2.114173228346456
 20
6.116141732283464
 30
0.0
 11
2.113188976377952
 21
6.136811023622047
 31
0.0
  0
LINE
  5
2B97
330
1E
100
AcDbEntity
  8
7
100
AcDbLine
 10
2.113188976377952
 20
6.136811023622047
 30
0.0
 11
2.111220472440944
 21
6.145669291338582
 31
0.0
  0
LINE
  5
2B98
330
1E
100
AcDbEntity
  8
7
100
AcDbLine
 10
2.110236220472441
 20
6.0501968503937
 30
0.0
 11
2.111220472440944
 21
6.05511811023622
 31
0.0
  0
LINE
  5
2B99
330
1E
100
AcDbEntity
  8
7
100
AcDbLine
 10
2.111220472440944
 20
6.05511811023622
 30
0.0
 11
2.111220472440944
 21
6.06496062992126
 31
0.0
  0
LINE
  5
2B9A
330
1E
100
AcDbEntity
  8
7
100
AcDbLine
 10
2.315944881889763
 20
6.06496062992126
 30
0.0
 11
2.315944881889763
 21
6.05511811023622
 31
0.0
  0
LINE
  5
2B9B
330
1E
100
AcDbEntity
  8
7
100
AcDbLine
 10
2.315944881889763
 20
6.05511811023622
 30
0.0
 11
2.316929133858267
 21
6.0501968503937
 31
0.0
  0
LINE
  5
2B9C
330
1E
100
AcDbEntity
  8
7
100
AcDbLine
 10
2.951771653543307
 20
4.577755905511811
 30
0.0
 11
2.950787401574803
 21
4.561023622047244
 31
0.0
  0
LINE
  5
2B9D
330
1E
100
AcDbEntity
  8
7
100
AcDbLine
 10
2.950787401574803
 20
4.561023622047244
 30
0.0
 11
2.950787401574803
 21
4.542322834645669
 31
0.0
  0
LINE
  5
2B9E
330
1E
100
AcDbEntity
  8
7
100
AcDbLine
 10
2.746062992125984
 20
4.542322834645669
 30
0.0
 11
2.746062992125984
 21
4.561023622047244
 31
0.0
  0
LINE
  5
2B9F
330
1E
100
AcDbEntity
  8
7
100
AcDbLine
 10
2.746062992125984
 20
4.561023622047244
 30
0.0
 11
2.74507874015748
 21
4.577755905511811
 31
0.0
  0
LINE
  5
2BA0
330
1E
100
AcDbEntity
  8
7
100
AcDbLine
 10
2.74507874015748
 20
4.515748031496062
 30
0.0
 11
2.746062992125984
 21
4.520669291338582
 31
0.0
  0
LINE
  5
2BA1
330
1E
100
AcDbEntity
  8
7
100
AcDbLine
 10
2.746062992125984
 20
4.520669291338582
 30
0.0
 11
2.746062992125984
 21
4.531496062992125
 31
0.0
  0
LINE
  5
2BA2
330
1E
100
AcDbEntity
  8
7
100
AcDbLine
 10
2.950787401574803
 20
4.531496062992125
 30
0.0
 11
2.950787401574803
 21
4.520669291338582
 31
0.0
  0
LINE
  5
2BA3
330
1E
100
AcDbEntity
  8
7
100
AcDbLine
 10
2.950787401574803
 20
4.520669291338582
 30
0.0
 11
2.951771653543307
 21
4.515748031496062
 31
0.0
  0
LINE
  5
2BA4
330
1E
100
AcDbEntity
  8
7
100
AcDbLine
 10
2.315944881889763
 20
4.577755905511811
 30
0.0
 11
2.315944881889763
 21
4.561023622047244
 31
0.0
  0
LINE
  5
2BA5
330
1E
100
AcDbEntity
  8
7
100
AcDbLine
 10
2.315944881889763
 20
4.561023622047244
 30
0.0
 11
2.315944881889763
 21
4.542322834645669
 31
0.0
  0
LINE
  5
2BA6
330
1E
100
AcDbEntity
  8
7
100
AcDbLine
 10
2.111220472440944
 20
4.542322834645669
 30
0.0
 11
2.111220472440944
 21
4.561023622047244
 31
0.0
  0
LINE
  5
2BA7
330
1E
100
AcDbEntity
  8
7
100
AcDbLine
 10
2.111220472440944
 20
4.561023622047244
 30
0.0
 11
2.110236220472441
 21
4.577755905511811
 31
0.0
  0
LINE
  5
2BA8
330
1E
100
AcDbEntity
  8
7
100
AcDbLine
 10
2.110236220472441
 20
4.515748031496062
 30
0.0
 11
2.111220472440944
 21
4.520669291338582
 31
0.0
  0
LINE
  5
2BA9
330
1E
100
AcDbEntity
  8
7
100
AcDbLine
 10
2.111220472440944
 20
4.520669291338582
 30
0.0
 11
2.111220472440944
 21
4.531496062992125
 31
0.0
  0
LINE
  5
2BAA
330
1E
100
AcDbEntity
  8
7
100
AcDbLine
 10
2.315944881889763
 20
4.531496062992125
 30
0.0
 11
2.315944881889763
 21
4.520669291338582
 31
0.0
  0
LINE
  5
2BAB
330
1E
100
AcDbEntity
  8
7
100
AcDbLine
 10
2.315944881889763
 20
4.520669291338582
 30
0.0
 11
2.316929133858267
 21
4.515748031496062
 31
0.0
  0
LINE
  5
2BAC
330
1E
100
AcDbEntity
  8
7
100
AcDbLine
 10
1.888779527559055
 20
5.435039370078739
 30
0.0
 11
1.866141732283464
 21
5.431102362204724
 31
0.0
  0
LINE
  5
2BAD
330
1E
100
AcDbEntity
  8
7
100
AcDbLine
 10
1.866141732283464
 20
5.431102362204724
 30
0.0
 11
1.846456692913385
 21
5.418307086614173
 31
0.0
  0
LINE
  5
2BAE
330
1E
100
AcDbEntity
  8
7
100
AcDbLine
 10
1.846456692913385
 20
5.418307086614173
 30
0.0
 11
1.833661417322834
 21
5.398622047244094
 31
0.0
  0
LINE
  5
2BAF
330
1E
100
AcDbEntity
  8
7
100
AcDbLine
 10
1.833661417322834
 20
5.398622047244094
 30
0.0
 11
1.828740157480314
 21
5.375
 31
0.0
  0
LINE
  5
2BB0
330
1E
100
AcDbEntity
  8
7
100
AcDbLine
 10
3.233267716535433
 20
5.375
 30
0.0
 11
3.228346456692913
 21
5.398622047244094
 31
0.0
  0
LINE
  5
2BB1
330
1E
100
AcDbEntity
  8
7
100
AcDbLine
 10
3.228346456692913
 20
5.398622047244094
 30
0.0
 11
3.215551181102362
 21
5.418307086614173
 31
0.0
  0
LINE
  5
2BB2
330
1E
100
AcDbEntity
  8
7
100
AcDbLine
 10
3.215551181102362
 20
5.418307086614173
 30
0.0
 11
3.195866141732283
 21
5.431102362204724
 31
0.0
  0
LINE
  5
2BB3
330
1E
100
AcDbEntity
  8
7
100
AcDbLine
 10
3.195866141732283
 20
5.431102362204724
 30
0.0
 11
3.173228346456693
 21
5.435039370078739
 31
0.0
  0
LINE
  5
2BB4
330
1E
100
AcDbEntity
  8
7
100
AcDbLine
 10
3.173228346456693
 20
4.266732283464566
 30
0.0
 11
3.195866141732283
 21
4.271653543307087
 31
0.0
  0
LINE
  5
2BB5
330
1E
100
AcDbEntity
  8
7
100
AcDbLine
 10
3.195866141732283
 20
4.271653543307087
 30
0.0
 11
3.215551181102362
 21
4.284448818897637
 31
0.0
  0
LINE
  5
2BB6
330
1E
100
AcDbEntity
  8
7
100
AcDbLine
 10
3.215551181102362
 20
4.284448818897637
 30
0.0
 11
3.228346456692913
 21
4.304133858267716
 31
0.0
  0
LINE
  5
2BB7
330
1E
100
AcDbEntity
  8
7
100
AcDbLine
 10
1.828740157480314
 20
4.326771653543307
 30
0.0
 11
1.833661417322834
 21
4.304133858267716
 31
0.0
  0
LINE
  5
2BB8
330
1E
100
AcDbEntity
  8
7
100
AcDbLine
 10
1.833661417322834
 20
4.304133858267716
 30
0.0
 11
1.846456692913385
 21
4.284448818897637
 31
0.0
  0
LINE
  5
2BB9
330
1E
100
AcDbEntity
  8
7
100
AcDbLine
 10
1.846456692913385
 20
4.284448818897637
 30
0.0
 11
1.866141732283464
 21
4.271653543307087
 31
0.0
  0
LINE
  5
2BBA
330
1E
100
AcDbEntity
  8
7
100
AcDbLine
 10
1.866141732283464
 20
4.271653543307087
 30
0.0
 11
1.888779527559055
 21
4.266732283464566
 31
0.0
  0
LINE
  5
2BBB
330
1E
100
AcDbEntity
  8
7
100
AcDbLine
 10
1.888779527559055
 20
6.990157480314961
 30
0.0
 11
1.866141732283464
 21
6.98523622047244
 31
0.0
  0
LINE
  5
2BBC
330
1E
100
AcDbEntity
  8
7
100
AcDbLine
 10
1.866141732283464
 20
6.98523622047244
 30
0.0
 11
1.846456692913385
 21
6.972440944881889
 31
0.0
  0
LINE
  5
2BBD
330
1E
100
AcDbEntity
  8
7
100
AcDbLine
 10
1.846456692913385
 20
6.972440944881889
 30
0.0
 11
1.833661417322834
 21
6.952755905511811
 31
0.0
  0
LINE
  5
2BBE
330
1E
100
AcDbEntity
  8
7
100
AcDbLine
 10
1.833661417322834
 20
6.952755905511811
 30
0.0
 11
1.828740157480314
 21
6.93011811023622
 31
0.0
  0
LINE
  5
2BBF
330
1E
100
AcDbEntity
  8
7
100
AcDbLine
 10
3.233267716535433
 20
6.93011811023622
 30
0.0
 11
3.228346456692913
 21
6.952755905511811
 31
0.0
  0
LINE
  5
2BC0
330
1E
100
AcDbEntity
  8
7
100
AcDbLine
 10
3.228346456692913
 20
6.952755905511811
 30
0.0
 11
3.215551181102362
 21
6.972440944881889
 31
0.0
  0
LINE
  5
2BC1
330
1E
100
AcDbEntity
  8
7
100
AcDbLine
 10
3.215551181102362
 20
6.972440944881889
 30
0.0
 11
3.195866141732283
 21
6.98523622047244
 31
0.0
  0
LINE
  5
2BC2
330
1E
100
AcDbEntity
  8
7
100
AcDbLine
 10
3.195866141732283
 20
6.98523622047244
 30
0.0
 11
3.173228346456693
 21
6.990157480314961
 31
0.0
  0
LINE
  5
2BC3
330
1E
100
AcDbEntity
  8
7
100
AcDbLine
 10
3.173228346456693
 20
5.821850393700787
 30
0.0
 11
3.195866141732283
 21
5.825787401574802
 31
0.0
  0
LINE
  5
2BC4
330
1E
100
AcDbEntity
  8
7
100
AcDbLine
 10
3.195866141732283
 20
5.825787401574802
 30
0.0
 11
3.215551181102362
 21
5.839566929133858
 31
0.0
  0
LINE
  5
2BC5
330
1E
100
AcDbEntity
  8
7
100
AcDbLine
 10
3.215551181102362
 20
5.839566929133858
 30
0.0
 11
3.228346456692913
 21
5.858267716535433
 31
0.0
  0
LINE
  5
2BC6
330
1E
100
AcDbEntity
  8
7
100
AcDbLine
 10
3.228346456692913
 20
5.858267716535433
 30
0.0
 11
3.233267716535433
 21
5.881889763779527
 31
0.0
  0
LINE
  5
2BC7
330
1E
100
AcDbEntity
  8
7
100
AcDbLine
 10
1.846456692913385
 20
5.839566929133858
 30
0.0
 11
1.866141732283464
 21
5.825787401574802
 31
0.0
  0
LINE
  5
2BC8
330
1E
100
AcDbEntity
  8
7
100
AcDbLine
 10
1.866141732283464
 20
5.825787401574802
 30
0.0
 11
1.888779527559055
 21
5.821850393700787
 31
0.0
  0
LINE
  5
2BC9
330
1E
100
AcDbEntity
  8
7
100
AcDbLine
 10
1.828740157480314
 20
5.881889763779527
 30
0.0
 11
1.833661417322834
 21
5.858267716535433
 31
0.0
  0
LINE
  5
2BCA
330
1E
100
AcDbEntity
  8
7
100
AcDbLine
 10
1.833661417322834
 20
5.858267716535433
 30
0.0
 11
1.846456692913385
 21
5.839566929133858
 31
0.0
  0
LINE
  5
2BCB
330
1E
100
AcDbEntity
  8
7
100
AcDbLine
 10
2.875
 20
5.898622047244094
 30
0.0
 11
2.890748031496062
 21
5.90255905511811
 31
0.0
  0
LINE
  5
2BCC
330
1E
100
AcDbEntity
  8
7
100
AcDbLine
 10
2.890748031496062
 20
5.90255905511811
 30
0.0
 11
2.903543307086614
 21
5.910433070866141
 31
0.0
  0
LINE
  5
2BCD
330
1E
100
AcDbEntity
  8
7
100
AcDbLine
 10
2.158464566929133
 20
5.910433070866141
 30
0.0
 11
2.171259842519685
 21
5.90255905511811
 31
0.0
  0
LINE
  5
2BCE
330
1E
100
AcDbEntity
  8
7
100
AcDbLine
 10
2.171259842519685
 20
5.90255905511811
 30
0.0
 11
2.187007874015748
 21
5.898622047244094
 31
0.0
  0
LINE
  5
2BCF
330
1E
100
AcDbEntity
  8
7
100
AcDbLine
 10
2.903543307086614
 20
5.346456692913386
 30
0.0
 11
2.890748031496062
 21
5.355314960629921
 31
0.0
  0
LINE
  5
2BD0
330
1E
100
AcDbEntity
  8
7
100
AcDbLine
 10
2.890748031496062
 20
5.355314960629921
 30
0.0
 11
2.875
 21
5.358267716535433
 31
0.0
  0
LINE
  5
2BD1
330
1E
100
AcDbEntity
  8
7
100
AcDbLine
 10
2.187007874015748
 20
5.358267716535433
 30
0.0
 11
2.171259842519685
 21
5.355314960629921
 31
0.0
  0
LINE
  5
2BD2
330
1E
100
AcDbEntity
  8
7
100
AcDbLine
 10
2.171259842519685
 20
5.355314960629921
 30
0.0
 11
2.158464566929133
 21
5.346456692913386
 31
0.0
  0
LINE
  5
2BD3
330
1E
100
AcDbEntity
  8
7
100
AcDbLine
 10
2.875
 20
4.369094488188976
 30
0.0
 11
2.890748031496062
 21
4.372047244094487
 31
0.0
  0
LINE
  5
2BD4
330
1E
100
AcDbEntity
  8
7
100
AcDbLine
 10
2.890748031496062
 20
4.372047244094487
 30
0.0
 11
2.903543307086614
 21
4.380905511811024
 31
0.0
  0
LINE
  5
2BD5
330
1E
100
AcDbEntity
  8
7
100
AcDbLine
 10
2.158464566929133
 20
4.380905511811024
 30
0.0
 11
2.171259842519685
 21
4.372047244094487
 31
0.0
  0
LINE
  5
2BD6
330
1E
100
AcDbEntity
  8
7
100
AcDbLine
 10
2.171259842519685
 20
4.372047244094487
 30
0.0
 11
2.187007874015748
 21
4.369094488188976
 31
0.0
  0
LINE
  5
2BD7
330
1E
100
AcDbEntity
  8
7
100
AcDbLine
 10
5.823818897637795
 20
5.76279527559055
 30
0.0
 11
5.823818897637795
 21
5.770669291338582
 31
0.0
  0
LINE
  5
2BD8
330
1E
100
AcDbEntity
  8
7
100
AcDbLine
 10
5.823818897637795
 20
5.770669291338582
 30
0.0
 11
5.823818897637795
 21
5.769685039370078
 31
0.0
  0
LINE
  5
2BD9
330
1E
100
AcDbEntity
  8
7
100
AcDbLine
 10
5.823818897637795
 20
5.769685039370078
 30
0.0
 11
5.823818897637795
 21
5.760826771653543
 31
0.0
  0
LINE
  5
2BDA
330
1E
100
AcDbEntity
  8
7
100
AcDbLine
 10
5.823818897637795
 20
5.760826771653543
 30
0.0
 11
5.823818897637795
 21
5.743110236220472
 31
0.0
  0
LINE
  5
2BDB
330
1E
100
AcDbEntity
  8
7
100
AcDbLine
 10
5.823818897637795
 20
5.504921259842519
 30
0.0
 11
5.823818897637795
 21
5.487204724409449
 31
0.0
  0
LINE
  5
2BDC
330
1E
100
AcDbEntity
  8
7
100
AcDbLine
 10
5.823818897637795
 20
5.487204724409449
 30
0.0
 11
5.823818897637795
 21
5.478346456692913
 31
0.0
  0
LINE
  5
2BDD
330
1E
100
AcDbEntity
  8
7
100
AcDbLine
 10
5.823818897637795
 20
5.478346456692913
 30
0.0
 11
5.823818897637795
 21
5.477362204724409
 31
0.0
  0
LINE
  5
2BDE
330
1E
100
AcDbEntity
  8
7
100
AcDbLine
 10
5.823818897637795
 20
5.477362204724409
 30
0.0
 11
5.823818897637795
 21
5.48523622047244
 31
0.0
  0
LINE
  5
2BDF
330
1E
100
AcDbEntity
  8
7
100
AcDbLine
 10
5.823818897637795
 20
5.48523622047244
 30
0.0
 11
5.823818897637795
 21
5.501968503937008
 31
0.0
  0
LINE
  5
2BE0
330
1E
100
AcDbEntity
  8
7
100
AcDbLine
 10
5.823818897637795
 20
5.501968503937008
 30
0.0
 11
5.823818897637795
 21
5.525590551181102
 31
0.0
  0
LINE
  5
2BE1
330
1E
100
AcDbEntity
  8
7
100
AcDbLine
 10
5.823818897637795
 20
5.525590551181102
 30
0.0
 11
5.823818897637795
 21
5.55511811023622
 31
0.0
  0
LINE
  5
2BE2
330
1E
100
AcDbEntity
  8
7
100
AcDbLine
 10
5.823818897637795
 20
5.55511811023622
 30
0.0
 11
5.823818897637795
 21
5.588582677165354
 31
0.0
  0
LINE
  5
2BE3
330
1E
100
AcDbEntity
  8
7
100
AcDbLine
 10
5.823818897637795
 20
5.588582677165354
 30
0.0
 11
5.823818897637795
 21
5.624015748031496
 31
0.0
  0
LINE
  5
2BE4
330
1E
100
AcDbEntity
  8
7
100
AcDbLine
 10
5.823818897637795
 20
5.624015748031496
 30
0.0
 11
5.823818897637795
 21
5.659448818897637
 31
0.0
  0
LINE
  5
2BE5
330
1E
100
AcDbEntity
  8
7
100
AcDbLine
 10
5.823818897637795
 20
5.659448818897637
 30
0.0
 11
5.823818897637795
 21
5.692913385826771
 31
0.0
  0
LINE
  5
2BE6
330
1E
100
AcDbEntity
  8
7
100
AcDbLine
 10
5.823818897637795
 20
5.692913385826771
 30
0.0
 11
5.823818897637795
 21
5.722440944881889
 31
0.0
  0
LINE
  5
2BE7
330
1E
100
AcDbEntity
  8
7
100
AcDbLine
 10
5.823818897637795
 20
5.722440944881889
 30
0.0
 11
5.823818897637795
 21
5.746062992125984
 31
0.0
  0
LINE
  5
2BE8
330
1E
100
AcDbEntity
  8
7
100
AcDbLine
 10
5.823818897637795
 20
5.746062992125984
 30
0.0
 11
5.823818897637795
 21
5.76279527559055
 31
0.0
  0
LINE
  5
2BE9
330
1E
100
AcDbEntity
  8
7
100
AcDbLine
 10
5.311023622047244
 20
4.30511811023622
 30
0.0
 11
5.311023622047244
 21
4.361220472440945
 31
0.0
  0
LINE
  5
2BEA
330
1E
100
AcDbEntity
  8
7
100
AcDbLine
 10
5.311023622047244
 20
4.361220472440945
 30
0.0
 11
5.311023622047244
 21
4.427165354330708
 31
0.0
  0
LINE
  5
2BEB
330
1E
100
AcDbEntity
  8
7
100
AcDbLine
 10
5.311023622047244
 20
5.290354330708661
 30
0.0
 11
5.311023622047244
 21
5.357283464566929
 31
0.0
  0
LINE
  5
2BEC
330
1E
100
AcDbEntity
  8
7
100
AcDbLine
 10
5.311023622047244
 20
5.357283464566929
 30
0.0
 11
5.311023622047244
 21
5.413385826771653
 31
0.0
  0
LINE
  5
2BED
330
1E
100
AcDbEntity
  8
7
100
AcDbLine
 10
5.311023622047244
 20
5.834645669291338
 30
0.0
 11
5.311023622047244
 21
5.890748031496062
 31
0.0
  0
LINE
  5
2BEE
330
1E
100
AcDbEntity
  8
7
100
AcDbLine
 10
5.311023622047244
 20
5.890748031496062
 30
0.0
 11
5.311023622047244
 21
5.95767716535433
 31
0.0
  0
LINE
  5
2BEF
330
1E
100
AcDbEntity
  8
7
100
AcDbLine
 10
5.311023622047244
 20
6.820866141732283
 30
0.0
 11
5.311023622047244
 21
6.886811023622047
 31
0.0
  0
LINE
  5
2BF0
330
1E
100
AcDbEntity
  8
7
100
AcDbLine
 10
5.311023622047244
 20
6.886811023622047
 30
0.0
 11
5.311023622047244
 21
6.943897637795275
 31
0.0
  0
LINE
  5
2BF1
330
1E
100
AcDbEntity
  8
7
100
AcDbLine
 10
5.431102362204724
 20
4.149606299212598
 30
0.0
 11
5.431102362204724
 21
4.135826771653543
 31
0.0
  0
LINE
  5
2BF2
330
1E
100
AcDbEntity
  8
7
100
AcDbLine
 10
5.431102362204724
 20
4.135826771653543
 30
0.0
 11
5.431102362204724
 21
4.115157480314961
 31
0.0
  0
LINE
  5
2BF3
330
1E
100
AcDbEntity
  8
7
100
AcDbLine
 10
5.431102362204724
 20
4.115157480314961
 30
0.0
 11
5.431102362204724
 21
4.091535433070866
 31
0.0
  0
LINE
  5
2BF4
330
1E
100
AcDbEntity
  8
7
100
AcDbLine
 10
5.431102362204724
 20
4.154527559055118
 30
0.0
 11
5.431102362204724
 21
4.158464566929134
 31
0.0
  0
LINE
  5
2BF5
330
1E
100
AcDbEntity
  8
7
100
AcDbLine
 10
5.431102362204724
 20
4.158464566929134
 30
0.0
 11
5.431102362204724
 21
4.172244094488188
 31
0.0
  0
LINE
  5
2BF6
330
1E
100
AcDbEntity
  8
7
100
AcDbLine
 10
5.431102362204724
 20
4.172244094488188
 30
0.0
 11
5.431102362204724
 21
4.192913385826771
 31
0.0
  0
LINE
  5
2BF7
330
1E
100
AcDbEntity
  8
7
100
AcDbLine
 10
5.431102362204724
 20
4.192913385826771
 30
0.0
 11
5.431102362204724
 21
4.216535433070866
 31
0.0
  0
LINE
  5
2BF8
330
1E
100
AcDbEntity
  8
7
100
AcDbLine
 10
5.523622047244094
 20
4.155511811023622
 30
0.0
 11
5.523622047244094
 21
4.160433070866141
 31
0.0
  0
LINE
  5
2BF9
330
1E
100
AcDbEntity
  8
7
100
AcDbLine
 10
5.523622047244094
 20
4.160433070866141
 30
0.0
 11
5.523622047244094
 21
4.173228346456692
 31
0.0
  0
LINE
  5
2BFA
330
1E
100
AcDbEntity
  8
7
100
AcDbLine
 10
5.523622047244094
 20
4.173228346456692
 30
0.0
 11
5.523622047244094
 21
4.192913385826771
 31
0.0
  0
LINE
  5
2BFB
330
1E
100
AcDbEntity
  8
7
100
AcDbLine
 10
5.523622047244094
 20
4.192913385826771
 30
0.0
 11
5.523622047244094
 21
4.216535433070866
 31
0.0
  0
LINE
  5
2BFC
330
1E
100
AcDbEntity
  8
7
100
AcDbLine
 10
5.523622047244094
 20
4.150590551181102
 30
0.0
 11
5.523622047244094
 21
4.136811023622047
 31
0.0
  0
LINE
  5
2BFD
330
1E
100
AcDbEntity
  8
7
100
AcDbLine
 10
5.523622047244094
 20
4.136811023622047
 30
0.0
 11
5.523622047244094
 21
4.116141732283464
 31
0.0
  0
LINE
  5
2BFE
330
1E
100
AcDbEntity
  8
7
100
AcDbLine
 10
5.523622047244094
 20
4.116141732283464
 30
0.0
 11
5.523622047244094
 21
4.091535433070866
 31
0.0
  0
LINE
  5
2BFF
330
1E
100
AcDbEntity
  8
7
100
AcDbLine
 10
5.523622047244094
 20
3.582677165354331
 30
0.0
 11
5.523622047244094
 21
3.576771653543306
 31
0.0
  0
LINE
  5
2C00
330
1E
100
AcDbEntity
  8
7
100
AcDbLine
 10
5.523622047244094
 20
3.576771653543306
 30
0.0
 11
5.523622047244094
 21
3.578740157480315
 31
0.0
  0
LINE
  5
2C01
330
1E
100
AcDbEntity
  8
7
100
AcDbLine
 10
5.523622047244094
 20
3.578740157480315
 30
0.0
 11
5.523622047244094
 21
3.589566929133858
 31
0.0
  0
LINE
  5
2C02
330
1E
100
AcDbEntity
  8
7
100
AcDbLine
 10
5.523622047244094
 20
3.589566929133858
 30
0.0
 11
5.523622047244094
 21
3.606299212598425
 31
0.0
  0
LINE
  5
2C03
330
1E
100
AcDbEntity
  8
7
100
AcDbLine
 10
5.523622047244094
 20
3.606299212598425
 30
0.0
 11
5.523622047244094
 21
3.630905511811023
 31
0.0
  0
LINE
  5
2C04
330
1E
100
AcDbEntity
  8
7
100
AcDbLine
 10
5.523622047244094
 20
3.630905511811023
 30
0.0
 11
5.523622047244094
 21
3.661417322834645
 31
0.0
  0
LINE
  5
2C05
330
1E
100
AcDbEntity
  8
7
100
AcDbLine
 10
5.523622047244094
 20
3.661417322834645
 30
0.0
 11
5.523622047244094
 21
3.695866141732283
 31
0.0
  0
LINE
  5
2C06
330
1E
100
AcDbEntity
  8
7
100
AcDbLine
 10
5.523622047244094
 20
3.695866141732283
 30
0.0
 11
5.523622047244094
 21
3.733267716535433
 31
0.0
  0
LINE
  5
2C07
330
1E
100
AcDbEntity
  8
7
100
AcDbLine
 10
5.523622047244094
 20
3.733267716535433
 30
0.0
 11
5.523622047244094
 21
3.771653543307086
 31
0.0
  0
LINE
  5
2C08
330
1E
100
AcDbEntity
  8
7
100
AcDbLine
 10
5.523622047244094
 20
3.771653543307086
 30
0.0
 11
5.523622047244094
 21
3.81003937007874
 31
0.0
  0
LINE
  5
2C09
330
1E
100
AcDbEntity
  8
7
100
AcDbLine
 10
5.523622047244094
 20
3.81003937007874
 30
0.0
 11
5.523622047244094
 21
3.845472440944881
 31
0.0
  0
LINE
  5
2C0A
330
1E
100
AcDbEntity
  8
7
100
AcDbLine
 10
5.523622047244094
 20
3.845472440944881
 30
0.0
 11
5.523622047244094
 21
3.878937007874015
 31
0.0
  0
LINE
  5
2C0B
330
1E
100
AcDbEntity
  8
7
100
AcDbLine
 10
5.523622047244094
 20
3.878937007874015
 30
0.0
 11
5.523622047244094
 21
3.906496062992125
 31
0.0
  0
LINE
  5
2C0C
330
1E
100
AcDbEntity
  8
7
100
AcDbLine
 10
5.523622047244094
 20
3.906496062992125
 30
0.0
 11
5.523622047244094
 21
3.927165354330708
 31
0.0
  0
LINE
  5
2C0D
330
1E
100
AcDbEntity
  8
7
100
AcDbLine
 10
5.523622047244094
 20
3.927165354330708
 30
0.0
 11
5.523622047244094
 21
3.941929133858267
 31
0.0
  0
LINE
  5
2C0E
330
1E
100
AcDbEntity
  8
7
100
AcDbLine
 10
5.523622047244094
 20
3.941929133858267
 30
0.0
 11
5.523622047244094
 21
3.947834645669291
 31
0.0
  0
LINE
  5
2C0F
330
1E
100
AcDbEntity
  8
7
100
AcDbLine
 10
5.523622047244094
 20
3.750984251968504
 30
0.0
 11
5.523622047244094
 21
3.71259842519685
 31
0.0
  0
LINE
  5
2C10
330
1E
100
AcDbEntity
  8
7
100
AcDbLine
 10
5.523622047244094
 20
3.71259842519685
 30
0.0
 11
5.523622047244094
 21
3.676181102362204
 31
0.0
  0
LINE
  5
2C11
330
1E
100
AcDbEntity
  8
7
100
AcDbLine
 10
5.523622047244094
 20
3.676181102362204
 30
0.0
 11
5.523622047244094
 21
3.644685039370078
 31
0.0
  0
LINE
  5
2C12
330
1E
100
AcDbEntity
  8
7
100
AcDbLine
 10
5.523622047244094
 20
3.644685039370078
 30
0.0
 11
5.523622047244094
 21
3.617125984251968
 31
0.0
  0
LINE
  5
2C13
330
1E
100
AcDbEntity
  8
7
100
AcDbLine
 10
5.523622047244094
 20
3.617125984251968
 30
0.0
 11
5.523622047244094
 21
3.596456692913386
 31
0.0
  0
LINE
  5
2C14
330
1E
100
AcDbEntity
  8
7
100
AcDbLine
 10
5.523622047244094
 20
3.596456692913386
 30
0.0
 11
5.523622047244094
 21
3.582677165354331
 31
0.0
  0
LINE
  5
2C15
330
1E
100
AcDbEntity
  8
7
100
AcDbLine
 10
5.431102362204724
 20
7.031496062992125
 30
0.0
 11
5.431102362204724
 21
7.05511811023622
 31
0.0
  0
LINE
  5
2C16
330
1E
100
AcDbEntity
  8
7
100
AcDbLine
 10
5.431102362204724
 20
7.05511811023622
 30
0.0
 11
5.431102362204724
 21
7.075787401574802
 31
0.0
  0
LINE
  5
2C17
330
1E
100
AcDbEntity
  8
7
100
AcDbLine
 10
5.431102362204724
 20
7.075787401574802
 30
0.0
 11
5.431102362204724
 21
7.089566929133858
 31
0.0
  0
LINE
  5
2C18
330
1E
100
AcDbEntity
  8
7
100
AcDbLine
 10
5.431102362204724
 20
7.089566929133858
 30
0.0
 11
5.431102362204724
 21
7.094488188976377
 31
0.0
  0
LINE
  5
2C19
330
1E
100
AcDbEntity
  8
7
100
AcDbLine
 10
5.431102362204724
 20
7.132874015748031
 30
0.0
 11
5.431102362204724
 21
7.112204724409449
 31
0.0
  0
LINE
  5
2C1A
330
1E
100
AcDbEntity
  8
7
100
AcDbLine
 10
5.431102362204724
 20
7.112204724409449
 30
0.0
 11
5.431102362204724
 21
7.098425196850393
 31
0.0
  0
LINE
  5
2C1B
330
1E
100
AcDbEntity
  8
7
100
AcDbLine
 10
5.431102362204724
 20
7.098425196850393
 30
0.0
 11
5.431102362204724
 21
7.094488188976377
 31
0.0
  0
LINE
  5
2C1C
330
1E
100
AcDbEntity
  8
7
100
AcDbLine
 10
5.523622047244094
 20
7.515748031496062
 30
0.0
 11
5.523622047244094
 21
7.553149606299212
 31
0.0
  0
LINE
  5
2C1D
330
1E
100
AcDbEntity
  8
7
100
AcDbLine
 10
5.523622047244094
 20
7.553149606299212
 30
0.0
 11
5.523622047244094
 21
7.58759842519685
 31
0.0
  0
LINE
  5
2C1E
330
1E
100
AcDbEntity
  8
7
100
AcDbLine
 10
5.523622047244094
 20
7.58759842519685
 30
0.0
 11
5.523622047244094
 21
7.617125984251968
 31
0.0
  0
LINE
  5
2C1F
330
1E
100
AcDbEntity
  8
7
100
AcDbLine
 10
5.523622047244094
 20
7.617125984251968
 30
0.0
 11
5.523622047244094
 21
7.641732283464566
 31
0.0
  0
LINE
  5
2C20
330
1E
100
AcDbEntity
  8
7
100
AcDbLine
 10
5.523622047244094
 20
7.641732283464566
 30
0.0
 11
5.523622047244094
 21
7.659448818897637
 31
0.0
  0
LINE
  5
2C21
330
1E
100
AcDbEntity
  8
7
100
AcDbLine
 10
5.523622047244094
 20
7.659448818897637
 30
0.0
 11
5.523622047244094
 21
7.669291338582676
 31
0.0
  0
LINE
  5
2C22
330
1E
100
AcDbEntity
  8
7
100
AcDbLine
 10
5.523622047244094
 20
7.669291338582676
 30
0.0
 11
5.523622047244094
 21
7.671259842519685
 31
0.0
  0
LINE
  5
2C23
330
1E
100
AcDbEntity
  8
7
100
AcDbLine
 10
5.523622047244094
 20
7.671259842519685
 30
0.0
 11
5.523622047244094
 21
7.665354330708661
 31
0.0
  0
LINE
  5
2C24
330
1E
100
AcDbEntity
  8
7
100
AcDbLine
 10
5.523622047244094
 20
7.665354330708661
 30
0.0
 11
5.523622047244094
 21
7.651574803149606
 31
0.0
  0
LINE
  5
2C25
330
1E
100
AcDbEntity
  8
7
100
AcDbLine
 10
5.523622047244094
 20
7.651574803149606
 30
0.0
 11
5.523622047244094
 21
7.630905511811024
 31
0.0
  0
LINE
  5
2C26
330
1E
100
AcDbEntity
  8
7
100
AcDbLine
 10
5.523622047244094
 20
7.630905511811024
 30
0.0
 11
5.523622047244094
 21
7.604330708661417
 31
0.0
  0
LINE
  5
2C27
330
1E
100
AcDbEntity
  8
7
100
AcDbLine
 10
5.523622047244094
 20
7.604330708661417
 30
0.0
 11
5.523622047244094
 21
7.571850393700787
 31
0.0
  0
LINE
  5
2C28
330
1E
100
AcDbEntity
  8
7
100
AcDbLine
 10
5.523622047244094
 20
7.571850393700787
 30
0.0
 11
5.523622047244094
 21
7.535433070866141
 31
0.0
  0
LINE
  5
2C29
330
1E
100
AcDbEntity
  8
7
100
AcDbLine
 10
5.523622047244094
 20
7.535433070866141
 30
0.0
 11
5.523622047244094
 21
7.497047244094487
 31
0.0
  0
LINE
  5
2C2A
330
1E
100
AcDbEntity
  8
7
100
AcDbLine
 10
5.523622047244094
 20
7.3001968503937
 30
0.0
 11
5.523622047244094
 21
7.307086614173228
 31
0.0
  0
LINE
  5
2C2B
330
1E
100
AcDbEntity
  8
7
100
AcDbLine
 10
5.523622047244094
 20
7.307086614173228
 30
0.0
 11
5.523622047244094
 21
7.320866141732283
 31
0.0
  0
LINE
  5
2C2C
330
1E
100
AcDbEntity
  8
7
100
AcDbLine
 10
5.523622047244094
 20
7.320866141732283
 30
0.0
 11
5.523622047244094
 21
7.34251968503937
 31
0.0
  0
LINE
  5
2C2D
330
1E
100
AcDbEntity
  8
7
100
AcDbLine
 10
5.523622047244094
 20
7.34251968503937
 30
0.0
 11
5.523622047244094
 21
7.37007874015748
 31
0.0
  0
LINE
  5
2C2E
330
1E
100
AcDbEntity
  8
7
100
AcDbLine
 10
5.523622047244094
 20
7.37007874015748
 30
0.0
 11
5.523622047244094
 21
7.40255905511811
 31
0.0
  0
LINE
  5
2C2F
330
1E
100
AcDbEntity
  8
7
100
AcDbLine
 10
5.523622047244094
 20
7.40255905511811
 30
0.0
 11
5.523622047244094
 21
7.438976377952755
 31
0.0
  0
LINE
  5
2C30
330
1E
100
AcDbEntity
  8
7
100
AcDbLine
 10
5.523622047244094
 20
7.438976377952755
 30
0.0
 11
5.523622047244094
 21
7.476377952755905
 31
0.0
  0
LINE
  5
2C31
330
1E
100
AcDbEntity
  8
7
100
AcDbLine
 10
5.523622047244094
 20
7.476377952755905
 30
0.0
 11
5.523622047244094
 21
7.515748031496062
 31
0.0
  0
LINE
  5
2C32
330
1E
100
AcDbEntity
  8
7
100
AcDbLine
 10
5.523622047244094
 20
7.156496062992125
 30
0.0
 11
5.523622047244094
 21
7.131889763779527
 31
0.0
  0
LINE
  5
2C33
330
1E
100
AcDbEntity
  8
7
100
AcDbLine
 10
5.523622047244094
 20
7.131889763779527
 30
0.0
 11
5.523622047244094
 21
7.111220472440945
 31
0.0
  0
LINE
  5
2C34
330
1E
100
AcDbEntity
  8
7
100
AcDbLine
 10
5.523622047244094
 20
7.111220472440945
 30
0.0
 11
5.523622047244094
 21
7.097440944881889
 31
0.0
  0
LINE
  5
2C35
330
1E
100
AcDbEntity
  8
7
100
AcDbLine
 10
5.523622047244094
 20
7.097440944881889
 30
0.0
 11
5.523622047244094
 21
7.09251968503937
 31
0.0
  0
LINE
  5
2C36
330
1E
100
AcDbEntity
  8
7
100
AcDbLine
 10
5.523622047244094
 20
7.05511811023622
 30
0.0
 11
5.523622047244094
 21
7.074803149606299
 31
0.0
  0
LINE
  5
2C37
330
1E
100
AcDbEntity
  8
7
100
AcDbLine
 10
5.523622047244094
 20
7.074803149606299
 30
0.0
 11
5.523622047244094
 21
7.08759842519685
 31
0.0
  0
LINE
  5
2C38
330
1E
100
AcDbEntity
  8
7
100
AcDbLine
 10
5.523622047244094
 20
7.08759842519685
 30
0.0
 11
5.523622047244094
 21
7.09251968503937
 31
0.0
  0
LINE
  5
2C39
330
1E
100
AcDbEntity
  8
7
100
AcDbLine
 10
5.431102362204724
 20
7.496062992125984
 30
0.0
 11
5.431102362204724
 21
7.534448818897637
 31
0.0
  0
LINE
  5
2C3A
330
1E
100
AcDbEntity
  8
7
100
AcDbLine
 10
5.431102362204724
 20
7.534448818897637
 30
0.0
 11
5.431102362204724
 21
7.570866141732283
 31
0.0
  0
LINE
  5
2C3B
330
1E
100
AcDbEntity
  8
7
100
AcDbLine
 10
5.431102362204724
 20
7.570866141732283
 30
0.0
 11
5.431102362204724
 21
7.603346456692912
 31
0.0
  0
LINE
  5
2C3C
330
1E
100
AcDbEntity
  8
7
100
AcDbLine
 10
5.431102362204724
 20
7.603346456692912
 30
0.0
 11
5.431102362204724
 21
7.630905511811024
 31
0.0
  0
LINE
  5
2C3D
330
1E
100
AcDbEntity
  8
7
100
AcDbLine
 10
5.431102362204724
 20
7.630905511811024
 30
0.0
 11
5.431102362204724
 21
7.65255905511811
 31
0.0
  0
LINE
  5
2C3E
330
1E
100
AcDbEntity
  8
7
100
AcDbLine
 10
5.431102362204724
 20
7.65255905511811
 30
0.0
 11
5.431102362204724
 21
7.666338582677165
 31
0.0
  0
LINE
  5
2C3F
330
1E
100
AcDbEntity
  8
7
100
AcDbLine
 10
5.431102362204724
 20
7.666338582677165
 30
0.0
 11
5.431102362204724
 21
7.673228346456692
 31
0.0
  0
LINE
  5
2C40
330
1E
100
AcDbEntity
  8
7
100
AcDbLine
 10
5.431102362204724
 20
7.673228346456692
 30
0.0
 11
5.431102362204724
 21
7.671259842519685
 31
0.0
  0
LINE
  5
2C41
330
1E
100
AcDbEntity
  8
7
100
AcDbLine
 10
5.431102362204724
 20
7.671259842519685
 30
0.0
 11
5.431102362204724
 21
7.661417322834645
 31
0.0
  0
LINE
  5
2C42
330
1E
100
AcDbEntity
  8
7
100
AcDbLine
 10
5.431102362204724
 20
7.661417322834645
 30
0.0
 11
5.431102362204724
 21
7.643700787401574
 31
0.0
  0
LINE
  5
2C43
330
1E
100
AcDbEntity
  8
7
100
AcDbLine
 10
5.431102362204724
 20
7.643700787401574
 30
0.0
 11
5.431102362204724
 21
7.619094488188976
 31
0.0
  0
LINE
  5
2C44
330
1E
100
AcDbEntity
  8
7
100
AcDbLine
 10
5.431102362204724
 20
7.619094488188976
 30
0.0
 11
5.431102362204724
 21
7.589566929133858
 31
0.0
  0
LINE
  5
2C45
330
1E
100
AcDbEntity
  8
7
100
AcDbLine
 10
5.431102362204724
 20
7.589566929133858
 30
0.0
 11
5.431102362204724
 21
7.55511811023622
 31
0.0
  0
LINE
  5
2C46
330
1E
100
AcDbEntity
  8
7
100
AcDbLine
 10
5.431102362204724
 20
7.55511811023622
 30
0.0
 11
5.431102362204724
 21
7.517716535433071
 31
0.0
  0
LINE
  5
2C47
330
1E
100
AcDbEntity
  8
7
100
AcDbLine
 10
5.431102362204724
 20
7.301181102362204
 30
0.0
 11
5.431102362204724
 21
7.311023622047244
 31
0.0
  0
LINE
  5
2C48
330
1E
100
AcDbEntity
  8
7
100
AcDbLine
 10
5.431102362204724
 20
7.311023622047244
 30
0.0
 11
5.431102362204724
 21
7.329724409448818
 31
0.0
  0
LINE
  5
2C49
330
1E
100
AcDbEntity
  8
7
100
AcDbLine
 10
5.431102362204724
 20
7.329724409448818
 30
0.0
 11
5.431102362204724
 21
7.354330708661417
 31
0.0
  0
LINE
  5
2C4A
330
1E
100
AcDbEntity
  8
7
100
AcDbLine
 10
5.431102362204724
 20
7.354330708661417
 30
0.0
 11
5.431102362204724
 21
7.384842519685039
 31
0.0
  0
LINE
  5
2C4B
330
1E
100
AcDbEntity
  8
7
100
AcDbLine
 10
5.431102362204724
 20
7.384842519685039
 30
0.0
 11
5.431102362204724
 21
7.419291338582676
 31
0.0
  0
LINE
  5
2C4C
330
1E
100
AcDbEntity
  8
7
100
AcDbLine
 10
5.431102362204724
 20
7.419291338582676
 30
0.0
 11
5.431102362204724
 21
7.45767716535433
 31
0.0
  0
LINE
  5
2C4D
330
1E
100
AcDbEntity
  8
7
100
AcDbLine
 10
5.431102362204724
 20
7.45767716535433
 30
0.0
 11
5.431102362204724
 21
7.496062992125984
 31
0.0
  0
LINE
  5
2C4E
330
1E
100
AcDbEntity
  8
7
100
AcDbLine
 10
5.431102362204724
 20
3.644685039370078
 30
0.0
 11
5.431102362204724
 21
3.677165354330708
 31
0.0
  0
LINE
  5
2C4F
330
1E
100
AcDbEntity
  8
7
100
AcDbLine
 10
5.431102362204724
 20
3.677165354330708
 30
0.0
 11
5.431102362204724
 21
3.713582677165354
 31
0.0
  0
LINE
  5
2C50
330
1E
100
AcDbEntity
  8
7
100
AcDbLine
 10
5.431102362204724
 20
3.713582677165354
 30
0.0
 11
5.431102362204724
 21
3.751968503937007
 31
0.0
  0
LINE
  5
2C51
330
1E
100
AcDbEntity
  8
7
100
AcDbLine
 10
5.431102362204724
 20
3.751968503937007
 30
0.0
 11
5.431102362204724
 21
3.790354330708661
 31
0.0
  0
LINE
  5
2C52
330
1E
100
AcDbEntity
  8
7
100
AcDbLine
 10
5.431102362204724
 20
3.790354330708661
 30
0.0
 11
5.431102362204724
 21
3.828740157480314
 31
0.0
  0
LINE
  5
2C53
330
1E
100
AcDbEntity
  8
7
100
AcDbLine
 10
5.431102362204724
 20
3.828740157480314
 30
0.0
 11
5.431102362204724
 21
3.863188976377952
 31
0.0
  0
LINE
  5
2C54
330
1E
100
AcDbEntity
  8
7
100
AcDbLine
 10
5.431102362204724
 20
3.863188976377952
 30
0.0
 11
5.431102362204724
 21
3.893700787401574
 31
0.0
  0
LINE
  5
2C55
330
1E
100
AcDbEntity
  8
7
100
AcDbLine
 10
5.431102362204724
 20
3.893700787401574
 30
0.0
 11
5.431102362204724
 21
3.918307086614173
 31
0.0
  0
LINE
  5
2C56
330
1E
100
AcDbEntity
  8
7
100
AcDbLine
 10
5.431102362204724
 20
3.918307086614173
 30
0.0
 11
5.431102362204724
 21
3.937007874015748
 31
0.0
  0
LINE
  5
2C57
330
1E
100
AcDbEntity
  8
7
100
AcDbLine
 10
5.431102362204724
 20
3.937007874015748
 30
0.0
 11
5.431102362204724
 21
3.946850393700787
 31
0.0
  0
LINE
  5
2C58
330
1E
100
AcDbEntity
  8
7
100
AcDbLine
 10
5.431102362204724
 20
3.730314960629921
 30
0.0
 11
5.431102362204724
 21
3.692913385826771
 31
0.0
  0
LINE
  5
2C59
330
1E
100
AcDbEntity
  8
7
100
AcDbLine
 10
5.431102362204724
 20
3.692913385826771
 30
0.0
 11
5.431102362204724
 21
3.658464566929133
 31
0.0
  0
LINE
  5
2C5A
330
1E
100
AcDbEntity
  8
7
100
AcDbLine
 10
5.431102362204724
 20
3.658464566929133
 30
0.0
 11
5.431102362204724
 21
3.628937007874015
 31
0.0
  0
LINE
  5
2C5B
330
1E
100
AcDbEntity
  8
7
100
AcDbLine
 10
5.431102362204724
 20
3.628937007874015
 30
0.0
 11
5.431102362204724
 21
3.604330708661417
 31
0.0
  0
LINE
  5
2C5C
330
1E
100
AcDbEntity
  8
7
100
AcDbLine
 10
5.431102362204724
 20
3.604330708661417
 30
0.0
 11
5.431102362204724
 21
3.586614173228346
 31
0.0
  0
LINE
  5
2C5D
330
1E
100
AcDbEntity
  8
7
100
AcDbLine
 10
5.431102362204724
 20
3.586614173228346
 30
0.0
 11
5.431102362204724
 21
3.576771653543306
 31
0.0
  0
LINE
  5
2C5E
330
1E
100
AcDbEntity
  8
7
100
AcDbLine
 10
5.431102362204724
 20
3.576771653543306
 30
0.0
 11
5.431102362204724
 21
3.575787401574803
 31
0.0
  0
LINE
  5
2C5F
330
1E
100
AcDbEntity
  8
7
100
AcDbLine
 10
5.431102362204724
 20
3.575787401574803
 30
0.0
 11
5.431102362204724
 21
3.581692913385826
 31
0.0
  0
LINE
  5
2C60
330
1E
100
AcDbEntity
  8
7
100
AcDbLine
 10
5.431102362204724
 20
3.581692913385826
 30
0.0
 11
5.431102362204724
 21
3.595472440944881
 31
0.0
  0
LINE
  5
2C61
330
1E
100
AcDbEntity
  8
7
100
AcDbLine
 10
5.431102362204724
 20
3.595472440944881
 30
0.0
 11
5.431102362204724
 21
3.617125984251968
 31
0.0
  0
LINE
  5
2C62
330
1E
100
AcDbEntity
  8
7
100
AcDbLine
 10
5.431102362204724
 20
3.617125984251968
 30
0.0
 11
5.431102362204724
 21
3.644685039370078
 31
0.0
  0
LINE
  5
2C92
330
1E
100
AcDbEntity
  8
7
100
AcDbLine
 10
2.028543307086614
 20
4.432086614173228
 30
0.0
 11
2.094488188976378
 21
4.366141732283464
 31
0.0
  0
LINE
  5
2C93
330
1E
100
AcDbEntity
  8
7
100
AcDbLine
 10
2.094488188976378
 20
4.366141732283464
 30
0.0
 11
2.169291338582677
 21
4.310039370078739
 31
0.0
  0
LINE
  5
2C94
330
1E
100
AcDbEntity
  8
7
100
AcDbLine
 10
2.891732283464567
 20
4.310039370078739
 30
0.0
 11
2.966535433070866
 21
4.366141732283464
 31
0.0
  0
LINE
  5
2C95
330
1E
100
AcDbEntity
  8
7
100
AcDbLine
 10
2.966535433070866
 20
4.366141732283464
 30
0.0
 11
3.03248031496063
 21
4.432086614173228
 31
0.0
  0
LINE
  5
2C96
330
1E
100
AcDbEntity
  8
7
100
AcDbLine
 10
2.169291338582677
 20
5.417322834645669
 30
0.0
 11
2.094488188976378
 21
5.361220472440945
 31
0.0
  0
LINE
  5
2C97
330
1E
100
AcDbEntity
  8
7
100
AcDbLine
 10
2.094488188976378
 20
5.361220472440945
 30
0.0
 11
2.028543307086614
 21
5.295275590551181
 31
0.0
  0
LINE
  5
2C98
330
1E
100
AcDbEntity
  8
7
100
AcDbLine
 10
3.03248031496063
 20
5.295275590551181
 30
0.0
 11
2.966535433070866
 21
5.361220472440945
 31
0.0
  0
LINE
  5
2C99
330
1E
100
AcDbEntity
  8
7
100
AcDbLine
 10
2.966535433070866
 20
5.361220472440945
 30
0.0
 11
2.891732283464567
 21
5.417322834645669
 31
0.0
  0
LINE
  5
2C9A
330
1E
100
AcDbEntity
  8
7
100
AcDbLine
 10
2.028543307086614
 20
5.961614173228346
 30
0.0
 11
2.094488188976378
 21
5.895669291338582
 31
0.0
  0
LINE
  5
2C9B
330
1E
100
AcDbEntity
  8
7
100
AcDbLine
 10
2.094488188976378
 20
5.895669291338582
 30
0.0
 11
2.169291338582677
 21
5.839566929133858
 31
0.0
  0
LINE
  5
2C9C
330
1E
100
AcDbEntity
  8
7
100
AcDbLine
 10
2.891732283464567
 20
5.839566929133858
 30
0.0
 11
2.966535433070866
 21
5.895669291338582
 31
0.0
  0
LINE
  5
2C9D
330
1E
100
AcDbEntity
  8
7
100
AcDbLine
 10
2.966535433070866
 20
5.895669291338582
 30
0.0
 11
3.03248031496063
 21
5.961614173228346
 31
0.0
  0
LINE
  5
2C9E
330
1E
100
AcDbEntity
  8
7
100
AcDbLine
 10
2.169291338582677
 20
6.946850393700787
 30
0.0
 11
2.094488188976378
 21
6.890748031496062
 31
0.0
  0
LINE
  5
2C9F
330
1E
100
AcDbEntity
  8
7
100
AcDbLine
 10
2.094488188976378
 20
6.890748031496062
 30
0.0
 11
2.028543307086614
 21
6.824803149606299
 31
0.0
  0
LINE
  5
2CA0
330
1E
100
AcDbEntity
  8
7
100
AcDbLine
 10
3.03248031496063
 20
6.824803149606299
 30
0.0
 11
2.966535433070866
 21
6.890748031496062
 31
0.0
  0
LINE
  5
2CA1
330
1E
100
AcDbEntity
  8
7
100
AcDbLine
 10
2.966535433070866
 20
6.890748031496062
 30
0.0
 11
2.891732283464567
 21
6.946850393700787
 31
0.0
  0
LINE
  5
2CA2
330
1E
100
AcDbEntity
  8
7
100
AcDbLine
 10
2.993110236220472
 20
6.74507874015748
 30
0.0
 11
2.993110236220472
 21
6.738188976377952
 31
0.0
  0
LINE
  5
2CA3
330
1E
100
AcDbEntity
  8
7
100
AcDbLine
 10
2.993110236220472
 20
6.738188976377952
 30
0.0
 11
2.993110236220472
 21
6.73523622047244
 31
0.0
  0
LINE
  5
2CA4
330
1E
100
AcDbEntity
  8
7
100
AcDbLine
 10
2.703740157480315
 20
6.74507874015748
 30
0.0
 11
2.703740157480315
 21
6.738188976377952
 31
0.0
  0
LINE
  5
2CA5
330
1E
100
AcDbEntity
  8
7
100
AcDbLine
 10
2.703740157480315
 20
6.738188976377952
 30
0.0
 11
2.703740157480315
 21
6.73523622047244
 31
0.0
  0
LINE
  5
2CA6
330
1E
100
AcDbEntity
  8
7
100
AcDbLine
 10
2.358267716535433
 20
6.74507874015748
 30
0.0
 11
2.358267716535433
 21
6.738188976377952
 31
0.0
  0
LINE
  5
2CA7
330
1E
100
AcDbEntity
  8
7
100
AcDbLine
 10
2.358267716535433
 20
6.738188976377952
 30
0.0
 11
2.358267716535433
 21
6.73523622047244
 31
0.0
  0
LINE
  5
2CA8
330
1E
100
AcDbEntity
  8
7
100
AcDbLine
 10
2.067913385826771
 20
6.74507874015748
 30
0.0
 11
2.067913385826771
 21
6.738188976377952
 31
0.0
  0
LINE
  5
2CA9
330
1E
100
AcDbEntity
  8
7
100
AcDbLine
 10
2.067913385826771
 20
6.738188976377952
 30
0.0
 11
2.067913385826771
 21
6.73523622047244
 31
0.0
  0
LINE
  5
2CAA
330
1E
100
AcDbEntity
  8
7
100
AcDbLine
 10
2.993110236220472
 20
5.210629921259842
 30
0.0
 11
2.993110236220472
 21
5.203740157480314
 31
0.0
  0
LINE
  5
2CAB
330
1E
100
AcDbEntity
  8
7
100
AcDbLine
 10
2.993110236220472
 20
5.203740157480314
 30
0.0
 11
2.993110236220472
 21
5.200787401574802
 31
0.0
  0
LINE
  5
2CAC
330
1E
100
AcDbEntity
  8
7
100
AcDbLine
 10
2.703740157480315
 20
5.210629921259842
 30
0.0
 11
2.703740157480315
 21
5.203740157480314
 31
0.0
  0
LINE
  5
2CAD
330
1E
100
AcDbEntity
  8
7
100
AcDbLine
 10
2.703740157480315
 20
5.203740157480314
 30
0.0
 11
2.703740157480315
 21
5.200787401574802
 31
0.0
  0
LINE
  5
2CAE
330
1E
100
AcDbEntity
  8
7
100
AcDbLine
 10
2.358267716535433
 20
5.210629921259842
 30
0.0
 11
2.358267716535433
 21
5.203740157480314
 31
0.0
  0
LINE
  5
2CAF
330
1E
100
AcDbEntity
  8
7
100
AcDbLine
 10
2.358267716535433
 20
5.203740157480314
 30
0.0
 11
2.358267716535433
 21
5.200787401574802
 31
0.0
  0
LINE
  5
2CB0
330
1E
100
AcDbEntity
  8
7
100
AcDbLine
 10
2.067913385826771
 20
5.210629921259842
 30
0.0
 11
2.067913385826771
 21
5.203740157480314
 31
0.0
  0
LINE
  5
2CB1
330
1E
100
AcDbEntity
  8
7
100
AcDbLine
 10
2.067913385826771
 20
5.203740157480314
 30
0.0
 11
2.067913385826771
 21
5.200787401574802
 31
0.0
  0
LINE
  5
2CB2
330
1E
100
AcDbEntity
  8
7
100
AcDbLine
 10
2.091535433070866
 20
4.096456692913386
 30
0.0
 11
2.086614173228346
 21
4.12007874015748
 31
0.0
  0
LINE
  5
2CB3
330
1E
100
AcDbEntity
  8
7
100
AcDbLine
 10
2.086614173228346
 20
4.12007874015748
 30
0.0
 11
2.073818897637795
 21
4.140748031496062
 31
0.0
  0
LINE
  5
2CB4
330
1E
100
AcDbEntity
  8
7
100
AcDbLine
 10
2.073818897637795
 20
4.140748031496062
 30
0.0
 11
2.053149606299212
 21
4.153543307086613
 31
0.0
  0
LINE
  5
2CB5
330
1E
100
AcDbEntity
  8
7
100
AcDbLine
 10
2.053149606299212
 20
4.153543307086613
 30
0.0
 11
2.029527559055118
 21
4.158464566929134
 31
0.0
  0
LINE
  5
2CB6
330
1E
100
AcDbEntity
  8
7
100
AcDbLine
 10
3.031496062992125
 20
4.158464566929134
 30
0.0
 11
3.007874015748031
 21
4.153543307086613
 31
0.0
  0
LINE
  5
2CB7
330
1E
100
AcDbEntity
  8
7
100
AcDbLine
 10
3.007874015748031
 20
4.153543307086613
 30
0.0
 11
2.987204724409449
 21
4.140748031496062
 31
0.0
  0
LINE
  5
2CB8
330
1E
100
AcDbEntity
  8
7
100
AcDbLine
 10
2.987204724409449
 20
4.140748031496062
 30
0.0
 11
2.974409448818897
 21
4.12007874015748
 31
0.0
  0
LINE
  5
2CB9
330
1E
100
AcDbEntity
  8
7
100
AcDbLine
 10
2.974409448818897
 20
4.12007874015748
 30
0.0
 11
2.969488188976378
 21
4.096456692913386
 31
0.0
  0
LINE
  5
2CBA
330
1E
100
AcDbEntity
  8
7
100
AcDbLine
 10
3.242125984251968
 20
4.164370078740157
 30
0.0
 11
3.262795275590551
 21
4.177165354330708
 31
0.0
  0
LINE
  5
2CBB
330
1E
100
AcDbEntity
  8
7
100
AcDbLine
 10
3.262795275590551
 20
4.177165354330708
 30
0.0
 11
3.275590551181102
 21
4.197834645669291
 31
0.0
  0
LINE
  5
2CBC
330
1E
100
AcDbEntity
  8
7
100
AcDbLine
 10
3.275590551181102
 20
4.197834645669291
 30
0.0
 11
3.280511811023622
 21
4.221456692913386
 31
0.0
  0
LINE
  5
2CBD
330
1E
100
AcDbEntity
  8
7
100
AcDbLine
 10
3.218503937007874
 20
4.161417322834645
 30
0.0
 11
3.241141732283464
 21
4.166338582677165
 31
0.0
  0
LINE
  5
2CBE
330
1E
100
AcDbEntity
  8
7
100
AcDbLine
 10
3.241141732283464
 20
4.166338582677165
 30
0.0
 11
3.260826771653543
 21
4.179133858267716
 31
0.0
  0
LINE
  5
2CBF
330
1E
100
AcDbEntity
  8
7
100
AcDbLine
 10
3.260826771653543
 20
4.179133858267716
 30
0.0
 11
3.273622047244094
 21
4.198818897637795
 31
0.0
  0
LINE
  5
2CC0
330
1E
100
AcDbEntity
  8
7
100
AcDbLine
 10
3.273622047244094
 20
4.198818897637795
 30
0.0
 11
3.278543307086614
 21
4.221456692913386
 31
0.0
  0
LINE
  5
2CC1
330
1E
100
AcDbEntity
  8
7
100
AcDbLine
 10
3.031496062992125
 20
4.160433070866141
 30
0.0
 11
3.006889763779527
 21
4.155511811023622
 31
0.0
  0
LINE
  5
2CC2
330
1E
100
AcDbEntity
  8
7
100
AcDbLine
 10
3.006889763779527
 20
4.155511811023622
 30
0.0
 11
2.986220472440944
 21
4.141732283464566
 31
0.0
  0
LINE
  5
2CC3
330
1E
100
AcDbEntity
  8
7
100
AcDbLine
 10
2.986220472440944
 20
4.141732283464566
 30
0.0
 11
2.972440944881889
 21
4.121062992125984
 31
0.0
  0
LINE
  5
2CC4
330
1E
100
AcDbEntity
  8
7
100
AcDbLine
 10
2.972440944881889
 20
4.121062992125984
 30
0.0
 11
2.96751968503937
 21
4.096456692913386
 31
0.0
  0
LINE
  5
2CC5
330
1E
100
AcDbEntity
  8
7
100
AcDbLine
 10
3.086614173228346
 20
3.635826771653543
 30
0.0
 11
3.111220472440944
 21
3.665354330708661
 31
0.0
  0
LINE
  5
2CC6
330
1E
100
AcDbEntity
  8
7
100
AcDbLine
 10
3.111220472440944
 20
3.665354330708661
 30
0.0
 11
3.127952755905512
 21
3.699803149606299
 31
0.0
  0
LINE
  5
2CC7
330
1E
100
AcDbEntity
  8
7
100
AcDbLine
 10
3.127952755905512
 20
3.699803149606299
 30
0.0
 11
3.138779527559055
 21
3.737204724409449
 31
0.0
  0
LINE
  5
2CC8
330
1E
100
AcDbEntity
  8
7
100
AcDbLine
 10
3.138779527559055
 20
3.737204724409449
 30
0.0
 11
3.140748031496062
 21
3.775590551181102
 31
0.0
  0
LINE
  5
2CC9
330
1E
100
AcDbEntity
  8
7
100
AcDbLine
 10
3.140748031496062
 20
3.775590551181102
 30
0.0
 11
3.134842519685039
 21
3.813976377952755
 31
0.0
  0
LINE
  5
2CCA
330
1E
100
AcDbEntity
  8
7
100
AcDbLine
 10
3.134842519685039
 20
3.813976377952755
 30
0.0
 11
3.121062992125984
 21
3.849409448818897
 31
0.0
  0
LINE
  5
2CCB
330
1E
100
AcDbEntity
  8
7
100
AcDbLine
 10
3.121062992125984
 20
3.849409448818897
 30
0.0
 11
3.100393700787401
 21
3.881889763779527
 31
0.0
  0
LINE
  5
2CCC
330
1E
100
AcDbEntity
  8
7
100
AcDbLine
 10
3.100393700787401
 20
3.881889763779527
 30
0.0
 11
3.072834645669291
 21
3.909448818897637
 31
0.0
  0
LINE
  5
2CCD
330
1E
100
AcDbEntity
  8
7
100
AcDbLine
 10
3.072834645669291
 20
3.909448818897637
 30
0.0
 11
3.041338582677165
 21
3.931102362204724
 31
0.0
  0
LINE
  5
2CCE
330
1E
100
AcDbEntity
  8
7
100
AcDbLine
 10
3.041338582677165
 20
3.931102362204724
 30
0.0
 11
3.004921259842519
 21
3.944881889763779
 31
0.0
  0
LINE
  5
2CCF
330
1E
100
AcDbEntity
  8
7
100
AcDbLine
 10
3.004921259842519
 20
3.944881889763779
 30
0.0
 11
2.96751968503937
 21
3.951771653543307
 31
0.0
  0
LINE
  5
2CD0
330
1E
100
AcDbEntity
  8
7
100
AcDbLine
 10
2.770669291338582
 20
3.754921259842519
 30
0.0
 11
2.77755905511811
 21
3.71751968503937
 31
0.0
  0
LINE
  5
2CD1
330
1E
100
AcDbEntity
  8
7
100
AcDbLine
 10
2.77755905511811
 20
3.71751968503937
 30
0.0
 11
2.791338582677165
 21
3.681102362204724
 31
0.0
  0
LINE
  5
2CD2
330
1E
100
AcDbEntity
  8
7
100
AcDbLine
 10
2.791338582677165
 20
3.681102362204724
 30
0.0
 11
2.812992125984251
 21
3.649606299212598
 31
0.0
  0
LINE
  5
2CD3
330
1E
100
AcDbEntity
  8
7
100
AcDbLine
 10
2.812992125984251
 20
3.649606299212598
 30
0.0
 11
2.840551181102362
 21
3.622047244094488
 31
0.0
  0
LINE
  5
2CD4
330
1E
100
AcDbEntity
  8
7
100
AcDbLine
 10
2.840551181102362
 20
3.622047244094488
 30
0.0
 11
2.873031496062992
 21
3.601377952755905
 31
0.0
  0
LINE
  5
2CD5
330
1E
100
AcDbEntity
  8
7
100
AcDbLine
 10
2.873031496062992
 20
3.601377952755905
 30
0.0
 11
2.908464566929133
 21
3.58759842519685
 31
0.0
  0
LINE
  5
2CD6
330
1E
100
AcDbEntity
  8
7
100
AcDbLine
 10
2.908464566929133
 20
3.58759842519685
 30
0.0
 11
2.946850393700787
 21
3.581692913385826
 31
0.0
  0
LINE
  5
2CD7
330
1E
100
AcDbEntity
  8
7
100
AcDbLine
 10
2.946850393700787
 20
3.581692913385826
 30
0.0
 11
2.985236220472441
 21
3.583661417322834
 31
0.0
  0
LINE
  5
2CD8
330
1E
100
AcDbEntity
  8
7
100
AcDbLine
 10
2.985236220472441
 20
3.583661417322834
 30
0.0
 11
3.02263779527559
 21
3.594488188976378
 31
0.0
  0
LINE
  5
2CD9
330
1E
100
AcDbEntity
  8
7
100
AcDbLine
 10
3.02263779527559
 20
3.594488188976378
 30
0.0
 11
3.057086614173228
 21
3.611220472440944
 31
0.0
  0
LINE
  5
2CDA
330
1E
100
AcDbEntity
  8
7
100
AcDbLine
 10
3.057086614173228
 20
3.611220472440944
 30
0.0
 11
3.086614173228346
 21
3.635826771653543
 31
0.0
  0
LINE
  5
2CDB
330
1E
100
AcDbEntity
  8
7
100
AcDbLine
 10
1.921259842519685
 20
3.775590551181102
 30
0.0
 11
1.923228346456692
 21
3.737204724409449
 31
0.0
  0
LINE
  5
2CDC
330
1E
100
AcDbEntity
  8
7
100
AcDbLine
 10
1.923228346456692
 20
3.737204724409449
 30
0.0
 11
1.934055118110236
 21
3.699803149606299
 31
0.0
  0
LINE
  5
2CDD
330
1E
100
AcDbEntity
  8
7
100
AcDbLine
 10
1.934055118110236
 20
3.699803149606299
 30
0.0
 11
1.950787401574802
 21
3.665354330708661
 31
0.0
  0
LINE
  5
2CDE
330
1E
100
AcDbEntity
  8
7
100
AcDbLine
 10
1.950787401574802
 20
3.665354330708661
 30
0.0
 11
1.975393700787401
 21
3.635826771653543
 31
0.0
  0
LINE
  5
2CDF
330
1E
100
AcDbEntity
  8
7
100
AcDbLine
 10
1.975393700787401
 20
3.635826771653543
 30
0.0
 11
2.004921259842519
 21
3.611220472440944
 31
0.0
  0
LINE
  5
2CE0
330
1E
100
AcDbEntity
  8
7
100
AcDbLine
 10
2.004921259842519
 20
3.611220472440944
 30
0.0
 11
2.039370078740157
 21
3.594488188976378
 31
0.0
  0
LINE
  5
2CE1
330
1E
100
AcDbEntity
  8
7
100
AcDbLine
 10
2.039370078740157
 20
3.594488188976378
 30
0.0
 11
2.076771653543307
 21
3.583661417322834
 31
0.0
  0
LINE
  5
2CE2
330
1E
100
AcDbEntity
  8
7
100
AcDbLine
 10
2.076771653543307
 20
3.583661417322834
 30
0.0
 11
2.11515748031496
 21
3.581692913385826
 31
0.0
  0
LINE
  5
2CE3
330
1E
100
AcDbEntity
  8
7
100
AcDbLine
 10
2.11515748031496
 20
3.581692913385826
 30
0.0
 11
2.153543307086614
 21
3.58759842519685
 31
0.0
  0
LINE
  5
2CE4
330
1E
100
AcDbEntity
  8
7
100
AcDbLine
 10
2.153543307086614
 20
3.58759842519685
 30
0.0
 11
2.188976377952756
 21
3.601377952755905
 31
0.0
  0
LINE
  5
2CE5
330
1E
100
AcDbEntity
  8
7
100
AcDbLine
 10
2.188976377952756
 20
3.601377952755905
 30
0.0
 11
2.221456692913386
 21
3.622047244094488
 31
0.0
  0
LINE
  5
2CE6
330
1E
100
AcDbEntity
  8
7
100
AcDbLine
 10
2.221456692913386
 20
3.622047244094488
 30
0.0
 11
2.249015748031496
 21
3.649606299212598
 31
0.0
  0
LINE
  5
2CE7
330
1E
100
AcDbEntity
  8
7
100
AcDbLine
 10
2.249015748031496
 20
3.649606299212598
 30
0.0
 11
2.270669291338582
 21
3.681102362204724
 31
0.0
  0
LINE
  5
2CE8
330
1E
100
AcDbEntity
  8
7
100
AcDbLine
 10
2.270669291338582
 20
3.681102362204724
 30
0.0
 11
2.284448818897637
 21
3.71751968503937
 31
0.0
  0
LINE
  5
2CE9
330
1E
100
AcDbEntity
  8
7
100
AcDbLine
 10
2.284448818897637
 20
3.71751968503937
 30
0.0
 11
2.291338582677165
 21
3.754921259842519
 31
0.0
  0
LINE
  5
2CEA
330
1E
100
AcDbEntity
  8
7
100
AcDbLine
 10
2.094488188976378
 20
3.951771653543307
 30
0.0
 11
2.057086614173228
 21
3.944881889763779
 31
0.0
  0
LINE
  5
2CEB
330
1E
100
AcDbEntity
  8
7
100
AcDbLine
 10
2.057086614173228
 20
3.944881889763779
 30
0.0
 11
2.020669291338582
 21
3.931102362204724
 31
0.0
  0
LINE
  5
2CEC
330
1E
100
AcDbEntity
  8
7
100
AcDbLine
 10
2.020669291338582
 20
3.931102362204724
 30
0.0
 11
1.989173228346456
 21
3.909448818897637
 31
0.0
  0
LINE
  5
2CED
330
1E
100
AcDbEntity
  8
7
100
AcDbLine
 10
1.989173228346456
 20
3.909448818897637
 30
0.0
 11
1.961614173228346
 21
3.881889763779527
 31
0.0
  0
LINE
  5
2CEE
330
1E
100
AcDbEntity
  8
7
100
AcDbLine
 10
1.961614173228346
 20
3.881889763779527
 30
0.0
 11
1.940944881889763
 21
3.849409448818897
 31
0.0
  0
LINE
  5
2CEF
330
1E
100
AcDbEntity
  8
7
100
AcDbLine
 10
1.940944881889763
 20
3.849409448818897
 30
0.0
 11
1.927165354330708
 21
3.813976377952755
 31
0.0
  0
LINE
  5
2CF0
330
1E
100
AcDbEntity
  8
7
100
AcDbLine
 10
1.927165354330708
 20
3.813976377952755
 30
0.0
 11
1.921259842519685
 21
3.775590551181102
 31
0.0
  0
LINE
  5
2CF1
330
1E
100
AcDbEntity
  8
7
100
AcDbLine
 10
2.074803149606299
 20
4.141732283464566
 30
0.0
 11
2.054133858267716
 21
4.155511811023622
 31
0.0
  0
LINE
  5
2CF2
330
1E
100
AcDbEntity
  8
7
100
AcDbLine
 10
2.054133858267716
 20
4.155511811023622
 30
0.0
 11
2.029527559055118
 21
4.160433070866141
 31
0.0
  0
LINE
  5
2CF3
330
1E
100
AcDbEntity
  8
7
100
AcDbLine
 10
2.093503937007874
 20
4.096456692913386
 30
0.0
 11
2.088582677165354
 21
4.121062992125984
 31
0.0
  0
LINE
  5
2CF4
330
1E
100
AcDbEntity
  8
7
100
AcDbLine
 10
2.088582677165354
 20
4.121062992125984
 30
0.0
 11
2.074803149606299
 21
4.141732283464566
 31
0.0
  0
LINE
  5
2CF5
330
1E
100
AcDbEntity
  8
7
100
AcDbLine
 10
3.280511811023622
 20
7.036417322834645
 30
0.0
 11
3.275590551181102
 21
7.060039370078739
 31
0.0
  0
LINE
  5
2CF6
330
1E
100
AcDbEntity
  8
7
100
AcDbLine
 10
3.275590551181102
 20
7.060039370078739
 30
0.0
 11
3.262795275590551
 21
7.080708661417323
 31
0.0
  0
LINE
  5
2CF7
330
1E
100
AcDbEntity
  8
7
100
AcDbLine
 10
3.262795275590551
 20
7.080708661417323
 30
0.0
 11
3.242125984251968
 21
7.093503937007874
 31
0.0
  0
LINE
  5
2CF8
330
1E
100
AcDbEntity
  8
7
100
AcDbLine
 10
3.242125984251968
 20
7.093503937007874
 30
0.0
 11
3.218503937007874
 21
7.098425196850393
 31
0.0
  0
LINE
  5
2CF9
330
1E
100
AcDbEntity
  8
7
100
AcDbLine
 10
2.969488188976378
 20
7.161417322834645
 30
0.0
 11
2.974409448818897
 21
7.13779527559055
 31
0.0
  0
LINE
  5
2CFA
330
1E
100
AcDbEntity
  8
7
100
AcDbLine
 10
2.974409448818897
 20
7.13779527559055
 30
0.0
 11
2.987204724409449
 21
7.117125984251968
 31
0.0
  0
LINE
  5
2CFB
330
1E
100
AcDbEntity
  8
7
100
AcDbLine
 10
2.987204724409449
 20
7.117125984251968
 30
0.0
 11
3.007874015748031
 21
7.104330708661417
 31
0.0
  0
LINE
  5
2CFC
330
1E
100
AcDbEntity
  8
7
100
AcDbLine
 10
2.029527559055118
 20
7.099409448818897
 30
0.0
 11
2.053149606299212
 21
7.104330708661417
 31
0.0
  0
LINE
  5
2CFD
330
1E
100
AcDbEntity
  8
7
100
AcDbLine
 10
2.053149606299212
 20
7.104330708661417
 30
0.0
 11
2.073818897637795
 21
7.117125984251968
 31
0.0
  0
LINE
  5
2CFE
330
1E
100
AcDbEntity
  8
7
100
AcDbLine
 10
2.073818897637795
 20
7.117125984251968
 30
0.0
 11
2.086614173228346
 21
7.13779527559055
 31
0.0
  0
LINE
  5
2CFF
330
1E
100
AcDbEntity
  8
7
100
AcDbLine
 10
2.086614173228346
 20
7.13779527559055
 30
0.0
 11
2.091535433070866
 21
7.161417322834645
 31
0.0
  0
LINE
  5
2D00
330
1E
100
AcDbEntity
  8
7
100
AcDbLine
 10
2.074803149606299
 20
7.116141732283464
 30
0.0
 11
2.088582677165354
 21
7.136811023622047
 31
0.0
  0
LINE
  5
2D01
330
1E
100
AcDbEntity
  8
7
100
AcDbLine
 10
2.088582677165354
 20
7.136811023622047
 30
0.0
 11
2.093503937007874
 21
7.161417322834645
 31
0.0
  0
LINE
  5
2D02
330
1E
100
AcDbEntity
  8
7
100
AcDbLine
 10
2.029527559055118
 20
7.097440944881889
 30
0.0
 11
2.054133858267716
 21
7.102362204724409
 31
0.0
  0
LINE
  5
2D03
330
1E
100
AcDbEntity
  8
7
100
AcDbLine
 10
2.054133858267716
 20
7.102362204724409
 30
0.0
 11
2.074803149606299
 21
7.116141732283464
 31
0.0
  0
LINE
  5
2D04
330
1E
100
AcDbEntity
  8
7
100
AcDbLine
 10
1.923228346456692
 20
7.519685039370078
 30
0.0
 11
1.921259842519685
 21
7.481299212598425
 31
0.0
  0
LINE
  5
2D05
330
1E
100
AcDbEntity
  8
7
100
AcDbLine
 10
1.921259842519685
 20
7.481299212598425
 30
0.0
 11
1.927165354330708
 21
7.442913385826771
 31
0.0
  0
LINE
  5
2D06
330
1E
100
AcDbEntity
  8
7
100
AcDbLine
 10
1.927165354330708
 20
7.442913385826771
 30
0.0
 11
1.940944881889763
 21
7.407480314960629
 31
0.0
  0
LINE
  5
2D07
330
1E
100
AcDbEntity
  8
7
100
AcDbLine
 10
1.940944881889763
 20
7.407480314960629
 30
0.0
 11
1.961614173228346
 21
7.375
 31
0.0
  0
LINE
  5
2D08
330
1E
100
AcDbEntity
  8
7
100
AcDbLine
 10
1.961614173228346
 20
7.375
 30
0.0
 11
1.989173228346456
 21
7.347440944881889
 31
0.0
  0
LINE
  5
2D09
330
1E
100
AcDbEntity
  8
7
100
AcDbLine
 10
1.989173228346456
 20
7.347440944881889
 30
0.0
 11
2.020669291338582
 21
7.325787401574802
 31
0.0
  0
LINE
  5
2D0A
330
1E
100
AcDbEntity
  8
7
100
AcDbLine
 10
2.020669291338582
 20
7.325787401574802
 30
0.0
 11
2.057086614173228
 21
7.312007874015748
 31
0.0
  0
LINE
  5
2D0B
330
1E
100
AcDbEntity
  8
7
100
AcDbLine
 10
2.057086614173228
 20
7.312007874015748
 30
0.0
 11
2.094488188976378
 21
7.30511811023622
 31
0.0
  0
LINE
  5
2D0C
330
1E
100
AcDbEntity
  8
7
100
AcDbLine
 10
2.284448818897637
 20
7.539370078740157
 30
0.0
 11
2.270669291338582
 21
7.575787401574802
 31
0.0
  0
LINE
  5
2D0D
330
1E
100
AcDbEntity
  8
7
100
AcDbLine
 10
2.270669291338582
 20
7.575787401574802
 30
0.0
 11
2.249015748031496
 21
7.607283464566928
 31
0.0
  0
LINE
  5
2D0E
330
1E
100
AcDbEntity
  8
7
100
AcDbLine
 10
2.249015748031496
 20
7.607283464566928
 30
0.0
 11
2.221456692913386
 21
7.634842519685039
 31
0.0
  0
LINE
  5
2D0F
330
1E
100
AcDbEntity
  8
7
100
AcDbLine
 10
2.221456692913386
 20
7.634842519685039
 30
0.0
 11
2.188976377952756
 21
7.655511811023622
 31
0.0
  0
LINE
  5
2D10
330
1E
100
AcDbEntity
  8
7
100
AcDbLine
 10
2.188976377952756
 20
7.655511811023622
 30
0.0
 11
2.153543307086614
 21
7.669291338582676
 31
0.0
  0
LINE
  5
2D11
330
1E
100
AcDbEntity
  8
7
100
AcDbLine
 10
2.153543307086614
 20
7.669291338582676
 30
0.0
 11
2.11515748031496
 21
7.6751968503937
 31
0.0
  0
LINE
  5
2D12
330
1E
100
AcDbEntity
  8
7
100
AcDbLine
 10
2.11515748031496
 20
7.6751968503937
 30
0.0
 11
2.076771653543307
 21
7.673228346456692
 31
0.0
  0
LINE
  5
2D13
330
1E
100
AcDbEntity
  8
7
100
AcDbLine
 10
2.076771653543307
 20
7.673228346456692
 30
0.0
 11
2.039370078740157
 21
7.662401574803149
 31
0.0
  0
LINE
  5
2D14
330
1E
100
AcDbEntity
  8
7
100
AcDbLine
 10
2.039370078740157
 20
7.662401574803149
 30
0.0
 11
2.004921259842519
 21
7.645669291338582
 31
0.0
  0
LINE
  5
2D15
330
1E
100
AcDbEntity
  8
7
100
AcDbLine
 10
2.004921259842519
 20
7.645669291338582
 30
0.0
 11
1.975393700787401
 21
7.621062992125984
 31
0.0
  0
LINE
  5
2D16
330
1E
100
AcDbEntity
  8
7
100
AcDbLine
 10
1.975393700787401
 20
7.621062992125984
 30
0.0
 11
1.950787401574802
 21
7.591535433070865
 31
0.0
  0
LINE
  5
2D17
330
1E
100
AcDbEntity
  8
7
100
AcDbLine
 10
1.950787401574802
 20
7.591535433070865
 30
0.0
 11
1.934055118110236
 21
7.557086614173228
 31
0.0
  0
LINE
  5
2D18
330
1E
100
AcDbEntity
  8
7
100
AcDbLine
 10
1.934055118110236
 20
7.557086614173228
 30
0.0
 11
1.923228346456692
 21
7.519685039370078
 31
0.0
  0
LINE
  5
2D19
330
1E
100
AcDbEntity
  8
7
100
AcDbLine
 10
2.985236220472441
 20
7.673228346456692
 30
0.0
 11
2.946850393700787
 21
7.6751968503937
 31
0.0
  0
LINE
  5
2D1A
330
1E
100
AcDbEntity
  8
7
100
AcDbLine
 10
2.946850393700787
 20
7.6751968503937
 30
0.0
 11
2.908464566929133
 21
7.669291338582676
 31
0.0
  0
LINE
  5
2D1B
330
1E
100
AcDbEntity
  8
7
100
AcDbLine
 10
2.908464566929133
 20
7.669291338582676
 30
0.0
 11
2.873031496062992
 21
7.655511811023622
 31
0.0
  0
LINE
  5
2D1C
330
1E
100
AcDbEntity
  8
7
100
AcDbLine
 10
2.873031496062992
 20
7.655511811023622
 30
0.0
 11
2.840551181102362
 21
7.634842519685039
 31
0.0
  0
LINE
  5
2D1D
330
1E
100
AcDbEntity
  8
7
100
AcDbLine
 10
2.840551181102362
 20
7.634842519685039
 30
0.0
 11
2.812992125984251
 21
7.607283464566928
 31
0.0
  0
LINE
  5
2D1E
330
1E
100
AcDbEntity
  8
7
100
AcDbLine
 10
2.812992125984251
 20
7.607283464566928
 30
0.0
 11
2.791338582677165
 21
7.575787401574802
 31
0.0
  0
LINE
  5
2D1F
330
1E
100
AcDbEntity
  8
7
100
AcDbLine
 10
2.791338582677165
 20
7.575787401574802
 30
0.0
 11
2.77755905511811
 21
7.539370078740157
 31
0.0
  0
LINE
  5
2D20
330
1E
100
AcDbEntity
  8
7
100
AcDbLine
 10
2.77755905511811
 20
7.539370078740157
 30
0.0
 11
2.770669291338582
 21
7.501968503937008
 31
0.0
  0
LINE
  5
2D21
330
1E
100
AcDbEntity
  8
7
100
AcDbLine
 10
2.96751968503937
 20
7.30511811023622
 30
0.0
 11
3.004921259842519
 21
7.312007874015748
 31
0.0
  0
LINE
  5
2D22
330
1E
100
AcDbEntity
  8
7
100
AcDbLine
 10
3.004921259842519
 20
7.312007874015748
 30
0.0
 11
3.041338582677165
 21
7.325787401574802
 31
0.0
  0
LINE
  5
2D23
330
1E
100
AcDbEntity
  8
7
100
AcDbLine
 10
3.041338582677165
 20
7.325787401574802
 30
0.0
 11
3.072834645669291
 21
7.347440944881889
 31
0.0
  0
LINE
  5
2D24
330
1E
100
AcDbEntity
  8
7
100
AcDbLine
 10
3.072834645669291
 20
7.347440944881889
 30
0.0
 11
3.100393700787401
 21
7.375
 31
0.0
  0
LINE
  5
2D25
330
1E
100
AcDbEntity
  8
7
100
AcDbLine
 10
3.100393700787401
 20
7.375
 30
0.0
 11
3.121062992125984
 21
7.407480314960629
 31
0.0
  0
LINE
  5
2D26
330
1E
100
AcDbEntity
  8
7
100
AcDbLine
 10
3.121062992125984
 20
7.407480314960629
 30
0.0
 11
3.134842519685039
 21
7.442913385826771
 31
0.0
  0
LINE
  5
2D27
330
1E
100
AcDbEntity
  8
7
100
AcDbLine
 10
3.134842519685039
 20
7.442913385826771
 30
0.0
 11
3.140748031496062
 21
7.481299212598425
 31
0.0
  0
LINE
  5
2D28
330
1E
100
AcDbEntity
  8
7
100
AcDbLine
 10
3.140748031496062
 20
7.481299212598425
 30
0.0
 11
3.138779527559055
 21
7.519685039370078
 31
0.0
  0
LINE
  5
2D29
330
1E
100
AcDbEntity
  8
7
100
AcDbLine
 10
3.138779527559055
 20
7.519685039370078
 30
0.0
 11
3.127952755905512
 21
7.557086614173228
 31
0.0
  0
LINE
  5
2D2A
330
1E
100
AcDbEntity
  8
7
100
AcDbLine
 10
3.127952755905512
 20
7.557086614173228
 30
0.0
 11
3.111220472440944
 21
7.591535433070865
 31
0.0
  0
LINE
  5
2D2B
330
1E
100
AcDbEntity
  8
7
100
AcDbLine
 10
3.111220472440944
 20
7.591535433070865
 30
0.0
 11
3.086614173228346
 21
7.621062992125984
 31
0.0
  0
LINE
  5
2D2C
330
1E
100
AcDbEntity
  8
7
100
AcDbLine
 10
3.086614173228346
 20
7.621062992125984
 30
0.0
 11
3.057086614173228
 21
7.645669291338582
 31
0.0
  0
LINE
  5
2D2D
330
1E
100
AcDbEntity
  8
7
100
AcDbLine
 10
3.057086614173228
 20
7.645669291338582
 30
0.0
 11
3.02263779527559
 21
7.662401574803149
 31
0.0
  0
LINE
  5
2D2E
330
1E
100
AcDbEntity
  8
7
100
AcDbLine
 10
3.02263779527559
 20
7.662401574803149
 30
0.0
 11
2.985236220472441
 21
7.673228346456692
 31
0.0
  0
LINE
  5
2D2F
330
1E
100
AcDbEntity
  8
7
100
AcDbLine
 10
2.96751968503937
 20
7.161417322834645
 30
0.0
 11
2.972440944881889
 21
7.136811023622047
 31
0.0
  0
LINE
  5
2D30
330
1E
100
AcDbEntity
  8
7
100
AcDbLine
 10
2.972440944881889
 20
7.136811023622047
 30
0.0
 11
2.986220472440944
 21
7.116141732283464
 31
0.0
  0
LINE
  5
2D31
330
1E
100
AcDbEntity
  8
7
100
AcDbLine
 10
2.986220472440944
 20
7.116141732283464
 30
0.0
 11
3.006889763779527
 21
7.102362204724409
 31
0.0
  0
LINE
  5
2D32
330
1E
100
AcDbEntity
  8
7
100
AcDbLine
 10
3.006889763779527
 20
7.102362204724409
 30
0.0
 11
3.031496062992125
 21
7.097440944881889
 31
0.0
  0
LINE
  5
2D33
330
1E
100
AcDbEntity
  8
7
100
AcDbLine
 10
3.278543307086614
 20
7.036417322834645
 30
0.0
 11
3.273622047244094
 21
7.059055118110236
 31
0.0
  0
LINE
  5
2D34
330
1E
100
AcDbEntity
  8
7
100
AcDbLine
 10
3.273622047244094
 20
7.059055118110236
 30
0.0
 11
3.260826771653543
 21
7.078740157480314
 31
0.0
  0
LINE
  5
2D35
330
1E
100
AcDbEntity
  8
7
100
AcDbLine
 10
3.260826771653543
 20
7.078740157480314
 30
0.0
 11
3.241141732283464
 21
7.091535433070865
 31
0.0
  0
LINE
  5
2D36
330
1E
100
AcDbEntity
  8
7
100
AcDbLine
 10
3.241141732283464
 20
7.091535433070865
 30
0.0
 11
3.218503937007874
 21
7.096456692913386
 31
0.0
  0
LINE
  5
2D37
330
1E
100
AcDbEntity
  8
7
100
AcDbLine
 10
1.781496062992125
 20
4.221456692913386
 30
0.0
 11
1.786417322834645
 21
4.197834645669291
 31
0.0
  0
LINE
  5
2D38
330
1E
100
AcDbEntity
  8
7
100
AcDbLine
 10
1.786417322834645
 20
4.197834645669291
 30
0.0
 11
1.799212598425196
 21
4.177165354330708
 31
0.0
  0
LINE
  5
2D39
330
1E
100
AcDbEntity
  8
7
100
AcDbLine
 10
1.799212598425196
 20
4.177165354330708
 30
0.0
 11
1.819881889763779
 21
4.164370078740157
 31
0.0
  0
LINE
  5
2D3A
330
1E
100
AcDbEntity
  8
7
100
AcDbLine
 10
1.819881889763779
 20
4.164370078740157
 30
0.0
 11
1.843503937007873
 21
4.159448818897637
 31
0.0
  0
LINE
  5
2D3B
330
1E
100
AcDbEntity
  8
7
100
AcDbLine
 10
1.819881889763779
 20
7.093503937007874
 30
0.0
 11
1.799212598425196
 21
7.080708661417323
 31
0.0
  0
LINE
  5
2D3C
330
1E
100
AcDbEntity
  8
7
100
AcDbLine
 10
1.799212598425196
 20
7.080708661417323
 30
0.0
 11
1.786417322834645
 21
7.060039370078739
 31
0.0
  0
LINE
  5
2D3D
330
1E
100
AcDbEntity
  8
7
100
AcDbLine
 10
1.786417322834645
 20
7.060039370078739
 30
0.0
 11
1.781496062992125
 21
7.036417322834645
 31
0.0
  0
LINE
  5
2D3E
330
1E
100
AcDbEntity
  8
7
100
AcDbLine
 10
1.783464566929133
 20
4.221456692913386
 30
0.0
 11
1.788385826771653
 21
4.198818897637795
 31
0.0
  0
LINE
  5
2D3F
330
1E
100
AcDbEntity
  8
7
100
AcDbLine
 10
1.788385826771653
 20
4.198818897637795
 30
0.0
 11
1.801181102362204
 21
4.179133858267716
 31
0.0
  0
LINE
  5
2D40
330
1E
100
AcDbEntity
  8
7
100
AcDbLine
 10
1.801181102362204
 20
4.179133858267716
 30
0.0
 11
1.820866141732283
 21
4.166338582677165
 31
0.0
  0
LINE
  5
2D41
330
1E
100
AcDbEntity
  8
7
100
AcDbLine
 10
1.820866141732283
 20
4.166338582677165
 30
0.0
 11
1.843503937007873
 21
4.161417322834645
 31
0.0
  0
LINE
  5
2D42
330
1E
100
AcDbEntity
  8
7
100
AcDbLine
 10
1.801181102362204
 20
7.078740157480314
 30
0.0
 11
1.788385826771653
 21
7.059055118110236
 31
0.0
  0
LINE
  5
2D43
330
1E
100
AcDbEntity
  8
7
100
AcDbLine
 10
1.788385826771653
 20
7.059055118110236
 30
0.0
 11
1.783464566929133
 21
7.036417322834645
 31
0.0
  0
LINE
  5
2D44
330
1E
100
AcDbEntity
  8
7
100
AcDbLine
 10
1.843503937007873
 20
7.096456692913386
 30
0.0
 11
1.820866141732283
 21
7.091535433070865
 31
0.0
  0
LINE
  5
2D45
330
1E
100
AcDbEntity
  8
7
100
AcDbLine
 10
1.820866141732283
 20
7.091535433070865
 30
0.0
 11
1.801181102362204
 21
7.078740157480314
 31
0.0
  0
LINE
  5
2D46
330
1E
100
AcDbEntity
  8
7
100
AcDbLine
 10
1.926181102362204
 20
7.539370078740157
 30
0.0
 11
1.919291338582677
 21
7.500984251968503
 31
0.0
  0
LINE
  5
2D47
330
1E
100
AcDbEntity
  8
7
100
AcDbLine
 10
1.919291338582677
 20
7.500984251968503
 30
0.0
 11
1.921259842519685
 21
7.461614173228346
 31
0.0
  0
LINE
  5
2D48
330
1E
100
AcDbEntity
  8
7
100
AcDbLine
 10
1.921259842519685
 20
7.461614173228346
 30
0.0
 11
1.931102362204724
 21
7.424212598425197
 31
0.0
  0
LINE
  5
2D49
330
1E
100
AcDbEntity
  8
7
100
AcDbLine
 10
1.931102362204724
 20
7.424212598425197
 30
0.0
 11
1.948818897637795
 21
7.389763779527559
 31
0.0
  0
LINE
  5
2D4A
330
1E
100
AcDbEntity
  8
7
100
AcDbLine
 10
1.948818897637795
 20
7.389763779527559
 30
0.0
 11
1.972440944881889
 21
7.359251968503937
 31
0.0
  0
LINE
  5
2D4B
330
1E
100
AcDbEntity
  8
7
100
AcDbLine
 10
1.972440944881889
 20
7.359251968503937
 30
0.0
 11
2.002952755905512
 21
7.334645669291338
 31
0.0
  0
LINE
  5
2D4C
330
1E
100
AcDbEntity
  8
7
100
AcDbLine
 10
2.002952755905512
 20
7.334645669291338
 30
0.0
 11
2.037401574803149
 21
7.315944881889763
 31
0.0
  0
LINE
  5
2D4D
330
1E
100
AcDbEntity
  8
7
100
AcDbLine
 10
2.037401574803149
 20
7.315944881889763
 30
0.0
 11
2.074803149606299
 21
7.306102362204724
 31
0.0
  0
LINE
  5
2D4E
330
1E
100
AcDbEntity
  8
7
100
AcDbLine
 10
2.290354330708661
 20
7.521653543307087
 30
0.0
 11
2.280511811023622
 21
7.559055118110236
 31
0.0
  0
LINE
  5
2D4F
330
1E
100
AcDbEntity
  8
7
100
AcDbLine
 10
2.280511811023622
 20
7.559055118110236
 30
0.0
 11
2.261811023622047
 21
7.593503937007874
 31
0.0
  0
LINE
  5
2D50
330
1E
100
AcDbEntity
  8
7
100
AcDbLine
 10
2.261811023622047
 20
7.593503937007874
 30
0.0
 11
2.237204724409449
 21
7.624015748031496
 31
0.0
  0
LINE
  5
2D51
330
1E
100
AcDbEntity
  8
7
100
AcDbLine
 10
2.237204724409449
 20
7.624015748031496
 30
0.0
 11
2.206692913385826
 21
7.64763779527559
 31
0.0
  0
LINE
  5
2D52
330
1E
100
AcDbEntity
  8
7
100
AcDbLine
 10
2.206692913385826
 20
7.64763779527559
 30
0.0
 11
2.172244094488188
 21
7.665354330708661
 31
0.0
  0
LINE
  5
2D53
330
1E
100
AcDbEntity
  8
7
100
AcDbLine
 10
2.172244094488188
 20
7.665354330708661
 30
0.0
 11
2.134842519685039
 21
7.6751968503937
 31
0.0
  0
LINE
  5
2D54
330
1E
100
AcDbEntity
  8
7
100
AcDbLine
 10
2.134842519685039
 20
7.6751968503937
 30
0.0
 11
2.095472440944881
 21
7.677165354330708
 31
0.0
  0
LINE
  5
2D55
330
1E
100
AcDbEntity
  8
7
100
AcDbLine
 10
2.095472440944881
 20
7.677165354330708
 30
0.0
 11
2.057086614173228
 21
7.670275590551181
 31
0.0
  0
LINE
  5
2D56
330
1E
100
AcDbEntity
  8
7
100
AcDbLine
 10
2.057086614173228
 20
7.670275590551181
 30
0.0
 11
2.020669291338582
 21
7.656496062992125
 31
0.0
  0
LINE
  5
2D57
330
1E
100
AcDbEntity
  8
7
100
AcDbLine
 10
2.020669291338582
 20
7.656496062992125
 30
0.0
 11
1.988188976377952
 21
7.635826771653543
 31
0.0
  0
LINE
  5
2D58
330
1E
100
AcDbEntity
  8
7
100
AcDbLine
 10
1.988188976377952
 20
7.635826771653543
 30
0.0
 11
1.960629921259842
 21
7.608267716535433
 31
0.0
  0
LINE
  5
2D59
330
1E
100
AcDbEntity
  8
7
100
AcDbLine
 10
1.960629921259842
 20
7.608267716535433
 30
0.0
 11
1.939960629921259
 21
7.575787401574802
 31
0.0
  0
LINE
  5
2D5A
330
1E
100
AcDbEntity
  8
7
100
AcDbLine
 10
1.939960629921259
 20
7.575787401574802
 30
0.0
 11
1.926181102362204
 21
7.539370078740157
 31
0.0
  0
LINE
  5
2D5B
330
1E
100
AcDbEntity
  8
7
100
AcDbLine
 10
3.041338582677165
 20
7.656496062992125
 30
0.0
 11
3.004921259842519
 21
7.670275590551181
 31
0.0
  0
LINE
  5
2D5C
330
1E
100
AcDbEntity
  8
7
100
AcDbLine
 10
3.004921259842519
 20
7.670275590551181
 30
0.0
 11
2.966535433070866
 21
7.677165354330708
 31
0.0
  0
LINE
  5
2D5D
330
1E
100
AcDbEntity
  8
7
100
AcDbLine
 10
2.966535433070866
 20
7.677165354330708
 30
0.0
 11
2.927165354330708
 21
7.6751968503937
 31
0.0
  0
LINE
  5
2D5E
330
1E
100
AcDbEntity
  8
7
100
AcDbLine
 10
2.927165354330708
 20
7.6751968503937
 30
0.0
 11
2.889763779527559
 21
7.665354330708661
 31
0.0
  0
LINE
  5
2D5F
330
1E
100
AcDbEntity
  8
7
100
AcDbLine
 10
2.889763779527559
 20
7.665354330708661
 30
0.0
 11
2.855314960629921
 21
7.64763779527559
 31
0.0
  0
LINE
  5
2D60
330
1E
100
AcDbEntity
  8
7
100
AcDbLine
 10
2.855314960629921
 20
7.64763779527559
 30
0.0
 11
2.824803149606299
 21
7.624015748031496
 31
0.0
  0
LINE
  5
2D61
330
1E
100
AcDbEntity
  8
7
100
AcDbLine
 10
2.824803149606299
 20
7.624015748031496
 30
0.0
 11
2.8001968503937
 21
7.593503937007874
 31
0.0
  0
LINE
  5
2D62
330
1E
100
AcDbEntity
  8
7
100
AcDbLine
 10
2.8001968503937
 20
7.593503937007874
 30
0.0
 11
2.781496062992125
 21
7.559055118110236
 31
0.0
  0
LINE
  5
2D63
330
1E
100
AcDbEntity
  8
7
100
AcDbLine
 10
2.781496062992125
 20
7.559055118110236
 30
0.0
 11
2.771653543307086
 21
7.521653543307087
 31
0.0
  0
LINE
  5
2D64
330
1E
100
AcDbEntity
  8
7
100
AcDbLine
 10
2.987204724409449
 20
7.306102362204724
 30
0.0
 11
3.024606299212598
 21
7.315944881889763
 31
0.0
  0
LINE
  5
2D65
330
1E
100
AcDbEntity
  8
7
100
AcDbLine
 10
3.024606299212598
 20
7.315944881889763
 30
0.0
 11
3.059055118110236
 21
7.334645669291338
 31
0.0
  0
LINE
  5
2D66
330
1E
100
AcDbEntity
  8
7
100
AcDbLine
 10
3.059055118110236
 20
7.334645669291338
 30
0.0
 11
3.089566929133858
 21
7.359251968503937
 31
0.0
  0
LINE
  5
2D67
330
1E
100
AcDbEntity
  8
7
100
AcDbLine
 10
3.089566929133858
 20
7.359251968503937
 30
0.0
 11
3.113188976377952
 21
7.389763779527559
 31
0.0
  0
LINE
  5
2D68
330
1E
100
AcDbEntity
  8
7
100
AcDbLine
 10
3.113188976377952
 20
7.389763779527559
 30
0.0
 11
3.130905511811023
 21
7.424212598425197
 31
0.0
  0
LINE
  5
2D69
330
1E
100
AcDbEntity
  8
7
100
AcDbLine
 10
3.130905511811023
 20
7.424212598425197
 30
0.0
 11
3.140748031496062
 21
7.461614173228346
 31
0.0
  0
LINE
  5
2D6A
330
1E
100
AcDbEntity
  8
7
100
AcDbLine
 10
3.140748031496062
 20
7.461614173228346
 30
0.0
 11
3.14271653543307
 21
7.500984251968503
 31
0.0
  0
LINE
  5
2D6B
330
1E
100
AcDbEntity
  8
7
100
AcDbLine
 10
3.14271653543307
 20
7.500984251968503
 30
0.0
 11
3.135826771653543
 21
7.539370078740157
 31
0.0
  0
LINE
  5
2D6C
330
1E
100
AcDbEntity
  8
7
100
AcDbLine
 10
3.135826771653543
 20
7.539370078740157
 30
0.0
 11
3.122047244094488
 21
7.575787401574802
 31
0.0
  0
LINE
  5
2D6D
330
1E
100
AcDbEntity
  8
7
100
AcDbLine
 10
3.122047244094488
 20
7.575787401574802
 30
0.0
 11
3.101377952755905
 21
7.608267716535433
 31
0.0
  0
LINE
  5
2D6E
330
1E
100
AcDbEntity
  8
7
100
AcDbLine
 10
3.101377952755905
 20
7.608267716535433
 30
0.0
 11
3.073818897637795
 21
7.635826771653543
 31
0.0
  0
LINE
  5
2D6F
330
1E
100
AcDbEntity
  8
7
100
AcDbLine
 10
3.073818897637795
 20
7.635826771653543
 30
0.0
 11
3.041338582677165
 21
7.656496062992125
 31
0.0
  0
LINE
  5
2D70
330
1E
100
AcDbEntity
  8
7
100
AcDbLine
 10
1.926181102362204
 20
3.71751968503937
 30
0.0
 11
1.939960629921259
 21
3.681102362204724
 31
0.0
  0
LINE
  5
2D71
330
1E
100
AcDbEntity
  8
7
100
AcDbLine
 10
1.939960629921259
 20
3.681102362204724
 30
0.0
 11
1.960629921259842
 21
3.648622047244094
 31
0.0
  0
LINE
  5
2D72
330
1E
100
AcDbEntity
  8
7
100
AcDbLine
 10
1.960629921259842
 20
3.648622047244094
 30
0.0
 11
1.988188976377952
 21
3.621062992125984
 31
0.0
  0
LINE
  5
2D73
330
1E
100
AcDbEntity
  8
7
100
AcDbLine
 10
1.988188976377952
 20
3.621062992125984
 30
0.0
 11
2.020669291338582
 21
3.600393700787401
 31
0.0
  0
LINE
  5
2D74
330
1E
100
AcDbEntity
  8
7
100
AcDbLine
 10
2.020669291338582
 20
3.600393700787401
 30
0.0
 11
2.057086614173228
 21
3.586614173228346
 31
0.0
  0
LINE
  5
2D75
330
1E
100
AcDbEntity
  8
7
100
AcDbLine
 10
2.057086614173228
 20
3.586614173228346
 30
0.0
 11
2.095472440944881
 21
3.579724409448818
 31
0.0
  0
LINE
  5
2D76
330
1E
100
AcDbEntity
  8
7
100
AcDbLine
 10
2.095472440944881
 20
3.579724409448818
 30
0.0
 11
2.134842519685039
 21
3.581692913385826
 31
0.0
  0
LINE
  5
2D77
330
1E
100
AcDbEntity
  8
7
100
AcDbLine
 10
2.134842519685039
 20
3.581692913385826
 30
0.0
 11
2.172244094488188
 21
3.591535433070866
 31
0.0
  0
LINE
  5
2D78
330
1E
100
AcDbEntity
  8
7
100
AcDbLine
 10
2.172244094488188
 20
3.591535433070866
 30
0.0
 11
2.206692913385826
 21
3.609251968503937
 31
0.0
  0
LINE
  5
2D79
330
1E
100
AcDbEntity
  8
7
100
AcDbLine
 10
2.206692913385826
 20
3.609251968503937
 30
0.0
 11
2.237204724409449
 21
3.632874015748031
 31
0.0
  0
LINE
  5
2D7A
330
1E
100
AcDbEntity
  8
7
100
AcDbLine
 10
2.237204724409449
 20
3.632874015748031
 30
0.0
 11
2.261811023622047
 21
3.663385826771653
 31
0.0
  0
LINE
  5
2D7B
330
1E
100
AcDbEntity
  8
7
100
AcDbLine
 10
2.261811023622047
 20
3.663385826771653
 30
0.0
 11
2.280511811023622
 21
3.697834645669291
 31
0.0
  0
LINE
  5
2D7C
330
1E
100
AcDbEntity
  8
7
100
AcDbLine
 10
2.280511811023622
 20
3.697834645669291
 30
0.0
 11
2.290354330708661
 21
3.735236220472441
 31
0.0
  0
LINE
  5
2D7D
330
1E
100
AcDbEntity
  8
7
100
AcDbLine
 10
2.074803149606299
 20
3.950787401574803
 30
0.0
 11
2.037401574803149
 21
3.940944881889763
 31
0.0
  0
LINE
  5
2D7E
330
1E
100
AcDbEntity
  8
7
100
AcDbLine
 10
2.037401574803149
 20
3.940944881889763
 30
0.0
 11
2.002952755905512
 21
3.922244094488188
 31
0.0
  0
LINE
  5
2D7F
330
1E
100
AcDbEntity
  8
7
100
AcDbLine
 10
2.002952755905512
 20
3.922244094488188
 30
0.0
 11
1.972440944881889
 21
3.89763779527559
 31
0.0
  0
LINE
  5
2D80
330
1E
100
AcDbEntity
  8
7
100
AcDbLine
 10
1.972440944881889
 20
3.89763779527559
 30
0.0
 11
1.948818897637795
 21
3.867125984251968
 31
0.0
  0
LINE
  5
2D81
330
1E
100
AcDbEntity
  8
7
100
AcDbLine
 10
1.948818897637795
 20
3.867125984251968
 30
0.0
 11
1.931102362204724
 21
3.832677165354331
 31
0.0
  0
LINE
  5
2D82
330
1E
100
AcDbEntity
  8
7
100
AcDbLine
 10
1.931102362204724
 20
3.832677165354331
 30
0.0
 11
1.921259842519685
 21
3.795275590551181
 31
0.0
  0
LINE
  5
2D83
330
1E
100
AcDbEntity
  8
7
100
AcDbLine
 10
1.921259842519685
 20
3.795275590551181
 30
0.0
 11
1.919291338582677
 21
3.755905511811023
 31
0.0
  0
LINE
  5
2D84
330
1E
100
AcDbEntity
  8
7
100
AcDbLine
 10
1.919291338582677
 20
3.755905511811023
 30
0.0
 11
1.926181102362204
 21
3.71751968503937
 31
0.0
  0
LINE
  5
2D85
330
1E
100
AcDbEntity
  8
7
100
AcDbLine
 10
2.889763779527559
 20
3.591535433070866
 30
0.0
 11
2.927165354330708
 21
3.581692913385826
 31
0.0
  0
LINE
  5
2D86
330
1E
100
AcDbEntity
  8
7
100
AcDbLine
 10
2.927165354330708
 20
3.581692913385826
 30
0.0
 11
2.966535433070866
 21
3.579724409448818
 31
0.0
  0
LINE
  5
2D87
330
1E
100
AcDbEntity
  8
7
100
AcDbLine
 10
2.966535433070866
 20
3.579724409448818
 30
0.0
 11
3.004921259842519
 21
3.586614173228346
 31
0.0
  0
LINE
  5
2D88
330
1E
100
AcDbEntity
  8
7
100
AcDbLine
 10
3.004921259842519
 20
3.586614173228346
 30
0.0
 11
3.041338582677165
 21
3.600393700787401
 31
0.0
  0
LINE
  5
2D89
330
1E
100
AcDbEntity
  8
7
100
AcDbLine
 10
3.041338582677165
 20
3.600393700787401
 30
0.0
 11
3.073818897637795
 21
3.621062992125984
 31
0.0
  0
LINE
  5
2D8A
330
1E
100
AcDbEntity
  8
7
100
AcDbLine
 10
3.073818897637795
 20
3.621062992125984
 30
0.0
 11
3.101377952755905
 21
3.648622047244094
 31
0.0
  0
LINE
  5
2D8B
330
1E
100
AcDbEntity
  8
7
100
AcDbLine
 10
3.101377952755905
 20
3.648622047244094
 30
0.0
 11
3.122047244094488
 21
3.681102362204724
 31
0.0
  0
LINE
  5
2D8C
330
1E
100
AcDbEntity
  8
7
100
AcDbLine
 10
3.122047244094488
 20
3.681102362204724
 30
0.0
 11
3.135826771653543
 21
3.71751968503937
 31
0.0
  0
LINE
  5
2D8D
330
1E
100
AcDbEntity
  8
7
100
AcDbLine
 10
3.135826771653543
 20
3.71751968503937
 30
0.0
 11
3.14271653543307
 21
3.755905511811023
 31
0.0
  0
LINE
  5
2D8E
330
1E
100
AcDbEntity
  8
7
100
AcDbLine
 10
3.14271653543307
 20
3.755905511811023
 30
0.0
 11
3.140748031496062
 21
3.795275590551181
 31
0.0
  0
LINE
  5
2D8F
330
1E
100
AcDbEntity
  8
7
100
AcDbLine
 10
3.140748031496062
 20
3.795275590551181
 30
0.0
 11
3.130905511811023
 21
3.832677165354331
 31
0.0
  0
LINE
  5
2D90
330
1E
100
AcDbEntity
  8
7
100
AcDbLine
 10
3.130905511811023
 20
3.832677165354331
 30
0.0
 11
3.113188976377952
 21
3.867125984251968
 31
0.0
  0
LINE
  5
2D91
330
1E
100
AcDbEntity
  8
7
100
AcDbLine
 10
3.113188976377952
 20
3.867125984251968
 30
0.0
 11
3.089566929133858
 21
3.89763779527559
 31
0.0
  0
LINE
  5
2D92
330
1E
100
AcDbEntity
  8
7
100
AcDbLine
 10
3.089566929133858
 20
3.89763779527559
 30
0.0
 11
3.059055118110236
 21
3.922244094488188
 31
0.0
  0
LINE
  5
2D93
330
1E
100
AcDbEntity
  8
7
100
AcDbLine
 10
3.059055118110236
 20
3.922244094488188
 30
0.0
 11
3.024606299212598
 21
3.940944881889763
 31
0.0
  0
LINE
  5
2D94
330
1E
100
AcDbEntity
  8
7
100
AcDbLine
 10
2.771653543307086
 20
3.735236220472441
 30
0.0
 11
2.781496062992125
 21
3.697834645669291
 31
0.0
  0
LINE
  5
2D95
330
1E
100
AcDbEntity
  8
7
100
AcDbLine
 10
2.781496062992125
 20
3.697834645669291
 30
0.0
 11
2.8001968503937
 21
3.663385826771653
 31
0.0
  0
LINE
  5
2D96
330
1E
100
AcDbEntity
  8
7
100
AcDbLine
 10
2.8001968503937
 20
3.663385826771653
 30
0.0
 11
2.824803149606299
 21
3.632874015748031
 31
0.0
  0
LINE
  5
2D97
330
1E
100
AcDbEntity
  8
7
100
AcDbLine
 10
2.824803149606299
 20
3.632874015748031
 30
0.0
 11
2.855314960629921
 21
3.609251968503937
 31
0.0
  0
LINE
  5
2D98
330
1E
100
AcDbEntity
  8
7
100
AcDbLine
 10
2.855314960629921
 20
3.609251968503937
 30
0.0
 11
2.889763779527559
 21
3.591535433070866
 31
0.0
  0
LINE
  5
2D99
330
1E
100
AcDbEntity
  8
7
100
AcDbLine
 10
2.357283464566929
 20
3.899606299212598
 30
0.0
 11
2.382874015748031
 21
3.871062992125984
 31
0.0
  0
LINE
  5
2D9A
330
1E
100
AcDbEntity
  8
7
100
AcDbLine
 10
2.382874015748031
 20
3.871062992125984
 30
0.0
 11
2.413385826771653
 21
3.849409448818897
 31
0.0
  0
LINE
  5
2D9B
330
1E
100
AcDbEntity
  8
7
100
AcDbLine
 10
2.413385826771653
 20
3.849409448818897
 30
0.0
 11
2.448818897637795
 21
3.836614173228346
 31
0.0
  0
LINE
  5
2D9C
330
1E
100
AcDbEntity
  8
7
100
AcDbLine
 10
2.448818897637795
 20
3.836614173228346
 30
0.0
 11
2.486220472440944
 21
3.831692913385826
 31
0.0
  0
LINE
  5
2D9D
330
1E
100
AcDbEntity
  8
7
100
AcDbLine
 10
2.486220472440944
 20
4.144685039370078
 30
0.0
 11
2.448818897637795
 21
4.139763779527559
 31
0.0
  0
LINE
  5
2D9E
330
1E
100
AcDbEntity
  8
7
100
AcDbLine
 10
2.448818897637795
 20
4.139763779527559
 30
0.0
 11
2.413385826771653
 21
4.126968503937008
 31
0.0
  0
LINE
  5
2D9F
330
1E
100
AcDbEntity
  8
7
100
AcDbLine
 10
2.413385826771653
 20
4.126968503937008
 30
0.0
 11
2.382874015748031
 21
4.105314960629921
 31
0.0
  0
LINE
  5
2DA0
330
1E
100
AcDbEntity
  8
7
100
AcDbLine
 10
2.382874015748031
 20
4.105314960629921
 30
0.0
 11
2.357283464566929
 21
4.076771653543307
 31
0.0
  0
LINE
  5
2DA1
330
1E
100
AcDbEntity
  8
7
100
AcDbLine
 10
2.357283464566929
 20
4.076771653543307
 30
0.0
 11
2.339566929133858
 21
4.043307086614173
 31
0.0
  0
LINE
  5
2DA2
330
1E
100
AcDbEntity
  8
7
100
AcDbLine
 10
2.339566929133858
 20
4.043307086614173
 30
0.0
 11
2.330708661417323
 21
4.006889763779527
 31
0.0
  0
LINE
  5
2DA3
330
1E
100
AcDbEntity
  8
7
100
AcDbLine
 10
2.330708661417323
 20
4.006889763779527
 30
0.0
 11
2.330708661417323
 21
3.969488188976378
 31
0.0
  0
LINE
  5
2DA4
330
1E
100
AcDbEntity
  8
7
100
AcDbLine
 10
2.330708661417323
 20
3.969488188976378
 30
0.0
 11
2.339566929133858
 21
3.933070866141732
 31
0.0
  0
LINE
  5
2DA5
330
1E
100
AcDbEntity
  8
7
100
AcDbLine
 10
2.339566929133858
 20
3.933070866141732
 30
0.0
 11
2.357283464566929
 21
3.899606299212598
 31
0.0
  0
LINE
  5
2DA6
330
1E
100
AcDbEntity
  8
7
100
AcDbLine
 10
2.575787401574803
 20
3.831692913385826
 30
0.0
 11
2.613188976377952
 21
3.836614173228346
 31
0.0
  0
LINE
  5
2DA7
330
1E
100
AcDbEntity
  8
7
100
AcDbLine
 10
2.613188976377952
 20
3.836614173228346
 30
0.0
 11
2.648622047244094
 21
3.849409448818897
 31
0.0
  0
LINE
  5
2DA8
330
1E
100
AcDbEntity
  8
7
100
AcDbLine
 10
2.648622047244094
 20
3.849409448818897
 30
0.0
 11
2.679133858267716
 21
3.871062992125984
 31
0.0
  0
LINE
  5
2DA9
330
1E
100
AcDbEntity
  8
7
100
AcDbLine
 10
2.679133858267716
 20
3.871062992125984
 30
0.0
 11
2.704724409448818
 21
3.899606299212598
 31
0.0
  0
LINE
  5
2DAA
330
1E
100
AcDbEntity
  8
7
100
AcDbLine
 10
2.704724409448818
 20
3.899606299212598
 30
0.0
 11
2.722440944881889
 21
3.933070866141732
 31
0.0
  0
LINE
  5
2DAB
330
1E
100
AcDbEntity
  8
7
100
AcDbLine
 10
2.722440944881889
 20
3.933070866141732
 30
0.0
 11
2.731299212598425
 21
3.969488188976378
 31
0.0
  0
LINE
  5
2DAC
330
1E
100
AcDbEntity
  8
7
100
AcDbLine
 10
2.731299212598425
 20
3.969488188976378
 30
0.0
 11
2.731299212598425
 21
4.006889763779527
 31
0.0
  0
LINE
  5
2DAD
330
1E
100
AcDbEntity
  8
7
100
AcDbLine
 10
2.731299212598425
 20
4.006889763779527
 30
0.0
 11
2.722440944881889
 21
4.043307086614173
 31
0.0
  0
LINE
  5
2DAE
330
1E
100
AcDbEntity
  8
7
100
AcDbLine
 10
2.722440944881889
 20
4.043307086614173
 30
0.0
 11
2.704724409448818
 21
4.076771653543307
 31
0.0
  0
LINE
  5
2DAF
330
1E
100
AcDbEntity
  8
7
100
AcDbLine
 10
2.704724409448818
 20
4.076771653543307
 30
0.0
 11
2.679133858267716
 21
4.105314960629921
 31
0.0
  0
LINE
  5
2DB0
330
1E
100
AcDbEntity
  8
7
100
AcDbLine
 10
2.679133858267716
 20
4.105314960629921
 30
0.0
 11
2.648622047244094
 21
4.126968503937008
 31
0.0
  0
LINE
  5
2DB1
330
1E
100
AcDbEntity
  8
7
100
AcDbLine
 10
2.648622047244094
 20
4.126968503937008
 30
0.0
 11
2.613188976377952
 21
4.139763779527559
 31
0.0
  0
LINE
  5
2DB2
330
1E
100
AcDbEntity
  8
7
100
AcDbLine
 10
2.486220472440944
 20
7.4251968503937
 30
0.0
 11
2.448818897637795
 21
7.420275590551181
 31
0.0
  0
LINE
  5
2DB3
330
1E
100
AcDbEntity
  8
7
100
AcDbLine
 10
2.448818897637795
 20
7.420275590551181
 30
0.0
 11
2.413385826771653
 21
7.407480314960629
 31
0.0
  0
LINE
  5
2DB4
330
1E
100
AcDbEntity
  8
7
100
AcDbLine
 10
2.413385826771653
 20
7.407480314960629
 30
0.0
 11
2.382874015748031
 21
7.385826771653543
 31
0.0
  0
LINE
  5
2DB5
330
1E
100
AcDbEntity
  8
7
100
AcDbLine
 10
2.382874015748031
 20
7.385826771653543
 30
0.0
 11
2.357283464566929
 21
7.357283464566928
 31
0.0
  0
LINE
  5
2DB6
330
1E
100
AcDbEntity
  8
7
100
AcDbLine
 10
2.357283464566929
 20
7.357283464566928
 30
0.0
 11
2.339566929133858
 21
7.323818897637795
 31
0.0
  0
LINE
  5
2DB7
330
1E
100
AcDbEntity
  8
7
100
AcDbLine
 10
2.339566929133858
 20
7.323818897637795
 30
0.0
 11
2.330708661417323
 21
7.287401574803149
 31
0.0
  0
LINE
  5
2DB8
330
1E
100
AcDbEntity
  8
7
100
AcDbLine
 10
2.330708661417323
 20
7.287401574803149
 30
0.0
 11
2.330708661417323
 21
7.25
 31
0.0
  0
LINE
  5
2DB9
330
1E
100
AcDbEntity
  8
7
100
AcDbLine
 10
2.330708661417323
 20
7.25
 30
0.0
 11
2.339566929133858
 21
7.213582677165354
 31
0.0
  0
LINE
  5
2DBA
330
1E
100
AcDbEntity
  8
7
100
AcDbLine
 10
2.339566929133858
 20
7.213582677165354
 30
0.0
 11
2.357283464566929
 21
7.18011811023622
 31
0.0
  0
LINE
  5
2DBB
330
1E
100
AcDbEntity
  8
7
100
AcDbLine
 10
2.357283464566929
 20
7.18011811023622
 30
0.0
 11
2.382874015748031
 21
7.151574803149606
 31
0.0
  0
LINE
  5
2DBC
330
1E
100
AcDbEntity
  8
7
100
AcDbLine
 10
2.382874015748031
 20
7.151574803149606
 30
0.0
 11
2.413385826771653
 21
7.129921259842519
 31
0.0
  0
LINE
  5
2DBD
330
1E
100
AcDbEntity
  8
7
100
AcDbLine
 10
2.413385826771653
 20
7.129921259842519
 30
0.0
 11
2.448818897637795
 21
7.117125984251968
 31
0.0
  0
LINE
  5
2DBE
330
1E
100
AcDbEntity
  8
7
100
AcDbLine
 10
2.448818897637795
 20
7.117125984251968
 30
0.0
 11
2.486220472440944
 21
7.112204724409449
 31
0.0
  0
LINE
  5
2DBF
330
1E
100
AcDbEntity
  8
7
100
AcDbLine
 10
2.613188976377952
 20
7.117125984251968
 30
0.0
 11
2.648622047244094
 21
7.129921259842519
 31
0.0
  0
LINE
  5
2DC0
330
1E
100
AcDbEntity
  8
7
100
AcDbLine
 10
2.648622047244094
 20
7.129921259842519
 30
0.0
 11
2.679133858267716
 21
7.151574803149606
 31
0.0
  0
LINE
  5
2DC1
330
1E
100
AcDbEntity
  8
7
100
AcDbLine
 10
2.679133858267716
 20
7.151574803149606
 30
0.0
 11
2.704724409448818
 21
7.18011811023622
 31
0.0
  0
LINE
  5
2DC2
330
1E
100
AcDbEntity
  8
7
100
AcDbLine
 10
2.704724409448818
 20
7.18011811023622
 30
0.0
 11
2.722440944881889
 21
7.213582677165354
 31
0.0
  0
LINE
  5
2DC3
330
1E
100
AcDbEntity
  8
7
100
AcDbLine
 10
2.722440944881889
 20
7.213582677165354
 30
0.0
 11
2.731299212598425
 21
7.25
 31
0.0
  0
LINE
  5
2DC4
330
1E
100
AcDbEntity
  8
7
100
AcDbLine
 10
2.731299212598425
 20
7.25
 30
0.0
 11
2.731299212598425
 21
7.287401574803149
 31
0.0
  0
LINE
  5
2DC5
330
1E
100
AcDbEntity
  8
7
100
AcDbLine
 10
2.731299212598425
 20
7.287401574803149
 30
0.0
 11
2.722440944881889
 21
7.323818897637795
 31
0.0
  0
LINE
  5
2DC6
330
1E
100
AcDbEntity
  8
7
100
AcDbLine
 10
2.722440944881889
 20
7.323818897637795
 30
0.0
 11
2.704724409448818
 21
7.357283464566928
 31
0.0
  0
LINE
  5
2DC7
330
1E
100
AcDbEntity
  8
7
100
AcDbLine
 10
2.704724409448818
 20
7.357283464566928
 30
0.0
 11
2.679133858267716
 21
7.385826771653543
 31
0.0
  0
LINE
  5
2DC8
330
1E
100
AcDbEntity
  8
7
100
AcDbLine
 10
2.679133858267716
 20
7.385826771653543
 30
0.0
 11
2.648622047244094
 21
7.407480314960629
 31
0.0
  0
LINE
  5
2DC9
330
1E
100
AcDbEntity
  8
7
100
AcDbLine
 10
2.648622047244094
 20
7.407480314960629
 30
0.0
 11
2.613188976377952
 21
7.420275590551181
 31
0.0
  0
LINE
  5
2DCA
330
1E
100
AcDbEntity
  8
7
100
AcDbLine
 10
2.613188976377952
 20
7.420275590551181
 30
0.0
 11
2.575787401574803
 21
7.4251968503937
 31
0.0
  0
LINE
  5
2DCB
330
1E
100
AcDbEntity
  8
7
100
AcDbLine
 10
2.486220472440944
 20
4.067913385826771
 30
0.0
 11
2.458661417322834
 21
4.062992125984251
 31
0.0
  0
LINE
  5
2DCC
330
1E
100
AcDbEntity
  8
7
100
AcDbLine
 10
2.458661417322834
 20
4.062992125984251
 30
0.0
 11
2.43503937007874
 21
4.049212598425196
 31
0.0
  0
LINE
  5
2DCD
330
1E
100
AcDbEntity
  8
7
100
AcDbLine
 10
2.43503937007874
 20
4.049212598425196
 30
0.0
 11
2.417322834645669
 21
4.02755905511811
 31
0.0
  0
LINE
  5
2DCE
330
1E
100
AcDbEntity
  8
7
100
AcDbLine
 10
2.417322834645669
 20
4.02755905511811
 30
0.0
 11
2.40748031496063
 21
4.001968503937007
 31
0.0
  0
LINE
  5
2DCF
330
1E
100
AcDbEntity
  8
7
100
AcDbLine
 10
2.40748031496063
 20
4.001968503937007
 30
0.0
 11
2.40748031496063
 21
3.974409448818897
 31
0.0
  0
LINE
  5
2DD0
330
1E
100
AcDbEntity
  8
7
100
AcDbLine
 10
2.40748031496063
 20
3.974409448818897
 30
0.0
 11
2.417322834645669
 21
3.948818897637795
 31
0.0
  0
LINE
  5
2DD1
330
1E
100
AcDbEntity
  8
7
100
AcDbLine
 10
2.417322834645669
 20
3.948818897637795
 30
0.0
 11
2.43503937007874
 21
3.927165354330708
 31
0.0
  0
LINE
  5
2DD2
330
1E
100
AcDbEntity
  8
7
100
AcDbLine
 10
2.43503937007874
 20
3.927165354330708
 30
0.0
 11
2.458661417322834
 21
3.913385826771653
 31
0.0
  0
LINE
  5
2DD3
330
1E
100
AcDbEntity
  8
7
100
AcDbLine
 10
2.458661417322834
 20
3.913385826771653
 30
0.0
 11
2.486220472440944
 21
3.908464566929133
 31
0.0
  0
LINE
  5
2DD4
330
1E
100
AcDbEntity
  8
7
100
AcDbLine
 10
2.575787401574803
 20
3.908464566929133
 30
0.0
 11
2.603346456692913
 21
3.913385826771653
 31
0.0
  0
LINE
  5
2DD5
330
1E
100
AcDbEntity
  8
7
100
AcDbLine
 10
2.603346456692913
 20
3.913385826771653
 30
0.0
 11
2.626968503937007
 21
3.927165354330708
 31
0.0
  0
LINE
  5
2DD6
330
1E
100
AcDbEntity
  8
7
100
AcDbLine
 10
2.626968503937007
 20
3.927165354330708
 30
0.0
 11
2.644685039370078
 21
3.948818897637795
 31
0.0
  0
LINE
  5
2DD7
330
1E
100
AcDbEntity
  8
7
100
AcDbLine
 10
2.644685039370078
 20
3.948818897637795
 30
0.0
 11
2.654527559055118
 21
3.974409448818897
 31
0.0
  0
LINE
  5
2DD8
330
1E
100
AcDbEntity
  8
7
100
AcDbLine
 10
2.654527559055118
 20
3.974409448818897
 30
0.0
 11
2.654527559055118
 21
4.001968503937007
 31
0.0
  0
LINE
  5
2DD9
330
1E
100
AcDbEntity
  8
7
100
AcDbLine
 10
2.654527559055118
 20
4.001968503937007
 30
0.0
 11
2.644685039370078
 21
4.02755905511811
 31
0.0
  0
LINE
  5
2DDA
330
1E
100
AcDbEntity
  8
7
100
AcDbLine
 10
2.644685039370078
 20
4.02755905511811
 30
0.0
 11
2.626968503937007
 21
4.049212598425196
 31
0.0
  0
LINE
  5
2DDB
330
1E
100
AcDbEntity
  8
7
100
AcDbLine
 10
2.626968503937007
 20
4.049212598425196
 30
0.0
 11
2.603346456692913
 21
4.062992125984251
 31
0.0
  0
LINE
  5
2DDC
330
1E
100
AcDbEntity
  8
7
100
AcDbLine
 10
2.603346456692913
 20
4.062992125984251
 30
0.0
 11
2.575787401574803
 21
4.067913385826771
 31
0.0
  0
LINE
  5
2DDD
330
1E
100
AcDbEntity
  8
7
100
AcDbLine
 10
2.575787401574803
 20
7.188976377952755
 30
0.0
 11
2.603346456692913
 21
7.193897637795275
 31
0.0
  0
LINE
  5
2DDE
330
1E
100
AcDbEntity
  8
7
100
AcDbLine
 10
2.603346456692913
 20
7.193897637795275
 30
0.0
 11
2.626968503937007
 21
7.20767716535433
 31
0.0
  0
LINE
  5
2DDF
330
1E
100
AcDbEntity
  8
7
100
AcDbLine
 10
2.626968503937007
 20
7.20767716535433
 30
0.0
 11
2.644685039370078
 21
7.229330708661417
 31
0.0
  0
LINE
  5
2DE0
330
1E
100
AcDbEntity
  8
7
100
AcDbLine
 10
2.644685039370078
 20
7.229330708661417
 30
0.0
 11
2.654527559055118
 21
7.254921259842519
 31
0.0
  0
LINE
  5
2DE1
330
1E
100
AcDbEntity
  8
7
100
AcDbLine
 10
2.654527559055118
 20
7.254921259842519
 30
0.0
 11
2.654527559055118
 21
7.282480314960629
 31
0.0
  0
LINE
  5
2DE2
330
1E
100
AcDbEntity
  8
7
100
AcDbLine
 10
2.654527559055118
 20
7.282480314960629
 30
0.0
 11
2.644685039370078
 21
7.308070866141732
 31
0.0
  0
LINE
  5
2DE3
330
1E
100
AcDbEntity
  8
7
100
AcDbLine
 10
2.644685039370078
 20
7.308070866141732
 30
0.0
 11
2.626968503937007
 21
7.329724409448818
 31
0.0
  0
LINE
  5
2DE4
330
1E
100
AcDbEntity
  8
7
100
AcDbLine
 10
2.626968503937007
 20
7.329724409448818
 30
0.0
 11
2.603346456692913
 21
7.343503937007874
 31
0.0
  0
LINE
  5
2DE5
330
1E
100
AcDbEntity
  8
7
100
AcDbLine
 10
2.603346456692913
 20
7.343503937007874
 30
0.0
 11
2.575787401574803
 21
7.348425196850393
 31
0.0
  0
LINE
  5
2DE6
330
1E
100
AcDbEntity
  8
7
100
AcDbLine
 10
2.417322834645669
 20
7.229330708661417
 30
0.0
 11
2.43503937007874
 21
7.20767716535433
 31
0.0
  0
LINE
  5
2DE7
330
1E
100
AcDbEntity
  8
7
100
AcDbLine
 10
2.43503937007874
 20
7.20767716535433
 30
0.0
 11
2.458661417322834
 21
7.193897637795275
 31
0.0
  0
LINE
  5
2DE8
330
1E
100
AcDbEntity
  8
7
100
AcDbLine
 10
2.458661417322834
 20
7.193897637795275
 30
0.0
 11
2.486220472440944
 21
7.188976377952755
 31
0.0
  0
LINE
  5
2DE9
330
1E
100
AcDbEntity
  8
7
100
AcDbLine
 10
2.486220472440944
 20
7.348425196850393
 30
0.0
 11
2.458661417322834
 21
7.343503937007874
 31
0.0
  0
LINE
  5
2DEA
330
1E
100
AcDbEntity
  8
7
100
AcDbLine
 10
2.458661417322834
 20
7.343503937007874
 30
0.0
 11
2.43503937007874
 21
7.329724409448818
 31
0.0
  0
LINE
  5
2DEB
330
1E
100
AcDbEntity
  8
7
100
AcDbLine
 10
2.43503937007874
 20
7.329724409448818
 30
0.0
 11
2.417322834645669
 21
7.308070866141732
 31
0.0
  0
LINE
  5
2DEC
330
1E
100
AcDbEntity
  8
7
100
AcDbLine
 10
2.417322834645669
 20
7.308070866141732
 30
0.0
 11
2.40748031496063
 21
7.282480314960629
 31
0.0
  0
LINE
  5
2DED
330
1E
100
AcDbEntity
  8
7
100
AcDbLine
 10
2.40748031496063
 20
7.282480314960629
 30
0.0
 11
2.40748031496063
 21
7.254921259842519
 31
0.0
  0
LINE
  5
2DEE
330
1E
100
AcDbEntity
  8
7
100
AcDbLine
 10
2.40748031496063
 20
7.254921259842519
 30
0.0
 11
2.417322834645669
 21
7.229330708661417
 31
0.0
  0
LINE
  5
2DEF
330
1E
100
AcDbEntity
  8
7
100
AcDbLine
 10
2.611220472440944
 20
5.511811023622047
 30
0.0
 11
2.637795275590551
 21
5.534448818897637
 31
0.0
  0
LINE
  5
2DF0
330
1E
100
AcDbEntity
  8
7
100
AcDbLine
 10
2.637795275590551
 20
5.534448818897637
 30
0.0
 11
2.656496062992125
 21
5.562992125984251
 31
0.0
  0
LINE
  5
2DF1
330
1E
100
AcDbEntity
  8
7
100
AcDbLine
 10
2.656496062992125
 20
5.562992125984251
 30
0.0
 11
2.669291338582677
 21
5.594488188976377
 31
0.0
  0
LINE
  5
2DF2
330
1E
100
AcDbEntity
  8
7
100
AcDbLine
 10
2.669291338582677
 20
5.594488188976377
 30
0.0
 11
2.673228346456693
 21
5.628937007874015
 31
0.0
  0
LINE
  5
2DF3
330
1E
100
AcDbEntity
  8
7
100
AcDbLine
 10
2.480314960629921
 20
5.76279527559055
 30
0.0
 11
2.449803149606299
 21
5.746062992125984
 31
0.0
  0
LINE
  5
2DF4
330
1E
100
AcDbEntity
  8
7
100
AcDbLine
 10
2.449803149606299
 20
5.746062992125984
 30
0.0
 11
2.423228346456693
 21
5.723425196850393
 31
0.0
  0
LINE
  5
2DF5
330
1E
100
AcDbEntity
  8
7
100
AcDbLine
 10
2.423228346456693
 20
5.723425196850393
 30
0.0
 11
2.404527559055118
 21
5.694881889763779
 31
0.0
  0
LINE
  5
2DF6
330
1E
100
AcDbEntity
  8
7
100
AcDbLine
 10
2.404527559055118
 20
5.694881889763779
 30
0.0
 11
2.391732283464567
 21
5.663385826771653
 31
0.0
  0
LINE
  5
2DF7
330
1E
100
AcDbEntity
  8
7
100
AcDbLine
 10
2.391732283464567
 20
5.663385826771653
 30
0.0
 11
2.387795275590551
 21
5.628937007874015
 31
0.0
  0
LINE
  5
2DF8
330
1E
100
AcDbEntity
  8
7
100
AcDbLine
 10
2.387795275590551
 20
5.628937007874015
 30
0.0
 11
2.391732283464567
 21
5.594488188976377
 31
0.0
  0
LINE
  5
2DF9
330
1E
100
AcDbEntity
  8
7
100
AcDbLine
 10
2.391732283464567
 20
5.594488188976377
 30
0.0
 11
2.404527559055118
 21
5.562992125984251
 31
0.0
  0
LINE
  5
2DFA
330
1E
100
AcDbEntity
  8
7
100
AcDbLine
 10
2.404527559055118
 20
5.562992125984251
 30
0.0
 11
2.423228346456693
 21
5.534448818897637
 31
0.0
  0
LINE
  5
2DFB
330
1E
100
AcDbEntity
  8
7
100
AcDbLine
 10
2.423228346456693
 20
5.534448818897637
 30
0.0
 11
2.449803149606299
 21
5.511811023622047
 31
0.0
  0
LINE
  5
2DFC
330
1E
100
AcDbEntity
  8
7
100
AcDbLine
 10
2.449803149606299
 20
5.511811023622047
 30
0.0
 11
2.480314960629921
 21
5.49507874015748
 31
0.0
  0
LINE
  5
2DFD
330
1E
100
AcDbEntity
  8
7
100
AcDbLine
 10
2.480314960629921
 20
5.49507874015748
 30
0.0
 11
2.513779527559055
 21
5.487204724409449
 31
0.0
  0
LINE
  5
2DFE
330
1E
100
AcDbEntity
  8
7
100
AcDbLine
 10
2.513779527559055
 20
5.487204724409449
 30
0.0
 11
2.547244094488188
 21
5.487204724409449
 31
0.0
  0
LINE
  5
2DFF
330
1E
100
AcDbEntity
  8
7
100
AcDbLine
 10
2.547244094488188
 20
5.487204724409449
 30
0.0
 11
2.580708661417323
 21
5.49507874015748
 31
0.0
  0
LINE
  5
2E00
330
1E
100
AcDbEntity
  8
7
100
AcDbLine
 10
2.580708661417323
 20
5.49507874015748
 30
0.0
 11
2.611220472440944
 21
5.511811023622047
 31
0.0
  0
LINE
  5
2E01
330
1E
100
AcDbEntity
  8
7
100
AcDbLine
 10
2.673228346456693
 20
5.628937007874015
 30
0.0
 11
2.669291338582677
 21
5.663385826771653
 31
0.0
  0
LINE
  5
2E02
330
1E
100
AcDbEntity
  8
7
100
AcDbLine
 10
2.669291338582677
 20
5.663385826771653
 30
0.0
 11
2.656496062992125
 21
5.694881889763779
 31
0.0
  0
LINE
  5
2E03
330
1E
100
AcDbEntity
  8
7
100
AcDbLine
 10
2.656496062992125
 20
5.694881889763779
 30
0.0
 11
2.637795275590551
 21
5.723425196850393
 31
0.0
  0
LINE
  5
2E04
330
1E
100
AcDbEntity
  8
7
100
AcDbLine
 10
2.637795275590551
 20
5.723425196850393
 30
0.0
 11
2.611220472440944
 21
5.746062992125984
 31
0.0
  0
LINE
  5
2E05
330
1E
100
AcDbEntity
  8
7
100
AcDbLine
 10
2.611220472440944
 20
5.746062992125984
 30
0.0
 11
2.580708661417323
 21
5.76279527559055
 31
0.0
  0
LINE
  5
2E06
330
1E
100
AcDbEntity
  8
7
100
AcDbLine
 10
2.580708661417323
 20
5.76279527559055
 30
0.0
 11
2.547244094488188
 21
5.770669291338582
 31
0.0
  0
LINE
  5
2E07
330
1E
100
AcDbEntity
  8
7
100
AcDbLine
 10
2.547244094488188
 20
5.770669291338582
 30
0.0
 11
2.513779527559055
 21
5.770669291338582
 31
0.0
  0
LINE
  5
2E08
330
1E
100
AcDbEntity
  8
7
100
AcDbLine
 10
2.513779527559055
 20
5.770669291338582
 30
0.0
 11
2.480314960629921
 21
5.76279527559055
 31
0.0
  0
LINE
  5
2E09
330
1E
100
AcDbEntity
  8
7
100
AcDbLine
 10
2.549212598425196
 20
5.553149606299212
 30
0.0
 11
2.572834645669291
 21
5.563976377952755
 31
0.0
  0
LINE
  5
2E0A
330
1E
100
AcDbEntity
  8
7
100
AcDbLine
 10
2.572834645669291
 20
5.563976377952755
 30
0.0
 11
2.591535433070866
 21
5.580708661417323
 31
0.0
  0
LINE
  5
2E0B
330
1E
100
AcDbEntity
  8
7
100
AcDbLine
 10
2.591535433070866
 20
5.580708661417323
 30
0.0
 11
2.604330708661417
 21
5.603346456692913
 31
0.0
  0
LINE
  5
2E0C
330
1E
100
AcDbEntity
  8
7
100
AcDbLine
 10
2.604330708661417
 20
5.603346456692913
 30
0.0
 11
2.608267716535433
 21
5.628937007874015
 31
0.0
  0
LINE
  5
2E0D
330
1E
100
AcDbEntity
  8
7
100
AcDbLine
 10
2.604330708661417
 20
5.654527559055118
 30
0.0
 11
2.591535433070866
 21
5.677165354330708
 31
0.0
  0
LINE
  5
2E0E
330
1E
100
AcDbEntity
  8
7
100
AcDbLine
 10
2.591535433070866
 20
5.677165354330708
 30
0.0
 11
2.572834645669291
 21
5.693897637795275
 31
0.0
  0
LINE
  5
2E0F
330
1E
100
AcDbEntity
  8
7
100
AcDbLine
 10
2.572834645669291
 20
5.693897637795275
 30
0.0
 11
2.549212598425196
 21
5.704724409448818
 31
0.0
  0
LINE
  5
2E10
330
1E
100
AcDbEntity
  8
7
100
AcDbLine
 10
2.549212598425196
 20
5.704724409448818
 30
0.0
 11
2.523622047244094
 21
5.706692913385826
 31
0.0
  0
LINE
  5
2E11
330
1E
100
AcDbEntity
  8
7
100
AcDbLine
 10
2.523622047244094
 20
5.706692913385826
 30
0.0
 11
2.499015748031496
 21
5.699803149606299
 31
0.0
  0
LINE
  5
2E12
330
1E
100
AcDbEntity
  8
7
100
AcDbLine
 10
2.499015748031496
 20
5.699803149606299
 30
0.0
 11
2.477362204724409
 21
5.686023622047244
 31
0.0
  0
LINE
  5
2E13
330
1E
100
AcDbEntity
  8
7
100
AcDbLine
 10
2.477362204724409
 20
5.686023622047244
 30
0.0
 11
2.46259842519685
 21
5.666338582677165
 31
0.0
  0
LINE
  5
2E14
330
1E
100
AcDbEntity
  8
7
100
AcDbLine
 10
2.46259842519685
 20
5.666338582677165
 30
0.0
 11
2.453740157480315
 21
5.641732283464566
 31
0.0
  0
LINE
  5
2E15
330
1E
100
AcDbEntity
  8
7
100
AcDbLine
 10
2.453740157480315
 20
5.641732283464566
 30
0.0
 11
2.453740157480315
 21
5.616141732283464
 31
0.0
  0
LINE
  5
2E16
330
1E
100
AcDbEntity
  8
7
100
AcDbLine
 10
2.453740157480315
 20
5.616141732283464
 30
0.0
 11
2.46259842519685
 21
5.591535433070865
 31
0.0
  0
LINE
  5
2E17
330
1E
100
AcDbEntity
  8
7
100
AcDbLine
 10
2.46259842519685
 20
5.591535433070865
 30
0.0
 11
2.477362204724409
 21
5.571850393700787
 31
0.0
  0
LINE
  5
2E18
330
1E
100
AcDbEntity
  8
7
100
AcDbLine
 10
2.477362204724409
 20
5.571850393700787
 30
0.0
 11
2.499015748031496
 21
5.558070866141732
 31
0.0
  0
LINE
  5
2E19
330
1E
100
AcDbEntity
  8
7
100
AcDbLine
 10
2.499015748031496
 20
5.558070866141732
 30
0.0
 11
2.523622047244094
 21
5.551181102362204
 31
0.0
  0
LINE
  5
2E1A
330
1E
100
AcDbEntity
  8
7
100
AcDbLine
 10
2.523622047244094
 20
5.551181102362204
 30
0.0
 11
2.549212598425196
 21
5.553149606299212
 31
0.0
  0
LINE
  5
2E1B
330
1E
100
AcDbEntity
  8
7
100
AcDbLine
 10
2.891732283464567
 20
5.838582677165354
 30
0.0
 11
2.96751968503937
 21
5.895669291338582
 31
0.0
  0
LINE
  5
2E1C
330
1E
100
AcDbEntity
  8
7
100
AcDbLine
 10
2.96751968503937
 20
5.895669291338582
 30
0.0
 11
3.035433070866141
 21
5.963582677165354
 31
0.0
  0
LINE
  5
2E1D
330
1E
100
AcDbEntity
  8
7
100
AcDbLine
 10
2.025590551181102
 20
5.963582677165354
 30
0.0
 11
2.093503937007874
 21
5.895669291338582
 31
0.0
  0
LINE
  5
2E1E
330
1E
100
AcDbEntity
  8
7
100
AcDbLine
 10
2.093503937007874
 20
5.895669291338582
 30
0.0
 11
2.169291338582677
 21
5.838582677165354
 31
0.0
  0
LINE
  5
2E1F
330
1E
100
AcDbEntity
  8
7
100
AcDbLine
 10
3.035433070866141
 20
5.293307086614173
 30
0.0
 11
2.96751968503937
 21
5.361220472440945
 31
0.0
  0
LINE
  5
2E20
330
1E
100
AcDbEntity
  8
7
100
AcDbLine
 10
2.96751968503937
 20
5.361220472440945
 30
0.0
 11
2.891732283464567
 21
5.418307086614173
 31
0.0
  0
LINE
  5
2E21
330
1E
100
AcDbEntity
  8
7
100
AcDbLine
 10
2.169291338582677
 20
5.418307086614173
 30
0.0
 11
2.093503937007874
 21
5.361220472440945
 31
0.0
  0
LINE
  5
2E22
330
1E
100
AcDbEntity
  8
7
100
AcDbLine
 10
2.093503937007874
 20
5.361220472440945
 30
0.0
 11
2.025590551181102
 21
5.293307086614173
 31
0.0
  0
LINE
  5
2E23
330
1E
100
AcDbEntity
  8
7
100
AcDbLine
 10
2.891732283464567
 20
4.309055118110236
 30
0.0
 11
2.96751968503937
 21
4.366141732283464
 31
0.0
  0
LINE
  5
2E24
330
1E
100
AcDbEntity
  8
7
100
AcDbLine
 10
2.96751968503937
 20
4.366141732283464
 30
0.0
 11
3.035433070866141
 21
4.434055118110236
 31
0.0
  0
LINE
  5
2E25
330
1E
100
AcDbEntity
  8
7
100
AcDbLine
 10
2.025590551181102
 20
4.434055118110236
 30
0.0
 11
2.093503937007874
 21
4.366141732283464
 31
0.0
  0
LINE
  5
2E26
330
1E
100
AcDbEntity
  8
7
100
AcDbLine
 10
2.093503937007874
 20
4.366141732283464
 30
0.0
 11
2.169291338582677
 21
4.309055118110236
 31
0.0
  0
LINE
  5
2E27
330
1E
100
AcDbEntity
  8
3
100
AcDbLine
 10
2.122047244094488
 20
5.594488188976377
 30
0.0
 11
2.125984251968504
 21
5.585629921259842
 31
0.0
  0
LINE
  5
2E28
330
1E
100
AcDbEntity
  8
3
100
AcDbLine
 10
2.125984251968504
 20
5.585629921259842
 30
0.0
 11
2.134842519685039
 21
5.581692913385826
 31
0.0
  0
LINE
  5
2E29
330
1E
100
AcDbEntity
  8
3
100
AcDbLine
 10
2.08759842519685
 20
5.634842519685039
 30
0.0
 11
2.086614173228346
 21
5.636811023622047
 31
0.0
  0
LINE
  5
2E2A
330
1E
100
AcDbEntity
  8
3
100
AcDbLine
 10
2.086614173228346
 20
5.636811023622047
 30
0.0
 11
2.084645669291338
 21
5.63779527559055
 31
0.0
  0
LINE
  5
2E2B
330
1E
100
AcDbEntity
  8
3
100
AcDbLine
 10
2.096456692913386
 20
5.581692913385826
 30
0.0
 11
2.105314960629921
 21
5.585629921259842
 31
0.0
  0
LINE
  5
2E2C
330
1E
100
AcDbEntity
  8
3
100
AcDbLine
 10
2.105314960629921
 20
5.585629921259842
 30
0.0
 11
2.109251968503937
 21
5.594488188976377
 31
0.0
  0
LINE
  5
2E2D
330
1E
100
AcDbEntity
  8
3
100
AcDbLine
 10
2.109251968503937
 20
5.640748031496062
 30
0.0
 11
2.105314960629921
 21
5.649606299212598
 31
0.0
  0
LINE
  5
2E2E
330
1E
100
AcDbEntity
  8
3
100
AcDbLine
 10
2.105314960629921
 20
5.649606299212598
 30
0.0
 11
2.096456692913386
 21
5.653543307086613
 31
0.0
  0
LINE
  5
2E2F
330
1E
100
AcDbEntity
  8
3
100
AcDbLine
 10
1.904527559055118
 20
5.626968503937008
 30
0.0
 11
1.907480314960629
 21
5.627952755905512
 31
0.0
  0
LINE
  5
2E30
330
1E
100
AcDbEntity
  8
3
100
AcDbLine
 10
1.907480314960629
 20
5.627952755905512
 30
0.0
 11
1.908464566929133
 21
5.630905511811024
 31
0.0
  0
LINE
  5
2E31
330
1E
100
AcDbEntity
  8
3
100
AcDbLine
 10
1.908464566929133
 20
5.654527559055118
 30
0.0
 11
1.907480314960629
 21
5.657480314960629
 31
0.0
  0
LINE
  5
2E32
330
1E
100
AcDbEntity
  8
3
100
AcDbLine
 10
1.907480314960629
 20
5.657480314960629
 30
0.0
 11
1.904527559055118
 21
5.658464566929134
 31
0.0
  0
LINE
  5
2E33
330
1E
100
AcDbEntity
  8
3
100
AcDbLine
 10
1.918307086614173
 20
5.611220472440945
 30
0.0
 11
1.934055118110236
 21
5.615157480314961
 31
0.0
  0
LINE
  5
2E34
330
1E
100
AcDbEntity
  8
3
100
AcDbLine
 10
1.934055118110236
 20
5.615157480314961
 30
0.0
 11
1.945866141732283
 21
5.626968503937008
 31
0.0
  0
LINE
  5
2E35
330
1E
100
AcDbEntity
  8
3
100
AcDbLine
 10
1.945866141732283
 20
5.626968503937008
 30
0.0
 11
1.949803149606299
 21
5.642716535433071
 31
0.0
  0
LINE
  5
2E36
330
1E
100
AcDbEntity
  8
3
100
AcDbLine
 10
1.949803149606299
 20
5.642716535433071
 30
0.0
 11
1.945866141732283
 21
5.658464566929134
 31
0.0
  0
LINE
  5
2E37
330
1E
100
AcDbEntity
  8
3
100
AcDbLine
 10
1.945866141732283
 20
5.658464566929134
 30
0.0
 11
1.934055118110236
 21
5.670275590551181
 31
0.0
  0
LINE
  5
2E38
330
1E
100
AcDbEntity
  8
3
100
AcDbLine
 10
2.160433070866141
 20
5.581692913385826
 30
0.0
 11
2.169291338582677
 21
5.585629921259842
 31
0.0
  0
LINE
  5
2E39
330
1E
100
AcDbEntity
  8
3
100
AcDbLine
 10
2.169291338582677
 20
5.585629921259842
 30
0.0
 11
2.173228346456693
 21
5.594488188976377
 31
0.0
  0
LINE
  5
2E3A
330
1E
100
AcDbEntity
  8
3
100
AcDbLine
 10
2.154527559055118
 20
5.598425196850393
 30
0.0
 11
2.156496062992125
 21
5.599409448818898
 31
0.0
  0
LINE
  5
2E3B
330
1E
100
AcDbEntity
  8
3
100
AcDbLine
 10
2.156496062992125
 20
5.599409448818898
 30
0.0
 11
2.15748031496063
 21
5.601377952755905
 31
0.0
  0
LINE
  5
2E3C
330
1E
100
AcDbEntity
  8
3
100
AcDbLine
 10
2.146653543307086
 20
5.601377952755905
 30
0.0
 11
2.14763779527559
 21
5.599409448818898
 31
0.0
  0
LINE
  5
2E3D
330
1E
100
AcDbEntity
  8
3
100
AcDbLine
 10
2.14763779527559
 20
5.599409448818898
 30
0.0
 11
2.149606299212598
 21
5.598425196850393
 31
0.0
  0
LINE
  5
2E3E
330
1E
100
AcDbEntity
  8
3
100
AcDbLine
 10
2.084645669291338
 20
5.598425196850393
 30
0.0
 11
2.086614173228346
 21
5.599409448818898
 31
0.0
  0
LINE
  5
2E3F
330
1E
100
AcDbEntity
  8
3
100
AcDbLine
 10
2.086614173228346
 20
5.599409448818898
 30
0.0
 11
2.08759842519685
 21
5.601377952755905
 31
0.0
  0
LINE
  5
2E40
330
1E
100
AcDbEntity
  8
3
100
AcDbLine
 10
2.122047244094488
 20
5.594488188976377
 30
0.0
 11
2.125984251968504
 21
5.585629921259842
 31
0.0
  0
LINE
  5
2E41
330
1E
100
AcDbEntity
  8
3
100
AcDbLine
 10
2.125984251968504
 20
5.585629921259842
 30
0.0
 11
2.134842519685039
 21
5.581692913385826
 31
0.0
  0
LINE
  5
2E42
330
1E
100
AcDbEntity
  8
3
100
AcDbLine
 10
2.08759842519685
 20
5.634842519685039
 30
0.0
 11
2.086614173228346
 21
5.636811023622047
 31
0.0
  0
LINE
  5
2E43
330
1E
100
AcDbEntity
  8
3
100
AcDbLine
 10
2.086614173228346
 20
5.636811023622047
 30
0.0
 11
2.084645669291338
 21
5.63779527559055
 31
0.0
  0
LINE
  5
2E44
330
1E
100
AcDbEntity
  8
3
100
AcDbLine
 10
2.096456692913386
 20
5.581692913385826
 30
0.0
 11
2.105314960629921
 21
5.585629921259842
 31
0.0
  0
LINE
  5
2E45
330
1E
100
AcDbEntity
  8
3
100
AcDbLine
 10
2.105314960629921
 20
5.585629921259842
 30
0.0
 11
2.109251968503937
 21
5.594488188976377
 31
0.0
  0
LINE
  5
2E46
330
1E
100
AcDbEntity
  8
3
100
AcDbLine
 10
2.109251968503937
 20
5.640748031496062
 30
0.0
 11
2.105314960629921
 21
5.649606299212598
 31
0.0
  0
LINE
  5
2E47
330
1E
100
AcDbEntity
  8
3
100
AcDbLine
 10
2.105314960629921
 20
5.649606299212598
 30
0.0
 11
2.096456692913386
 21
5.653543307086613
 31
0.0
  0
LINE
  5
2E48
330
1E
100
AcDbEntity
  8
3
100
AcDbLine
 10
1.904527559055118
 20
5.626968503937008
 30
0.0
 11
1.907480314960629
 21
5.627952755905512
 31
0.0
  0
LINE
  5
2E49
330
1E
100
AcDbEntity
  8
3
100
AcDbLine
 10
1.907480314960629
 20
5.627952755905512
 30
0.0
 11
1.908464566929133
 21
5.630905511811024
 31
0.0
  0
LINE
  5
2E4A
330
1E
100
AcDbEntity
  8
3
100
AcDbLine
 10
1.908464566929133
 20
5.654527559055118
 30
0.0
 11
1.907480314960629
 21
5.657480314960629
 31
0.0
  0
LINE
  5
2E4B
330
1E
100
AcDbEntity
  8
3
100
AcDbLine
 10
1.907480314960629
 20
5.657480314960629
 30
0.0
 11
1.904527559055118
 21
5.658464566929134
 31
0.0
  0
LINE
  5
2E4C
330
1E
100
AcDbEntity
  8
3
100
AcDbLine
 10
1.918307086614173
 20
5.611220472440945
 30
0.0
 11
1.934055118110236
 21
5.615157480314961
 31
0.0
  0
LINE
  5
2E4D
330
1E
100
AcDbEntity
  8
3
100
AcDbLine
 10
1.934055118110236
 20
5.615157480314961
 30
0.0
 11
1.945866141732283
 21
5.626968503937008
 31
0.0
  0
LINE
  5
2E4E
330
1E
100
AcDbEntity
  8
3
100
AcDbLine
 10
1.945866141732283
 20
5.626968503937008
 30
0.0
 11
1.949803149606299
 21
5.642716535433071
 31
0.0
  0
LINE
  5
2E4F
330
1E
100
AcDbEntity
  8
3
100
AcDbLine
 10
1.949803149606299
 20
5.642716535433071
 30
0.0
 11
1.945866141732283
 21
5.658464566929134
 31
0.0
  0
LINE
  5
2E50
330
1E
100
AcDbEntity
  8
3
100
AcDbLine
 10
1.945866141732283
 20
5.658464566929134
 30
0.0
 11
1.934055118110236
 21
5.670275590551181
 31
0.0
  0
LINE
  5
2E51
330
1E
100
AcDbEntity
  8
3
100
AcDbLine
 10
1.934055118110236
 20
5.670275590551181
 30
0.0
 11
1.918307086614173
 21
5.674212598425197
 31
0.0
  0
LINE
  5
2E52
330
1E
100
AcDbEntity
  8
3
100
AcDbLine
 10
2.160433070866141
 20
5.581692913385826
 30
0.0
 11
2.169291338582677
 21
5.585629921259842
 31
0.0
  0
LINE
  5
2E53
330
1E
100
AcDbEntity
  8
3
100
AcDbLine
 10
2.169291338582677
 20
5.585629921259842
 30
0.0
 11
2.173228346456693
 21
5.594488188976377
 31
0.0
  0
LINE
  5
2E54
330
1E
100
AcDbEntity
  8
3
100
AcDbLine
 10
2.154527559055118
 20
5.598425196850393
 30
0.0
 11
2.156496062992125
 21
5.599409448818898
 31
0.0
  0
LINE
  5
2E55
330
1E
100
AcDbEntity
  8
3
100
AcDbLine
 10
2.156496062992125
 20
5.599409448818898
 30
0.0
 11
2.15748031496063
 21
5.601377952755905
 31
0.0
  0
LINE
  5
2E56
330
1E
100
AcDbEntity
  8
3
100
AcDbLine
 10
2.146653543307086
 20
5.601377952755905
 30
0.0
 11
2.14763779527559
 21
5.599409448818898
 31
0.0
  0
LINE
  5
2E57
330
1E
100
AcDbEntity
  8
3
100
AcDbLine
 10
2.14763779527559
 20
5.599409448818898
 30
0.0
 11
2.149606299212598
 21
5.598425196850393
 31
0.0
  0
LINE
  5
2E58
330
1E
100
AcDbEntity
  8
3
100
AcDbLine
 10
2.084645669291338
 20
5.598425196850393
 30
0.0
 11
2.086614173228346
 21
5.599409448818898
 31
0.0
  0
LINE
  5
2E59
330
1E
100
AcDbEntity
  8
3
100
AcDbLine
 10
2.086614173228346
 20
5.599409448818898
 30
0.0
 11
2.08759842519685
 21
5.601377952755905
 31
0.0
  0
LINE
  5
2E67
330
1E
100
AcDbEntity
  8
7
100
AcDbLine
 10
2.608267716535433
 20
5.835629921259842
 30
0.0
 11
2.64763779527559
 21
5.821850393700787
 31
0.0
  0
LINE
  5
2E68
330
1E
100
AcDbEntity
  8
7
100
AcDbLine
 10
2.64763779527559
 20
5.821850393700787
 30
0.0
 11
3.173228346456693
 21
5.821850393700787
 31
0.0
  0
LINE
  5
2E69
330
1E
100
AcDbEntity
  8
7
100
AcDbLine
 10
2.64763779527559
 20
5.821850393700787
 30
0.0
 11
2.650590551181102
 21
5.820866141732283
 31
0.0
  0
LINE
  5
2E6A
330
1E
100
AcDbEntity
  8
7
100
AcDbLine
 10
2.650590551181102
 20
5.820866141732283
 30
0.0
 11
3.174212598425196
 21
5.820866141732283
 31
0.0
  0
LINE
  5
2E6B
330
1E
100
AcDbEntity
  8
7
100
AcDbLine
 10
1.888779527559055
 20
5.821850393700787
 30
0.0
 11
2.414370078740157
 21
5.821850393700787
 31
0.0
  0
LINE
  5
2E6C
330
1E
100
AcDbEntity
  8
7
100
AcDbLine
 10
2.414370078740157
 20
5.821850393700787
 30
0.0
 11
2.452755905511811
 21
5.835629921259842
 31
0.0
  0
LINE
  5
2E6D
330
1E
100
AcDbEntity
  8
7
100
AcDbLine
 10
1.887795275590551
 20
5.820866141732283
 30
0.0
 11
2.411417322834645
 21
5.820866141732283
 31
0.0
  0
LINE
  5
2E6E
330
1E
100
AcDbEntity
  8
7
100
AcDbLine
 10
2.411417322834645
 20
5.820866141732283
 30
0.0
 11
2.414370078740157
 21
5.821850393700787
 31
0.0
  0
LINE
  5
2E6F
330
1E
100
AcDbEntity
  8
7
100
AcDbLine
 10
1.888779527559055
 20
5.435039370078739
 30
0.0
 11
2.414370078740157
 21
5.435039370078739
 31
0.0
  0
LINE
  5
2E70
330
1E
100
AcDbEntity
  8
7
100
AcDbLine
 10
2.414370078740157
 20
5.435039370078739
 30
0.0
 11
2.452755905511811
 21
5.421259842519685
 31
0.0
  0
LINE
  5
2E71
330
1E
100
AcDbEntity
  8
7
100
AcDbLine
 10
2.114173228346456
 20
6.116141732283464
 30
0.0
 11
2.164370078740157
 21
6.116141732283464
 31
0.0
  0
LINE
  5
2E72
330
1E
100
AcDbEntity
  8
7
100
AcDbLine
 10
2.164370078740157
 20
6.116141732283464
 30
0.0
 11
2.261811023622047
 21
6.116141732283464
 31
0.0
  0
LINE
  5
2E73
330
1E
100
AcDbEntity
  8
7
100
AcDbLine
 10
2.459645669291338
 20
6.102362204724409
 30
0.0
 11
2.602362204724409
 21
6.102362204724409
 31
0.0
  0
LINE
  5
2E74
330
1E
100
AcDbEntity
  8
7
100
AcDbLine
 10
2.602362204724409
 20
6.102362204724409
 30
0.0
 11
2.602362204724409
 21
6.037401574803149
 31
0.0
  0
LINE
  5
2E75
330
1E
100
AcDbEntity
  8
7
100
AcDbLine
 10
2.603346456692913
 20
6.103346456692913
 30
0.0
 11
2.458661417322834
 21
6.103346456692913
 31
0.0
  0
LINE
  5
2E76
330
1E
100
AcDbEntity
  8
7
100
AcDbLine
 10
2.458661417322834
 20
6.103346456692913
 30
0.0
 11
2.458661417322834
 21
6.038385826771653
 31
0.0
  0
LINE
  5
2E77
330
1E
100
AcDbEntity
  8
7
100
AcDbLine
 10
2.602362204724409
 20
6.102362204724409
 30
0.0
 11
2.603346456692913
 21
6.103346456692913
 31
0.0
  0
LINE
  5
2E78
330
1E
100
AcDbEntity
  8
7
100
AcDbLine
 10
2.603346456692913
 20
6.103346456692913
 30
0.0
 11
2.603346456692913
 21
6.038385826771653
 31
0.0
  0
LINE
  5
2E79
330
1E
100
AcDbEntity
  8
7
100
AcDbLine
 10
2.721456692913386
 20
6.038385826771653
 30
0.0
 11
2.603346456692913
 21
6.038385826771653
 31
0.0
  0
LINE
  5
2E7A
330
1E
100
AcDbEntity
  8
7
100
AcDbLine
 10
2.603346456692913
 20
6.038385826771653
 30
0.0
 11
2.602362204724409
 21
6.037401574803149
 31
0.0
  0
LINE
  5
2E7B
330
1E
100
AcDbEntity
  8
7
100
AcDbLine
 10
3.094488188976378
 20
6.037401574803149
 30
0.0
 11
3.094488188976378
 21
6.102362204724409
 31
0.0
  0
LINE
  5
2E7C
330
1E
100
AcDbEntity
  8
7
100
AcDbLine
 10
3.094488188976378
 20
6.102362204724409
 30
0.0
 11
3.162401574803149
 21
6.102362204724409
 31
0.0
  0
LINE
  5
2E7D
330
1E
100
AcDbEntity
  8
7
100
AcDbLine
 10
2.459645669291338
 20
4.567913385826771
 30
0.0
 11
2.602362204724409
 21
4.567913385826771
 31
0.0
  0
LINE
  5
2E7E
330
1E
100
AcDbEntity
  8
7
100
AcDbLine
 10
2.602362204724409
 20
4.567913385826771
 30
0.0
 11
2.602362204724409
 21
4.502952755905512
 31
0.0
  0
LINE
  5
2E7F
330
1E
100
AcDbEntity
  8
7
100
AcDbLine
 10
2.603346456692913
 20
4.568897637795275
 30
0.0
 11
2.458661417322834
 21
4.568897637795275
 31
0.0
  0
LINE
  5
2E80
330
1E
100
AcDbEntity
  8
7
100
AcDbLine
 10
2.458661417322834
 20
4.568897637795275
 30
0.0
 11
2.458661417322834
 21
4.503937007874015
 31
0.0
  0
LINE
  5
2E81
330
1E
100
AcDbEntity
  8
7
100
AcDbLine
 10
2.602362204724409
 20
4.567913385826771
 30
0.0
 11
2.603346456692913
 21
4.568897637795275
 31
0.0
  0
LINE
  5
2E82
330
1E
100
AcDbEntity
  8
7
100
AcDbLine
 10
2.603346456692913
 20
4.568897637795275
 30
0.0
 11
2.603346456692913
 21
4.503937007874015
 31
0.0
  0
LINE
  5
2E83
330
1E
100
AcDbEntity
  8
7
100
AcDbLine
 10
2.721456692913386
 20
4.503937007874015
 30
0.0
 11
2.603346456692913
 21
4.503937007874015
 31
0.0
  0
LINE
  5
2E84
330
1E
100
AcDbEntity
  8
7
100
AcDbLine
 10
2.603346456692913
 20
4.503937007874015
 30
0.0
 11
2.602362204724409
 21
4.502952755905512
 31
0.0
  0
LINE
  5
2E85
330
1E
100
AcDbEntity
  8
7
100
AcDbLine
 10
3.094488188976378
 20
4.502952755905512
 30
0.0
 11
3.094488188976378
 21
4.567913385826771
 31
0.0
  0
LINE
  5
2E86
330
1E
100
AcDbEntity
  8
7
100
AcDbLine
 10
3.094488188976378
 20
4.567913385826771
 30
0.0
 11
3.162401574803149
 21
4.567913385826771
 31
0.0
  0
LINE
  5
2E87
330
1E
100
AcDbEntity
  8
7
100
AcDbLine
 10
3.160433070866141
 20
5.229330708661417
 30
0.0
 11
2.993110236220472
 21
5.229330708661417
 31
0.0
  0
LINE
  5
2E88
330
1E
100
AcDbEntity
  8
7
100
AcDbLine
 10
2.993110236220472
 20
5.229330708661417
 30
0.0
 11
2.703740157480315
 21
5.229330708661417
 31
0.0
  0
LINE
  5
2E89
330
1E
100
AcDbEntity
  8
7
100
AcDbLine
 10
1.96751968503937
 20
4.567913385826771
 30
0.0
 11
1.968503937007873
 21
4.568897637795275
 31
0.0
  0
LINE
  5
2E8A
330
1E
100
AcDbEntity
  8
7
100
AcDbLine
 10
1.968503937007873
 20
4.568897637795275
 30
0.0
 11
1.968503937007873
 21
4.503937007874015
 31
0.0
  0
LINE
  5
2E8B
330
1E
100
AcDbEntity
  8
7
100
AcDbLine
 10
2.093503937007874
 20
3.957677165354331
 30
0.0
 11
2.09251968503937
 21
3.974409448818897
 31
0.0
  0
LINE
  5
2E8C
330
1E
100
AcDbEntity
  8
7
100
AcDbLine
 10
2.09251968503937
 20
3.974409448818897
 30
0.0
 11
2.09251968503937
 21
4.096456692913386
 31
0.0
  0
LINE
  5
2E8D
330
1E
100
AcDbEntity
  8
7
100
AcDbLine
 10
2.765748031496062
 20
3.753937007874015
 30
0.0
 11
2.748031496062992
 21
3.753937007874015
 31
0.0
  0
LINE
  5
2E8E
330
1E
100
AcDbEntity
  8
7
100
AcDbLine
 10
2.748031496062992
 20
3.753937007874015
 30
0.0
 11
2.313976377952756
 21
3.753937007874015
 31
0.0
  0
LINE
  5
2E8F
330
1E
100
AcDbEntity
  8
7
100
AcDbLine
 10
2.575787401574803
 20
7.220472440944881
 30
0.0
 11
2.575787401574803
 21
7.188976377952755
 31
0.0
  0
LINE
  5
2E90
330
1E
100
AcDbEntity
  8
7
100
AcDbLine
 10
2.575787401574803
 20
7.188976377952755
 30
0.0
 11
2.486220472440944
 21
7.188976377952755
 31
0.0
  0
LINE
  5
2E91
330
1E
100
AcDbEntity
  8
7
100
AcDbLine
 10
3.207677165354331
 20
5.614173228346456
 30
0.0
 11
3.158464566929133
 21
5.614173228346456
 31
0.0
  0
LINE
  5
2E92
330
1E
100
AcDbEntity
  8
7
100
AcDbLine
 10
3.158464566929133
 20
5.614173228346456
 30
0.0
 11
3.195866141732283
 21
5.662401574803149
 31
0.0
  0
LINE
  5
2E93
330
1E
100
AcDbEntity
  8
7
100
AcDbLine
 10
3.195866141732283
 20
5.662401574803149
 30
0.0
 11
3.195866141732283
 21
5.581692913385826
 31
0.0
  0
LINE
  5
2E94
330
1E
100
AcDbEntity
  8
7
100
AcDbLine
 10
3.133858267716535
 20
5.614173228346456
 30
0.0
 11
3.133858267716535
 21
5.597440944881889
 31
0.0
  0
LINE
  5
2E95
330
1E
100
AcDbEntity
  8
7
100
AcDbLine
 10
3.133858267716535
 20
5.597440944881889
 30
0.0
 11
3.121062992125984
 21
5.581692913385826
 31
0.0
  0
LINE
  5
2E96
330
1E
100
AcDbEntity
  8
7
100
AcDbLine
 10
3.121062992125984
 20
5.581692913385826
 30
0.0
 11
3.095472440944881
 21
5.581692913385826
 31
0.0
  0
LINE
  5
2E97
330
1E
100
AcDbEntity
  8
7
100
AcDbLine
 10
3.095472440944881
 20
5.581692913385826
 30
0.0
 11
3.084645669291338
 21
5.597440944881889
 31
0.0
  0
LINE
  5
2E98
330
1E
100
AcDbEntity
  8
7
100
AcDbLine
 10
3.084645669291338
 20
5.597440944881889
 30
0.0
 11
3.084645669291338
 21
5.645669291338582
 31
0.0
  0
LINE
  5
2E99
330
1E
100
AcDbEntity
  8
7
100
AcDbLine
 10
3.084645669291338
 20
5.645669291338582
 30
0.0
 11
3.095472440944881
 21
5.662401574803149
 31
0.0
  0
LINE
  5
2E9A
330
1E
100
AcDbEntity
  8
7
100
AcDbLine
 10
3.095472440944881
 20
5.662401574803149
 30
0.0
 11
3.121062992125984
 21
5.662401574803149
 31
0.0
  0
LINE
  5
2E9B
330
1E
100
AcDbEntity
  8
7
100
AcDbLine
 10
3.121062992125984
 20
5.662401574803149
 30
0.0
 11
3.133858267716535
 21
5.645669291338582
 31
0.0
  0
LINE
  5
2E9C
330
1E
100
AcDbEntity
  8
7
100
AcDbLine
 10
3.084645669291338
 20
5.614173228346456
 30
0.0
 11
3.095472440944881
 21
5.629921259842519
 31
0.0
  0
LINE
  5
2E9D
330
1E
100
AcDbEntity
  8
7
100
AcDbLine
 10
3.095472440944881
 20
5.629921259842519
 30
0.0
 11
3.121062992125984
 21
5.629921259842519
 31
0.0
  0
LINE
  5
2E9E
330
1E
100
AcDbEntity
  8
7
100
AcDbLine
 10
3.121062992125984
 20
5.629921259842519
 30
0.0
 11
3.133858267716535
 21
5.614173228346456
 31
0.0
  0
LINE
  5
2E9F
330
1E
100
AcDbEntity
  8
7
100
AcDbLine
 10
3.053149606299212
 20
5.590551181102362
 30
0.0
 11
3.059055118110236
 21
5.614173228346456
 31
0.0
  0
LINE
  5
2EA0
330
1E
100
AcDbEntity
  8
7
100
AcDbLine
 10
3.059055118110236
 20
5.614173228346456
 30
0.0
 11
3.059055118110236
 21
5.629921259842519
 31
0.0
  0
LINE
  5
2EA1
330
1E
100
AcDbEntity
  8
7
100
AcDbLine
 10
3.059055118110236
 20
5.629921259842519
 30
0.0
 11
3.053149606299212
 21
5.654527559055118
 31
0.0
  0
LINE
  5
2EA2
330
1E
100
AcDbEntity
  8
7
100
AcDbLine
 10
3.053149606299212
 20
5.654527559055118
 30
0.0
 11
3.040354330708661
 21
5.662401574803149
 31
0.0
  0
LINE
  5
2EA3
330
1E
100
AcDbEntity
  8
7
100
AcDbLine
 10
3.040354330708661
 20
5.662401574803149
 30
0.0
 11
3.028543307086614
 21
5.662401574803149
 31
0.0
  0
LINE
  5
2EA4
330
1E
100
AcDbEntity
  8
7
100
AcDbLine
 10
3.028543307086614
 20
5.662401574803149
 30
0.0
 11
3.015748031496062
 21
5.654527559055118
 31
0.0
  0
LINE
  5
2EA5
330
1E
100
AcDbEntity
  8
7
100
AcDbLine
 10
3.015748031496062
 20
5.654527559055118
 30
0.0
 11
3.008858267716535
 21
5.629921259842519
 31
0.0
  0
LINE
  5
2EA6
330
1E
100
AcDbEntity
  8
7
100
AcDbLine
 10
3.008858267716535
 20
5.629921259842519
 30
0.0
 11
3.009842519685039
 21
5.614173228346456
 31
0.0
  0
LINE
  5
2EA7
330
1E
100
AcDbEntity
  8
7
100
AcDbLine
 10
3.009842519685039
 20
5.614173228346456
 30
0.0
 11
3.015748031496062
 21
5.590551181102362
 31
0.0
  0
LINE
  5
2EA8
330
1E
100
AcDbEntity
  8
7
100
AcDbLine
 10
3.015748031496062
 20
5.590551181102362
 30
0.0
 11
3.028543307086614
 21
5.581692913385826
 31
0.0
  0
LINE
  5
2EA9
330
1E
100
AcDbEntity
  8
7
100
AcDbLine
 10
3.028543307086614
 20
5.581692913385826
 30
0.0
 11
3.040354330708661
 21
5.581692913385826
 31
0.0
  0
LINE
  5
2EAA
330
1E
100
AcDbEntity
  8
7
100
AcDbLine
 10
2.954724409448818
 20
5.655511811023622
 30
0.0
 11
2.960629921259842
 21
5.662401574803149
 31
0.0
  0
LINE
  5
2EAB
330
1E
100
AcDbEntity
  8
7
100
AcDbLine
 10
2.960629921259842
 20
5.662401574803149
 30
0.0
 11
2.960629921259842
 21
5.581692913385826
 31
0.0
  0
LINE
  5
2EAC
330
1E
100
AcDbEntity
  8
7
100
AcDbLine
 10
2.861220472440944
 20
5.581692913385826
 30
0.0
 11
2.861220472440944
 21
5.662401574803149
 31
0.0
  0
LINE
  5
2EAD
330
1E
100
AcDbEntity
  8
7
100
AcDbLine
 10
2.861220472440944
 20
5.662401574803149
 30
0.0
 11
2.910433070866141
 21
5.662401574803149
 31
0.0
  0
LINE
  5
2EAE
330
1E
100
AcDbEntity
  8
7
100
AcDbLine
 10
2.835629921259842
 20
5.597440944881889
 30
0.0
 11
2.822834645669291
 21
5.581692913385826
 31
0.0
  0
LINE
  5
2EAF
330
1E
100
AcDbEntity
  8
7
100
AcDbLine
 10
2.822834645669291
 20
5.581692913385826
 30
0.0
 11
2.799212598425196
 21
5.581692913385826
 31
0.0
  0
LINE
  5
2EB0
330
1E
100
AcDbEntity
  8
7
100
AcDbLine
 10
2.799212598425196
 20
5.581692913385826
 30
0.0
 11
2.786417322834645
 21
5.597440944881889
 31
0.0
  0
LINE
  5
2EB1
330
1E
100
AcDbEntity
  8
7
100
AcDbLine
 10
2.786417322834645
 20
5.597440944881889
 30
0.0
 11
2.786417322834645
 21
5.645669291338582
 31
0.0
  0
LINE
  5
2EB2
330
1E
100
AcDbEntity
  8
7
100
AcDbLine
 10
2.786417322834645
 20
5.645669291338582
 30
0.0
 11
2.799212598425196
 21
5.662401574803149
 31
0.0
  0
LINE
  5
2EB3
330
1E
100
AcDbEntity
  8
7
100
AcDbLine
 10
2.799212598425196
 20
5.662401574803149
 30
0.0
 11
2.823818897637795
 21
5.662401574803149
 31
0.0
  0
LINE
  5
2EB4
330
1E
100
AcDbEntity
  8
3
100
AcDbLine
 10
1.944881889763779
 20
5.591535433070865
 30
0.0
 11
1.972440944881889
 21
5.591535433070865
 31
0.0
  0
LINE
  5
2EB5
330
1E
100
AcDbEntity
  8
3
100
AcDbLine
 10
1.972440944881889
 20
5.591535433070865
 30
0.0
 11
1.977362204724409
 21
5.581692913385826
 31
0.0
  0
LINE
  5
2EB6
330
1E
100
AcDbEntity
  8
3
100
AcDbLine
 10
2.008858267716535
 20
5.581692913385826
 30
0.0
 11
2.008858267716535
 21
5.612204724409449
 31
0.0
  0
LINE
  5
2EB7
330
1E
100
AcDbEntity
  8
3
100
AcDbLine
 10
2.008858267716535
 20
5.612204724409449
 30
0.0
 11
2.02263779527559
 21
5.581692913385826
 31
0.0
  0
LINE
  5
2EB8
330
1E
100
AcDbEntity
  8
3
100
AcDbLine
 10
2.204724409448818
 20
5.581692913385826
 30
0.0
 11
2.186023622047243
 21
5.581692913385826
 31
0.0
  0
LINE
  5
2EB9
330
1E
100
AcDbEntity
  8
3
100
AcDbLine
 10
2.186023622047243
 20
5.581692913385826
 30
0.0
 11
2.186023622047243
 21
5.653543307086613
 31
0.0
  0
LINE
  5
2EBA
330
1E
100
AcDbEntity
  8
3
100
AcDbLine
 10
2.186023622047243
 20
5.653543307086613
 30
0.0
 11
2.204724409448818
 21
5.653543307086613
 31
0.0
  0
LINE
  5
2EBB
330
1E
100
AcDbEntity
  8
3
100
AcDbLine
 10
2.008858267716535
 20
5.581692913385826
 30
0.0
 11
2.008858267716535
 21
5.612204724409449
 31
0.0
  0
LINE
  5
2EBC
330
1E
100
AcDbEntity
  8
3
100
AcDbLine
 10
2.008858267716535
 20
5.612204724409449
 30
0.0
 11
2.02263779527559
 21
5.581692913385826
 31
0.0
  0
ENDSEC
  0
SECTION
  2
OBJECTS
  0
DICTIONARY
  5
C
330
0
100
AcDbDictionary
  3
ACAD_GROUP
350
D
  3
ACAD_LAYOUT
350
19
  3
ACAD_MLINESTYLE
350
16
  3
ACAD_PLOTSETTINGS
350
18
1001
ACAD
1000
TREAT_AS_HARD
1070
     0
  0
DICTIONARY
  5
31A3
330
1E
100
AcDbDictionary
  3
ACAD_LAYOUTSELFREF
350
325C
1001
ACAD
1000
TREAT_AS_HARD
1070
     1
  0
DICTIONARY
  5
31A5
330
1A
100
AcDbDictionary
  3
ACAD_LAYOUTSELFREF
350
325B
1001
ACAD
1000
TREAT_AS_HARD
1070
     1
  0
DICTIONARY
  5
D
102
{ACAD_REACTORS
330
C
102
}
330
C
100
AcDbDictionary
1001
ACAD
1000
TREAT_AS_HARD
1070
     0
  0
DICTIONARY
  5
19
102
{ACAD_REACTORS
330
C
102
}
330
C
100
AcDbDictionary
1001
ACAD
1000
TREAT_AS_HARD
1070
     0
  0
DICTIONARY
  5
16
102
{ACAD_REACTORS
330
C
102
}
330
C
100
AcDbDictionary
  3
STANDARD
350
17
1001
ACAD
1000
TREAT_AS_HARD
1070
     0
  0
DICTIONARY
  5
18
102
{ACAD_REACTORS
330
C
102
}
330
C
100
AcDbDictionary
1001
ACAD
1000
TREAT_AS_HARD
1070
     0
  0
XRECORD
  5
325C
102
{ACAD_REACTORS
330
31A3
102
}
330
31A3
100
AcDbXrecord
340
1E
  0
XRECORD
  5
325B
102
{ACAD_REACTORS
330
31A5
102
}
330
31A5
100
AcDbXrecord
340
1A
  0
MLINESTYLE
  5
17
102
{ACAD_REACTORS
330
16
102
}
330
16
100
AcDbMlineStyle
  2
STANDARD
 70
     0
  3

 62
   256
 51
90.0
 52
90.0
 71
     2
 49
0.5
 62
   256
  6
BYLAYER
 49
-0.5
 62
   256
  6
BYLAYER
  0
ENDSEC
  0
EOF
