  0
SECTION
  2
HEADER
  9
$ACADVER
  1
AC1012
  9
$DWGCODEPAGE
  3
ANSI_1252
  9
$INSBASE
 10
0.0
 20
0.0
 30
0.0
  9
$EXTMIN
 10
4.519062722568424
 20
7.873321342990696
 30
-0.0000000349181948
  9
$EXTMAX
 10
8.144161452429464
 20
8.325319956408204
 30
0.0000000814935746
  9
$LIMMIN
 10
0.0
 20
0.0
  9
$LIMMAX
 10
12.0
 20
9.0
  9
$ORTHOMODE
 70
     0
  9
$REGENMODE
 70
     1
  9
$FILLMODE
 70
     1
  9
$QTEXTMODE
 70
     0
  9
$MIRRTEXT
 70
     1
  9
$DRAGMODE
 70
     2
  9
$LTSCALE
 40
1.0
  9
$OSMODE
 70
    33
  9
$ATTMODE
 70
     1
  9
$TEXTSIZE
 40
0.2
  9
$TRACEWID
 40
0.05
  9
$TEXTSTYLE
  7
STANDARD
  9
$CLAYER
  8
0
  9
$CELTYPE
  6
BYLAYER
  9
$CECOLOR
 62
   256
  9
$CELTSCALE
 40
1.0
  9
$DELOBJ
 70
     1
  9
$DISPSILH
 70
     0
  9
$DIMSCALE
 40
1.0
  9
$DIMASZ
 40
0.18
  9
$DIMEXO
 40
0.0625
  9
$DIMDLI
 40
0.38
  9
$DIMRND
 40
0.0
  9
$DIMDLE
 40
0.0
  9
$DIMEXE
 40
0.18
  9
$DIMTP
 40
0.0
  9
$DIMTM
 40
0.0
  9
$DIMTXT
 40
0.18
  9
$DIMCEN
 40
0.09
  9
$DIMTSZ
 40
0.0
  9
$DIMTOL
 70
     0
  9
$DIMLIM
 70
     0
  9
$DIMTIH
 70
     1
  9
$DIMTOH
 70
     1
  9
$DIMSE1
 70
     0
  9
$DIMSE2
 70
     0
  9
$DIMTAD
 70
     0
  9
$DIMZIN
 70
     0
  9
$DIMBLK
  1

  9
$DIMASO
 70
     1
  9
$DIMSHO
 70
     1
  9
$DIMPOST
  1

  9
$DIMAPOST
  1

  9
$DIMALT
 70
     0
  9
$DIMALTD
 70
     2
  9
$DIMALTF
 40
25.4
  9
$DIMLFAC
 40
1.0
  9
$DIMTOFL
 70
     0
  9
$DIMTVP
 40
0.0
  9
$DIMTIX
 70
     0
  9
$DIMSOXD
 70
     0
  9
$DIMSAH
 70
     0
  9
$DIMBLK1
  1

  9
$DIMBLK2
  1

  9
$DIMSTYLE
  2
STANDARD
  9
$DIMCLRD
 70
     0
  9
$DIMCLRE
 70
     0
  9
$DIMCLRT
 70
     0
  9
$DIMTFAC
 40
1.0
  9
$DIMGAP
 40
0.09
  9
$DIMJUST
 70
     0
  9
$DIMSD1
 70
     0
  9
$DIMSD2
 70
     0
  9
$DIMTOLJ
 70
     1
  9
$DIMTZIN
 70
     0
  9
$DIMALTZ
 70
     0
  9
$DIMALTTZ
 70
     0
  9
$DIMFIT
 70
     5
  9
$DIMUPT
 70
     0
  9
$DIMUNIT
 70
     2
  9
$DIMDEC
 70
     4
  9
$DIMTDEC
 70
     4
  9
$DIMALTU
 70
     2
  9
$DIMALTTD
 70
     2
  9
$DIMTXSTY
  7
STANDARD
  9
$DIMAUNIT
 70
     0
  9
$LUNITS
 70
     2
  9
$LUPREC
 70
     4
  9
$SKETCHINC
 40
0.1
  9
$FILLETRAD
 40
0.0
  9
$AUNITS
 70
     0
  9
$AUPREC
 70
     0
  9
$MENU
  1
acad
  9
$ELEVATION
 40
0.0
  9
$PELEVATION
 40
0.0
  9
$THICKNESS
 40
0.0
  9
$LIMCHECK
 70
     0
  9
$BLIPMODE
 70
     0
  9
$CHAMFERA
 40
0.0
  9
$CHAMFERB
 40
0.0
  9
$CHAMFERC
 40
0.0
  9
$CHAMFERD
 40
0.0
  9
$SKPOLY
 70
     0
  9
$TDCREATE
 40
2451907.331365740
  9
$TDUPDATE
 40
2452347.365861377
  9
$TDINDWG
 40
0.0008633565
  9
$TDUSRTIMER
 40
0.0008633565
  9
$USRTIMER
 70
     1
  9
$ANGBASE
 50
0.0
  9
$ANGDIR
 70
     0
  9
$PDMODE
 70
     0
  9
$PDSIZE
 40
0.0
  9
$PLINEWID
 40
0.0
  9
$COORDS
 70
     2
  9
$SPLFRAME
 70
     0
  9
$SPLINETYPE
 70
     6
  9
$SPLINESEGS
 70
     8
  9
$ATTDIA
 70
     0
  9
$ATTREQ
 70
     1
  9
$HANDLING
 70
  4097
  9
$HANDSEED
  5
2281
  9
$SURFTAB1
 70
     6
  9
$SURFTAB2
 70
     6
  9
$SURFTYPE
 70
     6
  9
$SURFU
 70
     6
  9
$SURFV
 70
     6
  9
$UCSNAME
  2

  9
$UCSORG
 10
0.0
 20
0.0
 30
0.0
  9
$UCSXDIR
 10
1.0
 20
0.0
 30
0.0
  9
$UCSYDIR
 10
0.0
 20
1.0
 30
0.0
  9
$PUCSNAME
  2

  9
$PUCSORG
 10
0.0
 20
0.0
 30
0.0
  9
$PUCSXDIR
 10
1.0
 20
0.0
 30
0.0
  9
$PUCSYDIR
 10
0.0
 20
1.0
 30
0.0
  9
$USERI1
 70
     0
  9
$USERI2
 70
     0
  9
$USERI3
 70
     0
  9
$USERI4
 70
     0
  9
$USERI5
 70
     0
  9
$USERR1
 40
0.0
  9
$USERR2
 40
0.0
  9
$USERR3
 40
0.0
  9
$USERR4
 40
0.0
  9
$USERR5
 40
0.0
  9
$WORLDVIEW
 70
     1
  9
$SHADEDGE
 70
     3
  9
$SHADEDIF
 70
    70
  9
$TILEMODE
 70
     1
  9
$MAXACTVP
 70
    16
  9
$PINSBASE
 10
0.0
 20
0.0
 30
0.0
  9
$PLIMCHECK
 70
     0
  9
$PEXTMIN
 10
1.000000000000000E+20
 20
1.000000000000000E+20
 30
1.000000000000000E+20
  9
$PEXTMAX
 10
-1.000000000000000E+20
 20
-1.000000000000000E+20
 30
-1.000000000000000E+20
  9
$PLIMMIN
 10
0.0
 20
0.0
  9
$PLIMMAX
 10
12.0
 20
9.0
  9
$UNITMODE
 70
     0
  9
$VISRETAIN
 70
     0
  9
$PLINEGEN
 70
     0
  9
$PSLTSCALE
 70
     1
  9
$TREEDEPTH
 70
  3020
  9
$PICKSTYLE
 70
     1
  9
$CMLSTYLE
  2
STANDARD
  9
$CMLJUST
 70
     0
  9
$CMLSCALE
 40
1.0
  9
$SAVEIMAGES
 70
     1
  0
ENDSEC
  0
SECTION
  2
CLASSES
  0
CLASS
  1
ACDBDICTIONARYWDFLT
  2
AcDbDictionaryWithDefault
  3
AutoCAD 2000
 90
    32768
280
     0
281
     0
  0
CLASS
  1
ACDBPLACEHOLDER
  2
AcDbPlaceHolder
  3
AutoCAD 2000
 90
    32768
280
     0
281
     0
  0
CLASS
  1
LAYOUT
  2
AcDbLayout
  3
AutoCAD 2000
 90
    32768
280
     0
281
     0
  0
CLASS
  1
LONG_TRANSACTION
  2
AcDbLongTransaction
  3
AutoCAD 2000
 90
    32768
280
     0
281
     0
  0
CLASS
  1
LWPOLYLINE
  2
AcDbPolyline
  3
AutoCAD 2000
 90
    32768
280
     0
281
     1
  0
CLASS
  1
HATCH
  2
AcDbHatch
  3
AutoCAD 2000
 90
    32768
280
     0
281
     1
  0
CLASS
  1
XRECORD
  2
AcDbXrecord
  3
AutoCAD 2000
 90
    32768
280
     0
281
     0
  0
ENDSEC
  0
SECTION
  2
TABLES
  0
TABLE
  2
VPORT
  5
8
330
0
100
AcDbSymbolTable
 70
     3
  0
VPORT
  5
227C
330
8
100
AcDbSymbolTableRecord
100
AcDbViewportTableRecord
  2
*ACTIVE
 70
     0
 10
0.0
 20
0.0
 11
1.0
 21
1.0
 12
6.331612087498944
 22
8.09932064969945
 13
0.0
 23
0.0
 14
1.0
 24
1.0
 15
0.0
 25
0.0
 16
0.0
 26
0.0
 36
1.0
 17
0.0
 27
0.0
 37
0.0
 40
2.265243639420547
 41
1.608179419525066
 42
50.0
 43
0.0
 44
0.0
 50
0.0
 51
0.0
 71
     0
 72
   100
 73
     1
 74
     1
 75
     0
 76
     0
 77
     0
 78
     0
  0
ENDTAB
  0
TABLE
  2
LTYPE
  5
5
330
0
100
AcDbSymbolTable
 70
    25
  0
LTYPE
  5
13
330
5
100
AcDbSymbolTableRecord
100
AcDbLinetypeTableRecord
  2
BYBLOCK
 70
     0
  3

 72
    65
 73
     0
 40
0.0
  0
LTYPE
  5
14
330
5
100
AcDbSymbolTableRecord
100
AcDbLinetypeTableRecord
  2
BYLAYER
 70
     0
  3

 72
    65
 73
     0
 40
0.0
  0
LTYPE
  5
15
330
5
100
AcDbSymbolTableRecord
100
AcDbLinetypeTableRecord
  2
CONTINUOUS
 70
     0
  3
Solid line
 72
    65
 73
     0
 40
0.0
  0
LTYPE
  5
22
330
5
100
AcDbSymbolTableRecord
100
AcDbLinetypeTableRecord
  2
BORDER
 70
     0
  3
__ __ . __ __ . __ __ . __ __ . __ __ . __ __ .
 72
    65
 73
     6
 40
1.75
 49
0.5
 74
     0
 49
-0.25
 74
     0
 49
0.5
 74
     0
 49
-0.25
 74
     0
 49
0.5
 74
     0
 49
-0.25
 74
     0
  0
LTYPE
  5
23
330
5
100
AcDbSymbolTableRecord
100
AcDbLinetypeTableRecord
  2
BORDER2
 70
     0
  3
__.__.__.__.__.__.__.__.__.__.__.__.__.__.__.__
 72
    65
 73
     6
 40
0.875
 49
0.25
 74
     0
 49
-0.125
 74
     0
 49
0.25
 74
     0
 49
-0.125
 74
     0
 49
0.25
 74
     0
 49
-0.125
 74
     0
  0
LTYPE
  5
24
330
5
100
AcDbSymbolTableRecord
100
AcDbLinetypeTableRecord
  2
BORDERX2
 70
     0
  3
____  ____  .  ____  ____  .  
 72
    65
 73
     6
 40
3.5
 49
1.0
 74
     0
 49
-0.5
 74
     0
 49
1.0
 74
     0
 49
-0.5
 74
     0
 49
1.0
 74
     0
 49
-0.5
 74
     0
  0
LTYPE
  5
25
330
5
100
AcDbSymbolTableRecord
100
AcDbLinetypeTableRecord
  2
CENTER
 70
     0
  3
____ _ ____ _ ____ _ ____ _ ____ _ ____ _ ____
 72
    65
 73
     4
 40
2.0
 49
1.25
 74
     0
 49
-0.25
 74
     0
 49
0.25
 74
     0
 49
-0.25
 74
     0
  0
LTYPE
  5
26
330
5
100
AcDbSymbolTableRecord
100
AcDbLinetypeTableRecord
  2
CENTER2
 70
     0
  3
____ _ ____ _ ____ _ ____ _ ____ _ ____ _ ____
 72
    65
 73
     4
 40
1.125
 49
0.75
 74
     0
 49
-0.125
 74
     0
 49
0.125
 74
     0
 49
-0.125
 74
     0
  0
LTYPE
  5
27
330
5
100
AcDbSymbolTableRecord
100
AcDbLinetypeTableRecord
  2
CENTERX2
 70
     0
  3
________  __  ________  __  ________  __  
 72
    65
 73
     4
 40
4.0
 49
2.5
 74
     0
 49
-0.5
 74
     0
 49
0.5
 74
     0
 49
-0.5
 74
     0
  0
LTYPE
  5
28
330
5
100
AcDbSymbolTableRecord
100
AcDbLinetypeTableRecord
  2
DASHDOT
 70
     0
  3
__ . __ . __ . __ . __ . __ . __ . 
 72
    65
 73
     4
 40
1.0
 49
0.5
 74
     0
 49
-0.25
 74
     0
 49
0.0
 74
     0
 49
-0.25
 74
     0
  0
LTYPE
  5
29
330
5
100
AcDbSymbolTableRecord
100
AcDbLinetypeTableRecord
  2
DASHDOT2
 70
     0
  3
_._._._._._._._._._._._._._._._.
 72
    65
 73
     4
 40
0.5
 49
0.25
 74
     0
 49
-0.125
 74
     0
 49
0.0
 74
     0
 49
-0.125
 74
     0
  0
LTYPE
  5
2A
330
5
100
AcDbSymbolTableRecord
100
AcDbLinetypeTableRecord
  2
DASHDOTX2
 70
     0
  3
____  .  ____  .  ____  .  ____  .  
 72
    65
 73
     4
 40
2.0
 49
1.0
 74
     0
 49
-0.5
 74
     0
 49
0.0
 74
     0
 49
-0.5
 74
     0
  0
LTYPE
  5
2B
330
5
100
AcDbSymbolTableRecord
100
AcDbLinetypeTableRecord
  2
DASHED
 70
     0
  3
__ __ __ __ __ __ __ __ __ __ __ __ 
 72
    65
 73
     2
 40
0.75
 49
0.5
 74
     0
 49
-0.25
 74
     0
  0
LTYPE
  5
2C
330
5
100
AcDbSymbolTableRecord
100
AcDbLinetypeTableRecord
  2
DASHED2
 70
     0
  3
_ _ _ _ _ _ _ _ _ _ _ _ _ _ _ _ _ _ 
 72
    65
 73
     2
 40
0.375
 49
0.25
 74
     0
 49
-0.125
 74
     0
  0
LTYPE
  5
2D
330
5
100
AcDbSymbolTableRecord
100
AcDbLinetypeTableRecord
  2
DASHEDX2
 70
     0
  3
____  ____  ____  ____  ____  ____  
 72
    65
 73
     2
 40
1.5
 49
1.0
 74
     0
 49
-0.5
 74
     0
  0
LTYPE
  5
2E
330
5
100
AcDbSymbolTableRecord
100
AcDbLinetypeTableRecord
  2
DIVIDE
 70
     0
  3
____ . . ____ . . ____ . . ____ . . 
 72
    65
 73
     6
 40
1.25
 49
0.5
 74
     0
 49
-0.25
 74
     0
 49
0.0
 74
     0
 49
-0.25
 74
     0
 49
0.0
 74
     0
 49
-0.25
 74
     0
  0
LTYPE
  5
2F
330
5
100
AcDbSymbolTableRecord
100
AcDbLinetypeTableRecord
  2
DIVIDE2
 70
     0
  3
__..__..__..__..__..__..__..__..__..
 72
    65
 73
     6
 40
0.625
 49
0.25
 74
     0
 49
-0.125
 74
     0
 49
0.0
 74
     0
 49
-0.125
 74
     0
 49
0.0
 74
     0
 49
-0.125
 74
     0
  0
LTYPE
  5
30
330
5
100
AcDbSymbolTableRecord
100
AcDbLinetypeTableRecord
  2
DIVIDEX2
 70
     0
  3
________  .  .  ________  .  .  ________  .  . 
 72
    65
 73
     6
 40
2.5
 49
1.0
 74
     0
 49
-0.5
 74
     0
 49
0.0
 74
     0
 49
-0.5
 74
     0
 49
0.0
 74
     0
 49
-0.5
 74
     0
  0
LTYPE
  5
31
330
5
100
AcDbSymbolTableRecord
100
AcDbLinetypeTableRecord
  2
DOT
 70
     0
  3
. . . . . . . . . . . . . . . . . . 
 72
    65
 73
     2
 40
0.25
 49
0.0
 74
     0
 49
-0.25
 74
     0
  0
LTYPE
  5
32
330
5
100
AcDbSymbolTableRecord
100
AcDbLinetypeTableRecord
  2
DOT2
 70
     0
  3
....................................
 72
    65
 73
     2
 40
0.125
 49
0.0
 74
     0
 49
-0.125
 74
     0
  0
LTYPE
  5
33
330
5
100
AcDbSymbolTableRecord
100
AcDbLinetypeTableRecord
  2
DOTX2
 70
     0
  3
.  .  .  .  .  .  .  .  .  .  .  .  .  
 72
    65
 73
     2
 40
0.5
 49
0.0
 74
     0
 49
-0.5
 74
     0
  0
LTYPE
  5
34
330
5
100
AcDbSymbolTableRecord
100
AcDbLinetypeTableRecord
  2
HIDDEN
 70
     0
  3
__ __ __ __ __ __ __ __ __ __ __ __ 
 72
    65
 73
     2
 40
0.375
 49
0.25
 74
     0
 49
-0.125
 74
     0
  0
LTYPE
  5
35
330
5
100
AcDbSymbolTableRecord
100
AcDbLinetypeTableRecord
  2
HIDDEN2
 70
     0
  3
_ _ _ _ _ _ _ _ _ _ _ _ _ _ _ _ _ _ 
 72
    65
 73
     2
 40
0.1875
 49
0.125
 74
     0
 49
-0.0625
 74
     0
  0
LTYPE
  5
36
330
5
100
AcDbSymbolTableRecord
100
AcDbLinetypeTableRecord
  2
HIDDENX2
 70
     0
  3
____ ____ ____ ____ ____ ____ ____ 
 72
    65
 73
     2
 40
0.75
 49
0.5
 74
     0
 49
-0.25
 74
     0
  0
LTYPE
  5
37
330
5
100
AcDbSymbolTableRecord
100
AcDbLinetypeTableRecord
  2
PHANTOM
 70
     0
  3
______  __  __  ______  __  __  
 72
    65
 73
     6
 40
2.5
 49
1.25
 74
     0
 49
-0.25
 74
     0
 49
0.25
 74
     0
 49
-0.25
 74
     0
 49
0.25
 74
     0
 49
-0.25
 74
     0
  0
LTYPE
  5
38
330
5
100
AcDbSymbolTableRecord
100
AcDbLinetypeTableRecord
  2
PHANTOM2
 70
     0
  3
___ _ _ ___ _ _ ___ _ _ ___ _ _ 
 72
    65
 73
     6
 40
1.25
 49
0.625
 74
     0
 49
-0.125
 74
     0
 49
0.125
 74
     0
 49
-0.125
 74
     0
 49
0.125
 74
     0
 49
-0.125
 74
     0
  0
LTYPE
  5
39
330
5
100
AcDbSymbolTableRecord
100
AcDbLinetypeTableRecord
  2
PHANTOMX2
 70
     0
  3
___ _ _ ___ _ _ ___ _ _ ___ _ _ 
 72
    65
 73
     6
 40
5.0
 49
2.5
 74
     0
 49
-0.5
 74
     0
 49
0.5
 74
     0
 49
-0.5
 74
     0
 49
0.5
 74
     0
 49
-0.5
 74
     0
  0
ENDTAB
  0
TABLE
  2
LAYER
  5
2
330
0
100
AcDbSymbolTable
 70
   256
  0
LAYER
  5
10
330
2
100
AcDbSymbolTableRecord
100
AcDbLayerTableRecord
  2
0
 70
     0
 62
     7
  6
CONTINUOUS
  0
LAYER
  5
3A
330
2
100
AcDbSymbolTableRecord
100
AcDbLayerTableRecord
  2
1
 70
     0
 62
     1
  6
CONTINUOUS
  0
LAYER
  5
3B
330
2
100
AcDbSymbolTableRecord
100
AcDbLayerTableRecord
  2
2
 70
     0
 62
     2
  6
CONTINUOUS
  0
LAYER
  5
3C
330
2
100
AcDbSymbolTableRecord
100
AcDbLayerTableRecord
  2
3
 70
     0
 62
     3
  6
CONTINUOUS
  0
LAYER
  5
3D
330
2
100
AcDbSymbolTableRecord
100
AcDbLayerTableRecord
  2
4
 70
     0
 62
     4
  6
CONTINUOUS
  0
LAYER
  5
3E
330
2
100
AcDbSymbolTableRecord
100
AcDbLayerTableRecord
  2
5
 70
     0
 62
     5
  6
CONTINUOUS
  0
LAYER
  5
3F
330
2
100
AcDbSymbolTableRecord
100
AcDbLayerTableRecord
  2
6
 70
     0
 62
     6
  6
CONTINUOUS
  0
LAYER
  5
40
330
2
100
AcDbSymbolTableRecord
100
AcDbLayerTableRecord
  2
7
 70
     0
 62
     7
  6
CONTINUOUS
  0
LAYER
  5
41
330
2
100
AcDbSymbolTableRecord
100
AcDbLayerTableRecord
  2
8
 70
     0
 62
     8
  6
CONTINUOUS
  0
LAYER
  5
42
330
2
100
AcDbSymbolTableRecord
100
AcDbLayerTableRecord
  2
9
 70
     0
 62
     9
  6
CONTINUOUS
  0
LAYER
  5
43
330
2
100
AcDbSymbolTableRecord
100
AcDbLayerTableRecord
  2
10
 70
     0
 62
    10
  6
CONTINUOUS
  0
LAYER
  5
44
330
2
100
AcDbSymbolTableRecord
100
AcDbLayerTableRecord
  2
11
 70
     0
 62
    11
  6
CONTINUOUS
  0
LAYER
  5
45
330
2
100
AcDbSymbolTableRecord
100
AcDbLayerTableRecord
  2
12
 70
     0
 62
    12
  6
CONTINUOUS
  0
LAYER
  5
46
330
2
100
AcDbSymbolTableRecord
100
AcDbLayerTableRecord
  2
13
 70
     0
 62
    13
  6
CONTINUOUS
  0
LAYER
  5
47
330
2
100
AcDbSymbolTableRecord
100
AcDbLayerTableRecord
  2
14
 70
     0
 62
    14
  6
CONTINUOUS
  0
LAYER
  5
48
330
2
100
AcDbSymbolTableRecord
100
AcDbLayerTableRecord
  2
15
 70
     0
 62
    15
  6
CONTINUOUS
  0
LAYER
  5
49
330
2
100
AcDbSymbolTableRecord
100
AcDbLayerTableRecord
  2
16
 70
     0
 62
    16
  6
CONTINUOUS
  0
LAYER
  5
4A
330
2
100
AcDbSymbolTableRecord
100
AcDbLayerTableRecord
  2
17
 70
     0
 62
    17
  6
CONTINUOUS
  0
LAYER
  5
4B
330
2
100
AcDbSymbolTableRecord
100
AcDbLayerTableRecord
  2
18
 70
     0
 62
    18
  6
CONTINUOUS
  0
LAYER
  5
4C
330
2
100
AcDbSymbolTableRecord
100
AcDbLayerTableRecord
  2
19
 70
     0
 62
    19
  6
CONTINUOUS
  0
LAYER
  5
4D
330
2
100
AcDbSymbolTableRecord
100
AcDbLayerTableRecord
  2
20
 70
     0
 62
    20
  6
CONTINUOUS
  0
LAYER
  5
4E
330
2
100
AcDbSymbolTableRecord
100
AcDbLayerTableRecord
  2
21
 70
     0
 62
    21
  6
CONTINUOUS
  0
LAYER
  5
4F
330
2
100
AcDbSymbolTableRecord
100
AcDbLayerTableRecord
  2
22
 70
     0
 62
    22
  6
CONTINUOUS
  0
LAYER
  5
50
330
2
100
AcDbSymbolTableRecord
100
AcDbLayerTableRecord
  2
23
 70
     0
 62
    23
  6
CONTINUOUS
  0
LAYER
  5
51
330
2
100
AcDbSymbolTableRecord
100
AcDbLayerTableRecord
  2
24
 70
     0
 62
    24
  6
CONTINUOUS
  0
LAYER
  5
52
330
2
100
AcDbSymbolTableRecord
100
AcDbLayerTableRecord
  2
25
 70
     0
 62
    25
  6
CONTINUOUS
  0
LAYER
  5
53
330
2
100
AcDbSymbolTableRecord
100
AcDbLayerTableRecord
  2
26
 70
     0
 62
    26
  6
CONTINUOUS
  0
LAYER
  5
54
330
2
100
AcDbSymbolTableRecord
100
AcDbLayerTableRecord
  2
27
 70
     0
 62
    27
  6
CONTINUOUS
  0
LAYER
  5
55
330
2
100
AcDbSymbolTableRecord
100
AcDbLayerTableRecord
  2
28
 70
     0
 62
    28
  6
CONTINUOUS
  0
LAYER
  5
56
330
2
100
AcDbSymbolTableRecord
100
AcDbLayerTableRecord
  2
29
 70
     0
 62
    29
  6
CONTINUOUS
  0
LAYER
  5
57
330
2
100
AcDbSymbolTableRecord
100
AcDbLayerTableRecord
  2
30
 70
     0
 62
    30
  6
CONTINUOUS
  0
LAYER
  5
58
330
2
100
AcDbSymbolTableRecord
100
AcDbLayerTableRecord
  2
31
 70
     0
 62
    31
  6
CONTINUOUS
  0
LAYER
  5
59
330
2
100
AcDbSymbolTableRecord
100
AcDbLayerTableRecord
  2
32
 70
     0
 62
    32
  6
CONTINUOUS
  0
LAYER
  5
5A
330
2
100
AcDbSymbolTableRecord
100
AcDbLayerTableRecord
  2
33
 70
     0
 62
    33
  6
CONTINUOUS
  0
LAYER
  5
5B
330
2
100
AcDbSymbolTableRecord
100
AcDbLayerTableRecord
  2
34
 70
     0
 62
    34
  6
CONTINUOUS
  0
LAYER
  5
5C
330
2
100
AcDbSymbolTableRecord
100
AcDbLayerTableRecord
  2
35
 70
     0
 62
    35
  6
CONTINUOUS
  0
LAYER
  5
5D
330
2
100
AcDbSymbolTableRecord
100
AcDbLayerTableRecord
  2
36
 70
     0
 62
    36
  6
CONTINUOUS
  0
LAYER
  5
5E
330
2
100
AcDbSymbolTableRecord
100
AcDbLayerTableRecord
  2
37
 70
     0
 62
    37
  6
CONTINUOUS
  0
LAYER
  5
5F
330
2
100
AcDbSymbolTableRecord
100
AcDbLayerTableRecord
  2
38
 70
     0
 62
    38
  6
CONTINUOUS
  0
LAYER
  5
60
330
2
100
AcDbSymbolTableRecord
100
AcDbLayerTableRecord
  2
39
 70
     0
 62
    39
  6
CONTINUOUS
  0
LAYER
  5
61
330
2
100
AcDbSymbolTableRecord
100
AcDbLayerTableRecord
  2
40
 70
     0
 62
    40
  6
CONTINUOUS
  0
LAYER
  5
62
330
2
100
AcDbSymbolTableRecord
100
AcDbLayerTableRecord
  2
41
 70
     0
 62
    41
  6
CONTINUOUS
  0
LAYER
  5
63
330
2
100
AcDbSymbolTableRecord
100
AcDbLayerTableRecord
  2
42
 70
     0
 62
    42
  6
CONTINUOUS
  0
LAYER
  5
64
330
2
100
AcDbSymbolTableRecord
100
AcDbLayerTableRecord
  2
43
 70
     0
 62
    43
  6
CONTINUOUS
  0
LAYER
  5
65
330
2
100
AcDbSymbolTableRecord
100
AcDbLayerTableRecord
  2
44
 70
     0
 62
    44
  6
CONTINUOUS
  0
LAYER
  5
66
330
2
100
AcDbSymbolTableRecord
100
AcDbLayerTableRecord
  2
45
 70
     0
 62
    45
  6
CONTINUOUS
  0
LAYER
  5
67
330
2
100
AcDbSymbolTableRecord
100
AcDbLayerTableRecord
  2
46
 70
     0
 62
    46
  6
CONTINUOUS
  0
LAYER
  5
68
330
2
100
AcDbSymbolTableRecord
100
AcDbLayerTableRecord
  2
47
 70
     0
 62
    47
  6
CONTINUOUS
  0
LAYER
  5
69
330
2
100
AcDbSymbolTableRecord
100
AcDbLayerTableRecord
  2
48
 70
     0
 62
    48
  6
CONTINUOUS
  0
LAYER
  5
6A
330
2
100
AcDbSymbolTableRecord
100
AcDbLayerTableRecord
  2
49
 70
     0
 62
    49
  6
CONTINUOUS
  0
LAYER
  5
6B
330
2
100
AcDbSymbolTableRecord
100
AcDbLayerTableRecord
  2
50
 70
     0
 62
    50
  6
CONTINUOUS
  0
LAYER
  5
6C
330
2
100
AcDbSymbolTableRecord
100
AcDbLayerTableRecord
  2
51
 70
     0
 62
    51
  6
CONTINUOUS
  0
LAYER
  5
6D
330
2
100
AcDbSymbolTableRecord
100
AcDbLayerTableRecord
  2
52
 70
     0
 62
    52
  6
CONTINUOUS
  0
LAYER
  5
6E
330
2
100
AcDbSymbolTableRecord
100
AcDbLayerTableRecord
  2
53
 70
     0
 62
    53
  6
CONTINUOUS
  0
LAYER
  5
6F
330
2
100
AcDbSymbolTableRecord
100
AcDbLayerTableRecord
  2
54
 70
     0
 62
    54
  6
CONTINUOUS
  0
LAYER
  5
70
330
2
100
AcDbSymbolTableRecord
100
AcDbLayerTableRecord
  2
55
 70
     0
 62
    55
  6
CONTINUOUS
  0
LAYER
  5
71
330
2
100
AcDbSymbolTableRecord
100
AcDbLayerTableRecord
  2
56
 70
     0
 62
    56
  6
CONTINUOUS
  0
LAYER
  5
72
330
2
100
AcDbSymbolTableRecord
100
AcDbLayerTableRecord
  2
57
 70
     0
 62
    57
  6
CONTINUOUS
  0
LAYER
  5
73
330
2
100
AcDbSymbolTableRecord
100
AcDbLayerTableRecord
  2
58
 70
     0
 62
    58
  6
CONTINUOUS
  0
LAYER
  5
74
330
2
100
AcDbSymbolTableRecord
100
AcDbLayerTableRecord
  2
59
 70
     0
 62
    59
  6
CONTINUOUS
  0
LAYER
  5
75
330
2
100
AcDbSymbolTableRecord
100
AcDbLayerTableRecord
  2
60
 70
     0
 62
    60
  6
CONTINUOUS
  0
LAYER
  5
76
330
2
100
AcDbSymbolTableRecord
100
AcDbLayerTableRecord
  2
61
 70
     0
 62
    61
  6
CONTINUOUS
  0
LAYER
  5
77
330
2
100
AcDbSymbolTableRecord
100
AcDbLayerTableRecord
  2
62
 70
     0
 62
    62
  6
CONTINUOUS
  0
LAYER
  5
78
330
2
100
AcDbSymbolTableRecord
100
AcDbLayerTableRecord
  2
63
 70
     0
 62
    63
  6
CONTINUOUS
  0
LAYER
  5
79
330
2
100
AcDbSymbolTableRecord
100
AcDbLayerTableRecord
  2
64
 70
     0
 62
    64
  6
CONTINUOUS
  0
LAYER
  5
7A
330
2
100
AcDbSymbolTableRecord
100
AcDbLayerTableRecord
  2
65
 70
     0
 62
    65
  6
CONTINUOUS
  0
LAYER
  5
7B
330
2
100
AcDbSymbolTableRecord
100
AcDbLayerTableRecord
  2
66
 70
     0
 62
    66
  6
CONTINUOUS
  0
LAYER
  5
7C
330
2
100
AcDbSymbolTableRecord
100
AcDbLayerTableRecord
  2
67
 70
     0
 62
    67
  6
CONTINUOUS
  0
LAYER
  5
7D
330
2
100
AcDbSymbolTableRecord
100
AcDbLayerTableRecord
  2
68
 70
     0
 62
    68
  6
CONTINUOUS
  0
LAYER
  5
7E
330
2
100
AcDbSymbolTableRecord
100
AcDbLayerTableRecord
  2
69
 70
     0
 62
    69
  6
CONTINUOUS
  0
LAYER
  5
7F
330
2
100
AcDbSymbolTableRecord
100
AcDbLayerTableRecord
  2
70
 70
     0
 62
    70
  6
CONTINUOUS
  0
LAYER
  5
80
330
2
100
AcDbSymbolTableRecord
100
AcDbLayerTableRecord
  2
71
 70
     0
 62
    71
  6
CONTINUOUS
  0
LAYER
  5
81
330
2
100
AcDbSymbolTableRecord
100
AcDbLayerTableRecord
  2
72
 70
     0
 62
    72
  6
CONTINUOUS
  0
LAYER
  5
82
330
2
100
AcDbSymbolTableRecord
100
AcDbLayerTableRecord
  2
73
 70
     0
 62
    73
  6
CONTINUOUS
  0
LAYER
  5
83
330
2
100
AcDbSymbolTableRecord
100
AcDbLayerTableRecord
  2
74
 70
     0
 62
    74
  6
CONTINUOUS
  0
LAYER
  5
84
330
2
100
AcDbSymbolTableRecord
100
AcDbLayerTableRecord
  2
75
 70
     0
 62
    75
  6
CONTINUOUS
  0
LAYER
  5
85
330
2
100
AcDbSymbolTableRecord
100
AcDbLayerTableRecord
  2
76
 70
     0
 62
    76
  6
CONTINUOUS
  0
LAYER
  5
86
330
2
100
AcDbSymbolTableRecord
100
AcDbLayerTableRecord
  2
77
 70
     0
 62
    77
  6
CONTINUOUS
  0
LAYER
  5
87
330
2
100
AcDbSymbolTableRecord
100
AcDbLayerTableRecord
  2
78
 70
     0
 62
    78
  6
CONTINUOUS
  0
LAYER
  5
88
330
2
100
AcDbSymbolTableRecord
100
AcDbLayerTableRecord
  2
79
 70
     0
 62
    79
  6
CONTINUOUS
  0
LAYER
  5
89
330
2
100
AcDbSymbolTableRecord
100
AcDbLayerTableRecord
  2
80
 70
     0
 62
    80
  6
CONTINUOUS
  0
LAYER
  5
8A
330
2
100
AcDbSymbolTableRecord
100
AcDbLayerTableRecord
  2
81
 70
     0
 62
    81
  6
CONTINUOUS
  0
LAYER
  5
8B
330
2
100
AcDbSymbolTableRecord
100
AcDbLayerTableRecord
  2
82
 70
     0
 62
    82
  6
CONTINUOUS
  0
LAYER
  5
8C
330
2
100
AcDbSymbolTableRecord
100
AcDbLayerTableRecord
  2
83
 70
     0
 62
    83
  6
CONTINUOUS
  0
LAYER
  5
8D
330
2
100
AcDbSymbolTableRecord
100
AcDbLayerTableRecord
  2
84
 70
     0
 62
    84
  6
CONTINUOUS
  0
LAYER
  5
8E
330
2
100
AcDbSymbolTableRecord
100
AcDbLayerTableRecord
  2
85
 70
     0
 62
    85
  6
CONTINUOUS
  0
LAYER
  5
8F
330
2
100
AcDbSymbolTableRecord
100
AcDbLayerTableRecord
  2
86
 70
     0
 62
    86
  6
CONTINUOUS
  0
LAYER
  5
90
330
2
100
AcDbSymbolTableRecord
100
AcDbLayerTableRecord
  2
87
 70
     0
 62
    87
  6
CONTINUOUS
  0
LAYER
  5
91
330
2
100
AcDbSymbolTableRecord
100
AcDbLayerTableRecord
  2
88
 70
     0
 62
    88
  6
CONTINUOUS
  0
LAYER
  5
92
330
2
100
AcDbSymbolTableRecord
100
AcDbLayerTableRecord
  2
89
 70
     0
 62
    89
  6
CONTINUOUS
  0
LAYER
  5
93
330
2
100
AcDbSymbolTableRecord
100
AcDbLayerTableRecord
  2
90
 70
     0
 62
    90
  6
CONTINUOUS
  0
LAYER
  5
94
330
2
100
AcDbSymbolTableRecord
100
AcDbLayerTableRecord
  2
91
 70
     0
 62
    91
  6
CONTINUOUS
  0
LAYER
  5
95
330
2
100
AcDbSymbolTableRecord
100
AcDbLayerTableRecord
  2
92
 70
     0
 62
    92
  6
CONTINUOUS
  0
LAYER
  5
96
330
2
100
AcDbSymbolTableRecord
100
AcDbLayerTableRecord
  2
93
 70
     0
 62
    93
  6
CONTINUOUS
  0
LAYER
  5
97
330
2
100
AcDbSymbolTableRecord
100
AcDbLayerTableRecord
  2
94
 70
     0
 62
    94
  6
CONTINUOUS
  0
LAYER
  5
98
330
2
100
AcDbSymbolTableRecord
100
AcDbLayerTableRecord
  2
95
 70
     0
 62
    95
  6
CONTINUOUS
  0
LAYER
  5
99
330
2
100
AcDbSymbolTableRecord
100
AcDbLayerTableRecord
  2
96
 70
     0
 62
    96
  6
CONTINUOUS
  0
LAYER
  5
9A
330
2
100
AcDbSymbolTableRecord
100
AcDbLayerTableRecord
  2
97
 70
     0
 62
    97
  6
CONTINUOUS
  0
LAYER
  5
9B
330
2
100
AcDbSymbolTableRecord
100
AcDbLayerTableRecord
  2
98
 70
     0
 62
    98
  6
CONTINUOUS
  0
LAYER
  5
9C
330
2
100
AcDbSymbolTableRecord
100
AcDbLayerTableRecord
  2
99
 70
     0
 62
    99
  6
CONTINUOUS
  0
LAYER
  5
9D
330
2
100
AcDbSymbolTableRecord
100
AcDbLayerTableRecord
  2
100
 70
     0
 62
   100
  6
CONTINUOUS
  0
LAYER
  5
9E
330
2
100
AcDbSymbolTableRecord
100
AcDbLayerTableRecord
  2
101
 70
     0
 62
   101
  6
CONTINUOUS
  0
LAYER
  5
9F
330
2
100
AcDbSymbolTableRecord
100
AcDbLayerTableRecord
  2
102
 70
     0
 62
   102
  6
CONTINUOUS
  0
LAYER
  5
A0
330
2
100
AcDbSymbolTableRecord
100
AcDbLayerTableRecord
  2
103
 70
     0
 62
   103
  6
CONTINUOUS
  0
LAYER
  5
A1
330
2
100
AcDbSymbolTableRecord
100
AcDbLayerTableRecord
  2
104
 70
     0
 62
   104
  6
CONTINUOUS
  0
LAYER
  5
A2
330
2
100
AcDbSymbolTableRecord
100
AcDbLayerTableRecord
  2
105
 70
     0
 62
   105
  6
CONTINUOUS
  0
LAYER
  5
A3
330
2
100
AcDbSymbolTableRecord
100
AcDbLayerTableRecord
  2
106
 70
     0
 62
   106
  6
CONTINUOUS
  0
LAYER
  5
A4
330
2
100
AcDbSymbolTableRecord
100
AcDbLayerTableRecord
  2
107
 70
     0
 62
   107
  6
CONTINUOUS
  0
LAYER
  5
A5
330
2
100
AcDbSymbolTableRecord
100
AcDbLayerTableRecord
  2
108
 70
     0
 62
   108
  6
CONTINUOUS
  0
LAYER
  5
A6
330
2
100
AcDbSymbolTableRecord
100
AcDbLayerTableRecord
  2
109
 70
     0
 62
   109
  6
CONTINUOUS
  0
LAYER
  5
A7
330
2
100
AcDbSymbolTableRecord
100
AcDbLayerTableRecord
  2
110
 70
     0
 62
   110
  6
CONTINUOUS
  0
LAYER
  5
A8
330
2
100
AcDbSymbolTableRecord
100
AcDbLayerTableRecord
  2
111
 70
     0
 62
   111
  6
CONTINUOUS
  0
LAYER
  5
A9
330
2
100
AcDbSymbolTableRecord
100
AcDbLayerTableRecord
  2
112
 70
     0
 62
   112
  6
CONTINUOUS
  0
LAYER
  5
AA
330
2
100
AcDbSymbolTableRecord
100
AcDbLayerTableRecord
  2
113
 70
     0
 62
   113
  6
CONTINUOUS
  0
LAYER
  5
AB
330
2
100
AcDbSymbolTableRecord
100
AcDbLayerTableRecord
  2
114
 70
     0
 62
   114
  6
CONTINUOUS
  0
LAYER
  5
AC
330
2
100
AcDbSymbolTableRecord
100
AcDbLayerTableRecord
  2
115
 70
     0
 62
   115
  6
CONTINUOUS
  0
LAYER
  5
AD
330
2
100
AcDbSymbolTableRecord
100
AcDbLayerTableRecord
  2
116
 70
     0
 62
   116
  6
CONTINUOUS
  0
LAYER
  5
AE
330
2
100
AcDbSymbolTableRecord
100
AcDbLayerTableRecord
  2
117
 70
     0
 62
   117
  6
CONTINUOUS
  0
LAYER
  5
AF
330
2
100
AcDbSymbolTableRecord
100
AcDbLayerTableRecord
  2
118
 70
     0
 62
   118
  6
CONTINUOUS
  0
LAYER
  5
B0
330
2
100
AcDbSymbolTableRecord
100
AcDbLayerTableRecord
  2
119
 70
     0
 62
   119
  6
CONTINUOUS
  0
LAYER
  5
B1
330
2
100
AcDbSymbolTableRecord
100
AcDbLayerTableRecord
  2
120
 70
     0
 62
   120
  6
CONTINUOUS
  0
LAYER
  5
B2
330
2
100
AcDbSymbolTableRecord
100
AcDbLayerTableRecord
  2
121
 70
     0
 62
   121
  6
CONTINUOUS
  0
LAYER
  5
B3
330
2
100
AcDbSymbolTableRecord
100
AcDbLayerTableRecord
  2
122
 70
     0
 62
   122
  6
CONTINUOUS
  0
LAYER
  5
B4
330
2
100
AcDbSymbolTableRecord
100
AcDbLayerTableRecord
  2
123
 70
     0
 62
   123
  6
CONTINUOUS
  0
LAYER
  5
B5
330
2
100
AcDbSymbolTableRecord
100
AcDbLayerTableRecord
  2
124
 70
     0
 62
   124
  6
CONTINUOUS
  0
LAYER
  5
B6
330
2
100
AcDbSymbolTableRecord
100
AcDbLayerTableRecord
  2
125
 70
     0
 62
   125
  6
CONTINUOUS
  0
LAYER
  5
B7
330
2
100
AcDbSymbolTableRecord
100
AcDbLayerTableRecord
  2
126
 70
     0
 62
   126
  6
CONTINUOUS
  0
LAYER
  5
B8
330
2
100
AcDbSymbolTableRecord
100
AcDbLayerTableRecord
  2
127
 70
     0
 62
   127
  6
CONTINUOUS
  0
LAYER
  5
B9
330
2
100
AcDbSymbolTableRecord
100
AcDbLayerTableRecord
  2
128
 70
     0
 62
   128
  6
CONTINUOUS
  0
LAYER
  5
BA
330
2
100
AcDbSymbolTableRecord
100
AcDbLayerTableRecord
  2
129
 70
     0
 62
   129
  6
CONTINUOUS
  0
LAYER
  5
BB
330
2
100
AcDbSymbolTableRecord
100
AcDbLayerTableRecord
  2
130
 70
     0
 62
   130
  6
CONTINUOUS
  0
LAYER
  5
BC
330
2
100
AcDbSymbolTableRecord
100
AcDbLayerTableRecord
  2
131
 70
     0
 62
   131
  6
CONTINUOUS
  0
LAYER
  5
BD
330
2
100
AcDbSymbolTableRecord
100
AcDbLayerTableRecord
  2
132
 70
     0
 62
   132
  6
CONTINUOUS
  0
LAYER
  5
BE
330
2
100
AcDbSymbolTableRecord
100
AcDbLayerTableRecord
  2
133
 70
     0
 62
   133
  6
CONTINUOUS
  0
LAYER
  5
BF
330
2
100
AcDbSymbolTableRecord
100
AcDbLayerTableRecord
  2
134
 70
     0
 62
   134
  6
CONTINUOUS
  0
LAYER
  5
C0
330
2
100
AcDbSymbolTableRecord
100
AcDbLayerTableRecord
  2
135
 70
     0
 62
   135
  6
CONTINUOUS
  0
LAYER
  5
C1
330
2
100
AcDbSymbolTableRecord
100
AcDbLayerTableRecord
  2
136
 70
     0
 62
   136
  6
CONTINUOUS
  0
LAYER
  5
C2
330
2
100
AcDbSymbolTableRecord
100
AcDbLayerTableRecord
  2
137
 70
     0
 62
   137
  6
CONTINUOUS
  0
LAYER
  5
C3
330
2
100
AcDbSymbolTableRecord
100
AcDbLayerTableRecord
  2
138
 70
     0
 62
   138
  6
CONTINUOUS
  0
LAYER
  5
C4
330
2
100
AcDbSymbolTableRecord
100
AcDbLayerTableRecord
  2
139
 70
     0
 62
   139
  6
CONTINUOUS
  0
LAYER
  5
C5
330
2
100
AcDbSymbolTableRecord
100
AcDbLayerTableRecord
  2
140
 70
     0
 62
   140
  6
CONTINUOUS
  0
LAYER
  5
C6
330
2
100
AcDbSymbolTableRecord
100
AcDbLayerTableRecord
  2
141
 70
     0
 62
   141
  6
CONTINUOUS
  0
LAYER
  5
C7
330
2
100
AcDbSymbolTableRecord
100
AcDbLayerTableRecord
  2
142
 70
     0
 62
   142
  6
CONTINUOUS
  0
LAYER
  5
C8
330
2
100
AcDbSymbolTableRecord
100
AcDbLayerTableRecord
  2
143
 70
     0
 62
   143
  6
CONTINUOUS
  0
LAYER
  5
C9
330
2
100
AcDbSymbolTableRecord
100
AcDbLayerTableRecord
  2
144
 70
     0
 62
   144
  6
CONTINUOUS
  0
LAYER
  5
CA
330
2
100
AcDbSymbolTableRecord
100
AcDbLayerTableRecord
  2
145
 70
     0
 62
   145
  6
CONTINUOUS
  0
LAYER
  5
CB
330
2
100
AcDbSymbolTableRecord
100
AcDbLayerTableRecord
  2
146
 70
     0
 62
   146
  6
CONTINUOUS
  0
LAYER
  5
CC
330
2
100
AcDbSymbolTableRecord
100
AcDbLayerTableRecord
  2
147
 70
     0
 62
   147
  6
CONTINUOUS
  0
LAYER
  5
CD
330
2
100
AcDbSymbolTableRecord
100
AcDbLayerTableRecord
  2
148
 70
     0
 62
   148
  6
CONTINUOUS
  0
LAYER
  5
CE
330
2
100
AcDbSymbolTableRecord
100
AcDbLayerTableRecord
  2
149
 70
     0
 62
   149
  6
CONTINUOUS
  0
LAYER
  5
CF
330
2
100
AcDbSymbolTableRecord
100
AcDbLayerTableRecord
  2
150
 70
     0
 62
   150
  6
CONTINUOUS
  0
LAYER
  5
D0
330
2
100
AcDbSymbolTableRecord
100
AcDbLayerTableRecord
  2
151
 70
     0
 62
   151
  6
CONTINUOUS
  0
LAYER
  5
D1
330
2
100
AcDbSymbolTableRecord
100
AcDbLayerTableRecord
  2
152
 70
     0
 62
   152
  6
CONTINUOUS
  0
LAYER
  5
D2
330
2
100
AcDbSymbolTableRecord
100
AcDbLayerTableRecord
  2
153
 70
     0
 62
   153
  6
CONTINUOUS
  0
LAYER
  5
D3
330
2
100
AcDbSymbolTableRecord
100
AcDbLayerTableRecord
  2
154
 70
     0
 62
   154
  6
CONTINUOUS
  0
LAYER
  5
D4
330
2
100
AcDbSymbolTableRecord
100
AcDbLayerTableRecord
  2
155
 70
     0
 62
   155
  6
CONTINUOUS
  0
LAYER
  5
D5
330
2
100
AcDbSymbolTableRecord
100
AcDbLayerTableRecord
  2
156
 70
     0
 62
   156
  6
CONTINUOUS
  0
LAYER
  5
D6
330
2
100
AcDbSymbolTableRecord
100
AcDbLayerTableRecord
  2
157
 70
     0
 62
   157
  6
CONTINUOUS
  0
LAYER
  5
D7
330
2
100
AcDbSymbolTableRecord
100
AcDbLayerTableRecord
  2
158
 70
     0
 62
   158
  6
CONTINUOUS
  0
LAYER
  5
D8
330
2
100
AcDbSymbolTableRecord
100
AcDbLayerTableRecord
  2
159
 70
     0
 62
   159
  6
CONTINUOUS
  0
LAYER
  5
D9
330
2
100
AcDbSymbolTableRecord
100
AcDbLayerTableRecord
  2
160
 70
     0
 62
   160
  6
CONTINUOUS
  0
LAYER
  5
DA
330
2
100
AcDbSymbolTableRecord
100
AcDbLayerTableRecord
  2
161
 70
     0
 62
   161
  6
CONTINUOUS
  0
LAYER
  5
DB
330
2
100
AcDbSymbolTableRecord
100
AcDbLayerTableRecord
  2
162
 70
     0
 62
   162
  6
CONTINUOUS
  0
LAYER
  5
DC
330
2
100
AcDbSymbolTableRecord
100
AcDbLayerTableRecord
  2
163
 70
     0
 62
   163
  6
CONTINUOUS
  0
LAYER
  5
DD
330
2
100
AcDbSymbolTableRecord
100
AcDbLayerTableRecord
  2
164
 70
     0
 62
   164
  6
CONTINUOUS
  0
LAYER
  5
DE
330
2
100
AcDbSymbolTableRecord
100
AcDbLayerTableRecord
  2
165
 70
     0
 62
   165
  6
CONTINUOUS
  0
LAYER
  5
DF
330
2
100
AcDbSymbolTableRecord
100
AcDbLayerTableRecord
  2
166
 70
     0
 62
   166
  6
CONTINUOUS
  0
LAYER
  5
E0
330
2
100
AcDbSymbolTableRecord
100
AcDbLayerTableRecord
  2
167
 70
     0
 62
   167
  6
CONTINUOUS
  0
LAYER
  5
E1
330
2
100
AcDbSymbolTableRecord
100
AcDbLayerTableRecord
  2
168
 70
     0
 62
   168
  6
CONTINUOUS
  0
LAYER
  5
E2
330
2
100
AcDbSymbolTableRecord
100
AcDbLayerTableRecord
  2
169
 70
     0
 62
   169
  6
CONTINUOUS
  0
LAYER
  5
E3
330
2
100
AcDbSymbolTableRecord
100
AcDbLayerTableRecord
  2
170
 70
     0
 62
   170
  6
CONTINUOUS
  0
LAYER
  5
E4
330
2
100
AcDbSymbolTableRecord
100
AcDbLayerTableRecord
  2
171
 70
     0
 62
   171
  6
CONTINUOUS
  0
LAYER
  5
E5
330
2
100
AcDbSymbolTableRecord
100
AcDbLayerTableRecord
  2
172
 70
     0
 62
   172
  6
CONTINUOUS
  0
LAYER
  5
E6
330
2
100
AcDbSymbolTableRecord
100
AcDbLayerTableRecord
  2
173
 70
     0
 62
   173
  6
CONTINUOUS
  0
LAYER
  5
E7
330
2
100
AcDbSymbolTableRecord
100
AcDbLayerTableRecord
  2
174
 70
     0
 62
   174
  6
CONTINUOUS
  0
LAYER
  5
E8
330
2
100
AcDbSymbolTableRecord
100
AcDbLayerTableRecord
  2
175
 70
     0
 62
   175
  6
CONTINUOUS
  0
LAYER
  5
E9
330
2
100
AcDbSymbolTableRecord
100
AcDbLayerTableRecord
  2
176
 70
     0
 62
   176
  6
CONTINUOUS
  0
LAYER
  5
EA
330
2
100
AcDbSymbolTableRecord
100
AcDbLayerTableRecord
  2
177
 70
     0
 62
   177
  6
CONTINUOUS
  0
LAYER
  5
EB
330
2
100
AcDbSymbolTableRecord
100
AcDbLayerTableRecord
  2
178
 70
     0
 62
   178
  6
CONTINUOUS
  0
LAYER
  5
EC
330
2
100
AcDbSymbolTableRecord
100
AcDbLayerTableRecord
  2
179
 70
     0
 62
   179
  6
CONTINUOUS
  0
LAYER
  5
ED
330
2
100
AcDbSymbolTableRecord
100
AcDbLayerTableRecord
  2
180
 70
     0
 62
   180
  6
CONTINUOUS
  0
LAYER
  5
EE
330
2
100
AcDbSymbolTableRecord
100
AcDbLayerTableRecord
  2
181
 70
     0
 62
   181
  6
CONTINUOUS
  0
LAYER
  5
EF
330
2
100
AcDbSymbolTableRecord
100
AcDbLayerTableRecord
  2
182
 70
     0
 62
   182
  6
CONTINUOUS
  0
LAYER
  5
F0
330
2
100
AcDbSymbolTableRecord
100
AcDbLayerTableRecord
  2
183
 70
     0
 62
   183
  6
CONTINUOUS
  0
LAYER
  5
F1
330
2
100
AcDbSymbolTableRecord
100
AcDbLayerTableRecord
  2
184
 70
     0
 62
   184
  6
CONTINUOUS
  0
LAYER
  5
F2
330
2
100
AcDbSymbolTableRecord
100
AcDbLayerTableRecord
  2
185
 70
     0
 62
   185
  6
CONTINUOUS
  0
LAYER
  5
F3
330
2
100
AcDbSymbolTableRecord
100
AcDbLayerTableRecord
  2
186
 70
     0
 62
   186
  6
CONTINUOUS
  0
LAYER
  5
F4
330
2
100
AcDbSymbolTableRecord
100
AcDbLayerTableRecord
  2
187
 70
     0
 62
   187
  6
CONTINUOUS
  0
LAYER
  5
F5
330
2
100
AcDbSymbolTableRecord
100
AcDbLayerTableRecord
  2
188
 70
     0
 62
   188
  6
CONTINUOUS
  0
LAYER
  5
F6
330
2
100
AcDbSymbolTableRecord
100
AcDbLayerTableRecord
  2
189
 70
     0
 62
   189
  6
CONTINUOUS
  0
LAYER
  5
F7
330
2
100
AcDbSymbolTableRecord
100
AcDbLayerTableRecord
  2
190
 70
     0
 62
   190
  6
CONTINUOUS
  0
LAYER
  5
F8
330
2
100
AcDbSymbolTableRecord
100
AcDbLayerTableRecord
  2
191
 70
     0
 62
   191
  6
CONTINUOUS
  0
LAYER
  5
F9
330
2
100
AcDbSymbolTableRecord
100
AcDbLayerTableRecord
  2
192
 70
     0
 62
   192
  6
CONTINUOUS
  0
LAYER
  5
FA
330
2
100
AcDbSymbolTableRecord
100
AcDbLayerTableRecord
  2
193
 70
     0
 62
   193
  6
CONTINUOUS
  0
LAYER
  5
FB
330
2
100
AcDbSymbolTableRecord
100
AcDbLayerTableRecord
  2
194
 70
     0
 62
   194
  6
CONTINUOUS
  0
LAYER
  5
FC
330
2
100
AcDbSymbolTableRecord
100
AcDbLayerTableRecord
  2
195
 70
     0
 62
   195
  6
CONTINUOUS
  0
LAYER
  5
FD
330
2
100
AcDbSymbolTableRecord
100
AcDbLayerTableRecord
  2
196
 70
     0
 62
   196
  6
CONTINUOUS
  0
LAYER
  5
FE
330
2
100
AcDbSymbolTableRecord
100
AcDbLayerTableRecord
  2
197
 70
     0
 62
   197
  6
CONTINUOUS
  0
LAYER
  5
FF
330
2
100
AcDbSymbolTableRecord
100
AcDbLayerTableRecord
  2
198
 70
     0
 62
   198
  6
CONTINUOUS
  0
LAYER
  5
100
330
2
100
AcDbSymbolTableRecord
100
AcDbLayerTableRecord
  2
199
 70
     0
 62
   199
  6
CONTINUOUS
  0
LAYER
  5
101
330
2
100
AcDbSymbolTableRecord
100
AcDbLayerTableRecord
  2
200
 70
     0
 62
   200
  6
CONTINUOUS
  0
LAYER
  5
102
330
2
100
AcDbSymbolTableRecord
100
AcDbLayerTableRecord
  2
201
 70
     0
 62
   201
  6
CONTINUOUS
  0
LAYER
  5
103
330
2
100
AcDbSymbolTableRecord
100
AcDbLayerTableRecord
  2
202
 70
     0
 62
   202
  6
CONTINUOUS
  0
LAYER
  5
104
330
2
100
AcDbSymbolTableRecord
100
AcDbLayerTableRecord
  2
203
 70
     0
 62
   203
  6
CONTINUOUS
  0
LAYER
  5
105
330
2
100
AcDbSymbolTableRecord
100
AcDbLayerTableRecord
  2
204
 70
     0
 62
   204
  6
CONTINUOUS
  0
LAYER
  5
106
330
2
100
AcDbSymbolTableRecord
100
AcDbLayerTableRecord
  2
205
 70
     0
 62
   205
  6
CONTINUOUS
  0
LAYER
  5
107
330
2
100
AcDbSymbolTableRecord
100
AcDbLayerTableRecord
  2
206
 70
     0
 62
   206
  6
CONTINUOUS
  0
LAYER
  5
108
330
2
100
AcDbSymbolTableRecord
100
AcDbLayerTableRecord
  2
207
 70
     0
 62
   207
  6
CONTINUOUS
  0
LAYER
  5
109
330
2
100
AcDbSymbolTableRecord
100
AcDbLayerTableRecord
  2
208
 70
     0
 62
   208
  6
CONTINUOUS
  0
LAYER
  5
10A
330
2
100
AcDbSymbolTableRecord
100
AcDbLayerTableRecord
  2
209
 70
     0
 62
   209
  6
CONTINUOUS
  0
LAYER
  5
10B
330
2
100
AcDbSymbolTableRecord
100
AcDbLayerTableRecord
  2
210
 70
     0
 62
   210
  6
CONTINUOUS
  0
LAYER
  5
10C
330
2
100
AcDbSymbolTableRecord
100
AcDbLayerTableRecord
  2
211
 70
     0
 62
   211
  6
CONTINUOUS
  0
LAYER
  5
10D
330
2
100
AcDbSymbolTableRecord
100
AcDbLayerTableRecord
  2
212
 70
     0
 62
   212
  6
CONTINUOUS
  0
LAYER
  5
10E
330
2
100
AcDbSymbolTableRecord
100
AcDbLayerTableRecord
  2
213
 70
     0
 62
   213
  6
CONTINUOUS
  0
LAYER
  5
10F
330
2
100
AcDbSymbolTableRecord
100
AcDbLayerTableRecord
  2
214
 70
     0
 62
   214
  6
CONTINUOUS
  0
LAYER
  5
110
330
2
100
AcDbSymbolTableRecord
100
AcDbLayerTableRecord
  2
215
 70
     0
 62
   215
  6
CONTINUOUS
  0
LAYER
  5
111
330
2
100
AcDbSymbolTableRecord
100
AcDbLayerTableRecord
  2
216
 70
     0
 62
   216
  6
CONTINUOUS
  0
LAYER
  5
112
330
2
100
AcDbSymbolTableRecord
100
AcDbLayerTableRecord
  2
217
 70
     0
 62
   217
  6
CONTINUOUS
  0
LAYER
  5
113
330
2
100
AcDbSymbolTableRecord
100
AcDbLayerTableRecord
  2
218
 70
     0
 62
   218
  6
CONTINUOUS
  0
LAYER
  5
114
330
2
100
AcDbSymbolTableRecord
100
AcDbLayerTableRecord
  2
219
 70
     0
 62
   219
  6
CONTINUOUS
  0
LAYER
  5
115
330
2
100
AcDbSymbolTableRecord
100
AcDbLayerTableRecord
  2
220
 70
     0
 62
   220
  6
CONTINUOUS
  0
LAYER
  5
116
330
2
100
AcDbSymbolTableRecord
100
AcDbLayerTableRecord
  2
221
 70
     0
 62
   221
  6
CONTINUOUS
  0
LAYER
  5
117
330
2
100
AcDbSymbolTableRecord
100
AcDbLayerTableRecord
  2
222
 70
     0
 62
   222
  6
CONTINUOUS
  0
LAYER
  5
118
330
2
100
AcDbSymbolTableRecord
100
AcDbLayerTableRecord
  2
223
 70
     0
 62
   223
  6
CONTINUOUS
  0
LAYER
  5
119
330
2
100
AcDbSymbolTableRecord
100
AcDbLayerTableRecord
  2
224
 70
     0
 62
   224
  6
CONTINUOUS
  0
LAYER
  5
11A
330
2
100
AcDbSymbolTableRecord
100
AcDbLayerTableRecord
  2
225
 70
     0
 62
   225
  6
CONTINUOUS
  0
LAYER
  5
11B
330
2
100
AcDbSymbolTableRecord
100
AcDbLayerTableRecord
  2
226
 70
     0
 62
   226
  6
CONTINUOUS
  0
LAYER
  5
11C
330
2
100
AcDbSymbolTableRecord
100
AcDbLayerTableRecord
  2
227
 70
     0
 62
   227
  6
CONTINUOUS
  0
LAYER
  5
11D
330
2
100
AcDbSymbolTableRecord
100
AcDbLayerTableRecord
  2
228
 70
     0
 62
   228
  6
CONTINUOUS
  0
LAYER
  5
11E
330
2
100
AcDbSymbolTableRecord
100
AcDbLayerTableRecord
  2
229
 70
     0
 62
   229
  6
CONTINUOUS
  0
LAYER
  5
11F
330
2
100
AcDbSymbolTableRecord
100
AcDbLayerTableRecord
  2
230
 70
     0
 62
   230
  6
CONTINUOUS
  0
LAYER
  5
120
330
2
100
AcDbSymbolTableRecord
100
AcDbLayerTableRecord
  2
231
 70
     0
 62
   231
  6
CONTINUOUS
  0
LAYER
  5
121
330
2
100
AcDbSymbolTableRecord
100
AcDbLayerTableRecord
  2
232
 70
     0
 62
   232
  6
CONTINUOUS
  0
LAYER
  5
122
330
2
100
AcDbSymbolTableRecord
100
AcDbLayerTableRecord
  2
233
 70
     0
 62
   233
  6
CONTINUOUS
  0
LAYER
  5
123
330
2
100
AcDbSymbolTableRecord
100
AcDbLayerTableRecord
  2
234
 70
     0
 62
   234
  6
CONTINUOUS
  0
LAYER
  5
124
330
2
100
AcDbSymbolTableRecord
100
AcDbLayerTableRecord
  2
235
 70
     0
 62
   235
  6
CONTINUOUS
  0
LAYER
  5
125
330
2
100
AcDbSymbolTableRecord
100
AcDbLayerTableRecord
  2
236
 70
     0
 62
   236
  6
CONTINUOUS
  0
LAYER
  5
126
330
2
100
AcDbSymbolTableRecord
100
AcDbLayerTableRecord
  2
237
 70
     0
 62
   237
  6
CONTINUOUS
  0
LAYER
  5
127
330
2
100
AcDbSymbolTableRecord
100
AcDbLayerTableRecord
  2
238
 70
     0
 62
   238
  6
CONTINUOUS
  0
LAYER
  5
128
330
2
100
AcDbSymbolTableRecord
100
AcDbLayerTableRecord
  2
239
 70
     0
 62
   239
  6
CONTINUOUS
  0
LAYER
  5
129
330
2
100
AcDbSymbolTableRecord
100
AcDbLayerTableRecord
  2
240
 70
     0
 62
   240
  6
CONTINUOUS
  0
LAYER
  5
12A
330
2
100
AcDbSymbolTableRecord
100
AcDbLayerTableRecord
  2
241
 70
     0
 62
   241
  6
CONTINUOUS
  0
LAYER
  5
12B
330
2
100
AcDbSymbolTableRecord
100
AcDbLayerTableRecord
  2
242
 70
     0
 62
   242
  6
CONTINUOUS
  0
LAYER
  5
12C
330
2
100
AcDbSymbolTableRecord
100
AcDbLayerTableRecord
  2
243
 70
     0
 62
   243
  6
CONTINUOUS
  0
LAYER
  5
12D
330
2
100
AcDbSymbolTableRecord
100
AcDbLayerTableRecord
  2
244
 70
     0
 62
   244
  6
CONTINUOUS
  0
LAYER
  5
12E
330
2
100
AcDbSymbolTableRecord
100
AcDbLayerTableRecord
  2
245
 70
     0
 62
   245
  6
CONTINUOUS
  0
LAYER
  5
12F
330
2
100
AcDbSymbolTableRecord
100
AcDbLayerTableRecord
  2
246
 70
     0
 62
   246
  6
CONTINUOUS
  0
LAYER
  5
130
330
2
100
AcDbSymbolTableRecord
100
AcDbLayerTableRecord
  2
247
 70
     0
 62
   247
  6
CONTINUOUS
  0
LAYER
  5
131
330
2
100
AcDbSymbolTableRecord
100
AcDbLayerTableRecord
  2
248
 70
     0
 62
   248
  6
CONTINUOUS
  0
LAYER
  5
132
330
2
100
AcDbSymbolTableRecord
100
AcDbLayerTableRecord
  2
249
 70
     0
 62
   249
  6
CONTINUOUS
  0
LAYER
  5
133
330
2
100
AcDbSymbolTableRecord
100
AcDbLayerTableRecord
  2
250
 70
     0
 62
   250
  6
CONTINUOUS
  0
LAYER
  5
134
330
2
100
AcDbSymbolTableRecord
100
AcDbLayerTableRecord
  2
251
 70
     0
 62
   251
  6
CONTINUOUS
  0
LAYER
  5
135
330
2
100
AcDbSymbolTableRecord
100
AcDbLayerTableRecord
  2
252
 70
     0
 62
   252
  6
CONTINUOUS
  0
LAYER
  5
136
330
2
100
AcDbSymbolTableRecord
100
AcDbLayerTableRecord
  2
253
 70
     0
 62
   253
  6
CONTINUOUS
  0
LAYER
  5
137
330
2
100
AcDbSymbolTableRecord
100
AcDbLayerTableRecord
  2
254
 70
     0
 62
   254
  6
CONTINUOUS
  0
LAYER
  5
138
330
2
100
AcDbSymbolTableRecord
100
AcDbLayerTableRecord
  2
255
 70
     0
 62
   255
  6
CONTINUOUS
  0
ENDTAB
  0
TABLE
  2
STYLE
  5
3
330
0
100
AcDbSymbolTable
 70
     1
  0
STYLE
  5
11
330
3
100
AcDbSymbolTableRecord
100
AcDbTextStyleTableRecord
  2
STANDARD
 70
     0
 40
0.0
 41
1.0
 50
0.0
 71
     0
 42
0.2
  3
monotxt
  4

  0
ENDTAB
  0
TABLE
  2
VIEW
  5
6
330
0
100
AcDbSymbolTable
 70
     0
  0
ENDTAB
  0
TABLE
  2
UCS
  5
7
330
0
100
AcDbSymbolTable
 70
     0
  0
ENDTAB
  0
TABLE
  2
APPID
  5
9
330
0
100
AcDbSymbolTable
 70
     1
  0
APPID
  5
12
330
9
100
AcDbSymbolTableRecord
100
AcDbRegAppTableRecord
  2
ACAD
 70
     0
  0
ENDTAB
  0
TABLE
  2
DIMSTYLE
  5
A
330
0
100
AcDbSymbolTable
 70
     1
  0
DIMSTYLE
105
1FBC
330
A
100
AcDbSymbolTableRecord
100
AcDbDimStyleTableRecord
  2
STANDARD
 70
     0
  3

  4

  5

  6

  7

 40
1.0
 41
0.18
 42
0.0625
 43
0.38
 44
0.18
 45
0.0
 46
0.0
 47
0.0
 48
0.0
140
0.18
141
0.09
142
0.0
143
25.4
144
1.0
145
0.0
146
1.0
147
0.09
 71
     0
 72
     0
 73
     1
 74
     1
 75
     0
 76
     0
 77
     0
 78
     0
170
     0
171
     2
172
     0
173
     0
174
     0
175
     0
176
     0
177
     0
178
     0
270
     2
271
     4
272
     4
273
     2
274
     2
340
11
275
     0
280
     0
281
     0
282
     0
283
     1
284
     0
285
     0
286
     0
287
     3
288
     0
  0
ENDTAB
  0
TABLE
  2
BLOCK_RECORD
  5
1
330
0
100
AcDbSymbolTable
 70
     0
  0
BLOCK_RECORD
  5
1E
102
{ACAD_XDICTIONARY
360
227F
102
}
330
1
100
AcDbSymbolTableRecord
100
AcDbBlockTableRecord
  2
*MODEL_SPACE
  0
BLOCK_RECORD
  5
1A
102
{ACAD_XDICTIONARY
360
227D
102
}
330
1
100
AcDbSymbolTableRecord
100
AcDbBlockTableRecord
  2
*PAPER_SPACE
  0
ENDTAB
  0
ENDSEC
  0
SECTION
  2
BLOCKS
  0
BLOCK
  5
13B
330
1E
100
AcDbEntity
  8
0
100
AcDbBlockBegin
  2
*MODEL_SPACE
 70
     0
 10
0.0
 20
0.0
 30
0.0
  3
*MODEL_SPACE
  1

  0
ENDBLK
  5
13C
330
1E
100
AcDbEntity
  8
0
100
AcDbBlockEnd
  0
BLOCK
  5
139
330
1A
100
AcDbEntity
 67
     1
  8
0
100
AcDbBlockBegin
  2
*PAPER_SPACE
 70
     0
 10
0.0
 20
0.0
 30
0.0
  3
*PAPER_SPACE
  1

  0
ENDBLK
  5
13A
330
1A
100
AcDbEntity
 67
     1
  8
0
100
AcDbBlockEnd
  0
ENDSEC
  0
SECTION
  2
ENTITIES
  0
LINE
  5
13E
330
1E
100
AcDbEntity
  8
7
100
AcDbLine
 10
4.525590551181101
 20
8.03543307086614
 30
0.0
 11
4.523622047244094
 21
7.969488188976377
 31
0.0
  0
LINE
  5
13F
330
1E
100
AcDbEntity
  8
3
100
AcDbLine
 10
4.673228346456692
 20
7.874015748031496
 30
0.0
 11
4.519685039370078
 21
7.874015748031496
 31
0.0
  0
LINE
  5
140
330
1E
100
AcDbEntity
  8
3
100
AcDbLine
 10
5.05511811023622
 20
8.324803149606298
 30
0.0
 11
4.61023622047244
 21
8.324803149606298
 31
0.0
  0
LINE
  5
141
330
1E
100
AcDbEntity
  8
3
100
AcDbLine
 10
5.144685039370078
 20
7.874015748031496
 30
0.0
 11
5.141732283464566
 21
7.969488188976377
 31
0.0
  0
LINE
  5
142
330
1E
100
AcDbEntity
  8
3
100
AcDbLine
 10
5.070866141732283
 20
7.874015748031496
 30
0.0
 11
5.144685039370078
 21
7.874015748031496
 31
0.0
  0
LINE
  5
143
330
1E
100
AcDbEntity
  8
3
100
AcDbLine
 10
4.992125984251968
 20
7.874015748031496
 30
0.0
 11
5.144685039370078
 21
7.874015748031496
 31
0.0
  0
LINE
  5
144
330
1E
100
AcDbEntity
  8
3
100
AcDbLine
 10
4.659448818897637
 20
7.874015748031496
 30
0.0
 11
5.005905511811023
 21
7.874015748031496
 31
0.0
  0
LINE
  5
145
330
1E
100
AcDbEntity
  8
3
100
AcDbLine
 10
4.933070866141731
 20
8.273622047244094
 30
0.0
 11
4.933070866141731
 21
8.297244094488188
 31
0.0
  0
LINE
  5
146
330
1E
100
AcDbEntity
  8
3
100
AcDbLine
 10
4.732283464566928
 20
8.297244094488188
 30
0.0
 11
4.933070866141731
 21
8.297244094488188
 31
0.0
  0
LINE
  5
147
330
1E
100
AcDbEntity
  8
3
100
AcDbLine
 10
4.733267716535432
 20
8.324803149606298
 30
0.0
 11
4.932086614173227
 21
8.324803149606298
 31
0.0
  0
LINE
  5
148
330
1E
100
AcDbEntity
  8
3
100
AcDbLine
 10
4.623031496062991
 20
8.07283464566929
 30
0.0
 11
4.624015748031495
 21
8.245078740157479
 31
0.0
  0
LINE
  5
149
330
1E
100
AcDbEntity
  8
3
100
AcDbLine
 10
4.731299212598425
 20
8.245078740157479
 30
0.0
 11
4.733267716535432
 21
8.324803149606298
 31
0.0
  0
LINE
  5
14A
330
1E
100
AcDbEntity
  8
3
100
AcDbLine
 10
5.042322834645668
 20
8.07283464566929
 30
0.0
 11
5.068897637795275
 21
8.07283464566929
 31
0.0
  0
LINE
  5
14B
330
1E
100
AcDbEntity
  8
3
100
AcDbLine
 10
4.623031496062991
 20
8.125
 30
0.0
 11
4.624015748031495
 21
8.245078740157479
 31
0.0
  0
LINE
  5
14C
330
1E
100
AcDbEntity
  8
3
100
AcDbLine
 10
5.069881889763779
 20
7.969488188976377
 30
0.0
 11
5.068897637795275
 21
8.07283464566929
 31
0.0
  0
LINE
  5
14D
330
1E
100
AcDbEntity
  8
3
100
AcDbLine
 10
5.070866141732283
 20
7.874015748031496
 30
0.0
 11
5.068897637795275
 21
8.07283464566929
 31
0.0
  0
LINE
  5
14E
330
1E
100
AcDbEntity
  8
3
100
AcDbLine
 10
5.041338582677164
 20
8.245078740157479
 30
0.0
 11
4.944881889763779
 21
8.245078740157479
 31
0.0
  0
LINE
  5
14F
330
1E
100
AcDbEntity
  8
3
100
AcDbLine
 10
4.624015748031495
 20
8.245078740157479
 30
0.0
 11
5.041338582677164
 21
8.245078740157479
 31
0.0
  0
LINE
  5
150
330
1E
100
AcDbEntity
  8
3
100
AcDbLine
 10
5.061023622047243
 20
8.141732283464566
 30
0.0
 11
5.041338582677164
 21
8.141732283464566
 31
0.0
  0
LINE
  5
151
330
1E
100
AcDbEntity
  8
3
100
AcDbLine
 10
4.528543307086613
 20
8.125
 30
0.0
 11
4.603346456692912
 21
8.125
 31
0.0
  0
LINE
  5
152
330
1E
100
AcDbEntity
  8
3
100
AcDbLine
 10
4.528543307086613
 20
8.125
 30
0.0
 11
4.593503937007874
 21
8.125
 31
0.0
  0
LINE
  5
153
330
1E
100
AcDbEntity
  8
3
100
AcDbLine
 10
5.061023622047243
 20
8.141732283464566
 30
0.0
 11
5.05511811023622
 21
8.324803149606298
 31
0.0
  0
LINE
  5
154
330
1E
100
AcDbEntity
  8
3
100
AcDbLine
 10
5.080708661417322
 20
7.874015748031496
 30
0.0
 11
4.992125984251968
 21
7.874015748031496
 31
0.0
  0
LINE
  5
155
330
1E
100
AcDbEntity
  8
3
100
AcDbLine
 10
4.584645669291337
 20
7.874015748031496
 30
0.0
 11
4.659448818897637
 21
7.874015748031496
 31
0.0
  0
LINE
  5
156
330
1E
100
AcDbEntity
  8
3
100
AcDbLine
 10
4.623031496062991
 20
8.141732283464566
 30
0.0
 11
4.604330708661416
 21
8.141732283464566
 31
0.0
  0
LINE
  5
157
330
1E
100
AcDbEntity
  8
3
100
AcDbLine
 10
4.596456692913385
 20
8.07283464566929
 30
0.0
 11
4.623031496062991
 21
8.07283464566929
 31
0.0
  0
LINE
  5
158
330
1E
100
AcDbEntity
  8
3
100
AcDbLine
 10
4.623031496062991
 20
8.07283464566929
 30
0.0
 11
4.623031496062991
 21
8.125
 31
0.0
  0
LINE
  5
159
330
1E
100
AcDbEntity
  8
3
100
AcDbLine
 10
4.519685039370078
 20
7.874015748031496
 30
0.0
 11
4.523622047244094
 21
7.969488188976377
 31
0.0
  0
LINE
  5
15A
330
1E
100
AcDbEntity
  8
3
100
AcDbLine
 10
4.673228346456692
 20
7.874015748031496
 30
0.0
 11
4.584645669291337
 21
7.874015748031496
 31
0.0
  0
LINE
  5
15B
330
1E
100
AcDbEntity
  8
3
100
AcDbLine
 10
5.042322834645668
 20
8.07283464566929
 30
0.0
 11
5.041338582677164
 21
8.245078740157479
 31
0.0
  0
LINE
  5
15C
330
1E
100
AcDbEntity
  8
3
100
AcDbLine
 10
4.594488188976377
 20
7.874015748031496
 30
0.0
 11
5.070866141732283
 21
7.874015748031496
 31
0.0
  0
LINE
  5
15D
330
1E
100
AcDbEntity
  8
3
100
AcDbLine
 10
4.733267716535432
 20
8.324803149606298
 30
0.0
 11
4.61023622047244
 21
8.324803149606298
 31
0.0
  0
LINE
  5
15E
330
1E
100
AcDbEntity
  8
3
100
AcDbLine
 10
5.062007874015747
 20
8.125
 30
0.0
 11
5.136811023622047
 21
8.125
 31
0.0
  0
LINE
  5
15F
330
1E
100
AcDbEntity
  8
3
100
AcDbLine
 10
4.519685039370078
 20
7.874015748031496
 30
0.0
 11
4.594488188976377
 21
7.874015748031496
 31
0.0
  0
LINE
  5
160
330
1E
100
AcDbEntity
  8
3
100
AcDbLine
 10
4.61023622047244
 20
8.324803149606298
 30
0.0
 11
4.604330708661416
 21
8.141732283464566
 31
0.0
  0
LINE
  5
161
330
1E
100
AcDbEntity
  8
3
100
AcDbLine
 10
5.141732283464566
 20
7.969488188976377
 30
0.0
 11
5.139763779527558
 21
8.03543307086614
 31
0.0
  0
LINE
  5
162
330
1E
100
AcDbEntity
  8
3
100
AcDbLine
 10
4.595472440944881
 20
7.969488188976377
 30
0.0
 11
4.596456692913385
 21
8.07283464566929
 31
0.0
  0
LINE
  5
163
330
1E
100
AcDbEntity
  8
3
100
AcDbLine
 10
5.141732283464566
 20
7.969488188976377
 30
0.0
 11
5.136811023622047
 21
8.125
 31
0.0
  0
LINE
  5
164
330
1E
100
AcDbEntity
  8
3
100
AcDbLine
 10
5.05511811023622
 20
8.324803149606298
 30
0.0
 11
4.932086614173227
 21
8.324803149606298
 31
0.0
  0
LINE
  5
16A
330
1E
100
AcDbEntity
  8
3
100
AcDbLine
 10
4.528543307086613
 20
8.125
 30
0.0
 11
4.525590551181101
 21
8.03543307086614
 31
0.0
  0
LINE
  5
16B
330
1E
100
AcDbEntity
  8
3
100
AcDbLine
 10
4.594488188976377
 20
7.874015748031496
 30
0.0
 11
4.595472440944881
 21
7.969488188976377
 31
0.0
  0
LINE
  5
16C
330
1E
100
AcDbEntity
  8
3
100
AcDbLine
 10
5.139763779527558
 20
8.03543307086614
 30
0.0
 11
5.136811023622047
 21
8.125
 31
0.0
  0
LINE
  5
16D
330
1E
100
AcDbEntity
  8
3
100
AcDbLine
 10
4.596456692913385
 20
8.07283464566929
 30
0.0
 11
4.623031496062991
 21
8.07283464566929
 31
0.0
  0
LINE
  5
16E
330
1E
100
AcDbEntity
  8
3
100
AcDbLine
 10
5.042322834645668
 20
8.07283464566929
 30
0.0
 11
5.068897637795275
 21
8.07283464566929
 31
0.0
  0
LINE
  5
16F
330
1E
100
AcDbEntity
  8
3
100
AcDbLine
 10
4.732283464566928
 20
8.273622047244094
 30
0.0
 11
4.933070866141731
 21
8.273622047244094
 31
0.0
  0
LINE
  5
170
330
1E
100
AcDbEntity
  8
3
100
AcDbLine
 10
4.594488188976377
 20
7.874015748031496
 30
0.0
 11
4.596456692913385
 21
8.07283464566929
 31
0.0
  0
LINE
  5
171
330
1E
100
AcDbEntity
  8
3
100
AcDbLine
 10
4.624015748031495
 20
8.245078740157479
 30
0.0
 11
4.720472440944881
 21
8.245078740157479
 31
0.0
  0
LINE
  5
172
330
1E
100
AcDbEntity
  8
3
100
AcDbLine
 10
5.144685039370078
 20
7.874015748031496
 30
0.0
 11
5.141732283464566
 21
7.969488188976377
 31
0.0
  0
LINE
  5
173
330
1E
100
AcDbEntity
  8
3
100
AcDbLine
 10
4.519685039370078
 20
7.874015748031496
 30
0.0
 11
4.523622047244094
 21
7.969488188976377
 31
0.0
  0
LINE
  5
174
330
1E
100
AcDbEntity
  8
3
100
AcDbLine
 10
4.603346456692912
 20
8.125
 30
0.0
 11
4.61023622047244
 21
8.324803149606298
 31
0.0
  0
LINE
  5
175
330
1E
100
AcDbEntity
  8
3
100
AcDbLine
 10
5.071850393700787
 20
8.125
 30
0.0
 11
5.136811023622047
 21
8.125
 31
0.0
  0
LINE
  5
176
330
1E
100
AcDbEntity
  8
3
100
AcDbLine
 10
4.933070866141731
 20
8.273622047244094
 30
0.0
 11
4.934055118110236
 21
8.245078740157479
 31
0.0
  0
LINE
  5
177
330
1E
100
AcDbEntity
  8
3
100
AcDbLine
 10
5.005905511811023
 20
7.874015748031496
 30
0.0
 11
5.080708661417322
 21
7.874015748031496
 31
0.0
  0
LINE
  5
178
330
1E
100
AcDbEntity
  8
3
100
AcDbLine
 10
5.070866141732283
 20
7.874015748031496
 30
0.0
 11
5.069881889763779
 21
7.969488188976377
 31
0.0
  0
LINE
  5
184
330
1E
100
AcDbEntity
  8
3
100
AcDbLine
 10
5.062007874015747
 20
8.125
 30
0.0
 11
5.062007874015747
 21
8.129921259842518
 31
0.0
  0
LINE
  5
185
330
1E
100
AcDbEntity
  8
3
100
AcDbLine
 10
5.062007874015747
 20
8.129921259842518
 30
0.0
 11
5.061023622047243
 21
8.141732283464566
 31
0.0
  0
LINE
  5
1E69
330
1E
100
AcDbEntity
  8
3
100
AcDbLine
 10
8.143700787401575
 20
7.874015748031496
 30
0.0
 11
8.142716535433072
 21
7.969488188976377
 31
0.0
  0
LINE
  5
1E6A
330
1E
100
AcDbEntity
  8
3
100
AcDbLine
 10
7.696850393700786
 20
8.125
 30
0.0
 11
6.530511811023621
 21
8.125
 31
0.0
  0
LINE
  5
1E6B
330
1E
100
AcDbEntity
  8
3
100
AcDbLine
 10
8.061023622047244
 20
7.969488188976377
 30
0.0
 11
8.142716535433072
 21
7.969488188976377
 31
0.0
  0
LINE
  5
1E6C
330
1E
100
AcDbEntity
  8
3
100
AcDbLine
 10
7.893700787401574
 20
8.125
 30
0.0
 11
7.70767716535433
 21
8.125
 31
0.0
  0
LINE
  5
1E6D
330
1E
100
AcDbEntity
  8
3
100
AcDbLine
 10
6.530511811023621
 20
8.125
 30
0.0
 11
6.529527559055117
 21
8.199803149606298
 31
0.0
  0
LINE
  5
1E6E
330
1E
100
AcDbEntity
  8
3
100
AcDbLine
 10
7.75787401574803
 20
8.060039370078738
 30
0.0
 11
7.964566929133858
 21
8.078740157480314
 31
0.0
  0
LINE
  5
1E6F
330
1E
100
AcDbEntity
  8
3
100
AcDbLine
 10
7.945866141732282
 20
8.324803149606298
 30
0.0
 11
7.994094488188976
 21
8.324803149606298
 31
0.0
  0
LINE
  5
1E70
330
1E
100
AcDbEntity
  8
3
100
AcDbLine
 10
7.912401574803149
 20
8.273622047244094
 30
0.0
 11
7.914370078740156
 21
8.297244094488188
 31
0.0
  0
LINE
  5
1E71
330
1E
100
AcDbEntity
  8
3
100
AcDbLine
 10
8.142716535433072
 20
7.969488188976377
 30
0.0
 11
8.061023622047244
 21
7.969488188976377
 31
0.0
  0
LINE
  5
1E72
330
1E
100
AcDbEntity
  8
3
100
AcDbLine
 10
7.696850393700786
 20
8.125
 30
0.0
 11
7.696850393700786
 21
8.036417322834644
 31
0.0
  0
LINE
  5
1E73
330
1E
100
AcDbEntity
  8
3
100
AcDbLine
 10
7.943897637795275
 20
8.324803149606298
 30
0.0
 11
7.945866141732282
 21
8.324803149606298
 31
0.0
  0
LINE
  5
1E74
330
1E
100
AcDbEntity
  8
3
100
AcDbLine
 10
7.921259842519684
 20
8.185039370078738
 30
0.0
 11
7.923228346456691
 21
8.185039370078738
 31
0.0
  0
LINE
  5
1E75
330
1E
100
AcDbEntity
  8
3
100
AcDbLine
 10
7.943897637795275
 20
8.324803149606298
 30
0.0
 11
7.945866141732282
 21
8.324803149606298
 31
0.0
  0
LINE
  5
1E76
330
1E
100
AcDbEntity
  8
3
100
AcDbLine
 10
7.994094488188976
 20
8.324803149606298
 30
0.0
 11
7.945866141732282
 21
8.324803149606298
 31
0.0
  0
LINE
  5
1E77
330
1E
100
AcDbEntity
  8
3
100
AcDbLine
 10
6.528543307086613
 20
8.245078740157479
 30
0.0
 11
6.441929133858267
 21
8.245078740157479
 31
0.0
  0
LINE
  5
1E78
330
1E
100
AcDbEntity
  8
3
100
AcDbLine
 10
6.440944881889762
 20
8.07283464566929
 30
0.0
 11
6.441929133858267
 21
8.245078740157479
 31
0.0
  0
LINE
  5
1E79
330
1E
100
AcDbEntity
  8
3
100
AcDbLine
 10
6.529527559055117
 20
8.199803149606298
 30
0.0
 11
6.562007874015747
 21
8.199803149606298
 31
0.0
  0
LINE
  5
1E7A
330
1E
100
AcDbEntity
  8
3
100
AcDbLine
 10
7.921259842519684
 20
8.185039370078738
 30
0.0
 11
7.945866141732282
 21
8.324803149606298
 31
0.0
  0
LINE
  5
1E7B
330
1E
100
AcDbEntity
  8
3
100
AcDbLine
 10
6.5
 20
7.969488188976377
 30
0.0
 11
6.528543307086613
 21
7.969488188976377
 31
0.0
  0
LINE
  5
1E7C
330
1E
100
AcDbEntity
  8
3
100
AcDbLine
 10
6.438976377952755
 20
7.874015748031496
 30
0.0
 11
6.499015748031495
 21
7.874015748031496
 31
0.0
  0
LINE
  5
1E7D
330
1E
100
AcDbEntity
  8
3
100
AcDbLine
 10
8.061023622047244
 20
7.969488188976377
 30
0.0
 11
8.142716535433072
 21
7.969488188976377
 31
0.0
  0
LINE
  5
1E7E
330
1E
100
AcDbEntity
  8
3
100
AcDbLine
 10
7.799212598425197
 20
8.063976377952755
 30
0.0
 11
7.964566929133858
 21
8.078740157480314
 31
0.0
  0
LINE
  5
1E7F
330
1E
100
AcDbEntity
  8
3
100
AcDbLine
 10
6.530511811023621
 20
8.125
 30
0.0
 11
6.528543307086613
 21
8.245078740157479
 31
0.0
  0
LINE
  5
1E80
330
1E
100
AcDbEntity
  8
3
100
AcDbLine
 10
6.441929133858267
 20
8.245078740157479
 30
0.0
 11
6.528543307086613
 21
8.245078740157479
 31
0.0
  0
LINE
  5
1E81
330
1E
100
AcDbEntity
  8
3
100
AcDbLine
 10
7.964566929133858
 20
8.078740157480314
 30
0.0
 11
7.958661417322834
 21
8.03543307086614
 31
0.0
  0
LINE
  5
1E82
330
1E
100
AcDbEntity
  8
3
100
AcDbLine
 10
7.9251968503937
 20
8.074803149606298
 30
0.0
 11
7.890748031496062
 21
8.071850393700787
 31
0.0
  0
LINE
  5
1E83
330
1E
100
AcDbEntity
  8
3
100
AcDbLine
 10
8.142716535433072
 20
7.969488188976377
 30
0.0
 11
8.061023622047244
 21
7.969488188976377
 31
0.0
  0
LINE
  5
1E84
330
1E
100
AcDbEntity
  8
3
100
AcDbLine
 10
8.061023622047244
 20
8.03543307086614
 30
0.0
 11
7.696850393700786
 21
8.03543307086614
 31
0.0
  0
LINE
  5
1E85
330
1E
100
AcDbEntity
  8
3
100
AcDbLine
 10
7.996062992125984
 20
8.03543307086614
 30
0.0
 11
7.696850393700786
 21
8.03543307086614
 31
0.0
  0
LINE
  5
1E86
330
1E
100
AcDbEntity
  8
3
100
AcDbLine
 10
6.528543307086613
 20
7.969488188976377
 30
0.0
 11
6.529527559055117
 21
8.07283464566929
 31
0.0
  0
LINE
  5
1E87
330
1E
100
AcDbEntity
  8
3
100
AcDbLine
 10
6.438976377952755
 20
7.874015748031496
 30
0.0
 11
6.440944881889762
 21
8.07283464566929
 31
0.0
  0
LINE
  5
1E88
330
1E
100
AcDbEntity
  8
3
100
AcDbLine
 10
6.5
 20
7.969488188976377
 30
0.0
 11
6.528543307086613
 21
7.969488188976377
 31
0.0
  0
LINE
  5
1E89
330
1E
100
AcDbEntity
  8
3
100
AcDbLine
 10
7.945866141732282
 20
8.324803149606298
 30
0.0
 11
7.921259842519684
 21
8.185039370078738
 31
0.0
  0
LINE
  5
1E8A
330
1E
100
AcDbEntity
  8
3
100
AcDbLine
 10
7.893700787401574
 20
8.125
 30
0.0
 11
7.70767716535433
 21
8.125
 31
0.0
  0
LINE
  5
1E8B
330
1E
100
AcDbEntity
  8
3
100
AcDbLine
 10
7.696850393700786
 20
8.03543307086614
 30
0.0
 11
8.061023622047244
 21
8.03543307086614
 31
0.0
  0
LINE
  5
1E8C
330
1E
100
AcDbEntity
  8
3
100
AcDbLine
 10
7.913385826771652
 20
8.141732283464566
 30
0.0
 11
7.945866141732282
 21
8.324803149606298
 31
0.0
  0
LINE
  5
1E8D
330
1E
100
AcDbEntity
  8
3
100
AcDbLine
 10
7.964566929133858
 20
8.078740157480314
 30
0.0
 11
7.799212598425197
 21
8.063976377952755
 31
0.0
  0
LINE
  5
1E8E
330
1E
100
AcDbEntity
  8
3
100
AcDbLine
 10
7.875984251968502
 20
8.185039370078738
 30
0.0
 11
7.921259842519684
 21
8.185039370078738
 31
0.0
  0
LINE
  5
1E8F
330
1E
100
AcDbEntity
  8
3
100
AcDbLine
 10
6.529527559055117
 20
8.07283464566929
 30
0.0
 11
6.530511811023621
 21
8.125
 31
0.0
  0
LINE
  5
1E90
330
1E
100
AcDbEntity
  8
3
100
AcDbLine
 10
6.528543307086613
 20
8.245078740157479
 30
0.0
 11
6.529527559055117
 21
8.199803149606298
 31
0.0
  0
LINE
  5
1E91
330
1E
100
AcDbEntity
  8
3
100
AcDbLine
 10
8.143700787401575
 20
7.874015748031496
 30
0.0
 11
8.142716535433072
 21
7.969488188976377
 31
0.0
  0
LINE
  5
1E92
330
1E
100
AcDbEntity
  8
3
100
AcDbLine
 10
7.875984251968502
 20
8.194881889763779
 30
0.0
 11
7.875984251968502
 21
8.185039370078738
 31
0.0
  0
LINE
  5
1E93
330
1E
100
AcDbEntity
  8
3
100
AcDbLine
 10
6.529527559055117
 20
8.199803149606298
 30
0.0
 11
6.562007874015747
 21
8.199803149606298
 31
0.0
  0
LINE
  5
1E94
330
1E
100
AcDbEntity
  8
3
100
AcDbLine
 10
8.061023622047244
 20
7.969488188976377
 30
0.0
 11
8.061023622047244
 21
8.03543307086614
 31
0.0
  0
LINE
  5
1E95
330
1E
100
AcDbEntity
  8
3
100
AcDbLine
 10
6.530511811023621
 20
8.125
 30
0.0
 11
7.696850393700786
 21
8.125
 31
0.0
  0
LINE
  5
1E96
330
1E
100
AcDbEntity
  8
3
100
AcDbLine
 10
7.964566929133858
 20
8.078740157480314
 30
0.0
 11
7.958661417322834
 21
8.03543307086614
 31
0.0
  0
LINE
  5
1E97
330
1E
100
AcDbEntity
  8
3
100
AcDbLine
 10
7.964566929133858
 20
8.078740157480314
 30
0.0
 11
7.958661417322834
 21
8.03543307086614
 31
0.0
  0
LINE
  5
1E98
330
1E
100
AcDbEntity
  8
3
100
AcDbLine
 10
6.440944881889762
 20
8.07283464566929
 30
0.0
 11
6.441929133858267
 21
8.245078740157479
 31
0.0
  0
LINE
  5
1E99
330
1E
100
AcDbEntity
  8
3
100
AcDbLine
 10
7.994094488188976
 20
8.080708661417322
 30
0.0
 11
7.715551181102362
 21
8.057086614173227
 31
0.0
  0
LINE
  5
1E9A
330
1E
100
AcDbEntity
  8
3
100
AcDbLine
 10
6.564960629921259
 20
7.874015748031496
 30
0.0
 11
8.001968503937009
 21
7.874015748031496
 31
0.0
  0
LINE
  5
1E9B
330
1E
100
AcDbEntity
  8
3
100
AcDbLine
 10
6.634842519685038
 20
8.125
 30
0.0
 11
6.530511811023621
 21
8.125
 31
0.0
  0
LINE
  5
1E9C
330
1E
100
AcDbEntity
  8
3
100
AcDbLine
 10
7.75787401574803
 20
8.060039370078738
 30
0.0
 11
7.761811023622047
 21
8.03543307086614
 31
0.0
  0
LINE
  5
1E9D
330
1E
100
AcDbEntity
  8
3
100
AcDbLine
 10
6.499015748031495
 20
7.874015748031496
 30
0.0
 11
8.143700787401575
 21
7.874015748031496
 31
0.0
  0
LINE
  5
1E9E
330
1E
100
AcDbEntity
  8
3
100
AcDbLine
 10
7.994094488188976
 20
8.080708661417322
 30
0.0
 11
7.715551181102362
 21
8.057086614173227
 31
0.0
  0
LINE
  5
1E9F
330
1E
100
AcDbEntity
  8
3
100
AcDbLine
 10
7.994094488188976
 20
8.324803149606298
 30
0.0
 11
7.994094488188976
 21
8.080708661417322
 31
0.0
  0
LINE
  5
1EA0
330
1E
100
AcDbEntity
  8
3
100
AcDbLine
 10
6.438976377952755
 20
7.874015748031496
 30
0.0
 11
6.499015748031495
 21
7.874015748031496
 31
0.0
  0
LINE
  5
1EA1
330
1E
100
AcDbEntity
  8
3
100
AcDbLine
 10
7.696850393700786
 20
8.036417322834644
 30
0.0
 11
7.696850393700786
 21
8.125
 31
0.0
  0
LINE
  5
1EA2
330
1E
100
AcDbEntity
  8
3
100
AcDbLine
 10
6.528543307086613
 20
8.245078740157479
 30
0.0
 11
6.562007874015747
 21
8.245078740157479
 31
0.0
  0
LINE
  5
1EA3
330
1E
100
AcDbEntity
  8
3
100
AcDbLine
 10
6.528543307086613
 20
7.969488188976377
 30
0.0
 11
6.530511811023621
 21
8.125
 31
0.0
  0
LINE
  5
1EA4
330
1E
100
AcDbEntity
  8
3
100
AcDbLine
 10
8.143700787401575
 20
7.874015748031496
 30
0.0
 11
8.142716535433072
 21
7.969488188976377
 31
0.0
  0
LINE
  5
1EA5
330
1E
100
AcDbEntity
  8
3
100
AcDbLine
 10
7.921259842519684
 20
8.185039370078738
 30
0.0
 11
7.923228346456691
 21
8.185039370078738
 31
0.0
  0
LINE
  5
1EA6
330
1E
100
AcDbEntity
  8
3
100
AcDbLine
 10
7.696850393700786
 20
8.03543307086614
 30
0.0
 11
7.996062992125984
 21
8.03543307086614
 31
0.0
  0
LINE
  5
1EA7
330
1E
100
AcDbEntity
  8
3
100
AcDbLine
 10
6.529527559055117
 20
8.199803149606298
 30
0.0
 11
6.530511811023621
 21
8.125
 31
0.0
  0
LINE
  5
1EA8
330
1E
100
AcDbEntity
  8
3
100
AcDbLine
 10
6.564960629921259
 20
7.874015748031496
 30
0.0
 11
6.503937007874015
 21
7.874015748031496
 31
0.0
  0
LINE
  5
1EA9
330
1E
100
AcDbEntity
  8
3
100
AcDbLine
 10
6.564960629921259
 20
7.874015748031496
 30
0.0
 11
8.001968503937009
 21
7.874015748031496
 31
0.0
  0
LINE
  5
1EAA
330
1E
100
AcDbEntity
  8
3
100
AcDbLine
 10
7.945866141732282
 20
8.324803149606298
 30
0.0
 11
7.913385826771652
 21
8.141732283464566
 31
0.0
  0
LINE
  5
1EAB
330
1E
100
AcDbEntity
  8
3
100
AcDbLine
 10
8.061023622047244
 20
7.969488188976377
 30
0.0
 11
8.061023622047244
 21
8.03543307086614
 31
0.0
  0
LINE
  5
1EAC
330
1E
100
AcDbEntity
  8
3
100
AcDbLine
 10
6.528543307086613
 20
7.969488188976377
 30
0.0
 11
6.529527559055117
 21
8.07283464566929
 31
0.0
  0
LINE
  5
1EAD
330
1E
100
AcDbEntity
  8
3
100
AcDbLine
 10
6.528543307086613
 20
7.969488188976377
 30
0.0
 11
6.530511811023621
 21
8.125
 31
0.0
  0
LINE
  5
1EB3
330
1E
100
AcDbEntity
  8
3
100
AcDbLine
 10
7.912401574803149
 20
8.273622047244094
 30
0.0
 11
7.875984251968502
 21
8.194881889763779
 31
0.0
  0
LINE
  5
1EB4
330
1E
100
AcDbEntity
  8
3
100
AcDbLine
 10
7.696850393700786
 20
8.125
 30
0.0
 11
7.696850393700786
 21
8.03543307086614
 31
0.0
  0
LINE
  5
1EB5
330
1E
100
AcDbEntity
  8
3
100
AcDbLine
 10
6.499015748031495
 20
7.874015748031496
 30
0.0
 11
6.5
 21
7.969488188976377
 31
0.0
  0
LINE
  5
1EB6
330
1E
100
AcDbEntity
  8
3
100
AcDbLine
 10
8.143700787401575
 20
7.874015748031496
 30
0.0
 11
8.142716535433072
 21
7.969488188976377
 31
0.0
  0
LINE
  5
1EB7
330
1E
100
AcDbEntity
  8
3
100
AcDbLine
 10
7.696850393700786
 20
8.03543307086614
 30
0.0
 11
7.696850393700786
 21
8.125
 31
0.0
  0
LINE
  5
1EB8
330
1E
100
AcDbEntity
  8
3
100
AcDbLine
 10
7.912401574803149
 20
8.273622047244094
 30
0.0
 11
7.914370078740156
 21
8.297244094488188
 31
0.0
  0
LINE
  5
1EB9
330
1E
100
AcDbEntity
  8
3
100
AcDbLine
 10
7.964566929133858
 20
8.078740157480314
 30
0.0
 11
7.75787401574803
 21
8.060039370078738
 31
0.0
  0
LINE
  5
1EBA
330
1E
100
AcDbEntity
  8
3
100
AcDbLine
 10
7.875984251968502
 20
8.194881889763779
 30
0.0
 11
7.875984251968502
 21
8.185039370078738
 31
0.0
  0
LINE
  5
1EBB
330
1E
100
AcDbEntity
  8
3
100
AcDbLine
 10
8.143700787401575
 20
7.874015748031496
 30
0.0
 11
8.001968503937009
 21
7.874015748031496
 31
0.0
  0
LINE
  5
1EBC
330
1E
100
AcDbEntity
  8
3
100
AcDbLine
 10
6.530511811023621
 20
8.125
 30
0.0
 11
6.634842519685038
 21
8.125
 31
0.0
  0
LINE
  5
1EBD
330
1E
100
AcDbEntity
  8
3
100
AcDbLine
 10
7.913385826771652
 20
8.141732283464566
 30
0.0
 11
7.921259842519684
 21
8.185039370078738
 31
0.0
  0
LINE
  5
1EBE
330
1E
100
AcDbEntity
  8
3
100
AcDbLine
 10
6.438976377952755
 20
7.874015748031496
 30
0.0
 11
6.440944881889762
 21
8.07283464566929
 31
0.0
  0
LINE
  5
1EBF
330
1E
100
AcDbEntity
  8
3
100
AcDbLine
 10
6.562007874015747
 20
8.199803149606298
 30
0.0
 11
6.562007874015747
 21
8.245078740157479
 31
0.0
  0
LINE
  5
1EC0
330
1E
100
AcDbEntity
  8
3
100
AcDbLine
 10
6.528543307086613
 20
8.245078740157479
 30
0.0
 11
6.562007874015747
 21
8.245078740157479
 31
0.0
  0
LINE
  5
1EC1
330
1E
100
AcDbEntity
  8
3
100
AcDbLine
 10
8.143700787401575
 20
7.874015748031496
 30
0.0
 11
6.499015748031495
 21
7.874015748031496
 31
0.0
  0
LINE
  5
1EC2
330
1E
100
AcDbEntity
  8
3
100
AcDbLine
 10
7.875984251968502
 20
8.185039370078738
 30
0.0
 11
7.921259842519684
 21
8.185039370078738
 31
0.0
  0
LINE
  5
1EC3
330
1E
100
AcDbEntity
  8
3
100
AcDbLine
 10
6.528543307086613
 20
7.969488188976377
 30
0.0
 11
6.5
 21
7.969488188976377
 31
0.0
  0
LINE
  5
1EC4
330
1E
100
AcDbEntity
  8
3
100
AcDbLine
 10
6.499015748031495
 20
7.874015748031496
 30
0.0
 11
6.5
 21
7.969488188976377
 31
0.0
  0
LINE
  5
1EC5
330
1E
100
AcDbEntity
  8
3
100
AcDbLine
 10
6.529527559055117
 20
8.199803149606298
 30
0.0
 11
6.528543307086613
 21
8.245078740157479
 31
0.0
  0
LINE
  5
1EC6
330
1E
100
AcDbEntity
  8
3
100
AcDbLine
 10
6.499015748031495
 20
7.874015748031496
 30
0.0
 11
6.5
 21
7.969488188976377
 31
0.0
  0
LINE
  5
1EC7
330
1E
100
AcDbEntity
  8
3
100
AcDbLine
 10
7.994094488188976
 20
8.080708661417322
 30
0.0
 11
7.994094488188976
 21
8.324803149606298
 31
0.0
  0
LINE
  5
1EC8
330
1E
100
AcDbEntity
  8
3
100
AcDbLine
 10
7.912401574803149
 20
8.273622047244094
 30
0.0
 11
7.875984251968502
 21
8.194881889763779
 31
0.0
  0
LINE
  5
1EC9
330
1E
100
AcDbEntity
  8
3
100
AcDbLine
 10
7.9251968503937
 20
8.074803149606298
 30
0.0
 11
7.890748031496062
 21
8.071850393700787
 31
0.0
  0
LINE
  5
1ECA
330
1E
100
AcDbEntity
  8
3
100
AcDbLine
 10
7.913385826771652
 20
8.141732283464566
 30
0.0
 11
7.921259842519684
 21
8.185039370078738
 31
0.0
  0
LINE
  5
1ECB
330
1E
100
AcDbEntity
  8
3
100
AcDbLine
 10
6.5
 20
7.969488188976377
 30
0.0
 11
6.528543307086613
 21
7.969488188976377
 31
0.0
  0
LINE
  5
1ECC
330
1E
100
AcDbEntity
  8
3
100
AcDbLine
 10
8.143700787401575
 20
7.874015748031496
 30
0.0
 11
8.001968503937009
 21
7.874015748031496
 31
0.0
  0
LINE
  5
1ECD
330
1E
100
AcDbEntity
  8
3
100
AcDbLine
 10
6.503937007874015
 20
7.874015748031496
 30
0.0
 11
6.564960629921259
 21
7.874015748031496
 31
0.0
  0
LINE
  5
1ECE
330
1E
100
AcDbEntity
  8
3
100
AcDbLine
 10
6.499015748031495
 20
7.874015748031496
 30
0.0
 11
6.5
 21
7.969488188976377
 31
0.0
  0
LINE
  5
1ECF
330
1E
100
AcDbEntity
  8
3
100
AcDbLine
 10
6.562007874015747
 20
8.245078740157479
 30
0.0
 11
6.562007874015747
 21
8.199803149606298
 31
0.0
  0
LINE
  5
1EE1
330
1E
100
AcDbEntity
  8
3
100
AcDbLine
 10
7.893700787401574
 20
8.125
 30
0.0
 11
7.906496062992125
 21
8.129921259842518
 31
0.0
  0
LINE
  5
1EE2
330
1E
100
AcDbEntity
  8
3
100
AcDbLine
 10
7.906496062992125
 20
8.129921259842518
 30
0.0
 11
7.913385826771652
 21
8.141732283464566
 31
0.0
  0
LINE
  5
1EE9
330
1E
100
AcDbEntity
  8
3
100
AcDbLine
 10
7.715551181102362
 20
8.057086614173227
 30
0.0
 11
7.70767716535433
 21
8.054133858267716
 31
0.0
  0
LINE
  5
1EFF
330
1E
100
AcDbEntity
  8
3
100
AcDbLine
 10
7.715551181102362
 20
8.057086614173227
 30
0.0
 11
7.70767716535433
 21
8.054133858267716
 31
0.0
  0
LINE
  5
1FD7
330
1E
100
AcDbEntity
  8
3
100
AcDbLine
 10
7.895669291338582
 20
8.125
 30
0.0
 11
7.894685039370078
 21
8.125
 31
0.0
  0
LINE
  5
1FD8
330
1E
100
AcDbEntity
  8
3
100
AcDbLine
 10
7.894685039370078
 20
8.125
 30
0.0
 11
7.893700787401574
 21
8.125
 31
0.0
  0
LINE
  5
1FD9
330
1E
100
AcDbEntity
  8
3
100
AcDbLine
 10
7.893700787401574
 20
8.125
 30
0.0
 11
7.894685039370078
 21
8.125
 31
0.0
  0
LINE
  5
1FDA
330
1E
100
AcDbEntity
  8
3
100
AcDbLine
 10
7.894685039370078
 20
8.125
 30
0.0
 11
7.895669291338582
 21
8.125
 31
0.0
  0
LINE
  5
1FDB
330
1E
100
AcDbEntity
  8
3
100
AcDbLine
 10
7.697834645669291
 20
8.040354330708661
 30
0.0
 11
7.697834645669291
 21
8.041338582677164
 31
0.0
  0
LINE
  5
1FDC
330
1E
100
AcDbEntity
  8
3
100
AcDbLine
 10
7.697834645669291
 20
8.041338582677164
 30
0.0
 11
7.697834645669291
 21
8.042322834645668
 31
0.0
  0
LINE
  5
1FDD
330
1E
100
AcDbEntity
  8
3
100
AcDbLine
 10
7.697834645669291
 20
8.042322834645668
 30
0.0
 11
7.698818897637795
 21
8.043307086614172
 31
0.0
  0
LINE
  5
1FDE
330
1E
100
AcDbEntity
  8
3
100
AcDbLine
 10
7.698818897637795
 20
8.043307086614172
 30
0.0
 11
7.698818897637795
 21
8.044291338582675
 31
0.0
  0
LINE
  5
1FDF
330
1E
100
AcDbEntity
  8
3
100
AcDbLine
 10
7.698818897637795
 20
8.044291338582675
 30
0.0
 11
7.698818897637795
 21
8.045275590551181
 31
0.0
  0
LINE
  5
1FE0
330
1E
100
AcDbEntity
  8
3
100
AcDbLine
 10
7.698818897637795
 20
8.045275590551181
 30
0.0
 11
7.699803149606299
 21
8.046259842519685
 31
0.0
  0
LINE
  5
1FE1
330
1E
100
AcDbEntity
  8
3
100
AcDbLine
 10
7.699803149606299
 20
8.046259842519685
 30
0.0
 11
7.699803149606299
 21
8.047244094488188
 31
0.0
  0
LINE
  5
1FE2
330
1E
100
AcDbEntity
  8
3
100
AcDbLine
 10
7.699803149606299
 20
8.047244094488188
 30
0.0
 11
7.700787401574802
 21
8.048228346456692
 31
0.0
  0
LINE
  5
1FE3
330
1E
100
AcDbEntity
  8
3
100
AcDbLine
 10
7.700787401574802
 20
8.048228346456692
 30
0.0
 11
7.701771653543306
 21
8.049212598425196
 31
0.0
  0
LINE
  5
1FE4
330
1E
100
AcDbEntity
  8
3
100
AcDbLine
 10
7.701771653543306
 20
8.049212598425196
 30
0.0
 11
7.70275590551181
 21
8.0501968503937
 31
0.0
  0
LINE
  5
1FE5
330
1E
100
AcDbEntity
  8
3
100
AcDbLine
 10
7.70275590551181
 20
8.0501968503937
 30
0.0
 11
7.70275590551181
 21
8.051181102362203
 31
0.0
  0
LINE
  5
1FE6
330
1E
100
AcDbEntity
  8
3
100
AcDbLine
 10
7.70275590551181
 20
8.051181102362203
 30
0.0
 11
7.703740157480313
 21
8.052165354330707
 31
0.0
  0
LINE
  5
1FE7
330
1E
100
AcDbEntity
  8
3
100
AcDbLine
 10
7.703740157480313
 20
8.052165354330707
 30
0.0
 11
7.704724409448817
 21
8.052165354330707
 31
0.0
  0
LINE
  5
1FE8
330
1E
100
AcDbEntity
  8
3
100
AcDbLine
 10
7.704724409448817
 20
8.052165354330707
 30
0.0
 11
7.705708661417323
 21
8.053149606299212
 31
0.0
  0
LINE
  5
1FE9
330
1E
100
AcDbEntity
  8
3
100
AcDbLine
 10
7.705708661417323
 20
8.053149606299212
 30
0.0
 11
7.706692913385826
 21
8.053149606299212
 31
0.0
  0
LINE
  5
1FEA
330
1E
100
AcDbEntity
  8
3
100
AcDbLine
 10
7.706692913385826
 20
8.053149606299212
 30
0.0
 11
7.70767716535433
 21
8.054133858267716
 31
0.0
  0
LINE
  5
1FEB
330
1E
100
AcDbEntity
  8
3
100
AcDbLine
 10
7.701771653543306
 20
8.0501968503937
 30
0.0
 11
7.701771653543306
 21
8.049212598425196
 31
0.0
  0
LINE
  5
1FEC
330
1E
100
AcDbEntity
  8
3
100
AcDbLine
 10
7.701771653543306
 20
8.049212598425196
 30
0.0
 11
7.700787401574802
 21
8.048228346456692
 31
0.0
  0
LINE
  5
1FED
330
1E
100
AcDbEntity
  8
3
100
AcDbLine
 10
7.700787401574802
 20
8.048228346456692
 30
0.0
 11
7.700787401574802
 21
8.047244094488188
 31
0.0
  0
LINE
  5
1FEE
330
1E
100
AcDbEntity
  8
3
100
AcDbLine
 10
7.700787401574802
 20
8.047244094488188
 30
0.0
 11
7.699803149606299
 21
8.046259842519685
 31
0.0
  0
LINE
  5
1FEF
330
1E
100
AcDbEntity
  8
3
100
AcDbLine
 10
7.699803149606299
 20
8.046259842519685
 30
0.0
 11
7.699803149606299
 21
8.045275590551181
 31
0.0
  0
LINE
  5
1FF0
330
1E
100
AcDbEntity
  8
3
100
AcDbLine
 10
7.699803149606299
 20
8.045275590551181
 30
0.0
 11
7.698818897637795
 21
8.045275590551181
 31
0.0
  0
LINE
  5
1FF1
330
1E
100
AcDbEntity
  8
3
100
AcDbLine
 10
7.698818897637795
 20
8.045275590551181
 30
0.0
 11
7.698818897637795
 21
8.044291338582675
 31
0.0
  0
LINE
  5
1FF2
330
1E
100
AcDbEntity
  8
3
100
AcDbLine
 10
7.698818897637795
 20
8.044291338582675
 30
0.0
 11
7.697834645669291
 21
8.043307086614172
 31
0.0
  0
LINE
  5
1FF3
330
1E
100
AcDbEntity
  8
3
100
AcDbLine
 10
7.697834645669291
 20
8.043307086614172
 30
0.0
 11
7.697834645669291
 21
8.042322834645668
 31
0.0
  0
LINE
  5
1FF4
330
1E
100
AcDbEntity
  8
3
100
AcDbLine
 10
7.697834645669291
 20
8.042322834645668
 30
0.0
 11
7.697834645669291
 21
8.041338582677164
 31
0.0
  0
LINE
  5
1FF5
330
1E
100
AcDbEntity
  8
3
100
AcDbLine
 10
7.697834645669291
 20
8.041338582677164
 30
0.0
 11
7.697834645669291
 21
8.040354330708661
 31
0.0
  0
LINE
  5
1FF6
330
1E
100
AcDbEntity
  8
3
100
AcDbLine
 10
7.697834645669291
 20
8.040354330708661
 30
0.0
 11
7.697834645669291
 21
8.039370078740157
 31
0.0
  0
LINE
  5
1FF7
330
1E
100
AcDbEntity
  8
3
100
AcDbLine
 10
7.697834645669291
 20
8.039370078740157
 30
0.0
 11
7.696850393700786
 21
8.038385826771653
 31
0.0
  0
LINE
  5
1FF8
330
1E
100
AcDbEntity
  8
3
100
AcDbLine
 10
7.696850393700786
 20
8.038385826771653
 30
0.0
 11
7.696850393700786
 21
8.037401574803149
 31
0.0
  0
LINE
  5
1FF9
330
1E
100
AcDbEntity
  8
3
100
AcDbLine
 10
7.696850393700786
 20
8.037401574803149
 30
0.0
 11
7.696850393700786
 21
8.036417322834644
 31
0.0
  0
LINE
  5
1FFA
330
1E
100
AcDbEntity
  8
3
100
AcDbLine
 10
7.696850393700786
 20
8.036417322834644
 30
0.0
 11
7.696850393700786
 21
8.037401574803149
 31
0.0
  0
LINE
  5
1FFB
330
1E
100
AcDbEntity
  8
3
100
AcDbLine
 10
7.696850393700786
 20
8.037401574803149
 30
0.0
 11
7.696850393700786
 21
8.038385826771653
 31
0.0
  0
LINE
  5
1FFC
330
1E
100
AcDbEntity
  8
3
100
AcDbLine
 10
7.696850393700786
 20
8.038385826771653
 30
0.0
 11
7.697834645669291
 21
8.039370078740157
 31
0.0
  0
LINE
  5
1FFD
330
1E
100
AcDbEntity
  8
3
100
AcDbLine
 10
7.697834645669291
 20
8.039370078740157
 30
0.0
 11
7.697834645669291
 21
8.040354330708661
 31
0.0
  0
LINE
  5
1FFE
330
1E
100
AcDbEntity
  8
3
100
AcDbLine
 10
7.70767716535433
 20
8.054133858267716
 30
0.0
 11
7.706692913385826
 21
8.053149606299212
 31
0.0
  0
LINE
  5
1FFF
330
1E
100
AcDbEntity
  8
3
100
AcDbLine
 10
7.706692913385826
 20
8.053149606299212
 30
0.0
 11
7.705708661417323
 21
8.053149606299212
 31
0.0
  0
LINE
  5
2000
330
1E
100
AcDbEntity
  8
3
100
AcDbLine
 10
7.705708661417323
 20
8.053149606299212
 30
0.0
 11
7.704724409448817
 21
8.052165354330707
 31
0.0
  0
LINE
  5
2001
330
1E
100
AcDbEntity
  8
3
100
AcDbLine
 10
7.704724409448817
 20
8.052165354330707
 30
0.0
 11
7.703740157480313
 21
8.051181102362203
 31
0.0
  0
LINE
  5
2002
330
1E
100
AcDbEntity
  8
3
100
AcDbLine
 10
7.703740157480313
 20
8.051181102362203
 30
0.0
 11
7.70275590551181
 21
8.051181102362203
 31
0.0
  0
LINE
  5
2003
330
1E
100
AcDbEntity
  8
3
100
AcDbLine
 10
7.70275590551181
 20
8.051181102362203
 30
0.0
 11
7.701771653543306
 21
8.0501968503937
 31
0.0
  0
LINE
  5
2004
330
1E
100
AcDbEntity
  8
3
100
AcDbLine
 10
7.696850393700786
 20
8.125
 30
0.0
 11
7.699803149606299
 21
8.125
 31
0.0
  0
LINE
  5
2005
330
1E
100
AcDbEntity
  8
3
100
AcDbLine
 10
7.699803149606299
 20
8.125
 30
0.0
 11
7.70767716535433
 21
8.125
 31
0.0
  0
LINE
  5
2006
330
1E
100
AcDbEntity
  8
3
100
AcDbLine
 10
7.875984251968502
 20
8.070866141732283
 30
0.0
 11
7.890748031496062
 21
8.071850393700787
 31
0.0
  0
LINE
  5
2007
330
1E
100
AcDbEntity
  8
3
100
AcDbLine
 10
7.890748031496062
 20
8.071850393700787
 30
0.0
 11
7.875984251968502
 21
8.070866141732283
 31
0.0
  0
LINE
  5
2008
330
1E
100
AcDbEntity
  8
3
100
AcDbLine
 10
7.875984251968502
 20
8.070866141732283
 30
0.0
 11
7.863188976377952
 21
8.069881889763779
 31
0.0
  0
LINE
  5
2009
330
1E
100
AcDbEntity
  8
3
100
AcDbLine
 10
7.863188976377952
 20
8.069881889763779
 30
0.0
 11
7.854330708661417
 21
8.068897637795275
 31
0.0
  0
LINE
  5
200A
330
1E
100
AcDbEntity
  8
3
100
AcDbLine
 10
7.854330708661417
 20
8.068897637795275
 30
0.0
 11
7.851377952755904
 21
8.068897637795275
 31
0.0
  0
LINE
  5
200B
330
1E
100
AcDbEntity
  8
3
100
AcDbLine
 10
7.851377952755904
 20
8.068897637795275
 30
0.0
 11
7.854330708661417
 21
8.068897637795275
 31
0.0
  0
LINE
  5
200C
330
1E
100
AcDbEntity
  8
3
100
AcDbLine
 10
7.854330708661417
 20
8.068897637795275
 30
0.0
 11
7.863188976377952
 21
8.069881889763779
 31
0.0
  0
LINE
  5
200D
330
1E
100
AcDbEntity
  8
3
100
AcDbLine
 10
7.863188976377952
 20
8.069881889763779
 30
0.0
 11
7.875984251968502
 21
8.070866141732283
 31
0.0
  0
LINE
  5
200E
330
1E
100
AcDbEntity
  8
3
100
AcDbLine
 10
7.943897637795275
 20
8.324803149606298
 30
0.0
 11
7.929133858267715
 21
8.320866141732283
 31
0.0
  0
LINE
  5
200F
330
1E
100
AcDbEntity
  8
3
100
AcDbLine
 10
7.929133858267715
 20
8.320866141732283
 30
0.0
 11
7.918307086614173
 21
8.311023622047244
 31
0.0
  0
LINE
  5
2010
330
1E
100
AcDbEntity
  8
3
100
AcDbLine
 10
7.918307086614173
 20
8.311023622047244
 30
0.0
 11
7.914370078740156
 21
8.297244094488188
 31
0.0
  0
LINE
  5
2011
330
1E
100
AcDbEntity
  8
3
100
AcDbLine
 10
7.895669291338582
 20
8.125
 30
0.0
 11
7.907480314960628
 21
8.129921259842518
 31
0.0
  0
LINE
  5
2012
330
1E
100
AcDbEntity
  8
3
100
AcDbLine
 10
7.907480314960628
 20
8.129921259842518
 30
0.0
 11
7.913385826771652
 21
8.141732283464566
 31
0.0
  0
LINE
  5
2013
330
1E
100
AcDbEntity
  8
3
100
AcDbLine
 10
7.893700787401574
 20
8.125
 30
0.0
 11
7.906496062992125
 21
8.129921259842518
 31
0.0
  0
LINE
  5
2014
330
1E
100
AcDbEntity
  8
3
100
AcDbLine
 10
7.906496062992125
 20
8.129921259842518
 30
0.0
 11
7.913385826771652
 21
8.141732283464566
 31
0.0
  0
LINE
  5
2015
330
1E
100
AcDbEntity
  8
3
100
AcDbLine
 10
7.895669291338582
 20
8.125
 30
0.0
 11
7.907480314960628
 21
8.129921259842518
 31
0.0
  0
LINE
  5
2016
330
1E
100
AcDbEntity
  8
3
100
AcDbLine
 10
7.907480314960628
 20
8.129921259842518
 30
0.0
 11
7.913385826771652
 21
8.141732283464566
 31
0.0
  0
LINE
  5
2017
330
1E
100
AcDbEntity
  8
3
100
AcDbLine
 10
7.856299212598425
 20
8.125
 30
0.0
 11
7.861220472440945
 21
8.125
 31
0.0
  0
LINE
  5
2018
330
1E
100
AcDbEntity
  8
3
100
AcDbLine
 10
7.861220472440945
 20
8.125
 30
0.0
 11
7.874999999999999
 21
8.125
 31
0.0
  0
LINE
  5
2019
330
1E
100
AcDbEntity
  8
3
100
AcDbLine
 10
7.874999999999999
 20
8.125
 30
0.0
 11
7.893700787401574
 21
8.125
 31
0.0
  0
LINE
  5
201A
330
1E
100
AcDbEntity
  8
3
100
AcDbLine
 10
7.893700787401574
 20
8.125
 30
0.0
 11
7.874999999999999
 21
8.125
 31
0.0
  0
LINE
  5
201B
330
1E
100
AcDbEntity
  8
3
100
AcDbLine
 10
7.874999999999999
 20
8.125
 30
0.0
 11
7.861220472440945
 21
8.125
 31
0.0
  0
LINE
  5
201C
330
1E
100
AcDbEntity
  8
3
100
AcDbLine
 10
7.861220472440945
 20
8.125
 30
0.0
 11
7.856299212598425
 21
8.125
 31
0.0
  0
LINE
  5
201D
330
1E
100
AcDbEntity
  8
3
100
AcDbLine
 10
7.70767716535433
 20
8.125
 30
0.0
 11
7.699803149606299
 21
8.125
 31
0.0
  0
LINE
  5
201E
330
1E
100
AcDbEntity
  8
3
100
AcDbLine
 10
7.699803149606299
 20
8.125
 30
0.0
 11
7.696850393700786
 21
8.125
 31
0.0
  0
LINE
  5
201F
330
1E
100
AcDbEntity
  8
3
100
AcDbLine
 10
7.943897637795275
 20
8.324803149606298
 30
0.0
 11
7.929133858267715
 21
8.320866141732283
 31
0.0
  0
LINE
  5
2020
330
1E
100
AcDbEntity
  8
3
100
AcDbLine
 10
7.929133858267715
 20
8.320866141732283
 30
0.0
 11
7.918307086614173
 21
8.311023622047244
 31
0.0
  0
LINE
  5
2021
330
1E
100
AcDbEntity
  8
3
100
AcDbLine
 10
7.918307086614173
 20
8.311023622047244
 30
0.0
 11
7.914370078740156
 21
8.297244094488188
 31
0.0
  0
LINE
  5
2022
330
1E
100
AcDbEntity
  8
3
100
AcDbLine
 10
6.529527559055117
 20
8.07283464566929
 30
0.0
 11
6.530511811023621
 21
8.125
 31
0.0
  0
LINE
  5
2023
330
1E
100
AcDbEntity
  8
3
100
AcDbLine
 10
6.530511811023621
 20
8.125
 30
0.0
 11
6.528543307086613
 21
8.245078740157479
 31
0.0
  0
LINE
  5
223A
330
1E
100
AcDbEntity
  8
3
100
AcDbLine
 10
5.071850393700787
 20
8.125
 30
0.0
 11
5.064960629921259
 21
8.125
 31
0.0
  0
LINE
  5
223B
330
1E
100
AcDbEntity
  8
3
100
AcDbLine
 10
5.064960629921259
 20
8.125
 30
0.0
 11
5.062007874015747
 21
8.125
 31
0.0
  0
LINE
  5
223C
330
1E
100
AcDbEntity
  8
3
100
AcDbLine
 10
4.733267716535432
 20
8.324803149606298
 30
0.0
 11
4.733267716535432
 21
8.320866141732283
 31
0.0
  0
LINE
  5
223D
330
1E
100
AcDbEntity
  8
3
100
AcDbLine
 10
4.733267716535432
 20
8.320866141732283
 30
0.0
 11
4.733267716535432
 21
8.311023622047244
 31
0.0
  0
LINE
  5
223E
330
1E
100
AcDbEntity
  8
3
100
AcDbLine
 10
4.733267716535432
 20
8.311023622047244
 30
0.0
 11
4.732283464566928
 21
8.297244094488188
 31
0.0
  0
LINE
  5
223F
330
1E
100
AcDbEntity
  8
3
100
AcDbLine
 10
4.603346456692912
 20
8.125
 30
0.0
 11
4.603346456692912
 21
8.129921259842518
 31
0.0
  0
LINE
  5
2240
330
1E
100
AcDbEntity
  8
3
100
AcDbLine
 10
4.603346456692912
 20
8.129921259842518
 30
0.0
 11
4.604330708661416
 21
8.141732283464566
 31
0.0
  0
LINE
  5
2241
330
1E
100
AcDbEntity
  8
3
100
AcDbLine
 10
4.603346456692912
 20
8.125
 30
0.0
 11
4.6003937007874
 21
8.125
 31
0.0
  0
LINE
  5
2242
330
1E
100
AcDbEntity
  8
3
100
AcDbLine
 10
4.6003937007874
 20
8.125
 30
0.0
 11
4.593503937007874
 21
8.125
 31
0.0
  0
LINE
  5
2243
330
1E
100
AcDbEntity
  8
3
100
AcDbLine
 10
4.932086614173227
 20
8.324803149606298
 30
0.0
 11
4.932086614173227
 21
8.320866141732283
 31
0.0
  0
LINE
  5
2244
330
1E
100
AcDbEntity
  8
3
100
AcDbLine
 10
4.932086614173227
 20
8.320866141732283
 30
0.0
 11
4.932086614173227
 21
8.311023622047244
 31
0.0
  0
LINE
  5
2245
330
1E
100
AcDbEntity
  8
3
100
AcDbLine
 10
4.932086614173227
 20
8.311023622047244
 30
0.0
 11
4.933070866141731
 21
8.297244094488188
 31
0.0
  0
LINE
  5
2246
330
1E
100
AcDbEntity
  8
3
100
AcDbLine
 10
5.042322834645668
 20
8.07283464566929
 30
0.0
 11
5.042322834645668
 21
8.125
 31
0.0
  0
LINE
  5
2247
330
1E
100
AcDbEntity
  8
3
100
AcDbLine
 10
5.042322834645668
 20
8.125
 30
0.0
 11
5.041338582677164
 21
8.245078740157479
 31
0.0
  0
ENDSEC
  0
SECTION
  2
OBJECTS
  0
DICTIONARY
  5
C
330
0
100
AcDbDictionary
  3
ACAD_GROUP
350
D
  3
ACAD_LAYOUT
350
19
  3
ACAD_MLINESTYLE
350
16
  3
ACAD_PLOTSETTINGS
350
18
1001
ACAD
1000
TREAT_AS_HARD
1070
     0
  0
DICTIONARY
  5
227F
330
1E
100
AcDbDictionary
  3
ACAD_LAYOUTSELFREF
350
2280
  0
DICTIONARY
  5
227D
330
1A
100
AcDbDictionary
  3
ACAD_LAYOUTSELFREF
350
227E
  0
DICTIONARY
  5
D
102
{ACAD_REACTORS
330
C
102
}
330
C
100
AcDbDictionary
1001
ACAD
1000
TREAT_AS_HARD
1070
     0
  0
DICTIONARY
  5
19
102
{ACAD_REACTORS
330
C
102
}
330
C
100
AcDbDictionary
1001
ACAD
1000
TREAT_AS_HARD
1070
     0
  0
DICTIONARY
  5
16
102
{ACAD_REACTORS
330
C
102
}
330
C
100
AcDbDictionary
  3
STANDARD
350
17
1001
ACAD
1000
TREAT_AS_HARD
1070
     0
  0
DICTIONARY
  5
18
102
{ACAD_REACTORS
330
C
102
}
330
C
100
AcDbDictionary
1001
ACAD
1000
TREAT_AS_HARD
1070
     0
  0
XRECORD
  5
2280
102
{ACAD_REACTORS
330
227F
102
}
330
227F
100
AcDbXrecord
340
1E
  0
XRECORD
  5
227E
102
{ACAD_REACTORS
330
227D
102
}
330
227D
100
AcDbXrecord
340
1A
  0
MLINESTYLE
  5
17
102
{ACAD_REACTORS
330
16
102
}
330
16
100
AcDbMlineStyle
  2
STANDARD
 70
     0
  3

 62
   256
 51
90.0
 52
90.0
 71
     2
 49
0.5
 62
   256
  6
BYLAYER
 49
-0.5
 62
   256
  6
BYLAYER
  0
ENDSEC
  0
EOF
