  0
SECTION
  2
HEADER
  9
$ACADVER
  1
AC1015
  9
$ACADMAINTVER
 70
    20
  9
$DWGCODEPAGE
  3
ANSI_1252
  9
$INSBASE
 10
0.0
 20
0.0
 30
0.0
  9
$EXTMIN
 10
-0.5
 20
-0.5
 30
-0.5
  9
$EXTMAX
 10
5.0
 20
5.0
 30
5.0
  9
$LIMMIN
 10
-0.5
 20
-0.5
  9
$LIMMAX
 10
5.0
 20
5.0
  9
$ORTHOMODE
 70
     0
  9
$REGENMODE
 70
     1
  9
$FILLMODE
 70
     1
  9
$QTEXTMODE
 70
     0
  9
$MIRRTEXT
 70
     1
  9
$LTSCALE
 40
1.0
  9
$ATTMODE
 70
     1
  9
$TEXTSIZE
 40
0.0
  9
$TRACEWID
 40
0.05
  9
$TEXTSTYLE
  7
Standard
  9
$CLAYER
  8
0
  9
$CELTYPE
  6
Continuous
  9
$CECOLOR
 62
   256
  9
$CELTSCALE
 40
1.0
  9
$DISPSILH
 70
     0
  9
$DIMSCALE
 40
1.0
  9
$DIMASZ
 40
0.18
  9
$DIMEXO
 40
0.0625
  9
$DIMDLI
 40
0.38
  9
$DIMRND
 40
0.0
  9
$DIMDLE
 40
0.0
  9
$DIMEXE
 40
0.18
  9
$DIMTP
 40
0.0
  9
$DIMTM
 40
0.0
  9
$DIMTXT
 40
0.18
  9
$DIMCEN
 40
0.09
  9
$DIMTSZ
 40
0.0
  9
$DIMTOL
 70
     0
  9
$DIMLIM
 70
     0
  9
$DIMTIH
 70
     1
  9
$DIMTOH
 70
     1
  9
$DIMSE1
 70
     0
  9
$DIMSE2
 70
     0
  9
$DIMTAD
 70
     0
  9
$DIMZIN
 70
     0
  9
$DIMBLK
  1

  9
$DIMASO
 70
     1
  9
$DIMSHO
 70
     1
  9
$DIMPOST
  1

  9
$DIMAPOST
  1

  9
$DIMALT
 70
     0
  9
$DIMALTD
 70
     2
  9
$DIMALTF
 40
25.4
  9
$DIMLFAC
 40
1.0
  9
$DIMTOFL
 70
     0
  9
$DIMTVP
 40
0.0
  9
$DIMTIX
 70
     0
  9
$DIMSOXD
 70
     0
  9
$DIMSAH
 70
     0
  9
$DIMBLK1
  1

  9
$DIMBLK2
  1

  9
$DIMSTYLE
  2
Standard
  9
$DIMCLRD
 70
     0
  9
$DIMCLRE
 70
     0
  9
$DIMCLRT
 70
     0
  9
$DIMTFAC
 40
1.0
  9
$DIMGAP
 40
0.09
  9
$DIMJUST
 70
     0
  9
$DIMSD1
 70
     0
  9
$DIMSD2
 70
     0
  9
$DIMTOLJ
 70
     1
  9
$DIMTZIN
 70
     0
  9
$DIMALTZ
 70
     0
  9
$DIMALTTZ
 70
     0
  9
$DIMUPT
 70
     0
  9
$DIMDEC
 70
     4
  9
$DIMTDEC
 70
     4
  9
$DIMALTU
 70
     2
  9
$DIMALTTD
 70
     2
  9
$DIMTXSTY
  7
Standard
  9
$DIMAUNIT
 70
     0
  9
$DIMADEC
 70
     0
  9
$DIMALTRND
 40
0.0
  9
$DIMAZIN
 70
     0
  9
$DIMDSEP
 70
     0
  9
$DIMATFIT
 70
     3
  9
$DIMFRAC
 70
     0
  9
$DIMLDRBLK
  1

  9
$DIMLUNIT
 70
     2
  9
$DIMLWD
 70
     0
  9
$DIMLWE
 70
     0
  9
$DIMTMOVE
 70
     0
  9
$LUNITS
 70
     2
  9
$LUPREC
 70
     4
  9
$SKETCHINC
 40
0.1
  9
$FILLETRAD
 40
0.0
  9
$AUNITS
 70
     0
  9
$AUPREC
 70
     0
  9
$MENU
  1
acad
  9
$ELEVATION
 40
0.0
  9
$PELEVATION
 40
0.0
  9
$THICKNESS
 40
0.0
  9
$LIMCHECK
 70
     0
  9
$CHAMFERA
 40
0.0
  9
$CHAMFERB
 40
0.0
  9
$CHAMFERC
 40
0.0
  9
$CHAMFERD
 40
0.0
  9
$SKPOLY
 70
     0
  9
$TDCREATE
 40
2455321.628993369
  9
$TDUCREATE
 40
2455321.837326701
  9
$TDUPDATE
 40
2455321.629618357
  9
$TDUUPDATE
 40
2455321.837951690
  9
$TDINDWG
 40
0.0006398148
  9
$TDUSRTIMER
 40
0.0006385532
  9
$USRTIMER
 70
     1
  9
$ANGBASE
 50
0.0
  9
$ANGDIR
 70
     0
  9
$PDMODE
 70
     0
  9
$PDSIZE
 40
0.0
  9
$PLINEWID
 40
0.0
  9
$SPLFRAME
 70
     0
  9
$SPLINETYPE
 70
     6
  9
$SPLINESEGS
 70
     8
  9
$HANDSEED
  5
2F8
  9
$SURFTAB1
 70
     6
  9
$SURFTAB2
 70
     6
  9
$SURFTYPE
 70
     6
  9
$SURFU
 70
     6
  9
$SURFV
 70
     6
  9
$UCSBASE
  2

  9
$UCSNAME
  2

  9
$UCSORG
 10
0.0
 20
0.0
 30
0.0
  9
$UCSXDIR
 10
1.0
 20
0.0
 30
0.0
  9
$UCSYDIR
 10
0.0
 20
1.0
 30
0.0
  9
$UCSORTHOREF
  2

  9
$UCSORTHOVIEW
 70
     0
  9
$UCSORGTOP
 10
0.0
 20
0.0
 30
0.0
  9
$UCSORGBOTTOM
 10
0.0
 20
0.0
 30
0.0
  9
$UCSORGLEFT
 10
0.0
 20
0.0
 30
0.0
  9
$UCSORGRIGHT
 10
0.0
 20
0.0
 30
0.0
  9
$UCSORGFRONT
 10
0.0
 20
0.0
 30
0.0
  9
$UCSORGBACK
 10
0.0
 20
0.0
 30
0.0
  9
$PUCSBASE
  2

  9
$PUCSNAME
  2

  9
$PUCSORG
 10
0.0
 20
0.0
 30
0.0
  9
$PUCSXDIR
 10
1.0
 20
0.0
 30
0.0
  9
$PUCSYDIR
 10
0.0
 20
1.0
 30
0.0
  9
$PUCSORTHOREF
  2

  9
$PUCSORTHOVIEW
 70
     0
  9
$PUCSORGTOP
 10
0.0
 20
0.0
 30
0.0
  9
$PUCSORGBOTTOM
 10
0.0
 20
0.0
 30
0.0
  9
$PUCSORGLEFT
 10
0.0
 20
0.0
 30
0.0
  9
$PUCSORGRIGHT
 10
0.0
 20
0.0
 30
0.0
  9
$PUCSORGFRONT
 10
0.0
 20
0.0
 30
0.0
  9
$PUCSORGBACK
 10
0.0
 20
0.0
 30
0.0
  9
$USERI1
 70
     0
  9
$USERI2
 70
     0
  9
$USERI3
 70
     0
  9
$USERI4
 70
     0
  9
$USERI5
 70
     0
  9
$USERR1
 40
0.0
  9
$USERR2
 40
0.0
  9
$USERR3
 40
0.0
  9
$USERR4
 40
0.0
  9
$USERR5
 40
0.0
  9
$WORLDVIEW
 70
     1
  9
$SHADEDGE
 70
     3
  9
$SHADEDIF
 70
    70
  9
$TILEMODE
 70
     0
  9
$MAXACTVP
 70
    64
  9
$PINSBASE
 10
0.0
 20
0.0
 30
0.0
  9
$PLIMCHECK
 70
     0
  9
$PEXTMIN
 10
1.629928618122271
 20
3.947128322030334
 30
-0.0004043445228632
  9
$PEXTMAX
 10
5.457939168272933
 20
4.673599259664303
 30
0.0000152657740013
  9
$PLIMMIN
 10
1.538785418041001
 20
3.855985210923158
  9
$PLIMMAX
 10
5.549082279380108
 20
6.954850947502182
  9
$UNITMODE
 70
     0
  9
$VISRETAIN
 70
     0
  9
$PLINEGEN
 70
     1
  9
$PSLTSCALE
 70
     0
  9
$TREEDEPTH
 70
  3020
  9
$CMLSTYLE
  2
Standard
  9
$CMLJUST
 70
     0
  9
$CMLSCALE
 40
1.0
  9
$PROXYGRAPHICS
 70
     0
  9
$MEASUREMENT
 70
     0
  9
$CELWEIGHT
370
     0
  9
$ENDCAPS
280
     0
  9
$JOINSTYLE
280
     0
  9
$LWDISPLAY
290
     0
  9
$INSUNITS
 70
     0
  9
$HYPERLINKBASE
  1

  9
$STYLESHEET
  1

  9
$XEDIT
290
     1
  9
$CEPSNTYPE
380
     0
  9
$PSTYLEMODE
290
     1
  9
$FINGERPRINTGUID
  2

  9
$VERSIONGUID
  2
{ACF9234E-0DB5-490F-A031-4E0620660780}
  9
$EXTNAMES
290
     1
  9
$PSVPSCALE
 40
0.0
  9
$OLESTARTUP
290
     0
  0
ENDSEC
  0
SECTION
  2
CLASSES
  0
CLASS
  1
IMAGE
  2
AcDbRasterImage
  3
ISM
 90
    34943
280
     0
281
     1
  0
CLASS
  1
DICTIONARYVAR
  2
AcDbDictionaryVar
  3
ObjectDBX Classes
 90
        0
280
     0
281
     0
  0
CLASS
  1
RASTERVARIABLES
  2
AcDbRasterVariables
  3
ISM
 90
    32768
280
     0
281
     0
  0
CLASS
  1
IMAGEDEF
  2
AcDbRasterImageDef
  3
ISM
 90
    32768
280
     0
281
     0
  0
CLASS
  1
IMAGEDEF_REACTOR
  2
AcDbRasterImageDefReactor
  3
ISM
 90
    32769
280
     0
281
     0
  0
CLASS
  1
IDBUFFER
  2
AcDbIdBuffer
  3
ObjectDBX Classes
 90
    32768
280
     0
281
     0
  0
CLASS
  1
SPATIAL_FILTER
  2
AcDbSpatialFilter
  3
ObjectDBX Classes
 90
    32768
280
     0
281
     0
  0
CLASS
  1
SORTENTSTABLE
  2
AcDbSortentsTable
  3
ObjectDBX Classes
 90
    32768
280
     0
281
     0
  0
CLASS
  1
LAYER_INDEX
  2
AcDbLayerIndex
  3
ObjectDBX Classes
 90
    32768
280
     0
281
     0
  0
CLASS
  1
SPATIAL_INDEX
  2
AcDbSpatialIndex
  3
ObjectDBX Classes
 90
    32768
280
     0
281
     0
  0
CLASS
  1
OBJECT_PTR
  2
CAseDLPNTableRecord
  3
ASE-LPNTableRecord
 90
    32769
280
     0
281
     0
  0
CLASS
  1
LAYOUT
  2
AcDbLayout
  3
ObjectDBX Classes
 90
        0
280
     0
281
     0
  0
CLASS
  1
PLOTSETTINGS
  2
AcDbPlotSettings
  3
ObjectDBX Classes
 90
    32768
280
     0
281
     0
  0
CLASS
  1
ACDBDICTIONARYWDFLT
  2
AcDbDictionaryWithDefault
  3
ObjectDBX Classes
 90
        0
280
     0
281
     0
  0
CLASS
  1
ACDBPLACEHOLDER
  2
AcDbPlaceHolder
  3
ObjectDBX Classes
 90
        0
280
     0
281
     0
  0
CLASS
  1
VBA_PROJECT
  2
AcDbVbaProject
  3
acad
 90
    32768
280
     0
281
     0
  0
CLASS
  1
WIPEOUT
  2
AcDbWipeout
  3
"WipeOut|Product Desc: Object Enabler for WipeOut entity                        |Company: Autodesk, Inc.                        |WEB Address: www.autodesk.com"
 90
    34943
280
     0
281
     1
  0
CLASS
  1
WIPEOUTVARIABLES
  2
AcDbWipeoutVariables
  3
"WipeOut|Product Desc:     WipeOut Dbx Application|Company:          Autodesk, Inc.|WEB Address:      www.autodesk.com"
 90
        0
280
     0
281
     0
  0
CLASS
  1
RTEXT
  2
RText
  3
RText|AutoCAD Express Tool|expresstools@autodesk.com
 90
    35839
280
     0
281
     1
  0
CLASS
  1
ARCALIGNEDTEXT
  2
AcDbArcAlignedText
  3
ATEXT|AutoCAD Express Tool|expresstools@autodesk.com
 90
    32768
280
     0
281
     1
  0
CLASS
  1
MATERIAL
  2
AcDbMaterial
  3
ObjectDBX Classes
 90
     1024
280
     0
281
     0
  0
CLASS
  1
VISUALSTYLE
  2
AcDbVisualStyle
  3
ObjectDBX Classes
 90
     4095
280
     0
281
     0
  0
CLASS
  1
TABLESTYLE
  2
AcDbTableStyle
  3
ObjectDBX Classes
 90
     4095
280
     0
281
     0
  0
ENDSEC
  0
SECTION
  2
TABLES
  0
TABLE
  2
VPORT
  5
7
330
0
100
AcDbSymbolTable
 70
    16
  0
VPORT
  5
2AF
330
7
100
AcDbSymbolTableRecord
100
AcDbViewportTableRecord
  2
*ACTIVE
 70
     0
 10
0.0
 20
0.0
 11
1.0
 21
1.0
 12
0.0
 22
0.0
 13
0.0
 23
0.0
 14
1.0
 24
1.0
 15
0.0
 25
0.0
 16
0.718873
 26
-0.5850489999999999
 36
0.375419
 17
0.0
 27
0.0
 37
0.0
 40
45.47360499999999
 41
0.6885640000000001
 42
50.0
 43
22.4721
 44
-22.4721
 50
0.0
 51
0.0
 71
    16
 72
   100
 73
     1
 74
     1
 75
     0
 76
     0
 77
     0
 78
     0
281
     0
 65
     0
110
0.0
120
0.0
130
0.0
111
1.0
121
0.0
131
0.0
112
0.0
122
1.0
132
0.0
 79
     0
146
0.0
  0
VPORT
  5
2B0
330
7
100
AcDbSymbolTableRecord
100
AcDbViewportTableRecord
  2
L1
 70
     0
 10
0.0
 20
0.0
 11
1.0
 21
1.0
 12
0.0
 22
0.0
 13
0.0
 23
0.0
 14
1.0
 24
1.0
 15
0.0
 25
0.0
 16
0.718873
 26
-0.5850489999999999
 36
0.375419
 17
0.0
 27
0.0
 37
0.0
 40
45.47360499999999
 41
0.6885640000000001
 42
50.0
 43
22.4721
 44
-22.4721
 50
0.0
 51
0.0
 71
    16
 72
   100
 73
     1
 74
     1
 75
     0
 76
     0
 77
     0
 78
     0
281
     0
 65
     0
110
0.0
120
0.0
130
0.0
111
1.0
121
0.0
131
0.0
112
0.0
122
1.0
132
0.0
 79
     0
146
0.0
  0
VPORT
  5
2B1
330
7
100
AcDbSymbolTableRecord
100
AcDbViewportTableRecord
  2
L2
 70
     0
 10
0.0
 20
0.0
 11
0.5
 21
1.0
 12
0.0
 22
0.0
 13
0.0
 23
0.0
 14
1.0
 24
1.0
 15
0.0
 25
0.0
 16
0.0
 26
-1.0
 36
0.0
 17
0.0
 27
0.0
 37
0.0
 40
43.848
 41
0.6885640000000001
 42
50.0
 43
22.625359
 44
-22.625359
 50
0.0
 51
0.0
 71
    16
 72
   100
 73
     1
 74
     1
 75
     0
 76
     0
 77
     0
 78
     0
281
     0
 65
     0
110
0.0
120
0.0
130
0.0
111
1.0
121
0.0
131
0.0
112
0.0
122
1.0
132
0.0
 79
     0
146
0.0
  0
VPORT
  5
2B2
330
7
100
AcDbSymbolTableRecord
100
AcDbViewportTableRecord
  2
L2
 70
     0
 10
0.5
 20
0.0
 11
1.0
 21
1.0
 12
0.0
 22
0.0
 13
0.0
 23
0.0
 14
1.0
 24
1.0
 15
0.0
 25
0.0
 16
1.0
 26
0.0
 36
0.0
 17
0.0
 27
0.0
 37
0.0
 40
43.848
 41
0.6885640000000001
 42
50.0
 43
22.175271
 44
-22.175271
 50
0.0
 51
0.0
 71
    16
 72
   100
 73
     1
 74
     1
 75
     0
 76
     0
 77
     0
 78
     0
281
     0
 65
     0
110
0.0
120
0.0
130
0.0
111
1.0
121
0.0
131
0.0
112
0.0
122
1.0
132
0.0
 79
     0
146
0.0
  0
VPORT
  5
2B3
330
7
100
AcDbSymbolTableRecord
100
AcDbViewportTableRecord
  2
L3
 70
     0
 10
0.0
 20
0.5
 11
1.0
 21
1.0
 12
0.0
 22
0.0
 13
0.0
 23
0.0
 14
1.0
 24
1.0
 15
0.0
 25
0.0
 16
0.0
 26
0.0
 36
1.0
 17
0.0
 27
0.0
 37
0.0
 40
6.657592999999999
 41
0.6885640000000003
 42
50.0
 43
21.924
 44
-21.924
 50
0.0
 51
0.0
 71
    16
 72
   100
 73
     1
 74
     1
 75
     0
 76
     0
 77
     0
 78
     0
281
     0
 65
     0
110
0.0
120
0.0
130
0.0
111
1.0
121
0.0
131
0.0
112
0.0
122
1.0
132
0.0
 79
     0
146
0.0
  0
VPORT
  5
2B4
330
7
100
AcDbSymbolTableRecord
100
AcDbViewportTableRecord
  2
L3
 70
     0
 10
0.0
 20
0.0
 11
1.0
 21
0.5
 12
0.0
 22
0.0
 13
0.0
 23
0.0
 14
1.0
 24
1.0
 15
0.0
 25
0.0
 16
0.0
 26
-1.0
 36
0.0
 17
0.0
 27
0.0
 37
0.0
 40
43.848
 41
0.6885640000000001
 42
50.0
 43
22.625359
 44
-22.625359
 50
0.0
 51
0.0
 71
    16
 72
   100
 73
     1
 74
     1
 75
     0
 76
     0
 77
     0
 78
     0
281
     0
 65
     0
110
0.0
120
0.0
130
0.0
111
1.0
121
0.0
131
0.0
112
0.0
122
1.0
132
0.0
 79
     0
146
0.0
  0
VPORT
  5
2B5
330
7
100
AcDbSymbolTableRecord
100
AcDbViewportTableRecord
  2
L4
 70
     0
 10
0.0
 20
0.5
 11
0.5
 21
1.0
 12
0.0
 22
0.0
 13
0.0
 23
0.0
 14
1.0
 24
1.0
 15
0.0
 25
0.0
 16
0.0
 26
0.0
 36
1.0
 17
0.0
 27
0.0
 37
0.0
 40
6.657592999999999
 41
0.6885640000000003
 42
50.0
 43
21.924
 44
-21.924
 50
0.0
 51
0.0
 71
    16
 72
   100
 73
     1
 74
     1
 75
     0
 76
     0
 77
     0
 78
     0
281
     0
 65
     0
110
0.0
120
0.0
130
0.0
111
1.0
121
0.0
131
0.0
112
0.0
122
1.0
132
0.0
 79
     0
146
0.0
  0
VPORT
  5
2B6
330
7
100
AcDbSymbolTableRecord
100
AcDbViewportTableRecord
  2
L4
 70
     0
 10
0.0
 20
0.0
 11
0.5
 21
0.5
 12
0.0
 22
0.0
 13
0.0
 23
0.0
 14
1.0
 24
1.0
 15
0.0
 25
0.0
 16
0.0
 26
-1.0
 36
0.0
 17
0.0
 27
0.0
 37
0.0
 40
43.848
 41
0.6885640000000001
 42
50.0
 43
22.625359
 44
-22.625359
 50
0.0
 51
0.0
 71
    16
 72
   100
 73
     1
 74
     1
 75
     0
 76
     0
 77
     0
 78
     0
281
     0
 65
     0
110
0.0
120
0.0
130
0.0
111
1.0
121
0.0
131
0.0
112
0.0
122
1.0
132
0.0
 79
     0
146
0.0
  0
VPORT
  5
2B7
330
7
100
AcDbSymbolTableRecord
100
AcDbViewportTableRecord
  2
L4
 70
     0
 10
0.5
 20
0.0
 11
1.0
 21
0.5
 12
0.0
 22
0.0
 13
0.0
 23
0.0
 14
1.0
 24
1.0
 15
0.0
 25
0.0
 16
1.0
 26
0.0
 36
0.0
 17
0.0
 27
0.0
 37
0.0
 40
43.848
 41
0.6885640000000001
 42
50.0
 43
22.175271
 44
-22.175271
 50
0.0
 51
0.0
 71
    16
 72
   100
 73
     1
 74
     1
 75
     0
 76
     0
 77
     0
 78
     0
281
     0
 65
     0
110
0.0
120
0.0
130
0.0
111
1.0
121
0.0
131
0.0
112
0.0
122
1.0
132
0.0
 79
     0
146
0.0
  0
VPORT
  5
2B8
330
7
100
AcDbSymbolTableRecord
100
AcDbViewportTableRecord
  2
L4
 70
     0
 10
0.5
 20
0.5
 11
1.0
 21
1.0
 12
0.0
 22
0.0
 13
0.0
 23
0.0
 14
1.0
 24
1.0
 15
0.0
 25
0.0
 16
0.5773500000000001
 26
-0.5773500000000001
 36
0.5773500000000001
 17
0.0
 27
0.0
 37
0.0
 40
43.083689
 41
0.6885640000000001
 42
50.0
 43
22.44596
 44
-22.44596
 50
0.0
 51
0.0
 71
    16
 72
   100
 73
     1
 74
     1
 75
     0
 76
     0
 77
     0
 78
     0
281
     0
 65
     0
110
0.0
120
0.0
130
0.0
111
1.0
121
0.0
131
0.0
112
0.0
122
1.0
132
0.0
 79
     0
146
0.0
  0
VPORT
  5
2B9
330
7
100
AcDbSymbolTableRecord
100
AcDbViewportTableRecord
  2
L6
 70
     0
 10
0.0
 20
0.5
 11
0.333333
 21
1.0
 12
0.0
 22
0.0
 13
0.0
 23
0.0
 14
1.0
 24
1.0
 15
0.0
 25
0.0
 16
0.718873
 26
-0.5850489999999999
 36
0.375419
 17
0.0
 27
0.0
 37
0.0
 40
45.47360499999999
 41
0.6885640000000001
 42
50.0
 43
22.4721
 44
-22.4721
 50
0.0
 51
0.0
 71
    16
 72
   100
 73
     1
 74
     1
 75
     0
 76
     0
 77
     0
 78
     0
281
     0
 65
     0
110
0.0
120
0.0
130
0.0
111
1.0
121
0.0
131
0.0
112
0.0
122
1.0
132
0.0
 79
     0
146
0.0
  0
VPORT
  5
2BA
330
7
100
AcDbSymbolTableRecord
100
AcDbViewportTableRecord
  2
L6
 70
     0
 10
0.0
 20
0.0
 11
0.333333
 21
0.5
 12
0.0
 22
0.0
 13
0.0
 23
0.0
 14
1.0
 24
1.0
 15
0.0
 25
0.0
 16
-1.0
 26
0.0
 36
0.0
 17
0.0
 27
0.0
 37
0.0
 40
43.848
 41
0.6885640000000001
 42
50.0
 43
22.175271
 44
-22.175271
 50
0.0
 51
0.0
 71
    16
 72
   100
 73
     1
 74
     1
 75
     0
 76
     0
 77
     0
 78
     0
281
     0
 65
     0
110
0.0
120
0.0
130
0.0
111
1.0
121
0.0
131
0.0
112
0.0
122
1.0
132
0.0
 79
     0
146
0.0
  0
VPORT
  5
2BB
330
7
100
AcDbSymbolTableRecord
100
AcDbViewportTableRecord
  2
L6
 70
     0
 10
0.333333
 20
0.5
 11
0.666667
 21
1.0
 12
0.0
 22
0.0
 13
0.0
 23
0.0
 14
1.0
 24
1.0
 15
0.0
 25
0.0
 16
0.0
 26
0.0
 36
1.0
 17
0.0
 27
0.0
 37
0.0
 40
6.657592999999999
 41
0.6885640000000003
 42
50.0
 43
21.924
 44
-21.924
 50
0.0
 51
0.0
 71
    16
 72
   100
 73
     1
 74
     1
 75
     0
 76
     0
 77
     0
 78
     0
281
     0
 65
     0
110
0.0
120
0.0
130
0.0
111
1.0
121
0.0
131
0.0
112
0.0
122
1.0
132
0.0
 79
     0
146
0.0
  0
VPORT
  5
2BC
330
7
100
AcDbSymbolTableRecord
100
AcDbViewportTableRecord
  2
L6
 70
     0
 10
0.333333
 20
0.0
 11
0.666667
 21
0.5
 12
0.0
 22
0.0
 13
0.0
 23
0.0
 14
1.0
 24
1.0
 15
0.0
 25
0.0
 16
0.0
 26
-1.0
 36
0.0
 17
0.0
 27
0.0
 37
0.0
 40
43.848
 41
0.6885640000000001
 42
50.0
 43
22.625359
 44
-22.625359
 50
0.0
 51
0.0
 71
    16
 72
   100
 73
     1
 74
     1
 75
     0
 76
     0
 77
     0
 78
     0
281
     0
 65
     0
110
0.0
120
0.0
130
0.0
111
1.0
121
0.0
131
0.0
112
0.0
122
1.0
132
0.0
 79
     0
146
0.0
  0
VPORT
  5
2BD
330
7
100
AcDbSymbolTableRecord
100
AcDbViewportTableRecord
  2
L6
 70
     0
 10
0.666667
 20
0.5
 11
1.0
 21
1.0
 12
0.0
 22
0.0
 13
0.0
 23
0.0
 14
1.0
 24
1.0
 15
0.0
 25
0.0
 16
0.5773500000000001
 26
-0.5773500000000001
 36
0.5773500000000001
 17
0.0
 27
0.0
 37
0.0
 40
43.083689
 41
0.6885640000000001
 42
50.0
 43
22.44596
 44
-22.44596
 50
0.0
 51
0.0
 71
    16
 72
   100
 73
     1
 74
     1
 75
     0
 76
     0
 77
     0
 78
     0
281
     0
 65
     0
110
0.0
120
0.0
130
0.0
111
1.0
121
0.0
131
0.0
112
0.0
122
1.0
132
0.0
 79
     0
146
0.0
  0
VPORT
  5
2BE
330
7
100
AcDbSymbolTableRecord
100
AcDbViewportTableRecord
  2
L6
 70
     0
 10
0.666667
 20
0.0
 11
1.0
 21
0.5
 12
0.0
 22
0.0
 13
0.0
 23
0.0
 14
1.0
 24
1.0
 15
0.0
 25
0.0
 16
1.0
 26
0.0
 36
0.0
 17
0.0
 27
0.0
 37
0.0
 40
43.848
 41
0.6885640000000001
 42
50.0
 43
22.175271
 44
-22.175271
 50
0.0
 51
0.0
 71
    16
 72
   100
 73
     1
 74
     1
 75
     0
 76
     0
 77
     0
 78
     0
281
     0
 65
     0
110
0.0
120
0.0
130
0.0
111
1.0
121
0.0
131
0.0
112
0.0
122
1.0
132
0.0
 79
     0
146
0.0
  0
ENDTAB
  0
TABLE
  2
LTYPE
  5
4
330
0
100
AcDbSymbolTable
 70
     7
  0
LTYPE
  5
11
330
4
100
AcDbSymbolTableRecord
100
AcDbLinetypeTableRecord
  2
ByBlock
 70
     0
  3

 72
    65
 73
     0
 40
0.0
  0
LTYPE
  5
12
330
4
100
AcDbSymbolTableRecord
100
AcDbLinetypeTableRecord
  2
ByLayer
 70
     0
  3

 72
    65
 73
     0
 40
0.0
  0
LTYPE
  5
13
330
4
100
AcDbSymbolTableRecord
100
AcDbLinetypeTableRecord
  2
Continuous
 70
     0
  3
Solid line
 72
    65
 73
     0
 40
0.0
  0
LTYPE
  5
24
330
4
100
AcDbSymbolTableRecord
100
AcDbLinetypeTableRecord
  2
DASHED
 70
     0
  3
__ __ __ __ __ __ __ __ __
 72
    65
 73
     2
 40
25.72
 49
12.86
 74
     0
 49
-12.86
 74
     0
  0
LTYPE
  5
25
330
4
100
AcDbSymbolTableRecord
100
AcDbLinetypeTableRecord
  2
HIDDEN
 70
     0
  3
_ _ _ _ _ _ _ _ _ _ _ _ _ _ _
 72
    65
 73
     2
 40
0.5
 49
0.25
 74
     0
 49
-0.25
 74
     0
  0
LTYPE
  5
26
330
4
100
AcDbSymbolTableRecord
100
AcDbLinetypeTableRecord
  2
PHANTOM
 70
     0
  3
____ _ _ ____ _ _ _____ _ _ ____
 72
    65
 73
     6
 40
50.5
 49
18.0
 74
     0
 49
-6.5
 74
     0
 49
6.5
 74
     0
 49
-6.5
 74
     0
 49
6.5
 74
     0
 49
-6.5
 74
     0
  0
LTYPE
  5
27
330
4
100
AcDbSymbolTableRecord
100
AcDbLinetypeTableRecord
  2
CENTER
 70
     0
  3
____ _ ____ _ ____ _ ____
 72
    65
 73
     4
 40
47.5
 49
22.0
 74
     0
 49
-8.5
 74
     0
 49
8.5
 74
     0
 49
-8.5
 74
     0
  0
LTYPE
  5
28
330
4
100
AcDbSymbolTableRecord
100
AcDbLinetypeTableRecord
  2
DOT
 70
     0
  3
.........................
 72
    65
 73
     2
 40
10.0
 49
0.0
 74
     0
 49
-10.0
 74
     0
  0
LTYPE
  5
29
330
4
100
AcDbSymbolTableRecord
100
AcDbLinetypeTableRecord
  2
DASHDOT
 70
     0
  3
_._._._._._._._._._._._._._._._.
 72
    65
 73
     4
 40
70.0
 49
31.0
 74
     0
 49
-13.0
 74
     0
 49
13.0
 74
     0
 49
-13.0
 74
     0
  0
ENDTAB
  0
TABLE
  2
LAYER
  5
2
330
0
100
AcDbSymbolTable
 70
     2
  0
LAYER
  5
14
330
2
100
AcDbSymbolTableRecord
100
AcDbLayerTableRecord
  2
0
 70
     0
 62
     7
  6
Continuous
370
    -3
390
1D
  0
LAYER
  5
34
330
2
100
AcDbSymbolTableRecord
100
AcDbLayerTableRecord
  2
1
 70
     0
 62
     7
  6
Continuous
370
    -3
390
1D
  0
ENDTAB
  0
TABLE
  2
STYLE
  5
3
330
0
100
AcDbSymbolTable
 70
     1
  0
STYLE
  5
17
330
3
100
AcDbSymbolTableRecord
100
AcDbTextStyleTableRecord
  2
Standard
 70
     0
 40
0.0
 41
1.0
 50
0.0
 71
     0
 42
0.0
  3
txt
  4

  0
ENDTAB
  0
TABLE
  2
VIEW
  5
5
330
0
100
AcDbSymbolTable
 70
     8
  0
VIEW
  5
2A
330
5
100
AcDbSymbolTableRecord
100
AcDbViewTableRecord
  2
TOP
 70
     0
 40
6.657592999999999
 10
0.0
 20
0.0
 41
11.179462
 11
0.0
 21
0.0
 31
1.0
 12
0.0
 22
0.0
 32
0.0
 42
50.0
 43
21.924
 44
-21.924
 50
0.0
 71
    16
281
     0
 72
     0
  0
VIEW
  5
2B
330
5
100
AcDbSymbolTableRecord
100
AcDbViewTableRecord
  2
FRONT
 70
     0
 40
43.848
 10
0.0
 20
0.0
 41
11.179462
 11
0.0
 21
-1.0
 31
0.0
 12
0.0
 22
0.0
 32
0.0
 42
50.0
 43
22.625359
 44
-22.625359
 50
0.0
 71
    16
281
     0
 72
     0
  0
VIEW
  5
2C
330
5
100
AcDbSymbolTableRecord
100
AcDbViewTableRecord
  2
RIGHT
 70
     0
 40
43.848
 10
0.0
 20
0.0
 41
6.657592999999999
 11
1.0
 21
0.0
 31
0.0
 12
0.0
 22
0.0
 32
0.0
 42
50.0
 43
22.175271
 44
-22.175271
 50
0.0
 71
    16
281
     0
 72
     0
  0
VIEW
  5
2D
330
5
100
AcDbSymbolTableRecord
100
AcDbViewTableRecord
  2
BACK
 70
     0
 40
43.848
 10
0.0
 20
0.0
 41
11.179462
 11
0.0
 21
1.0
 31
0.0
 12
0.0
 22
0.0
 32
0.0
 42
50.0
 43
22.625359
 44
-22.625359
 50
0.0
 71
    16
281
     0
 72
     0
  0
VIEW
  5
2E
330
5
100
AcDbSymbolTableRecord
100
AcDbViewTableRecord
  2
BOTTOM
 70
     0
 40
6.657592999999999
 10
0.0
 20
0.0
 41
11.179462
 11
0.0
 21
0.0
 31
-1.0
 12
0.0
 22
0.0
 32
0.0
 42
50.0
 43
21.924
 44
-21.924
 50
180.0
 71
    16
281
     0
 72
     0
  0
VIEW
  5
2F
330
5
100
AcDbSymbolTableRecord
100
AcDbViewTableRecord
  2
LEFT
 70
     0
 40
43.848
 10
0.0
 20
0.0
 41
6.657592999999999
 11
-1.0
 21
0.0
 31
0.0
 12
0.0
 22
0.0
 32
0.0
 42
50.0
 43
22.175271
 44
-22.175271
 50
0.0
 71
    16
281
     0
 72
     0
  0
VIEW
  5
30
330
5
100
AcDbSymbolTableRecord
100
AcDbViewTableRecord
  2
TFR-ISO
 70
     0
 40
43.083689
 10
0.0
 20
0.0
 41
12.612702
 11
0.5773500000000001
 21
-0.5773500000000001
 31
0.5773500000000001
 12
0.0
 22
0.0
 32
0.0
 42
50.0
 43
22.44596
 44
-22.44596
 50
0.0
 71
    16
281
     0
 72
     0
  0
VIEW
  5
31
330
5
100
AcDbSymbolTableRecord
100
AcDbViewTableRecord
  2
TFR-TRI
 70
     0
 40
45.47360499999999
 10
0.0
 20
0.0
 41
12.220349
 11
0.718873
 21
-0.5850489999999999
 31
0.375419
 12
0.0
 22
0.0
 32
0.0
 42
50.0
 43
22.4721
 44
-22.4721
 50
0.0
 71
    16
281
     0
 72
     0
  0
ENDTAB
  0
TABLE
  2
UCS
  5
6
330
0
100
AcDbSymbolTable
 70
     0
  0
ENDTAB
  0
TABLE
  2
APPID
  5
8
330
0
100
AcDbSymbolTable
 70
     3
  0
APPID
  5
16
330
8
100
AcDbSymbolTableRecord
100
AcDbRegAppTableRecord
  2
ACAD
 70
     0
  0
APPID
  5
2DD
330
8
100
AcDbSymbolTableRecord
100
AcDbRegAppTableRecord
  2
ACAD_PSEXT
 70
     0
  0
APPID
  5
2E0
330
8
100
AcDbSymbolTableRecord
100
AcDbRegAppTableRecord
  2
DCO15
 70
     0
  0
ENDTAB
  0
TABLE
  2
DIMSTYLE
  5
9
330
0
100
AcDbSymbolTable
 70
     1
100
AcDbDimStyleTable
 71
     0
  0
DIMSTYLE
105
18
330
9
100
AcDbSymbolTableRecord
100
AcDbDimStyleTableRecord
  2
Standard
 70
     0
340
17
  0
ENDTAB
  0
TABLE
  2
BLOCK_RECORD
  5
1
330
0
100
AcDbSymbolTable
 70
     0
  0
BLOCK_RECORD
  5
A
330
1
100
AcDbSymbolTableRecord
100
AcDbBlockTableRecord
  2
*MODEL_SPACE
340
20
  0
BLOCK_RECORD
  5
B
330
1
100
AcDbSymbolTableRecord
100
AcDbBlockTableRecord
  2
*PAPER_SPACE
340
21
  0
ENDTAB
  0
ENDSEC
  0
SECTION
  2
BLOCKS
  0
BLOCK
  5
D
330
A
100
AcDbEntity
  8
0
100
AcDbBlockBegin
  2
*MODEL_SPACE
 70
     0
 10
0.0
 20
0.0
 30
0.0
  3
*MODEL_SPACE
  1

  0
ENDBLK
  5
E
330
A
100
AcDbEntity
  8
0
100
AcDbBlockEnd
  0
BLOCK
  5
F
330
B
100
AcDbEntity
 67
     1
  8
0
100
AcDbBlockBegin
  2
*PAPER_SPACE
 70
     0
 10
0.0
 20
0.0
 30
0.0
  3
*PAPER_SPACE
  1

  0
ENDBLK
  5
10
330
B
100
AcDbEntity
 67
     1
  8
0
100
AcDbBlockEnd
  0
ENDSEC
  0
SECTION
  2
ENTITIES
  0
VIEWPORT
  5
32
102
{ACAD_XDICTIONARY
360
2EC
102
}
330
B
100
AcDbEntity
 67
     1
  8
0
100
AcDbViewport
 10
7.570097244732576
 20
4.25
 30
0.0
 40
15.14019448946515
 41
8.5
 68
     1
 69
     1
 12
7.570097244732576
 22
4.25
 13
0.0
 23
0.0
 14
0.0
 24
0.0
 15
0.0
 25
0.0
 16
0.0
 26
0.0
 36
1.0
 17
0.0
 27
0.0
 37
0.0
 42
38.207132
 43
0.0
 44
0.0
 45
8.5
 50
0.0
 51
0.0
 72
   100
 90
    32800
  1

281
     0
 71
     0
 74
     1
110
0.0
120
0.0
130
0.0
111
1.0
121
0.0
131
0.0
112
0.0
122
1.0
132
0.0
 79
     0
146
0.0
  0
LINE
  5
33
330
B
100
AcDbEntity
 67
     1
  8
1
  6
Continuous
 62
    18
100
AcDbLine
 10
1.793795
 20
4.579348
 30
0.0
 11
1.805274999999999
 21
4.567866999999999
 31
0.0
  0
LINE
  5
35
330
B
100
AcDbEntity
 67
     1
  8
1
  6
Continuous
 62
    18
100
AcDbLine
 10
5.332880999999999
 20
4.557072999999999
 30
0.0
 11
5.332880999999999
 21
4.538372999999999
 31
0.0
  0
LINE
  5
36
330
B
100
AcDbEntity
 67
     1
  8
1
  6
Continuous
 62
    18
100
AcDbLine
 10
1.865511
 20
4.551630999999999
 30
0.0
 11
1.867795
 21
4.549347
 31
0.0
  0
LINE
  5
37
330
B
100
AcDbEntity
 67
     1
  8
1
  6
Continuous
 62
    18
100
AcDbLine
 10
5.190764999999999
 20
4.567544999999999
 30
0.0
 11
5.191070999999999
 21
4.567553
 31
0.0
  0
LINE
  5
38
330
B
100
AcDbEntity
 67
     1
  8
1
  6
Continuous
 62
    18
100
AcDbLine
 10
1.637326999999999
 20
4.672487999999999
 30
0.0
 11
1.63879
 21
4.673295999999999
 31
0.0
  0
LINE
  5
39
330
B
100
AcDbEntity
 67
     1
  8
1
  6
Continuous
 62
    18
100
AcDbLine
 10
5.224670999999999
 20
4.568432999999999
 30
0.0
 11
5.247880999999999
 21
4.569041
 31
0.0
  0
LINE
  5
3A
330
B
100
AcDbEntity
 67
     1
  8
1
  6
Continuous
 62
    18
100
AcDbLine
 10
2.260149999999999
 20
4.668576999999999
 30
0.0
 11
2.260149999999999
 21
4.668498999999999
 31
0.0
  0
LINE
  5
3B
330
B
100
AcDbEntity
 67
     1
  8
1
  6
Continuous
 62
    18
100
AcDbLine
 10
5.247880999999999
 20
4.564871
 30
0.0
 11
5.247880999999999
 21
4.520319
 31
0.0
  0
LINE
  5
3C
330
B
100
AcDbEntity
 67
     1
  8
1
  6
Continuous
 62
    18
100
AcDbLine
 10
2.071795
 20
4.443347
 30
0.0
 11
2.071795
 21
4.483347
 31
0.0
  0
LINE
  5
3D
330
B
100
AcDbEntity
 67
     1
  8
1
  6
Continuous
 62
    18
100
AcDbLine
 10
5.323142999999999
 20
4.538116999999999
 30
0.0
 11
5.323142999999999
 21
4.557072999999999
 31
0.0
  0
LINE
  5
3E
330
B
100
AcDbEntity
 67
     1
  8
1
  6
Continuous
 62
    18
100
AcDbLine
 10
2.182294999999999
 20
4.483347
 30
0.0
 11
2.184577999999999
 21
4.485630999999999
 31
0.0
  0
LINE
  5
3F
330
B
100
AcDbEntity
 67
     1
  8
1
  6
Continuous
 62
    18
100
AcDbLine
 10
5.264543999999999
 20
4.568603999999999
 30
0.0
 11
5.266871
 21
4.568543
 31
0.0
  0
LINE
  5
40
330
B
100
AcDbEntity
 67
     1
  8
1
  6
Continuous
 62
    18
100
AcDbLine
 10
2.090313999999999
 20
4.501866999999999
 30
0.0
 11
2.101793999999999
 21
4.513348
 31
0.0
  0
LINE
  5
41
330
B
100
AcDbEntity
 67
     1
  8
1
  6
Continuous
 62
    18
100
AcDbLine
 10
5.264543999999999
 20
4.564769999999999
 30
0.0
 11
5.255214999999999
 21
4.564888999999999
 31
0.0
  0
LINE
  5
42
330
B
100
AcDbEntity
 67
     1
  8
1
  6
Continuous
 62
    18
100
AcDbLine
 10
2.036580999999999
 20
4.558135
 30
0.0
 11
2.030078
 21
4.551630999999999
 31
0.0
  0
LINE
  5
43
330
B
100
AcDbEntity
 67
     1
  8
1
  6
Continuous
 62
    18
100
AcDbLine
 10
2.100551999999999
 20
4.215226
 30
0.0
 11
2.099727
 21
4.214813999999999
 31
0.0
  0
LINE
  5
44
330
B
100
AcDbEntity
 67
     1
  8
1
  6
Continuous
 62
    18
100
AcDbLine
 10
1.795036999999999
 20
4.215226
 30
0.0
 11
1.795861999999999
 21
4.214813999999999
 31
0.0
  0
LINE
  5
45
330
B
100
AcDbEntity
 67
     1
  8
1
  6
Continuous
 62
    18
100
AcDbLine
 10
5.191373999999999
 20
4.562335
 30
0.0
 11
5.188219
 21
4.56223
 31
0.0
  0
LINE
  5
46
330
B
100
AcDbEntity
 67
     1
  8
1
  6
Continuous
 62
    18
100
AcDbLine
 10
1.816795
 20
4.214816
 30
0.0
 11
1.816795
 21
4.336979
 31
0.0
  0
LINE
  5
47
330
B
100
AcDbEntity
 67
     1
  8
1
  6
Continuous
 62
    18
100
AcDbLine
 10
2.259377
 20
4.671241
 30
0.0
 11
2.258261999999999
 21
4.672487999999999
 31
0.0
  0
LINE
  5
48
330
B
100
AcDbEntity
 67
     1
  8
1
  6
Continuous
 62
    18
100
AcDbLine
 10
1.640438
 20
4.673576
 30
0.0
 11
1.647816999999999
 21
4.666198
 31
0.0
  0
LINE
  5
49
330
B
100
AcDbEntity
 67
     1
  8
1
  6
Continuous
 62
    18
100
AcDbLine
 10
5.332880999999999
 20
4.522241999999999
 30
0.0
 11
5.275882
 21
4.522135999999999
 31
0.0
  0
LINE
  5
4A
330
B
100
AcDbEntity
 67
     1
  8
1
  6
Continuous
 62
    18
100
AcDbLine
 10
1.998845
 20
4.214816
 30
0.0
 11
1.998845
 21
4.336979
 31
0.0
  0
LINE
  5
4B
330
B
100
AcDbEntity
 67
     1
  8
1
  6
Continuous
 62
    18
100
AcDbLine
 10
4.703026999999999
 20
3.947757
 30
0.0
 11
4.703026999999999
 21
4.585773
 31
0.0
  0
LINE
  5
4C
330
B
100
AcDbEntity
 67
     1
  8
1
  6
Continuous
 62
    18
100
AcDbLine
 10
1.649441999999999
 20
3.953720999999999
 30
0.0
 11
2.246147
 21
3.953720999999999
 31
0.0
  0
LINE
  5
4D
330
B
100
AcDbEntity
 67
     1
  8
1
  6
Continuous
 62
    18
100
AcDbLine
 10
5.332880999999999
 20
4.525444999999999
 30
0.0
 11
5.455424999999999
 21
4.523305
 31
0.0
  0
LINE
  5
4E
330
B
100
AcDbEntity
 67
     1
  8
1
  6
Continuous
 62
    18
100
AcDbLine
 10
1.780552
 20
4.215226
 30
0.0
 11
1.778795
 21
4.214348
 31
0.0
  0
LINE
  5
4F
330
B
100
AcDbEntity
 67
     1
  8
1
  6
Continuous
 62
    18
100
AcDbLine
 10
5.273897999999999
 20
4.566352999999999
 30
0.0
 11
5.273676999999999
 21
4.566815
 31
0.0
  0
LINE
  5
50
330
B
100
AcDbEntity
 67
     1
  8
1
  6
Continuous
 62
    18
100
AcDbLine
 10
2.057096
 20
4.067023
 30
0.0
 11
2.057096
 21
4.034415
 31
0.0
  0
LINE
  5
51
330
B
100
AcDbEntity
 67
     1
  8
1
  6
Continuous
 62
    18
100
AcDbLine
 10
5.457880999999999
 20
4.487423999999999
 30
0.0
 11
5.457880999999999
 21
4.484748
 31
0.0
  0
LINE
  5
52
330
B
100
AcDbEntity
 67
     1
  8
1
  6
Continuous
 62
    18
100
AcDbLine
 10
5.187371999999999
 20
4.566258999999999
 30
0.0
 11
5.186785999999999
 21
4.565673999999999
 31
0.0
  0
LINE
  5
53
330
B
100
AcDbEntity
 67
     1
  8
1
  6
Continuous
 62
    18
100
AcDbLine
 10
1.85349
 20
4.019417999999999
 30
0.0
 11
1.842884999999999
 21
4.02381
 31
0.0
  0
LINE
  5
54
330
B
100
AcDbEntity
 67
     1
  8
1
  6
Continuous
 62
    18
100
AcDbLine
 10
5.457880999999999
 20
4.451677
 30
0.0
 11
5.457880999999999
 21
4.441112999999999
 31
0.0
  0
LINE
  5
55
330
B
100
AcDbEntity
 67
     1
  8
1
  6
Continuous
 62
    18
100
AcDbLine
 10
1.980552
 20
4.215226
 30
0.0
 11
1.995036999999999
 21
4.215226
 31
0.0
  0
LINE
  5
56
330
B
100
AcDbEntity
 67
     1
  8
1
  6
Continuous
 62
    18
100
AcDbLine
 10
4.706018
 20
4.603543
 30
0.0
 11
4.706018
 21
4.628454
 31
0.0
  0
LINE
  5
57
330
B
100
AcDbEntity
 67
     1
  8
1
  6
Continuous
 62
    18
100
AcDbLine
 10
1.85349
 20
4.082021
 30
0.0
 11
1.852791999999999
 21
4.082718999999999
 31
0.0
  0
LINE
  5
58
330
B
100
AcDbEntity
 67
     1
  8
1
  6
Continuous
 62
    18
100
AcDbLine
 10
5.332880999999999
 20
4.510754
 30
0.0
 11
5.457880999999999
 21
4.512679
 31
0.0
  0
LINE
  5
59
330
B
100
AcDbEntity
 67
     1
  8
1
  6
Continuous
 62
    18
100
AcDbLine
 10
1.915036999999999
 20
4.215226
 30
0.0
 11
1.915861999999999
 21
4.214813999999999
 31
0.0
  0
LINE
  5
5A
330
B
100
AcDbEntity
 67
     1
  8
1
  6
Continuous
 62
    18
100
AcDbLine
 10
5.010989
 20
4.588218
 30
0.0
 11
4.965519
 21
4.590601
 31
0.0
  0
LINE
  5
5B
330
B
100
AcDbEntity
 67
     1
  8
1
  6
Continuous
 62
    18
100
AcDbLine
 10
2.103794999999999
 20
4.374782999999999
 30
0.0
 11
2.103794999999999
 21
4.264783
 31
0.0
  0
LINE
  5
5C
330
B
100
AcDbEntity
 67
     1
  8
1
  6
Continuous
 62
    18
100
AcDbLine
 10
2.057795
 20
4.630607
 30
0.0
 11
2.057795
 21
4.579348
 31
0.0
  0
LINE
  5
5D
330
B
100
AcDbEntity
 67
     1
  8
1
  6
Continuous
 62
    18
100
AcDbLine
 10
5.457880999999999
 20
4.456748
 30
0.0
 11
5.341099999999999
 21
4.454949
 31
0.0
  0
LINE
  5
5E
330
B
100
AcDbEntity
 67
     1
  8
1
  6
Continuous
 62
    18
100
AcDbLine
 10
5.176501999999999
 20
4.548308
 30
0.0
 11
5.176501999999999
 21
4.585328999999999
 31
0.0
  0
LINE
  5
5F
330
B
100
AcDbEntity
 67
     1
  8
1
  6
Continuous
 62
    18
100
AcDbLine
 10
2.219190999999999
 20
3.952533999999999
 30
0.0
 11
2.221566
 21
3.953720999999999
 31
0.0
  0
LINE
  5
60
330
B
100
AcDbEntity
 67
     1
  8
1
  6
Continuous
 62
    18
100
AcDbLine
 10
1.837795
 20
4.033717
 30
0.0
 11
1.842186999999999
 21
4.023112
 31
0.0
  0
LINE
  5
61
330
B
100
AcDbEntity
 67
     1
  8
1
  6
Continuous
 62
    18
100
AcDbLine
 10
1.878795
 20
4.214816
 30
0.0
 11
1.878795
 21
4.336979
 31
0.0
  0
LINE
  5
62
330
B
100
AcDbEntity
 67
     1
  8
1
  6
Continuous
 62
    18
100
AcDbLine
 10
5.455472
 20
4.523304
 30
0.0
 11
5.455424999999999
 21
4.523305
 31
0.0
  0
LINE
  5
63
330
B
100
AcDbEntity
 67
     1
  8
1
  6
Continuous
 62
    18
100
AcDbLine
 10
5.332880999999999
 20
4.538372999999999
 30
0.0
 11
5.332880999999999
 21
4.534688
 31
0.0
  0
LINE
  5
64
330
B
100
AcDbEntity
 67
     1
  8
1
  6
Continuous
 62
    18
100
AcDbLine
 10
4.970519
 20
4.327462
 30
0.0
 11
4.970519
 21
4.224198
 31
0.0
  0
LINE
  5
65
330
B
100
AcDbEntity
 67
     1
  8
1
  6
Continuous
 62
    18
100
AcDbLine
 10
1.635438999999999
 20
4.557655
 30
0.0
 11
1.635372999999999
 21
4.556162999999999
 31
0.0
  0
LINE
  5
66
330
B
100
AcDbEntity
 67
     1
  8
1
  6
Continuous
 62
    18
100
AcDbLine
 10
2.057795
 20
4.067721999999999
 30
0.0
 11
2.057795
 21
4.033717
 31
0.0
  0
LINE
  5
67
330
B
100
AcDbEntity
 67
     1
  8
1
  6
Continuous
 62
    18
100
AcDbLine
 10
5.195078999999999
 20
4.564360999999999
 30
0.0
 11
5.195119999999999
 21
4.56244
 31
0.0
  0
LINE
  5
68
330
B
100
AcDbEntity
 67
     1
  8
1
  6
Continuous
 62
    18
100
AcDbLine
 10
4.742519
 20
4.583466
 30
0.0
 11
4.742519
 21
4.602287999999999
 31
0.0
  0
LINE
  5
69
330
B
100
AcDbEntity
 67
     1
  8
1
  6
Continuous
 62
    18
100
AcDbLine
 10
1.899727
 20
4.214813999999999
 30
0.0
 11
1.875861999999999
 21
4.214813999999999
 31
0.0
  0
LINE
  5
6A
330
B
100
AcDbEntity
 67
     1
  8
1
  6
Continuous
 62
    18
100
AcDbLine
 10
1.635372999999999
 20
4.641949999999999
 30
0.0
 11
1.630372999999999
 21
4.641949999999999
 31
0.0
  0
LINE
  5
6B
330
B
100
AcDbEntity
 67
     1
  8
1
  6
Continuous
 62
    18
100
AcDbLine
 10
1.649441999999999
 20
3.953720999999999
 30
0.0
 11
1.649441999999999
 21
4.602862
 31
0.0
  0
LINE
  5
6C
330
B
100
AcDbEntity
 67
     1
  8
1
  6
Continuous
 62
    18
100
AcDbLine
 10
5.264574999999999
 20
4.568335
 30
0.0
 11
5.264583
 21
4.567978
 31
0.0
  0
LINE
  5
6D
330
B
100
AcDbEntity
 67
     1
  8
1
  6
Continuous
 62
    18
100
AcDbLine
 10
5.010989
 20
4.588218
 30
0.0
 11
4.944262999999999
 21
4.599383999999999
 31
0.0
  0
LINE
  5
6E
330
B
100
AcDbEntity
 67
     1
  8
1
  6
Continuous
 62
    18
100
AcDbLine
 10
2.122844999999999
 20
4.121277
 30
0.0
 11
2.122844999999999
 21
4.117277999999999
 31
0.0
  0
LINE
  5
6F
330
B
100
AcDbEntity
 67
     1
  8
1
  6
Continuous
 62
    18
100
AcDbLine
 10
2.019794
 20
4.336979
 30
0.0
 11
1.995795
 21
4.336979
 31
0.0
  0
LINE
  5
70
330
B
100
AcDbEntity
 67
     1
  8
1
  6
Continuous
 62
    18
100
AcDbLine
 10
5.272734999999999
 20
4.567832
 30
0.0
 11
5.273282
 21
4.567374
 31
0.0
  0
LINE
  5
71
330
B
100
AcDbEntity
 67
     1
  8
1
  6
Continuous
 62
    18
100
AcDbLine
 10
5.086502999999999
 20
3.997514999999999
 30
0.0
 11
5.021501999999999
 21
3.997514999999999
 31
0.0
  0
LINE
  5
72
330
B
100
AcDbEntity
 67
     1
  8
1
  6
Continuous
 62
    18
100
AcDbLine
 10
1.713295
 20
4.234494
 30
0.0
 11
1.725549
 21
4.234494
 31
0.0
  0
LINE
  5
73
330
B
100
AcDbEntity
 67
     1
  8
1
  6
Continuous
 62
    18
100
AcDbLine
 10
2.075793999999999
 20
4.336979
 30
0.0
 11
2.075793999999999
 21
4.238251999999999
 31
0.0
  0
LINE
  5
74
330
B
100
AcDbEntity
 67
     1
  8
1
  6
Continuous
 62
    18
100
AcDbLine
 10
4.476755
 20
4.673576
 30
0.0
 11
4.054018
 21
4.666198
 31
0.0
  0
LINE
  5
75
330
B
100
AcDbEntity
 67
     1
  8
1
  6
Continuous
 62
    18
100
AcDbLine
 10
4.715755
 20
4.584869
 30
0.0
 11
5.01064
 21
4.569415
 31
0.0
  0
LINE
  5
76
330
B
100
AcDbEntity
 67
     1
  8
1
  6
Continuous
 62
    18
100
AcDbLine
 10
1.835795
 20
4.234494
 30
0.0
 11
1.819797
 21
4.234494
 31
0.0
  0
LINE
  5
77
330
B
100
AcDbEntity
 67
     1
  8
1
  6
Continuous
 62
    18
100
AcDbLine
 10
1.795795
 20
4.238251999999999
 30
0.0
 11
1.713295
 21
4.238251999999999
 31
0.0
  0
LINE
  5
78
330
B
100
AcDbEntity
 67
     1
  8
1
  6
Continuous
 62
    18
100
AcDbLine
 10
3.946018
 20
4.184347999999999
 30
0.0
 11
3.956017999999999
 21
4.184347999999999
 31
0.0
  0
LINE
  5
79
330
B
100
AcDbEntity
 67
     1
  8
1
  6
Continuous
 62
    18
100
AcDbLine
 10
4.715755
 20
3.973065
 30
0.0
 11
4.715755
 21
3.975336
 31
0.0
  0
LINE
  5
7A
330
B
100
AcDbEntity
 67
     1
  8
1
  6
Continuous
 62
    18
100
AcDbLine
 10
1.939797
 20
4.234494
 30
0.0
 11
1.939452999999999
 21
4.214813999999999
 31
0.0
  0
LINE
  5
7B
330
B
100
AcDbEntity
 67
     1
  8
1
  6
Continuous
 62
    18
100
AcDbLine
 10
1.859793999999999
 20
4.336979
 30
0.0
 11
1.859793999999999
 21
4.238251999999999
 31
0.0
  0
LINE
  5
7C
330
B
100
AcDbEntity
 67
     1
  8
1
  6
Continuous
 62
    18
100
AcDbLine
 10
4.706018
 20
4.628073999999999
 30
0.0
 11
4.706018
 21
4.633150999999999
 31
0.0
  0
LINE
  5
7D
330
B
100
AcDbEntity
 67
     1
  8
1
  6
Continuous
 62
    18
100
AcDbLine
 10
4.714341
 20
3.996842
 30
0.0
 11
4.714341
 21
4.585041999999999
 31
0.0
  0
LINE
  5
7E
330
B
100
AcDbEntity
 67
     1
  8
1
  6
Continuous
 62
    18
100
AcDbLine
 10
2.035793999999999
 20
4.234494
 30
0.0
 11
2.036138
 21
4.214813999999999
 31
0.0
  0
LINE
  5
7F
330
B
100
AcDbEntity
 67
     1
  8
1
  6
Continuous
 62
    18
100
AcDbLine
 10
1.915795
 20
4.336979
 30
0.0
 11
1.939795
 21
4.336979
 31
0.0
  0
LINE
  5
80
330
B
100
AcDbEntity
 67
     1
  8
1
  6
Continuous
 62
    18
100
AcDbLine
 10
4.054018
 20
4.666198
 30
0.0
 11
4.054018
 21
4.661198
 31
0.0
  0
LINE
  5
81
330
B
100
AcDbEntity
 67
     1
  8
1
  6
Continuous
 62
    18
100
AcDbLine
 10
4.545755
 20
4.641949999999999
 30
0.0
 11
4.693330999999999
 21
4.615929
 31
0.0
  0
LINE
  5
82
330
B
100
AcDbEntity
 67
     1
  8
1
  6
Continuous
 62
    18
100
AcDbLine
 10
2.031813999999999
 20
4.626587
 30
0.0
 11
2.042793999999999
 21
4.629528999999999
 31
0.0
  0
LINE
  5
83
330
B
100
AcDbEntity
 67
     1
  8
1
  6
Continuous
 62
    18
100
AcDbLine
 10
4.476671999999999
 20
4.672487999999999
 30
0.0
 11
4.476732
 21
4.673295999999999
 31
0.0
  0
LINE
  5
84
330
B
100
AcDbEntity
 67
     1
  8
1
  6
Continuous
 62
    18
100
AcDbLine
 10
5.185677
 20
4.034656
 30
0.0
 11
5.230677
 21
4.034656
 31
0.0
  0
LINE
  5
85
330
B
100
AcDbEntity
 67
     1
  8
1
  6
Continuous
 62
    18
100
AcDbLine
 10
2.182294999999999
 20
4.214348
 30
0.0
 11
1.713295
 21
4.214348
 31
0.0
  0
LINE
  5
86
330
B
100
AcDbEntity
 67
     1
  8
1
  6
Continuous
 62
    18
100
AcDbLine
 10
5.139577
 20
4.496004
 30
0.0
 11
5.096497
 21
4.496004
 31
0.0
  0
LINE
  5
87
330
B
100
AcDbEntity
 67
     1
  8
1
  6
Continuous
 62
    18
100
AcDbLine
 10
1.704508
 20
4.205561
 30
0.0
 11
1.711011
 21
4.212063999999999
 31
0.0
  0
LINE
  5
88
330
B
100
AcDbEntity
 67
     1
  8
1
  6
Continuous
 62
    18
100
AcDbLine
 10
5.341047
 20
4.366271
 30
0.0
 11
5.316688
 21
4.504419999999999
 31
0.0
  0
LINE
  5
89
330
B
100
AcDbEntity
 67
     1
  8
1
  6
Continuous
 62
    18
100
AcDbLine
 10
5.331885999999999
 20
4.507198
 30
0.0
 11
5.356487999999999
 21
4.367670999999999
 31
0.0
  0
LINE
  5
8A
330
B
100
AcDbEntity
 67
     1
  8
1
  6
Continuous
 62
    18
100
AcDbLine
 10
1.838492999999999
 20
4.067023
 30
0.0
 11
1.837795
 21
4.067721999999999
 31
0.0
  0
LINE
  5
8B
330
B
100
AcDbEntity
 67
     1
  8
1
  6
Continuous
 62
    18
100
AcDbLine
 10
5.178291999999999
 20
4.520218999999999
 30
0.0
 11
5.183701
 21
4.520226
 31
0.0
  0
LINE
  5
8C
330
B
100
AcDbEntity
 67
     1
  8
1
  6
Continuous
 62
    18
100
AcDbLine
 10
1.647816999999999
 20
4.666198
 30
0.0
 11
1.642818
 21
4.661198
 31
0.0
  0
LINE
  5
8D
330
B
100
AcDbEntity
 67
     1
  8
1
  6
Continuous
 62
    18
100
AcDbLine
 10
5.316105999999999
 20
4.520419999999999
 30
0.0
 11
5.316506999999999
 21
4.515733999999999
 31
0.0
  0
LINE
  5
8E
330
B
100
AcDbEntity
 67
     1
  8
1
  6
Continuous
 62
    18
100
AcDbLine
 10
1.704508
 20
4.492135
 30
0.0
 11
1.694774999999999
 21
4.501866999999999
 31
0.0
  0
LINE
  5
8F
330
B
100
AcDbEntity
 67
     1
  8
1
  6
Continuous
 62
    18
100
AcDbLine
 10
5.356487999999999
 20
4.191894999999999
 30
0.0
 11
5.351998
 21
4.192321999999999
 31
0.0
  0
LINE
  5
90
330
B
100
AcDbEntity
 67
     1
  8
1
  6
Continuous
 62
    18
100
AcDbLine
 10
1.805274999999999
 20
4.567866999999999
 30
0.0
 11
1.815008
 21
4.558135
 31
0.0
  0
LINE
  5
91
330
B
100
AcDbEntity
 67
     1
  8
1
  6
Continuous
 62
    18
100
AcDbLine
 10
1.70822
 20
4.604573
 30
0.0
 11
1.709931
 21
4.602862
 31
0.0
  0
LINE
  5
92
330
B
100
AcDbEntity
 67
     1
  8
1
  6
Continuous
 62
    18
100
AcDbLine
 10
1.63879
 20
4.673295999999999
 30
0.0
 11
1.640438
 21
4.673576
 31
0.0
  0
LINE
  5
93
330
B
100
AcDbEntity
 67
     1
  8
1
  6
Continuous
 62
    18
100
AcDbLine
 10
5.272809999999999
 20
4.568387999999999
 30
0.0
 11
5.292119999999999
 21
4.567881999999999
 31
0.0
  0
LINE
  5
94
330
B
100
AcDbEntity
 67
     1
  8
1
  6
Continuous
 62
    18
100
AcDbLine
 10
2.057096
 20
4.034415
 30
0.0
 11
2.057795
 21
4.033717
 31
0.0
  0
LINE
  5
95
330
B
100
AcDbEntity
 67
     1
  8
1
  6
Continuous
 62
    18
100
AcDbLine
 10
1.976795
 20
4.214816
 30
0.0
 11
1.976795
 21
4.336979
 31
0.0
  0
LINE
  5
96
330
B
100
AcDbEntity
 67
     1
  8
1
  6
Continuous
 62
    18
100
AcDbLine
 10
5.247880999999999
 20
4.564871
 30
0.0
 11
5.21834
 21
4.563308
 31
0.0
  0
LINE
  5
97
330
B
100
AcDbEntity
 67
     1
  8
1
  6
Continuous
 62
    18
100
AcDbLine
 10
2.071795
 20
4.549347
 30
0.0
 11
2.071795
 21
4.483347
 31
0.0
  0
LINE
  5
98
330
B
100
AcDbEntity
 67
     1
  8
1
  6
Continuous
 62
    18
100
AcDbLine
 10
5.323142999999999
 20
4.557072999999999
 30
0.0
 11
5.283676999999999
 21
4.561931999999999
 31
0.0
  0
LINE
  5
99
330
B
100
AcDbEntity
 67
     1
  8
1
  6
Continuous
 62
    18
100
AcDbLine
 10
5.266871
 20
4.568543
 30
0.0
 11
5.268887999999999
 21
4.568491
 31
0.0
  0
LINE
  5
9A
330
B
100
AcDbEntity
 67
     1
  8
1
  6
Continuous
 62
    18
100
AcDbLine
 10
2.101793999999999
 20
4.579348
 30
0.0
 11
2.090313999999999
 21
4.567866999999999
 31
0.0
  0
LINE
  5
9B
330
B
100
AcDbEntity
 67
     1
  8
1
  6
Continuous
 62
    18
100
AcDbLine
 10
1.835036999999999
 20
4.215226
 30
0.0
 11
1.835861999999999
 21
4.214813999999999
 31
0.0
  0
LINE
  5
9C
330
B
100
AcDbEntity
 67
     1
  8
1
  6
Continuous
 62
    18
100
AcDbLine
 10
5.255214999999999
 20
4.564888999999999
 30
0.0
 11
5.247880999999999
 21
4.564878
 31
0.0
  0
LINE
  5
9D
330
B
100
AcDbEntity
 67
     1
  8
1
  6
Continuous
 62
    18
100
AcDbLine
 10
2.030078
 20
4.551630999999999
 30
0.0
 11
2.027795
 21
4.549347
 31
0.0
  0
LINE
  5
9E
330
B
100
AcDbEntity
 67
     1
  8
1
  6
Continuous
 62
    18
100
AcDbLine
 10
1.795036999999999
 20
4.215226
 30
0.0
 11
1.780552
 21
4.215226
 31
0.0
  0
LINE
  5
9F
330
B
100
AcDbEntity
 67
     1
  8
1
  6
Continuous
 62
    18
100
AcDbLine
 10
5.188219
 20
4.56223
 30
0.0
 11
5.186118
 21
4.562123999999999
 31
0.0
  0
LINE
  5
A0
330
B
100
AcDbEntity
 67
     1
  8
1
  6
Continuous
 62
    18
100
AcDbLine
 10
1.798795
 20
4.214816
 30
0.0
 11
1.798795
 21
4.336979
 31
0.0
  0
LINE
  5
A1
330
B
100
AcDbEntity
 67
     1
  8
1
  6
Continuous
 62
    18
100
AcDbLine
 10
2.258261999999999
 20
4.672487999999999
 30
0.0
 11
2.2568
 21
4.673295999999999
 31
0.0
  0
LINE
  5
A2
330
B
100
AcDbEntity
 67
     1
  8
1
  6
Continuous
 62
    18
100
AcDbLine
 10
1.70822
 20
4.666198
 30
0.0
 11
1.647816999999999
 21
4.666198
 31
0.0
  0
LINE
  5
A3
330
B
100
AcDbEntity
 67
     1
  8
1
  6
Continuous
 62
    18
100
AcDbLine
 10
5.332880999999999
 20
4.525444999999999
 30
0.0
 11
5.275882
 21
4.525693
 31
0.0
  0
LINE
  5
A4
330
B
100
AcDbEntity
 67
     1
  8
1
  6
Continuous
 62
    18
100
AcDbLine
 10
4.707976999999999
 20
3.947757
 30
0.0
 11
4.707976999999999
 21
4.585513999999999
 31
0.0
  0
LINE
  5
A5
330
B
100
AcDbEntity
 67
     1
  8
1
  6
Continuous
 62
    18
100
AcDbLine
 10
1.644443
 20
3.953720999999999
 30
0.0
 11
1.645936999999999
 21
3.953720999999999
 31
0.0
  0
LINE
  5
A6
330
B
100
AcDbEntity
 67
     1
  8
1
  6
Continuous
 62
    18
100
AcDbLine
 10
5.455424999999999
 20
4.523305
 30
0.0
 11
5.451153999999999
 21
4.52338
 31
0.0
  0
LINE
  5
A7
330
B
100
AcDbEntity
 67
     1
  8
1
  6
Continuous
 62
    18
100
AcDbLine
 10
5.273676999999999
 20
4.566815
 30
0.0
 11
5.273375999999999
 21
4.567244
 31
0.0
  0
LINE
  5
A8
330
B
100
AcDbEntity
 67
     1
  8
1
  6
Continuous
 62
    18
100
AcDbLine
 10
2.057096
 20
4.067023
 30
0.0
 11
2.052704
 21
4.077628999999999
 31
0.0
  0
LINE
  5
A9
330
B
100
AcDbEntity
 67
     1
  8
1
  6
Continuous
 62
    18
100
AcDbLine
 10
5.457880999999999
 20
4.484748
 30
0.0
 11
5.457880999999999
 21
4.484678999999999
 31
0.0
  0
LINE
  5
AA
330
B
100
AcDbEntity
 67
     1
  8
1
  6
Continuous
 62
    18
100
AcDbLine
 10
2.035861999999999
 20
4.214813999999999
 30
0.0
 11
2.059727
 21
4.214813999999999
 31
0.0
  0
LINE
  5
AB
330
B
100
AcDbEntity
 67
     1
  8
1
  6
Continuous
 62
    18
100
AcDbLine
 10
5.186785999999999
 20
4.565673999999999
 30
0.0
 11
5.186301
 21
4.565002999999999
 31
0.0
  0
LINE
  5
AC
330
B
100
AcDbEntity
 67
     1
  8
1
  6
Continuous
 62
    18
100
AcDbLine
 10
1.842884999999999
 20
4.02381
 30
0.0
 11
1.838492999999999
 21
4.034415
 31
0.0
  0
LINE
  5
AD
330
B
100
AcDbEntity
 67
     1
  8
1
  6
Continuous
 62
    18
100
AcDbLine
 10
5.275882
 20
4.53688
 30
0.0
 11
5.275882
 21
4.533758999999999
 31
0.0
  0
LINE
  5
AE
330
B
100
AcDbEntity
 67
     1
  8
1
  6
Continuous
 62
    18
100
AcDbLine
 10
1.980552
 20
4.215226
 30
0.0
 11
1.979727
 21
4.214813999999999
 31
0.0
  0
LINE
  5
AF
330
B
100
AcDbEntity
 67
     1
  8
1
  6
Continuous
 62
    18
100
AcDbLine
 10
4.706018
 20
3.979323
 30
0.0
 11
4.706018
 21
4.603543
 31
0.0
  0
LINE
  5
B0
330
B
100
AcDbEntity
 67
     1
  8
1
  6
Continuous
 62
    18
100
AcDbLine
 10
1.683295
 20
4.513348
 30
0.0
 11
1.683295
 21
4.184347999999999
 31
0.0
  0
LINE
  5
B1
330
B
100
AcDbEntity
 67
     1
  8
1
  6
Continuous
 62
    18
100
AcDbLine
 10
5.335706
 20
4.485541999999999
 30
0.0
 11
5.457880999999999
 21
4.487423999999999
 31
0.0
  0
LINE
  5
B2
330
B
100
AcDbEntity
 67
     1
  8
1
  6
Continuous
 62
    18
100
AcDbLine
 10
5.196501999999999
 20
4.010493
 30
0.0
 11
5.184223999999999
 21
4.010493
 31
0.0
  0
LINE
  5
B3
330
B
100
AcDbEntity
 67
     1
  8
1
  6
Continuous
 62
    18
100
AcDbLine
 10
2.048795
 20
4.319783
 30
0.0
 11
2.158795
 21
4.319783
 31
0.0
  0
LINE
  5
B4
330
B
100
AcDbEntity
 67
     1
  8
1
  6
Continuous
 62
    18
100
AcDbLine
 10
2.101793999999999
 20
4.579348
 30
0.0
 11
2.057795
 21
4.579348
 31
0.0
  0
LINE
  5
B5
330
B
100
AcDbEntity
 67
     1
  8
1
  6
Continuous
 62
    18
100
AcDbLine
 10
1.955036999999999
 20
4.215226
 30
0.0
 11
1.940552
 21
4.215226
 31
0.0
  0
LINE
  5
B6
330
B
100
AcDbEntity
 67
     1
  8
1
  6
Continuous
 62
    18
100
AcDbLine
 10
5.341128
 20
4.45479
 30
0.0
 11
5.457880999999999
 21
4.456656999999999
 31
0.0
  0
LINE
  5
B7
330
B
100
AcDbEntity
 67
     1
  8
1
  6
Continuous
 62
    18
100
AcDbLine
 10
5.176501999999999
 20
4.548308
 30
0.0
 11
5.127755
 21
4.520163
 31
0.0
  0
LINE
  5
B8
330
B
100
AcDbEntity
 67
     1
  8
1
  6
Continuous
 62
    18
100
AcDbLine
 10
1.676398
 20
3.952533999999999
 30
0.0
 11
2.219190999999999
 21
3.952533999999999
 31
0.0
  0
LINE
  5
B9
330
B
100
AcDbEntity
 67
     1
  8
1
  6
Continuous
 62
    18
100
AcDbLine
 10
1.842186999999999
 20
4.023112
 30
0.0
 11
1.852791999999999
 21
4.018718999999999
 31
0.0
  0
LINE
  5
BA
330
B
100
AcDbEntity
 67
     1
  8
1
  6
Continuous
 62
    18
100
AcDbLine
 10
5.190764999999999
 20
4.567544999999999
 30
0.0
 11
5.188771
 21
4.567116
 31
0.0
  0
LINE
  5
BB
330
B
100
AcDbEntity
 67
     1
  8
1
  6
Continuous
 62
    18
100
AcDbLine
 10
5.096502
 20
4.453445999999999
 30
0.0
 11
4.970519
 21
4.327462
 31
0.0
  0
LINE
  5
BC
330
B
100
AcDbEntity
 67
     1
  8
1
  6
Continuous
 62
    18
100
AcDbLine
 10
2.260149999999999
 20
4.069786999999999
 30
0.0
 11
2.260215999999999
 21
4.071278999999999
 31
0.0
  0
LINE
  5
BD
330
B
100
AcDbEntity
 67
     1
  8
1
  6
Continuous
 62
    18
100
AcDbLine
 10
2.246147
 20
3.953720999999999
 30
0.0
 11
2.246147
 21
4.602862
 31
0.0
  0
LINE
  5
BE
330
B
100
AcDbEntity
 67
     1
  8
1
  6
Continuous
 62
    18
100
AcDbLine
 10
5.247881999999999
 20
4.569041
 30
0.0
 11
5.247898
 21
4.568938
 31
0.0
  0
LINE
  5
BF
330
B
100
AcDbEntity
 67
     1
  8
1
  6
Continuous
 62
    18
100
AcDbLine
 10
4.676898
 20
4.638285999999999
 30
0.0
 11
4.706018
 21
4.638285999999999
 31
0.0
  0
LINE
  5
C0
330
B
100
AcDbEntity
 67
     1
  8
1
  6
Continuous
 62
    18
100
AcDbLine
 10
2.265216
 20
3.987955
 30
0.0
 11
2.265216
 21
4.641949999999999
 31
0.0
  0
LINE
  5
C1
330
B
100
AcDbEntity
 67
     1
  8
1
  6
Continuous
 62
    18
100
AcDbLine
 10
1.955795
 20
4.238251999999999
 30
0.0
 11
1.939795
 21
4.238251999999999
 31
0.0
  0
LINE
  5
C2
330
B
100
AcDbEntity
 67
     1
  8
1
  6
Continuous
 62
    18
100
AcDbLine
 10
5.264583
 20
4.567978
 30
0.0
 11
5.264586
 21
4.567480999999999
 31
0.0
  0
LINE
  5
C3
330
B
100
AcDbEntity
 67
     1
  8
1
  6
Continuous
 62
    18
100
AcDbLine
 10
5.221502
 20
3.958720999999999
 30
0.0
 11
5.021501999999999
 21
3.958720999999999
 31
0.0
  0
LINE
  5
C4
330
B
100
AcDbEntity
 67
     1
  8
1
  6
Continuous
 62
    18
100
AcDbLine
 10
1.755343
 20
4.234494
 30
0.0
 11
1.755695
 21
4.214348
 31
0.0
  0
LINE
  5
C5
330
B
100
AcDbEntity
 67
     1
  8
1
  6
Continuous
 62
    18
100
AcDbLine
 10
2.019794
 20
4.336979
 30
0.0
 11
2.019794
 21
4.238251999999999
 31
0.0
  0
LINE
  5
C6
330
B
100
AcDbEntity
 67
     1
  8
1
  6
Continuous
 62
    18
100
AcDbLine
 10
5.273282
 20
4.567374
 30
0.0
 11
5.273725999999999
 21
4.566816
 31
0.0
  0
LINE
  5
C7
330
B
100
AcDbEntity
 67
     1
  8
1
  6
Continuous
 62
    18
100
AcDbLine
 10
5.086502999999999
 20
4.094071999999999
 30
0.0
 11
5.086502999999999
 21
3.997514999999999
 31
0.0
  0
LINE
  5
C8
330
B
100
AcDbEntity
 67
     1
  8
1
  6
Continuous
 62
    18
100
AcDbLine
 10
2.17004
 20
4.234494
 30
0.0
 11
2.182293999999999
 21
4.234494
 31
0.0
  0
LINE
  5
C9
330
B
100
AcDbEntity
 67
     1
  8
1
  6
Continuous
 62
    18
100
AcDbLine
 10
2.099794999999999
 20
4.336979
 30
0.0
 11
2.075793999999999
 21
4.336979
 31
0.0
  0
LINE
  5
CA
330
B
100
AcDbEntity
 67
     1
  8
1
  6
Continuous
 62
    18
100
AcDbLine
 10
4.118926999999999
 20
3.953720999999999
 30
0.0
 11
3.960931
 21
3.953720999999999
 31
0.0
  0
LINE
  5
CB
330
B
100
AcDbEntity
 67
     1
  8
1
  6
Continuous
 62
    18
100
AcDbLine
 10
4.715755
 20
3.997015
 30
0.0
 11
4.715755
 21
4.584869
 31
0.0
  0
LINE
  5
CC
330
B
100
AcDbEntity
 67
     1
  8
1
  6
Continuous
 62
    18
100
AcDbLine
 10
1.859797
 20
4.234494
 30
0.0
 11
1.859452999999999
 21
4.214813999999999
 31
0.0
  0
LINE
  5
CD
330
B
100
AcDbEntity
 67
     1
  8
1
  6
Continuous
 62
    18
100
AcDbLine
 10
1.795795
 20
4.336979
 30
0.0
 11
1.795795
 21
4.238251999999999
 31
0.0
  0
LINE
  5
CE
330
B
100
AcDbEntity
 67
     1
  8
1
  6
Continuous
 62
    18
100
AcDbLine
 10
3.946018
 20
4.164348
 30
0.0
 11
3.946018
 21
4.166691
 31
0.0
  0
LINE
  5
CF
330
B
100
AcDbEntity
 67
     1
  8
1
  6
Continuous
 62
    18
100
AcDbLine
 10
4.715755
 20
3.975336
 30
0.0
 11
4.715755
 21
3.978015
 31
0.0
  0
LINE
  5
D0
330
B
100
AcDbEntity
 67
     1
  8
1
  6
Continuous
 62
    18
100
AcDbLine
 10
1.955795
 20
4.234494
 30
0.0
 11
1.956138
 21
4.214813999999999
 31
0.0
  0
LINE
  5
D1
330
B
100
AcDbEntity
 67
     1
  8
1
  6
Continuous
 62
    18
100
AcDbLine
 10
1.875795
 20
4.238251999999999
 30
0.0
 11
1.859793999999999
 21
4.238251999999999
 31
0.0
  0
LINE
  5
D2
330
B
100
AcDbEntity
 67
     1
  8
1
  6
Continuous
 62
    18
100
AcDbLine
 10
4.054018
 20
4.661198
 30
0.0
 11
4.476726
 21
4.668576999999999
 31
0.0
  0
LINE
  5
D3
330
B
100
AcDbEntity
 67
     1
  8
1
  6
Continuous
 62
    18
100
AcDbLine
 10
4.714341
 20
4.585041999999999
 30
0.0
 11
4.707976999999999
 21
4.585513999999999
 31
0.0
  0
LINE
  5
D4
330
B
100
AcDbEntity
 67
     1
  8
1
  6
Continuous
 62
    18
100
AcDbLine
 10
2.035793999999999
 20
4.234494
 30
0.0
 11
2.019797
 21
4.234494
 31
0.0
  0
LINE
  5
D5
330
B
100
AcDbEntity
 67
     1
  8
1
  6
Continuous
 62
    18
100
AcDbLine
 10
1.939795
 20
4.336979
 30
0.0
 11
1.939795
 21
4.238251999999999
 31
0.0
  0
LINE
  5
D6
330
B
100
AcDbEntity
 67
     1
  8
1
  6
Continuous
 62
    18
100
AcDbLine
 10
3.946018
 20
4.172348
 30
0.0
 11
3.956017999999999
 21
4.172348
 31
0.0
  0
LINE
  5
D7
330
B
100
AcDbEntity
 67
     1
  8
1
  6
Continuous
 62
    18
100
AcDbLine
 10
3.956019
 20
4.117277999999999
 30
0.0
 11
3.953344
 21
4.117277999999999
 31
0.0
  0
LINE
  5
D8
330
B
100
AcDbEntity
 67
     1
  8
1
  6
Continuous
 62
    18
100
AcDbLine
 10
2.042793999999999
 20
4.629528999999999
 30
0.0
 11
2.057795
 21
4.630607
 31
0.0
  0
LINE
  5
D9
330
B
100
AcDbEntity
 67
     1
  8
1
  6
Continuous
 62
    18
100
AcDbLine
 10
4.476732
 20
4.673295999999999
 30
0.0
 11
4.476755
 21
4.673576
 31
0.0
  0
LINE
  5
DA
330
B
100
AcDbEntity
 67
     1
  8
1
  6
Continuous
 62
    18
100
AcDbLine
 10
5.185677
 20
4.034656
 30
0.0
 11
5.181376
 21
4.034656
 31
0.0
  0
LINE
  5
DB
330
B
100
AcDbEntity
 67
     1
  8
1
  6
Continuous
 62
    18
100
AcDbLine
 10
2.212295
 20
4.184347999999999
 30
0.0
 11
2.200813999999999
 21
4.195827999999999
 31
0.0
  0
LINE
  5
DC
330
B
100
AcDbEntity
 67
     1
  8
1
  6
Continuous
 62
    18
100
AcDbLine
 10
5.356487999999999
 20
4.367670999999999
 30
0.0
 11
5.356487999999999
 21
4.191894999999999
 31
0.0
  0
LINE
  5
DD
330
B
100
AcDbEntity
 67
     1
  8
1
  6
Continuous
 62
    18
100
AcDbLine
 10
1.711011
 20
4.212063999999999
 30
0.0
 11
1.713295
 21
4.214348
 31
0.0
  0
LINE
  5
DE
330
B
100
AcDbEntity
 67
     1
  8
1
  6
Continuous
 62
    18
100
AcDbLine
 10
5.316688
 20
4.504419999999999
 30
0.0
 11
5.185677
 21
4.504229
 31
0.0
  0
LINE
  5
DF
330
B
100
AcDbEntity
 67
     1
  8
1
  6
Continuous
 62
    18
100
AcDbLine
 10
1.642818
 20
4.661198
 30
0.0
 11
1.635438999999999
 21
4.668576999999999
 31
0.0
  0
LINE
  5
E0
330
B
100
AcDbEntity
 67
     1
  8
1
  6
Continuous
 62
    18
100
AcDbLine
 10
5.320332999999999
 20
3.986847
 30
0.0
 11
5.287212
 21
3.953725999999999
 31
0.0
  0
LINE
  5
E1
330
B
100
AcDbEntity
 67
     1
  8
1
  6
Continuous
 62
    18
100
AcDbLine
 10
1.649441999999999
 20
4.602862
 30
0.0
 11
1.644443
 21
4.602948
 31
0.0
  0
LINE
  5
E2
330
B
100
AcDbEntity
 67
     1
  8
1
  6
Continuous
 62
    18
100
AcDbLine
 10
5.183701
 20
4.520226
 30
0.0
 11
5.185677
 21
4.520229
 31
0.0
  0
LINE
  5
E3
330
B
100
AcDbEntity
 67
     1
  8
1
  6
Continuous
 62
    18
100
AcDbLine
 10
1.642818
 20
4.604573
 30
0.0
 11
1.70822
 21
4.604573
 31
0.0
  0
LINE
  5
E4
330
B
100
AcDbEntity
 67
     1
  8
1
  6
Continuous
 62
    18
100
AcDbLine
 10
5.316506999999999
 20
4.515733999999999
 30
0.0
 11
5.316688
 21
4.504419999999999
 31
0.0
  0
LINE
  5
E5
330
B
100
AcDbEntity
 67
     1
  8
1
  6
Continuous
 62
    18
100
AcDbLine
 10
2.060551999999999
 20
4.215226
 30
0.0
 11
2.059727
 21
4.214813999999999
 31
0.0
  0
LINE
  5
E6
330
B
100
AcDbEntity
 67
     1
  8
1
  6
Continuous
 62
    18
100
AcDbLine
 10
1.694774999999999
 20
4.501866999999999
 30
0.0
 11
1.683295
 21
4.513348
 31
0.0
  0
LINE
  5
E7
330
B
100
AcDbEntity
 67
     1
  8
1
  6
Continuous
 62
    18
100
AcDbLine
 10
5.351998
 20
4.192321999999999
 30
0.0
 11
5.341047
 21
4.193294999999999
 31
0.0
  0
LINE
  5
E8
330
B
100
AcDbEntity
 67
     1
  8
1
  6
Continuous
 62
    18
100
AcDbLine
 10
1.815008
 20
4.558135
 30
0.0
 11
1.821511
 21
4.551630999999999
 31
0.0
  0
LINE
  5
E9
330
B
100
AcDbEntity
 67
     1
  8
1
  6
Continuous
 62
    18
100
AcDbLine
 10
5.332880999999999
 20
4.534688
 30
0.0
 11
5.332880999999999
 21
4.525444999999999
 31
0.0
  0
LINE
  5
EA
330
B
100
AcDbEntity
 67
     1
  8
1
  6
Continuous
 62
    18
100
AcDbLine
 10
1.635438999999999
 20
4.668576999999999
 30
0.0
 11
1.635442999999999
 21
4.66873
 31
0.0
  0
LINE
  5
EB
330
B
100
AcDbEntity
 67
     1
  8
1
  6
Continuous
 62
    18
100
AcDbLine
 10
5.191969
 20
4.567575999999999
 30
0.0
 11
5.192636
 21
4.567594
 31
0.0
  0
LINE
  5
EC
330
B
100
AcDbEntity
 67
     1
  8
1
  6
Continuous
 62
    18
100
AcDbLine
 10
1.918845
 20
4.214816
 30
0.0
 11
1.918845
 21
4.336979
 31
0.0
  0
LINE
  5
ED
330
B
100
AcDbEntity
 67
     1
  8
1
  6
Continuous
 62
    18
100
AcDbLine
 10
2.260149999999999
 20
3.953720999999999
 30
0.0
 11
2.260149999999999
 21
4.668498999999999
 31
0.0
  0
LINE
  5
EE
330
B
100
AcDbEntity
 67
     1
  8
1
  6
Continuous
 62
    18
100
AcDbLine
 10
5.292119999999999
 20
4.567881999999999
 30
0.0
 11
5.323142999999999
 21
4.567069999999999
 31
0.0
  0
LINE
  5
EF
330
B
100
AcDbEntity
 67
     1
  8
1
  6
Continuous
 62
    18
100
AcDbLine
 10
2.057096
 20
4.067023
 30
0.0
 11
2.057795
 21
4.067721999999999
 31
0.0
  0
LINE
  5
F0
330
B
100
AcDbEntity
 67
     1
  8
1
  6
Continuous
 62
    18
100
AcDbLine
 10
5.21834
 20
4.563308
 30
0.0
 11
5.195119999999999
 21
4.56244
 31
0.0
  0
LINE
  5
F1
330
B
100
AcDbEntity
 67
     1
  8
1
  6
Continuous
 62
    18
100
AcDbLine
 10
2.187368999999999
 20
4.666198
 30
0.0
 11
2.187368999999999
 21
4.604573
 31
0.0
  0
LINE
  5
F2
330
B
100
AcDbEntity
 67
     1
  8
1
  6
Continuous
 62
    18
100
AcDbLine
 10
5.283676999999999
 20
4.561931999999999
 30
0.0
 11
5.273831999999999
 21
4.564154
 31
0.0
  0
LINE
  5
F3
330
B
100
AcDbEntity
 67
     1
  8
1
  6
Continuous
 62
    18
100
AcDbLine
 10
2.191081
 20
4.492135
 30
0.0
 11
2.200813999999999
 21
4.501866999999999
 31
0.0
  0
LINE
  5
F4
330
B
100
AcDbEntity
 67
     1
  8
1
  6
Continuous
 62
    18
100
AcDbLine
 10
5.268887999999999
 20
4.568491
 30
0.0
 11
5.26974
 21
4.568468
 31
0.0
  0
LINE
  5
F5
330
B
100
AcDbEntity
 67
     1
  8
1
  6
Continuous
 62
    18
100
AcDbLine
 10
2.016844999999999
 20
4.214816
 30
0.0
 11
2.016844999999999
 21
4.336979
 31
0.0
  0
LINE
  5
F6
330
B
100
AcDbEntity
 67
     1
  8
1
  6
Continuous
 62
    18
100
AcDbLine
 10
2.090313999999999
 20
4.567866999999999
 30
0.0
 11
2.080581
 21
4.558135
 31
0.0
  0
LINE
  5
F7
330
B
100
AcDbEntity
 67
     1
  8
1
  6
Continuous
 62
    18
100
AcDbLine
 10
5.332880999999999
 20
4.557072999999999
 30
0.0
 11
5.330045
 21
4.557072999999999
 31
0.0
  0
LINE
  5
F8
330
B
100
AcDbEntity
 67
     1
  8
1
  6
Continuous
 62
    18
100
AcDbLine
 10
2.099797
 20
4.234494
 30
0.0
 11
2.099453
 21
4.214813999999999
 31
0.0
  0
LINE
  5
F9
330
B
100
AcDbEntity
 67
     1
  8
1
  6
Continuous
 62
    18
100
AcDbLine
 10
2.187368999999999
 20
4.604573
 30
0.0
 11
2.185658999999999
 21
4.602862
 31
0.0
  0
LINE
  5
FA
330
B
100
AcDbEntity
 67
     1
  8
1
  6
Continuous
 62
    18
100
AcDbLine
 10
2.185743999999999
 20
4.664573
 30
0.0
 11
1.709845
 21
4.664573
 31
0.0
  0
LINE
  5
FB
330
B
100
AcDbEntity
 67
     1
  8
1
  6
Continuous
 62
    18
100
AcDbLine
 10
5.186118
 20
4.562123999999999
 30
0.0
 11
5.185380999999999
 21
4.562018
 31
0.0
  0
LINE
  5
FC
330
B
100
AcDbEntity
 67
     1
  8
1
  6
Continuous
 62
    18
100
AcDbLine
 10
1.896795
 20
4.214816
 30
0.0
 11
1.896795
 21
4.336979
 31
0.0
  0
LINE
  5
FD
330
B
100
AcDbEntity
 67
     1
  8
1
  6
Continuous
 62
    18
100
AcDbLine
 10
1.859727
 20
4.214813999999999
 30
0.0
 11
1.835861999999999
 21
4.214813999999999
 31
0.0
  0
LINE
  5
FE
330
B
100
AcDbEntity
 67
     1
  8
1
  6
Continuous
 62
    18
100
AcDbLine
 10
2.2568
 20
4.673295999999999
 30
0.0
 11
2.255150999999999
 21
4.673576
 31
0.0
  0
LINE
  5
FF
330
B
100
AcDbEntity
 67
     1
  8
1
  6
Continuous
 62
    18
100
AcDbLine
 10
1.70822
 20
4.666198
 30
0.0
 11
1.709845
 21
4.664573
 31
0.0
  0
LINE
  5
100
330
B
100
AcDbEntity
 67
     1
  8
1
  6
Continuous
 62
    18
100
AcDbLine
 10
5.274282
 20
4.525650999999999
 30
0.0
 11
5.275882
 21
4.525693
 31
0.0
  0
LINE
  5
101
330
B
100
AcDbEntity
 67
     1
  8
1
  6
Continuous
 62
    18
100
AcDbLine
 10
2.078845
 20
4.214816
 30
0.0
 11
2.078845
 21
4.336979
 31
0.0
  0
LINE
  5
102
330
B
100
AcDbEntity
 67
     1
  8
1
  6
Continuous
 62
    18
100
AcDbLine
 10
4.714341
 20
3.947757
 30
0.0
 11
4.714341
 21
4.585041999999999
 31
0.0
  0
LINE
  5
103
330
B
100
AcDbEntity
 67
     1
  8
1
  6
Continuous
 62
    18
100
AcDbLine
 10
1.645936999999999
 20
3.953720999999999
 30
0.0
 11
1.649441999999999
 21
3.953720999999999
 31
0.0
  0
LINE
  5
104
330
B
100
AcDbEntity
 67
     1
  8
1
  6
Continuous
 62
    18
100
AcDbLine
 10
5.457880999999999
 20
4.520805999999999
 30
0.0
 11
5.457880999999999
 21
4.515423999999999
 31
0.0
  0
LINE
  5
105
330
B
100
AcDbEntity
 67
     1
  8
1
  6
Continuous
 62
    18
100
AcDbLine
 10
2.100551999999999
 20
4.215226
 30
0.0
 11
2.115037
 21
4.215226
 31
0.0
  0
LINE
  5
106
330
B
100
AcDbEntity
 67
     1
  8
1
  6
Continuous
 62
    18
100
AcDbLine
 10
5.273375999999999
 20
4.567244
 30
0.0
 11
5.273007999999999
 21
4.567618
 31
0.0
  0
LINE
  5
107
330
B
100
AcDbEntity
 67
     1
  8
1
  6
Continuous
 62
    18
100
AcDbLine
 10
2.052704
 20
4.077628999999999
 30
0.0
 11
2.042099
 21
4.082021
 31
0.0
  0
LINE
  5
108
330
B
100
AcDbEntity
 67
     1
  8
1
  6
Continuous
 62
    18
100
AcDbLine
 10
5.457880999999999
 20
4.484678999999999
 30
0.0
 11
5.457880999999999
 21
4.477988999999999
 31
0.0
  0
LINE
  5
109
330
B
100
AcDbEntity
 67
     1
  8
1
  6
Continuous
 62
    18
100
AcDbLine
 10
2.035036999999999
 20
4.215226
 30
0.0
 11
2.035861999999999
 21
4.214813999999999
 31
0.0
  0
LINE
  5
10A
330
B
100
AcDbEntity
 67
     1
  8
1
  6
Continuous
 62
    18
100
AcDbLine
 10
5.186301
 20
4.565002999999999
 30
0.0
 11
5.185941
 21
4.564284999999999
 31
0.0
  0
LINE
  5
10B
330
B
100
AcDbEntity
 67
     1
  8
1
  6
Continuous
 62
    18
100
AcDbLine
 10
2.042797
 20
4.018718999999999
 30
0.0
 11
1.852791999999999
 21
4.018718999999999
 31
0.0
  0
LINE
  5
10C
330
B
100
AcDbEntity
 67
     1
  8
1
  6
Continuous
 62
    18
100
AcDbLine
 10
5.275882
 20
4.533758999999999
 30
0.0
 11
5.275882
 21
4.525693
 31
0.0
  0
LINE
  5
10D
330
B
100
AcDbEntity
 67
     1
  8
1
  6
Continuous
 62
    18
100
AcDbLine
 10
1.955861999999999
 20
4.214813999999999
 30
0.0
 11
1.979727
 21
4.214813999999999
 31
0.0
  0
LINE
  5
10E
330
B
100
AcDbEntity
 67
     1
  8
1
  6
Continuous
 62
    18
100
AcDbLine
 10
5.190666
 20
3.963720999999999
 30
0.0
 11
5.016496
 21
3.96068
 31
0.0
  0
LINE
  5
10F
330
B
100
AcDbEntity
 67
     1
  8
1
  6
Continuous
 62
    18
100
AcDbLine
 10
1.683295
 20
4.513348
 30
0.0
 11
1.793795
 21
4.513348
 31
0.0
  0
LINE
  5
110
330
B
100
AcDbEntity
 67
     1
  8
1
  6
Continuous
 62
    18
100
AcDbLine
 10
5.457880999999999
 20
4.505988999999999
 30
0.0
 11
5.332880999999999
 21
4.504062999999999
 31
0.0
  0
LINE
  5
111
330
B
100
AcDbEntity
 67
     1
  8
1
  6
Continuous
 62
    18
100
AcDbLine
 10
1.900552
 20
4.215226
 30
0.0
 11
1.899727
 21
4.214813999999999
 31
0.0
  0
LINE
  5
112
330
B
100
AcDbEntity
 67
     1
  8
1
  6
Continuous
 62
    18
100
AcDbLine
 10
5.221502
 20
3.996058999999999
 30
0.0
 11
5.196501999999999
 21
4.010493
 31
0.0
  0
LINE
  5
113
330
B
100
AcDbEntity
 67
     1
  8
1
  6
Continuous
 62
    18
100
AcDbLine
 10
1.867802
 20
4.554157
 30
0.0
 11
2.027787
 21
4.554157
 31
0.0
  0
LINE
  5
114
330
B
100
AcDbEntity
 67
     1
  8
1
  6
Continuous
 62
    18
100
AcDbLine
 10
2.101793999999999
 20
4.513348
 30
0.0
 11
2.101793999999999
 21
4.579348
 31
0.0
  0
LINE
  5
115
330
B
100
AcDbEntity
 67
     1
  8
1
  6
Continuous
 62
    18
100
AcDbLine
 10
5.455424999999999
 20
4.438613
 30
0.0
 11
5.457880999999999
 21
4.441112999999999
 31
0.0
  0
LINE
  5
116
330
B
100
AcDbEntity
 67
     1
  8
1
  6
Continuous
 62
    18
100
AcDbLine
 10
2.056795
 20
4.214816
 30
0.0
 11
2.056795
 21
4.336979
 31
0.0
  0
LINE
  5
117
330
B
100
AcDbEntity
 67
     1
  8
1
  6
Continuous
 62
    18
100
AcDbLine
 10
5.127755
 20
4.520163
 30
0.0
 11
5.096502
 21
4.520163
 31
0.0
  0
LINE
  5
118
330
B
100
AcDbEntity
 67
     1
  8
1
  6
Continuous
 62
    18
100
AcDbLine
 10
2.027791999999999
 20
4.572087
 30
0.0
 11
1.867797999999999
 21
4.572087
 31
0.0
  0
LINE
  5
119
330
B
100
AcDbEntity
 67
     1
  8
1
  6
Continuous
 62
    18
100
AcDbLine
 10
1.837795
 20
4.067721999999999
 30
0.0
 11
1.837795
 21
4.033717
 31
0.0
  0
LINE
  5
11A
330
B
100
AcDbEntity
 67
     1
  8
1
  6
Continuous
 62
    18
100
AcDbLine
 10
5.195119999999999
 20
4.567658999999999
 30
0.0
 11
5.195078999999999
 21
4.567292
 31
0.0
  0
LINE
  5
11B
330
B
100
AcDbEntity
 67
     1
  8
1
  6
Continuous
 62
    18
100
AcDbLine
 10
4.965519
 20
4.57178
 30
0.0
 11
4.965519
 21
4.590601
 31
0.0
  0
LINE
  5
11C
330
B
100
AcDbEntity
 67
     1
  8
1
  6
Continuous
 62
    18
100
AcDbLine
 10
2.260215999999999
 20
4.181519
 30
0.0
 11
2.260149999999999
 21
4.183011
 31
0.0
  0
LINE
  5
11D
330
B
100
AcDbEntity
 67
     1
  8
1
  6
Continuous
 62
    18
100
AcDbLine
 10
2.185658999999999
 20
4.602862
 30
0.0
 11
2.246147
 21
4.602862
 31
0.0
  0
LINE
  5
11E
330
B
100
AcDbEntity
 67
     1
  8
1
  6
Continuous
 62
    18
100
AcDbLine
 10
5.247898
 20
4.568938
 30
0.0
 11
5.247902999999999
 21
4.568405
 31
0.0
  0
LINE
  5
11F
330
B
100
AcDbEntity
 67
     1
  8
1
  6
Continuous
 62
    18
100
AcDbLine
 10
4.706018
 20
4.633150999999999
 30
0.0
 11
4.706018
 21
4.638285999999999
 31
0.0
  0
LINE
  5
120
330
B
100
AcDbEntity
 67
     1
  8
1
  6
Continuous
 62
    18
100
AcDbLine
 10
2.260215999999999
 20
4.641949999999999
 30
0.0
 11
2.260215999999999
 21
3.987955
 31
0.0
  0
LINE
  5
121
330
B
100
AcDbEntity
 67
     1
  8
1
  6
Continuous
 62
    18
100
AcDbLine
 10
1.955795
 20
4.336979
 30
0.0
 11
1.955795
 21
4.238251999999999
 31
0.0
  0
LINE
  5
122
330
B
100
AcDbEntity
 67
     1
  8
1
  6
Continuous
 62
    18
100
AcDbLine
 10
5.264586
 20
4.567480999999999
 30
0.0
 11
5.264583
 21
4.566867
 31
0.0
  0
LINE
  5
123
330
B
100
AcDbEntity
 67
     1
  8
1
  6
Continuous
 62
    18
100
AcDbLine
 10
1.856794999999999
 20
4.214816
 30
0.0
 11
1.856794999999999
 21
4.336979
 31
0.0
  0
LINE
  5
124
330
B
100
AcDbEntity
 67
     1
  8
1
  6
Continuous
 62
    18
100
AcDbLine
 10
5.016502
 20
3.958720999999999
 30
0.0
 11
5.017966999999999
 21
3.958720999999999
 31
0.0
  0
LINE
  5
125
330
B
100
AcDbEntity
 67
     1
  8
1
  6
Continuous
 62
    18
100
AcDbLine
 10
2.140245999999999
 20
4.234494
 30
0.0
 11
2.139893999999999
 21
4.214348
 31
0.0
  0
LINE
  5
126
330
B
100
AcDbEntity
 67
     1
  8
1
  6
Continuous
 62
    18
100
AcDbLine
 10
2.019794
 20
4.238251999999999
 30
0.0
 11
2.035793999999999
 21
4.238251999999999
 31
0.0
  0
LINE
  5
127
330
B
100
AcDbEntity
 67
     1
  8
1
  6
Continuous
 62
    18
100
AcDbLine
 10
5.273725999999999
 20
4.566816
 30
0.0
 11
5.274042999999999
 21
4.566193
 31
0.0
  0
LINE
  5
128
330
B
100
AcDbEntity
 67
     1
  8
1
  6
Continuous
 62
    18
100
AcDbLine
 10
4.960519
 20
4.220055999999999
 30
0.0
 11
5.086502999999999
 21
4.094071999999999
 31
0.0
  0
LINE
  5
129
330
B
100
AcDbEntity
 67
     1
  8
1
  6
Continuous
 62
    18
100
AcDbLine
 10
1.779797
 20
4.234494
 30
0.0
 11
1.779450999999999
 21
4.214675999999999
 31
0.0
  0
LINE
  5
12A
330
B
100
AcDbEntity
 67
     1
  8
1
  6
Continuous
 62
    18
100
AcDbLine
 10
2.099794999999999
 20
4.336979
 30
0.0
 11
2.099794999999999
 21
4.238251999999999
 31
0.0
  0
LINE
  5
12B
330
B
100
AcDbEntity
 67
     1
  8
1
  6
Continuous
 62
    18
100
AcDbLine
 10
3.960931
 20
3.953720999999999
 30
0.0
 11
3.957451999999999
 21
3.953720999999999
 31
0.0
  0
LINE
  5
12C
330
B
100
AcDbEntity
 67
     1
  8
1
  6
Continuous
 62
    18
100
AcDbLine
 10
5.016502
 20
3.978015
 30
0.0
 11
5.016502
 21
3.992515
 31
0.0
  0
LINE
  5
12D
330
B
100
AcDbEntity
 67
     1
  8
1
  6
Continuous
 62
    18
100
AcDbLine
 10
1.875795
 20
4.234494
 30
0.0
 11
1.876138
 21
4.214813999999999
 31
0.0
  0
LINE
  5
12E
330
B
100
AcDbEntity
 67
     1
  8
1
  6
Continuous
 62
    18
100
AcDbLine
 10
1.795795
 20
4.336979
 30
0.0
 11
1.819795
 21
4.336979
 31
0.0
  0
LINE
  5
12F
330
B
100
AcDbEntity
 67
     1
  8
1
  6
Continuous
 62
    18
100
AcDbLine
 10
3.946018
 20
4.166691
 30
0.0
 11
3.946018
 21
4.172348
 31
0.0
  0
LINE
  5
130
330
B
100
AcDbEntity
 67
     1
  8
1
  6
Continuous
 62
    18
100
AcDbLine
 10
5.016502
 20
3.973065
 30
0.0
 11
5.016502
 21
3.975336
 31
0.0
  0
LINE
  5
131
330
B
100
AcDbEntity
 67
     1
  8
1
  6
Continuous
 62
    18
100
AcDbLine
 10
1.955795
 20
4.234494
 30
0.0
 11
1.939797
 21
4.234494
 31
0.0
  0
LINE
  5
132
330
B
100
AcDbEntity
 67
     1
  8
1
  6
Continuous
 62
    18
100
AcDbLine
 10
1.875795
 20
4.336979
 30
0.0
 11
1.875795
 21
4.238251999999999
 31
0.0
  0
LINE
  5
133
330
B
100
AcDbEntity
 67
     1
  8
1
  6
Continuous
 62
    18
100
AcDbLine
 10
4.054018
 20
4.604573
 30
0.0
 11
4.054018
 21
4.661198
 31
0.0
  0
LINE
  5
134
330
B
100
AcDbEntity
 67
     1
  8
1
  6
Continuous
 62
    18
100
AcDbLine
 10
4.707976999999999
 20
3.996369999999999
 30
0.0
 11
4.707976999999999
 21
4.585513999999999
 31
0.0
  0
LINE
  5
135
330
B
100
AcDbEntity
 67
     1
  8
1
  6
Continuous
 62
    18
100
AcDbLine
 10
2.059797
 20
4.234494
 30
0.0
 11
2.059452999999999
 21
4.214813999999999
 31
0.0
  0
LINE
  5
136
330
B
100
AcDbEntity
 67
     1
  8
1
  6
Continuous
 62
    18
100
AcDbLine
 10
1.823795
 20
4.425964999999999
 30
0.0
 11
2.071795
 21
4.425964999999999
 31
0.0
  0
LINE
  5
137
330
B
100
AcDbEntity
 67
     1
  8
1
  6
Continuous
 62
    18
100
AcDbLine
 10
4.476726
 20
4.668576999999999
 30
0.0
 11
4.476644999999999
 21
4.66873
 31
0.0
  0
LINE
  5
138
330
B
100
AcDbEntity
 67
     1
  8
1
  6
Continuous
 62
    18
100
AcDbLine
 10
3.956019
 20
4.121277
 30
0.0
 11
3.953344
 21
4.121277
 31
0.0
  0
LINE
  5
139
330
B
100
AcDbEntity
 67
     1
  8
1
  6
Continuous
 62
    18
100
AcDbLine
 10
1.867795
 20
4.622568
 30
0.0
 11
1.863775
 21
4.626587
 31
0.0
  0
LINE
  5
13A
330
B
100
AcDbEntity
 67
     1
  8
1
  6
Continuous
 62
    18
100
AcDbLine
 10
1.955036999999999
 20
4.215226
 30
0.0
 11
1.955861999999999
 21
4.214813999999999
 31
0.0
  0
LINE
  5
13B
330
B
100
AcDbEntity
 67
     1
  8
1
  6
Continuous
 62
    18
100
AcDbLine
 10
5.181376
 20
4.034656
 30
0.0
 11
5.170937999999999
 21
4.034656
 31
0.0
  0
LINE
  5
13C
330
B
100
AcDbEntity
 67
     1
  8
1
  6
Continuous
 62
    18
100
AcDbLine
 10
2.200813999999999
 20
4.195827999999999
 30
0.0
 11
2.191081
 21
4.205561
 31
0.0
  0
LINE
  5
13D
330
B
100
AcDbEntity
 67
     1
  8
1
  6
Continuous
 62
    18
100
AcDbLine
 10
1.682795
 20
4.184347999999999
 30
0.0
 11
2.212795
 21
4.184347999999999
 31
0.0
  0
LINE
  5
13E
330
B
100
AcDbEntity
 67
     1
  8
1
  6
Continuous
 62
    18
100
AcDbLine
 10
5.185677
 20
4.504229
 30
0.0
 11
5.185677
 21
4.034656
 31
0.0
  0
LINE
  5
13F
330
B
100
AcDbEntity
 67
     1
  8
1
  6
Continuous
 62
    18
100
AcDbLine
 10
1.635438999999999
 20
4.668576999999999
 30
0.0
 11
1.635438999999999
 21
4.668498999999999
 31
0.0
  0
LINE
  5
140
330
B
100
AcDbEntity
 67
     1
  8
1
  6
Continuous
 62
    18
100
AcDbLine
 10
5.287206999999999
 20
3.953720999999999
 30
0.0
 11
5.230677
 21
3.953720999999999
 31
0.0
  0
LINE
  5
141
330
B
100
AcDbEntity
 67
     1
  8
1
  6
Continuous
 62
    18
100
AcDbLine
 10
5.191070999999999
 20
4.567553
 30
0.0
 11
5.191969
 21
4.567575999999999
 31
0.0
  0
LINE
  5
142
330
B
100
AcDbEntity
 67
     1
  8
1
  6
Continuous
 62
    18
100
AcDbLine
 10
1.713295
 20
4.214348
 30
0.0
 11
1.713295
 21
4.483347
 31
0.0
  0
LINE
  5
143
330
B
100
AcDbEntity
 67
     1
  8
1
  6
Continuous
 62
    18
100
AcDbLine
 10
5.185677
 20
4.520229
 30
0.0
 11
5.316105999999999
 21
4.520419999999999
 31
0.0
  0
LINE
  5
144
330
B
100
AcDbEntity
 67
     1
  8
1
  6
Continuous
 62
    18
100
AcDbLine
 10
1.70822
 20
4.666198
 30
0.0
 11
1.70822
 21
4.604573
 31
0.0
  0
LINE
  5
145
330
B
100
AcDbEntity
 67
     1
  8
1
  6
Continuous
 62
    18
100
AcDbLine
 10
1.823795
 20
4.483347
 30
0.0
 11
1.821511
 21
4.485630999999999
 31
0.0
  0
LINE
  5
146
330
B
100
AcDbEntity
 67
     1
  8
1
  6
Continuous
 62
    18
100
AcDbLine
 10
5.281137999999999
 20
3.969720999999999
 30
0.0
 11
5.285603
 21
3.958548
 31
0.0
  0
LINE
  5
147
330
B
100
AcDbEntity
 67
     1
  8
1
  6
Continuous
 62
    18
100
AcDbLine
 10
1.821511
 20
4.551630999999999
 30
0.0
 11
1.823795
 21
4.549347
 31
0.0
  0
LINE
  5
148
330
B
100
AcDbEntity
 67
     1
  8
1
  6
Continuous
 62
    18
100
AcDbLine
 10
5.332880999999999
 20
4.522241999999999
 30
0.0
 11
5.332880999999999
 21
4.524402999999999
 31
0.0
  0
LINE
  5
149
330
B
100
AcDbEntity
 67
     1
  8
1
  6
Continuous
 62
    18
100
AcDbLine
 10
1.635442999999999
 20
4.66873
 30
0.0
 11
1.635469
 21
4.669088999999999
 31
0.0
  0
LINE
  5
14A
330
B
100
AcDbEntity
 67
     1
  8
1
  6
Continuous
 62
    18
100
AcDbLine
 10
5.192636
 20
4.567594
 30
0.0
 11
5.193382999999999
 21
4.567613999999999
 31
0.0
  0
LINE
  5
14B
330
B
100
AcDbEntity
 67
     1
  8
1
  6
Continuous
 62
    18
100
AcDbLine
 10
2.252771
 20
4.661198
 30
0.0
 11
2.260149999999999
 21
4.668576999999999
 31
0.0
  0
LINE
  5
14C
330
B
100
AcDbEntity
 67
     1
  8
1
  6
Continuous
 62
    18
100
AcDbLine
 10
2.246147
 20
4.602862
 30
0.0
 11
2.251147
 21
4.602948
 31
0.0
  0
LINE
  5
14D
330
B
100
AcDbEntity
 67
     1
  8
1
  6
Continuous
 62
    18
100
AcDbLine
 10
5.195119999999999
 20
4.56244
 30
0.0
 11
5.195119999999999
 21
4.520241
 31
0.0
  0
LINE
  5
14E
330
B
100
AcDbEntity
 67
     1
  8
1
  6
Continuous
 62
    18
100
AcDbLine
 10
2.252771
 20
4.604573
 30
0.0
 11
2.187368999999999
 21
4.604573
 31
0.0
  0
LINE
  5
14F
330
B
100
AcDbEntity
 67
     1
  8
1
  6
Continuous
 62
    18
100
AcDbLine
 10
5.275882
 20
4.53688
 30
0.0
 11
5.274283
 21
4.536921999999999
 31
0.0
  0
LINE
  5
150
330
B
100
AcDbEntity
 67
     1
  8
1
  6
Continuous
 62
    18
100
AcDbLine
 10
2.200813999999999
 20
4.501866999999999
 30
0.0
 11
2.212295
 21
4.513348
 31
0.0
  0
LINE
  5
151
330
B
100
AcDbEntity
 67
     1
  8
1
  6
Continuous
 62
    18
100
AcDbLine
 10
5.26974
 20
4.568468
 30
0.0
 11
5.270350999999999
 21
4.568451999999999
 31
0.0
  0
LINE
  5
152
330
B
100
AcDbEntity
 67
     1
  8
1
  6
Continuous
 62
    18
100
AcDbLine
 10
2.096845
 20
4.214816
 30
0.0
 11
2.096845
 21
4.336979
 31
0.0
  0
LINE
  5
153
330
B
100
AcDbEntity
 67
     1
  8
1
  6
Continuous
 62
    18
100
AcDbLine
 10
2.080581
 20
4.558135
 30
0.0
 11
2.074078
 21
4.551630999999999
 31
0.0
  0
LINE
  5
154
330
B
100
AcDbEntity
 67
     1
  8
1
  6
Continuous
 62
    18
100
AcDbLine
 10
5.330045
 20
4.557072999999999
 30
0.0
 11
5.323142999999999
 21
4.557072999999999
 31
0.0
  0
LINE
  5
155
330
B
100
AcDbEntity
 67
     1
  8
1
  6
Continuous
 62
    18
100
AcDbLine
 10
2.260149999999999
 20
4.668576999999999
 30
0.0
 11
2.260145999999999
 21
4.66873
 31
0.0
  0
LINE
  5
156
330
B
100
AcDbEntity
 67
     1
  8
1
  6
Continuous
 62
    18
100
AcDbLine
 10
2.187368999999999
 20
4.666198
 30
0.0
 11
2.185743999999999
 21
4.664573
 31
0.0
  0
LINE
  5
157
330
B
100
AcDbEntity
 67
     1
  8
1
  6
Continuous
 62
    18
100
AcDbLine
 10
5.274283
 20
4.564912999999999
 30
0.0
 11
5.273546999999999
 21
4.564877
 31
0.0
  0
LINE
  5
158
330
B
100
AcDbEntity
 67
     1
  8
1
  6
Continuous
 62
    18
100
AcDbLine
 10
4.543591
 20
4.640922999999999
 30
0.0
 11
4.118921
 21
4.640922999999999
 31
0.0
  0
LINE
  5
159
330
B
100
AcDbEntity
 67
     1
  8
1
  6
Continuous
 62
    18
100
AcDbLine
 10
1.635438999999999
 20
3.953720999999999
 30
0.0
 11
1.635438999999999
 21
4.668498999999999
 31
0.0
  0
LINE
  5
15A
330
B
100
AcDbEntity
 67
     1
  8
1
  6
Continuous
 62
    18
100
AcDbLine
 10
5.455424999999999
 20
4.438613
 30
0.0
 11
5.344322
 21
4.436674
 31
0.0
  0
LINE
  5
15B
330
B
100
AcDbEntity
 67
     1
  8
1
  6
Continuous
 62
    18
100
AcDbLine
 10
4.715755
 20
3.947757
 30
0.0
 11
4.715755
 21
4.584869
 31
0.0
  0
LINE
  5
15C
330
B
100
AcDbEntity
 67
     1
  8
1
  6
Continuous
 62
    18
100
AcDbLine
 10
1.635438999999999
 20
3.953720999999999
 30
0.0
 11
1.644443
 21
3.953720999999999
 31
0.0
  0
LINE
  5
15D
330
B
100
AcDbEntity
 67
     1
  8
1
  6
Continuous
 62
    18
100
AcDbLine
 10
5.457880999999999
 20
4.515423999999999
 30
0.0
 11
5.457880999999999
 21
4.512748
 31
0.0
  0
LINE
  5
15E
330
B
100
AcDbEntity
 67
     1
  8
1
  6
Continuous
 62
    18
100
AcDbLine
 10
5.273007999999999
 20
4.567618
 30
0.0
 11
5.272592999999999
 21
4.567922
 31
0.0
  0
LINE
  5
15F
330
B
100
AcDbEntity
 67
     1
  8
1
  6
Continuous
 62
    18
100
AcDbLine
 10
1.85349
 20
4.082021
 30
0.0
 11
2.042099
 21
4.082021
 31
0.0
  0
LINE
  5
160
330
B
100
AcDbEntity
 67
     1
  8
1
  6
Continuous
 62
    18
100
AcDbLine
 10
5.457880999999999
 20
4.477988999999999
 30
0.0
 11
5.457880999999999
 21
4.459423999999999
 31
0.0
  0
LINE
  5
161
330
B
100
AcDbEntity
 67
     1
  8
1
  6
Continuous
 62
    18
100
AcDbLine
 10
2.020551999999999
 20
4.215226
 30
0.0
 11
2.035036999999999
 21
4.215226
 31
0.0
  0
LINE
  5
162
330
B
100
AcDbEntity
 67
     1
  8
1
  6
Continuous
 62
    18
100
AcDbLine
 10
5.185941
 20
4.564284999999999
 30
0.0
 11
5.185700999999999
 21
4.563525
 31
0.0
  0
LINE
  5
163
330
B
100
AcDbEntity
 67
     1
  8
1
  6
Continuous
 62
    18
100
AcDbLine
 10
2.042797
 20
4.018718999999999
 30
0.0
 11
2.042099
 21
4.019417999999999
 31
0.0
  0
LINE
  5
164
330
B
100
AcDbEntity
 67
     1
  8
1
  6
Continuous
 62
    18
100
AcDbLine
 10
5.457880999999999
 20
4.520805999999999
 30
0.0
 11
5.457602999999999
 21
4.521951999999999
 31
0.0
  0
LINE
  5
165
330
B
100
AcDbEntity
 67
     1
  8
1
  6
Continuous
 62
    18
100
AcDbLine
 10
1.842884999999999
 20
4.077628999999999
 30
0.0
 11
1.85349
 21
4.082021
 31
0.0
  0
LINE
  5
166
330
B
100
AcDbEntity
 67
     1
  8
1
  6
Continuous
 62
    18
100
AcDbLine
 10
4.729518999999999
 20
4.602968999999999
 30
0.0
 11
4.724844999999999
 21
4.603214
 31
0.0
  0
LINE
  5
167
330
B
100
AcDbEntity
 67
     1
  8
1
  6
Continuous
 62
    18
100
AcDbLine
 10
1.793795
 20
4.513348
 30
0.0
 11
1.793795
 21
4.579348
 31
0.0
  0
LINE
  5
168
330
B
100
AcDbEntity
 67
     1
  8
1
  6
Continuous
 62
    18
100
AcDbLine
 10
5.457880999999999
 20
4.484748
 30
0.0
 11
5.336176
 21
4.482873
 31
0.0
  0
LINE
  5
169
330
B
100
AcDbEntity
 67
     1
  8
1
  6
Continuous
 62
    18
100
AcDbLine
 10
2.027785999999999
 20
4.560454
 30
0.0
 11
1.867802999999999
 21
4.560454
 31
0.0
  0
LINE
  5
16A
330
B
100
AcDbEntity
 67
     1
  8
1
  6
Continuous
 62
    18
100
AcDbLine
 10
2.212295
 20
4.513348
 30
0.0
 11
2.101793999999999
 21
4.513348
 31
0.0
  0
LINE
  5
16B
330
B
100
AcDbEntity
 67
     1
  8
1
  6
Continuous
 62
    18
100
AcDbLine
 10
5.457880999999999
 20
4.451677
 30
0.0
 11
5.342003
 21
4.449823
 31
0.0
  0
LINE
  5
16C
330
B
100
AcDbEntity
 67
     1
  8
1
  6
Continuous
 62
    18
100
AcDbLine
 10
1.820551999999999
 20
4.215226
 30
0.0
 11
1.819727
 21
4.214813999999999
 31
0.0
  0
LINE
  5
16D
330
B
100
AcDbEntity
 67
     1
  8
1
  6
Continuous
 62
    18
100
AcDbLine
 10
5.096502
 20
4.520163
 30
0.0
 11
5.096502
 21
4.453445999999999
 31
0.0
  0
LINE
  5
16E
330
B
100
AcDbEntity
 67
     1
  8
1
  6
Continuous
 62
    18
100
AcDbLine
 10
1.867797999999999
 20
4.603543
 30
0.0
 11
2.027791999999999
 21
4.603543
 31
0.0
  0
LINE
  5
16F
330
B
100
AcDbEntity
 67
     1
  8
1
  6
Continuous
 62
    18
100
AcDbLine
 10
1.852791999999999
 20
4.082718999999999
 30
0.0
 11
1.842186999999999
 21
4.078326999999999
 31
0.0
  0
LINE
  5
170
330
B
100
AcDbEntity
 67
     1
  8
1
  6
Continuous
 62
    18
100
AcDbLine
 10
5.195078999999999
 20
4.567292
 30
0.0
 11
5.195066999999999
 21
4.566806999999999
 31
0.0
  0
LINE
  5
171
330
B
100
AcDbEntity
 67
     1
  8
1
  6
Continuous
 62
    18
100
AcDbLine
 10
4.729518999999999
 20
4.584146999999999
 30
0.0
 11
4.729518999999999
 21
4.602968999999999
 31
0.0
  0
LINE
  5
172
330
B
100
AcDbEntity
 67
     1
  8
1
  6
Continuous
 62
    18
100
AcDbLine
 10
1.635372999999999
 20
4.071278999999999
 30
0.0
 11
1.635438999999999
 21
4.069786999999999
 31
0.0
  0
LINE
  5
173
330
B
100
AcDbEntity
 67
     1
  8
1
  6
Continuous
 62
    18
100
AcDbLine
 10
2.185658999999999
 20
4.659574
 30
0.0
 11
2.185658999999999
 21
4.602862
 31
0.0
  0
LINE
  5
174
330
B
100
AcDbEntity
 67
     1
  8
1
  6
Continuous
 62
    18
100
AcDbLine
 10
5.247902999999999
 20
4.568405
 30
0.0
 11
5.247902999999999
 21
4.567473
 31
0.0
  0
LINE
  5
175
330
B
100
AcDbEntity
 67
     1
  8
1
  6
Continuous
 62
    18
100
AcDbLine
 10
2.260215999999999
 20
4.641949999999999
 30
0.0
 11
2.265216
 21
4.641949999999999
 31
0.0
  0
LINE
  5
176
330
B
100
AcDbEntity
 67
     1
  8
1
  6
Continuous
 62
    18
100
AcDbLine
 10
1.979795
 20
4.336979
 30
0.0
 11
1.955795
 21
4.336979
 31
0.0
  0
LINE
  5
177
330
B
100
AcDbEntity
 67
     1
  8
1
  6
Continuous
 62
    18
100
AcDbLine
 10
5.264583
 20
4.566867
 30
0.0
 11
5.264574999999999
 21
4.566180999999999
 31
0.0
  0
LINE
  5
178
330
B
100
AcDbEntity
 67
     1
  8
1
  6
Continuous
 62
    18
100
AcDbLine
 10
1.860552
 20
4.215226
 30
0.0
 11
1.859727
 21
4.214813999999999
 31
0.0
  0
LINE
  5
179
330
B
100
AcDbEntity
 67
     1
  8
1
  6
Continuous
 62
    18
100
AcDbLine
 10
5.017966999999999
 20
3.958720999999999
 30
0.0
 11
5.021501999999999
 21
3.958720999999999
 31
0.0
  0
LINE
  5
17A
330
B
100
AcDbEntity
 67
     1
  8
1
  6
Continuous
 62
    18
100
AcDbLine
 10
2.17004
 20
4.214348
 30
0.0
 11
2.17004
 21
4.234494
 31
0.0
  0
LINE
  5
17B
330
B
100
AcDbEntity
 67
     1
  8
1
  6
Continuous
 62
    18
100
AcDbLine
 10
2.035793999999999
 20
4.336979
 30
0.0
 11
2.035793999999999
 21
4.238251999999999
 31
0.0
  0
LINE
  5
17C
330
B
100
AcDbEntity
 67
     1
  8
1
  6
Continuous
 62
    18
100
AcDbLine
 10
5.274042999999999
 20
4.566193
 30
0.0
 11
5.274283
 21
4.564912999999999
 31
0.0
  0
LINE
  5
17D
330
B
100
AcDbEntity
 67
     1
  8
1
  6
Continuous
 62
    18
100
AcDbLine
 10
4.960519
 20
4.331604
 30
0.0
 11
4.960519
 21
4.220055999999999
 31
0.0
  0
LINE
  5
17E
330
B
100
AcDbEntity
 67
     1
  8
1
  6
Continuous
 62
    18
100
AcDbLine
 10
1.795795
 20
4.234494
 30
0.0
 11
1.796138
 21
4.214813999999999
 31
0.0
  0
LINE
  5
17F
330
B
100
AcDbEntity
 67
     1
  8
1
  6
Continuous
 62
    18
100
AcDbLine
 10
2.099794999999999
 20
4.238251999999999
 30
0.0
 11
2.182294999999999
 21
4.238251999999999
 31
0.0
  0
LINE
  5
180
330
B
100
AcDbEntity
 67
     1
  8
1
  6
Continuous
 62
    18
100
AcDbLine
 10
3.957451999999999
 20
3.953720999999999
 30
0.0
 11
3.956017999999999
 21
3.953720999999999
 31
0.0
  0
LINE
  5
181
330
B
100
AcDbEntity
 67
     1
  8
1
  6
Continuous
 62
    18
100
AcDbLine
 10
1.875795
 20
4.234494
 30
0.0
 11
1.859797
 21
4.234494
 31
0.0
  0
LINE
  5
182
330
B
100
AcDbEntity
 67
     1
  8
1
  6
Continuous
 62
    18
100
AcDbLine
 10
1.819795
 20
4.336979
 30
0.0
 11
1.819795
 21
4.238251999999999
 31
0.0
  0
LINE
  5
183
330
B
100
AcDbEntity
 67
     1
  8
1
  6
Continuous
 62
    18
100
AcDbLine
 10
3.946018
 20
4.172348
 30
0.0
 11
3.946018
 21
4.184347999999999
 31
0.0
  0
LINE
  5
184
330
B
100
AcDbEntity
 67
     1
  8
1
  6
Continuous
 62
    18
100
AcDbLine
 10
2.020551999999999
 20
4.215226
 30
0.0
 11
2.019727
 21
4.214813999999999
 31
0.0
  0
LINE
  5
185
330
B
100
AcDbEntity
 67
     1
  8
1
  6
Continuous
 62
    18
100
AcDbLine
 10
5.016502
 20
3.975336
 30
0.0
 11
5.016502
 21
3.978015
 31
0.0
  0
LINE
  5
186
330
B
100
AcDbEntity
 67
     1
  8
1
  6
Continuous
 62
    18
100
AcDbLine
 10
1.979796999999999
 20
4.234494
 30
0.0
 11
1.979452999999999
 21
4.214813999999999
 31
0.0
  0
LINE
  5
187
330
B
100
AcDbEntity
 67
     1
  8
1
  6
Continuous
 62
    18
100
AcDbLine
 10
1.875795
 20
4.336979
 30
0.0
 11
1.899795
 21
4.336979
 31
0.0
  0
LINE
  5
188
330
B
100
AcDbEntity
 67
     1
  8
1
  6
Continuous
 62
    18
100
AcDbLine
 10
3.960931
 20
4.602948
 30
0.0
 11
4.054018
 21
4.604573
 31
0.0
  0
LINE
  5
189
330
B
100
AcDbEntity
 67
     1
  8
1
  6
Continuous
 62
    18
100
AcDbLine
 10
1.995036999999999
 20
4.215226
 30
0.0
 11
1.995861999999999
 21
4.214813999999999
 31
0.0
  0
LINE
  5
18A
330
B
100
AcDbEntity
 67
     1
  8
1
  6
Continuous
 62
    18
100
AcDbLine
 10
4.703026999999999
 20
4.585773
 30
0.0
 11
4.693330999999999
 21
4.586281999999999
 31
0.0
  0
LINE
  5
18B
330
B
100
AcDbEntity
 67
     1
  8
1
  6
Continuous
 62
    18
100
AcDbLine
 10
2.075793999999999
 20
4.234494
 30
0.0
 11
2.076138
 21
4.214813999999999
 31
0.0
  0
LINE
  5
18C
330
B
100
AcDbEntity
 67
     1
  8
1
  6
Continuous
 62
    18
100
AcDbLine
 10
2.071795
 20
4.444874999999999
 30
0.0
 11
1.823795
 21
4.444874999999999
 31
0.0
  0
LINE
  5
18D
330
B
100
AcDbEntity
 67
     1
  8
1
  6
Continuous
 62
    18
100
AcDbLine
 10
4.476644999999999
 20
4.66873
 30
0.0
 11
4.476561
 21
4.669088999999999
 31
0.0
  0
LINE
  5
18E
330
B
100
AcDbEntity
 67
     1
  8
1
  6
Continuous
 62
    18
100
AcDbLine
 10
3.953344
 20
4.121277
 30
0.0
 11
3.953344
 21
4.117277999999999
 31
0.0
  0
LINE
  5
18F
330
B
100
AcDbEntity
 67
     1
  8
1
  6
Continuous
 62
    18
100
AcDbLine
 10
1.863775
 20
4.626587
 30
0.0
 11
1.852795
 21
4.629528999999999
 31
0.0
  0
LINE
  5
190
330
B
100
AcDbEntity
 67
     1
  8
1
  6
Continuous
 62
    18
100
AcDbLine
 10
5.170937999999999
 20
4.034656
 30
0.0
 11
5.160055999999999
 21
4.034656
 31
0.0
  0
LINE
  5
191
330
B
100
AcDbEntity
 67
     1
  8
1
  6
Continuous
 62
    18
100
AcDbLine
 10
2.191081
 20
4.205561
 30
0.0
 11
2.184577999999999
 21
4.212063999999999
 31
0.0
  0
LINE
  5
192
330
B
100
AcDbEntity
 67
     1
  8
1
  6
Continuous
 62
    18
100
AcDbLine
 10
5.230677
 20
3.969720999999999
 30
0.0
 11
5.281137999999999
 21
3.969720999999999
 31
0.0
  0
LINE
  5
193
330
B
100
AcDbEntity
 67
     1
  8
1
  6
Continuous
 62
    18
100
AcDbLine
 10
1.690795
 20
4.164348
 30
0.0
 11
2.204795
 21
4.164348
 31
0.0
  0
LINE
  5
194
330
B
100
AcDbEntity
 67
     1
  8
1
  6
Continuous
 62
    18
100
AcDbLine
 10
5.230677
 20
3.953720999999999
 30
0.0
 11
5.230677
 21
3.958406999999999
 31
0.0
  0
LINE
  5
195
330
B
100
AcDbEntity
 67
     1
  8
1
  6
Continuous
 62
    18
100
AcDbLine
 10
1.644443
 20
4.602948
 30
0.0
 11
1.644443
 21
3.953720999999999
 31
0.0
  0
LINE
  5
196
330
B
100
AcDbEntity
 67
     1
  8
1
  6
Continuous
 62
    18
100
AcDbLine
 10
5.328018
 20
3.979531999999999
 30
0.0
 11
5.328018
 21
4.004158999999999
 31
0.0
  0
LINE
  5
197
330
B
100
AcDbEntity
 67
     1
  8
1
  6
Continuous
 62
    18
100
AcDbLine
 10
1.867795
 20
4.549347
 30
0.0
 11
1.823795
 21
4.549347
 31
0.0
  0
LINE
  5
198
330
B
100
AcDbEntity
 67
     1
  8
1
  6
Continuous
 62
    18
100
AcDbLine
 10
5.139559999999999
 20
4.520162
 30
0.0
 11
5.139577
 21
4.496004
 31
0.0
  0
LINE
  5
199
330
B
100
AcDbEntity
 67
     1
  8
1
  6
Continuous
 62
    18
100
AcDbLine
 10
1.823795
 20
4.443347
 30
0.0
 11
1.713295
 21
4.443347
 31
0.0
  0
LINE
  5
19A
330
B
100
AcDbEntity
 67
     1
  8
1
  6
Continuous
 62
    18
100
AcDbLine
 10
5.331885999999999
 20
4.507198
 30
0.0
 11
5.327472
 21
4.506351
 31
0.0
  0
LINE
  5
19B
330
B
100
AcDbEntity
 67
     1
  8
1
  6
Continuous
 62
    18
100
AcDbLine
 10
1.821511
 20
4.485630999999999
 30
0.0
 11
1.815008
 21
4.492135
 31
0.0
  0
LINE
  5
19C
330
B
100
AcDbEntity
 67
     1
  8
1
  6
Continuous
 62
    18
100
AcDbLine
 10
5.285603
 20
3.958548
 30
0.0
 11
5.287212
 21
3.953725999999999
 31
0.0
  0
LINE
  5
19D
330
B
100
AcDbEntity
 67
     1
  8
1
  6
Continuous
 62
    18
100
AcDbLine
 10
1.837795
 20
4.579348
 30
0.0
 11
1.849275
 21
4.567866999999999
 31
0.0
  0
LINE
  5
19E
330
B
100
AcDbEntity
 67
     1
  8
1
  6
Continuous
 62
    18
100
AcDbLine
 10
5.332880999999999
 20
4.524402999999999
 30
0.0
 11
5.332880999999999
 21
4.525444999999999
 31
0.0
  0
LINE
  5
19F
330
B
100
AcDbEntity
 67
     1
  8
1
  6
Continuous
 62
    18
100
AcDbLine
 10
1.635469
 20
4.669088999999999
 30
0.0
 11
1.635569
 21
4.669687999999999
 31
0.0
  0
LINE
  5
1A0
330
B
100
AcDbEntity
 67
     1
  8
1
  6
Continuous
 62
    18
100
AcDbLine
 10
5.193382999999999
 20
4.567613999999999
 30
0.0
 11
5.194211
 21
4.567635
 31
0.0
  0
LINE
  5
1A1
330
B
100
AcDbEntity
 67
     1
  8
1
  6
Continuous
 62
    18
100
AcDbLine
 10
2.252771
 20
4.604573
 30
0.0
 11
2.252771
 21
4.661198
 31
0.0
  0
LINE
  5
1A2
330
B
100
AcDbEntity
 67
     1
  8
1
  6
Continuous
 62
    18
100
AcDbLine
 10
5.275882
 20
4.520361
 30
0.0
 11
5.275882
 21
4.522135999999999
 31
0.0
  0
LINE
  5
1A3
330
B
100
AcDbEntity
 67
     1
  8
1
  6
Continuous
 62
    18
100
AcDbLine
 10
5.274283
 20
4.565126999999999
 30
0.0
 11
5.274283
 21
4.565001
 31
0.0
  0
LINE
  5
1A4
330
B
100
AcDbEntity
 67
     1
  8
1
  6
Continuous
 62
    18
100
AcDbLine
 10
2.247772
 20
4.666198
 30
0.0
 11
2.252771
 21
4.661198
 31
0.0
  0
LINE
  5
1A5
330
B
100
AcDbEntity
 67
     1
  8
1
  6
Continuous
 62
    18
100
AcDbLine
 10
5.275882
 20
4.53688
 30
0.0
 11
5.323142999999999
 21
4.538116999999999
 31
0.0
  0
LINE
  5
1A6
330
B
100
AcDbEntity
 67
     1
  8
1
  6
Continuous
 62
    18
100
AcDbLine
 10
2.071795
 20
4.483347
 30
0.0
 11
2.074078
 21
4.485630999999999
 31
0.0
  0
LINE
  5
1A7
330
B
100
AcDbEntity
 67
     1
  8
1
  6
Continuous
 62
    18
100
AcDbLine
 10
5.270350999999999
 20
4.568451999999999
 30
0.0
 11
5.270719999999999
 21
4.568443
 31
0.0
  0
LINE
  5
1A8
330
B
100
AcDbEntity
 67
     1
  8
1
  6
Continuous
 62
    18
100
AcDbLine
 10
2.074078
 20
4.551630999999999
 30
0.0
 11
2.071795
 21
4.549347
 31
0.0
  0
LINE
  5
1A9
330
B
100
AcDbEntity
 67
     1
  8
1
  6
Continuous
 62
    18
100
AcDbLine
 10
5.332880999999999
 20
4.538372999999999
 30
0.0
 11
5.330045
 21
4.538298
 31
0.0
  0
LINE
  5
1AA
330
B
100
AcDbEntity
 67
     1
  8
1
  6
Continuous
 62
    18
100
AcDbLine
 10
2.260145999999999
 20
4.66873
 30
0.0
 11
2.26012
 21
4.669088999999999
 31
0.0
  0
LINE
  5
1AB
330
B
100
AcDbEntity
 67
     1
  8
1
  6
Continuous
 62
    18
100
AcDbLine
 10
2.187368999999999
 20
4.666198
 30
0.0
 11
2.247772
 21
4.666198
 31
0.0
  0
LINE
  5
1AC
330
B
100
AcDbEntity
 67
     1
  8
1
  6
Continuous
 62
    18
100
AcDbLine
 10
5.273546999999999
 20
4.564877
 30
0.0
 11
5.271446
 21
4.564841999999999
 31
0.0
  0
LINE
  5
1AD
330
B
100
AcDbEntity
 67
     1
  8
1
  6
Continuous
 62
    18
100
AcDbLine
 10
1.936845
 20
4.214816
 30
0.0
 11
1.936845
 21
4.336979
 31
0.0
  0
LINE
  5
1AE
330
B
100
AcDbEntity
 67
     1
  8
1
  6
Continuous
 62
    18
100
AcDbLine
 10
5.016502
 20
3.947757
 30
0.0
 11
4.118921
 21
3.947757
 31
0.0
  0
LINE
  5
1AF
330
B
100
AcDbEntity
 67
     1
  8
1
  6
Continuous
 62
    18
100
AcDbLine
 10
2.260149999999999
 20
3.953720999999999
 30
0.0
 11
2.251147
 21
3.953720999999999
 31
0.0
  0
LINE
  5
1B0
330
B
100
AcDbEntity
 67
     1
  8
1
  6
Continuous
 62
    18
100
AcDbLine
 10
5.451153999999999
 20
4.52338
 30
0.0
 11
5.355156
 21
4.525055
 31
0.0
  0
LINE
  5
1B1
330
B
100
AcDbEntity
 67
     1
  8
1
  6
Continuous
 62
    18
100
AcDbLine
 10
2.038794999999999
 20
4.214816
 30
0.0
 11
2.038794999999999
 21
4.336979
 31
0.0
  0
LINE
  5
1B2
330
B
100
AcDbEntity
 67
     1
  8
1
  6
Continuous
 62
    18
100
AcDbLine
 10
5.274081999999999
 20
4.564903
 30
0.0
 11
5.274097
 21
4.565390999999999
 31
0.0
  0
LINE
  5
1B3
330
B
100
AcDbEntity
 67
     1
  8
1
  6
Continuous
 62
    18
100
AcDbLine
 10
1.85349
 20
4.019417999999999
 30
0.0
 11
2.042099
 21
4.019417999999999
 31
0.0
  0
LINE
  5
1B4
330
B
100
AcDbEntity
 67
     1
  8
1
  6
Continuous
 62
    18
100
AcDbLine
 10
5.457880999999999
 20
4.512748
 30
0.0
 11
5.457880999999999
 21
4.512679
 31
0.0
  0
LINE
  5
1B5
330
B
100
AcDbEntity
 67
     1
  8
1
  6
Continuous
 62
    18
100
AcDbLine
 10
5.272592999999999
 20
4.567922
 30
0.0
 11
5.27212
 21
4.568166
 31
0.0
  0
LINE
  5
1B6
330
B
100
AcDbEntity
 67
     1
  8
1
  6
Continuous
 62
    18
100
AcDbLine
 10
1.838492999999999
 20
4.067023
 30
0.0
 11
1.842884999999999
 21
4.077628999999999
 31
0.0
  0
LINE
  5
1B7
330
B
100
AcDbEntity
 67
     1
  8
1
  6
Continuous
 62
    18
100
AcDbLine
 10
5.457880999999999
 20
4.459423999999999
 30
0.0
 11
5.457880999999999
 21
4.456748
 31
0.0
  0
LINE
  5
1B8
330
B
100
AcDbEntity
 67
     1
  8
1
  6
Continuous
 62
    18
100
AcDbLine
 10
5.185700999999999
 20
4.563525
 30
0.0
 11
5.185588
 21
4.562791
 31
0.0
  0
LINE
  5
1B9
330
B
100
AcDbEntity
 67
     1
  8
1
  6
Continuous
 62
    18
100
AcDbLine
 10
1.852791999999999
 20
4.018718999999999
 30
0.0
 11
1.85349
 21
4.019417999999999
 31
0.0
  0
LINE
  5
1BA
330
B
100
AcDbEntity
 67
     1
  8
1
  6
Continuous
 62
    18
100
AcDbLine
 10
5.457602999999999
 20
4.521951999999999
 30
0.0
 11
5.332880999999999
 21
4.524128
 31
0.0
  0
LINE
  5
1BB
330
B
100
AcDbEntity
 67
     1
  8
1
  6
Continuous
 62
    18
100
AcDbLine
 10
4.742519
 20
4.602287999999999
 30
0.0
 11
4.729518999999999
 21
4.602968999999999
 31
0.0
  0
LINE
  5
1BC
330
B
100
AcDbEntity
 67
     1
  8
1
  6
Continuous
 62
    18
100
AcDbLine
 10
1.630372999999999
 20
3.948720999999999
 30
0.0
 11
1.630372999999999
 21
4.641949999999999
 31
0.0
  0
LINE
  5
1BD
330
B
100
AcDbEntity
 67
     1
  8
1
  6
Continuous
 62
    18
100
AcDbLine
 10
1.793795
 20
4.579348
 30
0.0
 11
1.837795
 21
4.579348
 31
0.0
  0
LINE
  5
1BE
330
B
100
AcDbEntity
 67
     1
  8
1
  6
Continuous
 62
    18
100
AcDbLine
 10
5.336187999999999
 20
4.482803999999999
 30
0.0
 11
5.457880999999999
 21
4.484678999999999
 31
0.0
  0
LINE
  5
1BF
330
B
100
AcDbEntity
 67
     1
  8
1
  6
Continuous
 62
    18
100
AcDbLine
 10
1.875036999999999
 20
4.215226
 30
0.0
 11
1.875861999999999
 21
4.214813999999999
 31
0.0
  0
LINE
  5
1C0
330
B
100
AcDbEntity
 67
     1
  8
1
  6
Continuous
 62
    18
100
AcDbLine
 10
5.221502
 20
3.969616
 30
0.0
 11
5.016504
 21
3.966037999999999
 31
0.0
  0
LINE
  5
1C1
330
B
100
AcDbEntity
 67
     1
  8
1
  6
Continuous
 62
    18
100
AcDbLine
 10
1.676398
 20
3.952533999999999
 30
0.0
 11
1.674023
 21
3.953720999999999
 31
0.0
  0
LINE
  5
1C2
330
B
100
AcDbEntity
 67
     1
  8
1
  6
Continuous
 62
    18
100
AcDbLine
 10
2.212295
 20
4.513348
 30
0.0
 11
2.212295
 21
4.184347999999999
 31
0.0
  0
LINE
  5
1C3
330
B
100
AcDbEntity
 67
     1
  8
1
  6
Continuous
 62
    18
100
AcDbLine
 10
5.457602999999999
 20
4.521951999999999
 30
0.0
 11
5.457164999999999
 21
4.522558
 31
0.0
  0
LINE
  5
1C4
330
B
100
AcDbEntity
 67
     1
  8
1
  6
Continuous
 62
    18
100
AcDbLine
 10
5.016504
 20
3.97904
 30
0.0
 11
5.221502
 21
3.982618
 31
0.0
  0
LINE
  5
1C5
330
B
100
AcDbEntity
 67
     1
  8
1
  6
Continuous
 62
    18
100
AcDbLine
 10
2.260149999999999
 20
4.44443
 30
0.0
 11
2.260215999999999
 21
4.445922
 31
0.0
  0
LINE
  5
1C6
330
B
100
AcDbEntity
 67
     1
  8
1
  6
Continuous
 62
    18
100
AcDbLine
 10
1.842186999999999
 20
4.078326999999999
 30
0.0
 11
1.837795
 21
4.067721999999999
 31
0.0
  0
LINE
  5
1C7
330
B
100
AcDbEntity
 67
     1
  8
1
  6
Continuous
 62
    18
100
AcDbLine
 10
5.195066999999999
 20
4.566806999999999
 30
0.0
 11
5.195062999999999
 21
4.566129
 31
0.0
  0
LINE
  5
1C8
330
B
100
AcDbEntity
 67
     1
  8
1
  6
Continuous
 62
    18
100
AcDbLine
 10
5.221502
 20
3.982618
 30
0.0
 11
5.221502
 21
3.969616
 31
0.0
  0
LINE
  5
1C9
330
B
100
AcDbEntity
 67
     1
  8
1
  6
Continuous
 62
    18
100
AcDbLine
 10
1.635438999999999
 20
4.183011
 30
0.0
 11
1.635372999999999
 21
4.181519
 31
0.0
  0
LINE
  5
1CA
330
B
100
AcDbEntity
 67
     1
  8
1
  6
Continuous
 62
    18
100
AcDbLine
 10
1.709931
 20
4.659574
 30
0.0
 11
2.185658999999999
 21
4.659574
 31
0.0
  0
LINE
  5
1CB
330
B
100
AcDbEntity
 67
     1
  8
1
  6
Continuous
 62
    18
100
AcDbLine
 10
5.247902999999999
 20
4.567473
 30
0.0
 11
5.247901
 21
4.566251999999999
 31
0.0
  0
LINE
  5
1CC
330
B
100
AcDbEntity
 67
     1
  8
1
  6
Continuous
 62
    18
100
AcDbLine
 10
1.835036999999999
 20
4.215226
 30
0.0
 11
1.820551999999999
 21
4.215226
 31
0.0
  0
LINE
  5
1CD
330
B
100
AcDbEntity
 67
     1
  8
1
  6
Continuous
 62
    18
100
AcDbLine
 10
5.176501999999999
 20
4.585328999999999
 30
0.0
 11
5.010989
 21
4.588218
 31
0.0
  0
LINE
  5
1CE
330
B
100
AcDbEntity
 67
     1
  8
1
  6
Continuous
 62
    18
100
AcDbLine
 10
2.122844999999999
 20
4.117277999999999
 30
0.0
 11
1.772845
 21
4.117277999999999
 31
0.0
  0
LINE
  5
1CF
330
B
100
AcDbEntity
 67
     1
  8
1
  6
Continuous
 62
    18
100
AcDbLine
 10
1.979795
 20
4.336979
 30
0.0
 11
1.979795
 21
4.238251999999999
 31
0.0
  0
LINE
  5
1D0
330
B
100
AcDbEntity
 67
     1
  8
1
  6
Continuous
 62
    18
100
AcDbLine
 10
5.264574999999999
 20
4.566180999999999
 30
0.0
 11
5.264543999999999
 21
4.564769999999999
 31
0.0
  0
LINE
  5
1D1
330
B
100
AcDbEntity
 67
     1
  8
1
  6
Continuous
 62
    18
100
AcDbLine
 10
5.176501999999999
 20
4.585328999999999
 30
0.0
 11
5.176501999999999
 21
4.585503
 31
0.0
  0
LINE
  5
1D2
330
B
100
AcDbEntity
 67
     1
  8
1
  6
Continuous
 62
    18
100
AcDbLine
 10
5.221502
 20
3.963720999999999
 30
0.0
 11
5.190665
 21
3.963720999999999
 31
0.0
  0
LINE
  5
1D3
330
B
100
AcDbEntity
 67
     1
  8
1
  6
Continuous
 62
    18
100
AcDbLine
 10
2.140245999999999
 20
4.234494
 30
0.0
 11
2.17004
 21
4.234494
 31
0.0
  0
LINE
  5
1D4
330
B
100
AcDbEntity
 67
     1
  8
1
  6
Continuous
 62
    18
100
AcDbLine
 10
2.059795
 20
4.336979
 30
0.0
 11
2.035793999999999
 21
4.336979
 31
0.0
  0
LINE
  5
1D5
330
B
100
AcDbEntity
 67
     1
  8
1
  6
Continuous
 62
    18
100
AcDbLine
 10
5.323142999999999
 20
4.557072999999999
 30
0.0
 11
5.323252
 21
4.564138999999999
 31
0.0
  0
LINE
  5
1D6
330
B
100
AcDbEntity
 67
     1
  8
1
  6
Continuous
 62
    18
100
AcDbLine
 10
5.086502999999999
 20
4.457587999999999
 30
0.0
 11
4.960519
 21
4.331604
 31
0.0
  0
LINE
  5
1D7
330
B
100
AcDbEntity
 67
     1
  8
1
  6
Continuous
 62
    18
100
AcDbLine
 10
1.795795
 20
4.234494
 30
0.0
 11
1.779797
 21
4.234494
 31
0.0
  0
LINE
  5
1D8
330
B
100
AcDbEntity
 67
     1
  8
1
  6
Continuous
 62
    18
100
AcDbLine
 10
2.071795
 20
4.394101
 30
0.0
 11
2.071795
 21
4.443347
 31
0.0
  0
LINE
  5
1D9
330
B
100
AcDbEntity
 67
     1
  8
1
  6
Continuous
 62
    18
100
AcDbLine
 10
3.956017999999999
 20
3.953720999999999
 30
0.0
 11
3.956017999999999
 21
4.602862
 31
0.0
  0
LINE
  5
1DA
330
B
100
AcDbEntity
 67
     1
  8
1
  6
Continuous
 62
    18
100
AcDbLine
 10
5.016502
 20
3.958720999999999
 30
0.0
 11
5.016502
 21
3.959253999999999
 31
0.0
  0
LINE
  5
1DB
330
B
100
AcDbEntity
 67
     1
  8
1
  6
Continuous
 62
    18
100
AcDbLine
 10
1.899797
 20
4.234494
 30
0.0
 11
1.899452999999999
 21
4.214813999999999
 31
0.0
  0
LINE
  5
1DC
330
B
100
AcDbEntity
 67
     1
  8
1
  6
Continuous
 62
    18
100
AcDbLine
 10
1.835795
 20
4.238251999999999
 30
0.0
 11
1.819795
 21
4.238251999999999
 31
0.0
  0
LINE
  5
1DD
330
B
100
AcDbEntity
 67
     1
  8
1
  6
Continuous
 62
    18
100
AcDbLine
 10
3.956017999999999
 20
4.164348
 30
0.0
 11
3.946018
 21
4.164348
 31
0.0
  0
LINE
  5
1DE
330
B
100
AcDbEntity
 67
     1
  8
1
  6
Continuous
 62
    18
100
AcDbLine
 10
5.021501999999999
 20
3.958720999999999
 30
0.0
 11
5.021501999999999
 21
3.960767999999999
 31
0.0
  0
LINE
  5
1DF
330
B
100
AcDbEntity
 67
     1
  8
1
  6
Continuous
 62
    18
100
AcDbLine
 10
1.995795
 20
4.234494
 30
0.0
 11
1.996138
 21
4.214813999999999
 31
0.0
  0
LINE
  5
1E0
330
B
100
AcDbEntity
 67
     1
  8
1
  6
Continuous
 62
    18
100
AcDbLine
 10
1.899795
 20
4.336979
 30
0.0
 11
1.899795
 21
4.238251999999999
 31
0.0
  0
LINE
  5
1E1
330
B
100
AcDbEntity
 67
     1
  8
1
  6
Continuous
 62
    18
100
AcDbLine
 10
3.960931
 20
4.602948
 30
0.0
 11
3.960931
 21
3.953720999999999
 31
0.0
  0
LINE
  5
1E2
330
B
100
AcDbEntity
 67
     1
  8
1
  6
Continuous
 62
    18
100
AcDbLine
 10
4.707976999999999
 20
4.585513999999999
 30
0.0
 11
4.703026999999999
 21
4.585773
 31
0.0
  0
LINE
  5
1E3
330
B
100
AcDbEntity
 67
     1
  8
1
  6
Continuous
 62
    18
100
AcDbLine
 10
2.075793999999999
 20
4.234494
 30
0.0
 11
2.059797
 21
4.234494
 31
0.0
  0
LINE
  5
1E4
330
B
100
AcDbEntity
 67
     1
  8
1
  6
Continuous
 62
    18
100
AcDbLine
 10
2.071795
 20
4.396079
 30
0.0
 11
1.823795
 21
4.396079
 31
0.0
  0
LINE
  5
1E5
330
B
100
AcDbEntity
 67
     1
  8
1
  6
Continuous
 62
    18
100
AcDbLine
 10
4.476561
 20
4.669088999999999
 30
0.0
 11
4.476530999999999
 21
4.669687999999999
 31
0.0
  0
LINE
  5
1E6
330
B
100
AcDbEntity
 67
     1
  8
1
  6
Continuous
 62
    18
100
AcDbLine
 10
5.3234
 20
4.00424
 30
0.0
 11
5.328018
 21
4.004158999999999
 31
0.0
  0
LINE
  5
1E7
330
B
100
AcDbEntity
 67
     1
  8
1
  6
Continuous
 62
    18
100
AcDbLine
 10
1.958795
 20
4.214816
 30
0.0
 11
1.958795
 21
4.336979
 31
0.0
  0
LINE
  5
1E8
330
B
100
AcDbEntity
 67
     1
  8
1
  6
Continuous
 62
    18
100
AcDbLine
 10
1.852795
 20
4.629528999999999
 30
0.0
 11
1.837795
 21
4.630607
 31
0.0
  0
LINE
  5
1E9
330
B
100
AcDbEntity
 67
     1
  8
1
  6
Continuous
 62
    18
100
AcDbLine
 10
5.170937999999999
 20
4.034656
 30
0.0
 11
5.170937999999999
 21
4.49605
 31
0.0
  0
LINE
  5
1EA
330
B
100
AcDbEntity
 67
     1
  8
1
  6
Continuous
 62
    18
100
AcDbLine
 10
2.184577999999999
 20
4.212063999999999
 30
0.0
 11
2.182294999999999
 21
4.214348
 31
0.0
  0
LINE
  5
1EB
330
B
100
AcDbEntity
 67
     1
  8
1
  6
Continuous
 62
    18
100
AcDbLine
 10
5.281137999999999
 20
3.969720999999999
 30
0.0
 11
5.306009999999999
 21
3.994593
 31
0.0
  0
LINE
  5
1EC
330
B
100
AcDbEntity
 67
     1
  8
1
  6
Continuous
 62
    18
100
AcDbLine
 10
5.230677
 20
3.958406999999999
 30
0.0
 11
5.230677
 21
3.969720999999999
 31
0.0
  0
LINE
  5
1ED
330
B
100
AcDbEntity
 67
     1
  8
1
  6
Continuous
 62
    18
100
AcDbLine
 10
1.644443
 20
4.602948
 30
0.0
 11
1.642818
 21
4.604573
 31
0.0
  0
LINE
  5
1EE
330
B
100
AcDbEntity
 67
     1
  8
1
  6
Continuous
 62
    18
100
AcDbLine
 10
5.328018
 20
3.979531999999999
 30
0.0
 11
5.287206999999999
 21
3.953720999999999
 31
0.0
  0
LINE
  5
1EF
330
B
100
AcDbEntity
 67
     1
  8
1
  6
Continuous
 62
    18
100
AcDbLine
 10
1.867795
 20
4.549347
 30
0.0
 11
1.867795
 21
4.622568
 31
0.0
  0
LINE
  5
1F0
330
B
100
AcDbEntity
 67
     1
  8
1
  6
Continuous
 62
    18
100
AcDbLine
 10
5.170876999999999
 20
4.49605
 30
0.0
 11
5.170876999999999
 21
4.520208
 31
0.0
  0
LINE
  5
1F1
330
B
100
AcDbEntity
 67
     1
  8
1
  6
Continuous
 62
    18
100
AcDbLine
 10
1.823795
 20
4.483347
 30
0.0
 11
1.713295
 21
4.483347
 31
0.0
  0
LINE
  5
1F2
330
B
100
AcDbEntity
 67
     1
  8
1
  6
Continuous
 62
    18
100
AcDbLine
 10
5.327472
 20
4.506351
 30
0.0
 11
5.316688
 21
4.504419999999999
 31
0.0
  0
LINE
  5
1F3
330
B
100
AcDbEntity
 67
     1
  8
1
  6
Continuous
 62
    18
100
AcDbLine
 10
2.075037
 20
4.215226
 30
0.0
 11
2.075861999999999
 21
4.214813999999999
 31
0.0
  0
LINE
  5
1F4
330
B
100
AcDbEntity
 67
     1
  8
1
  6
Continuous
 62
    18
100
AcDbLine
 10
1.815008
 20
4.492135
 30
0.0
 11
1.805274999999999
 21
4.501866999999999
 31
0.0
  0
LINE
  5
1F5
330
B
100
AcDbEntity
 67
     1
  8
1
  6
Continuous
 62
    18
100
AcDbLine
 10
5.320332999999999
 20
3.986848
 30
0.0
 11
5.316186
 21
3.989207999999999
 31
0.0
  0
LINE
  5
1F6
330
B
100
AcDbEntity
 67
     1
  8
1
  6
Continuous
 62
    18
100
AcDbLine
 10
1.849275
 20
4.567866999999999
 30
0.0
 11
1.859008
 21
4.558135
 31
0.0
  0
LINE
  5
1F7
330
B
100
AcDbEntity
 67
     1
  8
1
  6
Continuous
 62
    18
100
AcDbLine
 10
2.182294999999999
 20
4.214348
 30
0.0
 11
2.182294999999999
 21
4.483347
 31
0.0
  0
LINE
  5
1F8
330
B
100
AcDbEntity
 67
     1
  8
1
  6
Continuous
 62
    18
100
AcDbLine
 10
5.332880999999999
 20
4.501551
 30
0.0
 11
5.332880999999999
 21
4.522241999999999
 31
0.0
  0
LINE
  5
1F9
330
B
100
AcDbEntity
 67
     1
  8
1
  6
Continuous
 62
    18
100
AcDbLine
 10
1.635569
 20
4.669687999999999
 30
0.0
 11
1.636211999999999
 21
4.671241
 31
0.0
  0
LINE
  5
1FA
330
B
100
AcDbEntity
 67
     1
  8
1
  6
Continuous
 62
    18
100
AcDbLine
 10
5.194211
 20
4.567635
 30
0.0
 11
5.195119999999999
 21
4.567658999999999
 31
0.0
  0
LINE
  5
1FB
330
B
100
AcDbEntity
 67
     1
  8
1
  6
Continuous
 62
    18
100
AcDbLine
 10
2.115794999999999
 20
4.234494
 30
0.0
 11
2.116140999999999
 21
4.214673999999999
 31
0.0
  0
LINE
  5
1FC
330
B
100
AcDbEntity
 67
     1
  8
1
  6
Continuous
 62
    18
100
AcDbLine
 10
5.275882
 20
4.522135999999999
 30
0.0
 11
5.275882
 21
4.524536
 31
0.0
  0
LINE
  5
1FD
330
B
100
AcDbEntity
 67
     1
  8
1
  6
Continuous
 62
    18
100
AcDbLine
 10
2.027795
 20
4.549347
 30
0.0
 11
2.071795
 21
4.549347
 31
0.0
  0
LINE
  5
1FE
330
B
100
AcDbEntity
 67
     1
  8
1
  6
Continuous
 62
    18
100
AcDbLine
 10
5.274283
 20
4.565001
 30
0.0
 11
5.274283
 21
4.564912999999999
 31
0.0
  0
LINE
  5
1FF
330
B
100
AcDbEntity
 67
     1
  8
1
  6
Continuous
 62
    18
100
AcDbLine
 10
2.071795
 20
4.443347
 30
0.0
 11
2.182294999999999
 21
4.443347
 31
0.0
  0
LINE
  5
200
330
B
100
AcDbEntity
 67
     1
  8
1
  6
Continuous
 62
    18
100
AcDbLine
 10
5.247880999999999
 20
4.569041
 30
0.0
 11
5.257215
 21
4.568795999999999
 31
0.0
  0
LINE
  5
201
330
B
100
AcDbEntity
 67
     1
  8
1
  6
Continuous
 62
    18
100
AcDbLine
 10
2.074078
 20
4.485630999999999
 30
0.0
 11
2.080581
 21
4.492135
 31
0.0
  0
LINE
  5
202
330
B
100
AcDbEntity
 67
     1
  8
1
  6
Continuous
 62
    18
100
AcDbLine
 10
5.185677
 20
4.504229
 30
0.0
 11
5.185677
 21
4.515543
 31
0.0
  0
LINE
  5
203
330
B
100
AcDbEntity
 67
     1
  8
1
  6
Continuous
 62
    18
100
AcDbLine
 10
5.270719999999999
 20
4.568443
 30
0.0
 11
5.270847999999999
 21
4.568438999999999
 31
0.0
  0
LINE
  5
204
330
B
100
AcDbEntity
 67
     1
  8
1
  6
Continuous
 62
    18
100
AcDbLine
 10
2.057795
 20
4.579348
 30
0.0
 11
2.046313999999999
 21
4.567866999999999
 31
0.0
  0
LINE
  5
205
330
B
100
AcDbEntity
 67
     1
  8
1
  6
Continuous
 62
    18
100
AcDbLine
 10
5.330045
 20
4.538298
 30
0.0
 11
5.323142999999999
 21
4.538116999999999
 31
0.0
  0
LINE
  5
206
330
B
100
AcDbEntity
 67
     1
  8
1
  6
Continuous
 62
    18
100
AcDbLine
 10
2.26012
 20
4.669088999999999
 30
0.0
 11
2.260019999999999
 21
4.669687999999999
 31
0.0
  0
LINE
  5
207
330
B
100
AcDbEntity
 67
     1
  8
1
  6
Continuous
 62
    18
100
AcDbLine
 10
2.255150999999999
 20
4.673576
 30
0.0
 11
2.247772
 21
4.666198
 31
0.0
  0
LINE
  5
208
330
B
100
AcDbEntity
 67
     1
  8
1
  6
Continuous
 62
    18
100
AcDbLine
 10
5.271446
 20
4.564841999999999
 30
0.0
 11
5.268291
 21
4.564805999999999
 31
0.0
  0
LINE
  5
209
330
B
100
AcDbEntity
 67
     1
  8
1
  6
Continuous
 62
    18
100
AcDbLine
 10
5.016502
 20
3.947757
 30
0.0
 11
5.016502
 21
3.973065
 31
0.0
  0
LINE
  5
20A
330
B
100
AcDbEntity
 67
     1
  8
1
  6
Continuous
 62
    18
100
AcDbLine
 10
2.251147
 20
3.953720999999999
 30
0.0
 11
2.249652
 21
3.953720999999999
 31
0.0
  0
LINE
  5
20B
330
B
100
AcDbEntity
 67
     1
  8
1
  6
Continuous
 62
    18
100
AcDbLine
 10
5.355156
 20
4.525055
 30
0.0
 11
5.33847
 21
4.525347
 31
0.0
  0
LINE
  5
20C
330
B
100
AcDbEntity
 67
     1
  8
1
  6
Continuous
 62
    18
100
AcDbLine
 10
5.274097
 20
4.565390999999999
 30
0.0
 11
5.274039
 21
4.565866
 31
0.0
  0
LINE
  5
20D
330
B
100
AcDbEntity
 67
     1
  8
1
  6
Continuous
 62
    18
100
AcDbLine
 10
2.042099
 20
4.019417999999999
 30
0.0
 11
2.052704
 21
4.02381
 31
0.0
  0
LINE
  5
20E
330
B
100
AcDbEntity
 67
     1
  8
1
  6
Continuous
 62
    18
100
AcDbLine
 10
5.457880999999999
 20
4.512679
 30
0.0
 11
5.457880999999999
 21
4.505988999999999
 31
0.0
  0
LINE
  5
20F
330
B
100
AcDbEntity
 67
     1
  8
1
  6
Continuous
 62
    18
100
AcDbLine
 10
5.188772
 20
4.567116999999999
 30
0.0
 11
5.188029
 21
4.566733999999999
 31
0.0
  0
LINE
  5
210
330
B
100
AcDbEntity
 67
     1
  8
1
  6
Continuous
 62
    18
100
AcDbLine
 10
5.457880999999999
 20
4.456748
 30
0.0
 11
5.457880999999999
 21
4.456656999999999
 31
0.0
  0
LINE
  5
211
330
B
100
AcDbEntity
 67
     1
  8
1
  6
Continuous
 62
    18
100
AcDbLine
 10
1.995861999999999
 20
4.214813999999999
 30
0.0
 11
2.019727
 21
4.214813999999999
 31
0.0
  0
LINE
  5
212
330
B
100
AcDbEntity
 67
     1
  8
1
  6
Continuous
 62
    18
100
AcDbLine
 10
5.185588
 20
4.562791
 30
0.0
 11
5.185584999999999
 21
4.562033999999999
 31
0.0
  0
LINE
  5
213
330
B
100
AcDbEntity
 67
     1
  8
1
  6
Continuous
 62
    18
100
AcDbLine
 10
5.356487999999999
 20
4.367670999999999
 30
0.0
 11
5.351998
 21
4.367244
 31
0.0
  0
LINE
  5
214
330
B
100
AcDbEntity
 67
     1
  8
1
  6
Continuous
 62
    18
100
AcDbLine
 10
2.042099
 20
4.082021
 30
0.0
 11
2.042797
 21
4.082718999999999
 31
0.0
  0
LINE
  5
215
330
B
100
AcDbEntity
 67
     1
  8
1
  6
Continuous
 62
    18
100
AcDbLine
 10
5.332880999999999
 20
4.513498999999999
 30
0.0
 11
5.457880999999999
 21
4.515423999999999
 31
0.0
  0
LINE
  5
216
330
B
100
AcDbEntity
 67
     1
  8
1
  6
Continuous
 62
    18
100
AcDbLine
 10
1.940552
 20
4.215226
 30
0.0
 11
1.939726999999999
 21
4.214813999999999
 31
0.0
  0
LINE
  5
217
330
B
100
AcDbEntity
 67
     1
  8
1
  6
Continuous
 62
    18
100
AcDbLine
 10
4.952519
 20
4.591281999999999
 30
0.0
 11
4.742519
 21
4.602287999999999
 31
0.0
  0
LINE
  5
218
330
B
100
AcDbEntity
 67
     1
  8
1
  6
Continuous
 62
    18
100
AcDbLine
 10
2.265216
 20
3.948720999999999
 30
0.0
 11
2.265216
 21
4.641949999999999
 31
0.0
  0
LINE
  5
219
330
B
100
AcDbEntity
 67
     1
  8
1
  6
Continuous
 62
    18
100
AcDbLine
 10
1.837795
 20
4.630607
 30
0.0
 11
1.837795
 21
4.579348
 31
0.0
  0
LINE
  5
21A
330
B
100
AcDbEntity
 67
     1
  8
1
  6
Continuous
 62
    18
100
AcDbLine
 10
5.340629999999999
 20
4.457618
 30
0.0
 11
5.457880999999999
 21
4.459423999999999
 31
0.0
  0
LINE
  5
21B
330
B
100
AcDbEntity
 67
     1
  8
1
  6
Continuous
 62
    18
100
AcDbLine
 10
1.875036999999999
 20
4.215226
 30
0.0
 11
1.860552
 21
4.215226
 31
0.0
  0
LINE
  5
21C
330
B
100
AcDbEntity
 67
     1
  8
1
  6
Continuous
 62
    18
100
AcDbLine
 10
4.706018
 20
4.603543
 30
0.0
 11
4.724844999999999
 21
4.603214
 31
0.0
  0
LINE
  5
21D
330
B
100
AcDbEntity
 67
     1
  8
1
  6
Continuous
 62
    18
100
AcDbLine
 10
1.676398
 20
3.953720999999999
 30
0.0
 11
1.676398
 21
3.952533999999999
 31
0.0
  0
LINE
  5
21E
330
B
100
AcDbEntity
 67
     1
  8
1
  6
Continuous
 62
    18
100
AcDbLine
 10
2.057795
 20
4.033717
 30
0.0
 11
2.053402
 21
4.023112
 31
0.0
  0
LINE
  5
21F
330
B
100
AcDbEntity
 67
     1
  8
1
  6
Continuous
 62
    18
100
AcDbLine
 10
5.457164999999999
 20
4.522558
 30
0.0
 11
5.456447999999999
 21
4.523067
 31
0.0
  0
LINE
  5
220
330
B
100
AcDbEntity
 67
     1
  8
1
  6
Continuous
 62
    18
100
AcDbLine
 10
5.221502
 20
3.996058999999999
 30
0.0
 11
5.221502
 21
3.982618
 31
0.0
  0
LINE
  5
221
330
B
100
AcDbEntity
 67
     1
  8
1
  6
Continuous
 62
    18
100
AcDbLine
 10
2.260215999999999
 20
4.556162999999999
 30
0.0
 11
2.260149999999999
 21
4.557655
 31
0.0
  0
LINE
  5
222
330
B
100
AcDbEntity
 67
     1
  8
1
  6
Continuous
 62
    18
100
AcDbLine
 10
2.042797
 20
4.082718999999999
 30
0.0
 11
2.053402
 21
4.078326999999999
 31
0.0
  0
LINE
  5
223
330
B
100
AcDbEntity
 67
     1
  8
1
  6
Continuous
 62
    18
100
AcDbLine
 10
1.838795
 20
4.214816
 30
0.0
 11
1.838795
 21
4.336979
 31
0.0
  0
LINE
  5
224
330
B
100
AcDbEntity
 67
     1
  8
1
  6
Continuous
 62
    18
100
AcDbLine
 10
5.195062999999999
 20
4.566129
 30
0.0
 11
5.195066999999999
 21
4.565294999999999
 31
0.0
  0
LINE
  5
225
330
B
100
AcDbEntity
 67
     1
  8
1
  6
Continuous
 62
    18
100
AcDbLine
 10
5.172706999999999
 20
4.022007
 30
0.0
 11
5.17668
 21
4.021937999999999
 31
0.0
  0
LINE
  5
226
330
B
100
AcDbEntity
 67
     1
  8
1
  6
Continuous
 62
    18
100
AcDbLine
 10
1.630372999999999
 20
3.987955
 30
0.0
 11
1.630372999999999
 21
4.641949999999999
 31
0.0
  0
LINE
  5
227
330
B
100
AcDbEntity
 67
     1
  8
1
  6
Continuous
 62
    18
100
AcDbLine
 10
1.709931
 20
4.659574
 30
0.0
 11
1.709931
 21
4.602862
 31
0.0
  0
LINE
  5
228
330
B
100
AcDbEntity
 67
     1
  8
1
  6
Continuous
 62
    18
100
AcDbLine
 10
5.247901
 20
4.566251999999999
 30
0.0
 11
5.247880999999999
 21
4.564878
 31
0.0
  0
LINE
  5
229
330
B
100
AcDbEntity
 67
     1
  8
1
  6
Continuous
 62
    18
100
AcDbLine
 10
2.122844999999999
 20
4.121277
 30
0.0
 11
1.772845
 21
4.121277
 31
0.0
  0
LINE
  5
22A
330
B
100
AcDbEntity
 67
     1
  8
1
  6
Continuous
 62
    18
100
AcDbLine
 10
1.979795
 20
4.238251999999999
 30
0.0
 11
1.995795
 21
4.238251999999999
 31
0.0
  0
LINE
  5
22B
330
B
100
AcDbEntity
 67
     1
  8
1
  6
Continuous
 62
    18
100
AcDbLine
 10
5.270847999999999
 20
4.568438999999999
 30
0.0
 11
5.27212
 21
4.568166
 31
0.0
  0
LINE
  5
22C
330
B
100
AcDbEntity
 67
     1
  8
1
  6
Continuous
 62
    18
100
AcDbLine
 10
5.221502
 20
3.963720999999999
 30
0.0
 11
5.221502
 21
3.958720999999999
 31
0.0
  0
LINE
  5
22D
330
B
100
AcDbEntity
 67
     1
  8
1
  6
Continuous
 62
    18
100
AcDbLine
 10
2.115037
 20
4.215226
 30
0.0
 11
2.116795
 21
4.214348
 31
0.0
  0
LINE
  5
22E
330
B
100
AcDbEntity
 67
     1
  8
1
  6
Continuous
 62
    18
100
AcDbLine
 10
2.059795
 20
4.336979
 30
0.0
 11
2.059795
 21
4.238251999999999
 31
0.0
  0
LINE
  5
22F
330
B
100
AcDbEntity
 67
     1
  8
1
  6
Continuous
 62
    18
100
AcDbLine
 10
2.115794999999999
 20
4.234494
 30
0.0
 11
2.099797
 21
4.234494
 31
0.0
  0
LINE
  5
230
330
B
100
AcDbEntity
 67
     1
  8
1
  6
Continuous
 62
    18
100
AcDbLine
 10
5.323252
 20
4.564138999999999
 30
0.0
 11
5.323142999999999
 21
4.567069999999999
 31
0.0
  0
LINE
  5
231
330
B
100
AcDbEntity
 67
     1
  8
1
  6
Continuous
 62
    18
100
AcDbLine
 10
5.086502999999999
 20
4.457587999999999
 30
0.0
 11
5.086502999999999
 21
4.568091
 31
0.0
  0
LINE
  5
232
330
B
100
AcDbEntity
 67
     1
  8
1
  6
Continuous
 62
    18
100
AcDbLine
 10
1.819797
 20
4.234494
 30
0.0
 11
1.819453
 21
4.214813999999999
 31
0.0
  0
LINE
  5
233
330
B
100
AcDbEntity
 67
     1
  8
1
  6
Continuous
 62
    18
100
AcDbLine
 10
1.823795
 20
4.394101
 30
0.0
 11
2.071795
 21
4.394101
 31
0.0
  0
LINE
  5
234
330
B
100
AcDbEntity
 67
     1
  8
1
  6
Continuous
 62
    18
100
AcDbLine
 10
3.956017999999999
 20
4.659574
 30
0.0
 11
3.956017999999999
 21
4.602862
 31
0.0
  0
LINE
  5
235
330
B
100
AcDbEntity
 67
     1
  8
1
  6
Continuous
 62
    18
100
AcDbLine
 10
5.016502
 20
3.959253999999999
 30
0.0
 11
5.016502
 21
3.960770999999999
 31
0.0
  0
LINE
  5
236
330
B
100
AcDbEntity
 67
     1
  8
1
  6
Continuous
 62
    18
100
AcDbLine
 10
1.915795
 20
4.234494
 30
0.0
 11
1.916138
 21
4.214813999999999
 31
0.0
  0
LINE
  5
237
330
B
100
AcDbEntity
 67
     1
  8
1
  6
Continuous
 62
    18
100
AcDbLine
 10
1.835795
 20
4.336979
 30
0.0
 11
1.835795
 21
4.238251999999999
 31
0.0
  0
LINE
  5
238
330
B
100
AcDbEntity
 67
     1
  8
1
  6
Continuous
 62
    18
100
AcDbLine
 10
4.706018
 20
4.633150999999999
 30
0.0
 11
4.476755
 21
4.673576
 31
0.0
  0
LINE
  5
239
330
B
100
AcDbEntity
 67
     1
  8
1
  6
Continuous
 62
    18
100
AcDbLine
 10
4.715755
 20
4.584869
 30
0.0
 11
4.714901999999999
 21
4.584966999999999
 31
0.0
  0
LINE
  5
23A
330
B
100
AcDbEntity
 67
     1
  8
1
  6
Continuous
 62
    18
100
AcDbLine
 10
1.995795
 20
4.234494
 30
0.0
 11
1.979796999999999
 21
4.234494
 31
0.0
  0
LINE
  5
23B
330
B
100
AcDbEntity
 67
     1
  8
1
  6
Continuous
 62
    18
100
AcDbLine
 10
1.915795
 20
4.238251999999999
 30
0.0
 11
1.899795
 21
4.238251999999999
 31
0.0
  0
LINE
  5
23C
330
B
100
AcDbEntity
 67
     1
  8
1
  6
Continuous
 62
    18
100
AcDbLine
 10
4.476726
 20
4.668576999999999
 30
0.0
 11
4.476755
 21
4.668498999999999
 31
0.0
  0
LINE
  5
23D
330
B
100
AcDbEntity
 67
     1
  8
1
  6
Continuous
 62
    18
100
AcDbLine
 10
4.703026999999999
 20
3.996197
 30
0.0
 11
4.703026999999999
 21
4.585773
 31
0.0
  0
LINE
  5
23E
330
B
100
AcDbEntity
 67
     1
  8
1
  6
Continuous
 62
    18
100
AcDbLine
 10
2.027795
 20
4.604347999999999
 30
0.0
 11
1.867795
 21
4.604347999999999
 31
0.0
  0
LINE
  5
23F
330
B
100
AcDbEntity
 67
     1
  8
1
  6
Continuous
 62
    18
100
AcDbLine
 10
4.476530999999999
 20
4.669687999999999
 30
0.0
 11
4.476589999999999
 21
4.671241
 31
0.0
  0
LINE
  5
240
330
B
100
AcDbEntity
 67
     1
  8
1
  6
Continuous
 62
    18
100
AcDbLine
 10
5.356487999999999
 20
4.191894999999999
 30
0.0
 11
5.320332999999999
 21
3.986848
 31
0.0
  0
LINE
  5
241
330
B
100
AcDbEntity
 67
     1
  8
1
  6
Continuous
 62
    18
100
AcDbLine
 10
2.185658999999999
 20
4.659574
 30
0.0
 11
2.185743999999999
 21
4.664573
 31
0.0
  0
LINE
  5
242
330
B
100
AcDbEntity
 67
     1
  8
1
  6
Continuous
 62
    18
100
AcDbLine
 10
5.170937999999999
 20
4.49605
 30
0.0
 11
5.170876999999999
 21
4.49605
 31
0.0
  0
LINE
  5
243
330
B
100
AcDbEntity
 67
     1
  8
1
  6
Continuous
 62
    18
100
AcDbLine
 10
1.915036999999999
 20
4.215226
 30
0.0
 11
1.900552
 21
4.215226
 31
0.0
  0
LINE
  5
244
330
B
100
AcDbEntity
 67
     1
  8
1
  6
Continuous
 62
    18
100
AcDbLine
 10
5.257215
 20
4.568795999999999
 30
0.0
 11
5.264543999999999
 21
4.568603999999999
 31
0.0
  0
LINE
  5
245
330
B
100
AcDbEntity
 67
     1
  8
1
  6
Continuous
 62
    18
100
AcDbLine
 10
1.683295
 20
4.184347999999999
 30
0.0
 11
1.694774999999999
 21
4.195827999999999
 31
0.0
  0
LINE
  5
246
330
B
100
AcDbEntity
 67
     1
  8
1
  6
Continuous
 62
    18
100
AcDbLine
 10
1.939726999999999
 20
4.214813999999999
 30
0.0
 11
1.915861999999999
 21
4.214813999999999
 31
0.0
  0
LINE
  5
247
330
B
100
AcDbEntity
 67
     1
  8
1
  6
Continuous
 62
    18
100
AcDbLine
 10
5.306009999999999
 20
3.994593
 30
0.0
 11
5.341047
 21
4.193294999999999
 31
0.0
  0
LINE
  5
248
330
B
100
AcDbEntity
 67
     1
  8
1
  6
Continuous
 62
    18
100
AcDbLine
 10
2.212795
 20
4.172348
 30
0.0
 11
2.212795
 21
4.184347999999999
 31
0.0
  0
LINE
  5
249
330
B
100
AcDbEntity
 67
     1
  8
1
  6
Continuous
 62
    18
100
AcDbLine
 10
1.642818
 20
4.604573
 30
0.0
 11
1.642818
 21
4.661198
 31
0.0
  0
LINE
  5
24A
330
B
100
AcDbEntity
 67
     1
  8
1
  6
Continuous
 62
    18
100
AcDbLine
 10
5.139559999999999
 20
4.520162
 30
0.0
 11
5.170876999999999
 21
4.520208
 31
0.0
  0
LINE
  5
24B
330
B
100
AcDbEntity
 67
     1
  8
1
  6
Continuous
 62
    18
100
AcDbLine
 10
1.823795
 20
4.549347
 30
0.0
 11
1.823795
 21
4.483347
 31
0.0
  0
LINE
  5
24C
330
B
100
AcDbEntity
 67
     1
  8
1
  6
Continuous
 62
    18
100
AcDbLine
 10
2.075861999999999
 20
4.214813999999999
 30
0.0
 11
2.099727
 21
4.214813999999999
 31
0.0
  0
LINE
  5
24D
330
B
100
AcDbEntity
 67
     1
  8
1
  6
Continuous
 62
    18
100
AcDbLine
 10
5.170937999999999
 20
4.49605
 30
0.0
 11
5.181376
 21
4.497907999999999
 31
0.0
  0
LINE
  5
24E
330
B
100
AcDbEntity
 67
     1
  8
1
  6
Continuous
 62
    18
100
AcDbLine
 10
5.17668
 20
4.021937999999999
 30
0.0
 11
5.196502999999999
 21
4.010493
 31
0.0
  0
LINE
  5
24F
330
B
100
AcDbEntity
 67
     1
  8
1
  6
Continuous
 62
    18
100
AcDbLine
 10
1.713295
 20
4.483347
 30
0.0
 11
1.711011
 21
4.485630999999999
 31
0.0
  0
LINE
  5
250
330
B
100
AcDbEntity
 67
     1
  8
1
  6
Continuous
 62
    18
100
AcDbLine
 10
1.755343
 20
4.234494
 30
0.0
 11
1.725549
 21
4.234494
 31
0.0
  0
LINE
  5
251
330
B
100
AcDbEntity
 67
     1
  8
1
  6
Continuous
 62
    18
100
AcDbLine
 10
2.251147
 20
4.602948
 30
0.0
 11
2.252771
 21
4.604573
 31
0.0
  0
LINE
  5
252
330
B
100
AcDbEntity
 67
     1
  8
1
  6
Continuous
 62
    18
100
AcDbLine
 10
1.805274999999999
 20
4.501866999999999
 30
0.0
 11
1.793795
 21
4.513348
 31
0.0
  0
LINE
  5
253
330
B
100
AcDbEntity
 67
     1
  8
1
  6
Continuous
 62
    18
100
AcDbLine
 10
5.316186
 20
3.989207999999999
 30
0.0
 11
5.306009999999999
 21
3.994593
 31
0.0
  0
LINE
  5
254
330
B
100
AcDbEntity
 67
     1
  8
1
  6
Continuous
 62
    18
100
AcDbLine
 10
1.859008
 20
4.558135
 30
0.0
 11
1.865511
 21
4.551630999999999
 31
0.0
  0
LINE
  5
255
330
B
100
AcDbEntity
 67
     1
  8
1
  6
Continuous
 62
    18
100
AcDbLine
 10
5.185380999999999
 20
4.520229
 30
0.0
 11
5.185380999999999
 21
4.562018
 31
0.0
  0
LINE
  5
256
330
B
100
AcDbEntity
 67
     1
  8
1
  6
Continuous
 62
    18
100
AcDbLine
 10
1.636211999999999
 20
4.671241
 30
0.0
 11
1.637326999999999
 21
4.672487999999999
 31
0.0
  0
LINE
  5
257
330
B
100
AcDbEntity
 67
     1
  8
1
  6
Continuous
 62
    18
100
AcDbLine
 10
5.195119999999999
 20
4.567658999999999
 30
0.0
 11
5.224670999999999
 21
4.568432999999999
 31
0.0
  0
LINE
  5
258
330
B
100
AcDbEntity
 67
     1
  8
1
  6
Continuous
 62
    18
100
AcDbLine
 10
2.251147
 20
4.602948
 30
0.0
 11
2.251147
 21
3.953720999999999
 31
0.0
  0
LINE
  5
259
330
B
100
AcDbEntity
 67
     1
  8
1
  6
Continuous
 62
    18
100
AcDbLine
 10
5.275882
 20
4.524536
 30
0.0
 11
5.275882
 21
4.525693
 31
0.0
  0
LINE
  5
25A
330
B
100
AcDbEntity
 67
     1
  8
1
  6
Continuous
 62
    18
100
AcDbLine
 10
2.027795
 20
4.549347
 30
0.0
 11
2.027795
 21
4.622568
 31
0.0
  0
LINE
  5
25B
330
B
100
AcDbEntity
 67
     1
  8
1
  6
Continuous
 62
    18
100
AcDbLine
 10
5.274283
 20
4.564912999999999
 30
0.0
 11
5.274283
 21
4.520356999999999
 31
0.0
  0
LINE
  5
25C
330
B
100
AcDbEntity
 67
     1
  8
1
  6
Continuous
 62
    18
100
AcDbLine
 10
2.071795
 20
4.483347
 30
0.0
 11
2.182294999999999
 21
4.483347
 31
0.0
  0
LINE
  5
25D
330
B
100
AcDbEntity
 67
     1
  8
1
  6
Continuous
 62
    18
100
AcDbLine
 10
2.080581
 20
4.492135
 30
0.0
 11
2.090313999999999
 21
4.501866999999999
 31
0.0
  0
LINE
  5
25E
330
B
100
AcDbEntity
 67
     1
  8
1
  6
Continuous
 62
    18
100
AcDbLine
 10
5.264543999999999
 20
4.520344
 30
0.0
 11
5.264543999999999
 21
4.564769999999999
 31
0.0
  0
LINE
  5
25F
330
B
100
AcDbEntity
 67
     1
  8
1
  6
Continuous
 62
    18
100
AcDbLine
 10
2.046313999999999
 20
4.567866999999999
 30
0.0
 11
2.036580999999999
 21
4.558135
 31
0.0
  0
LINE
  5
260
330
B
100
AcDbEntity
 67
     1
  8
1
  6
Continuous
 62
    18
100
AcDbLine
 10
1.819727
 20
4.214813999999999
 30
0.0
 11
1.795861999999999
 21
4.214813999999999
 31
0.0
  0
LINE
  5
261
330
B
100
AcDbEntity
 67
     1
  8
1
  6
Continuous
 62
    18
100
AcDbLine
 10
5.195119999999999
 20
4.56244
 30
0.0
 11
5.191373999999999
 21
4.562335
 31
0.0
  0
LINE
  5
262
330
B
100
AcDbEntity
 67
     1
  8
1
  6
Continuous
 62
    18
100
AcDbLine
 10
2.260019999999999
 20
4.669687999999999
 30
0.0
 11
2.259377
 21
4.671241
 31
0.0
  0
LINE
  5
263
330
B
100
AcDbEntity
 67
     1
  8
1
  6
Continuous
 62
    18
100
AcDbLine
 10
2.255149999999999
 20
4.673576
 30
0.0
 11
1.640438999999999
 21
4.673576
 31
0.0
  0
LINE
  5
264
330
B
100
AcDbEntity
 67
     1
  8
1
  6
Continuous
 62
    18
100
AcDbLine
 10
5.268291
 20
4.564805999999999
 30
0.0
 11
5.264543999999999
 21
4.564769999999999
 31
0.0
  0
LINE
  5
265
330
B
100
AcDbEntity
 67
     1
  8
1
  6
Continuous
 62
    18
100
AcDbLine
 10
4.118921
 20
4.640922999999999
 30
0.0
 11
4.118921
 21
3.947757
 31
0.0
  0
LINE
  5
266
330
B
100
AcDbEntity
 67
     1
  8
1
  6
Continuous
 62
    18
100
AcDbLine
 10
2.249652
 20
3.953720999999999
 30
0.0
 11
2.246147
 21
3.953720999999999
 31
0.0
  0
LINE
  5
267
330
B
100
AcDbEntity
 67
     1
  8
1
  6
Continuous
 62
    18
100
AcDbLine
 10
5.33847
 20
4.525347
 30
0.0
 11
5.332880999999999
 21
4.525444999999999
 31
0.0
  0
LINE
  5
268
330
B
100
AcDbEntity
 67
     1
  8
1
  6
Continuous
 62
    18
100
AcDbLine
 10
5.274039
 20
4.565866
 30
0.0
 11
5.273897999999999
 21
4.566352999999999
 31
0.0
  0
LINE
  5
269
330
B
100
AcDbEntity
 67
     1
  8
1
  6
Continuous
 62
    18
100
AcDbLine
 10
2.052704
 20
4.02381
 30
0.0
 11
2.057096
 21
4.034415
 31
0.0
  0
LINE
  5
26A
330
B
100
AcDbEntity
 67
     1
  8
1
  6
Continuous
 62
    18
100
AcDbLine
 10
5.457880999999999
 20
4.505988999999999
 30
0.0
 11
5.457880999999999
 21
4.487423999999999
 31
0.0
  0
LINE
  5
26B
330
B
100
AcDbEntity
 67
     1
  8
1
  6
Continuous
 62
    18
100
AcDbLine
 10
2.060551999999999
 20
4.215226
 30
0.0
 11
2.075037
 21
4.215226
 31
0.0
  0
LINE
  5
26C
330
B
100
AcDbEntity
 67
     1
  8
1
  6
Continuous
 62
    18
100
AcDbLine
 10
5.188029
 20
4.566733999999999
 30
0.0
 11
5.187371999999999
 21
4.566258999999999
 31
0.0
  0
LINE
  5
26D
330
B
100
AcDbEntity
 67
     1
  8
1
  6
Continuous
 62
    18
100
AcDbLine
 10
1.838492999999999
 20
4.067023
 30
0.0
 11
1.838492999999999
 21
4.034415
 31
0.0
  0
LINE
  5
26E
330
B
100
AcDbEntity
 67
     1
  8
1
  6
Continuous
 62
    18
100
AcDbLine
 10
5.457880999999999
 20
4.456656999999999
 30
0.0
 11
5.457880999999999
 21
4.451677
 31
0.0
  0
LINE
  5
26F
330
B
100
AcDbEntity
 67
     1
  8
1
  6
Continuous
 62
    18
100
AcDbLine
 10
4.706018
 20
4.603543
 30
0.0
 11
4.706018
 21
4.628454
 31
0.0
  0
LINE
  5
270
330
B
100
AcDbEntity
 67
     1
  8
1
  6
Continuous
 62
    18
100
AcDbLine
 10
2.042797
 20
4.082718999999999
 30
0.0
 11
1.852791999999999
 21
4.082718999999999
 31
0.0
  0
LINE
  5
271
330
B
100
AcDbEntity
 67
     1
  8
1
  6
Continuous
 62
    18
100
AcDbLine
 10
5.457880999999999
 20
4.512748
 30
0.0
 11
5.332880999999999
 21
4.510822
 31
0.0
  0
LINE
  5
272
330
B
100
AcDbEntity
 67
     1
  8
1
  6
Continuous
 62
    18
100
AcDbLine
 10
4.965519
 20
4.590601
 30
0.0
 11
4.952519
 21
4.591281999999999
 31
0.0
  0
LINE
  5
273
330
B
100
AcDbEntity
 67
     1
  8
1
  6
Continuous
 62
    18
100
AcDbLine
 10
1.630372999999999
 20
3.948720999999999
 30
0.0
 11
2.265216
 21
3.948720999999999
 31
0.0
  0
LINE
  5
274
330
B
100
AcDbEntity
 67
     1
  8
1
  6
Continuous
 62
    18
100
AcDbLine
 10
1.837795
 20
4.630607
 30
0.0
 11
2.057795
 21
4.630607
 31
0.0
  0
LINE
  5
275
330
B
100
AcDbEntity
 67
     1
  8
1
  6
Continuous
 62
    18
100
AcDbLine
 10
5.457880999999999
 20
4.477988999999999
 30
0.0
 11
5.337363999999999
 21
4.476131999999999
 31
0.0
  0
LINE
  5
276
330
B
100
AcDbEntity
 67
     1
  8
1
  6
Continuous
 62
    18
100
AcDbLine
 10
5.176501999999999
 20
4.585328999999999
 30
0.0
 11
5.010989
 21
4.588218
 31
0.0
  0
LINE
  5
277
330
B
100
AcDbEntity
 67
     1
  8
1
  6
Continuous
 62
    18
100
AcDbLine
 10
2.219190999999999
 20
3.953720999999999
 30
0.0
 11
2.219190999999999
 21
3.952533999999999
 31
0.0
  0
LINE
  5
278
330
B
100
AcDbEntity
 67
     1
  8
1
  6
Continuous
 62
    18
100
AcDbLine
 10
2.053402
 20
4.023112
 30
0.0
 11
2.042797
 21
4.018718999999999
 31
0.0
  0
LINE
  5
279
330
B
100
AcDbEntity
 67
     1
  8
1
  6
Continuous
 62
    18
100
AcDbLine
 10
5.456447999999999
 20
4.523067
 30
0.0
 11
5.455472
 21
4.523304
 31
0.0
  0
LINE
  5
27A
330
B
100
AcDbEntity
 67
     1
  8
1
  6
Continuous
 62
    18
100
AcDbLine
 10
4.970519
 20
4.224198
 30
0.0
 11
5.184223999999999
 21
4.010493
 31
0.0
  0
LINE
  5
27B
330
B
100
AcDbEntity
 67
     1
  8
1
  6
Continuous
 62
    18
100
AcDbLine
 10
1.635372999999999
 20
4.445922
 30
0.0
 11
1.635438999999999
 21
4.44443
 31
0.0
  0
LINE
  5
27C
330
B
100
AcDbEntity
 67
     1
  8
1
  6
Continuous
 62
    18
100
AcDbLine
 10
2.053402
 20
4.078326999999999
 30
0.0
 11
2.057795
 21
4.067721999999999
 31
0.0
  0
LINE
  5
27D
330
B
100
AcDbEntity
 67
     1
  8
1
  6
Continuous
 62
    18
100
AcDbLine
 10
5.195066999999999
 20
4.565294999999999
 30
0.0
 11
5.195078999999999
 21
4.564360999999999
 31
0.0
  0
LINE
  5
27E
330
B
100
AcDbEntity
 67
     1
  8
1
  6
Continuous
 62
    18
100
AcDbLine
 10
4.952519
 20
4.572460999999999
 30
0.0
 11
4.952519
 21
4.591281999999999
 31
0.0
  0
LINE
  5
27F
330
B
100
AcDbEntity
 67
     1
  8
1
  6
Continuous
 62
    18
100
AcDbLine
 10
1.635372999999999
 20
4.641949999999999
 30
0.0
 11
1.635372999999999
 21
3.987955
 31
0.0
  0
LINE
  5
280
330
B
100
AcDbEntity
 67
     1
  8
1
  6
Continuous
 62
    18
100
AcDbLine
 10
1.709931
 20
4.602862
 30
0.0
 11
1.649441999999999
 21
4.602862
 31
0.0
  0
LINE
  5
281
330
B
100
AcDbEntity
 67
     1
  8
1
  6
Continuous
 62
    18
100
AcDbLine
 10
5.264543999999999
 20
4.568603999999999
 30
0.0
 11
5.264574999999999
 21
4.568335
 31
0.0
  0
LINE
  5
282
330
B
100
AcDbEntity
 67
     1
  8
1
  6
Continuous
 62
    18
100
AcDbLine
 10
4.944262999999999
 20
4.599383999999999
 30
0.0
 11
5.166676999999999
 21
4.595501999999999
 31
0.0
  0
LINE
  5
283
330
B
100
AcDbEntity
 67
     1
  8
1
  6
Continuous
 62
    18
100
AcDbLine
 10
1.772845
 20
4.121277
 30
0.0
 11
1.772845
 21
4.117277999999999
 31
0.0
  0
LINE
  5
284
330
B
100
AcDbEntity
 67
     1
  8
1
  6
Continuous
 62
    18
100
AcDbLine
 10
1.995795
 20
4.336979
 30
0.0
 11
1.995795
 21
4.238251999999999
 31
0.0
  0
LINE
  5
285
330
B
100
AcDbEntity
 67
     1
  8
1
  6
Continuous
 62
    18
100
AcDbLine
 10
5.27212
 20
4.568166
 30
0.0
 11
5.272734999999999
 21
4.567832
 31
0.0
  0
LINE
  5
286
330
B
100
AcDbEntity
 67
     1
  8
1
  6
Continuous
 62
    18
100
AcDbLine
 10
4.715755
 20
3.978015
 30
0.0
 11
4.715755
 21
3.997015
 31
0.0
  0
LINE
  5
287
330
B
100
AcDbEntity
 67
     1
  8
1
  6
Continuous
 62
    18
100
AcDbLine
 10
1.725549
 20
4.214348
 30
0.0
 11
1.725549
 21
4.234494
 31
0.0
  0
LINE
  5
288
330
B
100
AcDbEntity
 67
     1
  8
1
  6
Continuous
 62
    18
100
AcDbLine
 10
2.059795
 20
4.238251999999999
 30
0.0
 11
2.075793999999999
 21
4.238251999999999
 31
0.0
  0
LINE
  5
289
330
B
100
AcDbEntity
 67
     1
  8
1
  6
Continuous
 62
    18
100
AcDbLine
 10
4.054018
 20
4.666198
 30
0.0
 11
3.960931
 21
4.664573
 31
0.0
  0
LINE
  5
28A
330
B
100
AcDbEntity
 67
     1
  8
1
  6
Continuous
 62
    18
100
AcDbLine
 10
5.086502999999999
 20
4.568091
 30
0.0
 11
5.01064
 21
4.569415
 31
0.0
  0
LINE
  5
28B
330
B
100
AcDbEntity
 67
     1
  8
1
  6
Continuous
 62
    18
100
AcDbLine
 10
1.835795
 20
4.234494
 30
0.0
 11
1.836138
 21
4.214813999999999
 31
0.0
  0
LINE
  5
28C
330
B
100
AcDbEntity
 67
     1
  8
1
  6
Continuous
 62
    18
100
AcDbLine
 10
1.823795
 20
4.394101
 30
0.0
 11
1.823795
 21
4.443347
 31
0.0
  0
LINE
  5
28D
330
B
100
AcDbEntity
 67
     1
  8
1
  6
Continuous
 62
    18
100
AcDbLine
 10
3.956017999999999
 20
4.659574
 30
0.0
 11
3.960931
 21
4.664573
 31
0.0
  0
LINE
  5
28E
330
B
100
AcDbEntity
 67
     1
  8
1
  6
Continuous
 62
    18
100
AcDbLine
 10
5.016502
 20
3.963720999999999
 30
0.0
 11
5.016502
 21
3.973065
 31
0.0
  0
LINE
  5
28F
330
B
100
AcDbEntity
 67
     1
  8
1
  6
Continuous
 62
    18
100
AcDbLine
 10
1.915795
 20
4.234494
 30
0.0
 11
1.899797
 21
4.234494
 31
0.0
  0
LINE
  5
290
330
B
100
AcDbEntity
 67
     1
  8
1
  6
Continuous
 62
    18
100
AcDbLine
 10
1.835795
 20
4.336979
 30
0.0
 11
1.859793999999999
 21
4.336979
 31
0.0
  0
LINE
  5
291
330
B
100
AcDbEntity
 67
     1
  8
1
  6
Continuous
 62
    18
100
AcDbLine
 10
4.476755
 20
4.668498999999999
 30
0.0
 11
4.706018
 21
4.628073999999999
 31
0.0
  0
LINE
  5
292
330
B
100
AcDbEntity
 67
     1
  8
1
  6
Continuous
 62
    18
100
AcDbLine
 10
4.714901999999999
 20
4.584966999999999
 30
0.0
 11
4.714341
 21
4.585041999999999
 31
0.0
  0
LINE
  5
293
330
B
100
AcDbEntity
 67
     1
  8
1
  6
Continuous
 62
    18
100
AcDbLine
 10
2.019797
 20
4.234494
 30
0.0
 11
2.019452999999999
 21
4.214813999999999
 31
0.0
  0
LINE
  5
294
330
B
100
AcDbEntity
 67
     1
  8
1
  6
Continuous
 62
    18
100
AcDbLine
 10
1.915795
 20
4.336979
 30
0.0
 11
1.915795
 21
4.238251999999999
 31
0.0
  0
LINE
  5
295
330
B
100
AcDbEntity
 67
     1
  8
1
  6
Continuous
 62
    18
100
AcDbLine
 10
3.956017999999999
 20
4.602862
 30
0.0
 11
3.960931
 21
4.602948
 31
0.0
  0
LINE
  5
296
330
B
100
AcDbEntity
 67
     1
  8
1
  6
Continuous
 62
    18
100
AcDbLine
 10
4.693330999999999
 20
4.586281999999999
 30
0.0
 11
4.693330999999999
 21
4.615929
 31
0.0
  0
LINE
  5
297
330
B
100
AcDbEntity
 67
     1
  8
1
  6
Continuous
 62
    18
100
AcDbLine
 10
2.027795
 20
4.622568
 30
0.0
 11
2.031813999999999
 21
4.626587
 31
0.0
  0
LINE
  5
298
330
B
100
AcDbEntity
 67
     1
  8
1
  6
Continuous
 62
    18
100
AcDbLine
 10
4.476589999999999
 20
4.671241
 30
0.0
 11
4.476671999999999
 21
4.672487999999999
 31
0.0
  0
LINE
  5
299
330
B
100
AcDbEntity
 67
     1
  8
1
  6
Continuous
 62
    18
100
AcDbLine
 10
5.230677
 20
4.034656
 30
0.0
 11
5.230677
 21
3.969720999999999
 31
0.0
  0
LINE
  5
29A
330
B
100
AcDbEntity
 67
     1
  8
1
  6
Continuous
 62
    18
100
AcDbLine
 10
5.127748999999999
 20
4.520163
 30
0.0
 11
5.140119
 21
4.520163
 31
0.0
  0
LINE
  5
29B
330
B
100
AcDbEntity
 67
     1
  8
1
  6
Continuous
 62
    18
100
AcDbLine
 10
1.709931
 20
4.659574
 30
0.0
 11
1.709845
 21
4.664573
 31
0.0
  0
LINE
  5
29C
330
B
100
AcDbEntity
 67
     1
  8
1
  6
Continuous
 62
    18
100
AcDbLine
 10
2.184577999999999
 20
4.485630999999999
 30
0.0
 11
2.191081
 21
4.492135
 31
0.0
  0
LINE
  5
29D
330
B
100
AcDbEntity
 67
     1
  8
1
  6
Continuous
 62
    18
100
AcDbLine
 10
5.170876999999999
 20
4.49605
 30
0.0
 11
5.139577
 21
4.496004
 31
0.0
  0
LINE
  5
29E
330
B
100
AcDbEntity
 67
     1
  8
1
  6
Continuous
 62
    18
100
AcDbLine
 10
1.694774999999999
 20
4.195827999999999
 30
0.0
 11
1.704508
 21
4.205561
 31
0.0
  0
LINE
  5
29F
330
B
100
AcDbEntity
 67
     1
  8
1
  6
Continuous
 62
    18
100
AcDbLine
 10
5.341047
 20
4.193294999999999
 30
0.0
 11
5.341047
 21
4.366271
 31
0.0
  0
LINE
  5
2A0
330
B
100
AcDbEntity
 67
     1
  8
1
  6
Continuous
 62
    18
100
AcDbLine
 10
1.682795
 20
4.172348
 30
0.0
 11
1.682795
 21
4.184347999999999
 31
0.0
  0
LINE
  5
2A1
330
B
100
AcDbEntity
 67
     1
  8
1
  6
Continuous
 62
    18
100
AcDbLine
 10
5.185677
 20
4.515543
 30
0.0
 11
5.185677
 21
4.520229
 31
0.0
  0
LINE
  5
2A2
330
B
100
AcDbEntity
 67
     1
  8
1
  6
Continuous
 62
    18
100
AcDbLine
 10
1.838492999999999
 20
4.034415
 30
0.0
 11
1.837795
 21
4.033717
 31
0.0
  0
LINE
  5
2A3
330
B
100
AcDbEntity
 67
     1
  8
1
  6
Continuous
 62
    18
100
AcDbLine
 10
5.170876999999999
 20
4.520208
 30
0.0
 11
5.178291999999999
 21
4.520218999999999
 31
0.0
  0
LINE
  5
2A4
330
B
100
AcDbEntity
 67
     1
  8
1
  6
Continuous
 62
    18
100
AcDbLine
 10
1.823795
 20
4.443347
 30
0.0
 11
1.823795
 21
4.483347
 31
0.0
  0
LINE
  5
2A5
330
B
100
AcDbEntity
 67
     1
  8
1
  6
Continuous
 62
    18
100
AcDbLine
 10
5.181376
 20
4.497907999999999
 30
0.0
 11
5.185677
 21
4.502263
 31
0.0
  0
LINE
  5
2A6
330
B
100
AcDbEntity
 67
     1
  8
1
  6
Continuous
 62
    18
100
AcDbLine
 10
1.711011
 20
4.485630999999999
 30
0.0
 11
1.704508
 21
4.492135
 31
0.0
  0
LINE
  5
2A7
330
B
100
AcDbEntity
 67
     1
  8
1
  6
Continuous
 62
    18
100
AcDbLine
 10
5.351998
 20
4.367244
 30
0.0
 11
5.341047
 21
4.366271
 31
0.0
  0
ARC
  5
2A8
330
B
100
AcDbEntity
 67
     1
  8
1
  6
Continuous
 62
    18
100
AcDbCircle
 10
5.166501999999999
 20
4.585503
 30
0.0
 40
0.01
100
AcDbArc
 50
0.0
 51
89.0
  0
ARC
  5
2A9
330
B
100
AcDbEntity
 67
     1
  8
1
  6
Continuous
 62
    18
100
AcDbCircle
 10
1.690795
 20
4.172348
 30
0.0
 40
0.008
100
AcDbArc
 50
180.0
 51
270.0
  0
ARC
  5
2AA
330
B
100
AcDbEntity
 67
     1
  8
1
  6
Continuous
 62
    18
100
AcDbCircle
 10
5.316129
 20
4.504419999999999
 30
0.0
 40
0.016
100
AcDbArc
 50
10.0
 51
90.083526
  0
ARC
  5
2AB
330
B
100
AcDbEntity
 67
     1
  8
1
  6
Continuous
 62
    18
100
AcDbCircle
 10
5.322881999999999
 20
4.557072999999999
 30
0.0
 40
0.01
100
AcDbArc
 50
0.0
 51
88.49999999999999
  0
ARC
  5
2AC
330
B
100
AcDbEntity
 67
     1
  8
1
  6
Continuous
 62
    18
100
AcDbCircle
 10
5.021501999999999
 20
3.992515
 30
0.0
 40
0.005
100
AcDbArc
 50
90.0
 51
180.0
  0
ARC
  5
2AD
330
B
100
AcDbEntity
 67
     1
  8
1
  6
Continuous
 62
    18
100
AcDbCircle
 10
2.204795
 20
4.172348
 30
0.0
 40
0.008
100
AcDbArc
 50
270.0
 51
360.0
  0
ENDSEC
  0
SECTION
  2
OBJECTS
  0
DICTIONARY
  5
19
330
0
100
AcDbDictionary
281
     1
  3
ACAD_COLOR
350
2D8
  3
ACAD_GROUP
350
1A
  3
ACAD_LAYOUT
350
1E
  3
ACAD_MATERIAL
350
2C3
  3
ACAD_MLINESTYLE
350
1B
  3
ACAD_PLOTSETTINGS
350
22
  3
ACAD_PLOTSTYLENAME
350
1F
  3
ACAD_TABLESTYLE
350
2D9
  3
ACAD_VISUALSTYLE
350
2C7
  3
ACAD_WIPEOUT_VARS
350
23
  3
AcDbVariableDictionary
350
2E2
  3
ASE_INDEX_DICTIONARY
350
2DF
  3
DWGPROPS
350
2E7
  0
DICTIONARY
  5
2EC
330
32
100
AcDbDictionary
280
     1
281
     1
  3
ACAD_XREC_ROUNDTRIP
360
2ED
  0
DICTIONARY
  5
2D8
102
{ACAD_REACTORS
330
19
102
}
330
19
100
AcDbDictionary
281
     1
  0
DICTIONARY
  5
1A
102
{ACAD_REACTORS
330
19
102
}
330
19
100
AcDbDictionary
281
     1
  0
DICTIONARY
  5
1E
102
{ACAD_REACTORS
330
19
102
}
330
19
100
AcDbDictionary
281
     1
  3
DRAWING2
350
2AE
  3
Layout1
350
21
  3
Model
350
20
  0
DICTIONARY
  5
2C3
102
{ACAD_REACTORS
330
19
102
}
330
19
100
AcDbDictionary
281
     1
  3
ByBlock
350
2C5
  3
ByLayer
350
2C4
  3
Global
350
2C6
  0
DICTIONARY
  5
1B
102
{ACAD_REACTORS
330
19
102
}
330
19
100
AcDbDictionary
281
     1
  3
Standard
350
1C
  0
DICTIONARY
  5
22
102
{ACAD_REACTORS
330
19
102
}
330
19
100
AcDbDictionary
281
     1
  0
ACDBDICTIONARYWDFLT
  5
1F
102
{ACAD_REACTORS
330
19
102
}
330
19
100
AcDbDictionary
281
     1
  3
Normal
350
1D
100
AcDbDictionaryWithDefault
340
1D
  0
DICTIONARY
  5
2D9
102
{ACAD_REACTORS
330
19
102
}
330
19
100
AcDbDictionary
281
     1
  3
Standard
350
2DA
  0
DICTIONARY
  5
2C7
102
{ACAD_REACTORS
330
19
102
}
330
19
100
AcDbDictionary
281
     1
  3
2dWireframe
350
2CD
  3
3D Hidden
350
2CF
  3
3dWireframe
350
2CE
  3
Basic
350
2CC
  3
Brighten
350
2D3
  3
ColorChange
350
2D7
  3
Conceptual
350
2D0
  3
Dim
350
2D2
  3
Facepattern
350
2D6
  3
Flat
350
2C8
  3
FlatWithEdges
350
2C9
  3
Gouraud
350
2CA
  3
GouraudWithEdges
350
2CB
  3
Linepattern
350
2D5
  3
Realistic
350
2D1
  3
Thicken
350
2D4
  0
WIPEOUTVARIABLES
  5
23
330
19
100
AcDbWipeoutVariables
 70
     1
  0
DICTIONARY
  5
2E2
102
{ACAD_REACTORS
330
19
102
}
330
19
100
AcDbDictionary
281
     1
  3
CTABLESTYLE
350
2E3
  3
DIMASSOC
350
2E6
  3
INDEXCTL
350
2E5
  3
SORTENTS
350
2E4
  0
DICTIONARY
  5
2DF
102
{ACAD_REACTORS
330
19
102
}
330
19
100
AcDbDictionary
281
     1
  3
ASEBlockHierarchyIndexRecord
350
2E1
1001
DCO15
1040
1686391295.026
  0
XRECORD
  5
2E7
102
{ACAD_REACTORS
330
19
102
}
330
19
100
AcDbXrecord
280
     1
  1
DWGPROPS COOKIE
  2

  3

  4

  6

  7

  8
bjn
  9

300
=
301
=
302
=
303
=
304
=
305
=
306
=
307
=
308
=
309
=
 40
0.0006396412037037
 41
2455321.628993369
 42
2455321.629618357
  1

 90
        0
  0
XRECORD
  5
2ED
102
{ACAD_REACTORS
330
2EC
102
}
330
2EC
100
AcDbXrecord
280
     1
102
SHADEPLOT
 70
     0
  0
LAYOUT
  5
2AE
102
{ACAD_XDICTIONARY
360
2EE
102
}
102
{ACAD_REACTORS
330
1E
102
}
330
1E
100
AcDbPlotSettings
  1

  2

  4

  6

 40
20.0
 41
20.0
 42
20.0
 43
20.0
 44
319.4
 45
255.9
 46
0.0
 47
0.0
 48
0.0
 49
0.0
140
319.4
141
255.9
142
1.0
143
1.0
 70
     0
 72
     0
 73
     0
 74
     1
  7

 75
     0
147
1.0
148
0.0
149
0.0
100
AcDbLayout
  1
DRAWING2
 70
     0
 71
     2
 10
0.0
 20
0.0
 11
11.0
 21
8.5
 12
0.0
 22
0.0
 32
0.0
 14
0.0
 24
0.0
 34
0.0
 15
11.0
 25
8.5
 35
0.0
146
0.0
 13
0.0
 23
0.0
 33
0.0
 16
0.0
 26
0.0
 36
0.0
 17
0.0
 27
0.0
 37
0.0
 76
     0
330
B
331
32
  0
LAYOUT
  5
21
102
{ACAD_XDICTIONARY
360
2EA
102
}
102
{ACAD_REACTORS
330
1E
102
}
330
1E
100
AcDbPlotSettings
  1

  2
none_device
  4
Letter_(8.50_x_11.00_Inches)
  6

 40
6.349999904632568
 41
6.349999904632568
 42
6.350006103515625
 43
6.350006103515625
 44
215.8999938964844
 45
279.3999938964844
 46
0.0
 47
0.0
 48
0.0
 49
0.0
140
0.0
141
0.0
142
1.0
143
0.3645724499040335
 70
    16
 72
     0
 73
     1
 74
     1
  7

 75
     0
147
2.742939024227502
148
-41.40018690030568
149
-100.2570593795705
100
AcDbLayout
  1
Layout1
 70
     0
 71
     1
 10
1.538785418041001
 20
3.855985210923158
 11
5.549082279380108
 21
6.954850947502182
 12
0.0
 22
0.0
 32
0.0
 14
1.629928618122271
 24
3.947128322030334
 34
-0.0004043445228632
 15
5.457939168272933
 25
4.673599259664303
 35
0.0000152657740013
146
0.0
 13
0.0
 23
0.0
 33
0.0
 16
1.0
 26
0.0
 36
0.0
 17
0.0
 27
1.0
 37
0.0
 76
     0
330
B
331
32
1001
ACAD_PSEXT
1000
None
1000
None
1000
Not applicable
1000
The layout will not be plotted unless a new plotter configuration name is selected.
1070
     0
  0
LAYOUT
  5
20
102
{ACAD_XDICTIONARY
360
2E8
102
}
102
{ACAD_REACTORS
330
1E
102
}
330
1E
100
AcDbPlotSettings
  1

  2

  4

  6

 40
0.0
 41
0.0
 42
0.0
 43
0.0
 44
0.0
 45
0.0
 46
0.0
 47
0.0
 48
0.0
 49
0.0
140
0.0
141
0.0
142
1.0
143
1.0
 70
  1024
 72
     0
 73
     0
 74
     0
  7

 75
     0
147
1.0
148
0.0
149
0.0
100
AcDbLayout
  1
Model
 70
     0
 71
     0
 10
0.0
 20
0.0
 11
0.0
 21
0.0
 12
0.0
 22
0.0
 32
0.0
 14
0.0
 24
0.0
 34
0.0
 15
0.0
 25
0.0
 35
0.0
146
0.0
 13
0.0
 23
0.0
 33
0.0
 16
0.0
 26
0.0
 36
0.0
 17
0.0
 27
0.0
 37
0.0
 76
     0
330
A
  0
MATERIAL
  5
2C5
102
{ACAD_XDICTIONARY
360
2F2
102
}
102
{ACAD_REACTORS
330
2C3
102
}
330
2C3
100
AcDbMaterial
  1
ByBlock
  0
MATERIAL
  5
2C4
102
{ACAD_XDICTIONARY
360
2F0
102
}
102
{ACAD_REACTORS
330
2C3
102
}
330
2C3
100
AcDbMaterial
  1
ByLayer
  0
MATERIAL
  5
2C6
102
{ACAD_XDICTIONARY
360
2F4
102
}
102
{ACAD_REACTORS
330
2C3
102
}
330
2C3
100
AcDbMaterial
  1
Global
  0
MLINESTYLE
  5
1C
102
{ACAD_REACTORS
330
1B
102
}
330
1B
100
AcDbMlineStyle
  2
STANDARD
 70
     0
  3

 62
     0
 51
90.0
 52
90.0
 71
     2
 49
0.5
 62
   256
  6
BYLAYER
 49
-0.5
 62
   256
  6
BYLAYER
  0
ACDBPLACEHOLDER
  5
1D
102
{ACAD_REACTORS
330
1F
102
}
330
1F
  0
TABLESTYLE
  5
2DA
102
{ACAD_XDICTIONARY
360
2F6
102
}
102
{ACAD_REACTORS
330
2D9
102
}
330
2D9
100
AcDbTableStyle
  3
Standard
 70
     0
 71
     0
 40
0.06
 41
0.06
280
     0
281
     0
  7
Standard
140
0.18
170
     2
 62
     0
 63
     7
283
     0
274
    -2
284
     1
 64
     0
275
    -2
285
     1
 65
     0
276
    -2
286
     1
 66
     0
277
    -2
287
     1
 67
     0
278
    -2
288
     1
 68
     0
279
    -2
289
     1
 69
     0
  7
Standard
140
0.25
170
     5
 62
     0
 63
     7
283
     0
274
    -2
284
     1
 64
     0
275
    -2
285
     1
 65
     0
276
    -2
286
     1
 66
     0
277
    -2
287
     1
 67
     0
278
    -2
288
     1
 68
     0
279
    -2
289
     1
 69
     0
  7
Standard
140
0.18
170
     5
 62
     0
 63
     7
283
     0
274
    -2
284
     1
 64
     0
275
    -2
285
     1
 65
     0
276
    -2
286
     1
 66
     0
277
    -2
287
     1
 67
     0
278
    -2
288
     1
 68
     0
279
    -2
289
     1
 69
     0
  0
VISUALSTYLE
  5
2CD
102
{ACAD_REACTORS
330
2C7
102
}
330
2C7
100
AcDbVisualStyle
  2
2dWireframe
 70
     4
 71
     0
 72
     2
 73
     0
 90
        0
 40
-0.6
 41
-30.0
 62
     5
 63
     7
 74
     1
 91
        4
 64
     7
 65
   257
 75
     1
175
     1
 42
1.0
 92
        0
 66
   257
 43
1.0
 76
     1
 77
     6
 78
     2
 67
     7
 79
     5
170
     0
171
     0
290
     0
174
     0
 93
        1
 44
0.0
173
     0
291
     0
 45
0.0
1001
ACAD
1000
AcDbSavedByObjectVersion
1070
     0
  0
VISUALSTYLE
  5
2CF
102
{ACAD_REACTORS
330
2C7
102
}
330
2C7
100
AcDbVisualStyle
  2
3D Hidden
 70
     6
 71
     1
 72
     2
 73
     2
 90
        0
 40
-0.6
 41
-30.0
 62
     5
 63
     7
 74
     2
 91
        2
 64
     7
 65
   257
 75
     2
175
     1
 42
40.0
 92
        0
 66
   257
 43
1.0
 76
     1
 77
     6
 78
     2
 67
     7
 79
     3
170
     0
171
     0
290
     0
174
     0
 93
        1
 44
0.0
173
     0
291
     0
 45
0.0
1001
ACAD
1000
AcDbSavedByObjectVersion
1070
     0
  0
VISUALSTYLE
  5
2CE
102
{ACAD_REACTORS
330
2C7
102
}
330
2C7
100
AcDbVisualStyle
  2
3dWireframe
 70
     5
 71
     0
 72
     2
 73
     0
 90
        0
 40
-0.6
 41
-30.0
 62
     5
 63
     7
 74
     1
 91
        4
 64
     7
 65
   257
 75
     1
175
     1
 42
1.0
 92
        0
 66
   257
 43
1.0
 76
     1
 77
     6
 78
     2
 67
     7
 79
     5
170
     0
171
     0
290
     0
174
     0
 93
        1
 44
0.0
173
     0
291
     0
 45
0.0
1001
ACAD
1000
AcDbSavedByObjectVersion
1070
     0
  0
VISUALSTYLE
  5
2CC
102
{ACAD_REACTORS
330
2C7
102
}
330
2C7
100
AcDbVisualStyle
  2
Basic
 70
     7
 71
     1
 72
     0
 73
     1
 90
        0
 40
-0.6
 41
-30.0
 62
     5
 63
     7
 74
     0
 91
        4
 64
     7
 65
   257
 75
     1
175
     1
 42
1.0
 92
        8
 66
     7
 43
1.0
 76
     1
 77
     6
 78
     2
 67
     7
 79
     5
170
     0
171
     0
290
     0
174
     0
 93
        1
 44
0.0
173
     0
291
     1
 45
0.0
1001
ACAD
1000
AcDbSavedByObjectVersion
1070
     0
  0
VISUALSTYLE
  5
2D3
102
{ACAD_REACTORS
330
2C7
102
}
330
2C7
100
AcDbVisualStyle
  2
Brighten
 70
    12
 71
     2
 72
     2
 73
     0
 90
        0
 40
-0.6
 41
-30.0
 62
     5
 63
     7
 74
     1
 91
        4
 64
     7
 65
   257
 75
     1
175
     1
 42
1.0
 92
        8
 66
     7
 43
1.0
 76
     1
 77
     6
 78
     2
 67
     7
 79
     5
170
     0
171
     0
290
     0
174
     0
 93
        1
 44
50.0
173
     0
291
     1
 45
0.0
1001
ACAD
1000
AcDbSavedByObjectVersion
1070
     0
  0
VISUALSTYLE
  5
2D7
102
{ACAD_REACTORS
330
2C7
102
}
330
2C7
100
AcDbVisualStyle
  2
ColorChange
 70
    16
 71
     2
 72
     2
 73
     3
 90
        0
 40
-0.6
 41
-30.0
 62
     5
 63
     8
 74
     1
 91
        4
 64
     7
 65
   257
 75
     1
175
     1
 42
1.0
 92
        8
 66
     8
 43
1.0
 76
     1
 77
     6
 78
     2
 67
     7
 79
     5
170
     0
171
     0
290
     0
174
     0
 93
        1
 44
0.0
173
     0
291
     1
 45
0.0
1001
ACAD
1000
AcDbSavedByObjectVersion
1070
     0
  0
VISUALSTYLE
  5
2D0
102
{ACAD_REACTORS
330
2C7
102
}
330
2C7
100
AcDbVisualStyle
  2
Conceptual
 70
     9
 71
     3
 72
     2
 73
     0
 90
        0
 40
-0.6
 41
-30.0
 62
     5
 63
     7
 74
     2
 91
        2
 64
     7
 65
   257
 75
     1
175
     1
 42
40.0
 92
        8
 66
     7
 43
1.0
 76
     1
 77
     6
 78
     2
 67
     7
 79
     3
170
     0
171
     0
290
     0
174
     0
 93
        1
 44
0.0
173
     0
291
     0
 45
0.0
1001
ACAD
1000
AcDbSavedByObjectVersion
1070
     0
  0
VISUALSTYLE
  5
2D2
102
{ACAD_REACTORS
330
2C7
102
}
330
2C7
100
AcDbVisualStyle
  2
Dim
 70
    11
 71
     2
 72
     2
 73
     0
 90
        0
 40
-0.6
 41
-30.0
 62
     5
 63
     7
 74
     1
 91
        4
 64
     7
 65
   257
 75
     1
175
     1
 42
1.0
 92
        8
 66
     7
 43
1.0
 76
     1
 77
     6
 78
     2
 67
     7
 79
     5
170
     0
171
     0
290
     0
174
     0
 93
        1
 44
-50.0
173
     0
291
     1
 45
0.0
1001
ACAD
1000
AcDbSavedByObjectVersion
1070
     0
  0
VISUALSTYLE
  5
2D6
102
{ACAD_REACTORS
330
2C7
102
}
330
2C7
100
AcDbVisualStyle
  2
Facepattern
 70
    15
 71
     2
 72
     2
 73
     0
 90
        0
 40
-0.6
 41
-30.0
 62
     5
 63
     7
 74
     1
 91
        4
 64
     7
 65
   257
 75
     1
175
     1
 42
1.0
 92
        8
 66
     7
 43
1.0
 76
     1
 77
     6
 78
     2
 67
     7
 79
     5
170
     0
171
     0
290
     0
174
     0
 93
        1
 44
0.0
173
     0
291
     1
 45
0.0
1001
ACAD
1000
AcDbSavedByObjectVersion
1070
     0
  0
VISUALSTYLE
  5
2C8
102
{ACAD_REACTORS
330
2C7
102
}
330
2C7
100
AcDbVisualStyle
  2
Flat
 70
     0
 71
     2
 72
     1
 73
     1
 90
        2
 40
-0.6
 41
30.0
 62
     5
 63
     7
 74
     0
 91
        4
 64
     7
 65
   257
 75
     1
175
     1
 42
1.0
 92
        8
 66
     7
 43
1.0
 76
     1
 77
     6
 78
     2
 67
     7
 79
     5
170
     0
171
     0
290
     0
174
     0
 93
       13
 44
0.0
173
     0
291
     1
 45
0.0
1001
ACAD
1000
AcDbSavedByObjectVersion
1070
     0
  0
VISUALSTYLE
  5
2C9
102
{ACAD_REACTORS
330
2C7
102
}
330
2C7
100
AcDbVisualStyle
  2
FlatWithEdges
 70
     1
 71
     2
 72
     1
 73
     1
 90
        2
 40
-0.6
 41
30.0
 62
     5
 63
     7
 74
     1
 91
        4
 64
     7
 65
   257
 75
     1
175
     1
 42
1.0
 92
        0
 66
   257
 43
1.0
 76
     1
 77
     6
 78
     2
 67
     7
 79
     5
170
     0
171
     0
290
     0
174
     0
 93
       13
 44
0.0
173
     0
291
     1
 45
0.0
1001
ACAD
1000
AcDbSavedByObjectVersion
1070
     0
  0
VISUALSTYLE
  5
2CA
102
{ACAD_REACTORS
330
2C7
102
}
330
2C7
100
AcDbVisualStyle
  2
Gouraud
 70
     2
 71
     2
 72
     2
 73
     1
 90
        2
 40
-0.6
 41
30.0
 62
     5
 63
     7
 74
     0
 91
        4
 64
     7
 65
   257
 75
     1
175
     1
 42
1.0
 92
        0
 66
     7
 43
1.0
 76
     1
 77
     6
 78
     2
 67
     7
 79
     5
170
     0
171
     0
290
     0
174
     0
 93
       13
 44
0.0
173
     0
291
     1
 45
0.0
1001
ACAD
1000
AcDbSavedByObjectVersion
1070
     0
  0
VISUALSTYLE
  5
2CB
102
{ACAD_REACTORS
330
2C7
102
}
330
2C7
100
AcDbVisualStyle
  2
GouraudWithEdges
 70
     3
 71
     2
 72
     2
 73
     1
 90
        2
 40
-0.6
 41
30.0
 62
     5
 63
     7
 74
     1
 91
        4
 64
     7
 65
   257
 75
     1
175
     1
 42
1.0
 92
        0
 66
   257
 43
1.0
 76
     1
 77
     6
 78
     2
 67
     7
 79
     5
170
     0
171
     0
290
     0
174
     0
 93
       13
 44
0.0
173
     0
291
     1
 45
0.0
1001
ACAD
1000
AcDbSavedByObjectVersion
1070
     0
  0
VISUALSTYLE
  5
2D5
102
{ACAD_REACTORS
330
2C7
102
}
330
2C7
100
AcDbVisualStyle
  2
Linepattern
 70
    14
 71
     2
 72
     2
 73
     0
 90
        0
 40
-0.6
 41
-30.0
 62
     5
 63
     7
 74
     1
 91
        4
 64
     7
 65
   257
 75
     7
175
     7
 42
1.0
 92
        8
 66
     7
 43
1.0
 76
     1
 77
     6
 78
     2
 67
     7
 79
     5
170
     0
171
     0
290
     0
174
     0
 93
        1
 44
0.0
173
     0
291
     1
 45
0.0
1001
ACAD
1000
AcDbSavedByObjectVersion
1070
     0
  0
VISUALSTYLE
  5
2D1
102
{ACAD_REACTORS
330
2C7
102
}
330
2C7
100
AcDbVisualStyle
  2
Realistic
 70
     8
 71
     2
 72
     2
 73
     0
 90
        0
 40
-0.6
 41
-30.0
 62
     5
 63
     7
 74
     1
 91
        0
 64
     7
 65
   257
 75
     1
175
     1
 42
1.0
 92
        8
 66
     8
 43
1.0
 76
     1
 77
     6
 78
     2
 67
     7
 79
     5
170
     0
171
     0
290
     0
174
     0
 93
       13
 44
0.0
173
     0
291
     0
 45
0.0
1001
ACAD
1000
AcDbSavedByObjectVersion
1070
     0
  0
VISUALSTYLE
  5
2D4
102
{ACAD_REACTORS
330
2C7
102
}
330
2C7
100
AcDbVisualStyle
  2
Thicken
 70
    13
 71
     2
 72
     2
 73
     0
 90
        0
 40
-0.6
 41
-30.0
 62
     5
 63
     7
 74
     1
 91
        4
 64
     7
 65
   257
 75
     1
175
     1
 42
1.0
 92
       12
 66
     7
 43
1.0
 76
     1
 77
     6
 78
     2
 67
     7
 79
     5
170
     0
171
     0
290
     0
174
     0
 93
        1
 44
0.0
173
     0
291
     1
 45
0.0
1001
ACAD
1000
AcDbSavedByObjectVersion
1070
     0
  0
DICTIONARYVAR
  5
2E3
102
{ACAD_REACTORS
330
2E2
102
}
330
2E2
100
DictionaryVariables
280
     0
  1
STANDARD
  0
DICTIONARYVAR
  5
2E6
102
{ACAD_REACTORS
330
2E2
102
}
330
2E2
100
DictionaryVariables
280
     0
  1
1
  0
DICTIONARYVAR
  5
2E5
102
{ACAD_REACTORS
330
2E2
102
}
330
2E2
100
DictionaryVariables
280
     0
  1
0
  0
DICTIONARYVAR
  5
2E4
102
{ACAD_REACTORS
330
2E2
102
}
330
2E2
100
DictionaryVariables
280
     0
  1
127
  0
XRECORD
  5
2E1
102
{ACAD_REACTORS
330
2DF
102
}
330
2DF
100
AcDbXrecord
280
     1
  0
DICTIONARY
  5
2EE
330
2AE
100
AcDbDictionary
280
     1
281
     1
  3
ACAD_XREC_ROUNDTRIP
360
2EF
  0
DICTIONARY
  5
2EA
330
21
100
AcDbDictionary
280
     1
281
     1
  3
ACAD_XREC_ROUNDTRIP
360
2EB
  0
DICTIONARY
  5
2E8
330
20
100
AcDbDictionary
280
     1
281
     1
  3
ACAD_XREC_ROUNDTRIP
360
2E9
  0
DICTIONARY
  5
2F2
330
2C5
100
AcDbDictionary
280
     1
281
     1
  3
ACAD_XREC_ROUNDTRIP
360
2F3
  0
DICTIONARY
  5
2F0
330
2C4
100
AcDbDictionary
280
     1
281
     1
  3
ACAD_XREC_ROUNDTRIP
360
2F1
  0
DICTIONARY
  5
2F4
330
2C6
100
AcDbDictionary
280
     1
281
     1
  3
ACAD_XREC_ROUNDTRIP
360
2F5
  0
DICTIONARY
  5
2F6
330
2DA
100
AcDbDictionary
280
     1
281
     1
  3
ACAD_XREC_ROUNDTRIP
360
2F7
  0
XRECORD
  5
2EF
102
{ACAD_REACTORS
330
2EE
102
}
330
2EE
100
AcDbXrecord
280
     1
102
SHADEPLOT
 70
     0
102
SHADEPLOTRESLEVEL
 70
     2
102
SHADEPLOTCUSTOMDPI
 70
   300
  0
XRECORD
  5
2EB
102
{ACAD_REACTORS
330
2EA
102
}
330
2EA
100
AcDbXrecord
280
     1
102
SHADEPLOT
 70
     0
102
SHADEPLOTRESLEVEL
 70
     2
102
SHADEPLOTCUSTOMDPI
 70
   300
  0
XRECORD
  5
2E9
102
{ACAD_REACTORS
330
2E8
102
}
330
2E8
100
AcDbXrecord
280
     1
102
SHADEPLOT
 70
     0
102
SHADEPLOTRESLEVEL
 70
     2
102
SHADEPLOTCUSTOMDPI
 70
   300
  0
XRECORD
  5
2F3
102
{ACAD_REACTORS
330
2F2
102
}
330
2F2
100
AcDbXrecord
280
     1
102
MATERIAL
148
0.0
149
0.0
149
0.0
 93
        0
 94
       63
282
     0
 72
     1
 77
     1
171
     1
175
     1
179
     1
273
     0
  0
XRECORD
  5
2F1
102
{ACAD_REACTORS
330
2F0
102
}
330
2F0
100
AcDbXrecord
280
     1
102
MATERIAL
148
0.0
149
0.0
149
0.0
 93
        0
 94
       63
282
     0
 72
     1
 77
     1
171
     1
175
     1
179
     1
273
     0
  0
XRECORD
  5
2F5
102
{ACAD_REACTORS
330
2F4
102
}
330
2F4
100
AcDbXrecord
280
     1
102
MATERIAL
148
0.0
149
0.0
149
0.0
 93
        0
 94
       63
282
     0
 72
     1
 77
     1
171
     1
175
     1
179
     1
273
     0
  0
XRECORD
  5
2F7
102
{ACAD_REACTORS
330
2F6
102
}
330
2F6
100
AcDbXrecord
280
     1
102
ACAD_ROUNDTRIP_PRE2007_TABLESTYLE
 90
      512
 91
        0
  1

 92
      512
 93
        0
  2

 94
      512
 95
        0
  3

  0
ENDSEC
  0
EOF
