  0
SECTION
  2
HEADER
  9
$ACADVER
  1
AC1015
  9
$ACADMAINTVER
 70
    20
  9
$DWGCODEPAGE
  3
ANSI_1252
  9
$INSBASE
 10
0.0
 20
0.0
 30
0.0
  9
$EXTMIN
 10
-154.8292025178671
 20
-28.57279300689697
 30
0.0
  9
$EXTMAX
 10
32.47179412841797
 20
121.3514738082885
 30
0.0
  9
$LIMMIN
 10
-0.5
 20
-0.5
  9
$LIMMAX
 10
5.0
 20
5.0
  9
$ORTHOMODE
 70
     0
  9
$REGENMODE
 70
     1
  9
$FILLMODE
 70
     1
  9
$QTEXTMODE
 70
     0
  9
$MIRRTEXT
 70
     1
  9
$LTSCALE
 40
1.0
  9
$ATTMODE
 70
     1
  9
$TEXTSIZE
 40
0.2
  9
$TRACEWID
 40
0.05
  9
$TEXTSTYLE
  7
Standard
  9
$CLAYER
  8
0
  9
$CELTYPE
  6
BYLAYER
  9
$CECOLOR
 62
   256
  9
$CELTSCALE
 40
1.0
  9
$DISPSILH
 70
     0
  9
$DIMSCALE
 40
1.0
  9
$DIMASZ
 40
0.18
  9
$DIMEXO
 40
0.0625
  9
$DIMDLI
 40
0.38
  9
$DIMRND
 40
0.0
  9
$DIMDLE
 40
0.0
  9
$DIMEXE
 40
0.18
  9
$DIMTP
 40
0.0
  9
$DIMTM
 40
0.0
  9
$DIMTXT
 40
0.18
  9
$DIMCEN
 40
0.09
  9
$DIMTSZ
 40
0.0
  9
$DIMTOL
 70
     0
  9
$DIMLIM
 70
     0
  9
$DIMTIH
 70
     1
  9
$DIMTOH
 70
     1
  9
$DIMSE1
 70
     0
  9
$DIMSE2
 70
     0
  9
$DIMTAD
 70
     0
  9
$DIMZIN
 70
     0
  9
$DIMBLK
  1

  9
$DIMASO
 70
     1
  9
$DIMSHO
 70
     1
  9
$DIMPOST
  1

  9
$DIMAPOST
  1

  9
$DIMALT
 70
     0
  9
$DIMALTD
 70
     2
  9
$DIMALTF
 40
25.4
  9
$DIMLFAC
 40
1.0
  9
$DIMTOFL
 70
     0
  9
$DIMTVP
 40
0.0
  9
$DIMTIX
 70
     0
  9
$DIMSOXD
 70
     0
  9
$DIMSAH
 70
     0
  9
$DIMBLK1
  1

  9
$DIMBLK2
  1

  9
$DIMSTYLE
  2
Standard
  9
$DIMCLRD
 70
     0
  9
$DIMCLRE
 70
     0
  9
$DIMCLRT
 70
     0
  9
$DIMTFAC
 40
1.0
  9
$DIMGAP
 40
0.09
  9
$DIMJUST
 70
     0
  9
$DIMSD1
 70
     0
  9
$DIMSD2
 70
     0
  9
$DIMTOLJ
 70
     1
  9
$DIMTZIN
 70
     0
  9
$DIMALTZ
 70
     0
  9
$DIMALTTZ
 70
     0
  9
$DIMUPT
 70
     0
  9
$DIMDEC
 70
     4
  9
$DIMTDEC
 70
     4
  9
$DIMALTU
 70
     2
  9
$DIMALTTD
 70
     2
  9
$DIMTXSTY
  7
Standard
  9
$DIMAUNIT
 70
     0
  9
$DIMADEC
 70
     0
  9
$DIMALTRND
 40
0.0
  9
$DIMAZIN
 70
     0
  9
$DIMDSEP
 70
    46
  9
$DIMATFIT
 70
     3
  9
$DIMFRAC
 70
     0
  9
$DIMLDRBLK
  1

  9
$DIMLUNIT
 70
     2
  9
$DIMLWD
 70
    -2
  9
$DIMLWE
 70
    -2
  9
$DIMTMOVE
 70
     0
  9
$LUNITS
 70
     2
  9
$LUPREC
 70
     4
  9
$SKETCHINC
 40
0.1
  9
$FILLETRAD
 40
0.5
  9
$AUNITS
 70
     0
  9
$AUPREC
 70
     0
  9
$MENU
  1
.
  9
$ELEVATION
 40
0.0
  9
$PELEVATION
 40
0.0
  9
$THICKNESS
 40
0.0
  9
$LIMCHECK
 70
     0
  9
$CHAMFERA
 40
0.5
  9
$CHAMFERB
 40
0.5
  9
$CHAMFERC
 40
1.0
  9
$CHAMFERD
 40
0.0
  9
$SKPOLY
 70
     0
  9
$TDCREATE
 40
2456539.457854815
  9
$TDUCREATE
 40
2456539.666188148
  9
$TDUPDATE
 40
2456539.461574653
  9
$TDUUPDATE
 40
2456539.669907986
  9
$TDINDWG
 40
0.0010782407
  9
$TDUSRTIMER
 40
0.0010782407
  9
$USRTIMER
 70
     1
  9
$ANGBASE
 50
0.0
  9
$ANGDIR
 70
     0
  9
$PDMODE
 70
     0
  9
$PDSIZE
 40
0.0
  9
$PLINEWID
 40
0.0
  9
$SPLFRAME
 70
     0
  9
$SPLINETYPE
 70
     6
  9
$SPLINESEGS
 70
     8
  9
$HANDSEED
  5
6E0
  9
$SURFTAB1
 70
     6
  9
$SURFTAB2
 70
     6
  9
$SURFTYPE
 70
     6
  9
$SURFU
 70
     6
  9
$SURFV
 70
     6
  9
$UCSBASE
  2

  9
$UCSNAME
  2

  9
$UCSORG
 10
0.0
 20
0.0
 30
0.0
  9
$UCSXDIR
 10
1.0
 20
0.0
 30
0.0
  9
$UCSYDIR
 10
0.0
 20
1.0
 30
0.0
  9
$UCSORTHOREF
  2

  9
$UCSORTHOVIEW
 70
     1
  9
$UCSORGTOP
 10
0.0
 20
0.0
 30
0.0
  9
$UCSORGBOTTOM
 10
0.0
 20
0.0
 30
0.0
  9
$UCSORGLEFT
 10
0.0
 20
0.0
 30
0.0
  9
$UCSORGRIGHT
 10
0.0
 20
0.0
 30
0.0
  9
$UCSORGFRONT
 10
0.0
 20
0.0
 30
0.0
  9
$UCSORGBACK
 10
0.0
 20
0.0
 30
0.0
  9
$PUCSBASE
  2

  9
$PUCSNAME
  2

  9
$PUCSORG
 10
0.0
 20
0.0
 30
0.0
  9
$PUCSXDIR
 10
1.0
 20
0.0
 30
0.0
  9
$PUCSYDIR
 10
0.0
 20
1.0
 30
0.0
  9
$PUCSORTHOREF
  2

  9
$PUCSORTHOVIEW
 70
     0
  9
$PUCSORGTOP
 10
0.0
 20
0.0
 30
0.0
  9
$PUCSORGBOTTOM
 10
0.0
 20
0.0
 30
0.0
  9
$PUCSORGLEFT
 10
0.0
 20
0.0
 30
0.0
  9
$PUCSORGRIGHT
 10
0.0
 20
0.0
 30
0.0
  9
$PUCSORGFRONT
 10
0.0
 20
0.0
 30
0.0
  9
$PUCSORGBACK
 10
0.0
 20
0.0
 30
0.0
  9
$USERI1
 70
     0
  9
$USERI2
 70
     0
  9
$USERI3
 70
     0
  9
$USERI4
 70
     0
  9
$USERI5
 70
     0
  9
$USERR1
 40
0.0
  9
$USERR2
 40
0.0
  9
$USERR3
 40
0.0
  9
$USERR4
 40
0.0
  9
$USERR5
 40
0.0
  9
$WORLDVIEW
 70
     1
  9
$SHADEDGE
 70
     3
  9
$SHADEDIF
 70
    70
  9
$TILEMODE
 70
     1
  9
$MAXACTVP
 70
    64
  9
$PINSBASE
 10
0.0
 20
0.0
 30
0.0
  9
$PLIMCHECK
 70
     0
  9
$PEXTMIN
 10
-0.5
 20
-0.5
 30
-0.5
  9
$PEXTMAX
 10
5.0
 20
5.0
 30
5.0
  9
$PLIMMIN
 10
-0.5
 20
-0.5
  9
$PLIMMAX
 10
5.0
 20
5.0
  9
$UNITMODE
 70
     0
  9
$VISRETAIN
 70
     1
  9
$PLINEGEN
 70
     0
  9
$PSLTSCALE
 70
     1
  9
$TREEDEPTH
 70
  3020
  9
$CMLSTYLE
  2
Standard
  9
$CMLJUST
 70
     0
  9
$CMLSCALE
 40
1.0
  9
$PROXYGRAPHICS
 70
     1
  9
$MEASUREMENT
 70
     0
  9
$CELWEIGHT
370
    -1
  9
$ENDCAPS
280
     0
  9
$JOINSTYLE
280
     0
  9
$LWDISPLAY
290
     0
  9
$INSUNITS
 70
     1
  9
$HYPERLINKBASE
  1

  9
$STYLESHEET
  1

  9
$XEDIT
290
     1
  9
$CEPSNTYPE
380
     0
  9
$PSTYLEMODE
290
     1
  9
$FINGERPRINTGUID
  2
{1F95DA53-54BD-43C5-B531-BFE6300DACF1}
  9
$VERSIONGUID
  2
{92B1394A-0861-4A8D-A34A-B7C5B101A461}
  9
$EXTNAMES
290
     1
  9
$PSVPSCALE
 40
0.0
  9
$OLESTARTUP
290
     0
  0
ENDSEC
  0
SECTION
  2
CLASSES
  0
CLASS
  1
ACDBDICTIONARYWDFLT
  2
AcDbDictionaryWithDefault
  3
ObjectDBX Classes
 90
        0
280
     0
281
     0
  0
CLASS
  1
VISUALSTYLE
  2
AcDbVisualStyle
  3
ObjectDBX Classes
 90
     4095
280
     0
281
     0
  0
CLASS
  1
MATERIAL
  2
AcDbMaterial
  3
ObjectDBX Classes
 90
     1153
280
     0
281
     0
  0
CLASS
  1
TABLESTYLE
  2
AcDbTableStyle
  3
ObjectDBX Classes
 90
     4095
280
     0
281
     0
  0
CLASS
  1
SCALE
  2
AcDbScale
  3
ObjectDBX Classes
 90
     1153
280
     0
281
     0
  0
CLASS
  1
MLEADERSTYLE
  2
AcDbMLeaderStyle
  3
ACDB_MLEADERSTYLE_CLASS
 90
     4095
280
     0
281
     0
  0
CLASS
  1
CELLSTYLEMAP
  2
AcDbCellStyleMap
  3
ObjectDBX Classes
 90
     1152
280
     0
281
     0
  0
CLASS
  1
DICTIONARYVAR
  2
AcDbDictionaryVar
  3
ObjectDBX Classes
 90
        0
280
     0
281
     0
  0
CLASS
  1
ACDBPLACEHOLDER
  2
AcDbPlaceHolder
  3
ObjectDBX Classes
 90
        0
280
     0
281
     0
  0
CLASS
  1
LAYOUT
  2
AcDbLayout
  3
ObjectDBX Classes
 90
        0
280
     0
281
     0
  0
ENDSEC
  0
SECTION
  2
TABLES
  0
TABLE
  2
VPORT
  5
8
330
0
100
AcDbSymbolTable
 70
    17
  0
VPORT
  5
29
330
8
100
AcDbSymbolTableRecord
100
AcDbViewportTableRecord
  2
DUMMY
 70
     0
 10
0.0
 20
0.0
 11
1.0
 21
1.0
 12
10.42990654205607
 22
4.5
 13
0.0
 23
0.0
 14
0.5
 24
0.5
 15
0.5
 25
0.5
 16
0.0
 26
0.0
 36
1.0
 17
0.0
 27
0.0
 37
0.0
 40
9.0
 41
1.972972972850328
 42
50.0
 43
0.0
 44
0.0
 50
0.0
 51
0.0
 71
     0
 72
   100
 73
     1
 74
     3
 75
     0
 76
     0
 77
     0
 78
     0
281
     0
 65
     1
110
0.0
120
0.0
130
0.0
111
1.0
121
0.0
131
0.0
112
0.0
122
1.0
132
0.0
 79
     0
146
0.0
  0
VPORT
  5
57A
330
8
100
AcDbSymbolTableRecord
100
AcDbViewportTableRecord
  2
*ACTIVE
 70
     0
 10
0.0
 20
0.0
 11
1.0
 21
1.0
 12
-61.17870419472455
 22
46.3893404006958
 13
0.0
 23
0.0
 14
0.5
 24
0.5
 15
0.5
 25
0.5
 16
0.0
 26
0.0
 36
1.0
 17
0.0
 27
0.0
 37
0.0
 40
151.0658221462656
 41
2.003811944091486
 42
50.0
 43
48.53532703669039
 44
-48.53532703669039
 50
0.0
 51
0.0
 71
     0
 72
   100
 73
     1
 74
     3
 75
     0
 76
     0
 77
     0
 78
     0
281
     0
 65
     1
110
0.0
120
0.0
130
0.0
111
1.0
121
0.0
131
0.0
112
0.0
122
1.0
132
0.0
 79
     0
146
0.0
1001
ACAD_NAV_VCDISPLAY
1070
     3
  0
VPORT
  5
57B
330
8
100
AcDbSymbolTableRecord
100
AcDbViewportTableRecord
  2
L1
 70
     0
 10
0.0
 20
0.0
 11
1.0
 21
1.0
 12
20.76548183802515
 22
16.95213627815246
 13
0.0
 23
0.0
 14
0.5
 24
0.5
 15
0.5
 25
0.5
 16
0.7188730927569435
 26
-0.5850486126764432
 36
0.3754192287502549
 17
0.0
 27
0.0
 37
0.0
 40
31.65737478222011
 41
0.5609042720000199
 42
50.0
 43
48.53532703669039
 44
-48.53532703669039
 50
0.0
 51
0.0
 71
     0
 72
   100
 73
     1
 74
     3
 75
     0
 76
     0
 77
     0
 78
     0
281
     0
 65
     1
110
0.0
120
0.0
130
0.0
111
1.0
121
0.0
131
0.0
112
0.0
122
1.0
132
0.0
 79
     0
146
0.0
  0
VPORT
  5
57C
330
8
100
AcDbSymbolTableRecord
100
AcDbViewportTableRecord
  2
L2
 70
     0
 10
0.0
 20
0.0
 11
0.5
 21
1.0
 12
0.0
 22
0.0
 13
0.0
 23
0.0
 14
0.5
 24
0.5
 15
0.5
 25
0.5
 16
0.0
 26
-1.0
 36
0.0
 17
0.0
 27
0.0
 37
0.0
 40
30.49981439122291
 41
0.5821922890377627
 42
50.0
 43
15.77927271104933
 44
-15.77927271104933
 50
0.0
 51
0.0
 71
     0
 72
   100
 73
     1
 74
     3
 75
     0
 76
     0
 77
     0
 78
     0
281
     0
 65
     1
110
0.0
120
0.0
130
0.0
111
1.0
121
0.0
131
0.0
112
0.0
122
1.0
132
0.0
 79
     0
146
0.0
  0
VPORT
  5
57D
330
8
100
AcDbSymbolTableRecord
100
AcDbViewportTableRecord
  2
L2
 70
     0
 10
0.5
 20
0.0
 11
1.0
 21
1.0
 12
0.0
 22
0.0
 13
0.0
 23
0.0
 14
0.5
 24
0.5
 15
0.5
 25
0.5
 16
1.0
 26
0.0
 36
0.0
 17
0.0
 27
0.0
 37
0.0
 40
30.49981439122291
 41
0.5821922890377627
 42
50.0
 43
15.40346591533207
 44
-15.40346591533207
 50
0.0
 51
0.0
 71
     0
 72
   100
 73
     1
 74
     3
 75
     0
 76
     0
 77
     0
 78
     0
281
     0
 65
     1
110
0.0
120
0.0
130
0.0
111
1.0
121
0.0
131
0.0
112
0.0
122
1.0
132
0.0
 79
     0
146
0.0
  0
VPORT
  5
57E
330
8
100
AcDbSymbolTableRecord
100
AcDbViewportTableRecord
  2
L3
 70
     0
 10
0.0
 20
0.5
 11
1.0
 21
1.0
 12
0.0
 22
0.0
 13
0.0
 23
0.0
 14
0.5
 24
0.5
 15
0.5
 25
0.5
 16
0.0
 26
0.0
 36
1.0
 17
0.0
 27
0.0
 37
0.0
 40
4.339167076771653
 41
4.092203974054856
 42
50.0
 43
15.24990719561145
 44
-15.24990719561145
 50
0.0
 51
0.0
 71
     0
 72
   100
 73
     1
 74
     3
 75
     0
 76
     0
 77
     0
 78
     0
281
     0
 65
     1
110
0.0
120
0.0
130
0.0
111
1.0
121
0.0
131
0.0
112
0.0
122
1.0
132
0.0
 79
     0
146
0.0
  0
VPORT
  5
57F
330
8
100
AcDbSymbolTableRecord
100
AcDbViewportTableRecord
  2
L3
 70
     0
 10
0.0
 20
0.0
 11
1.0
 21
0.5
 12
0.0
 22
0.0
 13
0.0
 23
0.0
 14
0.5
 24
0.5
 15
0.5
 25
0.5
 16
0.0
 26
-1.0
 36
0.0
 17
0.0
 27
0.0
 37
0.0
 40
30.49981439122291
 41
0.5821922890377627
 42
50.0
 43
15.77927271104933
 44
-15.77927271104933
 50
0.0
 51
0.0
 71
     0
 72
   100
 73
     1
 74
     3
 75
     0
 76
     0
 77
     0
 78
     0
281
     0
 65
     1
110
0.0
120
0.0
130
0.0
111
1.0
121
0.0
131
0.0
112
0.0
122
1.0
132
0.0
 79
     0
146
0.0
  0
VPORT
  5
580
330
8
100
AcDbSymbolTableRecord
100
AcDbViewportTableRecord
  2
L4
 70
     0
 10
0.0
 20
0.5
 11
0.5
 21
1.0
 12
0.0
 22
0.0
 13
0.0
 23
0.0
 14
0.5
 24
0.5
 15
0.5
 25
0.5
 16
0.0
 26
0.0
 36
1.0
 17
0.0
 27
0.0
 37
0.0
 40
4.339167076771653
 41
4.092203974054856
 42
50.0
 43
15.24990719561145
 44
-15.24990719561145
 50
0.0
 51
0.0
 71
     0
 72
   100
 73
     1
 74
     3
 75
     0
 76
     0
 77
     0
 78
     0
281
     0
 65
     1
110
0.0
120
0.0
130
0.0
111
1.0
121
0.0
131
0.0
112
0.0
122
1.0
132
0.0
 79
     0
146
0.0
  0
VPORT
  5
581
330
8
100
AcDbSymbolTableRecord
100
AcDbViewportTableRecord
  2
L4
 70
     0
 10
0.0
 20
0.0
 11
0.5
 21
0.5
 12
0.0
 22
0.0
 13
0.0
 23
0.0
 14
0.5
 24
0.5
 15
0.5
 25
0.5
 16
0.0
 26
-1.0
 36
0.0
 17
0.0
 27
0.0
 37
0.0
 40
30.49981439122291
 41
0.5821922890377627
 42
50.0
 43
15.77927271104933
 44
-15.77927271104933
 50
0.0
 51
0.0
 71
     0
 72
   100
 73
     1
 74
     3
 75
     0
 76
     0
 77
     0
 78
     0
281
     0
 65
     1
110
0.0
120
0.0
130
0.0
111
1.0
121
0.0
131
0.0
112
0.0
122
1.0
132
0.0
 79
     0
146
0.0
  0
VPORT
  5
582
330
8
100
AcDbSymbolTableRecord
100
AcDbViewportTableRecord
  2
L4
 70
     0
 10
0.5
 20
0.0
 11
1.0
 21
0.5
 12
0.0
 22
0.0
 13
0.0
 23
0.0
 14
0.5
 24
0.5
 15
0.5
 25
0.5
 16
1.0
 26
0.0
 36
0.0
 17
0.0
 27
0.0
 37
0.0
 40
30.49981439122291
 41
0.5821922890377627
 42
50.0
 43
15.40346591533207
 44
-15.40346591533207
 50
0.0
 51
0.0
 71
     0
 72
   100
 73
     1
 74
     3
 75
     0
 76
     0
 77
     0
 78
     0
281
     0
 65
     1
110
0.0
120
0.0
130
0.0
111
1.0
121
0.0
131
0.0
112
0.0
122
1.0
132
0.0
 79
     0
146
0.0
  0
VPORT
  5
583
330
8
100
AcDbSymbolTableRecord
100
AcDbViewportTableRecord
  2
L4
 70
     0
 10
0.5
 20
0.5
 11
1.0
 21
1.0
 12
0.0
 22
0.0
 13
0.0
 23
0.0
 14
0.5
 24
0.5
 15
0.5
 25
0.5
 16
0.5773502691896259
 26
-0.5773502691896259
 36
0.5773502691896259
 17
0.0
 27
0.0
 37
0.0
 40
29.98360848273399
 41
0.5922154688578648
 42
50.0
 43
15.62413760059691
 44
-15.62413760059691
 50
0.0
 51
0.0
 71
     0
 72
   100
 73
     1
 74
     3
 75
     0
 76
     0
 77
     0
 78
     0
281
     0
 65
     1
110
0.0
120
0.0
130
0.0
111
1.0
121
0.0
131
0.0
112
0.0
122
1.0
132
0.0
 79
     0
146
0.0
  0
VPORT
  5
584
330
8
100
AcDbSymbolTableRecord
100
AcDbViewportTableRecord
  2
L6
 70
     0
 10
0.0
 20
0.5
 11
0.3333333333333334
 21
1.0
 12
20.76548183802515
 22
16.95213627815246
 13
0.0
 23
0.0
 14
0.5
 24
0.5
 15
0.5
 25
0.5
 16
0.7188730927569435
 26
-0.5850486126764432
 36
0.3754192287502549
 17
0.0
 27
0.0
 37
0.0
 40
31.65737478222011
 41
0.5609042720000199
 42
50.0
 43
48.53532703669039
 44
-48.53532703669039
 50
0.0
 51
0.0
 71
     0
 72
   100
 73
     1
 74
     3
 75
     0
 76
     0
 77
     0
 78
     0
281
     0
 65
     1
110
0.0
120
0.0
130
0.0
111
1.0
121
0.0
131
0.0
112
0.0
122
1.0
132
0.0
 79
     0
146
0.0
  0
VPORT
  5
585
330
8
100
AcDbSymbolTableRecord
100
AcDbViewportTableRecord
  2
L6
 70
     0
 10
0.0
 20
0.0
 11
0.3333333333333334
 21
0.5
 12
0.0
 22
0.0
 13
0.0
 23
0.0
 14
0.5
 24
0.5
 15
0.5
 25
0.5
 16
-1.0
 26
0.0
 36
0.0
 17
0.0
 27
0.0
 37
0.0
 40
30.49981439122291
 41
0.5821922890377627
 42
50.0
 43
15.40346591533207
 44
-15.40346591533207
 50
0.0
 51
0.0
 71
     0
 72
   100
 73
     1
 74
     3
 75
     0
 76
     0
 77
     0
 78
     0
281
     0
 65
     1
110
0.0
120
0.0
130
0.0
111
1.0
121
0.0
131
0.0
112
0.0
122
1.0
132
0.0
 79
     0
146
0.0
  0
VPORT
  5
586
330
8
100
AcDbSymbolTableRecord
100
AcDbViewportTableRecord
  2
L6
 70
     0
 10
0.3333333333333334
 20
0.5
 11
0.6666666666666666
 21
1.0
 12
0.0
 22
0.0
 13
0.0
 23
0.0
 14
0.5
 24
0.5
 15
0.5
 25
0.5
 16
0.0
 26
0.0
 36
1.0
 17
0.0
 27
0.0
 37
0.0
 40
4.339167076771653
 41
4.092203974054856
 42
50.0
 43
15.24990719561145
 44
-15.24990719561145
 50
0.0
 51
0.0
 71
     0
 72
   100
 73
     1
 74
     3
 75
     0
 76
     0
 77
     0
 78
     0
281
     0
 65
     1
110
0.0
120
0.0
130
0.0
111
1.0
121
0.0
131
0.0
112
0.0
122
1.0
132
0.0
 79
     0
146
0.0
  0
VPORT
  5
587
330
8
100
AcDbSymbolTableRecord
100
AcDbViewportTableRecord
  2
L6
 70
     0
 10
0.3333333333333334
 20
0.0
 11
0.6666666666666666
 21
0.5
 12
0.0
 22
0.0
 13
0.0
 23
0.0
 14
0.5
 24
0.5
 15
0.5
 25
0.5
 16
0.0
 26
-1.0
 36
0.0
 17
0.0
 27
0.0
 37
0.0
 40
30.49981439122291
 41
0.5821922890377627
 42
50.0
 43
15.77927271104933
 44
-15.77927271104933
 50
0.0
 51
0.0
 71
     0
 72
   100
 73
     1
 74
     3
 75
     0
 76
     0
 77
     0
 78
     0
281
     0
 65
     1
110
0.0
120
0.0
130
0.0
111
1.0
121
0.0
131
0.0
112
0.0
122
1.0
132
0.0
 79
     0
146
0.0
  0
VPORT
  5
588
330
8
100
AcDbSymbolTableRecord
100
AcDbViewportTableRecord
  2
L6
 70
     0
 10
0.6666666666666666
 20
0.5
 11
1.0
 21
1.0
 12
0.0
 22
0.0
 13
0.0
 23
0.0
 14
0.5
 24
0.5
 15
0.5
 25
0.5
 16
0.5773502691896259
 26
-0.5773502691896259
 36
0.5773502691896259
 17
0.0
 27
0.0
 37
0.0
 40
29.98360848273399
 41
0.5922154688578648
 42
50.0
 43
15.62413760059691
 44
-15.62413760059691
 50
0.0
 51
0.0
 71
     0
 72
   100
 73
     1
 74
     3
 75
     0
 76
     0
 77
     0
 78
     0
281
     0
 65
     1
110
0.0
120
0.0
130
0.0
111
1.0
121
0.0
131
0.0
112
0.0
122
1.0
132
0.0
 79
     0
146
0.0
  0
VPORT
  5
589
330
8
100
AcDbSymbolTableRecord
100
AcDbViewportTableRecord
  2
L6
 70
     0
 10
0.6666666666666666
 20
0.0
 11
1.0
 21
0.5
 12
0.0
 22
0.0
 13
0.0
 23
0.0
 14
0.5
 24
0.5
 15
0.5
 25
0.5
 16
1.0
 26
0.0
 36
0.0
 17
0.0
 27
0.0
 37
0.0
 40
30.49981439122291
 41
0.5821922890377627
 42
50.0
 43
15.40346591533207
 44
-15.40346591533207
 50
0.0
 51
0.0
 71
     0
 72
   100
 73
     1
 74
     3
 75
     0
 76
     0
 77
     0
 78
     0
281
     0
 65
     1
110
0.0
120
0.0
130
0.0
111
1.0
121
0.0
131
0.0
112
0.0
122
1.0
132
0.0
 79
     0
146
0.0
  0
ENDTAB
  0
TABLE
  2
LTYPE
  5
5
330
0
100
AcDbSymbolTable
 70
     7
  0
LTYPE
  5
14
330
5
100
AcDbSymbolTableRecord
100
AcDbLinetypeTableRecord
  2
BYBLOCK
 70
     0
  3

 72
    65
 73
     0
 40
0.0
  0
LTYPE
  5
15
330
5
100
AcDbSymbolTableRecord
100
AcDbLinetypeTableRecord
  2
BYLAYER
 70
     0
  3

 72
    65
 73
     0
 40
0.0
  0
LTYPE
  5
16
330
5
100
AcDbSymbolTableRecord
100
AcDbLinetypeTableRecord
  2
CONTINUOUS
 70
     0
  3
Solid line
 72
    65
 73
     0
 40
0.0
  0
LTYPE
  5
3F
330
5
100
AcDbSymbolTableRecord
100
AcDbLinetypeTableRecord
  2
DASHED
 70
     0
  3
__ __ __ __ __ __ __ __ __
 72
    65
 73
     2
 40
25.72
 49
12.86
 74
     4
 75
     0
340
0
 46
0.0
 50
0.0
 44
0.0
 45
0.0
 49
-12.86
 74
     4
 75
     0
340
0
 46
0.0
 50
0.0
 44
0.0
 45
0.0
  0
LTYPE
  5
40
330
5
100
AcDbSymbolTableRecord
100
AcDbLinetypeTableRecord
  2
HIDDEN
 70
     0
  3
_ _ _ _ _ _ _ _ _ _ _ _ _ _ _
 72
    65
 73
     2
 40
0.5
 49
0.25
 74
     4
 75
     0
340
0
 46
0.0
 50
0.0
 44
0.0
 45
0.0
 49
-0.25
 74
     4
 75
     0
340
0
 46
0.0
 50
0.0
 44
0.0
 45
0.0
  0
LTYPE
  5
41
330
5
100
AcDbSymbolTableRecord
100
AcDbLinetypeTableRecord
  2
PHANTOM
 70
     0
  3
____ _ _ ____ _ _ _____ _ _ ____
 72
    65
 73
     6
 40
50.5
 49
18.0
 74
     4
 75
     0
340
0
 46
0.0
 50
0.0
 44
0.0
 45
0.0
 49
-6.5
 74
     4
 75
     0
340
0
 46
0.0
 50
0.0
 44
0.0
 45
0.0
 49
6.5
 74
     4
 75
     0
340
0
 46
0.0
 50
0.0
 44
0.0
 45
0.0
 49
-6.5
 74
     4
 75
     0
340
0
 46
0.0
 50
0.0
 44
0.0
 45
0.0
 49
6.5
 74
     4
 75
     0
340
0
 46
0.0
 50
0.0
 44
0.0
 45
0.0
 49
-6.5
 74
     4
 75
     0
340
0
 46
0.0
 50
0.0
 44
0.0
 45
0.0
  0
LTYPE
  5
42
330
5
100
AcDbSymbolTableRecord
100
AcDbLinetypeTableRecord
  2
CENTER
 70
     0
  3
____ _ ____ _ ____ _ ____
 72
    65
 73
     4
 40
47.4
 49
22.0
 74
     4
 75
     0
340
0
 46
0.0
 50
0.0
 44
0.0
 45
0.0
 49
-8.5
 74
     4
 75
     0
340
0
 46
0.0
 50
0.0
 44
0.0
 45
0.0
 49
8.5
 74
     4
 75
     0
340
0
 46
0.0
 50
0.0
 44
0.0
 45
0.0
 49
-8.5
 74
     4
 75
     0
340
0
 46
0.0
 50
0.0
 44
0.0
 45
0.0
  0
LTYPE
  5
43
330
5
100
AcDbSymbolTableRecord
100
AcDbLinetypeTableRecord
  2
DOT
 70
     0
  3
.........................
 72
    65
 73
     2
 40
10.0
 49
0.0
 74
     4
 75
     0
340
0
 46
0.0
 50
0.0
 44
0.0
 45
0.0
 49
-10.0
 74
     4
 75
     0
340
0
 46
0.0
 50
0.0
 44
0.0
 45
0.0
  0
LTYPE
  5
44
330
5
100
AcDbSymbolTableRecord
100
AcDbLinetypeTableRecord
  2
DASHDOT
 70
     0
  3
_._._._._._._._._._._._._._._._.
 72
    65
 73
     4
 40
70.0
 49
31.0
 74
     4
 75
     0
340
0
 46
0.0
 50
0.0
 44
0.0
 45
0.0
 49
-13.0
 74
     4
 75
     0
340
0
 46
0.0
 50
0.0
 44
0.0
 45
0.0
 49
13.0
 74
     4
 75
     0
340
0
 46
0.0
 50
0.0
 44
0.0
 45
0.0
 49
-13.0
 74
     4
 75
     0
340
0
 46
0.0
 50
0.0
 44
0.0
 45
0.0
  0
ENDTAB
  0
TABLE
  2
LAYER
  5
2
330
0
100
AcDbSymbolTable
 70
     2
  0
LAYER
  5
10
102
{ACAD_XDICTIONARY
360
5D6
102
}
330
2
100
AcDbSymbolTableRecord
100
AcDbLayerTableRecord
  2
0
 70
     0
 62
     7
  6
CONTINUOUS
370
    -3
390
F
  0
LAYER
  5
46
102
{ACAD_XDICTIONARY
360
5D8
102
}
330
2
100
AcDbSymbolTableRecord
100
AcDbLayerTableRecord
  2
TFR-TRI
 70
     0
 62
     7
  6
CONTINUOUS
370
    -3
390
F
  0
ENDTAB
  0
TABLE
  2
STYLE
  5
3
330
0
100
AcDbSymbolTable
 70
     1
  0
STYLE
  5
11
330
3
100
AcDbSymbolTableRecord
100
AcDbTextStyleTableRecord
  2
Standard
 70
     0
 40
0.0
 41
1.0
 50
0.0
 71
     0
 42
0.2
  3
txt
  4

  0
ENDTAB
  0
TABLE
  2
VIEW
  5
6
330
0
100
AcDbSymbolTable
 70
     0
  0
ENDTAB
  0
TABLE
  2
UCS
  5
7
330
0
100
AcDbSymbolTable
 70
     0
  0
ENDTAB
  0
TABLE
  2
APPID
  5
9
330
0
100
AcDbSymbolTable
 70
     3
  0
APPID
  5
12
330
9
100
AcDbSymbolTableRecord
100
AcDbRegAppTableRecord
  2
ACAD
 70
     0
  0
APPID
  5
5DA
330
9
100
AcDbSymbolTableRecord
100
AcDbRegAppTableRecord
  2
ACAD_NAV_VCDISPLAY
 70
     0
  0
APPID
  5
6DF
330
9
100
AcDbSymbolTableRecord
100
AcDbRegAppTableRecord
  2
ACAD_MLEADERVER
 70
     0
  0
ENDTAB
  0
TABLE
  2
DIMSTYLE
  5
A
330
0
100
AcDbSymbolTable
 70
     1
100
AcDbDimStyleTable
 71
     0
  0
DIMSTYLE
105
27
330
A
100
AcDbSymbolTableRecord
100
AcDbDimStyleTableRecord
  2
Standard
 70
     0
340
11
  0
ENDTAB
  0
TABLE
  2
BLOCK_RECORD
  5
1
330
0
100
AcDbSymbolTable
 70
     1
  0
BLOCK_RECORD
  5
1F
330
1
100
AcDbSymbolTableRecord
100
AcDbBlockTableRecord
  2
*Model_Space
340
22
  0
BLOCK_RECORD
  5
1B
330
1
100
AcDbSymbolTableRecord
100
AcDbBlockTableRecord
  2
*Paper_Space
340
1E
  0
BLOCK_RECORD
  5
23
330
1
100
AcDbSymbolTableRecord
100
AcDbBlockTableRecord
  2
*Paper_Space0
340
26
  0
ENDTAB
  0
ENDSEC
  0
SECTION
  2
BLOCKS
  0
BLOCK
  5
20
330
1F
100
AcDbEntity
  8
0
100
AcDbBlockBegin
  2
*Model_Space
 70
     0
 10
0.0
 20
0.0
 30
0.0
  3
*Model_Space
  1

  0
ENDBLK
  5
21
330
1F
100
AcDbEntity
  8
0
100
AcDbBlockEnd
  0
BLOCK
  5
1C
330
1B
100
AcDbEntity
 67
     1
  8
0
100
AcDbBlockBegin
  2
*Paper_Space
 70
     0
 10
0.0
 20
0.0
 30
0.0
  3
*Paper_Space
  1

  0
ENDBLK
  5
1D
330
1B
100
AcDbEntity
 67
     1
  8
0
100
AcDbBlockEnd
  0
BLOCK
  5
24
330
23
100
AcDbEntity
 67
     1
  8
0
100
AcDbBlockBegin
  2
*Paper_Space0
 70
     0
 10
0.0
 20
0.0
 30
0.0
  3
*Paper_Space0
  1

  0
ENDBLK
  5
25
330
23
100
AcDbEntity
 67
     1
  8
0
100
AcDbBlockEnd
  0
ENDSEC
  0
SECTION
  2
ENTITIES
  0
LINE
  5
45
330
1F
100
AcDbEntity
  8
TFR-TRI
  6
Continuous
 62
     3
100
AcDbLine
 10
-95.64400482177735
 20
18.9722318649292
 30
0.0
 11
-95.64400482177735
 21
18.95723247528076
 31
0.0
  0
LINE
  5
47
330
1F
100
AcDbEntity
  8
TFR-TRI
  6
Continuous
 62
     3
100
AcDbLine
 10
-95.64400482177735
 20
18.89373302459716
 30
0.0
 11
-95.64400482177735
 21
18.72273540496826
 31
0.0
  0
LINE
  5
48
330
1F
100
AcDbEntity
  8
TFR-TRI
  6
Continuous
 62
     3
100
AcDbLine
 10
-95.51900482177734
 20
18.72273540496826
 30
0.0
 11
-95.51900482177734
 21
18.89373302459716
 31
0.0
  0
LINE
  5
49
330
1F
100
AcDbEntity
  8
TFR-TRI
  6
Continuous
 62
     3
100
AcDbLine
 10
-95.51900482177734
 20
18.95723247528076
 30
0.0
 11
-95.51900482177734
 21
18.9722318649292
 31
0.0
  0
LINE
  5
4A
330
1F
100
AcDbEntity
  8
TFR-TRI
  6
Continuous
 62
     3
100
AcDbLine
 10
-95.51900482177734
 20
77.56032085418701
 30
0.0
 11
-95.51900482177734
 21
77.57532024383545
 31
0.0
  0
LINE
  5
4B
330
1F
100
AcDbEntity
  8
TFR-TRI
  6
Continuous
 62
     3
100
AcDbLine
 10
-95.51900482177734
 20
77.63882732391357
 30
0.0
 11
-95.51900482177734
 21
77.80981731414795
 31
0.0
  0
LINE
  5
4C
330
1F
100
AcDbEntity
  8
TFR-TRI
  6
Continuous
 62
     3
100
AcDbLine
 10
-95.64400482177735
 20
77.80981731414795
 30
0.0
 11
-95.64400482177735
 21
77.63882732391357
 31
0.0
  0
LINE
  5
4D
330
1F
100
AcDbEntity
  8
TFR-TRI
  6
Continuous
 62
     3
100
AcDbLine
 10
-95.64400482177735
 20
77.57532024383545
 30
0.0
 11
-95.64400482177735
 21
77.56032085418701
 31
0.0
  0
LINE
  5
4E
330
1F
100
AcDbEntity
  8
TFR-TRI
  6
Continuous
 62
     3
100
AcDbLine
 10
-95.51900482177734
 20
12.81032085418701
 30
0.0
 11
-95.51900482177734
 21
12.82532024383545
 31
0.0
  0
LINE
  5
4F
330
1F
100
AcDbEntity
  8
TFR-TRI
  6
Continuous
 62
     3
100
AcDbLine
 10
-95.51900482177734
 20
12.88881969451904
 30
0.0
 11
-95.51900482177734
 21
13.05981731414795
 31
0.0
  0
LINE
  5
50
330
1F
100
AcDbEntity
  8
TFR-TRI
  6
Continuous
 62
     3
100
AcDbLine
 10
-95.64400482177735
 20
13.05981731414795
 30
0.0
 11
-95.64400482177735
 21
12.88881969451904
 31
0.0
  0
LINE
  5
51
330
1F
100
AcDbEntity
  8
TFR-TRI
  6
Continuous
 62
     3
100
AcDbLine
 10
-95.64400482177735
 20
12.82532024383545
 30
0.0
 11
-95.64400482177735
 21
12.81032085418701
 31
0.0
  0
LINE
  5
52
330
1F
100
AcDbEntity
  8
TFR-TRI
  6
Continuous
 62
     3
100
AcDbLine
 10
-96.46387481689453
 20
77.56032085418701
 30
0.0
 11
-96.46387481689453
 21
77.57532024383545
 31
0.0
  0
LINE
  5
53
330
1F
100
AcDbEntity
  8
TFR-TRI
  6
Continuous
 62
     3
100
AcDbLine
 10
-96.46387481689453
 20
77.63882732391357
 30
0.0
 11
-96.46387481689453
 21
77.80981731414795
 31
0.0
  0
LINE
  5
54
330
1F
100
AcDbEntity
  8
TFR-TRI
  6
Continuous
 62
     3
100
AcDbLine
 10
-96.58887481689454
 20
77.80981731414795
 30
0.0
 11
-96.58887481689454
 21
77.63882732391357
 31
0.0
  0
LINE
  5
55
330
1F
100
AcDbEntity
  8
TFR-TRI
  6
Continuous
 62
     3
100
AcDbLine
 10
-96.58887481689454
 20
77.57532024383545
 30
0.0
 11
-96.58887481689454
 21
77.56032085418701
 31
0.0
  0
LINE
  5
56
330
1F
100
AcDbEntity
  8
TFR-TRI
  6
Continuous
 62
     3
100
AcDbLine
 10
-96.58887481689454
 20
18.9722318649292
 30
0.0
 11
-96.58887481689454
 21
18.95723247528076
 31
0.0
  0
LINE
  5
57
330
1F
100
AcDbEntity
  8
TFR-TRI
  6
Continuous
 62
     3
100
AcDbLine
 10
-96.58887481689454
 20
18.89373302459716
 30
0.0
 11
-96.58887481689454
 21
18.72273540496826
 31
0.0
  0
LINE
  5
58
330
1F
100
AcDbEntity
  8
TFR-TRI
  6
Continuous
 62
     3
100
AcDbLine
 10
-96.46387481689453
 20
18.72273540496826
 30
0.0
 11
-96.46387481689453
 21
18.89373302459716
 31
0.0
  0
LINE
  5
59
330
1F
100
AcDbEntity
  8
TFR-TRI
  6
Continuous
 62
     3
100
AcDbLine
 10
-96.46387481689453
 20
18.95723247528076
 30
0.0
 11
-96.46387481689453
 21
18.9722318649292
 31
0.0
  0
LINE
  5
5A
330
1F
100
AcDbEntity
  8
TFR-TRI
  6
Continuous
 62
     3
100
AcDbLine
 10
-96.46387481689453
 20
12.81032085418701
 30
0.0
 11
-96.46387481689453
 21
12.82532024383545
 31
0.0
  0
LINE
  5
5B
330
1F
100
AcDbEntity
  8
TFR-TRI
  6
Continuous
 62
     3
100
AcDbLine
 10
-96.46387481689453
 20
12.88881969451904
 30
0.0
 11
-96.46387481689453
 21
13.05981731414795
 31
0.0
  0
LINE
  5
5C
330
1F
100
AcDbEntity
  8
TFR-TRI
  6
Continuous
 62
     3
100
AcDbLine
 10
-96.58887481689454
 20
13.05981731414795
 30
0.0
 11
-96.58887481689454
 21
12.88881969451904
 31
0.0
  0
LINE
  5
5D
330
1F
100
AcDbEntity
  8
TFR-TRI
  6
Continuous
 62
     3
100
AcDbLine
 10
-96.58887481689454
 20
12.82532024383545
 30
0.0
 11
-96.58887481689454
 21
12.81032085418701
 31
0.0
  0
LINE
  5
5E
330
1F
100
AcDbEntity
  8
TFR-TRI
  6
Continuous
 62
     3
100
AcDbLine
 10
-96.58887481689454
 20
83.7222318649292
 30
0.0
 11
-96.58887481689454
 21
83.70723247528076
 31
0.0
  0
LINE
  5
5F
330
1F
100
AcDbEntity
  8
TFR-TRI
  6
Continuous
 62
     3
100
AcDbLine
 10
-96.58887481689454
 20
83.64372539520264
 30
0.0
 11
-96.58887481689454
 21
83.47273540496827
 31
0.0
  0
LINE
  5
60
330
1F
100
AcDbEntity
  8
TFR-TRI
  6
Continuous
 62
     3
100
AcDbLine
 10
-96.46387481689453
 20
83.47273540496827
 30
0.0
 11
-96.46387481689453
 21
83.64372539520264
 31
0.0
  0
LINE
  5
61
330
1F
100
AcDbEntity
  8
TFR-TRI
  6
Continuous
 62
     3
100
AcDbLine
 10
-96.46387481689453
 20
83.70723247528076
 30
0.0
 11
-96.46387481689453
 21
83.7222318649292
 31
0.0
  0
LINE
  5
62
330
1F
100
AcDbEntity
  8
TFR-TRI
  6
Continuous
 62
     3
100
AcDbLine
 10
-95.64400482177735
 20
83.7222318649292
 30
0.0
 11
-95.64400482177735
 21
83.70723247528076
 31
0.0
  0
LINE
  5
63
330
1F
100
AcDbEntity
  8
TFR-TRI
  6
Continuous
 62
     3
100
AcDbLine
 10
-95.64400482177735
 20
83.64372539520264
 30
0.0
 11
-95.64400482177735
 21
83.47273540496827
 31
0.0
  0
LINE
  5
64
330
1F
100
AcDbEntity
  8
TFR-TRI
  6
Continuous
 62
     3
100
AcDbLine
 10
-95.51900482177734
 20
83.47273540496827
 30
0.0
 11
-95.51900482177734
 21
83.64372539520264
 31
0.0
  0
LINE
  5
65
330
1F
100
AcDbEntity
  8
TFR-TRI
  6
Continuous
 62
     3
100
AcDbLine
 10
-95.51900482177734
 20
83.70723247528076
 30
0.0
 11
-95.51900482177734
 21
83.7222318649292
 31
0.0
  0
LINE
  5
66
330
1F
100
AcDbEntity
  8
TFR-TRI
  6
Continuous
 62
     3
100
AcDbLine
 10
-95.58150482177735
 20
77.80981731414795
 30
0.0
 11
-95.62569427490235
 21
77.80981731414795
 31
0.0
  0
LINE
  5
67
330
1F
100
AcDbEntity
  8
TFR-TRI
  6
Continuous
 62
     3
100
AcDbLine
 10
-95.62569427490235
 20
77.80981731414795
 30
0.0
 11
-95.64400482177735
 21
77.80981731414795
 31
0.0
  0
LINE
  5
68
330
1F
100
AcDbEntity
  8
TFR-TRI
  6
Continuous
 62
     3
100
AcDbLine
 10
-95.51900482177734
 20
77.80981731414795
 30
0.0
 11
-95.53730010986328
 21
77.80981731414795
 31
0.0
  0
LINE
  5
69
330
1F
100
AcDbEntity
  8
TFR-TRI
  6
Continuous
 62
     3
100
AcDbLine
 10
-95.53730010986328
 20
77.80981731414795
 30
0.0
 11
-95.58150482177735
 21
77.80981731414795
 31
0.0
  0
LINE
  5
6A
330
1F
100
AcDbEntity
  8
TFR-TRI
  6
Continuous
 62
     3
100
AcDbLine
 10
-95.64400482177735
 20
83.47273540496827
 30
0.0
 11
-95.61275482177734
 21
83.47273540496827
 31
0.0
  0
LINE
  5
6B
330
1F
100
AcDbEntity
  8
TFR-TRI
  6
Continuous
 62
     3
100
AcDbLine
 10
-95.61275482177734
 20
83.47273540496827
 30
0.0
 11
-95.55025482177734
 21
83.47273540496827
 31
0.0
  0
LINE
  5
6C
330
1F
100
AcDbEntity
  8
TFR-TRI
  6
Continuous
 62
     3
100
AcDbLine
 10
-95.55025482177734
 20
83.47273540496827
 30
0.0
 11
-95.51900482177734
 21
83.47273540496827
 31
0.0
  0
LINE
  5
6D
330
1F
100
AcDbEntity
  8
TFR-TRI
  6
Continuous
 62
     3
100
AcDbLine
 10
-96.52637481689453
 20
77.80981731414795
 30
0.0
 11
-96.5705795288086
 21
77.80981731414795
 31
0.0
  0
LINE
  5
6E
330
1F
100
AcDbEntity
  8
TFR-TRI
  6
Continuous
 62
     3
100
AcDbLine
 10
-96.5705795288086
 20
77.80981731414795
 30
0.0
 11
-96.58887481689454
 21
77.80981731414795
 31
0.0
  0
LINE
  5
6F
330
1F
100
AcDbEntity
  8
TFR-TRI
  6
Continuous
 62
     3
100
AcDbLine
 10
-96.46387481689453
 20
77.80981731414795
 30
0.0
 11
-96.48218536376953
 21
77.80981731414795
 31
0.0
  0
LINE
  5
70
330
1F
100
AcDbEntity
  8
TFR-TRI
  6
Continuous
 62
     3
100
AcDbLine
 10
-96.48218536376953
 20
77.80981731414795
 30
0.0
 11
-96.52637481689453
 21
77.80981731414795
 31
0.0
  0
LINE
  5
71
330
1F
100
AcDbEntity
  8
TFR-TRI
  6
Continuous
 62
     3
100
AcDbLine
 10
-96.58887481689454
 20
83.47273540496827
 30
0.0
 11
-96.55762481689453
 21
83.47273540496827
 31
0.0
  0
LINE
  5
72
330
1F
100
AcDbEntity
  8
TFR-TRI
  6
Continuous
 62
     3
100
AcDbLine
 10
-96.55762481689453
 20
83.47273540496827
 30
0.0
 11
-96.49512481689454
 21
83.47273540496827
 31
0.0
  0
LINE
  5
73
330
1F
100
AcDbEntity
  8
TFR-TRI
  6
Continuous
 62
     3
100
AcDbLine
 10
-96.49512481689454
 20
83.47273540496827
 30
0.0
 11
-96.46387481689453
 21
83.47273540496827
 31
0.0
  0
LINE
  5
74
330
1F
100
AcDbEntity
  8
TFR-TRI
  6
Continuous
 62
   155
100
AcDbLine
 10
-95.41780853271484
 20
82.90127849578857
 30
0.0
 11
-95.41780853271484
 21
82.75706768035888
 31
0.0
  0
LINE
  5
75
330
1F
100
AcDbEntity
  8
TFR-TRI
  6
Continuous
 62
   155
100
AcDbLine
 10
-95.41780853271484
 20
82.02548503875732
 30
0.0
 11
-95.41780853271484
 21
81.88127422332764
 31
0.0
  0
LINE
  5
76
330
1F
100
AcDbEntity
  8
TFR-TRI
  6
Continuous
 62
   155
100
AcDbLine
 10
-95.8978042602539
 20
81.88127422332764
 30
0.0
 11
-95.8978042602539
 21
82.02548503875732
 31
0.0
  0
LINE
  5
77
330
1F
100
AcDbEntity
  8
TFR-TRI
  6
Continuous
 62
   155
100
AcDbLine
 10
-95.8978042602539
 20
82.75706768035888
 30
0.0
 11
-95.8978042602539
 21
82.90127849578857
 31
0.0
  0
LINE
  5
78
330
1F
100
AcDbEntity
  8
TFR-TRI
  6
Continuous
 62
   155
100
AcDbLine
 10
-95.41780853271484
 20
79.40127849578857
 30
0.0
 11
-95.41780853271484
 21
79.25706768035889
 31
0.0
  0
LINE
  5
79
330
1F
100
AcDbEntity
  8
TFR-TRI
  6
Continuous
 62
   155
100
AcDbLine
 10
-95.41780853271484
 20
78.52548503875732
 30
0.0
 11
-95.41780853271484
 21
78.38127422332764
 31
0.0
  0
LINE
  5
7A
330
1F
100
AcDbEntity
  8
TFR-TRI
  6
Continuous
 62
   155
100
AcDbLine
 10
-95.8978042602539
 20
78.38127422332764
 30
0.0
 11
-95.8978042602539
 21
78.52548503875732
 31
0.0
  0
LINE
  5
7B
330
1F
100
AcDbEntity
  8
TFR-TRI
  6
Continuous
 62
   155
100
AcDbLine
 10
-95.8978042602539
 20
79.25706768035889
 30
0.0
 11
-95.8978042602539
 21
79.40127849578857
 31
0.0
  0
LINE
  5
7C
330
1F
100
AcDbEntity
  8
TFR-TRI
  6
Continuous
 62
   155
100
AcDbLine
 10
-92.54280853271485
 20
80.27548503875733
 30
0.0
 11
-92.54280853271485
 21
80.13127422332763
 31
0.0
  0
LINE
  5
7D
330
1F
100
AcDbEntity
  8
TFR-TRI
  6
Continuous
 62
   155
100
AcDbLine
 10
-93.0228042602539
 20
80.13127422332763
 30
0.0
 11
-93.0228042602539
 21
80.27548503875733
 31
0.0
  0
LINE
  5
7E
330
1F
100
AcDbEntity
  8
TFR-TRI
  6
Continuous
 62
   155
100
AcDbLine
 10
-93.0228042602539
 20
81.00706768035889
 30
0.0
 11
-93.0228042602539
 21
81.15127849578858
 31
0.0
  0
LINE
  5
7F
330
1F
100
AcDbEntity
  8
TFR-TRI
  6
Continuous
 62
   155
100
AcDbLine
 10
-92.54280853271485
 20
81.15127849578858
 30
0.0
 11
-92.54280853271485
 21
81.00706768035889
 31
0.0
  0
LINE
  5
80
330
1F
100
AcDbEntity
  8
TFR-TRI
  6
Continuous
 62
   155
100
AcDbLine
 10
-93.98030853271484
 20
80.27548503875733
 30
0.0
 11
-93.98030853271484
 21
80.13127422332763
 31
0.0
  0
LINE
  5
81
330
1F
100
AcDbEntity
  8
TFR-TRI
  6
Continuous
 62
   155
100
AcDbLine
 10
-94.46030426025391
 20
80.13127422332763
 30
0.0
 11
-94.46030426025391
 21
80.27548503875733
 31
0.0
  0
LINE
  5
82
330
1F
100
AcDbEntity
  8
TFR-TRI
  6
Continuous
 62
   155
100
AcDbLine
 10
-94.46030426025391
 20
81.00706768035889
 30
0.0
 11
-94.46030426025391
 21
81.15127849578858
 31
0.0
  0
LINE
  5
83
330
1F
100
AcDbEntity
  8
TFR-TRI
  6
Continuous
 62
   155
100
AcDbLine
 10
-93.98030853271484
 20
81.15127849578858
 30
0.0
 11
-93.98030853271484
 21
81.00706768035889
 31
0.0
  0
LINE
  5
84
330
1F
100
AcDbEntity
  8
TFR-TRI
  6
Continuous
 62
   155
100
AcDbLine
 10
-97.03279876708984
 20
83.61372661590577
 30
0.0
 11
-97.03279876708984
 21
77.66882610321045
 31
0.0
  0
LINE
  5
85
330
1F
100
AcDbEntity
  8
TFR-TRI
  6
Continuous
 62
   155
100
AcDbLine
 10
-97.03279876708984
 20
77.66882610321045
 30
0.0
 11
-96.5888442993164
 21
77.66882610321045
 31
0.0
  0
LINE
  5
86
330
1F
100
AcDbEntity
  8
TFR-TRI
  6
Continuous
 62
   155
100
AcDbLine
 10
-96.46387481689453
 20
77.66882610321045
 30
0.0
 11
-95.64400482177735
 21
77.66882610321045
 31
0.0
  0
LINE
  5
87
330
1F
100
AcDbEntity
  8
TFR-TRI
  6
Continuous
 62
   155
100
AcDbLine
 10
-95.5189437866211
 20
77.66882610321045
 30
0.0
 11
-91.52098846435547
 21
77.66882610321045
 31
0.0
  0
LINE
  5
88
330
1F
100
AcDbEntity
  8
TFR-TRI
  6
Continuous
 62
   155
100
AcDbLine
 10
-91.52098846435547
 20
83.61372661590577
 30
0.0
 11
-91.52098846435547
 21
77.66882610321045
 31
0.0
  0
LINE
  5
89
330
1F
100
AcDbEntity
  8
TFR-TRI
  6
Continuous
 62
   155
100
AcDbLine
 10
-91.52098846435547
 20
83.61372661590577
 30
0.0
 11
-95.5189437866211
 21
83.61372661590577
 31
0.0
  0
LINE
  5
8A
330
1F
100
AcDbEntity
  8
TFR-TRI
  6
Continuous
 62
   155
100
AcDbLine
 10
-95.64400482177735
 20
83.61372661590577
 30
0.0
 11
-96.46387481689453
 21
83.61372661590577
 31
0.0
  0
LINE
  5
8B
330
1F
100
AcDbEntity
  8
TFR-TRI
  6
Continuous
 62
   155
100
AcDbLine
 10
-96.5888442993164
 20
83.61372661590577
 30
0.0
 11
-97.03279876708984
 21
83.61372661590577
 31
0.0
  0
LINE
  5
8C
330
1F
100
AcDbEntity
  8
TFR-TRI
  6
Continuous
 62
   155
100
AcDbLine
 10
-95.41780853271484
 20
80.27548503875733
 30
0.0
 11
-95.41780853271484
 21
80.13127422332763
 31
0.0
  0
LINE
  5
8D
330
1F
100
AcDbEntity
  8
TFR-TRI
  6
Continuous
 62
   155
100
AcDbLine
 10
-95.8978042602539
 20
80.13127422332763
 30
0.0
 11
-95.8978042602539
 21
80.27548503875733
 31
0.0
  0
LINE
  5
8E
330
1F
100
AcDbEntity
  8
TFR-TRI
  6
Continuous
 62
   155
100
AcDbLine
 10
-95.8978042602539
 20
81.00706768035889
 30
0.0
 11
-95.8978042602539
 21
81.15127849578858
 31
0.0
  0
LINE
  5
8F
330
1F
100
AcDbEntity
  8
TFR-TRI
  6
Continuous
 62
   155
100
AcDbLine
 10
-95.41780853271484
 20
81.15127849578858
 30
0.0
 11
-95.41780853271484
 21
81.00706768035889
 31
0.0
  0
LINE
  5
90
330
1F
100
AcDbEntity
  8
TFR-TRI
  6
Continuous
 62
   155
100
AcDbLine
 10
-93.16780853271485
 20
79.40127849578857
 30
0.0
 11
-93.16780853271485
 21
79.25706768035889
 31
0.0
  0
LINE
  5
91
330
1F
100
AcDbEntity
  8
TFR-TRI
  6
Continuous
 62
   155
100
AcDbLine
 10
-93.16780853271485
 20
78.52548503875732
 30
0.0
 11
-93.16780853271485
 21
78.38127422332764
 31
0.0
  0
LINE
  5
92
330
1F
100
AcDbEntity
  8
TFR-TRI
  6
Continuous
 62
   155
100
AcDbLine
 10
-93.6478042602539
 20
78.38127422332764
 30
0.0
 11
-93.6478042602539
 21
78.52548503875732
 31
0.0
  0
LINE
  5
93
330
1F
100
AcDbEntity
  8
TFR-TRI
  6
Continuous
 62
   155
100
AcDbLine
 10
-93.6478042602539
 20
79.25706768035889
 30
0.0
 11
-93.6478042602539
 21
79.40127849578857
 31
0.0
  0
LINE
  5
94
330
1F
100
AcDbEntity
  8
TFR-TRI
  6
Continuous
 62
   155
100
AcDbLine
 10
-93.16780853271485
 20
82.90127849578857
 30
0.0
 11
-93.16780853271485
 21
82.75706768035888
 31
0.0
  0
LINE
  5
95
330
1F
100
AcDbEntity
  8
TFR-TRI
  6
Continuous
 62
   155
100
AcDbLine
 10
-93.16780853271485
 20
82.02548503875732
 30
0.0
 11
-93.16780853271485
 21
81.88127422332764
 31
0.0
  0
LINE
  5
96
330
1F
100
AcDbEntity
  8
TFR-TRI
  6
Continuous
 62
   155
100
AcDbLine
 10
-93.6478042602539
 20
81.88127422332764
 30
0.0
 11
-93.6478042602539
 21
82.02548503875732
 31
0.0
  0
LINE
  5
97
330
1F
100
AcDbEntity
  8
TFR-TRI
  6
Continuous
 62
   155
100
AcDbLine
 10
-93.6478042602539
 20
82.75706768035888
 30
0.0
 11
-93.6478042602539
 21
82.90127849578857
 31
0.0
  0
LINE
  5
98
330
1F
100
AcDbEntity
  8
TFR-TRI
  6
Continuous
 62
   155
100
AcDbLine
 10
-97.74684906005859
 20
83.69223308563233
 30
0.0
 11
-97.15630340576172
 21
83.69223308563233
 31
0.0
  0
LINE
  5
99
330
1F
100
AcDbEntity
  8
TFR-TRI
  6
Continuous
 62
   155
100
AcDbLine
 10
-97.74684906005859
 20
83.69223308563233
 30
0.0
 11
-97.74684906005859
 21
77.59031963348388
 31
0.0
  0
LINE
  5
9A
330
1F
100
AcDbEntity
  8
TFR-TRI
  6
Continuous
 62
   155
100
AcDbLine
 10
-97.74684906005859
 20
77.59031963348388
 30
0.0
 11
-97.15630340576172
 21
77.59031963348388
 31
0.0
  0
LINE
  5
9B
330
1F
100
AcDbEntity
  8
TFR-TRI
  6
Continuous
 62
   155
100
AcDbLine
 10
-97.15630340576172
 20
77.66882610321045
 30
0.0
 11
-97.15630340576172
 21
77.59031963348388
 31
0.0
  0
LINE
  5
9C
330
1F
100
AcDbEntity
  8
TFR-TRI
  6
Continuous
 62
   155
100
AcDbLine
 10
-97.15630340576172
 20
83.61372661590577
 30
0.0
 11
-97.15630340576172
 21
77.66882610321045
 31
0.0
  0
LINE
  5
9D
330
1F
100
AcDbEntity
  8
TFR-TRI
  6
Continuous
 62
   155
100
AcDbLine
 10
-97.15630340576172
 20
83.61372661590577
 30
0.0
 11
-97.15630340576172
 21
83.69223308563233
 31
0.0
  0
LINE
  5
9E
330
1F
100
AcDbEntity
  8
TFR-TRI
  6
Continuous
 62
   155
100
AcDbLine
 10
-97.74684906005859
 20
77.59031963348388
 30
0.0
 11
-97.74684906005859
 21
77.56910991668701
 31
0.0
  0
LINE
  5
9F
330
1F
100
AcDbEntity
  8
TFR-TRI
  6
Continuous
 62
   155
100
AcDbLine
 10
-97.74684906005859
 20
77.56910991668701
 30
0.0
 11
-97.74684906005859
 21
77.56032085418701
 31
0.0
  0
LINE
  5
A0
330
1F
100
AcDbEntity
  8
TFR-TRI
  6
Continuous
 62
   155
100
AcDbLine
 10
-97.15630340576172
 20
77.59031963348388
 30
0.0
 11
-97.15630340576172
 21
77.56910991668701
 31
0.0
  0
LINE
  5
A1
330
1F
100
AcDbEntity
  8
TFR-TRI
  6
Continuous
 62
   155
100
AcDbLine
 10
-97.15630340576172
 20
77.56910991668701
 30
0.0
 11
-97.15630340576172
 21
77.56032085418701
 31
0.0
  0
LINE
  5
A2
330
1F
100
AcDbEntity
  8
TFR-TRI
  6
Continuous
 62
   155
100
AcDbLine
 10
-95.18779754638671
 20
77.49681377410889
 30
0.0
 11
-95.26653289794921
 21
77.49681377410889
 31
0.0
  0
LINE
  5
A3
330
1F
100
AcDbEntity
  8
TFR-TRI
  6
Continuous
 62
   155
100
AcDbLine
 10
-95.26653289794921
 20
77.49681377410889
 30
0.0
 11
-96.88071441650391
 21
77.49681377410889
 31
0.0
  0
LINE
  5
A4
330
1F
100
AcDbEntity
  8
TFR-TRI
  6
Continuous
 62
   155
100
AcDbLine
 10
-96.88071441650391
 20
77.49681377410889
 30
0.0
 11
-97.35184478759766
 21
77.49681377410889
 31
0.0
  0
LINE
  5
A5
330
1F
100
AcDbEntity
  8
TFR-TRI
  6
Continuous
 62
   155
100
AcDbLine
 10
-97.35184478759766
 20
77.49681377410889
 30
0.0
 11
-97.58937835693359
 21
77.49681377410889
 31
0.0
  0
LINE
  5
A6
330
1F
100
AcDbEntity
  8
TFR-TRI
  6
Continuous
 62
   155
100
AcDbLine
 10
-97.58937835693359
 20
77.49681377410889
 30
0.0
 11
-97.74684906005859
 21
77.49681377410889
 31
0.0
  0
LINE
  5
A7
330
1F
100
AcDbEntity
  8
TFR-TRI
  6
Continuous
 62
   155
100
AcDbLine
 10
-96.88071441650391
 20
77.56032085418701
 30
0.0
 11
-95.26653289794921
 21
77.56032085418701
 31
0.0
  0
LINE
  5
A8
330
1F
100
AcDbEntity
  8
TFR-TRI
  6
Continuous
 62
   155
100
AcDbLine
 10
-95.26653289794921
 20
77.56032085418701
 30
0.0
 11
-95.18779754638671
 21
77.56032085418701
 31
0.0
  0
LINE
  5
A9
330
1F
100
AcDbEntity
  8
TFR-TRI
  6
Continuous
 62
   155
100
AcDbLine
 10
-97.74684906005859
 20
77.56032085418701
 30
0.0
 11
-97.58937835693359
 21
77.56032085418701
 31
0.0
  0
LINE
  5
AA
330
1F
100
AcDbEntity
  8
TFR-TRI
  6
Continuous
 62
   155
100
AcDbLine
 10
-97.35184478759766
 20
77.56032085418701
 30
0.0
 11
-97.58937835693359
 21
77.56032085418701
 31
0.0
  0
LINE
  5
AB
330
1F
100
AcDbEntity
  8
TFR-TRI
  6
Continuous
 62
   155
100
AcDbLine
 10
-96.88071441650391
 20
77.56032085418701
 30
0.0
 11
-97.35184478759766
 21
77.56032085418701
 31
0.0
  0
LINE
  5
AC
330
1F
100
AcDbEntity
  8
TFR-TRI
  6
Continuous
 62
   155
100
AcDbLine
 10
-95.26653289794921
 20
77.49681377410889
 30
0.0
 11
-95.26653289794921
 21
77.56032085418701
 31
0.0
  0
LINE
  5
AD
330
1F
100
AcDbEntity
  8
TFR-TRI
  6
Continuous
 62
   155
100
AcDbLine
 10
-96.88071441650391
 20
77.56032085418701
 30
0.0
 11
-96.88071441650391
 21
77.49681377410889
 31
0.0
  0
LINE
  5
AE
330
1F
100
AcDbEntity
  8
TFR-TRI
  6
Continuous
 62
   155
100
AcDbLine
 10
-97.74684906005859
 20
83.69223308563233
 30
0.0
 11
-97.74684906005859
 21
83.7134428024292
 31
0.0
  0
LINE
  5
AF
330
1F
100
AcDbEntity
  8
TFR-TRI
  6
Continuous
 62
   155
100
AcDbLine
 10
-97.74684906005859
 20
83.7134428024292
 30
0.0
 11
-97.74684906005859
 21
83.7222318649292
 31
0.0
  0
LINE
  5
B0
330
1F
100
AcDbEntity
  8
TFR-TRI
  6
Continuous
 62
   155
100
AcDbLine
 10
-97.15630340576172
 20
83.69223308563233
 30
0.0
 11
-97.15630340576172
 21
83.7134428024292
 31
0.0
  0
LINE
  5
B1
330
1F
100
AcDbEntity
  8
TFR-TRI
  6
Continuous
 62
   155
100
AcDbLine
 10
-97.15630340576172
 20
83.7134428024292
 30
0.0
 11
-97.15630340576172
 21
83.7222318649292
 31
0.0
  0
LINE
  5
B2
330
1F
100
AcDbEntity
  8
TFR-TRI
  6
Continuous
 62
   155
100
AcDbLine
 10
-97.74684906005859
 20
83.78573894500732
 30
0.0
 11
-97.58937835693359
 21
83.78573894500732
 31
0.0
  0
LINE
  5
B3
330
1F
100
AcDbEntity
  8
TFR-TRI
  6
Continuous
 62
   155
100
AcDbLine
 10
-97.35184478759766
 20
83.78573894500732
 30
0.0
 11
-97.58937835693359
 21
83.78573894500732
 31
0.0
  0
LINE
  5
B4
330
1F
100
AcDbEntity
  8
TFR-TRI
  6
Continuous
 62
   155
100
AcDbLine
 10
-96.88071441650391
 20
83.78573894500732
 30
0.0
 11
-97.35184478759766
 21
83.78573894500732
 31
0.0
  0
LINE
  5
B5
330
1F
100
AcDbEntity
  8
TFR-TRI
  6
Continuous
 62
   155
100
AcDbLine
 10
-96.88071441650391
 20
83.78573894500732
 30
0.0
 11
-95.26653289794921
 21
83.78573894500732
 31
0.0
  0
LINE
  5
B6
330
1F
100
AcDbEntity
  8
TFR-TRI
  6
Continuous
 62
   155
100
AcDbLine
 10
-95.26653289794921
 20
83.78573894500732
 30
0.0
 11
-95.18779754638671
 21
83.78573894500732
 31
0.0
  0
LINE
  5
B7
330
1F
100
AcDbEntity
  8
TFR-TRI
  6
Continuous
 62
   155
100
AcDbLine
 10
-95.18779754638671
 20
83.7222318649292
 30
0.0
 11
-95.26653289794921
 21
83.7222318649292
 31
0.0
  0
LINE
  5
B8
330
1F
100
AcDbEntity
  8
TFR-TRI
  6
Continuous
 62
   155
100
AcDbLine
 10
-95.26653289794921
 20
83.7222318649292
 30
0.0
 11
-96.88071441650391
 21
83.7222318649292
 31
0.0
  0
LINE
  5
B9
330
1F
100
AcDbEntity
  8
TFR-TRI
  6
Continuous
 62
   155
100
AcDbLine
 10
-97.35184478759766
 20
83.7222318649292
 30
0.0
 11
-96.88071441650391
 21
83.7222318649292
 31
0.0
  0
LINE
  5
BA
330
1F
100
AcDbEntity
  8
TFR-TRI
  6
Continuous
 62
   155
100
AcDbLine
 10
-97.58937835693359
 20
83.7222318649292
 30
0.0
 11
-97.35184478759766
 21
83.7222318649292
 31
0.0
  0
LINE
  5
BB
330
1F
100
AcDbEntity
  8
TFR-TRI
  6
Continuous
 62
   155
100
AcDbLine
 10
-97.58937835693359
 20
83.7222318649292
 30
0.0
 11
-97.74684906005859
 21
83.7222318649292
 31
0.0
  0
LINE
  5
BC
330
1F
100
AcDbEntity
  8
TFR-TRI
  6
Continuous
 62
   155
100
AcDbLine
 10
-95.26653289794921
 20
83.7222318649292
 30
0.0
 11
-95.26653289794921
 21
83.78573894500732
 31
0.0
  0
LINE
  5
BD
330
1F
100
AcDbEntity
  8
TFR-TRI
  6
Continuous
 62
   155
100
AcDbLine
 10
-96.88071441650391
 20
83.7222318649292
 30
0.0
 11
-96.88071441650391
 21
83.78573894500732
 31
0.0
  0
LINE
  5
BE
330
1F
100
AcDbEntity
  8
TFR-TRI
  6
Continuous
 62
   155
100
AcDbLine
 10
-97.03279876708984
 20
83.61372661590577
 30
0.0
 11
-97.09891510009766
 21
83.61372661590577
 31
0.0
  0
LINE
  5
BF
330
1F
100
AcDbEntity
  8
TFR-TRI
  6
Continuous
 62
   155
100
AcDbLine
 10
-97.09891510009766
 20
83.61372661590577
 30
0.0
 11
-97.12630462646485
 21
83.61372661590577
 31
0.0
  0
LINE
  5
C0
330
1F
100
AcDbEntity
  8
TFR-TRI
  6
Continuous
 62
   155
100
AcDbLine
 10
-97.03279876708984
 20
77.66882610321045
 30
0.0
 11
-97.09891510009766
 21
77.66882610321045
 31
0.0
  0
LINE
  5
C1
330
1F
100
AcDbEntity
  8
TFR-TRI
  6
Continuous
 62
   155
100
AcDbLine
 10
-97.09891510009766
 20
77.66882610321045
 30
0.0
 11
-97.12630462646485
 21
77.66882610321045
 31
0.0
  0
LINE
  5
C2
330
1F
100
AcDbEntity
  8
TFR-TRI
  6
Continuous
 62
   155
100
AcDbLine
 10
-97.12630462646485
 20
83.61372661590577
 30
0.0
 11
-97.12630462646485
 21
77.66882610321045
 31
0.0
  0
LINE
  5
C3
330
1F
100
AcDbEntity
  8
TFR-TRI
  6
Continuous
 62
   155
100
AcDbLine
 10
-97.12630462646485
 20
77.66882610321045
 30
0.0
 11
-97.13509368896485
 21
77.66882610321045
 31
0.0
  0
LINE
  5
C4
330
1F
100
AcDbEntity
  8
TFR-TRI
  6
Continuous
 62
   155
100
AcDbLine
 10
-97.13509368896485
 20
77.66882610321045
 30
0.0
 11
-97.15630340576172
 21
77.66882610321045
 31
0.0
  0
LINE
  5
C5
330
1F
100
AcDbEntity
  8
TFR-TRI
  6
Continuous
 62
   155
100
AcDbLine
 10
-97.12630462646485
 20
83.61372661590577
 30
0.0
 11
-97.13509368896485
 21
83.61372661590577
 31
0.0
  0
LINE
  5
C6
330
1F
100
AcDbEntity
  8
TFR-TRI
  6
Continuous
 62
   155
100
AcDbLine
 10
-97.13509368896485
 20
83.61372661590577
 30
0.0
 11
-97.15630340576172
 21
83.61372661590577
 31
0.0
  0
LINE
  5
C7
330
1F
100
AcDbEntity
  8
TFR-TRI
  6
Continuous
 62
   155
100
AcDbLine
 10
-91.52098846435547
 20
83.61372661590577
 30
0.0
 11
-91.4997787475586
 21
83.61372661590577
 31
0.0
  0
LINE
  5
C8
330
1F
100
AcDbEntity
  8
TFR-TRI
  6
Continuous
 62
   155
100
AcDbLine
 10
-91.4997787475586
 20
83.61372661590577
 30
0.0
 11
-91.49098968505859
 21
83.61372661590577
 31
0.0
  0
LINE
  5
C9
330
1F
100
AcDbEntity
  8
TFR-TRI
  6
Continuous
 62
   155
100
AcDbLine
 10
-91.52098846435547
 20
77.66882610321045
 30
0.0
 11
-91.4997787475586
 21
77.66882610321045
 31
0.0
  0
LINE
  5
CA
330
1F
100
AcDbEntity
  8
TFR-TRI
  6
Continuous
 62
   155
100
AcDbLine
 10
-91.4997787475586
 20
77.66882610321045
 30
0.0
 11
-91.49098968505859
 21
77.66882610321045
 31
0.0
  0
LINE
  5
CB
330
1F
100
AcDbEntity
  8
TFR-TRI
  6
Continuous
 62
   155
100
AcDbLine
 10
-91.49098968505859
 20
83.61372661590577
 30
0.0
 11
-91.42749786376953
 21
83.61372661590577
 31
0.0
  0
LINE
  5
CC
330
1F
100
AcDbEntity
  8
TFR-TRI
  6
Continuous
 62
   155
100
AcDbLine
 10
-91.42749786376953
 20
77.66882610321045
 30
0.0
 11
-91.49098968505859
 21
77.66882610321045
 31
0.0
  0
LINE
  5
CD
330
1F
100
AcDbEntity
  8
TFR-TRI
  6
Continuous
 62
   155
100
AcDbLine
 10
-91.42749786376953
 20
83.61372661590577
 30
0.0
 11
-91.42749786376953
 21
83.53499126434327
 31
0.0
  0
LINE
  5
CE
330
1F
100
AcDbEntity
  8
TFR-TRI
  6
Continuous
 62
   155
100
AcDbLine
 10
-91.42749786376953
 20
83.53499126434327
 30
0.0
 11
-91.42749786376953
 21
77.74756145477295
 31
0.0
  0
LINE
  5
CF
330
1F
100
AcDbEntity
  8
TFR-TRI
  6
Continuous
 62
   155
100
AcDbLine
 10
-91.42749786376953
 20
77.74756145477295
 30
0.0
 11
-91.42749786376953
 21
77.66882610321045
 31
0.0
  0
LINE
  5
D0
330
1F
100
AcDbEntity
  8
TFR-TRI
  6
Continuous
 62
   155
100
AcDbLine
 10
-91.49098968505859
 20
77.74756145477295
 30
0.0
 11
-91.49098968505859
 21
83.53499126434327
 31
0.0
  0
LINE
  5
D1
330
1F
100
AcDbEntity
  8
TFR-TRI
  6
Continuous
 62
   155
100
AcDbLine
 10
-91.49098968505859
 20
83.53499126434327
 30
0.0
 11
-91.49098968505859
 21
83.61372661590577
 31
0.0
  0
LINE
  5
D2
330
1F
100
AcDbEntity
  8
TFR-TRI
  6
Continuous
 62
   155
100
AcDbLine
 10
-91.49098968505859
 20
77.66882610321045
 30
0.0
 11
-91.49098968505859
 21
77.74756145477295
 31
0.0
  0
LINE
  5
D3
330
1F
100
AcDbEntity
  8
TFR-TRI
  6
Continuous
 62
   155
100
AcDbLine
 10
-91.42749786376953
 20
83.53499126434327
 30
0.0
 11
-91.49098968505859
 21
83.53499126434327
 31
0.0
  0
LINE
  5
D4
330
1F
100
AcDbEntity
  8
TFR-TRI
  6
Continuous
 62
   155
100
AcDbLine
 10
-91.49098968505859
 20
77.74756145477295
 30
0.0
 11
-91.42749786376953
 21
77.74756145477295
 31
0.0
  0
LINE
  5
D5
330
1F
100
AcDbEntity
  8
TFR-TRI
  6
Continuous
 62
   155
100
AcDbLine
 10
-97.03279876708984
 20
83.61372661590577
 30
0.0
 11
-97.03279876708984
 21
83.6349515914917
 31
0.0
  0
LINE
  5
D6
330
1F
100
AcDbEntity
  8
TFR-TRI
  6
Continuous
 62
   155
100
AcDbLine
 10
-97.03279876708984
 20
83.6349515914917
 30
0.0
 11
-97.03279876708984
 21
83.6437406539917
 31
0.0
  0
LINE
  5
D7
330
1F
100
AcDbEntity
  8
TFR-TRI
  6
Continuous
 62
   155
100
AcDbLine
 10
-91.52098846435547
 20
83.61372661590577
 30
0.0
 11
-91.52098846435547
 21
83.6349515914917
 31
0.0
  0
LINE
  5
D8
330
1F
100
AcDbEntity
  8
TFR-TRI
  6
Continuous
 62
   155
100
AcDbLine
 10
-91.52098846435547
 20
83.6349515914917
 30
0.0
 11
-91.52098846435547
 21
83.6437406539917
 31
0.0
  0
LINE
  5
D9
330
1F
100
AcDbEntity
  8
TFR-TRI
  6
Continuous
 62
   155
100
AcDbLine
 10
-97.03279876708984
 20
83.6437406539917
 30
0.0
 11
-97.03279876708984
 21
83.70723247528076
 31
0.0
  0
LINE
  5
DA
330
1F
100
AcDbEntity
  8
TFR-TRI
  6
Continuous
 62
   155
100
AcDbLine
 10
-91.52098846435547
 20
83.70723247528076
 30
0.0
 11
-91.52098846435547
 21
83.6437406539917
 31
0.0
  0
LINE
  5
DB
330
1F
100
AcDbEntity
  8
TFR-TRI
  6
Continuous
 62
   155
100
AcDbLine
 10
-96.87532806396484
 20
83.70723247528076
 30
0.0
 11
-91.59972381591797
 21
83.70723247528076
 31
0.0
  0
LINE
  5
DC
330
1F
100
AcDbEntity
  8
TFR-TRI
  6
Continuous
 62
   155
100
AcDbLine
 10
-91.59972381591797
 20
83.70723247528076
 30
0.0
 11
-91.52098846435547
 21
83.70723247528076
 31
0.0
  0
LINE
  5
DD
330
1F
100
AcDbEntity
  8
TFR-TRI
  6
Continuous
 62
   155
100
AcDbLine
 10
-97.03279876708984
 20
83.70723247528076
 30
0.0
 11
-96.87532806396484
 21
83.70723247528076
 31
0.0
  0
LINE
  5
DE
330
1F
100
AcDbEntity
  8
TFR-TRI
  6
Continuous
 62
   155
100
AcDbLine
 10
-91.52098846435547
 20
83.6437406539917
 30
0.0
 11
-91.59972381591797
 21
83.6437406539917
 31
0.0
  0
LINE
  5
DF
330
1F
100
AcDbEntity
  8
TFR-TRI
  6
Continuous
 62
   155
100
AcDbLine
 10
-91.59972381591797
 20
83.6437406539917
 30
0.0
 11
-96.87532806396484
 21
83.6437406539917
 31
0.0
  0
LINE
  5
E0
330
1F
100
AcDbEntity
  8
TFR-TRI
  6
Continuous
 62
   155
100
AcDbLine
 10
-96.87532806396484
 20
83.6437406539917
 30
0.0
 11
-97.03279876708984
 21
83.6437406539917
 31
0.0
  0
LINE
  5
E1
330
1F
100
AcDbEntity
  8
TFR-TRI
  6
Continuous
 62
   155
100
AcDbLine
 10
-91.59972381591797
 20
83.6437406539917
 30
0.0
 11
-91.59972381591797
 21
83.70723247528076
 31
0.0
  0
LINE
  5
E2
330
1F
100
AcDbEntity
  8
TFR-TRI
  6
Continuous
 62
   155
100
AcDbLine
 10
-96.87532806396484
 20
83.70723247528076
 30
0.0
 11
-96.87532806396484
 21
83.6437406539917
 31
0.0
  0
LINE
  5
E3
330
1F
100
AcDbEntity
  8
TFR-TRI
  6
Continuous
 62
   155
100
AcDbLine
 10
-91.52098846435547
 20
77.66882610321045
 30
0.0
 11
-91.52098846435547
 21
77.64760112762451
 31
0.0
  0
LINE
  5
E4
330
1F
100
AcDbEntity
  8
TFR-TRI
  6
Continuous
 62
   155
100
AcDbLine
 10
-91.52098846435547
 20
77.64760112762451
 30
0.0
 11
-91.52098846435547
 21
77.63882732391357
 31
0.0
  0
LINE
  5
E5
330
1F
100
AcDbEntity
  8
TFR-TRI
  6
Continuous
 62
   155
100
AcDbLine
 10
-97.03279876708984
 20
77.66882610321045
 30
0.0
 11
-97.03279876708984
 21
77.64760112762451
 31
0.0
  0
LINE
  5
E6
330
1F
100
AcDbEntity
  8
TFR-TRI
  6
Continuous
 62
   155
100
AcDbLine
 10
-97.03279876708984
 20
77.64760112762451
 30
0.0
 11
-97.03279876708984
 21
77.63882732391357
 31
0.0
  0
LINE
  5
E7
330
1F
100
AcDbEntity
  8
TFR-TRI
  6
Continuous
 62
   155
100
AcDbLine
 10
-91.52098846435547
 20
77.63882732391357
 30
0.0
 11
-91.52098846435547
 21
77.57532024383545
 31
0.0
  0
LINE
  5
E8
330
1F
100
AcDbEntity
  8
TFR-TRI
  6
Continuous
 62
   155
100
AcDbLine
 10
-97.03279876708984
 20
77.57532024383545
 30
0.0
 11
-97.03279876708984
 21
77.63882732391357
 31
0.0
  0
LINE
  5
E9
330
1F
100
AcDbEntity
  8
TFR-TRI
  6
Continuous
 62
   155
100
AcDbLine
 10
-91.52098846435547
 20
77.57532024383545
 30
0.0
 11
-91.59972381591797
 21
77.57532024383545
 31
0.0
  0
LINE
  5
EA
330
1F
100
AcDbEntity
  8
TFR-TRI
  6
Continuous
 62
   155
100
AcDbLine
 10
-91.59972381591797
 20
77.57532024383545
 30
0.0
 11
-96.87532806396484
 21
77.57532024383545
 31
0.0
  0
LINE
  5
EB
330
1F
100
AcDbEntity
  8
TFR-TRI
  6
Continuous
 62
   155
100
AcDbLine
 10
-96.87532806396484
 20
77.57532024383545
 30
0.0
 11
-97.03279876708984
 21
77.57532024383545
 31
0.0
  0
LINE
  5
EC
330
1F
100
AcDbEntity
  8
TFR-TRI
  6
Continuous
 62
   155
100
AcDbLine
 10
-96.87532806396484
 20
77.63882732391357
 30
0.0
 11
-91.59972381591797
 21
77.63882732391357
 31
0.0
  0
LINE
  5
ED
330
1F
100
AcDbEntity
  8
TFR-TRI
  6
Continuous
 62
   155
100
AcDbLine
 10
-91.59972381591797
 20
77.63882732391357
 30
0.0
 11
-91.52098846435547
 21
77.63882732391357
 31
0.0
  0
LINE
  5
EE
330
1F
100
AcDbEntity
  8
TFR-TRI
  6
Continuous
 62
   155
100
AcDbLine
 10
-97.03279876708984
 20
77.63882732391357
 30
0.0
 11
-96.87532806396484
 21
77.63882732391357
 31
0.0
  0
LINE
  5
EF
330
1F
100
AcDbEntity
  8
TFR-TRI
  6
Continuous
 62
   155
100
AcDbLine
 10
-91.59972381591797
 20
77.57532024383545
 30
0.0
 11
-91.59972381591797
 21
77.63882732391357
 31
0.0
  0
LINE
  5
F0
330
1F
100
AcDbEntity
  8
TFR-TRI
  6
Continuous
 62
   155
100
AcDbLine
 10
-96.87532806396484
 20
77.63882732391357
 30
0.0
 11
-96.87532806396484
 21
77.57532024383545
 31
0.0
  0
LINE
  5
F1
330
1F
100
AcDbEntity
  8
TFR-TRI
  6
Continuous
 62
   155
100
AcDbLine
 10
-95.18779754638671
 20
77.56032085418701
 30
0.0
 11
-95.18779754638671
 21
77.49681377410889
 31
0.0
  0
LINE
  5
F2
330
1F
100
AcDbEntity
  8
TFR-TRI
  6
Continuous
 62
   155
100
AcDbLine
 10
-95.18779754638671
 20
83.78573894500732
 30
0.0
 11
-95.18779754638671
 21
83.7222318649292
 31
0.0
  0
LINE
  5
F3
330
1F
100
AcDbEntity
  8
TFR-TRI
  6
Continuous
 62
   155
100
AcDbLine
 10
-97.74684906005859
 20
77.49681377410889
 30
0.0
 11
-97.74684906005859
 21
77.56032085418701
 31
0.0
  0
LINE
  5
F4
330
1F
100
AcDbEntity
  8
TFR-TRI
  6
Continuous
 62
   155
100
AcDbLine
 10
-97.74684906005859
 20
83.7222318649292
 30
0.0
 11
-97.74684906005859
 21
83.78573894500732
 31
0.0
  0
LINE
  5
F5
330
1F
100
AcDbEntity
  8
TFR-TRI
  6
Continuous
 62
   155
100
AcDbLine
 10
-97.58937835693359
 20
83.78573894500732
 30
0.0
 11
-97.58937835693359
 21
83.7222318649292
 31
0.0
  0
LINE
  5
F6
330
1F
100
AcDbEntity
  8
TFR-TRI
  6
Continuous
 62
   155
100
AcDbLine
 10
-97.35184478759766
 20
83.7222318649292
 30
0.0
 11
-97.35184478759766
 21
83.78573894500732
 31
0.0
  0
LINE
  5
F7
330
1F
100
AcDbEntity
  8
TFR-TRI
  6
Continuous
 62
   155
100
AcDbLine
 10
-97.58937835693359
 20
77.56032085418701
 30
0.0
 11
-97.58937835693359
 21
77.49681377410889
 31
0.0
  0
LINE
  5
F8
330
1F
100
AcDbEntity
  8
TFR-TRI
  6
Continuous
 62
   155
100
AcDbLine
 10
-97.35184478759766
 20
77.56032085418701
 30
0.0
 11
-97.35184478759766
 21
77.49681377410889
 31
0.0
  0
LINE
  5
F9
330
1F
100
AcDbEntity
  8
TFR-TRI
  6
Continuous
 62
     3
100
AcDbLine
 10
-95.58150482177735
 20
13.05981731414795
 30
0.0
 11
-95.62569427490235
 21
13.05981731414795
 31
0.0
  0
LINE
  5
FA
330
1F
100
AcDbEntity
  8
TFR-TRI
  6
Continuous
 62
     3
100
AcDbLine
 10
-95.62569427490235
 20
13.05981731414795
 30
0.0
 11
-95.64400482177735
 21
13.05981731414795
 31
0.0
  0
LINE
  5
FB
330
1F
100
AcDbEntity
  8
TFR-TRI
  6
Continuous
 62
     3
100
AcDbLine
 10
-95.51900482177734
 20
13.05981731414795
 30
0.0
 11
-95.53730010986328
 21
13.05981731414795
 31
0.0
  0
LINE
  5
FC
330
1F
100
AcDbEntity
  8
TFR-TRI
  6
Continuous
 62
     3
100
AcDbLine
 10
-95.53730010986328
 20
13.05981731414795
 30
0.0
 11
-95.58150482177735
 21
13.05981731414795
 31
0.0
  0
LINE
  5
FD
330
1F
100
AcDbEntity
  8
TFR-TRI
  6
Continuous
 62
     3
100
AcDbLine
 10
-95.64400482177735
 20
18.72273540496826
 30
0.0
 11
-95.61275482177734
 21
18.72273540496826
 31
0.0
  0
LINE
  5
FE
330
1F
100
AcDbEntity
  8
TFR-TRI
  6
Continuous
 62
     3
100
AcDbLine
 10
-95.61275482177734
 20
18.72273540496826
 30
0.0
 11
-95.55025482177734
 21
18.72273540496826
 31
0.0
  0
LINE
  5
FF
330
1F
100
AcDbEntity
  8
TFR-TRI
  6
Continuous
 62
     3
100
AcDbLine
 10
-95.55025482177734
 20
18.72273540496826
 30
0.0
 11
-95.51900482177734
 21
18.72273540496826
 31
0.0
  0
LINE
  5
100
330
1F
100
AcDbEntity
  8
TFR-TRI
  6
Continuous
 62
     3
100
AcDbLine
 10
-96.52637481689453
 20
13.05981731414795
 30
0.0
 11
-96.5705795288086
 21
13.05981731414795
 31
0.0
  0
LINE
  5
101
330
1F
100
AcDbEntity
  8
TFR-TRI
  6
Continuous
 62
     3
100
AcDbLine
 10
-96.5705795288086
 20
13.05981731414795
 30
0.0
 11
-96.58887481689454
 21
13.05981731414795
 31
0.0
  0
LINE
  5
102
330
1F
100
AcDbEntity
  8
TFR-TRI
  6
Continuous
 62
     3
100
AcDbLine
 10
-96.46387481689453
 20
13.05981731414795
 30
0.0
 11
-96.48218536376953
 21
13.05981731414795
 31
0.0
  0
LINE
  5
103
330
1F
100
AcDbEntity
  8
TFR-TRI
  6
Continuous
 62
     3
100
AcDbLine
 10
-96.48218536376953
 20
13.05981731414795
 30
0.0
 11
-96.52637481689453
 21
13.05981731414795
 31
0.0
  0
LINE
  5
104
330
1F
100
AcDbEntity
  8
TFR-TRI
  6
Continuous
 62
     3
100
AcDbLine
 10
-96.58887481689454
 20
18.72273540496826
 30
0.0
 11
-96.55762481689453
 21
18.72273540496826
 31
0.0
  0
LINE
  5
105
330
1F
100
AcDbEntity
  8
TFR-TRI
  6
Continuous
 62
     3
100
AcDbLine
 10
-96.55762481689453
 20
18.72273540496826
 30
0.0
 11
-96.49512481689454
 21
18.72273540496826
 31
0.0
  0
LINE
  5
106
330
1F
100
AcDbEntity
  8
TFR-TRI
  6
Continuous
 62
     3
100
AcDbLine
 10
-96.49512481689454
 20
18.72273540496826
 30
0.0
 11
-96.46387481689453
 21
18.72273540496826
 31
0.0
  0
LINE
  5
107
330
1F
100
AcDbEntity
  8
TFR-TRI
  6
Continuous
 62
   155
100
AcDbLine
 10
-95.41780853271484
 20
18.15127849578857
 30
0.0
 11
-95.41780853271484
 21
18.00707530975342
 31
0.0
  0
LINE
  5
108
330
1F
100
AcDbEntity
  8
TFR-TRI
  6
Continuous
 62
   155
100
AcDbLine
 10
-95.41780853271484
 20
17.27548503875732
 30
0.0
 11
-95.41780853271484
 21
17.13127422332763
 31
0.0
  0
LINE
  5
109
330
1F
100
AcDbEntity
  8
TFR-TRI
  6
Continuous
 62
   155
100
AcDbLine
 10
-95.8978042602539
 20
17.13127422332763
 30
0.0
 11
-95.8978042602539
 21
17.27548503875732
 31
0.0
  0
LINE
  5
10A
330
1F
100
AcDbEntity
  8
TFR-TRI
  6
Continuous
 62
   155
100
AcDbLine
 10
-95.8978042602539
 20
18.00707530975342
 30
0.0
 11
-95.8978042602539
 21
18.15127849578857
 31
0.0
  0
LINE
  5
10B
330
1F
100
AcDbEntity
  8
TFR-TRI
  6
Continuous
 62
   155
100
AcDbLine
 10
-95.41780853271484
 20
14.65127849578857
 30
0.0
 11
-95.41780853271484
 21
14.50707530975342
 31
0.0
  0
LINE
  5
10C
330
1F
100
AcDbEntity
  8
TFR-TRI
  6
Continuous
 62
   155
100
AcDbLine
 10
-95.41780853271484
 20
13.77548503875732
 30
0.0
 11
-95.41780853271484
 21
13.63127422332764
 31
0.0
  0
LINE
  5
10D
330
1F
100
AcDbEntity
  8
TFR-TRI
  6
Continuous
 62
   155
100
AcDbLine
 10
-95.8978042602539
 20
13.63127422332764
 30
0.0
 11
-95.8978042602539
 21
13.77548503875732
 31
0.0
  0
LINE
  5
10E
330
1F
100
AcDbEntity
  8
TFR-TRI
  6
Continuous
 62
   155
100
AcDbLine
 10
-95.8978042602539
 20
14.50707530975342
 30
0.0
 11
-95.8978042602539
 21
14.65127849578857
 31
0.0
  0
LINE
  5
10F
330
1F
100
AcDbEntity
  8
TFR-TRI
  6
Continuous
 62
   155
100
AcDbLine
 10
-92.54280853271485
 20
15.52548503875732
 30
0.0
 11
-92.54280853271485
 21
15.38127422332763
 31
0.0
  0
LINE
  5
110
330
1F
100
AcDbEntity
  8
TFR-TRI
  6
Continuous
 62
   155
100
AcDbLine
 10
-93.0228042602539
 20
15.38127422332763
 30
0.0
 11
-93.0228042602539
 21
15.52548503875732
 31
0.0
  0
LINE
  5
111
330
1F
100
AcDbEntity
  8
TFR-TRI
  6
Continuous
 62
   155
100
AcDbLine
 10
-93.0228042602539
 20
16.25707530975342
 30
0.0
 11
-93.0228042602539
 21
16.40127849578857
 31
0.0
  0
LINE
  5
112
330
1F
100
AcDbEntity
  8
TFR-TRI
  6
Continuous
 62
   155
100
AcDbLine
 10
-92.54280853271485
 20
16.40127849578857
 30
0.0
 11
-92.54280853271485
 21
16.25707530975342
 31
0.0
  0
LINE
  5
113
330
1F
100
AcDbEntity
  8
TFR-TRI
  6
Continuous
 62
   155
100
AcDbLine
 10
-93.98030853271484
 20
15.52548503875732
 30
0.0
 11
-93.98030853271484
 21
15.38127422332763
 31
0.0
  0
LINE
  5
114
330
1F
100
AcDbEntity
  8
TFR-TRI
  6
Continuous
 62
   155
100
AcDbLine
 10
-94.46030426025391
 20
15.38127422332763
 30
0.0
 11
-94.46030426025391
 21
15.52548503875732
 31
0.0
  0
LINE
  5
115
330
1F
100
AcDbEntity
  8
TFR-TRI
  6
Continuous
 62
   155
100
AcDbLine
 10
-94.46030426025391
 20
16.25707530975342
 30
0.0
 11
-94.46030426025391
 21
16.40127849578857
 31
0.0
  0
LINE
  5
116
330
1F
100
AcDbEntity
  8
TFR-TRI
  6
Continuous
 62
   155
100
AcDbLine
 10
-93.98030853271484
 20
16.40127849578857
 30
0.0
 11
-93.98030853271484
 21
16.25707530975342
 31
0.0
  0
LINE
  5
117
330
1F
100
AcDbEntity
  8
TFR-TRI
  6
Continuous
 62
   155
100
AcDbLine
 10
-97.03279876708984
 20
18.86373424530029
 30
0.0
 11
-97.03279876708984
 21
12.91881847381592
 31
0.0
  0
LINE
  5
118
330
1F
100
AcDbEntity
  8
TFR-TRI
  6
Continuous
 62
   155
100
AcDbLine
 10
-97.03279876708984
 20
12.91881847381592
 30
0.0
 11
-96.5888442993164
 21
12.91881847381592
 31
0.0
  0
LINE
  5
119
330
1F
100
AcDbEntity
  8
TFR-TRI
  6
Continuous
 62
   155
100
AcDbLine
 10
-96.46387481689453
 20
12.91881847381592
 30
0.0
 11
-95.64400482177735
 21
12.91881847381592
 31
0.0
  0
LINE
  5
11A
330
1F
100
AcDbEntity
  8
TFR-TRI
  6
Continuous
 62
   155
100
AcDbLine
 10
-95.5189437866211
 20
12.91881847381592
 30
0.0
 11
-91.52098846435547
 21
12.91881847381592
 31
0.0
  0
LINE
  5
11B
330
1F
100
AcDbEntity
  8
TFR-TRI
  6
Continuous
 62
   155
100
AcDbLine
 10
-91.52098846435547
 20
18.86373424530029
 30
0.0
 11
-91.52098846435547
 21
12.91881847381592
 31
0.0
  0
LINE
  5
11C
330
1F
100
AcDbEntity
  8
TFR-TRI
  6
Continuous
 62
   155
100
AcDbLine
 10
-91.52098846435547
 20
18.86373424530029
 30
0.0
 11
-95.5189437866211
 21
18.86373424530029
 31
0.0
  0
LINE
  5
11D
330
1F
100
AcDbEntity
  8
TFR-TRI
  6
Continuous
 62
   155
100
AcDbLine
 10
-95.64400482177735
 20
18.86373424530029
 30
0.0
 11
-96.46387481689453
 21
18.86373424530029
 31
0.0
  0
LINE
  5
11E
330
1F
100
AcDbEntity
  8
TFR-TRI
  6
Continuous
 62
   155
100
AcDbLine
 10
-96.5888442993164
 20
18.86373424530029
 30
0.0
 11
-97.03279876708984
 21
18.86373424530029
 31
0.0
  0
LINE
  5
11F
330
1F
100
AcDbEntity
  8
TFR-TRI
  6
Continuous
 62
   155
100
AcDbLine
 10
-95.41780853271484
 20
15.52548503875732
 30
0.0
 11
-95.41780853271484
 21
15.38127422332763
 31
0.0
  0
LINE
  5
120
330
1F
100
AcDbEntity
  8
TFR-TRI
  6
Continuous
 62
   155
100
AcDbLine
 10
-95.8978042602539
 20
15.38127422332763
 30
0.0
 11
-95.8978042602539
 21
15.52548503875732
 31
0.0
  0
LINE
  5
121
330
1F
100
AcDbEntity
  8
TFR-TRI
  6
Continuous
 62
   155
100
AcDbLine
 10
-95.8978042602539
 20
16.25707530975342
 30
0.0
 11
-95.8978042602539
 21
16.40127849578857
 31
0.0
  0
LINE
  5
122
330
1F
100
AcDbEntity
  8
TFR-TRI
  6
Continuous
 62
   155
100
AcDbLine
 10
-95.41780853271484
 20
16.40127849578857
 30
0.0
 11
-95.41780853271484
 21
16.25707530975342
 31
0.0
  0
LINE
  5
123
330
1F
100
AcDbEntity
  8
TFR-TRI
  6
Continuous
 62
   155
100
AcDbLine
 10
-93.16780853271485
 20
14.65127849578857
 30
0.0
 11
-93.16780853271485
 21
14.50707530975342
 31
0.0
  0
LINE
  5
124
330
1F
100
AcDbEntity
  8
TFR-TRI
  6
Continuous
 62
   155
100
AcDbLine
 10
-93.16780853271485
 20
13.77548503875732
 30
0.0
 11
-93.16780853271485
 21
13.63127422332764
 31
0.0
  0
LINE
  5
125
330
1F
100
AcDbEntity
  8
TFR-TRI
  6
Continuous
 62
   155
100
AcDbLine
 10
-93.6478042602539
 20
13.63127422332764
 30
0.0
 11
-93.6478042602539
 21
13.77548503875732
 31
0.0
  0
LINE
  5
126
330
1F
100
AcDbEntity
  8
TFR-TRI
  6
Continuous
 62
   155
100
AcDbLine
 10
-93.6478042602539
 20
14.50707530975342
 30
0.0
 11
-93.6478042602539
 21
14.65127849578857
 31
0.0
  0
LINE
  5
127
330
1F
100
AcDbEntity
  8
TFR-TRI
  6
Continuous
 62
   155
100
AcDbLine
 10
-93.16780853271485
 20
18.15127849578857
 30
0.0
 11
-93.16780853271485
 21
18.00707530975342
 31
0.0
  0
LINE
  5
128
330
1F
100
AcDbEntity
  8
TFR-TRI
  6
Continuous
 62
   155
100
AcDbLine
 10
-93.16780853271485
 20
17.27548503875732
 30
0.0
 11
-93.16780853271485
 21
17.13127422332763
 31
0.0
  0
LINE
  5
129
330
1F
100
AcDbEntity
  8
TFR-TRI
  6
Continuous
 62
   155
100
AcDbLine
 10
-93.6478042602539
 20
17.13127422332763
 30
0.0
 11
-93.6478042602539
 21
17.27548503875732
 31
0.0
  0
LINE
  5
12A
330
1F
100
AcDbEntity
  8
TFR-TRI
  6
Continuous
 62
   155
100
AcDbLine
 10
-93.6478042602539
 20
18.00707530975342
 30
0.0
 11
-93.6478042602539
 21
18.15127849578857
 31
0.0
  0
LINE
  5
12B
330
1F
100
AcDbEntity
  8
TFR-TRI
  6
Continuous
 62
   155
100
AcDbLine
 10
-97.74684906005859
 20
18.94223308563232
 30
0.0
 11
-97.15630340576172
 21
18.94223308563232
 31
0.0
  0
LINE
  5
12C
330
1F
100
AcDbEntity
  8
TFR-TRI
  6
Continuous
 62
   155
100
AcDbLine
 10
-97.74684906005859
 20
18.94223308563232
 30
0.0
 11
-97.74684906005859
 21
12.84031963348388
 31
0.0
  0
LINE
  5
12D
330
1F
100
AcDbEntity
  8
TFR-TRI
  6
Continuous
 62
   155
100
AcDbLine
 10
-97.74684906005859
 20
12.84031963348388
 30
0.0
 11
-97.15630340576172
 21
12.84031963348388
 31
0.0
  0
LINE
  5
12E
330
1F
100
AcDbEntity
  8
TFR-TRI
  6
Continuous
 62
   155
100
AcDbLine
 10
-97.15630340576172
 20
12.91881847381592
 30
0.0
 11
-97.15630340576172
 21
12.84031963348388
 31
0.0
  0
LINE
  5
12F
330
1F
100
AcDbEntity
  8
TFR-TRI
  6
Continuous
 62
   155
100
AcDbLine
 10
-97.15630340576172
 20
18.86373424530029
 30
0.0
 11
-97.15630340576172
 21
12.91881847381592
 31
0.0
  0
LINE
  5
130
330
1F
100
AcDbEntity
  8
TFR-TRI
  6
Continuous
 62
   155
100
AcDbLine
 10
-97.15630340576172
 20
18.86373424530029
 30
0.0
 11
-97.15630340576172
 21
18.94223308563232
 31
0.0
  0
LINE
  5
131
330
1F
100
AcDbEntity
  8
TFR-TRI
  6
Continuous
 62
   155
100
AcDbLine
 10
-97.74684906005859
 20
12.84031963348388
 30
0.0
 11
-97.74684906005859
 21
12.81910991668701
 31
0.0
  0
LINE
  5
132
330
1F
100
AcDbEntity
  8
TFR-TRI
  6
Continuous
 62
   155
100
AcDbLine
 10
-97.74684906005859
 20
12.81910991668701
 30
0.0
 11
-97.74684906005859
 21
12.81032085418701
 31
0.0
  0
LINE
  5
133
330
1F
100
AcDbEntity
  8
TFR-TRI
  6
Continuous
 62
   155
100
AcDbLine
 10
-97.15630340576172
 20
12.84031963348388
 30
0.0
 11
-97.15630340576172
 21
12.81910991668701
 31
0.0
  0
LINE
  5
134
330
1F
100
AcDbEntity
  8
TFR-TRI
  6
Continuous
 62
   155
100
AcDbLine
 10
-97.15630340576172
 20
12.81910991668701
 30
0.0
 11
-97.15630340576172
 21
12.81032085418701
 31
0.0
  0
LINE
  5
135
330
1F
100
AcDbEntity
  8
TFR-TRI
  6
Continuous
 62
   155
100
AcDbLine
 10
-95.18779754638671
 20
12.74682140350342
 30
0.0
 11
-95.26653289794921
 21
12.74682140350342
 31
0.0
  0
LINE
  5
136
330
1F
100
AcDbEntity
  8
TFR-TRI
  6
Continuous
 62
   155
100
AcDbLine
 10
-95.26653289794921
 20
12.74682140350342
 30
0.0
 11
-96.88071441650391
 21
12.74682140350342
 31
0.0
  0
LINE
  5
137
330
1F
100
AcDbEntity
  8
TFR-TRI
  6
Continuous
 62
   155
100
AcDbLine
 10
-96.88071441650391
 20
12.74682140350342
 30
0.0
 11
-97.35184478759766
 21
12.74682140350342
 31
0.0
  0
LINE
  5
138
330
1F
100
AcDbEntity
  8
TFR-TRI
  6
Continuous
 62
   155
100
AcDbLine
 10
-97.35184478759766
 20
12.74682140350342
 30
0.0
 11
-97.58937835693359
 21
12.74682140350342
 31
0.0
  0
LINE
  5
139
330
1F
100
AcDbEntity
  8
TFR-TRI
  6
Continuous
 62
   155
100
AcDbLine
 10
-97.58937835693359
 20
12.74682140350342
 30
0.0
 11
-97.74684906005859
 21
12.74682140350342
 31
0.0
  0
LINE
  5
13A
330
1F
100
AcDbEntity
  8
TFR-TRI
  6
Continuous
 62
   155
100
AcDbLine
 10
-96.88071441650391
 20
12.81032085418701
 30
0.0
 11
-95.26653289794921
 21
12.81032085418701
 31
0.0
  0
LINE
  5
13B
330
1F
100
AcDbEntity
  8
TFR-TRI
  6
Continuous
 62
   155
100
AcDbLine
 10
-95.26653289794921
 20
12.81032085418701
 30
0.0
 11
-95.18779754638671
 21
12.81032085418701
 31
0.0
  0
LINE
  5
13C
330
1F
100
AcDbEntity
  8
TFR-TRI
  6
Continuous
 62
   155
100
AcDbLine
 10
-97.74684906005859
 20
12.81032085418701
 30
0.0
 11
-97.58937835693359
 21
12.81032085418701
 31
0.0
  0
LINE
  5
13D
330
1F
100
AcDbEntity
  8
TFR-TRI
  6
Continuous
 62
   155
100
AcDbLine
 10
-97.35184478759766
 20
12.81032085418701
 30
0.0
 11
-97.58937835693359
 21
12.81032085418701
 31
0.0
  0
LINE
  5
13E
330
1F
100
AcDbEntity
  8
TFR-TRI
  6
Continuous
 62
   155
100
AcDbLine
 10
-96.88071441650391
 20
12.81032085418701
 30
0.0
 11
-97.35184478759766
 21
12.81032085418701
 31
0.0
  0
LINE
  5
13F
330
1F
100
AcDbEntity
  8
TFR-TRI
  6
Continuous
 62
   155
100
AcDbLine
 10
-95.26653289794921
 20
12.74682140350342
 30
0.0
 11
-95.26653289794921
 21
12.81032085418701
 31
0.0
  0
LINE
  5
140
330
1F
100
AcDbEntity
  8
TFR-TRI
  6
Continuous
 62
   155
100
AcDbLine
 10
-96.88071441650391
 20
12.81032085418701
 30
0.0
 11
-96.88071441650391
 21
12.74682140350342
 31
0.0
  0
LINE
  5
141
330
1F
100
AcDbEntity
  8
TFR-TRI
  6
Continuous
 62
   155
100
AcDbLine
 10
-97.74684906005859
 20
18.94223308563232
 30
0.0
 11
-97.74684906005859
 21
18.9634428024292
 31
0.0
  0
LINE
  5
142
330
1F
100
AcDbEntity
  8
TFR-TRI
  6
Continuous
 62
   155
100
AcDbLine
 10
-97.74684906005859
 20
18.9634428024292
 30
0.0
 11
-97.74684906005859
 21
18.9722318649292
 31
0.0
  0
LINE
  5
143
330
1F
100
AcDbEntity
  8
TFR-TRI
  6
Continuous
 62
   155
100
AcDbLine
 10
-97.15630340576172
 20
18.94223308563232
 30
0.0
 11
-97.15630340576172
 21
18.9634428024292
 31
0.0
  0
LINE
  5
144
330
1F
100
AcDbEntity
  8
TFR-TRI
  6
Continuous
 62
   155
100
AcDbLine
 10
-97.15630340576172
 20
18.9634428024292
 30
0.0
 11
-97.15630340576172
 21
18.9722318649292
 31
0.0
  0
LINE
  5
145
330
1F
100
AcDbEntity
  8
TFR-TRI
  6
Continuous
 62
   155
100
AcDbLine
 10
-97.74684906005859
 20
19.03573131561279
 30
0.0
 11
-97.58937835693359
 21
19.03573131561279
 31
0.0
  0
LINE
  5
146
330
1F
100
AcDbEntity
  8
TFR-TRI
  6
Continuous
 62
   155
100
AcDbLine
 10
-97.35184478759766
 20
19.03573131561279
 30
0.0
 11
-97.58937835693359
 21
19.03573131561279
 31
0.0
  0
LINE
  5
147
330
1F
100
AcDbEntity
  8
TFR-TRI
  6
Continuous
 62
   155
100
AcDbLine
 10
-96.88071441650391
 20
19.03573131561279
 30
0.0
 11
-97.35184478759766
 21
19.03573131561279
 31
0.0
  0
LINE
  5
148
330
1F
100
AcDbEntity
  8
TFR-TRI
  6
Continuous
 62
   155
100
AcDbLine
 10
-96.88071441650391
 20
19.03573131561279
 30
0.0
 11
-95.26653289794921
 21
19.03573131561279
 31
0.0
  0
LINE
  5
149
330
1F
100
AcDbEntity
  8
TFR-TRI
  6
Continuous
 62
   155
100
AcDbLine
 10
-95.26653289794921
 20
19.03573131561279
 30
0.0
 11
-95.18779754638671
 21
19.03573131561279
 31
0.0
  0
LINE
  5
14A
330
1F
100
AcDbEntity
  8
TFR-TRI
  6
Continuous
 62
   155
100
AcDbLine
 10
-95.18779754638671
 20
18.9722318649292
 30
0.0
 11
-95.26653289794921
 21
18.9722318649292
 31
0.0
  0
LINE
  5
14B
330
1F
100
AcDbEntity
  8
TFR-TRI
  6
Continuous
 62
   155
100
AcDbLine
 10
-95.26653289794921
 20
18.9722318649292
 30
0.0
 11
-96.88071441650391
 21
18.9722318649292
 31
0.0
  0
LINE
  5
14C
330
1F
100
AcDbEntity
  8
TFR-TRI
  6
Continuous
 62
   155
100
AcDbLine
 10
-97.35184478759766
 20
18.9722318649292
 30
0.0
 11
-96.88071441650391
 21
18.9722318649292
 31
0.0
  0
LINE
  5
14D
330
1F
100
AcDbEntity
  8
TFR-TRI
  6
Continuous
 62
   155
100
AcDbLine
 10
-97.58937835693359
 20
18.9722318649292
 30
0.0
 11
-97.35184478759766
 21
18.9722318649292
 31
0.0
  0
LINE
  5
14E
330
1F
100
AcDbEntity
  8
TFR-TRI
  6
Continuous
 62
   155
100
AcDbLine
 10
-97.58937835693359
 20
18.9722318649292
 30
0.0
 11
-97.74684906005859
 21
18.9722318649292
 31
0.0
  0
LINE
  5
14F
330
1F
100
AcDbEntity
  8
TFR-TRI
  6
Continuous
 62
   155
100
AcDbLine
 10
-95.26653289794921
 20
18.9722318649292
 30
0.0
 11
-95.26653289794921
 21
19.03573131561279
 31
0.0
  0
LINE
  5
150
330
1F
100
AcDbEntity
  8
TFR-TRI
  6
Continuous
 62
   155
100
AcDbLine
 10
-96.88071441650391
 20
18.9722318649292
 30
0.0
 11
-96.88071441650391
 21
19.03573131561279
 31
0.0
  0
LINE
  5
151
330
1F
100
AcDbEntity
  8
TFR-TRI
  6
Continuous
 62
   155
100
AcDbLine
 10
-97.03279876708984
 20
18.86373424530029
 30
0.0
 11
-97.09891510009766
 21
18.86373424530029
 31
0.0
  0
LINE
  5
152
330
1F
100
AcDbEntity
  8
TFR-TRI
  6
Continuous
 62
   155
100
AcDbLine
 10
-97.09891510009766
 20
18.86373424530029
 30
0.0
 11
-97.12630462646485
 21
18.86373424530029
 31
0.0
  0
LINE
  5
153
330
1F
100
AcDbEntity
  8
TFR-TRI
  6
Continuous
 62
   155
100
AcDbLine
 10
-97.03279876708984
 20
12.91881847381592
 30
0.0
 11
-97.09891510009766
 21
12.91881847381592
 31
0.0
  0
LINE
  5
154
330
1F
100
AcDbEntity
  8
TFR-TRI
  6
Continuous
 62
   155
100
AcDbLine
 10
-97.09891510009766
 20
12.91881847381592
 30
0.0
 11
-97.12630462646485
 21
12.91881847381592
 31
0.0
  0
LINE
  5
155
330
1F
100
AcDbEntity
  8
TFR-TRI
  6
Continuous
 62
   155
100
AcDbLine
 10
-97.12630462646485
 20
18.86373424530029
 30
0.0
 11
-97.12630462646485
 21
12.91881847381592
 31
0.0
  0
LINE
  5
156
330
1F
100
AcDbEntity
  8
TFR-TRI
  6
Continuous
 62
   155
100
AcDbLine
 10
-97.12630462646485
 20
12.91881847381592
 30
0.0
 11
-97.13509368896485
 21
12.91881847381592
 31
0.0
  0
LINE
  5
157
330
1F
100
AcDbEntity
  8
TFR-TRI
  6
Continuous
 62
   155
100
AcDbLine
 10
-97.13509368896485
 20
12.91881847381592
 30
0.0
 11
-97.15630340576172
 21
12.91881847381592
 31
0.0
  0
LINE
  5
158
330
1F
100
AcDbEntity
  8
TFR-TRI
  6
Continuous
 62
   155
100
AcDbLine
 10
-97.12630462646485
 20
18.86373424530029
 30
0.0
 11
-97.13509368896485
 21
18.86373424530029
 31
0.0
  0
LINE
  5
159
330
1F
100
AcDbEntity
  8
TFR-TRI
  6
Continuous
 62
   155
100
AcDbLine
 10
-97.13509368896485
 20
18.86373424530029
 30
0.0
 11
-97.15630340576172
 21
18.86373424530029
 31
0.0
  0
LINE
  5
15A
330
1F
100
AcDbEntity
  8
TFR-TRI
  6
Continuous
 62
   155
100
AcDbLine
 10
-91.52098846435547
 20
18.86373424530029
 30
0.0
 11
-91.4997787475586
 21
18.86373424530029
 31
0.0
  0
LINE
  5
15B
330
1F
100
AcDbEntity
  8
TFR-TRI
  6
Continuous
 62
   155
100
AcDbLine
 10
-91.4997787475586
 20
18.86373424530029
 30
0.0
 11
-91.49098968505859
 21
18.86373424530029
 31
0.0
  0
LINE
  5
15C
330
1F
100
AcDbEntity
  8
TFR-TRI
  6
Continuous
 62
   155
100
AcDbLine
 10
-91.52098846435547
 20
12.91881847381592
 30
0.0
 11
-91.4997787475586
 21
12.91881847381592
 31
0.0
  0
LINE
  5
15D
330
1F
100
AcDbEntity
  8
TFR-TRI
  6
Continuous
 62
   155
100
AcDbLine
 10
-91.4997787475586
 20
12.91881847381592
 30
0.0
 11
-91.49098968505859
 21
12.91881847381592
 31
0.0
  0
LINE
  5
15E
330
1F
100
AcDbEntity
  8
TFR-TRI
  6
Continuous
 62
   155
100
AcDbLine
 10
-91.49098968505859
 20
18.86373424530029
 30
0.0
 11
-91.42749786376953
 21
18.86373424530029
 31
0.0
  0
LINE
  5
15F
330
1F
100
AcDbEntity
  8
TFR-TRI
  6
Continuous
 62
   155
100
AcDbLine
 10
-91.42749786376953
 20
12.91881847381592
 30
0.0
 11
-91.49098968505859
 21
12.91881847381592
 31
0.0
  0
LINE
  5
160
330
1F
100
AcDbEntity
  8
TFR-TRI
  6
Continuous
 62
   155
100
AcDbLine
 10
-91.42749786376953
 20
18.86373424530029
 30
0.0
 11
-91.42749786376953
 21
18.78499126434326
 31
0.0
  0
LINE
  5
161
330
1F
100
AcDbEntity
  8
TFR-TRI
  6
Continuous
 62
   155
100
AcDbLine
 10
-91.42749786376953
 20
18.78499126434326
 30
0.0
 11
-91.42749786376953
 21
12.99756145477295
 31
0.0
  0
LINE
  5
162
330
1F
100
AcDbEntity
  8
TFR-TRI
  6
Continuous
 62
   155
100
AcDbLine
 10
-91.42749786376953
 20
12.99756145477295
 30
0.0
 11
-91.42749786376953
 21
12.91881847381592
 31
0.0
  0
LINE
  5
163
330
1F
100
AcDbEntity
  8
TFR-TRI
  6
Continuous
 62
   155
100
AcDbLine
 10
-91.49098968505859
 20
12.99756145477295
 30
0.0
 11
-91.49098968505859
 21
18.78499126434326
 31
0.0
  0
LINE
  5
164
330
1F
100
AcDbEntity
  8
TFR-TRI
  6
Continuous
 62
   155
100
AcDbLine
 10
-91.49098968505859
 20
18.78499126434326
 30
0.0
 11
-91.49098968505859
 21
18.86373424530029
 31
0.0
  0
LINE
  5
165
330
1F
100
AcDbEntity
  8
TFR-TRI
  6
Continuous
 62
   155
100
AcDbLine
 10
-91.49098968505859
 20
12.91881847381592
 30
0.0
 11
-91.49098968505859
 21
12.99756145477295
 31
0.0
  0
LINE
  5
166
330
1F
100
AcDbEntity
  8
TFR-TRI
  6
Continuous
 62
   155
100
AcDbLine
 10
-91.42749786376953
 20
18.78499126434326
 30
0.0
 11
-91.49098968505859
 21
18.78499126434326
 31
0.0
  0
LINE
  5
167
330
1F
100
AcDbEntity
  8
TFR-TRI
  6
Continuous
 62
   155
100
AcDbLine
 10
-91.49098968505859
 20
12.99756145477295
 30
0.0
 11
-91.42749786376953
 21
12.99756145477295
 31
0.0
  0
LINE
  5
168
330
1F
100
AcDbEntity
  8
TFR-TRI
  6
Continuous
 62
   155
100
AcDbLine
 10
-97.03279876708984
 20
18.86373424530029
 30
0.0
 11
-97.03279876708984
 21
18.88494396209717
 31
0.0
  0
LINE
  5
169
330
1F
100
AcDbEntity
  8
TFR-TRI
  6
Continuous
 62
   155
100
AcDbLine
 10
-97.03279876708984
 20
18.88494396209717
 30
0.0
 11
-97.03279876708984
 21
18.89373302459716
 31
0.0
  0
LINE
  5
16A
330
1F
100
AcDbEntity
  8
TFR-TRI
  6
Continuous
 62
   155
100
AcDbLine
 10
-91.52098846435547
 20
18.86373424530029
 30
0.0
 11
-91.52098846435547
 21
18.88494396209717
 31
0.0
  0
LINE
  5
16B
330
1F
100
AcDbEntity
  8
TFR-TRI
  6
Continuous
 62
   155
100
AcDbLine
 10
-91.52098846435547
 20
18.88494396209717
 30
0.0
 11
-91.52098846435547
 21
18.89373302459716
 31
0.0
  0
LINE
  5
16C
330
1F
100
AcDbEntity
  8
TFR-TRI
  6
Continuous
 62
   155
100
AcDbLine
 10
-97.03279876708984
 20
18.89373302459716
 30
0.0
 11
-97.03279876708984
 21
18.95723247528076
 31
0.0
  0
LINE
  5
16D
330
1F
100
AcDbEntity
  8
TFR-TRI
  6
Continuous
 62
   155
100
AcDbLine
 10
-91.52098846435547
 20
18.95723247528076
 30
0.0
 11
-91.52098846435547
 21
18.89373302459716
 31
0.0
  0
LINE
  5
16E
330
1F
100
AcDbEntity
  8
TFR-TRI
  6
Continuous
 62
   155
100
AcDbLine
 10
-96.87532806396484
 20
18.95723247528076
 30
0.0
 11
-91.59972381591797
 21
18.95723247528076
 31
0.0
  0
LINE
  5
16F
330
1F
100
AcDbEntity
  8
TFR-TRI
  6
Continuous
 62
   155
100
AcDbLine
 10
-91.59972381591797
 20
18.95723247528076
 30
0.0
 11
-91.52098846435547
 21
18.95723247528076
 31
0.0
  0
LINE
  5
170
330
1F
100
AcDbEntity
  8
TFR-TRI
  6
Continuous
 62
   155
100
AcDbLine
 10
-97.03279876708984
 20
18.95723247528076
 30
0.0
 11
-96.87532806396484
 21
18.95723247528076
 31
0.0
  0
LINE
  5
171
330
1F
100
AcDbEntity
  8
TFR-TRI
  6
Continuous
 62
   155
100
AcDbLine
 10
-91.52098846435547
 20
18.89373302459716
 30
0.0
 11
-91.59972381591797
 21
18.89373302459716
 31
0.0
  0
LINE
  5
172
330
1F
100
AcDbEntity
  8
TFR-TRI
  6
Continuous
 62
   155
100
AcDbLine
 10
-91.59972381591797
 20
18.89373302459716
 30
0.0
 11
-96.87532806396484
 21
18.89373302459716
 31
0.0
  0
LINE
  5
173
330
1F
100
AcDbEntity
  8
TFR-TRI
  6
Continuous
 62
   155
100
AcDbLine
 10
-96.87532806396484
 20
18.89373302459716
 30
0.0
 11
-97.03279876708984
 21
18.89373302459716
 31
0.0
  0
LINE
  5
174
330
1F
100
AcDbEntity
  8
TFR-TRI
  6
Continuous
 62
   155
100
AcDbLine
 10
-91.59972381591797
 20
18.89373302459716
 30
0.0
 11
-91.59972381591797
 21
18.95723247528076
 31
0.0
  0
LINE
  5
175
330
1F
100
AcDbEntity
  8
TFR-TRI
  6
Continuous
 62
   155
100
AcDbLine
 10
-96.87532806396484
 20
18.95723247528076
 30
0.0
 11
-96.87532806396484
 21
18.89373302459716
 31
0.0
  0
LINE
  5
176
330
1F
100
AcDbEntity
  8
TFR-TRI
  6
Continuous
 62
   155
100
AcDbLine
 10
-91.52098846435547
 20
12.91881847381592
 30
0.0
 11
-91.52098846435547
 21
12.89760875701904
 31
0.0
  0
LINE
  5
177
330
1F
100
AcDbEntity
  8
TFR-TRI
  6
Continuous
 62
   155
100
AcDbLine
 10
-91.52098846435547
 20
12.89760875701904
 30
0.0
 11
-91.52098846435547
 21
12.88881969451904
 31
0.0
  0
LINE
  5
178
330
1F
100
AcDbEntity
  8
TFR-TRI
  6
Continuous
 62
   155
100
AcDbLine
 10
-97.03279876708984
 20
12.91881847381592
 30
0.0
 11
-97.03279876708984
 21
12.89760875701904
 31
0.0
  0
LINE
  5
179
330
1F
100
AcDbEntity
  8
TFR-TRI
  6
Continuous
 62
   155
100
AcDbLine
 10
-97.03279876708984
 20
12.89760875701904
 30
0.0
 11
-97.03279876708984
 21
12.88881969451904
 31
0.0
  0
LINE
  5
17A
330
1F
100
AcDbEntity
  8
TFR-TRI
  6
Continuous
 62
   155
100
AcDbLine
 10
-91.52098846435547
 20
12.88881969451904
 30
0.0
 11
-91.52098846435547
 21
12.82532024383545
 31
0.0
  0
LINE
  5
17B
330
1F
100
AcDbEntity
  8
TFR-TRI
  6
Continuous
 62
   155
100
AcDbLine
 10
-97.03279876708984
 20
12.82532024383545
 30
0.0
 11
-97.03279876708984
 21
12.88881969451904
 31
0.0
  0
LINE
  5
17C
330
1F
100
AcDbEntity
  8
TFR-TRI
  6
Continuous
 62
   155
100
AcDbLine
 10
-91.52098846435547
 20
12.82532024383545
 30
0.0
 11
-91.59972381591797
 21
12.82532024383545
 31
0.0
  0
LINE
  5
17D
330
1F
100
AcDbEntity
  8
TFR-TRI
  6
Continuous
 62
   155
100
AcDbLine
 10
-91.59972381591797
 20
12.82532024383545
 30
0.0
 11
-96.87532806396484
 21
12.82532024383545
 31
0.0
  0
LINE
  5
17E
330
1F
100
AcDbEntity
  8
TFR-TRI
  6
Continuous
 62
   155
100
AcDbLine
 10
-96.87532806396484
 20
12.82532024383545
 30
0.0
 11
-97.03279876708984
 21
12.82532024383545
 31
0.0
  0
LINE
  5
17F
330
1F
100
AcDbEntity
  8
TFR-TRI
  6
Continuous
 62
   155
100
AcDbLine
 10
-96.87532806396484
 20
12.88881969451904
 30
0.0
 11
-91.59972381591797
 21
12.88881969451904
 31
0.0
  0
LINE
  5
180
330
1F
100
AcDbEntity
  8
TFR-TRI
  6
Continuous
 62
   155
100
AcDbLine
 10
-91.59972381591797
 20
12.88881969451904
 30
0.0
 11
-91.52098846435547
 21
12.88881969451904
 31
0.0
  0
LINE
  5
181
330
1F
100
AcDbEntity
  8
TFR-TRI
  6
Continuous
 62
   155
100
AcDbLine
 10
-97.03279876708984
 20
12.88881969451904
 30
0.0
 11
-96.87532806396484
 21
12.88881969451904
 31
0.0
  0
LINE
  5
182
330
1F
100
AcDbEntity
  8
TFR-TRI
  6
Continuous
 62
   155
100
AcDbLine
 10
-91.59972381591797
 20
12.82532024383545
 30
0.0
 11
-91.59972381591797
 21
12.88881969451904
 31
0.0
  0
LINE
  5
183
330
1F
100
AcDbEntity
  8
TFR-TRI
  6
Continuous
 62
   155
100
AcDbLine
 10
-96.87532806396484
 20
12.88881969451904
 30
0.0
 11
-96.87532806396484
 21
12.82532024383545
 31
0.0
  0
LINE
  5
184
330
1F
100
AcDbEntity
  8
TFR-TRI
  6
Continuous
 62
   155
100
AcDbLine
 10
-95.18779754638671
 20
12.81032085418701
 30
0.0
 11
-95.18779754638671
 21
12.74682140350342
 31
0.0
  0
LINE
  5
185
330
1F
100
AcDbEntity
  8
TFR-TRI
  6
Continuous
 62
   155
100
AcDbLine
 10
-95.18779754638671
 20
19.03573131561279
 30
0.0
 11
-95.18779754638671
 21
18.9722318649292
 31
0.0
  0
LINE
  5
186
330
1F
100
AcDbEntity
  8
TFR-TRI
  6
Continuous
 62
   155
100
AcDbLine
 10
-97.74684906005859
 20
12.74682140350342
 30
0.0
 11
-97.74684906005859
 21
12.81032085418701
 31
0.0
  0
LINE
  5
187
330
1F
100
AcDbEntity
  8
TFR-TRI
  6
Continuous
 62
   155
100
AcDbLine
 10
-97.74684906005859
 20
18.9722318649292
 30
0.0
 11
-97.74684906005859
 21
19.03573131561279
 31
0.0
  0
LINE
  5
188
330
1F
100
AcDbEntity
  8
TFR-TRI
  6
Continuous
 62
   155
100
AcDbLine
 10
-97.58937835693359
 20
19.03573131561279
 30
0.0
 11
-97.58937835693359
 21
18.9722318649292
 31
0.0
  0
LINE
  5
189
330
1F
100
AcDbEntity
  8
TFR-TRI
  6
Continuous
 62
   155
100
AcDbLine
 10
-97.35184478759766
 20
18.9722318649292
 30
0.0
 11
-97.35184478759766
 21
19.03573131561279
 31
0.0
  0
LINE
  5
18A
330
1F
100
AcDbEntity
  8
TFR-TRI
  6
Continuous
 62
   155
100
AcDbLine
 10
-97.58937835693359
 20
12.81032085418701
 30
0.0
 11
-97.58937835693359
 21
12.74682140350342
 31
0.0
  0
LINE
  5
18B
330
1F
100
AcDbEntity
  8
TFR-TRI
  6
Continuous
 62
   155
100
AcDbLine
 10
-97.35184478759766
 20
12.81032085418701
 30
0.0
 11
-97.35184478759766
 21
12.74682140350342
 31
0.0
  0
LINE
  5
18C
330
1F
100
AcDbEntity
  8
TFR-TRI
  6
Continuous
 62
   155
100
AcDbLine
 10
-97.84331512451172
 20
121.335711479187
 30
0.0
 11
-97.84331512451172
 21
121.3037137985229
 31
0.0
  0
LINE
  5
18D
330
1F
100
AcDbEntity
  8
TFR-TRI
  6
Continuous
 62
   155
100
AcDbLine
 10
-97.84331512451172
 20
121.335711479187
 30
0.0
 11
-97.84331512451172
 21
121.3037137985229
 31
0.0
  0
LINE
  5
18E
330
1F
100
AcDbEntity
  8
TFR-TRI
  6
Continuous
 62
   155
100
AcDbLine
 10
-96.97415924072267
 20
121.0547361373901
 30
0.0
 11
-91.52098846435547
 21
121.0547361373901
 31
0.0
  0
LINE
  5
18F
330
1F
100
AcDbEntity
  8
TFR-TRI
  6
Continuous
 62
   155
100
AcDbLine
 10
-97.74684906005859
 20
121.3514738082885
 30
0.0
 11
-97.15630340576172
 21
121.3514738082885
 31
0.0
  0
LINE
  5
190
330
1F
100
AcDbEntity
  8
TFR-TRI
  6
Continuous
 62
   155
100
AcDbLine
 10
-97.74684906005859
 20
121.3514738082885
 30
0.0
 11
-97.74684906005859
 21
121.3240842819214
 31
0.0
  0
LINE
  5
191
330
1F
100
AcDbEntity
  8
TFR-TRI
  6
Continuous
 62
   155
100
AcDbLine
 10
-97.74684906005859
 20
121.3240842819214
 30
0.0
 11
-97.74684906005859
 21
121.2579679489135
 31
0.0
  0
LINE
  5
192
330
1F
100
AcDbEntity
  8
TFR-TRI
  6
Continuous
 62
   155
100
AcDbLine
 10
-97.74684906005859
 20
121.2579679489135
 30
0.0
 11
-97.15630340576172
 21
121.2579679489135
 31
0.0
  0
LINE
  5
193
330
1F
100
AcDbEntity
  8
TFR-TRI
  6
Continuous
 62
   155
100
AcDbLine
 10
-97.15630340576172
 20
121.3514738082885
 30
0.0
 11
-97.15630340576172
 21
121.3240842819214
 31
0.0
  0
LINE
  5
194
330
1F
100
AcDbEntity
  8
TFR-TRI
  6
Continuous
 62
   155
100
AcDbLine
 10
-97.15630340576172
 20
121.3240842819214
 30
0.0
 11
-97.15630340576172
 21
121.2579679489135
 31
0.0
  0
LINE
  5
195
330
1F
100
AcDbEntity
  8
TFR-TRI
  6
Continuous
 62
   155
100
AcDbLine
 10
-95.18779754638671
 20
120.8431577682495
 30
0.0
 11
-95.18779754638671
 21
120.6884031295776
 31
0.0
  0
LINE
  5
196
330
1F
100
AcDbEntity
  8
TFR-TRI
  6
Continuous
 62
   155
100
AcDbLine
 10
-95.18779754638671
 20
120.8431577682495
 30
0.0
 11
-95.26653289794921
 21
120.9219083786011
 31
0.0
  0
LINE
  5
197
330
1F
100
AcDbEntity
  8
TFR-TRI
  6
Continuous
 62
   155
100
AcDbLine
 10
-96.84134674072266
 20
120.9219083786011
 30
0.0
 11
-95.26653289794921
 21
120.9219083786011
 31
0.0
  0
LINE
  5
198
330
1F
100
AcDbEntity
  8
TFR-TRI
  6
Continuous
 62
   155
100
AcDbLine
 10
-96.84134674072266
 20
120.9219083786011
 30
0.0
 11
-97.15630340576172
 21
121.2368650436401
 31
0.0
  0
LINE
  5
199
330
1F
100
AcDbEntity
  8
TFR-TRI
  6
Continuous
 62
   155
100
AcDbLine
 10
-97.15630340576172
 20
121.2579679489135
 30
0.0
 11
-97.15630340576172
 21
121.2368650436401
 31
0.0
  0
LINE
  5
19A
330
1F
100
AcDbEntity
  8
TFR-TRI
  6
Continuous
 62
   155
100
AcDbLine
 10
-97.74684906005859
 20
121.2579679489135
 30
0.0
 11
-97.74684906005859
 21
121.2382841110229
 31
0.0
  0
LINE
  5
19B
330
1F
100
AcDbEntity
  8
TFR-TRI
  6
Continuous
 62
   155
100
AcDbLine
 10
-97.74684906005859
 20
121.2382841110229
 30
0.0
 11
-97.58937835693359
 21
121.0807981491089
 31
0.0
  0
LINE
  5
19C
330
1F
100
AcDbEntity
  8
TFR-TRI
  6
Continuous
 62
   155
100
AcDbLine
 10
-97.35184478759766
 20
121.0807981491089
 30
0.0
 11
-97.58937835693359
 21
121.0807981491089
 31
0.0
  0
LINE
  5
19D
330
1F
100
AcDbEntity
  8
TFR-TRI
  6
Continuous
 62
   155
100
AcDbLine
 10
-96.88071441650391
 20
120.6096677780151
 30
0.0
 11
-97.35184478759766
 21
121.0807981491089
 31
0.0
  0
LINE
  5
19E
330
1F
100
AcDbEntity
  8
TFR-TRI
  6
Continuous
 62
   155
100
AcDbLine
 10
-96.88071441650391
 20
120.6096677780151
 30
0.0
 11
-95.26653289794921
 21
120.6096677780151
 31
0.0
  0
LINE
  5
19F
330
1F
100
AcDbEntity
  8
TFR-TRI
  6
Continuous
 62
   155
100
AcDbLine
 10
-95.26653289794921
 20
120.6096677780151
 30
0.0
 11
-95.18779754638671
 21
120.6884031295776
 31
0.0
  0
LINE
  5
1A0
330
1F
100
AcDbEntity
  8
TFR-TRI
  6
Continuous
 62
   155
100
AcDbLine
 10
-97.06279754638671
 20
121.1433591842651
 30
0.0
 11
-97.06279754638671
 21
121.2579679489135
 31
0.0
  0
LINE
  5
1A1
330
1F
100
AcDbEntity
  8
TFR-TRI
  6
Continuous
 62
   155
100
AcDbLine
 10
-97.06279754638671
 20
121.2579679489135
 30
0.0
 11
-97.12630462646485
 21
121.2579679489135
 31
0.0
  0
LINE
  5
1A2
330
1F
100
AcDbEntity
  8
TFR-TRI
  6
Continuous
 62
   155
100
AcDbLine
 10
-97.12630462646485
 20
121.2068662643432
 30
0.0
 11
-97.12630462646485
 21
121.2579679489135
 31
0.0
  0
LINE
  5
1A3
330
1F
100
AcDbEntity
  8
TFR-TRI
  6
Continuous
 62
   155
100
AcDbLine
 10
-91.49098968505859
 20
120.9612455368042
 30
0.0
 11
-91.42749786376953
 21
120.9612455368042
 31
0.0
  0
LINE
  5
1A4
330
1F
100
AcDbEntity
  8
TFR-TRI
  6
Continuous
 62
   155
100
AcDbLine
 10
-91.49098968505859
 20
120.9612455368042
 30
0.0
 11
-91.49098968505859
 21
120.6884031295776
 31
0.0
  0
LINE
  5
1A5
330
1F
100
AcDbEntity
  8
TFR-TRI
  6
Continuous
 62
   155
100
AcDbLine
 10
-91.49098968505859
 20
120.6884031295776
 30
0.0
 11
-91.42749786376953
 21
120.6884031295776
 31
0.0
  0
LINE
  5
1A6
330
1F
100
AcDbEntity
  8
TFR-TRI
  6
Continuous
 62
   155
100
AcDbLine
 10
-91.42749786376953
 20
120.9612455368042
 30
0.0
 11
-91.42749786376953
 21
120.6884031295776
 31
0.0
  0
LINE
  5
1A7
330
1F
100
AcDbEntity
  8
TFR-TRI
  6
Continuous
 62
   155
100
AcDbLine
 10
-91.42749786376953
 20
120.6884031295776
 30
0.0
 11
-91.42749786376953
 21
120.6096677780151
 31
0.0
  0
LINE
  5
1A8
330
1F
100
AcDbEntity
  8
TFR-TRI
  6
Continuous
 62
   155
100
AcDbLine
 10
-91.49098968505859
 20
120.6096677780151
 30
0.0
 11
-91.49098968505859
 21
120.6884031295776
 31
0.0
  0
LINE
  5
1A9
330
1F
100
AcDbEntity
  8
TFR-TRI
  6
Continuous
 62
   155
100
AcDbLine
 10
-91.42749786376953
 20
120.6096677780151
 30
0.0
 11
-91.49098968505859
 21
120.6096677780151
 31
0.0
  0
LINE
  5
1AA
330
1F
100
AcDbEntity
  8
TFR-TRI
  6
Continuous
 62
   155
100
AcDbLine
 10
-91.52098846435547
 20
121.0547361373901
 30
0.0
 11
-91.52098846435547
 21
121.0273466110229
 31
0.0
  0
LINE
  5
1AB
330
1F
100
AcDbEntity
  8
TFR-TRI
  6
Continuous
 62
   155
100
AcDbLine
 10
-91.52098846435547
 20
121.0273466110229
 30
0.0
 11
-91.52098846435547
 21
120.9612455368042
 31
0.0
  0
LINE
  5
1AC
330
1F
100
AcDbEntity
  8
TFR-TRI
  6
Continuous
 62
   155
100
AcDbLine
 10
-96.88062286376954
 20
120.9612455368042
 30
0.0
 11
-91.52098846435547
 21
120.9612455368042
 31
0.0
  0
LINE
  5
1AD
330
1F
100
AcDbEntity
  8
TFR-TRI
  6
Continuous
 62
   155
100
AcDbLine
 10
-91.52098846435547
 20
120.9612455368042
 30
0.0
 11
-91.52098846435547
 21
120.6884031295776
 31
0.0
  0
LINE
  5
1AE
330
1F
100
AcDbEntity
  8
TFR-TRI
  6
Continuous
 62
   155
100
AcDbLine
 10
-95.26651763916015
 20
120.6096677780151
 30
0.0
 11
-91.59972381591797
 21
120.6096677780151
 31
0.0
  0
LINE
  5
1AF
330
1F
100
AcDbEntity
  8
TFR-TRI
  6
Continuous
 62
   155
100
AcDbLine
 10
-91.59972381591797
 20
120.6096677780151
 30
0.0
 11
-91.52098846435547
 21
120.6884031295776
 31
0.0
  0
LINE
  5
1B0
330
1F
100
AcDbEntity
  8
TFR-TRI
  6
Continuous
 62
     3
100
AcDbLine
 10
-154.3073806762695
 20
18.9722318649292
 30
0.0
 11
-154.3073806762695
 21
18.95723247528076
 31
0.0
  0
LINE
  5
1B1
330
1F
100
AcDbEntity
  8
TFR-TRI
  6
Continuous
 62
     3
100
AcDbLine
 10
-154.3073806762695
 20
18.89373302459716
 30
0.0
 11
-154.3073806762695
 21
18.72273540496826
 31
0.0
  0
LINE
  5
1B2
330
1F
100
AcDbEntity
  8
TFR-TRI
  6
Continuous
 62
     3
100
AcDbLine
 10
-154.1823806762695
 20
18.72273540496826
 30
0.0
 11
-154.1823806762695
 21
18.89373302459716
 31
0.0
  0
LINE
  5
1B3
330
1F
100
AcDbEntity
  8
TFR-TRI
  6
Continuous
 62
     3
100
AcDbLine
 10
-154.1823806762695
 20
18.95723247528076
 30
0.0
 11
-154.1823806762695
 21
18.9722318649292
 31
0.0
  0
LINE
  5
1B4
330
1F
100
AcDbEntity
  8
TFR-TRI
  6
Continuous
 62
     3
100
AcDbLine
 10
-154.3073806762695
 20
77.80981731414795
 30
0.0
 11
-154.3073806762695
 21
77.63882732391357
 31
0.0
  0
LINE
  5
1B5
330
1F
100
AcDbEntity
  8
TFR-TRI
  6
Continuous
 62
     3
100
AcDbLine
 10
-154.3073806762695
 20
77.57532024383545
 30
0.0
 11
-154.3073806762695
 21
77.56032085418701
 31
0.0
  0
LINE
  5
1B6
330
1F
100
AcDbEntity
  8
TFR-TRI
  6
Continuous
 62
     3
100
AcDbLine
 10
-154.1796569824219
 20
12.81032085418701
 30
0.0
 11
-154.1796569824219
 21
12.82532024383545
 31
0.0
  0
LINE
  5
1B7
330
1F
100
AcDbEntity
  8
TFR-TRI
  6
Continuous
 62
     3
100
AcDbLine
 10
-154.1796569824219
 20
12.88881969451904
 30
0.0
 11
-154.1796569824219
 21
13.05981731414795
 31
0.0
  0
LINE
  5
1B8
330
1F
100
AcDbEntity
  8
TFR-TRI
  6
Continuous
 62
     3
100
AcDbLine
 10
-154.3046569824219
 20
13.05981731414795
 30
0.0
 11
-154.3046569824219
 21
12.88881969451904
 31
0.0
  0
LINE
  5
1B9
330
1F
100
AcDbEntity
  8
TFR-TRI
  6
Continuous
 62
     3
100
AcDbLine
 10
-154.3046569824219
 20
12.82532024383545
 30
0.0
 11
-154.3046569824219
 21
12.81032085418701
 31
0.0
  0
LINE
  5
1BA
330
1F
100
AcDbEntity
  8
TFR-TRI
  6
Continuous
 62
     3
100
AcDbLine
 10
-154.3073806762695
 20
83.7222318649292
 30
0.0
 11
-154.3073806762695
 21
83.70723247528076
 31
0.0
  0
LINE
  5
1BB
330
1F
100
AcDbEntity
  8
TFR-TRI
  6
Continuous
 62
     3
100
AcDbLine
 10
-154.3073806762695
 20
83.64372539520264
 30
0.0
 11
-154.3073806762695
 21
83.47273540496827
 31
0.0
  0
LINE
  5
1BC
330
1F
100
AcDbEntity
  8
TFR-TRI
  6
Continuous
 62
     3
100
AcDbLine
 10
-154.1823806762695
 20
83.47273540496827
 30
0.0
 11
-154.1823806762695
 21
83.64372539520264
 31
0.0
  0
LINE
  5
1BD
330
1F
100
AcDbEntity
  8
TFR-TRI
  6
Continuous
 62
     3
100
AcDbLine
 10
-154.1823806762695
 20
83.70723247528076
 30
0.0
 11
-154.1823806762695
 21
83.7222318649292
 31
0.0
  0
LINE
  5
1BE
330
1F
100
AcDbEntity
  8
TFR-TRI
  6
Continuous
 62
     3
100
AcDbLine
 10
-154.3073806762695
 20
13.05981731414795
 30
0.0
 11
-154.3073806762695
 21
12.88881969451904
 31
0.0
  0
LINE
  5
1BF
330
1F
100
AcDbEntity
  8
TFR-TRI
  6
Continuous
 62
     3
100
AcDbLine
 10
-154.3073806762695
 20
12.82532024383545
 30
0.0
 11
-154.3073806762695
 21
12.81032085418701
 31
0.0
  0
LINE
  5
1C0
330
1F
100
AcDbEntity
  8
TFR-TRI
  6
Continuous
 62
     3
100
AcDbLine
 10
-154.1796569824219
 20
77.56032085418701
 30
0.0
 11
-154.1796569824219
 21
77.57532024383545
 31
0.0
  0
LINE
  5
1C1
330
1F
100
AcDbEntity
  8
TFR-TRI
  6
Continuous
 62
     3
100
AcDbLine
 10
-154.1796569824219
 20
77.63882732391357
 30
0.0
 11
-154.1796569824219
 21
77.80981731414795
 31
0.0
  0
LINE
  5
1C2
330
1F
100
AcDbEntity
  8
TFR-TRI
  6
Continuous
 62
     3
100
AcDbLine
 10
-154.3046569824219
 20
77.80981731414795
 30
0.0
 11
-154.3046569824219
 21
77.63882732391357
 31
0.0
  0
LINE
  5
1C3
330
1F
100
AcDbEntity
  8
TFR-TRI
  6
Continuous
 62
     3
100
AcDbLine
 10
-154.3046569824219
 20
77.57532024383545
 30
0.0
 11
-154.3046569824219
 21
77.56032085418701
 31
0.0
  0
LINE
  5
1C4
330
1F
100
AcDbEntity
  8
TFR-TRI
  6
Continuous
 62
   155
100
AcDbLine
 10
-154.5167236328125
 20
77.57237529754639
 30
0.0
 11
-154.4847183227539
 21
77.57237529754639
 31
0.0
  0
LINE
  5
1C5
330
1F
100
AcDbEntity
  8
TFR-TRI
  6
Continuous
 62
   155
100
AcDbLine
 10
-154.5167236328125
 20
18.96018505096435
 30
0.0
 11
-154.4847183227539
 21
18.96018505096435
 31
0.0
  0
LINE
  5
1C6
330
1F
100
AcDbEntity
  8
TFR-TRI
  6
Continuous
 62
   155
100
AcDbLine
 10
-154.5167236328125
 20
83.71017742156983
 30
0.0
 11
-154.4847183227539
 21
83.71017742156983
 31
0.0
  0
LINE
  5
1C7
330
1F
100
AcDbEntity
  8
TFR-TRI
  6
Continuous
 62
   155
100
AcDbLine
 10
-154.5167236328125
 20
12.82236766815185
 30
0.0
 11
-154.4847183227539
 21
12.82236766815185
 31
0.0
  0
LINE
  5
1C8
330
1F
100
AcDbEntity
  8
TFR-TRI
  6
Continuous
 62
     3
100
AcDbLine
 10
-154.3046569824219
 20
77.80981731414795
 30
0.0
 11
-154.3066940307617
 21
77.80981731414795
 31
0.0
  0
LINE
  5
1C9
330
1F
100
AcDbEntity
  8
TFR-TRI
  6
Continuous
 62
     3
100
AcDbLine
 10
-154.3066940307617
 20
77.80981731414795
 30
0.0
 11
-154.3073806762695
 21
77.80981731414795
 31
0.0
  0
LINE
  5
1CA
330
1F
100
AcDbEntity
  8
TFR-TRI
  6
Continuous
 62
     3
100
AcDbLine
 10
-154.1796569824219
 20
77.80981731414795
 30
0.0
 11
-154.2109069824219
 21
77.80981731414795
 31
0.0
  0
LINE
  5
1CB
330
1F
100
AcDbEntity
  8
TFR-TRI
  6
Continuous
 62
     3
100
AcDbLine
 10
-154.2109069824219
 20
77.80981731414795
 30
0.0
 11
-154.2734069824218
 21
77.80981731414795
 31
0.0
  0
LINE
  5
1CC
330
1F
100
AcDbEntity
  8
TFR-TRI
  6
Continuous
 62
     3
100
AcDbLine
 10
-154.2734069824218
 20
77.80981731414795
 30
0.0
 11
-154.3046569824219
 21
77.80981731414795
 31
0.0
  0
LINE
  5
1CD
330
1F
100
AcDbEntity
  8
TFR-TRI
  6
Continuous
 62
     3
100
AcDbLine
 10
-154.3073806762695
 20
83.47273540496827
 30
0.0
 11
-154.2761306762695
 21
83.47273540496827
 31
0.0
  0
LINE
  5
1CE
330
1F
100
AcDbEntity
  8
TFR-TRI
  6
Continuous
 62
     3
100
AcDbLine
 10
-154.2761306762695
 20
83.47273540496827
 30
0.0
 11
-154.2136306762695
 21
83.47273540496827
 31
0.0
  0
LINE
  5
1CF
330
1F
100
AcDbEntity
  8
TFR-TRI
  6
Continuous
 62
     3
100
AcDbLine
 10
-154.2136306762695
 20
83.47273540496827
 30
0.0
 11
-154.1823806762695
 21
83.47273540496827
 31
0.0
  0
LINE
  5
1D0
330
1F
100
AcDbEntity
  8
TFR-TRI
  6
Continuous
 62
   155
100
AcDbLine
 10
-154.4689712524414
 20
83.61372661590577
 30
0.0
 11
-154.4689712524414
 21
77.66882610321045
 31
0.0
  0
LINE
  5
1D1
330
1F
100
AcDbEntity
  8
TFR-TRI
  6
Continuous
 62
   155
100
AcDbLine
 10
-154.8292007446289
 20
77.59031963348388
 30
0.0
 11
-154.8292007446289
 21
83.69223308563233
 31
0.0
  0
LINE
  5
1D2
330
1F
100
AcDbEntity
  8
TFR-TRI
  6
Continuous
 62
   155
100
AcDbLine
 10
-154.7657012939453
 20
83.69223308563233
 30
0.0
 11
-154.7657012939453
 21
77.59031963348388
 31
0.0
  0
LINE
  5
1D3
330
1F
100
AcDbEntity
  8
TFR-TRI
  6
Continuous
 62
   155
100
AcDbLine
 10
-154.0873947143554
 20
77.49681377410889
 30
0.0
 11
-154.5585327148437
 21
77.49681377410889
 31
0.0
  0
LINE
  5
1D4
330
1F
100
AcDbEntity
  8
TFR-TRI
  6
Continuous
 62
   155
100
AcDbLine
 10
-154.5585327148437
 20
77.49681377410889
 30
0.0
 11
-154.7160186767578
 21
77.49681377410889
 31
0.0
  0
LINE
  5
1D5
330
1F
100
AcDbEntity
  8
TFR-TRI
  6
Continuous
 62
   155
100
AcDbLine
 10
-154.7357025146484
 20
77.49681377410889
 30
0.0
 11
-154.7160186767578
 21
77.49681377410889
 31
0.0
  0
LINE
  5
1D6
330
1F
100
AcDbEntity
  8
TFR-TRI
  6
Continuous
 62
   155
100
AcDbLine
 10
-154.7357025146484
 20
77.56032085418701
 30
0.0
 11
-154.7160186767578
 21
77.56032085418701
 31
0.0
  0
LINE
  5
1D7
330
1F
100
AcDbEntity
  8
TFR-TRI
  6
Continuous
 62
   155
100
AcDbLine
 10
-154.7160186767578
 20
77.56032085418701
 30
0.0
 11
-154.5585327148437
 21
77.56032085418701
 31
0.0
  0
LINE
  5
1D8
330
1F
100
AcDbEntity
  8
TFR-TRI
  6
Continuous
 62
   155
100
AcDbLine
 10
-154.0873947143554
 20
77.56032085418701
 30
0.0
 11
-154.5585327148437
 21
77.56032085418701
 31
0.0
  0
LINE
  5
1D9
330
1F
100
AcDbEntity
  8
TFR-TRI
  6
Continuous
 62
   155
100
AcDbLine
 10
-154.0873947143554
 20
77.56032085418701
 30
0.0
 11
-154.0873947143554
 21
77.49681377410889
 31
0.0
  0
LINE
  5
1DA
330
1F
100
AcDbEntity
  8
TFR-TRI
  6
Continuous
 62
   155
100
AcDbLine
 10
-154.7357025146484
 20
83.78573894500732
 30
0.0
 11
-154.7160186767578
 21
83.78573894500732
 31
0.0
  0
LINE
  5
1DB
330
1F
100
AcDbEntity
  8
TFR-TRI
  6
Continuous
 62
   155
100
AcDbLine
 10
-154.7160186767578
 20
83.78573894500732
 30
0.0
 11
-154.5585327148437
 21
83.78573894500732
 31
0.0
  0
LINE
  5
1DC
330
1F
100
AcDbEntity
  8
TFR-TRI
  6
Continuous
 62
   155
100
AcDbLine
 10
-154.0873947143554
 20
83.78573894500732
 30
0.0
 11
-154.5585327148437
 21
83.78573894500732
 31
0.0
  0
LINE
  5
1DD
330
1F
100
AcDbEntity
  8
TFR-TRI
  6
Continuous
 62
   155
100
AcDbLine
 10
-154.5585327148437
 20
83.7222318649292
 30
0.0
 11
-154.0873947143554
 21
83.7222318649292
 31
0.0
  0
LINE
  5
1DE
330
1F
100
AcDbEntity
  8
TFR-TRI
  6
Continuous
 62
   155
100
AcDbLine
 10
-154.5585327148437
 20
83.7222318649292
 30
0.0
 11
-154.7160186767578
 21
83.7222318649292
 31
0.0
  0
LINE
  5
1DF
330
1F
100
AcDbEntity
  8
TFR-TRI
  6
Continuous
 62
   155
100
AcDbLine
 10
-154.7357025146484
 20
83.7222318649292
 30
0.0
 11
-154.7160186767578
 21
83.7222318649292
 31
0.0
  0
LINE
  5
1E0
330
1F
100
AcDbEntity
  8
TFR-TRI
  6
Continuous
 62
   155
100
AcDbLine
 10
-154.0873947143554
 20
83.7222318649292
 30
0.0
 11
-154.0873947143554
 21
83.78573894500732
 31
0.0
  0
LINE
  5
1E1
330
1F
100
AcDbEntity
  8
TFR-TRI
  6
Continuous
 62
   155
100
AcDbLine
 10
-154.4689712524414
 20
83.61372661590577
 30
0.0
 11
-154.4963607788086
 21
83.61372661590577
 31
0.0
  0
LINE
  5
1E2
330
1F
100
AcDbEntity
  8
TFR-TRI
  6
Continuous
 62
   155
100
AcDbLine
 10
-154.4963607788086
 20
83.61372661590577
 30
0.0
 11
-154.5624694824218
 21
83.61372661590577
 31
0.0
  0
LINE
  5
1E3
330
1F
100
AcDbEntity
  8
TFR-TRI
  6
Continuous
 62
   155
100
AcDbLine
 10
-154.4689712524414
 20
77.66882610321045
 30
0.0
 11
-154.4963607788086
 21
77.66882610321045
 31
0.0
  0
LINE
  5
1E4
330
1F
100
AcDbEntity
  8
TFR-TRI
  6
Continuous
 62
   155
100
AcDbLine
 10
-154.4963607788086
 20
77.66882610321045
 30
0.0
 11
-154.5624694824218
 21
77.66882610321045
 31
0.0
  0
LINE
  5
1E5
330
1F
100
AcDbEntity
  8
TFR-TRI
  6
Continuous
 62
   155
100
AcDbLine
 10
-154.5624694824218
 20
83.61372661590577
 30
0.0
 11
-154.5624694824218
 21
77.66882610321045
 31
0.0
  0
LINE
  5
1E6
330
1F
100
AcDbEntity
  8
TFR-TRI
  6
Continuous
 62
   155
100
AcDbLine
 10
-154.5624694824218
 20
83.61372661590577
 30
0.0
 11
-154.7357025146484
 21
83.61372661590577
 31
0.0
  0
LINE
  5
1E7
330
1F
100
AcDbEntity
  8
TFR-TRI
  6
Continuous
 62
   155
100
AcDbLine
 10
-154.5624694824218
 20
77.66882610321045
 30
0.0
 11
-154.7357025146484
 21
77.66882610321045
 31
0.0
  0
LINE
  5
1E8
330
1F
100
AcDbEntity
  8
TFR-TRI
  6
Continuous
 62
   155
100
AcDbLine
 10
-154.7357025146484
 20
83.61372661590577
 30
0.0
 11
-154.7357025146484
 21
77.66882610321045
 31
0.0
  0
LINE
  5
1E9
330
1F
100
AcDbEntity
  8
TFR-TRI
  6
Continuous
 62
   155
100
AcDbLine
 10
-154.7357025146484
 20
77.66882610321045
 30
0.0
 11
-154.7569122314453
 21
77.66882610321045
 31
0.0
  0
LINE
  5
1EA
330
1F
100
AcDbEntity
  8
TFR-TRI
  6
Continuous
 62
   155
100
AcDbLine
 10
-154.7569122314453
 20
77.66882610321045
 30
0.0
 11
-154.7657012939453
 21
77.66882610321045
 31
0.0
  0
LINE
  5
1EB
330
1F
100
AcDbEntity
  8
TFR-TRI
  6
Continuous
 62
   155
100
AcDbLine
 10
-154.7357025146484
 20
83.61372661590577
 30
0.0
 11
-154.7569122314453
 21
83.61372661590577
 31
0.0
  0
LINE
  5
1EC
330
1F
100
AcDbEntity
  8
TFR-TRI
  6
Continuous
 62
   155
100
AcDbLine
 10
-154.7569122314453
 20
83.61372661590577
 30
0.0
 11
-154.7657012939453
 21
83.61372661590577
 31
0.0
  0
LINE
  5
1ED
330
1F
100
AcDbEntity
  8
TFR-TRI
  6
Continuous
 62
   155
100
AcDbLine
 10
-154.4689712524414
 20
83.61372661590577
 30
0.0
 11
-154.4601898193359
 21
83.61372661590577
 31
0.0
  0
LINE
  5
1EE
330
1F
100
AcDbEntity
  8
TFR-TRI
  6
Continuous
 62
   155
100
AcDbLine
 10
-154.4601898193359
 20
83.61372661590577
 30
0.0
 11
-154.4389724731445
 21
83.61372661590577
 31
0.0
  0
LINE
  5
1EF
330
1F
100
AcDbEntity
  8
TFR-TRI
  6
Continuous
 62
   155
100
AcDbLine
 10
-154.4689712524414
 20
77.66882610321045
 30
0.0
 11
-154.4601898193359
 21
77.66882610321045
 31
0.0
  0
LINE
  5
1F0
330
1F
100
AcDbEntity
  8
TFR-TRI
  6
Continuous
 62
   155
100
AcDbLine
 10
-154.4601898193359
 20
77.66882610321045
 30
0.0
 11
-154.4389724731445
 21
77.66882610321045
 31
0.0
  0
LINE
  5
1F1
330
1F
100
AcDbEntity
  8
TFR-TRI
  6
Continuous
 62
   155
100
AcDbLine
 10
-154.4389724731445
 20
77.66882610321045
 30
0.0
 11
-154.4389724731445
 21
83.61372661590577
 31
0.0
  0
LINE
  5
1F2
330
1F
100
AcDbEntity
  8
TFR-TRI
  6
Continuous
 62
   155
100
AcDbLine
 10
-154.4389724731445
 20
83.61372661590577
 30
0.0
 11
-154.3073806762695
 21
83.61372661590577
 31
0.0
  0
LINE
  5
1F3
330
1F
100
AcDbEntity
  8
TFR-TRI
  6
Continuous
 62
   155
100
AcDbLine
 10
-154.1823806762695
 20
83.61372661590577
 30
0.0
 11
-154.1661376953125
 21
83.61372661590577
 31
0.0
  0
LINE
  5
1F4
330
1F
100
AcDbEntity
  8
TFR-TRI
  6
Continuous
 62
   155
100
AcDbLine
 10
-154.4389724731445
 20
77.66882610321045
 30
0.0
 11
-154.3073806762695
 21
77.66882610321045
 31
0.0
  0
LINE
  5
1F5
330
1F
100
AcDbEntity
  8
TFR-TRI
  6
Continuous
 62
   155
100
AcDbLine
 10
-154.1796569824219
 20
77.66882610321045
 30
0.0
 11
-154.1661376953125
 21
77.66882610321045
 31
0.0
  0
LINE
  5
1F6
330
1F
100
AcDbEntity
  8
TFR-TRI
  6
Continuous
 62
   155
100
AcDbLine
 10
-154.0873947143554
 20
77.74756145477295
 30
0.0
 11
-154.0873947143554
 21
83.53499126434327
 31
0.0
  0
LINE
  5
1F7
330
1F
100
AcDbEntity
  8
TFR-TRI
  6
Continuous
 62
   155
100
AcDbLine
 10
-154.0873947143554
 20
83.53499126434327
 30
0.0
 11
-154.1661376953125
 21
83.61372661590577
 31
0.0
  0
LINE
  5
1F8
330
1F
100
AcDbEntity
  8
TFR-TRI
  6
Continuous
 62
   155
100
AcDbLine
 10
-154.1661376953125
 20
77.66882610321045
 30
0.0
 11
-154.0873947143554
 21
77.74756145477295
 31
0.0
  0
LINE
  5
1F9
330
1F
100
AcDbEntity
  8
TFR-TRI
  6
Continuous
 62
   155
100
AcDbLine
 10
-154.4389724731445
 20
83.6437406539917
 30
0.0
 11
-154.4389724731445
 21
83.70723247528076
 31
0.0
  0
LINE
  5
1FA
330
1F
100
AcDbEntity
  8
TFR-TRI
  6
Continuous
 62
   155
100
AcDbLine
 10
-154.4389724731445
 20
83.6437406539917
 30
0.0
 11
-154.2448806762695
 21
83.6437406539917
 31
0.0
  0
LINE
  5
1FB
330
1F
100
AcDbEntity
  8
TFR-TRI
  6
Continuous
 62
   155
100
AcDbLine
 10
-154.2448806762695
 20
83.6437406539917
 30
0.0
 11
-154.2448806762695
 21
83.70723247528076
 31
0.0
  0
LINE
  5
1FC
330
1F
100
AcDbEntity
  8
TFR-TRI
  6
Continuous
 62
   155
100
AcDbLine
 10
-154.4389724731445
 20
83.70723247528076
 30
0.0
 11
-154.2448806762695
 21
83.70723247528076
 31
0.0
  0
LINE
  5
1FD
330
1F
100
AcDbEntity
  8
TFR-TRI
  6
Continuous
 62
   155
100
AcDbLine
 10
-154.2448806762695
 20
83.70723247528076
 30
0.0
 11
-154.0873947143554
 21
83.70723247528076
 31
0.0
  0
LINE
  5
1FE
330
1F
100
AcDbEntity
  8
TFR-TRI
  6
Continuous
 62
   155
100
AcDbLine
 10
-154.0873947143554
 20
83.6437406539917
 30
0.0
 11
-154.2448806762695
 21
83.6437406539917
 31
0.0
  0
LINE
  5
1FF
330
1F
100
AcDbEntity
  8
TFR-TRI
  6
Continuous
 62
   155
100
AcDbLine
 10
-154.0873947143554
 20
83.70723247528076
 30
0.0
 11
-154.0873947143554
 21
83.6437406539917
 31
0.0
  0
LINE
  5
200
330
1F
100
AcDbEntity
  8
TFR-TRI
  6
Continuous
 62
   155
100
AcDbLine
 10
-154.4389724731445
 20
77.57532024383545
 30
0.0
 11
-154.4389724731445
 21
77.63882732391357
 31
0.0
  0
LINE
  5
201
330
1F
100
AcDbEntity
  8
TFR-TRI
  6
Continuous
 62
   155
100
AcDbLine
 10
-154.4389724731445
 20
77.57532024383545
 30
0.0
 11
-154.2448806762695
 21
77.57532024383545
 31
0.0
  0
LINE
  5
202
330
1F
100
AcDbEntity
  8
TFR-TRI
  6
Continuous
 62
   155
100
AcDbLine
 10
-154.2448806762695
 20
77.57532024383545
 30
0.0
 11
-154.2448806762695
 21
77.63882732391357
 31
0.0
  0
LINE
  5
203
330
1F
100
AcDbEntity
  8
TFR-TRI
  6
Continuous
 62
   155
100
AcDbLine
 10
-154.4389724731445
 20
77.63882732391357
 30
0.0
 11
-154.2448806762695
 21
77.63882732391357
 31
0.0
  0
LINE
  5
204
330
1F
100
AcDbEntity
  8
TFR-TRI
  6
Continuous
 62
   155
100
AcDbLine
 10
-154.0873947143554
 20
77.57532024383545
 30
0.0
 11
-154.2448806762695
 21
77.57532024383545
 31
0.0
  0
LINE
  5
205
330
1F
100
AcDbEntity
  8
TFR-TRI
  6
Continuous
 62
   155
100
AcDbLine
 10
-154.2448806762695
 20
77.63882732391357
 30
0.0
 11
-154.0873947143554
 21
77.63882732391357
 31
0.0
  0
LINE
  5
206
330
1F
100
AcDbEntity
  8
TFR-TRI
  6
Continuous
 62
   155
100
AcDbLine
 10
-154.0873947143554
 20
77.63882732391357
 30
0.0
 11
-154.0873947143554
 21
77.57532024383545
 31
0.0
  0
LINE
  5
207
330
1F
100
AcDbEntity
  8
TFR-TRI
  6
Continuous
 62
   155
100
AcDbLine
 10
-154.7160186767578
 20
77.49681377410889
 30
0.0
 11
-154.7160186767578
 21
77.56032085418701
 31
0.0
  0
LINE
  5
208
330
1F
100
AcDbEntity
  8
TFR-TRI
  6
Continuous
 62
   155
100
AcDbLine
 10
-154.7160186767578
 20
83.7222318649292
 30
0.0
 11
-154.7160186767578
 21
83.78573894500732
 31
0.0
  0
LINE
  5
209
330
1F
100
AcDbEntity
  8
TFR-TRI
  6
Continuous
 62
   155
100
AcDbLine
 10
-154.5585327148437
 20
83.78573894500732
 30
0.0
 11
-154.5585327148437
 21
83.7222318649292
 31
0.0
  0
LINE
  5
20A
330
1F
100
AcDbEntity
  8
TFR-TRI
  6
Continuous
 62
   155
100
AcDbLine
 10
-154.5585327148437
 20
77.56032085418701
 30
0.0
 11
-154.5585327148437
 21
77.49681377410889
 31
0.0
  0
LINE
  5
20B
330
1F
100
AcDbEntity
  8
TFR-TRI
  6
Continuous
 62
     3
100
AcDbLine
 10
-154.3046569824219
 20
13.05981731414795
 30
0.0
 11
-154.3066940307617
 21
13.05981731414795
 31
0.0
  0
LINE
  5
20C
330
1F
100
AcDbEntity
  8
TFR-TRI
  6
Continuous
 62
     3
100
AcDbLine
 10
-154.3066940307617
 20
13.05981731414795
 30
0.0
 11
-154.3073806762695
 21
13.05981731414795
 31
0.0
  0
LINE
  5
20D
330
1F
100
AcDbEntity
  8
TFR-TRI
  6
Continuous
 62
     3
100
AcDbLine
 10
-154.1796569824219
 20
13.05981731414795
 30
0.0
 11
-154.2109069824219
 21
13.05981731414795
 31
0.0
  0
LINE
  5
20E
330
1F
100
AcDbEntity
  8
TFR-TRI
  6
Continuous
 62
     3
100
AcDbLine
 10
-154.2109069824219
 20
13.05981731414795
 30
0.0
 11
-154.2734069824218
 21
13.05981731414795
 31
0.0
  0
LINE
  5
20F
330
1F
100
AcDbEntity
  8
TFR-TRI
  6
Continuous
 62
     3
100
AcDbLine
 10
-154.2734069824218
 20
13.05981731414795
 30
0.0
 11
-154.3046569824219
 21
13.05981731414795
 31
0.0
  0
LINE
  5
210
330
1F
100
AcDbEntity
  8
TFR-TRI
  6
Continuous
 62
     3
100
AcDbLine
 10
-154.3073806762695
 20
18.72273540496826
 30
0.0
 11
-154.2761306762695
 21
18.72273540496826
 31
0.0
  0
LINE
  5
211
330
1F
100
AcDbEntity
  8
TFR-TRI
  6
Continuous
 62
     3
100
AcDbLine
 10
-154.2761306762695
 20
18.72273540496826
 30
0.0
 11
-154.2136306762695
 21
18.72273540496826
 31
0.0
  0
LINE
  5
212
330
1F
100
AcDbEntity
  8
TFR-TRI
  6
Continuous
 62
     3
100
AcDbLine
 10
-154.2136306762695
 20
18.72273540496826
 30
0.0
 11
-154.1823806762695
 21
18.72273540496826
 31
0.0
  0
LINE
  5
213
330
1F
100
AcDbEntity
  8
TFR-TRI
  6
Continuous
 62
   155
100
AcDbLine
 10
-154.4689712524414
 20
18.86373424530029
 30
0.0
 11
-154.4689712524414
 21
12.91881847381592
 31
0.0
  0
LINE
  5
214
330
1F
100
AcDbEntity
  8
TFR-TRI
  6
Continuous
 62
   155
100
AcDbLine
 10
-154.8292007446289
 20
12.84031963348388
 30
0.0
 11
-154.8292007446289
 21
18.94223308563232
 31
0.0
  0
LINE
  5
215
330
1F
100
AcDbEntity
  8
TFR-TRI
  6
Continuous
 62
   155
100
AcDbLine
 10
-154.7657012939453
 20
18.94223308563232
 30
0.0
 11
-154.7657012939453
 21
12.84031963348388
 31
0.0
  0
LINE
  5
216
330
1F
100
AcDbEntity
  8
TFR-TRI
  6
Continuous
 62
   155
100
AcDbLine
 10
-154.0873947143554
 20
12.74682140350342
 30
0.0
 11
-154.5585327148437
 21
12.74682140350342
 31
0.0
  0
LINE
  5
217
330
1F
100
AcDbEntity
  8
TFR-TRI
  6
Continuous
 62
   155
100
AcDbLine
 10
-154.5585327148437
 20
12.74682140350342
 30
0.0
 11
-154.7160186767578
 21
12.74682140350342
 31
0.0
  0
LINE
  5
218
330
1F
100
AcDbEntity
  8
TFR-TRI
  6
Continuous
 62
   155
100
AcDbLine
 10
-154.7357025146484
 20
12.74682140350342
 30
0.0
 11
-154.7160186767578
 21
12.74682140350342
 31
0.0
  0
LINE
  5
219
330
1F
100
AcDbEntity
  8
TFR-TRI
  6
Continuous
 62
   155
100
AcDbLine
 10
-154.7357025146484
 20
12.81032085418701
 30
0.0
 11
-154.7160186767578
 21
12.81032085418701
 31
0.0
  0
LINE
  5
21A
330
1F
100
AcDbEntity
  8
TFR-TRI
  6
Continuous
 62
   155
100
AcDbLine
 10
-154.7160186767578
 20
12.81032085418701
 30
0.0
 11
-154.5585327148437
 21
12.81032085418701
 31
0.0
  0
LINE
  5
21B
330
1F
100
AcDbEntity
  8
TFR-TRI
  6
Continuous
 62
   155
100
AcDbLine
 10
-154.0873947143554
 20
12.81032085418701
 30
0.0
 11
-154.5585327148437
 21
12.81032085418701
 31
0.0
  0
LINE
  5
21C
330
1F
100
AcDbEntity
  8
TFR-TRI
  6
Continuous
 62
   155
100
AcDbLine
 10
-154.0873947143554
 20
12.81032085418701
 30
0.0
 11
-154.0873947143554
 21
12.74682140350342
 31
0.0
  0
LINE
  5
21D
330
1F
100
AcDbEntity
  8
TFR-TRI
  6
Continuous
 62
   155
100
AcDbLine
 10
-154.7357025146484
 20
19.03573131561279
 30
0.0
 11
-154.7160186767578
 21
19.03573131561279
 31
0.0
  0
LINE
  5
21E
330
1F
100
AcDbEntity
  8
TFR-TRI
  6
Continuous
 62
   155
100
AcDbLine
 10
-154.7160186767578
 20
19.03573131561279
 30
0.0
 11
-154.5585327148437
 21
19.03573131561279
 31
0.0
  0
LINE
  5
21F
330
1F
100
AcDbEntity
  8
TFR-TRI
  6
Continuous
 62
   155
100
AcDbLine
 10
-154.0873947143554
 20
19.03573131561279
 30
0.0
 11
-154.5585327148437
 21
19.03573131561279
 31
0.0
  0
LINE
  5
220
330
1F
100
AcDbEntity
  8
TFR-TRI
  6
Continuous
 62
   155
100
AcDbLine
 10
-154.5585327148437
 20
18.9722318649292
 30
0.0
 11
-154.0873947143554
 21
18.9722318649292
 31
0.0
  0
LINE
  5
221
330
1F
100
AcDbEntity
  8
TFR-TRI
  6
Continuous
 62
   155
100
AcDbLine
 10
-154.5585327148437
 20
18.9722318649292
 30
0.0
 11
-154.7160186767578
 21
18.9722318649292
 31
0.0
  0
LINE
  5
222
330
1F
100
AcDbEntity
  8
TFR-TRI
  6
Continuous
 62
   155
100
AcDbLine
 10
-154.7357025146484
 20
18.9722318649292
 30
0.0
 11
-154.7160186767578
 21
18.9722318649292
 31
0.0
  0
LINE
  5
223
330
1F
100
AcDbEntity
  8
TFR-TRI
  6
Continuous
 62
   155
100
AcDbLine
 10
-154.0873947143554
 20
18.9722318649292
 30
0.0
 11
-154.0873947143554
 21
19.03573131561279
 31
0.0
  0
LINE
  5
224
330
1F
100
AcDbEntity
  8
TFR-TRI
  6
Continuous
 62
   155
100
AcDbLine
 10
-154.4689712524414
 20
18.86373424530029
 30
0.0
 11
-154.4963607788086
 21
18.86373424530029
 31
0.0
  0
LINE
  5
225
330
1F
100
AcDbEntity
  8
TFR-TRI
  6
Continuous
 62
   155
100
AcDbLine
 10
-154.4963607788086
 20
18.86373424530029
 30
0.0
 11
-154.5624694824218
 21
18.86373424530029
 31
0.0
  0
LINE
  5
226
330
1F
100
AcDbEntity
  8
TFR-TRI
  6
Continuous
 62
   155
100
AcDbLine
 10
-154.4689712524414
 20
12.91881847381592
 30
0.0
 11
-154.4963607788086
 21
12.91881847381592
 31
0.0
  0
LINE
  5
227
330
1F
100
AcDbEntity
  8
TFR-TRI
  6
Continuous
 62
   155
100
AcDbLine
 10
-154.4963607788086
 20
12.91881847381592
 30
0.0
 11
-154.5624694824218
 21
12.91881847381592
 31
0.0
  0
LINE
  5
228
330
1F
100
AcDbEntity
  8
TFR-TRI
  6
Continuous
 62
   155
100
AcDbLine
 10
-154.5624694824218
 20
18.86373424530029
 30
0.0
 11
-154.5624694824218
 21
12.91881847381592
 31
0.0
  0
LINE
  5
229
330
1F
100
AcDbEntity
  8
TFR-TRI
  6
Continuous
 62
   155
100
AcDbLine
 10
-154.5624694824218
 20
18.86373424530029
 30
0.0
 11
-154.7357025146484
 21
18.86373424530029
 31
0.0
  0
LINE
  5
22A
330
1F
100
AcDbEntity
  8
TFR-TRI
  6
Continuous
 62
   155
100
AcDbLine
 10
-154.5624694824218
 20
12.91881847381592
 30
0.0
 11
-154.7357025146484
 21
12.91881847381592
 31
0.0
  0
LINE
  5
22B
330
1F
100
AcDbEntity
  8
TFR-TRI
  6
Continuous
 62
   155
100
AcDbLine
 10
-154.7357025146484
 20
18.86373424530029
 30
0.0
 11
-154.7357025146484
 21
12.91881847381592
 31
0.0
  0
LINE
  5
22C
330
1F
100
AcDbEntity
  8
TFR-TRI
  6
Continuous
 62
   155
100
AcDbLine
 10
-154.7357025146484
 20
12.91881847381592
 30
0.0
 11
-154.7569122314453
 21
12.91881847381592
 31
0.0
  0
LINE
  5
22D
330
1F
100
AcDbEntity
  8
TFR-TRI
  6
Continuous
 62
   155
100
AcDbLine
 10
-154.7569122314453
 20
12.91881847381592
 30
0.0
 11
-154.7657012939453
 21
12.91881847381592
 31
0.0
  0
LINE
  5
22E
330
1F
100
AcDbEntity
  8
TFR-TRI
  6
Continuous
 62
   155
100
AcDbLine
 10
-154.7357025146484
 20
18.86373424530029
 30
0.0
 11
-154.7569122314453
 21
18.86373424530029
 31
0.0
  0
LINE
  5
22F
330
1F
100
AcDbEntity
  8
TFR-TRI
  6
Continuous
 62
   155
100
AcDbLine
 10
-154.7569122314453
 20
18.86373424530029
 30
0.0
 11
-154.7657012939453
 21
18.86373424530029
 31
0.0
  0
LINE
  5
230
330
1F
100
AcDbEntity
  8
TFR-TRI
  6
Continuous
 62
   155
100
AcDbLine
 10
-154.4689712524414
 20
18.86373424530029
 30
0.0
 11
-154.4601898193359
 21
18.86373424530029
 31
0.0
  0
LINE
  5
231
330
1F
100
AcDbEntity
  8
TFR-TRI
  6
Continuous
 62
   155
100
AcDbLine
 10
-154.4601898193359
 20
18.86373424530029
 30
0.0
 11
-154.4389724731445
 21
18.86373424530029
 31
0.0
  0
LINE
  5
232
330
1F
100
AcDbEntity
  8
TFR-TRI
  6
Continuous
 62
   155
100
AcDbLine
 10
-154.4689712524414
 20
12.91881847381592
 30
0.0
 11
-154.4601898193359
 21
12.91881847381592
 31
0.0
  0
LINE
  5
233
330
1F
100
AcDbEntity
  8
TFR-TRI
  6
Continuous
 62
   155
100
AcDbLine
 10
-154.4601898193359
 20
12.91881847381592
 30
0.0
 11
-154.4389724731445
 21
12.91881847381592
 31
0.0
  0
LINE
  5
234
330
1F
100
AcDbEntity
  8
TFR-TRI
  6
Continuous
 62
   155
100
AcDbLine
 10
-154.4389724731445
 20
12.91881847381592
 30
0.0
 11
-154.4389724731445
 21
18.86373424530029
 31
0.0
  0
LINE
  5
235
330
1F
100
AcDbEntity
  8
TFR-TRI
  6
Continuous
 62
   155
100
AcDbLine
 10
-154.4389724731445
 20
18.86373424530029
 30
0.0
 11
-154.3073806762695
 21
18.86373424530029
 31
0.0
  0
LINE
  5
236
330
1F
100
AcDbEntity
  8
TFR-TRI
  6
Continuous
 62
   155
100
AcDbLine
 10
-154.1823806762695
 20
18.86373424530029
 30
0.0
 11
-154.1661376953125
 21
18.86373424530029
 31
0.0
  0
LINE
  5
237
330
1F
100
AcDbEntity
  8
TFR-TRI
  6
Continuous
 62
   155
100
AcDbLine
 10
-154.4389724731445
 20
12.91881847381592
 30
0.0
 11
-154.3073806762695
 21
12.91881847381592
 31
0.0
  0
LINE
  5
238
330
1F
100
AcDbEntity
  8
TFR-TRI
  6
Continuous
 62
   155
100
AcDbLine
 10
-154.1796569824219
 20
12.91881847381592
 30
0.0
 11
-154.1661376953125
 21
12.91881847381592
 31
0.0
  0
LINE
  5
239
330
1F
100
AcDbEntity
  8
TFR-TRI
  6
Continuous
 62
   155
100
AcDbLine
 10
-154.0873947143554
 20
12.99756145477295
 30
0.0
 11
-154.0873947143554
 21
18.78499126434326
 31
0.0
  0
LINE
  5
23A
330
1F
100
AcDbEntity
  8
TFR-TRI
  6
Continuous
 62
   155
100
AcDbLine
 10
-154.0873947143554
 20
18.78499126434326
 30
0.0
 11
-154.1661376953125
 21
18.86373424530029
 31
0.0
  0
LINE
  5
23B
330
1F
100
AcDbEntity
  8
TFR-TRI
  6
Continuous
 62
   155
100
AcDbLine
 10
-154.1661376953125
 20
12.91881847381592
 30
0.0
 11
-154.0873947143554
 21
12.99756145477295
 31
0.0
  0
LINE
  5
23C
330
1F
100
AcDbEntity
  8
TFR-TRI
  6
Continuous
 62
   155
100
AcDbLine
 10
-154.4389724731445
 20
18.89373302459716
 30
0.0
 11
-154.4389724731445
 21
18.95723247528076
 31
0.0
  0
LINE
  5
23D
330
1F
100
AcDbEntity
  8
TFR-TRI
  6
Continuous
 62
   155
100
AcDbLine
 10
-154.4389724731445
 20
18.89373302459716
 30
0.0
 11
-154.2448806762695
 21
18.89373302459716
 31
0.0
  0
LINE
  5
23E
330
1F
100
AcDbEntity
  8
TFR-TRI
  6
Continuous
 62
   155
100
AcDbLine
 10
-154.2448806762695
 20
18.89373302459716
 30
0.0
 11
-154.2448806762695
 21
18.95723247528076
 31
0.0
  0
LINE
  5
23F
330
1F
100
AcDbEntity
  8
TFR-TRI
  6
Continuous
 62
   155
100
AcDbLine
 10
-154.4389724731445
 20
18.95723247528076
 30
0.0
 11
-154.2448806762695
 21
18.95723247528076
 31
0.0
  0
LINE
  5
240
330
1F
100
AcDbEntity
  8
TFR-TRI
  6
Continuous
 62
   155
100
AcDbLine
 10
-154.2448806762695
 20
18.95723247528076
 30
0.0
 11
-154.0873947143554
 21
18.95723247528076
 31
0.0
  0
LINE
  5
241
330
1F
100
AcDbEntity
  8
TFR-TRI
  6
Continuous
 62
   155
100
AcDbLine
 10
-154.0873947143554
 20
18.89373302459716
 30
0.0
 11
-154.2448806762695
 21
18.89373302459716
 31
0.0
  0
LINE
  5
242
330
1F
100
AcDbEntity
  8
TFR-TRI
  6
Continuous
 62
   155
100
AcDbLine
 10
-154.0873947143554
 20
18.95723247528076
 30
0.0
 11
-154.0873947143554
 21
18.89373302459716
 31
0.0
  0
LINE
  5
243
330
1F
100
AcDbEntity
  8
TFR-TRI
  6
Continuous
 62
   155
100
AcDbLine
 10
-154.4389724731445
 20
12.82532024383545
 30
0.0
 11
-154.4389724731445
 21
12.88881969451904
 31
0.0
  0
LINE
  5
244
330
1F
100
AcDbEntity
  8
TFR-TRI
  6
Continuous
 62
   155
100
AcDbLine
 10
-154.4389724731445
 20
12.82532024383545
 30
0.0
 11
-154.2448806762695
 21
12.82532024383545
 31
0.0
  0
LINE
  5
245
330
1F
100
AcDbEntity
  8
TFR-TRI
  6
Continuous
 62
   155
100
AcDbLine
 10
-154.2448806762695
 20
12.82532024383545
 30
0.0
 11
-154.2448806762695
 21
12.88881969451904
 31
0.0
  0
LINE
  5
246
330
1F
100
AcDbEntity
  8
TFR-TRI
  6
Continuous
 62
   155
100
AcDbLine
 10
-154.4389724731445
 20
12.88881969451904
 30
0.0
 11
-154.2448806762695
 21
12.88881969451904
 31
0.0
  0
LINE
  5
247
330
1F
100
AcDbEntity
  8
TFR-TRI
  6
Continuous
 62
   155
100
AcDbLine
 10
-154.0873947143554
 20
12.82532024383545
 30
0.0
 11
-154.2448806762695
 21
12.82532024383545
 31
0.0
  0
LINE
  5
248
330
1F
100
AcDbEntity
  8
TFR-TRI
  6
Continuous
 62
   155
100
AcDbLine
 10
-154.2448806762695
 20
12.88881969451904
 30
0.0
 11
-154.0873947143554
 21
12.88881969451904
 31
0.0
  0
LINE
  5
249
330
1F
100
AcDbEntity
  8
TFR-TRI
  6
Continuous
 62
   155
100
AcDbLine
 10
-154.0873947143554
 20
12.88881969451904
 30
0.0
 11
-154.0873947143554
 21
12.82532024383545
 31
0.0
  0
LINE
  5
24A
330
1F
100
AcDbEntity
  8
TFR-TRI
  6
Continuous
 62
   155
100
AcDbLine
 10
-154.7160186767578
 20
12.74682140350342
 30
0.0
 11
-154.7160186767578
 21
12.81032085418701
 31
0.0
  0
LINE
  5
24B
330
1F
100
AcDbEntity
  8
TFR-TRI
  6
Continuous
 62
   155
100
AcDbLine
 10
-154.7160186767578
 20
18.9722318649292
 30
0.0
 11
-154.7160186767578
 21
19.03573131561279
 31
0.0
  0
LINE
  5
24C
330
1F
100
AcDbEntity
  8
TFR-TRI
  6
Continuous
 62
   155
100
AcDbLine
 10
-154.5585327148437
 20
19.03573131561279
 30
0.0
 11
-154.5585327148437
 21
18.9722318649292
 31
0.0
  0
LINE
  5
24D
330
1F
100
AcDbEntity
  8
TFR-TRI
  6
Continuous
 62
   155
100
AcDbLine
 10
-154.5585327148437
 20
12.81032085418701
 30
0.0
 11
-154.5585327148437
 21
12.74682140350342
 31
0.0
  0
LINE
  5
24E
330
1F
100
AcDbEntity
  8
TFR-TRI
  6
Continuous
 62
   155
100
AcDbLine
 10
-97.84331512451172
 20
-28.55704212188721
 30
0.0
 11
-97.84331512451172
 21
-28.52504062652588
 31
0.0
  0
LINE
  5
24F
330
1F
100
AcDbEntity
  8
TFR-TRI
  6
Continuous
 62
   155
100
AcDbLine
 10
-97.84331512451172
 20
-28.55704212188721
 30
0.0
 11
-97.84331512451172
 21
-28.52504062652588
 31
0.0
  0
LINE
  5
250
330
1F
100
AcDbEntity
  8
TFR-TRI
  6
Continuous
 62
   155
100
AcDbLine
 10
-91.52098846435547
 20
-28.27606296539307
 30
0.0
 11
-96.97415924072267
 21
-28.27606296539307
 31
0.0
  0
LINE
  5
251
330
1F
100
AcDbEntity
  8
TFR-TRI
  6
Continuous
 62
   155
100
AcDbLine
 10
-97.74684906005859
 20
-28.57279300689697
 30
0.0
 11
-97.15630340576172
 21
-28.57279300689697
 31
0.0
  0
LINE
  5
252
330
1F
100
AcDbEntity
  8
TFR-TRI
  6
Continuous
 62
   155
100
AcDbLine
 10
-97.15630340576172
 20
-28.47929096221924
 30
0.0
 11
-97.74684906005859
 21
-28.47929096221924
 31
0.0
  0
LINE
  5
253
330
1F
100
AcDbEntity
  8
TFR-TRI
  6
Continuous
 62
   155
100
AcDbLine
 10
-97.74684906005859
 20
-28.57279300689697
 30
0.0
 11
-97.74684906005859
 21
-28.54540729522705
 31
0.0
  0
LINE
  5
254
330
1F
100
AcDbEntity
  8
TFR-TRI
  6
Continuous
 62
   155
100
AcDbLine
 10
-97.74684906005859
 20
-28.54540729522705
 30
0.0
 11
-97.74684906005859
 21
-28.47929096221924
 31
0.0
  0
LINE
  5
255
330
1F
100
AcDbEntity
  8
TFR-TRI
  6
Continuous
 62
   155
100
AcDbLine
 10
-97.15630340576172
 20
-28.57279300689697
 30
0.0
 11
-97.15630340576172
 21
-28.54540729522705
 31
0.0
  0
LINE
  5
256
330
1F
100
AcDbEntity
  8
TFR-TRI
  6
Continuous
 62
   155
100
AcDbLine
 10
-97.15630340576172
 20
-28.54540729522705
 30
0.0
 11
-97.15630340576172
 21
-28.47929096221924
 31
0.0
  0
LINE
  5
257
330
1F
100
AcDbEntity
  8
TFR-TRI
  6
Continuous
 62
   155
100
AcDbLine
 10
-95.18779754638671
 20
-28.06448841094971
 30
0.0
 11
-95.18779754638671
 21
-27.90972995758057
 31
0.0
  0
LINE
  5
258
330
1F
100
AcDbEntity
  8
TFR-TRI
  6
Continuous
 62
   155
100
AcDbLine
 10
-95.18779754638671
 20
-27.90972995758057
 30
0.0
 11
-95.26653289794921
 21
-27.8309907913208
 31
0.0
  0
LINE
  5
259
330
1F
100
AcDbEntity
  8
TFR-TRI
  6
Continuous
 62
   155
100
AcDbLine
 10
-95.26653289794921
 20
-27.8309907913208
 30
0.0
 11
-96.88071441650391
 21
-27.8309907913208
 31
0.0
  0
LINE
  5
25A
330
1F
100
AcDbEntity
  8
TFR-TRI
  6
Continuous
 62
   155
100
AcDbLine
 10
-96.88071441650391
 20
-27.8309907913208
 30
0.0
 11
-97.35184478759766
 21
-28.30212879180908
 31
0.0
  0
LINE
  5
25B
330
1F
100
AcDbEntity
  8
TFR-TRI
  6
Continuous
 62
   155
100
AcDbLine
 10
-97.35184478759766
 20
-28.30212879180908
 30
0.0
 11
-97.58937835693359
 21
-28.30212879180908
 31
0.0
  0
LINE
  5
25C
330
1F
100
AcDbEntity
  8
TFR-TRI
  6
Continuous
 62
   155
100
AcDbLine
 10
-97.58937835693359
 20
-28.30212879180908
 30
0.0
 11
-97.74684906005859
 21
-28.45960712432861
 31
0.0
  0
LINE
  5
25D
330
1F
100
AcDbEntity
  8
TFR-TRI
  6
Continuous
 62
   155
100
AcDbLine
 10
-97.74684906005859
 20
-28.47929096221924
 30
0.0
 11
-97.74684906005859
 21
-28.45960712432861
 31
0.0
  0
LINE
  5
25E
330
1F
100
AcDbEntity
  8
TFR-TRI
  6
Continuous
 62
   155
100
AcDbLine
 10
-97.15630340576172
 20
-28.47929096221924
 30
0.0
 11
-97.15630340576172
 21
-28.45819187164307
 31
0.0
  0
LINE
  5
25F
330
1F
100
AcDbEntity
  8
TFR-TRI
  6
Continuous
 62
   155
100
AcDbLine
 10
-97.15630340576172
 20
-28.45819187164307
 30
0.0
 11
-96.84134674072266
 21
-28.14323139190674
 31
0.0
  0
LINE
  5
260
330
1F
100
AcDbEntity
  8
TFR-TRI
  6
Continuous
 62
   155
100
AcDbLine
 10
-96.84134674072266
 20
-28.14323139190674
 30
0.0
 11
-95.26653289794921
 21
-28.14323139190674
 31
0.0
  0
LINE
  5
261
330
1F
100
AcDbEntity
  8
TFR-TRI
  6
Continuous
 62
   155
100
AcDbLine
 10
-95.26653289794921
 20
-28.14323139190674
 30
0.0
 11
-95.18779754638671
 21
-28.06448841094971
 31
0.0
  0
LINE
  5
262
330
1F
100
AcDbEntity
  8
TFR-TRI
  6
Continuous
 62
   155
100
AcDbLine
 10
-97.12630462646485
 20
-28.42818927764893
 30
0.0
 11
-97.12630462646485
 21
-28.47929096221924
 31
0.0
  0
LINE
  5
263
330
1F
100
AcDbEntity
  8
TFR-TRI
  6
Continuous
 62
   155
100
AcDbLine
 10
-97.12630462646485
 20
-28.47929096221924
 30
0.0
 11
-97.06279754638671
 21
-28.47929096221924
 31
0.0
  0
LINE
  5
264
330
1F
100
AcDbEntity
  8
TFR-TRI
  6
Continuous
 62
   155
100
AcDbLine
 10
-97.06279754638671
 20
-28.36468982696533
 30
0.0
 11
-97.06279754638671
 21
-28.47929096221924
 31
0.0
  0
LINE
  5
265
330
1F
100
AcDbEntity
  8
TFR-TRI
  6
Continuous
 62
   155
100
AcDbLine
 10
-91.42749786376953
 20
-28.1825647354126
 30
0.0
 11
-91.49098968505859
 21
-28.1825647354126
 31
0.0
  0
LINE
  5
266
330
1F
100
AcDbEntity
  8
TFR-TRI
  6
Continuous
 62
   155
100
AcDbLine
 10
-91.42749786376953
 20
-28.1825647354126
 30
0.0
 11
-91.42749786376953
 21
-27.90972995758057
 31
0.0
  0
LINE
  5
267
330
1F
100
AcDbEntity
  8
TFR-TRI
  6
Continuous
 62
   155
100
AcDbLine
 10
-91.42749786376953
 20
-27.90972995758057
 30
0.0
 11
-91.49098968505859
 21
-27.90972995758057
 31
0.0
  0
LINE
  5
268
330
1F
100
AcDbEntity
  8
TFR-TRI
  6
Continuous
 62
   155
100
AcDbLine
 10
-91.49098968505859
 20
-28.1825647354126
 30
0.0
 11
-91.49098968505859
 21
-27.90972995758057
 31
0.0
  0
LINE
  5
269
330
1F
100
AcDbEntity
  8
TFR-TRI
  6
Continuous
 62
   155
100
AcDbLine
 10
-91.42749786376953
 20
-27.8309907913208
 30
0.0
 11
-91.42749786376953
 21
-27.90972995758057
 31
0.0
  0
LINE
  5
26A
330
1F
100
AcDbEntity
  8
TFR-TRI
  6
Continuous
 62
   155
100
AcDbLine
 10
-91.49098968505859
 20
-27.90972995758057
 30
0.0
 11
-91.49098968505859
 21
-27.8309907913208
 31
0.0
  0
LINE
  5
26B
330
1F
100
AcDbEntity
  8
TFR-TRI
  6
Continuous
 62
   155
100
AcDbLine
 10
-91.49098968505859
 20
-27.8309907913208
 30
0.0
 11
-91.42749786376953
 21
-27.8309907913208
 31
0.0
  0
LINE
  5
26C
330
1F
100
AcDbEntity
  8
TFR-TRI
  6
Continuous
 62
   155
100
AcDbLine
 10
-91.52098846435547
 20
-28.27606296539307
 30
0.0
 11
-91.52098846435547
 21
-28.24867725372314
 31
0.0
  0
LINE
  5
26D
330
1F
100
AcDbEntity
  8
TFR-TRI
  6
Continuous
 62
   155
100
AcDbLine
 10
-91.52098846435547
 20
-28.24867725372314
 30
0.0
 11
-91.52098846435547
 21
-28.1825647354126
 31
0.0
  0
LINE
  5
26E
330
1F
100
AcDbEntity
  8
TFR-TRI
  6
Continuous
 62
   155
100
AcDbLine
 10
-91.52098846435547
 20
-28.1825647354126
 30
0.0
 11
-96.88062286376954
 21
-28.1825647354126
 31
0.0
  0
LINE
  5
26F
330
1F
100
AcDbEntity
  8
TFR-TRI
  6
Continuous
 62
   155
100
AcDbLine
 10
-91.52098846435547
 20
-28.1825647354126
 30
0.0
 11
-91.52098846435547
 21
-27.90972995758057
 31
0.0
  0
LINE
  5
270
330
1F
100
AcDbEntity
  8
TFR-TRI
  6
Continuous
 62
   155
100
AcDbLine
 10
-91.52098846435547
 20
-27.90972995758057
 30
0.0
 11
-91.59972381591797
 21
-27.8309907913208
 31
0.0
  0
LINE
  5
271
330
1F
100
AcDbEntity
  8
TFR-TRI
  6
Continuous
 62
   155
100
AcDbLine
 10
-91.59972381591797
 20
-27.8309907913208
 30
0.0
 11
-95.26651763916015
 21
-27.8309907913208
 31
0.0
  0
LINE
  5
272
330
1F
100
AcDbEntity
  8
TFR-TRI
  6
Continuous
 62
     3
100
AcDbLine
 10
-35.59787750244141
 20
83.7222318649292
 30
0.0
 11
-35.59787750244141
 21
83.70723247528076
 31
0.0
  0
LINE
  5
273
330
1F
100
AcDbEntity
  8
TFR-TRI
  6
Continuous
 62
     3
100
AcDbLine
 10
-35.59787750244141
 20
83.64372539520264
 30
0.0
 11
-35.59787750244141
 21
83.61372661590577
 31
0.0
  0
LINE
  5
274
330
1F
100
AcDbEntity
  8
TFR-TRI
  6
Continuous
 62
     3
100
AcDbLine
 10
-35.47287750244141
 20
83.61372661590577
 30
0.0
 11
-35.47287750244141
 21
83.64372539520264
 31
0.0
  0
LINE
  5
275
330
1F
100
AcDbEntity
  8
TFR-TRI
  6
Continuous
 62
     3
100
AcDbLine
 10
-35.47287750244141
 20
83.70723247528076
 30
0.0
 11
-35.47287750244141
 21
83.7222318649292
 31
0.0
  0
LINE
  5
276
330
1F
100
AcDbEntity
  8
TFR-TRI
  6
Continuous
 62
     3
100
AcDbLine
 10
-35.47287750244141
 20
77.56032085418701
 30
0.0
 11
-35.47287750244141
 21
77.57532024383545
 31
0.0
  0
LINE
  5
277
330
1F
100
AcDbEntity
  8
TFR-TRI
  6
Continuous
 62
     3
100
AcDbLine
 10
-35.47287750244141
 20
77.63882732391357
 30
0.0
 11
-35.47287750244141
 21
77.66882610321045
 31
0.0
  0
LINE
  5
278
330
1F
100
AcDbEntity
  8
TFR-TRI
  6
Continuous
 62
     3
100
AcDbLine
 10
-35.59787750244141
 20
77.66882610321045
 30
0.0
 11
-35.59787750244141
 21
77.63882732391357
 31
0.0
  0
LINE
  5
279
330
1F
100
AcDbEntity
  8
TFR-TRI
  6
Continuous
 62
     3
100
AcDbLine
 10
-35.59787750244141
 20
77.57532024383545
 30
0.0
 11
-35.59787750244141
 21
77.56032085418701
 31
0.0
  0
LINE
  5
27A
330
1F
100
AcDbEntity
  8
TFR-TRI
  6
Continuous
 62
     3
100
AcDbLine
 10
-35.60059356689453
 20
12.91881847381592
 30
0.0
 11
-35.60059356689453
 21
12.88881969451904
 31
0.0
  0
LINE
  5
27B
330
1F
100
AcDbEntity
  8
TFR-TRI
  6
Continuous
 62
     3
100
AcDbLine
 10
-35.60059356689453
 20
12.82532024383545
 30
0.0
 11
-35.60059356689453
 21
12.81032085418701
 31
0.0
  0
LINE
  5
27C
330
1F
100
AcDbEntity
  8
TFR-TRI
  6
Continuous
 62
     3
100
AcDbLine
 10
-35.59787750244141
 20
18.9722318649292
 30
0.0
 11
-35.59787750244141
 21
18.95723247528076
 31
0.0
  0
LINE
  5
27D
330
1F
100
AcDbEntity
  8
TFR-TRI
  6
Continuous
 62
     3
100
AcDbLine
 10
-35.59787750244141
 20
18.89373302459716
 30
0.0
 11
-35.59787750244141
 21
18.86373424530029
 31
0.0
  0
LINE
  5
27E
330
1F
100
AcDbEntity
  8
TFR-TRI
  6
Continuous
 62
     3
100
AcDbLine
 10
-35.47287750244141
 20
18.86373424530029
 30
0.0
 11
-35.47287750244141
 21
18.89373302459716
 31
0.0
  0
LINE
  5
27F
330
1F
100
AcDbEntity
  8
TFR-TRI
  6
Continuous
 62
     3
100
AcDbLine
 10
-35.47287750244141
 20
18.95723247528076
 30
0.0
 11
-35.47287750244141
 21
18.9722318649292
 31
0.0
  0
LINE
  5
280
330
1F
100
AcDbEntity
  8
TFR-TRI
  6
Continuous
 62
     3
100
AcDbLine
 10
-35.47287750244141
 20
12.81032085418701
 30
0.0
 11
-35.47287750244141
 21
12.82532024383545
 31
0.0
  0
LINE
  5
281
330
1F
100
AcDbEntity
  8
TFR-TRI
  6
Continuous
 62
     3
100
AcDbLine
 10
-35.47287750244141
 20
12.88881969451904
 30
0.0
 11
-35.47287750244141
 21
12.91881847381592
 31
0.0
  0
LINE
  5
282
330
1F
100
AcDbEntity
  8
TFR-TRI
  6
Continuous
 62
     3
100
AcDbLine
 10
-35.59787750244141
 20
12.91881847381592
 30
0.0
 11
-35.59787750244141
 21
12.88881969451904
 31
0.0
  0
LINE
  5
283
330
1F
100
AcDbEntity
  8
TFR-TRI
  6
Continuous
 62
     3
100
AcDbLine
 10
-35.59787750244141
 20
12.82532024383545
 30
0.0
 11
-35.59787750244141
 21
12.81032085418701
 31
0.0
  0
LINE
  5
284
330
1F
100
AcDbEntity
  8
TFR-TRI
  6
Continuous
 62
     3
100
AcDbLine
 10
-35.60059356689453
 20
77.66882610321045
 30
0.0
 11
-35.60059356689453
 21
77.63882732391357
 31
0.0
  0
LINE
  5
285
330
1F
100
AcDbEntity
  8
TFR-TRI
  6
Continuous
 62
     3
100
AcDbLine
 10
-35.60059356689453
 20
77.57532024383545
 30
0.0
 11
-35.60059356689453
 21
77.56032085418701
 31
0.0
  0
LINE
  5
286
330
1F
100
AcDbEntity
  8
TFR-TRI
  6
Continuous
 62
   155
100
AcDbLine
 10
-35.26354217529297
 20
77.57237529754639
 30
0.0
 11
-35.29553985595703
 21
77.57237529754639
 31
0.0
  0
LINE
  5
287
330
1F
100
AcDbEntity
  8
TFR-TRI
  6
Continuous
 62
   155
100
AcDbLine
 10
-35.26354217529297
 20
18.96018505096435
 30
0.0
 11
-35.29553985595703
 21
18.96018505096435
 31
0.0
  0
LINE
  5
288
330
1F
100
AcDbEntity
  8
TFR-TRI
  6
Continuous
 62
   155
100
AcDbLine
 10
-35.26354217529297
 20
83.71017742156983
 30
0.0
 11
-35.29553985595703
 21
83.71017742156983
 31
0.0
  0
LINE
  5
289
330
1F
100
AcDbEntity
  8
TFR-TRI
  6
Continuous
 62
   155
100
AcDbLine
 10
-35.26354217529297
 20
12.82236766815185
 30
0.0
 11
-35.29553985595703
 21
12.82236766815185
 31
0.0
  0
LINE
  5
28A
330
1F
100
AcDbEntity
  8
TFR-TRI
  6
Continuous
 62
   155
100
AcDbLine
 10
-35.24777984619141
 20
83.61372661590577
 30
0.0
 11
-35.24777984619141
 21
77.66882610321045
 31
0.0
  0
LINE
  5
28B
330
1F
100
AcDbEntity
  8
TFR-TRI
  6
Continuous
 62
   155
100
AcDbLine
 10
-34.95105743408203
 20
83.61372661590577
 30
0.0
 11
-34.95105743408203
 21
83.69223308563233
 31
0.0
  0
LINE
  5
28C
330
1F
100
AcDbEntity
  8
TFR-TRI
  6
Continuous
 62
   155
100
AcDbLine
 10
-34.95105743408203
 20
77.66882610321045
 30
0.0
 11
-34.95105743408203
 21
83.61372661590577
 31
0.0
  0
LINE
  5
28D
330
1F
100
AcDbEntity
  8
TFR-TRI
  6
Continuous
 62
   155
100
AcDbLine
 10
-34.95105743408203
 20
77.66882610321045
 30
0.0
 11
-34.95105743408203
 21
77.59031963348388
 31
0.0
  0
LINE
  5
28E
330
1F
100
AcDbEntity
  8
TFR-TRI
  6
Continuous
 62
   155
100
AcDbLine
 10
-35.01456451416016
 20
77.66882610321045
 30
0.0
 11
-35.01456451416016
 21
77.59031963348388
 31
0.0
  0
LINE
  5
28F
330
1F
100
AcDbEntity
  8
TFR-TRI
  6
Continuous
 62
   155
100
AcDbLine
 10
-35.01456451416016
 20
83.61372661590577
 30
0.0
 11
-35.01456451416016
 21
83.69223308563233
 31
0.0
  0
LINE
  5
290
330
1F
100
AcDbEntity
  8
TFR-TRI
  6
Continuous
 62
   155
100
AcDbLine
 10
-35.45935821533203
 20
77.49681377410889
 30
0.0
 11
-35.61411285400391
 21
77.49681377410889
 31
0.0
  0
LINE
  5
291
330
1F
100
AcDbEntity
  8
TFR-TRI
  6
Continuous
 62
   155
100
AcDbLine
 10
-35.61411285400391
 20
77.49681377410889
 30
0.0
 11
-35.69286346435547
 21
77.49681377410889
 31
0.0
  0
LINE
  5
292
330
1F
100
AcDbEntity
  8
TFR-TRI
  6
Continuous
 62
   155
100
AcDbLine
 10
-35.04456329345703
 20
77.49681377410889
 30
0.0
 11
-35.06566619873047
 21
77.49681377410889
 31
0.0
  0
LINE
  5
293
330
1F
100
AcDbEntity
  8
TFR-TRI
  6
Continuous
 62
   155
100
AcDbLine
 10
-35.06566619873047
 20
77.49681377410889
 30
0.0
 11
-35.38062286376953
 21
77.49681377410889
 31
0.0
  0
LINE
  5
294
330
1F
100
AcDbEntity
  8
TFR-TRI
  6
Continuous
 62
   155
100
AcDbLine
 10
-35.38062286376953
 20
77.49681377410889
 30
0.0
 11
-35.45935821533203
 21
77.49681377410889
 31
0.0
  0
LINE
  5
295
330
1F
100
AcDbEntity
  8
TFR-TRI
  6
Continuous
 62
   155
100
AcDbLine
 10
-35.69286346435547
 20
77.56032085418701
 30
0.0
 11
-35.61411285400391
 21
77.56032085418701
 31
0.0
  0
LINE
  5
296
330
1F
100
AcDbEntity
  8
TFR-TRI
  6
Continuous
 62
   155
100
AcDbLine
 10
-35.45935821533203
 20
77.56032085418701
 30
0.0
 11
-35.61411285400391
 21
77.56032085418701
 31
0.0
  0
LINE
  5
297
330
1F
100
AcDbEntity
  8
TFR-TRI
  6
Continuous
 62
   155
100
AcDbLine
 10
-35.45935821533203
 20
77.56032085418701
 30
0.0
 11
-35.38062286376953
 21
77.56032085418701
 31
0.0
  0
LINE
  5
298
330
1F
100
AcDbEntity
  8
TFR-TRI
  6
Continuous
 62
   155
100
AcDbLine
 10
-35.38062286376953
 20
77.56032085418701
 30
0.0
 11
-35.06566619873047
 21
77.56032085418701
 31
0.0
  0
LINE
  5
299
330
1F
100
AcDbEntity
  8
TFR-TRI
  6
Continuous
 62
   155
100
AcDbLine
 10
-35.04456329345703
 20
77.56032085418701
 30
0.0
 11
-35.06566619873047
 21
77.56032085418701
 31
0.0
  0
LINE
  5
29A
330
1F
100
AcDbEntity
  8
TFR-TRI
  6
Continuous
 62
   155
100
AcDbLine
 10
-35.69286346435547
 20
77.49681377410889
 30
0.0
 11
-35.69286346435547
 21
77.56032085418701
 31
0.0
  0
LINE
  5
29B
330
1F
100
AcDbEntity
  8
TFR-TRI
  6
Continuous
 62
   155
100
AcDbLine
 10
-35.45935821533203
 20
83.78573894500732
 30
0.0
 11
-35.61411285400391
 21
83.78573894500732
 31
0.0
  0
LINE
  5
29C
330
1F
100
AcDbEntity
  8
TFR-TRI
  6
Continuous
 62
   155
100
AcDbLine
 10
-35.45935821533203
 20
83.78573894500732
 30
0.0
 11
-35.38062286376953
 21
83.78573894500732
 31
0.0
  0
LINE
  5
29D
330
1F
100
AcDbEntity
  8
TFR-TRI
  6
Continuous
 62
   155
100
AcDbLine
 10
-35.38062286376953
 20
83.78573894500732
 30
0.0
 11
-35.06566619873047
 21
83.78573894500732
 31
0.0
  0
LINE
  5
29E
330
1F
100
AcDbEntity
  8
TFR-TRI
  6
Continuous
 62
   155
100
AcDbLine
 10
-35.04456329345703
 20
83.78573894500732
 30
0.0
 11
-35.06566619873047
 21
83.78573894500732
 31
0.0
  0
LINE
  5
29F
330
1F
100
AcDbEntity
  8
TFR-TRI
  6
Continuous
 62
   155
100
AcDbLine
 10
-35.69286346435547
 20
83.78573894500732
 30
0.0
 11
-35.61411285400391
 21
83.78573894500732
 31
0.0
  0
LINE
  5
2A0
330
1F
100
AcDbEntity
  8
TFR-TRI
  6
Continuous
 62
   155
100
AcDbLine
 10
-35.38062286376953
 20
83.7222318649292
 30
0.0
 11
-35.45935821533203
 21
83.7222318649292
 31
0.0
  0
LINE
  5
2A1
330
1F
100
AcDbEntity
  8
TFR-TRI
  6
Continuous
 62
   155
100
AcDbLine
 10
-35.45935821533203
 20
83.7222318649292
 30
0.0
 11
-35.61411285400391
 21
83.7222318649292
 31
0.0
  0
LINE
  5
2A2
330
1F
100
AcDbEntity
  8
TFR-TRI
  6
Continuous
 62
   155
100
AcDbLine
 10
-35.61411285400391
 20
83.7222318649292
 30
0.0
 11
-35.69286346435547
 21
83.7222318649292
 31
0.0
  0
LINE
  5
2A3
330
1F
100
AcDbEntity
  8
TFR-TRI
  6
Continuous
 62
   155
100
AcDbLine
 10
-35.04456329345703
 20
83.7222318649292
 30
0.0
 11
-35.06566619873047
 21
83.7222318649292
 31
0.0
  0
LINE
  5
2A4
330
1F
100
AcDbEntity
  8
TFR-TRI
  6
Continuous
 62
   155
100
AcDbLine
 10
-35.06566619873047
 20
83.7222318649292
 30
0.0
 11
-35.38062286376953
 21
83.7222318649292
 31
0.0
  0
LINE
  5
2A5
330
1F
100
AcDbEntity
  8
TFR-TRI
  6
Continuous
 62
   155
100
AcDbLine
 10
-35.69286346435547
 20
83.7222318649292
 30
0.0
 11
-35.69286346435547
 21
83.78573894500732
 31
0.0
  0
LINE
  5
2A6
330
1F
100
AcDbEntity
  8
TFR-TRI
  6
Continuous
 62
   155
100
AcDbLine
 10
-35.24777984619141
 20
83.61372661590577
 30
0.0
 11
-35.23900604248047
 21
83.61372661590577
 31
0.0
  0
LINE
  5
2A7
330
1F
100
AcDbEntity
  8
TFR-TRI
  6
Continuous
 62
   155
100
AcDbLine
 10
-35.23900604248047
 20
83.61372661590577
 30
0.0
 11
-35.21778106689453
 21
83.61372661590577
 31
0.0
  0
LINE
  5
2A8
330
1F
100
AcDbEntity
  8
TFR-TRI
  6
Continuous
 62
   155
100
AcDbLine
 10
-35.24777984619141
 20
77.66882610321045
 30
0.0
 11
-35.23900604248047
 21
77.66882610321045
 31
0.0
  0
LINE
  5
2A9
330
1F
100
AcDbEntity
  8
TFR-TRI
  6
Continuous
 62
   155
100
AcDbLine
 10
-35.23900604248047
 20
77.66882610321045
 30
0.0
 11
-35.21778106689453
 21
77.66882610321045
 31
0.0
  0
LINE
  5
2AA
330
1F
100
AcDbEntity
  8
TFR-TRI
  6
Continuous
 62
   155
100
AcDbLine
 10
-35.21778106689453
 20
77.66882610321045
 30
0.0
 11
-35.21778106689453
 21
83.61372661590577
 31
0.0
  0
LINE
  5
2AB
330
1F
100
AcDbEntity
  8
TFR-TRI
  6
Continuous
 62
   155
100
AcDbLine
 10
-35.21778106689453
 20
83.61372661590577
 30
0.0
 11
-35.04456329345703
 21
83.61372661590577
 31
0.0
  0
LINE
  5
2AC
330
1F
100
AcDbEntity
  8
TFR-TRI
  6
Continuous
 62
   155
100
AcDbLine
 10
-35.21778106689453
 20
77.66882610321045
 30
0.0
 11
-35.04456329345703
 21
77.66882610321045
 31
0.0
  0
LINE
  5
2AD
330
1F
100
AcDbEntity
  8
TFR-TRI
  6
Continuous
 62
   155
100
AcDbLine
 10
-35.04456329345703
 20
77.66882610321045
 30
0.0
 11
-35.04456329345703
 21
83.61372661590577
 31
0.0
  0
LINE
  5
2AE
330
1F
100
AcDbEntity
  8
TFR-TRI
  6
Continuous
 62
   155
100
AcDbLine
 10
-35.04456329345703
 20
77.66882610321045
 30
0.0
 11
-34.97844696044922
 21
77.66882610321045
 31
0.0
  0
LINE
  5
2AF
330
1F
100
AcDbEntity
  8
TFR-TRI
  6
Continuous
 62
   155
100
AcDbLine
 10
-34.97844696044922
 20
77.66882610321045
 30
0.0
 11
-34.95105743408203
 21
77.66882610321045
 31
0.0
  0
LINE
  5
2B0
330
1F
100
AcDbEntity
  8
TFR-TRI
  6
Continuous
 62
   155
100
AcDbLine
 10
-35.04456329345703
 20
83.61372661590577
 30
0.0
 11
-34.97844696044922
 21
83.61372661590577
 31
0.0
  0
LINE
  5
2B1
330
1F
100
AcDbEntity
  8
TFR-TRI
  6
Continuous
 62
   155
100
AcDbLine
 10
-34.97844696044922
 20
83.61372661590577
 30
0.0
 11
-34.95105743408203
 21
83.61372661590577
 31
0.0
  0
LINE
  5
2B2
330
1F
100
AcDbEntity
  8
TFR-TRI
  6
Continuous
 62
   155
100
AcDbLine
 10
-35.24777984619141
 20
83.61372661590577
 30
0.0
 11
-35.27516937255859
 21
83.61372661590577
 31
0.0
  0
LINE
  5
2B3
330
1F
100
AcDbEntity
  8
TFR-TRI
  6
Continuous
 62
   155
100
AcDbLine
 10
-35.27516937255859
 20
83.61372661590577
 30
0.0
 11
-35.34128570556641
 21
83.61372661590577
 31
0.0
  0
LINE
  5
2B4
330
1F
100
AcDbEntity
  8
TFR-TRI
  6
Continuous
 62
   155
100
AcDbLine
 10
-35.24777984619141
 20
77.66882610321045
 30
0.0
 11
-35.27516937255859
 21
77.66882610321045
 31
0.0
  0
LINE
  5
2B5
330
1F
100
AcDbEntity
  8
TFR-TRI
  6
Continuous
 62
   155
100
AcDbLine
 10
-35.27516937255859
 20
77.66882610321045
 30
0.0
 11
-35.34128570556641
 21
77.66882610321045
 31
0.0
  0
LINE
  5
2B6
330
1F
100
AcDbEntity
  8
TFR-TRI
  6
Continuous
 62
   155
100
AcDbLine
 10
-35.34128570556641
 20
83.61372661590577
 30
0.0
 11
-35.34128570556641
 21
77.66882610321045
 31
0.0
  0
LINE
  5
2B7
330
1F
100
AcDbEntity
  8
TFR-TRI
  6
Continuous
 62
   155
100
AcDbLine
 10
-35.34128570556641
 20
83.61372661590577
 30
0.0
 11
-35.61411285400391
 21
83.61372661590577
 31
0.0
  0
LINE
  5
2B8
330
1F
100
AcDbEntity
  8
TFR-TRI
  6
Continuous
 62
   155
100
AcDbLine
 10
-35.34128570556641
 20
77.66882610321045
 30
0.0
 11
-35.61411285400391
 21
77.66882610321045
 31
0.0
  0
LINE
  5
2B9
330
1F
100
AcDbEntity
  8
TFR-TRI
  6
Continuous
 62
   155
100
AcDbLine
 10
-35.61411285400391
 20
83.61372661590577
 30
0.0
 11
-35.69286346435547
 21
83.53499126434327
 31
0.0
  0
LINE
  5
2BA
330
1F
100
AcDbEntity
  8
TFR-TRI
  6
Continuous
 62
   155
100
AcDbLine
 10
-35.69286346435547
 20
83.53499126434327
 30
0.0
 11
-35.69286346435547
 21
77.74756145477295
 31
0.0
  0
LINE
  5
2BB
330
1F
100
AcDbEntity
  8
TFR-TRI
  6
Continuous
 62
   155
100
AcDbLine
 10
-35.69286346435547
 20
77.74756145477295
 30
0.0
 11
-35.61411285400391
 21
77.66882610321045
 31
0.0
  0
LINE
  5
2BC
330
1F
100
AcDbEntity
  8
TFR-TRI
  6
Continuous
 62
   155
100
AcDbLine
 10
-35.34128570556641
 20
83.70723247528076
 30
0.0
 11
-35.34128570556641
 21
83.6437406539917
 31
0.0
  0
LINE
  5
2BD
330
1F
100
AcDbEntity
  8
TFR-TRI
  6
Continuous
 62
   155
100
AcDbLine
 10
-35.34128570556641
 20
83.70723247528076
 30
0.0
 11
-35.61411285400391
 21
83.70723247528076
 31
0.0
  0
LINE
  5
2BE
330
1F
100
AcDbEntity
  8
TFR-TRI
  6
Continuous
 62
   155
100
AcDbLine
 10
-35.61411285400391
 20
83.70723247528076
 30
0.0
 11
-35.61411285400391
 21
83.6437406539917
 31
0.0
  0
LINE
  5
2BF
330
1F
100
AcDbEntity
  8
TFR-TRI
  6
Continuous
 62
   155
100
AcDbLine
 10
-35.34128570556641
 20
83.6437406539917
 30
0.0
 11
-35.61411285400391
 21
83.6437406539917
 31
0.0
  0
LINE
  5
2C0
330
1F
100
AcDbEntity
  8
TFR-TRI
  6
Continuous
 62
   155
100
AcDbLine
 10
-35.69286346435547
 20
83.70723247528076
 30
0.0
 11
-35.61411285400391
 21
83.70723247528076
 31
0.0
  0
LINE
  5
2C1
330
1F
100
AcDbEntity
  8
TFR-TRI
  6
Continuous
 62
   155
100
AcDbLine
 10
-35.61411285400391
 20
83.6437406539917
 30
0.0
 11
-35.69286346435547
 21
83.6437406539917
 31
0.0
  0
LINE
  5
2C2
330
1F
100
AcDbEntity
  8
TFR-TRI
  6
Continuous
 62
   155
100
AcDbLine
 10
-35.69286346435547
 20
83.6437406539917
 30
0.0
 11
-35.69286346435547
 21
83.70723247528076
 31
0.0
  0
LINE
  5
2C3
330
1F
100
AcDbEntity
  8
TFR-TRI
  6
Continuous
 62
   155
100
AcDbLine
 10
-35.34128570556641
 20
77.63882732391357
 30
0.0
 11
-35.34128570556641
 21
77.57532024383545
 31
0.0
  0
LINE
  5
2C4
330
1F
100
AcDbEntity
  8
TFR-TRI
  6
Continuous
 62
   155
100
AcDbLine
 10
-35.34128570556641
 20
77.63882732391357
 30
0.0
 11
-35.61411285400391
 21
77.63882732391357
 31
0.0
  0
LINE
  5
2C5
330
1F
100
AcDbEntity
  8
TFR-TRI
  6
Continuous
 62
   155
100
AcDbLine
 10
-35.61411285400391
 20
77.63882732391357
 30
0.0
 11
-35.61411285400391
 21
77.57532024383545
 31
0.0
  0
LINE
  5
2C6
330
1F
100
AcDbEntity
  8
TFR-TRI
  6
Continuous
 62
   155
100
AcDbLine
 10
-35.34128570556641
 20
77.57532024383545
 30
0.0
 11
-35.61411285400391
 21
77.57532024383545
 31
0.0
  0
LINE
  5
2C7
330
1F
100
AcDbEntity
  8
TFR-TRI
  6
Continuous
 62
   155
100
AcDbLine
 10
-35.61411285400391
 20
77.57532024383545
 30
0.0
 11
-35.69286346435547
 21
77.57532024383545
 31
0.0
  0
LINE
  5
2C8
330
1F
100
AcDbEntity
  8
TFR-TRI
  6
Continuous
 62
   155
100
AcDbLine
 10
-35.69286346435547
 20
77.63882732391357
 30
0.0
 11
-35.61411285400391
 21
77.63882732391357
 31
0.0
  0
LINE
  5
2C9
330
1F
100
AcDbEntity
  8
TFR-TRI
  6
Continuous
 62
   155
100
AcDbLine
 10
-35.69286346435547
 20
77.57532024383545
 30
0.0
 11
-35.69286346435547
 21
77.63882732391357
 31
0.0
  0
LINE
  5
2CA
330
1F
100
AcDbEntity
  8
TFR-TRI
  6
Continuous
 62
   155
100
AcDbLine
 10
-34.95105743408203
 20
77.59031963348388
 30
0.0
 11
-35.01456451416016
 21
77.59031963348388
 31
0.0
  0
LINE
  5
2CB
330
1F
100
AcDbEntity
  8
TFR-TRI
  6
Continuous
 62
   155
100
AcDbLine
 10
-35.04456329345703
 20
77.56032085418701
 30
0.0
 11
-35.04456329345703
 21
77.49681377410889
 31
0.0
  0
LINE
  5
2CC
330
1F
100
AcDbEntity
  8
TFR-TRI
  6
Continuous
 62
   155
100
AcDbLine
 10
-35.06566619873047
 20
77.56032085418701
 30
0.0
 11
-35.06566619873047
 21
77.49681377410889
 31
0.0
  0
LINE
  5
2CD
330
1F
100
AcDbEntity
  8
TFR-TRI
  6
Continuous
 62
   155
100
AcDbLine
 10
-35.38062286376953
 20
77.56032085418701
 30
0.0
 11
-35.38062286376953
 21
77.49681377410889
 31
0.0
  0
LINE
  5
2CE
330
1F
100
AcDbEntity
  8
TFR-TRI
  6
Continuous
 62
   155
100
AcDbLine
 10
-35.61411285400391
 20
77.56032085418701
 30
0.0
 11
-35.61411285400391
 21
77.49681377410889
 31
0.0
  0
LINE
  5
2CF
330
1F
100
AcDbEntity
  8
TFR-TRI
  6
Continuous
 62
   155
100
AcDbLine
 10
-35.45935821533203
 20
77.49681377410889
 30
0.0
 11
-35.45935821533203
 21
77.56032085418701
 31
0.0
  0
LINE
  5
2D0
330
1F
100
AcDbEntity
  8
TFR-TRI
  6
Continuous
 62
   155
100
AcDbLine
 10
-35.01456451416016
 20
83.69223308563233
 30
0.0
 11
-34.95105743408203
 21
83.69223308563233
 31
0.0
  0
LINE
  5
2D1
330
1F
100
AcDbEntity
  8
TFR-TRI
  6
Continuous
 62
   155
100
AcDbLine
 10
-35.04456329345703
 20
83.78573894500732
 30
0.0
 11
-35.04456329345703
 21
83.7222318649292
 31
0.0
  0
LINE
  5
2D2
330
1F
100
AcDbEntity
  8
TFR-TRI
  6
Continuous
 62
   155
100
AcDbLine
 10
-35.06566619873047
 20
83.78573894500732
 30
0.0
 11
-35.06566619873047
 21
83.7222318649292
 31
0.0
  0
LINE
  5
2D3
330
1F
100
AcDbEntity
  8
TFR-TRI
  6
Continuous
 62
   155
100
AcDbLine
 10
-35.38062286376953
 20
83.78573894500732
 30
0.0
 11
-35.38062286376953
 21
83.7222318649292
 31
0.0
  0
LINE
  5
2D4
330
1F
100
AcDbEntity
  8
TFR-TRI
  6
Continuous
 62
   155
100
AcDbLine
 10
-35.45935821533203
 20
83.7222318649292
 30
0.0
 11
-35.45935821533203
 21
83.78573894500732
 31
0.0
  0
LINE
  5
2D5
330
1F
100
AcDbEntity
  8
TFR-TRI
  6
Continuous
 62
   155
100
AcDbLine
 10
-35.61411285400391
 20
83.78573894500732
 30
0.0
 11
-35.61411285400391
 21
83.7222318649292
 31
0.0
  0
LINE
  5
2D6
330
1F
100
AcDbEntity
  8
TFR-TRI
  6
Continuous
 62
   155
100
AcDbLine
 10
-35.24777984619141
 20
18.86373424530029
 30
0.0
 11
-35.24777984619141
 21
12.91881847381592
 31
0.0
  0
LINE
  5
2D7
330
1F
100
AcDbEntity
  8
TFR-TRI
  6
Continuous
 62
   155
100
AcDbLine
 10
-34.95105743408203
 20
18.86373424530029
 30
0.0
 11
-34.95105743408203
 21
18.94223308563232
 31
0.0
  0
LINE
  5
2D8
330
1F
100
AcDbEntity
  8
TFR-TRI
  6
Continuous
 62
   155
100
AcDbLine
 10
-34.95105743408203
 20
12.91881847381592
 30
0.0
 11
-34.95105743408203
 21
18.86373424530029
 31
0.0
  0
LINE
  5
2D9
330
1F
100
AcDbEntity
  8
TFR-TRI
  6
Continuous
 62
   155
100
AcDbLine
 10
-34.95105743408203
 20
12.91881847381592
 30
0.0
 11
-34.95105743408203
 21
12.84031963348388
 31
0.0
  0
LINE
  5
2DA
330
1F
100
AcDbEntity
  8
TFR-TRI
  6
Continuous
 62
   155
100
AcDbLine
 10
-35.01456451416016
 20
12.91881847381592
 30
0.0
 11
-35.01456451416016
 21
12.84031963348388
 31
0.0
  0
LINE
  5
2DB
330
1F
100
AcDbEntity
  8
TFR-TRI
  6
Continuous
 62
   155
100
AcDbLine
 10
-35.01456451416016
 20
18.86373424530029
 30
0.0
 11
-35.01456451416016
 21
18.94223308563232
 31
0.0
  0
LINE
  5
2DC
330
1F
100
AcDbEntity
  8
TFR-TRI
  6
Continuous
 62
   155
100
AcDbLine
 10
-35.45935821533203
 20
12.74682140350342
 30
0.0
 11
-35.61411285400391
 21
12.74682140350342
 31
0.0
  0
LINE
  5
2DD
330
1F
100
AcDbEntity
  8
TFR-TRI
  6
Continuous
 62
   155
100
AcDbLine
 10
-35.61411285400391
 20
12.74682140350342
 30
0.0
 11
-35.69286346435547
 21
12.74682140350342
 31
0.0
  0
LINE
  5
2DE
330
1F
100
AcDbEntity
  8
TFR-TRI
  6
Continuous
 62
   155
100
AcDbLine
 10
-35.04456329345703
 20
12.74682140350342
 30
0.0
 11
-35.06566619873047
 21
12.74682140350342
 31
0.0
  0
LINE
  5
2DF
330
1F
100
AcDbEntity
  8
TFR-TRI
  6
Continuous
 62
   155
100
AcDbLine
 10
-35.06566619873047
 20
12.74682140350342
 30
0.0
 11
-35.38062286376953
 21
12.74682140350342
 31
0.0
  0
LINE
  5
2E0
330
1F
100
AcDbEntity
  8
TFR-TRI
  6
Continuous
 62
   155
100
AcDbLine
 10
-35.38062286376953
 20
12.74682140350342
 30
0.0
 11
-35.45935821533203
 21
12.74682140350342
 31
0.0
  0
LINE
  5
2E1
330
1F
100
AcDbEntity
  8
TFR-TRI
  6
Continuous
 62
   155
100
AcDbLine
 10
-35.69286346435547
 20
12.81032085418701
 30
0.0
 11
-35.61411285400391
 21
12.81032085418701
 31
0.0
  0
LINE
  5
2E2
330
1F
100
AcDbEntity
  8
TFR-TRI
  6
Continuous
 62
   155
100
AcDbLine
 10
-35.45935821533203
 20
12.81032085418701
 30
0.0
 11
-35.61411285400391
 21
12.81032085418701
 31
0.0
  0
LINE
  5
2E3
330
1F
100
AcDbEntity
  8
TFR-TRI
  6
Continuous
 62
   155
100
AcDbLine
 10
-35.45935821533203
 20
12.81032085418701
 30
0.0
 11
-35.38062286376953
 21
12.81032085418701
 31
0.0
  0
LINE
  5
2E4
330
1F
100
AcDbEntity
  8
TFR-TRI
  6
Continuous
 62
   155
100
AcDbLine
 10
-35.38062286376953
 20
12.81032085418701
 30
0.0
 11
-35.06566619873047
 21
12.81032085418701
 31
0.0
  0
LINE
  5
2E5
330
1F
100
AcDbEntity
  8
TFR-TRI
  6
Continuous
 62
   155
100
AcDbLine
 10
-35.04456329345703
 20
12.81032085418701
 30
0.0
 11
-35.06566619873047
 21
12.81032085418701
 31
0.0
  0
LINE
  5
2E6
330
1F
100
AcDbEntity
  8
TFR-TRI
  6
Continuous
 62
   155
100
AcDbLine
 10
-35.69286346435547
 20
12.74682140350342
 30
0.0
 11
-35.69286346435547
 21
12.81032085418701
 31
0.0
  0
LINE
  5
2E7
330
1F
100
AcDbEntity
  8
TFR-TRI
  6
Continuous
 62
   155
100
AcDbLine
 10
-35.45935821533203
 20
19.03573131561279
 30
0.0
 11
-35.61411285400391
 21
19.03573131561279
 31
0.0
  0
LINE
  5
2E8
330
1F
100
AcDbEntity
  8
TFR-TRI
  6
Continuous
 62
   155
100
AcDbLine
 10
-35.45935821533203
 20
19.03573131561279
 30
0.0
 11
-35.38062286376953
 21
19.03573131561279
 31
0.0
  0
LINE
  5
2E9
330
1F
100
AcDbEntity
  8
TFR-TRI
  6
Continuous
 62
   155
100
AcDbLine
 10
-35.38062286376953
 20
19.03573131561279
 30
0.0
 11
-35.06566619873047
 21
19.03573131561279
 31
0.0
  0
LINE
  5
2EA
330
1F
100
AcDbEntity
  8
TFR-TRI
  6
Continuous
 62
   155
100
AcDbLine
 10
-35.04456329345703
 20
19.03573131561279
 30
0.0
 11
-35.06566619873047
 21
19.03573131561279
 31
0.0
  0
LINE
  5
2EB
330
1F
100
AcDbEntity
  8
TFR-TRI
  6
Continuous
 62
   155
100
AcDbLine
 10
-35.69286346435547
 20
19.03573131561279
 30
0.0
 11
-35.61411285400391
 21
19.03573131561279
 31
0.0
  0
LINE
  5
2EC
330
1F
100
AcDbEntity
  8
TFR-TRI
  6
Continuous
 62
   155
100
AcDbLine
 10
-35.38062286376953
 20
18.9722318649292
 30
0.0
 11
-35.45935821533203
 21
18.9722318649292
 31
0.0
  0
LINE
  5
2ED
330
1F
100
AcDbEntity
  8
TFR-TRI
  6
Continuous
 62
   155
100
AcDbLine
 10
-35.45935821533203
 20
18.9722318649292
 30
0.0
 11
-35.61411285400391
 21
18.9722318649292
 31
0.0
  0
LINE
  5
2EE
330
1F
100
AcDbEntity
  8
TFR-TRI
  6
Continuous
 62
   155
100
AcDbLine
 10
-35.61411285400391
 20
18.9722318649292
 30
0.0
 11
-35.69286346435547
 21
18.9722318649292
 31
0.0
  0
LINE
  5
2EF
330
1F
100
AcDbEntity
  8
TFR-TRI
  6
Continuous
 62
   155
100
AcDbLine
 10
-35.04456329345703
 20
18.9722318649292
 30
0.0
 11
-35.06566619873047
 21
18.9722318649292
 31
0.0
  0
LINE
  5
2F0
330
1F
100
AcDbEntity
  8
TFR-TRI
  6
Continuous
 62
   155
100
AcDbLine
 10
-35.06566619873047
 20
18.9722318649292
 30
0.0
 11
-35.38062286376953
 21
18.9722318649292
 31
0.0
  0
LINE
  5
2F1
330
1F
100
AcDbEntity
  8
TFR-TRI
  6
Continuous
 62
   155
100
AcDbLine
 10
-35.69286346435547
 20
18.9722318649292
 30
0.0
 11
-35.69286346435547
 21
19.03573131561279
 31
0.0
  0
LINE
  5
2F2
330
1F
100
AcDbEntity
  8
TFR-TRI
  6
Continuous
 62
   155
100
AcDbLine
 10
-35.24777984619141
 20
18.86373424530029
 30
0.0
 11
-35.23900604248047
 21
18.86373424530029
 31
0.0
  0
LINE
  5
2F3
330
1F
100
AcDbEntity
  8
TFR-TRI
  6
Continuous
 62
   155
100
AcDbLine
 10
-35.23900604248047
 20
18.86373424530029
 30
0.0
 11
-35.21778106689453
 21
18.86373424530029
 31
0.0
  0
LINE
  5
2F4
330
1F
100
AcDbEntity
  8
TFR-TRI
  6
Continuous
 62
   155
100
AcDbLine
 10
-35.24777984619141
 20
12.91881847381592
 30
0.0
 11
-35.23900604248047
 21
12.91881847381592
 31
0.0
  0
LINE
  5
2F5
330
1F
100
AcDbEntity
  8
TFR-TRI
  6
Continuous
 62
   155
100
AcDbLine
 10
-35.23900604248047
 20
12.91881847381592
 30
0.0
 11
-35.21778106689453
 21
12.91881847381592
 31
0.0
  0
LINE
  5
2F6
330
1F
100
AcDbEntity
  8
TFR-TRI
  6
Continuous
 62
   155
100
AcDbLine
 10
-35.21778106689453
 20
12.91881847381592
 30
0.0
 11
-35.21778106689453
 21
18.86373424530029
 31
0.0
  0
LINE
  5
2F7
330
1F
100
AcDbEntity
  8
TFR-TRI
  6
Continuous
 62
   155
100
AcDbLine
 10
-35.21778106689453
 20
18.86373424530029
 30
0.0
 11
-35.04456329345703
 21
18.86373424530029
 31
0.0
  0
LINE
  5
2F8
330
1F
100
AcDbEntity
  8
TFR-TRI
  6
Continuous
 62
   155
100
AcDbLine
 10
-35.21778106689453
 20
12.91881847381592
 30
0.0
 11
-35.04456329345703
 21
12.91881847381592
 31
0.0
  0
LINE
  5
2F9
330
1F
100
AcDbEntity
  8
TFR-TRI
  6
Continuous
 62
   155
100
AcDbLine
 10
-35.04456329345703
 20
12.91881847381592
 30
0.0
 11
-35.04456329345703
 21
18.86373424530029
 31
0.0
  0
LINE
  5
2FA
330
1F
100
AcDbEntity
  8
TFR-TRI
  6
Continuous
 62
   155
100
AcDbLine
 10
-35.04456329345703
 20
12.91881847381592
 30
0.0
 11
-34.97844696044922
 21
12.91881847381592
 31
0.0
  0
LINE
  5
2FB
330
1F
100
AcDbEntity
  8
TFR-TRI
  6
Continuous
 62
   155
100
AcDbLine
 10
-34.97844696044922
 20
12.91881847381592
 30
0.0
 11
-34.95105743408203
 21
12.91881847381592
 31
0.0
  0
LINE
  5
2FC
330
1F
100
AcDbEntity
  8
TFR-TRI
  6
Continuous
 62
   155
100
AcDbLine
 10
-35.04456329345703
 20
18.86373424530029
 30
0.0
 11
-34.97844696044922
 21
18.86373424530029
 31
0.0
  0
LINE
  5
2FD
330
1F
100
AcDbEntity
  8
TFR-TRI
  6
Continuous
 62
   155
100
AcDbLine
 10
-34.97844696044922
 20
18.86373424530029
 30
0.0
 11
-34.95105743408203
 21
18.86373424530029
 31
0.0
  0
LINE
  5
2FE
330
1F
100
AcDbEntity
  8
TFR-TRI
  6
Continuous
 62
   155
100
AcDbLine
 10
-35.24777984619141
 20
18.86373424530029
 30
0.0
 11
-35.27516937255859
 21
18.86373424530029
 31
0.0
  0
LINE
  5
2FF
330
1F
100
AcDbEntity
  8
TFR-TRI
  6
Continuous
 62
   155
100
AcDbLine
 10
-35.27516937255859
 20
18.86373424530029
 30
0.0
 11
-35.34128570556641
 21
18.86373424530029
 31
0.0
  0
LINE
  5
300
330
1F
100
AcDbEntity
  8
TFR-TRI
  6
Continuous
 62
   155
100
AcDbLine
 10
-35.24777984619141
 20
12.91881847381592
 30
0.0
 11
-35.27516937255859
 21
12.91881847381592
 31
0.0
  0
LINE
  5
301
330
1F
100
AcDbEntity
  8
TFR-TRI
  6
Continuous
 62
   155
100
AcDbLine
 10
-35.27516937255859
 20
12.91881847381592
 30
0.0
 11
-35.34128570556641
 21
12.91881847381592
 31
0.0
  0
LINE
  5
302
330
1F
100
AcDbEntity
  8
TFR-TRI
  6
Continuous
 62
   155
100
AcDbLine
 10
-35.34128570556641
 20
18.86373424530029
 30
0.0
 11
-35.34128570556641
 21
12.91881847381592
 31
0.0
  0
LINE
  5
303
330
1F
100
AcDbEntity
  8
TFR-TRI
  6
Continuous
 62
   155
100
AcDbLine
 10
-35.34128570556641
 20
18.86373424530029
 30
0.0
 11
-35.61411285400391
 21
18.86373424530029
 31
0.0
  0
LINE
  5
304
330
1F
100
AcDbEntity
  8
TFR-TRI
  6
Continuous
 62
   155
100
AcDbLine
 10
-35.34128570556641
 20
12.91881847381592
 30
0.0
 11
-35.61411285400391
 21
12.91881847381592
 31
0.0
  0
LINE
  5
305
330
1F
100
AcDbEntity
  8
TFR-TRI
  6
Continuous
 62
   155
100
AcDbLine
 10
-35.61411285400391
 20
18.86373424530029
 30
0.0
 11
-35.69286346435547
 21
18.78499126434326
 31
0.0
  0
LINE
  5
306
330
1F
100
AcDbEntity
  8
TFR-TRI
  6
Continuous
 62
   155
100
AcDbLine
 10
-35.69286346435547
 20
18.78499126434326
 30
0.0
 11
-35.69286346435547
 21
12.99756145477295
 31
0.0
  0
LINE
  5
307
330
1F
100
AcDbEntity
  8
TFR-TRI
  6
Continuous
 62
   155
100
AcDbLine
 10
-35.69286346435547
 20
12.99756145477295
 30
0.0
 11
-35.61411285400391
 21
12.91881847381592
 31
0.0
  0
LINE
  5
308
330
1F
100
AcDbEntity
  8
TFR-TRI
  6
Continuous
 62
   155
100
AcDbLine
 10
-35.34128570556641
 20
18.95723247528076
 30
0.0
 11
-35.34128570556641
 21
18.89373302459716
 31
0.0
  0
LINE
  5
309
330
1F
100
AcDbEntity
  8
TFR-TRI
  6
Continuous
 62
   155
100
AcDbLine
 10
-35.34128570556641
 20
18.95723247528076
 30
0.0
 11
-35.61411285400391
 21
18.95723247528076
 31
0.0
  0
LINE
  5
30A
330
1F
100
AcDbEntity
  8
TFR-TRI
  6
Continuous
 62
   155
100
AcDbLine
 10
-35.61411285400391
 20
18.95723247528076
 30
0.0
 11
-35.61411285400391
 21
18.89373302459716
 31
0.0
  0
LINE
  5
30B
330
1F
100
AcDbEntity
  8
TFR-TRI
  6
Continuous
 62
   155
100
AcDbLine
 10
-35.34128570556641
 20
18.89373302459716
 30
0.0
 11
-35.61411285400391
 21
18.89373302459716
 31
0.0
  0
LINE
  5
30C
330
1F
100
AcDbEntity
  8
TFR-TRI
  6
Continuous
 62
   155
100
AcDbLine
 10
-35.69286346435547
 20
18.95723247528076
 30
0.0
 11
-35.61411285400391
 21
18.95723247528076
 31
0.0
  0
LINE
  5
30D
330
1F
100
AcDbEntity
  8
TFR-TRI
  6
Continuous
 62
   155
100
AcDbLine
 10
-35.61411285400391
 20
18.89373302459716
 30
0.0
 11
-35.69286346435547
 21
18.89373302459716
 31
0.0
  0
LINE
  5
30E
330
1F
100
AcDbEntity
  8
TFR-TRI
  6
Continuous
 62
   155
100
AcDbLine
 10
-35.69286346435547
 20
18.89373302459716
 30
0.0
 11
-35.69286346435547
 21
18.95723247528076
 31
0.0
  0
LINE
  5
30F
330
1F
100
AcDbEntity
  8
TFR-TRI
  6
Continuous
 62
   155
100
AcDbLine
 10
-35.34128570556641
 20
12.88881969451904
 30
0.0
 11
-35.34128570556641
 21
12.82532024383545
 31
0.0
  0
LINE
  5
310
330
1F
100
AcDbEntity
  8
TFR-TRI
  6
Continuous
 62
   155
100
AcDbLine
 10
-35.34128570556641
 20
12.88881969451904
 30
0.0
 11
-35.61411285400391
 21
12.88881969451904
 31
0.0
  0
LINE
  5
311
330
1F
100
AcDbEntity
  8
TFR-TRI
  6
Continuous
 62
   155
100
AcDbLine
 10
-35.61411285400391
 20
12.88881969451904
 30
0.0
 11
-35.61411285400391
 21
12.82532024383545
 31
0.0
  0
LINE
  5
312
330
1F
100
AcDbEntity
  8
TFR-TRI
  6
Continuous
 62
   155
100
AcDbLine
 10
-35.34128570556641
 20
12.82532024383545
 30
0.0
 11
-35.61411285400391
 21
12.82532024383545
 31
0.0
  0
LINE
  5
313
330
1F
100
AcDbEntity
  8
TFR-TRI
  6
Continuous
 62
   155
100
AcDbLine
 10
-35.61411285400391
 20
12.82532024383545
 30
0.0
 11
-35.69286346435547
 21
12.82532024383545
 31
0.0
  0
LINE
  5
314
330
1F
100
AcDbEntity
  8
TFR-TRI
  6
Continuous
 62
   155
100
AcDbLine
 10
-35.69286346435547
 20
12.88881969451904
 30
0.0
 11
-35.61411285400391
 21
12.88881969451904
 31
0.0
  0
LINE
  5
315
330
1F
100
AcDbEntity
  8
TFR-TRI
  6
Continuous
 62
   155
100
AcDbLine
 10
-35.69286346435547
 20
12.82532024383545
 30
0.0
 11
-35.69286346435547
 21
12.88881969451904
 31
0.0
  0
LINE
  5
316
330
1F
100
AcDbEntity
  8
TFR-TRI
  6
Continuous
 62
   155
100
AcDbLine
 10
-34.95105743408203
 20
12.84031963348388
 30
0.0
 11
-35.01456451416016
 21
12.84031963348388
 31
0.0
  0
LINE
  5
317
330
1F
100
AcDbEntity
  8
TFR-TRI
  6
Continuous
 62
   155
100
AcDbLine
 10
-35.04456329345703
 20
12.81032085418701
 30
0.0
 11
-35.04456329345703
 21
12.74682140350342
 31
0.0
  0
LINE
  5
318
330
1F
100
AcDbEntity
  8
TFR-TRI
  6
Continuous
 62
   155
100
AcDbLine
 10
-35.06566619873047
 20
12.81032085418701
 30
0.0
 11
-35.06566619873047
 21
12.74682140350342
 31
0.0
  0
LINE
  5
319
330
1F
100
AcDbEntity
  8
TFR-TRI
  6
Continuous
 62
   155
100
AcDbLine
 10
-35.38062286376953
 20
12.81032085418701
 30
0.0
 11
-35.38062286376953
 21
12.74682140350342
 31
0.0
  0
LINE
  5
31A
330
1F
100
AcDbEntity
  8
TFR-TRI
  6
Continuous
 62
   155
100
AcDbLine
 10
-35.61411285400391
 20
12.81032085418701
 30
0.0
 11
-35.61411285400391
 21
12.74682140350342
 31
0.0
  0
LINE
  5
31B
330
1F
100
AcDbEntity
  8
TFR-TRI
  6
Continuous
 62
   155
100
AcDbLine
 10
-35.45935821533203
 20
12.74682140350342
 30
0.0
 11
-35.45935821533203
 21
12.81032085418701
 31
0.0
  0
LINE
  5
31C
330
1F
100
AcDbEntity
  8
TFR-TRI
  6
Continuous
 62
   155
100
AcDbLine
 10
-35.01456451416016
 20
18.94223308563232
 30
0.0
 11
-34.95105743408203
 21
18.94223308563232
 31
0.0
  0
LINE
  5
31D
330
1F
100
AcDbEntity
  8
TFR-TRI
  6
Continuous
 62
   155
100
AcDbLine
 10
-35.04456329345703
 20
19.03573131561279
 30
0.0
 11
-35.04456329345703
 21
18.9722318649292
 31
0.0
  0
LINE
  5
31E
330
1F
100
AcDbEntity
  8
TFR-TRI
  6
Continuous
 62
   155
100
AcDbLine
 10
-35.06566619873047
 20
19.03573131561279
 30
0.0
 11
-35.06566619873047
 21
18.9722318649292
 31
0.0
  0
LINE
  5
31F
330
1F
100
AcDbEntity
  8
TFR-TRI
  6
Continuous
 62
   155
100
AcDbLine
 10
-35.38062286376953
 20
19.03573131561279
 30
0.0
 11
-35.38062286376953
 21
18.9722318649292
 31
0.0
  0
LINE
  5
320
330
1F
100
AcDbEntity
  8
TFR-TRI
  6
Continuous
 62
   155
100
AcDbLine
 10
-35.45935821533203
 20
18.9722318649292
 30
0.0
 11
-35.45935821533203
 21
19.03573131561279
 31
0.0
  0
LINE
  5
321
330
1F
100
AcDbEntity
  8
TFR-TRI
  6
Continuous
 62
   155
100
AcDbLine
 10
-35.61411285400391
 20
19.03573131561279
 30
0.0
 11
-35.61411285400391
 21
18.9722318649292
 31
0.0
  0
LINE
  5
322
330
1F
100
AcDbEntity
  8
TFR-TRI
  6
Continuous
 62
     3
100
AcDbLine
 10
30.24394989013672
 20
83.7222318649292
 30
0.0
 11
30.24394989013672
 21
83.70723247528076
 31
0.0
  0
LINE
  5
323
330
1F
100
AcDbEntity
  8
TFR-TRI
  6
Continuous
 62
     3
100
AcDbLine
 10
30.36894989013672
 20
83.70723247528076
 30
0.0
 11
30.36894989013672
 21
83.7222318649292
 31
0.0
  0
LINE
  5
324
330
1F
100
AcDbEntity
  8
TFR-TRI
  6
Continuous
 62
     3
100
AcDbLine
 10
31.18883514404297
 20
18.9722318649292
 30
0.0
 11
31.18883514404297
 21
18.95723247528076
 31
0.0
  0
LINE
  5
325
330
1F
100
AcDbEntity
  8
TFR-TRI
  6
Continuous
 62
     3
100
AcDbLine
 10
31.31383514404297
 20
18.95723247528076
 30
0.0
 11
31.31383514404297
 21
18.9722318649292
 31
0.0
  0
LINE
  5
326
330
1F
100
AcDbEntity
  8
TFR-TRI
  6
Continuous
 62
     3
100
AcDbLine
 10
30.36894989013672
 20
77.56032085418701
 30
0.0
 11
30.36894989013672
 21
77.57532024383545
 31
0.0
  0
LINE
  5
327
330
1F
100
AcDbEntity
  8
TFR-TRI
  6
Continuous
 62
     3
100
AcDbLine
 10
30.24394989013672
 20
77.57532024383545
 30
0.0
 11
30.24394989013672
 21
77.56032085418701
 31
0.0
  0
LINE
  5
328
330
1F
100
AcDbEntity
  8
TFR-TRI
  6
Continuous
 62
     3
100
AcDbLine
 10
31.31383514404297
 20
12.81032085418701
 30
0.0
 11
31.31383514404297
 21
12.82532024383545
 31
0.0
  0
LINE
  5
329
330
1F
100
AcDbEntity
  8
TFR-TRI
  6
Continuous
 62
     3
100
AcDbLine
 10
31.18883514404297
 20
12.82532024383545
 30
0.0
 11
31.18883514404297
 21
12.81032085418701
 31
0.0
  0
LINE
  5
32A
330
1F
100
AcDbEntity
  8
TFR-TRI
  6
Continuous
 62
     3
100
AcDbLine
 10
31.18883514404297
 20
83.7222318649292
 30
0.0
 11
31.18883514404297
 21
83.70723247528076
 31
0.0
  0
LINE
  5
32B
330
1F
100
AcDbEntity
  8
TFR-TRI
  6
Continuous
 62
     3
100
AcDbLine
 10
31.31383514404297
 20
83.70723247528076
 30
0.0
 11
31.31383514404297
 21
83.7222318649292
 31
0.0
  0
LINE
  5
32C
330
1F
100
AcDbEntity
  8
TFR-TRI
  6
Continuous
 62
     3
100
AcDbLine
 10
30.24394989013672
 20
18.9722318649292
 30
0.0
 11
30.24394989013672
 21
18.95723247528076
 31
0.0
  0
LINE
  5
32D
330
1F
100
AcDbEntity
  8
TFR-TRI
  6
Continuous
 62
     3
100
AcDbLine
 10
30.36894989013672
 20
18.95723247528076
 30
0.0
 11
30.36894989013672
 21
18.9722318649292
 31
0.0
  0
LINE
  5
32E
330
1F
100
AcDbEntity
  8
TFR-TRI
  6
Continuous
 62
     3
100
AcDbLine
 10
30.36894989013672
 20
12.81032085418701
 30
0.0
 11
30.36894989013672
 21
12.82532024383545
 31
0.0
  0
LINE
  5
32F
330
1F
100
AcDbEntity
  8
TFR-TRI
  6
Continuous
 62
     3
100
AcDbLine
 10
30.24394989013672
 20
12.82532024383545
 30
0.0
 11
30.24394989013672
 21
12.81032085418701
 31
0.0
  0
LINE
  5
330
330
1F
100
AcDbEntity
  8
TFR-TRI
  6
Continuous
 62
     3
100
AcDbLine
 10
31.31383514404297
 20
77.56032085418701
 30
0.0
 11
31.31383514404297
 21
77.57532024383545
 31
0.0
  0
LINE
  5
331
330
1F
100
AcDbEntity
  8
TFR-TRI
  6
Continuous
 62
     3
100
AcDbLine
 10
31.18883514404297
 20
77.57532024383545
 30
0.0
 11
31.18883514404297
 21
77.56032085418701
 31
0.0
  0
LINE
  5
332
330
1F
100
AcDbEntity
  8
TFR-TRI
  6
Continuous
 62
   155
100
AcDbLine
 10
30.14275360107422
 20
82.75706768035888
 30
0.0
 11
30.14275360107422
 21
82.90127849578857
 31
0.0
  0
LINE
  5
333
330
1F
100
AcDbEntity
  8
TFR-TRI
  6
Continuous
 62
   155
100
AcDbLine
 10
30.62276458740234
 20
82.90127849578857
 30
0.0
 11
30.62276458740234
 21
82.75706768035888
 31
0.0
  0
LINE
  5
334
330
1F
100
AcDbEntity
  8
TFR-TRI
  6
Continuous
 62
   155
100
AcDbLine
 10
30.62276458740234
 20
82.02548503875732
 30
0.0
 11
30.62276458740234
 21
81.88127422332764
 31
0.0
  0
LINE
  5
335
330
1F
100
AcDbEntity
  8
TFR-TRI
  6
Continuous
 62
   155
100
AcDbLine
 10
30.14275360107422
 20
81.88127422332764
 30
0.0
 11
30.14275360107422
 21
82.02548503875732
 31
0.0
  0
LINE
  5
336
330
1F
100
AcDbEntity
  8
TFR-TRI
  6
Continuous
 62
   155
100
AcDbLine
 10
30.14275360107422
 20
79.25706768035889
 30
0.0
 11
30.14275360107422
 21
79.40127849578857
 31
0.0
  0
LINE
  5
337
330
1F
100
AcDbEntity
  8
TFR-TRI
  6
Continuous
 62
   155
100
AcDbLine
 10
30.62276458740234
 20
79.40127849578857
 30
0.0
 11
30.62276458740234
 21
79.25706768035889
 31
0.0
  0
LINE
  5
338
330
1F
100
AcDbEntity
  8
TFR-TRI
  6
Continuous
 62
   155
100
AcDbLine
 10
30.62276458740234
 20
78.52548503875732
 30
0.0
 11
30.62276458740234
 21
78.38127422332764
 31
0.0
  0
LINE
  5
339
330
1F
100
AcDbEntity
  8
TFR-TRI
  6
Continuous
 62
   155
100
AcDbLine
 10
30.14275360107422
 20
78.38127422332764
 30
0.0
 11
30.14275360107422
 21
78.52548503875732
 31
0.0
  0
LINE
  5
33A
330
1F
100
AcDbEntity
  8
TFR-TRI
  6
Continuous
 62
   155
100
AcDbLine
 10
27.26775360107422
 20
80.13127422332763
 30
0.0
 11
27.26775360107422
 21
80.27548503875733
 31
0.0
  0
LINE
  5
33B
330
1F
100
AcDbEntity
  8
TFR-TRI
  6
Continuous
 62
   155
100
AcDbLine
 10
27.26775360107422
 20
81.00706768035889
 30
0.0
 11
27.26775360107422
 21
81.15127849578858
 31
0.0
  0
LINE
  5
33C
330
1F
100
AcDbEntity
  8
TFR-TRI
  6
Continuous
 62
   155
100
AcDbLine
 10
27.74774932861328
 20
81.15127849578858
 30
0.0
 11
27.74774932861328
 21
81.00706768035889
 31
0.0
  0
LINE
  5
33D
330
1F
100
AcDbEntity
  8
TFR-TRI
  6
Continuous
 62
   155
100
AcDbLine
 10
27.74774932861328
 20
80.27548503875733
 30
0.0
 11
27.74774932861328
 21
80.13127422332763
 31
0.0
  0
LINE
  5
33E
330
1F
100
AcDbEntity
  8
TFR-TRI
  6
Continuous
 62
   155
100
AcDbLine
 10
28.70525360107422
 20
80.13127422332763
 30
0.0
 11
28.70525360107422
 21
80.27548503875733
 31
0.0
  0
LINE
  5
33F
330
1F
100
AcDbEntity
  8
TFR-TRI
  6
Continuous
 62
   155
100
AcDbLine
 10
28.70525360107422
 20
81.00706768035889
 30
0.0
 11
28.70525360107422
 21
81.15127849578858
 31
0.0
  0
LINE
  5
340
330
1F
100
AcDbEntity
  8
TFR-TRI
  6
Continuous
 62
   155
100
AcDbLine
 10
29.18526458740235
 20
81.15127849578858
 30
0.0
 11
29.18526458740235
 21
81.00706768035889
 31
0.0
  0
LINE
  5
341
330
1F
100
AcDbEntity
  8
TFR-TRI
  6
Continuous
 62
   155
100
AcDbLine
 10
29.18526458740235
 20
80.27548503875733
 30
0.0
 11
29.18526458740235
 21
80.13127422332763
 31
0.0
  0
LINE
  5
342
330
1F
100
AcDbEntity
  8
TFR-TRI
  6
Continuous
 62
   155
100
AcDbLine
 10
26.24594879150391
 20
83.61372661590577
 30
0.0
 11
26.24594879150391
 21
77.66882610321045
 31
0.0
  0
LINE
  5
343
330
1F
100
AcDbEntity
  8
TFR-TRI
  6
Continuous
 62
   155
100
AcDbLine
 10
26.24594879150391
 20
77.66882610321045
 30
0.0
 11
31.75774383544922
 21
77.66882610321045
 31
0.0
  0
LINE
  5
344
330
1F
100
AcDbEntity
  8
TFR-TRI
  6
Continuous
 62
   155
100
AcDbLine
 10
31.75774383544922
 20
83.61372661590577
 30
0.0
 11
31.75774383544922
 21
77.66882610321045
 31
0.0
  0
LINE
  5
345
330
1F
100
AcDbEntity
  8
TFR-TRI
  6
Continuous
 62
   155
100
AcDbLine
 10
31.75774383544922
 20
83.61372661590577
 30
0.0
 11
26.24594879150391
 21
83.61372661590577
 31
0.0
  0
LINE
  5
346
330
1F
100
AcDbEntity
  8
TFR-TRI
  6
Continuous
 62
   155
100
AcDbLine
 10
30.14275360107422
 20
80.13127422332763
 30
0.0
 11
30.14275360107422
 21
80.27548503875733
 31
0.0
  0
LINE
  5
347
330
1F
100
AcDbEntity
  8
TFR-TRI
  6
Continuous
 62
   155
100
AcDbLine
 10
30.14275360107422
 20
81.00706768035889
 30
0.0
 11
30.14275360107422
 21
81.15127849578858
 31
0.0
  0
LINE
  5
348
330
1F
100
AcDbEntity
  8
TFR-TRI
  6
Continuous
 62
   155
100
AcDbLine
 10
30.62276458740234
 20
81.15127849578858
 30
0.0
 11
30.62276458740234
 21
81.00706768035889
 31
0.0
  0
LINE
  5
349
330
1F
100
AcDbEntity
  8
TFR-TRI
  6
Continuous
 62
   155
100
AcDbLine
 10
30.62276458740234
 20
80.27548503875733
 30
0.0
 11
30.62276458740234
 21
80.13127422332763
 31
0.0
  0
LINE
  5
34A
330
1F
100
AcDbEntity
  8
TFR-TRI
  6
Continuous
 62
   155
100
AcDbLine
 10
27.89275360107422
 20
79.25706768035889
 30
0.0
 11
27.89275360107422
 21
79.40127849578857
 31
0.0
  0
LINE
  5
34B
330
1F
100
AcDbEntity
  8
TFR-TRI
  6
Continuous
 62
   155
100
AcDbLine
 10
28.37274932861328
 20
79.40127849578857
 30
0.0
 11
28.37274932861328
 21
79.25706768035889
 31
0.0
  0
LINE
  5
34C
330
1F
100
AcDbEntity
  8
TFR-TRI
  6
Continuous
 62
   155
100
AcDbLine
 10
28.37274932861328
 20
78.52548503875732
 30
0.0
 11
28.37274932861328
 21
78.38127422332764
 31
0.0
  0
LINE
  5
34D
330
1F
100
AcDbEntity
  8
TFR-TRI
  6
Continuous
 62
   155
100
AcDbLine
 10
27.89275360107422
 20
78.38127422332764
 30
0.0
 11
27.89275360107422
 21
78.52548503875732
 31
0.0
  0
LINE
  5
34E
330
1F
100
AcDbEntity
  8
TFR-TRI
  6
Continuous
 62
   155
100
AcDbLine
 10
27.89275360107422
 20
82.75706768035888
 30
0.0
 11
27.89275360107422
 21
82.90127849578857
 31
0.0
  0
LINE
  5
34F
330
1F
100
AcDbEntity
  8
TFR-TRI
  6
Continuous
 62
   155
100
AcDbLine
 10
28.37274932861328
 20
82.90127849578857
 30
0.0
 11
28.37274932861328
 21
82.75706768035888
 31
0.0
  0
LINE
  5
350
330
1F
100
AcDbEntity
  8
TFR-TRI
  6
Continuous
 62
   155
100
AcDbLine
 10
28.37274932861328
 20
82.02548503875732
 30
0.0
 11
28.37274932861328
 21
81.88127422332764
 31
0.0
  0
LINE
  5
351
330
1F
100
AcDbEntity
  8
TFR-TRI
  6
Continuous
 62
   155
100
AcDbLine
 10
27.89275360107422
 20
81.88127422332764
 30
0.0
 11
27.89275360107422
 21
82.02548503875732
 31
0.0
  0
LINE
  5
352
330
1F
100
AcDbEntity
  8
TFR-TRI
  6
Continuous
 62
   155
100
AcDbLine
 10
32.47179412841797
 20
77.59031963348388
 30
0.0
 11
31.88124847412109
 21
77.59031963348388
 31
0.0
  0
LINE
  5
353
330
1F
100
AcDbEntity
  8
TFR-TRI
  6
Continuous
 62
   155
100
AcDbLine
 10
32.47179412841797
 20
77.59031963348388
 30
0.0
 11
32.47179412841797
 21
83.69223308563233
 31
0.0
  0
LINE
  5
354
330
1F
100
AcDbEntity
  8
TFR-TRI
  6
Continuous
 62
   155
100
AcDbLine
 10
32.47179412841797
 20
83.69223308563233
 30
0.0
 11
31.88124847412109
 21
83.69223308563233
 31
0.0
  0
LINE
  5
355
330
1F
100
AcDbEntity
  8
TFR-TRI
  6
Continuous
 62
   155
100
AcDbLine
 10
31.88124847412109
 20
83.61372661590577
 30
0.0
 11
31.88124847412109
 21
83.69223308563233
 31
0.0
  0
LINE
  5
356
330
1F
100
AcDbEntity
  8
TFR-TRI
  6
Continuous
 62
   155
100
AcDbLine
 10
31.88124847412109
 20
77.66882610321045
 30
0.0
 11
31.88124847412109
 21
83.61372661590577
 31
0.0
  0
LINE
  5
357
330
1F
100
AcDbEntity
  8
TFR-TRI
  6
Continuous
 62
   155
100
AcDbLine
 10
31.88124847412109
 20
77.66882610321045
 30
0.0
 11
31.88124847412109
 21
77.59031963348388
 31
0.0
  0
LINE
  5
358
330
1F
100
AcDbEntity
  8
TFR-TRI
  6
Continuous
 62
   155
100
AcDbLine
 10
31.88124847412109
 20
77.49681377410889
 30
0.0
 11
32.47179412841797
 21
77.49681377410889
 31
0.0
  0
LINE
  5
359
330
1F
100
AcDbEntity
  8
TFR-TRI
  6
Continuous
 62
   155
100
AcDbLine
 10
32.47179412841797
 20
77.59031963348388
 30
0.0
 11
32.47179412841797
 21
77.52420330047607
 31
0.0
  0
LINE
  5
35A
330
1F
100
AcDbEntity
  8
TFR-TRI
  6
Continuous
 62
   155
100
AcDbLine
 10
32.47179412841797
 20
77.52420330047607
 30
0.0
 11
32.47179412841797
 21
77.49681377410889
 31
0.0
  0
LINE
  5
35B
330
1F
100
AcDbEntity
  8
TFR-TRI
  6
Continuous
 62
   155
100
AcDbLine
 10
31.88124847412109
 20
77.59031963348388
 30
0.0
 11
31.88124847412109
 21
77.52420330047607
 31
0.0
  0
LINE
  5
35C
330
1F
100
AcDbEntity
  8
TFR-TRI
  6
Continuous
 62
   155
100
AcDbLine
 10
31.88124847412109
 20
77.52420330047607
 30
0.0
 11
31.88124847412109
 21
77.49681377410889
 31
0.0
  0
LINE
  5
35D
330
1F
100
AcDbEntity
  8
TFR-TRI
  6
Continuous
 62
   155
100
AcDbLine
 10
31.88124847412109
 20
77.49681377410889
 30
0.0
 11
31.56630706787109
 21
77.49681377410889
 31
0.0
  0
LINE
  5
35E
330
1F
100
AcDbEntity
  8
TFR-TRI
  6
Continuous
 62
   155
100
AcDbLine
 10
31.56630706787109
 20
77.49681377410889
 30
0.0
 11
29.9914779663086
 21
77.49681377410889
 31
0.0
  0
LINE
  5
35F
330
1F
100
AcDbEntity
  8
TFR-TRI
  6
Continuous
 62
   155
100
AcDbLine
 10
29.9914779663086
 20
77.49681377410889
 30
0.0
 11
29.9127426147461
 21
77.49681377410889
 31
0.0
  0
LINE
  5
360
330
1F
100
AcDbEntity
  8
TFR-TRI
  6
Continuous
 62
   155
100
AcDbLine
 10
29.9127426147461
 20
77.56032085418701
 30
0.0
 11
29.9914779663086
 21
77.56032085418701
 31
0.0
  0
LINE
  5
361
330
1F
100
AcDbEntity
  8
TFR-TRI
  6
Continuous
 62
   155
100
AcDbLine
 10
31.56630706787109
 20
77.56032085418701
 30
0.0
 11
29.9914779663086
 21
77.56032085418701
 31
0.0
  0
LINE
  5
362
330
1F
100
AcDbEntity
  8
TFR-TRI
  6
Continuous
 62
   155
100
AcDbLine
 10
31.56630706787109
 20
77.56032085418701
 30
0.0
 11
31.88124847412109
 21
77.56032085418701
 31
0.0
  0
LINE
  5
363
330
1F
100
AcDbEntity
  8
TFR-TRI
  6
Continuous
 62
   155
100
AcDbLine
 10
32.47179412841797
 20
83.69223308563233
 30
0.0
 11
32.47179412841797
 21
83.75834941864013
 31
0.0
  0
LINE
  5
364
330
1F
100
AcDbEntity
  8
TFR-TRI
  6
Continuous
 62
   155
100
AcDbLine
 10
32.47179412841797
 20
83.75834941864013
 30
0.0
 11
32.47179412841797
 21
83.78573894500732
 31
0.0
  0
LINE
  5
365
330
1F
100
AcDbEntity
  8
TFR-TRI
  6
Continuous
 62
   155
100
AcDbLine
 10
32.47179412841797
 20
83.78573894500732
 30
0.0
 11
31.88124847412109
 21
83.78573894500732
 31
0.0
  0
LINE
  5
366
330
1F
100
AcDbEntity
  8
TFR-TRI
  6
Continuous
 62
   155
100
AcDbLine
 10
31.88124847412109
 20
83.69223308563233
 30
0.0
 11
31.88124847412109
 21
83.75834941864013
 31
0.0
  0
LINE
  5
367
330
1F
100
AcDbEntity
  8
TFR-TRI
  6
Continuous
 62
   155
100
AcDbLine
 10
31.88124847412109
 20
83.75834941864013
 30
0.0
 11
31.88124847412109
 21
83.78573894500732
 31
0.0
  0
LINE
  5
368
330
1F
100
AcDbEntity
  8
TFR-TRI
  6
Continuous
 62
   155
100
AcDbLine
 10
29.9127426147461
 20
83.78573894500732
 30
0.0
 11
29.9914779663086
 21
83.78573894500732
 31
0.0
  0
LINE
  5
369
330
1F
100
AcDbEntity
  8
TFR-TRI
  6
Continuous
 62
   155
100
AcDbLine
 10
31.56630706787109
 20
83.78573894500732
 30
0.0
 11
29.9914779663086
 21
83.78573894500732
 31
0.0
  0
LINE
  5
36A
330
1F
100
AcDbEntity
  8
TFR-TRI
  6
Continuous
 62
   155
100
AcDbLine
 10
31.56630706787109
 20
83.78573894500732
 30
0.0
 11
31.88124847412109
 21
83.78573894500732
 31
0.0
  0
LINE
  5
36B
330
1F
100
AcDbEntity
  8
TFR-TRI
  6
Continuous
 62
   155
100
AcDbLine
 10
31.56630706787109
 20
83.7222318649292
 30
0.0
 11
29.9914779663086
 21
83.7222318649292
 31
0.0
  0
LINE
  5
36C
330
1F
100
AcDbEntity
  8
TFR-TRI
  6
Continuous
 62
   155
100
AcDbLine
 10
29.9914779663086
 20
83.7222318649292
 30
0.0
 11
29.9127426147461
 21
83.7222318649292
 31
0.0
  0
LINE
  5
36D
330
1F
100
AcDbEntity
  8
TFR-TRI
  6
Continuous
 62
   155
100
AcDbLine
 10
31.88124847412109
 20
83.7222318649292
 30
0.0
 11
31.56630706787109
 21
83.7222318649292
 31
0.0
  0
LINE
  5
36E
330
1F
100
AcDbEntity
  8
TFR-TRI
  6
Continuous
 62
   155
100
AcDbLine
 10
31.75774383544922
 20
83.61372661590577
 30
0.0
 11
31.77898406982422
 21
83.61372661590577
 31
0.0
  0
LINE
  5
36F
330
1F
100
AcDbEntity
  8
TFR-TRI
  6
Continuous
 62
   155
100
AcDbLine
 10
31.77898406982422
 20
83.61372661590577
 30
0.0
 11
31.7877426147461
 21
83.61372661590577
 31
0.0
  0
LINE
  5
370
330
1F
100
AcDbEntity
  8
TFR-TRI
  6
Continuous
 62
   155
100
AcDbLine
 10
31.75774383544922
 20
77.66882610321045
 30
0.0
 11
31.77898406982422
 21
77.66882610321045
 31
0.0
  0
LINE
  5
371
330
1F
100
AcDbEntity
  8
TFR-TRI
  6
Continuous
 62
   155
100
AcDbLine
 10
31.77898406982422
 20
77.66882610321045
 30
0.0
 11
31.7877426147461
 21
77.66882610321045
 31
0.0
  0
LINE
  5
372
330
1F
100
AcDbEntity
  8
TFR-TRI
  6
Continuous
 62
   155
100
AcDbLine
 10
31.7877426147461
 20
77.66882610321045
 30
0.0
 11
31.7877426147461
 21
83.61372661590577
 31
0.0
  0
LINE
  5
373
330
1F
100
AcDbEntity
  8
TFR-TRI
  6
Continuous
 62
   155
100
AcDbLine
 10
31.7877426147461
 20
77.66882610321045
 30
0.0
 11
31.81514739990234
 21
77.66882610321045
 31
0.0
  0
LINE
  5
374
330
1F
100
AcDbEntity
  8
TFR-TRI
  6
Continuous
 62
   155
100
AcDbLine
 10
31.81514739990234
 20
77.66882610321045
 30
0.0
 11
31.88124847412109
 21
77.66882610321045
 31
0.0
  0
LINE
  5
375
330
1F
100
AcDbEntity
  8
TFR-TRI
  6
Continuous
 62
   155
100
AcDbLine
 10
31.7877426147461
 20
83.61372661590577
 30
0.0
 11
31.81514739990234
 21
83.61372661590577
 31
0.0
  0
LINE
  5
376
330
1F
100
AcDbEntity
  8
TFR-TRI
  6
Continuous
 62
   155
100
AcDbLine
 10
31.81514739990234
 20
83.61372661590577
 30
0.0
 11
31.88124847412109
 21
83.61372661590577
 31
0.0
  0
LINE
  5
377
330
1F
100
AcDbEntity
  8
TFR-TRI
  6
Continuous
 62
   155
100
AcDbLine
 10
26.24594879150391
 20
83.61372661590577
 30
0.0
 11
26.1798324584961
 21
83.61372661590577
 31
0.0
  0
LINE
  5
378
330
1F
100
AcDbEntity
  8
TFR-TRI
  6
Continuous
 62
   155
100
AcDbLine
 10
26.1798324584961
 20
83.61372661590577
 30
0.0
 11
26.15244293212891
 21
83.61372661590577
 31
0.0
  0
LINE
  5
379
330
1F
100
AcDbEntity
  8
TFR-TRI
  6
Continuous
 62
   155
100
AcDbLine
 10
26.24594879150391
 20
77.66882610321045
 30
0.0
 11
26.1798324584961
 21
77.66882610321045
 31
0.0
  0
LINE
  5
37A
330
1F
100
AcDbEntity
  8
TFR-TRI
  6
Continuous
 62
   155
100
AcDbLine
 10
26.1798324584961
 20
77.66882610321045
 30
0.0
 11
26.15244293212891
 21
77.66882610321045
 31
0.0
  0
LINE
  5
37B
330
1F
100
AcDbEntity
  8
TFR-TRI
  6
Continuous
 62
   155
100
AcDbLine
 10
26.15244293212891
 20
83.61372661590577
 30
0.0
 11
26.15244293212891
 21
77.66882610321045
 31
0.0
  0
LINE
  5
37C
330
1F
100
AcDbEntity
  8
TFR-TRI
  6
Continuous
 62
   155
100
AcDbLine
 10
31.75774383544922
 20
83.61372661590577
 30
0.0
 11
31.75774383544922
 21
83.67984294891357
 31
0.0
  0
LINE
  5
37D
330
1F
100
AcDbEntity
  8
TFR-TRI
  6
Continuous
 62
   155
100
AcDbLine
 10
31.75774383544922
 20
83.67984294891357
 30
0.0
 11
31.75774383544922
 21
83.70723247528076
 31
0.0
  0
LINE
  5
37E
330
1F
100
AcDbEntity
  8
TFR-TRI
  6
Continuous
 62
   155
100
AcDbLine
 10
26.24594879150391
 20
83.61372661590577
 30
0.0
 11
26.24594879150391
 21
83.67984294891357
 31
0.0
  0
LINE
  5
37F
330
1F
100
AcDbEntity
  8
TFR-TRI
  6
Continuous
 62
   155
100
AcDbLine
 10
26.24594879150391
 20
83.67984294891357
 30
0.0
 11
26.24594879150391
 21
83.70723247528076
 31
0.0
  0
LINE
  5
380
330
1F
100
AcDbEntity
  8
TFR-TRI
  6
Continuous
 62
   155
100
AcDbLine
 10
31.75774383544922
 20
83.70723247528076
 30
0.0
 11
26.24594879150391
 21
83.70723247528076
 31
0.0
  0
LINE
  5
381
330
1F
100
AcDbEntity
  8
TFR-TRI
  6
Continuous
 62
   155
100
AcDbLine
 10
26.24594879150391
 20
77.66882610321045
 30
0.0
 11
26.24594879150391
 21
77.60270977020264
 31
0.0
  0
LINE
  5
382
330
1F
100
AcDbEntity
  8
TFR-TRI
  6
Continuous
 62
   155
100
AcDbLine
 10
26.24594879150391
 20
77.60270977020264
 30
0.0
 11
26.24594879150391
 21
77.57532024383545
 31
0.0
  0
LINE
  5
383
330
1F
100
AcDbEntity
  8
TFR-TRI
  6
Continuous
 62
   155
100
AcDbLine
 10
31.75774383544922
 20
77.66882610321045
 30
0.0
 11
31.75774383544922
 21
77.60270977020264
 31
0.0
  0
LINE
  5
384
330
1F
100
AcDbEntity
  8
TFR-TRI
  6
Continuous
 62
   155
100
AcDbLine
 10
31.75774383544922
 20
77.60270977020264
 30
0.0
 11
31.75774383544922
 21
77.57532024383545
 31
0.0
  0
LINE
  5
385
330
1F
100
AcDbEntity
  8
TFR-TRI
  6
Continuous
 62
   155
100
AcDbLine
 10
26.24594879150391
 20
77.57532024383545
 30
0.0
 11
31.75774383544922
 21
77.57532024383545
 31
0.0
  0
LINE
  5
386
330
1F
100
AcDbEntity
  8
TFR-TRI
  6
Continuous
 62
   155
100
AcDbLine
 10
29.9914779663086
 20
77.56032085418701
 30
0.0
 11
29.9914779663086
 21
77.49681377410889
 31
0.0
  0
LINE
  5
387
330
1F
100
AcDbEntity
  8
TFR-TRI
  6
Continuous
 62
   155
100
AcDbLine
 10
31.56630706787109
 20
77.49681377410889
 30
0.0
 11
31.56630706787109
 21
77.56032085418701
 31
0.0
  0
LINE
  5
388
330
1F
100
AcDbEntity
  8
TFR-TRI
  6
Continuous
 62
   155
100
AcDbLine
 10
29.9127426147461
 20
77.49681377410889
 30
0.0
 11
29.9127426147461
 21
77.56032085418701
 31
0.0
  0
LINE
  5
389
330
1F
100
AcDbEntity
  8
TFR-TRI
  6
Continuous
 62
   155
100
AcDbLine
 10
29.9914779663086
 20
83.78573894500732
 30
0.0
 11
29.9914779663086
 21
83.7222318649292
 31
0.0
  0
LINE
  5
38A
330
1F
100
AcDbEntity
  8
TFR-TRI
  6
Continuous
 62
   155
100
AcDbLine
 10
31.56630706787109
 20
83.7222318649292
 30
0.0
 11
31.56630706787109
 21
83.78573894500732
 31
0.0
  0
LINE
  5
38B
330
1F
100
AcDbEntity
  8
TFR-TRI
  6
Continuous
 62
   155
100
AcDbLine
 10
29.9127426147461
 20
83.7222318649292
 30
0.0
 11
29.9127426147461
 21
83.78573894500732
 31
0.0
  0
LINE
  5
38C
330
1F
100
AcDbEntity
  8
TFR-TRI
  6
Continuous
 62
   155
100
AcDbLine
 10
30.14275360107422
 20
18.00707530975342
 30
0.0
 11
30.14275360107422
 21
18.15127849578857
 31
0.0
  0
LINE
  5
38D
330
1F
100
AcDbEntity
  8
TFR-TRI
  6
Continuous
 62
   155
100
AcDbLine
 10
30.62276458740234
 20
18.15127849578857
 30
0.0
 11
30.62276458740234
 21
18.00707530975342
 31
0.0
  0
LINE
  5
38E
330
1F
100
AcDbEntity
  8
TFR-TRI
  6
Continuous
 62
   155
100
AcDbLine
 10
30.62276458740234
 20
17.27548503875732
 30
0.0
 11
30.62276458740234
 21
17.13127422332763
 31
0.0
  0
LINE
  5
38F
330
1F
100
AcDbEntity
  8
TFR-TRI
  6
Continuous
 62
   155
100
AcDbLine
 10
30.14275360107422
 20
17.13127422332763
 30
0.0
 11
30.14275360107422
 21
17.27548503875732
 31
0.0
  0
LINE
  5
390
330
1F
100
AcDbEntity
  8
TFR-TRI
  6
Continuous
 62
   155
100
AcDbLine
 10
30.14275360107422
 20
14.50707530975342
 30
0.0
 11
30.14275360107422
 21
14.65127849578857
 31
0.0
  0
LINE
  5
391
330
1F
100
AcDbEntity
  8
TFR-TRI
  6
Continuous
 62
   155
100
AcDbLine
 10
30.62276458740234
 20
14.65127849578857
 30
0.0
 11
30.62276458740234
 21
14.50707530975342
 31
0.0
  0
LINE
  5
392
330
1F
100
AcDbEntity
  8
TFR-TRI
  6
Continuous
 62
   155
100
AcDbLine
 10
30.62276458740234
 20
13.77548503875732
 30
0.0
 11
30.62276458740234
 21
13.63127422332764
 31
0.0
  0
LINE
  5
393
330
1F
100
AcDbEntity
  8
TFR-TRI
  6
Continuous
 62
   155
100
AcDbLine
 10
30.14275360107422
 20
13.63127422332764
 30
0.0
 11
30.14275360107422
 21
13.77548503875732
 31
0.0
  0
LINE
  5
394
330
1F
100
AcDbEntity
  8
TFR-TRI
  6
Continuous
 62
   155
100
AcDbLine
 10
27.26775360107422
 20
15.38127422332763
 30
0.0
 11
27.26775360107422
 21
15.52548503875732
 31
0.0
  0
LINE
  5
395
330
1F
100
AcDbEntity
  8
TFR-TRI
  6
Continuous
 62
   155
100
AcDbLine
 10
27.26775360107422
 20
16.25707530975342
 30
0.0
 11
27.26775360107422
 21
16.40127849578857
 31
0.0
  0
LINE
  5
396
330
1F
100
AcDbEntity
  8
TFR-TRI
  6
Continuous
 62
   155
100
AcDbLine
 10
27.74774932861328
 20
16.40127849578857
 30
0.0
 11
27.74774932861328
 21
16.25707530975342
 31
0.0
  0
LINE
  5
397
330
1F
100
AcDbEntity
  8
TFR-TRI
  6
Continuous
 62
   155
100
AcDbLine
 10
27.74774932861328
 20
15.52548503875732
 30
0.0
 11
27.74774932861328
 21
15.38127422332763
 31
0.0
  0
LINE
  5
398
330
1F
100
AcDbEntity
  8
TFR-TRI
  6
Continuous
 62
   155
100
AcDbLine
 10
28.70525360107422
 20
15.38127422332763
 30
0.0
 11
28.70525360107422
 21
15.52548503875732
 31
0.0
  0
LINE
  5
399
330
1F
100
AcDbEntity
  8
TFR-TRI
  6
Continuous
 62
   155
100
AcDbLine
 10
28.70525360107422
 20
16.25707530975342
 30
0.0
 11
28.70525360107422
 21
16.40127849578857
 31
0.0
  0
LINE
  5
39A
330
1F
100
AcDbEntity
  8
TFR-TRI
  6
Continuous
 62
   155
100
AcDbLine
 10
29.18526458740235
 20
16.40127849578857
 30
0.0
 11
29.18526458740235
 21
16.25707530975342
 31
0.0
  0
LINE
  5
39B
330
1F
100
AcDbEntity
  8
TFR-TRI
  6
Continuous
 62
   155
100
AcDbLine
 10
29.18526458740235
 20
15.52548503875732
 30
0.0
 11
29.18526458740235
 21
15.38127422332763
 31
0.0
  0
LINE
  5
39C
330
1F
100
AcDbEntity
  8
TFR-TRI
  6
Continuous
 62
   155
100
AcDbLine
 10
26.24594879150391
 20
18.86373424530029
 30
0.0
 11
26.24594879150391
 21
12.91881847381592
 31
0.0
  0
LINE
  5
39D
330
1F
100
AcDbEntity
  8
TFR-TRI
  6
Continuous
 62
   155
100
AcDbLine
 10
26.24594879150391
 20
12.91881847381592
 30
0.0
 11
31.75774383544922
 21
12.91881847381592
 31
0.0
  0
LINE
  5
39E
330
1F
100
AcDbEntity
  8
TFR-TRI
  6
Continuous
 62
   155
100
AcDbLine
 10
31.75774383544922
 20
18.86373424530029
 30
0.0
 11
31.75774383544922
 21
12.91881847381592
 31
0.0
  0
LINE
  5
39F
330
1F
100
AcDbEntity
  8
TFR-TRI
  6
Continuous
 62
   155
100
AcDbLine
 10
31.75774383544922
 20
18.86373424530029
 30
0.0
 11
26.24594879150391
 21
18.86373424530029
 31
0.0
  0
LINE
  5
3A0
330
1F
100
AcDbEntity
  8
TFR-TRI
  6
Continuous
 62
   155
100
AcDbLine
 10
30.14275360107422
 20
15.38127422332763
 30
0.0
 11
30.14275360107422
 21
15.52548503875732
 31
0.0
  0
LINE
  5
3A1
330
1F
100
AcDbEntity
  8
TFR-TRI
  6
Continuous
 62
   155
100
AcDbLine
 10
30.14275360107422
 20
16.25707530975342
 30
0.0
 11
30.14275360107422
 21
16.40127849578857
 31
0.0
  0
LINE
  5
3A2
330
1F
100
AcDbEntity
  8
TFR-TRI
  6
Continuous
 62
   155
100
AcDbLine
 10
30.62276458740234
 20
16.40127849578857
 30
0.0
 11
30.62276458740234
 21
16.25707530975342
 31
0.0
  0
LINE
  5
3A3
330
1F
100
AcDbEntity
  8
TFR-TRI
  6
Continuous
 62
   155
100
AcDbLine
 10
30.62276458740234
 20
15.52548503875732
 30
0.0
 11
30.62276458740234
 21
15.38127422332763
 31
0.0
  0
LINE
  5
3A4
330
1F
100
AcDbEntity
  8
TFR-TRI
  6
Continuous
 62
   155
100
AcDbLine
 10
27.89275360107422
 20
14.50707530975342
 30
0.0
 11
27.89275360107422
 21
14.65127849578857
 31
0.0
  0
LINE
  5
3A5
330
1F
100
AcDbEntity
  8
TFR-TRI
  6
Continuous
 62
   155
100
AcDbLine
 10
28.37274932861328
 20
14.65127849578857
 30
0.0
 11
28.37274932861328
 21
14.50707530975342
 31
0.0
  0
LINE
  5
3A6
330
1F
100
AcDbEntity
  8
TFR-TRI
  6
Continuous
 62
   155
100
AcDbLine
 10
28.37274932861328
 20
13.77548503875732
 30
0.0
 11
28.37274932861328
 21
13.63127422332764
 31
0.0
  0
LINE
  5
3A7
330
1F
100
AcDbEntity
  8
TFR-TRI
  6
Continuous
 62
   155
100
AcDbLine
 10
27.89275360107422
 20
13.63127422332764
 30
0.0
 11
27.89275360107422
 21
13.77548503875732
 31
0.0
  0
LINE
  5
3A8
330
1F
100
AcDbEntity
  8
TFR-TRI
  6
Continuous
 62
   155
100
AcDbLine
 10
27.89275360107422
 20
18.00707530975342
 30
0.0
 11
27.89275360107422
 21
18.15127849578857
 31
0.0
  0
LINE
  5
3A9
330
1F
100
AcDbEntity
  8
TFR-TRI
  6
Continuous
 62
   155
100
AcDbLine
 10
28.37274932861328
 20
18.15127849578857
 30
0.0
 11
28.37274932861328
 21
18.00707530975342
 31
0.0
  0
LINE
  5
3AA
330
1F
100
AcDbEntity
  8
TFR-TRI
  6
Continuous
 62
   155
100
AcDbLine
 10
28.37274932861328
 20
17.27548503875732
 30
0.0
 11
28.37274932861328
 21
17.13127422332763
 31
0.0
  0
LINE
  5
3AB
330
1F
100
AcDbEntity
  8
TFR-TRI
  6
Continuous
 62
   155
100
AcDbLine
 10
27.89275360107422
 20
17.13127422332763
 30
0.0
 11
27.89275360107422
 21
17.27548503875732
 31
0.0
  0
LINE
  5
3AC
330
1F
100
AcDbEntity
  8
TFR-TRI
  6
Continuous
 62
   155
100
AcDbLine
 10
32.47179412841797
 20
12.84031963348388
 30
0.0
 11
31.88124847412109
 21
12.84031963348388
 31
0.0
  0
LINE
  5
3AD
330
1F
100
AcDbEntity
  8
TFR-TRI
  6
Continuous
 62
   155
100
AcDbLine
 10
32.47179412841797
 20
12.84031963348388
 30
0.0
 11
32.47179412841797
 21
18.94223308563232
 31
0.0
  0
LINE
  5
3AE
330
1F
100
AcDbEntity
  8
TFR-TRI
  6
Continuous
 62
   155
100
AcDbLine
 10
32.47179412841797
 20
18.94223308563232
 30
0.0
 11
31.88124847412109
 21
18.94223308563232
 31
0.0
  0
LINE
  5
3AF
330
1F
100
AcDbEntity
  8
TFR-TRI
  6
Continuous
 62
   155
100
AcDbLine
 10
31.88124847412109
 20
18.86373424530029
 30
0.0
 11
31.88124847412109
 21
18.94223308563232
 31
0.0
  0
LINE
  5
3B0
330
1F
100
AcDbEntity
  8
TFR-TRI
  6
Continuous
 62
   155
100
AcDbLine
 10
31.88124847412109
 20
12.91881847381592
 30
0.0
 11
31.88124847412109
 21
18.86373424530029
 31
0.0
  0
LINE
  5
3B1
330
1F
100
AcDbEntity
  8
TFR-TRI
  6
Continuous
 62
   155
100
AcDbLine
 10
31.88124847412109
 20
12.91881847381592
 30
0.0
 11
31.88124847412109
 21
12.84031963348388
 31
0.0
  0
LINE
  5
3B2
330
1F
100
AcDbEntity
  8
TFR-TRI
  6
Continuous
 62
   155
100
AcDbLine
 10
31.88124847412109
 20
12.74682140350342
 30
0.0
 11
32.47179412841797
 21
12.74682140350342
 31
0.0
  0
LINE
  5
3B3
330
1F
100
AcDbEntity
  8
TFR-TRI
  6
Continuous
 62
   155
100
AcDbLine
 10
32.47179412841797
 20
12.84031963348388
 30
0.0
 11
32.47179412841797
 21
12.77420330047607
 31
0.0
  0
LINE
  5
3B4
330
1F
100
AcDbEntity
  8
TFR-TRI
  6
Continuous
 62
   155
100
AcDbLine
 10
32.47179412841797
 20
12.77420330047607
 30
0.0
 11
32.47179412841797
 21
12.74682140350342
 31
0.0
  0
LINE
  5
3B5
330
1F
100
AcDbEntity
  8
TFR-TRI
  6
Continuous
 62
   155
100
AcDbLine
 10
31.88124847412109
 20
12.84031963348388
 30
0.0
 11
31.88124847412109
 21
12.77420330047607
 31
0.0
  0
LINE
  5
3B6
330
1F
100
AcDbEntity
  8
TFR-TRI
  6
Continuous
 62
   155
100
AcDbLine
 10
31.88124847412109
 20
12.77420330047607
 30
0.0
 11
31.88124847412109
 21
12.74682140350342
 31
0.0
  0
LINE
  5
3B7
330
1F
100
AcDbEntity
  8
TFR-TRI
  6
Continuous
 62
   155
100
AcDbLine
 10
31.88124847412109
 20
12.74682140350342
 30
0.0
 11
31.56630706787109
 21
12.74682140350342
 31
0.0
  0
LINE
  5
3B8
330
1F
100
AcDbEntity
  8
TFR-TRI
  6
Continuous
 62
   155
100
AcDbLine
 10
31.56630706787109
 20
12.74682140350342
 30
0.0
 11
29.9914779663086
 21
12.74682140350342
 31
0.0
  0
LINE
  5
3B9
330
1F
100
AcDbEntity
  8
TFR-TRI
  6
Continuous
 62
   155
100
AcDbLine
 10
29.9914779663086
 20
12.74682140350342
 30
0.0
 11
29.9127426147461
 21
12.74682140350342
 31
0.0
  0
LINE
  5
3BA
330
1F
100
AcDbEntity
  8
TFR-TRI
  6
Continuous
 62
   155
100
AcDbLine
 10
29.9127426147461
 20
12.81032085418701
 30
0.0
 11
29.9914779663086
 21
12.81032085418701
 31
0.0
  0
LINE
  5
3BB
330
1F
100
AcDbEntity
  8
TFR-TRI
  6
Continuous
 62
   155
100
AcDbLine
 10
31.56630706787109
 20
12.81032085418701
 30
0.0
 11
29.9914779663086
 21
12.81032085418701
 31
0.0
  0
LINE
  5
3BC
330
1F
100
AcDbEntity
  8
TFR-TRI
  6
Continuous
 62
   155
100
AcDbLine
 10
31.56630706787109
 20
12.81032085418701
 30
0.0
 11
31.88124847412109
 21
12.81032085418701
 31
0.0
  0
LINE
  5
3BD
330
1F
100
AcDbEntity
  8
TFR-TRI
  6
Continuous
 62
   155
100
AcDbLine
 10
32.47179412841797
 20
18.94223308563232
 30
0.0
 11
32.47179412841797
 21
19.00834941864014
 31
0.0
  0
LINE
  5
3BE
330
1F
100
AcDbEntity
  8
TFR-TRI
  6
Continuous
 62
   155
100
AcDbLine
 10
32.47179412841797
 20
19.00834941864014
 30
0.0
 11
32.47179412841797
 21
19.03573131561279
 31
0.0
  0
LINE
  5
3BF
330
1F
100
AcDbEntity
  8
TFR-TRI
  6
Continuous
 62
   155
100
AcDbLine
 10
32.47179412841797
 20
19.03573131561279
 30
0.0
 11
31.88124847412109
 21
19.03573131561279
 31
0.0
  0
LINE
  5
3C0
330
1F
100
AcDbEntity
  8
TFR-TRI
  6
Continuous
 62
   155
100
AcDbLine
 10
31.88124847412109
 20
18.94223308563232
 30
0.0
 11
31.88124847412109
 21
19.00834941864014
 31
0.0
  0
LINE
  5
3C1
330
1F
100
AcDbEntity
  8
TFR-TRI
  6
Continuous
 62
   155
100
AcDbLine
 10
31.88124847412109
 20
19.00834941864014
 30
0.0
 11
31.88124847412109
 21
19.03573131561279
 31
0.0
  0
LINE
  5
3C2
330
1F
100
AcDbEntity
  8
TFR-TRI
  6
Continuous
 62
   155
100
AcDbLine
 10
29.9127426147461
 20
19.03573131561279
 30
0.0
 11
29.9914779663086
 21
19.03573131561279
 31
0.0
  0
LINE
  5
3C3
330
1F
100
AcDbEntity
  8
TFR-TRI
  6
Continuous
 62
   155
100
AcDbLine
 10
31.56630706787109
 20
19.03573131561279
 30
0.0
 11
29.9914779663086
 21
19.03573131561279
 31
0.0
  0
LINE
  5
3C4
330
1F
100
AcDbEntity
  8
TFR-TRI
  6
Continuous
 62
   155
100
AcDbLine
 10
31.56630706787109
 20
19.03573131561279
 30
0.0
 11
31.88124847412109
 21
19.03573131561279
 31
0.0
  0
LINE
  5
3C5
330
1F
100
AcDbEntity
  8
TFR-TRI
  6
Continuous
 62
   155
100
AcDbLine
 10
31.56630706787109
 20
18.9722318649292
 30
0.0
 11
29.9914779663086
 21
18.9722318649292
 31
0.0
  0
LINE
  5
3C6
330
1F
100
AcDbEntity
  8
TFR-TRI
  6
Continuous
 62
   155
100
AcDbLine
 10
29.9914779663086
 20
18.9722318649292
 30
0.0
 11
29.9127426147461
 21
18.9722318649292
 31
0.0
  0
LINE
  5
3C7
330
1F
100
AcDbEntity
  8
TFR-TRI
  6
Continuous
 62
   155
100
AcDbLine
 10
31.88124847412109
 20
18.9722318649292
 30
0.0
 11
31.56630706787109
 21
18.9722318649292
 31
0.0
  0
LINE
  5
3C8
330
1F
100
AcDbEntity
  8
TFR-TRI
  6
Continuous
 62
   155
100
AcDbLine
 10
31.75774383544922
 20
18.86373424530029
 30
0.0
 11
31.77898406982422
 21
18.86373424530029
 31
0.0
  0
LINE
  5
3C9
330
1F
100
AcDbEntity
  8
TFR-TRI
  6
Continuous
 62
   155
100
AcDbLine
 10
31.77898406982422
 20
18.86373424530029
 30
0.0
 11
31.7877426147461
 21
18.86373424530029
 31
0.0
  0
LINE
  5
3CA
330
1F
100
AcDbEntity
  8
TFR-TRI
  6
Continuous
 62
   155
100
AcDbLine
 10
31.75774383544922
 20
12.91881847381592
 30
0.0
 11
31.77898406982422
 21
12.91881847381592
 31
0.0
  0
LINE
  5
3CB
330
1F
100
AcDbEntity
  8
TFR-TRI
  6
Continuous
 62
   155
100
AcDbLine
 10
31.77898406982422
 20
12.91881847381592
 30
0.0
 11
31.7877426147461
 21
12.91881847381592
 31
0.0
  0
LINE
  5
3CC
330
1F
100
AcDbEntity
  8
TFR-TRI
  6
Continuous
 62
   155
100
AcDbLine
 10
31.7877426147461
 20
12.91881847381592
 30
0.0
 11
31.7877426147461
 21
18.86373424530029
 31
0.0
  0
LINE
  5
3CD
330
1F
100
AcDbEntity
  8
TFR-TRI
  6
Continuous
 62
   155
100
AcDbLine
 10
31.7877426147461
 20
12.91881847381592
 30
0.0
 11
31.81514739990234
 21
12.91881847381592
 31
0.0
  0
LINE
  5
3CE
330
1F
100
AcDbEntity
  8
TFR-TRI
  6
Continuous
 62
   155
100
AcDbLine
 10
31.81514739990234
 20
12.91881847381592
 30
0.0
 11
31.88124847412109
 21
12.91881847381592
 31
0.0
  0
LINE
  5
3CF
330
1F
100
AcDbEntity
  8
TFR-TRI
  6
Continuous
 62
   155
100
AcDbLine
 10
31.7877426147461
 20
18.86373424530029
 30
0.0
 11
31.81514739990234
 21
18.86373424530029
 31
0.0
  0
LINE
  5
3D0
330
1F
100
AcDbEntity
  8
TFR-TRI
  6
Continuous
 62
   155
100
AcDbLine
 10
31.81514739990234
 20
18.86373424530029
 30
0.0
 11
31.88124847412109
 21
18.86373424530029
 31
0.0
  0
LINE
  5
3D1
330
1F
100
AcDbEntity
  8
TFR-TRI
  6
Continuous
 62
   155
100
AcDbLine
 10
26.24594879150391
 20
18.86373424530029
 30
0.0
 11
26.1798324584961
 21
18.86373424530029
 31
0.0
  0
LINE
  5
3D2
330
1F
100
AcDbEntity
  8
TFR-TRI
  6
Continuous
 62
   155
100
AcDbLine
 10
26.1798324584961
 20
18.86373424530029
 30
0.0
 11
26.15244293212891
 21
18.86373424530029
 31
0.0
  0
LINE
  5
3D3
330
1F
100
AcDbEntity
  8
TFR-TRI
  6
Continuous
 62
   155
100
AcDbLine
 10
26.24594879150391
 20
12.91881847381592
 30
0.0
 11
26.1798324584961
 21
12.91881847381592
 31
0.0
  0
LINE
  5
3D4
330
1F
100
AcDbEntity
  8
TFR-TRI
  6
Continuous
 62
   155
100
AcDbLine
 10
26.1798324584961
 20
12.91881847381592
 30
0.0
 11
26.15244293212891
 21
12.91881847381592
 31
0.0
  0
LINE
  5
3D5
330
1F
100
AcDbEntity
  8
TFR-TRI
  6
Continuous
 62
   155
100
AcDbLine
 10
26.15244293212891
 20
18.86373424530029
 30
0.0
 11
26.15244293212891
 21
12.91881847381592
 31
0.0
  0
LINE
  5
3D6
330
1F
100
AcDbEntity
  8
TFR-TRI
  6
Continuous
 62
   155
100
AcDbLine
 10
31.75774383544922
 20
18.86373424530029
 30
0.0
 11
31.75774383544922
 21
18.9298505783081
 31
0.0
  0
LINE
  5
3D7
330
1F
100
AcDbEntity
  8
TFR-TRI
  6
Continuous
 62
   155
100
AcDbLine
 10
31.75774383544922
 20
18.9298505783081
 30
0.0
 11
31.75774383544922
 21
18.95723247528076
 31
0.0
  0
LINE
  5
3D8
330
1F
100
AcDbEntity
  8
TFR-TRI
  6
Continuous
 62
   155
100
AcDbLine
 10
26.24594879150391
 20
18.86373424530029
 30
0.0
 11
26.24594879150391
 21
18.9298505783081
 31
0.0
  0
LINE
  5
3D9
330
1F
100
AcDbEntity
  8
TFR-TRI
  6
Continuous
 62
   155
100
AcDbLine
 10
26.24594879150391
 20
18.9298505783081
 30
0.0
 11
26.24594879150391
 21
18.95723247528076
 31
0.0
  0
LINE
  5
3DA
330
1F
100
AcDbEntity
  8
TFR-TRI
  6
Continuous
 62
   155
100
AcDbLine
 10
31.75774383544922
 20
18.95723247528076
 30
0.0
 11
26.24594879150391
 21
18.95723247528076
 31
0.0
  0
LINE
  5
3DB
330
1F
100
AcDbEntity
  8
TFR-TRI
  6
Continuous
 62
   155
100
AcDbLine
 10
26.24594879150391
 20
12.91881847381592
 30
0.0
 11
26.24594879150391
 21
12.8527021408081
 31
0.0
  0
LINE
  5
3DC
330
1F
100
AcDbEntity
  8
TFR-TRI
  6
Continuous
 62
   155
100
AcDbLine
 10
26.24594879150391
 20
12.8527021408081
 30
0.0
 11
26.24594879150391
 21
12.82532024383545
 31
0.0
  0
LINE
  5
3DD
330
1F
100
AcDbEntity
  8
TFR-TRI
  6
Continuous
 62
   155
100
AcDbLine
 10
31.75774383544922
 20
12.91881847381592
 30
0.0
 11
31.75774383544922
 21
12.8527021408081
 31
0.0
  0
LINE
  5
3DE
330
1F
100
AcDbEntity
  8
TFR-TRI
  6
Continuous
 62
   155
100
AcDbLine
 10
31.75774383544922
 20
12.8527021408081
 30
0.0
 11
31.75774383544922
 21
12.82532024383545
 31
0.0
  0
LINE
  5
3DF
330
1F
100
AcDbEntity
  8
TFR-TRI
  6
Continuous
 62
   155
100
AcDbLine
 10
26.24594879150391
 20
12.82532024383545
 30
0.0
 11
31.75774383544922
 21
12.82532024383545
 31
0.0
  0
LINE
  5
3E0
330
1F
100
AcDbEntity
  8
TFR-TRI
  6
Continuous
 62
   155
100
AcDbLine
 10
29.9914779663086
 20
12.81032085418701
 30
0.0
 11
29.9914779663086
 21
12.74682140350342
 31
0.0
  0
LINE
  5
3E1
330
1F
100
AcDbEntity
  8
TFR-TRI
  6
Continuous
 62
   155
100
AcDbLine
 10
31.56630706787109
 20
12.74682140350342
 30
0.0
 11
31.56630706787109
 21
12.81032085418701
 31
0.0
  0
LINE
  5
3E2
330
1F
100
AcDbEntity
  8
TFR-TRI
  6
Continuous
 62
   155
100
AcDbLine
 10
29.9127426147461
 20
12.74682140350342
 30
0.0
 11
29.9127426147461
 21
12.81032085418701
 31
0.0
  0
LINE
  5
3E3
330
1F
100
AcDbEntity
  8
TFR-TRI
  6
Continuous
 62
   155
100
AcDbLine
 10
29.9914779663086
 20
19.03573131561279
 30
0.0
 11
29.9914779663086
 21
18.9722318649292
 31
0.0
  0
LINE
  5
3E4
330
1F
100
AcDbEntity
  8
TFR-TRI
  6
Continuous
 62
   155
100
AcDbLine
 10
31.56630706787109
 20
18.9722318649292
 30
0.0
 11
31.56630706787109
 21
19.03573131561279
 31
0.0
  0
LINE
  5
3E5
330
1F
100
AcDbEntity
  8
TFR-TRI
  6
Continuous
 62
   155
100
AcDbLine
 10
29.9127426147461
 20
18.9722318649292
 30
0.0
 11
29.9127426147461
 21
19.03573131561279
 31
0.0
  0
CIRCLE
  5
3E6
330
1F
100
AcDbEntity
  8
TFR-TRI
  6
Continuous
 62
   155
100
AcDbCircle
 10
-97.51062774658203
 20
78.45378398895263
 30
0.0
 40
0.0885826796293259
  0
CIRCLE
  5
3E7
330
1F
100
AcDbEntity
  8
TFR-TRI
  6
Continuous
 62
   155
100
AcDbCircle
 10
-97.51062774658203
 20
79.32878398895264
 30
0.0
 40
0.0885826796293259
  0
CIRCLE
  5
3E8
330
1F
100
AcDbEntity
  8
TFR-TRI
  6
Continuous
 62
   155
100
AcDbCircle
 10
-97.51062774658203
 20
80.20378398895264
 30
0.0
 40
0.0885826796293259
  0
CIRCLE
  5
3E9
330
1F
100
AcDbEntity
  8
TFR-TRI
  6
Continuous
 62
   155
100
AcDbCircle
 10
-97.51062774658203
 20
81.07878398895264
 30
0.0
 40
0.0885826796293259
  0
CIRCLE
  5
3EA
330
1F
100
AcDbEntity
  8
TFR-TRI
  6
Continuous
 62
   155
100
AcDbCircle
 10
-97.51062774658203
 20
81.95378398895263
 30
0.0
 40
0.0885826796293259
  0
CIRCLE
  5
3EB
330
1F
100
AcDbEntity
  8
TFR-TRI
  6
Continuous
 62
   155
100
AcDbCircle
 10
-97.51062774658203
 20
83.26628398895264
 30
0.0
 40
0.0826771631836891
  0
CIRCLE
  5
3EC
330
1F
100
AcDbEntity
  8
TFR-TRI
  6
Continuous
 62
   155
100
AcDbCircle
 10
-97.51062774658203
 20
83.26628398895264
 30
0.0
 40
0.0984251946210861
  0
CIRCLE
  5
3ED
330
1F
100
AcDbEntity
  8
TFR-TRI
  6
Continuous
 62
   155
100
AcDbCircle
 10
-97.51062774658203
 20
82.39128398895264
 30
0.0
 40
0.0826771631836891
  0
CIRCLE
  5
3EE
330
1F
100
AcDbEntity
  8
TFR-TRI
  6
Continuous
 62
   155
100
AcDbCircle
 10
-97.51062774658203
 20
82.39128398895264
 30
0.0
 40
0.0984251946210861
  0
CIRCLE
  5
3EF
330
1F
100
AcDbEntity
  8
TFR-TRI
  6
Continuous
 62
   155
100
AcDbCircle
 10
-97.51062774658203
 20
81.51628398895264
 30
0.0
 40
0.0826771631836891
  0
CIRCLE
  5
3F0
330
1F
100
AcDbEntity
  8
TFR-TRI
  6
Continuous
 62
   155
100
AcDbCircle
 10
-97.51062774658203
 20
81.51628398895264
 30
0.0
 40
0.0984251946210861
  0
CIRCLE
  5
3F1
330
1F
100
AcDbEntity
  8
TFR-TRI
  6
Continuous
 62
   155
100
AcDbCircle
 10
-97.51062774658203
 20
80.64128398895263
 30
0.0
 40
0.0826771631836891
  0
CIRCLE
  5
3F2
330
1F
100
AcDbEntity
  8
TFR-TRI
  6
Continuous
 62
   155
100
AcDbCircle
 10
-97.51062774658203
 20
80.64128398895263
 30
0.0
 40
0.0984251946210861
  0
CIRCLE
  5
3F3
330
1F
100
AcDbEntity
  8
TFR-TRI
  6
Continuous
 62
   155
100
AcDbCircle
 10
-97.51062774658203
 20
79.76628398895264
 30
0.0
 40
0.0826771631836891
  0
CIRCLE
  5
3F4
330
1F
100
AcDbEntity
  8
TFR-TRI
  6
Continuous
 62
   155
100
AcDbCircle
 10
-97.51062774658203
 20
79.76628398895264
 30
0.0
 40
0.0984251946210861
  0
CIRCLE
  5
3F5
330
1F
100
AcDbEntity
  8
TFR-TRI
  6
Continuous
 62
   155
100
AcDbCircle
 10
-97.51062774658203
 20
78.89128398895263
 30
0.0
 40
0.0826771631836891
  0
CIRCLE
  5
3F6
330
1F
100
AcDbEntity
  8
TFR-TRI
  6
Continuous
 62
   155
100
AcDbCircle
 10
-97.51062774658203
 20
78.89128398895263
 30
0.0
 40
0.0984251946210861
  0
CIRCLE
  5
3F7
330
1F
100
AcDbEntity
  8
TFR-TRI
  6
Continuous
 62
   155
100
AcDbCircle
 10
-92.05495452880859
 20
83.00346660614014
 30
0.0
 40
0.0826771631836891
  0
CIRCLE
  5
3F8
330
1F
100
AcDbEntity
  8
TFR-TRI
  6
Continuous
 62
   155
100
AcDbCircle
 10
-92.05495452880859
 20
83.00346660614014
 30
0.0
 40
0.0984251946210861
  0
CIRCLE
  5
3F9
330
1F
100
AcDbEntity
  8
TFR-TRI
  6
Continuous
 62
   155
100
AcDbCircle
 10
-92.05495452880859
 20
82.21606731414794
 30
0.0
 40
0.0826771631836891
  0
CIRCLE
  5
3FA
330
1F
100
AcDbEntity
  8
TFR-TRI
  6
Continuous
 62
   155
100
AcDbCircle
 10
-92.05495452880859
 20
82.21606731414794
 30
0.0
 40
0.0984251946210861
  0
CIRCLE
  5
3FB
330
1F
100
AcDbEntity
  8
TFR-TRI
  6
Continuous
 62
   155
100
AcDbCircle
 10
-92.05495452880859
 20
81.42866802215577
 30
0.0
 40
0.0826771631836891
  0
CIRCLE
  5
3FC
330
1F
100
AcDbEntity
  8
TFR-TRI
  6
Continuous
 62
   155
100
AcDbCircle
 10
-92.05495452880859
 20
81.42866802215577
 30
0.0
 40
0.0984251946210861
  0
CIRCLE
  5
3FD
330
1F
100
AcDbEntity
  8
TFR-TRI
  6
Continuous
 62
   155
100
AcDbCircle
 10
-92.05495452880859
 20
80.64125347137451
 30
0.0
 40
0.0826771631836891
  0
CIRCLE
  5
3FE
330
1F
100
AcDbEntity
  8
TFR-TRI
  6
Continuous
 62
   155
100
AcDbCircle
 10
-92.05495452880859
 20
80.64125347137451
 30
0.0
 40
0.0984251946210861
  0
CIRCLE
  5
3FF
330
1F
100
AcDbEntity
  8
TFR-TRI
  6
Continuous
 62
   155
100
AcDbCircle
 10
-92.05495452880859
 20
79.85385417938232
 30
0.0
 40
0.0826771631836891
  0
CIRCLE
  5
400
330
1F
100
AcDbEntity
  8
TFR-TRI
  6
Continuous
 62
   155
100
AcDbCircle
 10
-92.05495452880859
 20
79.85385417938232
 30
0.0
 40
0.0984251946210861
  0
CIRCLE
  5
401
330
1F
100
AcDbEntity
  8
TFR-TRI
  6
Continuous
 62
   155
100
AcDbCircle
 10
-92.05495452880859
 20
79.06645488739013
 30
0.0
 40
0.0826771631836891
  0
CIRCLE
  5
402
330
1F
100
AcDbEntity
  8
TFR-TRI
  6
Continuous
 62
   155
100
AcDbCircle
 10
-92.05495452880859
 20
79.06645488739013
 30
0.0
 40
0.0984251946210861
  0
CIRCLE
  5
403
330
1F
100
AcDbEntity
  8
TFR-TRI
  6
Continuous
 62
   155
100
AcDbCircle
 10
-92.05495452880859
 20
78.27905559539795
 30
0.0
 40
0.0826771631836891
  0
CIRCLE
  5
404
330
1F
100
AcDbEntity
  8
TFR-TRI
  6
Continuous
 62
   155
100
AcDbCircle
 10
-92.05495452880859
 20
78.27905559539795
 30
0.0
 40
0.0984251946210861
  0
CIRCLE
  5
405
330
1F
100
AcDbEntity
  8
TFR-TRI
  6
Continuous
 62
   155
100
AcDbCircle
 10
-96.38565826416016
 20
83.00346660614014
 30
0.0
 40
0.0826771631836891
  0
CIRCLE
  5
406
330
1F
100
AcDbEntity
  8
TFR-TRI
  6
Continuous
 62
   155
100
AcDbCircle
 10
-96.38565826416016
 20
83.00346660614014
 30
0.0
 40
0.0984251946210861
  0
CIRCLE
  5
407
330
1F
100
AcDbEntity
  8
TFR-TRI
  6
Continuous
 62
   155
100
AcDbCircle
 10
-96.38565826416016
 20
82.21606731414794
 30
0.0
 40
0.0826771631836891
  0
CIRCLE
  5
408
330
1F
100
AcDbEntity
  8
TFR-TRI
  6
Continuous
 62
   155
100
AcDbCircle
 10
-96.38565826416016
 20
82.21606731414794
 30
0.0
 40
0.0984251946210861
  0
CIRCLE
  5
409
330
1F
100
AcDbEntity
  8
TFR-TRI
  6
Continuous
 62
   155
100
AcDbCircle
 10
-96.38565826416016
 20
81.42866802215577
 30
0.0
 40
0.0826771631836891
  0
CIRCLE
  5
40A
330
1F
100
AcDbEntity
  8
TFR-TRI
  6
Continuous
 62
   155
100
AcDbCircle
 10
-96.38565826416016
 20
81.42866802215577
 30
0.0
 40
0.0984251946210861
  0
CIRCLE
  5
40B
330
1F
100
AcDbEntity
  8
TFR-TRI
  6
Continuous
 62
   155
100
AcDbCircle
 10
-96.38565826416016
 20
80.64125347137451
 30
0.0
 40
0.0826771631836891
  0
CIRCLE
  5
40C
330
1F
100
AcDbEntity
  8
TFR-TRI
  6
Continuous
 62
   155
100
AcDbCircle
 10
-96.38565826416016
 20
80.64125347137451
 30
0.0
 40
0.0984251946210861
  0
CIRCLE
  5
40D
330
1F
100
AcDbEntity
  8
TFR-TRI
  6
Continuous
 62
   155
100
AcDbCircle
 10
-96.38565826416016
 20
79.85385417938232
 30
0.0
 40
0.0826771631836891
  0
CIRCLE
  5
40E
330
1F
100
AcDbEntity
  8
TFR-TRI
  6
Continuous
 62
   155
100
AcDbCircle
 10
-96.38565826416016
 20
79.85385417938232
 30
0.0
 40
0.0984251946210861
  0
CIRCLE
  5
40F
330
1F
100
AcDbEntity
  8
TFR-TRI
  6
Continuous
 62
   155
100
AcDbCircle
 10
-96.38565826416016
 20
79.06645488739013
 30
0.0
 40
0.0826771631836891
  0
CIRCLE
  5
410
330
1F
100
AcDbEntity
  8
TFR-TRI
  6
Continuous
 62
   155
100
AcDbCircle
 10
-96.38565826416016
 20
79.06645488739013
 30
0.0
 40
0.0984251946210861
  0
CIRCLE
  5
411
330
1F
100
AcDbEntity
  8
TFR-TRI
  6
Continuous
 62
   155
100
AcDbCircle
 10
-92.78279876708984
 20
77.90504741668701
 30
0.0
 40
0.0826771631836891
  0
CIRCLE
  5
412
330
1F
100
AcDbEntity
  8
TFR-TRI
  6
Continuous
 62
   155
100
AcDbCircle
 10
-92.78279876708984
 20
77.90504741668701
 30
0.0
 40
0.0984251946210861
  0
CIRCLE
  5
413
330
1F
100
AcDbEntity
  8
TFR-TRI
  6
Continuous
 62
   155
100
AcDbCircle
 10
-94.22029876708984
 20
77.90504741668701
 30
0.0
 40
0.0826771631836891
  0
CIRCLE
  5
414
330
1F
100
AcDbEntity
  8
TFR-TRI
  6
Continuous
 62
   155
100
AcDbCircle
 10
-94.22029876708984
 20
77.90504741668701
 30
0.0
 40
0.0984251946210861
  0
CIRCLE
  5
415
330
1F
100
AcDbEntity
  8
TFR-TRI
  6
Continuous
 62
   155
100
AcDbCircle
 10
-92.78279876708984
 20
83.37750530242919
 30
0.0
 40
0.0826771631836891
  0
CIRCLE
  5
416
330
1F
100
AcDbEntity
  8
TFR-TRI
  6
Continuous
 62
   155
100
AcDbCircle
 10
-92.78279876708984
 20
83.37750530242919
 30
0.0
 40
0.0984251946210861
  0
CIRCLE
  5
417
330
1F
100
AcDbEntity
  8
TFR-TRI
  6
Continuous
 62
   155
100
AcDbCircle
 10
-94.22029876708984
 20
83.37750530242919
 30
0.0
 40
0.0826771631836891
  0
CIRCLE
  5
418
330
1F
100
AcDbEntity
  8
TFR-TRI
  6
Continuous
 62
   155
100
AcDbCircle
 10
-94.22029876708984
 20
83.37750530242919
 30
0.0
 40
0.0984251946210861
  0
CIRCLE
  5
419
330
1F
100
AcDbEntity
  8
TFR-TRI
  6
Continuous
 62
   155
100
AcDbCircle
 10
-96.38565826416016
 20
78.27905559539795
 30
0.0
 40
0.0984251946210861
  0
ARC
  5
41A
330
1F
100
AcDbEntity
  8
TFR-TRI
  6
Continuous
 62
   155
100
AcDbCircle
 10
-95.65779876708985
 20
77.90504741668701
 30
0.0
 40
0.0984251946210861
100
AcDbArc
 50
284.6475005865716
 51
270.0
  0
ARC
  5
41B
330
1F
100
AcDbEntity
  8
TFR-TRI
  6
Continuous
 62
   155
100
AcDbCircle
 10
-95.65779876708985
 20
77.90504741668701
 30
0.0
 40
0.0984251946210861
100
AcDbArc
 50
270.0
 51
278.0662499156909
  0
ARC
  5
41C
330
1F
100
AcDbEntity
  8
TFR-TRI
  6
Continuous
 62
   155
100
AcDbCircle
 10
-95.65779876708985
 20
83.37750530242919
 30
0.0
 40
0.0984251946210861
100
AcDbArc
 50
81.93937521335177
 51
270.0
  0
ARC
  5
41D
330
1F
100
AcDbEntity
  8
TFR-TRI
  6
Continuous
 62
   155
100
AcDbCircle
 10
-95.65779876708985
 20
83.37750530242919
 30
0.0
 40
0.0984251946210861
100
AcDbArc
 50
270.0
 51
75.35812434286544
  0
ARC
  5
41E
330
1F
100
AcDbEntity
  8
TFR-TRI
  6
Continuous
 62
   155
100
AcDbCircle
 10
-95.65779876708985
 20
82.90127849578857
 30
0.0
 40
0.239999994635582
100
AcDbArc
 50
0.0
 51
180.0
  0
ARC
  5
41F
330
1F
100
AcDbEntity
  8
TFR-TRI
  6
Continuous
 62
   155
100
AcDbCircle
 10
-95.65779876708985
 20
82.39128398895264
 30
0.0
 40
0.4375
100
AcDbArc
 50
303.2690609648772
 51
56.73093903512284
  0
ARC
  5
420
330
1F
100
AcDbEntity
  8
TFR-TRI
  6
Continuous
 62
   155
100
AcDbCircle
 10
-95.65779876708985
 20
81.88127422332764
 30
0.0
 40
0.239999994635582
100
AcDbArc
 50
180.0
 51
0.0
  0
ARC
  5
421
330
1F
100
AcDbEntity
  8
TFR-TRI
  6
Continuous
 62
   155
100
AcDbCircle
 10
-95.65779876708985
 20
82.39128398895264
 30
0.0
 40
0.4375
100
AcDbArc
 50
123.2690609648771
 51
236.7309390351228
  0
ARC
  5
422
330
1F
100
AcDbEntity
  8
TFR-TRI
  6
Continuous
 62
   155
100
AcDbCircle
 10
-95.65779876708985
 20
79.40127849578857
 30
0.0
 40
0.239999994635582
100
AcDbArc
 50
0.0
 51
180.0
  0
ARC
  5
423
330
1F
100
AcDbEntity
  8
TFR-TRI
  6
Continuous
 62
   155
100
AcDbCircle
 10
-95.65779876708985
 20
78.89128398895263
 30
0.0
 40
0.4375
100
AcDbArc
 50
303.2690609648772
 51
56.73093903512284
  0
ARC
  5
424
330
1F
100
AcDbEntity
  8
TFR-TRI
  6
Continuous
 62
   155
100
AcDbCircle
 10
-95.65779876708985
 20
78.38127422332764
 30
0.0
 40
0.239999994635582
100
AcDbArc
 50
180.0
 51
0.0
  0
ARC
  5
425
330
1F
100
AcDbEntity
  8
TFR-TRI
  6
Continuous
 62
   155
100
AcDbCircle
 10
-95.65779876708985
 20
78.89128398895263
 30
0.0
 40
0.4375
100
AcDbArc
 50
123.2690609648771
 51
236.7309390351228
  0
ARC
  5
426
330
1F
100
AcDbEntity
  8
TFR-TRI
  6
Continuous
 62
   155
100
AcDbCircle
 10
-92.78279876708984
 20
80.64128398895263
 30
0.0
 40
0.4375
100
AcDbArc
 50
303.2690609648772
 51
56.73093903512284
  0
ARC
  5
427
330
1F
100
AcDbEntity
  8
TFR-TRI
  6
Continuous
 62
   155
100
AcDbCircle
 10
-92.78279876708984
 20
80.13127422332763
 30
0.0
 40
0.239999994635582
100
AcDbArc
 50
180.0
 51
0.0
  0
ARC
  5
428
330
1F
100
AcDbEntity
  8
TFR-TRI
  6
Continuous
 62
   155
100
AcDbCircle
 10
-92.78279876708984
 20
80.64128398895263
 30
0.0
 40
0.4375
100
AcDbArc
 50
123.2690609648771
 51
236.7309390351228
  0
ARC
  5
429
330
1F
100
AcDbEntity
  8
TFR-TRI
  6
Continuous
 62
   155
100
AcDbCircle
 10
-92.78279876708984
 20
81.15127849578858
 30
0.0
 40
0.239999994635582
100
AcDbArc
 50
0.0
 51
180.0
  0
ARC
  5
42A
330
1F
100
AcDbEntity
  8
TFR-TRI
  6
Continuous
 62
   155
100
AcDbCircle
 10
-94.22029876708984
 20
80.64128398895263
 30
0.0
 40
0.4375
100
AcDbArc
 50
303.2690609648772
 51
56.73093903512284
  0
ARC
  5
42B
330
1F
100
AcDbEntity
  8
TFR-TRI
  6
Continuous
 62
   155
100
AcDbCircle
 10
-94.22029876708984
 20
80.13127422332763
 30
0.0
 40
0.239999994635582
100
AcDbArc
 50
180.0
 51
0.0
  0
ARC
  5
42C
330
1F
100
AcDbEntity
  8
TFR-TRI
  6
Continuous
 62
   155
100
AcDbCircle
 10
-94.22029876708984
 20
80.64128398895263
 30
0.0
 40
0.4375
100
AcDbArc
 50
123.2690609648771
 51
236.7309390351228
  0
ARC
  5
42D
330
1F
100
AcDbEntity
  8
TFR-TRI
  6
Continuous
 62
   155
100
AcDbCircle
 10
-94.22029876708984
 20
81.15127849578858
 30
0.0
 40
0.239999994635582
100
AcDbArc
 50
0.0
 51
180.0
  0
ARC
  5
42E
330
1F
100
AcDbEntity
  8
TFR-TRI
  6
Continuous
 62
   155
100
AcDbCircle
 10
-95.65779876708985
 20
80.64128398895263
 30
0.0
 40
0.4375
100
AcDbArc
 50
303.2690609648772
 51
56.73093903512284
  0
ARC
  5
42F
330
1F
100
AcDbEntity
  8
TFR-TRI
  6
Continuous
 62
   155
100
AcDbCircle
 10
-95.65779876708985
 20
80.13127422332763
 30
0.0
 40
0.239999994635582
100
AcDbArc
 50
180.0
 51
0.0
  0
ARC
  5
430
330
1F
100
AcDbEntity
  8
TFR-TRI
  6
Continuous
 62
   155
100
AcDbCircle
 10
-95.65779876708985
 20
80.64128398895263
 30
0.0
 40
0.4375
100
AcDbArc
 50
123.2690609648771
 51
236.7309390351228
  0
ARC
  5
431
330
1F
100
AcDbEntity
  8
TFR-TRI
  6
Continuous
 62
   155
100
AcDbCircle
 10
-95.65779876708985
 20
81.15127849578858
 30
0.0
 40
0.239999994635582
100
AcDbArc
 50
0.0
 51
180.0
  0
ARC
  5
432
330
1F
100
AcDbEntity
  8
TFR-TRI
  6
Continuous
 62
   155
100
AcDbCircle
 10
-93.40779876708984
 20
79.40127849578857
 30
0.0
 40
0.239999994635582
100
AcDbArc
 50
0.0
 51
180.0
  0
ARC
  5
433
330
1F
100
AcDbEntity
  8
TFR-TRI
  6
Continuous
 62
   155
100
AcDbCircle
 10
-93.40779876708984
 20
78.89128398895263
 30
0.0
 40
0.4375
100
AcDbArc
 50
303.2690609648772
 51
56.73093903512284
  0
ARC
  5
434
330
1F
100
AcDbEntity
  8
TFR-TRI
  6
Continuous
 62
   155
100
AcDbCircle
 10
-93.40779876708984
 20
78.38127422332764
 30
0.0
 40
0.239999994635582
100
AcDbArc
 50
180.0
 51
0.0
  0
ARC
  5
435
330
1F
100
AcDbEntity
  8
TFR-TRI
  6
Continuous
 62
   155
100
AcDbCircle
 10
-93.40779876708984
 20
78.89128398895263
 30
0.0
 40
0.4375
100
AcDbArc
 50
123.2690609648771
 51
236.7309390351228
  0
ARC
  5
436
330
1F
100
AcDbEntity
  8
TFR-TRI
  6
Continuous
 62
   155
100
AcDbCircle
 10
-93.40779876708984
 20
82.90127849578857
 30
0.0
 40
0.239999994635582
100
AcDbArc
 50
0.0
 51
180.0
  0
ARC
  5
437
330
1F
100
AcDbEntity
  8
TFR-TRI
  6
Continuous
 62
   155
100
AcDbCircle
 10
-93.40779876708984
 20
82.39128398895264
 30
0.0
 40
0.4375
100
AcDbArc
 50
303.2690609648772
 51
56.73093903512284
  0
ARC
  5
438
330
1F
100
AcDbEntity
  8
TFR-TRI
  6
Continuous
 62
   155
100
AcDbCircle
 10
-93.40779876708984
 20
81.88127422332764
 30
0.0
 40
0.239999994635582
100
AcDbArc
 50
180.0
 51
0.0
  0
ARC
  5
439
330
1F
100
AcDbEntity
  8
TFR-TRI
  6
Continuous
 62
   155
100
AcDbCircle
 10
-93.40779876708984
 20
82.39128398895264
 30
0.0
 40
0.4375
100
AcDbArc
 50
123.2690609648771
 51
236.7309390351228
  0
CIRCLE
  5
43A
330
1F
100
AcDbEntity
  8
TFR-TRI
  6
Continuous
 62
   155
100
AcDbCircle
 10
-97.51062774658203
 20
82.82878398895263
 30
0.0
 40
0.0885826796293259
  0
CIRCLE
  5
43B
330
1F
100
AcDbEntity
  8
TFR-TRI
  6
Continuous
 62
   155
100
AcDbCircle
 10
-97.51062774658203
 20
78.01628398895264
 30
0.0
 40
0.0984251946210861
  0
CIRCLE
  5
43C
330
1F
100
AcDbEntity
  8
TFR-TRI
  6
Continuous
 62
   155
100
AcDbCircle
 10
-95.65779876708985
 20
83.37750530242919
 30
0.0
 40
0.0826771631836891
  0
CIRCLE
  5
43D
330
1F
100
AcDbEntity
  8
TFR-TRI
  6
Continuous
 62
   155
100
AcDbCircle
 10
-95.65779876708985
 20
77.90504741668701
 30
0.0
 40
0.0826771631836891
  0
CIRCLE
  5
43E
330
1F
100
AcDbEntity
  8
TFR-TRI
  6
Continuous
 62
   155
100
AcDbCircle
 10
-96.38565826416016
 20
78.27905559539795
 30
0.0
 40
0.0826771631836891
  0
CIRCLE
  5
43F
330
1F
100
AcDbEntity
  8
TFR-TRI
  6
Continuous
 62
   155
100
AcDbCircle
 10
-97.51062774658203
 20
78.01628398895264
 30
0.0
 40
0.0826771631836891
  0
CIRCLE
  5
440
330
1F
100
AcDbEntity
  8
TFR-TRI
  6
Continuous
 62
   155
100
AcDbCircle
 10
-97.51062774658203
 20
13.7037763595581
 30
0.0
 40
0.0885826796293259
  0
CIRCLE
  5
441
330
1F
100
AcDbEntity
  8
TFR-TRI
  6
Continuous
 62
   155
100
AcDbCircle
 10
-97.51062774658203
 20
14.5787763595581
 30
0.0
 40
0.0885826796293259
  0
CIRCLE
  5
442
330
1F
100
AcDbEntity
  8
TFR-TRI
  6
Continuous
 62
   155
100
AcDbCircle
 10
-97.51062774658203
 20
15.4537763595581
 30
0.0
 40
0.0885826796293259
  0
CIRCLE
  5
443
330
1F
100
AcDbEntity
  8
TFR-TRI
  6
Continuous
 62
   155
100
AcDbCircle
 10
-97.51062774658203
 20
16.3287763595581
 30
0.0
 40
0.0885826796293259
  0
CIRCLE
  5
444
330
1F
100
AcDbEntity
  8
TFR-TRI
  6
Continuous
 62
   155
100
AcDbCircle
 10
-97.51062774658203
 20
17.2037763595581
 30
0.0
 40
0.0885826796293259
  0
CIRCLE
  5
445
330
1F
100
AcDbEntity
  8
TFR-TRI
  6
Continuous
 62
   155
100
AcDbCircle
 10
-97.51062774658203
 20
18.5162763595581
 30
0.0
 40
0.0826771631836891
  0
CIRCLE
  5
446
330
1F
100
AcDbEntity
  8
TFR-TRI
  6
Continuous
 62
   155
100
AcDbCircle
 10
-97.51062774658203
 20
18.5162763595581
 30
0.0
 40
0.0984251946210861
  0
CIRCLE
  5
447
330
1F
100
AcDbEntity
  8
TFR-TRI
  6
Continuous
 62
   155
100
AcDbCircle
 10
-97.51062774658203
 20
17.6412763595581
 30
0.0
 40
0.0826771631836891
  0
CIRCLE
  5
448
330
1F
100
AcDbEntity
  8
TFR-TRI
  6
Continuous
 62
   155
100
AcDbCircle
 10
-97.51062774658203
 20
17.6412763595581
 30
0.0
 40
0.0984251946210861
  0
CIRCLE
  5
449
330
1F
100
AcDbEntity
  8
TFR-TRI
  6
Continuous
 62
   155
100
AcDbCircle
 10
-97.51062774658203
 20
16.7662763595581
 30
0.0
 40
0.0826771631836891
  0
CIRCLE
  5
44A
330
1F
100
AcDbEntity
  8
TFR-TRI
  6
Continuous
 62
   155
100
AcDbCircle
 10
-97.51062774658203
 20
16.7662763595581
 30
0.0
 40
0.0984251946210861
  0
CIRCLE
  5
44B
330
1F
100
AcDbEntity
  8
TFR-TRI
  6
Continuous
 62
   155
100
AcDbCircle
 10
-97.51062774658203
 20
15.8912763595581
 30
0.0
 40
0.0826771631836891
  0
CIRCLE
  5
44C
330
1F
100
AcDbEntity
  8
TFR-TRI
  6
Continuous
 62
   155
100
AcDbCircle
 10
-97.51062774658203
 20
15.8912763595581
 30
0.0
 40
0.0984251946210861
  0
CIRCLE
  5
44D
330
1F
100
AcDbEntity
  8
TFR-TRI
  6
Continuous
 62
   155
100
AcDbCircle
 10
-97.51062774658203
 20
15.0162763595581
 30
0.0
 40
0.0826771631836891
  0
CIRCLE
  5
44E
330
1F
100
AcDbEntity
  8
TFR-TRI
  6
Continuous
 62
   155
100
AcDbCircle
 10
-97.51062774658203
 20
15.0162763595581
 30
0.0
 40
0.0984251946210861
  0
CIRCLE
  5
44F
330
1F
100
AcDbEntity
  8
TFR-TRI
  6
Continuous
 62
   155
100
AcDbCircle
 10
-97.51062774658203
 20
14.1412763595581
 30
0.0
 40
0.0826771631836891
  0
CIRCLE
  5
450
330
1F
100
AcDbEntity
  8
TFR-TRI
  6
Continuous
 62
   155
100
AcDbCircle
 10
-97.51062774658203
 20
14.1412763595581
 30
0.0
 40
0.0984251946210861
  0
CIRCLE
  5
451
330
1F
100
AcDbEntity
  8
TFR-TRI
  6
Continuous
 62
   155
100
AcDbCircle
 10
-92.05495452880859
 20
18.25346660614014
 30
0.0
 40
0.0826771631836891
  0
CIRCLE
  5
452
330
1F
100
AcDbEntity
  8
TFR-TRI
  6
Continuous
 62
   155
100
AcDbCircle
 10
-92.05495452880859
 20
18.25346660614014
 30
0.0
 40
0.0984251946210861
  0
CIRCLE
  5
453
330
1F
100
AcDbEntity
  8
TFR-TRI
  6
Continuous
 62
   155
100
AcDbCircle
 10
-92.05495452880859
 20
17.46606731414795
 30
0.0
 40
0.0826771631836891
  0
CIRCLE
  5
454
330
1F
100
AcDbEntity
  8
TFR-TRI
  6
Continuous
 62
   155
100
AcDbCircle
 10
-92.05495452880859
 20
17.46606731414795
 30
0.0
 40
0.0984251946210861
  0
CIRCLE
  5
455
330
1F
100
AcDbEntity
  8
TFR-TRI
  6
Continuous
 62
   155
100
AcDbCircle
 10
-92.05495452880859
 20
16.67866039276123
 30
0.0
 40
0.0826771631836891
  0
CIRCLE
  5
456
330
1F
100
AcDbEntity
  8
TFR-TRI
  6
Continuous
 62
   155
100
AcDbCircle
 10
-92.05495452880859
 20
16.67866039276123
 30
0.0
 40
0.0984251946210861
  0
CIRCLE
  5
457
330
1F
100
AcDbEntity
  8
TFR-TRI
  6
Continuous
 62
   155
100
AcDbCircle
 10
-92.05495452880859
 20
15.89126110076904
 30
0.0
 40
0.0826771631836891
  0
CIRCLE
  5
458
330
1F
100
AcDbEntity
  8
TFR-TRI
  6
Continuous
 62
   155
100
AcDbCircle
 10
-92.05495452880859
 20
15.89126110076904
 30
0.0
 40
0.0984251946210861
  0
CIRCLE
  5
459
330
1F
100
AcDbEntity
  8
TFR-TRI
  6
Continuous
 62
   155
100
AcDbCircle
 10
-92.05495452880859
 20
15.10386180877685
 30
0.0
 40
0.0826771631836891
  0
CIRCLE
  5
45A
330
1F
100
AcDbEntity
  8
TFR-TRI
  6
Continuous
 62
   155
100
AcDbCircle
 10
-92.05495452880859
 20
15.10386180877685
 30
0.0
 40
0.0984251946210861
  0
CIRCLE
  5
45B
330
1F
100
AcDbEntity
  8
TFR-TRI
  6
Continuous
 62
   155
100
AcDbCircle
 10
-92.05495452880859
 20
14.31645488739014
 30
0.0
 40
0.0826771631836891
  0
CIRCLE
  5
45C
330
1F
100
AcDbEntity
  8
TFR-TRI
  6
Continuous
 62
   155
100
AcDbCircle
 10
-92.05495452880859
 20
14.31645488739014
 30
0.0
 40
0.0984251946210861
  0
CIRCLE
  5
45D
330
1F
100
AcDbEntity
  8
TFR-TRI
  6
Continuous
 62
   155
100
AcDbCircle
 10
-92.05495452880859
 20
13.52905559539795
 30
0.0
 40
0.0826771631836891
  0
CIRCLE
  5
45E
330
1F
100
AcDbEntity
  8
TFR-TRI
  6
Continuous
 62
   155
100
AcDbCircle
 10
-92.05495452880859
 20
13.52905559539795
 30
0.0
 40
0.0984251946210861
  0
CIRCLE
  5
45F
330
1F
100
AcDbEntity
  8
TFR-TRI
  6
Continuous
 62
   155
100
AcDbCircle
 10
-96.38565826416016
 20
18.25346660614014
 30
0.0
 40
0.0826771631836891
  0
CIRCLE
  5
460
330
1F
100
AcDbEntity
  8
TFR-TRI
  6
Continuous
 62
   155
100
AcDbCircle
 10
-96.38565826416016
 20
18.25346660614014
 30
0.0
 40
0.0984251946210861
  0
CIRCLE
  5
461
330
1F
100
AcDbEntity
  8
TFR-TRI
  6
Continuous
 62
   155
100
AcDbCircle
 10
-96.38565826416016
 20
17.46606731414795
 30
0.0
 40
0.0826771631836891
  0
CIRCLE
  5
462
330
1F
100
AcDbEntity
  8
TFR-TRI
  6
Continuous
 62
   155
100
AcDbCircle
 10
-96.38565826416016
 20
17.46606731414795
 30
0.0
 40
0.0984251946210861
  0
CIRCLE
  5
463
330
1F
100
AcDbEntity
  8
TFR-TRI
  6
Continuous
 62
   155
100
AcDbCircle
 10
-96.38565826416016
 20
16.67866039276123
 30
0.0
 40
0.0826771631836891
  0
CIRCLE
  5
464
330
1F
100
AcDbEntity
  8
TFR-TRI
  6
Continuous
 62
   155
100
AcDbCircle
 10
-96.38565826416016
 20
16.67866039276123
 30
0.0
 40
0.0984251946210861
  0
CIRCLE
  5
465
330
1F
100
AcDbEntity
  8
TFR-TRI
  6
Continuous
 62
   155
100
AcDbCircle
 10
-96.38565826416016
 20
15.89126110076904
 30
0.0
 40
0.0826771631836891
  0
CIRCLE
  5
466
330
1F
100
AcDbEntity
  8
TFR-TRI
  6
Continuous
 62
   155
100
AcDbCircle
 10
-96.38565826416016
 20
15.89126110076904
 30
0.0
 40
0.0984251946210861
  0
CIRCLE
  5
467
330
1F
100
AcDbEntity
  8
TFR-TRI
  6
Continuous
 62
   155
100
AcDbCircle
 10
-96.38565826416016
 20
15.10386180877685
 30
0.0
 40
0.0826771631836891
  0
CIRCLE
  5
468
330
1F
100
AcDbEntity
  8
TFR-TRI
  6
Continuous
 62
   155
100
AcDbCircle
 10
-96.38565826416016
 20
15.10386180877685
 30
0.0
 40
0.0984251946210861
  0
CIRCLE
  5
469
330
1F
100
AcDbEntity
  8
TFR-TRI
  6
Continuous
 62
   155
100
AcDbCircle
 10
-96.38565826416016
 20
14.31645488739014
 30
0.0
 40
0.0826771631836891
  0
CIRCLE
  5
46A
330
1F
100
AcDbEntity
  8
TFR-TRI
  6
Continuous
 62
   155
100
AcDbCircle
 10
-96.38565826416016
 20
14.31645488739014
 30
0.0
 40
0.0984251946210861
  0
CIRCLE
  5
46B
330
1F
100
AcDbEntity
  8
TFR-TRI
  6
Continuous
 62
   155
100
AcDbCircle
 10
-92.78279876708984
 20
13.15504741668701
 30
0.0
 40
0.0826771631836891
  0
CIRCLE
  5
46C
330
1F
100
AcDbEntity
  8
TFR-TRI
  6
Continuous
 62
   155
100
AcDbCircle
 10
-92.78279876708984
 20
13.15504741668701
 30
0.0
 40
0.0984251946210861
  0
CIRCLE
  5
46D
330
1F
100
AcDbEntity
  8
TFR-TRI
  6
Continuous
 62
   155
100
AcDbCircle
 10
-94.22029876708984
 20
13.15504741668701
 30
0.0
 40
0.0826771631836891
  0
CIRCLE
  5
46E
330
1F
100
AcDbEntity
  8
TFR-TRI
  6
Continuous
 62
   155
100
AcDbCircle
 10
-94.22029876708984
 20
13.15504741668701
 30
0.0
 40
0.0984251946210861
  0
CIRCLE
  5
46F
330
1F
100
AcDbEntity
  8
TFR-TRI
  6
Continuous
 62
   155
100
AcDbCircle
 10
-92.78279876708984
 20
18.6275053024292
 30
0.0
 40
0.0826771631836891
  0
CIRCLE
  5
470
330
1F
100
AcDbEntity
  8
TFR-TRI
  6
Continuous
 62
   155
100
AcDbCircle
 10
-92.78279876708984
 20
18.6275053024292
 30
0.0
 40
0.0984251946210861
  0
CIRCLE
  5
471
330
1F
100
AcDbEntity
  8
TFR-TRI
  6
Continuous
 62
   155
100
AcDbCircle
 10
-94.22029876708984
 20
18.6275053024292
 30
0.0
 40
0.0826771631836891
  0
CIRCLE
  5
472
330
1F
100
AcDbEntity
  8
TFR-TRI
  6
Continuous
 62
   155
100
AcDbCircle
 10
-94.22029876708984
 20
18.6275053024292
 30
0.0
 40
0.0984251946210861
  0
CIRCLE
  5
473
330
1F
100
AcDbEntity
  8
TFR-TRI
  6
Continuous
 62
   155
100
AcDbCircle
 10
-96.38565826416016
 20
13.52905559539795
 30
0.0
 40
0.0984251946210861
  0
ARC
  5
474
330
1F
100
AcDbEntity
  8
TFR-TRI
  6
Continuous
 62
   155
100
AcDbCircle
 10
-95.65779876708985
 20
13.15504741668701
 30
0.0
 40
0.0984251946210861
100
AcDbArc
 50
284.6475005865716
 51
270.0
  0
ARC
  5
475
330
1F
100
AcDbEntity
  8
TFR-TRI
  6
Continuous
 62
   155
100
AcDbCircle
 10
-95.65779876708985
 20
13.15504741668701
 30
0.0
 40
0.0984251946210861
100
AcDbArc
 50
270.0
 51
278.0662499156909
  0
ARC
  5
476
330
1F
100
AcDbEntity
  8
TFR-TRI
  6
Continuous
 62
   155
100
AcDbCircle
 10
-95.65779876708985
 20
18.6275053024292
 30
0.0
 40
0.0984251946210861
100
AcDbArc
 50
81.93937521335177
 51
270.0
  0
ARC
  5
477
330
1F
100
AcDbEntity
  8
TFR-TRI
  6
Continuous
 62
   155
100
AcDbCircle
 10
-95.65779876708985
 20
18.6275053024292
 30
0.0
 40
0.0984251946210861
100
AcDbArc
 50
270.0
 51
75.35812434286544
  0
ARC
  5
478
330
1F
100
AcDbEntity
  8
TFR-TRI
  6
Continuous
 62
   155
100
AcDbCircle
 10
-95.65779876708985
 20
18.15127849578857
 30
0.0
 40
0.239999994635582
100
AcDbArc
 50
0.0
 51
180.0
  0
ARC
  5
479
330
1F
100
AcDbEntity
  8
TFR-TRI
  6
Continuous
 62
   155
100
AcDbCircle
 10
-95.65779876708985
 20
17.6412763595581
 30
0.0
 40
0.4375
100
AcDbArc
 50
303.2690609648772
 51
56.73093903512284
  0
ARC
  5
47A
330
1F
100
AcDbEntity
  8
TFR-TRI
  6
Continuous
 62
   155
100
AcDbCircle
 10
-95.65779876708985
 20
17.13127422332763
 30
0.0
 40
0.239999994635582
100
AcDbArc
 50
180.0
 51
0.0
  0
ARC
  5
47B
330
1F
100
AcDbEntity
  8
TFR-TRI
  6
Continuous
 62
   155
100
AcDbCircle
 10
-95.65779876708985
 20
17.6412763595581
 30
0.0
 40
0.4375
100
AcDbArc
 50
123.2690609648771
 51
236.7309390351228
  0
ARC
  5
47C
330
1F
100
AcDbEntity
  8
TFR-TRI
  6
Continuous
 62
   155
100
AcDbCircle
 10
-95.65779876708985
 20
14.65127849578857
 30
0.0
 40
0.239999994635582
100
AcDbArc
 50
0.0
 51
180.0
  0
ARC
  5
47D
330
1F
100
AcDbEntity
  8
TFR-TRI
  6
Continuous
 62
   155
100
AcDbCircle
 10
-95.65779876708985
 20
14.1412763595581
 30
0.0
 40
0.4375
100
AcDbArc
 50
303.2690609648772
 51
56.73093903512284
  0
ARC
  5
47E
330
1F
100
AcDbEntity
  8
TFR-TRI
  6
Continuous
 62
   155
100
AcDbCircle
 10
-95.65779876708985
 20
13.63127422332764
 30
0.0
 40
0.239999994635582
100
AcDbArc
 50
180.0
 51
0.0
  0
ARC
  5
47F
330
1F
100
AcDbEntity
  8
TFR-TRI
  6
Continuous
 62
   155
100
AcDbCircle
 10
-95.65779876708985
 20
14.1412763595581
 30
0.0
 40
0.4375
100
AcDbArc
 50
123.2690609648771
 51
236.7309390351228
  0
ARC
  5
480
330
1F
100
AcDbEntity
  8
TFR-TRI
  6
Continuous
 62
   155
100
AcDbCircle
 10
-92.78279876708984
 20
15.8912763595581
 30
0.0
 40
0.4375
100
AcDbArc
 50
303.2690609648772
 51
56.73093903512284
  0
ARC
  5
481
330
1F
100
AcDbEntity
  8
TFR-TRI
  6
Continuous
 62
   155
100
AcDbCircle
 10
-92.78279876708984
 20
15.38127422332763
 30
0.0
 40
0.239999994635582
100
AcDbArc
 50
180.0
 51
0.0
  0
ARC
  5
482
330
1F
100
AcDbEntity
  8
TFR-TRI
  6
Continuous
 62
   155
100
AcDbCircle
 10
-92.78279876708984
 20
15.8912763595581
 30
0.0
 40
0.4375
100
AcDbArc
 50
123.2690609648771
 51
236.7309390351228
  0
ARC
  5
483
330
1F
100
AcDbEntity
  8
TFR-TRI
  6
Continuous
 62
   155
100
AcDbCircle
 10
-92.78279876708984
 20
16.40127849578857
 30
0.0
 40
0.239999994635582
100
AcDbArc
 50
0.0
 51
180.0
  0
ARC
  5
484
330
1F
100
AcDbEntity
  8
TFR-TRI
  6
Continuous
 62
   155
100
AcDbCircle
 10
-94.22029876708984
 20
15.8912763595581
 30
0.0
 40
0.4375
100
AcDbArc
 50
303.2690609648772
 51
56.73093903512284
  0
ARC
  5
485
330
1F
100
AcDbEntity
  8
TFR-TRI
  6
Continuous
 62
   155
100
AcDbCircle
 10
-94.22029876708984
 20
15.38127422332763
 30
0.0
 40
0.239999994635582
100
AcDbArc
 50
180.0
 51
0.0
  0
ARC
  5
486
330
1F
100
AcDbEntity
  8
TFR-TRI
  6
Continuous
 62
   155
100
AcDbCircle
 10
-94.22029876708984
 20
15.8912763595581
 30
0.0
 40
0.4375
100
AcDbArc
 50
123.2690609648771
 51
236.7309390351228
  0
ARC
  5
487
330
1F
100
AcDbEntity
  8
TFR-TRI
  6
Continuous
 62
   155
100
AcDbCircle
 10
-94.22029876708984
 20
16.40127849578857
 30
0.0
 40
0.239999994635582
100
AcDbArc
 50
0.0
 51
180.0
  0
ARC
  5
488
330
1F
100
AcDbEntity
  8
TFR-TRI
  6
Continuous
 62
   155
100
AcDbCircle
 10
-95.65779876708985
 20
15.8912763595581
 30
0.0
 40
0.4375
100
AcDbArc
 50
303.2690609648772
 51
56.73093903512284
  0
ARC
  5
489
330
1F
100
AcDbEntity
  8
TFR-TRI
  6
Continuous
 62
   155
100
AcDbCircle
 10
-95.65779876708985
 20
15.38127422332763
 30
0.0
 40
0.239999994635582
100
AcDbArc
 50
180.0
 51
0.0
  0
ARC
  5
48A
330
1F
100
AcDbEntity
  8
TFR-TRI
  6
Continuous
 62
   155
100
AcDbCircle
 10
-95.65779876708985
 20
15.8912763595581
 30
0.0
 40
0.4375
100
AcDbArc
 50
123.2690609648771
 51
236.7309390351228
  0
ARC
  5
48B
330
1F
100
AcDbEntity
  8
TFR-TRI
  6
Continuous
 62
   155
100
AcDbCircle
 10
-95.65779876708985
 20
16.40127849578857
 30
0.0
 40
0.239999994635582
100
AcDbArc
 50
0.0
 51
180.0
  0
ARC
  5
48C
330
1F
100
AcDbEntity
  8
TFR-TRI
  6
Continuous
 62
   155
100
AcDbCircle
 10
-93.40779876708984
 20
14.65127849578857
 30
0.0
 40
0.239999994635582
100
AcDbArc
 50
0.0
 51
180.0
  0
ARC
  5
48D
330
1F
100
AcDbEntity
  8
TFR-TRI
  6
Continuous
 62
   155
100
AcDbCircle
 10
-93.40779876708984
 20
14.1412763595581
 30
0.0
 40
0.4375
100
AcDbArc
 50
303.2690609648772
 51
56.73093903512284
  0
ARC
  5
48E
330
1F
100
AcDbEntity
  8
TFR-TRI
  6
Continuous
 62
   155
100
AcDbCircle
 10
-93.40779876708984
 20
13.63127422332764
 30
0.0
 40
0.239999994635582
100
AcDbArc
 50
180.0
 51
0.0
  0
ARC
  5
48F
330
1F
100
AcDbEntity
  8
TFR-TRI
  6
Continuous
 62
   155
100
AcDbCircle
 10
-93.40779876708984
 20
14.1412763595581
 30
0.0
 40
0.4375
100
AcDbArc
 50
123.2690609648771
 51
236.7309390351228
  0
ARC
  5
490
330
1F
100
AcDbEntity
  8
TFR-TRI
  6
Continuous
 62
   155
100
AcDbCircle
 10
-93.40779876708984
 20
18.15127849578857
 30
0.0
 40
0.239999994635582
100
AcDbArc
 50
0.0
 51
180.0
  0
ARC
  5
491
330
1F
100
AcDbEntity
  8
TFR-TRI
  6
Continuous
 62
   155
100
AcDbCircle
 10
-93.40779876708984
 20
17.6412763595581
 30
0.0
 40
0.4375
100
AcDbArc
 50
303.2690609648772
 51
56.73093903512284
  0
ARC
  5
492
330
1F
100
AcDbEntity
  8
TFR-TRI
  6
Continuous
 62
   155
100
AcDbCircle
 10
-93.40779876708984
 20
17.13127422332763
 30
0.0
 40
0.239999994635582
100
AcDbArc
 50
180.0
 51
0.0
  0
ARC
  5
493
330
1F
100
AcDbEntity
  8
TFR-TRI
  6
Continuous
 62
   155
100
AcDbCircle
 10
-93.40779876708984
 20
17.6412763595581
 30
0.0
 40
0.4375
100
AcDbArc
 50
123.2690609648771
 51
236.7309390351228
  0
CIRCLE
  5
494
330
1F
100
AcDbEntity
  8
TFR-TRI
  6
Continuous
 62
   155
100
AcDbCircle
 10
-97.51062774658203
 20
18.0787763595581
 30
0.0
 40
0.0885826796293259
  0
CIRCLE
  5
495
330
1F
100
AcDbEntity
  8
TFR-TRI
  6
Continuous
 62
   155
100
AcDbCircle
 10
-97.51062774658203
 20
13.2662763595581
 30
0.0
 40
0.0984251946210861
  0
CIRCLE
  5
496
330
1F
100
AcDbEntity
  8
TFR-TRI
  6
Continuous
 62
   155
100
AcDbCircle
 10
-95.65779876708985
 20
18.6275053024292
 30
0.0
 40
0.0826771631836891
  0
CIRCLE
  5
497
330
1F
100
AcDbEntity
  8
TFR-TRI
  6
Continuous
 62
   155
100
AcDbCircle
 10
-95.65779876708985
 20
13.15504741668701
 30
0.0
 40
0.0826771631836891
  0
CIRCLE
  5
498
330
1F
100
AcDbEntity
  8
TFR-TRI
  6
Continuous
 62
   155
100
AcDbCircle
 10
-96.38565826416016
 20
13.52905559539795
 30
0.0
 40
0.0826771631836891
  0
CIRCLE
  5
499
330
1F
100
AcDbEntity
  8
TFR-TRI
  6
Continuous
 62
   155
100
AcDbCircle
 10
-97.51062774658203
 20
13.2662763595581
 30
0.0
 40
0.0826771631836891
  0
CIRCLE
  5
49A
330
1F
100
AcDbEntity
  8
TFR-TRI
  6
Continuous
 62
     3
100
AcDbCircle
 10
-95.58150482177735
 20
120.7671384811401
 30
0.0
 40
0.1099999994039535
  0
CIRCLE
  5
49B
330
1F
100
AcDbEntity
  8
TFR-TRI
  6
Continuous
 62
     3
100
AcDbCircle
 10
-96.52637481689453
 20
120.7671384811401
 30
0.0
 40
0.1099999994039535
  0
CIRCLE
  5
49C
330
1F
100
AcDbEntity
  8
TFR-TRI
  6
Continuous
 62
   155
100
AcDbCircle
 10
-95.58150482177735
 20
120.7671384811401
 30
0.0
 40
0.078740157186985
  0
CIRCLE
  5
49D
330
1F
100
AcDbEntity
  8
TFR-TRI
  6
Continuous
 62
   155
100
AcDbCircle
 10
-96.52637481689453
 20
120.7671384811401
 30
0.0
 40
0.078740157186985
  0
ARC
  5
49E
330
1F
100
AcDbEntity
  8
TFR-TRI
  6
Continuous
 62
   155
100
AcDbCircle
 10
-97.15630340576172
 20
121.2579679489135
 30
0.0
 40
0.0935000032186508
100
AcDbArc
 50
0.0
 51
90.0
  0
ARC
  5
49F
330
1F
100
AcDbEntity
  8
TFR-TRI
  6
Continuous
 62
   155
100
AcDbCircle
 10
-97.15630340576172
 20
121.2579679489135
 30
0.0
 40
0.0299999993294478
100
AcDbArc
 50
0.0
 51
90.0
  0
ARC
  5
4A0
330
1F
100
AcDbEntity
  8
TFR-TRI
  6
Continuous
 62
   155
100
AcDbCircle
 10
-91.52098846435547
 20
120.9612455368042
 30
0.0
 40
0.0299999993294478
100
AcDbArc
 50
0.0
 51
90.0
  0
ARC
  5
4A1
330
1F
100
AcDbEntity
  8
TFR-TRI
  6
Continuous
 62
   155
100
AcDbCircle
 10
-91.52098846435547
 20
120.9612455368042
 30
0.0
 40
0.0935000032186508
100
AcDbArc
 50
0.0
 51
90.0
  0
ARC
  5
4A2
330
1F
100
AcDbEntity
  8
TFR-TRI
  6
Continuous
 62
   155
100
AcDbCircle
 10
-154.7357025146484
 20
77.59031963348388
 30
0.0
 40
0.0935000032186508
100
AcDbArc
 50
180.0
 51
270.0
  0
ARC
  5
4A3
330
1F
100
AcDbEntity
  8
TFR-TRI
  6
Continuous
 62
   155
100
AcDbCircle
 10
-154.7357025146484
 20
77.59031963348388
 30
0.0
 40
0.0299999993294478
100
AcDbArc
 50
180.0
 51
270.0
  0
ARC
  5
4A4
330
1F
100
AcDbEntity
  8
TFR-TRI
  6
Continuous
 62
   155
100
AcDbCircle
 10
-154.7357025146484
 20
83.69223308563233
 30
0.0
 40
0.0935000032186508
100
AcDbArc
 50
90.0
 51
180.0
  0
ARC
  5
4A5
330
1F
100
AcDbEntity
  8
TFR-TRI
  6
Continuous
 62
   155
100
AcDbCircle
 10
-154.7357025146484
 20
83.69223308563233
 30
0.0
 40
0.0299999993294478
100
AcDbArc
 50
90.0
 51
180.0
  0
ARC
  5
4A6
330
1F
100
AcDbEntity
  8
TFR-TRI
  6
Continuous
 62
   155
100
AcDbCircle
 10
-154.4389724731445
 20
83.61372661590577
 30
0.0
 40
0.0299999993294478
100
AcDbArc
 50
90.0
 51
180.0
  0
ARC
  5
4A7
330
1F
100
AcDbEntity
  8
TFR-TRI
  6
Continuous
 62
   155
100
AcDbCircle
 10
-154.4389724731445
 20
83.61372661590577
 30
0.0
 40
0.0935000032186508
100
AcDbArc
 50
90.0
 51
180.0
  0
ARC
  5
4A8
330
1F
100
AcDbEntity
  8
TFR-TRI
  6
Continuous
 62
   155
100
AcDbCircle
 10
-154.4389724731445
 20
77.66882610321045
 30
0.0
 40
0.0935000032186508
100
AcDbArc
 50
180.0
 51
270.0
  0
ARC
  5
4A9
330
1F
100
AcDbEntity
  8
TFR-TRI
  6
Continuous
 62
   155
100
AcDbCircle
 10
-154.4389724731445
 20
77.66882610321045
 30
0.0
 40
0.0299999993294478
100
AcDbArc
 50
180.0
 51
270.0
  0
ARC
  5
4AA
330
1F
100
AcDbEntity
  8
TFR-TRI
  6
Continuous
 62
   155
100
AcDbCircle
 10
-154.7357025146484
 20
12.84031963348388
 30
0.0
 40
0.0935000032186508
100
AcDbArc
 50
180.0
 51
270.0
  0
ARC
  5
4AB
330
1F
100
AcDbEntity
  8
TFR-TRI
  6
Continuous
 62
   155
100
AcDbCircle
 10
-154.7357025146484
 20
12.84031963348388
 30
0.0
 40
0.0299999993294478
100
AcDbArc
 50
180.0
 51
270.0
  0
ARC
  5
4AC
330
1F
100
AcDbEntity
  8
TFR-TRI
  6
Continuous
 62
   155
100
AcDbCircle
 10
-154.7357025146484
 20
18.94223308563232
 30
0.0
 40
0.0935000032186508
100
AcDbArc
 50
90.0
 51
180.0
  0
ARC
  5
4AD
330
1F
100
AcDbEntity
  8
TFR-TRI
  6
Continuous
 62
   155
100
AcDbCircle
 10
-154.7357025146484
 20
18.94223308563232
 30
0.0
 40
0.0299999993294478
100
AcDbArc
 50
90.0
 51
180.0
  0
ARC
  5
4AE
330
1F
100
AcDbEntity
  8
TFR-TRI
  6
Continuous
 62
   155
100
AcDbCircle
 10
-154.4389724731445
 20
18.86373424530029
 30
0.0
 40
0.0299999993294478
100
AcDbArc
 50
90.0
 51
180.0
  0
ARC
  5
4AF
330
1F
100
AcDbEntity
  8
TFR-TRI
  6
Continuous
 62
   155
100
AcDbCircle
 10
-154.4389724731445
 20
18.86373424530029
 30
0.0
 40
0.0935000032186508
100
AcDbArc
 50
90.0
 51
180.0
  0
ARC
  5
4B0
330
1F
100
AcDbEntity
  8
TFR-TRI
  6
Continuous
 62
   155
100
AcDbCircle
 10
-154.4389724731445
 20
12.91881847381592
 30
0.0
 40
0.0935000032186508
100
AcDbArc
 50
180.0
 51
270.0
  0
ARC
  5
4B1
330
1F
100
AcDbEntity
  8
TFR-TRI
  6
Continuous
 62
   155
100
AcDbCircle
 10
-154.4389724731445
 20
12.91881847381592
 30
0.0
 40
0.0299999993294478
100
AcDbArc
 50
180.0
 51
270.0
  0
CIRCLE
  5
4B2
330
1F
100
AcDbEntity
  8
TFR-TRI
  6
Continuous
 62
     3
100
AcDbCircle
 10
-95.58150482177735
 20
-27.98846912384033
 30
0.0
 40
0.1099999994039535
  0
CIRCLE
  5
4B3
330
1F
100
AcDbEntity
  8
TFR-TRI
  6
Continuous
 62
     3
100
AcDbCircle
 10
-96.52637481689453
 20
-27.98574924468994
 30
0.0
 40
0.1099999994039535
  0
CIRCLE
  5
4B4
330
1F
100
AcDbEntity
  8
TFR-TRI
  6
Continuous
 62
   155
100
AcDbCircle
 10
-96.52637481689453
 20
-27.98846912384033
 30
0.0
 40
0.078740157186985
  0
CIRCLE
  5
4B5
330
1F
100
AcDbEntity
  8
TFR-TRI
  6
Continuous
 62
   155
100
AcDbCircle
 10
-95.58150482177735
 20
-27.98846912384033
 30
0.0
 40
0.078740157186985
  0
ARC
  5
4B6
330
1F
100
AcDbEntity
  8
TFR-TRI
  6
Continuous
 62
   155
100
AcDbCircle
 10
-97.15630340576172
 20
-28.47929096221924
 30
0.0
 40
0.0299999993294478
100
AcDbArc
 50
270.0
 51
0.0
  0
ARC
  5
4B7
330
1F
100
AcDbEntity
  8
TFR-TRI
  6
Continuous
 62
   155
100
AcDbCircle
 10
-97.15630340576172
 20
-28.47929096221924
 30
0.0
 40
0.0935000032186508
100
AcDbArc
 50
270.0
 51
0.0
  0
ARC
  5
4B8
330
1F
100
AcDbEntity
  8
TFR-TRI
  6
Continuous
 62
   155
100
AcDbCircle
 10
-91.52098846435547
 20
-28.1825647354126
 30
0.0
 40
0.0935000032186508
100
AcDbArc
 50
270.0
 51
0.0
  0
ARC
  5
4B9
330
1F
100
AcDbEntity
  8
TFR-TRI
  6
Continuous
 62
   155
100
AcDbCircle
 10
-91.52098846435547
 20
-28.1825647354126
 30
0.0
 40
0.0299999993294478
100
AcDbArc
 50
270.0
 51
0.0
  0
ARC
  5
4BA
330
1F
100
AcDbEntity
  8
TFR-TRI
  6
Continuous
 62
   155
100
AcDbCircle
 10
-35.04456329345703
 20
77.59031963348388
 30
0.0
 40
0.0935000032186508
100
AcDbArc
 50
270.0
 51
0.0
  0
ARC
  5
4BB
330
1F
100
AcDbEntity
  8
TFR-TRI
  6
Continuous
 62
   155
100
AcDbCircle
 10
-35.04456329345703
 20
77.59031963348388
 30
0.0
 40
0.0299999993294478
100
AcDbArc
 50
270.0
 51
0.0
  0
ARC
  5
4BC
330
1F
100
AcDbEntity
  8
TFR-TRI
  6
Continuous
 62
   155
100
AcDbCircle
 10
-35.04456329345703
 20
83.69223308563233
 30
0.0
 40
0.0935000032186508
100
AcDbArc
 50
0.0
 51
90.0
  0
ARC
  5
4BD
330
1F
100
AcDbEntity
  8
TFR-TRI
  6
Continuous
 62
   155
100
AcDbCircle
 10
-35.04456329345703
 20
83.69223308563233
 30
0.0
 40
0.0299999993294478
100
AcDbArc
 50
0.0
 51
90.0
  0
ARC
  5
4BE
330
1F
100
AcDbEntity
  8
TFR-TRI
  6
Continuous
 62
   155
100
AcDbCircle
 10
-35.34128570556641
 20
83.61372661590577
 30
0.0
 40
0.0935000032186508
100
AcDbArc
 50
0.0
 51
90.0
  0
ARC
  5
4BF
330
1F
100
AcDbEntity
  8
TFR-TRI
  6
Continuous
 62
   155
100
AcDbCircle
 10
-35.34128570556641
 20
83.61372661590577
 30
0.0
 40
0.0299999993294478
100
AcDbArc
 50
0.0
 51
90.0
  0
ARC
  5
4C0
330
1F
100
AcDbEntity
  8
TFR-TRI
  6
Continuous
 62
   155
100
AcDbCircle
 10
-35.34128570556641
 20
77.66882610321045
 30
0.0
 40
0.0299999993294478
100
AcDbArc
 50
270.0
 51
0.0
  0
ARC
  5
4C1
330
1F
100
AcDbEntity
  8
TFR-TRI
  6
Continuous
 62
   155
100
AcDbCircle
 10
-35.34128570556641
 20
77.66882610321045
 30
0.0
 40
0.0935000032186508
100
AcDbArc
 50
270.0
 51
0.0
  0
ARC
  5
4C2
330
1F
100
AcDbEntity
  8
TFR-TRI
  6
Continuous
 62
   155
100
AcDbCircle
 10
-35.04456329345703
 20
12.84031963348388
 30
0.0
 40
0.0935000032186508
100
AcDbArc
 50
270.0
 51
0.0
  0
ARC
  5
4C3
330
1F
100
AcDbEntity
  8
TFR-TRI
  6
Continuous
 62
   155
100
AcDbCircle
 10
-35.04456329345703
 20
12.84031963348388
 30
0.0
 40
0.0299999993294478
100
AcDbArc
 50
270.0
 51
0.0
  0
ARC
  5
4C4
330
1F
100
AcDbEntity
  8
TFR-TRI
  6
Continuous
 62
   155
100
AcDbCircle
 10
-35.04456329345703
 20
18.94223308563232
 30
0.0
 40
0.0935000032186508
100
AcDbArc
 50
0.0
 51
90.0
  0
ARC
  5
4C5
330
1F
100
AcDbEntity
  8
TFR-TRI
  6
Continuous
 62
   155
100
AcDbCircle
 10
-35.04456329345703
 20
18.94223308563232
 30
0.0
 40
0.0299999993294478
100
AcDbArc
 50
0.0
 51
90.0
  0
ARC
  5
4C6
330
1F
100
AcDbEntity
  8
TFR-TRI
  6
Continuous
 62
   155
100
AcDbCircle
 10
-35.34128570556641
 20
18.86373424530029
 30
0.0
 40
0.0935000032186508
100
AcDbArc
 50
0.0
 51
90.0
  0
ARC
  5
4C7
330
1F
100
AcDbEntity
  8
TFR-TRI
  6
Continuous
 62
   155
100
AcDbCircle
 10
-35.34128570556641
 20
18.86373424530029
 30
0.0
 40
0.0299999993294478
100
AcDbArc
 50
0.0
 51
90.0
  0
ARC
  5
4C8
330
1F
100
AcDbEntity
  8
TFR-TRI
  6
Continuous
 62
   155
100
AcDbCircle
 10
-35.34128570556641
 20
12.91881847381592
 30
0.0
 40
0.0299999993294478
100
AcDbArc
 50
270.0
 51
0.0
  0
ARC
  5
4C9
330
1F
100
AcDbEntity
  8
TFR-TRI
  6
Continuous
 62
   155
100
AcDbCircle
 10
-35.34128570556641
 20
12.91881847381592
 30
0.0
 40
0.0935000032186508
100
AcDbArc
 50
270.0
 51
0.0
  0
CIRCLE
  5
4CA
330
1F
100
AcDbEntity
  8
TFR-TRI
  6
Continuous
 62
   155
100
AcDbCircle
 10
32.23558807373047
 20
78.45378398895263
 30
0.0
 40
0.0885826796293259
  0
CIRCLE
  5
4CB
330
1F
100
AcDbEntity
  8
TFR-TRI
  6
Continuous
 62
   155
100
AcDbCircle
 10
32.23558807373047
 20
79.32878398895264
 30
0.0
 40
0.0885826796293259
  0
CIRCLE
  5
4CC
330
1F
100
AcDbEntity
  8
TFR-TRI
  6
Continuous
 62
   155
100
AcDbCircle
 10
32.23558807373047
 20
80.20378398895264
 30
0.0
 40
0.0885826796293259
  0
CIRCLE
  5
4CD
330
1F
100
AcDbEntity
  8
TFR-TRI
  6
Continuous
 62
   155
100
AcDbCircle
 10
32.23558807373047
 20
81.07878398895264
 30
0.0
 40
0.0885826796293259
  0
CIRCLE
  5
4CE
330
1F
100
AcDbEntity
  8
TFR-TRI
  6
Continuous
 62
   155
100
AcDbCircle
 10
32.23558807373047
 20
81.95378398895263
 30
0.0
 40
0.0885826796293259
  0
CIRCLE
  5
4CF
330
1F
100
AcDbEntity
  8
TFR-TRI
  6
Continuous
 62
   155
100
AcDbCircle
 10
32.23558807373047
 20
83.26628398895264
 30
0.0
 40
0.0826771631836891
  0
CIRCLE
  5
4D0
330
1F
100
AcDbEntity
  8
TFR-TRI
  6
Continuous
 62
   155
100
AcDbCircle
 10
32.23558807373047
 20
83.26628398895264
 30
0.0
 40
0.0984251946210861
  0
CIRCLE
  5
4D1
330
1F
100
AcDbEntity
  8
TFR-TRI
  6
Continuous
 62
   155
100
AcDbCircle
 10
32.23558807373047
 20
82.39128398895264
 30
0.0
 40
0.0826771631836891
  0
CIRCLE
  5
4D2
330
1F
100
AcDbEntity
  8
TFR-TRI
  6
Continuous
 62
   155
100
AcDbCircle
 10
32.23558807373047
 20
82.39128398895264
 30
0.0
 40
0.0984251946210861
  0
CIRCLE
  5
4D3
330
1F
100
AcDbEntity
  8
TFR-TRI
  6
Continuous
 62
   155
100
AcDbCircle
 10
32.23558807373047
 20
81.51628398895264
 30
0.0
 40
0.0826771631836891
  0
CIRCLE
  5
4D4
330
1F
100
AcDbEntity
  8
TFR-TRI
  6
Continuous
 62
   155
100
AcDbCircle
 10
32.23558807373047
 20
81.51628398895264
 30
0.0
 40
0.0984251946210861
  0
CIRCLE
  5
4D5
330
1F
100
AcDbEntity
  8
TFR-TRI
  6
Continuous
 62
   155
100
AcDbCircle
 10
32.23558807373047
 20
80.64128398895263
 30
0.0
 40
0.0826771631836891
  0
CIRCLE
  5
4D6
330
1F
100
AcDbEntity
  8
TFR-TRI
  6
Continuous
 62
   155
100
AcDbCircle
 10
32.23558807373047
 20
80.64128398895263
 30
0.0
 40
0.0984251946210861
  0
CIRCLE
  5
4D7
330
1F
100
AcDbEntity
  8
TFR-TRI
  6
Continuous
 62
   155
100
AcDbCircle
 10
32.23558807373047
 20
79.76628398895264
 30
0.0
 40
0.0826771631836891
  0
CIRCLE
  5
4D8
330
1F
100
AcDbEntity
  8
TFR-TRI
  6
Continuous
 62
   155
100
AcDbCircle
 10
32.23558807373047
 20
79.76628398895264
 30
0.0
 40
0.0984251946210861
  0
CIRCLE
  5
4D9
330
1F
100
AcDbEntity
  8
TFR-TRI
  6
Continuous
 62
   155
100
AcDbCircle
 10
32.23558807373047
 20
78.89128398895263
 30
0.0
 40
0.0826771631836891
  0
CIRCLE
  5
4DA
330
1F
100
AcDbEntity
  8
TFR-TRI
  6
Continuous
 62
   155
100
AcDbCircle
 10
32.23558807373047
 20
78.89128398895263
 30
0.0
 40
0.0984251946210861
  0
CIRCLE
  5
4DB
330
1F
100
AcDbEntity
  8
TFR-TRI
  6
Continuous
 62
   155
100
AcDbCircle
 10
26.77989959716797
 20
83.00346660614014
 30
0.0
 40
0.0826771631836891
  0
CIRCLE
  5
4DC
330
1F
100
AcDbEntity
  8
TFR-TRI
  6
Continuous
 62
   155
100
AcDbCircle
 10
26.77989959716797
 20
83.00346660614014
 30
0.0
 40
0.0984251946210861
  0
CIRCLE
  5
4DD
330
1F
100
AcDbEntity
  8
TFR-TRI
  6
Continuous
 62
   155
100
AcDbCircle
 10
26.77989959716797
 20
82.21606731414794
 30
0.0
 40
0.0826771631836891
  0
CIRCLE
  5
4DE
330
1F
100
AcDbEntity
  8
TFR-TRI
  6
Continuous
 62
   155
100
AcDbCircle
 10
26.77989959716797
 20
82.21606731414794
 30
0.0
 40
0.0984251946210861
  0
CIRCLE
  5
4DF
330
1F
100
AcDbEntity
  8
TFR-TRI
  6
Continuous
 62
   155
100
AcDbCircle
 10
26.77989959716797
 20
81.42866802215577
 30
0.0
 40
0.0826771631836891
  0
CIRCLE
  5
4E0
330
1F
100
AcDbEntity
  8
TFR-TRI
  6
Continuous
 62
   155
100
AcDbCircle
 10
26.77989959716797
 20
81.42866802215577
 30
0.0
 40
0.0984251946210861
  0
CIRCLE
  5
4E1
330
1F
100
AcDbEntity
  8
TFR-TRI
  6
Continuous
 62
   155
100
AcDbCircle
 10
26.77989959716797
 20
80.64125347137451
 30
0.0
 40
0.0826771631836891
  0
CIRCLE
  5
4E2
330
1F
100
AcDbEntity
  8
TFR-TRI
  6
Continuous
 62
   155
100
AcDbCircle
 10
26.77989959716797
 20
80.64125347137451
 30
0.0
 40
0.0984251946210861
  0
CIRCLE
  5
4E3
330
1F
100
AcDbEntity
  8
TFR-TRI
  6
Continuous
 62
   155
100
AcDbCircle
 10
26.77989959716797
 20
79.85385417938232
 30
0.0
 40
0.0826771631836891
  0
CIRCLE
  5
4E4
330
1F
100
AcDbEntity
  8
TFR-TRI
  6
Continuous
 62
   155
100
AcDbCircle
 10
26.77989959716797
 20
79.85385417938232
 30
0.0
 40
0.0984251946210861
  0
CIRCLE
  5
4E5
330
1F
100
AcDbEntity
  8
TFR-TRI
  6
Continuous
 62
   155
100
AcDbCircle
 10
26.77989959716797
 20
79.06645488739013
 30
0.0
 40
0.0826771631836891
  0
CIRCLE
  5
4E6
330
1F
100
AcDbEntity
  8
TFR-TRI
  6
Continuous
 62
   155
100
AcDbCircle
 10
26.77989959716797
 20
79.06645488739013
 30
0.0
 40
0.0984251946210861
  0
CIRCLE
  5
4E7
330
1F
100
AcDbEntity
  8
TFR-TRI
  6
Continuous
 62
   155
100
AcDbCircle
 10
26.77989959716797
 20
78.27905559539795
 30
0.0
 40
0.0826771631836891
  0
CIRCLE
  5
4E8
330
1F
100
AcDbEntity
  8
TFR-TRI
  6
Continuous
 62
   155
100
AcDbCircle
 10
26.77989959716797
 20
78.27905559539795
 30
0.0
 40
0.0984251946210861
  0
CIRCLE
  5
4E9
330
1F
100
AcDbEntity
  8
TFR-TRI
  6
Continuous
 62
   155
100
AcDbCircle
 10
31.1106185913086
 20
83.00346660614014
 30
0.0
 40
0.0826771631836891
  0
CIRCLE
  5
4EA
330
1F
100
AcDbEntity
  8
TFR-TRI
  6
Continuous
 62
   155
100
AcDbCircle
 10
31.1106185913086
 20
83.00346660614014
 30
0.0
 40
0.0984251946210861
  0
CIRCLE
  5
4EB
330
1F
100
AcDbEntity
  8
TFR-TRI
  6
Continuous
 62
   155
100
AcDbCircle
 10
31.1106185913086
 20
82.21606731414794
 30
0.0
 40
0.0826771631836891
  0
CIRCLE
  5
4EC
330
1F
100
AcDbEntity
  8
TFR-TRI
  6
Continuous
 62
   155
100
AcDbCircle
 10
31.1106185913086
 20
82.21606731414794
 30
0.0
 40
0.0984251946210861
  0
CIRCLE
  5
4ED
330
1F
100
AcDbEntity
  8
TFR-TRI
  6
Continuous
 62
   155
100
AcDbCircle
 10
31.1106185913086
 20
81.42866802215577
 30
0.0
 40
0.0826771631836891
  0
CIRCLE
  5
4EE
330
1F
100
AcDbEntity
  8
TFR-TRI
  6
Continuous
 62
   155
100
AcDbCircle
 10
31.1106185913086
 20
81.42866802215577
 30
0.0
 40
0.0984251946210861
  0
CIRCLE
  5
4EF
330
1F
100
AcDbEntity
  8
TFR-TRI
  6
Continuous
 62
   155
100
AcDbCircle
 10
31.1106185913086
 20
80.64125347137451
 30
0.0
 40
0.0826771631836891
  0
CIRCLE
  5
4F0
330
1F
100
AcDbEntity
  8
TFR-TRI
  6
Continuous
 62
   155
100
AcDbCircle
 10
31.1106185913086
 20
80.64125347137451
 30
0.0
 40
0.0984251946210861
  0
CIRCLE
  5
4F1
330
1F
100
AcDbEntity
  8
TFR-TRI
  6
Continuous
 62
   155
100
AcDbCircle
 10
31.1106185913086
 20
79.85385417938232
 30
0.0
 40
0.0826771631836891
  0
CIRCLE
  5
4F2
330
1F
100
AcDbEntity
  8
TFR-TRI
  6
Continuous
 62
   155
100
AcDbCircle
 10
31.1106185913086
 20
79.85385417938232
 30
0.0
 40
0.0984251946210861
  0
CIRCLE
  5
4F3
330
1F
100
AcDbEntity
  8
TFR-TRI
  6
Continuous
 62
   155
100
AcDbCircle
 10
31.1106185913086
 20
79.06645488739013
 30
0.0
 40
0.0826771631836891
  0
CIRCLE
  5
4F4
330
1F
100
AcDbEntity
  8
TFR-TRI
  6
Continuous
 62
   155
100
AcDbCircle
 10
31.1106185913086
 20
79.06645488739013
 30
0.0
 40
0.0984251946210861
  0
CIRCLE
  5
4F5
330
1F
100
AcDbEntity
  8
TFR-TRI
  6
Continuous
 62
   155
100
AcDbCircle
 10
27.50775909423828
 20
77.90504741668701
 30
0.0
 40
0.0826771631836891
  0
CIRCLE
  5
4F6
330
1F
100
AcDbEntity
  8
TFR-TRI
  6
Continuous
 62
   155
100
AcDbCircle
 10
27.50775909423828
 20
77.90504741668701
 30
0.0
 40
0.0984251946210861
  0
CIRCLE
  5
4F7
330
1F
100
AcDbEntity
  8
TFR-TRI
  6
Continuous
 62
   155
100
AcDbCircle
 10
28.94524383544922
 20
77.90504741668701
 30
0.0
 40
0.0826771631836891
  0
CIRCLE
  5
4F8
330
1F
100
AcDbEntity
  8
TFR-TRI
  6
Continuous
 62
   155
100
AcDbCircle
 10
28.94524383544922
 20
77.90504741668701
 30
0.0
 40
0.0984251946210861
  0
CIRCLE
  5
4F9
330
1F
100
AcDbEntity
  8
TFR-TRI
  6
Continuous
 62
   155
100
AcDbCircle
 10
27.50775909423828
 20
83.37750530242919
 30
0.0
 40
0.0826771631836891
  0
CIRCLE
  5
4FA
330
1F
100
AcDbEntity
  8
TFR-TRI
  6
Continuous
 62
   155
100
AcDbCircle
 10
27.50775909423828
 20
83.37750530242919
 30
0.0
 40
0.0984251946210861
  0
CIRCLE
  5
4FB
330
1F
100
AcDbEntity
  8
TFR-TRI
  6
Continuous
 62
   155
100
AcDbCircle
 10
28.94524383544922
 20
83.37750530242919
 30
0.0
 40
0.0826771631836891
  0
CIRCLE
  5
4FC
330
1F
100
AcDbEntity
  8
TFR-TRI
  6
Continuous
 62
   155
100
AcDbCircle
 10
28.94524383544922
 20
83.37750530242919
 30
0.0
 40
0.0984251946210861
  0
CIRCLE
  5
4FD
330
1F
100
AcDbEntity
  8
TFR-TRI
  6
Continuous
 62
   155
100
AcDbCircle
 10
31.1106185913086
 20
78.27905559539795
 30
0.0
 40
0.0984251946210861
  0
CIRCLE
  5
4FE
330
1F
100
AcDbEntity
  8
TFR-TRI
  6
Continuous
 62
   155
100
AcDbCircle
 10
30.38274383544922
 20
77.90504741668701
 30
0.0
 40
0.0984251946210861
  0
CIRCLE
  5
4FF
330
1F
100
AcDbEntity
  8
TFR-TRI
  6
Continuous
 62
   155
100
AcDbCircle
 10
30.38274383544922
 20
83.37750530242919
 30
0.0
 40
0.0984251946210861
  0
ARC
  5
500
330
1F
100
AcDbEntity
  8
TFR-TRI
  6
Continuous
 62
   155
100
AcDbCircle
 10
30.38274383544922
 20
82.39128398895264
 30
0.0
 40
0.4375
100
AcDbArc
 50
123.2690609648771
 51
236.7309390351228
  0
ARC
  5
501
330
1F
100
AcDbEntity
  8
TFR-TRI
  6
Continuous
 62
   155
100
AcDbCircle
 10
30.38274383544922
 20
82.90127849578857
 30
0.0
 40
0.239999994635582
100
AcDbArc
 50
0.0
 51
180.0
  0
ARC
  5
502
330
1F
100
AcDbEntity
  8
TFR-TRI
  6
Continuous
 62
   155
100
AcDbCircle
 10
30.38274383544922
 20
82.39128398895264
 30
0.0
 40
0.4375
100
AcDbArc
 50
303.2690609648772
 51
56.73093903512284
  0
ARC
  5
503
330
1F
100
AcDbEntity
  8
TFR-TRI
  6
Continuous
 62
   155
100
AcDbCircle
 10
30.38274383544922
 20
81.88127422332764
 30
0.0
 40
0.239999994635582
100
AcDbArc
 50
180.0
 51
0.0
  0
ARC
  5
504
330
1F
100
AcDbEntity
  8
TFR-TRI
  6
Continuous
 62
   155
100
AcDbCircle
 10
30.38274383544922
 20
78.89128398895263
 30
0.0
 40
0.4375
100
AcDbArc
 50
123.2690609648771
 51
236.7309390351228
  0
ARC
  5
505
330
1F
100
AcDbEntity
  8
TFR-TRI
  6
Continuous
 62
   155
100
AcDbCircle
 10
30.38274383544922
 20
79.40127849578857
 30
0.0
 40
0.239999994635582
100
AcDbArc
 50
0.0
 51
180.0
  0
ARC
  5
506
330
1F
100
AcDbEntity
  8
TFR-TRI
  6
Continuous
 62
   155
100
AcDbCircle
 10
30.38274383544922
 20
78.89128398895263
 30
0.0
 40
0.4375
100
AcDbArc
 50
303.2690609648772
 51
56.73093903512284
  0
ARC
  5
507
330
1F
100
AcDbEntity
  8
TFR-TRI
  6
Continuous
 62
   155
100
AcDbCircle
 10
30.38274383544922
 20
78.38127422332764
 30
0.0
 40
0.239999994635582
100
AcDbArc
 50
180.0
 51
0.0
  0
ARC
  5
508
330
1F
100
AcDbEntity
  8
TFR-TRI
  6
Continuous
 62
   155
100
AcDbCircle
 10
27.50775909423828
 20
80.13127422332763
 30
0.0
 40
0.239999994635582
100
AcDbArc
 50
180.0
 51
0.0
  0
ARC
  5
509
330
1F
100
AcDbEntity
  8
TFR-TRI
  6
Continuous
 62
   155
100
AcDbCircle
 10
27.50775909423828
 20
80.64128398895263
 30
0.0
 40
0.4375
100
AcDbArc
 50
123.2690609648771
 51
236.7309390351228
  0
ARC
  5
50A
330
1F
100
AcDbEntity
  8
TFR-TRI
  6
Continuous
 62
   155
100
AcDbCircle
 10
27.50775909423828
 20
81.15127849578858
 30
0.0
 40
0.239999994635582
100
AcDbArc
 50
0.0
 51
180.0
  0
ARC
  5
50B
330
1F
100
AcDbEntity
  8
TFR-TRI
  6
Continuous
 62
   155
100
AcDbCircle
 10
27.50775909423828
 20
80.64128398895263
 30
0.0
 40
0.4375
100
AcDbArc
 50
303.2690609648772
 51
56.73093903512284
  0
ARC
  5
50C
330
1F
100
AcDbEntity
  8
TFR-TRI
  6
Continuous
 62
   155
100
AcDbCircle
 10
28.94524383544922
 20
80.13127422332763
 30
0.0
 40
0.239999994635582
100
AcDbArc
 50
180.0
 51
0.0
  0
ARC
  5
50D
330
1F
100
AcDbEntity
  8
TFR-TRI
  6
Continuous
 62
   155
100
AcDbCircle
 10
28.94524383544922
 20
80.64128398895263
 30
0.0
 40
0.4375
100
AcDbArc
 50
123.2690609648771
 51
236.7309390351228
  0
ARC
  5
50E
330
1F
100
AcDbEntity
  8
TFR-TRI
  6
Continuous
 62
   155
100
AcDbCircle
 10
28.94524383544922
 20
81.15127849578858
 30
0.0
 40
0.239999994635582
100
AcDbArc
 50
0.0
 51
180.0
  0
ARC
  5
50F
330
1F
100
AcDbEntity
  8
TFR-TRI
  6
Continuous
 62
   155
100
AcDbCircle
 10
28.94524383544922
 20
80.64128398895263
 30
0.0
 40
0.4375
100
AcDbArc
 50
303.2690609648772
 51
56.73093903512284
  0
ARC
  5
510
330
1F
100
AcDbEntity
  8
TFR-TRI
  6
Continuous
 62
   155
100
AcDbCircle
 10
30.38274383544922
 20
80.13127422332763
 30
0.0
 40
0.239999994635582
100
AcDbArc
 50
180.0
 51
0.0
  0
ARC
  5
511
330
1F
100
AcDbEntity
  8
TFR-TRI
  6
Continuous
 62
   155
100
AcDbCircle
 10
30.38274383544922
 20
80.64128398895263
 30
0.0
 40
0.4375
100
AcDbArc
 50
123.2690609648771
 51
236.7309390351228
  0
ARC
  5
512
330
1F
100
AcDbEntity
  8
TFR-TRI
  6
Continuous
 62
   155
100
AcDbCircle
 10
30.38274383544922
 20
81.15127849578858
 30
0.0
 40
0.239999994635582
100
AcDbArc
 50
0.0
 51
180.0
  0
ARC
  5
513
330
1F
100
AcDbEntity
  8
TFR-TRI
  6
Continuous
 62
   155
100
AcDbCircle
 10
30.38274383544922
 20
80.64128398895263
 30
0.0
 40
0.4375
100
AcDbArc
 50
303.2690609648772
 51
56.73093903512284
  0
ARC
  5
514
330
1F
100
AcDbEntity
  8
TFR-TRI
  6
Continuous
 62
   155
100
AcDbCircle
 10
28.13275909423828
 20
78.89128398895263
 30
0.0
 40
0.4375
100
AcDbArc
 50
123.2690609648771
 51
236.7309390351228
  0
ARC
  5
515
330
1F
100
AcDbEntity
  8
TFR-TRI
  6
Continuous
 62
   155
100
AcDbCircle
 10
28.13275909423828
 20
79.40127849578857
 30
0.0
 40
0.239999994635582
100
AcDbArc
 50
0.0
 51
180.0
  0
ARC
  5
516
330
1F
100
AcDbEntity
  8
TFR-TRI
  6
Continuous
 62
   155
100
AcDbCircle
 10
28.13275909423828
 20
78.89128398895263
 30
0.0
 40
0.4375
100
AcDbArc
 50
303.2690609648772
 51
56.73093903512284
  0
ARC
  5
517
330
1F
100
AcDbEntity
  8
TFR-TRI
  6
Continuous
 62
   155
100
AcDbCircle
 10
28.13275909423828
 20
78.38127422332764
 30
0.0
 40
0.239999994635582
100
AcDbArc
 50
180.0
 51
0.0
  0
ARC
  5
518
330
1F
100
AcDbEntity
  8
TFR-TRI
  6
Continuous
 62
   155
100
AcDbCircle
 10
28.13275909423828
 20
82.39128398895264
 30
0.0
 40
0.4375
100
AcDbArc
 50
123.2690609648771
 51
236.7309390351228
  0
ARC
  5
519
330
1F
100
AcDbEntity
  8
TFR-TRI
  6
Continuous
 62
   155
100
AcDbCircle
 10
28.13275909423828
 20
82.90127849578857
 30
0.0
 40
0.239999994635582
100
AcDbArc
 50
0.0
 51
180.0
  0
ARC
  5
51A
330
1F
100
AcDbEntity
  8
TFR-TRI
  6
Continuous
 62
   155
100
AcDbCircle
 10
28.13275909423828
 20
82.39128398895264
 30
0.0
 40
0.4375
100
AcDbArc
 50
303.2690609648772
 51
56.73093903512284
  0
ARC
  5
51B
330
1F
100
AcDbEntity
  8
TFR-TRI
  6
Continuous
 62
   155
100
AcDbCircle
 10
28.13275909423828
 20
81.88127422332764
 30
0.0
 40
0.239999994635582
100
AcDbArc
 50
180.0
 51
0.0
  0
CIRCLE
  5
51C
330
1F
100
AcDbEntity
  8
TFR-TRI
  6
Continuous
 62
   155
100
AcDbCircle
 10
32.23558807373047
 20
82.82878398895263
 30
0.0
 40
0.0885826796293259
  0
CIRCLE
  5
51D
330
1F
100
AcDbEntity
  8
TFR-TRI
  6
Continuous
 62
   155
100
AcDbCircle
 10
32.23558807373047
 20
78.01628398895264
 30
0.0
 40
0.0984251946210861
  0
CIRCLE
  5
51E
330
1F
100
AcDbEntity
  8
TFR-TRI
  6
Continuous
 62
   155
100
AcDbCircle
 10
30.38274383544922
 20
83.37750530242919
 30
0.0
 40
0.0826771631836891
  0
CIRCLE
  5
51F
330
1F
100
AcDbEntity
  8
TFR-TRI
  6
Continuous
 62
   155
100
AcDbCircle
 10
30.38274383544922
 20
77.90504741668701
 30
0.0
 40
0.0826771631836891
  0
CIRCLE
  5
520
330
1F
100
AcDbEntity
  8
TFR-TRI
  6
Continuous
 62
   155
100
AcDbCircle
 10
31.1106185913086
 20
78.27905559539795
 30
0.0
 40
0.0826771631836891
  0
CIRCLE
  5
521
330
1F
100
AcDbEntity
  8
TFR-TRI
  6
Continuous
 62
   155
100
AcDbCircle
 10
32.23558807373047
 20
78.01628398895264
 30
0.0
 40
0.0826771631836891
  0
CIRCLE
  5
522
330
1F
100
AcDbEntity
  8
TFR-TRI
  6
Continuous
 62
   155
100
AcDbCircle
 10
32.23558807373047
 20
13.7037763595581
 30
0.0
 40
0.0885826796293259
  0
CIRCLE
  5
523
330
1F
100
AcDbEntity
  8
TFR-TRI
  6
Continuous
 62
   155
100
AcDbCircle
 10
32.23558807373047
 20
14.5787763595581
 30
0.0
 40
0.0885826796293259
  0
CIRCLE
  5
524
330
1F
100
AcDbEntity
  8
TFR-TRI
  6
Continuous
 62
   155
100
AcDbCircle
 10
32.23558807373047
 20
15.4537763595581
 30
0.0
 40
0.0885826796293259
  0
CIRCLE
  5
525
330
1F
100
AcDbEntity
  8
TFR-TRI
  6
Continuous
 62
   155
100
AcDbCircle
 10
32.23558807373047
 20
16.3287763595581
 30
0.0
 40
0.0885826796293259
  0
CIRCLE
  5
526
330
1F
100
AcDbEntity
  8
TFR-TRI
  6
Continuous
 62
   155
100
AcDbCircle
 10
32.23558807373047
 20
17.2037763595581
 30
0.0
 40
0.0885826796293259
  0
CIRCLE
  5
527
330
1F
100
AcDbEntity
  8
TFR-TRI
  6
Continuous
 62
   155
100
AcDbCircle
 10
32.23558807373047
 20
18.5162763595581
 30
0.0
 40
0.0826771631836891
  0
CIRCLE
  5
528
330
1F
100
AcDbEntity
  8
TFR-TRI
  6
Continuous
 62
   155
100
AcDbCircle
 10
32.23558807373047
 20
18.5162763595581
 30
0.0
 40
0.0984251946210861
  0
CIRCLE
  5
529
330
1F
100
AcDbEntity
  8
TFR-TRI
  6
Continuous
 62
   155
100
AcDbCircle
 10
32.23558807373047
 20
17.6412763595581
 30
0.0
 40
0.0826771631836891
  0
CIRCLE
  5
52A
330
1F
100
AcDbEntity
  8
TFR-TRI
  6
Continuous
 62
   155
100
AcDbCircle
 10
32.23558807373047
 20
17.6412763595581
 30
0.0
 40
0.0984251946210861
  0
CIRCLE
  5
52B
330
1F
100
AcDbEntity
  8
TFR-TRI
  6
Continuous
 62
   155
100
AcDbCircle
 10
32.23558807373047
 20
16.7662763595581
 30
0.0
 40
0.0826771631836891
  0
CIRCLE
  5
52C
330
1F
100
AcDbEntity
  8
TFR-TRI
  6
Continuous
 62
   155
100
AcDbCircle
 10
32.23558807373047
 20
16.7662763595581
 30
0.0
 40
0.0984251946210861
  0
CIRCLE
  5
52D
330
1F
100
AcDbEntity
  8
TFR-TRI
  6
Continuous
 62
   155
100
AcDbCircle
 10
32.23558807373047
 20
15.8912763595581
 30
0.0
 40
0.0826771631836891
  0
CIRCLE
  5
52E
330
1F
100
AcDbEntity
  8
TFR-TRI
  6
Continuous
 62
   155
100
AcDbCircle
 10
32.23558807373047
 20
15.8912763595581
 30
0.0
 40
0.0984251946210861
  0
CIRCLE
  5
52F
330
1F
100
AcDbEntity
  8
TFR-TRI
  6
Continuous
 62
   155
100
AcDbCircle
 10
32.23558807373047
 20
15.0162763595581
 30
0.0
 40
0.0826771631836891
  0
CIRCLE
  5
530
330
1F
100
AcDbEntity
  8
TFR-TRI
  6
Continuous
 62
   155
100
AcDbCircle
 10
32.23558807373047
 20
15.0162763595581
 30
0.0
 40
0.0984251946210861
  0
CIRCLE
  5
531
330
1F
100
AcDbEntity
  8
TFR-TRI
  6
Continuous
 62
   155
100
AcDbCircle
 10
32.23558807373047
 20
14.1412763595581
 30
0.0
 40
0.0826771631836891
  0
CIRCLE
  5
532
330
1F
100
AcDbEntity
  8
TFR-TRI
  6
Continuous
 62
   155
100
AcDbCircle
 10
32.23558807373047
 20
14.1412763595581
 30
0.0
 40
0.0984251946210861
  0
CIRCLE
  5
533
330
1F
100
AcDbEntity
  8
TFR-TRI
  6
Continuous
 62
   155
100
AcDbCircle
 10
26.77989959716797
 20
18.25346660614014
 30
0.0
 40
0.0826771631836891
  0
CIRCLE
  5
534
330
1F
100
AcDbEntity
  8
TFR-TRI
  6
Continuous
 62
   155
100
AcDbCircle
 10
26.77989959716797
 20
18.25346660614014
 30
0.0
 40
0.0984251946210861
  0
CIRCLE
  5
535
330
1F
100
AcDbEntity
  8
TFR-TRI
  6
Continuous
 62
   155
100
AcDbCircle
 10
26.77989959716797
 20
17.46606731414795
 30
0.0
 40
0.0826771631836891
  0
CIRCLE
  5
536
330
1F
100
AcDbEntity
  8
TFR-TRI
  6
Continuous
 62
   155
100
AcDbCircle
 10
26.77989959716797
 20
17.46606731414795
 30
0.0
 40
0.0984251946210861
  0
CIRCLE
  5
537
330
1F
100
AcDbEntity
  8
TFR-TRI
  6
Continuous
 62
   155
100
AcDbCircle
 10
26.77989959716797
 20
16.67866039276123
 30
0.0
 40
0.0826771631836891
  0
CIRCLE
  5
538
330
1F
100
AcDbEntity
  8
TFR-TRI
  6
Continuous
 62
   155
100
AcDbCircle
 10
26.77989959716797
 20
16.67866039276123
 30
0.0
 40
0.0984251946210861
  0
CIRCLE
  5
539
330
1F
100
AcDbEntity
  8
TFR-TRI
  6
Continuous
 62
   155
100
AcDbCircle
 10
26.77989959716797
 20
15.89126110076904
 30
0.0
 40
0.0826771631836891
  0
CIRCLE
  5
53A
330
1F
100
AcDbEntity
  8
TFR-TRI
  6
Continuous
 62
   155
100
AcDbCircle
 10
26.77989959716797
 20
15.89126110076904
 30
0.0
 40
0.0984251946210861
  0
CIRCLE
  5
53B
330
1F
100
AcDbEntity
  8
TFR-TRI
  6
Continuous
 62
   155
100
AcDbCircle
 10
26.77989959716797
 20
15.10386180877685
 30
0.0
 40
0.0826771631836891
  0
CIRCLE
  5
53C
330
1F
100
AcDbEntity
  8
TFR-TRI
  6
Continuous
 62
   155
100
AcDbCircle
 10
26.77989959716797
 20
15.10386180877685
 30
0.0
 40
0.0984251946210861
  0
CIRCLE
  5
53D
330
1F
100
AcDbEntity
  8
TFR-TRI
  6
Continuous
 62
   155
100
AcDbCircle
 10
26.77989959716797
 20
14.31645488739014
 30
0.0
 40
0.0826771631836891
  0
CIRCLE
  5
53E
330
1F
100
AcDbEntity
  8
TFR-TRI
  6
Continuous
 62
   155
100
AcDbCircle
 10
26.77989959716797
 20
14.31645488739014
 30
0.0
 40
0.0984251946210861
  0
CIRCLE
  5
53F
330
1F
100
AcDbEntity
  8
TFR-TRI
  6
Continuous
 62
   155
100
AcDbCircle
 10
26.77989959716797
 20
13.52905559539795
 30
0.0
 40
0.0826771631836891
  0
CIRCLE
  5
540
330
1F
100
AcDbEntity
  8
TFR-TRI
  6
Continuous
 62
   155
100
AcDbCircle
 10
26.77989959716797
 20
13.52905559539795
 30
0.0
 40
0.0984251946210861
  0
CIRCLE
  5
541
330
1F
100
AcDbEntity
  8
TFR-TRI
  6
Continuous
 62
   155
100
AcDbCircle
 10
31.1106185913086
 20
18.25346660614014
 30
0.0
 40
0.0826771631836891
  0
CIRCLE
  5
542
330
1F
100
AcDbEntity
  8
TFR-TRI
  6
Continuous
 62
   155
100
AcDbCircle
 10
31.1106185913086
 20
18.25346660614014
 30
0.0
 40
0.0984251946210861
  0
CIRCLE
  5
543
330
1F
100
AcDbEntity
  8
TFR-TRI
  6
Continuous
 62
   155
100
AcDbCircle
 10
31.1106185913086
 20
17.46606731414795
 30
0.0
 40
0.0826771631836891
  0
CIRCLE
  5
544
330
1F
100
AcDbEntity
  8
TFR-TRI
  6
Continuous
 62
   155
100
AcDbCircle
 10
31.1106185913086
 20
17.46606731414795
 30
0.0
 40
0.0984251946210861
  0
CIRCLE
  5
545
330
1F
100
AcDbEntity
  8
TFR-TRI
  6
Continuous
 62
   155
100
AcDbCircle
 10
31.1106185913086
 20
16.67866039276123
 30
0.0
 40
0.0826771631836891
  0
CIRCLE
  5
546
330
1F
100
AcDbEntity
  8
TFR-TRI
  6
Continuous
 62
   155
100
AcDbCircle
 10
31.1106185913086
 20
16.67866039276123
 30
0.0
 40
0.0984251946210861
  0
CIRCLE
  5
547
330
1F
100
AcDbEntity
  8
TFR-TRI
  6
Continuous
 62
   155
100
AcDbCircle
 10
31.1106185913086
 20
15.89126110076904
 30
0.0
 40
0.0826771631836891
  0
CIRCLE
  5
548
330
1F
100
AcDbEntity
  8
TFR-TRI
  6
Continuous
 62
   155
100
AcDbCircle
 10
31.1106185913086
 20
15.89126110076904
 30
0.0
 40
0.0984251946210861
  0
CIRCLE
  5
549
330
1F
100
AcDbEntity
  8
TFR-TRI
  6
Continuous
 62
   155
100
AcDbCircle
 10
31.1106185913086
 20
15.10386180877685
 30
0.0
 40
0.0826771631836891
  0
CIRCLE
  5
54A
330
1F
100
AcDbEntity
  8
TFR-TRI
  6
Continuous
 62
   155
100
AcDbCircle
 10
31.1106185913086
 20
15.10386180877685
 30
0.0
 40
0.0984251946210861
  0
CIRCLE
  5
54B
330
1F
100
AcDbEntity
  8
TFR-TRI
  6
Continuous
 62
   155
100
AcDbCircle
 10
31.1106185913086
 20
14.31645488739014
 30
0.0
 40
0.0826771631836891
  0
CIRCLE
  5
54C
330
1F
100
AcDbEntity
  8
TFR-TRI
  6
Continuous
 62
   155
100
AcDbCircle
 10
31.1106185913086
 20
14.31645488739014
 30
0.0
 40
0.0984251946210861
  0
CIRCLE
  5
54D
330
1F
100
AcDbEntity
  8
TFR-TRI
  6
Continuous
 62
   155
100
AcDbCircle
 10
27.50775909423828
 20
13.15504741668701
 30
0.0
 40
0.0826771631836891
  0
CIRCLE
  5
54E
330
1F
100
AcDbEntity
  8
TFR-TRI
  6
Continuous
 62
   155
100
AcDbCircle
 10
27.50775909423828
 20
13.15504741668701
 30
0.0
 40
0.0984251946210861
  0
CIRCLE
  5
54F
330
1F
100
AcDbEntity
  8
TFR-TRI
  6
Continuous
 62
   155
100
AcDbCircle
 10
28.94524383544922
 20
13.15504741668701
 30
0.0
 40
0.0826771631836891
  0
CIRCLE
  5
550
330
1F
100
AcDbEntity
  8
TFR-TRI
  6
Continuous
 62
   155
100
AcDbCircle
 10
28.94524383544922
 20
13.15504741668701
 30
0.0
 40
0.0984251946210861
  0
CIRCLE
  5
551
330
1F
100
AcDbEntity
  8
TFR-TRI
  6
Continuous
 62
   155
100
AcDbCircle
 10
27.50775909423828
 20
18.6275053024292
 30
0.0
 40
0.0826771631836891
  0
CIRCLE
  5
552
330
1F
100
AcDbEntity
  8
TFR-TRI
  6
Continuous
 62
   155
100
AcDbCircle
 10
27.50775909423828
 20
18.6275053024292
 30
0.0
 40
0.0984251946210861
  0
CIRCLE
  5
553
330
1F
100
AcDbEntity
  8
TFR-TRI
  6
Continuous
 62
   155
100
AcDbCircle
 10
28.94524383544922
 20
18.6275053024292
 30
0.0
 40
0.0826771631836891
  0
CIRCLE
  5
554
330
1F
100
AcDbEntity
  8
TFR-TRI
  6
Continuous
 62
   155
100
AcDbCircle
 10
28.94524383544922
 20
18.6275053024292
 30
0.0
 40
0.0984251946210861
  0
CIRCLE
  5
555
330
1F
100
AcDbEntity
  8
TFR-TRI
  6
Continuous
 62
   155
100
AcDbCircle
 10
31.1106185913086
 20
13.52905559539795
 30
0.0
 40
0.0984251946210861
  0
CIRCLE
  5
556
330
1F
100
AcDbEntity
  8
TFR-TRI
  6
Continuous
 62
   155
100
AcDbCircle
 10
30.38274383544922
 20
13.15504741668701
 30
0.0
 40
0.0984251946210861
  0
CIRCLE
  5
557
330
1F
100
AcDbEntity
  8
TFR-TRI
  6
Continuous
 62
   155
100
AcDbCircle
 10
30.38274383544922
 20
18.6275053024292
 30
0.0
 40
0.0984251946210861
  0
ARC
  5
558
330
1F
100
AcDbEntity
  8
TFR-TRI
  6
Continuous
 62
   155
100
AcDbCircle
 10
30.38274383544922
 20
17.6412763595581
 30
0.0
 40
0.4375
100
AcDbArc
 50
123.2690609648771
 51
236.7309390351228
  0
ARC
  5
559
330
1F
100
AcDbEntity
  8
TFR-TRI
  6
Continuous
 62
   155
100
AcDbCircle
 10
30.38274383544922
 20
18.15127849578857
 30
0.0
 40
0.239999994635582
100
AcDbArc
 50
0.0
 51
180.0
  0
ARC
  5
55A
330
1F
100
AcDbEntity
  8
TFR-TRI
  6
Continuous
 62
   155
100
AcDbCircle
 10
30.38274383544922
 20
17.6412763595581
 30
0.0
 40
0.4375
100
AcDbArc
 50
303.2690609648772
 51
56.73093903512284
  0
ARC
  5
55B
330
1F
100
AcDbEntity
  8
TFR-TRI
  6
Continuous
 62
   155
100
AcDbCircle
 10
30.38274383544922
 20
17.13127422332763
 30
0.0
 40
0.239999994635582
100
AcDbArc
 50
180.0
 51
0.0
  0
ARC
  5
55C
330
1F
100
AcDbEntity
  8
TFR-TRI
  6
Continuous
 62
   155
100
AcDbCircle
 10
30.38274383544922
 20
14.1412763595581
 30
0.0
 40
0.4375
100
AcDbArc
 50
123.2690609648771
 51
236.7309390351228
  0
ARC
  5
55D
330
1F
100
AcDbEntity
  8
TFR-TRI
  6
Continuous
 62
   155
100
AcDbCircle
 10
30.38274383544922
 20
14.65127849578857
 30
0.0
 40
0.239999994635582
100
AcDbArc
 50
0.0
 51
180.0
  0
ARC
  5
55E
330
1F
100
AcDbEntity
  8
TFR-TRI
  6
Continuous
 62
   155
100
AcDbCircle
 10
30.38274383544922
 20
14.1412763595581
 30
0.0
 40
0.4375
100
AcDbArc
 50
303.2690609648772
 51
56.73093903512284
  0
ARC
  5
55F
330
1F
100
AcDbEntity
  8
TFR-TRI
  6
Continuous
 62
   155
100
AcDbCircle
 10
30.38274383544922
 20
13.63127422332764
 30
0.0
 40
0.239999994635582
100
AcDbArc
 50
180.0
 51
0.0
  0
ARC
  5
560
330
1F
100
AcDbEntity
  8
TFR-TRI
  6
Continuous
 62
   155
100
AcDbCircle
 10
27.50775909423828
 20
15.38127422332763
 30
0.0
 40
0.239999994635582
100
AcDbArc
 50
180.0
 51
0.0
  0
ARC
  5
561
330
1F
100
AcDbEntity
  8
TFR-TRI
  6
Continuous
 62
   155
100
AcDbCircle
 10
27.50775909423828
 20
15.8912763595581
 30
0.0
 40
0.4375
100
AcDbArc
 50
123.2690609648771
 51
236.7309390351228
  0
ARC
  5
562
330
1F
100
AcDbEntity
  8
TFR-TRI
  6
Continuous
 62
   155
100
AcDbCircle
 10
27.50775909423828
 20
16.40127849578857
 30
0.0
 40
0.239999994635582
100
AcDbArc
 50
0.0
 51
180.0
  0
ARC
  5
563
330
1F
100
AcDbEntity
  8
TFR-TRI
  6
Continuous
 62
   155
100
AcDbCircle
 10
27.50775909423828
 20
15.8912763595581
 30
0.0
 40
0.4375
100
AcDbArc
 50
303.2690609648772
 51
56.73093903512284
  0
ARC
  5
564
330
1F
100
AcDbEntity
  8
TFR-TRI
  6
Continuous
 62
   155
100
AcDbCircle
 10
28.94524383544922
 20
15.38127422332763
 30
0.0
 40
0.239999994635582
100
AcDbArc
 50
180.0
 51
0.0
  0
ARC
  5
565
330
1F
100
AcDbEntity
  8
TFR-TRI
  6
Continuous
 62
   155
100
AcDbCircle
 10
28.94524383544922
 20
15.8912763595581
 30
0.0
 40
0.4375
100
AcDbArc
 50
123.2690609648771
 51
236.7309390351228
  0
ARC
  5
566
330
1F
100
AcDbEntity
  8
TFR-TRI
  6
Continuous
 62
   155
100
AcDbCircle
 10
28.94524383544922
 20
16.40127849578857
 30
0.0
 40
0.239999994635582
100
AcDbArc
 50
0.0
 51
180.0
  0
ARC
  5
567
330
1F
100
AcDbEntity
  8
TFR-TRI
  6
Continuous
 62
   155
100
AcDbCircle
 10
28.94524383544922
 20
15.8912763595581
 30
0.0
 40
0.4375
100
AcDbArc
 50
303.2690609648772
 51
56.73093903512284
  0
ARC
  5
568
330
1F
100
AcDbEntity
  8
TFR-TRI
  6
Continuous
 62
   155
100
AcDbCircle
 10
30.38274383544922
 20
15.38127422332763
 30
0.0
 40
0.239999994635582
100
AcDbArc
 50
180.0
 51
0.0
  0
ARC
  5
569
330
1F
100
AcDbEntity
  8
TFR-TRI
  6
Continuous
 62
   155
100
AcDbCircle
 10
30.38274383544922
 20
15.8912763595581
 30
0.0
 40
0.4375
100
AcDbArc
 50
123.2690609648771
 51
236.7309390351228
  0
ARC
  5
56A
330
1F
100
AcDbEntity
  8
TFR-TRI
  6
Continuous
 62
   155
100
AcDbCircle
 10
30.38274383544922
 20
16.40127849578857
 30
0.0
 40
0.239999994635582
100
AcDbArc
 50
0.0
 51
180.0
  0
ARC
  5
56B
330
1F
100
AcDbEntity
  8
TFR-TRI
  6
Continuous
 62
   155
100
AcDbCircle
 10
30.38274383544922
 20
15.8912763595581
 30
0.0
 40
0.4375
100
AcDbArc
 50
303.2690609648772
 51
56.73093903512284
  0
ARC
  5
56C
330
1F
100
AcDbEntity
  8
TFR-TRI
  6
Continuous
 62
   155
100
AcDbCircle
 10
28.13275909423828
 20
14.1412763595581
 30
0.0
 40
0.4375
100
AcDbArc
 50
123.2690609648771
 51
236.7309390351228
  0
ARC
  5
56D
330
1F
100
AcDbEntity
  8
TFR-TRI
  6
Continuous
 62
   155
100
AcDbCircle
 10
28.13275909423828
 20
14.65127849578857
 30
0.0
 40
0.239999994635582
100
AcDbArc
 50
0.0
 51
180.0
  0
ARC
  5
56E
330
1F
100
AcDbEntity
  8
TFR-TRI
  6
Continuous
 62
   155
100
AcDbCircle
 10
28.13275909423828
 20
14.1412763595581
 30
0.0
 40
0.4375
100
AcDbArc
 50
303.2690609648772
 51
56.73093903512284
  0
ARC
  5
56F
330
1F
100
AcDbEntity
  8
TFR-TRI
  6
Continuous
 62
   155
100
AcDbCircle
 10
28.13275909423828
 20
13.63127422332764
 30
0.0
 40
0.239999994635582
100
AcDbArc
 50
180.0
 51
0.0
  0
ARC
  5
570
330
1F
100
AcDbEntity
  8
TFR-TRI
  6
Continuous
 62
   155
100
AcDbCircle
 10
28.13275909423828
 20
17.6412763595581
 30
0.0
 40
0.4375
100
AcDbArc
 50
123.2690609648771
 51
236.7309390351228
  0
ARC
  5
571
330
1F
100
AcDbEntity
  8
TFR-TRI
  6
Continuous
 62
   155
100
AcDbCircle
 10
28.13275909423828
 20
18.15127849578857
 30
0.0
 40
0.239999994635582
100
AcDbArc
 50
0.0
 51
180.0
  0
ARC
  5
572
330
1F
100
AcDbEntity
  8
TFR-TRI
  6
Continuous
 62
   155
100
AcDbCircle
 10
28.13275909423828
 20
17.6412763595581
 30
0.0
 40
0.4375
100
AcDbArc
 50
303.2690609648772
 51
56.73093903512284
  0
ARC
  5
573
330
1F
100
AcDbEntity
  8
TFR-TRI
  6
Continuous
 62
   155
100
AcDbCircle
 10
28.13275909423828
 20
17.13127422332763
 30
0.0
 40
0.239999994635582
100
AcDbArc
 50
180.0
 51
0.0
  0
CIRCLE
  5
574
330
1F
100
AcDbEntity
  8
TFR-TRI
  6
Continuous
 62
   155
100
AcDbCircle
 10
32.23558807373047
 20
18.0787763595581
 30
0.0
 40
0.0885826796293259
  0
CIRCLE
  5
575
330
1F
100
AcDbEntity
  8
TFR-TRI
  6
Continuous
 62
   155
100
AcDbCircle
 10
32.23558807373047
 20
13.2662763595581
 30
0.0
 40
0.0984251946210861
  0
CIRCLE
  5
576
330
1F
100
AcDbEntity
  8
TFR-TRI
  6
Continuous
 62
   155
100
AcDbCircle
 10
30.38274383544922
 20
18.6275053024292
 30
0.0
 40
0.0826771631836891
  0
CIRCLE
  5
577
330
1F
100
AcDbEntity
  8
TFR-TRI
  6
Continuous
 62
   155
100
AcDbCircle
 10
30.38274383544922
 20
13.15504741668701
 30
0.0
 40
0.0826771631836891
  0
CIRCLE
  5
578
330
1F
100
AcDbEntity
  8
TFR-TRI
  6
Continuous
 62
   155
100
AcDbCircle
 10
31.1106185913086
 20
13.52905559539795
 30
0.0
 40
0.0826771631836891
  0
CIRCLE
  5
579
330
1F
100
AcDbEntity
  8
TFR-TRI
  6
Continuous
 62
   155
100
AcDbCircle
 10
32.23558807373047
 20
13.2662763595581
 30
0.0
 40
0.0826771631836891
  0
ENDSEC
  0
SECTION
  2
OBJECTS
  0
DICTIONARY
  5
C
330
0
100
AcDbDictionary
281
     1
  3
ACAD_CIP_PREVIOUS_PRODUCT_INFO
350
5D5
  3
ACAD_COLOR
350
5BD
  3
ACAD_GROUP
350
D
  3
ACAD_LAYOUT
350
1A
  3
ACAD_MATERIAL
350
3B
  3
ACAD_MLEADERSTYLE
350
5B1
  3
ACAD_MLINESTYLE
350
17
  3
ACAD_PLOTSETTINGS
350
19
  3
ACAD_PLOTSTYLENAME
350
E
  3
ACAD_SCALELIST
350
5BF
  3
ACAD_TABLESTYLE
350
5B0
  3
ACAD_VISUALSTYLE
350
2A
  3
ACDB_RECOMPOSE_DATA
350
69C
  3
AcDbVariableDictionary
350
68F
  3
DWGPROPS
350
69D
  0
DICTIONARY
  5
5D6
330
10
100
AcDbDictionary
280
     1
281
     1
  3
ADSK_XREC_LAYER_RECONCILED
360
5D7
  0
DICTIONARY
  5
5D8
330
46
100
AcDbDictionary
280
     1
281
     1
  3
ADSK_XREC_LAYER_RECONCILED
360
5D9
  0
XRECORD
  5
5D5
102
{ACAD_REACTORS
330
C
102
}
330
C
100
AcDbXrecord
280
     1
300
ACD
300
2012
300
85730ACD_2012_0F
  0
DICTIONARY
  5
5BD
102
{ACAD_REACTORS
330
C
102
}
330
C
100
AcDbDictionary
281
     1
  0
DICTIONARY
  5
D
102
{ACAD_REACTORS
330
C
102
}
330
C
100
AcDbDictionary
281
     1
  0
DICTIONARY
  5
1A
102
{ACAD_REACTORS
330
C
102
}
330
C
100
AcDbDictionary
281
     1
  3
Layout1
350
1E
  3
Layout2
350
26
  3
Model
350
22
  0
DICTIONARY
  5
3B
102
{ACAD_REACTORS
330
C
102
}
330
C
100
AcDbDictionary
281
     1
  3
BYBLOCK
350
3D
  3
BYLAYER
350
3C
  3
Global
350
3E
  0
DICTIONARY
  5
5B1
102
{ACAD_REACTORS
330
C
102
}
330
C
100
AcDbDictionary
281
     1
  3
Standard
350
5D1
  0
DICTIONARY
  5
17
102
{ACAD_REACTORS
330
C
102
}
330
C
100
AcDbDictionary
281
     1
  3
Standard
350
18
  0
DICTIONARY
  5
19
102
{ACAD_REACTORS
330
C
102
}
330
C
100
AcDbDictionary
281
     1
  0
ACDBDICTIONARYWDFLT
  5
E
102
{ACAD_REACTORS
330
C
102
}
330
C
100
AcDbDictionary
281
     1
  3
Normal
350
F
100
AcDbDictionaryWithDefault
340
F
  0
DICTIONARY
  5
5BF
102
{ACAD_REACTORS
330
C
102
}
330
C
100
AcDbDictionary
281
     1
  3
A0
350
5C0
  3
A1
350
5C1
  3
A2
350
5C2
  3
A3
350
5C3
  3
A4
350
5C4
  3
A5
350
5C5
  3
A6
350
5C6
  3
A7
350
5C7
  3
A8
350
5C8
  3
A9
350
5C9
  3
B0
350
5CA
  3
B1
350
5CB
  3
B2
350
5CC
  3
B3
350
5CD
  3
B4
350
5CE
  3
B5
350
5CF
  3
B6
350
5D0
  0
DICTIONARY
  5
5B0
102
{ACAD_REACTORS
330
C
102
}
330
C
100
AcDbDictionary
281
     1
  3
Standard
350
5BE
  0
DICTIONARY
  5
2A
102
{ACAD_REACTORS
330
C
102
}
330
C
100
AcDbDictionary
281
     1
  3
2dWireframe
350
2F
  3
3D Hidden
350
31
  3
3dWireframe
350
30
  3
Basic
350
32
  3
Brighten
350
36
  3
ColorChange
350
3A
  3
Conceptual
350
34
  3
Dim
350
35
  3
EdgeColorOff
350
5BC
  3
Facepattern
350
39
  3
Flat
350
2B
  3
FlatWithEdges
350
2C
  3
Gouraud
350
2D
  3
GouraudWithEdges
350
2E
  3
Hidden
350
5B4
  3
JitterOff
350
5BA
  3
Linepattern
350
38
  3
OverhangOff
350
5BB
  3
Realistic
350
33
  3
Shaded
350
5B9
  3
Shaded with edges
350
5B8
  3
Shades of Gray
350
5B5
  3
Sketchy
350
5B6
  3
Thicken
350
37
  3
Wireframe
350
5B3
  3
X-Ray
350
5B7
  0
XRECORD
  5
69C
102
{ACAD_REACTORS
330
C
102
}
330
C
100
AcDbXrecord
280
     1
 90
        1
330
5BE
  0
DICTIONARY
  5
68F
102
{ACAD_REACTORS
330
C
102
}
330
C
100
AcDbDictionary
281
     1
  3
CANNOSCALE
350
692
  3
CMLEADERSTYLE
350
691
  3
CTABLESTYLE
350
690
  3
DIMASSOC
350
697
  3
HIDETEXT
350
695
  3
INDEXCTL
350
694
  3
SORTENTS
350
693
  3
XCLIPFRAME
350
696
  0
XRECORD
  5
69D
102
{ACAD_REACTORS
330
C
102
}
330
C
100
AcDbXrecord
280
     1
  1
DWGPROPS COOKIE
  2

  3

  4

  6

  7

  8
pbs
  9

300
=
301
=
302
=
303
=
304
=
305
=
306
=
307
=
308
=
309
=
 40
0.0010780902777778
 41
2456539.457854815
 42
2456539.461574653
  1

 90
        0
  0
XRECORD
  5
5D7
102
{ACAD_REACTORS
330
5D6
102
}
330
5D6
100
AcDbXrecord
280
     1
290
     1
  0
XRECORD
  5
5D9
102
{ACAD_REACTORS
330
5D8
102
}
330
5D8
100
AcDbXrecord
280
     1
290
     1
  0
LAYOUT
  5
1E
102
{ACAD_XDICTIONARY
360
69E
102
}
102
{ACAD_REACTORS
330
1A
102
}
330
1A
100
AcDbPlotSettings
  1

  2
none_device
  4

  6

 40
0.0
 41
0.0
 42
0.0
 43
0.0
 44
0.0
 45
0.0
 46
0.0
 47
0.0
 48
0.0
 49
0.0
140
0.0
141
0.0
142
1.0
143
1.0
 70
   688
 72
     0
 73
     0
 74
     5
  7

 75
    16
147
1.0
148
0.0
149
0.0
100
AcDbLayout
  1
Layout1
 70
     1
 71
     1
 10
-0.5
 20
-0.5
 11
5.0
 21
5.0
 12
0.0
 22
0.0
 32
0.0
 14
-0.5
 24
-0.5
 34
-0.5
 15
5.0
 25
5.0
 35
5.0
146
0.0
 13
0.0
 23
0.0
 33
0.0
 16
1.0
 26
0.0
 36
0.0
 17
0.0
 27
1.0
 37
0.0
 76
     0
330
1B
  0
LAYOUT
  5
26
102
{ACAD_XDICTIONARY
360
6A2
102
}
102
{ACAD_REACTORS
330
1A
102
}
330
1A
100
AcDbPlotSettings
  1

  2
none_device
  4

  6

 40
0.0
 41
0.0
 42
0.0
 43
0.0
 44
0.0
 45
0.0
 46
0.0
 47
0.0
 48
0.0
 49
0.0
140
0.0
141
0.0
142
1.0
143
1.0
 70
   688
 72
     0
 73
     0
 74
     5
  7

 75
    16
147
1.0
148
0.0
149
0.0
100
AcDbLayout
  1
Layout2
 70
     1
 71
     2
 10
0.0
 20
0.0
 11
0.0
 21
0.0
 12
0.0
 22
0.0
 32
0.0
 14
0.0
 24
0.0
 34
0.0
 15
0.0
 25
0.0
 35
0.0
146
0.0
 13
0.0
 23
0.0
 33
0.0
 16
1.0
 26
0.0
 36
0.0
 17
0.0
 27
1.0
 37
0.0
 76
     0
330
23
  0
LAYOUT
  5
22
102
{ACAD_XDICTIONARY
360
6A0
102
}
102
{ACAD_REACTORS
330
1A
102
}
330
1A
100
AcDbPlotSettings
  1

  2
none_device
  4

  6

 40
0.0
 41
0.0
 42
0.0
 43
0.0
 44
0.0
 45
0.0
 46
0.0
 47
0.0
 48
0.0
 49
0.0
140
0.0
141
0.0
142
1.0
143
1.0
 70
  1712
 72
     0
 73
     0
 74
     0
  7

 75
     0
147
1.0
148
0.0
149
0.0
100
AcDbLayout
  1
Model
 70
     1
 71
     0
 10
-0.5
 20
-0.5
 11
5.0
 21
5.0
 12
0.0
 22
0.0
 32
0.0
 14
-0.5
 24
-0.5
 34
-0.5
 15
5.0
 25
5.0
 35
5.0
146
0.0
 13
0.0
 23
0.0
 33
0.0
 16
1.0
 26
0.0
 36
0.0
 17
0.0
 27
1.0
 37
0.0
 76
     0
330
1F
331
57A
  0
MATERIAL
  5
3D
102
{ACAD_XDICTIONARY
360
6C6
102
}
102
{ACAD_REACTORS
330
3B
102
}
330
3B
100
AcDbMaterial
  1
BYBLOCK
 73
     1
 78
     1
172
     1
176
     1
270
     1
274
     1
  0
MATERIAL
  5
3C
102
{ACAD_XDICTIONARY
360
6C4
102
}
102
{ACAD_REACTORS
330
3B
102
}
330
3B
100
AcDbMaterial
  1
BYLAYER
 73
     1
 78
     1
172
     1
176
     1
270
     1
274
     1
  0
MATERIAL
  5
3E
102
{ACAD_XDICTIONARY
360
6C8
102
}
102
{ACAD_REACTORS
330
3B
102
}
330
3B
100
AcDbMaterial
  1
Global
 73
     1
 78
     1
172
     1
176
     1
270
     1
274
     1
  0
MLEADERSTYLE
  5
5D1
102
{ACAD_XDICTIONARY
360
69A
102
}
102
{ACAD_REACTORS
330
5B1
102
}
330
5B1
100
AcDbMLeaderStyle
170
     2
171
     1
172
     0
 90
        2
 40
0.0
 41
0.0
173
     1
 91
-1056964608
340
14
 92
       -2
290
     1
 42
0.09
291
     1
 43
0.36
  3
Standard
 44
0.18
300

342
11
174
     1
178
     6
175
     1
176
     0
 93
-1056964608
 45
0.18
292
     0
297
     0
 46
0.18
 94
-1056964608
 47
1.0
 49
1.0
140
1.0
293
     1
141
0.0
294
     1
177
     0
142
1.0
295
     0
296
     0
143
0.125
1001
ACAD_MLEADERVER
1070
     2
  0
MLINESTYLE
  5
18
102
{ACAD_REACTORS
330
17
102
}
330
17
100
AcDbMlineStyle
  2
STANDARD
 70
     0
  3

 62
   256
 51
90.0
 52
90.0
 71
     2
 49
0.5
 62
   256
  6
BYLAYER
 49
-0.5
 62
   256
  6
BYLAYER
  0
ACDBPLACEHOLDER
  5
F
102
{ACAD_REACTORS
330
E
102
}
330
E
  0
SCALE
  5
5C0
102
{ACAD_REACTORS
330
5BF
102
}
330
5BF
100
AcDbScale
 70
     0
300
1:1
140
1.0
141
1.0
290
     1
  0
SCALE
  5
5C1
102
{ACAD_REACTORS
330
5BF
102
}
330
5BF
100
AcDbScale
 70
     0
300
1/128" = 1'-0"
140
0.0078125
141
12.0
290
     0
  0
SCALE
  5
5C2
102
{ACAD_REACTORS
330
5BF
102
}
330
5BF
100
AcDbScale
 70
     0
300
1/64" = 1'-0"
140
0.015625
141
12.0
290
     0
  0
SCALE
  5
5C3
102
{ACAD_REACTORS
330
5BF
102
}
330
5BF
100
AcDbScale
 70
     0
300
1/32" = 1'-0"
140
0.03125
141
12.0
290
     0
  0
SCALE
  5
5C4
102
{ACAD_REACTORS
330
5BF
102
}
330
5BF
100
AcDbScale
 70
     0
300
1/16" = 1'-0"
140
0.0625
141
12.0
290
     0
  0
SCALE
  5
5C5
102
{ACAD_REACTORS
330
5BF
102
}
330
5BF
100
AcDbScale
 70
     0
300
3/32" = 1'-0"
140
0.09375
141
12.0
290
     0
  0
SCALE
  5
5C6
102
{ACAD_REACTORS
330
5BF
102
}
330
5BF
100
AcDbScale
 70
     0
300
1/8" = 1'-0"
140
0.125
141
12.0
290
     0
  0
SCALE
  5
5C7
102
{ACAD_REACTORS
330
5BF
102
}
330
5BF
100
AcDbScale
 70
     0
300
3/16" = 1'-0"
140
0.1875
141
12.0
290
     0
  0
SCALE
  5
5C8
102
{ACAD_REACTORS
330
5BF
102
}
330
5BF
100
AcDbScale
 70
     0
300
1/4" = 1'-0"
140
0.25
141
12.0
290
     0
  0
SCALE
  5
5C9
102
{ACAD_REACTORS
330
5BF
102
}
330
5BF
100
AcDbScale
 70
     0
300
3/8" = 1'-0"
140
0.375
141
12.0
290
     0
  0
SCALE
  5
5CA
102
{ACAD_REACTORS
330
5BF
102
}
330
5BF
100
AcDbScale
 70
     0
300
1/2" = 1'-0"
140
0.5
141
12.0
290
     0
  0
SCALE
  5
5CB
102
{ACAD_REACTORS
330
5BF
102
}
330
5BF
100
AcDbScale
 70
     0
300
3/4" = 1'-0"
140
0.75
141
12.0
290
     0
  0
SCALE
  5
5CC
102
{ACAD_REACTORS
330
5BF
102
}
330
5BF
100
AcDbScale
 70
     0
300
1" = 1'-0"
140
1.0
141
12.0
290
     0
  0
SCALE
  5
5CD
102
{ACAD_REACTORS
330
5BF
102
}
330
5BF
100
AcDbScale
 70
     0
300
1-1/2" = 1'-0"
140
1.5
141
12.0
290
     0
  0
SCALE
  5
5CE
102
{ACAD_REACTORS
330
5BF
102
}
330
5BF
100
AcDbScale
 70
     0
300
3" = 1'-0"
140
3.0
141
12.0
290
     0
  0
SCALE
  5
5CF
102
{ACAD_REACTORS
330
5BF
102
}
330
5BF
100
AcDbScale
 70
     0
300
6" = 1'-0"
140
6.0
141
12.0
290
     0
  0
SCALE
  5
5D0
102
{ACAD_REACTORS
330
5BF
102
}
330
5BF
100
AcDbScale
 70
     0
300
1'-0" = 1'-0"
140
12.0
141
12.0
290
     0
  0
TABLESTYLE
  5
5BE
102
{ACAD_XDICTIONARY
360
698
102
}
102
{ACAD_REACTORS
330
5B0
102
}
330
5B0
100
AcDbTableStyle
  3
Standard
 70
     0
 71
     0
 40
0.06
 41
0.06
280
     0
281
     0
  7
Standard
140
0.18
170
     2
 62
     0
 63
     7
283
     0
274
    -2
284
     1
 64
     0
275
    -2
285
     1
 65
     0
276
    -2
286
     1
 66
     0
277
    -2
287
     1
 67
     0
278
    -2
288
     1
 68
     0
279
    -2
289
     1
 69
     0
  7
Standard
140
0.25
170
     5
 62
     0
 63
     7
283
     0
274
    -2
284
     1
 64
     0
275
    -2
285
     1
 65
     0
276
    -2
286
     1
 66
     0
277
    -2
287
     1
 67
     0
278
    -2
288
     1
 68
     0
279
    -2
289
     1
 69
     0
  7
Standard
140
0.18
170
     5
 62
     0
 63
     7
283
     0
274
    -2
284
     1
 64
     0
275
    -2
285
     1
 65
     0
276
    -2
286
     1
 66
     0
277
    -2
287
     1
 67
     0
278
    -2
288
     1
 68
     0
279
    -2
289
     1
 69
     0
  0
VISUALSTYLE
  5
2F
102
{ACAD_XDICTIONARY
360
6AC
102
}
102
{ACAD_REACTORS
330
2A
102
}
330
2A
100
AcDbVisualStyle
  2
2dWireframe
 70
     4
 71
     0
 72
     2
 73
     0
 90
        0
 40
-0.6
 41
-30.0
 62
     5
 63
     7
 74
     1
 91
        4
 64
     7
 65
   257
 75
     1
175
     1
 42
1.0
 92
        0
 66
   257
 43
1.0
 76
     1
 77
     6
 78
     2
 67
     7
 79
     5
170
     0
171
     0
290
     0
174
     0
 93
        1
 44
0.0
173
     0
291
     0
 45
0.0
1001
ACAD
1000
AcDbSavedByObjectVersion
1070
     0
  0
VISUALSTYLE
  5
31
102
{ACAD_XDICTIONARY
360
6B0
102
}
102
{ACAD_REACTORS
330
2A
102
}
330
2A
100
AcDbVisualStyle
  2
3D Hidden
 70
     6
 71
     1
 72
     2
 73
     2
 90
        0
 40
-0.6
 41
-30.0
 62
     5
 63
     7
 74
     2
 91
        2
 64
     7
 65
   257
 75
     2
175
     1
 42
40.0
 92
        0
 66
   257
 43
1.0
 76
     1
 77
     6
 78
     2
 67
     7
 79
     3
170
     0
171
     0
290
     0
174
     0
 93
        1
 44
0.0
173
     0
291
     0
 45
0.0
1001
ACAD
1000
AcDbSavedByObjectVersion
1070
     0
  0
VISUALSTYLE
  5
30
102
{ACAD_XDICTIONARY
360
6AE
102
}
102
{ACAD_REACTORS
330
2A
102
}
330
2A
100
AcDbVisualStyle
  2
3dWireframe
 70
     5
 71
     0
 72
     2
 73
     0
 90
        0
 40
-0.6
 41
-30.0
 62
     5
 63
     7
 74
     1
 91
        4
 64
     7
 65
   257
 75
     1
175
     1
 42
1.0
 92
        0
 66
   257
 43
1.0
 76
     1
 77
     6
 78
     2
 67
     7
 79
     5
170
     0
171
     0
290
     0
174
     0
 93
        1
 44
0.0
173
     0
291
     0
 45
0.0
1001
ACAD
1000
AcDbSavedByObjectVersion
1070
     0
  0
VISUALSTYLE
  5
32
102
{ACAD_XDICTIONARY
360
6B2
102
}
102
{ACAD_REACTORS
330
2A
102
}
330
2A
100
AcDbVisualStyle
  2
Basic
 70
     7
 71
     1
 72
     0
 73
     1
 90
        0
 40
-0.6
 41
-30.0
 62
     5
 63
     7
 74
     0
 91
        4
 64
     7
 65
   257
 75
     1
175
     1
 42
1.0
 92
        8
 66
     7
 43
1.0
 76
     1
 77
     6
 78
     2
 67
     7
 79
     5
170
     0
171
     0
290
     0
174
     0
 93
        1
 44
0.0
173
     0
291
     1
 45
0.0
1001
ACAD
1000
AcDbSavedByObjectVersion
1070
     0
  0
VISUALSTYLE
  5
36
102
{ACAD_XDICTIONARY
360
6BA
102
}
102
{ACAD_REACTORS
330
2A
102
}
330
2A
100
AcDbVisualStyle
  2
Brighten
 70
    12
 71
     2
 72
     2
 73
     0
 90
        0
 40
-0.6
 41
-30.0
 62
     5
 63
     7
 74
     1
 91
        4
 64
     7
 65
   257
 75
     1
175
     1
 42
1.0
 92
        8
 66
     7
 43
1.0
 76
     1
 77
     6
 78
     2
 67
     7
 79
     5
170
     0
171
     0
290
     0
174
     0
 93
        1
 44
50.0
173
     0
291
     1
 45
0.0
1001
ACAD
1000
AcDbSavedByObjectVersion
1070
     0
  0
VISUALSTYLE
  5
3A
102
{ACAD_XDICTIONARY
360
6C2
102
}
102
{ACAD_REACTORS
330
2A
102
}
330
2A
100
AcDbVisualStyle
  2
ColorChange
 70
    16
 71
     2
 72
     2
 73
     3
 90
        0
 40
-0.6
 41
-30.0
 62
     5
 63
     8
 74
     1
 91
        4
 64
     7
 65
   257
 75
     1
175
     1
 42
1.0
 92
        8
 66
     8
 43
1.0
 76
     1
 77
     6
 78
     2
 67
     7
 79
     5
170
     0
171
     0
290
     0
174
     0
 93
        1
 44
0.0
173
     0
291
     1
 45
0.0
1001
ACAD
1000
AcDbSavedByObjectVersion
1070
     0
  0
VISUALSTYLE
  5
34
102
{ACAD_XDICTIONARY
360
6B6
102
}
102
{ACAD_REACTORS
330
2A
102
}
330
2A
100
AcDbVisualStyle
  2
Conceptual
 70
     9
 71
     3
 72
     2
 73
     0
 90
        0
 40
-0.6
 41
-30.0
 62
     5
 63
     7
 74
     2
 91
        2
 64
     7
 65
   257
 75
     1
175
     1
 42
40.0
 92
        8
 66
     7
 43
1.0
 76
     1
 77
     6
 78
     2
 67
     7
 79
     3
170
     0
171
     0
290
     0
174
     0
 93
        1
 44
0.0
173
     0
291
     0
 45
0.0
1001
ACAD
1000
AcDbSavedByObjectVersion
1070
     0
  0
VISUALSTYLE
  5
35
102
{ACAD_XDICTIONARY
360
6B8
102
}
102
{ACAD_REACTORS
330
2A
102
}
330
2A
100
AcDbVisualStyle
  2
Dim
 70
    11
 71
     2
 72
     2
 73
     0
 90
        0
 40
-0.6
 41
-30.0
 62
     5
 63
     7
 74
     1
 91
        4
 64
     7
 65
   257
 75
     1
175
     1
 42
1.0
 92
        8
 66
     7
 43
1.0
 76
     1
 77
     6
 78
     2
 67
     7
 79
     5
170
     0
171
     0
290
     0
174
     0
 93
        1
 44
-50.0
173
     0
291
     1
 45
0.0
1001
ACAD
1000
AcDbSavedByObjectVersion
1070
     0
  0
VISUALSTYLE
  5
5BC
102
{ACAD_XDICTIONARY
360
6DC
102
}
102
{ACAD_REACTORS
330
2A
102
}
330
2A
100
AcDbVisualStyle
  2
EdgeColorOff
 70
    22
 71
     2
 72
     2
 73
     0
 90
        0
 40
-0.6
 41
-30.0
 62
     5
 63
     7
 74
     1
 91
        4
 64
     7
 65
   257
 75
     1
175
     1
 42
1.0
 92
        8
 66
     7
 43
1.0
 76
     1
 77
     6
 78
     2
 67
     7
 79
     5
170
     0
171
     0
290
     0
174
     0
 93
        1
 44
0.0
173
     0
291
     1
 45
0.0
1001
ACAD
1000
AcDbSavedByObjectVersion
1070
     0
  0
VISUALSTYLE
  5
39
102
{ACAD_XDICTIONARY
360
6C0
102
}
102
{ACAD_REACTORS
330
2A
102
}
330
2A
100
AcDbVisualStyle
  2
Facepattern
 70
    15
 71
     2
 72
     2
 73
     0
 90
        0
 40
-0.6
 41
-30.0
 62
     5
 63
     7
 74
     1
 91
        4
 64
     7
 65
   257
 75
     1
175
     1
 42
1.0
 92
        8
 66
     7
 43
1.0
 76
     1
 77
     6
 78
     2
 67
     7
 79
     5
170
     0
171
     0
290
     0
174
     0
 93
        1
 44
0.0
173
     0
291
     1
 45
0.0
1001
ACAD
1000
AcDbSavedByObjectVersion
1070
     0
  0
VISUALSTYLE
  5
2B
102
{ACAD_XDICTIONARY
360
6A4
102
}
102
{ACAD_REACTORS
330
2A
102
}
330
2A
100
AcDbVisualStyle
  2
Flat
 70
     0
 71
     2
 72
     1
 73
     1
 90
        2
 40
-0.6
 41
30.0
 62
     5
 63
     7
 74
     0
 91
        4
 64
     7
 65
   257
 75
     1
175
     1
 42
1.0
 92
        8
 66
     7
 43
1.0
 76
     1
 77
     6
 78
     2
 67
     7
 79
     5
170
     0
171
     0
290
     0
174
     0
 93
       13
 44
0.0
173
     0
291
     1
 45
0.0
1001
ACAD
1000
AcDbSavedByObjectVersion
1070
     0
  0
VISUALSTYLE
  5
2C
102
{ACAD_XDICTIONARY
360
6A6
102
}
102
{ACAD_REACTORS
330
2A
102
}
330
2A
100
AcDbVisualStyle
  2
FlatWithEdges
 70
     1
 71
     2
 72
     1
 73
     1
 90
        2
 40
-0.6
 41
30.0
 62
     5
 63
     7
 74
     1
 91
        4
 64
     7
 65
   257
 75
     1
175
     1
 42
1.0
 92
        0
 66
   257
 43
1.0
 76
     1
 77
     6
 78
     2
 67
     7
 79
     5
170
     0
171
     0
290
     0
174
     0
 93
       13
 44
0.0
173
     0
291
     1
 45
0.0
1001
ACAD
1000
AcDbSavedByObjectVersion
1070
     0
  0
VISUALSTYLE
  5
2D
102
{ACAD_XDICTIONARY
360
6A8
102
}
102
{ACAD_REACTORS
330
2A
102
}
330
2A
100
AcDbVisualStyle
  2
Gouraud
 70
     2
 71
     2
 72
     2
 73
     1
 90
        2
 40
-0.6
 41
30.0
 62
     5
 63
     7
 74
     0
 91
        4
 64
     7
 65
   257
 75
     1
175
     1
 42
1.0
 92
        0
 66
     7
 43
1.0
 76
     1
 77
     6
 78
     2
 67
     7
 79
     5
170
     0
171
     0
290
     0
174
     0
 93
       13
 44
0.0
173
     0
291
     1
 45
0.0
1001
ACAD
1000
AcDbSavedByObjectVersion
1070
     0
  0
VISUALSTYLE
  5
2E
102
{ACAD_XDICTIONARY
360
6AA
102
}
102
{ACAD_REACTORS
330
2A
102
}
330
2A
100
AcDbVisualStyle
  2
GouraudWithEdges
 70
     3
 71
     2
 72
     2
 73
     1
 90
        2
 40
-0.6
 41
30.0
 62
     5
 63
     7
 74
     1
 91
        4
 64
     7
 65
   257
 75
     1
175
     1
 42
1.0
 92
        0
 66
   257
 43
1.0
 76
     1
 77
     6
 78
     2
 67
     7
 79
     5
170
     0
171
     0
290
     0
174
     0
 93
       13
 44
0.0
173
     0
291
     1
 45
0.0
1001
ACAD
1000
AcDbSavedByObjectVersion
1070
     0
  0
VISUALSTYLE
  5
5B4
102
{ACAD_XDICTIONARY
360
6CC
102
}
102
{ACAD_REACTORS
330
2A
102
}
330
2A
100
AcDbVisualStyle
  2
Hidden
 70
     6
 71
     1
 72
     2
 73
     2
 90
        0
 40
-0.6
 41
-30.0
 62
     5
 63
     7
 74
     2
 91
        2
 64
     7
 65
   257
 75
     2
175
     1
 42
40.0
 92
        0
 66
   257
 43
1.0
 76
     1
 77
     6
 78
     2
 67
     7
 79
     3
170
     0
171
     0
290
     0
174
     0
 93
        1
 44
0.0
173
     0
291
     0
 45
0.0
1001
ACAD
1000
AcDbSavedByObjectVersion
1070
     0
  0
VISUALSTYLE
  5
5BA
102
{ACAD_XDICTIONARY
360
6D8
102
}
102
{ACAD_REACTORS
330
2A
102
}
330
2A
100
AcDbVisualStyle
  2
JitterOff
 70
    20
 71
     2
 72
     2
 73
     0
 90
        0
 40
-0.6
 41
-30.0
 62
     5
 63
     7
 74
     1
 91
        4
 64
     7
 65
   257
 75
     1
175
     1
 42
1.0
 92
       10
 66
     7
 43
1.0
 76
     1
 77
     6
 78
     2
 67
     7
 79
     5
170
     0
171
     0
290
     0
174
     0
 93
        1
 44
0.0
173
     0
291
     1
 45
0.0
1001
ACAD
1000
AcDbSavedByObjectVersion
1070
     0
  0
VISUALSTYLE
  5
38
102
{ACAD_XDICTIONARY
360
6BE
102
}
102
{ACAD_REACTORS
330
2A
102
}
330
2A
100
AcDbVisualStyle
  2
Linepattern
 70
    14
 71
     2
 72
     2
 73
     0
 90
        0
 40
-0.6
 41
-30.0
 62
     5
 63
     7
 74
     1
 91
        4
 64
     7
 65
   257
 75
     7
175
     7
 42
1.0
 92
        8
 66
     7
 43
1.0
 76
     1
 77
     6
 78
     2
 67
     7
 79
     5
170
     0
171
     0
290
     0
174
     0
 93
        1
 44
0.0
173
     0
291
     1
 45
0.0
1001
ACAD
1000
AcDbSavedByObjectVersion
1070
     0
  0
VISUALSTYLE
  5
5BB
102
{ACAD_XDICTIONARY
360
6DA
102
}
102
{ACAD_REACTORS
330
2A
102
}
330
2A
100
AcDbVisualStyle
  2
OverhangOff
 70
    21
 71
     2
 72
     2
 73
     0
 90
        0
 40
-0.6
 41
-30.0
 62
     5
 63
     7
 74
     1
 91
        4
 64
     7
 65
   257
 75
     1
175
     1
 42
1.0
 92
        9
 66
     7
 43
1.0
 76
     1
 77
     6
 78
     2
 67
     7
 79
     5
170
     0
171
     0
290
     0
174
     0
 93
        1
 44
0.0
173
     0
291
     1
 45
0.0
1001
ACAD
1000
AcDbSavedByObjectVersion
1070
     0
  0
VISUALSTYLE
  5
33
102
{ACAD_XDICTIONARY
360
6B4
102
}
102
{ACAD_REACTORS
330
2A
102
}
330
2A
100
AcDbVisualStyle
  2
Realistic
 70
     8
 71
     2
 72
     2
 73
     0
 90
        0
 40
-0.6
 41
-30.0
 62
     5
 63
     7
 74
     1
 91
        0
 64
     7
 65
   257
 75
     1
175
     1
 42
1.0
 92
        8
 66
     8
 43
1.0
 76
     1
 77
     6
 78
     2
 67
     7
 79
     5
170
     0
171
     0
290
     0
174
     0
 93
       13
 44
0.0
173
     0
291
     0
 45
0.0
1001
ACAD
1000
AcDbSavedByObjectVersion
1070
     0
  0
VISUALSTYLE
  5
5B9
102
{ACAD_XDICTIONARY
360
6D6
102
}
102
{ACAD_REACTORS
330
2A
102
}
330
2A
100
AcDbVisualStyle
  2
Shaded
 70
    27
 71
     2
 72
     2
 73
     1
 90
        2
 40
-0.6
 41
30.0
 62
     5
 63
     7
 74
     0
 91
        4
 64
     7
 65
   257
 75
     1
175
     1
 42
1.0
 92
        8
 66
   257
 43
1.0
 76
     1
 77
     6
 78
     2
 67
     8
 79
     3
170
     0
171
     0
290
     0
174
     0
 93
        5
 44
0.0
173
     0
291
     0
 45
0.0
1001
ACAD
1000
AcDbSavedByObjectVersion
1070
     0
  0
VISUALSTYLE
  5
5B8
102
{ACAD_XDICTIONARY
360
6D4
102
}
102
{ACAD_REACTORS
330
2A
102
}
330
2A
100
AcDbVisualStyle
  2
Shaded with edges
 70
    26
 71
     2
 72
     2
 73
     1
 90
        2
 40
-0.6
 41
30.0
 62
     5
 63
     7
 74
     1
 91
       10
 64
     7
 65
   257
 75
     2
175
     1
 42
1.0
 92
        8
 66
   257
 43
1.0
 76
     1
 77
     6
 78
     2
 67
     7
 79
     3
170
     0
171
     0
290
     0
174
     0
 93
        5
 44
0.0
173
     0
291
     0
 45
0.0
1001
ACAD
1000
AcDbSavedByObjectVersion
1070
     0
  0
VISUALSTYLE
  5
5B5
102
{ACAD_XDICTIONARY
360
6CE
102
}
102
{ACAD_REACTORS
330
2A
102
}
330
2A
100
AcDbVisualStyle
  2
Shades of Gray
 70
    23
 71
     2
 72
     2
 73
     3
 90
        0
 40
-0.6
 41
-30.0
 62
     5
 63
     7
 74
     2
 91
        2
 64
     7
 65
     7
 75
     1
175
     1
 42
40.0
 92
        8
 66
     7
 43
1.0
 76
     1
 77
     6
 78
     2
 67
     7
 79
     3
170
     0
171
     0
290
     0
174
     0
 93
        1
 44
0.0
173
     0
291
     0
 45
0.0
1001
ACAD
1000
AcDbSavedByObjectVersion
1070
     0
  0
VISUALSTYLE
  5
5B6
102
{ACAD_XDICTIONARY
360
6D0
102
}
102
{ACAD_REACTORS
330
2A
102
}
330
2A
100
AcDbVisualStyle
  2
Sketchy
 70
    24
 71
     1
 72
     2
 73
     2
 90
        0
 40
-0.6
 41
-30.0
 62
     5
 63
     7
 74
     2
 91
        2
 64
     7
 65
     7
 75
     1
175
     1
 42
40.0
 92
       11
 66
     7
 43
1.0
 76
     1
 77
     6
 78
     2
 67
     7
 79
     6
170
     0
171
     0
290
     0
174
     0
 93
        1
 44
0.0
173
     0
291
     0
 45
0.0
1001
ACAD
1000
AcDbSavedByObjectVersion
1070
     0
  0
VISUALSTYLE
  5
37
102
{ACAD_XDICTIONARY
360
6BC
102
}
102
{ACAD_REACTORS
330
2A
102
}
330
2A
100
AcDbVisualStyle
  2
Thicken
 70
    13
 71
     2
 72
     2
 73
     0
 90
        0
 40
-0.6
 41
-30.0
 62
     5
 63
     7
 74
     1
 91
        4
 64
     7
 65
   257
 75
     1
175
     1
 42
1.0
 92
       12
 66
     7
 43
1.0
 76
     1
 77
     6
 78
     2
 67
     7
 79
     5
170
     0
171
     0
290
     0
174
     0
 93
        1
 44
0.0
173
     0
291
     1
 45
0.0
1001
ACAD
1000
AcDbSavedByObjectVersion
1070
     0
  0
VISUALSTYLE
  5
5B3
102
{ACAD_XDICTIONARY
360
6CA
102
}
102
{ACAD_REACTORS
330
2A
102
}
330
2A
100
AcDbVisualStyle
  2
Wireframe
 70
     5
 71
     0
 72
     2
 73
     0
 90
        0
 40
-0.6
 41
-30.0
 62
     5
 63
     7
 74
     1
 91
        4
 64
     7
 65
   257
 75
     1
175
     1
 42
1.0
 92
        0
 66
   257
 43
1.0
 76
     1
 77
     6
 78
     2
 67
     7
 79
     3
170
     0
171
     0
290
     0
174
     0
 93
        1
 44
0.0
173
     0
291
     0
 45
0.0
1001
ACAD
1000
AcDbSavedByObjectVersion
1070
     0
  0
VISUALSTYLE
  5
5B7
102
{ACAD_XDICTIONARY
360
6D2
102
}
102
{ACAD_REACTORS
330
2A
102
}
330
2A
100
AcDbVisualStyle
  2
X-Ray
 70
    25
 71
     2
 72
     2
 73
     1
 90
        1
 40
0.5
 41
-30.0
 62
     5
 63
     7
 74
     1
 91
        0
 64
     7
 65
   257
 75
     1
175
     1
 42
1.0
 92
        8
 66
     7
 43
1.0
 76
     1
 77
     6
 78
     2
 67
     7
 79
     3
170
     0
171
     0
290
     0
174
     0
 93
       13
 44
0.0
173
     0
291
     0
 45
0.0
1001
ACAD
1000
AcDbSavedByObjectVersion
1070
     0
  0
DICTIONARYVAR
  5
692
102
{ACAD_REACTORS
330
68F
102
}
330
68F
100
DictionaryVariables
280
     0
  1
1:1
  0
DICTIONARYVAR
  5
691
102
{ACAD_REACTORS
330
68F
102
}
330
68F
100
DictionaryVariables
280
     0
  1
STANDARD
  0
DICTIONARYVAR
  5
690
102
{ACAD_REACTORS
330
68F
102
}
330
68F
100
DictionaryVariables
280
     0
  1
STANDARD
  0
DICTIONARYVAR
  5
697
102
{ACAD_REACTORS
330
68F
102
}
330
68F
100
DictionaryVariables
280
     0
  1
2
  0
DICTIONARYVAR
  5
695
102
{ACAD_REACTORS
330
68F
102
}
330
68F
100
DictionaryVariables
280
     0
  1
1
  0
DICTIONARYVAR
  5
694
102
{ACAD_REACTORS
330
68F
102
}
330
68F
100
DictionaryVariables
280
     0
  1
0
  0
DICTIONARYVAR
  5
693
102
{ACAD_REACTORS
330
68F
102
}
330
68F
100
DictionaryVariables
280
     0
  1
127
  0
DICTIONARYVAR
  5
696
102
{ACAD_REACTORS
330
68F
102
}
330
68F
100
DictionaryVariables
280
     0
  1
0
  0
DICTIONARY
  5
69E
330
1E
100
AcDbDictionary
280
     1
281
     1
  3
ACAD_XREC_ROUNDTRIP
360
69F
  0
DICTIONARY
  5
6A2
330
26
100
AcDbDictionary
280
     1
281
     1
  3
ACAD_XREC_ROUNDTRIP
360
6A3
  0
DICTIONARY
  5
6A0
330
22
100
AcDbDictionary
280
     1
281
     1
  3
ACAD_XREC_ROUNDTRIP
360
6A1
  0
DICTIONARY
  5
6C6
330
3D
100
AcDbDictionary
280
     1
281
     1
  3
ACAD_XREC_ROUNDTRIP
360
6C7
  0
DICTIONARY
  5
6C4
330
3C
100
AcDbDictionary
280
     1
281
     1
  3
ACAD_XREC_ROUNDTRIP
360
6C5
  0
DICTIONARY
  5
6C8
330
3E
100
AcDbDictionary
280
     1
281
     1
  3
ACAD_XREC_ROUNDTRIP
360
6C9
  0
DICTIONARY
  5
69A
330
5D1
100
AcDbDictionary
280
     1
281
     1
  3
ACAD_XREC_ROUNDTRIP
360
69B
  0
DICTIONARY
  5
698
330
5BE
100
AcDbDictionary
280
     1
281
     1
  3
ACAD_ROUNDTRIP_2008_TABLESTYLE_CELLSTYLEMAP
360
699
  3
ACAD_XREC_ROUNDTRIP
360
6DE
  0
DICTIONARY
  5
6AC
330
2F
100
AcDbDictionary
280
     1
281
     1
  3
ACAD_XREC_ROUNDTRIP
360
6AD
  0
DICTIONARY
  5
6B0
330
31
100
AcDbDictionary
280
     1
281
     1
  3
ACAD_XREC_ROUNDTRIP
360
6B1
  0
DICTIONARY
  5
6AE
330
30
100
AcDbDictionary
280
     1
281
     1
  3
ACAD_XREC_ROUNDTRIP
360
6AF
  0
DICTIONARY
  5
6B2
330
32
100
AcDbDictionary
280
     1
281
     1
  3
ACAD_XREC_ROUNDTRIP
360
6B3
  0
DICTIONARY
  5
6BA
330
36
100
AcDbDictionary
280
     1
281
     1
  3
ACAD_XREC_ROUNDTRIP
360
6BB
  0
DICTIONARY
  5
6C2
330
3A
100
AcDbDictionary
280
     1
281
     1
  3
ACAD_XREC_ROUNDTRIP
360
6C3
  0
DICTIONARY
  5
6B6
330
34
100
AcDbDictionary
280
     1
281
     1
  3
ACAD_XREC_ROUNDTRIP
360
6B7
  0
DICTIONARY
  5
6B8
330
35
100
AcDbDictionary
280
     1
281
     1
  3
ACAD_XREC_ROUNDTRIP
360
6B9
  0
DICTIONARY
  5
6DC
330
5BC
100
AcDbDictionary
280
     1
281
     1
  3
ACAD_XREC_ROUNDTRIP
360
6DD
  0
DICTIONARY
  5
6C0
330
39
100
AcDbDictionary
280
     1
281
     1
  3
ACAD_XREC_ROUNDTRIP
360
6C1
  0
DICTIONARY
  5
6A4
330
2B
100
AcDbDictionary
280
     1
281
     1
  3
ACAD_XREC_ROUNDTRIP
360
6A5
  0
DICTIONARY
  5
6A6
330
2C
100
AcDbDictionary
280
     1
281
     1
  3
ACAD_XREC_ROUNDTRIP
360
6A7
  0
DICTIONARY
  5
6A8
330
2D
100
AcDbDictionary
280
     1
281
     1
  3
ACAD_XREC_ROUNDTRIP
360
6A9
  0
DICTIONARY
  5
6AA
330
2E
100
AcDbDictionary
280
     1
281
     1
  3
ACAD_XREC_ROUNDTRIP
360
6AB
  0
DICTIONARY
  5
6CC
330
5B4
100
AcDbDictionary
280
     1
281
     1
  3
ACAD_XREC_ROUNDTRIP
360
6CD
  0
DICTIONARY
  5
6D8
330
5BA
100
AcDbDictionary
280
     1
281
     1
  3
ACAD_XREC_ROUNDTRIP
360
6D9
  0
DICTIONARY
  5
6BE
330
38
100
AcDbDictionary
280
     1
281
     1
  3
ACAD_XREC_ROUNDTRIP
360
6BF
  0
DICTIONARY
  5
6DA
330
5BB
100
AcDbDictionary
280
     1
281
     1
  3
ACAD_XREC_ROUNDTRIP
360
6DB
  0
DICTIONARY
  5
6B4
330
33
100
AcDbDictionary
280
     1
281
     1
  3
ACAD_XREC_ROUNDTRIP
360
6B5
  0
DICTIONARY
  5
6D6
330
5B9
100
AcDbDictionary
280
     1
281
     1
  3
ACAD_XREC_ROUNDTRIP
360
6D7
  0
DICTIONARY
  5
6D4
330
5B8
100
AcDbDictionary
280
     1
281
     1
  3
ACAD_XREC_ROUNDTRIP
360
6D5
  0
DICTIONARY
  5
6CE
330
5B5
100
AcDbDictionary
280
     1
281
     1
  3
ACAD_XREC_ROUNDTRIP
360
6CF
  0
DICTIONARY
  5
6D0
330
5B6
100
AcDbDictionary
280
     1
281
     1
  3
ACAD_XREC_ROUNDTRIP
360
6D1
  0
DICTIONARY
  5
6BC
330
37
100
AcDbDictionary
280
     1
281
     1
  3
ACAD_XREC_ROUNDTRIP
360
6BD
  0
DICTIONARY
  5
6CA
330
5B3
100
AcDbDictionary
280
     1
281
     1
  3
ACAD_XREC_ROUNDTRIP
360
6CB
  0
DICTIONARY
  5
6D2
330
5B7
100
AcDbDictionary
280
     1
281
     1
  3
ACAD_XREC_ROUNDTRIP
360
6D3
  0
XRECORD
  5
69F
102
{ACAD_REACTORS
330
69E
102
}
330
69E
100
AcDbXrecord
280
     1
102
SHADEPLOT
 70
     0
102
SHADEPLOTRESLEVEL
 70
     2
102
SHADEPLOTCUSTOMDPI
 70
   300
  0
XRECORD
  5
6A3
102
{ACAD_REACTORS
330
6A2
102
}
330
6A2
100
AcDbXrecord
280
     1
102
SHADEPLOT
 70
     0
102
SHADEPLOTRESLEVEL
 70
     2
102
SHADEPLOTCUSTOMDPI
 70
   300
  0
XRECORD
  5
6A1
102
{ACAD_REACTORS
330
6A0
102
}
330
6A0
100
AcDbXrecord
280
     1
102
SHADEPLOT
 70
     0
102
SHADEPLOTRESLEVEL
 70
     2
102
SHADEPLOTCUSTOMDPI
 70
   300
  0
XRECORD
  5
6C7
102
{ACAD_REACTORS
330
6C6
102
}
330
6C6
100
AcDbXrecord
280
     1
102
MATERIAL
148
0.0
149
0.0
149
0.0
 93
        0
 94
      127
282
     0
 72
     1
 77
     1
171
     1
175
     1
179
     1
273
     0
  0
XRECORD
  5
6C5
102
{ACAD_REACTORS
330
6C4
102
}
330
6C4
100
AcDbXrecord
280
     1
102
MATERIAL
148
0.0
149
0.0
149
0.0
 93
        0
 94
      127
282
     0
 72
     1
 77
     1
171
     1
175
     1
179
     1
273
     0
  0
XRECORD
  5
6C9
102
{ACAD_REACTORS
330
6C8
102
}
330
6C8
100
AcDbXrecord
280
     1
102
MATERIAL
148
0.0
149
0.0
149
0.0
 93
        0
 94
      127
282
     0
 72
     1
 77
     1
171
     1
175
     1
179
     1
273
     0
  0
XRECORD
  5
69B
102
{ACAD_REACTORS
330
69A
102
}
330
69A
100
AcDbXrecord
280
     1
102
ACAD_ROUNDTRIP_2012_MLEADER_STYLE
298
     1
  0
CELLSTYLEMAP
  5
699
102
{ACAD_REACTORS
330
698
102
}
330
698
100
AcDbCellStyleMap
 90
        3
300
CELLSTYLE
  1
TABLEFORMAT_BEGIN
 90
        5
170
     1
 91
        0
 92
    32768
 62
   257
 93
        1
300
CONTENTFORMAT
  1
CONTENTFORMAT_BEGIN
 90
        0
 91
        0
 92
      512
 93
        0
300

 40
0.0
140
1.0
 94
        5
 62
     0
340
11
144
0.25
309
CONTENTFORMAT_END
171
     0
 94
        0
309
TABLEFORMAT_END
  1
CELLSTYLE_BEGIN
 90
        1
 91
        1
300
_TITLE
309
CELLSTYLE_END
300
CELLSTYLE
  1
TABLEFORMAT_BEGIN
 90
        5
170
     1
 91
        0
 92
        0
 62
   257
 93
        1
300
CONTENTFORMAT
  1
CONTENTFORMAT_BEGIN
 90
        0
 91
        0
 92
      512
 93
        0
300

 40
0.0
140
1.0
 94
        5
 62
     0
340
11
144
0.18
309
CONTENTFORMAT_END
171
     0
 94
        0
309
TABLEFORMAT_END
  1
CELLSTYLE_BEGIN
 90
        2
 91
        1
300
_HEADER
309
CELLSTYLE_END
300
CELLSTYLE
  1
TABLEFORMAT_BEGIN
 90
        5
170
     1
 91
        0
 92
        0
 62
   257
 93
        1
300
CONTENTFORMAT
  1
CONTENTFORMAT_BEGIN
 90
        0
 91
        0
 92
      512
 93
        0
300

 40
0.0
140
1.0
 94
        2
 62
     0
340
11
144
0.18
309
CONTENTFORMAT_END
171
     0
 94
        0
309
TABLEFORMAT_END
  1
CELLSTYLE_BEGIN
 90
        3
 91
        2
300
_DATA
309
CELLSTYLE_END
  0
XRECORD
  5
6DE
102
{ACAD_REACTORS
330
698
102
}
330
698
100
AcDbXrecord
280
     1
102
ACAD_ROUNDTRIP_PRE2007_TABLESTYLE
 90
      512
 91
        0
  1

 92
      512
 93
        0
  2

 94
      512
 95
        0
  3

  0
XRECORD
  5
6AD
102
{ACAD_REACTORS
330
6AC
102
}
330
6AC
100
AcDbXrecord
280
     1
102
RTVSPropertyOp0
 70
     1
102
RTVSPropertyOp1
 70
     1
102
RTVSPropertyOp2
 70
     1
102
RTVSPropertyOp3
 70
     1
102
RTVSPropertyOp4
 70
     1
102
RTVSPropertyOp5
 70
     1
102
RTVSPropertyOp6
 70
     1
102
RTVSPropertyOp7
 70
     1
102
RTVSPropertyOp8
 70
     1
102
RTVSPropertyOp9
 70
     1
102
RTVSPropertyOp10
 70
     1
102
RTVSPropertyOp11
 70
     1
102
RTVSPropertyOp12
 70
     1
102
RTVSPropertyOp13
 70
     1
102
RTVSPropertyOp14
 70
     1
102
RTVSPropertyOp15
 70
     1
102
RTVSPropertyOp16
 70
     1
102
RTVSPropertyOp17
 70
     1
102
RTVSPropertyOp18
 70
     1
102
RTVSPropertyOp19
 70
     1
102
RTVSPropertyOp20
 70
     1
102
RTVSPropertyOp21
 70
     1
102
RTVSPropertyOp22
 70
     1
102
RTVSPropertyOp23
 70
     1
102
RTVSPropertyOp24
 70
     1
102
RTVSPropertyOp25
 70
     1
102
RTVSPropertyOp26
 70
     1
102
RTVSPropertyOp27
 70
     1
102
RTVSPropertyOp28
 70
     1
102
RTVSPropertyOp29
 70
     1
102
RTVSPropertyOp30
 70
     1
102
RTVSPropertyOp31
 70
     1
102
RTVSPropertyOp32
 70
     1
  0
XRECORD
  5
6B1
102
{ACAD_REACTORS
330
6B0
102
}
330
6B0
100
AcDbXrecord
280
     1
102
RTVSPropertyOp0
 70
     1
102
RTVSPropertyOp1
 70
     1
102
RTVSPropertyOp2
 70
     1
102
RTVSPropertyOp3
 70
     1
102
RTVSPropertyOp4
 70
     1
102
RTVSPropertyOp5
 70
     1
102
RTVSPropertyOp6
 70
     1
102
RTVSPropertyOp7
 70
     1
102
RTVSPropertyOp8
 70
     1
102
RTVSPropertyOp9
 70
     1
102
RTVSPropertyOp10
 70
     1
102
RTVSPropertyOp11
 70
     1
102
RTVSPropertyOp12
 70
     1
102
RTVSPropertyOp13
 70
     1
102
RTVSPropertyOp14
 70
     1
102
RTVSPropertyOp15
 70
     1
102
RTVSPropertyOp16
 70
     1
102
RTVSPropertyOp17
 70
     1
102
RTVSPropertyOp18
 70
     1
102
RTVSPropertyOp19
 70
     1
102
RTVSPropertyOp20
 70
     1
102
RTVSPropertyOp21
 70
     1
102
RTVSPropertyOp22
 70
     1
102
RTVSPropertyOp23
 70
     1
102
RTVSPropertyOp24
 70
     1
102
RTVSPropertyOp25
 70
     1
102
RTVSPropertyOp26
 70
     1
102
RTVSPropertyOp27
 70
     1
102
RTVSPropertyOp28
 70
     1
102
RTVSPropertyOp29
 70
     1
102
RTVSPropertyOp30
 70
     1
102
RTVSPropertyOp31
 70
     1
102
RTVSPropertyOp32
 70
     1
  0
XRECORD
  5
6AF
102
{ACAD_REACTORS
330
6AE
102
}
330
6AE
100
AcDbXrecord
280
     1
102
RTVSPropertyOp0
 70
     1
102
RTVSPropertyOp1
 70
     1
102
RTVSPropertyOp2
 70
     1
102
RTVSPropertyOp3
 70
     1
102
RTVSPropertyOp4
 70
     1
102
RTVSPropertyOp5
 70
     1
102
RTVSPropertyOp6
 70
     1
102
RTVSPropertyOp7
 70
     1
102
RTVSPropertyOp8
 70
     1
102
RTVSPropertyOp9
 70
     1
102
RTVSPropertyOp10
 70
     1
102
RTVSPropertyOp11
 70
     1
102
RTVSPropertyOp12
 70
     1
102
RTVSPropertyOp13
 70
     1
102
RTVSPropertyOp14
 70
     1
102
RTVSPropertyOp15
 70
     1
102
RTVSPropertyOp16
 70
     1
102
RTVSPropertyOp17
 70
     1
102
RTVSPropertyOp18
 70
     1
102
RTVSPropertyOp19
 70
     1
102
RTVSPropertyOp20
 70
     1
102
RTVSPropertyOp21
 70
     1
102
RTVSPropertyOp22
 70
     1
102
RTVSPropertyOp23
 70
     1
102
RTVSPropertyOp24
 70
     1
102
RTVSPropertyOp25
 70
     1
102
RTVSPropertyOp26
 70
     1
102
RTVSPropertyOp27
 70
     1
102
RTVSPropertyOp28
 70
     1
102
RTVSPropertyOp29
 70
     1
102
RTVSPropertyOp30
 70
     1
102
RTVSPropertyOp31
 70
     1
102
RTVSPropertyOp32
 70
     1
  0
XRECORD
  5
6B3
102
{ACAD_REACTORS
330
6B2
102
}
330
6B2
100
AcDbXrecord
280
     1
102
RTVSPropertyOp0
 70
     1
102
RTVSPropertyOp1
 70
     1
102
RTVSPropertyOp2
 70
     1
102
RTVSPropertyOp3
 70
     1
102
RTVSPropertyOp4
 70
     1
102
RTVSPropertyOp5
 70
     1
102
RTVSPropertyOp6
 70
     1
102
RTVSPropertyOp7
 70
     1
102
RTVSPropertyOp8
 70
     1
102
RTVSPropertyOp9
 70
     1
102
RTVSPropertyOp10
 70
     1
102
RTVSPropertyOp11
 70
     1
102
RTVSPropertyOp12
 70
     1
102
RTVSPropertyOp13
 70
     1
102
RTVSPropertyOp14
 70
     1
102
RTVSPropertyOp15
 70
     1
102
RTVSPropertyOp16
 70
     1
102
RTVSPropertyOp17
 70
     1
102
RTVSPropertyOp18
 70
     1
102
RTVSPropertyOp19
 70
     1
102
RTVSPropertyOp20
 70
     1
102
RTVSPropertyOp21
 70
     1
102
RTVSPropertyOp22
 70
     1
102
RTVSPropertyOp23
 70
     1
102
RTVSPropertyOp24
 70
     1
102
RTVSPropertyOp25
 70
     1
102
RTVSPropertyOp26
 70
     1
102
RTVSPropertyOp27
 70
     1
102
RTVSPropertyOp28
 70
     1
102
RTVSPropertyOp29
 70
     1
102
RTVSPropertyOp30
 70
     1
102
RTVSPropertyOp31
 70
     1
102
RTVSPropertyOp32
 70
     1
  0
XRECORD
  5
6BB
102
{ACAD_REACTORS
330
6BA
102
}
330
6BA
100
AcDbXrecord
280
     1
102
RTVSPropertyOp0
 70
     1
102
RTVSPropertyOp1
 70
     1
102
RTVSPropertyOp2
 70
     1
102
RTVSPropertyOp3
 70
     1
102
RTVSPropertyOp4
 70
     1
102
RTVSPropertyOp5
 70
     1
102
RTVSPropertyOp6
 70
     1
102
RTVSPropertyOp7
 70
     1
102
RTVSPropertyOp8
 70
     1
102
RTVSPropertyOp9
 70
     1
102
RTVSPropertyOp10
 70
     1
102
RTVSPropertyOp11
 70
     1
102
RTVSPropertyOp12
 70
     1
102
RTVSPropertyOp13
 70
     1
102
RTVSPropertyOp14
 70
     1
102
RTVSPropertyOp15
 70
     1
102
RTVSPropertyOp16
 70
     1
102
RTVSPropertyOp17
 70
     1
102
RTVSPropertyOp18
 70
     1
102
RTVSPropertyOp19
 70
     1
102
RTVSPropertyOp20
 70
     1
102
RTVSPropertyOp21
 70
     1
102
RTVSPropertyOp22
 70
     1
102
RTVSPropertyOp23
 70
     1
102
RTVSPropertyOp24
 70
     1
102
RTVSPropertyOp25
 70
     1
102
RTVSPropertyOp26
 70
     1
102
RTVSPropertyOp27
 70
     1
102
RTVSPropertyOp28
 70
     1
102
RTVSPropertyOp29
 70
     1
102
RTVSPropertyOp30
 70
     1
102
RTVSPropertyOp31
 70
     1
102
RTVSPropertyOp32
 70
     1
  0
XRECORD
  5
6C3
102
{ACAD_REACTORS
330
6C2
102
}
330
6C2
100
AcDbXrecord
280
     1
102
RTVSPropertyOp0
 70
     1
102
RTVSPropertyOp1
 70
     1
102
RTVSPropertyOp2
 70
     1
102
RTVSPropertyOp3
 70
     1
102
RTVSPropertyOp4
 70
     1
102
RTVSPropertyOp5
 70
     1
102
RTVSPropertyOp6
 70
     1
102
RTVSPropertyOp7
 70
     1
102
RTVSPropertyOp8
 70
     1
102
RTVSPropertyOp9
 70
     1
102
RTVSPropertyOp10
 70
     1
102
RTVSPropertyOp11
 70
     1
102
RTVSPropertyOp12
 70
     1
102
RTVSPropertyOp13
 70
     1
102
RTVSPropertyOp14
 70
     1
102
RTVSPropertyOp15
 70
     1
102
RTVSPropertyOp16
 70
     1
102
RTVSPropertyOp17
 70
     1
102
RTVSPropertyOp18
 70
     1
102
RTVSPropertyOp19
 70
     1
102
RTVSPropertyOp20
 70
     1
102
RTVSPropertyOp21
 70
     1
102
RTVSPropertyOp22
 70
     1
102
RTVSPropertyOp23
 70
     1
102
RTVSPropertyOp24
 70
     1
102
RTVSPropertyOp25
 70
     1
102
RTVSPropertyOp26
 70
     1
102
RTVSPropertyOp27
 70
     1
102
RTVSPropertyOp28
 70
     1
102
RTVSPropertyOp29
 70
     1
102
RTVSPropertyOp30
 70
     1
102
RTVSPropertyOp31
 70
     1
102
RTVSPropertyOp32
 70
     1
  0
XRECORD
  5
6B7
102
{ACAD_REACTORS
330
6B6
102
}
330
6B6
100
AcDbXrecord
280
     1
102
RTVSPropertyOp0
 70
     1
102
RTVSPropertyOp1
 70
     1
102
RTVSPropertyOp2
 70
     1
102
RTVSPropertyOp3
 70
     1
102
RTVSPropertyOp4
 70
     1
102
RTVSPropertyOp5
 70
     1
102
RTVSPropertyOp6
 70
     1
102
RTVSPropertyOp7
 70
     1
102
RTVSPropertyOp8
 70
     1
102
RTVSPropertyOp9
 70
     1
102
RTVSPropertyOp10
 70
     1
102
RTVSPropertyOp11
 70
     1
102
RTVSPropertyOp12
 70
     1
102
RTVSPropertyOp13
 70
     1
102
RTVSPropertyOp14
 70
     1
102
RTVSPropertyOp15
 70
     1
102
RTVSPropertyOp16
 70
     1
102
RTVSPropertyOp17
 70
     1
102
RTVSPropertyOp18
 70
     1
102
RTVSPropertyOp19
 70
     1
102
RTVSPropertyOp20
 70
     1
102
RTVSPropertyOp21
 70
     1
102
RTVSPropertyOp22
 70
     1
102
RTVSPropertyOp23
 70
     1
102
RTVSPropertyOp24
 70
     1
102
RTVSPropertyOp25
 70
     1
102
RTVSPropertyOp26
 70
     1
102
RTVSPropertyOp27
 70
     1
102
RTVSPropertyOp28
 70
     1
102
RTVSPropertyOp29
 70
     1
102
RTVSPropertyOp30
 70
     1
102
RTVSPropertyOp31
 70
     1
102
RTVSPropertyOp32
 70
     1
  0
XRECORD
  5
6B9
102
{ACAD_REACTORS
330
6B8
102
}
330
6B8
100
AcDbXrecord
280
     1
102
RTVSPropertyOp0
 70
     1
102
RTVSPropertyOp1
 70
     1
102
RTVSPropertyOp2
 70
     1
102
RTVSPropertyOp3
 70
     1
102
RTVSPropertyOp4
 70
     1
102
RTVSPropertyOp5
 70
     1
102
RTVSPropertyOp6
 70
     1
102
RTVSPropertyOp7
 70
     1
102
RTVSPropertyOp8
 70
     1
102
RTVSPropertyOp9
 70
     1
102
RTVSPropertyOp10
 70
     1
102
RTVSPropertyOp11
 70
     1
102
RTVSPropertyOp12
 70
     1
102
RTVSPropertyOp13
 70
     1
102
RTVSPropertyOp14
 70
     1
102
RTVSPropertyOp15
 70
     1
102
RTVSPropertyOp16
 70
     1
102
RTVSPropertyOp17
 70
     1
102
RTVSPropertyOp18
 70
     1
102
RTVSPropertyOp19
 70
     1
102
RTVSPropertyOp20
 70
     1
102
RTVSPropertyOp21
 70
     1
102
RTVSPropertyOp22
 70
     1
102
RTVSPropertyOp23
 70
     1
102
RTVSPropertyOp24
 70
     1
102
RTVSPropertyOp25
 70
     1
102
RTVSPropertyOp26
 70
     1
102
RTVSPropertyOp27
 70
     1
102
RTVSPropertyOp28
 70
     1
102
RTVSPropertyOp29
 70
     1
102
RTVSPropertyOp30
 70
     1
102
RTVSPropertyOp31
 70
     1
102
RTVSPropertyOp32
 70
     1
  0
XRECORD
  5
6DD
102
{ACAD_REACTORS
330
6DC
102
}
330
6DC
100
AcDbXrecord
280
     1
102
RTVSPropertyOp0
 70
     0
102
RTVSPropertyOp1
 70
     0
102
RTVSPropertyOp2
 70
     0
102
RTVSPropertyOp3
 70
     0
102
RTVSPropertyOp4
 70
     0
102
RTVSPropertyOp5
 70
     0
102
RTVSPropertyOp6
 70
     0
102
RTVSPropertyOp7
 70
     0
102
RTVSPropertyOp8
 70
     0
102
RTVSPropertyOp9
 70
     0
102
RTVSPropertyOp10
 70
     0
102
RTVSPropertyOp11
 70
     0
102
RTVSPropertyOp12
 70
     0
102
RTVSPropertyOp13
 70
     0
102
RTVSPropertyOp14
 70
     2
102
RTVSPropertyOp15
 70
     0
102
RTVSPropertyOp16
 70
     0
102
RTVSPropertyOp17
 70
     0
102
RTVSPropertyOp18
 70
     0
102
RTVSPropertyOp19
 70
     0
102
RTVSPropertyOp20
 70
     0
102
RTVSPropertyOp21
 70
     0
102
RTVSPropertyOp22
 70
     0
102
RTVSPropertyOp23
 70
     0
102
RTVSPropertyOp24
 70
     0
102
RTVSPropertyOp25
 70
     0
102
RTVSPropertyOp26
 70
     0
102
RTVSPropertyOp27
 70
     0
102
RTVSPropertyOp28
 70
     0
102
RTVSPropertyOp29
 70
     0
102
RTVSPropertyOp30
 70
     0
102
RTVSPropertyOp31
 70
     0
102
RTVSPropertyOp32
 70
     0
  0
XRECORD
  5
6C1
102
{ACAD_REACTORS
330
6C0
102
}
330
6C0
100
AcDbXrecord
280
     1
102
RTVSPropertyOp0
 70
     1
102
RTVSPropertyOp1
 70
     1
102
RTVSPropertyOp2
 70
     1
102
RTVSPropertyOp3
 70
     1
102
RTVSPropertyOp4
 70
     1
102
RTVSPropertyOp5
 70
     1
102
RTVSPropertyOp6
 70
     1
102
RTVSPropertyOp7
 70
     1
102
RTVSPropertyOp8
 70
     1
102
RTVSPropertyOp9
 70
     1
102
RTVSPropertyOp10
 70
     1
102
RTVSPropertyOp11
 70
     1
102
RTVSPropertyOp12
 70
     1
102
RTVSPropertyOp13
 70
     1
102
RTVSPropertyOp14
 70
     1
102
RTVSPropertyOp15
 70
     1
102
RTVSPropertyOp16
 70
     1
102
RTVSPropertyOp17
 70
     1
102
RTVSPropertyOp18
 70
     1
102
RTVSPropertyOp19
 70
     1
102
RTVSPropertyOp20
 70
     1
102
RTVSPropertyOp21
 70
     1
102
RTVSPropertyOp22
 70
     1
102
RTVSPropertyOp23
 70
     1
102
RTVSPropertyOp24
 70
     1
102
RTVSPropertyOp25
 70
     1
102
RTVSPropertyOp26
 70
     1
102
RTVSPropertyOp27
 70
     1
102
RTVSPropertyOp28
 70
     1
102
RTVSPropertyOp29
 70
     1
102
RTVSPropertyOp30
 70
     1
102
RTVSPropertyOp31
 70
     1
102
RTVSPropertyOp32
 70
     1
  0
XRECORD
  5
6A5
102
{ACAD_REACTORS
330
6A4
102
}
330
6A4
100
AcDbXrecord
280
     1
102
RTVSPropertyOp0
 70
     1
102
RTVSPropertyOp1
 70
     1
102
RTVSPropertyOp2
 70
     1
102
RTVSPropertyOp3
 70
     1
102
RTVSPropertyOp4
 70
     1
102
RTVSPropertyOp5
 70
     1
102
RTVSPropertyOp6
 70
     1
102
RTVSPropertyOp7
 70
     1
102
RTVSPropertyOp8
 70
     1
102
RTVSPropertyOp9
 70
     1
102
RTVSPropertyOp10
 70
     1
102
RTVSPropertyOp11
 70
     1
102
RTVSPropertyOp12
 70
     1
102
RTVSPropertyOp13
 70
     1
102
RTVSPropertyOp14
 70
     1
102
RTVSPropertyOp15
 70
     1
102
RTVSPropertyOp16
 70
     1
102
RTVSPropertyOp17
 70
     1
102
RTVSPropertyOp18
 70
     1
102
RTVSPropertyOp19
 70
     1
102
RTVSPropertyOp20
 70
     1
102
RTVSPropertyOp21
 70
     1
102
RTVSPropertyOp22
 70
     1
102
RTVSPropertyOp23
 70
     1
102
RTVSPropertyOp24
 70
     1
102
RTVSPropertyOp25
 70
     1
102
RTVSPropertyOp26
 70
     1
102
RTVSPropertyOp27
 70
     1
102
RTVSPropertyOp28
 70
     1
102
RTVSPropertyOp29
 70
     1
102
RTVSPropertyOp30
 70
     1
102
RTVSPropertyOp31
 70
     1
102
RTVSPropertyOp32
 70
     1
  0
XRECORD
  5
6A7
102
{ACAD_REACTORS
330
6A6
102
}
330
6A6
100
AcDbXrecord
280
     1
102
RTVSPropertyOp0
 70
     1
102
RTVSPropertyOp1
 70
     1
102
RTVSPropertyOp2
 70
     1
102
RTVSPropertyOp3
 70
     1
102
RTVSPropertyOp4
 70
     1
102
RTVSPropertyOp5
 70
     1
102
RTVSPropertyOp6
 70
     1
102
RTVSPropertyOp7
 70
     1
102
RTVSPropertyOp8
 70
     1
102
RTVSPropertyOp9
 70
     1
102
RTVSPropertyOp10
 70
     1
102
RTVSPropertyOp11
 70
     1
102
RTVSPropertyOp12
 70
     1
102
RTVSPropertyOp13
 70
     1
102
RTVSPropertyOp14
 70
     1
102
RTVSPropertyOp15
 70
     1
102
RTVSPropertyOp16
 70
     1
102
RTVSPropertyOp17
 70
     1
102
RTVSPropertyOp18
 70
     1
102
RTVSPropertyOp19
 70
     1
102
RTVSPropertyOp20
 70
     1
102
RTVSPropertyOp21
 70
     1
102
RTVSPropertyOp22
 70
     1
102
RTVSPropertyOp23
 70
     1
102
RTVSPropertyOp24
 70
     1
102
RTVSPropertyOp25
 70
     1
102
RTVSPropertyOp26
 70
     1
102
RTVSPropertyOp27
 70
     1
102
RTVSPropertyOp28
 70
     1
102
RTVSPropertyOp29
 70
     1
102
RTVSPropertyOp30
 70
     1
102
RTVSPropertyOp31
 70
     1
102
RTVSPropertyOp32
 70
     1
  0
XRECORD
  5
6A9
102
{ACAD_REACTORS
330
6A8
102
}
330
6A8
100
AcDbXrecord
280
     1
102
RTVSPropertyOp0
 70
     1
102
RTVSPropertyOp1
 70
     1
102
RTVSPropertyOp2
 70
     1
102
RTVSPropertyOp3
 70
     1
102
RTVSPropertyOp4
 70
     1
102
RTVSPropertyOp5
 70
     1
102
RTVSPropertyOp6
 70
     1
102
RTVSPropertyOp7
 70
     1
102
RTVSPropertyOp8
 70
     1
102
RTVSPropertyOp9
 70
     1
102
RTVSPropertyOp10
 70
     1
102
RTVSPropertyOp11
 70
     1
102
RTVSPropertyOp12
 70
     1
102
RTVSPropertyOp13
 70
     1
102
RTVSPropertyOp14
 70
     1
102
RTVSPropertyOp15
 70
     1
102
RTVSPropertyOp16
 70
     1
102
RTVSPropertyOp17
 70
     1
102
RTVSPropertyOp18
 70
     1
102
RTVSPropertyOp19
 70
     1
102
RTVSPropertyOp20
 70
     1
102
RTVSPropertyOp21
 70
     1
102
RTVSPropertyOp22
 70
     1
102
RTVSPropertyOp23
 70
     1
102
RTVSPropertyOp24
 70
     1
102
RTVSPropertyOp25
 70
     1
102
RTVSPropertyOp26
 70
     1
102
RTVSPropertyOp27
 70
     1
102
RTVSPropertyOp28
 70
     1
102
RTVSPropertyOp29
 70
     1
102
RTVSPropertyOp30
 70
     1
102
RTVSPropertyOp31
 70
     1
102
RTVSPropertyOp32
 70
     1
  0
XRECORD
  5
6AB
102
{ACAD_REACTORS
330
6AA
102
}
330
6AA
100
AcDbXrecord
280
     1
102
RTVSPropertyOp0
 70
     1
102
RTVSPropertyOp1
 70
     1
102
RTVSPropertyOp2
 70
     1
102
RTVSPropertyOp3
 70
     1
102
RTVSPropertyOp4
 70
     1
102
RTVSPropertyOp5
 70
     1
102
RTVSPropertyOp6
 70
     1
102
RTVSPropertyOp7
 70
     1
102
RTVSPropertyOp8
 70
     1
102
RTVSPropertyOp9
 70
     1
102
RTVSPropertyOp10
 70
     1
102
RTVSPropertyOp11
 70
     1
102
RTVSPropertyOp12
 70
     1
102
RTVSPropertyOp13
 70
     1
102
RTVSPropertyOp14
 70
     1
102
RTVSPropertyOp15
 70
     1
102
RTVSPropertyOp16
 70
     1
102
RTVSPropertyOp17
 70
     1
102
RTVSPropertyOp18
 70
     1
102
RTVSPropertyOp19
 70
     1
102
RTVSPropertyOp20
 70
     1
102
RTVSPropertyOp21
 70
     1
102
RTVSPropertyOp22
 70
     1
102
RTVSPropertyOp23
 70
     1
102
RTVSPropertyOp24
 70
     1
102
RTVSPropertyOp25
 70
     1
102
RTVSPropertyOp26
 70
     1
102
RTVSPropertyOp27
 70
     1
102
RTVSPropertyOp28
 70
     1
102
RTVSPropertyOp29
 70
     1
102
RTVSPropertyOp30
 70
     1
102
RTVSPropertyOp31
 70
     1
102
RTVSPropertyOp32
 70
     1
  0
XRECORD
  5
6CD
102
{ACAD_REACTORS
330
6CC
102
}
330
6CC
100
AcDbXrecord
280
     1
102
RTVSPropertyOp0
 70
     1
102
RTVSPropertyOp1
 70
     1
102
RTVSPropertyOp2
 70
     1
102
RTVSPropertyOp3
 70
     1
102
RTVSPropertyOp4
 70
     1
102
RTVSPropertyOp5
 70
     1
102
RTVSPropertyOp6
 70
     1
102
RTVSPropertyOp7
 70
     1
102
RTVSPropertyOp8
 70
     1
102
RTVSPropertyOp9
 70
     1
102
RTVSPropertyOp10
 70
     1
102
RTVSPropertyOp11
 70
     1
102
RTVSPropertyOp12
 70
     1
102
RTVSPropertyOp13
 70
     1
102
RTVSPropertyOp14
 70
     1
102
RTVSPropertyOp15
 70
     1
102
RTVSPropertyOp16
 70
     1
102
RTVSPropertyOp17
 70
     1
102
RTVSPropertyOp18
 70
     1
102
RTVSPropertyOp19
 70
     1
102
RTVSPropertyOp20
 70
     1
102
RTVSPropertyOp21
 70
     1
102
RTVSPropertyOp22
 70
     1
102
RTVSPropertyOp23
 70
     1
102
RTVSPropertyOp24
 70
     1
102
RTVSPropertyOp25
 70
     1
102
RTVSPropertyOp26
 70
     1
102
RTVSPropertyOp27
 70
     1
102
RTVSPropertyOp28
 70
     1
102
RTVSPropertyOp29
 70
     1
102
RTVSPropertyOp30
 70
     1
102
RTVSPropertyOp31
 70
     1
102
RTVSPropertyOp32
 70
     1
  0
XRECORD
  5
6D9
102
{ACAD_REACTORS
330
6D8
102
}
330
6D8
100
AcDbXrecord
280
     1
102
RTVSPropertyOp0
 70
     0
102
RTVSPropertyOp1
 70
     0
102
RTVSPropertyOp2
 70
     0
102
RTVSPropertyOp3
 70
     0
102
RTVSPropertyOp4
 70
     0
102
RTVSPropertyOp5
 70
     0
102
RTVSPropertyOp6
 70
     0
102
RTVSPropertyOp7
 70
     0
102
RTVSPropertyOp8
 70
     0
102
RTVSPropertyOp9
 70
     0
102
RTVSPropertyOp10
 70
     0
102
RTVSPropertyOp11
 70
     0
102
RTVSPropertyOp12
 70
     0
102
RTVSPropertyOp13
 70
     0
102
RTVSPropertyOp14
 70
     2
102
RTVSPropertyOp15
 70
     0
102
RTVSPropertyOp16
 70
     0
102
RTVSPropertyOp17
 70
     0
102
RTVSPropertyOp18
 70
     0
102
RTVSPropertyOp19
 70
     0
102
RTVSPropertyOp20
 70
     0
102
RTVSPropertyOp21
 70
     0
102
RTVSPropertyOp22
 70
     0
102
RTVSPropertyOp23
 70
     0
102
RTVSPropertyOp24
 70
     0
102
RTVSPropertyOp25
 70
     0
102
RTVSPropertyOp26
 70
     0
102
RTVSPropertyOp27
 70
     0
102
RTVSPropertyOp28
 70
     0
102
RTVSPropertyOp29
 70
     0
102
RTVSPropertyOp30
 70
     0
102
RTVSPropertyOp31
 70
     0
102
RTVSPropertyOp32
 70
     0
  0
XRECORD
  5
6BF
102
{ACAD_REACTORS
330
6BE
102
}
330
6BE
100
AcDbXrecord
280
     1
102
RTVSPropertyOp0
 70
     1
102
RTVSPropertyOp1
 70
     1
102
RTVSPropertyOp2
 70
     1
102
RTVSPropertyOp3
 70
     1
102
RTVSPropertyOp4
 70
     1
102
RTVSPropertyOp5
 70
     1
102
RTVSPropertyOp6
 70
     1
102
RTVSPropertyOp7
 70
     1
102
RTVSPropertyOp8
 70
     1
102
RTVSPropertyOp9
 70
     1
102
RTVSPropertyOp10
 70
     1
102
RTVSPropertyOp11
 70
     1
102
RTVSPropertyOp12
 70
     1
102
RTVSPropertyOp13
 70
     1
102
RTVSPropertyOp14
 70
     1
102
RTVSPropertyOp15
 70
     1
102
RTVSPropertyOp16
 70
     1
102
RTVSPropertyOp17
 70
     1
102
RTVSPropertyOp18
 70
     1
102
RTVSPropertyOp19
 70
     1
102
RTVSPropertyOp20
 70
     1
102
RTVSPropertyOp21
 70
     1
102
RTVSPropertyOp22
 70
     1
102
RTVSPropertyOp23
 70
     1
102
RTVSPropertyOp24
 70
     1
102
RTVSPropertyOp25
 70
     1
102
RTVSPropertyOp26
 70
     1
102
RTVSPropertyOp27
 70
     1
102
RTVSPropertyOp28
 70
     1
102
RTVSPropertyOp29
 70
     1
102
RTVSPropertyOp30
 70
     1
102
RTVSPropertyOp31
 70
     1
102
RTVSPropertyOp32
 70
     1
  0
XRECORD
  5
6DB
102
{ACAD_REACTORS
330
6DA
102
}
330
6DA
100
AcDbXrecord
280
     1
102
RTVSPropertyOp0
 70
     0
102
RTVSPropertyOp1
 70
     0
102
RTVSPropertyOp2
 70
     0
102
RTVSPropertyOp3
 70
     0
102
RTVSPropertyOp4
 70
     0
102
RTVSPropertyOp5
 70
     0
102
RTVSPropertyOp6
 70
     0
102
RTVSPropertyOp7
 70
     0
102
RTVSPropertyOp8
 70
     0
102
RTVSPropertyOp9
 70
     0
102
RTVSPropertyOp10
 70
     0
102
RTVSPropertyOp11
 70
     0
102
RTVSPropertyOp12
 70
     0
102
RTVSPropertyOp13
 70
     0
102
RTVSPropertyOp14
 70
     2
102
RTVSPropertyOp15
 70
     0
102
RTVSPropertyOp16
 70
     0
102
RTVSPropertyOp17
 70
     0
102
RTVSPropertyOp18
 70
     0
102
RTVSPropertyOp19
 70
     0
102
RTVSPropertyOp20
 70
     0
102
RTVSPropertyOp21
 70
     0
102
RTVSPropertyOp22
 70
     0
102
RTVSPropertyOp23
 70
     0
102
RTVSPropertyOp24
 70
     0
102
RTVSPropertyOp25
 70
     0
102
RTVSPropertyOp26
 70
     0
102
RTVSPropertyOp27
 70
     0
102
RTVSPropertyOp28
 70
     0
102
RTVSPropertyOp29
 70
     0
102
RTVSPropertyOp30
 70
     0
102
RTVSPropertyOp31
 70
     0
102
RTVSPropertyOp32
 70
     0
  0
XRECORD
  5
6B5
102
{ACAD_REACTORS
330
6B4
102
}
330
6B4
100
AcDbXrecord
280
     1
102
RTVSPropertyOp0
 70
     1
102
RTVSPropertyOp1
 70
     1
102
RTVSPropertyOp2
 70
     1
102
RTVSPropertyOp3
 70
     1
102
RTVSPropertyOp4
 70
     1
102
RTVSPropertyOp5
 70
     1
102
RTVSPropertyOp6
 70
     1
102
RTVSPropertyOp7
 70
     1
102
RTVSPropertyOp8
 70
     1
102
RTVSPropertyOp9
 70
     1
102
RTVSPropertyOp10
 70
     1
102
RTVSPropertyOp11
 70
     1
102
RTVSPropertyOp12
 70
     1
102
RTVSPropertyOp13
 70
     1
102
RTVSPropertyOp14
 70
     1
102
RTVSPropertyOp15
 70
     1
102
RTVSPropertyOp16
 70
     1
102
RTVSPropertyOp17
 70
     1
102
RTVSPropertyOp18
 70
     1
102
RTVSPropertyOp19
 70
     1
102
RTVSPropertyOp20
 70
     1
102
RTVSPropertyOp21
 70
     1
102
RTVSPropertyOp22
 70
     1
102
RTVSPropertyOp23
 70
     1
102
RTVSPropertyOp24
 70
     1
102
RTVSPropertyOp25
 70
     1
102
RTVSPropertyOp26
 70
     1
102
RTVSPropertyOp27
 70
     1
102
RTVSPropertyOp28
 70
     1
102
RTVSPropertyOp29
 70
     1
102
RTVSPropertyOp30
 70
     1
102
RTVSPropertyOp31
 70
     1
102
RTVSPropertyOp32
 70
     1
  0
XRECORD
  5
6D7
102
{ACAD_REACTORS
330
6D6
102
}
330
6D6
100
AcDbXrecord
280
     1
102
RTVSPropertyOp0
 70
     1
102
RTVSPropertyOp1
 70
     1
102
RTVSPropertyOp2
 70
     1
102
RTVSPropertyOp3
 70
     1
102
RTVSPropertyOp4
 70
     1
102
RTVSPropertyOp5
 70
     1
102
RTVSPropertyOp6
 70
     1
102
RTVSPropertyOp7
 70
     1
102
RTVSPropertyOp8
 70
     1
102
RTVSPropertyOp9
 70
     1
102
RTVSPropertyOp10
 70
     1
102
RTVSPropertyOp11
 70
     1
102
RTVSPropertyOp12
 70
     1
102
RTVSPropertyOp13
 70
     1
102
RTVSPropertyOp14
 70
     1
102
RTVSPropertyOp15
 70
     1
102
RTVSPropertyOp16
 70
     1
102
RTVSPropertyOp17
 70
     1
102
RTVSPropertyOp18
 70
     1
102
RTVSPropertyOp19
 70
     1
102
RTVSPropertyOp20
 70
     1
102
RTVSPropertyOp21
 70
     1
102
RTVSPropertyOp22
 70
     1
102
RTVSPropertyOp23
 70
     1
102
RTVSPropertyOp24
 70
     1
102
RTVSPropertyOp25
 70
     1
102
RTVSPropertyOp26
 70
     1
102
RTVSPropertyOp27
 70
     1
102
RTVSPropertyOp28
 70
     1
102
RTVSPropertyOp29
 70
     1
102
RTVSPropertyOp30
 70
     1
102
RTVSPropertyOp31
 70
     1
102
RTVSPropertyOp32
 70
     1
  0
XRECORD
  5
6D5
102
{ACAD_REACTORS
330
6D4
102
}
330
6D4
100
AcDbXrecord
280
     1
102
RTVSPropertyOp0
 70
     1
102
RTVSPropertyOp1
 70
     1
102
RTVSPropertyOp2
 70
     1
102
RTVSPropertyOp3
 70
     1
102
RTVSPropertyOp4
 70
     1
102
RTVSPropertyOp5
 70
     1
102
RTVSPropertyOp6
 70
     1
102
RTVSPropertyOp7
 70
     1
102
RTVSPropertyOp8
 70
     1
102
RTVSPropertyOp9
 70
     1
102
RTVSPropertyOp10
 70
     1
102
RTVSPropertyOp11
 70
     1
102
RTVSPropertyOp12
 70
     1
102
RTVSPropertyOp13
 70
     1
102
RTVSPropertyOp14
 70
     1
102
RTVSPropertyOp15
 70
     1
102
RTVSPropertyOp16
 70
     1
102
RTVSPropertyOp17
 70
     1
102
RTVSPropertyOp18
 70
     1
102
RTVSPropertyOp19
 70
     1
102
RTVSPropertyOp20
 70
     1
102
RTVSPropertyOp21
 70
     1
102
RTVSPropertyOp22
 70
     1
102
RTVSPropertyOp23
 70
     1
102
RTVSPropertyOp24
 70
     1
102
RTVSPropertyOp25
 70
     1
102
RTVSPropertyOp26
 70
     1
102
RTVSPropertyOp27
 70
     1
102
RTVSPropertyOp28
 70
     1
102
RTVSPropertyOp29
 70
     1
102
RTVSPropertyOp30
 70
     1
102
RTVSPropertyOp31
 70
     1
102
RTVSPropertyOp32
 70
     1
  0
XRECORD
  5
6CF
102
{ACAD_REACTORS
330
6CE
102
}
330
6CE
100
AcDbXrecord
280
     1
102
RTVSPropertyOp0
 70
     1
102
RTVSPropertyOp1
 70
     1
102
RTVSPropertyOp2
 70
     1
102
RTVSPropertyOp3
 70
     1
102
RTVSPropertyOp4
 70
     1
102
RTVSPropertyOp5
 70
     1
102
RTVSPropertyOp6
 70
     1
102
RTVSPropertyOp7
 70
     1
102
RTVSPropertyOp8
 70
     1
102
RTVSPropertyOp9
 70
     1
102
RTVSPropertyOp10
 70
     1
102
RTVSPropertyOp11
 70
     1
102
RTVSPropertyOp12
 70
     1
102
RTVSPropertyOp13
 70
     1
102
RTVSPropertyOp14
 70
     1
102
RTVSPropertyOp15
 70
     1
102
RTVSPropertyOp16
 70
     1
102
RTVSPropertyOp17
 70
     1
102
RTVSPropertyOp18
 70
     1
102
RTVSPropertyOp19
 70
     1
102
RTVSPropertyOp20
 70
     1
102
RTVSPropertyOp21
 70
     1
102
RTVSPropertyOp22
 70
     1
102
RTVSPropertyOp23
 70
     1
102
RTVSPropertyOp24
 70
     1
102
RTVSPropertyOp25
 70
     1
102
RTVSPropertyOp26
 70
     1
102
RTVSPropertyOp27
 70
     1
102
RTVSPropertyOp28
 70
     1
102
RTVSPropertyOp29
 70
     1
102
RTVSPropertyOp30
 70
     1
102
RTVSPropertyOp31
 70
     1
102
RTVSPropertyOp32
 70
     1
  0
XRECORD
  5
6D1
102
{ACAD_REACTORS
330
6D0
102
}
330
6D0
100
AcDbXrecord
280
     1
102
RTVSPropertyOp0
 70
     1
102
RTVSPropertyOp1
 70
     1
102
RTVSPropertyOp2
 70
     1
102
RTVSPropertyOp3
 70
     1
102
RTVSPropertyOp4
 70
     1
102
RTVSPropertyOp5
 70
     1
102
RTVSPropertyOp6
 70
     1
102
RTVSPropertyOp7
 70
     1
102
RTVSPropertyOp8
 70
     1
102
RTVSPropertyOp9
 70
     1
102
RTVSPropertyOp10
 70
     1
102
RTVSPropertyOp11
 70
     1
102
RTVSPropertyOp12
 70
     1
102
RTVSPropertyOp13
 70
     1
102
RTVSPropertyOp14
 70
     1
102
RTVSPropertyOp15
 70
     1
102
RTVSPropertyOp16
 70
     1
102
RTVSPropertyOp17
 70
     1
102
RTVSPropertyOp18
 70
     1
102
RTVSPropertyOp19
 70
     1
102
RTVSPropertyOp20
 70
     1
102
RTVSPropertyOp21
 70
     1
102
RTVSPropertyOp22
 70
     1
102
RTVSPropertyOp23
 70
     1
102
RTVSPropertyOp24
 70
     1
102
RTVSPropertyOp25
 70
     1
102
RTVSPropertyOp26
 70
     1
102
RTVSPropertyOp27
 70
     1
102
RTVSPropertyOp28
 70
     1
102
RTVSPropertyOp29
 70
     1
102
RTVSPropertyOp30
 70
     1
102
RTVSPropertyOp31
 70
     1
102
RTVSPropertyOp32
 70
     1
  0
XRECORD
  5
6BD
102
{ACAD_REACTORS
330
6BC
102
}
330
6BC
100
AcDbXrecord
280
     1
102
RTVSPropertyOp0
 70
     1
102
RTVSPropertyOp1
 70
     1
102
RTVSPropertyOp2
 70
     1
102
RTVSPropertyOp3
 70
     1
102
RTVSPropertyOp4
 70
     1
102
RTVSPropertyOp5
 70
     1
102
RTVSPropertyOp6
 70
     1
102
RTVSPropertyOp7
 70
     1
102
RTVSPropertyOp8
 70
     1
102
RTVSPropertyOp9
 70
     1
102
RTVSPropertyOp10
 70
     1
102
RTVSPropertyOp11
 70
     1
102
RTVSPropertyOp12
 70
     1
102
RTVSPropertyOp13
 70
     1
102
RTVSPropertyOp14
 70
     1
102
RTVSPropertyOp15
 70
     1
102
RTVSPropertyOp16
 70
     1
102
RTVSPropertyOp17
 70
     1
102
RTVSPropertyOp18
 70
     1
102
RTVSPropertyOp19
 70
     1
102
RTVSPropertyOp20
 70
     1
102
RTVSPropertyOp21
 70
     1
102
RTVSPropertyOp22
 70
     1
102
RTVSPropertyOp23
 70
     1
102
RTVSPropertyOp24
 70
     1
102
RTVSPropertyOp25
 70
     1
102
RTVSPropertyOp26
 70
     1
102
RTVSPropertyOp27
 70
     1
102
RTVSPropertyOp28
 70
     1
102
RTVSPropertyOp29
 70
     1
102
RTVSPropertyOp30
 70
     1
102
RTVSPropertyOp31
 70
     1
102
RTVSPropertyOp32
 70
     1
  0
XRECORD
  5
6CB
102
{ACAD_REACTORS
330
6CA
102
}
330
6CA
100
AcDbXrecord
280
     1
102
RTVSPropertyOp0
 70
     1
102
RTVSPropertyOp1
 70
     1
102
RTVSPropertyOp2
 70
     1
102
RTVSPropertyOp3
 70
     1
102
RTVSPropertyOp4
 70
     1
102
RTVSPropertyOp5
 70
     1
102
RTVSPropertyOp6
 70
     1
102
RTVSPropertyOp7
 70
     1
102
RTVSPropertyOp8
 70
     1
102
RTVSPropertyOp9
 70
     1
102
RTVSPropertyOp10
 70
     1
102
RTVSPropertyOp11
 70
     1
102
RTVSPropertyOp12
 70
     1
102
RTVSPropertyOp13
 70
     1
102
RTVSPropertyOp14
 70
     1
102
RTVSPropertyOp15
 70
     1
102
RTVSPropertyOp16
 70
     1
102
RTVSPropertyOp17
 70
     1
102
RTVSPropertyOp18
 70
     1
102
RTVSPropertyOp19
 70
     1
102
RTVSPropertyOp20
 70
     1
102
RTVSPropertyOp21
 70
     1
102
RTVSPropertyOp22
 70
     1
102
RTVSPropertyOp23
 70
     1
102
RTVSPropertyOp24
 70
     1
102
RTVSPropertyOp25
 70
     1
102
RTVSPropertyOp26
 70
     1
102
RTVSPropertyOp27
 70
     1
102
RTVSPropertyOp28
 70
     1
102
RTVSPropertyOp29
 70
     1
102
RTVSPropertyOp30
 70
     1
102
RTVSPropertyOp31
 70
     1
102
RTVSPropertyOp32
 70
     1
  0
XRECORD
  5
6D3
102
{ACAD_REACTORS
330
6D2
102
}
330
6D2
100
AcDbXrecord
280
     1
102
RTVSPropertyOp0
 70
     1
102
RTVSPropertyOp1
 70
     1
102
RTVSPropertyOp2
 70
     1
102
RTVSPropertyOp3
 70
     1
102
RTVSPropertyOp4
 70
     1
102
RTVSPropertyOp5
 70
     1
102
RTVSPropertyOp6
 70
     1
102
RTVSPropertyOp7
 70
     1
102
RTVSPropertyOp8
 70
     1
102
RTVSPropertyOp9
 70
     1
102
RTVSPropertyOp10
 70
     1
102
RTVSPropertyOp11
 70
     1
102
RTVSPropertyOp12
 70
     1
102
RTVSPropertyOp13
 70
     1
102
RTVSPropertyOp14
 70
     1
102
RTVSPropertyOp15
 70
     1
102
RTVSPropertyOp16
 70
     1
102
RTVSPropertyOp17
 70
     1
102
RTVSPropertyOp18
 70
     1
102
RTVSPropertyOp19
 70
     1
102
RTVSPropertyOp20
 70
     1
102
RTVSPropertyOp21
 70
     1
102
RTVSPropertyOp22
 70
     1
102
RTVSPropertyOp23
 70
     1
102
RTVSPropertyOp24
 70
     1
102
RTVSPropertyOp25
 70
     1
102
RTVSPropertyOp26
 70
     1
102
RTVSPropertyOp27
 70
     1
102
RTVSPropertyOp28
 70
     1
102
RTVSPropertyOp29
 70
     1
102
RTVSPropertyOp30
 70
     1
102
RTVSPropertyOp31
 70
     1
102
RTVSPropertyOp32
 70
     1
  0
ENDSEC
  0
EOF
