  0
SECTION
  2
HEADER
  9
$ACADVER
  1
AC1015
  9
$ACADMAINTVER
 70
    10
  9
$DWGCODEPAGE
  3
ANSI_1252
  9
$INSBASE
 10
0.0
 20
0.0
 30
0.0
  9
$EXTMIN
 10
5.166870151142205
 20
9.236480744598061
 30
-0.0015258207003583
  9
$EXTMAX
 10
8.694396996747698
 20
12.38955690966634
 30
0.0000000349246037
  9
$LIMMIN
 10
0.0
 20
0.0
  9
$LIMMAX
 10
12.0
 20
9.0
  9
$ORTHOMODE
 70
     0
  9
$REGENMODE
 70
     1
  9
$FILLMODE
 70
     1
  9
$QTEXTMODE
 70
     0
  9
$MIRRTEXT
 70
     1
  9
$LTSCALE
 40
1.0
  9
$ATTMODE
 70
     1
  9
$TEXTSIZE
 40
0.2
  9
$TRACEWID
 40
0.05
  9
$TEXTSTYLE
  7
STANDARD
  9
$CLAYER
  8
0
  9
$CELTYPE
  6
ByLayer
  9
$CECOLOR
 62
   256
  9
$CELTSCALE
 40
1.0
  9
$DISPSILH
 70
     0
  9
$DIMSCALE
 40
1.0
  9
$DIMASZ
 40
0.18
  9
$DIMEXO
 40
0.0625
  9
$DIMDLI
 40
0.38
  9
$DIMRND
 40
0.0
  9
$DIMDLE
 40
0.0
  9
$DIMEXE
 40
0.18
  9
$DIMTP
 40
0.0
  9
$DIMTM
 40
0.0
  9
$DIMTXT
 40
0.18
  9
$DIMCEN
 40
0.09
  9
$DIMTSZ
 40
0.0
  9
$DIMTOL
 70
     0
  9
$DIMLIM
 70
     0
  9
$DIMTIH
 70
     1
  9
$DIMTOH
 70
     1
  9
$DIMSE1
 70
     0
  9
$DIMSE2
 70
     0
  9
$DIMTAD
 70
     0
  9
$DIMZIN
 70
     0
  9
$DIMBLK
  1

  9
$DIMASO
 70
     1
  9
$DIMSHO
 70
     1
  9
$DIMPOST
  1

  9
$DIMAPOST
  1

  9
$DIMALT
 70
     0
  9
$DIMALTD
 70
     2
  9
$DIMALTF
 40
25.4
  9
$DIMLFAC
 40
1.0
  9
$DIMTOFL
 70
     0
  9
$DIMTVP
 40
0.0
  9
$DIMTIX
 70
     0
  9
$DIMSOXD
 70
     0
  9
$DIMSAH
 70
     0
  9
$DIMBLK1
  1

  9
$DIMBLK2
  1

  9
$DIMSTYLE
  2
Standard
  9
$DIMCLRD
 70
     0
  9
$DIMCLRE
 70
     0
  9
$DIMCLRT
 70
     0
  9
$DIMTFAC
 40
1.0
  9
$DIMGAP
 40
0.09
  9
$DIMJUST
 70
     0
  9
$DIMSD1
 70
     0
  9
$DIMSD2
 70
     0
  9
$DIMTOLJ
 70
     1
  9
$DIMTZIN
 70
     0
  9
$DIMALTZ
 70
     0
  9
$DIMALTTZ
 70
     0
  9
$DIMUPT
 70
     0
  9
$DIMDEC
 70
     4
  9
$DIMTDEC
 70
     4
  9
$DIMALTU
 70
     2
  9
$DIMALTTD
 70
     2
  9
$DIMTXSTY
  7
STANDARD
  9
$DIMAUNIT
 70
     0
  9
$DIMADEC
 70
     0
  9
$DIMALTRND
 40
0.0
  9
$DIMAZIN
 70
     0
  9
$DIMDSEP
 70
    46
  9
$DIMATFIT
 70
     3
  9
$DIMFRAC
 70
     0
  9
$DIMLDRBLK
  1

  9
$DIMLUNIT
 70
     2
  9
$DIMLWD
 70
    -2
  9
$DIMLWE
 70
    -2
  9
$DIMTMOVE
 70
     2
  9
$LUNITS
 70
     2
  9
$LUPREC
 70
     4
  9
$SKETCHINC
 40
0.1
  9
$FILLETRAD
 40
0.0
  9
$AUNITS
 70
     0
  9
$AUPREC
 70
     0
  9
$MENU
  1
acad
  9
$ELEVATION
 40
0.0
  9
$PELEVATION
 40
0.0
  9
$THICKNESS
 40
0.0
  9
$LIMCHECK
 70
     0
  9
$CHAMFERA
 40
0.0
  9
$CHAMFERB
 40
0.0
  9
$CHAMFERC
 40
0.0
  9
$CHAMFERD
 40
0.0
  9
$SKPOLY
 70
     0
  9
$TDCREATE
 40
2454153.473101852
  9
$TDUCREATE
 40
2454153.723101851
  9
$TDUPDATE
 40
2454153.517768495
  9
$TDUUPDATE
 40
2454153.767768495
  9
$TDINDWG
 40
0.0043053704
  9
$TDUSRTIMER
 40
0.0043053704
  9
$USRTIMER
 70
     1
  9
$ANGBASE
 50
0.0
  9
$ANGDIR
 70
     0
  9
$PDMODE
 70
     0
  9
$PDSIZE
 40
0.0
  9
$PLINEWID
 40
0.0
  9
$SPLFRAME
 70
     0
  9
$SPLINETYPE
 70
     6
  9
$SPLINESEGS
 70
     8
  9
$HANDSEED
  5
2CD6
  9
$SURFTAB1
 70
     6
  9
$SURFTAB2
 70
     6
  9
$SURFTYPE
 70
     6
  9
$SURFU
 70
     6
  9
$SURFV
 70
     6
  9
$UCSBASE
  2

  9
$UCSNAME
  2

  9
$UCSORG
 10
0.0
 20
0.0
 30
0.0
  9
$UCSXDIR
 10
1.0
 20
0.0
 30
0.0
  9
$UCSYDIR
 10
0.0
 20
1.0
 30
0.0
  9
$UCSORTHOREF
  2

  9
$UCSORTHOVIEW
 70
     0
  9
$UCSORGTOP
 10
0.0
 20
0.0
 30
0.0
  9
$UCSORGBOTTOM
 10
0.0
 20
0.0
 30
0.0
  9
$UCSORGLEFT
 10
0.0
 20
0.0
 30
0.0
  9
$UCSORGRIGHT
 10
0.0
 20
0.0
 30
0.0
  9
$UCSORGFRONT
 10
0.0
 20
0.0
 30
0.0
  9
$UCSORGBACK
 10
0.0
 20
0.0
 30
0.0
  9
$PUCSBASE
  2

  9
$PUCSNAME
  2

  9
$PUCSORG
 10
0.0
 20
0.0
 30
0.0
  9
$PUCSXDIR
 10
1.0
 20
0.0
 30
0.0
  9
$PUCSYDIR
 10
0.0
 20
1.0
 30
0.0
  9
$PUCSORTHOREF
  2

  9
$PUCSORTHOVIEW
 70
     0
  9
$PUCSORGTOP
 10
0.0
 20
0.0
 30
0.0
  9
$PUCSORGBOTTOM
 10
0.0
 20
0.0
 30
0.0
  9
$PUCSORGLEFT
 10
0.0
 20
0.0
 30
0.0
  9
$PUCSORGRIGHT
 10
0.0
 20
0.0
 30
0.0
  9
$PUCSORGFRONT
 10
0.0
 20
0.0
 30
0.0
  9
$PUCSORGBACK
 10
0.0
 20
0.0
 30
0.0
  9
$USERI1
 70
     0
  9
$USERI2
 70
     0
  9
$USERI3
 70
     0
  9
$USERI4
 70
     0
  9
$USERI5
 70
     0
  9
$USERR1
 40
0.0
  9
$USERR2
 40
0.0
  9
$USERR3
 40
0.0
  9
$USERR4
 40
0.0
  9
$USERR5
 40
0.0
  9
$WORLDVIEW
 70
     1
  9
$SHADEDGE
 70
     3
  9
$SHADEDIF
 70
    70
  9
$TILEMODE
 70
     1
  9
$MAXACTVP
 70
    16
  9
$PINSBASE
 10
0.0
 20
0.0
 30
0.0
  9
$PLIMCHECK
 70
     0
  9
$PEXTMIN
 10
1.000000000000000E+20
 20
1.000000000000000E+20
 30
1.000000000000000E+20
  9
$PEXTMAX
 10
-1.000000000000000E+20
 20
-1.000000000000000E+20
 30
-1.000000000000000E+20
  9
$PLIMMIN
 10
0.0
 20
0.0
  9
$PLIMMAX
 10
12.0
 20
9.0
  9
$UNITMODE
 70
     0
  9
$VISRETAIN
 70
     0
  9
$PLINEGEN
 70
     0
  9
$PSLTSCALE
 70
     1
  9
$TREEDEPTH
 70
  3020
  9
$CMLSTYLE
  2
Standard
  9
$CMLJUST
 70
     0
  9
$CMLSCALE
 40
1.0
  9
$PROXYGRAPHICS
 70
     1
  9
$MEASUREMENT
 70
     0
  9
$CELWEIGHT
370
    -1
  9
$ENDCAPS
280
     0
  9
$JOINSTYLE
280
     0
  9
$LWDISPLAY
290
     0
  9
$INSUNITS
 70
     0
  9
$HYPERLINKBASE
  1

  9
$STYLESHEET
  1

  9
$XEDIT
290
     1
  9
$CEPSNTYPE
380
     0
  9
$PSTYLEMODE
290
     1
  9
$FINGERPRINTGUID
  2
{F7AB1596-6D3A-41AF-8AD4-4EB6107BBEB2}
  9
$VERSIONGUID
  2
{388C3675-9BC8-4105-AFB5-A786867335D6}
  9
$EXTNAMES
290
     1
  9
$PSVPSCALE
 40
0.0
  9
$OLESTARTUP
290
     0
  0
ENDSEC
  0
SECTION
  2
CLASSES
  0
CLASS
  1
ACDBDICTIONARYWDFLT
  2
AcDbDictionaryWithDefault
  3
AutoCAD 2000
 90
        0
280
     0
281
     0
  0
CLASS
  1
ACDBPLACEHOLDER
  2
AcDbPlaceHolder
  3
AutoCAD 2000
 90
        0
280
     0
281
     0
  0
CLASS
  1
LAYOUT
  2
AcDbLayout
  3
AutoCAD 2000
 90
        0
280
     0
281
     0
  0
ENDSEC
  0
SECTION
  2
TABLES
  0
TABLE
  2
VPORT
  5
8
330
0
100
AcDbSymbolTable
 70
     4
  0
VPORT
  5
2CD5
330
8
100
AcDbSymbolTableRecord
100
AcDbViewportTableRecord
  2
*Active
 70
     0
 10
0.0
 20
0.0
 11
1.0
 21
1.0
 12
6.930633573944951
 22
10.8130188271322
 13
0.0
 23
0.0
 14
1.0
 24
1.0
 15
0.0
 25
0.0
 16
0.0
 26
0.0
 36
1.0
 17
0.0
 27
0.0
 37
0.0
 40
3.176577353876247
 41
1.498756218905472
 42
50.0
 43
0.0
 44
0.0
 50
0.0
 51
0.0
 71
     0
 72
   100
 73
     1
 74
     1
 75
     0
 76
     0
 77
     0
 78
     0
281
     0
 65
     1
110
0.0
120
0.0
130
0.0
111
1.0
121
0.0
131
0.0
112
0.0
122
1.0
132
0.0
 79
     0
146
0.0
  0
ENDTAB
  0
TABLE
  2
LTYPE
  5
5
330
0
100
AcDbSymbolTable
 70
    25
  0
LTYPE
  5
13
330
5
100
AcDbSymbolTableRecord
100
AcDbLinetypeTableRecord
  2
ByBlock
 70
     0
  3

 72
    65
 73
     0
 40
0.0
  0
LTYPE
  5
14
330
5
100
AcDbSymbolTableRecord
100
AcDbLinetypeTableRecord
  2
ByLayer
 70
     0
  3

 72
    65
 73
     0
 40
0.0
  0
LTYPE
  5
15
330
5
100
AcDbSymbolTableRecord
100
AcDbLinetypeTableRecord
  2
CONTINUOUS
 70
     0
  3
Solid line
 72
    65
 73
     0
 40
0.0
  0
LTYPE
  5
22
330
5
100
AcDbSymbolTableRecord
100
AcDbLinetypeTableRecord
  2
BORDER
 70
     0
  3
__ __ . __ __ . __ __ . __ __ . __ __ . __ __ .
 72
    65
 73
     6
 40
1.75
 49
0.5
 74
     0
 49
-0.25
 74
     0
 49
0.5
 74
     0
 49
-0.25
 74
     0
 49
0.5
 74
     0
 49
-0.25
 74
     0
  0
LTYPE
  5
23
330
5
100
AcDbSymbolTableRecord
100
AcDbLinetypeTableRecord
  2
BORDER2
 70
     0
  3
__.__.__.__.__.__.__.__.
 72
    65
 73
     6
 40
0.875
 49
0.25
 74
     0
 49
-0.125
 74
     0
 49
0.25
 74
     0
 49
-0.125
 74
     0
 49
0.25
 74
     0
 49
-0.125
 74
     0
  0
LTYPE
  5
24
330
5
100
AcDbSymbolTableRecord
100
AcDbLinetypeTableRecord
  2
BORDERX2
 70
     0
  3
____  ____  .  
 72
    65
 73
     6
 40
3.5
 49
1.0
 74
     0
 49
-0.5
 74
     0
 49
1.0
 74
     0
 49
-0.5
 74
     0
 49
1.0
 74
     0
 49
-0.5
 74
     0
  0
LTYPE
  5
25
330
5
100
AcDbSymbolTableRecord
100
AcDbLinetypeTableRecord
  2
CENTER
 70
     0
  3
____ _ ____ _ ____ _ 
 72
    65
 73
     4
 40
2.0
 49
1.25
 74
     0
 49
-0.25
 74
     0
 49
0.25
 74
     0
 49
-0.25
 74
     0
  0
LTYPE
  5
26
330
5
100
AcDbSymbolTableRecord
100
AcDbLinetypeTableRecord
  2
CENTER2
 70
     0
  3
____ _ ____ _ ____ _ 
 72
    65
 73
     4
 40
1.125
 49
0.75
 74
     0
 49
-0.125
 74
     0
 49
0.125
 74
     0
 49
-0.125
 74
     0
  0
LTYPE
  5
27
330
5
100
AcDbSymbolTableRecord
100
AcDbLinetypeTableRecord
  2
CENTERX2
 70
     0
  3
________  __  
 72
    65
 73
     4
 40
4.0
 49
2.5
 74
     0
 49
-0.5
 74
     0
 49
0.5
 74
     0
 49
-0.5
 74
     0
  0
LTYPE
  5
28
330
5
100
AcDbSymbolTableRecord
100
AcDbLinetypeTableRecord
  2
DASHDOT
 70
     0
  3
__ . __ . __ . __ . 
 72
    65
 73
     4
 40
1.0
 49
0.5
 74
     0
 49
-0.25
 74
     0
 49
0.0
 74
     0
 49
-0.25
 74
     0
  0
LTYPE
  5
29
330
5
100
AcDbSymbolTableRecord
100
AcDbLinetypeTableRecord
  2
DASHDOT2
 70
     0
  3
_._._._._._._._._.
 72
    65
 73
     4
 40
0.5
 49
0.25
 74
     0
 49
-0.125
 74
     0
 49
0.0
 74
     0
 49
-0.125
 74
     0
  0
LTYPE
  5
2A
330
5
100
AcDbSymbolTableRecord
100
AcDbLinetypeTableRecord
  2
DASHDOTX2
 70
     0
  3
____  .  ____  .  
 72
    65
 73
     4
 40
2.0
 49
1.0
 74
     0
 49
-0.5
 74
     0
 49
0.0
 74
     0
 49
-0.5
 74
     0
  0
LTYPE
  5
2B
330
5
100
AcDbSymbolTableRecord
100
AcDbLinetypeTableRecord
  2
DASHED
 70
     0
  3
__ __ __ __ __ __ __ 
 72
    65
 73
     2
 40
0.75
 49
0.5
 74
     0
 49
-0.25
 74
     0
  0
LTYPE
  5
2C
330
5
100
AcDbSymbolTableRecord
100
AcDbLinetypeTableRecord
  2
DASHED2
 70
     0
  3
_ _ _ _ _ _ _ _ _ _ 
 72
    65
 73
     2
 40
0.375
 49
0.25
 74
     0
 49
-0.125
 74
     0
  0
LTYPE
  5
2D
330
5
100
AcDbSymbolTableRecord
100
AcDbLinetypeTableRecord
  2
DASHEDX2
 70
     0
  3
____  ____  ____  
 72
    65
 73
     2
 40
1.5
 49
1.0
 74
     0
 49
-0.5
 74
     0
  0
LTYPE
  5
2E
330
5
100
AcDbSymbolTableRecord
100
AcDbLinetypeTableRecord
  2
DIVIDE
 70
     0
  3
____ . . ____ . . 
 72
    65
 73
     6
 40
1.25
 49
0.5
 74
     0
 49
-0.25
 74
     0
 49
0.0
 74
     0
 49
-0.25
 74
     0
 49
0.0
 74
     0
 49
-0.25
 74
     0
  0
LTYPE
  5
2F
330
5
100
AcDbSymbolTableRecord
100
AcDbLinetypeTableRecord
  2
DIVIDE2
 70
     0
  3
__..__..__..__..__..
 72
    65
 73
     6
 40
0.625
 49
0.25
 74
     0
 49
-0.125
 74
     0
 49
0.0
 74
     0
 49
-0.125
 74
     0
 49
0.0
 74
     0
 49
-0.125
 74
     0
  0
LTYPE
  5
30
330
5
100
AcDbSymbolTableRecord
100
AcDbLinetypeTableRecord
  2
DIVIDEX2
 70
     0
  3
________  .  .  
 72
    65
 73
     6
 40
2.5
 49
1.0
 74
     0
 49
-0.5
 74
     0
 49
0.0
 74
     0
 49
-0.5
 74
     0
 49
0.0
 74
     0
 49
-0.5
 74
     0
  0
LTYPE
  5
31
330
5
100
AcDbSymbolTableRecord
100
AcDbLinetypeTableRecord
  2
DOT
 70
     0
  3
. . . . . . . . . 
 72
    65
 73
     2
 40
0.25
 49
0.0
 74
     0
 49
-0.25
 74
     0
  0
LTYPE
  5
32
330
5
100
AcDbSymbolTableRecord
100
AcDbLinetypeTableRecord
  2
DOT2
 70
     0
  3
..................
 72
    65
 73
     2
 40
0.125
 49
0.0
 74
     0
 49
-0.125
 74
     0
  0
LTYPE
  5
33
330
5
100
AcDbSymbolTableRecord
100
AcDbLinetypeTableRecord
  2
DOTX2
 70
     0
  3
.  .  .  .  .  .  
 72
    65
 73
     2
 40
0.5
 49
0.0
 74
     0
 49
-0.5
 74
     0
  0
LTYPE
  5
34
330
5
100
AcDbSymbolTableRecord
100
AcDbLinetypeTableRecord
  2
HIDDEN
 70
     0
  3
__ __ __ __ __ __ 
 72
    65
 73
     2
 40
0.375
 49
0.25
 74
     0
 49
-0.125
 74
     0
  0
LTYPE
  5
35
330
5
100
AcDbSymbolTableRecord
100
AcDbLinetypeTableRecord
  2
HIDDEN2
 70
     0
  3
_ _ _ _ _ _ _ _ _ 
 72
    65
 73
     2
 40
0.1875
 49
0.125
 74
     0
 49
-0.0625
 74
     0
  0
LTYPE
  5
36
330
5
100
AcDbSymbolTableRecord
100
AcDbLinetypeTableRecord
  2
HIDDENX2
 70
     0
  3
____ ____ ____ ____ 
 72
    65
 73
     2
 40
0.75
 49
0.5
 74
     0
 49
-0.25
 74
     0
  0
LTYPE
  5
37
330
5
100
AcDbSymbolTableRecord
100
AcDbLinetypeTableRecord
  2
PHANTOM
 70
     0
  3
______  __  __  
 72
    65
 73
     6
 40
2.5
 49
1.25
 74
     0
 49
-0.25
 74
     0
 49
0.25
 74
     0
 49
-0.25
 74
     0
 49
0.25
 74
     0
 49
-0.25
 74
     0
  0
LTYPE
  5
38
330
5
100
AcDbSymbolTableRecord
100
AcDbLinetypeTableRecord
  2
PHANTOM2
 70
     0
  3
___ _ _ ___ _ _ 
 72
    65
 73
     6
 40
1.25
 49
0.625
 74
     0
 49
-0.125
 74
     0
 49
0.125
 74
     0
 49
-0.125
 74
     0
 49
0.125
 74
     0
 49
-0.125
 74
     0
  0
LTYPE
  5
39
330
5
100
AcDbSymbolTableRecord
100
AcDbLinetypeTableRecord
  2
PHANTOMX2
 70
     0
  3
___ _ _ ___ _ _ 
 72
    65
 73
     6
 40
5.0
 49
2.5
 74
     0
 49
-0.5
 74
     0
 49
0.5
 74
     0
 49
-0.5
 74
     0
 49
0.5
 74
     0
 49
-0.5
 74
     0
  0
ENDTAB
  0
TABLE
  2
LAYER
  5
2
330
0
100
AcDbSymbolTable
 70
   257
  0
LAYER
  5
10
330
2
100
AcDbSymbolTableRecord
100
AcDbLayerTableRecord
  2
0
 70
     0
 62
     7
  6
CONTINUOUS
370
    -3
390
F
  0
LAYER
  5
3A
330
2
100
AcDbSymbolTableRecord
100
AcDbLayerTableRecord
  2
1
 70
     0
 62
     1
  6
CONTINUOUS
370
    -3
390
F
  0
LAYER
  5
3B
330
2
100
AcDbSymbolTableRecord
100
AcDbLayerTableRecord
  2
2
 70
     0
 62
     2
  6
CONTINUOUS
370
    -3
390
F
  0
LAYER
  5
3C
330
2
100
AcDbSymbolTableRecord
100
AcDbLayerTableRecord
  2
3
 70
     0
 62
     3
  6
CONTINUOUS
370
    -3
390
F
  0
LAYER
  5
3D
330
2
100
AcDbSymbolTableRecord
100
AcDbLayerTableRecord
  2
4
 70
     0
 62
     4
  6
CONTINUOUS
370
    -3
390
F
  0
LAYER
  5
3E
330
2
100
AcDbSymbolTableRecord
100
AcDbLayerTableRecord
  2
5
 70
     0
 62
     5
  6
CONTINUOUS
370
    -3
390
F
  0
LAYER
  5
3F
330
2
100
AcDbSymbolTableRecord
100
AcDbLayerTableRecord
  2
6
 70
     0
 62
     6
  6
CONTINUOUS
370
    -3
390
F
  0
LAYER
  5
40
330
2
100
AcDbSymbolTableRecord
100
AcDbLayerTableRecord
  2
7
 70
     0
 62
     7
  6
CONTINUOUS
370
    -3
390
F
  0
LAYER
  5
41
330
2
100
AcDbSymbolTableRecord
100
AcDbLayerTableRecord
  2
8
 70
     0
 62
     8
  6
CONTINUOUS
370
    -3
390
F
  0
LAYER
  5
42
330
2
100
AcDbSymbolTableRecord
100
AcDbLayerTableRecord
  2
9
 70
     0
 62
     9
  6
CONTINUOUS
370
    -3
390
F
  0
LAYER
  5
43
330
2
100
AcDbSymbolTableRecord
100
AcDbLayerTableRecord
  2
10
 70
     0
 62
    10
  6
CONTINUOUS
370
    -3
390
F
  0
LAYER
  5
44
330
2
100
AcDbSymbolTableRecord
100
AcDbLayerTableRecord
  2
11
 70
     0
 62
    11
  6
CONTINUOUS
370
    -3
390
F
  0
LAYER
  5
45
330
2
100
AcDbSymbolTableRecord
100
AcDbLayerTableRecord
  2
12
 70
     0
 62
    12
  6
CONTINUOUS
370
    -3
390
F
  0
LAYER
  5
46
330
2
100
AcDbSymbolTableRecord
100
AcDbLayerTableRecord
  2
13
 70
     0
 62
    13
  6
CONTINUOUS
370
    -3
390
F
  0
LAYER
  5
47
330
2
100
AcDbSymbolTableRecord
100
AcDbLayerTableRecord
  2
14
 70
     0
 62
    14
  6
CONTINUOUS
370
    -3
390
F
  0
LAYER
  5
48
330
2
100
AcDbSymbolTableRecord
100
AcDbLayerTableRecord
  2
15
 70
     0
 62
    15
  6
CONTINUOUS
370
    -3
390
F
  0
LAYER
  5
49
330
2
100
AcDbSymbolTableRecord
100
AcDbLayerTableRecord
  2
16
 70
     0
 62
    16
  6
CONTINUOUS
370
    -3
390
F
  0
LAYER
  5
4A
330
2
100
AcDbSymbolTableRecord
100
AcDbLayerTableRecord
  2
17
 70
     0
 62
    17
  6
CONTINUOUS
370
    -3
390
F
  0
LAYER
  5
4B
330
2
100
AcDbSymbolTableRecord
100
AcDbLayerTableRecord
  2
18
 70
     0
 62
    18
  6
CONTINUOUS
370
    -3
390
F
  0
LAYER
  5
4C
330
2
100
AcDbSymbolTableRecord
100
AcDbLayerTableRecord
  2
19
 70
     0
 62
    19
  6
CONTINUOUS
370
    -3
390
F
  0
LAYER
  5
4D
330
2
100
AcDbSymbolTableRecord
100
AcDbLayerTableRecord
  2
20
 70
     0
 62
    20
  6
CONTINUOUS
370
    -3
390
F
  0
LAYER
  5
4E
330
2
100
AcDbSymbolTableRecord
100
AcDbLayerTableRecord
  2
21
 70
     0
 62
    21
  6
CONTINUOUS
370
    -3
390
F
  0
LAYER
  5
4F
330
2
100
AcDbSymbolTableRecord
100
AcDbLayerTableRecord
  2
22
 70
     0
 62
    22
  6
CONTINUOUS
370
    -3
390
F
  0
LAYER
  5
50
330
2
100
AcDbSymbolTableRecord
100
AcDbLayerTableRecord
  2
23
 70
     0
 62
    23
  6
CONTINUOUS
370
    -3
390
F
  0
LAYER
  5
51
330
2
100
AcDbSymbolTableRecord
100
AcDbLayerTableRecord
  2
24
 70
     0
 62
    24
  6
CONTINUOUS
370
    -3
390
F
  0
LAYER
  5
52
330
2
100
AcDbSymbolTableRecord
100
AcDbLayerTableRecord
  2
25
 70
     0
 62
    25
  6
CONTINUOUS
370
    -3
390
F
  0
LAYER
  5
53
330
2
100
AcDbSymbolTableRecord
100
AcDbLayerTableRecord
  2
26
 70
     0
 62
    26
  6
CONTINUOUS
370
    -3
390
F
  0
LAYER
  5
54
330
2
100
AcDbSymbolTableRecord
100
AcDbLayerTableRecord
  2
27
 70
     0
 62
    27
  6
CONTINUOUS
370
    -3
390
F
  0
LAYER
  5
55
330
2
100
AcDbSymbolTableRecord
100
AcDbLayerTableRecord
  2
28
 70
     0
 62
    28
  6
CONTINUOUS
370
    -3
390
F
  0
LAYER
  5
56
330
2
100
AcDbSymbolTableRecord
100
AcDbLayerTableRecord
  2
29
 70
     0
 62
    29
  6
CONTINUOUS
370
    -3
390
F
  0
LAYER
  5
57
330
2
100
AcDbSymbolTableRecord
100
AcDbLayerTableRecord
  2
30
 70
     0
 62
    30
  6
CONTINUOUS
370
    -3
390
F
  0
LAYER
  5
58
330
2
100
AcDbSymbolTableRecord
100
AcDbLayerTableRecord
  2
31
 70
     0
 62
    31
  6
CONTINUOUS
370
    -3
390
F
  0
LAYER
  5
59
330
2
100
AcDbSymbolTableRecord
100
AcDbLayerTableRecord
  2
32
 70
     0
 62
    32
  6
CONTINUOUS
370
    -3
390
F
  0
LAYER
  5
5A
330
2
100
AcDbSymbolTableRecord
100
AcDbLayerTableRecord
  2
33
 70
     0
 62
    33
  6
CONTINUOUS
370
    -3
390
F
  0
LAYER
  5
5B
330
2
100
AcDbSymbolTableRecord
100
AcDbLayerTableRecord
  2
34
 70
     0
 62
    34
  6
CONTINUOUS
370
    -3
390
F
  0
LAYER
  5
5C
330
2
100
AcDbSymbolTableRecord
100
AcDbLayerTableRecord
  2
35
 70
     0
 62
    35
  6
CONTINUOUS
370
    -3
390
F
  0
LAYER
  5
5D
330
2
100
AcDbSymbolTableRecord
100
AcDbLayerTableRecord
  2
36
 70
     0
 62
    36
  6
CONTINUOUS
370
    -3
390
F
  0
LAYER
  5
5E
330
2
100
AcDbSymbolTableRecord
100
AcDbLayerTableRecord
  2
37
 70
     0
 62
    37
  6
CONTINUOUS
370
    -3
390
F
  0
LAYER
  5
5F
330
2
100
AcDbSymbolTableRecord
100
AcDbLayerTableRecord
  2
38
 70
     0
 62
    38
  6
CONTINUOUS
370
    -3
390
F
  0
LAYER
  5
60
330
2
100
AcDbSymbolTableRecord
100
AcDbLayerTableRecord
  2
39
 70
     0
 62
    39
  6
CONTINUOUS
370
    -3
390
F
  0
LAYER
  5
61
330
2
100
AcDbSymbolTableRecord
100
AcDbLayerTableRecord
  2
40
 70
     0
 62
    40
  6
CONTINUOUS
370
    -3
390
F
  0
LAYER
  5
62
330
2
100
AcDbSymbolTableRecord
100
AcDbLayerTableRecord
  2
41
 70
     0
 62
    41
  6
CONTINUOUS
370
    -3
390
F
  0
LAYER
  5
63
330
2
100
AcDbSymbolTableRecord
100
AcDbLayerTableRecord
  2
42
 70
     0
 62
    42
  6
CONTINUOUS
370
    -3
390
F
  0
LAYER
  5
64
330
2
100
AcDbSymbolTableRecord
100
AcDbLayerTableRecord
  2
43
 70
     0
 62
    43
  6
CONTINUOUS
370
    -3
390
F
  0
LAYER
  5
65
330
2
100
AcDbSymbolTableRecord
100
AcDbLayerTableRecord
  2
44
 70
     0
 62
    44
  6
CONTINUOUS
370
    -3
390
F
  0
LAYER
  5
66
330
2
100
AcDbSymbolTableRecord
100
AcDbLayerTableRecord
  2
45
 70
     0
 62
    45
  6
CONTINUOUS
370
    -3
390
F
  0
LAYER
  5
67
330
2
100
AcDbSymbolTableRecord
100
AcDbLayerTableRecord
  2
46
 70
     0
 62
    46
  6
CONTINUOUS
370
    -3
390
F
  0
LAYER
  5
68
330
2
100
AcDbSymbolTableRecord
100
AcDbLayerTableRecord
  2
47
 70
     0
 62
    47
  6
CONTINUOUS
370
    -3
390
F
  0
LAYER
  5
69
330
2
100
AcDbSymbolTableRecord
100
AcDbLayerTableRecord
  2
48
 70
     0
 62
    48
  6
CONTINUOUS
370
    -3
390
F
  0
LAYER
  5
6A
330
2
100
AcDbSymbolTableRecord
100
AcDbLayerTableRecord
  2
49
 70
     0
 62
    49
  6
CONTINUOUS
370
    -3
390
F
  0
LAYER
  5
6B
330
2
100
AcDbSymbolTableRecord
100
AcDbLayerTableRecord
  2
50
 70
     0
 62
    50
  6
CONTINUOUS
370
    -3
390
F
  0
LAYER
  5
6C
330
2
100
AcDbSymbolTableRecord
100
AcDbLayerTableRecord
  2
51
 70
     0
 62
    51
  6
CONTINUOUS
370
    -3
390
F
  0
LAYER
  5
6D
330
2
100
AcDbSymbolTableRecord
100
AcDbLayerTableRecord
  2
52
 70
     0
 62
    52
  6
CONTINUOUS
370
    -3
390
F
  0
LAYER
  5
6E
330
2
100
AcDbSymbolTableRecord
100
AcDbLayerTableRecord
  2
53
 70
     0
 62
    53
  6
CONTINUOUS
370
    -3
390
F
  0
LAYER
  5
6F
330
2
100
AcDbSymbolTableRecord
100
AcDbLayerTableRecord
  2
54
 70
     0
 62
    54
  6
CONTINUOUS
370
    -3
390
F
  0
LAYER
  5
70
330
2
100
AcDbSymbolTableRecord
100
AcDbLayerTableRecord
  2
55
 70
     0
 62
    55
  6
CONTINUOUS
370
    -3
390
F
  0
LAYER
  5
71
330
2
100
AcDbSymbolTableRecord
100
AcDbLayerTableRecord
  2
56
 70
     0
 62
    56
  6
CONTINUOUS
370
    -3
390
F
  0
LAYER
  5
72
330
2
100
AcDbSymbolTableRecord
100
AcDbLayerTableRecord
  2
57
 70
     0
 62
    57
  6
CONTINUOUS
370
    -3
390
F
  0
LAYER
  5
73
330
2
100
AcDbSymbolTableRecord
100
AcDbLayerTableRecord
  2
58
 70
     0
 62
    58
  6
CONTINUOUS
370
    -3
390
F
  0
LAYER
  5
74
330
2
100
AcDbSymbolTableRecord
100
AcDbLayerTableRecord
  2
59
 70
     0
 62
    59
  6
CONTINUOUS
370
    -3
390
F
  0
LAYER
  5
75
330
2
100
AcDbSymbolTableRecord
100
AcDbLayerTableRecord
  2
60
 70
     0
 62
    60
  6
CONTINUOUS
370
    -3
390
F
  0
LAYER
  5
76
330
2
100
AcDbSymbolTableRecord
100
AcDbLayerTableRecord
  2
61
 70
     0
 62
    61
  6
CONTINUOUS
370
    -3
390
F
  0
LAYER
  5
77
330
2
100
AcDbSymbolTableRecord
100
AcDbLayerTableRecord
  2
62
 70
     0
 62
    62
  6
CONTINUOUS
370
    -3
390
F
  0
LAYER
  5
78
330
2
100
AcDbSymbolTableRecord
100
AcDbLayerTableRecord
  2
63
 70
     0
 62
    63
  6
CONTINUOUS
370
    -3
390
F
  0
LAYER
  5
79
330
2
100
AcDbSymbolTableRecord
100
AcDbLayerTableRecord
  2
64
 70
     0
 62
    64
  6
CONTINUOUS
370
    -3
390
F
  0
LAYER
  5
7A
330
2
100
AcDbSymbolTableRecord
100
AcDbLayerTableRecord
  2
65
 70
     0
 62
    65
  6
CONTINUOUS
370
    -3
390
F
  0
LAYER
  5
7B
330
2
100
AcDbSymbolTableRecord
100
AcDbLayerTableRecord
  2
66
 70
     0
 62
    66
  6
CONTINUOUS
370
    -3
390
F
  0
LAYER
  5
7C
330
2
100
AcDbSymbolTableRecord
100
AcDbLayerTableRecord
  2
67
 70
     0
 62
    67
  6
CONTINUOUS
370
    -3
390
F
  0
LAYER
  5
7D
330
2
100
AcDbSymbolTableRecord
100
AcDbLayerTableRecord
  2
68
 70
     0
 62
    68
  6
CONTINUOUS
370
    -3
390
F
  0
LAYER
  5
7E
330
2
100
AcDbSymbolTableRecord
100
AcDbLayerTableRecord
  2
69
 70
     0
 62
    69
  6
CONTINUOUS
370
    -3
390
F
  0
LAYER
  5
7F
330
2
100
AcDbSymbolTableRecord
100
AcDbLayerTableRecord
  2
70
 70
     0
 62
    70
  6
CONTINUOUS
370
    -3
390
F
  0
LAYER
  5
80
330
2
100
AcDbSymbolTableRecord
100
AcDbLayerTableRecord
  2
71
 70
     0
 62
    71
  6
CONTINUOUS
370
    -3
390
F
  0
LAYER
  5
81
330
2
100
AcDbSymbolTableRecord
100
AcDbLayerTableRecord
  2
72
 70
     0
 62
    72
  6
CONTINUOUS
370
    -3
390
F
  0
LAYER
  5
82
330
2
100
AcDbSymbolTableRecord
100
AcDbLayerTableRecord
  2
73
 70
     0
 62
    73
  6
CONTINUOUS
370
    -3
390
F
  0
LAYER
  5
83
330
2
100
AcDbSymbolTableRecord
100
AcDbLayerTableRecord
  2
74
 70
     0
 62
    74
  6
CONTINUOUS
370
    -3
390
F
  0
LAYER
  5
84
330
2
100
AcDbSymbolTableRecord
100
AcDbLayerTableRecord
  2
75
 70
     0
 62
    75
  6
CONTINUOUS
370
    -3
390
F
  0
LAYER
  5
85
330
2
100
AcDbSymbolTableRecord
100
AcDbLayerTableRecord
  2
76
 70
     0
 62
    76
  6
CONTINUOUS
370
    -3
390
F
  0
LAYER
  5
86
330
2
100
AcDbSymbolTableRecord
100
AcDbLayerTableRecord
  2
77
 70
     0
 62
    77
  6
CONTINUOUS
370
    -3
390
F
  0
LAYER
  5
87
330
2
100
AcDbSymbolTableRecord
100
AcDbLayerTableRecord
  2
78
 70
     0
 62
    78
  6
CONTINUOUS
370
    -3
390
F
  0
LAYER
  5
88
330
2
100
AcDbSymbolTableRecord
100
AcDbLayerTableRecord
  2
79
 70
     0
 62
    79
  6
CONTINUOUS
370
    -3
390
F
  0
LAYER
  5
89
330
2
100
AcDbSymbolTableRecord
100
AcDbLayerTableRecord
  2
80
 70
     0
 62
    80
  6
CONTINUOUS
370
    -3
390
F
  0
LAYER
  5
8A
330
2
100
AcDbSymbolTableRecord
100
AcDbLayerTableRecord
  2
81
 70
     0
 62
    81
  6
CONTINUOUS
370
    -3
390
F
  0
LAYER
  5
8B
330
2
100
AcDbSymbolTableRecord
100
AcDbLayerTableRecord
  2
82
 70
     0
 62
    82
  6
CONTINUOUS
370
    -3
390
F
  0
LAYER
  5
8C
330
2
100
AcDbSymbolTableRecord
100
AcDbLayerTableRecord
  2
83
 70
     0
 62
    83
  6
CONTINUOUS
370
    -3
390
F
  0
LAYER
  5
8D
330
2
100
AcDbSymbolTableRecord
100
AcDbLayerTableRecord
  2
84
 70
     0
 62
    84
  6
CONTINUOUS
370
    -3
390
F
  0
LAYER
  5
8E
330
2
100
AcDbSymbolTableRecord
100
AcDbLayerTableRecord
  2
85
 70
     0
 62
    85
  6
CONTINUOUS
370
    -3
390
F
  0
LAYER
  5
8F
330
2
100
AcDbSymbolTableRecord
100
AcDbLayerTableRecord
  2
86
 70
     0
 62
    86
  6
CONTINUOUS
370
    -3
390
F
  0
LAYER
  5
90
330
2
100
AcDbSymbolTableRecord
100
AcDbLayerTableRecord
  2
87
 70
     0
 62
    87
  6
CONTINUOUS
370
    -3
390
F
  0
LAYER
  5
91
330
2
100
AcDbSymbolTableRecord
100
AcDbLayerTableRecord
  2
88
 70
     0
 62
    88
  6
CONTINUOUS
370
    -3
390
F
  0
LAYER
  5
92
330
2
100
AcDbSymbolTableRecord
100
AcDbLayerTableRecord
  2
89
 70
     0
 62
    89
  6
CONTINUOUS
370
    -3
390
F
  0
LAYER
  5
93
330
2
100
AcDbSymbolTableRecord
100
AcDbLayerTableRecord
  2
90
 70
     0
 62
    90
  6
CONTINUOUS
370
    -3
390
F
  0
LAYER
  5
94
330
2
100
AcDbSymbolTableRecord
100
AcDbLayerTableRecord
  2
91
 70
     0
 62
    91
  6
CONTINUOUS
370
    -3
390
F
  0
LAYER
  5
95
330
2
100
AcDbSymbolTableRecord
100
AcDbLayerTableRecord
  2
92
 70
     0
 62
    92
  6
CONTINUOUS
370
    -3
390
F
  0
LAYER
  5
96
330
2
100
AcDbSymbolTableRecord
100
AcDbLayerTableRecord
  2
93
 70
     0
 62
    93
  6
CONTINUOUS
370
    -3
390
F
  0
LAYER
  5
97
330
2
100
AcDbSymbolTableRecord
100
AcDbLayerTableRecord
  2
94
 70
     0
 62
    94
  6
CONTINUOUS
370
    -3
390
F
  0
LAYER
  5
98
330
2
100
AcDbSymbolTableRecord
100
AcDbLayerTableRecord
  2
95
 70
     0
 62
    95
  6
CONTINUOUS
370
    -3
390
F
  0
LAYER
  5
99
330
2
100
AcDbSymbolTableRecord
100
AcDbLayerTableRecord
  2
96
 70
     0
 62
    96
  6
CONTINUOUS
370
    -3
390
F
  0
LAYER
  5
9A
330
2
100
AcDbSymbolTableRecord
100
AcDbLayerTableRecord
  2
97
 70
     0
 62
    97
  6
CONTINUOUS
370
    -3
390
F
  0
LAYER
  5
9B
330
2
100
AcDbSymbolTableRecord
100
AcDbLayerTableRecord
  2
98
 70
     0
 62
    98
  6
CONTINUOUS
370
    -3
390
F
  0
LAYER
  5
9C
330
2
100
AcDbSymbolTableRecord
100
AcDbLayerTableRecord
  2
99
 70
     0
 62
    99
  6
CONTINUOUS
370
    -3
390
F
  0
LAYER
  5
9D
330
2
100
AcDbSymbolTableRecord
100
AcDbLayerTableRecord
  2
100
 70
     0
 62
   100
  6
CONTINUOUS
370
    -3
390
F
  0
LAYER
  5
9E
330
2
100
AcDbSymbolTableRecord
100
AcDbLayerTableRecord
  2
101
 70
     0
 62
   101
  6
CONTINUOUS
370
    -3
390
F
  0
LAYER
  5
9F
330
2
100
AcDbSymbolTableRecord
100
AcDbLayerTableRecord
  2
102
 70
     0
 62
   102
  6
CONTINUOUS
370
    -3
390
F
  0
LAYER
  5
A0
330
2
100
AcDbSymbolTableRecord
100
AcDbLayerTableRecord
  2
103
 70
     0
 62
   103
  6
CONTINUOUS
370
    -3
390
F
  0
LAYER
  5
A1
330
2
100
AcDbSymbolTableRecord
100
AcDbLayerTableRecord
  2
104
 70
     0
 62
   104
  6
CONTINUOUS
370
    -3
390
F
  0
LAYER
  5
A2
330
2
100
AcDbSymbolTableRecord
100
AcDbLayerTableRecord
  2
105
 70
     0
 62
   105
  6
CONTINUOUS
370
    -3
390
F
  0
LAYER
  5
A3
330
2
100
AcDbSymbolTableRecord
100
AcDbLayerTableRecord
  2
106
 70
     0
 62
   106
  6
CONTINUOUS
370
    -3
390
F
  0
LAYER
  5
A4
330
2
100
AcDbSymbolTableRecord
100
AcDbLayerTableRecord
  2
107
 70
     0
 62
   107
  6
CONTINUOUS
370
    -3
390
F
  0
LAYER
  5
A5
330
2
100
AcDbSymbolTableRecord
100
AcDbLayerTableRecord
  2
108
 70
     0
 62
   108
  6
CONTINUOUS
370
    -3
390
F
  0
LAYER
  5
A6
330
2
100
AcDbSymbolTableRecord
100
AcDbLayerTableRecord
  2
109
 70
     0
 62
   109
  6
CONTINUOUS
370
    -3
390
F
  0
LAYER
  5
A7
330
2
100
AcDbSymbolTableRecord
100
AcDbLayerTableRecord
  2
110
 70
     0
 62
   110
  6
CONTINUOUS
370
    -3
390
F
  0
LAYER
  5
A8
330
2
100
AcDbSymbolTableRecord
100
AcDbLayerTableRecord
  2
111
 70
     0
 62
   111
  6
CONTINUOUS
370
    -3
390
F
  0
LAYER
  5
A9
330
2
100
AcDbSymbolTableRecord
100
AcDbLayerTableRecord
  2
112
 70
     0
 62
   112
  6
CONTINUOUS
370
    -3
390
F
  0
LAYER
  5
AA
330
2
100
AcDbSymbolTableRecord
100
AcDbLayerTableRecord
  2
113
 70
     0
 62
   113
  6
CONTINUOUS
370
    -3
390
F
  0
LAYER
  5
AB
330
2
100
AcDbSymbolTableRecord
100
AcDbLayerTableRecord
  2
114
 70
     0
 62
   114
  6
CONTINUOUS
370
    -3
390
F
  0
LAYER
  5
AC
330
2
100
AcDbSymbolTableRecord
100
AcDbLayerTableRecord
  2
115
 70
     0
 62
   115
  6
CONTINUOUS
370
    -3
390
F
  0
LAYER
  5
AD
330
2
100
AcDbSymbolTableRecord
100
AcDbLayerTableRecord
  2
116
 70
     0
 62
   116
  6
CONTINUOUS
370
    -3
390
F
  0
LAYER
  5
AE
330
2
100
AcDbSymbolTableRecord
100
AcDbLayerTableRecord
  2
117
 70
     0
 62
   117
  6
CONTINUOUS
370
    -3
390
F
  0
LAYER
  5
AF
330
2
100
AcDbSymbolTableRecord
100
AcDbLayerTableRecord
  2
118
 70
     0
 62
   118
  6
CONTINUOUS
370
    -3
390
F
  0
LAYER
  5
B0
330
2
100
AcDbSymbolTableRecord
100
AcDbLayerTableRecord
  2
119
 70
     0
 62
   119
  6
CONTINUOUS
370
    -3
390
F
  0
LAYER
  5
B1
330
2
100
AcDbSymbolTableRecord
100
AcDbLayerTableRecord
  2
120
 70
     0
 62
   120
  6
CONTINUOUS
370
    -3
390
F
  0
LAYER
  5
B2
330
2
100
AcDbSymbolTableRecord
100
AcDbLayerTableRecord
  2
121
 70
     0
 62
   121
  6
CONTINUOUS
370
    -3
390
F
  0
LAYER
  5
B3
330
2
100
AcDbSymbolTableRecord
100
AcDbLayerTableRecord
  2
122
 70
     0
 62
   122
  6
CONTINUOUS
370
    -3
390
F
  0
LAYER
  5
B4
330
2
100
AcDbSymbolTableRecord
100
AcDbLayerTableRecord
  2
123
 70
     0
 62
   123
  6
CONTINUOUS
370
    -3
390
F
  0
LAYER
  5
B5
330
2
100
AcDbSymbolTableRecord
100
AcDbLayerTableRecord
  2
124
 70
     0
 62
   124
  6
CONTINUOUS
370
    -3
390
F
  0
LAYER
  5
B6
330
2
100
AcDbSymbolTableRecord
100
AcDbLayerTableRecord
  2
125
 70
     0
 62
   125
  6
CONTINUOUS
370
    -3
390
F
  0
LAYER
  5
B7
330
2
100
AcDbSymbolTableRecord
100
AcDbLayerTableRecord
  2
126
 70
     0
 62
   126
  6
CONTINUOUS
370
    -3
390
F
  0
LAYER
  5
B8
330
2
100
AcDbSymbolTableRecord
100
AcDbLayerTableRecord
  2
127
 70
     0
 62
   127
  6
CONTINUOUS
370
    -3
390
F
  0
LAYER
  5
B9
330
2
100
AcDbSymbolTableRecord
100
AcDbLayerTableRecord
  2
128
 70
     0
 62
   128
  6
CONTINUOUS
370
    -3
390
F
  0
LAYER
  5
BA
330
2
100
AcDbSymbolTableRecord
100
AcDbLayerTableRecord
  2
129
 70
     0
 62
   129
  6
CONTINUOUS
370
    -3
390
F
  0
LAYER
  5
BB
330
2
100
AcDbSymbolTableRecord
100
AcDbLayerTableRecord
  2
130
 70
     0
 62
   130
  6
CONTINUOUS
370
    -3
390
F
  0
LAYER
  5
BC
330
2
100
AcDbSymbolTableRecord
100
AcDbLayerTableRecord
  2
131
 70
     0
 62
   131
  6
CONTINUOUS
370
    -3
390
F
  0
LAYER
  5
BD
330
2
100
AcDbSymbolTableRecord
100
AcDbLayerTableRecord
  2
132
 70
     0
 62
   132
  6
CONTINUOUS
370
    -3
390
F
  0
LAYER
  5
BE
330
2
100
AcDbSymbolTableRecord
100
AcDbLayerTableRecord
  2
133
 70
     0
 62
   133
  6
CONTINUOUS
370
    -3
390
F
  0
LAYER
  5
BF
330
2
100
AcDbSymbolTableRecord
100
AcDbLayerTableRecord
  2
134
 70
     0
 62
   134
  6
CONTINUOUS
370
    -3
390
F
  0
LAYER
  5
C0
330
2
100
AcDbSymbolTableRecord
100
AcDbLayerTableRecord
  2
135
 70
     0
 62
   135
  6
CONTINUOUS
370
    -3
390
F
  0
LAYER
  5
C1
330
2
100
AcDbSymbolTableRecord
100
AcDbLayerTableRecord
  2
136
 70
     0
 62
   136
  6
CONTINUOUS
370
    -3
390
F
  0
LAYER
  5
C2
330
2
100
AcDbSymbolTableRecord
100
AcDbLayerTableRecord
  2
137
 70
     0
 62
   137
  6
CONTINUOUS
370
    -3
390
F
  0
LAYER
  5
C3
330
2
100
AcDbSymbolTableRecord
100
AcDbLayerTableRecord
  2
138
 70
     0
 62
   138
  6
CONTINUOUS
370
    -3
390
F
  0
LAYER
  5
C4
330
2
100
AcDbSymbolTableRecord
100
AcDbLayerTableRecord
  2
139
 70
     0
 62
   139
  6
CONTINUOUS
370
    -3
390
F
  0
LAYER
  5
C5
330
2
100
AcDbSymbolTableRecord
100
AcDbLayerTableRecord
  2
140
 70
     0
 62
   140
  6
CONTINUOUS
370
    -3
390
F
  0
LAYER
  5
C6
330
2
100
AcDbSymbolTableRecord
100
AcDbLayerTableRecord
  2
141
 70
     0
 62
   141
  6
CONTINUOUS
370
    -3
390
F
  0
LAYER
  5
C7
330
2
100
AcDbSymbolTableRecord
100
AcDbLayerTableRecord
  2
142
 70
     0
 62
   142
  6
CONTINUOUS
370
    -3
390
F
  0
LAYER
  5
C8
330
2
100
AcDbSymbolTableRecord
100
AcDbLayerTableRecord
  2
143
 70
     0
 62
   143
  6
CONTINUOUS
370
    -3
390
F
  0
LAYER
  5
C9
330
2
100
AcDbSymbolTableRecord
100
AcDbLayerTableRecord
  2
144
 70
     0
 62
   144
  6
CONTINUOUS
370
    -3
390
F
  0
LAYER
  5
CA
330
2
100
AcDbSymbolTableRecord
100
AcDbLayerTableRecord
  2
145
 70
     0
 62
   145
  6
CONTINUOUS
370
    -3
390
F
  0
LAYER
  5
CB
330
2
100
AcDbSymbolTableRecord
100
AcDbLayerTableRecord
  2
146
 70
     0
 62
   146
  6
CONTINUOUS
370
    -3
390
F
  0
LAYER
  5
CC
330
2
100
AcDbSymbolTableRecord
100
AcDbLayerTableRecord
  2
147
 70
     0
 62
   147
  6
CONTINUOUS
370
    -3
390
F
  0
LAYER
  5
CD
330
2
100
AcDbSymbolTableRecord
100
AcDbLayerTableRecord
  2
148
 70
     0
 62
   148
  6
CONTINUOUS
370
    -3
390
F
  0
LAYER
  5
CE
330
2
100
AcDbSymbolTableRecord
100
AcDbLayerTableRecord
  2
149
 70
     0
 62
   149
  6
CONTINUOUS
370
    -3
390
F
  0
LAYER
  5
CF
330
2
100
AcDbSymbolTableRecord
100
AcDbLayerTableRecord
  2
150
 70
     0
 62
   150
  6
CONTINUOUS
370
    -3
390
F
  0
LAYER
  5
D0
330
2
100
AcDbSymbolTableRecord
100
AcDbLayerTableRecord
  2
151
 70
     0
 62
   151
  6
CONTINUOUS
370
    -3
390
F
  0
LAYER
  5
D1
330
2
100
AcDbSymbolTableRecord
100
AcDbLayerTableRecord
  2
152
 70
     0
 62
   152
  6
CONTINUOUS
370
    -3
390
F
  0
LAYER
  5
D2
330
2
100
AcDbSymbolTableRecord
100
AcDbLayerTableRecord
  2
153
 70
     0
 62
   153
  6
CONTINUOUS
370
    -3
390
F
  0
LAYER
  5
D3
330
2
100
AcDbSymbolTableRecord
100
AcDbLayerTableRecord
  2
154
 70
     0
 62
   154
  6
CONTINUOUS
370
    -3
390
F
  0
LAYER
  5
D4
330
2
100
AcDbSymbolTableRecord
100
AcDbLayerTableRecord
  2
155
 70
     0
 62
   155
  6
CONTINUOUS
370
    -3
390
F
  0
LAYER
  5
D5
330
2
100
AcDbSymbolTableRecord
100
AcDbLayerTableRecord
  2
156
 70
     0
 62
   156
  6
CONTINUOUS
370
    -3
390
F
  0
LAYER
  5
D6
330
2
100
AcDbSymbolTableRecord
100
AcDbLayerTableRecord
  2
157
 70
     0
 62
   157
  6
CONTINUOUS
370
    -3
390
F
  0
LAYER
  5
D7
330
2
100
AcDbSymbolTableRecord
100
AcDbLayerTableRecord
  2
158
 70
     0
 62
   158
  6
CONTINUOUS
370
    -3
390
F
  0
LAYER
  5
D8
330
2
100
AcDbSymbolTableRecord
100
AcDbLayerTableRecord
  2
159
 70
     0
 62
   159
  6
CONTINUOUS
370
    -3
390
F
  0
LAYER
  5
D9
330
2
100
AcDbSymbolTableRecord
100
AcDbLayerTableRecord
  2
160
 70
     0
 62
   160
  6
CONTINUOUS
370
    -3
390
F
  0
LAYER
  5
DA
330
2
100
AcDbSymbolTableRecord
100
AcDbLayerTableRecord
  2
161
 70
     0
 62
   161
  6
CONTINUOUS
370
    -3
390
F
  0
LAYER
  5
DB
330
2
100
AcDbSymbolTableRecord
100
AcDbLayerTableRecord
  2
162
 70
     0
 62
   162
  6
CONTINUOUS
370
    -3
390
F
  0
LAYER
  5
DC
330
2
100
AcDbSymbolTableRecord
100
AcDbLayerTableRecord
  2
163
 70
     0
 62
   163
  6
CONTINUOUS
370
    -3
390
F
  0
LAYER
  5
DD
330
2
100
AcDbSymbolTableRecord
100
AcDbLayerTableRecord
  2
164
 70
     0
 62
   164
  6
CONTINUOUS
370
    -3
390
F
  0
LAYER
  5
DE
330
2
100
AcDbSymbolTableRecord
100
AcDbLayerTableRecord
  2
165
 70
     0
 62
   165
  6
CONTINUOUS
370
    -3
390
F
  0
LAYER
  5
DF
330
2
100
AcDbSymbolTableRecord
100
AcDbLayerTableRecord
  2
166
 70
     0
 62
   166
  6
CONTINUOUS
370
    -3
390
F
  0
LAYER
  5
E0
330
2
100
AcDbSymbolTableRecord
100
AcDbLayerTableRecord
  2
167
 70
     0
 62
   167
  6
CONTINUOUS
370
    -3
390
F
  0
LAYER
  5
E1
330
2
100
AcDbSymbolTableRecord
100
AcDbLayerTableRecord
  2
168
 70
     0
 62
   168
  6
CONTINUOUS
370
    -3
390
F
  0
LAYER
  5
E2
330
2
100
AcDbSymbolTableRecord
100
AcDbLayerTableRecord
  2
169
 70
     0
 62
   169
  6
CONTINUOUS
370
    -3
390
F
  0
LAYER
  5
E3
330
2
100
AcDbSymbolTableRecord
100
AcDbLayerTableRecord
  2
170
 70
     0
 62
   170
  6
CONTINUOUS
370
    -3
390
F
  0
LAYER
  5
E4
330
2
100
AcDbSymbolTableRecord
100
AcDbLayerTableRecord
  2
171
 70
     0
 62
   171
  6
CONTINUOUS
370
    -3
390
F
  0
LAYER
  5
E5
330
2
100
AcDbSymbolTableRecord
100
AcDbLayerTableRecord
  2
172
 70
     0
 62
   172
  6
CONTINUOUS
370
    -3
390
F
  0
LAYER
  5
E6
330
2
100
AcDbSymbolTableRecord
100
AcDbLayerTableRecord
  2
173
 70
     0
 62
   173
  6
CONTINUOUS
370
    -3
390
F
  0
LAYER
  5
E7
330
2
100
AcDbSymbolTableRecord
100
AcDbLayerTableRecord
  2
174
 70
     0
 62
   174
  6
CONTINUOUS
370
    -3
390
F
  0
LAYER
  5
E8
330
2
100
AcDbSymbolTableRecord
100
AcDbLayerTableRecord
  2
175
 70
     0
 62
   175
  6
CONTINUOUS
370
    -3
390
F
  0
LAYER
  5
E9
330
2
100
AcDbSymbolTableRecord
100
AcDbLayerTableRecord
  2
176
 70
     0
 62
   176
  6
CONTINUOUS
370
    -3
390
F
  0
LAYER
  5
EA
330
2
100
AcDbSymbolTableRecord
100
AcDbLayerTableRecord
  2
177
 70
     0
 62
   177
  6
CONTINUOUS
370
    -3
390
F
  0
LAYER
  5
EB
330
2
100
AcDbSymbolTableRecord
100
AcDbLayerTableRecord
  2
178
 70
     0
 62
   178
  6
CONTINUOUS
370
    -3
390
F
  0
LAYER
  5
EC
330
2
100
AcDbSymbolTableRecord
100
AcDbLayerTableRecord
  2
179
 70
     0
 62
   179
  6
CONTINUOUS
370
    -3
390
F
  0
LAYER
  5
ED
330
2
100
AcDbSymbolTableRecord
100
AcDbLayerTableRecord
  2
180
 70
     0
 62
   180
  6
CONTINUOUS
370
    -3
390
F
  0
LAYER
  5
EE
330
2
100
AcDbSymbolTableRecord
100
AcDbLayerTableRecord
  2
181
 70
     0
 62
   181
  6
CONTINUOUS
370
    -3
390
F
  0
LAYER
  5
EF
330
2
100
AcDbSymbolTableRecord
100
AcDbLayerTableRecord
  2
182
 70
     0
 62
   182
  6
CONTINUOUS
370
    -3
390
F
  0
LAYER
  5
F0
330
2
100
AcDbSymbolTableRecord
100
AcDbLayerTableRecord
  2
183
 70
     0
 62
   183
  6
CONTINUOUS
370
    -3
390
F
  0
LAYER
  5
F1
330
2
100
AcDbSymbolTableRecord
100
AcDbLayerTableRecord
  2
184
 70
     0
 62
   184
  6
CONTINUOUS
370
    -3
390
F
  0
LAYER
  5
F2
330
2
100
AcDbSymbolTableRecord
100
AcDbLayerTableRecord
  2
185
 70
     0
 62
   185
  6
CONTINUOUS
370
    -3
390
F
  0
LAYER
  5
F3
330
2
100
AcDbSymbolTableRecord
100
AcDbLayerTableRecord
  2
186
 70
     0
 62
   186
  6
CONTINUOUS
370
    -3
390
F
  0
LAYER
  5
F4
330
2
100
AcDbSymbolTableRecord
100
AcDbLayerTableRecord
  2
187
 70
     0
 62
   187
  6
CONTINUOUS
370
    -3
390
F
  0
LAYER
  5
F5
330
2
100
AcDbSymbolTableRecord
100
AcDbLayerTableRecord
  2
188
 70
     0
 62
   188
  6
CONTINUOUS
370
    -3
390
F
  0
LAYER
  5
F6
330
2
100
AcDbSymbolTableRecord
100
AcDbLayerTableRecord
  2
189
 70
     0
 62
   189
  6
CONTINUOUS
370
    -3
390
F
  0
LAYER
  5
F7
330
2
100
AcDbSymbolTableRecord
100
AcDbLayerTableRecord
  2
190
 70
     0
 62
   190
  6
CONTINUOUS
370
    -3
390
F
  0
LAYER
  5
F8
330
2
100
AcDbSymbolTableRecord
100
AcDbLayerTableRecord
  2
191
 70
     0
 62
   191
  6
CONTINUOUS
370
    -3
390
F
  0
LAYER
  5
F9
330
2
100
AcDbSymbolTableRecord
100
AcDbLayerTableRecord
  2
192
 70
     0
 62
   192
  6
CONTINUOUS
370
    -3
390
F
  0
LAYER
  5
FA
330
2
100
AcDbSymbolTableRecord
100
AcDbLayerTableRecord
  2
193
 70
     0
 62
   193
  6
CONTINUOUS
370
    -3
390
F
  0
LAYER
  5
FB
330
2
100
AcDbSymbolTableRecord
100
AcDbLayerTableRecord
  2
194
 70
     0
 62
   194
  6
CONTINUOUS
370
    -3
390
F
  0
LAYER
  5
FC
330
2
100
AcDbSymbolTableRecord
100
AcDbLayerTableRecord
  2
195
 70
     0
 62
   195
  6
CONTINUOUS
370
    -3
390
F
  0
LAYER
  5
FD
330
2
100
AcDbSymbolTableRecord
100
AcDbLayerTableRecord
  2
196
 70
     0
 62
   196
  6
CONTINUOUS
370
    -3
390
F
  0
LAYER
  5
FE
330
2
100
AcDbSymbolTableRecord
100
AcDbLayerTableRecord
  2
197
 70
     0
 62
   197
  6
CONTINUOUS
370
    -3
390
F
  0
LAYER
  5
FF
330
2
100
AcDbSymbolTableRecord
100
AcDbLayerTableRecord
  2
198
 70
     0
 62
   198
  6
CONTINUOUS
370
    -3
390
F
  0
LAYER
  5
100
330
2
100
AcDbSymbolTableRecord
100
AcDbLayerTableRecord
  2
199
 70
     0
 62
   199
  6
CONTINUOUS
370
    -3
390
F
  0
LAYER
  5
101
330
2
100
AcDbSymbolTableRecord
100
AcDbLayerTableRecord
  2
200
 70
     0
 62
   200
  6
CONTINUOUS
370
    -3
390
F
  0
LAYER
  5
102
330
2
100
AcDbSymbolTableRecord
100
AcDbLayerTableRecord
  2
201
 70
     0
 62
   201
  6
CONTINUOUS
370
    -3
390
F
  0
LAYER
  5
103
330
2
100
AcDbSymbolTableRecord
100
AcDbLayerTableRecord
  2
202
 70
     0
 62
   202
  6
CONTINUOUS
370
    -3
390
F
  0
LAYER
  5
104
330
2
100
AcDbSymbolTableRecord
100
AcDbLayerTableRecord
  2
203
 70
     0
 62
   203
  6
CONTINUOUS
370
    -3
390
F
  0
LAYER
  5
105
330
2
100
AcDbSymbolTableRecord
100
AcDbLayerTableRecord
  2
204
 70
     0
 62
   204
  6
CONTINUOUS
370
    -3
390
F
  0
LAYER
  5
106
330
2
100
AcDbSymbolTableRecord
100
AcDbLayerTableRecord
  2
205
 70
     0
 62
   205
  6
CONTINUOUS
370
    -3
390
F
  0
LAYER
  5
107
330
2
100
AcDbSymbolTableRecord
100
AcDbLayerTableRecord
  2
206
 70
     0
 62
   206
  6
CONTINUOUS
370
    -3
390
F
  0
LAYER
  5
108
330
2
100
AcDbSymbolTableRecord
100
AcDbLayerTableRecord
  2
207
 70
     0
 62
   207
  6
CONTINUOUS
370
    -3
390
F
  0
LAYER
  5
109
330
2
100
AcDbSymbolTableRecord
100
AcDbLayerTableRecord
  2
208
 70
     0
 62
   208
  6
CONTINUOUS
370
    -3
390
F
  0
LAYER
  5
10A
330
2
100
AcDbSymbolTableRecord
100
AcDbLayerTableRecord
  2
209
 70
     0
 62
   209
  6
CONTINUOUS
370
    -3
390
F
  0
LAYER
  5
10B
330
2
100
AcDbSymbolTableRecord
100
AcDbLayerTableRecord
  2
210
 70
     0
 62
   210
  6
CONTINUOUS
370
    -3
390
F
  0
LAYER
  5
10C
330
2
100
AcDbSymbolTableRecord
100
AcDbLayerTableRecord
  2
211
 70
     0
 62
   211
  6
CONTINUOUS
370
    -3
390
F
  0
LAYER
  5
10D
330
2
100
AcDbSymbolTableRecord
100
AcDbLayerTableRecord
  2
212
 70
     0
 62
   212
  6
CONTINUOUS
370
    -3
390
F
  0
LAYER
  5
10E
330
2
100
AcDbSymbolTableRecord
100
AcDbLayerTableRecord
  2
213
 70
     0
 62
   213
  6
CONTINUOUS
370
    -3
390
F
  0
LAYER
  5
10F
330
2
100
AcDbSymbolTableRecord
100
AcDbLayerTableRecord
  2
214
 70
     0
 62
   214
  6
CONTINUOUS
370
    -3
390
F
  0
LAYER
  5
110
330
2
100
AcDbSymbolTableRecord
100
AcDbLayerTableRecord
  2
215
 70
     0
 62
   215
  6
CONTINUOUS
370
    -3
390
F
  0
LAYER
  5
111
330
2
100
AcDbSymbolTableRecord
100
AcDbLayerTableRecord
  2
216
 70
     0
 62
   216
  6
CONTINUOUS
370
    -3
390
F
  0
LAYER
  5
112
330
2
100
AcDbSymbolTableRecord
100
AcDbLayerTableRecord
  2
217
 70
     0
 62
   217
  6
CONTINUOUS
370
    -3
390
F
  0
LAYER
  5
113
330
2
100
AcDbSymbolTableRecord
100
AcDbLayerTableRecord
  2
218
 70
     0
 62
   218
  6
CONTINUOUS
370
    -3
390
F
  0
LAYER
  5
114
330
2
100
AcDbSymbolTableRecord
100
AcDbLayerTableRecord
  2
219
 70
     0
 62
   219
  6
CONTINUOUS
370
    -3
390
F
  0
LAYER
  5
115
330
2
100
AcDbSymbolTableRecord
100
AcDbLayerTableRecord
  2
220
 70
     0
 62
   220
  6
CONTINUOUS
370
    -3
390
F
  0
LAYER
  5
116
330
2
100
AcDbSymbolTableRecord
100
AcDbLayerTableRecord
  2
221
 70
     0
 62
   221
  6
CONTINUOUS
370
    -3
390
F
  0
LAYER
  5
117
330
2
100
AcDbSymbolTableRecord
100
AcDbLayerTableRecord
  2
222
 70
     0
 62
   222
  6
CONTINUOUS
370
    -3
390
F
  0
LAYER
  5
118
330
2
100
AcDbSymbolTableRecord
100
AcDbLayerTableRecord
  2
223
 70
     0
 62
   223
  6
CONTINUOUS
370
    -3
390
F
  0
LAYER
  5
119
330
2
100
AcDbSymbolTableRecord
100
AcDbLayerTableRecord
  2
224
 70
     0
 62
   224
  6
CONTINUOUS
370
    -3
390
F
  0
LAYER
  5
11A
330
2
100
AcDbSymbolTableRecord
100
AcDbLayerTableRecord
  2
225
 70
     0
 62
   225
  6
CONTINUOUS
370
    -3
390
F
  0
LAYER
  5
11B
330
2
100
AcDbSymbolTableRecord
100
AcDbLayerTableRecord
  2
226
 70
     0
 62
   226
  6
CONTINUOUS
370
    -3
390
F
  0
LAYER
  5
11C
330
2
100
AcDbSymbolTableRecord
100
AcDbLayerTableRecord
  2
227
 70
     0
 62
   227
  6
CONTINUOUS
370
    -3
390
F
  0
LAYER
  5
11D
330
2
100
AcDbSymbolTableRecord
100
AcDbLayerTableRecord
  2
228
 70
     0
 62
   228
  6
CONTINUOUS
370
    -3
390
F
  0
LAYER
  5
11E
330
2
100
AcDbSymbolTableRecord
100
AcDbLayerTableRecord
  2
229
 70
     0
 62
   229
  6
CONTINUOUS
370
    -3
390
F
  0
LAYER
  5
11F
330
2
100
AcDbSymbolTableRecord
100
AcDbLayerTableRecord
  2
230
 70
     0
 62
   230
  6
CONTINUOUS
370
    -3
390
F
  0
LAYER
  5
120
330
2
100
AcDbSymbolTableRecord
100
AcDbLayerTableRecord
  2
231
 70
     0
 62
   231
  6
CONTINUOUS
370
    -3
390
F
  0
LAYER
  5
121
330
2
100
AcDbSymbolTableRecord
100
AcDbLayerTableRecord
  2
232
 70
     0
 62
   232
  6
CONTINUOUS
370
    -3
390
F
  0
LAYER
  5
122
330
2
100
AcDbSymbolTableRecord
100
AcDbLayerTableRecord
  2
233
 70
     0
 62
   233
  6
CONTINUOUS
370
    -3
390
F
  0
LAYER
  5
123
330
2
100
AcDbSymbolTableRecord
100
AcDbLayerTableRecord
  2
234
 70
     0
 62
   234
  6
CONTINUOUS
370
    -3
390
F
  0
LAYER
  5
124
330
2
100
AcDbSymbolTableRecord
100
AcDbLayerTableRecord
  2
235
 70
     0
 62
   235
  6
CONTINUOUS
370
    -3
390
F
  0
LAYER
  5
125
330
2
100
AcDbSymbolTableRecord
100
AcDbLayerTableRecord
  2
236
 70
     0
 62
   236
  6
CONTINUOUS
370
    -3
390
F
  0
LAYER
  5
126
330
2
100
AcDbSymbolTableRecord
100
AcDbLayerTableRecord
  2
237
 70
     0
 62
   237
  6
CONTINUOUS
370
    -3
390
F
  0
LAYER
  5
127
330
2
100
AcDbSymbolTableRecord
100
AcDbLayerTableRecord
  2
238
 70
     0
 62
   238
  6
CONTINUOUS
370
    -3
390
F
  0
LAYER
  5
128
330
2
100
AcDbSymbolTableRecord
100
AcDbLayerTableRecord
  2
239
 70
     0
 62
   239
  6
CONTINUOUS
370
    -3
390
F
  0
LAYER
  5
129
330
2
100
AcDbSymbolTableRecord
100
AcDbLayerTableRecord
  2
240
 70
     0
 62
   240
  6
CONTINUOUS
370
    -3
390
F
  0
LAYER
  5
12A
330
2
100
AcDbSymbolTableRecord
100
AcDbLayerTableRecord
  2
241
 70
     0
 62
   241
  6
CONTINUOUS
370
    -3
390
F
  0
LAYER
  5
12B
330
2
100
AcDbSymbolTableRecord
100
AcDbLayerTableRecord
  2
242
 70
     0
 62
   242
  6
CONTINUOUS
370
    -3
390
F
  0
LAYER
  5
12C
330
2
100
AcDbSymbolTableRecord
100
AcDbLayerTableRecord
  2
243
 70
     0
 62
   243
  6
CONTINUOUS
370
    -3
390
F
  0
LAYER
  5
12D
330
2
100
AcDbSymbolTableRecord
100
AcDbLayerTableRecord
  2
244
 70
     0
 62
   244
  6
CONTINUOUS
370
    -3
390
F
  0
LAYER
  5
12E
330
2
100
AcDbSymbolTableRecord
100
AcDbLayerTableRecord
  2
245
 70
     0
 62
   245
  6
CONTINUOUS
370
    -3
390
F
  0
LAYER
  5
12F
330
2
100
AcDbSymbolTableRecord
100
AcDbLayerTableRecord
  2
246
 70
     0
 62
   246
  6
CONTINUOUS
370
    -3
390
F
  0
LAYER
  5
130
330
2
100
AcDbSymbolTableRecord
100
AcDbLayerTableRecord
  2
247
 70
     0
 62
   247
  6
CONTINUOUS
370
    -3
390
F
  0
LAYER
  5
131
330
2
100
AcDbSymbolTableRecord
100
AcDbLayerTableRecord
  2
248
 70
     0
 62
   248
  6
CONTINUOUS
370
    -3
390
F
  0
LAYER
  5
132
330
2
100
AcDbSymbolTableRecord
100
AcDbLayerTableRecord
  2
249
 70
     0
 62
   249
  6
CONTINUOUS
370
    -3
390
F
  0
LAYER
  5
133
330
2
100
AcDbSymbolTableRecord
100
AcDbLayerTableRecord
  2
250
 70
     0
 62
   250
  6
CONTINUOUS
370
    -3
390
F
  0
LAYER
  5
134
330
2
100
AcDbSymbolTableRecord
100
AcDbLayerTableRecord
  2
251
 70
     0
 62
   251
  6
CONTINUOUS
370
    -3
390
F
  0
LAYER
  5
135
330
2
100
AcDbSymbolTableRecord
100
AcDbLayerTableRecord
  2
252
 70
     0
 62
   252
  6
CONTINUOUS
370
    -3
390
F
  0
LAYER
  5
136
330
2
100
AcDbSymbolTableRecord
100
AcDbLayerTableRecord
  2
253
 70
     0
 62
   253
  6
CONTINUOUS
370
    -3
390
F
  0
LAYER
  5
137
330
2
100
AcDbSymbolTableRecord
100
AcDbLayerTableRecord
  2
254
 70
     0
 62
   254
  6
CONTINUOUS
370
    -3
390
F
  0
LAYER
  5
138
330
2
100
AcDbSymbolTableRecord
100
AcDbLayerTableRecord
  2
255
 70
     0
 62
   255
  6
CONTINUOUS
370
    -3
390
F
  0
LAYER
  5
2CBB
330
2
100
AcDbSymbolTableRecord
100
AcDbLayerTableRecord
  2
Defpoints
 70
     0
 62
     7
  6
CONTINUOUS
290
     0
370
    -3
390
F
  0
ENDTAB
  0
TABLE
  2
STYLE
  5
3
330
0
100
AcDbSymbolTable
 70
     1
  0
STYLE
  5
11
330
3
100
AcDbSymbolTableRecord
100
AcDbTextStyleTableRecord
  2
STANDARD
 70
     0
 40
0.0
 41
1.0
 50
0.0
 71
     0
 42
0.2
  3
txt
  4

  0
ENDTAB
  0
TABLE
  2
VIEW
  5
6
330
0
100
AcDbSymbolTable
 70
     0
  0
ENDTAB
  0
TABLE
  2
UCS
  5
7
330
0
100
AcDbSymbolTable
 70
     0
  0
ENDTAB
  0
TABLE
  2
APPID
  5
9
330
0
100
AcDbSymbolTable
 70
     1
  0
APPID
  5
12
330
9
100
AcDbSymbolTableRecord
100
AcDbRegAppTableRecord
  2
ACAD
 70
     0
  0
ENDTAB
  0
TABLE
  2
DIMSTYLE
  5
A
330
0
100
AcDbSymbolTable
 70
     1
100
AcDbDimStyleTable
 71
     1
340
2C89
  0
DIMSTYLE
105
2C89
330
A
100
AcDbSymbolTableRecord
100
AcDbDimStyleTableRecord
  2
Standard
 70
     0
340
11
  0
ENDTAB
  0
TABLE
  2
BLOCK_RECORD
  5
1
330
0
100
AcDbSymbolTable
 70
     1
  0
BLOCK_RECORD
  5
1E
330
1
100
AcDbSymbolTableRecord
100
AcDbBlockTableRecord
  2
*Model_Space
340
21
  0
BLOCK_RECORD
  5
1A
330
1
100
AcDbSymbolTableRecord
100
AcDbBlockTableRecord
  2
*Paper_Space
340
1D
  0
BLOCK_RECORD
  5
2CBC
330
1
100
AcDbSymbolTableRecord
100
AcDbBlockTableRecord
  2
*D0
340
0
  0
ENDTAB
  0
ENDSEC
  0
SECTION
  2
BLOCKS
  0
BLOCK
  5
13B
330
1E
100
AcDbEntity
  8
0
100
AcDbBlockBegin
  2
*Model_Space
 70
     0
 10
0.0
 20
0.0
 30
0.0
  3
*Model_Space
  1

  0
ENDBLK
  5
13C
330
1E
100
AcDbEntity
  8
0
100
AcDbBlockEnd
  0
BLOCK
  5
139
330
1A
100
AcDbEntity
 67
     1
  8
0
100
AcDbBlockBegin
  2
*Paper_Space
 70
     0
 10
0.0
 20
0.0
 30
0.0
  3
*Paper_Space
  1

  0
ENDBLK
  5
13A
330
1A
100
AcDbEntity
 67
     1
  8
0
100
AcDbBlockEnd
  0
BLOCK
  5
2CC7
330
2CBC
100
AcDbEntity
  8
0
100
AcDbBlockBegin
  2
*D0
 70
     1
 10
0.0
 20
0.0
 30
0.0
  3
*D0
  1

  0
LINE
  5
2CC9
330
2CBC
100
AcDbEntity
  8
0
 62
     0
370
    -2
100
AcDbLine
 10
6.593441518943408
 20
10.05365495527512
 30
0.0
 11
6.593441518943408
 21
11.38348482507897
 31
0.0
  0
LINE
  5
2CCA
330
2CBC
100
AcDbEntity
  8
0
 62
     0
370
    -2
100
AcDbLine
 10
8.053448605719379
 20
10.05365495527512
 30
0.0
 11
8.053448605719379
 21
11.38348482507897
 31
0.0
  0
LINE
  5
2CCB
330
2CBC
100
AcDbEntity
  8
0
 62
     0
370
    -2
100
AcDbLine
 10
6.413441518943408
 20
11.20348482507898
 30
0.0
 11
6.233441518943408
 21
11.20348482507898
 31
0.0
  0
LINE
  5
2CCC
330
2CBC
100
AcDbEntity
  8
0
 62
     0
370
    -2
100
AcDbLine
 10
8.233448605719379
 20
11.20348482507898
 30
0.0
 11
8.413448605719379
 21
11.20348482507898
 31
0.0
  0
SOLID
  5
2CCD
330
2CBC
100
AcDbEntity
  8
0
 62
     0
100
AcDbTrace
 10
6.413441518943408
 20
11.23348482507898
 30
0.0
 11
6.413441518943408
 21
11.17348482507898
 31
0.0
 12
6.593441518943408
 22
11.20348482507898
 32
0.0
 13
6.593441518943408
 23
11.20348482507898
 33
0.0
  0
SOLID
  5
2CCE
330
2CBC
100
AcDbEntity
  8
0
 62
     0
100
AcDbTrace
 10
8.233448605719379
 20
11.23348482507898
 30
0.0
 11
8.233448605719379
 21
11.17348482507898
 31
0.0
 12
8.053448605719379
 22
11.20348482507898
 32
0.0
 13
8.053448605719379
 23
11.20348482507898
 33
0.0
  0
MTEXT
  5
2CCF
330
2CBC
100
AcDbEntity
  8
0
 62
     0
100
AcDbMText
 10
7.323445062331394
 20
11.20348482507898
 30
0.0
 40
0.18
 41
0.0
 71
     5
 72
     1
  1
\A1;1.4600
 73
     1
 44
1.0
  0
POINT
  5
2CD0
330
2CBC
100
AcDbEntity
  8
Defpoints
 62
     0
100
AcDbPoint
 10
6.593441518943408
 20
9.991154955275122
 30
0.0
  0
POINT
  5
2CD1
330
2CBC
100
AcDbEntity
  8
Defpoints
 62
     0
100
AcDbPoint
 10
8.053448605719379
 20
9.991154955275122
 30
0.0
  0
POINT
  5
2CD2
330
2CBC
100
AcDbEntity
  8
Defpoints
 62
     0
100
AcDbPoint
 10
8.053448605719379
 20
11.20348482507898
 30
0.0
  0
ENDBLK
  5
2CC8
330
2CBC
100
AcDbEntity
  8
0
100
AcDbBlockEnd
  0
ENDSEC
  0
SECTION
  2
ENTITIES
  0
LWPOLYLINE
  5
1DD5
330
1E
100
AcDbEntity
  8
0
100
AcDbPolyline
 90
        7
 70
     0
 43
0.0
 10
7.059400037445435
 20
10.65813370848372
 10
7.059400037445435
 20
10.71751826639528
 10
7.094833917304267
 20
10.71751826639528
 10
7.106645210590544
 20
10.71194071123232
 10
7.106645210590544
 20
10.69389567982273
 10
7.094177734343919
 20
10.68831812465977
 10
7.059400037445435
 20
10.68831812465977
  0
LWPOLYLINE
  5
1DDE
330
1E
100
AcDbEntity
  8
0
100
AcDbPolyline
 90
        4
 70
     0
 43
0.0
 10
7.172263506625419
 20
10.65813370848372
 10
7.124690242000134
 20
10.65813370848372
 10
7.172263506625419
 20
10.71751826639528
 10
7.124690242000134
 20
10.71751826639528
  0
LWPOLYLINE
  5
1DE4
330
1E
100
AcDbEntity
  8
0
100
AcDbPolyline
 90
        4
 70
     0
 43
0.0
 10
7.189980446554836
 20
10.65813370848372
 10
7.189980446554836
 20
10.71751826639528
 10
7.237553711180119
 20
10.65813370848372
 10
7.237553711180119
 20
10.71751826639528
  0
LWPOLYLINE
  5
1DEA
330
1E
100
AcDbEntity
  8
0
100
AcDbPolyline
 90
        3
 70
     0
 43
0.0
 10
7.255270651109537
 20
10.65813370848372
 10
7.255270651109537
 20
10.71751826639528
 10
7.30284391573482
 20
10.71751826639528
  0
LINE
  5
1DEF
330
1E
100
AcDbEntity
  8
0
100
AcDbLine
 10
7.28479888432523
 20
10.69389567982273
 30
0.0
 11
7.255270651109535
 21
10.69389567982273
 31
0.0
  0
LWPOLYLINE
  5
1DF0
330
1E
100
AcDbEntity
  8
0
100
AcDbPolyline
 90
        8
 70
     0
 43
0.0
 10
7.32088894714441
 20
10.71194071123232
 10
7.332044057470341
 20
10.71751826639528
 10
7.356322827003243
 20
10.71751826639528
 10
7.368134120289521
 20
10.71194071123232
 10
7.368134120289521
 20
10.70012941794604
 10
7.320232764184062
 20
10.67027309325017
 10
7.32088894714441
 20
10.65813370848372
 10
7.368134120289521
 20
10.65813370848372
  0
LINE
  5
1DFA
330
1E
100
AcDbEntity
  8
0
100
AcDbLine
 10
6.877896832254591
 20
11.54532429686113
 30
0.0
 11
6.884130570377904
 21
11.56697833455264
 31
0.0
  0
LINE
  5
1DFB
330
1E
100
AcDbEntity
  8
0
100
AcDbLine
 10
5.688565216622478
 20
11.9209890416608
 30
0.0
 11
5.601949065856444
 21
11.89506981472702
 31
0.0
  0
LINE
  5
1DFC
330
1E
100
AcDbEntity
  8
0
100
AcDbLine
 10
6.654138442775667
 20
12.02171312607433
 30
0.0
 11
6.636749594326425
 21
12.03647724268217
 31
0.0
  0
LINE
  5
1DFD
330
1E
100
AcDbEntity
  8
0
100
AcDbLine
 10
6.834260665391399
 20
11.53220063765416
 30
0.0
 11
6.840822494994887
 21
11.55418276682584
 31
0.0
  0
LINE
  5
1DFE
330
1E
100
AcDbEntity
  8
0
100
AcDbLine
 10
6.740754593541702
 20
12.0476323530081
 30
0.0
 11
6.723365745092459
 21
12.06239646961595
 31
0.0
  0
LINE
  5
1DFF
330
1E
100
AcDbEntity
  8
0
100
AcDbLine
 10
6.747644514625363
 20
11.50628141072038
 30
0.0
 11
6.753878252748677
 21
11.52826353989207
 31
0.0
  0
LINE
  5
1E00
330
1E
100
AcDbEntity
  8
0
100
AcDbLine
 10
5.847689584507051
 20
11.07090401652899
 30
0.0
 11
5.934305735273087
 21
11.09682324346276
 31
0.0
  0
LINE
  5
1E01
330
1E
100
AcDbEntity
  8
0
100
AcDbLine
 10
6.827698835787912
 20
12.07355157994188
 30
0.0
 11
6.810309987338669
 21
12.08831569654973
 31
0.0
  0
LINE
  5
1E02
330
1E
100
AcDbEntity
  8
0
100
AcDbLine
 10
6.921204907637608
 20
11.55811986458794
 30
0.0
 11
6.927438645760922
 21
11.58010199375962
 31
0.0
  0
LINE
  5
1E03
330
1E
100
AcDbEntity
  8
0
100
AcDbLine
 10
6.697446518158685
 20
12.0348367852813
 30
0.0
 11
6.680057669709443
 21
12.04960090188915
 31
0.0
  0
LINE
  5
1E04
330
1E
100
AcDbEntity
  8
0
100
AcDbLine
 10
6.784062668924719
 20
12.06075601221508
 30
0.0
 11
6.767001911955652
 21
12.07552012882293
 31
0.0
  0
LINE
  5
1E05
330
1E
100
AcDbEntity
  8
0
100
AcDbLine
 10
6.964512983020626
 20
11.57091543231474
 30
0.0
 11
6.970746721143939
 21
11.59289756148642
 31
0.0
  0
LINE
  5
1E06
330
1E
100
AcDbEntity
  8
0
100
AcDbLine
 10
6.790952590008381
 20
11.51940506992736
 30
0.0
 11
6.797186328131695
 21
11.54105910761887
 31
0.0
  0
LWPOLYLINE
  5
1E07
330
1E
100
AcDbEntity
  8
0
100
AcDbPolyline
 90
       15
 70
     0
 43
0.0
 10
7.49339644906172
 20
11.58896046372433
 10
7.493724540541895
 20
11.58961664668468
 10
7.494380723502244
 20
11.59027282964503
 10
7.498974004224685
 20
11.59880320812956
 10
7.503239193466952
 20
11.60798976957444
 10
7.507504382709219
 20
11.61684823953915
 10
7.511441480471312
 20
11.62636289246421
 10
7.51505048675323
 20
11.63587754538926
 10
7.518659493035148
 20
11.64539219831432
 10
7.521940407836892
 20
11.65523494271955
 10
7.525221322638635
 20
11.66540577860496
 10
7.527846054480031
 20
11.67557661449036
 10
7.530470786321425
 20
11.68607554185594
 10
7.531783152242123
 20
11.69230927997926
 10
7.53309551816282
 20
11.69821492662239
  0
LWPOLYLINE
  5
1E18
330
1E
100
AcDbEntity
  8
0
100
AcDbPolyline
 90
        3
 70
     0
 43
0.0
 10
7.52259659079724
 20
11.9823421484534
 10
7.518331401554974
 20
11.99940290542247
 10
7.513410029352358
 20
12.01646366239154
  0
LWPOLYLINE
  5
1E1D
330
1E
100
AcDbEntity
  8
0
100
AcDbPolyline
 90
       59
 70
     0
 43
0.0
 10
5.601949065856445
 20
11.89506981472702
 10
5.597683876614177
 20
11.89375744880632
 10
5.593418687371911
 20
11.89244508288562
 10
5.584560217407203
 20
11.88916416808388
 10
5.576357930402843
 20
11.88555516180196
 10
5.567827551918309
 20
11.88161806403987
 10
5.559625264913949
 20
11.8773528747976
 10
5.551422977909591
 20
11.87275959407516
 10
5.543220690905231
 20
11.86783822187255
 10
5.535346495381046
 20
11.86226066670958
 10
5.527472299856861
 20
11.85668311154662
 10
5.519926195812851
 20
11.85044937342331
 10
5.512708183249014
 20
11.84388754381982
 10
5.505490170685177
 20
11.83699762273616
 10
5.498272158121341
 20
11.82977961017232
 10
5.491382237037679
 20
11.82190541464813
 10
5.484820407434193
 20
11.81403121912395
 10
5.478914760791053
 20
11.80648511507994
 10
5.473337205628089
 20
11.79861091955576
 10
5.468087741945299
 20
11.79040863255139
 10
5.462838278262509
 20
11.78187825406686
 10
5.457916906059893
 20
11.77334787558233
 10
5.453323625337452
 20
11.76448940561762
 10
5.448730344615011
 20
11.75530284417274
 10
5.444465155372745
 20
11.74578819124768
 10
5.440528057610651
 20
11.73627353832262
 10
5.436919051328733
 20
11.72643079391739
 10
5.433310045046815
 20
11.71625995803199
 10
5.430357221725246
 20
11.70608912214658
 10
5.427404398403677
 20
11.695590194781
 10
5.424451575082107
 20
11.68509126741542
 10
5.422154934720886
 20
11.67426424856967
 10
5.419858294359666
 20
11.66343722972391
 10
5.418217836958794
 20
11.65261021087816
 10
5.416577379557923
 20
11.64145510055223
 10
5.41493692215705
 20
11.6302999902263
 10
5.413952647716527
 20
11.61914487990037
 10
5.412968373276004
 20
11.60798976957444
 10
5.412640281795829
 20
11.59650656776834
 10
5.411984098835481
 20
11.58502336596223
 10
5.411984098835481
 20
11.57354016415613
 10
5.411984098835481
 20
11.5623850538302
 10
5.412312190315655
 20
11.5509018520241
 10
5.412968373276004
 20
11.539418650218
 10
5.413952647716527
 20
11.52793544841189
 10
5.41493692215705
 20
11.51645224660579
 10
5.415921196597573
 20
11.50496904479969
 10
5.417561653998445
 20
11.49381393447376
 10
5.419202111399317
 20
11.48265882414783
 10
5.420842568800189
 20
11.47215989678225
 10
5.422811117681235
 20
11.46133287793649
 10
5.424779666562281
 20
11.45214631649161
 10
5.426748215443327
 20
11.44263166356656
 10
5.428388672844199
 20
11.43574174248289
 10
5.430029130245071
 20
11.42885182139923
 10
5.431997679126117
 20
11.42097762587505
 10
5.433966228007164
 20
11.41343152183104
 10
5.436262868368385
 20
11.40555732630685
 10
5.438231417249431
 20
11.39768313078267
  0
LWPOLYLINE
  5
1E5A
330
1E
100
AcDbEntity
  8
0
100
AcDbPolyline
 90
        4
 70
     0
 43
0.0
 10
7.267997602181925
 20
12.36030353361428
 10
7.267341419221576
 20
12.36063162509446
 10
7.267013327741402
 20
12.36095971657463
 10
7.263404321459484
 20
12.36260017397551
  0
LWPOLYLINE
  5
1E60
330
1E
100
AcDbEntity
  8
0
100
AcDbPolyline
 90
       10
 70
     0
 43
0.0
 10
7.262748138499135
 20
12.36325635693586
 10
7.249952570772334
 20
12.36916200357899
 10
7.241422192287799
 20
12.37309910134109
 10
7.232891813803266
 20
12.37638001614283
 10
7.224361435318733
 20
12.37966093094457
 10
7.215831056834199
 20
12.38228566278597
 10
7.207300678349665
 20
12.38491039462736
 10
7.198442208384957
 20
12.38687894350841
 10
7.192208470261643
 20
12.38819130942911
 10
7.185974732138331
 20
12.38917558386963
  0
LWPOLYLINE
  5
1E6C
330
1E
100
AcDbEntity
  8
0
100
AcDbPolyline
 90
       61
 70
     0
 43
0.0
 10
5.438231417249431
 20
11.39768313078267
 10
5.442168515011523
 20
11.38521565453604
 10
5.446433704253791
 20
11.37307626976959
 10
5.448074161654663
 20
11.3678268060868
 10
5.449714619055534
 20
11.36290543388418
 10
5.452667442377103
 20
11.35470314687982
 10
5.455948357178847
 20
11.34650085987547
 10
5.459229271980591
 20
11.3382985728711
 10
5.462838278262509
 20
11.32976819438657
 10
5.466775376024601
 20
11.32090972442186
 10
5.470712473786694
 20
11.31205125445716
 10
5.474977663028961
 20
11.30286469301227
 10
5.479242852271227
 20
11.29400622304756
 10
5.484164224473843
 20
11.28481966160268
 10
5.488757505196285
 20
11.2756331001578
 10
5.494006968879075
 20
11.26644653871291
 10
5.499256432561865
 20
11.25758806874821
 10
5.504833987724829
 20
11.24840150730333
 10
5.510411542887793
 20
11.23954303733862
 10
5.516317189530933
 20
11.23068456737391
 10
5.522222836174071
 20
11.2218260974092
 10
5.528456574297385
 20
11.21329571892467
 10
5.534690312420697
 20
11.20476534044013
 10
5.541252142024185
 20
11.1962349619556
 10
5.548142063107847
 20
11.18803267495124
 10
5.555031984191509
 20
11.18015847942706
 10
5.561921905275171
 20
11.17228428390287
 10
5.569139917839007
 20
11.16441008837868
 10
5.576686021883017
 20
11.15686398433467
 10
5.584232125927028
 20
11.14964597177084
 10
5.591778229971039
 20
11.14275605068718
 10
5.599652425495223
 20
11.13586612960351
 10
5.607526621019409
 20
11.12930430000003
 10
5.615728908023768
 20
11.12274247039654
 10
5.623931195028127
 20
11.1168368237534
 10
5.632461573512661
 20
11.11093117711026
 10
5.640663860517021
 20
11.1053536219473
 10
5.649194239001555
 20
11.10043224974468
 10
5.658052708966263
 20
11.09551087754207
 10
5.666911178930971
 20
11.09091759681962
 10
5.675441557415505
 20
11.08632431609718
 10
5.684628118860387
 20
11.08238721833509
 10
5.693486588825095
 20
11.07877821205317
 10
5.702345058789804
 20
11.07549729725143
 10
5.711531620234686
 20
11.07254447392986
 10
5.720718181679568
 20
11.06991974208846
 10
5.729904743124451
 20
11.06762310172725
 10
5.738763213089159
 20
11.06598264432637
 10
5.747949774534042
 20
11.0643421869255
 10
5.757136335978924
 20
11.0630298210048
 10
5.766322897423806
 20
11.06237363804446
 10
5.77550945886869
 20
11.06171745508411
 10
5.784696020313572
 20
11.06171745508411
 10
5.793882581758454
 20
11.06204554656428
 10
5.803069143203336
 20
11.06237363804446
 10
5.811927613168045
 20
11.06335791248498
 10
5.821114174612928
 20
11.06467027840568
 10
5.829972644577636
 20
11.06631073580655
 10
5.838831114542344
 20
11.06860737616777
 10
5.84309630378461
 20
11.06991974208846
 10
5.847689584507052
 20
11.07123210800916
  0
LWPOLYLINE
  5
1EAB
330
1E
100
AcDbEntity
  8
0
100
AcDbPolyline
 90
       17
 70
     0
 43
0.0
 10
7.513410029352358
 20
12.01646366239154
 10
7.509472931590265
 20
12.02958732159852
 10
7.505207742347998
 20
12.04238288932532
 10
7.503239193466952
 20
12.0476323530081
 10
7.50159873606608
 20
12.05288181669089
 10
7.498317821264336
 20
12.0617402866556
 10
7.495036906462592
 20
12.07027066514014
 10
7.491755991660848
 20
12.07912913510485
 10
7.48814698537893
 20
12.08798760506955
 10
7.484209887616838
 20
12.09717416651444
 10
7.480272789854746
 20
12.10668881943949
 10
7.476007600612479
 20
12.11620347236455
 10
7.471414319890037
 20
12.12571812528961
 10
7.466821039167596
 20
12.13523277821466
 10
7.46189966696498
 20
12.1450755226199
 10
7.45960302660376
 20
12.14966880334234
 10
7.456978294762365
 20
12.1539339925846
  0
LWPOLYLINE
  5
1EBE
330
1E
100
AcDbEntity
  8
0
100
AcDbPolyline
 90
       14
 70
     0
 43
0.0
 10
7.129871089028513
 20
11.63062808170647
 10
7.103623770614563
 20
11.65753158308077
 10
7.079016909601484
 20
11.68837218221716
 10
7.056050505989277
 20
11.7224936961553
 10
7.035052651258117
 20
11.759568033415
 10
7.016679528368353
 20
11.79893901103593
 10
7.001259228800157
 20
11.84060662901807
 10
6.988463661073357
 20
11.88293042996057
 10
6.978949008148299
 20
11.92623850534359
 10
6.972715270024986
 20
11.9695465807266
 10
6.969762446703417
 20
12.0118703816691
 10
6.970090538183591
 20
12.05288181669089
 10
6.974027635945684
 20
12.09225279431182
 10
6.98124564850952
 20
12.12899904009135
  0
LWPOLYLINE
  5
1ECE
330
1E
100
AcDbEntity
  8
0
100
AcDbPolyline
 90
       22
 70
     0
 43
0.0
 10
7.040958297901257
 20
12.22119274602035
 10
7.021272809090794
 20
12.20216344017024
 10
7.003883960641552
 20
12.17854085359768
 10
6.989447935513879
 20
12.15065307778286
 10
6.977964733707777
 20
12.11882820420595
 10
6.970090538183591
 20
12.08372241582729
 10
6.96549725746115
 20
12.04599189560723
 10
6.964184891540453
 20
12.00629282650613
 10
6.966481531901673
 20
11.96495330000416
 10
6.972387178544812
 20
11.92262949906167
 10
6.981573739989695
 20
11.88063378959935
 10
6.99404121623632
 20
11.8389661716172
 10
7.009461515804517
 20
11.79861091955576
 10
7.027506547214107
 20
11.76022421637535
 10
7.048176310465093
 20
11.72413415355617
 10
7.071142714077299
 20
11.69132500553873
 10
7.095749575090377
 20
11.66245295528339
 10
7.121668802024153
 20
11.63751800279013
 10
7.148572303398452
 20
11.61717633101932
 10
7.175803896252925
 20
11.60175603145113
 10
7.203363580587573
 20
11.59125710408555
 10
7.230267081961871
 20
11.58633573188293
  0
LWPOLYLINE
  5
1EE6
330
1E
100
AcDbEntity
  8
0
100
AcDbPolyline
 90
       20
 70
     0
 43
0.0
 10
7.238797460446405
 20
11.60667740365374
 10
7.211565867591932
 20
11.61848869694002
 10
7.184662366217633
 20
11.63522136242891
 10
7.158415047803683
 20
11.65654730864025
 10
7.132823912350081
 20
11.68213844409385
 10
7.108873234297352
 20
11.71166667730954
 10
7.086891105125669
 20
11.74480391680716
 10
7.066877524835032
 20
11.78089397962634
 10
7.04948867638579
 20
11.81928068280674
 10
7.034724559777943
 20
11.85963593486819
 10
7.023241357971841
 20
11.90097546137016
 10
7.014710979487306
 20
11.9426430793523
 10
7.009461515804517
 20
11.98431069733445
 10
7.00749296692347
 20
12.02499404087607
 10
7.009133424324343
 20
12.06403692701683
 10
7.014382888007132
 20
12.10111126427653
 10
7.022585175011491
 20
12.13556086969484
 10
7.034068376817595
 20
12.16640146883123
 10
7.048504401945267
 20
12.1936330616857
 10
7.065893250394509
 20
12.21659946529791
  0
LWPOLYLINE
  5
1EFC
330
1E
100
AcDbEntity
  8
0
100
AcDbPolyline
 90
        3
 70
     0
 43
0.0
 10
7.248640204851636
 20
11.60372458033217
 10
7.243718832649021
 20
11.60503694625287
 10
7.238797460446405
 20
11.60667740365374
  0
LWPOLYLINE
  5
1F01
330
1E
100
AcDbEntity
  8
0
100
AcDbPolyline
 90
        5
 70
     0
 43
0.0
 10
6.937937573126502
 20
12.11587538088437
 10
6.929735286122143
 20
12.07289539698153
 10
6.926126279840225
 20
12.02630640679677
 10
6.927438645760922
 20
11.97742077625079
 10
6.933016200923887
 20
11.92722277978411
  0
LWPOLYLINE
  5
1F08
330
1E
100
AcDbEntity
  8
0
100
AcDbPolyline
 90
        5
 70
     0
 43
0.0
 10
6.978949008148299
 20
11.77334787558233
 10
7.001587320280331
 20
11.72807125131826
 10
7.027506547214107
 20
11.68640363333612
 10
7.056050505989277
 20
11.64965738755659
 10
7.086563013645495
 20
11.61783251397967
  0
LWPOLYLINE
  5
1F0F
330
1E
100
AcDbEntity
  8
0
100
AcDbPolyline
 90
       14
 70
     0
 43
0.0
 10
7.17317916441153
 20
11.64375174091345
 10
7.146931845997579
 20
11.67032715080757
 10
7.122324984984501
 20
11.70116774994396
 10
7.099358581372295
 20
11.7352892638821
 10
7.078688818121309
 20
11.7723636011418
 10
7.060315695231544
 20
11.8120626702429
 10
7.044567304183175
 20
11.85340219674487
 10
7.031771736456374
 20
11.89605408916754
 10
7.022257083531317
 20
11.93903407307039
 10
7.016023345408004
 20
11.9823421484534
 10
7.013070522086435
 20
12.0246659493959
 10
7.013398613566609
 20
12.06600547589787
 10
7.017335711328701
 20
12.10504836203862
 10
7.024553723892537
 20
12.14179460781815
  0
LWPOLYLINE
  5
1F1F
330
1E
100
AcDbEntity
  8
0
100
AcDbPolyline
 90
       10
 70
     0
 43
0.0
 10
7.017335711328701
 20
12.22086465454018
 10
6.995353582157019
 20
12.2064286294125
 10
6.975668093346556
 20
12.18674314060204
 10
6.958607336377488
 20
12.16279246254931
 10
6.94449940272999
 20
12.13424850377414
 10
6.933672383884236
 20
12.10209553871705
 10
6.925798188360051
 20
12.06633356737804
 10
6.921532999117784
 20
12.02827495567782
 10
6.920876816157434
 20
11.98791970361637
 10
6.923829639479004
 20
11.9465801771144
  0
LWPOLYLINE
  5
1F2B
330
1E
100
AcDbEntity
  8
0
100
AcDbPolyline
 90
       10
 70
     0
 43
0.0
 10
6.981901831469869
 20
11.75202192937099
 10
7.002243503240681
 20
11.71560377507164
 10
7.024881815372712
 20
11.68246653557402
 10
7.049160584905616
 20
11.65261021087816
 10
7.075079811839391
 20
11.62734716690473
 10
7.10198331321369
 20
11.60634931217357
 10
7.129542997548337
 20
11.59027282964503
 10
7.156774590402811
 20
11.57944581079927
 10
7.184006183257285
 20
11.57354016415613
 10
7.210581593151409
 20
11.57354016415613
  0
LWPOLYLINE
  5
1F37
330
1E
100
AcDbEntity
  8
0
100
AcDbPolyline
 90
       18
 70
     0
 43
0.0
 10
7.265700961820703
 20
11.62603480098403
 10
7.237813186005881
 20
11.64145510055223
 10
7.210581593151409
 20
11.66146868084287
 10
7.184334274737459
 20
11.68640363333612
 10
7.159399322244206
 20
11.71560377507164
 10
7.136104827151825
 20
11.74841292308907
 10
7.115106972420665
 20
11.78483107738843
 10
7.096405758050726
 20
11.82354587204901
 10
7.08098545848253
 20
11.8645573070708
 10
7.068189890755729
 20
11.90655301653312
 10
7.059003329310847
 20
11.94953300043597
 10
7.053097682667708
 20
11.99218489285864
 10
7.051129133786663
 20
12.03385251084078
 10
7.052441499707359
 20
12.07420776290223
 10
7.057362871909975
 20
12.11226637460246
 10
7.065565158914335
 20
12.14737216298112
 10
7.077376452200612
 20
12.17919703655803
 10
7.092468660288634
 20
12.20708481237285
  0
LWPOLYLINE
  5
1F4B
330
1E
100
AcDbEntity
  8
0
100
AcDbPolyline
 90
        3
 70
     0
 43
0.0
 10
6.894301406263311
 20
12.10307981315758
 10
6.886427210739126
 20
12.05977173777456
 10
6.882818204457207
 20
12.0131827475898
  0
LWPOLYLINE
  5
1F50
330
1E
100
AcDbEntity
  8
0
100
AcDbPolyline
 90
        3
 70
     0
 43
0.0
 10
6.983870380350914
 20
11.67360806560932
 10
7.012414339126086
 20
11.63653372834961
 10
7.042926846782303
 20
11.6047088547727
  0
LWPOLYLINE
  5
1F55
330
1E
100
AcDbEntity
  8
0
100
AcDbPolyline
 90
       12
 70
     0
 43
0.0
 10
7.076064086279915
 20
12.21364664197634
 10
7.049160584905616
 20
12.22020847157983
 10
7.022913266491666
 20
12.22152083750052
 10
6.997650222518239
 20
12.21725564825826
 10
6.974027635945684
 20
12.20806908681338
 10
6.952373598254174
 20
12.1936330616857
 10
6.933016200923887
 20
12.17460375583559
 10
6.915955443954819
 20
12.15065307778286
 10
6.901847510307321
 20
12.12276530196804
 10
6.890692399981393
 20
12.0912685198713
 10
6.882818204457207
 20
12.05649082297282
 10
6.87855301521494
 20
12.01876030275276
  0
LWPOLYLINE
  5
1F63
330
1E
100
AcDbEntity
  8
0
100
AcDbPolyline
 90
       14
 70
     0
 43
0.0
 10
6.98354228887074
 20
11.66639005304548
 10
7.008805332844168
 20
11.63653372834961
 10
7.035380742738292
 20
11.61127068437619
 10
7.062940427072939
 20
11.5906009211252
 10
7.090828202887761
 20
11.57485253007683
 10
7.119044070182757
 20
11.56468169419142
 10
7.146603754517405
 20
11.56041650494916
 10
7.17317916441153
 20
11.56140077938968
 10
7.198442208384957
 20
11.56796260899317
 10
7.222064794957512
 20
11.58043008523979
 10
7.243390741168846
 20
11.59781893368904
 10
7.262091955538785
 20
11.62045724582107
 10
7.277840346587156
 20
11.64768883867554
 10
7.290307822833782
 20
11.67918562077228
  0
LWPOLYLINE
  5
1F73
330
1E
100
AcDbEntity
  8
0
100
AcDbPolyline
 90
        3
 70
     0
 43
0.0
 10
7.142010473794965
 20
12.17624421323646
 10
7.109201325777527
 20
12.19855443388832
 10
7.076064086279915
 20
12.21364664197634
  0
LWPOLYLINE
  5
1F78
330
1E
100
AcDbEntity
  8
0
100
AcDbPolyline
 90
       19
 70
     0
 43
0.0
 10
7.507504382709219
 20
11.65261021087816
 10
7.513081937872183
 20
11.65556303419972
 10
7.519315675995496
 20
11.66179677232304
 10
7.526205597079158
 20
11.67426424856967
 10
7.5307988778016
 20
11.68771599925682
 10
7.533751701123168
 20
11.70116774994396
 10
7.538344981845611
 20
11.73922636164419
 10
7.539329256286134
 20
11.77695688186424
 10
7.538016890365435
 20
11.81403121912395
 10
7.536376432964564
 20
11.85110555638365
 10
7.533751701123168
 20
11.89867882100894
 10
7.529158420400728
 20
11.94559590267387
 10
7.524237048198112
 20
11.97610841033009
 10
7.519971858955845
 20
11.99251298433881
 10
7.514066212312706
 20
12.00793328390701
 10
7.508160565669568
 20
12.01777602831224
 10
7.500286370145383
 20
12.02532213235625
 10
7.494380723502244
 20
12.02729068123729
 10
7.488475076859105
 20
12.02696258975712
  0
LWPOLYLINE
  5
1F8D
330
1E
100
AcDbEntity
  8
0
100
AcDbPolyline
 90
        3
 70
     0
 43
0.0
 10
7.483225613176315
 20
11.5892885552045
 10
7.496677363863465
 20
11.61947297138054
 10
7.507504382709219
 20
11.65261021087816
  0
LWPOLYLINE
  5
1F92
330
1E
100
AcDbEntity
  8
0
100
AcDbPolyline
 90
       19
 70
     0
 43
0.0
 10
7.277512255106982
 20
11.47445653714347
 10
7.284074084710469
 20
11.47642508602452
 10
7.292604463195003
 20
11.47970600082626
 10
7.305728122401978
 20
11.48495546450905
 10
7.317211324208081
 20
11.49020492819184
 10
7.328038343053835
 20
11.49512630039446
 10
7.354285661467786
 20
11.50824995960143
 10
7.377252065079992
 20
11.52038934436788
 10
7.398249919811152
 20
11.53187254617398
 10
7.438933263352774
 20
11.55451085830602
 10
7.464524398806375
 20
11.56927497491387
 10
7.480272789854746
 20
11.57878962783892
 10
7.487162710938408
 20
11.58371100004154
 10
7.492084083141023
 20
11.58764809780363
 10
7.493724540541895
 20
11.58994473816485
 10
7.492412174621198
 20
11.59092901260537
 10
7.489131259819454
 20
11.5906009211252
 10
7.484537979097012
 20
11.58961664668468
 10
7.483225613176315
 20
11.5892885552045
  0
LWPOLYLINE
  5
1FAC
330
1E
100
AcDbEntity
  8
0
100
AcDbPolyline
 90
        3
 70
     0
 43
0.0
 10
7.232563722323092
 20
12.36883391209882
 10
7.204347855028096
 20
12.37998902242475
 10
7.176460079213274
 20
12.38753512646876
  0
LWPOLYLINE
  5
1FB1
330
1E
100
AcDbEntity
  8
0
100
AcDbPolyline
 90
       19
 70
     0
 43
0.0
 10
7.456978294762365
 20
12.10931355128089
 10
7.46189966696498
 20
12.11193828312228
 10
7.465508673246899
 20
12.1168596553249
 10
7.466821039167596
 20
12.12604621676978
 10
7.465180581766725
 20
12.13556086969484
 10
7.461243484004632
 20
12.14540361410007
 10
7.44615127591661
 20
12.17230711547437
 10
7.426465787106148
 20
12.19888252536849
 10
7.405139840894813
 20
12.22480175230227
 10
7.360847491071273
 20
12.27598402320947
 10
7.329022617494358
 20
12.31010553714761
 10
7.305400030921804
 20
12.33274384927964
 10
7.291292097274306
 20
12.34455514256592
 10
7.275543706225935
 20
12.35571025289185
 10
7.262748138499135
 20
12.36292826545568
 10
7.248968296331811
 20
12.36817772913847
 10
7.240437917847277
 20
12.36949009505917
 10
7.233876088243789
 20
12.36916200357899
 10
7.232563722323092
 20
12.36883391209882
  0
LWPOLYLINE
  5
1FC6
330
1E
100
AcDbEntity
  8
0
100
AcDbPolyline
 90
        3
 70
     0
 43
0.0
 10
7.488475076859105
 20
12.02696258975712
 10
7.474039051731432
 20
12.06863020773926
 10
7.456978294762365
 20
12.10931355128089
  0
LWPOLYLINE
  5
1FCB
330
1E
100
AcDbEntity
  8
0
100
AcDbPolyline
 90
        5
 70
     0
 43
0.0
 10
7.089515836967064
 20
11.53909055873782
 10
7.060643786711719
 20
11.55122994350427
 10
7.032099827936548
 20
11.56894688343369
 10
7.004212052121726
 20
11.59158519556572
 10
6.977308550747427
 20
11.61848869694002
  0
LWPOLYLINE
  5
1FD2
330
1E
100
AcDbEntity
  8
0
100
AcDbPolyline
 90
       37
 70
     0
 43
0.0
 10
6.846728141638026
 20
12.05550654853229
 10
6.854274245682036
 20
12.09225279431182
 10
6.86510126452779
 20
12.12604621676978
 10
6.879209198175289
 20
12.15590254146565
 10
6.895941863664182
 20
12.18182176839943
 10
6.915627352474645
 20
12.20347580609093
 10
6.937281390166154
 20
12.21988038009965
 10
6.961232068218883
 20
12.23169167338593
 10
6.986823203672484
 20
12.23792541150924
 10
7.013726705046783
 20
12.23890968594977
 10
7.041614480861605
 20
12.23431640522733
 10
7.069830348156601
 20
12.22480175230227
 10
7.098046215451597
 20
12.21003763569442
 10
7.125933991266419
 20
12.19035214688396
 10
7.152837492640719
 20
12.16574528587088
 10
7.178756719574494
 20
12.13720132709571
 10
7.203035489107397
 20
12.10472027055845
 10
7.225345709759256
 20
12.06895829921944
 10
7.245031198569718
 20
12.03057159603904
 10
7.262420047018959
 20
11.98988825249742
 10
7.276856072146633
 20
11.94756445155492
 10
7.288339273952736
 20
11.9042563761719
 10
7.296213469476921
 20
11.86062020930871
 10
7.300806750199362
 20
11.81764022540587
 10
7.30211911612006
 20
11.77531642446337
 10
7.299822475758839
 20
11.73463308092175
 10
7.294244920595875
 20
11.69657446922152
 10
7.285058359150992
 20
11.66114058936269
 10
7.272918974384539
 20
11.6289876243056
 10
7.257498674816345
 20
11.6007717570106
 10
7.239453643406754
 20
11.57714917043805
 10
7.218783880155768
 20
11.55779177310776
 10
7.195817476543561
 20
11.54368383946026
 10
7.171210615530483
 20
11.53449727801538
 10
7.144963297116534
 20
11.53056018025329
 10
7.117403612781886
 20
11.53220063765416
 10
7.089515836967064
 20
11.53909055873782
  0
LINE
  5
1FF9
330
1E
100
AcDbEntity
  8
0
100
AcDbLine
 10
7.302119116120059
 20
12.0630526525763
 30
0.0
 11
7.456978294762364
 21
12.10931355128089
 31
0.0
  0
LWPOLYLINE
  5
1FFA
330
1E
100
AcDbEntity
  8
0
100
AcDbPolyline
 90
        3
 70
     0
 43
0.0
 10
7.3336158982168
 20
11.98070169105253
 10
7.318851781608953
 20
12.02236930903468
 10
7.30211911612006
 20
12.0630526525763
  0
LINE
  5
1FFF
330
1E
100
AcDbEntity
  8
0
100
AcDbLine
 10
7.488475076859104
 20
12.02696258975712
 30
0.0
 11
7.333615898216799
 21
11.98070169105253
 31
0.0
  0
LINE
  5
2000
330
1E
100
AcDbEntity
  8
0
100
AcDbLine
 10
7.077376452200612
 20
12.32257301339423
 30
0.0
 11
7.232563722323091
 21
12.36883391209882
 31
0.0
  0
LINE
  5
2001
330
1E
100
AcDbEntity
  8
0
100
AcDbLine
 10
7.302119116120059
 20
12.0630526525763
 30
0.0
 11
7.077376452200612
 21
12.32257301339423
 31
0.0
  0
LINE
  5
2002
330
1E
100
AcDbEntity
  8
0
100
AcDbLine
 10
7.021600900570968
 20
12.34127422776417
 30
0.0
 11
7.176460079213272
 21
12.38753512646876
 31
0.0
  0
LWPOLYLINE
  5
2003
330
1E
100
AcDbEntity
  8
0
100
AcDbPolyline
 90
        3
 70
     0
 43
0.0
 10
7.077376452200612
 20
12.32257301339423
 10
7.04948867638579
 20
12.33405621520033
 10
7.021600900570968
 20
12.34127422776417
  0
LINE
  5
2008
330
1E
100
AcDbEntity
  8
0
100
AcDbLine
 10
7.021600900570968
 20
12.34127422776417
 30
0.0
 11
6.815887542501633
 21
12.22677030118331
 31
0.0
  0
LWPOLYLINE
  5
2009
330
1E
100
AcDbEntity
  8
0
100
AcDbPolyline
 90
        3
 70
     0
 43
0.0
 10
6.815887542501634
 20
12.22677030118331
 10
6.80276388329466
 20
12.1962577935271
 10
6.79160877296873
 20
12.16312055402949
  0
LINE
  5
200E
330
1E
100
AcDbEntity
  8
0
100
AcDbLine
 10
6.79160877296873
 20
12.16312055402949
 30
0.0
 11
6.794889687770473
 21
12.10078317279635
 31
0.0
  0
LINE
  5
200F
330
1E
100
AcDbEntity
  8
0
100
AcDbLine
 10
6.963200617099928
 20
11.56665024307247
 30
0.0
 11
7.066549433354857
 21
11.44689685280882
 31
0.0
  0
LINE
  5
2010
330
1E
100
AcDbEntity
  8
0
100
AcDbLine
 10
7.122653076464676
 20
11.42819563843888
 30
0.0
 11
7.277512255106981
 21
11.47445653714347
 31
0.0
  0
LWPOLYLINE
  5
2011
330
1E
100
AcDbEntity
  8
0
100
AcDbPolyline
 90
        3
 70
     0
 43
0.0
 10
7.066549433354857
 20
11.44689685280882
 10
7.094765300649854
 20
11.43574174248289
 10
7.122653076464676
 20
11.42819563843888
  0
LINE
  5
2016
330
1E
100
AcDbEntity
  8
0
100
AcDbLine
 10
7.328366434534009
 20
11.54302765649992
 30
0.0
 11
7.483225613176314
 21
11.5892885552045
 31
0.0
  0
LINE
  5
2017
330
1E
100
AcDbEntity
  8
0
100
AcDbLine
 10
7.122653076464676
 20
11.42819563843888
 30
0.0
 11
7.328366434534009
 21
11.54302765649992
 31
0.0
  0
LINE
  5
2018
330
1E
100
AcDbEntity
  8
0
100
AcDbLine
 10
7.352645204066912
 20
11.60634931217357
 30
0.0
 11
7.507504382709218
 21
11.65261021087816
 31
0.0
  0
LWPOLYLINE
  5
2019
330
1E
100
AcDbEntity
  8
0
100
AcDbPolyline
 90
        3
 70
     0
 43
0.0
 10
7.328366434534009
 20
11.54302765649992
 10
7.341490093740985
 20
11.57321207267596
 10
7.352645204066913
 20
11.60634931217357
  0
LINE
  5
201E
330
1E
100
AcDbEntity
  8
0
100
AcDbLine
 10
7.352645204066912
 20
11.60634931217357
 30
0.0
 11
7.333615898216799
 21
11.98070169105253
 31
0.0
  0
LINE
  5
201F
330
1E
100
AcDbEntity
  8
0
100
AcDbLine
 10
6.167906869157242
 20
12.10832927684037
 30
0.0
 11
6.416272119649244
 21
12.0246659493959
 31
0.0
  0
LWPOLYLINE
  5
2020
330
1E
100
AcDbEntity
  8
0
100
AcDbPolyline
 90
        3
 70
     0
 43
0.0
 10
6.121645970452656
 20
12.08273814138676
 10
6.143956191104513
 20
12.09750225799461
 10
6.167906869157243
 20
12.10832927684037
  0
LINE
  5
2025
330
1E
100
AcDbEntity
  8
0
100
AcDbLine
 10
6.102288573122367
 20
12.03221205343991
 30
0.0
 11
6.121645970452655
 21
12.08273814138676
 31
0.0
  0
LINE
  5
2026
330
1E
100
AcDbEntity
  8
0
100
AcDbLine
 10
6.457283554671041
 20
11.20804625524188
 30
0.0
 11
6.368042672063611
 21
11.23823067141792
 31
0.0
  0
LWPOLYLINE
  5
2027
330
1E
100
AcDbEntity
  8
0
100
AcDbPolyline
 90
        3
 70
     0
 43
0.0
 10
6.503544453375629
 20
11.23396548217565
 10
6.481234232723771
 20
11.21920136556781
 10
6.457283554671042
 20
11.20804625524188
  0
LINE
  5
202C
330
1E
100
AcDbEntity
  8
0
100
AcDbLine
 10
6.611486550352998
 20
11.51645224660579
 30
0.0
 11
6.503544453375628
 21
11.23396548217565
 31
0.0
  0
LWPOLYLINE
  5
202D
330
1E
100
AcDbEntity
  8
0
100
AcDbPolyline
 90
        3
 70
     0
 43
0.0
 10
6.607221361110732
 20
11.60044366553043
 10
6.610502275912476
 20
11.55811986458794
 10
6.611486550352998
 20
11.51645224660579
  0
LINE
  5
2032
330
1E
100
AcDbEntity
  8
0
100
AcDbLine
 10
6.466798207596098
 20
11.96626566592486
 30
0.0
 11
6.607221361110731
 21
11.60044366553043
 31
0.0
  0
LWPOLYLINE
  5
2033
330
1E
100
AcDbEntity
  8
0
100
AcDbPolyline
 90
        3
 70
     0
 43
0.0
 10
6.416272119649245
 20
12.0246659493959
 10
6.441863255102846
 20
11.99710626506125
 10
6.466798207596099
 20
11.96626566592486
  0
LINE
  5
2038
330
1E
100
AcDbEntity
  8
0
100
AcDbLine
 10
6.621657386238403
 20
12.01252656462945
 30
0.0
 11
6.466798207596098
 21
11.96626566592486
 31
0.0
  0
LWPOLYLINE
  5
2039
330
1E
100
AcDbEntity
  8
0
100
AcDbPolyline
 90
        3
 70
     0
 43
0.0
 10
6.57113129829155
 20
12.07092684810049
 10
6.597050525225326
 20
12.04336716376584
 10
6.621657386238404
 20
12.01252656462945
  0
LINE
  5
203E
330
1E
100
AcDbEntity
  8
0
100
AcDbLine
 10
6.416272119649244
 20
12.0246659493959
 30
0.0
 11
6.571131298291549
 21
12.07092684810048
 31
0.0
  0
LINE
  5
203F
330
1E
100
AcDbEntity
  8
0
100
AcDbLine
 10
6.762080539753037
 20
11.64670456423502
 30
0.0
 11
6.607221361110731
 21
11.60044366553043
 31
0.0
  0
LINE
  5
2040
330
1E
100
AcDbEntity
  8
0
100
AcDbLine
 10
6.621657386238403
 20
12.01252656462945
 30
0.0
 11
6.762080539753037
 21
11.64670456423502
 31
0.0
  0
LINE
  5
2041
330
1E
100
AcDbEntity
  8
0
100
AcDbLine
 10
6.766345728995303
 20
11.5623850538302
 30
0.0
 11
6.611486550352998
 21
11.51645224660579
 31
0.0
  0
LWPOLYLINE
  5
2042
330
1E
100
AcDbEntity
  8
0
100
AcDbPolyline
 90
        3
 70
     0
 43
0.0
 10
6.762080539753037
 20
11.64670456423502
 10
6.765689546034955
 20
11.60405267181235
 10
6.766345728995304
 20
11.5623850538302
  0
LINE
  5
2047
330
1E
100
AcDbEntity
  8
0
100
AcDbLine
 10
6.658731723498108
 20
11.28022638088024
 30
0.0
 11
6.503544453375628
 21
11.23396548217565
 31
0.0
  0
LINE
  5
2048
330
1E
100
AcDbEntity
  8
0
100
AcDbLine
 10
6.766345728995303
 20
11.5623850538302
 30
0.0
 11
6.658731723498108
 21
11.28022638088024
 31
0.0
  0
LINE
  5
2049
330
1E
100
AcDbEntity
  8
0
100
AcDbLine
 10
6.612470824793521
 20
11.25430715394647
 30
0.0
 11
6.457283554671041
 21
11.20804625524188
 31
0.0
  0
LWPOLYLINE
  5
204A
330
1E
100
AcDbEntity
  8
0
100
AcDbPolyline
 90
        3
 70
     0
 43
0.0
 10
6.658731723498108
 20
11.28022638088024
 10
6.636093411366076
 20
11.26546226427239
 10
6.612470824793522
 20
11.25430715394647
  0
LINE
  5
204F
330
1E
100
AcDbEntity
  8
0
100
AcDbLine
 10
6.322766047799547
 20
12.15459017554495
 30
0.0
 11
6.167906869157242
 21
12.10832927684037
 31
0.0
  0
LINE
  5
2050
330
1E
100
AcDbEntity
  8
0
100
AcDbLine
 10
6.322766047799547
 20
12.15459017554495
 30
0.0
 11
6.571131298291549
 21
12.07092684810048
 31
0.0
  0
LWPOLYLINE
  5
2051
330
1E
100
AcDbEntity
  8
0
100
AcDbPolyline
 90
       29
 70
     0
 43
0.0
 10
5.601949065856445
 20
11.89506981472702
 10
5.629836841671266
 20
11.90064736988998
 10
5.659036983406785
 20
11.90097546137016
 10
5.688893308102654
 20
11.89572599768737
 10
5.719405815758871
 20
11.88555516180196
 10
5.749590231934913
 20
11.87046295371394
 10
5.779774648110956
 20
11.85012128194313
 10
5.80930288132665
 20
11.82551442093005
 10
5.83784684010182
 20
11.79631427919453
 10
5.864750341476119
 20
11.7635051311771
 10
5.890013385449546
 20
11.72708697687774
 10
5.912979789061752
 20
11.68738790777664
 10
5.933649552312738
 20
11.64506410683415
 10
5.952022675202504
 20
11.60109984849078
 10
5.967114883290524
 20
11.55549513274654
 10
5.97958235953715
 20
11.50890614256178
 10
5.988440829501859
 20
11.46198906089684
 10
5.994346476144998
 20
11.41507197923191
 10
5.996643116506218
 20
11.36946726348767
 10
5.995330750585521
 20
11.32517491366413
 10
5.991065561343254
 20
11.28252302124146
 10
5.983191365819068
 20
11.24282395214036
 10
5.97203625549314
 20
11.20607770636083
 10
5.957928321845642
 20
11.17261237538305
 10
5.940867564876574
 20
11.14308414216735
 10
5.920853984585938
 20
11.1181491896741
 10
5.89854376393408
 20
11.09747942642311
 10
5.874264994401176
 20
11.08173103537474
 10
5.847689584507052
 20
11.07090401652899
  0
LWPOLYLINE
  5
2070
330
1E
100
AcDbEntity
  8
0
100
AcDbPolyline
 90
       17
 70
     0
 43
0.0
 10
5.622946920587605
 20
11.759568033415
 10
5.654443702684345
 20
11.74546009976751
 10
5.686596667741433
 20
11.72314987911565
 10
5.718421541318347
 20
11.69329355441978
 10
5.748277866014216
 20
11.6558911256799
 10
5.775181367388515
 20
11.61291114177706
 10
5.797819679520546
 20
11.5663221515923
 10
5.815536619449963
 20
11.51809270400666
 10
5.82800409569659
 20
11.4701913479012
 10
5.836206382700948
 20
11.42196190031557
 10
5.839487297502692
 20
11.37274817828941
 10
5.837190657141472
 20
11.32451873070378
 10
5.829316461617287
 20
11.27924210643972
 10
5.816192802410312
 20
11.23888685437827
 10
5.798147771000721
 20
11.20542152340048
 10
5.776165641829038
 20
11.17983038794688
 10
5.751886872296134
 20
11.16178535653729
  0
LWPOLYLINE
  5
2083
330
1E
100
AcDbEntity
  8
0
100
AcDbPolyline
 90
        5
 70
     0
 43
0.0
 10
5.751886872296134
 20
11.16178535653729
 10
5.729248560164102
 20
11.15227070361223
 10
5.704969790631198
 20
11.14767742288979
 10
5.679378655177597
 20
11.14866169733031
 10
5.653459428243821
 20
11.15489543545363
  0
LWPOLYLINE
  5
208A
330
1E
100
AcDbEntity
  8
0
100
AcDbPolyline
 90
       29
 70
     0
 43
0.0
 10
5.653459428243821
 20
11.15489543545363
 10
5.629180658710917
 20
11.16539436281921
 10
5.603917614737491
 20
11.18048657090723
 10
5.578654570764063
 20
11.20115633415821
 10
5.559625264913949
 20
11.21985754852816
 10
5.541252142024185
 20
11.24118349473949
 10
5.523535202094769
 20
11.26513417279222
 10
5.507130628086049
 20
11.29138149120617
 10
5.492038419998029
 20
11.31926926702099
 10
5.478586669310879
 20
11.34846940875651
 10
5.467103467504776
 20
11.37832573345238
 10
5.457260723099545
 20
11.4088382411086
 10
5.447417978694313
 20
11.44886540168987
 10
5.440856149090826
 20
11.48790828783062
 10
5.437575234289083
 20
11.52465453361015
 10
5.437247142808907
 20
11.56074459642933
 10
5.440199966130477
 20
11.59650656776834
 10
5.446105612773616
 20
11.63128426466682
 10
5.452995533857277
 20
11.6558911256799
 10
5.462182095302161
 20
11.67918562077228
 10
5.473009114147915
 20
11.70018347550344
 10
5.485804681874715
 20
11.71855659839321
 10
5.499912615522213
 20
11.73430498944158
 10
5.515661006570583
 20
11.74710055716838
 10
5.532721763539651
 20
11.75661521009343
 10
5.550438703469067
 20
11.76317703969692
 10
5.574389381521797
 20
11.76678604597884
 10
5.598996242534875
 20
11.76547368005814
 10
5.622946920587605
 20
11.759568033415
  0
LWPOLYLINE
  5
20A9
330
1E
100
AcDbEntity
  8
0
100
AcDbPolyline
 90
       41
 70
     0
 43
0.0
 10
5.648538056041205
 20
11.25102623914472
 10
5.627212109829871
 20
11.26054089206978
 10
5.605886163618537
 20
11.27530500867762
 10
5.585544491847725
 20
11.29433431452774
 10
5.566187094517437
 20
11.31730071813994
 10
5.548798246068195
 20
11.34387612803407
 10
5.533706037980175
 20
11.37340436124976
 10
5.520910470253373
 20
11.40457305186633
 10
5.511395817328317
 20
11.43738219988377
 10
5.504833987724829
 20
11.47051943938138
 10
5.501224981442911
 20
11.50332858739882
 10
5.501553072923085
 20
11.53515346097573
 10
5.504833987724829
 20
11.56468169419142
 10
5.511723908808491
 20
11.5919132870459
 10
5.521566653213723
 20
11.61586396509863
 10
5.534034129460349
 20
11.63554945390909
 10
5.549454429028545
 20
11.65129784495746
 10
5.566843277477786
 20
11.66179677232304
 10
5.586200674808075
 20
11.66770241896618
 10
5.606542346578885
 20
11.66803051044635
 10
5.62786829279022
 20
11.66343722972391
 10
5.649522330481729
 20
11.65392257679885
 10
5.670848276693063
 20
11.63915846019101
 10
5.691189948463875
 20
11.62012915434089
 10
5.710219254313988
 20
11.59716275072869
 10
5.72760810276323
 20
11.57058734083456
 10
5.743028402331426
 20
11.54105910761887
 10
5.755495878578052
 20
11.5098904170023
 10
5.765338622983284
 20
11.47708126898487
 10
5.771900452586771
 20
11.44394402948725
 10
5.775181367388515
 20
11.41113488146981
 10
5.775181367388515
 20
11.3793100078929
 10
5.771572361106596
 20
11.34978177467721
 10
5.76501053150311
 20
11.32255018182273
 10
5.755167787097878
 20
11.29859950377001
 10
5.742372219371077
 20
11.27891401495954
 10
5.727280011283056
 20
11.26316562391117
 10
5.70956307135364
 20
11.25266669654559
 10
5.690533765503526
 20
11.24676104990245
 10
5.66986400225254
 20
11.24643295842228
 10
5.648538056041205
 20
11.25102623914472
  0
LWPOLYLINE
  5
20D4
330
1E
100
AcDbEntity
  8
0
100
AcDbPolyline
 90
        6
 70
     0
 43
0.0
 10
6.056355765897954
 20
11.22576319517129
 10
6.038966917448713
 20
11.18803267495124
 10
6.017640971237378
 20
11.15555161841398
 10
5.992706018744126
 20
11.1296323914802
 10
5.964818242929304
 20
11.10961881118956
 10
5.934305735273087
 20
11.09682324346277
  0
LWPOLYLINE
  5
20DC
330
1E
100
AcDbEntity
  8
0
100
AcDbPolyline
 90
       10
 70
     0
 43
0.0
 10
6.035686002646968
 20
11.63390899650822
 10
6.052090576655688
 20
11.58699191484328
 10
6.064886144382489
 20
11.53843437577747
 10
6.07472888878772
 20
11.48987683671166
 10
6.080634535430858
 20
11.44164738912603
 10
6.082931175792079
 20
11.39407412450075
 10
6.081946901351556
 20
11.34814131727634
 10
6.076697437668766
 20
11.30450515041314
 10
6.068495150664407
 20
11.26349371539135
 10
6.056355765897954
 20
11.22576319517129
  0
LWPOLYLINE
  5
20E8
330
1E
100
AcDbEntity
  8
0
100
AcDbPolyline
 90
       10
 70
     0
 43
0.0
 10
5.790929758436885
 20
11.9170519438987
 10
5.822426540533625
 20
11.90392828469173
 10
5.853923322630365
 20
11.88522707032179
 10
5.884763921766756
 20
11.86127639226906
 10
5.914620246462624
 20
11.83273243349389
 10
5.943164205237795
 20
11.79992328547645
 10
5.96973961513192
 20
11.76284894821675
 10
5.994346476144998
 20
11.72282178763547
 10
6.016328605316681
 20
11.67951371225246
 10
6.035686002646968
 20
11.63390899650822
  0
LWPOLYLINE
  5
20F4
330
1E
100
AcDbEntity
  8
0
100
AcDbPolyline
 90
        4
 70
     0
 43
0.0
 10
5.68856521662248
 20
11.9209890416608
 10
5.721374364639917
 20
11.92689468830393
 10
5.755495878578052
 20
11.92558232238324
 10
5.790929758436885
 20
11.9170519438987
  0
LWPOLYLINE
  5
20FA
330
1E
100
AcDbEntity
  8
0
100
AcDbPolyline
 90
       22
 70
     0
 43
0.0
 10
5.662974081168878
 20
11.2743207342371
 10
5.642304317917893
 20
11.28383538716216
 10
5.621634554666907
 20
11.29859950377001
 10
5.601949065856445
 20
11.31762880962012
 10
5.583904034446854
 20
11.3409233047125
 10
5.567499460438135
 20
11.36749871460662
 10
5.553719618270811
 20
11.39669885634214
 10
5.542564507944883
 20
11.42753945547853
 10
5.534690312420697
 20
11.45969242053562
 10
5.530097031698256
 20
11.49151729411254
 10
5.528784665777559
 20
11.52301407620928
 10
5.531081306138779
 20
11.55254230942497
 10
5.536986952781917
 20
11.57944581079927
 10
5.545845422746626
 20
11.60306839737183
 10
5.557984807513078
 20
11.62275388618229
 10
5.572748924120925
 20
11.63817418575048
 10
5.589481589609818
 20
11.64834502163589
 10
5.608510895459932
 20
11.65326639383851
 10
5.628524475750569
 20
11.65326639383851
 10
5.649194239001555
 20
11.64736074719537
 10
5.66986400225254
 20
11.63653372834961
 10
5.690205674023351
 20
11.62111342878141
  0
LWPOLYLINE
  5
2112
330
1E
100
AcDbEntity
  8
0
100
AcDbPolyline
 90
        8
 70
     0
 43
0.0
 10
5.771572361106596
 20
11.34879750023668
 10
5.763041982622063
 20
11.32451873070378
 10
5.751886872296134
 20
11.30417705893297
 10
5.737778938648636
 20
11.2884286678846
 10
5.721374364639917
 20
11.2769454660785
 10
5.703001241750152
 20
11.27071172795518
 10
5.683315752939689
 20
11.27005554499483
 10
5.662974081168878
 20
11.2743207342371
  0
LWPOLYLINE
  5
211C
330
1E
100
AcDbEntity
  8
0
100
AcDbPolyline
 90
        5
 70
     0
 43
0.0
 10
5.685940484781085
 20
11.96462520852399
 10
5.708250705432942
 20
11.95215773227736
 10
5.73285756644602
 20
11.94001834751091
 10
5.760417250780668
 20
11.92820705422463
 10
5.790929758436885
 20
11.9170519438987
  0
LWPOLYLINE
  5
2123
330
1E
100
AcDbEntity
  8
0
100
AcDbPolyline
 90
        3
 70
     0
 43
0.0
 10
5.639679586076497
 20
11.93870598159021
 10
5.661989806728355
 20
11.95379818967823
 10
5.685940484781085
 20
11.96462520852399
  0
LWPOLYLINE
  5
2128
330
1E
100
AcDbEntity
  8
0
100
AcDbPolyline
 90
        3
 70
     0
 43
0.0
 10
5.617041273944465
 20
11.89966309544946
 10
5.618025548384989
 20
11.90130355285033
 10
5.639679586076497
 20
11.93870598159021
  0
LWPOLYLINE
  5
212D
330
1E
100
AcDbEntity
  8
0
100
AcDbPolyline
 90
        5
 70
     0
 43
0.0
 10
5.984831823219941
 20
11.82256159760848
 10
5.994018384664824
 20
11.77531642446337
 10
6.005173494990752
 20
11.72839934279844
 10
6.019281428638251
 20
11.68082607817315
 10
6.035686002646968
 20
11.63390899650822
  0
LWPOLYLINE
  5
2134
330
1E
100
AcDbEntity
  8
0
100
AcDbPolyline
 90
        3
 70
     0
 43
0.0
 10
5.934305735273087
 20
11.88096188107952
 10
5.959896870726688
 20
11.85340219674487
 10
5.984831823219941
 20
11.82256159760848
  0
LWPOLYLINE
  5
2139
330
1E
100
AcDbEntity
  8
0
100
AcDbPolyline
 90
        5
 70
     0
 43
0.0
 10
5.790929758436885
 20
11.9170519438987
 10
5.823082723493974
 20
11.90720919949347
 10
5.857860420392457
 20
11.89769454656842
 10
5.895262849132336
 20
11.88916416808388
 10
5.934305735273087
 20
11.88096188107952
  0
LWPOLYLINE
  5
2140
330
1E
100
AcDbEntity
  8
0
100
AcDbPolyline
 90
        5
 70
     0
 43
0.0
 10
6.12952016597684
 20
11.37274817828941
 10
6.108194219765506
 20
11.33567384102971
 10
6.088836822435218
 20
11.29892759525018
 10
6.071447973985976
 20
11.26185325799048
 10
6.056355765897954
 20
11.22576319517129
  0
LWPOLYLINE
  5
2147
330
1E
100
AcDbEntity
  8
0
100
AcDbPolyline
 90
        3
 70
     0
 43
0.0
 10
6.125254976734574
 20
11.45673959721406
 10
6.128535891536317
 20
11.41441579627156
 10
6.12952016597684
 20
11.37274817828941
  0
LWPOLYLINE
  5
214C
330
1E
100
AcDbEntity
  8
0
100
AcDbPolyline
 90
        5
 70
     0
 43
0.0
 10
6.035686002646968
 20
11.63390899650822
 10
6.054715308497083
 20
11.58863237224415
 10
6.075713163228243
 20
11.54401193094044
 10
6.099663841280972
 20
11.50004767259707
 10
6.125254976734574
 20
11.45673959721406
  0
LWPOLYLINE
  5
2153
330
1E
100
AcDbEntity
  8
0
100
AcDbPolyline
 90
        5
 70
     0
 43
0.0
 10
6.056355765897954
 20
11.22576319517129
 10
6.044216381131503
 20
11.19065740679263
 10
6.034373636726272
 20
11.1565358928545
 10
6.026827532682261
 20
11.12307056187672
 10
6.02157806899947
 20
11.09026141385928
  0
LWPOLYLINE
  5
215A
330
1E
100
AcDbEntity
  8
0
100
AcDbPolyline
 90
        3
 70
     0
 43
0.0
 10
5.975317170294884
 20
11.0643421869255
 10
5.936930467114482
 20
11.07221638244969
 10
5.890013385449546
 20
11.08369958425579
  0
LWPOLYLINE
  5
215F
330
1E
100
AcDbEntity
  8
0
100
AcDbPolyline
 90
        3
 70
     0
 43
0.0
 10
6.02157806899947
 20
11.09026141385928
 10
5.999267848347614
 20
11.07549729725143
 10
5.975317170294884
 20
11.0643421869255
  0
LINE
  5
2164
330
1E
100
AcDbEntity
  8
0
100
AcDbLine
 10
6.302424376028736
 20
11.16211344801746
 30
0.0
 11
5.975317170294883
 21
11.0643421869255
 31
0.0
  0
LWPOLYLINE
  5
2165
330
1E
100
AcDbEntity
  8
0
100
AcDbPolyline
 90
        3
 70
     0
 43
0.0
 10
6.348685274733323
 20
11.18770458347107
 10
6.326046962601291
 20
11.17294046686322
 10
6.302424376028737
 20
11.16211344801746
  0
LINE
  5
216A
330
1E
100
AcDbEntity
  8
0
100
AcDbLine
 10
6.02157806899947
 20
11.09026141385928
 30
0.0
 11
6.348685274733323
 21
11.18770458347107
 31
0.0
  0
LINE
  5
216B
330
1E
100
AcDbEntity
  8
0
100
AcDbLine
 10
6.012719599034761
 20
12.06206837813578
 30
0.0
 11
5.685940484781084
 21
11.96462520852399
 31
0.0
  0
LINE
  5
216C
330
1E
100
AcDbEntity
  8
0
100
AcDbLine
 10
6.261084849526764
 20
11.97873314217149
 30
0.0
 11
5.934305735273087
 21
11.88096188107952
 31
0.0
  0
LINE
  5
216D
330
1E
100
AcDbEntity
  8
0
100
AcDbLine
 10
6.012719599034761
 20
12.06206837813578
 30
0.0
 11
6.261084849526764
 21
11.97873314217149
 31
0.0
  0
LINE
  5
216E
330
1E
100
AcDbEntity
  8
0
100
AcDbLine
 10
6.311610937473618
 20
11.92033285870045
 30
0.0
 11
5.98483182321994
 21
11.82256159760848
 31
0.0
  0
LWPOLYLINE
  5
216F
330
1E
100
AcDbEntity
  8
0
100
AcDbPolyline
 90
        3
 70
     0
 43
0.0
 10
6.261084849526765
 20
11.97873314217149
 10
6.287004076460541
 20
11.95084536635666
 10
6.311610937473619
 20
11.92033285870045
  0
LINE
  5
2174
330
1E
100
AcDbEntity
  8
0
100
AcDbLine
 10
6.452034090988251
 20
11.55418276682584
 30
0.0
 11
6.125254976734573
 21
11.45673959721405
 31
0.0
  0
LINE
  5
2175
330
1E
100
AcDbEntity
  8
0
100
AcDbLine
 10
6.311610937473618
 20
11.92033285870045
 30
0.0
 11
6.452034090988251
 21
11.55418276682584
 31
0.0
  0
LINE
  5
2176
330
1E
100
AcDbEntity
  8
0
100
AcDbLine
 10
6.456299280230518
 20
11.4701913479012
 30
0.0
 11
6.12952016597684
 21
11.37274817828941
 31
0.0
  0
LWPOLYLINE
  5
2177
330
1E
100
AcDbEntity
  8
0
100
AcDbPolyline
 90
        3
 70
     0
 43
0.0
 10
6.452034090988252
 20
11.55418276682584
 10
6.45564309727017
 20
11.51185896588335
 10
6.456299280230519
 20
11.4701913479012
  0
LINE
  5
217C
330
1E
100
AcDbEntity
  8
0
100
AcDbLine
 10
6.456299280230518
 20
11.4701913479012
 30
0.0
 11
6.348685274733323
 21
11.18770458347107
 31
0.0
  0
LWPOLYLINE
  5
217D
330
1E
100
AcDbEntity
  8
0
100
AcDbPolyline
 90
        5
 70
     0
 43
0.0
 10
6.416928302609594
 20
11.6457202897945
 10
6.40610128376384
 20
11.68738790777664
 10
6.392321441596515
 20
11.72807125131826
 10
6.375588776107623
 20
11.76744222893919
 10
6.356231378777334
 20
11.80418847471872
  0
LWPOLYLINE
  5
2184
330
1E
100
AcDbEntity
  8
0
100
AcDbPolyline
 90
       11
 70
     0
 43
0.0
 10
6.318172767077107
 20
11.90327210173138
 10
6.343763902530708
 20
11.87243150259499
 10
6.367714580583437
 20
11.8376538056965
 10
6.389368618274946
 20
11.79992328547645
 10
6.40839792412506
 20
11.759568033415
 10
6.424802498133779
 20
11.71691614099233
 10
6.437926157340754
 20
11.67327997412914
 10
6.447768901745985
 20
11.6289876243056
 10
6.454002639869298
 20
11.58469527448206
 10
6.456955463190867
 20
11.54105910761887
 10
6.456299280230519
 20
11.49873530667637
  0
LWPOLYLINE
  5
2191
330
1E
100
AcDbEntity
  8
0
100
AcDbPolyline
 90
        4
 70
     0
 43
0.0
 10
6.451705999508078
 20
11.4573957801744
 10
6.441207072142498
 20
11.41211915591034
 10
6.426114864054476
 20
11.37209199532907
 10
6.40610128376384
 20
11.33797048139093
  0
LWPOLYLINE
  5
2197
330
1E
100
AcDbEntity
  8
0
100
AcDbPolyline
 90
       18
 70
     0
 43
0.0
 10
6.301112010108039
 20
11.9337846093876
 10
6.327687420002163
 20
11.90786538245382
 10
6.352950463975591
 20
11.87800905775795
 10
6.376573050548145
 20
11.84421563529999
 10
6.397898996759479
 20
11.80746938952046
 10
6.416928302609594
 20
11.76809841189954
 10
6.433332876618313
 20
11.72675888539757
 10
6.446784627305462
 20
11.6841069929749
 10
6.456955463190867
 20
11.64079891759188
 10
6.463845384274529
 20
11.59749084220886
 10
6.467454390556447
 20
11.55451085830602
 10
6.467454390556447
 20
11.51284324032387
 10
6.464173475754703
 20
11.4728160797426
 10
6.457611646151216
 20
11.43541365100272
 10
6.447440810265811
 20
11.40096404558441
 10
6.434317151058835
 20
11.37012344644802
 10
6.418240668530291
 20
11.34321994507372
 10
6.399211362680177
 20
11.32058163294169
  0
LWPOLYLINE
  5
21AB
330
1E
100
AcDbEntity
  8
0
100
AcDbPolyline
 90
       14
 70
     0
 43
0.0
 10
6.307673839711527
 20
11.92820705422463
 10
6.334905432565999
 20
11.90327210173138
 10
6.36115275097995
 20
11.87374386851569
 10
6.385431520512854
 20
11.8402785375379
 10
6.407413649684537
 20
11.8032042002782
 10
6.426771047014825
 20
11.76317703969692
 10
6.443175621023543
 20
11.72085323875443
 10
6.455971188750345
 20
11.67721707189123
 10
6.465485841675401
 20
11.63325281354787
 10
6.47139148831854
 20
11.58896046372433
 10
6.473031945719412
 20
11.54598047982148
 10
6.47139148831854
 20
11.50464095331951
 10
6.465485841675401
 20
11.46559806717876
 10
6.455971188750345
 20
11.42983609583976
  0
LWPOLYLINE
  5
21BB
330
1E
100
AcDbEntity
  8
0
100
AcDbPolyline
 90
       25
 70
     0
 43
0.0
 10
6.193826096091019
 20
12.00137145430352
 10
6.221057688945491
 20
12.00005908838282
 10
6.248617373280139
 20
11.99382535025951
 10
6.276833240575135
 20
11.9823421484534
 10
6.304721016389957
 20
11.96593757444469
 10
6.331952609244431
 20
11.94493971971353
 10
6.358528019138555
 20
11.91934858425993
 10
6.383791063111981
 20
11.88982035104423
 10
6.407085558204363
 20
11.85668311154662
 10
6.428739595895871
 20
11.82059304872744
 10
6.447768901745985
 20
11.78187825406686
 10
6.464173475754703
 20
11.74086681904506
 10
6.477953317922027
 20
11.69854301810257
 10
6.488452245287607
 20
11.65556303419972
 10
6.495670257851444
 20
11.61258305029688
 10
6.499607355613536
 20
11.56993115787422
 10
6.500263538573885
 20
11.52826353989207
 10
6.497310715252316
 20
11.48823637931079
 10
6.491405068609177
 20
11.45083395057092
 10
6.48189041568412
 20
11.41605625367243
 10
6.469422939437494
 20
11.38488756305586
 10
6.453674548389123
 20
11.35732787872122
 10
6.435629516979533
 20
11.33403338362884
 10
6.414959753728547
 20
11.3153321692589
 10
6.391993350116341
 20
11.30155232709157
  0
LWPOLYLINE
  5
21D6
330
1E
100
AcDbEntity
  8
0
100
AcDbPolyline
 90
       26
 70
     0
 43
0.0
 10
6.189560906848751
 20
12.00268382022422
 10
6.216136316742876
 20
12.00465236910526
 10
6.243367909597349
 20
12.00137145430352
 10
6.271583776892345
 20
11.99284107581898
 10
6.299471552707167
 20
11.97938932513183
 10
6.327359328521989
 20
11.9606881107619
 10
6.354590921376463
 20
11.93772170714969
 10
6.380510148310237
 20
11.91049011429522
 10
6.405117009323316
 20
11.87899333219847
 10
6.427755321455348
 20
11.84454372678017
 10
6.44809699322616
 20
11.80681320656011
 10
6.46614202463575
 20
11.76711413745901
 10
6.481562324203946
 20
11.72544651947687
 10
6.493701708970398
 20
11.6827946270542
 10
6.50288827041528
 20
11.63948655167118
 10
6.508793917058419
 20
11.59650656776834
 10
6.51109055741964
 20
11.55385467534567
 10
6.510106282979116
 20
11.51317133180405
 10
6.505841093736849
 20
11.4741284456633
 10
6.498294989692839
 20
11.43771029136394
 10
6.48713987936691
 20
11.40457305186633
 10
6.473360037199586
 20
11.37471672717046
 10
6.456627371710693
 20
11.34912559171686
 10
6.436941882900231
 20
11.3281277369857
 10
6.415287845208722
 20
11.31172316297698
 10
6.391665258636167
 20
11.30023996117088
  0
LWPOLYLINE
  5
21F2
330
1E
100
AcDbEntity
  8
0
100
AcDbPolyline
 90
       14
 70
     0
 43
0.0
 10
6.350981915094545
 20
11.94100262195143
 10
6.378541599429192
 20
11.91639576093835
 10
6.404460826362967
 20
11.88686752772266
 10
6.428739595895871
 20
11.85340219674487
 10
6.450721725067555
 20
11.815999768005
 10
6.470079122397843
 20
11.77597260742372
 10
6.486483696406561
 20
11.7339768979614
 10
6.499279264133362
 20
11.69034073109821
 10
6.508793917058419
 20
11.64604838127467
 10
6.514699563701558
 20
11.6020841229313
 10
6.516668112582604
 20
11.55877604754828
 10
6.514699563701558
 20
11.51743652104631
 10
6.508793917058419
 20
11.47872172638574
 10
6.499607355613536
 20
11.44263166356656
  0
LWPOLYLINE
  5
2202
330
1E
100
AcDbEntity
  8
0
100
AcDbPolyline
 90
        4
 70
     0
 43
0.0
 10
6.294878271984726
 20
12.00596473502596
 10
6.259116300645719
 20
12.01383893055014
 10
6.224338603747235
 20
12.01285465610962
 10
6.191857547209972
 20
12.00301191170439
  0
LWPOLYLINE
  5
2208
330
1E
100
AcDbEntity
  8
0
100
AcDbPolyline
 90
       24
 70
     0
 43
0.0
 10
6.400523728600875
 20
11.3038489674528
 10
6.426114864054476
 20
11.31073888853646
 10
6.450065542107206
 20
11.32255018182273
 10
6.471719579798715
 20
11.3396109387918
 10
6.491076977129003
 20
11.36159306796349
 10
6.507809642617896
 20
11.38816847785761
 10
6.52158948478522
 20
11.41868098551383
 10
6.5320884121508
 20
11.45247440797179
 10
6.539306424714636
 20
11.48987683671166
 10
6.543243522476728
 20
11.52957590581277
 10
6.543571613956903
 20
11.57124352379491
 10
6.540618790635333
 20
11.61422350769775
 10
6.534056961031846
 20
11.65785967456095
 10
6.52388612514644
 20
11.70149584142414
 10
6.510762465939465
 20
11.74447582532698
 10
6.494685983410921
 20
11.78614344330913
 10
6.475984769040981
 20
11.8261706038904
 10
6.454658822829647
 20
11.86324494115011
 10
6.431364327737266
 20
11.89736645508824
 10
6.40610128376384
 20
11.92787896274446
 10
6.379197782389541
 20
11.95445437263858
 10
6.351638098054893
 20
11.97643650181027
 10
6.323422230759897
 20
11.99382535025951
 10
6.294878271984726
 20
12.00596473502596
  0
LWPOLYLINE
  5
2222
330
1E
100
AcDbEntity
  8
0
100
AcDbPolyline
 90
       14
 70
     0
 43
0.0
 10
6.840822494994887
 20
11.55418276682584
 10
6.848696690519073
 20
11.58896046372433
 10
6.853289971241514
 20
11.62669098394438
 10
6.854274245682036
 20
11.66671814452566
 10
6.851977605320816
 20
11.70772957954745
 10
6.846400050157852
 20
11.75005338048995
 10
6.837213488712969
 20
11.79204908995227
 10
6.824746012466343
 20
11.83371670793441
 10
6.809325712898147
 20
11.87374386851569
 10
6.791280681488556
 20
11.91213057169609
 10
6.77061091823757
 20
11.94822063451527
 10
6.747644514625365
 20
11.98070169105253
 10
6.72336574509246
 20
12.00990183278805
 10
6.697446518158685
 20
12.03483678528131
  0
LWPOLYLINE
  5
2232
330
1E
100
AcDbEntity
  8
0
100
AcDbPolyline
 90
       28
 70
     0
 43
0.0
 10
6.535697418432718
 20
12.10472027055845
 10
6.56063237092597
 20
12.1142349234835
 10
6.587207780820095
 20
12.1181720212456
 10
6.614767465154742
 20
12.1168596553249
 10
6.643311423929914
 20
12.10996973424124
 10
6.671855382705084
 20
12.09783034947479
 10
6.700399341480254
 20
12.08044150102554
 10
6.72861520877525
 20
12.05813128037369
 10
6.75551871014955
 20
12.03122777899939
 10
6.780781754122976
 20
12.00038717986299
 10
6.804404340695532
 20
11.96560948296451
 10
6.825730286906866
 20
11.92787896274446
 10
6.84475959275698
 20
11.88785180216318
 10
6.860836075285524
 20
11.84552800122069
 10
6.873631643012325
 20
11.8018918343575
 10
6.883474387417556
 20
11.75792757601413
 10
6.889708125540869
 20
11.71363522619059
 10
6.892332857382264
 20
11.67032715080757
 10
6.891676674421916
 20
11.62865953282543
 10
6.887411485179649
 20
11.58863237224415
 10
6.879537289655464
 20
11.55155803498445
 10
6.868382179329534
 20
11.51776461252649
 10
6.853946154201862
 20
11.48758019635045
 10
6.83655730575262
 20
11.46166096941667
 10
6.816543725461984
 20
11.44033502320533
 10
6.794233504810126
 20
11.42393044919662
 10
6.769626643797048
 20
11.41277533887069
 10
6.743707416863272
 20
11.40686969222755
  0
LWPOLYLINE
  5
2250
330
1E
100
AcDbEntity
  8
0
100
AcDbPolyline
 90
        4
 70
     0
 43
0.0
 10
6.60033144002707
 20
12.09684607503426
 10
6.565225651648412
 20
12.10472027055845
 10
6.531432229190451
 20
12.1040640875981
 10
6.499607355613536
 20
12.09520561763339
  0
LWPOLYLINE
  5
2256
330
1E
100
AcDbEntity
  8
0
100
AcDbPolyline
 90
       24
 70
     0
 43
0.0
 10
6.702039798881126
 20
11.39440221598092
 10
6.727959025814902
 20
11.40030786262406
 10
6.752237795347806
 20
11.41179106443017
 10
6.774548015999664
 20
11.42852372991906
 10
6.794233504810126
 20
11.44984967613039
 10
6.811294261779194
 20
11.47609699454434
 10
6.825730286906866
 20
11.50628141072039
 10
6.83655730575262
 20
11.54007483317835
 10
6.84410340979663
 20
11.57747726191822
 10
6.848368599038898
 20
11.61717633101932
 10
6.849024781999247
 20
11.65884394900147
 10
6.846071958677677
 20
11.70215202438449
 10
6.839838220554364
 20
11.74611628272785
 10
6.829995476149132
 20
11.79008054107122
 10
6.817199908422332
 20
11.83338861645424
 10
6.801123425893788
 20
11.87538432591656
 10
6.782094120043674
 20
11.91541148649783
 10
6.76076817383234
 20
11.95314200671788
 10
6.737473678739959
 20
11.98759161213619
 10
6.711882543286358
 20
12.01843221127258
 10
6.685307133392234
 20
12.04500762116671
 10
6.657419357577412
 20
12.06731784181857
 10
6.62887539880224
 20
12.08470669026781
 10
6.60033144002707
 20
12.09684607503426
  0
LWPOLYLINE
  5
2270
330
1E
100
AcDbEntity
  8
0
100
AcDbPolyline
 90
       14
 70
     0
 43
0.0
 10
6.740754593541703
 20
12.0476323530081
 10
6.766673820475478
 20
12.02269740051485
 10
6.791280681488556
 20
11.99382535025951
 10
6.813918993620589
 20
11.96101620224207
 10
6.834588756871575
 20
11.92525423090306
 10
6.852633788281165
 20
11.88686752772266
 10
6.86805408784936
 20
11.84651227566121
 10
6.880521564095987
 20
11.80517274915924
 10
6.889708125540869
 20
11.76284894821675
 10
6.895613772184008
 20
11.72085323875443
 10
6.897910412545229
 20
11.67951371225246
 10
6.89659804662453
 20
11.63981464315136
 10
6.89200476590209
 20
11.6020841229313
 10
6.884130570377905
 20
11.56697833455264
  0
LWPOLYLINE
  5
2280
330
1E
100
AcDbEntity
  8
0
100
AcDbPolyline
 90
       14
 70
     0
 43
0.0
 10
6.797186328131695
 20
11.54105910761887
 10
6.805388615136054
 20
11.57616489599753
 10
6.809981895858496
 20
11.61389541621758
 10
6.810966170299019
 20
11.65359448531868
 10
6.808669529937798
 20
11.69493401182065
 10
6.80276388329466
 20
11.73692972128297
 10
6.793577321849777
 20
11.77925352222547
 10
6.781437937083325
 20
11.82059304872744
 10
6.76601763751513
 20
11.86094830078889
 10
6.747644514625365
 20
11.89933500396929
 10
6.726974751374379
 20
11.93509697530829
 10
6.704336439242347
 20
11.96790612332573
 10
6.679729578229268
 20
11.99677817358108
 10
6.654138442775668
 20
12.02171312607433
  0
LWPOLYLINE
  5
2290
330
1E
100
AcDbEntity
  8
0
100
AcDbPolyline
 90
       28
 70
     0
 43
0.0
 10
6.579005493815736
 20
12.11751583828525
 10
6.603940446308988
 20
12.12703049121031
 10
6.630515856203112
 20
12.13129568045257
 10
6.658403632017934
 20
12.1296552230517
 10
6.68661949931293
 20
12.12309339344821
 10
6.715491549568275
 20
12.11062591720159
 10
6.744035508343446
 20
12.09323706875234
 10
6.771923284158269
 20
12.07125493958066
 10
6.798826785532567
 20
12.04435143820636
 10
6.824089829505995
 20
12.0131827475898
 10
6.847712416078549
 20
11.97873314217149
 10
6.869366453770059
 20
11.94100262195143
 10
6.888067668139997
 20
11.90064736988998
 10
6.904144150668542
 20
11.85832356894749
 10
6.917267809875516
 20
11.81501549356447
 10
6.926782462800574
 20
11.77072314374093
 10
6.933016200923887
 20
11.72675888539757
 10
6.935969024245457
 20
11.68345081001455
 10
6.934984749804933
 20
11.64145510055223
 10
6.930719560562666
 20
11.60175603145113
 10
6.922845365038481
 20
11.56435360271125
 10
6.911690254712553
 20
11.53056018025329
 10
6.89725422958488
 20
11.50037576407725
 10
6.880193472615813
 20
11.47445653714347
 10
6.860179892325175
 20
11.45313059093214
 10
6.837541580193144
 20
11.43672601692342
 10
6.81326281066024
 20
11.42557090659749
 10
6.78701549224629
 20
11.41999335143452
  0
LWPOLYLINE
  5
22AE
330
1E
100
AcDbEntity
  8
0
100
AcDbPolyline
 90
        3
 70
     0
 43
0.0
 10
6.557023364644052
 20
12.08405050730746
 10
6.531760320670625
 20
12.09028424543078
 10
6.507481551137722
 20
12.092580885792
  0
LWPOLYLINE
  5
22B3
330
1E
100
AcDbEntity
  8
0
100
AcDbPolyline
 90
       22
 70
     0
 43
0.0
 10
6.702695981841475
 20
11.39538649042145
 10
6.725662385453681
 20
11.41080678998964
 10
6.746332148704667
 20
11.43114846176045
 10
6.764377180114258
 20
11.45673959721406
 10
6.779469388202279
 20
11.48626783042975
 10
6.791280681488556
 20
11.52006125288771
 10
6.799482968492916
 20
11.55680749866724
 10
6.804404340695532
 20
11.59683465924851
 10
6.805716706616229
 20
11.63883036871083
 10
6.803420066255009
 20
11.68246653557402
 10
6.79751441961187
 20
11.72675888539757
 10
6.787999766686812
 20
11.77137932670128
 10
6.775204198960012
 20
11.81534358504465
 10
6.759455807911642
 20
11.85799547746732
 10
6.740754593541703
 20
11.89900691248911
 10
6.719100555850194
 20
11.93739361566952
 10
6.695477969277639
 20
11.97249940404818
 10
6.669886833824037
 20
12.00399618614491
 10
6.642983332449738
 20
12.03122777899939
 10
6.614767465154742
 20
12.05386609113142
 10
6.585895414899397
 20
12.07158303106083
 10
6.557023364644052
 20
12.08405050730746
  0
LWPOLYLINE
  5
22CB
330
1E
100
AcDbEntity
  8
0
100
AcDbPolyline
 90
       14
 70
     0
 43
0.0
 10
6.78406266892472
 20
12.06075601221508
 10
6.809981895858496
 20
12.03582105972183
 10
6.834588756871575
 20
12.00662091798631
 10
6.857227069003606
 20
11.97413986144905
 10
6.877896832254592
 20
11.93804979862986
 10
6.895941863664182
 20
11.89966309544946
 10
6.911362163232379
 20
11.85963593486819
 10
6.923829639479004
 20
11.81796831688604
 10
6.933016200923887
 20
11.77597260742372
 10
6.938921847567026
 20
11.73364880648123
 10
6.941218487928246
 20
11.69263737145943
 10
6.940234213487723
 20
11.65261021087816
 10
6.935640932765282
 20
11.6148796906581
 10
6.927438645760922
 20
11.58010199375962
  0
LWPOLYLINE
  5
22DB
330
1E
100
AcDbEntity
  8
0
100
AcDbPolyline
 90
        3
 70
     0
 43
0.0
 10
6.753878252748678
 20
11.52826353989207
 10
6.754534435709026
 20
11.53088827173346
 10
6.75551871014955
 20
11.53384109505503
  0
LWPOLYLINE
  5
22E0
330
1E
100
AcDbEntity
  8
0
100
AcDbPolyline
 90
       11
 70
     0
 43
0.0
 10
6.76601763751513
 20
11.59519420184764
 10
6.767658094916001
 20
11.63620563686944
 10
6.765689546034955
 20
11.67885752929211
 10
6.759783899391816
 20
11.72282178763547
 10
6.75026924646676
 20
11.76645795449867
 10
6.737145587259785
 20
11.80976602988168
 10
6.72106910473124
 20
11.85143364786383
 10
6.701711707400952
 20
11.89113271696493
 10
6.680057669709443
 20
11.92787896274446
 10
6.656106991656714
 20
11.96134429372224
 10
6.630187764722938
 20
11.99054443545776
  0
LWPOLYLINE
  5
22ED
330
1E
100
AcDbEntity
  8
0
100
AcDbPolyline
 90
       28
 70
     0
 43
0.0
 10
6.622313569198754
 20
12.13063949749222
 10
6.64757661317218
 20
12.14015415041728
 10
6.674152023066304
 20
12.14409124817937
 10
6.701711707400952
 20
12.14277888225868
 10
6.730255666176123
 20
12.13588896117501
 10
6.758799624951294
 20
12.12374957640856
 10
6.787343583726464
 20
12.10636072795932
 10
6.815231359541286
 20
12.08405050730746
 10
6.842134860915585
 20
12.05714700593316
 10
6.867725996369186
 20
12.02630640679677
 10
6.891348582941741
 20
11.99152870989829
 10
6.912674529153076
 20
11.95379818967823
 10
6.931375743523014
 20
11.91344293761678
 10
6.947452226051559
 20
11.87144722815447
 10
6.960575885258535
 20
11.82781106129127
 10
6.970090538183591
 20
11.78384680294791
 10
6.976652367787079
 20
11.73955445312437
 10
6.979277099628474
 20
11.69624637774135
 10
6.978620916668125
 20
11.6545787597592
 10
6.974027635945684
 20
11.61455159917793
 10
6.966481531901673
 20
11.57747726191822
 10
6.955326421575744
 20
11.54335574798009
 10
6.940890396448072
 20
11.51317133180405
 10
6.92350154799883
 20
11.48725210487027
 10
6.903487967708193
 20
11.46625425013911
 10
6.881177747056336
 20
11.44984967613039
 10
6.856570886043257
 20
11.43869456580446
 10
6.830323567629307
 20
11.43278891916132
  0
LWPOLYLINE
  5
230B
330
1E
100
AcDbEntity
  8
0
100
AcDbPolyline
 90
        3
 70
     0
 43
0.0
 10
6.72106910473124
 20
11.44427212096743
 10
6.73977031910118
 20
11.48233073266766
 10
6.752893978308154
 20
11.52695117397137
  0
LWPOLYLINE
  5
2310
330
1E
100
AcDbEntity
  8
0
100
AcDbPolyline
 90
        9
 70
     0
 43
0.0
 10
6.761752448272863
 20
11.64834502163589
 10
6.757159167550421
 20
11.69362164589995
 10
6.748956880546062
 20
11.73955445312437
 10
6.737473678739959
 20
11.78548726034878
 10
6.722053379171763
 20
11.83010770165249
 10
6.703680256281998
 20
11.87275959407516
 10
6.682354310070664
 20
11.91344293761678
 10
6.658731723498108
 20
11.95051727487649
 10
6.632812496564334
 20
11.98398260585427
  0
LWPOLYLINE
  5
231B
330
1E
100
AcDbEntity
  8
0
100
AcDbPolyline
 90
       14
 70
     0
 43
0.0
 10
6.97074672114394
 20
11.59289756148642
 10
6.978949008148299
 20
11.62800334986508
 10
6.98354228887074
 20
11.66573387008513
 10
6.984526563311264
 20
11.70543293918623
 10
6.982229922950043
 20
11.7467724656882
 10
6.976324276306904
 20
11.78876817515052
 10
6.967137714862023
 20
11.83076388461284
 10
6.95499833009557
 20
11.87243150259499
 10
6.939578030527375
 20
11.91278675465644
 10
6.921204907637609
 20
11.95117345783684
 10
6.900863235866799
 20
11.98693542917585
 10
6.877896832254592
 20
12.01974457719328
 10
6.853618062721688
 20
12.04861662744863
 10
6.827698835787913
 20
12.07355157994188
  0
LINE
  5
232B
330
1E
100
AcDbEntity
  8
0
100
AcDbLine
 10
7.773586573130637
 20
9.369749691824853
 30
0.0
 11
7.801474348945459
 21
9.343830464891077
 31
0.0
  0
LINE
  5
232C
330
1E
100
AcDbEntity
  8
0
100
AcDbLine
 10
7.379548705441211
 20
9.369749691824853
 30
0.0
 11
7.393656639088709
 21
9.369749691824853
 31
0.0
  0
LINE
  5
232D
330
1E
100
AcDbEntity
  8
0
100
AcDbLine
 10
7.323445062331393
 20
10.04955523874616
 30
0.0
 11
7.309665220164069
 21
10.0758025571601
 31
0.0
  0
LINE
  5
232E
330
1E
100
AcDbEntity
  8
0
100
AcDbLine
 10
7.829690216240455
 20
9.369749691824853
 30
0.0
 11
7.857577992055277
 21
9.343830464891077
 31
0.0
  0
LINE
  5
232F
330
1E
100
AcDbEntity
  8
0
100
AcDbLine
 10
7.309665220164069
 20
10.0758025571601
 30
0.0
 11
7.295557286516571
 21
10.0758025571601
 31
0.0
  0
LINE
  5
2330
330
1E
100
AcDbEntity
  8
0
100
AcDbLine
 10
7.745698797315815
 20
9.343830464891077
 30
0.0
 11
7.773586573130637
 21
9.369749691824853
 31
0.0
  0
LINE
  5
2331
330
1E
100
AcDbEntity
  8
0
100
AcDbLine
 10
7.463540124365851
 20
10.0758025571601
 30
0.0
 11
7.449432190718353
 21
10.04955523874616
 31
0.0
  0
LINE
  5
2332
330
1E
100
AcDbEntity
  8
0
100
AcDbLine
 10
7.281449352869073
 20
9.369749691824853
 30
0.0
 11
7.295557286516571
 21
9.343830464891077
 31
0.0
  0
LINE
  5
2333
330
1E
100
AcDbEntity
  8
0
100
AcDbLine
 10
7.449432190718353
 20
10.04955523874616
 30
0.0
 11
7.435652348551029
 21
10.04955523874616
 31
0.0
  0
LINE
  5
2334
330
1E
100
AcDbEntity
  8
0
100
AcDbLine
 10
7.351660929626389
 20
10.0758025571601
 30
0.0
 11
7.337552995978891
 21
10.04955523874616
 31
0.0
  0
LINE
  5
2335
330
1E
100
AcDbEntity
  8
0
100
AcDbLine
 10
7.717482930020818
 20
10.04955523874616
 30
0.0
 11
7.689595154205997
 21
10.0758025571601
 31
0.0
  0
LINE
  5
2336
330
1E
100
AcDbEntity
  8
0
100
AcDbLine
 10
6.705320713682869
 20
9.2795245347769
 30
0.0
 11
6.816871816942157
 21
9.2795245347769
 31
0.0
  0
LINE
  5
2337
330
1E
100
AcDbEntity
  8
0
100
AcDbLine
 10
6.816871816942157
 20
10.13978039579411
 30
0.0
 11
6.705320713682869
 21
10.13978039579411
 31
0.0
  0
LINE
  5
2338
330
1E
100
AcDbEntity
  8
0
100
AcDbLine
 10
7.365440771793713
 20
9.343830464891077
 30
0.0
 11
7.379548705441211
 21
9.369749691824853
 31
0.0
  0
LINE
  5
2339
330
1E
100
AcDbEntity
  8
0
100
AcDbLine
 10
7.857577992055277
 20
9.343830464891077
 30
0.0
 11
7.885465767870099
 21
9.369749691824853
 31
0.0
  0
LINE
  5
233A
330
1E
100
AcDbEntity
  8
0
100
AcDbLine
 10
7.379548705441211
 20
10.04955523874616
 30
0.0
 11
7.365440771793713
 21
10.0758025571601
 31
0.0
  0
LINE
  5
233B
330
1E
100
AcDbEntity
  8
0
100
AcDbLine
 10
7.435652348551029
 20
10.04955523874616
 30
0.0
 11
7.421544414903531
 21
10.0758025571601
 31
0.0
  0
LINE
  5
233C
330
1E
100
AcDbEntity
  8
0
100
AcDbLine
 10
7.267669510701749
 20
9.369749691824853
 30
0.0
 11
7.281449352869073
 21
9.369749691824853
 31
0.0
  0
LINE
  5
233D
330
1E
100
AcDbEntity
  8
0
100
AcDbLine
 10
7.717482930020818
 20
9.369749691824853
 30
0.0
 11
7.745698797315815
 21
9.343830464891077
 31
0.0
  0
LINE
  5
233E
330
1E
100
AcDbEntity
  8
0
100
AcDbLine
 10
7.773586573130637
 20
10.04955523874616
 30
0.0
 11
7.745698797315815
 21
10.0758025571601
 31
0.0
  0
LINE
  5
233F
330
1E
100
AcDbEntity
  8
0
100
AcDbLine
 10
7.421544414903531
 20
9.343830464891077
 30
0.0
 11
7.435652348551029
 21
9.369749691824853
 31
0.0
  0
LINE
  5
2340
330
1E
100
AcDbEntity
  8
0
100
AcDbLine
 10
7.323445062331393
 20
9.369749691824853
 30
0.0
 11
7.337552995978891
 21
9.369749691824853
 31
0.0
  0
LINE
  5
2341
330
1E
100
AcDbEntity
  8
0
100
AcDbLine
 10
7.969457186794739
 20
10.0758025571601
 30
0.0
 11
7.941569410979917
 21
10.04955523874616
 31
0.0
  0
LINE
  5
2342
330
1E
100
AcDbEntity
  8
0
100
AcDbLine
 10
7.365440771793713
 20
10.0758025571601
 30
0.0
 11
7.351660929626389
 21
10.0758025571601
 31
0.0
  0
LINE
  5
2343
330
1E
100
AcDbEntity
  8
0
100
AcDbLine
 10
8.025560829904557
 20
10.0758025571601
 30
0.0
 11
7.997673054089736
 21
10.04955523874616
 31
0.0
  0
LINE
  5
2344
330
1E
100
AcDbEntity
  8
0
100
AcDbLine
 10
7.267669510701749
 20
10.04955523874616
 30
0.0
 11
7.263404321459482
 21
10.05710134279017
 31
0.0
  0
LINE
  5
2345
330
1E
100
AcDbEntity
  8
0
100
AcDbLine
 10
7.969457186794739
 20
9.343830464891077
 30
0.0
 11
7.997673054089736
 21
9.369749691824853
 31
0.0
  0
LINE
  5
2346
330
1E
100
AcDbEntity
  8
0
100
AcDbLine
 10
7.997673054089736
 20
10.04955523874616
 30
0.0
 11
7.969457186794739
 21
10.0758025571601
 31
0.0
  0
LINE
  5
2347
330
1E
100
AcDbEntity
  8
0
100
AcDbLine
 10
7.941569410979917
 20
9.369749691824853
 30
0.0
 11
7.969457186794739
 21
9.343830464891077
 31
0.0
  0
LINE
  5
2348
330
1E
100
AcDbEntity
  8
0
100
AcDbLine
 10
7.689595154205997
 20
10.0758025571601
 30
0.0
 11
7.663675927272221
 21
10.0515237876272
 31
0.0
  0
LINE
  5
2349
330
1E
100
AcDbEntity
  8
0
100
AcDbLine
 10
7.663675927272221
 20
9.367781142943806
 30
0.0
 11
7.689595154205997
 21
9.343830464891077
 31
0.0
  0
LINE
  5
234A
330
1E
100
AcDbEntity
  8
0
100
AcDbLine
 10
7.801474348945459
 20
9.343830464891077
 30
0.0
 11
7.829690216240455
 21
9.369749691824853
 31
0.0
  0
LINE
  5
234B
330
1E
100
AcDbEntity
  8
0
100
AcDbLine
 10
7.407436481256033
 20
10.0758025571601
 30
0.0
 11
7.393656639088709
 21
10.04955523874616
 31
0.0
  0
LINE
  5
234C
330
1E
100
AcDbEntity
  8
0
100
AcDbLine
 10
7.829690216240455
 20
10.04955523874616
 30
0.0
 11
7.801474348945459
 21
10.0758025571601
 31
0.0
  0
LINE
  5
234D
330
1E
100
AcDbEntity
  8
0
100
AcDbLine
 10
8.643685178553081
 20
10.18276037969695
 30
0.0
 11
8.443549375646712
 21
10.18276037969695
 31
0.0
  0
LINE
  5
234E
330
1E
100
AcDbEntity
  8
0
100
AcDbLine
 10
7.689595154205997
 20
9.343830464891077
 30
0.0
 11
7.717482930020818
 21
9.369749691824853
 31
0.0
  0
LINE
  5
234F
330
1E
100
AcDbEntity
  8
0
100
AcDbLine
 10
7.885465767870099
 20
10.04955523874616
 30
0.0
 11
7.857577992055277
 21
10.0758025571601
 31
0.0
  0
LINE
  5
2350
330
1E
100
AcDbEntity
  8
0
100
AcDbLine
 10
7.309665220164069
 20
9.343830464891077
 30
0.0
 11
7.323445062331393
 21
9.369749691824853
 31
0.0
  0
LINE
  5
2351
330
1E
100
AcDbEntity
  8
0
100
AcDbLine
 10
7.421544414903531
 20
10.0758025571601
 30
0.0
 11
7.407436481256033
 21
10.0758025571601
 31
0.0
  0
LINE
  5
2352
330
1E
100
AcDbEntity
  8
0
100
AcDbLine
 10
7.263404321459482
 20
9.362203587780843
 30
0.0
 11
7.267669510701749
 21
9.369749691824853
 31
0.0
  0
LINE
  5
2353
330
1E
100
AcDbEntity
  8
0
100
AcDbLine
 10
7.393656639088709
 20
10.04955523874616
 30
0.0
 11
7.379548705441211
 21
10.04955523874616
 31
0.0
  0
LINE
  5
2354
330
1E
100
AcDbEntity
  8
0
100
AcDbLine
 10
7.857577992055277
 20
10.0758025571601
 30
0.0
 11
7.829690216240455
 21
10.04955523874616
 31
0.0
  0
LINE
  5
2355
330
1E
100
AcDbEntity
  8
0
100
AcDbLine
 10
7.435652348551029
 20
9.369749691824853
 30
0.0
 11
7.449432190718353
 21
9.369749691824853
 31
0.0
  0
LINE
  5
2356
330
1E
100
AcDbEntity
  8
0
100
AcDbLine
 10
7.337552995978891
 20
9.369749691824853
 30
0.0
 11
7.351660929626389
 21
9.343830464891077
 31
0.0
  0
LINE
  5
2357
330
1E
100
AcDbEntity
  8
0
100
AcDbLine
 10
7.295557286516571
 20
9.343830464891077
 30
0.0
 11
7.309665220164069
 21
9.343830464891077
 31
0.0
  0
LINE
  5
2358
330
1E
100
AcDbEntity
  8
0
100
AcDbLine
 10
7.913681635165096
 20
9.343830464891077
 30
0.0
 11
7.941569410979917
 21
9.369749691824853
 31
0.0
  0
LINE
  5
2359
330
1E
100
AcDbEntity
  8
0
100
AcDbLine
 10
8.053448605719379
 20
10.04955523874616
 30
0.0
 11
8.025560829904557
 21
10.0758025571601
 31
0.0
  0
LINE
  5
235A
330
1E
100
AcDbEntity
  8
0
100
AcDbLine
 10
7.393656639088709
 20
9.369749691824853
 30
0.0
 11
7.407436481256033
 21
9.343830464891077
 31
0.0
  0
LINE
  5
235B
330
1E
100
AcDbEntity
  8
0
100
AcDbLine
 10
7.295557286516571
 20
10.0758025571601
 30
0.0
 11
7.281449352869073
 21
10.04955523874616
 31
0.0
  0
LINE
  5
235C
330
1E
100
AcDbEntity
  8
0
100
AcDbLine
 10
7.449432190718353
 20
9.369749691824853
 30
0.0
 11
7.463540124365851
 21
9.343830464891077
 31
0.0
  0
LINE
  5
235D
330
1E
100
AcDbEntity
  8
0
100
AcDbLine
 10
7.913681635165096
 20
10.0758025571601
 30
0.0
 11
7.885465767870099
 21
10.04955523874616
 31
0.0
  0
LINE
  5
235E
330
1E
100
AcDbEntity
  8
0
100
AcDbLine
 10
7.745698797315815
 20
10.0758025571601
 30
0.0
 11
7.717482930020818
 21
10.04955523874616
 31
0.0
  0
LINE
  5
235F
330
1E
100
AcDbEntity
  8
0
100
AcDbLine
 10
8.025560829904557
 20
9.343830464891077
 30
0.0
 11
8.053448605719379
 21
9.369749691824853
 31
0.0
  0
LINE
  5
2360
330
1E
100
AcDbEntity
  8
0
100
AcDbLine
 10
8.443549375646712
 20
9.236544550874057
 30
0.0
 11
8.643685178553081
 21
9.236544550874057
 31
0.0
  0
LINE
  5
2361
330
1E
100
AcDbEntity
  8
0
100
AcDbLine
 10
7.407436481256033
 20
9.343830464891077
 30
0.0
 11
7.421544414903531
 21
9.343830464891077
 31
0.0
  0
LINE
  5
2362
330
1E
100
AcDbEntity
  8
0
100
AcDbLine
 10
7.281449352869073
 20
10.04955523874616
 30
0.0
 11
7.267669510701749
 21
10.04955523874616
 31
0.0
  0
LINE
  5
2363
330
1E
100
AcDbEntity
  8
0
100
AcDbLine
 10
7.941569410979917
 20
10.04955523874616
 30
0.0
 11
7.913681635165096
 21
10.0758025571601
 31
0.0
  0
LINE
  5
2364
330
1E
100
AcDbEntity
  8
0
100
AcDbLine
 10
7.885465767870099
 20
9.369749691824853
 30
0.0
 11
7.913681635165096
 21
9.343830464891077
 31
0.0
  0
LINE
  5
2365
330
1E
100
AcDbEntity
  8
0
100
AcDbLine
 10
7.801474348945459
 20
10.0758025571601
 30
0.0
 11
7.773586573130637
 21
10.04955523874616
 31
0.0
  0
LINE
  5
2366
330
1E
100
AcDbEntity
  8
0
100
AcDbLine
 10
7.337552995978891
 20
10.04955523874616
 30
0.0
 11
7.323445062331393
 21
10.04955523874616
 31
0.0
  0
LINE
  5
2367
330
1E
100
AcDbEntity
  8
0
100
AcDbLine
 10
7.351660929626389
 20
9.343830464891077
 30
0.0
 11
7.365440771793713
 21
9.343830464891077
 31
0.0
  0
LINE
  5
2368
330
1E
100
AcDbEntity
  8
0
100
AcDbLine
 10
7.997673054089736
 20
9.369749691824853
 30
0.0
 11
8.025560829904557
 21
9.343830464891077
 31
0.0
  0
LINE
  5
2369
330
1E
100
AcDbEntity
  8
0
100
AcDbLine
 10
7.663675927272221
 20
9.665360115461966
 30
0.0
 11
7.663675927272221
 21
9.324144976080615
 31
0.0
  0
LINE
  5
236A
330
1E
100
AcDbEntity
  8
0
100
AcDbLine
 10
7.663675927272221
 20
10.09548804597057
 30
0.0
 11
7.663675927272221
 21
9.753944815109047
 31
0.0
  0
LINE
  5
236B
330
1E
100
AcDbEntity
  8
0
100
AcDbLine
 10
7.463540124365851
 20
10.13978039579411
 30
0.0
 11
7.663675927272221
 21
10.13978039579411
 31
0.0
  0
LINE
  5
236C
330
1E
100
AcDbEntity
  8
0
100
AcDbLine
 10
7.663675927272221
 20
9.2795245347769
 30
0.0
 11
7.463540124365851
 21
9.2795245347769
 31
0.0
  0
LINE
  5
236D
330
1E
100
AcDbEntity
  8
0
100
AcDbLine
 10
7.663675927272221
 20
9.324144976080615
 30
0.0
 11
7.463540124365851
 21
9.324144976080615
 31
0.0
  0
LINE
  5
236E
330
1E
100
AcDbEntity
  8
0
100
AcDbLine
 10
7.463540124365851
 20
9.665360115461966
 30
0.0
 11
7.463540124365851
 21
9.324144976080615
 31
0.0
  0
LINE
  5
236F
330
1E
100
AcDbEntity
  8
0
100
AcDbLine
 10
7.663675927272221
 20
9.665360115461966
 30
0.0
 11
7.463540124365851
 21
9.665360115461966
 31
0.0
  0
LINE
  5
2370
330
1E
100
AcDbEntity
  8
0
100
AcDbLine
 10
7.663675927272221
 20
9.753944815109047
 30
0.0
 11
7.463540124365851
 21
9.753944815109047
 31
0.0
  0
LINE
  5
2371
330
1E
100
AcDbEntity
  8
0
100
AcDbLine
 10
7.463540124365851
 20
10.09548804597057
 30
0.0
 11
7.463540124365851
 21
9.753944815109047
 31
0.0
  0
LINE
  5
2372
330
1E
100
AcDbEntity
  8
0
100
AcDbLine
 10
7.663675927272221
 20
10.09548804597057
 30
0.0
 11
7.463540124365851
 21
10.09548804597057
 31
0.0
  0
LINE
  5
2373
330
1E
100
AcDbEntity
  8
0
100
AcDbLine
 10
8.643685178553081
 20
10.18276037969695
 30
0.0
 11
8.443549375646712
 21
10.18276037969695
 31
0.0
  0
LINE
  5
2374
330
1E
100
AcDbEntity
  8
0
100
AcDbLine
 10
8.443549375646712
 20
9.236544550874057
 30
0.0
 11
8.643685178553081
 21
9.236544550874057
 31
0.0
  0
LINE
  5
2375
330
1E
100
AcDbEntity
  8
0
100
AcDbLine
 10
8.443549375646712
 20
9.512469485700707
 30
0.0
 11
8.443549375646712
 21
9.906835444870306
 31
0.0
  0
LINE
  5
2376
330
1E
100
AcDbEntity
  8
0
100
AcDbLine
 10
8.443549375646712
 20
9.238841191235277
 30
0.0
 11
8.443549375646712
 21
9.435696079339903
 31
0.0
  0
LINE
  5
2377
330
1E
100
AcDbEntity
  8
0
100
AcDbLine
 10
8.443549375646712
 20
9.98360885123111
 30
0.0
 11
8.443549375646712
 21
10.18046373933573
 31
0.0
  0
LINE
  5
2378
330
1E
100
AcDbEntity
  8
0
100
AcDbLine
 10
8.443549375646712
 20
9.512469485700707
 30
0.0
 11
8.643685178553081
 21
9.512469485700707
 31
0.0
  0
LINE
  5
2379
330
1E
100
AcDbEntity
  8
0
100
AcDbLine
 10
8.643685178553081
 20
9.906835444870306
 30
0.0
 11
8.443549375646712
 21
9.906835444870306
 31
0.0
  0
LINE
  5
237A
330
1E
100
AcDbEntity
  8
0
100
AcDbLine
 10
8.443549375646712
 20
9.435696079339903
 30
0.0
 11
8.643685178553081
 21
9.435696079339903
 31
0.0
  0
LINE
  5
237B
330
1E
100
AcDbEntity
  8
0
100
AcDbLine
 10
8.443549375646712
 20
9.238841191235277
 30
0.0
 11
8.643685178553081
 21
9.238841191235277
 31
0.0
  0
LINE
  5
237C
330
1E
100
AcDbEntity
  8
0
100
AcDbLine
 10
8.443549375646712
 20
10.18046373933573
 30
0.0
 11
8.643685178553081
 21
10.18046373933573
 31
0.0
  0
LINE
  5
237D
330
1E
100
AcDbEntity
  8
0
100
AcDbLine
 10
8.443549375646712
 20
9.98360885123111
 30
0.0
 11
8.643685178553081
 21
9.98360885123111
 31
0.0
  0
LINE
  5
237E
330
1E
100
AcDbEntity
  8
0
100
AcDbLine
 10
7.913681635165096
 20
10.0758025571601
 30
0.0
 11
7.885465767870099
 21
10.04955523874616
 31
0.0
  0
LINE
  5
237F
330
1E
100
AcDbEntity
  8
0
100
AcDbLine
 10
7.885465767870099
 20
9.369749691824853
 30
0.0
 11
7.913681635165096
 21
9.343830464891077
 31
0.0
  0
LINE
  5
2380
330
1E
100
AcDbEntity
  8
0
100
AcDbLine
 10
7.857577992055277
 20
10.0758025571601
 30
0.0
 11
7.829690216240455
 21
10.04955523874616
 31
0.0
  0
LINE
  5
2381
330
1E
100
AcDbEntity
  8
0
100
AcDbLine
 10
7.829690216240455
 20
9.369749691824853
 30
0.0
 11
7.857577992055277
 21
9.343830464891077
 31
0.0
  0
LINE
  5
2382
330
1E
100
AcDbEntity
  8
0
100
AcDbLine
 10
7.857577992055277
 20
9.343830464891077
 30
0.0
 11
7.885465767870099
 21
9.369749691824853
 31
0.0
  0
LINE
  5
2383
330
1E
100
AcDbEntity
  8
0
100
AcDbLine
 10
7.885465767870099
 20
10.04955523874616
 30
0.0
 11
7.857577992055277
 21
10.0758025571601
 31
0.0
  0
LINE
  5
2384
330
1E
100
AcDbEntity
  8
0
100
AcDbLine
 10
7.913681635165096
 20
9.343830464891077
 30
0.0
 11
7.941569410979917
 21
9.369749691824853
 31
0.0
  0
LINE
  5
2385
330
1E
100
AcDbEntity
  8
0
100
AcDbLine
 10
7.941569410979917
 20
10.04955523874616
 30
0.0
 11
7.913681635165096
 21
10.0758025571601
 31
0.0
  0
LINE
  5
2386
330
1E
100
AcDbEntity
  8
0
100
AcDbLine
 10
7.745698797315815
 20
9.343830464891077
 30
0.0
 11
7.773586573130637
 21
9.369749691824853
 31
0.0
  0
LINE
  5
2387
330
1E
100
AcDbEntity
  8
0
100
AcDbLine
 10
7.773586573130637
 20
10.04955523874616
 30
0.0
 11
7.745698797315815
 21
10.0758025571601
 31
0.0
  0
LINE
  5
2388
330
1E
100
AcDbEntity
  8
0
100
AcDbLine
 10
7.801474348945459
 20
10.0758025571601
 30
0.0
 11
7.773586573130637
 21
10.04955523874616
 31
0.0
  0
LINE
  5
2389
330
1E
100
AcDbEntity
  8
0
100
AcDbLine
 10
7.773586573130637
 20
9.369749691824853
 30
0.0
 11
7.801474348945459
 21
9.343830464891077
 31
0.0
  0
LINE
  5
238A
330
1E
100
AcDbEntity
  8
0
100
AcDbLine
 10
7.689595154205997
 20
9.343830464891077
 30
0.0
 11
7.717482930020818
 21
9.369749691824853
 31
0.0
  0
LINE
  5
238B
330
1E
100
AcDbEntity
  8
0
100
AcDbLine
 10
7.717482930020818
 20
10.04955523874616
 30
0.0
 11
7.689595154205997
 21
10.0758025571601
 31
0.0
  0
LINE
  5
238C
330
1E
100
AcDbEntity
  8
0
100
AcDbLine
 10
7.745698797315815
 20
10.0758025571601
 30
0.0
 11
7.717482930020818
 21
10.04955523874616
 31
0.0
  0
LINE
  5
238D
330
1E
100
AcDbEntity
  8
0
100
AcDbLine
 10
7.717482930020818
 20
9.369749691824853
 30
0.0
 11
7.745698797315815
 21
9.343830464891077
 31
0.0
  0
LINE
  5
238E
330
1E
100
AcDbEntity
  8
0
100
AcDbLine
 10
8.025560829904557
 20
10.0758025571601
 30
0.0
 11
7.997673054089736
 21
10.04955523874616
 31
0.0
  0
LINE
  5
238F
330
1E
100
AcDbEntity
  8
0
100
AcDbLine
 10
7.997673054089736
 20
9.369749691824853
 30
0.0
 11
8.025560829904557
 21
9.343830464891077
 31
0.0
  0
LINE
  5
2390
330
1E
100
AcDbEntity
  8
0
100
AcDbLine
 10
8.025560829904557
 20
9.343830464891077
 30
0.0
 11
8.053448605719379
 21
9.369749691824853
 31
0.0
  0
LINE
  5
2391
330
1E
100
AcDbEntity
  8
0
100
AcDbLine
 10
8.053448605719379
 20
10.04955523874616
 30
0.0
 11
8.025560829904557
 21
10.0758025571601
 31
0.0
  0
LINE
  5
2392
330
1E
100
AcDbEntity
  8
0
100
AcDbLine
 10
7.969457186794739
 20
9.343830464891077
 30
0.0
 11
7.997673054089736
 21
9.369749691824853
 31
0.0
  0
LINE
  5
2393
330
1E
100
AcDbEntity
  8
0
100
AcDbLine
 10
7.997673054089736
 20
10.04955523874616
 30
0.0
 11
7.969457186794739
 21
10.0758025571601
 31
0.0
  0
LINE
  5
2394
330
1E
100
AcDbEntity
  8
0
100
AcDbLine
 10
7.969457186794739
 20
10.0758025571601
 30
0.0
 11
7.941569410979917
 21
10.04955523874616
 31
0.0
  0
LINE
  5
2395
330
1E
100
AcDbEntity
  8
0
100
AcDbLine
 10
7.941569410979917
 20
9.369749691824853
 30
0.0
 11
7.969457186794739
 21
9.343830464891077
 31
0.0
  0
LINE
  5
2396
330
1E
100
AcDbEntity
  8
0
100
AcDbLine
 10
7.689595154205997
 20
10.0758025571601
 30
0.0
 11
7.663675927272221
 21
10.0515237876272
 31
0.0
  0
LINE
  5
2397
330
1E
100
AcDbEntity
  8
0
100
AcDbLine
 10
7.663675927272221
 20
9.367781142943806
 30
0.0
 11
7.689595154205997
 21
9.343830464891077
 31
0.0
  0
LINE
  5
2398
330
1E
100
AcDbEntity
  8
0
100
AcDbLine
 10
7.801474348945459
 20
9.343830464891077
 30
0.0
 11
7.829690216240455
 21
9.369749691824853
 31
0.0
  0
LINE
  5
2399
330
1E
100
AcDbEntity
  8
0
100
AcDbLine
 10
7.829690216240455
 20
10.04955523874616
 30
0.0
 11
7.801474348945459
 21
10.0758025571601
 31
0.0
  0
LINE
  5
239A
330
1E
100
AcDbEntity
  8
0
100
AcDbLine
 10
7.365440771793713
 20
9.343830464891077
 30
0.0
 11
7.379548705441211
 21
9.369749691824853
 31
0.0
  0
LINE
  5
239B
330
1E
100
AcDbEntity
  8
0
100
AcDbLine
 10
7.379548705441211
 20
10.04955523874616
 30
0.0
 11
7.365440771793713
 21
10.0758025571601
 31
0.0
  0
LINE
  5
239C
330
1E
100
AcDbEntity
  8
0
100
AcDbLine
 10
7.295557286516571
 20
9.343830464891077
 30
0.0
 11
7.309665220164069
 21
9.343830464891077
 31
0.0
  0
LINE
  5
239D
330
1E
100
AcDbEntity
  8
0
100
AcDbLine
 10
7.309665220164069
 20
10.0758025571601
 30
0.0
 11
7.295557286516571
 21
10.0758025571601
 31
0.0
  0
LINE
  5
239E
330
1E
100
AcDbEntity
  8
0
100
AcDbLine
 10
7.407436481256033
 20
9.343830464891077
 30
0.0
 11
7.421544414903531
 21
9.343830464891077
 31
0.0
  0
LINE
  5
239F
330
1E
100
AcDbEntity
  8
0
100
AcDbLine
 10
7.421544414903531
 20
10.0758025571601
 30
0.0
 11
7.407436481256033
 21
10.0758025571601
 31
0.0
  0
LINE
  5
23A0
330
1E
100
AcDbEntity
  8
0
100
AcDbLine
 10
7.463540124365851
 20
10.0758025571601
 30
0.0
 11
7.449432190718353
 21
10.04955523874616
 31
0.0
  0
LINE
  5
23A1
330
1E
100
AcDbEntity
  8
0
100
AcDbLine
 10
7.449432190718353
 20
9.369749691824853
 30
0.0
 11
7.463540124365851
 21
9.343830464891077
 31
0.0
  0
LINE
  5
23A2
330
1E
100
AcDbEntity
  8
0
100
AcDbLine
 10
7.351660929626389
 20
9.343830464891077
 30
0.0
 11
7.365440771793713
 21
9.343830464891077
 31
0.0
  0
LINE
  5
23A3
330
1E
100
AcDbEntity
  8
0
100
AcDbLine
 10
7.365440771793713
 20
10.0758025571601
 30
0.0
 11
7.351660929626389
 21
10.0758025571601
 31
0.0
  0
LINE
  5
23A4
330
1E
100
AcDbEntity
  8
0
100
AcDbLine
 10
7.309665220164069
 20
9.343830464891077
 30
0.0
 11
7.323445062331393
 21
9.369749691824853
 31
0.0
  0
LINE
  5
23A5
330
1E
100
AcDbEntity
  8
0
100
AcDbLine
 10
7.323445062331393
 20
10.04955523874616
 30
0.0
 11
7.309665220164069
 21
10.0758025571601
 31
0.0
  0
LINE
  5
23A6
330
1E
100
AcDbEntity
  8
0
100
AcDbLine
 10
7.351660929626389
 20
10.0758025571601
 30
0.0
 11
7.337552995978891
 21
10.04955523874616
 31
0.0
  0
LINE
  5
23A7
330
1E
100
AcDbEntity
  8
0
100
AcDbLine
 10
7.337552995978891
 20
9.369749691824853
 30
0.0
 11
7.351660929626389
 21
9.343830464891077
 31
0.0
  0
LINE
  5
23A8
330
1E
100
AcDbEntity
  8
0
100
AcDbLine
 10
7.407436481256033
 20
10.0758025571601
 30
0.0
 11
7.393656639088709
 21
10.04955523874616
 31
0.0
  0
LINE
  5
23A9
330
1E
100
AcDbEntity
  8
0
100
AcDbLine
 10
7.393656639088709
 20
9.369749691824853
 30
0.0
 11
7.407436481256033
 21
9.343830464891077
 31
0.0
  0
LINE
  5
23AA
330
1E
100
AcDbEntity
  8
0
100
AcDbLine
 10
7.295557286516571
 20
10.0758025571601
 30
0.0
 11
7.281449352869073
 21
10.04955523874616
 31
0.0
  0
LINE
  5
23AB
330
1E
100
AcDbEntity
  8
0
100
AcDbLine
 10
7.281449352869073
 20
9.369749691824853
 30
0.0
 11
7.295557286516571
 21
9.343830464891077
 31
0.0
  0
LINE
  5
23AC
330
1E
100
AcDbEntity
  8
0
100
AcDbLine
 10
7.421544414903531
 20
9.343830464891077
 30
0.0
 11
7.435652348551029
 21
9.369749691824853
 31
0.0
  0
LINE
  5
23AD
330
1E
100
AcDbEntity
  8
0
100
AcDbLine
 10
7.435652348551029
 20
10.04955523874616
 30
0.0
 11
7.421544414903531
 21
10.0758025571601
 31
0.0
  0
LINE
  5
23AE
330
1E
100
AcDbEntity
  8
0
100
AcDbLine
 10
7.263404321459482
 20
9.362203587780843
 30
0.0
 11
7.267669510701749
 21
9.369749691824853
 31
0.0
  0
LINE
  5
23AF
330
1E
100
AcDbEntity
  8
0
100
AcDbLine
 10
7.267669510701749
 20
10.04955523874616
 30
0.0
 11
7.263404321459482
 21
10.05710134279017
 31
0.0
  0
LINE
  5
23B0
330
1E
100
AcDbEntity
  8
0
100
AcDbLine
 10
7.337552995978891
 20
10.04955523874616
 30
0.0
 11
7.323445062331393
 21
10.04955523874616
 31
0.0
  0
LINE
  5
23B1
330
1E
100
AcDbEntity
  8
0
100
AcDbLine
 10
7.323445062331393
 20
9.369749691824853
 30
0.0
 11
7.337552995978891
 21
9.369749691824853
 31
0.0
  0
LINE
  5
23B2
330
1E
100
AcDbEntity
  8
0
100
AcDbLine
 10
7.393656639088709
 20
10.04955523874616
 30
0.0
 11
7.379548705441211
 21
10.04955523874616
 31
0.0
  0
LINE
  5
23B3
330
1E
100
AcDbEntity
  8
0
100
AcDbLine
 10
7.379548705441211
 20
9.369749691824853
 30
0.0
 11
7.393656639088709
 21
9.369749691824853
 31
0.0
  0
LINE
  5
23B4
330
1E
100
AcDbEntity
  8
0
100
AcDbLine
 10
7.449432190718353
 20
10.04955523874616
 30
0.0
 11
7.435652348551029
 21
10.04955523874616
 31
0.0
  0
LINE
  5
23B5
330
1E
100
AcDbEntity
  8
0
100
AcDbLine
 10
7.435652348551029
 20
9.369749691824853
 30
0.0
 11
7.449432190718353
 21
9.369749691824853
 31
0.0
  0
LINE
  5
23B6
330
1E
100
AcDbEntity
  8
0
100
AcDbLine
 10
7.281449352869073
 20
10.04955523874616
 30
0.0
 11
7.267669510701749
 21
10.04955523874616
 31
0.0
  0
LINE
  5
23B7
330
1E
100
AcDbEntity
  8
0
100
AcDbLine
 10
7.267669510701749
 20
9.369749691824853
 30
0.0
 11
7.281449352869073
 21
9.369749691824853
 31
0.0
  0
LINE
  5
23B8
330
1E
100
AcDbEntity
  8
0
100
AcDbLine
 10
6.705320713682869
 20
9.2795245347769
 30
0.0
 11
6.816871816942157
 21
9.2795245347769
 31
0.0
  0
LINE
  5
23B9
330
1E
100
AcDbEntity
  8
0
100
AcDbLine
 10
6.816871816942157
 20
10.13978039579411
 30
0.0
 11
6.705320713682869
 21
10.13978039579411
 31
0.0
  0
LINE
  5
23BA
330
1E
100
AcDbEntity
  8
0
100
AcDbLine
 10
7.263404321459482
 20
9.665360115461966
 30
0.0
 11
7.263404321459482
 21
9.324144976080615
 31
0.0
  0
LINE
  5
23BB
330
1E
100
AcDbEntity
  8
0
100
AcDbLine
 10
7.263404321459482
 20
10.09548804597057
 30
0.0
 11
7.263404321459482
 21
9.753944815109047
 31
0.0
  0
LINE
  5
23BC
330
1E
100
AcDbEntity
  8
0
100
AcDbLine
 10
7.263404321459482
 20
9.665360115461966
 30
0.0
 11
6.841806769435409
 21
9.665360115461966
 31
0.0
  0
LINE
  5
23BD
330
1E
100
AcDbEntity
  8
0
100
AcDbLine
 10
6.841806769435409
 20
9.324144976080615
 30
0.0
 11
7.263404321459482
 21
9.324144976080615
 31
0.0
  0
LINE
  5
23BE
330
1E
100
AcDbEntity
  8
0
100
AcDbLine
 10
7.263404321459482
 20
9.753944815109047
 30
0.0
 11
6.841806769435409
 21
9.753944815109047
 31
0.0
  0
LINE
  5
23BF
330
1E
100
AcDbEntity
  8
0
100
AcDbLine
 10
7.263404321459482
 20
10.09548804597057
 30
0.0
 11
6.841806769435409
 21
10.09548804597057
 31
0.0
  0
LINE
  5
23C0
330
1E
100
AcDbEntity
  8
0
100
AcDbLine
 10
7.263404321459482
 20
10.13978039579411
 30
0.0
 11
6.841806769435409
 21
10.13978039579411
 31
0.0
  0
LINE
  5
23C1
330
1E
100
AcDbEntity
  8
0
100
AcDbLine
 10
7.263404321459482
 20
9.2795245347769
 30
0.0
 11
6.841806769435409
 21
9.2795245347769
 31
0.0
  0
LINE
  5
23C2
330
1E
100
AcDbEntity
  8
0
100
AcDbLine
 10
7.663675927272221
 20
9.665360115461966
 30
0.0
 11
7.663675927272221
 21
9.324144976080615
 31
0.0
  0
LINE
  5
23C3
330
1E
100
AcDbEntity
  8
0
100
AcDbLine
 10
7.663675927272221
 20
10.09548804597057
 30
0.0
 11
7.663675927272221
 21
9.753944815109047
 31
0.0
  0
LINE
  5
23C4
330
1E
100
AcDbEntity
  8
0
100
AcDbLine
 10
7.463540124365851
 20
10.13978039579411
 30
0.0
 11
7.663675927272221
 21
10.13978039579411
 31
0.0
  0
LINE
  5
23C5
330
1E
100
AcDbEntity
  8
0
100
AcDbLine
 10
7.663675927272221
 20
9.2795245347769
 30
0.0
 11
7.463540124365851
 21
9.2795245347769
 31
0.0
  0
LINE
  5
23C6
330
1E
100
AcDbEntity
  8
0
100
AcDbLine
 10
7.663675927272221
 20
9.324144976080615
 30
0.0
 11
7.463540124365851
 21
9.324144976080615
 31
0.0
  0
LINE
  5
23C7
330
1E
100
AcDbEntity
  8
0
100
AcDbLine
 10
7.463540124365851
 20
9.665360115461966
 30
0.0
 11
7.463540124365851
 21
9.324144976080615
 31
0.0
  0
LINE
  5
23C8
330
1E
100
AcDbEntity
  8
0
100
AcDbLine
 10
7.663675927272221
 20
9.665360115461966
 30
0.0
 11
7.463540124365851
 21
9.665360115461966
 31
0.0
  0
LINE
  5
23C9
330
1E
100
AcDbEntity
  8
0
100
AcDbLine
 10
7.663675927272221
 20
9.753944815109047
 30
0.0
 11
7.463540124365851
 21
9.753944815109047
 31
0.0
  0
LINE
  5
23CA
330
1E
100
AcDbEntity
  8
0
100
AcDbLine
 10
7.463540124365851
 20
10.09548804597057
 30
0.0
 11
7.463540124365851
 21
9.753944815109047
 31
0.0
  0
LINE
  5
23CB
330
1E
100
AcDbEntity
  8
0
100
AcDbLine
 10
7.663675927272221
 20
10.09548804597057
 30
0.0
 11
7.463540124365851
 21
10.09548804597057
 31
0.0
  0
LINE
  5
23CC
330
1E
100
AcDbEntity
  8
0
100
AcDbLine
 10
8.643685178553081
 20
10.18276037969695
 30
0.0
 11
8.443549375646712
 21
10.18276037969695
 31
0.0
  0
LINE
  5
23CD
330
1E
100
AcDbEntity
  8
0
100
AcDbLine
 10
8.443549375646712
 20
9.236544550874057
 30
0.0
 11
8.643685178553081
 21
9.236544550874057
 31
0.0
  0
LINE
  5
23CE
330
1E
100
AcDbEntity
  8
0
100
AcDbLine
 10
8.443549375646712
 20
9.512469485700707
 30
0.0
 11
8.443549375646712
 21
9.906835444870306
 31
0.0
  0
LINE
  5
23CF
330
1E
100
AcDbEntity
  8
0
100
AcDbLine
 10
8.443549375646712
 20
9.238841191235277
 30
0.0
 11
8.443549375646712
 21
9.435696079339903
 31
0.0
  0
LINE
  5
23D0
330
1E
100
AcDbEntity
  8
0
100
AcDbLine
 10
8.443549375646712
 20
9.98360885123111
 30
0.0
 11
8.443549375646712
 21
10.18046373933573
 31
0.0
  0
LINE
  5
23D1
330
1E
100
AcDbEntity
  8
0
100
AcDbLine
 10
8.443549375646712
 20
9.512469485700707
 30
0.0
 11
8.643685178553081
 21
9.512469485700707
 31
0.0
  0
LINE
  5
23D2
330
1E
100
AcDbEntity
  8
0
100
AcDbLine
 10
8.643685178553081
 20
9.906835444870306
 30
0.0
 11
8.443549375646712
 21
9.906835444870306
 31
0.0
  0
LINE
  5
23D3
330
1E
100
AcDbEntity
  8
0
100
AcDbLine
 10
8.443549375646712
 20
9.435696079339903
 30
0.0
 11
8.643685178553081
 21
9.435696079339903
 31
0.0
  0
LINE
  5
23D4
330
1E
100
AcDbEntity
  8
0
100
AcDbLine
 10
8.443549375646712
 20
9.238841191235277
 30
0.0
 11
8.643685178553081
 21
9.238841191235277
 31
0.0
  0
LINE
  5
23D5
330
1E
100
AcDbEntity
  8
0
100
AcDbLine
 10
8.443549375646712
 20
10.18046373933573
 30
0.0
 11
8.643685178553081
 21
10.18046373933573
 31
0.0
  0
LINE
  5
23D6
330
1E
100
AcDbEntity
  8
0
100
AcDbLine
 10
8.443549375646712
 20
9.98360885123111
 30
0.0
 11
8.643685178553081
 21
9.98360885123111
 31
0.0
  0
LINE
  5
23D7
330
1E
100
AcDbEntity
  8
0
100
AcDbLine
 10
7.913681635165096
 20
10.0758025571601
 30
0.0
 11
7.885465767870099
 21
10.04955523874616
 31
0.0
  0
LINE
  5
23D8
330
1E
100
AcDbEntity
  8
0
100
AcDbLine
 10
7.885465767870099
 20
9.369749691824853
 30
0.0
 11
7.913681635165096
 21
9.343830464891077
 31
0.0
  0
LINE
  5
23D9
330
1E
100
AcDbEntity
  8
0
100
AcDbLine
 10
7.857577992055277
 20
10.0758025571601
 30
0.0
 11
7.829690216240455
 21
10.04955523874616
 31
0.0
  0
LINE
  5
23DA
330
1E
100
AcDbEntity
  8
0
100
AcDbLine
 10
7.829690216240455
 20
9.369749691824853
 30
0.0
 11
7.857577992055277
 21
9.343830464891077
 31
0.0
  0
LINE
  5
23DB
330
1E
100
AcDbEntity
  8
0
100
AcDbLine
 10
7.857577992055277
 20
9.343830464891077
 30
0.0
 11
7.885465767870099
 21
9.369749691824853
 31
0.0
  0
LINE
  5
23DC
330
1E
100
AcDbEntity
  8
0
100
AcDbLine
 10
7.885465767870099
 20
10.04955523874616
 30
0.0
 11
7.857577992055277
 21
10.0758025571601
 31
0.0
  0
LINE
  5
23DD
330
1E
100
AcDbEntity
  8
0
100
AcDbLine
 10
7.913681635165096
 20
9.343830464891077
 30
0.0
 11
7.941569410979917
 21
9.369749691824853
 31
0.0
  0
LINE
  5
23DE
330
1E
100
AcDbEntity
  8
0
100
AcDbLine
 10
7.941569410979917
 20
10.04955523874616
 30
0.0
 11
7.913681635165096
 21
10.0758025571601
 31
0.0
  0
LINE
  5
23DF
330
1E
100
AcDbEntity
  8
0
100
AcDbLine
 10
7.745698797315815
 20
9.343830464891077
 30
0.0
 11
7.773586573130637
 21
9.369749691824853
 31
0.0
  0
LINE
  5
23E0
330
1E
100
AcDbEntity
  8
0
100
AcDbLine
 10
7.773586573130637
 20
10.04955523874616
 30
0.0
 11
7.745698797315815
 21
10.0758025571601
 31
0.0
  0
LINE
  5
23E1
330
1E
100
AcDbEntity
  8
0
100
AcDbLine
 10
7.801474348945459
 20
10.0758025571601
 30
0.0
 11
7.773586573130637
 21
10.04955523874616
 31
0.0
  0
LINE
  5
23E2
330
1E
100
AcDbEntity
  8
0
100
AcDbLine
 10
7.773586573130637
 20
9.369749691824853
 30
0.0
 11
7.801474348945459
 21
9.343830464891077
 31
0.0
  0
LINE
  5
23E3
330
1E
100
AcDbEntity
  8
0
100
AcDbLine
 10
7.689595154205997
 20
9.343830464891077
 30
0.0
 11
7.717482930020818
 21
9.369749691824853
 31
0.0
  0
LINE
  5
23E4
330
1E
100
AcDbEntity
  8
0
100
AcDbLine
 10
7.717482930020818
 20
10.04955523874616
 30
0.0
 11
7.689595154205997
 21
10.0758025571601
 31
0.0
  0
LINE
  5
23E5
330
1E
100
AcDbEntity
  8
0
100
AcDbLine
 10
7.745698797315815
 20
10.0758025571601
 30
0.0
 11
7.717482930020818
 21
10.04955523874616
 31
0.0
  0
LINE
  5
23E6
330
1E
100
AcDbEntity
  8
0
100
AcDbLine
 10
7.717482930020818
 20
9.369749691824853
 30
0.0
 11
7.745698797315815
 21
9.343830464891077
 31
0.0
  0
LINE
  5
23E7
330
1E
100
AcDbEntity
  8
0
100
AcDbLine
 10
8.025560829904557
 20
10.0758025571601
 30
0.0
 11
7.997673054089736
 21
10.04955523874616
 31
0.0
  0
LINE
  5
23E8
330
1E
100
AcDbEntity
  8
0
100
AcDbLine
 10
7.997673054089736
 20
9.369749691824853
 30
0.0
 11
8.025560829904557
 21
9.343830464891077
 31
0.0
  0
LINE
  5
23E9
330
1E
100
AcDbEntity
  8
0
100
AcDbLine
 10
8.025560829904557
 20
9.343830464891077
 30
0.0
 11
8.053448605719379
 21
9.369749691824853
 31
0.0
  0
LINE
  5
23EA
330
1E
100
AcDbEntity
  8
0
100
AcDbLine
 10
8.053448605719379
 20
10.04955523874616
 30
0.0
 11
8.025560829904557
 21
10.0758025571601
 31
0.0
  0
LINE
  5
23EB
330
1E
100
AcDbEntity
  8
0
100
AcDbLine
 10
7.969457186794739
 20
9.343830464891077
 30
0.0
 11
7.997673054089736
 21
9.369749691824853
 31
0.0
  0
LINE
  5
23EC
330
1E
100
AcDbEntity
  8
0
100
AcDbLine
 10
7.997673054089736
 20
10.04955523874616
 30
0.0
 11
7.969457186794739
 21
10.0758025571601
 31
0.0
  0
LINE
  5
23ED
330
1E
100
AcDbEntity
  8
0
100
AcDbLine
 10
7.969457186794739
 20
10.0758025571601
 30
0.0
 11
7.941569410979917
 21
10.04955523874616
 31
0.0
  0
LINE
  5
23EE
330
1E
100
AcDbEntity
  8
0
100
AcDbLine
 10
7.941569410979917
 20
9.369749691824853
 30
0.0
 11
7.969457186794739
 21
9.343830464891077
 31
0.0
  0
LINE
  5
23EF
330
1E
100
AcDbEntity
  8
0
100
AcDbLine
 10
7.689595154205997
 20
10.0758025571601
 30
0.0
 11
7.663675927272221
 21
10.0515237876272
 31
0.0
  0
LINE
  5
23F0
330
1E
100
AcDbEntity
  8
0
100
AcDbLine
 10
7.663675927272221
 20
9.367781142943806
 30
0.0
 11
7.689595154205997
 21
9.343830464891077
 31
0.0
  0
LINE
  5
23F1
330
1E
100
AcDbEntity
  8
0
100
AcDbLine
 10
7.801474348945459
 20
9.343830464891077
 30
0.0
 11
7.829690216240455
 21
9.369749691824853
 31
0.0
  0
LINE
  5
23F2
330
1E
100
AcDbEntity
  8
0
100
AcDbLine
 10
7.829690216240455
 20
10.04955523874616
 30
0.0
 11
7.801474348945459
 21
10.0758025571601
 31
0.0
  0
LINE
  5
23F3
330
1E
100
AcDbEntity
  8
0
100
AcDbLine
 10
7.365440771793713
 20
9.343830464891077
 30
0.0
 11
7.379548705441211
 21
9.369749691824853
 31
0.0
  0
LINE
  5
23F4
330
1E
100
AcDbEntity
  8
0
100
AcDbLine
 10
7.379548705441211
 20
10.04955523874616
 30
0.0
 11
7.365440771793713
 21
10.0758025571601
 31
0.0
  0
LINE
  5
23F5
330
1E
100
AcDbEntity
  8
0
100
AcDbLine
 10
7.295557286516571
 20
9.343830464891077
 30
0.0
 11
7.309665220164069
 21
9.343830464891077
 31
0.0
  0
LINE
  5
23F6
330
1E
100
AcDbEntity
  8
0
100
AcDbLine
 10
7.309665220164069
 20
10.0758025571601
 30
0.0
 11
7.295557286516571
 21
10.0758025571601
 31
0.0
  0
LINE
  5
23F7
330
1E
100
AcDbEntity
  8
0
100
AcDbLine
 10
7.407436481256033
 20
9.343830464891077
 30
0.0
 11
7.421544414903531
 21
9.343830464891077
 31
0.0
  0
LINE
  5
23F8
330
1E
100
AcDbEntity
  8
0
100
AcDbLine
 10
7.421544414903531
 20
10.0758025571601
 30
0.0
 11
7.407436481256033
 21
10.0758025571601
 31
0.0
  0
LINE
  5
23F9
330
1E
100
AcDbEntity
  8
0
100
AcDbLine
 10
7.463540124365851
 20
10.0758025571601
 30
0.0
 11
7.449432190718353
 21
10.04955523874616
 31
0.0
  0
LINE
  5
23FA
330
1E
100
AcDbEntity
  8
0
100
AcDbLine
 10
7.449432190718353
 20
9.369749691824853
 30
0.0
 11
7.463540124365851
 21
9.343830464891077
 31
0.0
  0
LINE
  5
23FB
330
1E
100
AcDbEntity
  8
0
100
AcDbLine
 10
7.351660929626389
 20
9.343830464891077
 30
0.0
 11
7.365440771793713
 21
9.343830464891077
 31
0.0
  0
LINE
  5
23FC
330
1E
100
AcDbEntity
  8
0
100
AcDbLine
 10
7.365440771793713
 20
10.0758025571601
 30
0.0
 11
7.351660929626389
 21
10.0758025571601
 31
0.0
  0
LINE
  5
23FD
330
1E
100
AcDbEntity
  8
0
100
AcDbLine
 10
7.309665220164069
 20
9.343830464891077
 30
0.0
 11
7.323445062331393
 21
9.369749691824853
 31
0.0
  0
LINE
  5
23FE
330
1E
100
AcDbEntity
  8
0
100
AcDbLine
 10
7.323445062331393
 20
10.04955523874616
 30
0.0
 11
7.309665220164069
 21
10.0758025571601
 31
0.0
  0
LINE
  5
23FF
330
1E
100
AcDbEntity
  8
0
100
AcDbLine
 10
7.351660929626389
 20
10.0758025571601
 30
0.0
 11
7.337552995978891
 21
10.04955523874616
 31
0.0
  0
LINE
  5
2400
330
1E
100
AcDbEntity
  8
0
100
AcDbLine
 10
7.337552995978891
 20
9.369749691824853
 30
0.0
 11
7.351660929626389
 21
9.343830464891077
 31
0.0
  0
LINE
  5
2401
330
1E
100
AcDbEntity
  8
0
100
AcDbLine
 10
7.407436481256033
 20
10.0758025571601
 30
0.0
 11
7.393656639088709
 21
10.04955523874616
 31
0.0
  0
LINE
  5
2402
330
1E
100
AcDbEntity
  8
0
100
AcDbLine
 10
7.393656639088709
 20
9.369749691824853
 30
0.0
 11
7.407436481256033
 21
9.343830464891077
 31
0.0
  0
LINE
  5
2403
330
1E
100
AcDbEntity
  8
0
100
AcDbLine
 10
7.295557286516571
 20
10.0758025571601
 30
0.0
 11
7.281449352869073
 21
10.04955523874616
 31
0.0
  0
LINE
  5
2404
330
1E
100
AcDbEntity
  8
0
100
AcDbLine
 10
7.281449352869073
 20
9.369749691824853
 30
0.0
 11
7.295557286516571
 21
9.343830464891077
 31
0.0
  0
LINE
  5
2405
330
1E
100
AcDbEntity
  8
0
100
AcDbLine
 10
7.421544414903531
 20
9.343830464891077
 30
0.0
 11
7.435652348551029
 21
9.369749691824853
 31
0.0
  0
LINE
  5
2406
330
1E
100
AcDbEntity
  8
0
100
AcDbLine
 10
7.435652348551029
 20
10.04955523874616
 30
0.0
 11
7.421544414903531
 21
10.0758025571601
 31
0.0
  0
LINE
  5
2407
330
1E
100
AcDbEntity
  8
0
100
AcDbLine
 10
7.263404321459482
 20
9.362203587780843
 30
0.0
 11
7.267669510701749
 21
9.369749691824853
 31
0.0
  0
LINE
  5
2408
330
1E
100
AcDbEntity
  8
0
100
AcDbLine
 10
7.267669510701749
 20
10.04955523874616
 30
0.0
 11
7.263404321459482
 21
10.05710134279017
 31
0.0
  0
LINE
  5
2409
330
1E
100
AcDbEntity
  8
0
100
AcDbLine
 10
7.337552995978891
 20
10.04955523874616
 30
0.0
 11
7.323445062331393
 21
10.04955523874616
 31
0.0
  0
LINE
  5
240A
330
1E
100
AcDbEntity
  8
0
100
AcDbLine
 10
7.323445062331393
 20
9.369749691824853
 30
0.0
 11
7.337552995978891
 21
9.369749691824853
 31
0.0
  0
LINE
  5
240B
330
1E
100
AcDbEntity
  8
0
100
AcDbLine
 10
7.393656639088709
 20
10.04955523874616
 30
0.0
 11
7.379548705441211
 21
10.04955523874616
 31
0.0
  0
LINE
  5
240C
330
1E
100
AcDbEntity
  8
0
100
AcDbLine
 10
7.379548705441211
 20
9.369749691824853
 30
0.0
 11
7.393656639088709
 21
9.369749691824853
 31
0.0
  0
LINE
  5
240D
330
1E
100
AcDbEntity
  8
0
100
AcDbLine
 10
7.449432190718353
 20
10.04955523874616
 30
0.0
 11
7.435652348551029
 21
10.04955523874616
 31
0.0
  0
LINE
  5
240E
330
1E
100
AcDbEntity
  8
0
100
AcDbLine
 10
7.435652348551029
 20
9.369749691824853
 30
0.0
 11
7.449432190718353
 21
9.369749691824853
 31
0.0
  0
LINE
  5
240F
330
1E
100
AcDbEntity
  8
0
100
AcDbLine
 10
7.281449352869073
 20
10.04955523874616
 30
0.0
 11
7.267669510701749
 21
10.04955523874616
 31
0.0
  0
LINE
  5
2410
330
1E
100
AcDbEntity
  8
0
100
AcDbLine
 10
7.267669510701749
 20
9.369749691824853
 30
0.0
 11
7.281449352869073
 21
9.369749691824853
 31
0.0
  0
LINE
  5
2411
330
1E
100
AcDbEntity
  8
0
100
AcDbLine
 10
6.705320713682869
 20
9.2795245347769
 30
0.0
 11
6.816871816942157
 21
9.2795245347769
 31
0.0
  0
LINE
  5
2412
330
1E
100
AcDbEntity
  8
0
100
AcDbLine
 10
6.816871816942157
 20
10.13978039579411
 30
0.0
 11
6.705320713682869
 21
10.13978039579411
 31
0.0
  0
LINE
  5
2413
330
1E
100
AcDbEntity
  8
0
100
AcDbLine
 10
7.263404321459482
 20
9.665360115461966
 30
0.0
 11
7.263404321459482
 21
9.324144976080615
 31
0.0
  0
LINE
  5
2414
330
1E
100
AcDbEntity
  8
0
100
AcDbLine
 10
7.263404321459482
 20
10.09548804597057
 30
0.0
 11
7.263404321459482
 21
9.753944815109047
 31
0.0
  0
LINE
  5
2415
330
1E
100
AcDbEntity
  8
0
100
AcDbLine
 10
7.263404321459482
 20
9.665360115461966
 30
0.0
 11
6.841806769435409
 21
9.665360115461966
 31
0.0
  0
LINE
  5
2416
330
1E
100
AcDbEntity
  8
0
100
AcDbLine
 10
6.841806769435409
 20
9.324144976080615
 30
0.0
 11
7.263404321459482
 21
9.324144976080615
 31
0.0
  0
LINE
  5
2417
330
1E
100
AcDbEntity
  8
0
100
AcDbLine
 10
7.263404321459482
 20
9.753944815109047
 30
0.0
 11
6.841806769435409
 21
9.753944815109047
 31
0.0
  0
LINE
  5
2418
330
1E
100
AcDbEntity
  8
0
100
AcDbLine
 10
7.263404321459482
 20
10.09548804597057
 30
0.0
 11
6.841806769435409
 21
10.09548804597057
 31
0.0
  0
LINE
  5
2419
330
1E
100
AcDbEntity
  8
0
100
AcDbLine
 10
7.263404321459482
 20
10.13978039579411
 30
0.0
 11
6.841806769435409
 21
10.13978039579411
 31
0.0
  0
LINE
  5
241A
330
1E
100
AcDbEntity
  8
0
100
AcDbLine
 10
7.263404321459482
 20
9.2795245347769
 30
0.0
 11
6.841806769435409
 21
9.2795245347769
 31
0.0
  0
LINE
  5
241B
330
1E
100
AcDbEntity
  8
0
100
AcDbLine
 10
7.663675927272221
 20
9.665360115461966
 30
0.0
 11
7.663675927272221
 21
9.324144976080615
 31
0.0
  0
LINE
  5
241C
330
1E
100
AcDbEntity
  8
0
100
AcDbLine
 10
7.663675927272221
 20
10.09548804597057
 30
0.0
 11
7.663675927272221
 21
9.753944815109047
 31
0.0
  0
LINE
  5
241D
330
1E
100
AcDbEntity
  8
0
100
AcDbLine
 10
7.463540124365851
 20
10.13978039579411
 30
0.0
 11
7.663675927272221
 21
10.13978039579411
 31
0.0
  0
LINE
  5
241E
330
1E
100
AcDbEntity
  8
0
100
AcDbLine
 10
7.663675927272221
 20
9.2795245347769
 30
0.0
 11
7.463540124365851
 21
9.2795245347769
 31
0.0
  0
LINE
  5
241F
330
1E
100
AcDbEntity
  8
0
100
AcDbLine
 10
7.663675927272221
 20
9.324144976080615
 30
0.0
 11
7.463540124365851
 21
9.324144976080615
 31
0.0
  0
LINE
  5
2420
330
1E
100
AcDbEntity
  8
0
100
AcDbLine
 10
7.463540124365851
 20
9.665360115461966
 30
0.0
 11
7.463540124365851
 21
9.324144976080615
 31
0.0
  0
LINE
  5
2421
330
1E
100
AcDbEntity
  8
0
100
AcDbLine
 10
7.663675927272221
 20
9.665360115461966
 30
0.0
 11
7.463540124365851
 21
9.665360115461966
 31
0.0
  0
LINE
  5
2422
330
1E
100
AcDbEntity
  8
0
100
AcDbLine
 10
7.663675927272221
 20
9.753944815109047
 30
0.0
 11
7.463540124365851
 21
9.753944815109047
 31
0.0
  0
LINE
  5
2423
330
1E
100
AcDbEntity
  8
0
100
AcDbLine
 10
7.463540124365851
 20
10.09548804597057
 30
0.0
 11
7.463540124365851
 21
9.753944815109047
 31
0.0
  0
LINE
  5
2424
330
1E
100
AcDbEntity
  8
0
100
AcDbLine
 10
7.663675927272221
 20
10.09548804597057
 30
0.0
 11
7.463540124365851
 21
10.09548804597057
 31
0.0
  0
LINE
  5
2425
330
1E
100
AcDbEntity
  8
0
100
AcDbLine
 10
8.643685178553081
 20
10.18276037969695
 30
0.0
 11
8.443549375646712
 21
10.18276037969695
 31
0.0
  0
LINE
  5
2426
330
1E
100
AcDbEntity
  8
0
100
AcDbLine
 10
8.443549375646712
 20
9.236544550874057
 30
0.0
 11
8.643685178553081
 21
9.236544550874057
 31
0.0
  0
LINE
  5
2427
330
1E
100
AcDbEntity
  8
0
100
AcDbLine
 10
8.443549375646712
 20
9.512469485700707
 30
0.0
 11
8.443549375646712
 21
9.906835444870306
 31
0.0
  0
LINE
  5
2428
330
1E
100
AcDbEntity
  8
0
100
AcDbLine
 10
8.443549375646712
 20
9.238841191235277
 30
0.0
 11
8.443549375646712
 21
9.435696079339903
 31
0.0
  0
LINE
  5
2429
330
1E
100
AcDbEntity
  8
0
100
AcDbLine
 10
8.443549375646712
 20
9.98360885123111
 30
0.0
 11
8.443549375646712
 21
10.18046373933573
 31
0.0
  0
LINE
  5
242A
330
1E
100
AcDbEntity
  8
0
100
AcDbLine
 10
8.443549375646712
 20
9.512469485700707
 30
0.0
 11
8.643685178553081
 21
9.512469485700707
 31
0.0
  0
LINE
  5
242B
330
1E
100
AcDbEntity
  8
0
100
AcDbLine
 10
8.643685178553081
 20
9.906835444870306
 30
0.0
 11
8.443549375646712
 21
9.906835444870306
 31
0.0
  0
LINE
  5
242C
330
1E
100
AcDbEntity
  8
0
100
AcDbLine
 10
8.443549375646712
 20
9.435696079339903
 30
0.0
 11
8.643685178553081
 21
9.435696079339903
 31
0.0
  0
LINE
  5
242D
330
1E
100
AcDbEntity
  8
0
100
AcDbLine
 10
8.443549375646712
 20
9.238841191235277
 30
0.0
 11
8.643685178553081
 21
9.238841191235277
 31
0.0
  0
LINE
  5
242E
330
1E
100
AcDbEntity
  8
0
100
AcDbLine
 10
8.443549375646712
 20
10.18046373933573
 30
0.0
 11
8.643685178553081
 21
10.18046373933573
 31
0.0
  0
LINE
  5
242F
330
1E
100
AcDbEntity
  8
0
100
AcDbLine
 10
8.443549375646712
 20
9.98360885123111
 30
0.0
 11
8.643685178553081
 21
9.98360885123111
 31
0.0
  0
LINE
  5
2430
330
1E
100
AcDbEntity
  8
0
100
AcDbLine
 10
7.913681635165096
 20
10.0758025571601
 30
0.0
 11
7.885465767870099
 21
10.04955523874616
 31
0.0
  0
LINE
  5
2431
330
1E
100
AcDbEntity
  8
0
100
AcDbLine
 10
7.885465767870099
 20
9.369749691824853
 30
0.0
 11
7.913681635165096
 21
9.343830464891077
 31
0.0
  0
LINE
  5
2432
330
1E
100
AcDbEntity
  8
0
100
AcDbLine
 10
7.857577992055277
 20
10.0758025571601
 30
0.0
 11
7.829690216240455
 21
10.04955523874616
 31
0.0
  0
LINE
  5
2433
330
1E
100
AcDbEntity
  8
0
100
AcDbLine
 10
7.829690216240455
 20
9.369749691824853
 30
0.0
 11
7.857577992055277
 21
9.343830464891077
 31
0.0
  0
LINE
  5
2434
330
1E
100
AcDbEntity
  8
0
100
AcDbLine
 10
7.857577992055277
 20
9.343830464891077
 30
0.0
 11
7.885465767870099
 21
9.369749691824853
 31
0.0
  0
LINE
  5
2435
330
1E
100
AcDbEntity
  8
0
100
AcDbLine
 10
7.885465767870099
 20
10.04955523874616
 30
0.0
 11
7.857577992055277
 21
10.0758025571601
 31
0.0
  0
LINE
  5
2436
330
1E
100
AcDbEntity
  8
0
100
AcDbLine
 10
7.913681635165096
 20
9.343830464891077
 30
0.0
 11
7.941569410979917
 21
9.369749691824853
 31
0.0
  0
LINE
  5
2437
330
1E
100
AcDbEntity
  8
0
100
AcDbLine
 10
7.941569410979917
 20
10.04955523874616
 30
0.0
 11
7.913681635165096
 21
10.0758025571601
 31
0.0
  0
LINE
  5
2438
330
1E
100
AcDbEntity
  8
0
100
AcDbLine
 10
7.745698797315815
 20
9.343830464891077
 30
0.0
 11
7.773586573130637
 21
9.369749691824853
 31
0.0
  0
LINE
  5
2439
330
1E
100
AcDbEntity
  8
0
100
AcDbLine
 10
7.773586573130637
 20
10.04955523874616
 30
0.0
 11
7.745698797315815
 21
10.0758025571601
 31
0.0
  0
LINE
  5
243A
330
1E
100
AcDbEntity
  8
0
100
AcDbLine
 10
7.801474348945459
 20
10.0758025571601
 30
0.0
 11
7.773586573130637
 21
10.04955523874616
 31
0.0
  0
LINE
  5
243B
330
1E
100
AcDbEntity
  8
0
100
AcDbLine
 10
7.773586573130637
 20
9.369749691824853
 30
0.0
 11
7.801474348945459
 21
9.343830464891077
 31
0.0
  0
LINE
  5
243C
330
1E
100
AcDbEntity
  8
0
100
AcDbLine
 10
7.689595154205997
 20
9.343830464891077
 30
0.0
 11
7.717482930020818
 21
9.369749691824853
 31
0.0
  0
LINE
  5
243D
330
1E
100
AcDbEntity
  8
0
100
AcDbLine
 10
7.717482930020818
 20
10.04955523874616
 30
0.0
 11
7.689595154205997
 21
10.0758025571601
 31
0.0
  0
LINE
  5
243E
330
1E
100
AcDbEntity
  8
0
100
AcDbLine
 10
7.745698797315815
 20
10.0758025571601
 30
0.0
 11
7.717482930020818
 21
10.04955523874616
 31
0.0
  0
LINE
  5
243F
330
1E
100
AcDbEntity
  8
0
100
AcDbLine
 10
7.717482930020818
 20
9.369749691824853
 30
0.0
 11
7.745698797315815
 21
9.343830464891077
 31
0.0
  0
LINE
  5
2440
330
1E
100
AcDbEntity
  8
0
100
AcDbLine
 10
8.025560829904557
 20
10.0758025571601
 30
0.0
 11
7.997673054089736
 21
10.04955523874616
 31
0.0
  0
LINE
  5
2441
330
1E
100
AcDbEntity
  8
0
100
AcDbLine
 10
7.997673054089736
 20
9.369749691824853
 30
0.0
 11
8.025560829904557
 21
9.343830464891077
 31
0.0
  0
LINE
  5
2442
330
1E
100
AcDbEntity
  8
0
100
AcDbLine
 10
8.025560829904557
 20
9.343830464891077
 30
0.0
 11
8.053448605719379
 21
9.369749691824853
 31
0.0
  0
LINE
  5
2443
330
1E
100
AcDbEntity
  8
0
100
AcDbLine
 10
8.053448605719379
 20
10.04955523874616
 30
0.0
 11
8.025560829904557
 21
10.0758025571601
 31
0.0
  0
LINE
  5
2444
330
1E
100
AcDbEntity
  8
0
100
AcDbLine
 10
7.969457186794739
 20
9.343830464891077
 30
0.0
 11
7.997673054089736
 21
9.369749691824853
 31
0.0
  0
LINE
  5
2445
330
1E
100
AcDbEntity
  8
0
100
AcDbLine
 10
7.997673054089736
 20
10.04955523874616
 30
0.0
 11
7.969457186794739
 21
10.0758025571601
 31
0.0
  0
LINE
  5
2446
330
1E
100
AcDbEntity
  8
0
100
AcDbLine
 10
7.969457186794739
 20
10.0758025571601
 30
0.0
 11
7.941569410979917
 21
10.04955523874616
 31
0.0
  0
LINE
  5
2447
330
1E
100
AcDbEntity
  8
0
100
AcDbLine
 10
7.941569410979917
 20
9.369749691824853
 30
0.0
 11
7.969457186794739
 21
9.343830464891077
 31
0.0
  0
LINE
  5
2448
330
1E
100
AcDbEntity
  8
0
100
AcDbLine
 10
7.689595154205997
 20
10.0758025571601
 30
0.0
 11
7.663675927272221
 21
10.0515237876272
 31
0.0
  0
LINE
  5
2449
330
1E
100
AcDbEntity
  8
0
100
AcDbLine
 10
7.663675927272221
 20
9.367781142943806
 30
0.0
 11
7.689595154205997
 21
9.343830464891077
 31
0.0
  0
LINE
  5
244A
330
1E
100
AcDbEntity
  8
0
100
AcDbLine
 10
7.801474348945459
 20
9.343830464891077
 30
0.0
 11
7.829690216240455
 21
9.369749691824853
 31
0.0
  0
LINE
  5
244B
330
1E
100
AcDbEntity
  8
0
100
AcDbLine
 10
7.829690216240455
 20
10.04955523874616
 30
0.0
 11
7.801474348945459
 21
10.0758025571601
 31
0.0
  0
LINE
  5
244C
330
1E
100
AcDbEntity
  8
0
100
AcDbLine
 10
7.365440771793713
 20
9.343830464891077
 30
0.0
 11
7.379548705441211
 21
9.369749691824853
 31
0.0
  0
LINE
  5
244D
330
1E
100
AcDbEntity
  8
0
100
AcDbLine
 10
7.379548705441211
 20
10.04955523874616
 30
0.0
 11
7.365440771793713
 21
10.0758025571601
 31
0.0
  0
LINE
  5
244E
330
1E
100
AcDbEntity
  8
0
100
AcDbLine
 10
7.295557286516571
 20
9.343830464891077
 30
0.0
 11
7.309665220164069
 21
9.343830464891077
 31
0.0
  0
LINE
  5
244F
330
1E
100
AcDbEntity
  8
0
100
AcDbLine
 10
7.309665220164069
 20
10.0758025571601
 30
0.0
 11
7.295557286516571
 21
10.0758025571601
 31
0.0
  0
LINE
  5
2450
330
1E
100
AcDbEntity
  8
0
100
AcDbLine
 10
7.407436481256033
 20
9.343830464891077
 30
0.0
 11
7.421544414903531
 21
9.343830464891077
 31
0.0
  0
LINE
  5
2451
330
1E
100
AcDbEntity
  8
0
100
AcDbLine
 10
7.421544414903531
 20
10.0758025571601
 30
0.0
 11
7.407436481256033
 21
10.0758025571601
 31
0.0
  0
LINE
  5
2452
330
1E
100
AcDbEntity
  8
0
100
AcDbLine
 10
7.463540124365851
 20
10.0758025571601
 30
0.0
 11
7.449432190718353
 21
10.04955523874616
 31
0.0
  0
LINE
  5
2453
330
1E
100
AcDbEntity
  8
0
100
AcDbLine
 10
7.449432190718353
 20
9.369749691824853
 30
0.0
 11
7.463540124365851
 21
9.343830464891077
 31
0.0
  0
LINE
  5
2454
330
1E
100
AcDbEntity
  8
0
100
AcDbLine
 10
7.351660929626389
 20
9.343830464891077
 30
0.0
 11
7.365440771793713
 21
9.343830464891077
 31
0.0
  0
LINE
  5
2455
330
1E
100
AcDbEntity
  8
0
100
AcDbLine
 10
7.365440771793713
 20
10.0758025571601
 30
0.0
 11
7.351660929626389
 21
10.0758025571601
 31
0.0
  0
LINE
  5
2456
330
1E
100
AcDbEntity
  8
0
100
AcDbLine
 10
7.309665220164069
 20
9.343830464891077
 30
0.0
 11
7.323445062331393
 21
9.369749691824853
 31
0.0
  0
LINE
  5
2457
330
1E
100
AcDbEntity
  8
0
100
AcDbLine
 10
7.323445062331393
 20
10.04955523874616
 30
0.0
 11
7.309665220164069
 21
10.0758025571601
 31
0.0
  0
LINE
  5
2458
330
1E
100
AcDbEntity
  8
0
100
AcDbLine
 10
7.351660929626389
 20
10.0758025571601
 30
0.0
 11
7.337552995978891
 21
10.04955523874616
 31
0.0
  0
LINE
  5
2459
330
1E
100
AcDbEntity
  8
0
100
AcDbLine
 10
7.337552995978891
 20
9.369749691824853
 30
0.0
 11
7.351660929626389
 21
9.343830464891077
 31
0.0
  0
LINE
  5
245A
330
1E
100
AcDbEntity
  8
0
100
AcDbLine
 10
7.407436481256033
 20
10.0758025571601
 30
0.0
 11
7.393656639088709
 21
10.04955523874616
 31
0.0
  0
LINE
  5
245B
330
1E
100
AcDbEntity
  8
0
100
AcDbLine
 10
7.393656639088709
 20
9.369749691824853
 30
0.0
 11
7.407436481256033
 21
9.343830464891077
 31
0.0
  0
LINE
  5
245C
330
1E
100
AcDbEntity
  8
0
100
AcDbLine
 10
7.295557286516571
 20
10.0758025571601
 30
0.0
 11
7.281449352869073
 21
10.04955523874616
 31
0.0
  0
LINE
  5
245D
330
1E
100
AcDbEntity
  8
0
100
AcDbLine
 10
7.281449352869073
 20
9.369749691824853
 30
0.0
 11
7.295557286516571
 21
9.343830464891077
 31
0.0
  0
LINE
  5
245E
330
1E
100
AcDbEntity
  8
0
100
AcDbLine
 10
7.421544414903531
 20
9.343830464891077
 30
0.0
 11
7.435652348551029
 21
9.369749691824853
 31
0.0
  0
LINE
  5
245F
330
1E
100
AcDbEntity
  8
0
100
AcDbLine
 10
7.435652348551029
 20
10.04955523874616
 30
0.0
 11
7.421544414903531
 21
10.0758025571601
 31
0.0
  0
LINE
  5
2460
330
1E
100
AcDbEntity
  8
0
100
AcDbLine
 10
7.263404321459482
 20
9.362203587780843
 30
0.0
 11
7.267669510701749
 21
9.369749691824853
 31
0.0
  0
LINE
  5
2461
330
1E
100
AcDbEntity
  8
0
100
AcDbLine
 10
7.267669510701749
 20
10.04955523874616
 30
0.0
 11
7.263404321459482
 21
10.05710134279017
 31
0.0
  0
LINE
  5
2462
330
1E
100
AcDbEntity
  8
0
100
AcDbLine
 10
7.337552995978891
 20
10.04955523874616
 30
0.0
 11
7.323445062331393
 21
10.04955523874616
 31
0.0
  0
LINE
  5
2463
330
1E
100
AcDbEntity
  8
0
100
AcDbLine
 10
7.323445062331393
 20
9.369749691824853
 30
0.0
 11
7.337552995978891
 21
9.369749691824853
 31
0.0
  0
LINE
  5
2464
330
1E
100
AcDbEntity
  8
0
100
AcDbLine
 10
7.393656639088709
 20
10.04955523874616
 30
0.0
 11
7.379548705441211
 21
10.04955523874616
 31
0.0
  0
LINE
  5
2465
330
1E
100
AcDbEntity
  8
0
100
AcDbLine
 10
7.379548705441211
 20
9.369749691824853
 30
0.0
 11
7.393656639088709
 21
9.369749691824853
 31
0.0
  0
LINE
  5
2466
330
1E
100
AcDbEntity
  8
0
100
AcDbLine
 10
7.449432190718353
 20
10.04955523874616
 30
0.0
 11
7.435652348551029
 21
10.04955523874616
 31
0.0
  0
LINE
  5
2467
330
1E
100
AcDbEntity
  8
0
100
AcDbLine
 10
7.435652348551029
 20
9.369749691824853
 30
0.0
 11
7.449432190718353
 21
9.369749691824853
 31
0.0
  0
LINE
  5
2468
330
1E
100
AcDbEntity
  8
0
100
AcDbLine
 10
7.281449352869073
 20
10.04955523874616
 30
0.0
 11
7.267669510701749
 21
10.04955523874616
 31
0.0
  0
LINE
  5
2469
330
1E
100
AcDbEntity
  8
0
100
AcDbLine
 10
7.267669510701749
 20
9.369749691824853
 30
0.0
 11
7.281449352869073
 21
9.369749691824853
 31
0.0
  0
LINE
  5
246A
330
1E
100
AcDbEntity
  8
0
100
AcDbLine
 10
6.705320713682869
 20
9.2795245347769
 30
0.0
 11
6.816871816942157
 21
9.2795245347769
 31
0.0
  0
LINE
  5
246B
330
1E
100
AcDbEntity
  8
0
100
AcDbLine
 10
6.816871816942157
 20
10.13978039579411
 30
0.0
 11
6.705320713682869
 21
10.13978039579411
 31
0.0
  0
LINE
  5
246C
330
1E
100
AcDbEntity
  8
0
100
AcDbLine
 10
7.263404321459482
 20
9.665360115461966
 30
0.0
 11
7.263404321459482
 21
9.324144976080615
 31
0.0
  0
LINE
  5
246D
330
1E
100
AcDbEntity
  8
0
100
AcDbLine
 10
7.263404321459482
 20
10.09548804597057
 30
0.0
 11
7.263404321459482
 21
9.753944815109047
 31
0.0
  0
LINE
  5
246E
330
1E
100
AcDbEntity
  8
0
100
AcDbLine
 10
7.263404321459482
 20
9.665360115461966
 30
0.0
 11
6.841806769435409
 21
9.665360115461966
 31
0.0
  0
LINE
  5
246F
330
1E
100
AcDbEntity
  8
0
100
AcDbLine
 10
6.841806769435409
 20
9.324144976080615
 30
0.0
 11
7.263404321459482
 21
9.324144976080615
 31
0.0
  0
LINE
  5
2470
330
1E
100
AcDbEntity
  8
0
100
AcDbLine
 10
7.263404321459482
 20
9.753944815109047
 30
0.0
 11
6.841806769435409
 21
9.753944815109047
 31
0.0
  0
LINE
  5
2471
330
1E
100
AcDbEntity
  8
0
100
AcDbLine
 10
7.263404321459482
 20
10.09548804597057
 30
0.0
 11
6.841806769435409
 21
10.09548804597057
 31
0.0
  0
LINE
  5
2472
330
1E
100
AcDbEntity
  8
0
100
AcDbLine
 10
7.263404321459482
 20
10.13978039579411
 30
0.0
 11
6.841806769435409
 21
10.13978039579411
 31
0.0
  0
LINE
  5
2473
330
1E
100
AcDbEntity
  8
0
100
AcDbLine
 10
7.263404321459482
 20
9.2795245347769
 30
0.0
 11
6.841806769435409
 21
9.2795245347769
 31
0.0
  0
LWPOLYLINE
  5
2474
330
1E
100
AcDbEntity
  8
0
100
AcDbPolyline
 90
        8
 70
     0
 43
0.0
 10
6.593441518943408
 20
9.391403729516362
 10
6.596394342264977
 20
9.366468777023111
 10
6.604596629269336
 20
9.342846190450556
 10
6.618048379956486
 20
9.321848335719396
 10
6.635437228405728
 20
9.30413139578998
 10
6.656763174617062
 20
9.29067964510283
 10
6.680385761189617
 20
9.28247735809847
 10
6.70532071368287
 20
9.2795245347769
  0
LWPOLYLINE
  5
247E
330
1E
100
AcDbEntity
  8
0
100
AcDbPolyline
 90
        8
 70
     0
 43
0.0
 10
6.70532071368287
 20
10.13978039579411
 10
6.680385761189617
 20
10.13682757247254
 10
6.656763174617062
 20
10.12862528546818
 10
6.635437228405728
 20
10.11517353478103
 10
6.618048379956486
 20
10.09778468633179
 10
6.604596629269336
 20
10.07645874012045
 10
6.596394342264977
 20
10.0528361535479
 10
6.593441518943408
 20
10.02790120105465
  0
LWPOLYLINE
  5
2488
330
1E
100
AcDbEntity
  8
0
100
AcDbPolyline
 90
        5
 70
     0
 43
0.0
 10
8.693555083539587
 20
10.13256238323027
 10
8.689946077257669
 20
10.15191978056056
 10
8.678790966931741
 20
10.16799626308911
 10
8.662714484403196
 20
10.17882328193486
 10
8.643685178553083
 20
10.18276037969695
  0
LWPOLYLINE
  5
248F
330
1E
100
AcDbEntity
  8
0
100
AcDbPolyline
 90
        5
 70
     0
 43
0.0
 10
8.643685178553083
 20
9.236544550874057
 10
8.662714484403196
 20
9.24048164863615
 10
8.678790966931741
 20
9.251308667481904
 10
8.689946077257669
 20
9.267385150010449
 10
8.693555083539587
 20
9.286742547340736
  0
LWPOLYLINE
  5
2496
330
1E
100
AcDbEntity
  8
0
100
AcDbPolyline
 90
        3
 70
     0
 43
0.0
 10
7.663675927272222
 20
9.324144976080615
 10
7.663675927272222
 20
9.300194298027886
 10
7.663675927272222
 20
9.2795245347769
  0
LWPOLYLINE
  5
249B
330
1E
100
AcDbEntity
  8
0
100
AcDbPolyline
 90
        3
 70
     0
 43
0.0
 10
7.663675927272222
 20
9.753944815109047
 10
7.663675927272222
 20
9.709652465285508
 10
7.663675927272222
 20
9.665360115461966
  0
LWPOLYLINE
  5
24A0
330
1E
100
AcDbEntity
  8
0
100
AcDbPolyline
 90
        3
 70
     0
 43
0.0
 10
7.663675927272222
 20
10.13978039579411
 10
7.663675927272222
 20
10.1194387240233
 10
7.663675927272222
 20
10.09548804597057
  0
LWPOLYLINE
  5
24A5
330
1E
100
AcDbEntity
  8
0
100
AcDbPolyline
 90
        3
 70
     0
 43
0.0
 10
7.463540124365852
 20
9.324144976080615
 10
7.463540124365852
 20
9.300194298027886
 10
7.463540124365852
 20
9.2795245347769
  0
LWPOLYLINE
  5
24AA
330
1E
100
AcDbEntity
  8
0
100
AcDbPolyline
 90
        3
 70
     0
 43
0.0
 10
7.463540124365852
 20
9.753944815109047
 10
7.463540124365852
 20
9.709652465285508
 10
7.463540124365852
 20
9.665360115461966
  0
LWPOLYLINE
  5
24AF
330
1E
100
AcDbEntity
  8
0
100
AcDbPolyline
 90
        3
 70
     0
 43
0.0
 10
7.463540124365852
 20
10.13978039579411
 10
7.463540124365852
 20
10.1194387240233
 10
7.463540124365852
 20
10.09548804597057
  0
LWPOLYLINE
  5
24B4
330
1E
100
AcDbEntity
  8
0
100
AcDbPolyline
 90
        5
 70
     0
 43
0.0
 10
8.643685178553083
 20
9.236544550874057
 10
8.662714484403196
 20
9.24048164863615
 10
8.678790966931741
 20
9.251308667481904
 10
8.689946077257669
 20
9.267385150010449
 10
8.693555083539587
 20
9.286742547340736
  0
LWPOLYLINE
  5
24BB
330
1E
100
AcDbEntity
  8
0
100
AcDbPolyline
 90
        5
 70
     0
 43
0.0
 10
8.693555083539587
 20
10.13256238323027
 10
8.689946077257669
 20
10.15191978056056
 10
8.678790966931741
 20
10.16799626308911
 10
8.662714484403196
 20
10.17882328193486
 10
8.643685178553083
 20
10.18276037969695
  0
LWPOLYLINE
  5
24C2
330
1E
100
AcDbEntity
  8
0
100
AcDbPolyline
 90
        3
 70
     0
 43
0.0
 10
8.443549375646712
 20
9.435696079339903
 10
8.443549375646712
 20
9.473098508079782
 10
8.443549375646712
 20
9.512469485700707
  0
LWPOLYLINE
  5
24C7
330
1E
100
AcDbEntity
  8
0
100
AcDbPolyline
 90
        3
 70
     0
 43
0.0
 10
8.443549375646712
 20
9.236544550874057
 10
8.443549375646712
 20
9.237200733834406
 10
8.443549375646712
 20
9.238841191235279
  0
LWPOLYLINE
  5
24CC
330
1E
100
AcDbEntity
  8
0
100
AcDbPolyline
 90
        3
 70
     0
 43
0.0
 10
8.443549375646712
 20
10.18046373933573
 10
8.443549375646712
 20
10.1821041967366
 10
8.443549375646712
 20
10.18276037969695
  0
LWPOLYLINE
  5
24D1
330
1E
100
AcDbEntity
  8
0
100
AcDbPolyline
 90
        3
 70
     0
 43
0.0
 10
8.443549375646712
 20
9.906835444870306
 10
8.443549375646712
 20
9.946206422491233
 10
8.443549375646712
 20
9.98360885123111
  0
LWPOLYLINE
  5
24D6
330
1E
100
AcDbEntity
  8
0
100
AcDbPolyline
 90
        3
 70
     0
 43
0.0
 10
8.643685178553083
 20
9.435696079339903
 10
8.643685178553083
 20
9.473098508079782
 10
8.643685178553083
 20
9.512469485700707
  0
LWPOLYLINE
  5
24DB
330
1E
100
AcDbEntity
  8
0
100
AcDbPolyline
 90
        3
 70
     0
 43
0.0
 10
8.643685178553083
 20
9.236544550874057
 10
8.643685178553083
 20
9.237200733834406
 10
8.643685178553083
 20
9.238841191235279
  0
LWPOLYLINE
  5
24E0
330
1E
100
AcDbEntity
  8
0
100
AcDbPolyline
 90
        3
 70
     0
 43
0.0
 10
8.643685178553083
 20
10.18046373933573
 10
8.643685178553083
 20
10.1821041967366
 10
8.643685178553083
 20
10.18276037969695
  0
LWPOLYLINE
  5
24E5
330
1E
100
AcDbEntity
  8
0
100
AcDbPolyline
 90
        3
 70
     0
 43
0.0
 10
8.643685178553083
 20
9.906835444870306
 10
8.643685178553083
 20
9.946206422491233
 10
8.643685178553083
 20
9.98360885123111
  0
LWPOLYLINE
  5
24EA
330
1E
100
AcDbEntity
  8
0
100
AcDbPolyline
 90
       13
 70
     0
 43
0.0
 10
8.053448605719379
 20
9.709652465285508
 10
8.053448605719379
 20
9.753944815109047
 10
8.053448605719379
 20
9.79758098197224
 10
8.053448605719379
 20
9.839904782914734
 10
8.053448605719379
 20
9.879603852015835
 10
8.053448605719379
 20
9.916678189275538
 10
8.053448605719379
 20
9.950143520253325
 10
8.053448605719379
 20
9.979343661988844
 10
8.053448605719379
 20
10.00427861448209
 10
8.053448605719379
 20
10.02396410329255
 10
8.053448605719379
 20
10.03807203694005
 10
8.053448605719379
 20
10.04693050690476
 10
8.053448605719379
 20
10.04955523874616
  0
LWPOLYLINE
  5
24F9
330
1E
100
AcDbEntity
  8
0
100
AcDbPolyline
 90
       13
 70
     0
 43
0.0
 10
8.053448605719379
 20
9.369749691824853
 10
8.053448605719379
 20
9.372702515146423
 10
8.053448605719379
 20
9.381232893630958
 10
8.053448605719379
 20
9.39566891875863
 10
8.053448605719379
 20
9.415354407569092
 10
8.053448605719379
 20
9.43996126858217
 10
8.053448605719379
 20
9.46916141031769
 10
8.053448605719379
 20
9.502626741295475
 10
8.053448605719379
 20
9.539701078555181
 10
8.053448605719379
 20
9.579400147656279
 10
8.053448605719379
 20
9.621723948598775
 10
8.053448605719379
 20
9.665360115461966
 10
8.053448605719379
 20
9.709652465285508
  0
LWPOLYLINE
  5
2508
330
1E
100
AcDbEntity
  8
0
100
AcDbPolyline
 90
       14
 70
     0
 43
0.0
 10
7.407436481256034
 20
9.709652465285508
 10
7.407436481256034
 20
9.665688206942141
 10
7.407436481256034
 20
9.622052040078949
 10
7.407436481256034
 20
9.579728239136455
 10
7.407436481256034
 20
9.539701078555181
 10
7.407436481256034
 20
9.501642466854953
 10
7.407436481256034
 20
9.466864769956469
 10
7.407436481256034
 20
9.435696079339903
 10
7.407436481256034
 20
9.408464486485431
 10
7.407436481256034
 20
9.385498082873224
 10
7.407436481256034
 20
9.367453051463634
 10
7.407436481256034
 20
9.354329392256659
 10
7.407436481256034
 20
9.346455196732474
 10
7.407436481256034
 20
9.343830464891079
  0
LWPOLYLINE
  5
2518
330
1E
100
AcDbEntity
  8
0
100
AcDbPolyline
 90
       14
 70
     0
 43
0.0
 10
7.407436481256034
 20
10.07580255716011
 10
7.407436481256034
 20
10.07317782531871
 10
7.407436481256034
 20
10.06497553831435
 10
7.407436481256034
 20
10.05185187910738
 10
7.407436481256034
 20
10.03380684769779
 10
7.407436481256034
 20
10.01084044408558
 10
7.407436481256034
 20
9.98360885123111
 10
7.407436481256034
 20
9.952440160614546
 10
7.407436481256034
 20
9.917662463716062
 10
7.407436481256034
 20
9.879931943496009
 10
7.407436481256034
 20
9.83957669143456
 10
7.407436481256034
 20
9.797252890492066
 10
7.407436481256034
 20
9.753944815109047
 10
7.407436481256034
 20
9.709652465285508
  0
LWPOLYLINE
  5
2528
330
1E
100
AcDbEntity
  8
0
100
AcDbPolyline
 90
       14
 70
     0
 43
0.0
 10
7.30966522016407
 20
9.709652465285508
 10
7.30966522016407
 20
9.753944815109047
 10
7.30966522016407
 20
9.797252890492066
 10
7.30966522016407
 20
9.83957669143456
 10
7.30966522016407
 20
9.879931943496009
 10
7.30966522016407
 20
9.917662463716062
 10
7.30966522016407
 20
9.952440160614546
 10
7.30966522016407
 20
9.98360885123111
 10
7.30966522016407
 20
10.01084044408558
 10
7.30966522016407
 20
10.03380684769779
 10
7.30966522016407
 20
10.05185187910738
 10
7.30966522016407
 20
10.06497553831435
 10
7.30966522016407
 20
10.07317782531871
 10
7.30966522016407
 20
10.07580255716011
  0
LWPOLYLINE
  5
2538
330
1E
100
AcDbEntity
  8
0
100
AcDbPolyline
 90
       14
 70
     0
 43
0.0
 10
7.30966522016407
 20
9.343830464891079
 10
7.30966522016407
 20
9.346455196732474
 10
7.30966522016407
 20
9.354329392256659
 10
7.30966522016407
 20
9.367453051463634
 10
7.30966522016407
 20
9.385498082873224
 10
7.30966522016407
 20
9.408464486485431
 10
7.30966522016407
 20
9.435696079339903
 10
7.30966522016407
 20
9.466864769956469
 10
7.30966522016407
 20
9.501642466854953
 10
7.30966522016407
 20
9.539701078555181
 10
7.30966522016407
 20
9.579728239136455
 10
7.30966522016407
 20
9.622052040078949
 10
7.30966522016407
 20
9.665688206942141
 10
7.30966522016407
 20
9.709652465285508
  0
LWPOLYLINE
  5
2548
330
1E
100
AcDbEntity
  8
0
100
AcDbPolyline
 90
       14
 70
     0
 43
0.0
 10
7.35166092962639
 20
9.709652465285508
 10
7.35166092962639
 20
9.665688206942141
 10
7.35166092962639
 20
9.622052040078949
 10
7.35166092962639
 20
9.579728239136455
 10
7.35166092962639
 20
9.539701078555181
 10
7.35166092962639
 20
9.501642466854953
 10
7.35166092962639
 20
9.466864769956469
 10
7.35166092962639
 20
9.435696079339903
 10
7.35166092962639
 20
9.408464486485431
 10
7.35166092962639
 20
9.385498082873224
 10
7.35166092962639
 20
9.367453051463634
 10
7.35166092962639
 20
9.354329392256659
 10
7.35166092962639
 20
9.346455196732474
 10
7.35166092962639
 20
9.343830464891079
  0
LWPOLYLINE
  5
2558
330
1E
100
AcDbEntity
  8
0
100
AcDbPolyline
 90
       14
 70
     0
 43
0.0
 10
7.35166092962639
 20
10.07580255716011
 10
7.35166092962639
 20
10.07317782531871
 10
7.35166092962639
 20
10.06497553831435
 10
7.35166092962639
 20
10.05185187910738
 10
7.35166092962639
 20
10.03380684769779
 10
7.35166092962639
 20
10.01084044408558
 10
7.35166092962639
 20
9.98360885123111
 10
7.35166092962639
 20
9.952440160614546
 10
7.35166092962639
 20
9.917662463716062
 10
7.35166092962639
 20
9.879931943496009
 10
7.35166092962639
 20
9.83957669143456
 10
7.35166092962639
 20
9.797252890492066
 10
7.35166092962639
 20
9.753944815109047
 10
7.35166092962639
 20
9.709652465285508
  0
LWPOLYLINE
  5
2568
330
1E
100
AcDbEntity
  8
0
100
AcDbPolyline
 90
        8
 70
     0
 43
0.0
 10
6.593441518943408
 20
9.391403729516362
 10
6.596394342264977
 20
9.366468777023111
 10
6.604596629269336
 20
9.342846190450556
 10
6.618048379956486
 20
9.321848335719396
 10
6.635437228405728
 20
9.30413139578998
 10
6.656763174617062
 20
9.29067964510283
 10
6.680385761189617
 20
9.28247735809847
 10
6.70532071368287
 20
9.2795245347769
  0
LWPOLYLINE
  5
2572
330
1E
100
AcDbEntity
  8
0
100
AcDbPolyline
 90
        8
 70
     0
 43
0.0
 10
6.70532071368287
 20
10.13978039579411
 10
6.680385761189617
 20
10.13682757247254
 10
6.656763174617062
 20
10.12862528546818
 10
6.635437228405728
 20
10.11517353478103
 10
6.618048379956486
 20
10.09778468633179
 10
6.604596629269336
 20
10.07645874012045
 10
6.596394342264977
 20
10.0528361535479
 10
6.593441518943408
 20
10.02790120105465
  0
LWPOLYLINE
  5
257C
330
1E
100
AcDbEntity
  8
0
100
AcDbPolyline
 90
        3
 70
     0
 43
0.0
 10
7.263404321459484
 20
9.753944815109047
 10
7.263404321459484
 20
9.709652465285508
 10
7.263404321459484
 20
9.665360115461966
  0
LWPOLYLINE
  5
2581
330
1E
100
AcDbEntity
  8
0
100
AcDbPolyline
 90
        3
 70
     0
 43
0.0
 10
7.263404321459484
 20
10.13978039579411
 10
7.263404321459484
 20
10.1194387240233
 10
7.263404321459484
 20
10.09548804597057
  0
LWPOLYLINE
  5
2586
330
1E
100
AcDbEntity
  8
0
100
AcDbPolyline
 90
        3
 70
     0
 43
0.0
 10
7.263404321459484
 20
9.324144976080615
 10
7.263404321459484
 20
9.300194298027886
 10
7.263404321459484
 20
9.2795245347769
  0
LWPOLYLINE
  5
258B
330
1E
100
AcDbEntity
  8
0
100
AcDbPolyline
 90
        3
 70
     0
 43
0.0
 10
6.84180676943541
 20
9.753944815109047
 10
6.84180676943541
 20
9.709652465285508
 10
6.84180676943541
 20
9.665360115461966
  0
LWPOLYLINE
  5
2590
330
1E
100
AcDbEntity
  8
0
100
AcDbPolyline
 90
        3
 70
     0
 43
0.0
 10
6.84180676943541
 20
10.13978039579411
 10
6.84180676943541
 20
10.1194387240233
 10
6.84180676943541
 20
10.09548804597057
  0
LWPOLYLINE
  5
2595
330
1E
100
AcDbEntity
  8
0
100
AcDbPolyline
 90
        3
 70
     0
 43
0.0
 10
6.84180676943541
 20
9.324144976080615
 10
6.84180676943541
 20
9.300194298027886
 10
6.84180676943541
 20
9.2795245347769
  0
LWPOLYLINE
  5
259A
330
1E
100
AcDbEntity
  8
0
100
AcDbPolyline
 90
       10
 70
     0
 43
0.0
 10
6.816871816942158
 20
9.494752545771291
 10
6.816871816942158
 20
9.452756836308971
 10
6.816871816942158
 20
9.414698224608743
 10
6.816871816942158
 20
9.380248619190433
 10
6.816871816942158
 20
9.350392294494566
 10
6.816871816942158
 20
9.325457342001314
 10
6.816871816942158
 20
9.305443761710677
 10
6.816871816942158
 20
9.291335828063179
 10
6.816871816942158
 20
9.28247735809847
 10
6.816871816942158
 20
9.2795245347769
  0
LWPOLYLINE
  5
25A6
330
1E
100
AcDbEntity
  8
0
100
AcDbPolyline
 90
       10
 70
     0
 43
0.0
 10
6.816871816942158
 20
9.924552384799724
 10
6.816871816942158
 20
9.879931943496009
 10
6.816871816942158
 20
9.833014861831072
 10
6.816871816942158
 20
9.784457322765264
 10
6.816871816942158
 20
9.73458741777876
 10
6.816871816942158
 20
9.684717512792255
 10
6.816871816942158
 20
9.634847607805749
 10
6.816871816942158
 20
9.586290068739941
 10
6.816871816942158
 20
9.539372987075006
 10
6.816871816942158
 20
9.494752545771291
  0
LWPOLYLINE
  5
25B2
330
1E
100
AcDbEntity
  8
0
100
AcDbPolyline
 90
       10
 70
     0
 43
0.0
 10
6.816871816942158
 20
10.13978039579411
 10
6.816871816942158
 20
10.13682757247254
 10
6.816871816942158
 20
10.12796910250783
 10
6.816871816942158
 20
10.11386116886033
 10
6.816871816942158
 20
10.0938475885697
 10
6.816871816942158
 20
10.06891263607645
 10
6.816871816942158
 20
10.03905631138058
 10
6.816871816942158
 20
10.00460670596227
 10
6.816871816942158
 20
9.966548094262044
 10
6.816871816942158
 20
9.924552384799724
  0
LWPOLYLINE
  5
25BE
330
1E
100
AcDbEntity
  8
0
100
AcDbPolyline
 90
       15
 70
     0
 43
0.0
 10
6.70532071368287
 20
9.709652465285508
 10
6.70532071368287
 20
9.661423017699874
 10
6.70532071368287
 20
9.613849753074589
 10
6.70532071368287
 20
9.567588854370002
 10
6.70532071368287
 20
9.522968413066287
 10
6.70532071368287
 20
9.480972703603967
 10
6.70532071368287
 20
9.441601725983042
 10
6.70532071368287
 20
9.405511663163862
 10
6.70532071368287
 20
9.373358698106772
 10
6.70532071368287
 20
9.345470922291951
 10
6.70532071368287
 20
9.32217642719957
 10
6.70532071368287
 20
9.303803304309806
 10
6.70532071368287
 20
9.290351553622656
 10
6.70532071368287
 20
9.28247735809847
 10
6.70532071368287
 20
9.2795245347769
  0
LWPOLYLINE
  5
25CF
330
1E
100
AcDbEntity
  8
0
100
AcDbPolyline
 90
       15
 70
     0
 43
0.0
 10
6.70532071368287
 20
10.13978039579411
 10
6.70532071368287
 20
10.13682757247254
 10
6.70532071368287
 20
10.12895337694835
 10
6.70532071368287
 20
10.1155016262612
 10
6.70532071368287
 20
10.09712850337144
 10
6.70532071368287
 20
10.07383400827906
 10
6.70532071368287
 20
10.04594623246424
 10
6.70532071368287
 20
10.01379326740715
 10
6.70532071368287
 20
9.977703204587973
 10
6.70532071368287
 20
9.938332226967048
 10
6.70532071368287
 20
9.896336517504726
 10
6.70532071368287
 20
9.851716076201011
 10
6.70532071368287
 20
9.805455177496424
 10
6.70532071368287
 20
9.757881912871141
 10
6.70532071368287
 20
9.709652465285508
  0
LWPOLYLINE
  5
25E0
330
1E
100
AcDbEntity
  8
0
100
AcDbPolyline
 90
        3
 70
     0
 43
0.0
 10
7.663675927272222
 20
9.324144976080615
 10
7.663675927272222
 20
9.300194298027886
 10
7.663675927272222
 20
9.2795245347769
  0
LWPOLYLINE
  5
25E5
330
1E
100
AcDbEntity
  8
0
100
AcDbPolyline
 90
        3
 70
     0
 43
0.0
 10
7.663675927272222
 20
9.753944815109047
 10
7.663675927272222
 20
9.709652465285508
 10
7.663675927272222
 20
9.665360115461966
  0
LWPOLYLINE
  5
25EA
330
1E
100
AcDbEntity
  8
0
100
AcDbPolyline
 90
        3
 70
     0
 43
0.0
 10
7.663675927272222
 20
10.13978039579411
 10
7.663675927272222
 20
10.1194387240233
 10
7.663675927272222
 20
10.09548804597057
  0
LWPOLYLINE
  5
25EF
330
1E
100
AcDbEntity
  8
0
100
AcDbPolyline
 90
        3
 70
     0
 43
0.0
 10
7.463540124365852
 20
9.324144976080615
 10
7.463540124365852
 20
9.300194298027886
 10
7.463540124365852
 20
9.2795245347769
  0
LWPOLYLINE
  5
25F4
330
1E
100
AcDbEntity
  8
0
100
AcDbPolyline
 90
        3
 70
     0
 43
0.0
 10
7.463540124365852
 20
9.753944815109047
 10
7.463540124365852
 20
9.709652465285508
 10
7.463540124365852
 20
9.665360115461966
  0
LWPOLYLINE
  5
25F9
330
1E
100
AcDbEntity
  8
0
100
AcDbPolyline
 90
        3
 70
     0
 43
0.0
 10
7.463540124365852
 20
10.13978039579411
 10
7.463540124365852
 20
10.1194387240233
 10
7.463540124365852
 20
10.09548804597057
  0
LWPOLYLINE
  5
25FE
330
1E
100
AcDbEntity
  8
0
100
AcDbPolyline
 90
        5
 70
     0
 43
0.0
 10
8.643685178553083
 20
9.236544550874057
 10
8.662714484403196
 20
9.24048164863615
 10
8.678790966931741
 20
9.251308667481904
 10
8.689946077257669
 20
9.267385150010449
 10
8.693555083539587
 20
9.286742547340736
  0
LWPOLYLINE
  5
2605
330
1E
100
AcDbEntity
  8
0
100
AcDbPolyline
 90
        5
 70
     0
 43
0.0
 10
8.693555083539587
 20
10.13256238323027
 10
8.689946077257669
 20
10.15191978056056
 10
8.678790966931741
 20
10.16799626308911
 10
8.662714484403196
 20
10.17882328193486
 10
8.643685178553083
 20
10.18276037969695
  0
LWPOLYLINE
  5
260C
330
1E
100
AcDbEntity
  8
0
100
AcDbPolyline
 90
        3
 70
     0
 43
0.0
 10
8.443549375646712
 20
9.435696079339903
 10
8.443549375646712
 20
9.473098508079782
 10
8.443549375646712
 20
9.512469485700707
  0
LWPOLYLINE
  5
2611
330
1E
100
AcDbEntity
  8
0
100
AcDbPolyline
 90
        3
 70
     0
 43
0.0
 10
8.443549375646712
 20
9.236544550874057
 10
8.443549375646712
 20
9.237200733834406
 10
8.443549375646712
 20
9.238841191235279
  0
LWPOLYLINE
  5
2616
330
1E
100
AcDbEntity
  8
0
100
AcDbPolyline
 90
        3
 70
     0
 43
0.0
 10
8.443549375646712
 20
10.18046373933573
 10
8.443549375646712
 20
10.1821041967366
 10
8.443549375646712
 20
10.18276037969695
  0
LWPOLYLINE
  5
261B
330
1E
100
AcDbEntity
  8
0
100
AcDbPolyline
 90
        3
 70
     0
 43
0.0
 10
8.443549375646712
 20
9.906835444870306
 10
8.443549375646712
 20
9.946206422491233
 10
8.443549375646712
 20
9.98360885123111
  0
LWPOLYLINE
  5
2620
330
1E
100
AcDbEntity
  8
0
100
AcDbPolyline
 90
        3
 70
     0
 43
0.0
 10
8.643685178553083
 20
9.435696079339903
 10
8.643685178553083
 20
9.473098508079782
 10
8.643685178553083
 20
9.512469485700707
  0
LWPOLYLINE
  5
2625
330
1E
100
AcDbEntity
  8
0
100
AcDbPolyline
 90
        3
 70
     0
 43
0.0
 10
8.643685178553083
 20
9.236544550874057
 10
8.643685178553083
 20
9.237200733834406
 10
8.643685178553083
 20
9.238841191235279
  0
LWPOLYLINE
  5
262A
330
1E
100
AcDbEntity
  8
0
100
AcDbPolyline
 90
        3
 70
     0
 43
0.0
 10
8.643685178553083
 20
10.18046373933573
 10
8.643685178553083
 20
10.1821041967366
 10
8.643685178553083
 20
10.18276037969695
  0
LWPOLYLINE
  5
262F
330
1E
100
AcDbEntity
  8
0
100
AcDbPolyline
 90
        3
 70
     0
 43
0.0
 10
8.643685178553083
 20
9.906835444870306
 10
8.643685178553083
 20
9.946206422491233
 10
8.643685178553083
 20
9.98360885123111
  0
LWPOLYLINE
  5
2634
330
1E
100
AcDbEntity
  8
0
100
AcDbPolyline
 90
       13
 70
     0
 43
0.0
 10
8.053448605719379
 20
9.709652465285508
 10
8.053448605719379
 20
9.753944815109047
 10
8.053448605719379
 20
9.79758098197224
 10
8.053448605719379
 20
9.839904782914734
 10
8.053448605719379
 20
9.879603852015835
 10
8.053448605719379
 20
9.916678189275538
 10
8.053448605719379
 20
9.950143520253325
 10
8.053448605719379
 20
9.979343661988844
 10
8.053448605719379
 20
10.00427861448209
 10
8.053448605719379
 20
10.02396410329255
 10
8.053448605719379
 20
10.03807203694005
 10
8.053448605719379
 20
10.04693050690476
 10
8.053448605719379
 20
10.04955523874616
  0
LWPOLYLINE
  5
2643
330
1E
100
AcDbEntity
  8
0
100
AcDbPolyline
 90
       13
 70
     0
 43
0.0
 10
8.053448605719379
 20
9.369749691824853
 10
8.053448605719379
 20
9.372702515146423
 10
8.053448605719379
 20
9.381232893630958
 10
8.053448605719379
 20
9.39566891875863
 10
8.053448605719379
 20
9.415354407569092
 10
8.053448605719379
 20
9.43996126858217
 10
8.053448605719379
 20
9.46916141031769
 10
8.053448605719379
 20
9.502626741295475
 10
8.053448605719379
 20
9.539701078555181
 10
8.053448605719379
 20
9.579400147656279
 10
8.053448605719379
 20
9.621723948598775
 10
8.053448605719379
 20
9.665360115461966
 10
8.053448605719379
 20
9.709652465285508
  0
LWPOLYLINE
  5
2652
330
1E
100
AcDbEntity
  8
0
100
AcDbPolyline
 90
       14
 70
     0
 43
0.0
 10
7.407436481256034
 20
9.709652465285508
 10
7.407436481256034
 20
9.665688206942141
 10
7.407436481256034
 20
9.622052040078949
 10
7.407436481256034
 20
9.579728239136455
 10
7.407436481256034
 20
9.539701078555181
 10
7.407436481256034
 20
9.501642466854953
 10
7.407436481256034
 20
9.466864769956469
 10
7.407436481256034
 20
9.435696079339903
 10
7.407436481256034
 20
9.408464486485431
 10
7.407436481256034
 20
9.385498082873224
 10
7.407436481256034
 20
9.367453051463634
 10
7.407436481256034
 20
9.354329392256659
 10
7.407436481256034
 20
9.346455196732474
 10
7.407436481256034
 20
9.343830464891079
  0
LWPOLYLINE
  5
2662
330
1E
100
AcDbEntity
  8
0
100
AcDbPolyline
 90
       14
 70
     0
 43
0.0
 10
7.407436481256034
 20
10.07580255716011
 10
7.407436481256034
 20
10.07317782531871
 10
7.407436481256034
 20
10.06497553831435
 10
7.407436481256034
 20
10.05185187910738
 10
7.407436481256034
 20
10.03380684769779
 10
7.407436481256034
 20
10.01084044408558
 10
7.407436481256034
 20
9.98360885123111
 10
7.407436481256034
 20
9.952440160614546
 10
7.407436481256034
 20
9.917662463716062
 10
7.407436481256034
 20
9.879931943496009
 10
7.407436481256034
 20
9.83957669143456
 10
7.407436481256034
 20
9.797252890492066
 10
7.407436481256034
 20
9.753944815109047
 10
7.407436481256034
 20
9.709652465285508
  0
LWPOLYLINE
  5
2672
330
1E
100
AcDbEntity
  8
0
100
AcDbPolyline
 90
       14
 70
     0
 43
0.0
 10
7.30966522016407
 20
9.709652465285508
 10
7.30966522016407
 20
9.753944815109047
 10
7.30966522016407
 20
9.797252890492066
 10
7.30966522016407
 20
9.83957669143456
 10
7.30966522016407
 20
9.879931943496009
 10
7.30966522016407
 20
9.917662463716062
 10
7.30966522016407
 20
9.952440160614546
 10
7.30966522016407
 20
9.98360885123111
 10
7.30966522016407
 20
10.01084044408558
 10
7.30966522016407
 20
10.03380684769779
 10
7.30966522016407
 20
10.05185187910738
 10
7.30966522016407
 20
10.06497553831435
 10
7.30966522016407
 20
10.07317782531871
 10
7.30966522016407
 20
10.07580255716011
  0
LWPOLYLINE
  5
2682
330
1E
100
AcDbEntity
  8
0
100
AcDbPolyline
 90
       14
 70
     0
 43
0.0
 10
7.30966522016407
 20
9.343830464891079
 10
7.30966522016407
 20
9.346455196732474
 10
7.30966522016407
 20
9.354329392256659
 10
7.30966522016407
 20
9.367453051463634
 10
7.30966522016407
 20
9.385498082873224
 10
7.30966522016407
 20
9.408464486485431
 10
7.30966522016407
 20
9.435696079339903
 10
7.30966522016407
 20
9.466864769956469
 10
7.30966522016407
 20
9.501642466854953
 10
7.30966522016407
 20
9.539701078555181
 10
7.30966522016407
 20
9.579728239136455
 10
7.30966522016407
 20
9.622052040078949
 10
7.30966522016407
 20
9.665688206942141
 10
7.30966522016407
 20
9.709652465285508
  0
LWPOLYLINE
  5
2692
330
1E
100
AcDbEntity
  8
0
100
AcDbPolyline
 90
       14
 70
     0
 43
0.0
 10
7.35166092962639
 20
9.709652465285508
 10
7.35166092962639
 20
9.665688206942141
 10
7.35166092962639
 20
9.622052040078949
 10
7.35166092962639
 20
9.579728239136455
 10
7.35166092962639
 20
9.539701078555181
 10
7.35166092962639
 20
9.501642466854953
 10
7.35166092962639
 20
9.466864769956469
 10
7.35166092962639
 20
9.435696079339903
 10
7.35166092962639
 20
9.408464486485431
 10
7.35166092962639
 20
9.385498082873224
 10
7.35166092962639
 20
9.367453051463634
 10
7.35166092962639
 20
9.354329392256659
 10
7.35166092962639
 20
9.346455196732474
 10
7.35166092962639
 20
9.343830464891079
  0
LWPOLYLINE
  5
26A2
330
1E
100
AcDbEntity
  8
0
100
AcDbPolyline
 90
       14
 70
     0
 43
0.0
 10
7.35166092962639
 20
10.07580255716011
 10
7.35166092962639
 20
10.07317782531871
 10
7.35166092962639
 20
10.06497553831435
 10
7.35166092962639
 20
10.05185187910738
 10
7.35166092962639
 20
10.03380684769779
 10
7.35166092962639
 20
10.01084044408558
 10
7.35166092962639
 20
9.98360885123111
 10
7.35166092962639
 20
9.952440160614546
 10
7.35166092962639
 20
9.917662463716062
 10
7.35166092962639
 20
9.879931943496009
 10
7.35166092962639
 20
9.83957669143456
 10
7.35166092962639
 20
9.797252890492066
 10
7.35166092962639
 20
9.753944815109047
 10
7.35166092962639
 20
9.709652465285508
  0
LWPOLYLINE
  5
26B2
330
1E
100
AcDbEntity
  8
0
100
AcDbPolyline
 90
        8
 70
     0
 43
0.0
 10
6.593441518943408
 20
9.391403729516362
 10
6.596394342264977
 20
9.366468777023111
 10
6.604596629269336
 20
9.342846190450556
 10
6.618048379956486
 20
9.321848335719396
 10
6.635437228405728
 20
9.30413139578998
 10
6.656763174617062
 20
9.29067964510283
 10
6.680385761189617
 20
9.28247735809847
 10
6.70532071368287
 20
9.2795245347769
  0
LWPOLYLINE
  5
26BC
330
1E
100
AcDbEntity
  8
0
100
AcDbPolyline
 90
        8
 70
     0
 43
0.0
 10
6.70532071368287
 20
10.13978039579411
 10
6.680385761189617
 20
10.13682757247254
 10
6.656763174617062
 20
10.12862528546818
 10
6.635437228405728
 20
10.11517353478103
 10
6.618048379956486
 20
10.09778468633179
 10
6.604596629269336
 20
10.07645874012045
 10
6.596394342264977
 20
10.0528361535479
 10
6.593441518943408
 20
10.02790120105465
  0
LWPOLYLINE
  5
26C6
330
1E
100
AcDbEntity
  8
0
100
AcDbPolyline
 90
        3
 70
     0
 43
0.0
 10
7.263404321459484
 20
9.753944815109047
 10
7.263404321459484
 20
9.709652465285508
 10
7.263404321459484
 20
9.665360115461966
  0
LWPOLYLINE
  5
26CB
330
1E
100
AcDbEntity
  8
0
100
AcDbPolyline
 90
        3
 70
     0
 43
0.0
 10
7.263404321459484
 20
10.13978039579411
 10
7.263404321459484
 20
10.1194387240233
 10
7.263404321459484
 20
10.09548804597057
  0
LWPOLYLINE
  5
26D0
330
1E
100
AcDbEntity
  8
0
100
AcDbPolyline
 90
        3
 70
     0
 43
0.0
 10
7.263404321459484
 20
9.324144976080615
 10
7.263404321459484
 20
9.300194298027886
 10
7.263404321459484
 20
9.2795245347769
  0
LWPOLYLINE
  5
26D5
330
1E
100
AcDbEntity
  8
0
100
AcDbPolyline
 90
        3
 70
     0
 43
0.0
 10
6.84180676943541
 20
9.753944815109047
 10
6.84180676943541
 20
9.709652465285508
 10
6.84180676943541
 20
9.665360115461966
  0
LWPOLYLINE
  5
26DA
330
1E
100
AcDbEntity
  8
0
100
AcDbPolyline
 90
        3
 70
     0
 43
0.0
 10
6.84180676943541
 20
10.13978039579411
 10
6.84180676943541
 20
10.1194387240233
 10
6.84180676943541
 20
10.09548804597057
  0
LWPOLYLINE
  5
26DF
330
1E
100
AcDbEntity
  8
0
100
AcDbPolyline
 90
        3
 70
     0
 43
0.0
 10
6.84180676943541
 20
9.324144976080615
 10
6.84180676943541
 20
9.300194298027886
 10
6.84180676943541
 20
9.2795245347769
  0
LWPOLYLINE
  5
26E4
330
1E
100
AcDbEntity
  8
0
100
AcDbPolyline
 90
       10
 70
     0
 43
0.0
 10
6.816871816942158
 20
9.494752545771291
 10
6.816871816942158
 20
9.452756836308971
 10
6.816871816942158
 20
9.414698224608743
 10
6.816871816942158
 20
9.380248619190433
 10
6.816871816942158
 20
9.350392294494566
 10
6.816871816942158
 20
9.325457342001314
 10
6.816871816942158
 20
9.305443761710677
 10
6.816871816942158
 20
9.291335828063179
 10
6.816871816942158
 20
9.28247735809847
 10
6.816871816942158
 20
9.2795245347769
  0
LWPOLYLINE
  5
26F0
330
1E
100
AcDbEntity
  8
0
100
AcDbPolyline
 90
       10
 70
     0
 43
0.0
 10
6.816871816942158
 20
9.924552384799724
 10
6.816871816942158
 20
9.879931943496009
 10
6.816871816942158
 20
9.833014861831072
 10
6.816871816942158
 20
9.784457322765264
 10
6.816871816942158
 20
9.73458741777876
 10
6.816871816942158
 20
9.684717512792255
 10
6.816871816942158
 20
9.634847607805749
 10
6.816871816942158
 20
9.586290068739941
 10
6.816871816942158
 20
9.539372987075006
 10
6.816871816942158
 20
9.494752545771291
  0
LWPOLYLINE
  5
26FC
330
1E
100
AcDbEntity
  8
0
100
AcDbPolyline
 90
       10
 70
     0
 43
0.0
 10
6.816871816942158
 20
10.13978039579411
 10
6.816871816942158
 20
10.13682757247254
 10
6.816871816942158
 20
10.12796910250783
 10
6.816871816942158
 20
10.11386116886033
 10
6.816871816942158
 20
10.0938475885697
 10
6.816871816942158
 20
10.06891263607645
 10
6.816871816942158
 20
10.03905631138058
 10
6.816871816942158
 20
10.00460670596227
 10
6.816871816942158
 20
9.966548094262044
 10
6.816871816942158
 20
9.924552384799724
  0
LWPOLYLINE
  5
2708
330
1E
100
AcDbEntity
  8
0
100
AcDbPolyline
 90
       15
 70
     0
 43
0.0
 10
6.70532071368287
 20
9.709652465285508
 10
6.70532071368287
 20
9.661423017699874
 10
6.70532071368287
 20
9.613849753074589
 10
6.70532071368287
 20
9.567588854370002
 10
6.70532071368287
 20
9.522968413066287
 10
6.70532071368287
 20
9.480972703603967
 10
6.70532071368287
 20
9.441601725983042
 10
6.70532071368287
 20
9.405511663163862
 10
6.70532071368287
 20
9.373358698106772
 10
6.70532071368287
 20
9.345470922291951
 10
6.70532071368287
 20
9.32217642719957
 10
6.70532071368287
 20
9.303803304309806
 10
6.70532071368287
 20
9.290351553622656
 10
6.70532071368287
 20
9.28247735809847
 10
6.70532071368287
 20
9.2795245347769
  0
LWPOLYLINE
  5
2719
330
1E
100
AcDbEntity
  8
0
100
AcDbPolyline
 90
       15
 70
     0
 43
0.0
 10
6.70532071368287
 20
10.13978039579411
 10
6.70532071368287
 20
10.13682757247254
 10
6.70532071368287
 20
10.12895337694835
 10
6.70532071368287
 20
10.1155016262612
 10
6.70532071368287
 20
10.09712850337144
 10
6.70532071368287
 20
10.07383400827906
 10
6.70532071368287
 20
10.04594623246424
 10
6.70532071368287
 20
10.01379326740715
 10
6.70532071368287
 20
9.977703204587973
 10
6.70532071368287
 20
9.938332226967048
 10
6.70532071368287
 20
9.896336517504726
 10
6.70532071368287
 20
9.851716076201011
 10
6.70532071368287
 20
9.805455177496424
 10
6.70532071368287
 20
9.757881912871141
 10
6.70532071368287
 20
9.709652465285508
  0
LWPOLYLINE
  5
272A
330
1E
100
AcDbEntity
  8
0
100
AcDbPolyline
 90
        3
 70
     0
 43
0.0
 10
7.663675927272222
 20
9.324144976080615
 10
7.663675927272222
 20
9.300194298027886
 10
7.663675927272222
 20
9.2795245347769
  0
LWPOLYLINE
  5
272F
330
1E
100
AcDbEntity
  8
0
100
AcDbPolyline
 90
        3
 70
     0
 43
0.0
 10
7.663675927272222
 20
9.753944815109047
 10
7.663675927272222
 20
9.709652465285508
 10
7.663675927272222
 20
9.665360115461966
  0
LWPOLYLINE
  5
2734
330
1E
100
AcDbEntity
  8
0
100
AcDbPolyline
 90
        3
 70
     0
 43
0.0
 10
7.663675927272222
 20
10.13978039579411
 10
7.663675927272222
 20
10.1194387240233
 10
7.663675927272222
 20
10.09548804597057
  0
LWPOLYLINE
  5
2739
330
1E
100
AcDbEntity
  8
0
100
AcDbPolyline
 90
        3
 70
     0
 43
0.0
 10
7.463540124365852
 20
9.324144976080615
 10
7.463540124365852
 20
9.300194298027886
 10
7.463540124365852
 20
9.2795245347769
  0
LWPOLYLINE
  5
273E
330
1E
100
AcDbEntity
  8
0
100
AcDbPolyline
 90
        3
 70
     0
 43
0.0
 10
7.463540124365852
 20
9.753944815109047
 10
7.463540124365852
 20
9.709652465285508
 10
7.463540124365852
 20
9.665360115461966
  0
LWPOLYLINE
  5
2743
330
1E
100
AcDbEntity
  8
0
100
AcDbPolyline
 90
        3
 70
     0
 43
0.0
 10
7.463540124365852
 20
10.13978039579411
 10
7.463540124365852
 20
10.1194387240233
 10
7.463540124365852
 20
10.09548804597057
  0
LWPOLYLINE
  5
2748
330
1E
100
AcDbEntity
  8
0
100
AcDbPolyline
 90
        5
 70
     0
 43
0.0
 10
8.643685178553083
 20
9.236544550874057
 10
8.662714484403196
 20
9.24048164863615
 10
8.678790966931741
 20
9.251308667481904
 10
8.689946077257669
 20
9.267385150010449
 10
8.693555083539587
 20
9.286742547340736
  0
LWPOLYLINE
  5
274F
330
1E
100
AcDbEntity
  8
0
100
AcDbPolyline
 90
        5
 70
     0
 43
0.0
 10
8.693555083539587
 20
10.13256238323027
 10
8.689946077257669
 20
10.15191978056056
 10
8.678790966931741
 20
10.16799626308911
 10
8.662714484403196
 20
10.17882328193486
 10
8.643685178553083
 20
10.18276037969695
  0
LWPOLYLINE
  5
2756
330
1E
100
AcDbEntity
  8
0
100
AcDbPolyline
 90
        3
 70
     0
 43
0.0
 10
8.443549375646712
 20
9.435696079339903
 10
8.443549375646712
 20
9.473098508079782
 10
8.443549375646712
 20
9.512469485700707
  0
LWPOLYLINE
  5
275B
330
1E
100
AcDbEntity
  8
0
100
AcDbPolyline
 90
        3
 70
     0
 43
0.0
 10
8.443549375646712
 20
9.236544550874057
 10
8.443549375646712
 20
9.237200733834406
 10
8.443549375646712
 20
9.238841191235279
  0
LWPOLYLINE
  5
2760
330
1E
100
AcDbEntity
  8
0
100
AcDbPolyline
 90
        3
 70
     0
 43
0.0
 10
8.443549375646712
 20
10.18046373933573
 10
8.443549375646712
 20
10.1821041967366
 10
8.443549375646712
 20
10.18276037969695
  0
LWPOLYLINE
  5
2765
330
1E
100
AcDbEntity
  8
0
100
AcDbPolyline
 90
        3
 70
     0
 43
0.0
 10
8.443549375646712
 20
9.906835444870306
 10
8.443549375646712
 20
9.946206422491233
 10
8.443549375646712
 20
9.98360885123111
  0
LWPOLYLINE
  5
276A
330
1E
100
AcDbEntity
  8
0
100
AcDbPolyline
 90
        3
 70
     0
 43
0.0
 10
8.643685178553083
 20
9.435696079339903
 10
8.643685178553083
 20
9.473098508079782
 10
8.643685178553083
 20
9.512469485700707
  0
LWPOLYLINE
  5
276F
330
1E
100
AcDbEntity
  8
0
100
AcDbPolyline
 90
        3
 70
     0
 43
0.0
 10
8.643685178553083
 20
9.236544550874057
 10
8.643685178553083
 20
9.237200733834406
 10
8.643685178553083
 20
9.238841191235279
  0
LWPOLYLINE
  5
2774
330
1E
100
AcDbEntity
  8
0
100
AcDbPolyline
 90
        3
 70
     0
 43
0.0
 10
8.643685178553083
 20
10.18046373933573
 10
8.643685178553083
 20
10.1821041967366
 10
8.643685178553083
 20
10.18276037969695
  0
LWPOLYLINE
  5
2779
330
1E
100
AcDbEntity
  8
0
100
AcDbPolyline
 90
        3
 70
     0
 43
0.0
 10
8.643685178553083
 20
9.906835444870306
 10
8.643685178553083
 20
9.946206422491233
 10
8.643685178553083
 20
9.98360885123111
  0
LWPOLYLINE
  5
277E
330
1E
100
AcDbEntity
  8
0
100
AcDbPolyline
 90
       13
 70
     0
 43
0.0
 10
8.053448605719379
 20
9.709652465285508
 10
8.053448605719379
 20
9.753944815109047
 10
8.053448605719379
 20
9.79758098197224
 10
8.053448605719379
 20
9.839904782914734
 10
8.053448605719379
 20
9.879603852015835
 10
8.053448605719379
 20
9.916678189275538
 10
8.053448605719379
 20
9.950143520253325
 10
8.053448605719379
 20
9.979343661988844
 10
8.053448605719379
 20
10.00427861448209
 10
8.053448605719379
 20
10.02396410329255
 10
8.053448605719379
 20
10.03807203694005
 10
8.053448605719379
 20
10.04693050690476
 10
8.053448605719379
 20
10.04955523874616
  0
LWPOLYLINE
  5
278D
330
1E
100
AcDbEntity
  8
0
100
AcDbPolyline
 90
       13
 70
     0
 43
0.0
 10
8.053448605719379
 20
9.369749691824853
 10
8.053448605719379
 20
9.372702515146423
 10
8.053448605719379
 20
9.381232893630958
 10
8.053448605719379
 20
9.39566891875863
 10
8.053448605719379
 20
9.415354407569092
 10
8.053448605719379
 20
9.43996126858217
 10
8.053448605719379
 20
9.46916141031769
 10
8.053448605719379
 20
9.502626741295475
 10
8.053448605719379
 20
9.539701078555181
 10
8.053448605719379
 20
9.579400147656279
 10
8.053448605719379
 20
9.621723948598775
 10
8.053448605719379
 20
9.665360115461966
 10
8.053448605719379
 20
9.709652465285508
  0
LWPOLYLINE
  5
279C
330
1E
100
AcDbEntity
  8
0
100
AcDbPolyline
 90
       14
 70
     0
 43
0.0
 10
7.407436481256034
 20
9.709652465285508
 10
7.407436481256034
 20
9.665688206942141
 10
7.407436481256034
 20
9.622052040078949
 10
7.407436481256034
 20
9.579728239136455
 10
7.407436481256034
 20
9.539701078555181
 10
7.407436481256034
 20
9.501642466854953
 10
7.407436481256034
 20
9.466864769956469
 10
7.407436481256034
 20
9.435696079339903
 10
7.407436481256034
 20
9.408464486485431
 10
7.407436481256034
 20
9.385498082873224
 10
7.407436481256034
 20
9.367453051463634
 10
7.407436481256034
 20
9.354329392256659
 10
7.407436481256034
 20
9.346455196732474
 10
7.407436481256034
 20
9.343830464891079
  0
LWPOLYLINE
  5
27AC
330
1E
100
AcDbEntity
  8
0
100
AcDbPolyline
 90
       14
 70
     0
 43
0.0
 10
7.407436481256034
 20
10.07580255716011
 10
7.407436481256034
 20
10.07317782531871
 10
7.407436481256034
 20
10.06497553831435
 10
7.407436481256034
 20
10.05185187910738
 10
7.407436481256034
 20
10.03380684769779
 10
7.407436481256034
 20
10.01084044408558
 10
7.407436481256034
 20
9.98360885123111
 10
7.407436481256034
 20
9.952440160614546
 10
7.407436481256034
 20
9.917662463716062
 10
7.407436481256034
 20
9.879931943496009
 10
7.407436481256034
 20
9.83957669143456
 10
7.407436481256034
 20
9.797252890492066
 10
7.407436481256034
 20
9.753944815109047
 10
7.407436481256034
 20
9.709652465285508
  0
LWPOLYLINE
  5
27BC
330
1E
100
AcDbEntity
  8
0
100
AcDbPolyline
 90
       14
 70
     0
 43
0.0
 10
7.30966522016407
 20
9.709652465285508
 10
7.30966522016407
 20
9.753944815109047
 10
7.30966522016407
 20
9.797252890492066
 10
7.30966522016407
 20
9.83957669143456
 10
7.30966522016407
 20
9.879931943496009
 10
7.30966522016407
 20
9.917662463716062
 10
7.30966522016407
 20
9.952440160614546
 10
7.30966522016407
 20
9.98360885123111
 10
7.30966522016407
 20
10.01084044408558
 10
7.30966522016407
 20
10.03380684769779
 10
7.30966522016407
 20
10.05185187910738
 10
7.30966522016407
 20
10.06497553831435
 10
7.30966522016407
 20
10.07317782531871
 10
7.30966522016407
 20
10.07580255716011
  0
LWPOLYLINE
  5
27CC
330
1E
100
AcDbEntity
  8
0
100
AcDbPolyline
 90
       14
 70
     0
 43
0.0
 10
7.30966522016407
 20
9.343830464891079
 10
7.30966522016407
 20
9.346455196732474
 10
7.30966522016407
 20
9.354329392256659
 10
7.30966522016407
 20
9.367453051463634
 10
7.30966522016407
 20
9.385498082873224
 10
7.30966522016407
 20
9.408464486485431
 10
7.30966522016407
 20
9.435696079339903
 10
7.30966522016407
 20
9.466864769956469
 10
7.30966522016407
 20
9.501642466854953
 10
7.30966522016407
 20
9.539701078555181
 10
7.30966522016407
 20
9.579728239136455
 10
7.30966522016407
 20
9.622052040078949
 10
7.30966522016407
 20
9.665688206942141
 10
7.30966522016407
 20
9.709652465285508
  0
LWPOLYLINE
  5
27DC
330
1E
100
AcDbEntity
  8
0
100
AcDbPolyline
 90
       14
 70
     0
 43
0.0
 10
7.35166092962639
 20
9.709652465285508
 10
7.35166092962639
 20
9.665688206942141
 10
7.35166092962639
 20
9.622052040078949
 10
7.35166092962639
 20
9.579728239136455
 10
7.35166092962639
 20
9.539701078555181
 10
7.35166092962639
 20
9.501642466854953
 10
7.35166092962639
 20
9.466864769956469
 10
7.35166092962639
 20
9.435696079339903
 10
7.35166092962639
 20
9.408464486485431
 10
7.35166092962639
 20
9.385498082873224
 10
7.35166092962639
 20
9.367453051463634
 10
7.35166092962639
 20
9.354329392256659
 10
7.35166092962639
 20
9.346455196732474
 10
7.35166092962639
 20
9.343830464891079
  0
LWPOLYLINE
  5
27EC
330
1E
100
AcDbEntity
  8
0
100
AcDbPolyline
 90
       14
 70
     0
 43
0.0
 10
7.35166092962639
 20
10.07580255716011
 10
7.35166092962639
 20
10.07317782531871
 10
7.35166092962639
 20
10.06497553831435
 10
7.35166092962639
 20
10.05185187910738
 10
7.35166092962639
 20
10.03380684769779
 10
7.35166092962639
 20
10.01084044408558
 10
7.35166092962639
 20
9.98360885123111
 10
7.35166092962639
 20
9.952440160614546
 10
7.35166092962639
 20
9.917662463716062
 10
7.35166092962639
 20
9.879931943496009
 10
7.35166092962639
 20
9.83957669143456
 10
7.35166092962639
 20
9.797252890492066
 10
7.35166092962639
 20
9.753944815109047
 10
7.35166092962639
 20
9.709652465285508
  0
LWPOLYLINE
  5
27FC
330
1E
100
AcDbEntity
  8
0
100
AcDbPolyline
 90
        8
 70
     0
 43
0.0
 10
6.593441518943408
 20
9.391403729516362
 10
6.596394342264977
 20
9.366468777023111
 10
6.604596629269336
 20
9.342846190450556
 10
6.618048379956486
 20
9.321848335719396
 10
6.635437228405728
 20
9.30413139578998
 10
6.656763174617062
 20
9.29067964510283
 10
6.680385761189617
 20
9.28247735809847
 10
6.70532071368287
 20
9.2795245347769
  0
LWPOLYLINE
  5
2806
330
1E
100
AcDbEntity
  8
0
100
AcDbPolyline
 90
        8
 70
     0
 43
0.0
 10
6.70532071368287
 20
10.13978039579411
 10
6.680385761189617
 20
10.13682757247254
 10
6.656763174617062
 20
10.12862528546818
 10
6.635437228405728
 20
10.11517353478103
 10
6.618048379956486
 20
10.09778468633179
 10
6.604596629269336
 20
10.07645874012045
 10
6.596394342264977
 20
10.0528361535479
 10
6.593441518943408
 20
10.02790120105465
  0
LWPOLYLINE
  5
2810
330
1E
100
AcDbEntity
  8
0
100
AcDbPolyline
 90
        3
 70
     0
 43
0.0
 10
7.263404321459484
 20
9.753944815109047
 10
7.263404321459484
 20
9.709652465285508
 10
7.263404321459484
 20
9.665360115461966
  0
LWPOLYLINE
  5
2815
330
1E
100
AcDbEntity
  8
0
100
AcDbPolyline
 90
        3
 70
     0
 43
0.0
 10
7.263404321459484
 20
10.13978039579411
 10
7.263404321459484
 20
10.1194387240233
 10
7.263404321459484
 20
10.09548804597057
  0
LWPOLYLINE
  5
281A
330
1E
100
AcDbEntity
  8
0
100
AcDbPolyline
 90
        3
 70
     0
 43
0.0
 10
7.263404321459484
 20
9.324144976080615
 10
7.263404321459484
 20
9.300194298027886
 10
7.263404321459484
 20
9.2795245347769
  0
LWPOLYLINE
  5
281F
330
1E
100
AcDbEntity
  8
0
100
AcDbPolyline
 90
        3
 70
     0
 43
0.0
 10
6.84180676943541
 20
9.753944815109047
 10
6.84180676943541
 20
9.709652465285508
 10
6.84180676943541
 20
9.665360115461966
  0
LWPOLYLINE
  5
2824
330
1E
100
AcDbEntity
  8
0
100
AcDbPolyline
 90
        3
 70
     0
 43
0.0
 10
6.84180676943541
 20
10.13978039579411
 10
6.84180676943541
 20
10.1194387240233
 10
6.84180676943541
 20
10.09548804597057
  0
LWPOLYLINE
  5
2829
330
1E
100
AcDbEntity
  8
0
100
AcDbPolyline
 90
        3
 70
     0
 43
0.0
 10
6.84180676943541
 20
9.324144976080615
 10
6.84180676943541
 20
9.300194298027886
 10
6.84180676943541
 20
9.2795245347769
  0
LWPOLYLINE
  5
282E
330
1E
100
AcDbEntity
  8
0
100
AcDbPolyline
 90
       10
 70
     0
 43
0.0
 10
6.816871816942158
 20
9.494752545771291
 10
6.816871816942158
 20
9.452756836308971
 10
6.816871816942158
 20
9.414698224608743
 10
6.816871816942158
 20
9.380248619190433
 10
6.816871816942158
 20
9.350392294494566
 10
6.816871816942158
 20
9.325457342001314
 10
6.816871816942158
 20
9.305443761710677
 10
6.816871816942158
 20
9.291335828063179
 10
6.816871816942158
 20
9.28247735809847
 10
6.816871816942158
 20
9.2795245347769
  0
LWPOLYLINE
  5
283A
330
1E
100
AcDbEntity
  8
0
100
AcDbPolyline
 90
       10
 70
     0
 43
0.0
 10
6.816871816942158
 20
9.924552384799724
 10
6.816871816942158
 20
9.879931943496009
 10
6.816871816942158
 20
9.833014861831072
 10
6.816871816942158
 20
9.784457322765264
 10
6.816871816942158
 20
9.73458741777876
 10
6.816871816942158
 20
9.684717512792255
 10
6.816871816942158
 20
9.634847607805749
 10
6.816871816942158
 20
9.586290068739941
 10
6.816871816942158
 20
9.539372987075006
 10
6.816871816942158
 20
9.494752545771291
  0
LWPOLYLINE
  5
2846
330
1E
100
AcDbEntity
  8
0
100
AcDbPolyline
 90
       10
 70
     0
 43
0.0
 10
6.816871816942158
 20
10.13978039579411
 10
6.816871816942158
 20
10.13682757247254
 10
6.816871816942158
 20
10.12796910250783
 10
6.816871816942158
 20
10.11386116886033
 10
6.816871816942158
 20
10.0938475885697
 10
6.816871816942158
 20
10.06891263607645
 10
6.816871816942158
 20
10.03905631138058
 10
6.816871816942158
 20
10.00460670596227
 10
6.816871816942158
 20
9.966548094262044
 10
6.816871816942158
 20
9.924552384799724
  0
LWPOLYLINE
  5
2852
330
1E
100
AcDbEntity
  8
0
100
AcDbPolyline
 90
       15
 70
     0
 43
0.0
 10
6.70532071368287
 20
9.709652465285508
 10
6.70532071368287
 20
9.661423017699874
 10
6.70532071368287
 20
9.613849753074589
 10
6.70532071368287
 20
9.567588854370002
 10
6.70532071368287
 20
9.522968413066287
 10
6.70532071368287
 20
9.480972703603967
 10
6.70532071368287
 20
9.441601725983042
 10
6.70532071368287
 20
9.405511663163862
 10
6.70532071368287
 20
9.373358698106772
 10
6.70532071368287
 20
9.345470922291951
 10
6.70532071368287
 20
9.32217642719957
 10
6.70532071368287
 20
9.303803304309806
 10
6.70532071368287
 20
9.290351553622656
 10
6.70532071368287
 20
9.28247735809847
 10
6.70532071368287
 20
9.2795245347769
  0
LWPOLYLINE
  5
2863
330
1E
100
AcDbEntity
  8
0
100
AcDbPolyline
 90
       15
 70
     0
 43
0.0
 10
6.70532071368287
 20
10.13978039579411
 10
6.70532071368287
 20
10.13682757247254
 10
6.70532071368287
 20
10.12895337694835
 10
6.70532071368287
 20
10.1155016262612
 10
6.70532071368287
 20
10.09712850337144
 10
6.70532071368287
 20
10.07383400827906
 10
6.70532071368287
 20
10.04594623246424
 10
6.70532071368287
 20
10.01379326740715
 10
6.70532071368287
 20
9.977703204587973
 10
6.70532071368287
 20
9.938332226967048
 10
6.70532071368287
 20
9.896336517504726
 10
6.70532071368287
 20
9.851716076201011
 10
6.70532071368287
 20
9.805455177496424
 10
6.70532071368287
 20
9.757881912871141
 10
6.70532071368287
 20
9.709652465285508
  0
LWPOLYLINE
  5
2874
330
1E
100
AcDbEntity
  8
0
100
AcDbPolyline
 90
       25
 70
     0
 43
0.0
 10
8.643685178553083
 20
9.512469485700707
 10
8.65024700815657
 20
9.513781851621406
 10
8.656480746279882
 20
9.516734674942973
 10
8.661730209962673
 20
9.520999864185242
 10
8.666323490685114
 20
9.525921236387857
 10
8.673541503248952
 20
9.537732529674133
 10
8.678790966931741
 20
9.550200005920761
 10
8.685680888015401
 20
9.576119232854537
 10
8.689289894297321
 20
9.602694642748661
 10
8.69158653465854
 20
9.62959814412296
 10
8.692570809099064
 20
9.656173554017083
 10
8.692898900579239
 20
9.683077055391382
 10
8.693226992059413
 20
9.709980556765682
 10
8.692898900579239
 20
9.736884058139981
 10
8.692570809099064
 20
9.76378755951428
 10
8.69158653465854
 20
9.790362969408404
 10
8.689289894297321
 20
9.817266470782703
 10
8.685352796535227
 20
9.843841880676826
 10
8.678462875451565
 20
9.869761107610603
 10
8.673213411768776
 20
9.88222858385723
 10
8.665995399204939
 20
9.893711785663331
 10
8.661730209962673
 20
9.898633157865948
 10
8.656152654799708
 20
9.902898347108214
 10
8.65024700815657
 20
9.90552307894961
 10
8.643685178553083
 20
9.906835444870306
  0
LWPOLYLINE
  5
288F
330
1E
100
AcDbEntity
  8
0
100
AcDbPolyline
 90
       25
 70
     0
 43
0.0
 10
8.643685178553083
 20
9.238841191235279
 10
8.65024700815657
 20
9.239169282715453
 10
8.656480746279882
 20
9.240809740116324
 10
8.661730209962673
 20
9.242778288997371
 10
8.666323490685114
 20
9.245403020838766
 10
8.673541503248952
 20
9.251308667481904
 10
8.678790966931741
 20
9.257542405605217
 10
8.685680888015401
 20
9.270666064812193
 10
8.689289894297321
 20
9.283789724019168
 10
8.69158653465854
 20
9.297241474706318
 10
8.692570809099064
 20
9.310693225393467
 10
8.692898900579239
 20
9.324144976080615
 10
8.693226992059413
 20
9.337596726767765
 10
8.692898900579239
 20
9.35072038597474
 10
8.692570809099064
 20
9.36417213666189
 10
8.69158653465854
 20
9.377623887349038
 10
8.689289894297321
 20
9.391075638036188
 10
8.685352796535227
 20
9.404527388723337
 10
8.678462875451565
 20
9.417322956450139
 10
8.673213411768776
 20
9.423556694573452
 10
8.665995399204939
 20
9.429134249736417
 10
8.661730209962673
 20
9.431758981577811
 10
8.656480746279882
 20
9.433727530458858
 10
8.65024700815657
 20
9.435367987859729
 10
8.643685178553083
 20
9.435696079339903
  0
LWPOLYLINE
  5
28AA
330
1E
100
AcDbEntity
  8
0
100
AcDbPolyline
 90
       25
 70
     0
 43
0.0
 10
8.643685178553083
 20
9.98360885123111
 10
8.65024700815657
 20
9.98426503419146
 10
8.656480746279882
 20
9.985577400112157
 10
8.661730209962673
 20
9.987874040473379
 10
8.666323490685114
 20
9.990170680834598
 10
8.673541503248952
 20
9.996076327477737
 10
8.678790966931741
 20
10.00231006560105
 10
8.685680888015401
 20
10.01543372480802
 10
8.689289894297321
 20
10.02855738401499
 10
8.69158653465854
 20
10.04200913470215
 10
8.692570809099064
 20
10.0554608853893
 10
8.692898900579239
 20
10.06891263607645
 10
8.693226992059413
 20
10.0823643867636
 10
8.692898900579239
 20
10.09581613745074
 10
8.692570809099064
 20
10.10893979665772
 10
8.69158653465854
 20
10.12239154734487
 10
8.689289894297321
 20
10.13584329803202
 10
8.685352796535227
 20
10.14929504871917
 10
8.678462875451565
 20
10.16209061644597
 10
8.673213411768776
 20
10.16832435456928
 10
8.665995399204939
 20
10.17390190973225
 10
8.661730209962673
 20
10.17652664157364
 10
8.656480746279882
 20
10.17849519045469
 10
8.65024700815657
 20
10.18013564785556
 10
8.643685178553083
 20
10.18046373933573
  0
LWPOLYLINE
  5
28C5
330
1E
100
AcDbEntity
  8
0
100
AcDbPolyline
 90
       19
 70
     0
 43
0.0
 10
8.693555083539587
 20
9.286742547340736
 10
8.693555083539587
 20
9.289367279182132
 10
8.693555083539587
 20
9.296913383226142
 10
8.693555083539587
 20
9.309380859472769
 10
8.693555083539587
 20
9.326441616441837
 10
8.693555083539587
 20
9.347111379692822
 10
8.693555083539587
 20
9.371390149225726
 10
8.693555083539587
 20
9.39796555911985
 10
8.693555083539587
 20
9.426181426414846
 10
8.693555083539587
 20
9.45570965963054
 10
8.693555083539587
 20
9.486222167286758
 10
8.693555083539587
 20
9.516734674942973
 10
8.693555083539587
 20
9.546919091119017
 10
8.693555083539587
 20
9.576775415814886
 10
8.693555083539587
 20
9.60564746607023
 10
8.693555083539587
 20
9.633535241885052
 10
8.693555083539587
 20
9.660110651779177
 10
8.693555083539587
 20
9.685373695752604
 10
8.693555083539587
 20
9.709652465285508
  0
LWPOLYLINE
  5
28DA
330
1E
100
AcDbEntity
  8
0
100
AcDbPolyline
 90
       16
 70
     0
 43
0.0
 10
8.693555083539587
 20
9.709652465285508
 10
8.693555083539587
 20
9.750335808827131
 10
8.693555083539587
 20
9.792003426809277
 10
8.693555083539587
 20
9.833999136271597
 10
8.693555083539587
 20
9.875666754253741
 10
8.693555083539587
 20
9.916678189275538
 10
8.693555083539587
 20
9.955392983936114
 10
8.693555083539587
 20
9.991811138235471
 10
8.693555083539587
 20
10.02494837773308
 10
8.693555083539587
 20
10.05382042798842
 10
8.693555083539587
 20
10.07875538048168
 10
8.693555083539587
 20
10.09876896077231
 10
8.693555083539587
 20
10.11386116886033
 10
8.693555083539587
 20
10.12468818770609
 10
8.693555083539587
 20
10.13059383434923
 10
8.693555083539587
 20
10.13256238323027
  0
LWPOLYLINE
  5
28EC
330
1E
100
AcDbEntity
  8
0
100
AcDbPolyline
 90
        5
 70
     0
 43
0.0
 10
6.816871816942158
 20
9.494752545771291
 10
6.81851227434303
 20
9.451444470388274
 10
6.823433646545645
 20
9.408792577965606
 10
6.83130784206983
 20
9.366140685542937
 10
6.84180676943541
 20
9.324144976080615
  0
LWPOLYLINE
  5
28F3
330
1E
100
AcDbEntity
  8
0
100
AcDbPolyline
 90
        5
 70
     0
 43
0.0
 10
6.84180676943541
 20
9.665360115461966
 10
6.83130784206983
 20
9.623036314519472
 10
6.823433646545645
 20
9.580712513576978
 10
6.81851227434303
 20
9.537732529674133
 10
6.816871816942158
 20
9.494752545771291
  0
LWPOLYLINE
  5
28FA
330
1E
100
AcDbEntity
  8
0
100
AcDbPolyline
 90
        5
 70
     0
 43
0.0
 10
6.816871816942158
 20
9.924552384799724
 10
6.81851227434303
 20
9.88157240089688
 10
6.823433646545645
 20
9.838592416994037
 10
6.83130784206983
 20
9.796268616051543
 10
6.84180676943541
 20
9.753944815109047
  0
LWPOLYLINE
  5
2901
330
1E
100
AcDbEntity
  8
0
100
AcDbPolyline
 90
        5
 70
     0
 43
0.0
 10
6.84180676943541
 20
10.09548804597057
 10
6.83130784206983
 20
10.05316424502807
 10
6.823433646545645
 20
10.0105123526054
 10
6.81851227434303
 20
9.967860460182741
 10
6.816871816942158
 20
9.924552384799724
  0
LWPOLYLINE
  5
2908
330
1E
100
AcDbEntity
  8
0
100
AcDbPolyline
 90
        4
 70
     0
 43
0.0
 10
6.816871816942158
 20
10.13978039579411
 10
6.819824640263727
 20
10.13978039579411
 10
6.828355018748261
 20
10.13978039579411
 10
6.84180676943541
 20
10.13978039579411
  0
LWPOLYLINE
  5
290E
330
1E
100
AcDbEntity
  8
0
100
AcDbPolyline
 90
        4
 70
     0
 43
0.0
 10
6.84180676943541
 20
9.2795245347769
 10
6.828355018748261
 20
9.2795245347769
 10
6.819824640263727
 20
9.2795245347769
 10
6.816871816942158
 20
9.2795245347769
  0
LWPOLYLINE
  5
2914
330
1E
100
AcDbEntity
  8
0
100
AcDbPolyline
 90
        5
 70
     0
 43
0.0
 10
6.593441518943408
 20
9.434055621939032
 10
6.593441518943408
 20
9.415682499049268
 10
6.593441518943408
 20
9.402230748362118
 10
6.593441518943408
 20
9.394028461357757
 10
6.593441518943408
 20
9.391403729516362
  0
LWPOLYLINE
  5
291B
330
1E
100
AcDbEntity
  8
0
100
AcDbPolyline
 90
       25
 70
     0
 43
0.0
 10
8.643685178553083
 20
9.512469485700707
 10
8.65024700815657
 20
9.513781851621406
 10
8.656480746279882
 20
9.516734674942973
 10
8.661730209962673
 20
9.520999864185242
 10
8.666323490685114
 20
9.525921236387857
 10
8.673541503248952
 20
9.537732529674133
 10
8.678790966931741
 20
9.550200005920761
 10
8.685680888015401
 20
9.576119232854537
 10
8.689289894297321
 20
9.602694642748661
 10
8.69158653465854
 20
9.62959814412296
 10
8.692570809099064
 20
9.656173554017083
 10
8.692898900579239
 20
9.683077055391382
 10
8.693226992059413
 20
9.709980556765682
 10
8.692898900579239
 20
9.736884058139981
 10
8.692570809099064
 20
9.76378755951428
 10
8.69158653465854
 20
9.790362969408404
 10
8.689289894297321
 20
9.817266470782703
 10
8.685352796535227
 20
9.843841880676826
 10
8.678462875451565
 20
9.869761107610603
 10
8.673213411768776
 20
9.88222858385723
 10
8.665995399204939
 20
9.893711785663331
 10
8.661730209962673
 20
9.898633157865948
 10
8.656152654799708
 20
9.902898347108214
 10
8.65024700815657
 20
9.90552307894961
 10
8.643685178553083
 20
9.906835444870306
  0
LWPOLYLINE
  5
2936
330
1E
100
AcDbEntity
  8
0
100
AcDbPolyline
 90
       25
 70
     0
 43
0.0
 10
8.643685178553083
 20
9.238841191235279
 10
8.65024700815657
 20
9.239169282715453
 10
8.656480746279882
 20
9.240809740116324
 10
8.661730209962673
 20
9.242778288997371
 10
8.666323490685114
 20
9.245403020838766
 10
8.673541503248952
 20
9.251308667481904
 10
8.678790966931741
 20
9.257542405605217
 10
8.685680888015401
 20
9.270666064812193
 10
8.689289894297321
 20
9.283789724019168
 10
8.69158653465854
 20
9.297241474706318
 10
8.692570809099064
 20
9.310693225393467
 10
8.692898900579239
 20
9.324144976080615
 10
8.693226992059413
 20
9.337596726767765
 10
8.692898900579239
 20
9.35072038597474
 10
8.692570809099064
 20
9.36417213666189
 10
8.69158653465854
 20
9.377623887349038
 10
8.689289894297321
 20
9.391075638036188
 10
8.685352796535227
 20
9.404527388723337
 10
8.678462875451565
 20
9.417322956450139
 10
8.673213411768776
 20
9.423556694573452
 10
8.665995399204939
 20
9.429134249736417
 10
8.661730209962673
 20
9.431758981577811
 10
8.656480746279882
 20
9.433727530458858
 10
8.65024700815657
 20
9.435367987859729
 10
8.643685178553083
 20
9.435696079339903
  0
LWPOLYLINE
  5
2951
330
1E
100
AcDbEntity
  8
0
100
AcDbPolyline
 90
       25
 70
     0
 43
0.0
 10
8.643685178553083
 20
9.98360885123111
 10
8.65024700815657
 20
9.98426503419146
 10
8.656480746279882
 20
9.985577400112157
 10
8.661730209962673
 20
9.987874040473379
 10
8.666323490685114
 20
9.990170680834598
 10
8.673541503248952
 20
9.996076327477737
 10
8.678790966931741
 20
10.00231006560105
 10
8.685680888015401
 20
10.01543372480802
 10
8.689289894297321
 20
10.02855738401499
 10
8.69158653465854
 20
10.04200913470215
 10
8.692570809099064
 20
10.0554608853893
 10
8.692898900579239
 20
10.06891263607645
 10
8.693226992059413
 20
10.0823643867636
 10
8.692898900579239
 20
10.09581613745074
 10
8.692570809099064
 20
10.10893979665772
 10
8.69158653465854
 20
10.12239154734487
 10
8.689289894297321
 20
10.13584329803202
 10
8.685352796535227
 20
10.14929504871917
 10
8.678462875451565
 20
10.16209061644597
 10
8.673213411768776
 20
10.16832435456928
 10
8.665995399204939
 20
10.17390190973225
 10
8.661730209962673
 20
10.17652664157364
 10
8.656480746279882
 20
10.17849519045469
 10
8.65024700815657
 20
10.18013564785556
 10
8.643685178553083
 20
10.18046373933573
  0
LWPOLYLINE
  5
296C
330
1E
100
AcDbEntity
  8
0
100
AcDbPolyline
 90
       19
 70
     0
 43
0.0
 10
8.693555083539587
 20
9.286742547340736
 10
8.693555083539587
 20
9.289367279182132
 10
8.693555083539587
 20
9.296913383226142
 10
8.693555083539587
 20
9.309380859472769
 10
8.693555083539587
 20
9.326441616441837
 10
8.693555083539587
 20
9.347111379692822
 10
8.693555083539587
 20
9.371390149225726
 10
8.693555083539587
 20
9.39796555911985
 10
8.693555083539587
 20
9.426181426414846
 10
8.693555083539587
 20
9.45570965963054
 10
8.693555083539587
 20
9.486222167286758
 10
8.693555083539587
 20
9.516734674942973
 10
8.693555083539587
 20
9.546919091119017
 10
8.693555083539587
 20
9.576775415814886
 10
8.693555083539587
 20
9.60564746607023
 10
8.693555083539587
 20
9.633535241885052
 10
8.693555083539587
 20
9.660110651779177
 10
8.693555083539587
 20
9.685373695752604
 10
8.693555083539587
 20
9.709652465285508
  0
LWPOLYLINE
  5
2981
330
1E
100
AcDbEntity
  8
0
100
AcDbPolyline
 90
       16
 70
     0
 43
0.0
 10
8.693555083539587
 20
9.709652465285508
 10
8.693555083539587
 20
9.750335808827131
 10
8.693555083539587
 20
9.792003426809277
 10
8.693555083539587
 20
9.833999136271597
 10
8.693555083539587
 20
9.875666754253741
 10
8.693555083539587
 20
9.916678189275538
 10
8.693555083539587
 20
9.955392983936114
 10
8.693555083539587
 20
9.991811138235471
 10
8.693555083539587
 20
10.02494837773308
 10
8.693555083539587
 20
10.05382042798842
 10
8.693555083539587
 20
10.07875538048168
 10
8.693555083539587
 20
10.09876896077231
 10
8.693555083539587
 20
10.11386116886033
 10
8.693555083539587
 20
10.12468818770609
 10
8.693555083539587
 20
10.13059383434923
 10
8.693555083539587
 20
10.13256238323027
  0
LWPOLYLINE
  5
2993
330
1E
100
AcDbEntity
  8
0
100
AcDbPolyline
 90
        5
 70
     0
 43
0.0
 10
6.816871816942158
 20
9.494752545771291
 10
6.81851227434303
 20
9.451444470388274
 10
6.823433646545645
 20
9.408792577965606
 10
6.83130784206983
 20
9.366140685542937
 10
6.84180676943541
 20
9.324144976080615
  0
LWPOLYLINE
  5
299A
330
1E
100
AcDbEntity
  8
0
100
AcDbPolyline
 90
        5
 70
     0
 43
0.0
 10
6.84180676943541
 20
9.665360115461966
 10
6.83130784206983
 20
9.623036314519472
 10
6.823433646545645
 20
9.580712513576978
 10
6.81851227434303
 20
9.537732529674133
 10
6.816871816942158
 20
9.494752545771291
  0
LWPOLYLINE
  5
29A1
330
1E
100
AcDbEntity
  8
0
100
AcDbPolyline
 90
        5
 70
     0
 43
0.0
 10
6.816871816942158
 20
9.924552384799724
 10
6.81851227434303
 20
9.88157240089688
 10
6.823433646545645
 20
9.838592416994037
 10
6.83130784206983
 20
9.796268616051543
 10
6.84180676943541
 20
9.753944815109047
  0
LWPOLYLINE
  5
29A8
330
1E
100
AcDbEntity
  8
0
100
AcDbPolyline
 90
        5
 70
     0
 43
0.0
 10
6.84180676943541
 20
10.09548804597057
 10
6.83130784206983
 20
10.05316424502807
 10
6.823433646545645
 20
10.0105123526054
 10
6.81851227434303
 20
9.967860460182741
 10
6.816871816942158
 20
9.924552384799724
  0
LWPOLYLINE
  5
29AF
330
1E
100
AcDbEntity
  8
0
100
AcDbPolyline
 90
        4
 70
     0
 43
0.0
 10
6.816871816942158
 20
10.13978039579411
 10
6.819824640263727
 20
10.13978039579411
 10
6.828355018748261
 20
10.13978039579411
 10
6.84180676943541
 20
10.13978039579411
  0
LWPOLYLINE
  5
29B5
330
1E
100
AcDbEntity
  8
0
100
AcDbPolyline
 90
        4
 70
     0
 43
0.0
 10
6.84180676943541
 20
9.2795245347769
 10
6.828355018748261
 20
9.2795245347769
 10
6.819824640263727
 20
9.2795245347769
 10
6.816871816942158
 20
9.2795245347769
  0
LWPOLYLINE
  5
29BB
330
1E
100
AcDbEntity
  8
0
100
AcDbPolyline
 90
        5
 70
     0
 43
0.0
 10
6.593441518943408
 20
9.434055621939032
 10
6.593441518943408
 20
9.415682499049268
 10
6.593441518943408
 20
9.402230748362118
 10
6.593441518943408
 20
9.394028461357757
 10
6.593441518943408
 20
9.391403729516362
  0
LWPOLYLINE
  5
29C2
330
1E
100
AcDbEntity
  8
0
100
AcDbPolyline
 90
       25
 70
     0
 43
0.0
 10
8.643685178553083
 20
9.512469485700707
 10
8.65024700815657
 20
9.513781851621406
 10
8.656480746279882
 20
9.516734674942973
 10
8.661730209962673
 20
9.520999864185242
 10
8.666323490685114
 20
9.525921236387857
 10
8.673541503248952
 20
9.537732529674133
 10
8.678790966931741
 20
9.550200005920761
 10
8.685680888015401
 20
9.576119232854537
 10
8.689289894297321
 20
9.602694642748661
 10
8.69158653465854
 20
9.62959814412296
 10
8.692570809099064
 20
9.656173554017083
 10
8.692898900579239
 20
9.683077055391382
 10
8.693226992059413
 20
9.709980556765682
 10
8.692898900579239
 20
9.736884058139981
 10
8.692570809099064
 20
9.76378755951428
 10
8.69158653465854
 20
9.790362969408404
 10
8.689289894297321
 20
9.817266470782703
 10
8.685352796535227
 20
9.843841880676826
 10
8.678462875451565
 20
9.869761107610603
 10
8.673213411768776
 20
9.88222858385723
 10
8.665995399204939
 20
9.893711785663331
 10
8.661730209962673
 20
9.898633157865948
 10
8.656152654799708
 20
9.902898347108214
 10
8.65024700815657
 20
9.90552307894961
 10
8.643685178553083
 20
9.906835444870306
  0
LWPOLYLINE
  5
29DD
330
1E
100
AcDbEntity
  8
0
100
AcDbPolyline
 90
       25
 70
     0
 43
0.0
 10
8.643685178553083
 20
9.238841191235279
 10
8.65024700815657
 20
9.239169282715453
 10
8.656480746279882
 20
9.240809740116324
 10
8.661730209962673
 20
9.242778288997371
 10
8.666323490685114
 20
9.245403020838766
 10
8.673541503248952
 20
9.251308667481904
 10
8.678790966931741
 20
9.257542405605217
 10
8.685680888015401
 20
9.270666064812193
 10
8.689289894297321
 20
9.283789724019168
 10
8.69158653465854
 20
9.297241474706318
 10
8.692570809099064
 20
9.310693225393467
 10
8.692898900579239
 20
9.324144976080615
 10
8.693226992059413
 20
9.337596726767765
 10
8.692898900579239
 20
9.35072038597474
 10
8.692570809099064
 20
9.36417213666189
 10
8.69158653465854
 20
9.377623887349038
 10
8.689289894297321
 20
9.391075638036188
 10
8.685352796535227
 20
9.404527388723337
 10
8.678462875451565
 20
9.417322956450139
 10
8.673213411768776
 20
9.423556694573452
 10
8.665995399204939
 20
9.429134249736417
 10
8.661730209962673
 20
9.431758981577811
 10
8.656480746279882
 20
9.433727530458858
 10
8.65024700815657
 20
9.435367987859729
 10
8.643685178553083
 20
9.435696079339903
  0
LWPOLYLINE
  5
29F8
330
1E
100
AcDbEntity
  8
0
100
AcDbPolyline
 90
       25
 70
     0
 43
0.0
 10
8.643685178553083
 20
9.98360885123111
 10
8.65024700815657
 20
9.98426503419146
 10
8.656480746279882
 20
9.985577400112157
 10
8.661730209962673
 20
9.987874040473379
 10
8.666323490685114
 20
9.990170680834598
 10
8.673541503248952
 20
9.996076327477737
 10
8.678790966931741
 20
10.00231006560105
 10
8.685680888015401
 20
10.01543372480802
 10
8.689289894297321
 20
10.02855738401499
 10
8.69158653465854
 20
10.04200913470215
 10
8.692570809099064
 20
10.0554608853893
 10
8.692898900579239
 20
10.06891263607645
 10
8.693226992059413
 20
10.0823643867636
 10
8.692898900579239
 20
10.09581613745074
 10
8.692570809099064
 20
10.10893979665772
 10
8.69158653465854
 20
10.12239154734487
 10
8.689289894297321
 20
10.13584329803202
 10
8.685352796535227
 20
10.14929504871917
 10
8.678462875451565
 20
10.16209061644597
 10
8.673213411768776
 20
10.16832435456928
 10
8.665995399204939
 20
10.17390190973225
 10
8.661730209962673
 20
10.17652664157364
 10
8.656480746279882
 20
10.17849519045469
 10
8.65024700815657
 20
10.18013564785556
 10
8.643685178553083
 20
10.18046373933573
  0
LWPOLYLINE
  5
2A13
330
1E
100
AcDbEntity
  8
0
100
AcDbPolyline
 90
       19
 70
     0
 43
0.0
 10
8.693555083539587
 20
9.286742547340736
 10
8.693555083539587
 20
9.289367279182132
 10
8.693555083539587
 20
9.296913383226142
 10
8.693555083539587
 20
9.309380859472769
 10
8.693555083539587
 20
9.326441616441837
 10
8.693555083539587
 20
9.347111379692822
 10
8.693555083539587
 20
9.371390149225726
 10
8.693555083539587
 20
9.39796555911985
 10
8.693555083539587
 20
9.426181426414846
 10
8.693555083539587
 20
9.45570965963054
 10
8.693555083539587
 20
9.486222167286758
 10
8.693555083539587
 20
9.516734674942973
 10
8.693555083539587
 20
9.546919091119017
 10
8.693555083539587
 20
9.576775415814886
 10
8.693555083539587
 20
9.60564746607023
 10
8.693555083539587
 20
9.633535241885052
 10
8.693555083539587
 20
9.660110651779177
 10
8.693555083539587
 20
9.685373695752604
 10
8.693555083539587
 20
9.709652465285508
  0
LWPOLYLINE
  5
2A28
330
1E
100
AcDbEntity
  8
0
100
AcDbPolyline
 90
       16
 70
     0
 43
0.0
 10
8.693555083539587
 20
9.709652465285508
 10
8.693555083539587
 20
9.750335808827131
 10
8.693555083539587
 20
9.792003426809277
 10
8.693555083539587
 20
9.833999136271597
 10
8.693555083539587
 20
9.875666754253741
 10
8.693555083539587
 20
9.916678189275538
 10
8.693555083539587
 20
9.955392983936114
 10
8.693555083539587
 20
9.991811138235471
 10
8.693555083539587
 20
10.02494837773308
 10
8.693555083539587
 20
10.05382042798842
 10
8.693555083539587
 20
10.07875538048168
 10
8.693555083539587
 20
10.09876896077231
 10
8.693555083539587
 20
10.11386116886033
 10
8.693555083539587
 20
10.12468818770609
 10
8.693555083539587
 20
10.13059383434923
 10
8.693555083539587
 20
10.13256238323027
  0
LWPOLYLINE
  5
2A3A
330
1E
100
AcDbEntity
  8
0
100
AcDbPolyline
 90
        5
 70
     0
 43
0.0
 10
6.816871816942158
 20
9.494752545771291
 10
6.81851227434303
 20
9.451444470388274
 10
6.823433646545645
 20
9.408792577965606
 10
6.83130784206983
 20
9.366140685542937
 10
6.84180676943541
 20
9.324144976080615
  0
LWPOLYLINE
  5
2A41
330
1E
100
AcDbEntity
  8
0
100
AcDbPolyline
 90
        5
 70
     0
 43
0.0
 10
6.84180676943541
 20
9.665360115461966
 10
6.83130784206983
 20
9.623036314519472
 10
6.823433646545645
 20
9.580712513576978
 10
6.81851227434303
 20
9.537732529674133
 10
6.816871816942158
 20
9.494752545771291
  0
LWPOLYLINE
  5
2A48
330
1E
100
AcDbEntity
  8
0
100
AcDbPolyline
 90
        5
 70
     0
 43
0.0
 10
6.816871816942158
 20
9.924552384799724
 10
6.81851227434303
 20
9.88157240089688
 10
6.823433646545645
 20
9.838592416994037
 10
6.83130784206983
 20
9.796268616051543
 10
6.84180676943541
 20
9.753944815109047
  0
LWPOLYLINE
  5
2A4F
330
1E
100
AcDbEntity
  8
0
100
AcDbPolyline
 90
        5
 70
     0
 43
0.0
 10
6.84180676943541
 20
10.09548804597057
 10
6.83130784206983
 20
10.05316424502807
 10
6.823433646545645
 20
10.0105123526054
 10
6.81851227434303
 20
9.967860460182741
 10
6.816871816942158
 20
9.924552384799724
  0
LWPOLYLINE
  5
2A56
330
1E
100
AcDbEntity
  8
0
100
AcDbPolyline
 90
        4
 70
     0
 43
0.0
 10
6.816871816942158
 20
10.13978039579411
 10
6.819824640263727
 20
10.13978039579411
 10
6.828355018748261
 20
10.13978039579411
 10
6.84180676943541
 20
10.13978039579411
  0
LWPOLYLINE
  5
2A5C
330
1E
100
AcDbEntity
  8
0
100
AcDbPolyline
 90
        4
 70
     0
 43
0.0
 10
6.84180676943541
 20
9.2795245347769
 10
6.828355018748261
 20
9.2795245347769
 10
6.819824640263727
 20
9.2795245347769
 10
6.816871816942158
 20
9.2795245347769
  0
LWPOLYLINE
  5
2A62
330
1E
100
AcDbEntity
  8
0
100
AcDbPolyline
 90
        5
 70
     0
 43
0.0
 10
6.593441518943408
 20
9.434055621939032
 10
6.593441518943408
 20
9.415682499049268
 10
6.593441518943408
 20
9.402230748362118
 10
6.593441518943408
 20
9.394028461357757
 10
6.593441518943408
 20
9.391403729516362
  0
LWPOLYLINE
  5
2A69
330
1E
100
AcDbEntity
  8
0
100
AcDbPolyline
 90
       15
 70
     0
 43
0.0
 10
8.693555083539587
 20
9.286742547340736
 10
8.693555083539587
 20
9.289695370662307
 10
8.693555083539587
 20
9.299538115067537
 10
8.693555083539587
 20
9.316270780556431
 10
8.693555083539587
 20
9.333987720485847
 10
8.693555083539587
 20
9.355641758177355
 10
8.693555083539587
 20
9.381232893630958
 10
8.693555083539587
 20
9.410433035366477
 10
8.693555083539587
 20
9.442914091903741
 10
8.693555083539587
 20
9.478347971762573
 10
8.693555083539587
 20
9.515422309022277
 10
8.693555083539587
 20
9.553809012202679
 10
8.693555083539587
 20
9.606303649030579
 10
8.693555083539587
 20
9.658470194378304
 10
8.693555083539587
 20
9.709652465285508
  0
LWPOLYLINE
  5
2A7A
330
1E
100
AcDbEntity
  8
0
100
AcDbPolyline
 90
       15
 70
     0
 43
0.0
 10
8.693555083539587
 20
9.709652465285508
 10
8.693555083539587
 20
9.760834736192709
 10
8.693555083539587
 20
9.813001281540437
 10
8.693555083539587
 20
9.865495918368337
 10
8.693555083539587
 20
9.903882621548738
 10
8.693555083539587
 20
9.941285050288616
 10
8.693555083539587
 20
9.976390838667274
 10
8.693555083539587
 20
10.00887189520453
 10
8.693555083539587
 20
10.03807203694005
 10
8.693555083539587
 20
10.06366317239365
 10
8.693555083539587
 20
10.08531721008516
 10
8.693555083539587
 20
10.10303415001458
 10
8.693555083539587
 20
10.11976681550347
 10
8.693555083539587
 20
10.1296095599087
 10
8.693555083539587
 20
10.13256238323027
  0
LWPOLYLINE
  5
2A8B
330
1E
100
AcDbEntity
  8
0
100
AcDbPolyline
 90
       19
 70
     0
 43
0.0
 10
8.643685178553083
 20
9.512469485700707
 10
8.650903191116919
 20
9.51410994310158
 10
8.659105478121277
 20
9.518703223824021
 10
8.668620131046335
 20
9.529202151189601
 10
8.675181960649823
 20
9.541669627436228
 10
8.680103332852437
 20
9.554793286643201
 10
8.688633711336972
 20
9.592851898343429
 10
8.691914626138714
 20
9.631566693004007
 10
8.692898900579239
 20
9.670609579144755
 10
8.693226992059413
 20
9.709652465285508
 10
8.692570809099064
 20
9.759850461752186
 10
8.689946077257669
 20
9.809720366738691
 10
8.685680888015401
 20
9.842857606236304
 10
8.68108760729296
 20
9.86123072912607
 10
8.674853869169648
 20
9.878947669055484
 10
8.667963948085986
 20
9.891087053821937
 10
8.658121203680755
 20
9.901585981187517
 10
8.650903191116919
 20
9.90552307894961
 10
8.643685178553083
 20
9.906835444870306
  0
LWPOLYLINE
  5
2AA0
330
1E
100
AcDbEntity
  8
0
100
AcDbPolyline
 90
        3
 70
     0
 43
0.0
 10
8.643685178553083
 20
9.435696079339903
 10
8.643685178553083
 20
9.473098508079782
 10
8.643685178553083
 20
9.512469485700707
  0
LWPOLYLINE
  5
2AA5
330
1E
100
AcDbEntity
  8
0
100
AcDbPolyline
 90
       19
 70
     0
 43
0.0
 10
8.643685178553083
 20
9.238841191235279
 10
8.650903191116919
 20
9.239497374195627
 10
8.659105478121277
 20
9.241794014556848
 10
8.668620131046335
 20
9.247043478239637
 10
8.675181960649823
 20
9.253277216362951
 10
8.680103332852437
 20
9.259839045966439
 10
8.688633711336972
 20
9.278868351816552
 10
8.691914626138714
 20
9.29822574914684
 10
8.692898900579239
 20
9.317911237957304
 10
8.692898900579239
 20
9.356626032617878
 10
8.690602260218017
 20
9.382873351031829
 10
8.686665162455925
 20
9.400918382441419
 10
8.682399973213659
 20
9.410761126846651
 10
8.676166235090345
 20
9.420275779771708
 10
8.669604405486857
 20
9.426837609375196
 10
8.659761661081626
 20
9.432415164538159
 10
8.65254364851779
 20
9.43471180489938
 10
8.645325635953954
 20
9.435696079339903
 10
8.643685178553083
 20
9.435696079339903
  0
LWPOLYLINE
  5
2ABA
330
1E
100
AcDbEntity
  8
0
100
AcDbPolyline
 90
        3
 70
     0
 43
0.0
 10
8.643685178553083
 20
9.236544550874057
 10
8.643685178553083
 20
9.237200733834406
 10
8.643685178553083
 20
9.238841191235279
  0
LWPOLYLINE
  5
2ABF
330
1E
100
AcDbEntity
  8
0
100
AcDbPolyline
 90
        3
 70
     0
 43
0.0
 10
8.643685178553083
 20
10.18046373933573
 10
8.643685178553083
 20
10.1821041967366
 10
8.643685178553083
 20
10.18276037969695
  0
LWPOLYLINE
  5
2AC4
330
1E
100
AcDbEntity
  8
0
100
AcDbPolyline
 90
       19
 70
     0
 43
0.0
 10
8.643685178553083
 20
9.98360885123111
 10
8.650903191116919
 20
9.98426503419146
 10
8.659105478121277
 20
9.98656167455268
 10
8.668620131046335
 20
9.991811138235471
 10
8.675181960649823
 20
9.998044876358783
 10
8.680103332852437
 20
10.00460670596227
 10
8.688633711336972
 20
10.02363601181238
 10
8.691914626138714
 20
10.04299340914267
 10
8.692898900579239
 20
10.06267889795313
 10
8.692898900579239
 20
10.10139369261371
 10
8.690602260218017
 20
10.12796910250783
 10
8.686665162455925
 20
10.14568604243725
 10
8.682399973213659
 20
10.15552878684248
 10
8.676166235090345
 20
10.16504343976754
 10
8.669604405486857
 20
10.17160526937102
 10
8.659761661081626
 20
10.17718282453399
 10
8.65254364851779
 20
10.17947946489521
 10
8.645325635953954
 20
10.18046373933573
 10
8.643685178553083
 20
10.18046373933573
  0
LWPOLYLINE
  5
2AD9
330
1E
100
AcDbEntity
  8
0
100
AcDbPolyline
 90
        3
 70
     0
 43
0.0
 10
8.643685178553083
 20
9.906835444870306
 10
8.643685178553083
 20
9.946206422491233
 10
8.643685178553083
 20
9.98360885123111
  0
LINE
  5
2ADE
330
1E
100
AcDbEntity
  8
0
100
AcDbLine
 10
8.443549375646712
 20
9.98360885123111
 30
0.0
 11
8.643685178553081
 21
9.98360885123111
 31
0.0
  0
LWPOLYLINE
  5
2ADF
330
1E
100
AcDbEntity
  8
0
100
AcDbPolyline
 90
        3
 70
     0
 43
0.0
 10
8.443549375646712
 20
9.906835444870306
 10
8.443549375646712
 20
9.946206422491233
 10
8.443549375646712
 20
9.98360885123111
  0
LINE
  5
2AE4
330
1E
100
AcDbEntity
  8
0
100
AcDbLine
 10
8.643685178553081
 20
9.906835444870306
 30
0.0
 11
8.443549375646712
 21
9.906835444870306
 31
0.0
  0
LINE
  5
2AE5
330
1E
100
AcDbEntity
  8
0
100
AcDbLine
 10
8.443549375646712
 20
10.18046373933573
 30
0.0
 11
8.643685178553081
 21
10.18046373933573
 31
0.0
  0
LINE
  5
2AE6
330
1E
100
AcDbEntity
  8
0
100
AcDbLine
 10
8.443549375646712
 20
9.98360885123111
 30
0.0
 11
8.443549375646712
 21
10.18046373933573
 31
0.0
  0
LWPOLYLINE
  5
2AE7
330
1E
100
AcDbEntity
  8
0
100
AcDbPolyline
 90
        3
 70
     0
 43
0.0
 10
8.443549375646712
 20
10.18046373933573
 10
8.443549375646712
 20
10.1821041967366
 10
8.443549375646712
 20
10.18276037969695
  0
LINE
  5
2AEC
330
1E
100
AcDbEntity
  8
0
100
AcDbLine
 10
8.443549375646712
 20
9.238841191235277
 30
0.0
 11
8.643685178553081
 21
9.238841191235277
 31
0.0
  0
LWPOLYLINE
  5
2AED
330
1E
100
AcDbEntity
  8
0
100
AcDbPolyline
 90
        3
 70
     0
 43
0.0
 10
8.443549375646712
 20
9.236544550874057
 10
8.443549375646712
 20
9.237200733834406
 10
8.443549375646712
 20
9.238841191235279
  0
LINE
  5
2AF2
330
1E
100
AcDbEntity
  8
0
100
AcDbLine
 10
8.443549375646712
 20
9.435696079339903
 30
0.0
 11
8.643685178553081
 21
9.435696079339903
 31
0.0
  0
LINE
  5
2AF3
330
1E
100
AcDbEntity
  8
0
100
AcDbLine
 10
8.443549375646712
 20
9.238841191235277
 30
0.0
 11
8.443549375646712
 21
9.435696079339903
 31
0.0
  0
LINE
  5
2AF4
330
1E
100
AcDbEntity
  8
0
100
AcDbLine
 10
8.443549375646712
 20
9.512469485700707
 30
0.0
 11
8.643685178553081
 21
9.512469485700707
 31
0.0
  0
LWPOLYLINE
  5
2AF5
330
1E
100
AcDbEntity
  8
0
100
AcDbPolyline
 90
        3
 70
     0
 43
0.0
 10
8.443549375646712
 20
9.435696079339903
 10
8.443549375646712
 20
9.473098508079782
 10
8.443549375646712
 20
9.512469485700707
  0
LINE
  5
2AFA
330
1E
100
AcDbEntity
  8
0
100
AcDbLine
 10
8.443549375646712
 20
9.512469485700707
 30
0.0
 11
8.443549375646712
 21
9.906835444870306
 31
0.0
  0
LWPOLYLINE
  5
2AFB
330
1E
100
AcDbEntity
  8
0
100
AcDbPolyline
 90
        3
 70
     0
 43
0.0
 10
7.463540124365852
 20
9.324144976080615
 10
7.463540124365852
 20
9.300194298027886
 10
7.463540124365852
 20
9.2795245347769
  0
LINE
  5
2B00
330
1E
100
AcDbEntity
  8
0
100
AcDbLine
 10
7.463540124365851
 20
9.665360115461966
 30
0.0
 11
7.463540124365851
 21
9.324144976080615
 31
0.0
  0
LWPOLYLINE
  5
2B01
330
1E
100
AcDbEntity
  8
0
100
AcDbPolyline
 90
        3
 70
     0
 43
0.0
 10
7.463540124365852
 20
9.753944815109047
 10
7.463540124365852
 20
9.709652465285508
 10
7.463540124365852
 20
9.665360115461966
  0
LINE
  5
2B06
330
1E
100
AcDbEntity
  8
0
100
AcDbLine
 10
7.463540124365851
 20
10.09548804597057
 30
0.0
 11
7.463540124365851
 21
9.753944815109047
 31
0.0
  0
LWPOLYLINE
  5
2B07
330
1E
100
AcDbEntity
  8
0
100
AcDbPolyline
 90
        3
 70
     0
 43
0.0
 10
7.463540124365852
 20
10.13978039579411
 10
7.463540124365852
 20
10.1194387240233
 10
7.463540124365852
 20
10.09548804597057
  0
LINE
  5
2B0C
330
1E
100
AcDbEntity
  8
0
100
AcDbLine
 10
7.663675927272221
 20
10.09548804597057
 30
0.0
 11
7.463540124365851
 21
10.09548804597057
 31
0.0
  0
LWPOLYLINE
  5
2B0D
330
1E
100
AcDbEntity
  8
0
100
AcDbPolyline
 90
        3
 70
     0
 43
0.0
 10
7.663675927272222
 20
10.13978039579411
 10
7.663675927272222
 20
10.1194387240233
 10
7.663675927272222
 20
10.09548804597057
  0
LINE
  5
2B12
330
1E
100
AcDbEntity
  8
0
100
AcDbLine
 10
7.463540124365851
 20
10.13978039579411
 30
0.0
 11
7.663675927272221
 21
10.13978039579411
 31
0.0
  0
LINE
  5
2B13
330
1E
100
AcDbEntity
  8
0
100
AcDbLine
 10
7.663675927272221
 20
9.753944815109047
 30
0.0
 11
7.463540124365851
 21
9.753944815109047
 31
0.0
  0
LINE
  5
2B14
330
1E
100
AcDbEntity
  8
0
100
AcDbLine
 10
7.663675927272221
 20
10.09548804597057
 30
0.0
 11
7.663675927272221
 21
9.753944815109047
 31
0.0
  0
LINE
  5
2B15
330
1E
100
AcDbEntity
  8
0
100
AcDbLine
 10
7.663675927272221
 20
9.665360115461966
 30
0.0
 11
7.463540124365851
 21
9.665360115461966
 31
0.0
  0
LWPOLYLINE
  5
2B16
330
1E
100
AcDbEntity
  8
0
100
AcDbPolyline
 90
        3
 70
     0
 43
0.0
 10
7.663675927272222
 20
9.753944815109047
 10
7.663675927272222
 20
9.709652465285508
 10
7.663675927272222
 20
9.665360115461966
  0
LINE
  5
2B1B
330
1E
100
AcDbEntity
  8
0
100
AcDbLine
 10
7.663675927272221
 20
9.324144976080615
 30
0.0
 11
7.463540124365851
 21
9.324144976080615
 31
0.0
  0
LINE
  5
2B1C
330
1E
100
AcDbEntity
  8
0
100
AcDbLine
 10
7.663675927272221
 20
9.665360115461966
 30
0.0
 11
7.663675927272221
 21
9.324144976080615
 31
0.0
  0
LINE
  5
2B1D
330
1E
100
AcDbEntity
  8
0
100
AcDbLine
 10
7.663675927272221
 20
9.2795245347769
 30
0.0
 11
7.463540124365851
 21
9.2795245347769
 31
0.0
  0
LWPOLYLINE
  5
2B1E
330
1E
100
AcDbEntity
  8
0
100
AcDbPolyline
 90
        3
 70
     0
 43
0.0
 10
7.663675927272222
 20
9.324144976080615
 10
7.663675927272222
 20
9.300194298027886
 10
7.663675927272222
 20
9.2795245347769
  0
LWPOLYLINE
  5
2B23
330
1E
100
AcDbEntity
  8
0
100
AcDbPolyline
 90
       17
 70
     0
 43
0.0
 10
6.593441518943408
 20
10.02790120105465
 10
6.593441518943408
 20
10.02429219477273
 10
6.593441518943408
 20
10.01215281000628
 10
6.593441518943408
 20
9.991154955275122
 10
6.593441518943408
 20
9.962282905019776
 10
6.593441518943408
 20
9.925864750720421
 10
6.593441518943408
 20
9.884197132738275
 10
6.593441518943408
 20
9.838920508474211
 10
6.593441518943408
 20
9.792003426809277
 10
6.593441518943408
 20
9.743445887743469
 10
6.593441518943408
 20
9.691607433875917
 10
6.593441518943408
 20
9.639112797048017
 10
6.593441518943408
 20
9.587930526140814
 10
6.593441518943408
 20
9.540029170035355
 10
6.593441518943408
 20
9.497705369092861
 10
6.593441518943408
 20
9.461943397753854
 10
6.593441518943408
 20
9.434055621939032
  0
LWPOLYLINE
  5
2B36
330
1E
100
AcDbEntity
  8
0
100
AcDbPolyline
 90
        5
 70
     0
 43
0.0
 10
6.593441518943408
 20
9.434055621939032
 10
6.593441518943408
 20
9.415682499049268
 10
6.593441518943408
 20
9.402230748362118
 10
6.593441518943408
 20
9.394028461357757
 10
6.593441518943408
 20
9.391403729516362
  0
LWPOLYLINE
  5
2B3D
330
1E
100
AcDbEntity
  8
0
100
AcDbPolyline
 90
       10
 70
     0
 43
0.0
 10
6.816871816942158
 20
9.494752545771291
 10
6.816871816942158
 20
9.452756836308971
 10
6.816871816942158
 20
9.414698224608743
 10
6.816871816942158
 20
9.380248619190433
 10
6.816871816942158
 20
9.350392294494566
 10
6.816871816942158
 20
9.325457342001314
 10
6.816871816942158
 20
9.305443761710677
 10
6.816871816942158
 20
9.291335828063179
 10
6.816871816942158
 20
9.28247735809847
 10
6.816871816942158
 20
9.2795245347769
  0
LWPOLYLINE
  5
2B49
330
1E
100
AcDbEntity
  8
0
100
AcDbPolyline
 90
       10
 70
     0
 43
0.0
 10
6.816871816942158
 20
9.924552384799724
 10
6.816871816942158
 20
9.879931943496009
 10
6.816871816942158
 20
9.833014861831072
 10
6.816871816942158
 20
9.784457322765264
 10
6.816871816942158
 20
9.73458741777876
 10
6.816871816942158
 20
9.684717512792255
 10
6.816871816942158
 20
9.634847607805749
 10
6.816871816942158
 20
9.586290068739941
 10
6.816871816942158
 20
9.539372987075006
 10
6.816871816942158
 20
9.494752545771291
  0
LWPOLYLINE
  5
2B55
330
1E
100
AcDbEntity
  8
0
100
AcDbPolyline
 90
       10
 70
     0
 43
0.0
 10
6.816871816942158
 20
10.13978039579411
 10
6.816871816942158
 20
10.13682757247254
 10
6.816871816942158
 20
10.12796910250783
 10
6.816871816942158
 20
10.11386116886033
 10
6.816871816942158
 20
10.0938475885697
 10
6.816871816942158
 20
10.06891263607645
 10
6.816871816942158
 20
10.03905631138058
 10
6.816871816942158
 20
10.00460670596227
 10
6.816871816942158
 20
9.966548094262044
 10
6.816871816942158
 20
9.924552384799724
  0
LWPOLYLINE
  5
2B61
330
1E
100
AcDbEntity
  8
0
100
AcDbPolyline
 90
        5
 70
     0
 43
0.0
 10
6.84180676943541
 20
10.09548804597057
 10
6.83130784206983
 20
10.05349233650825
 10
6.823433646545645
 20
10.01116853556575
 10
6.81851227434303
 20
9.968188551662915
 10
6.816871816942158
 20
9.924552384799724
  0
LWPOLYLINE
  5
2B68
330
1E
100
AcDbEntity
  8
0
100
AcDbPolyline
 90
        3
 70
     0
 43
0.0
 10
6.84180676943541
 20
10.13978039579411
 10
6.84180676943541
 20
10.1194387240233
 10
6.84180676943541
 20
10.09548804597057
  0
LWPOLYLINE
  5
2B6D
330
1E
100
AcDbEntity
  8
0
100
AcDbPolyline
 90
        5
 70
     0
 43
0.0
 10
6.816871816942158
 20
10.13978039579411
 10
6.81851227434303
 20
10.13978039579411
 10
6.823433646545645
 20
10.13978039579411
 10
6.83130784206983
 20
10.13978039579411
 10
6.84180676943541
 20
10.13978039579411
  0
LWPOLYLINE
  5
2B74
330
1E
100
AcDbEntity
  8
0
100
AcDbPolyline
 90
        5
 70
     0
 43
0.0
 10
6.84180676943541
 20
9.665360115461966
 10
6.83130784206983
 20
9.623692497479821
 10
6.823433646545645
 20
9.581368696537326
 10
6.81851227434303
 20
9.538060621154309
 10
6.816871816942158
 20
9.494752545771291
  0
LWPOLYLINE
  5
2B7B
330
1E
100
AcDbEntity
  8
0
100
AcDbPolyline
 90
        3
 70
     0
 43
0.0
 10
6.84180676943541
 20
9.753944815109047
 10
6.84180676943541
 20
9.709652465285508
 10
6.84180676943541
 20
9.665360115461966
  0
LWPOLYLINE
  5
2B80
330
1E
100
AcDbEntity
  8
0
100
AcDbPolyline
 90
        5
 70
     0
 43
0.0
 10
6.816871816942158
 20
9.924552384799724
 10
6.81851227434303
 20
9.881900492377054
 10
6.823433646545645
 20
9.839248599954386
 10
6.83130784206983
 20
9.796596707531717
 10
6.84180676943541
 20
9.753944815109047
  0
LWPOLYLINE
  5
2B87
330
1E
100
AcDbEntity
  8
0
100
AcDbPolyline
 90
        5
 70
     0
 43
0.0
 10
6.816871816942158
 20
9.494752545771291
 10
6.81851227434303
 20
9.452100653348622
 10
6.823433646545645
 20
9.409448760925954
 10
6.83130784206983
 20
9.366468777023111
 10
6.84180676943541
 20
9.324144976080615
  0
LWPOLYLINE
  5
2B8E
330
1E
100
AcDbEntity
  8
0
100
AcDbPolyline
 90
        5
 70
     0
 43
0.0
 10
6.84180676943541
 20
9.2795245347769
 10
6.83130784206983
 20
9.2795245347769
 10
6.823433646545645
 20
9.2795245347769
 10
6.81851227434303
 20
9.2795245347769
 10
6.816871816942158
 20
9.2795245347769
  0
LWPOLYLINE
  5
2B95
330
1E
100
AcDbEntity
  8
0
100
AcDbPolyline
 90
        3
 70
     0
 43
0.0
 10
6.84180676943541
 20
9.324144976080615
 10
6.84180676943541
 20
9.300194298027886
 10
6.84180676943541
 20
9.2795245347769
  0
LINE
  5
2B9A
330
1E
100
AcDbEntity
  8
0
100
AcDbLine
 10
7.263404321459482
 20
9.2795245347769
 30
0.0
 11
6.841806769435409
 21
9.2795245347769
 31
0.0
  0
LWPOLYLINE
  5
2B9B
330
1E
100
AcDbEntity
  8
0
100
AcDbPolyline
 90
        3
 70
     0
 43
0.0
 10
7.263404321459484
 20
9.324144976080615
 10
7.263404321459484
 20
9.300194298027886
 10
7.263404321459484
 20
9.2795245347769
  0
LINE
  5
2BA0
330
1E
100
AcDbEntity
  8
0
100
AcDbLine
 10
6.841806769435409
 20
9.324144976080615
 30
0.0
 11
7.263404321459482
 21
9.324144976080615
 31
0.0
  0
LINE
  5
2BA1
330
1E
100
AcDbEntity
  8
0
100
AcDbLine
 10
7.263404321459482
 20
10.13978039579411
 30
0.0
 11
6.841806769435409
 21
10.13978039579411
 31
0.0
  0
LINE
  5
2BA2
330
1E
100
AcDbEntity
  8
0
100
AcDbLine
 10
7.263404321459482
 20
10.09548804597057
 30
0.0
 11
6.841806769435409
 21
10.09548804597057
 31
0.0
  0
LWPOLYLINE
  5
2BA3
330
1E
100
AcDbEntity
  8
0
100
AcDbPolyline
 90
        3
 70
     0
 43
0.0
 10
7.263404321459484
 20
10.13978039579411
 10
7.263404321459484
 20
10.1194387240233
 10
7.263404321459484
 20
10.09548804597057
  0
LINE
  5
2BA8
330
1E
100
AcDbEntity
  8
0
100
AcDbLine
 10
7.263404321459482
 20
9.753944815109047
 30
0.0
 11
6.841806769435409
 21
9.753944815109047
 31
0.0
  0
LINE
  5
2BA9
330
1E
100
AcDbEntity
  8
0
100
AcDbLine
 10
7.263404321459482
 20
10.09548804597057
 30
0.0
 11
7.263404321459482
 21
9.753944815109047
 31
0.0
  0
LINE
  5
2BAA
330
1E
100
AcDbEntity
  8
0
100
AcDbLine
 10
7.263404321459482
 20
9.665360115461966
 30
0.0
 11
6.841806769435409
 21
9.665360115461966
 31
0.0
  0
LWPOLYLINE
  5
2BAB
330
1E
100
AcDbEntity
  8
0
100
AcDbPolyline
 90
        3
 70
     0
 43
0.0
 10
7.263404321459484
 20
9.753944815109047
 10
7.263404321459484
 20
9.709652465285508
 10
7.263404321459484
 20
9.665360115461966
  0
LINE
  5
2BB0
330
1E
100
AcDbEntity
  8
0
100
AcDbLine
 10
7.263404321459482
 20
9.665360115461966
 30
0.0
 11
7.263404321459482
 21
9.324144976080615
 31
0.0
  0
LWPOLYLINE
  5
2BB1
330
1E
100
AcDbEntity
  8
0
100
AcDbPolyline
 90
        3
 70
     0
 43
0.0
 10
6.070135608065278
 20
9.906835444870306
 10
6.049793936294467
 20
9.946206422491233
 10
6.025515166761564
 20
9.98360885123111
  0
LINE
  5
2BB6
330
1E
100
AcDbEntity
  8
0
100
AcDbLine
 10
6.025515166761563
 20
9.98360885123111
 30
0.0
 11
5.954647407043897
 21
10.0246202862529
 31
0.0
  0
LINE
  5
2BB7
330
1E
100
AcDbEntity
  8
0
100
AcDbLine
 10
5.755167787097877
 20
10.13978039579411
 30
0.0
 11
5.684300027380212
 21
10.18046373933573
 31
0.0
  0
LWPOLYLINE
  5
2BB8
330
1E
100
AcDbEntity
  8
0
100
AcDbPolyline
 90
        3
 70
     0
 43
0.0
 10
5.684300027380213
 20
10.18046373933573
 10
5.640007677556672
 20
10.18276037969695
 10
5.595715327733131
 20
10.18046373933573
  0
LINE
  5
2BBD
330
1E
100
AcDbEntity
  8
0
100
AcDbLine
 10
5.595715327733131
 20
10.18046373933573
 30
0.0
 11
5.524847568015466
 21
10.13978039579411
 31
0.0
  0
LINE
  5
2BBE
330
1E
100
AcDbEntity
  8
0
100
AcDbLine
 10
5.325367948069445
 20
10.0246202862529
 30
0.0
 11
5.254172096871605
 21
9.98360885123111
 31
0.0
  0
LWPOLYLINE
  5
2BBF
330
1E
100
AcDbEntity
  8
0
100
AcDbPolyline
 90
        3
 70
     0
 43
0.0
 10
5.254172096871606
 20
9.98360885123111
 10
5.230221418818876
 20
9.946206422491233
 10
5.209879747048066
 20
9.906835444870306
  0
LINE
  5
2BC4
330
1E
100
AcDbEntity
  8
0
100
AcDbLine
 10
5.209879747048065
 20
9.906835444870306
 30
0.0
 11
5.209879747048065
 21
9.824812574826713
 31
0.0
  0
LINE
  5
2BC5
330
1E
100
AcDbEntity
  8
0
100
AcDbLine
 10
5.209879747048065
 20
9.5944923557443
 30
0.0
 11
5.209879747048065
 21
9.512469485700707
 31
0.0
  0
LWPOLYLINE
  5
2BC6
330
1E
100
AcDbEntity
  8
0
100
AcDbPolyline
 90
        3
 70
     0
 43
0.0
 10
5.209879747048066
 20
9.512469485700707
 10
5.230221418818876
 20
9.473098508079782
 10
5.254172096871606
 20
9.435696079339903
  0
LINE
  5
2BCB
330
1E
100
AcDbEntity
  8
0
100
AcDbLine
 10
5.254172096871605
 20
9.435696079339903
 30
0.0
 11
5.325367948069445
 21
9.39501273579828
 31
0.0
  0
LINE
  5
2BCC
330
1E
100
AcDbEntity
  8
0
100
AcDbLine
 10
5.524847568015466
 20
9.2795245347769
 30
0.0
 11
5.595715327733131
 21
9.238841191235277
 31
0.0
  0
LWPOLYLINE
  5
2BCD
330
1E
100
AcDbEntity
  8
0
100
AcDbPolyline
 90
        3
 70
     0
 43
0.0
 10
5.595715327733131
 20
9.238841191235279
 10
5.640007677556672
 20
9.236544550874057
 10
5.684300027380213
 20
9.238841191235279
  0
LINE
  5
2BD2
330
1E
100
AcDbEntity
  8
0
100
AcDbLine
 10
5.684300027380212
 20
9.238841191235277
 30
0.0
 11
5.755167787097877
 21
9.2795245347769
 31
0.0
  0
LINE
  5
2BD3
330
1E
100
AcDbEntity
  8
0
100
AcDbLine
 10
5.954647407043897
 20
9.39501273579828
 30
0.0
 11
6.025515166761563
 21
9.435696079339903
 31
0.0
  0
LWPOLYLINE
  5
2BD4
330
1E
100
AcDbEntity
  8
0
100
AcDbPolyline
 90
        3
 70
     0
 43
0.0
 10
6.025515166761564
 20
9.435696079339903
 10
6.049793936294467
 20
9.473098508079782
 10
6.070135608065278
 20
9.512469485700707
  0
LINE
  5
2BD9
330
1E
100
AcDbEntity
  8
0
100
AcDbLine
 10
6.070135608065278
 20
9.512469485700707
 30
0.0
 11
6.070135608065278
 21
9.5944923557443
 31
0.0
  0
LINE
  5
2BDA
330
1E
100
AcDbEntity
  8
0
100
AcDbLine
 10
6.070135608065278
 20
9.824812574826713
 30
0.0
 11
6.070135608065278
 21
9.906835444870306
 31
0.0
  0
CIRCLE
  5
2BDB
330
1E
100
AcDbEntity
  8
0
100
AcDbCircle
 10
5.640007677556671
 20
9.709652465285506
 30
0.0
 40
0.4301279305086066
  0
LWPOLYLINE
  5
2BDC
330
1E
100
AcDbEntity
  8
0
100
AcDbPolyline
 90
       17
 70
     0
 43
0.0
 10
5.640007677556672
 20
10.02790120105465
 10
5.689549491063003
 20
10.02429219477273
 10
5.739747487529682
 20
10.01215281000628
 10
5.78830502659549
 20
9.991154955275122
 10
5.833909742339728
 20
9.962282905019776
 10
5.873608811440828
 20
9.925864750720421
 10
5.906417959458265
 20
9.884197132738275
 10
5.931024820471344
 20
9.838920508474211
 10
5.947429394480062
 20
9.792003426809277
 10
5.956615955924944
 20
9.743445887743469
 10
5.957928321845642
 20
9.691607433875917
 10
5.950382217801632
 20
9.639112797048017
 10
5.933977643792912
 20
9.587930526140814
 10
5.909370782779834
 20
9.540029170035355
 10
5.87754590920292
 20
9.497705369092861
 10
5.840143480463041
 20
9.461943397753854
 10
5.799132045441244
 20
9.434055621939032
  0
LWPOLYLINE
  5
2BEF
330
1E
100
AcDbEntity
  8
0
100
AcDbPolyline
 90
        5
 70
     0
 43
0.0
 10
5.799132045441244
 20
9.434055621939032
 10
5.76205770818154
 20
9.415682499049268
 10
5.72235863908044
 20
9.402230748362118
 10
5.681347204058643
 20
9.394028461357757
 10
5.640007677556672
 20
9.391403729516362
  0
LWPOLYLINE
  5
2BF6
330
1E
100
AcDbEntity
  8
0
100
AcDbPolyline
 90
       29
 70
     0
 43
0.0
 10
5.640007677556672
 20
9.391403729516362
 10
5.60162097437627
 20
9.393700369877583
 10
5.562249996755345
 20
9.400918382441419
 10
5.522879019134419
 20
9.41371395016822
 10
5.493678877398901
 20
9.426837609375196
 10
5.465791101584079
 20
9.443242183383915
 10
5.439215691689954
 20
9.462599580714202
 10
5.41493692215705
 20
9.484581709885885
 10
5.392954792985367
 20
9.509188570898963
 10
5.373597395655079
 20
9.535435889312914
 10
5.35719282164636
 20
9.563323665127736
 10
5.344069162439385
 20
9.592523806863255
 10
5.331273594712584
 20
9.631894784484181
 10
5.324055582148748
 20
9.671265762105106
 10
5.321758941787527
 20
9.709652465285508
 10
5.324055582148748
 20
9.74803916846591
 10
5.331273594712584
 20
9.787410146086834
 10
5.344069162439385
 20
9.82678112370776
 10
5.35719282164636
 20
9.855981265443279
 10
5.373597395655079
 20
9.883869041258101
 10
5.392954792985367
 20
9.910444451152226
 10
5.41493692215705
 20
9.934723220685128
 10
5.439215691689954
 20
9.956705349856813
 10
5.465791101584079
 20
9.9760627471871
 10
5.493678877398901
 20
9.992467321195819
 10
5.522879019134419
 20
10.00559098040279
 10
5.562249996755345
 20
10.01838654812959
 10
5.60162097437627
 20
10.02560456069343
 10
5.640007677556672
 20
10.02790120105465
  0
CIRCLE
  5
2C15
330
1E
100
AcDbEntity
  8
0
100
AcDbCircle
 10
5.640007677556671
 20
9.709652465285506
 30
0.0
 40
0.2171965598754367
  0
CIRCLE
  5
2C16
330
1E
100
AcDbEntity
  8
0
100
AcDbCircle
 10
5.640007677556671
 20
9.709652465285506
 30
0.0
 40
0.1975110710649742
  0
LWPOLYLINE
  5
2C17
330
1E
100
AcDbEntity
  8
0
100
AcDbPolyline
 90
        5
 70
     0
 43
0.0
 10
5.366051291611068
 20
9.324144976080615
 10
5.342100613558339
 20
9.365812594062761
 10
5.31749375254526
 20
9.408136395005257
 10
5.292558800052008
 20
9.4511163789081
 10
5.267623847558756
 20
9.494752545771291
  0
LWPOLYLINE
  5
2C1E
330
1E
100
AcDbEntity
  8
0
100
AcDbPolyline
 90
        3
 70
     0
 43
0.0
 10
5.442824697971872
 20
9.2795245347769
 10
5.403453720350947
 20
9.300194298027886
 10
5.366051291611068
 20
9.324144976080615
  0
LWPOLYLINE
  5
2C23
330
1E
100
AcDbEntity
  8
0
100
AcDbPolyline
 90
        5
 70
     0
 43
0.0
 10
5.640007677556672
 20
9.2795245347769
 10
5.590793955530515
 20
9.2795245347769
 10
5.541580233504359
 20
9.2795245347769
 10
5.492038419998029
 20
9.2795245347769
 10
5.442824697971872
 20
9.2795245347769
  0
LWPOLYLINE
  5
2C2A
330
1E
100
AcDbEntity
  8
0
100
AcDbPolyline
 90
        5
 70
     0
 43
0.0
 10
5.169196403506442
 20
9.753944815109047
 10
5.193147081559172
 20
9.795940524571369
 10
5.21775394257225
 20
9.838264325513863
 10
5.242360803585328
 20
9.881244309416706
 10
5.267623847558756
 20
9.924552384799724
  0
LWPOLYLINE
  5
2C31
330
1E
100
AcDbEntity
  8
0
100
AcDbPolyline
 90
        3
 70
     0
 43
0.0
 10
5.169196403506442
 20
9.665360115461966
 10
5.166899763145222
 20
9.709652465285508
 10
5.169196403506442
 20
9.753944815109047
  0
LWPOLYLINE
  5
2C36
330
1E
100
AcDbEntity
  8
0
100
AcDbPolyline
 90
        5
 70
     0
 43
0.0
 10
5.267623847558756
 20
9.494752545771291
 10
5.243016986545677
 20
9.537404438193959
 10
5.218410125532599
 20
9.580056330616629
 10
5.193475173039346
 20
9.622708223039298
 10
5.169196403506442
 20
9.665360115461966
  0
LWPOLYLINE
  5
2C3D
330
1E
100
AcDbEntity
  8
0
100
AcDbPolyline
 90
        5
 70
     0
 43
0.0
 10
5.442824697971872
 20
10.13978039579411
 10
5.491054145557505
 20
10.13978039579411
 10
5.539939776103487
 20
10.13978039579411
 10
5.589809681089993
 20
10.13978039579411
 10
5.640007677556672
 20
10.13978039579411
  0
LWPOLYLINE
  5
2C44
330
1E
100
AcDbEntity
  8
0
100
AcDbPolyline
 90
        3
 70
     0
 43
0.0
 10
5.366051291611068
 20
10.09548804597057
 10
5.403453720350947
 20
10.1194387240233
 10
5.442824697971872
 20
10.13978039579411
  0
LWPOLYLINE
  5
2C49
330
1E
100
AcDbEntity
  8
0
100
AcDbPolyline
 90
        5
 70
     0
 43
0.0
 10
5.267623847558756
 20
9.924552384799724
 10
5.292230708571834
 20
9.967204277222393
 10
5.316837569584912
 20
10.00985616964506
 10
5.34144443059799
 20
10.0528361535479
 10
5.366051291611068
 20
10.09548804597057
  0
LWPOLYLINE
  5
2C50
330
1E
100
AcDbEntity
  8
0
100
AcDbPolyline
 90
        5
 70
     0
 43
0.0
 10
5.913964063502276
 20
10.09548804597057
 10
5.937914741555005
 20
10.05349233650825
 10
5.962521602568084
 20
10.01116853556575
 10
5.987456555061336
 20
9.968188551662915
 10
6.012391507554588
 20
9.924552384799724
  0
LWPOLYLINE
  5
2C57
330
1E
100
AcDbEntity
  8
0
100
AcDbPolyline
 90
        3
 70
     0
 43
0.0
 10
5.837190657141472
 20
10.13978039579411
 10
5.876561634762397
 20
10.1194387240233
 10
5.913964063502276
 20
10.09548804597057
  0
LWPOLYLINE
  5
2C5C
330
1E
100
AcDbEntity
  8
0
100
AcDbPolyline
 90
        5
 70
     0
 43
0.0
 10
5.640007677556672
 20
10.13978039579411
 10
5.689221399582828
 20
10.13978039579411
 10
5.738435121608985
 20
10.13978039579411
 10
5.787976935115315
 20
10.13978039579411
 10
5.837190657141472
 20
10.13978039579411
  0
LWPOLYLINE
  5
2C63
330
1E
100
AcDbEntity
  8
0
100
AcDbPolyline
 90
        5
 70
     0
 43
0.0
 10
6.110818951606901
 20
9.665360115461966
 10
6.086868273554172
 20
9.623692497479821
 10
6.062261412541094
 20
9.581368696537326
 10
6.037326460047841
 20
9.538060621154309
 10
6.012391507554588
 20
9.494752545771291
  0
LWPOLYLINE
  5
2C6A
330
1E
100
AcDbEntity
  8
0
100
AcDbPolyline
 90
        3
 70
     0
 43
0.0
 10
6.110818951606901
 20
9.753944815109047
 10
6.113115591968122
 20
9.709652465285508
 10
6.110818951606901
 20
9.665360115461966
  0
LWPOLYLINE
  5
2C6F
330
1E
100
AcDbEntity
  8
0
100
AcDbPolyline
 90
        5
 70
     0
 43
0.0
 10
6.012391507554588
 20
9.924552384799724
 10
6.036998368567666
 20
9.881900492377054
 10
6.061605229580745
 20
9.839248599954386
 10
6.086212090593823
 20
9.796596707531717
 10
6.110818951606901
 20
9.753944815109047
  0
LWPOLYLINE
  5
2C76
330
1E
100
AcDbEntity
  8
0
100
AcDbPolyline
 90
        5
 70
     0
 43
0.0
 10
6.012391507554588
 20
9.494752545771291
 10
5.98778464654151
 20
9.452100653348622
 10
5.963177785528432
 20
9.409448760925954
 10
5.938570924515354
 20
9.366468777023111
 10
5.913964063502276
 20
9.324144976080615
  0
LWPOLYLINE
  5
2C7D
330
1E
100
AcDbEntity
  8
0
100
AcDbPolyline
 90
        5
 70
     0
 43
0.0
 10
5.837190657141472
 20
9.2795245347769
 10
5.788633118075664
 20
9.2795245347769
 10
5.740075579009856
 20
9.2795245347769
 10
5.690205674023351
 20
9.2795245347769
 10
5.640007677556672
 20
9.2795245347769
  0
LWPOLYLINE
  5
2C84
330
1E
100
AcDbEntity
  8
0
100
AcDbPolyline
 90
        3
 70
     0
 43
0.0
 10
5.913964063502276
 20
9.324144976080615
 10
5.876561634762397
 20
9.300194298027886
 10
5.837190657141472
 20
9.2795245347769
  0
LINE
  5
2C8C
330
1E
100
AcDbEntity
  8
0
100
AcDbLine
 10
8.025560829904557
 20
10.0758025571601
 30
0.0
 11
8.025560829904557
 21
9.343830464891077
 31
0.0
  0
LINE
  5
2C8D
330
1E
100
AcDbEntity
  8
0
100
AcDbLine
 10
7.997673054089736
 20
10.04955523874616
 30
0.0
 11
7.997673054089736
 21
9.369749691824853
 31
0.0
  0
LINE
  5
2C8F
330
1E
100
AcDbEntity
  8
0
100
AcDbLine
 10
7.941569410979917
 20
10.04955523874616
 30
0.0
 11
7.941569410979917
 21
9.369749691824853
 31
0.0
  0
LINE
  5
2C91
330
1E
100
AcDbEntity
  8
0
100
AcDbLine
 10
7.885465767870099
 20
10.04955523874616
 30
0.0
 11
7.885465767870099
 21
9.369749691824853
 31
0.0
  0
LINE
  5
2C93
330
1E
100
AcDbEntity
  8
0
100
AcDbLine
 10
7.829690216240455
 20
10.04955523874616
 30
0.0
 11
7.829690216240455
 21
9.369749691824853
 31
0.0
  0
LINE
  5
2C95
330
1E
100
AcDbEntity
  8
0
100
AcDbLine
 10
7.773586573130637
 20
10.04955523874616
 30
0.0
 11
7.773586573130637
 21
9.369749691824853
 31
0.0
  0
LINE
  5
2C99
330
1E
100
AcDbEntity
  8
0
100
AcDbLine
 10
7.689595154205997
 20
10.0758025571601
 30
0.0
 11
7.689595154205997
 21
9.343830464891077
 31
0.0
  0
LINE
  5
2C9B
330
1E
100
AcDbEntity
  8
0
100
AcDbLine
 10
7.435652348551029
 20
10.04955523874616
 30
0.0
 11
7.435652348551029
 21
9.369749691824853
 31
0.0
  0
LINE
  5
2C9D
330
1E
100
AcDbEntity
  8
0
100
AcDbLine
 10
7.379548705441211
 20
10.04955523874616
 30
0.0
 11
7.379548705441211
 21
9.369749691824853
 31
0.0
  0
LINE
  5
2C9F
330
1E
100
AcDbEntity
  8
0
100
AcDbLine
 10
7.323445062331393
 20
10.04955523874616
 30
0.0
 11
7.323445062331393
 21
9.369749691824853
 31
0.0
  0
LINE
  5
2CA1
330
1E
100
AcDbEntity
  8
0
100
AcDbLine
 10
7.281449352869073
 20
10.04955523874616
 30
0.0
 11
7.281449352869073
 21
9.369749691824853
 31
0.0
  0
LINE
  5
2CA2
330
1E
100
AcDbEntity
  8
0
100
AcDbLine
 10
7.969457186794739
 20
10.0758025571601
 30
0.0
 11
7.969457186794739
 21
9.343830464891077
 31
0.0
  0
LINE
  5
2CA4
330
1E
100
AcDbEntity
  8
0
100
AcDbLine
 10
7.913681635165096
 20
10.0758025571601
 30
0.0
 11
7.913681635165096
 21
9.343830464891077
 31
0.0
  0
LINE
  5
2CA6
330
1E
100
AcDbEntity
  8
0
100
AcDbLine
 10
7.857577992055277
 20
10.0758025571601
 30
0.0
 11
7.857577992055277
 21
9.343830464891077
 31
0.0
  0
LINE
  5
2CA8
330
1E
100
AcDbEntity
  8
0
100
AcDbLine
 10
7.801474348945459
 20
10.0758025571601
 30
0.0
 11
7.801474348945459
 21
9.343830464891077
 31
0.0
  0
LINE
  5
2CAA
330
1E
100
AcDbEntity
  8
0
100
AcDbLine
 10
7.745698797315815
 20
10.0758025571601
 30
0.0
 11
7.745698797315815
 21
9.343830464891077
 31
0.0
  0
LINE
  5
2CAC
330
1E
100
AcDbEntity
  8
0
100
AcDbLine
 10
7.717482930020818
 20
10.04955523874616
 30
0.0
 11
7.717482930020818
 21
9.369749691824853
 31
0.0
  0
LINE
  5
2CAE
330
1E
100
AcDbEntity
  8
0
100
AcDbLine
 10
7.421544414903531
 20
10.0758025571601
 30
0.0
 11
7.421544414903531
 21
9.343830464891077
 31
0.0
  0
LINE
  5
2CB0
330
1E
100
AcDbEntity
  8
0
100
AcDbLine
 10
7.393656639088709
 20
10.04955523874616
 30
0.0
 11
7.393656639088709
 21
9.369749691824853
 31
0.0
  0
LINE
  5
2CB2
330
1E
100
AcDbEntity
  8
0
100
AcDbLine
 10
7.365440771793713
 20
10.0758025571601
 30
0.0
 11
7.365440771793713
 21
9.343830464891077
 31
0.0
  0
LINE
  5
2CB4
330
1E
100
AcDbEntity
  8
0
100
AcDbLine
 10
7.337552995978891
 20
10.04955523874616
 30
0.0
 11
7.337552995978891
 21
9.369749691824853
 31
0.0
  0
LINE
  5
2CB6
330
1E
100
AcDbEntity
  8
0
100
AcDbLine
 10
7.295557286516571
 20
10.0758025571601
 30
0.0
 11
7.295557286516571
 21
9.343830464891077
 31
0.0
  0
LINE
  5
2CB7
330
1E
100
AcDbEntity
  8
0
100
AcDbLine
 10
7.449432190718353
 20
10.04955523874616
 30
0.0
 11
7.449432190718353
 21
9.369749691824853
 31
0.0
  0
LINE
  5
2CB9
330
1E
100
AcDbEntity
  8
0
100
AcDbLine
 10
7.267669510701749
 20
10.04955523874616
 30
0.0
 11
7.267669510701749
 21
9.369749691824853
 31
0.0
  0
ENDSEC
  0
SECTION
  2
OBJECTS
  0
DICTIONARY
  5
C
330
0
100
AcDbDictionary
281
     1
  3
ACAD_GROUP
350
D
  3
ACAD_LAYOUT
350
19
  3
ACAD_MLINESTYLE
350
16
  3
ACAD_PLOTSETTINGS
350
18
  3
ACAD_PLOTSTYLENAME
350
E
  0
DICTIONARY
  5
D
102
{ACAD_REACTORS
330
C
102
}
330
C
100
AcDbDictionary
281
     1
  0
DICTIONARY
  5
19
102
{ACAD_REACTORS
330
C
102
}
330
C
100
AcDbDictionary
281
     1
  3
Layout1
350
1D
  3
Model
350
21
  0
DICTIONARY
  5
16
102
{ACAD_REACTORS
330
C
102
}
330
C
100
AcDbDictionary
281
     1
  3
Standard
350
17
  0
DICTIONARY
  5
18
102
{ACAD_REACTORS
330
C
102
}
330
C
100
AcDbDictionary
281
     1
  0
ACDBDICTIONARYWDFLT
  5
E
102
{ACAD_REACTORS
330
C
102
}
330
C
100
AcDbDictionary
281
     1
  3
Normal
350
F
100
AcDbDictionaryWithDefault
340
F
  0
LAYOUT
  5
1D
102
{ACAD_REACTORS
330
19
102
}
330
19
100
AcDbPlotSettings
  1

  2
\\BRENG\OPR-Dell 5100
  4

  6

 40
0.0
 41
0.0
 42
0.0
 43
0.0
 44
0.0
 45
0.0
 46
0.0
 47
0.0
 48
0.0
 49
0.0
140
0.0
141
0.0
142
1.0
143
1.0
 70
   688
 72
     0
 73
     0
 74
     5
  7

 75
    16
147
1.0
148
0.0
149
0.0
100
AcDbLayout
  1
Layout1
 70
     1
 71
     1
 10
0.0
 20
0.0
 11
12.0
 21
9.0
 12
0.0
 22
0.0
 32
0.0
 14
1.000000000000000E+20
 24
1.000000000000000E+20
 34
1.000000000000000E+20
 15
-1.000000000000000E+20
 25
-1.000000000000000E+20
 35
-1.000000000000000E+20
146
0.0
 13
0.0
 23
0.0
 33
0.0
 16
1.0
 26
0.0
 36
0.0
 17
0.0
 27
1.0
 37
0.0
 76
     0
330
1A
  0
LAYOUT
  5
21
102
{ACAD_REACTORS
330
19
102
}
330
19
100
AcDbPlotSettings
  1

  2
\\BRENG\OPR-Dell 5100
  4

  6

 40
0.0
 41
0.0
 42
0.0
 43
0.0
 44
0.0
 45
0.0
 46
0.0
 47
0.0
 48
0.0
 49
0.0
140
0.0
141
0.0
142
1.0
143
1.0
 70
  1712
 72
     0
 73
     0
 74
     0
  7

 75
     0
147
1.0
148
0.0
149
0.0
100
AcDbLayout
  1
Model
 70
     1
 71
     0
 10
0.0
 20
0.0
 11
12.0
 21
9.0
 12
0.0
 22
0.0
 32
0.0
 14
0.0
 24
0.0
 34
0.0
 15
0.0
 25
0.0
 35
0.0
146
0.0
 13
0.0
 23
0.0
 33
0.0
 16
1.0
 26
0.0
 36
0.0
 17
0.0
 27
1.0
 37
0.0
 76
     0
330
1E
  0
MLINESTYLE
  5
17
102
{ACAD_REACTORS
330
16
102
}
330
16
100
AcDbMlineStyle
  2
STANDARD
 70
     0
  3

 62
   256
 51
90.0
 52
90.0
 71
     2
 49
0.5
 62
   256
  6
BYLAYER
 49
-0.5
 62
   256
  6
BYLAYER
  0
ACDBPLACEHOLDER
  5
F
102
{ACAD_REACTORS
330
E
102
}
330
E
  0
ENDSEC
  0
EOF
