  0
SECTION
  2
HEADER
  9
$ACADVER
  1
AC1015
  9
$ACADMAINTVER
 70
     6
  9
$DWGCODEPAGE
  3
ANSI_1252
  9
$INSBASE
 10
0.0
 20
0.0
 30
0.0
  9
$EXTMIN
 10
6.520263758628
 20
3.864837702206383
 30
-0.0015258207003612
  9
$EXTMAX
 10
28.12304694732074
 20
18.53631596515923
 30
0.0000000349246008
  9
$LIMMIN
 10
0.0
 20
0.0
  9
$LIMMAX
 10
0.0
 20
0.0
  9
$ORTHOMODE
 70
     0
  9
$REGENMODE
 70
     1
  9
$FILLMODE
 70
     1
  9
$QTEXTMODE
 70
     0
  9
$MIRRTEXT
 70
     1
  9
$LTSCALE
 40
1.0
  9
$ATTMODE
 70
     1
  9
$TEXTSIZE
 40
0.0
  9
$TRACEWID
 40
0.05
  9
$TEXTSTYLE
  7
STANDARD
  9
$CLAYER
  8
0
  9
$CELTYPE
  6
CONTINUOUS
  9
$CECOLOR
 62
   256
  9
$CELTSCALE
 40
1.0
  9
$DISPSILH
 70
     0
  9
$DIMSCALE
 40
1.0
  9
$DIMASZ
 40
0.0
  9
$DIMEXO
 40
0.0
  9
$DIMDLI
 40
0.38
  9
$DIMRND
 40
0.0
  9
$DIMDLE
 40
0.0
  9
$DIMEXE
 40
0.18
  9
$DIMTP
 40
0.0
  9
$DIMTM
 40
0.0
  9
$DIMTXT
 40
0.2755905512
  9
$DIMCEN
 40
0.09
  9
$DIMTSZ
 40
0.0
  9
$DIMTOL
 70
     0
  9
$DIMLIM
 70
     0
  9
$DIMTIH
 70
     1
  9
$DIMTOH
 70
     1
  9
$DIMSE1
 70
     0
  9
$DIMSE2
 70
     0
  9
$DIMTAD
 70
     1
  9
$DIMZIN
 70
     0
  9
$DIMBLK
  1

  9
$DIMASO
 70
     1
  9
$DIMSHO
 70
     1
  9
$DIMPOST
  1

  9
$DIMAPOST
  1

  9
$DIMALT
 70
     0
  9
$DIMALTD
 70
     2
  9
$DIMALTF
 40
25.4
  9
$DIMLFAC
 40
1.0
  9
$DIMTOFL
 70
     0
  9
$DIMTVP
 40
0.0
  9
$DIMTIX
 70
     0
  9
$DIMSOXD
 70
     0
  9
$DIMSAH
 70
     0
  9
$DIMBLK1
  1

  9
$DIMBLK2
  1

  9
$DIMSTYLE
  2
STANDARD
  9
$DIMCLRD
 70
     0
  9
$DIMCLRE
 70
     0
  9
$DIMCLRT
 70
     0
  9
$DIMTFAC
 40
1.0
  9
$DIMGAP
 40
0.0
  9
$DIMJUST
 70
     0
  9
$DIMSD1
 70
     0
  9
$DIMSD2
 70
     0
  9
$DIMTOLJ
 70
     1
  9
$DIMTZIN
 70
     0
  9
$DIMALTZ
 70
     0
  9
$DIMALTTZ
 70
     0
  9
$DIMUPT
 70
     0
  9
$DIMDEC
 70
     4
  9
$DIMTDEC
 70
     4
  9
$DIMALTU
 70
     2
  9
$DIMALTTD
 70
     2
  9
$DIMTXSTY
  7
STANDARD
  9
$DIMAUNIT
 70
     0
  9
$DIMADEC
 70
     0
  9
$DIMALTRND
 40
0.0
  9
$DIMAZIN
 70
     0
  9
$DIMDSEP
 70
    46
  9
$DIMATFIT
 70
     3
  9
$DIMFRAC
 70
     0
  9
$DIMLDRBLK
  1

  9
$DIMLUNIT
 70
     2
  9
$DIMLWD
 70
    -2
  9
$DIMLWE
 70
    -2
  9
$DIMTMOVE
 70
     0
  9
$LUNITS
 70
     2
  9
$LUPREC
 70
     2
  9
$SKETCHINC
 40
0.1
  9
$FILLETRAD
 40
0.0
  9
$AUNITS
 70
     0
  9
$AUPREC
 70
     2
  9
$MENU
  1
acad
  9
$ELEVATION
 40
0.0
  9
$PELEVATION
 40
0.0
  9
$THICKNESS
 40
0.0
  9
$LIMCHECK
 70
     0
  9
$CHAMFERA
 40
0.0
  9
$CHAMFERB
 40
0.0
  9
$CHAMFERC
 40
0.0
  9
$CHAMFERD
 40
0.0
  9
$SKPOLY
 70
     0
  9
$TDCREATE
 40
2312272.517366134
  9
$TDUCREATE
 40
2312272.767366134
  9
$TDUPDATE
 40
2454524.659557754
  9
$TDUUPDATE
 40
2454524.909557754
  9
$TDINDWG
 40
0.0001552315
  9
$TDUSRTIMER
 40
0.0001552315
  9
$USRTIMER
 70
     1
  9
$ANGBASE
 50
0.0
  9
$ANGDIR
 70
     0
  9
$PDMODE
 70
     0
  9
$PDSIZE
 40
-1.0
  9
$PLINEWID
 40
0.0
  9
$SPLFRAME
 70
     0
  9
$SPLINETYPE
 70
     6
  9
$SPLINESEGS
 70
     8
  9
$HANDSEED
  5
532
  9
$SURFTAB1
 70
     6
  9
$SURFTAB2
 70
     6
  9
$SURFTYPE
 70
     6
  9
$SURFU
 70
     6
  9
$SURFV
 70
     6
  9
$UCSBASE
  2

  9
$UCSNAME
  2

  9
$UCSORG
 10
0.0
 20
0.0
 30
0.0
  9
$UCSXDIR
 10
1.0
 20
0.0
 30
0.0
  9
$UCSYDIR
 10
0.0
 20
1.0
 30
0.0
  9
$UCSORTHOREF
  2

  9
$UCSORTHOVIEW
 70
     0
  9
$UCSORGTOP
 10
0.0
 20
0.0
 30
0.0
  9
$UCSORGBOTTOM
 10
0.0
 20
0.0
 30
0.0
  9
$UCSORGLEFT
 10
0.0
 20
0.0
 30
0.0
  9
$UCSORGRIGHT
 10
0.0
 20
0.0
 30
0.0
  9
$UCSORGFRONT
 10
0.0
 20
0.0
 30
0.0
  9
$UCSORGBACK
 10
0.0
 20
0.0
 30
0.0
  9
$PUCSBASE
  2

  9
$PUCSNAME
  2

  9
$PUCSORG
 10
0.0
 20
0.0
 30
0.0
  9
$PUCSXDIR
 10
1.0
 20
0.0
 30
0.0
  9
$PUCSYDIR
 10
0.0
 20
1.0
 30
0.0
  9
$PUCSORTHOREF
  2

  9
$PUCSORTHOVIEW
 70
     0
  9
$PUCSORGTOP
 10
0.0
 20
0.0
 30
0.0
  9
$PUCSORGBOTTOM
 10
0.0
 20
0.0
 30
0.0
  9
$PUCSORGLEFT
 10
0.0
 20
0.0
 30
0.0
  9
$PUCSORGRIGHT
 10
0.0
 20
0.0
 30
0.0
  9
$PUCSORGFRONT
 10
0.0
 20
0.0
 30
0.0
  9
$PUCSORGBACK
 10
0.0
 20
0.0
 30
0.0
  9
$USERI1
 70
     0
  9
$USERI2
 70
     0
  9
$USERI3
 70
     0
  9
$USERI4
 70
     0
  9
$USERI5
 70
     0
  9
$USERR1
 40
0.0
  9
$USERR2
 40
0.0
  9
$USERR3
 40
0.0
  9
$USERR4
 40
0.0
  9
$USERR5
 40
0.0
  9
$WORLDVIEW
 70
     1
  9
$SHADEDGE
 70
     3
  9
$SHADEDIF
 70
    70
  9
$TILEMODE
 70
     1
  9
$MAXACTVP
 70
    16
  9
$PINSBASE
 10
0.0
 20
0.0
 30
0.0
  9
$PLIMCHECK
 70
     0
  9
$PEXTMIN
 10
1.000000000000000E+20
 20
1.000000000000000E+20
 30
1.000000000000000E+20
  9
$PEXTMAX
 10
-1.000000000000000E+20
 20
-1.000000000000000E+20
 30
-1.000000000000000E+20
  9
$PLIMMIN
 10
0.0
 20
0.0
  9
$PLIMMAX
 10
12.0
 20
9.0
  9
$UNITMODE
 70
     0
  9
$VISRETAIN
 70
     0
  9
$PLINEGEN
 70
     1
  9
$PSLTSCALE
 70
     1
  9
$TREEDEPTH
 70
  3020
  9
$CMLSTYLE
  2
STANDARD
  9
$CMLJUST
 70
     0
  9
$CMLSCALE
 40
1.0
  9
$PROXYGRAPHICS
 70
     0
  9
$MEASUREMENT
 70
     0
  9
$CELWEIGHT
370
    -1
  9
$ENDCAPS
280
     0
  9
$JOINSTYLE
280
     0
  9
$LWDISPLAY
290
     0
  9
$INSUNITS
 70
     0
  9
$HYPERLINKBASE
  1

  9
$STYLESHEET
  1

  9
$XEDIT
290
     1
  9
$CEPSNTYPE
380
     0
  9
$PSTYLEMODE
290
     1
  9
$FINGERPRINTGUID
  2
{0A1E28D7-2CF5-4A5E-8D9C-8C56E9F2EE0A}
  9
$VERSIONGUID
  2
{9DA91255-C3FC-49F7-861F-425666B8854A}
  9
$EXTNAMES
290
     1
  9
$PSVPSCALE
 40
0.0
  9
$OLESTARTUP
290
     0
  0
ENDSEC
  0
SECTION
  2
CLASSES
  0
CLASS
  1
LWPOLYLINE
  2
AcDbPolyline
  3
AutoCAD 2000
 90
    32768
280
     0
281
     1
  0
CLASS
  1
IMAGE
  2
AcDbRasterImage
  3
ISM
 90
    32895
280
     0
281
     1
  0
CLASS
  1
OLE2FRAME
  2
AcDbOle2Frame
  3
AutoCAD 2000
 90
    32768
280
     0
281
     1
  0
CLASS
  1
HATCH
  2
AcDbHatch
  3
AutoCAD 2000
 90
    32768
280
     0
281
     1
  0
CLASS
  1
DICTIONARYVAR
  2
AcDbDictionaryVar
  3
AutoCAD 2000
 90
    32768
280
     0
281
     0
  0
CLASS
  1
RASTERVARIABLES
  2
AcDbRasterVariables
  3
ISM
 90
    32768
280
     0
281
     0
  0
CLASS
  1
IMAGEDEF
  2
AcDbRasterImageDef
  3
ISM
 90
    32768
280
     0
281
     0
  0
CLASS
  1
IMAGEDEF_REACTOR
  2
AcDbRasterImageDefReactor
  3
ISM
 90
    32769
280
     0
281
     0
  0
CLASS
  1
IDBUFFER
  2
AcDbIdBuffer
  3
AutoCAD 2000
 90
    32768
280
     0
281
     0
  0
CLASS
  1
SPATIAL_FILTER
  2
AcDbSpatialFilter
  3
AutoCAD 2000
 90
    32768
280
     0
281
     0
  0
CLASS
  1
XRECORD
  2
AcDbXrecord
  3
AutoCAD 2000
 90
    32768
280
     0
281
     0
  0
CLASS
  1
SORTENTSTABLE
  2
AcDbSortentsTable
  3
AutoCAD 2000
 90
    32768
280
     0
281
     0
  0
CLASS
  1
LAYER_INDEX
  2
AcDbLayerIndex
  3
AutoCAD 2000
 90
    32768
280
     0
281
     0
  0
CLASS
  1
SPATIAL_INDEX
  2
AcDbSpatialIndex
  3
AutoCAD 2000
 90
    32768
280
     0
281
     0
  0
CLASS
  1
OBJECT_PTR
  2
CAseDLPNTableRecord
  3
ASE-LPNTableRecord
 90
    32769
280
     0
281
     0
  0
CLASS
  1
LAYOUT
  2
AcDbLayout
  3
AutoCAD 2000
 90
        0
280
     0
281
     0
  0
CLASS
  1
PLOTSETTINGS
  2
AcDbPlotSettings
  3
AutoCAD 2000
 90
    32768
280
     0
281
     0
  0
CLASS
  1
ACDBDICTIONARYWDFLT
  2
AcDbDictionaryWithDefault
  3
AutoCAD 2000
 90
        0
280
     0
281
     0
  0
CLASS
  1
ACDBPLACEHOLDER
  2
AcDbPlaceHolder
  3
AutoCAD 2000
 90
        0
280
     0
281
     0
  0
CLASS
  1
VBA_PROJECT
  2
AcDbVbaProject
  3
acadvba
 90
    32768
280
     0
281
     0
  0
CLASS
  1
WIPEOUT
  2
AcDbWipeout
  3
WipeOut|AutoCAD Express Tool|expresstools@autodesk.com
 90
    32895
280
     0
281
     1
  0
CLASS
  1
WIPEOUTVARIABLES
  2
AcDbWipeoutVariables
  3
WipeOut|AutoCAD Express Tool|expresstools@autodesk.com
 90
    32768
280
     0
281
     0
  0
CLASS
  1
RTEXT
  2
RText
  3
RText|AutoCAD Express Tool|expresstools@autodesk.com
 90
    32768
280
     0
281
     1
  0
CLASS
  1
ARCALIGNEDTEXT
  2
AcDbArcAlignedText
  3
ATEXT|AutoCAD Express Tool|expresstools@autodesk.com
 90
    32768
280
     0
281
     1
  0
ENDSEC
  0
SECTION
  2
TABLES
  0
TABLE
  2
VPORT
  5
7
330
0
100
AcDbSymbolTable
 70
     2
  0
VPORT
  5
531
330
7
100
AcDbSymbolTableRecord
100
AcDbViewportTableRecord
  2
*Active
 70
     0
 10
0.0
 20
0.0
 11
1.0
 21
1.0
 12
15.3953387116771
 22
10.52712841851587
 13
0.0
 23
0.0
 14
1.0
 24
1.0
 15
0.0
 25
0.0
 16
0.0
 26
0.0
 36
1.0
 17
0.0
 27
0.0
 37
0.0
 40
22.41218909942661
 41
1.571134020618556
 42
50.0
 43
0.0
 44
0.0
 50
0.0
 51
0.0
 71
     0
 72
  2000
 73
     1
 74
     1
 75
     0
 76
     0
 77
     0
 78
     0
281
     0
 65
     1
110
0.0
120
0.0
130
0.0
111
1.0
121
0.0
131
0.0
112
0.0
122
1.0
132
0.0
 79
     0
146
0.0
  0
ENDTAB
  0
TABLE
  2
LTYPE
  5
4
330
0
100
AcDbSymbolTable
 70
     6
  0
LTYPE
  5
11
330
4
100
AcDbSymbolTableRecord
100
AcDbLinetypeTableRecord
  2
BYBLOCK
 70
     0
  3

 72
    65
 73
     0
 40
0.0
  0
LTYPE
  5
12
330
4
100
AcDbSymbolTableRecord
100
AcDbLinetypeTableRecord
  2
BYLAYER
 70
     0
  3

 72
    65
 73
     0
 40
0.0
  0
LTYPE
  5
13
330
4
100
AcDbSymbolTableRecord
100
AcDbLinetypeTableRecord
  2
CONTINUOUS
 70
     0
  3
Solid line
 72
    65
 73
     0
 40
0.0
  0
LTYPE
  5
1D
330
4
100
AcDbSymbolTableRecord
100
AcDbLinetypeTableRecord
  2
HIDDEN
 70
     0
  3
Hidden __ __ __ __ __ __ __ __ __ __ __ __ __ __
 72
    65
 73
     2
 40
0.075
 49
0.05
 74
     0
 49
-0.025
 74
     0
  0
LTYPE
  5
1E
330
4
100
AcDbSymbolTableRecord
100
AcDbLinetypeTableRecord
  2
PHANTOM
 70
     0
  3
Phantom ______  __  __  ______  __  __  ______
 72
    65
 73
     6
 40
0.5
 49
0.25
 74
     0
 49
-0.05
 74
     0
 49
0.05
 74
     0
 49
-0.05
 74
     0
 49
0.05
 74
     0
 49
-0.05
 74
     0
  0
LTYPE
  5
1F
330
4
100
AcDbSymbolTableRecord
100
AcDbLinetypeTableRecord
  2
CENTER
 70
     0
  3
Center ____ _ ____ _ ____ _ ____ _ ____ _ ____
 72
    65
 73
     4
 40
0.4
 49
0.25
 74
     0
 49
-0.05
 74
     0
 49
0.05
 74
     0
 49
-0.05
 74
     0
  0
LTYPE
  5
20
330
4
100
AcDbSymbolTableRecord
100
AcDbLinetypeTableRecord
  2
CENTERX2
 70
     0
  3
Center (2x) ________  __  ________  __  _____
 72
    65
 73
     4
 40
0.8
 49
0.5
 74
     0
 49
-0.1
 74
     0
 49
0.1
 74
     0
 49
-0.1
 74
     0
  0
LTYPE
  5
21
330
4
100
AcDbSymbolTableRecord
100
AcDbLinetypeTableRecord
  2
DOT2
 70
     0
  3
Dot (.5x) ........................................
 72
    65
 73
     2
 40
0.025
 49
0.0
 74
     0
 49
-0.025
 74
     0
  0
ENDTAB
  0
TABLE
  2
LAYER
  5
2
330
0
100
AcDbSymbolTable
 70
     2
  0
LAYER
  5
14
330
2
100
AcDbSymbolTableRecord
100
AcDbLayerTableRecord
  2
0
 70
     0
 62
     7
  6
CONTINUOUS
370
    -3
390
526
  0
LAYER
  5
23
330
2
100
AcDbSymbolTableRecord
100
AcDbLayerTableRecord
  2
DEFPOINTS
 70
     0
 62
     7
  6
CONTINUOUS
290
     0
370
    -3
390
526
  0
ENDTAB
  0
TABLE
  2
STYLE
  5
3
330
0
100
AcDbSymbolTable
 70
     1
  0
STYLE
  5
17
330
3
100
AcDbSymbolTableRecord
100
AcDbTextStyleTableRecord
  2
STANDARD
 70
     0
 40
0.0
 41
1.0
 50
0.0
 71
     0
 42
0.0
  3
txt
  4

  0
ENDTAB
  0
TABLE
  2
VIEW
  5
5
330
0
100
AcDbSymbolTable
 70
     0
  0
ENDTAB
  0
TABLE
  2
UCS
  5
6
330
0
100
AcDbSymbolTable
 70
     0
  0
ENDTAB
  0
TABLE
  2
APPID
  5
8
330
0
100
AcDbSymbolTable
 70
     2
  0
APPID
  5
16
330
8
100
AcDbSymbolTableRecord
100
AcDbRegAppTableRecord
  2
ACAD
 70
     0
  0
APPID
  5
52F
330
8
100
AcDbSymbolTableRecord
100
AcDbRegAppTableRecord
  2
DCO15
 70
     0
  0
ENDTAB
  0
TABLE
  2
DIMSTYLE
  5
9
330
0
100
AcDbSymbolTable
 70
     1
100
AcDbDimStyleTable
 71
     0
  0
DIMSTYLE
105
18
330
9
100
AcDbSymbolTableRecord
100
AcDbDimStyleTableRecord
  2
STANDARD
 70
     0
340
17
  0
ENDTAB
  0
TABLE
  2
BLOCK_RECORD
  5
1
330
0
100
AcDbSymbolTable
 70
     0
  0
BLOCK_RECORD
  5
A
330
1
100
AcDbSymbolTableRecord
100
AcDbBlockTableRecord
  2
*MODEL_SPACE
340
529
  0
BLOCK_RECORD
  5
B
330
1
100
AcDbSymbolTableRecord
100
AcDbBlockTableRecord
  2
*PAPER_SPACE
340
52A
  0
ENDTAB
  0
ENDSEC
  0
SECTION
  2
BLOCKS
  0
BLOCK
  5
D
330
A
100
AcDbEntity
  8
0
100
AcDbBlockBegin
  2
*MODEL_SPACE
 70
     0
 10
0.0
 20
0.0
 30
0.0
  3
*MODEL_SPACE
  1

  0
ENDBLK
  5
E
330
A
100
AcDbEntity
  8
0
100
AcDbBlockEnd
  0
BLOCK
  5
F
330
B
100
AcDbEntity
 67
     1
  8
0
100
AcDbBlockBegin
  2
*PAPER_SPACE
 70
     0
 10
0.0
 20
0.0
 30
0.0
  3
*PAPER_SPACE
  1

  0
ENDBLK
  5
10
330
B
100
AcDbEntity
 67
     1
  8
0
100
AcDbBlockEnd
  0
ENDSEC
  0
SECTION
  2
ENTITIES
  0
LINE
  5
24
330
A
100
AcDbEntity
  8
0
  6
Continuous
 62
     7
100
AcDbLine
 10
6.8236852806
 20
5.3168494466
 30
0.0
 11
6.844516365299999
 21
4.1234374022
 31
0.0
  0
LINE
  5
25
330
A
100
AcDbEntity
  8
0
  6
Continuous
 62
     7
100
AcDbLine
 10
7.1534049587
 20
4.576849446599999
 30
0.0
 11
9.1234049587
 21
4.576849446599999
 31
0.0
  0
LINE
  5
26
330
A
100
AcDbEntity
  8
0
  6
Continuous
 62
     7
100
AcDbLine
 10
9.1363217067
 20
5.3168494466
 30
0.0
 11
9.1234049587
 21
4.576849446599999
 31
0.0
  0
LINE
  5
27
330
A
100
AcDbEntity
  8
0
  6
Continuous
 62
     7
100
AcDbLine
 10
9.2481831041
 20
5.3168494466
 30
0.0
 11
9.250089966899999
 21
5.207605352099999
 31
0.0
  0
LINE
  5
28
330
A
100
AcDbEntity
  8
0
  6
Continuous
 62
     7
100
AcDbLine
 10
9.250089966899999
 20
5.207605352099999
 30
0.0
 11
9.348719950399999
 21
5.207605352099999
 31
0.0
  0
LINE
  5
29
330
A
100
AcDbEntity
  8
0
  6
Continuous
 62
     7
100
AcDbLine
 10
15.604293552
 20
4.1234374022
 30
0.0
 11
15.6251246367
 21
5.3168494466
 31
0.0
  0
LINE
  5
2A
330
A
100
AcDbEntity
  8
0
  6
Continuous
 62
     7
100
AcDbLine
 10
6.844516365299999
 20
4.1234374022
 30
0.0
 11
15.604293552
 21
4.1234374022
 31
0.0
  0
LINE
  5
2B
330
A
100
AcDbEntity
  8
0
  6
Continuous
 62
     7
100
AcDbLine
 10
9.350626813199999
 20
5.3168494466
 30
0.0
 11
15.6251246367
 21
5.3168494466
 31
0.0
  0
LINE
  5
2C
330
A
100
AcDbEntity
  8
0
  6
Continuous
 62
     7
100
AcDbLine
 10
7.1404882106
 20
5.3168494466
 30
0.0
 11
7.1534049587
 21
4.576849446599999
 31
0.0
  0
LINE
  5
2D
330
A
100
AcDbEntity
  8
0
  6
Continuous
 62
     7
100
AcDbLine
 10
6.8236852806
 20
5.3168494466
 30
0.0
 11
7.1404882106
 21
5.3168494466
 31
0.0
  0
LINE
  5
2E
330
A
100
AcDbEntity
  8
0
  6
Continuous
 62
     7
100
AcDbLine
 10
9.348719950399999
 20
5.207605352099999
 30
0.0
 11
9.350626813199999
 21
5.3168494466
 31
0.0
  0
LINE
  5
2F
330
A
100
AcDbEntity
  8
0
  6
Continuous
 62
     7
100
AcDbLine
 10
9.1363217067
 20
5.3168494466
 30
0.0
 11
9.2481831041
 21
5.3168494466
 31
0.0
  0
LWPOLYLINE
  5
30
330
A
100
AcDbEntity
  8
0
  6
Continuous
 62
     7
100
AcDbPolyline
 90
        9
 70
   128
 43
0.0
 10
6.844516365299999
 20
4.1234374022
 10
6.795843865
 20
4.123444383499999
 10
6.7490346341
 20
4.125112987499999
 10
6.705880612899999
 20
4.1283793371
 10
6.6680338138
 20
4.133118390599999
 10
6.636943079299999
 20
4.1391487286
 10
6.613798617599999
 20
4.1462394991
 10
6.599486439899999
 20
4.1541192549
 10
6.594554441599999
 20
4.162486344999999
  0
LINE
  5
3B
330
A
100
AcDbEntity
  8
0
  6
Continuous
 62
     7
100
AcDbLine
 10
6.594554441599999
 20
4.162486344999999
 30
0.0
 11
6.574404958699999
 21
5.3168494466
 31
0.0
  0
LINE
  5
3C
330
A
100
AcDbEntity
  8
0
  6
Continuous
 62
     7
100
AcDbLine
 10
6.574404958699999
 20
5.3168494466
 30
0.0
 11
6.8236852806
 21
5.3168494466
 31
0.0
  0
LINE
  5
3D
330
A
100
AcDbEntity
  8
0
  6
Continuous
 62
     7
100
AcDbLine
 10
15.8744049587
 20
5.3168494466
 30
0.0
 11
15.8542554758
 21
4.162486344999999
 31
0.0
  0
LWPOLYLINE
  5
3E
330
A
100
AcDbEntity
  8
0
  6
Continuous
 62
     7
100
AcDbPolyline
 90
        9
 70
   128
 43
0.0
 10
15.8542554758
 20
4.162486344999999
 10
15.8493234774
 20
4.1541192549
 10
15.8350112997
 20
4.1462394991
 10
15.8118668381
 20
4.1391487286
 10
15.7807761035
 20
4.133118390599999
 10
15.7429293044
 20
4.1283793371
 10
15.69977528329999
 20
4.125112987499999
 10
15.6529660524
 20
4.123444383499999
 10
15.604293552
 20
4.1234374022
  0
LINE
  5
49
330
A
100
AcDbEntity
  8
0
  6
Continuous
 62
     7
100
AcDbLine
 10
15.6251246367
 20
5.3168494466
 30
0.0
 11
15.8744049587
 21
5.3168494466
 31
0.0
  0
LINE
  5
4A
330
A
100
AcDbEntity
  8
0
  6
Continuous
 62
     7
100
AcDbLine
 10
15.604293552
 20
3.9168494466
 30
0.0
 11
6.844516365299999
 21
3.9168494466
 31
0.0
  0
LINE
  5
4B
330
A
100
AcDbEntity
  8
0
  6
Continuous
 62
     7
100
AcDbLine
 10
6.844516365299999
 20
3.9168494466
 30
0.0
 11
6.844516365299999
 21
4.1234374022
 31
0.0
  0
LINE
  5
4C
330
A
100
AcDbEntity
  8
0
  6
Continuous
 62
     7
100
AcDbLine
 10
15.604293552
 20
3.9168494466
 30
0.0
 11
15.604293552
 21
4.1234374022
 31
0.0
  0
ARC
  5
4D
330
A
100
AcDbEntity
  8
0
  6
Continuous
 62
     7
100
AcDbCircle
 10
6.844516365299999
 20
4.166849446599999
 30
0.0
 40
0.25
100
AcDbArc
 50
181.0
 51
270.0
  0
ARC
  5
4E
330
A
100
AcDbEntity
  8
0
  6
Continuous
 62
     7
100
AcDbCircle
 10
15.604293552
 20
4.166849446599999
 30
0.0
 40
0.25
100
AcDbArc
 50
270.0
 51
359.0
  0
LINE
  5
4F
330
A
100
AcDbEntity
  8
0
  6
Continuous
 62
     7
100
AcDbLine
 10
7.1474702366
 20
4.916849446599999
 30
0.0
 11
7.174924643699999
 21
4.916849446599999
 31
0.0
  0
LINE
  5
50
330
A
100
AcDbEntity
  8
0
  6
Continuous
 62
     7
100
AcDbLine
 10
8.1198065335
 20
4.916849446599999
 30
0.0
 11
8.1589246437
 21
4.916849446599999
 31
0.0
  0
LINE
  5
51
330
A
100
AcDbEntity
  8
0
  6
Continuous
 62
     7
100
AcDbLine
 10
9.1038065335
 20
4.916849446599999
 30
0.0
 11
9.129339680699999
 21
4.916849446599999
 31
0.0
  0
LINE
  5
52
330
A
100
AcDbEntity
  8
0
  6
Continuous
 62
     7
100
AcDbLine
 10
9.123306618499999
 20
5.116849446599999
 30
0.0
 11
9.1229670556
 21
5.111415735799999
 31
0.0
  0
LINE
  5
53
330
A
100
AcDbEntity
  8
0
  6
Continuous
 62
     7
100
AcDbLine
 10
8.1198065335
 20
5.111415735799999
 30
0.0
 11
8.1589246437
 21
5.111415735799999
 31
0.0
  0
LINE
  5
54
330
A
100
AcDbEntity
  8
0
  6
Continuous
 62
     7
100
AcDbLine
 10
9.1038065335
 20
5.1117743186
 30
0.0
 11
9.1229670556
 21
5.111415735799999
 31
0.0
  0
LINE
  5
55
330
A
100
AcDbEntity
  8
0
  6
Continuous
 62
     7
100
AcDbLine
 10
9.123306618499999
 20
5.116849446599999
 30
0.0
 11
9.1328306937
 21
5.116849446599999
 31
0.0
  0
ARC
  5
56
330
A
100
AcDbEntity
  8
0
  6
Continuous
 62
     7
100
AcDbCircle
 10
9.123306618499999
 20
5.076849446599999
 30
0.0
 40
0.04
100
AcDbArc
 50
90.0
 51
119.1765353850999
  0
LINE
  5
57
330
A
100
AcDbEntity
  8
0
  6
Continuous
 62
     7
100
AcDbLine
 10
9.1038065335
 20
5.116849446599999
 30
0.0
 11
9.123306618499999
 21
5.116849446599999
 31
0.0
  0
LINE
  5
58
330
A
100
AcDbEntity
  8
0
  6
Continuous
 62
     7
100
AcDbLine
 10
6.574404957399999
 20
4.796849446599999
 30
0.0
 11
6.574404958699999
 21
5.906291927399999
 31
0.0
  0
LINE
  5
59
330
A
100
AcDbEntity
  8
0
  6
Continuous
 62
     7
100
AcDbLine
 10
6.5704049587
 20
4.796849446599999
 30
0.0
 11
6.574404957399999
 21
4.796849446599999
 31
0.0
  0
LINE
  5
5A
330
A
100
AcDbEntity
  8
0
  6
Continuous
 62
     7
100
AcDbLine
 10
6.5704049587
 20
4.796849446599999
 30
0.0
 11
6.5704049587
 21
5.906291927399999
 31
0.0
  0
LINE
  5
5B
330
A
100
AcDbEntity
  8
0
  6
Continuous
 62
     7
100
AcDbLine
 10
6.5704049587
 20
5.906291927399999
 30
0.0
 11
6.574404958699999
 21
5.906291927399999
 31
0.0
  0
ARC
  5
5C
330
A
100
AcDbEntity
  8
0
  6
Continuous
 62
     7
100
AcDbCircle
 10
6.5944049587
 20
4.796849447899999
 30
0.0
 40
0.0240000019
100
AcDbArc
 50
180.0230894447
 51
243.9305036026
  0
ARC
  5
5D
330
A
100
AcDbEntity
  8
0
  6
Continuous
 62
     7
100
AcDbCircle
 10
6.5944049587
 20
4.796849446599999
 30
0.0
 40
0.0200000013
100
AcDbArc
 50
180.0
 51
237.9011537273999
  0
LINE
  5
5E
330
A
100
AcDbEntity
  8
0
  6
Continuous
 62
     7
100
AcDbLine
 10
6.834566978299999
 20
5.9402614911
 30
0.0
 11
6.8236852806
 21
5.3168494466
 31
0.0
  0
LINE
  5
5F
330
A
100
AcDbEntity
  8
0
  6
Continuous
 62
     7
100
AcDbLine
 10
15.614242939
 20
5.9402614911
 30
0.0
 11
6.834566978299999
 21
5.9402614911
 31
0.0
  0
LINE
  5
60
330
A
100
AcDbEntity
  8
0
  6
Continuous
 62
     7
100
AcDbLine
 10
15.6251246367
 20
5.3168494466
 30
0.0
 11
15.614242939
 21
5.9402614911
 31
0.0
  0
LINE
  5
61
330
A
100
AcDbEntity
  8
0
  6
Continuous
 62
     7
100
AcDbLine
 10
6.8236852806
 20
5.3168494466
 30
0.0
 11
15.6251246367
 21
5.3168494466
 31
0.0
  0
LINE
  5
62
330
A
100
AcDbEntity
  8
0
  6
Continuous
 62
     7
100
AcDbLine
 10
6.574404958699999
 20
5.3168494466
 30
0.0
 11
6.584605054499999
 21
5.9012125482
 31
0.0
  0
LWPOLYLINE
  5
63
330
A
100
AcDbEntity
  8
0
  6
Continuous
 62
     7
100
AcDbPolyline
 90
        9
 70
   128
 43
0.0
 10
6.584605054499999
 20
5.9012125482
 10
6.589537052899999
 20
5.9095796383
 10
6.603849230599999
 20
5.917459394199999
 10
6.6269936923
 20
5.9245501647
 10
6.6580844268
 20
5.930580502699999
 10
6.695931225899999
 20
5.935319556199999
 10
6.7390852471
 20
5.9385859057
 10
6.7858944779
 20
5.940254509699999
 10
6.834566978299999
 20
5.9402614911
  0
LINE
  5
6E
330
A
100
AcDbEntity
  8
0
  6
Continuous
 62
     7
100
AcDbLine
 10
6.8236852806
 20
5.3168494466
 30
0.0
 11
6.574404958699999
 21
5.3168494466
 31
0.0
  0
LWPOLYLINE
  5
6F
330
A
100
AcDbEntity
  8
0
  6
Continuous
 62
     7
100
AcDbPolyline
 90
        9
 70
   128
 43
0.0
 10
15.614242939
 20
5.9402614911
 10
15.6629154394
 20
5.940254509699999
 10
15.7097246703
 20
5.9385859057
 10
15.7528786914
 20
5.935319556199999
 10
15.7907254905
 20
5.930580502699999
 10
15.8218162251
 20
5.9245501647
 10
15.8449606867
 20
5.917459394199999
 10
15.8592728644
 20
5.9095796383
 10
15.86420486279999
 20
5.9012125482
  0
LINE
  5
7A
330
A
100
AcDbEntity
  8
0
  6
Continuous
 62
     7
100
AcDbLine
 10
15.86420486279999
 20
5.9012125482
 30
0.0
 11
15.8744049587
 21
5.3168494466
 31
0.0
  0
LINE
  5
7B
330
A
100
AcDbEntity
  8
0
  6
Continuous
 62
     7
100
AcDbLine
 10
15.8744049587
 20
5.3168494466
 30
0.0
 11
15.6251246367
 21
5.3168494466
 31
0.0
  0
LINE
  5
7C
330
A
100
AcDbEntity
  8
0
  6
Continuous
 62
     7
100
AcDbLine
 10
9.2490558574
 20
5.2668494466
 30
0.0
 11
9.34975406
 21
5.2668494466
 31
0.0
  0
LINE
  5
7D
330
A
100
AcDbEntity
  8
0
  6
Continuous
 62
     7
100
AcDbLine
 10
9.135099852199999
 20
5.246849446599999
 30
0.0
 11
9.1038065335
 21
5.246849446599999
 31
0.0
  0
LINE
  5
7E
330
A
100
AcDbEntity
  8
0
  6
Continuous
 62
     7
100
AcDbLine
 10
8.1589246437
 20
5.246849446599999
 30
0.0
 11
8.1198065335
 21
5.246849446599999
 31
0.0
  0
LINE
  5
7F
330
A
100
AcDbEntity
  8
0
  6
Continuous
 62
     7
100
AcDbLine
 10
7.174924643699999
 20
5.246849446599999
 30
0.0
 11
7.141710065199999
 21
5.246849446599999
 31
0.0
  0
LINE
  5
80
330
A
100
AcDbEntity
  8
0
  6
Continuous
 62
     7
100
AcDbLine
 10
6.834566978299999
 20
6.1468494466
 30
0.0
 11
6.834566978299999
 21
5.9402614911
 31
0.0
  0
ARC
  5
81
330
A
100
AcDbEntity
  8
0
  6
Continuous
 62
     7
100
AcDbCircle
 10
6.834566978299999
 20
5.8968494466
 30
0.0
 40
0.25
100
AcDbArc
 50
90.0
 51
179.0
  0
LINE
  5
82
330
A
100
AcDbEntity
  8
0
  6
Continuous
 62
     7
100
AcDbLine
 10
6.834566978299999
 20
6.1468494466
 30
0.0
 11
15.614242939
 21
6.1468494466
 31
0.0
  0
LINE
  5
83
330
A
100
AcDbEntity
  8
0
  6
Continuous
 62
     7
100
AcDbLine
 10
15.614242939
 20
6.1468494466
 30
0.0
 11
15.614242939
 21
5.9402614911
 31
0.0
  0
ARC
  5
84
330
A
100
AcDbEntity
  8
0
  6
Continuous
 62
     7
100
AcDbCircle
 10
15.614242939
 20
5.8968494466
 30
0.0
 40
0.25
100
AcDbArc
 50
1.0
 51
90.0
  0
LINE
  5
85
330
A
100
AcDbEntity
  8
0
  6
Continuous
 62
     7
100
AcDbLine
 10
6.575033341
 20
5.352849446599999
 30
0.0
 11
6.574404958699999
 21
5.3168494466
 31
0.0
  0
LINE
  5
86
330
A
100
AcDbEntity
  8
0
  6
Continuous
 62
     7
100
AcDbLine
 10
8.1589246437
 20
5.1148494466
 30
0.0
 11
8.1198065335
 21
5.1148494466
 31
0.0
  0
LINE
  5
87
330
A
100
AcDbEntity
  8
0
  6
Continuous
 62
     7
100
AcDbLine
 10
8.9563655886
 20
4.7213061395
 30
0.0
 11
8.8663655886
 21
4.7213061395
 31
0.0
  0
LINE
  5
88
330
A
100
AcDbEntity
  8
0
  6
Continuous
 62
     7
100
AcDbLine
 10
8.8663655886
 20
4.8008494466
 30
0.0
 11
8.8663655886
 21
4.7213061395
 31
0.0
  0
LINE
  5
89
330
A
100
AcDbEntity
  8
0
  6
Continuous
 62
     7
100
AcDbLine
 10
8.9563655886
 20
4.8008494466
 30
0.0
 11
8.8663655886
 21
4.8008494466
 31
0.0
  0
LINE
  5
8A
330
A
100
AcDbEntity
  8
0
  6
Continuous
 62
     7
100
AcDbLine
 10
8.9563655886
 20
4.7213061395
 30
0.0
 11
8.9563655886
 21
4.8008494466
 31
0.0
  0
LINE
  5
8B
330
A
100
AcDbEntity
  8
0
  6
Continuous
 62
     7
100
AcDbLine
 10
8.3963655886
 20
4.8008494466
 30
0.0
 11
8.3063655886
 21
4.8008494466
 31
0.0
  0
LINE
  5
8C
330
A
100
AcDbEntity
  8
0
  6
Continuous
 62
     7
100
AcDbLine
 10
8.3963655886
 20
4.7213061395
 30
0.0
 11
8.3963655886
 21
4.8008494466
 31
0.0
  0
LINE
  5
8D
330
A
100
AcDbEntity
  8
0
  6
Continuous
 62
     7
100
AcDbLine
 10
8.3963655886
 20
4.7213061395
 30
0.0
 11
8.3063655886
 21
4.7213061395
 31
0.0
  0
LINE
  5
8E
330
A
100
AcDbEntity
  8
0
  6
Continuous
 62
     7
100
AcDbLine
 10
8.3063655886
 20
4.8008494466
 30
0.0
 11
8.3063655886
 21
4.7213061395
 31
0.0
  0
LINE
  5
8F
330
A
100
AcDbEntity
  8
0
  6
Continuous
 62
     7
100
AcDbLine
 10
8.9563655886
 20
4.6013061395
 30
0.0
 11
8.3063655886
 21
4.6013061395
 31
0.0
  0
LINE
  5
90
330
A
100
AcDbEntity
  8
0
  6
Continuous
 62
     7
100
AcDbLine
 10
8.3963655886
 20
4.7213061395
 30
0.0
 11
8.3963655886
 21
4.7133061395
 31
0.0
  0
LINE
  5
91
330
A
100
AcDbEntity
  8
0
  6
Continuous
 62
     7
100
AcDbLine
 10
8.8663655886
 20
4.7133061395
 30
0.0
 11
8.8663655886
 21
4.7213061395
 31
0.0
  0
LINE
  5
92
330
A
100
AcDbEntity
  8
0
  6
Continuous
 62
     7
100
AcDbLine
 10
8.3963655886
 20
4.7133061395
 30
0.0
 11
8.8663655886
 21
4.7133061395
 31
0.0
  0
LINE
  5
93
330
A
100
AcDbEntity
  8
0
  6
Continuous
 62
     7
100
AcDbLine
 10
8.9563655886
 20
4.6013061395
 30
0.0
 11
8.9563655886
 21
4.7213061395
 31
0.0
  0
LINE
  5
94
330
A
100
AcDbEntity
  8
0
  6
Continuous
 62
     7
100
AcDbLine
 10
8.3063655886
 20
4.6013061395
 30
0.0
 11
8.3063655886
 21
4.7213061395
 31
0.0
  0
LINE
  5
95
330
A
100
AcDbEntity
  8
0
  6
Continuous
 62
     7
100
AcDbLine
 10
9.1038065335
 20
5.254849446599999
 30
0.0
 11
9.1038065335
 21
4.6013061395
 31
0.0
  0
LINE
  5
96
330
A
100
AcDbEntity
  8
0
  6
Continuous
 62
     7
100
AcDbLine
 10
8.2063655886
 20
5.190849446599999
 30
0.0
 11
9.0563655886
 21
5.190849446599999
 31
0.0
  0
LINE
  5
97
330
A
100
AcDbEntity
  8
0
  6
Continuous
 62
     7
100
AcDbLine
 10
8.2063655886
 20
4.706849446599999
 30
0.0
 11
8.2063655886
 21
5.190849446599999
 31
0.0
  0
LINE
  5
98
330
A
100
AcDbEntity
  8
0
  6
Continuous
 62
     7
100
AcDbLine
 10
8.1589246437
 20
5.254849446599999
 30
0.0
 11
8.1589246437
 21
4.6013061395
 31
0.0
  0
LINE
  5
99
330
A
100
AcDbEntity
  8
0
  6
Continuous
 62
     7
100
AcDbLine
 10
9.1038065335
 20
5.254849446599999
 30
0.0
 11
8.1589246437
 21
5.254849446599999
 31
0.0
  0
LINE
  5
9A
330
A
100
AcDbEntity
  8
0
  6
Continuous
 62
     7
100
AcDbLine
 10
9.0563655886
 20
5.190849446599999
 30
0.0
 11
9.0563655886
 21
4.706849446599999
 31
0.0
  0
LINE
  5
9B
330
A
100
AcDbEntity
  8
0
  6
Continuous
 62
     7
100
AcDbLine
 10
8.9563655886
 20
4.706849446599999
 30
0.0
 11
9.0563655886
 21
4.706849446599999
 31
0.0
  0
LINE
  5
9C
330
A
100
AcDbEntity
  8
0
  6
Continuous
 62
     7
100
AcDbLine
 10
8.2063655886
 20
4.706849446599999
 30
0.0
 11
8.3063655886
 21
4.706849446599999
 31
0.0
  0
LINE
  5
9D
330
A
100
AcDbEntity
  8
0
  6
Continuous
 62
     7
100
AcDbLine
 10
8.9563655886
 20
4.6013061395
 30
0.0
 11
9.1038065335
 21
4.6013061395
 31
0.0
  0
LINE
  5
9E
330
A
100
AcDbEntity
  8
0
  6
Continuous
 62
     7
100
AcDbLine
 10
8.1589246437
 20
4.6013061395
 30
0.0
 11
8.3063655886
 21
4.6013061395
 31
0.0
  0
LINE
  5
9F
330
A
100
AcDbEntity
  8
0
  6
Continuous
 62
     7
100
AcDbLine
 10
8.8663655886
 20
4.8008494466
 30
0.0
 11
8.3963655886
 21
4.8008494466
 31
0.0
  0
LINE
  5
A0
330
A
100
AcDbEntity
  8
0
  6
Continuous
 62
     7
100
AcDbLine
 10
7.972365588599999
 20
4.6013061395
 30
0.0
 11
7.3223655886
 21
4.6013061395
 31
0.0
  0
LINE
  5
A1
330
A
100
AcDbEntity
  8
0
  6
Continuous
 62
     7
100
AcDbLine
 10
7.4123655886
 20
4.7213061395
 30
0.0
 11
7.4123655886
 21
4.7133061395
 31
0.0
  0
LINE
  5
A2
330
A
100
AcDbEntity
  8
0
  6
Continuous
 62
     7
100
AcDbLine
 10
7.882365588599999
 20
4.7133061395
 30
0.0
 11
7.882365588599999
 21
4.7213061395
 31
0.0
  0
LINE
  5
A3
330
A
100
AcDbEntity
  8
0
  6
Continuous
 62
     7
100
AcDbLine
 10
7.4123655886
 20
4.7133061395
 30
0.0
 11
7.882365588599999
 21
4.7133061395
 31
0.0
  0
LINE
  5
A4
330
A
100
AcDbEntity
  8
0
  6
Continuous
 62
     7
100
AcDbLine
 10
7.972365588599999
 20
4.6013061395
 30
0.0
 11
7.972365588599999
 21
4.7213061395
 31
0.0
  0
LINE
  5
A5
330
A
100
AcDbEntity
  8
0
  6
Continuous
 62
     7
100
AcDbLine
 10
7.3223655886
 20
4.6013061395
 30
0.0
 11
7.3223655886
 21
4.7213061395
 31
0.0
  0
LINE
  5
A6
330
A
100
AcDbEntity
  8
0
  6
Continuous
 62
     7
100
AcDbLine
 10
7.4123655886
 20
4.8008494466
 30
0.0
 11
7.3223655886
 21
4.8008494466
 31
0.0
  0
LINE
  5
A7
330
A
100
AcDbEntity
  8
0
  6
Continuous
 62
     7
100
AcDbLine
 10
7.4123655886
 20
4.7213061395
 30
0.0
 11
7.4123655886
 21
4.8008494466
 31
0.0
  0
LINE
  5
A8
330
A
100
AcDbEntity
  8
0
  6
Continuous
 62
     7
100
AcDbLine
 10
7.4123655886
 20
4.7213061395
 30
0.0
 11
7.3223655886
 21
4.7213061395
 31
0.0
  0
LINE
  5
A9
330
A
100
AcDbEntity
  8
0
  6
Continuous
 62
     7
100
AcDbLine
 10
7.3223655886
 20
4.8008494466
 30
0.0
 11
7.3223655886
 21
4.7213061395
 31
0.0
  0
LINE
  5
AA
330
A
100
AcDbEntity
  8
0
  6
Continuous
 62
     7
100
AcDbLine
 10
7.972365588599999
 20
4.7213061395
 30
0.0
 11
7.882365588599999
 21
4.7213061395
 31
0.0
  0
LINE
  5
AB
330
A
100
AcDbEntity
  8
0
  6
Continuous
 62
     7
100
AcDbLine
 10
7.882365588599999
 20
4.8008494466
 30
0.0
 11
7.882365588599999
 21
4.7213061395
 31
0.0
  0
LINE
  5
AC
330
A
100
AcDbEntity
  8
0
  6
Continuous
 62
     7
100
AcDbLine
 10
7.972365588599999
 20
4.8008494466
 30
0.0
 11
7.882365588599999
 21
4.8008494466
 31
0.0
  0
LINE
  5
AD
330
A
100
AcDbEntity
  8
0
  6
Continuous
 62
     7
100
AcDbLine
 10
7.972365588599999
 20
4.7213061395
 30
0.0
 11
7.972365588599999
 21
4.8008494466
 31
0.0
  0
LINE
  5
AE
330
A
100
AcDbEntity
  8
0
  6
Continuous
 62
     7
100
AcDbLine
 10
8.1198065335
 20
5.254849446599999
 30
0.0
 11
8.1198065335
 21
4.6013061395
 31
0.0
  0
LINE
  5
AF
330
A
100
AcDbEntity
  8
0
  6
Continuous
 62
     7
100
AcDbLine
 10
7.222365588599999
 20
5.190849446599999
 30
0.0
 11
8.0723655886
 21
5.190849446599999
 31
0.0
  0
LINE
  5
B0
330
A
100
AcDbEntity
  8
0
  6
Continuous
 62
     7
100
AcDbLine
 10
7.222365588599999
 20
4.706849446599999
 30
0.0
 11
7.222365588599999
 21
5.190849446599999
 31
0.0
  0
LINE
  5
B1
330
A
100
AcDbEntity
  8
0
  6
Continuous
 62
     7
100
AcDbLine
 10
7.174924643699999
 20
5.254849446599999
 30
0.0
 11
7.174924643699999
 21
4.6013061395
 31
0.0
  0
LINE
  5
B2
330
A
100
AcDbEntity
  8
0
  6
Continuous
 62
     7
100
AcDbLine
 10
8.1198065335
 20
5.254849446599999
 30
0.0
 11
7.174924643699999
 21
5.254849446599999
 31
0.0
  0
LINE
  5
B3
330
A
100
AcDbEntity
  8
0
  6
Continuous
 62
     7
100
AcDbLine
 10
8.0723655886
 20
5.190849446599999
 30
0.0
 11
8.0723655886
 21
4.706849446599999
 31
0.0
  0
LINE
  5
B4
330
A
100
AcDbEntity
  8
0
  6
Continuous
 62
     7
100
AcDbLine
 10
7.972365588599999
 20
4.706849446599999
 30
0.0
 11
8.0723655886
 21
4.706849446599999
 31
0.0
  0
LINE
  5
B5
330
A
100
AcDbEntity
  8
0
  6
Continuous
 62
     7
100
AcDbLine
 10
7.222365588599999
 20
4.706849446599999
 30
0.0
 11
7.3223655886
 21
4.706849446599999
 31
0.0
  0
LINE
  5
B6
330
A
100
AcDbEntity
  8
0
  6
Continuous
 62
     7
100
AcDbLine
 10
7.972365588599999
 20
4.6013061395
 30
0.0
 11
8.1198065335
 21
4.6013061395
 31
0.0
  0
LINE
  5
B7
330
A
100
AcDbEntity
  8
0
  6
Continuous
 62
     7
100
AcDbLine
 10
7.174924643699999
 20
4.6013061395
 30
0.0
 11
7.3223655886
 21
4.6013061395
 31
0.0
  0
LINE
  5
B8
330
A
100
AcDbEntity
  8
0
  6
Continuous
 62
     7
100
AcDbLine
 10
7.882365588599999
 20
4.8008494466
 30
0.0
 11
7.4123655886
 21
4.8008494466
 31
0.0
  0
LINE
  5
B9
330
A
100
AcDbEntity
  8
0
  6
Continuous
 62
     7
100
AcDbLine
 10
9.326964013799999
 20
5.207605352099999
 30
0.0
 11
9.326964013799999
 21
5.254849446599999
 31
0.0
  0
LINE
  5
BA
330
A
100
AcDbEntity
  8
0
  6
Continuous
 62
     7
100
AcDbLine
 10
9.348719950399999
 20
5.207605352099999
 30
0.0
 11
9.326964013799999
 21
5.207605352099999
 31
0.0
  0
LINE
  5
BB
330
A
100
AcDbEntity
  8
0
  6
Continuous
 62
     7
100
AcDbLine
 10
9.271845903499999
 20
5.207605352099999
 30
0.0
 11
9.271845903499999
 21
5.254849446599999
 31
0.0
  0
LINE
  5
BC
330
A
100
AcDbEntity
  8
0
  6
Continuous
 62
     7
100
AcDbLine
 10
9.326964013799999
 20
5.207605352099999
 30
0.0
 11
9.271845903499999
 21
5.207605352099999
 31
0.0
  0
LINE
  5
BD
330
A
100
AcDbEntity
  8
0
  6
Continuous
 62
     7
100
AcDbLine
 10
9.271845903499999
 20
5.207605352099999
 30
0.0
 11
9.250089966899999
 21
5.207605352099999
 31
0.0
  0
LINE
  5
BE
330
A
100
AcDbEntity
  8
0
  6
Continuous
 62
     7
100
AcDbLine
 10
9.2492653181
 20
5.254849446599999
 30
0.0
 11
9.349544599199999
 21
5.254849446599999
 31
0.0
  0
LINE
  5
BF
330
A
100
AcDbEntity
  8
0
  6
Continuous
 62
     7
100
AcDbLine
 10
15.12485879039999
 20
6.1468494466
 30
0.0
 11
15.12485879039999
 21
6.156849446599999
 31
0.0
  0
LINE
  5
C0
330
A
100
AcDbEntity
  8
0
  6
Continuous
 62
     7
100
AcDbLine
 10
14.86485879039999
 20
6.1468494466
 30
0.0
 11
14.86485879039999
 21
6.156849446599999
 31
0.0
  0
LINE
  5
C1
330
A
100
AcDbEntity
  8
0
  6
Continuous
 62
     7
100
AcDbLine
 10
14.86485879039999
 20
6.156849446599999
 30
0.0
 11
15.12485879039999
 21
6.156849446599999
 31
0.0
  0
LINE
  5
C2
330
A
100
AcDbEntity
  8
0
  6
Continuous
 62
     7
100
AcDbLine
 10
15.2448587904
 20
6.1468494466
 30
0.0
 11
15.2448587904
 21
6.156849446599999
 31
0.0
  0
LINE
  5
C3
330
A
100
AcDbEntity
  8
0
  6
Continuous
 62
     7
100
AcDbLine
 10
15.12485879039999
 20
6.156849446599999
 30
0.0
 11
15.2448587904
 21
6.156849446599999
 31
0.0
  0
LINE
  5
C4
330
A
100
AcDbEntity
  8
0
  6
Continuous
 62
     7
100
AcDbLine
 10
14.7448587904
 20
6.1468494466
 30
0.0
 11
14.7448587904
 21
6.156849446599999
 31
0.0
  0
LINE
  5
C5
330
A
100
AcDbEntity
  8
0
  6
Continuous
 62
     7
100
AcDbLine
 10
14.7448587904
 20
6.156849446599999
 30
0.0
 11
14.86485879039999
 21
6.156849446599999
 31
0.0
  0
LINE
  5
C6
330
A
100
AcDbEntity
  8
0
  6
Continuous
 62
     7
100
AcDbLine
 10
9.125733674599999
 20
4.710261491099999
 30
0.0
 11
9.1038065335
 21
4.710261491099999
 31
0.0
  0
LINE
  5
C7
330
A
100
AcDbEntity
  8
0
  6
Continuous
 62
     7
100
AcDbLine
 10
8.1589246437
 20
4.710261491099999
 30
0.0
 11
8.1198065335
 21
4.710261491099999
 31
0.0
  0
LINE
  5
C8
330
A
100
AcDbEntity
  8
0
  6
Continuous
 62
     7
100
AcDbLine
 10
7.174924643699999
 20
4.710261491099999
 30
0.0
 11
7.1510762428
 21
4.710261491099999
 31
0.0
  0
LINE
  5
C9
330
A
100
AcDbEntity
  8
0
  6
Continuous
 62
     7
100
AcDbLine
 10
7.146955723599999
 20
4.9463258744
 30
0.0
 11
7.174924643699999
 21
4.9463258744
 31
0.0
  0
LINE
  5
CA
330
A
100
AcDbEntity
  8
0
  6
Continuous
 62
     7
100
AcDbLine
 10
7.174924643699999
 20
5.1485946873
 30
0.0
 11
7.143425108399999
 21
5.1485946873
 31
0.0
  0
LINE
  5
CB
330
A
100
AcDbEntity
  8
0
  6
Continuous
 62
     7
100
AcDbLine
 10
9.130875726499999
 20
5.004849446599999
 30
0.0
 11
9.1038065335
 21
5.004849446599999
 31
0.0
  0
LINE
  5
CC
330
A
100
AcDbEntity
  8
0
  6
Continuous
 62
     7
100
AcDbLine
 10
8.1589246437
 20
5.004849446599999
 30
0.0
 11
8.1198065335
 21
5.004849446599999
 31
0.0
  0
LINE
  5
CD
330
A
100
AcDbEntity
  8
0
  6
Continuous
 62
     7
100
AcDbLine
 10
6.5704049587
 20
12.334910631
 30
0.0
 11
6.574404958699999
 21
12.334910631
 31
0.0
  0
LINE
  5
CE
330
A
100
AcDbEntity
  8
0
  6
Continuous
 62
     7
100
AcDbLine
 10
6.5704049587
 20
13.834910631
 30
0.0
 11
6.574404958699999
 21
13.834910631
 31
0.0
  0
LINE
  5
CF
330
A
100
AcDbEntity
  8
0
  6
Continuous
 62
     7
100
AcDbLine
 10
6.574404958699999
 20
12.334910631
 30
0.0
 11
6.574404958699999
 21
13.834910631
 31
0.0
  0
LINE
  5
D0
330
A
100
AcDbEntity
  8
0
  6
Continuous
 62
     7
100
AcDbLine
 10
6.5704049587
 20
12.334910631
 30
0.0
 11
6.5704049587
 21
13.834910631
 31
0.0
  0
LINE
  5
D1
330
A
100
AcDbEntity
  8
0
  6
Continuous
 62
     7
100
AcDbLine
 10
13.3759172573
 20
10.40457204179999
 30
0.0
 11
13.3759172573
 21
10.4712529421
 31
0.0
  0
LWPOLYLINE
  5
D2
330
A
100
AcDbEntity
  8
0
  6
Continuous
 62
     7
100
AcDbPolyline
 90
        9
 70
   128
 43
0.0
 10
13.2559172573
 20
10.3837342605
 10
13.2793280959
 20
10.3841346526
 10
13.3018392692
 20
10.38532044219999
 10
13.3225856852
 20
10.3872460599
 10
13.340770071
 20
10.38983750539999
 10
13.3556936108
 20
10.3929951908
 10
13.3667828012
 20
10.39659776819999
 10
13.3736114909
 20
10.40050679239999
 10
13.3759172573
 20
10.40457204179999
  0
LINE
  5
DD
330
A
100
AcDbEntity
  8
0
  6
Continuous
 62
     7
100
AcDbLine
 10
6.9959172573
 20
10.3837342605
 30
0.0
 11
13.2559172573
 21
10.3837342605
 31
0.0
  0
LWPOLYLINE
  5
DE
330
A
100
AcDbEntity
  8
0
  6
Continuous
 62
     7
100
AcDbPolyline
 90
        9
 70
   128
 43
0.0
 10
6.8759172573
 20
10.40457204179999
 10
6.8782230236
 20
10.40050679239999
 10
6.8850517134
 20
10.39659776819999
 10
6.8961409038
 20
10.3929951908
 10
6.911064443499999
 20
10.38983750539999
 10
6.929248829299999
 20
10.3872460599
 10
6.9499952454
 20
10.38532044219999
 10
6.9725064186
 20
10.3841346526
 10
6.9959172573
 20
10.3837342605
  0
LINE
  5
E9
330
A
100
AcDbEntity
  8
0
  6
Continuous
 62
     7
100
AcDbLine
 10
6.8759172573
 20
10.4712529421
 30
0.0
 11
6.8759172573
 21
10.40457204179999
 31
0.0
  0
LWPOLYLINE
  5
EA
330
A
100
AcDbEntity
  8
0
  6
Continuous
 62
     7
100
AcDbPolyline
 90
        9
 70
   128
 43
0.0
 10
6.9959172573
 20
10.4920907234
 10
6.9725064186
 20
10.49169033129999
 10
6.9499952454
 20
10.4905045417
 10
6.929248829299999
 20
10.488578924
 10
6.911064443499999
 20
10.4859874785
 10
6.8961409038
 20
10.4828297931
 10
6.8850517134
 20
10.47922721569999
 10
6.8782230236
 20
10.4753181915
 10
6.8759172573
 20
10.4712529421
  0
LINE
  5
F5
330
A
100
AcDbEntity
  8
0
  6
Continuous
 62
     7
100
AcDbLine
 10
13.2559172573
 20
10.4920907234
 30
0.0
 11
6.9959172573
 21
10.4920907234
 31
0.0
  0
LWPOLYLINE
  5
F6
330
A
100
AcDbEntity
  8
0
  6
Continuous
 62
     7
100
AcDbPolyline
 90
        9
 70
   128
 43
0.0
 10
13.3759172573
 20
10.4712529421
 10
13.3736114909
 20
10.4753181915
 10
13.3667828012
 20
10.47922721569999
 10
13.3556936108
 20
10.4828297931
 10
13.340770071
 20
10.4859874785
 10
13.3225856852
 20
10.488578924
 10
13.3018392692
 20
10.4905045417
 10
13.2793280959
 20
10.49169033129999
 10
13.2559172573
 20
10.4920907234
  0
LINE
  5
101
330
A
100
AcDbEntity
  8
0
  6
Continuous
 62
     7
100
AcDbLine
 10
6.8759172573
 20
10.4739972132
 30
0.0
 11
6.8759172573
 21
10.4712529421
 31
0.0
  0
LINE
  5
102
330
A
100
AcDbEntity
  8
0
  6
Continuous
 62
     7
100
AcDbLine
 10
13.3759172573
 20
10.4739972132
 30
0.0
 11
13.3759172573
 21
10.4712529421
 31
0.0
  0
ARC
  5
103
330
A
100
AcDbEntity
  8
0
  6
Continuous
 62
     7
100
AcDbCircle
 10
7.9244049587
 20
15.90491063099999
 30
0.0
 40
0.2
100
AcDbArc
 50
90.0
 51
180.0
  0
LINE
  5
104
330
A
100
AcDbEntity
  8
0
  6
Continuous
 62
     7
100
AcDbLine
 10
14.72440495869999
 20
15.90491063099999
 30
0.0
 11
14.72440495869999
 21
11.304910631
 31
0.0
  0
ARC
  5
105
330
A
100
AcDbEntity
  8
0
  6
Continuous
 62
     7
100
AcDbCircle
 10
14.5244049587
 20
11.304910631
 30
0.0
 40
0.2
100
AcDbArc
 50
270.0
 51
0.0
  0
LINE
  5
106
330
A
100
AcDbEntity
  8
0
  6
Continuous
 62
     7
100
AcDbLine
 10
14.5244049587
 20
11.104910631
 30
0.0
 11
7.9244049587
 21
11.104910631
 31
0.0
  0
ARC
  5
107
330
A
100
AcDbEntity
  8
0
  6
Continuous
 62
     7
100
AcDbCircle
 10
7.9244049587
 20
11.304910631
 30
0.0
 40
0.2
100
AcDbArc
 50
180.0
 51
270.0
  0
LINE
  5
108
330
A
100
AcDbEntity
  8
0
  6
Continuous
 62
     7
100
AcDbLine
 10
7.7244049587
 20
11.304910631
 30
0.0
 11
7.7244049587
 21
15.90491063099999
 31
0.0
  0
ARC
  5
109
330
A
100
AcDbEntity
  8
0
  6
Continuous
 62
     7
100
AcDbCircle
 10
14.5244049587
 20
15.90491063099999
 30
0.0
 40
0.2
100
AcDbArc
 50
0.0
 51
90.0
  0
LINE
  5
10A
330
A
100
AcDbEntity
  8
0
  6
Continuous
 62
     7
100
AcDbLine
 10
7.9244049587
 20
16.104910631
 30
0.0
 11
14.5244049587
 21
16.104910631
 31
0.0
  0
LINE
  5
10B
330
A
100
AcDbEntity
  8
0
  6
Continuous
 62
     7
100
AcDbLine
 10
6.574404958699999
 20
17.3908489473
 30
0.0
 11
6.574404958699999
 21
13.834910631
 31
0.0
  0
LINE
  5
10C
330
A
100
AcDbEntity
  8
0
  6
Continuous
 62
     7
100
AcDbLine
 10
6.574404958699999
 20
12.334910631
 30
0.0
 11
6.574404958699999
 21
11.3861324855
 31
0.0
  0
ARC
  5
10D
330
A
100
AcDbEntity
  8
0
  6
Continuous
 62
     7
100
AcDbCircle
 10
6.824316355099999
 20
17.39093755969999
 30
0.0
 40
0.2499114122
100
AcDbArc
 50
90.0058709299
 51
180.020315656
  0
LINE
  5
10E
330
A
100
AcDbEntity
  8
0
  6
Continuous
 62
     7
100
AcDbLine
 10
6.8242907474
 20
17.6408489705
 30
0.0
 11
7.490440068699999
 21
17.6408489705
 31
0.0
  0
LINE
  5
10F
330
A
100
AcDbEntity
  8
0
  6
Continuous
 62
     7
100
AcDbLine
 10
15.8744049587
 20
10.6379979514
 30
0.0
 11
15.8744049587
 21
17.3908489473
 31
0.0
  0
ARC
  5
110
330
A
100
AcDbEntity
  8
0
  6
Continuous
 62
     7
100
AcDbCircle
 10
15.62336513209999
 20
10.6359526235
 30
0.0
 40
0.2510481585
100
AcDbArc
 50
270.4015684173
 51
0.4668026808
  0
LINE
  5
111
330
A
100
AcDbEntity
  8
0
  6
Continuous
 62
     7
100
AcDbLine
 10
13.2956661471
 20
10.384910631
 30
0.0
 11
15.6251246367
 21
10.384910631
 31
0.0
  0
LINE
  5
112
330
A
100
AcDbEntity
  8
0
  6
Continuous
 62
     7
100
AcDbLine
 10
14.9583698486
 20
17.6408489705
 30
0.0
 11
15.62451916989999
 21
17.6408489705
 31
0.0
  0
ARC
  5
113
330
A
100
AcDbEntity
  8
0
  6
Continuous
 62
     7
100
AcDbCircle
 10
15.6244935622
 20
17.39093755969999
 30
0.0
 40
0.2499114122
100
AcDbArc
 50
359.9796843438999
 51
89.99412907020001
  0
LINE
  5
114
330
A
100
AcDbEntity
  8
0
  6
Continuous
 62
     7
100
AcDbLine
 10
6.574404958699999
 20
11.2836887764
 30
0.0
 11
6.574404958699999
 21
10.9861324855
 31
0.0
  0
LINE
  5
115
330
A
100
AcDbEntity
  8
0
  6
Continuous
 62
     7
100
AcDbLine
 10
6.8236852806
 20
10.384910631
 30
0.0
 11
6.9561683675
 21
10.384910631
 31
0.0
  0
ARC
  5
116
330
A
100
AcDbEntity
  8
0
  6
Continuous
 62
     7
100
AcDbCircle
 10
6.8254447852
 20
10.6359526235
 30
0.0
 40
0.2510481585
100
AcDbArc
 50
179.5331973195
 51
269.5984315827
  0
LINE
  5
117
330
A
100
AcDbEntity
  8
0
  6
Continuous
 62
     7
100
AcDbLine
 10
6.574404958699999
 20
10.8836887764
 30
0.0
 11
6.574404958699999
 21
10.6379979514
 31
0.0
  0
ARC
  5
118
330
A
100
AcDbEntity
  8
0
  6
Continuous
 62
     7
100
AcDbCircle
 10
15.54651484809999
 20
14.03616024049999
 30
0.0
 40
0.2191048182
100
AcDbArc
 50
222.9841724528
 51
263.5345776006
  0
ARC
  5
119
330
A
100
AcDbEntity
  8
0
  6
Continuous
 62
     7
100
AcDbCircle
 10
15.54375111519999
 20
14.51960027
 30
0.0
 40
0.6521350263
100
AcDbArc
 50
256.0221907494999
 51
268.074805578
  0
LINE
  5
11A
330
A
100
AcDbEntity
  8
0
  6
Continuous
 62
     7
100
AcDbLine
 10
15.5218428613
 20
13.8184489306
 30
0.0
 11
15.5218428613
 21
13.8678333477
 31
0.0
  0
LWPOLYLINE
  5
11B
330
A
100
AcDbEntity
  8
0
  6
Continuous
 62
     7
100
AcDbPolyline
 90
        9
 70
   128
 43
0.0
 10
15.5538527162
 20
13.879582531
 10
15.5481745293
 20
13.8802814839
 10
15.5427073897
 20
13.88205577309999
 10
15.5376545008
 20
13.88483945149999
 10
15.5332036687
 20
13.888529055
 10
15.5295203225
 20
13.8929874482
 10
15.526741365
 20
13.898048921
 10
15.5249700849
 20
13.9035253481
 10
15.5242723173
 20
13.9092131812
  0
ARC
  5
126
330
A
100
AcDbEntity
  8
0
  6
Continuous
 62
     7
100
AcDbCircle
 10
15.5077478533
 20
13.95571317689999
 30
0.0
 40
0.0890029979
100
AcDbArc
 50
279.1120391805
 51
301.1991767417999
  0
ARC
  5
127
330
A
100
AcDbEntity
  8
0
  6
Continuous
 62
     7
100
AcDbCircle
 10
15.4122121826
 20
14.1627801785
 30
0.0
 40
0.2772249914
100
AcDbArc
 50
264.6223058101999
 51
293.8423137377999
  0
LINE
  5
128
330
A
100
AcDbEntity
  8
0
  6
Continuous
 62
     7
100
AcDbLine
 10
6.926967055999999
 20
13.8184489306
 30
0.0
 11
6.926967055999999
 21
13.8678333477
 31
0.0
  0
ARC
  5
129
330
A
100
AcDbEntity
  8
0
  6
Continuous
 62
     7
100
AcDbCircle
 10
6.886665688399999
 20
14.6512827439
 30
0.0
 40
0.7844852813
100
AcDbArc
 50
272.9447527237999
 51
282.9582509488
  0
ARC
  5
12A
330
A
100
AcDbEntity
  8
0
  6
Continuous
 62
     7
100
AcDbCircle
 10
6.9022950692
 20
14.03616024049999
 30
0.0
 40
0.2191048182
100
AcDbArc
 50
276.4654223993999
 51
317.0158275472
  0
LWPOLYLINE
  5
12B
330
A
100
AcDbEntity
  8
0
  6
Continuous
 62
     7
100
AcDbPolyline
 90
        9
 70
   128
 43
0.0
 10
6.924537599999999
 20
13.9092131812
 10
6.923839832399999
 20
13.9035253481
 10
6.922068552299999
 20
13.898048921
 10
6.9192895949
 20
13.8929874482
 10
6.915606248599999
 20
13.888529055
 10
6.911155416499999
 20
13.88483945149999
 10
6.906102527599999
 20
13.88205577309999
 10
6.9006353881
 20
13.8802814839
 10
6.8949572011
 20
13.879582531
  0
ARC
  5
136
330
A
100
AcDbEntity
  8
0
  6
Continuous
 62
     7
100
AcDbCircle
 10
7.036597734699999
 20
14.1627801784
 30
0.0
 40
0.2772249914
100
AcDbArc
 50
246.1576862621
 51
275.3776941899
  0
ARC
  5
137
330
A
100
AcDbEntity
  8
0
  6
Continuous
 62
     7
100
AcDbCircle
 10
6.932217368299999
 20
13.93161640189999
 30
0.0
 40
0.0639987795
100
AcDbArc
 50
234.3944862017
 51
265.2942978759999
  0
LINE
  5
138
330
A
100
AcDbEntity
  8
0
  6
Continuous
 62
     7
100
AcDbLine
 10
7.0625794616
 20
16.576736128
 30
0.0
 11
7.0625794616
 21
16.57471475439999
 31
0.0
  0
LINE
  5
139
330
A
100
AcDbEntity
  8
0
  6
Continuous
 62
     7
100
AcDbLine
 10
11.1620232184
 20
16.576736128
 30
0.0
 11
7.0625794616
 21
16.576736128
 31
0.0
  0
LINE
  5
13A
330
A
100
AcDbEntity
  8
0
  6
Continuous
 62
     7
100
AcDbLine
 10
11.1620232184
 20
17.2822999865
 30
0.0
 11
11.1620232184
 21
16.576736128
 31
0.0
  0
ARC
  5
13B
330
A
100
AcDbEntity
  8
0
  6
Continuous
 62
     7
100
AcDbCircle
 10
11.21201245019999
 20
17.2823031394
 30
0.0
 40
0.0499892319
100
AcDbArc
 50
89.99638622149999
 51
180.0
  0
LINE
  5
13C
330
A
100
AcDbEntity
  8
0
  6
Continuous
 62
     7
100
AcDbLine
 10
11.2367943142
 20
17.3322923712
 30
0.0
 11
11.2120156032
 21
17.3322923712
 31
0.0
  0
ARC
  5
13D
330
A
100
AcDbEntity
  8
0
  6
Continuous
 62
     7
100
AcDbCircle
 10
11.2367974671
 20
17.2823031394
 30
0.0
 40
0.0499892319
100
AcDbArc
 50
360.0
 51
90.0036137775
  0
LINE
  5
13E
330
A
100
AcDbEntity
  8
0
  6
Continuous
 62
     7
100
AcDbLine
 10
11.28678669889999
 20
16.576736128
 30
0.0
 11
11.28678669889999
 21
17.2822999865
 31
0.0
  0
LINE
  5
13F
330
A
100
AcDbEntity
  8
0
  6
Continuous
 62
     7
100
AcDbLine
 10
15.3862304557
 20
16.576736128
 30
0.0
 11
11.28678669889999
 21
16.576736128
 31
0.0
  0
LINE
  5
140
330
A
100
AcDbEntity
  8
0
  6
Continuous
 62
     7
100
AcDbLine
 10
15.3862304557
 20
16.57471475439999
 30
0.0
 11
15.3862304557
 21
16.576736128
 31
0.0
  0
LINE
  5
141
330
A
100
AcDbEntity
  8
0
  6
Continuous
 62
     7
100
AcDbLine
 10
15.3862304557
 20
13.8867753855
 30
0.0
 11
15.3862304557
 21
16.57471475439999
 31
0.0
  0
LINE
  5
142
330
A
100
AcDbEntity
  8
0
  6
Continuous
 62
     7
100
AcDbLine
 10
15.614242939
 20
13.8184489306
 30
0.0
 11
15.5218428613
 21
13.8184489306
 31
0.0
  0
LINE
  5
143
330
A
100
AcDbEntity
  8
0
  6
Continuous
 62
     7
100
AcDbLine
 10
15.614242939
 20
10.7410369327
 30
0.0
 11
15.614242939
 21
13.8184489306
 31
0.0
  0
LINE
  5
144
330
A
100
AcDbEntity
  8
0
  6
Continuous
 62
     7
100
AcDbLine
 10
6.834566978299999
 20
10.7410369327
 30
0.0
 11
15.614242939
 21
10.7410369327
 31
0.0
  0
LINE
  5
145
330
A
100
AcDbEntity
  8
0
  6
Continuous
 62
     7
100
AcDbLine
 10
6.834566978299999
 20
13.8184489306
 30
0.0
 11
6.834566978299999
 21
10.7410369327
 31
0.0
  0
LINE
  5
146
330
A
100
AcDbEntity
  8
0
  6
Continuous
 62
     7
100
AcDbLine
 10
6.926967055999999
 20
13.8184489306
 30
0.0
 11
6.834566978299999
 21
13.8184489306
 31
0.0
  0
LINE
  5
147
330
A
100
AcDbEntity
  8
0
  6
Continuous
 62
     7
100
AcDbLine
 10
7.0625794616
 20
16.57471475439999
 30
0.0
 11
7.0625794616
 21
13.8867753855
 31
0.0
  0
ARC
  5
148
330
A
100
AcDbEntity
  8
0
  6
Continuous
 62
     7
100
AcDbCircle
 10
14.5444049587
 20
15.92491063099999
 30
0.0
 40
0.2004538317
100
AcDbArc
 50
0.0
 51
90.0
  0
LINE
  5
149
330
A
100
AcDbEntity
  8
0
  6
Continuous
 62
     7
100
AcDbLine
 10
14.5444049587
 20
16.1253644626
 30
0.0
 11
7.904404958699999
 21
16.1253644626
 31
0.0
  0
ARC
  5
14A
330
A
100
AcDbEntity
  8
0
  6
Continuous
 62
     7
100
AcDbCircle
 10
7.904404958699999
 20
15.92491063099999
 30
0.0
 40
0.2004538317
100
AcDbArc
 50
90.0
 51
180.0
  0
LINE
  5
14B
330
A
100
AcDbEntity
  8
0
  6
Continuous
 62
     7
100
AcDbLine
 10
7.703951126999999
 20
15.92491063099999
 30
0.0
 11
7.703951126999999
 21
11.284910631
 31
0.0
  0
ARC
  5
14C
330
A
100
AcDbEntity
  8
0
  6
Continuous
 62
     7
100
AcDbCircle
 10
7.904404958699999
 20
11.284910631
 30
0.0
 40
0.2004538317
100
AcDbArc
 50
180.0
 51
270.0
  0
LINE
  5
14D
330
A
100
AcDbEntity
  8
0
  6
Continuous
 62
     7
100
AcDbLine
 10
7.904404958699999
 20
11.08445679929999
 30
0.0
 11
14.5444049587
 21
11.08445679929999
 31
0.0
  0
ARC
  5
14E
330
A
100
AcDbEntity
  8
0
  6
Continuous
 62
     7
100
AcDbCircle
 10
14.5444049587
 20
11.284910631
 30
0.0
 40
0.2004538317
100
AcDbArc
 50
270.0
 51
0.0
  0
LINE
  5
14F
330
A
100
AcDbEntity
  8
0
  6
Continuous
 62
     7
100
AcDbLine
 10
11.2093973434
 20
17.334910631
 30
0.0
 11
11.2120156032
 21
17.3322923712
 31
0.0
  0
LINE
  5
150
330
A
100
AcDbEntity
  8
0
  6
Continuous
 62
     7
100
AcDbLine
 10
11.2394125739
 20
17.334910631
 30
0.0
 11
11.2093973434
 21
17.334910631
 31
0.0
  0
LINE
  5
151
330
A
100
AcDbEntity
  8
0
  6
Continuous
 62
     7
100
AcDbLine
 10
11.2367943142
 20
17.3322923712
 30
0.0
 11
11.2394125739
 21
17.334910631
 31
0.0
  0
ARC
  5
152
330
A
100
AcDbEntity
  8
0
  6
Continuous
 62
     7
100
AcDbCircle
 10
11.2394157268
 20
17.2849213991
 30
0.0
 40
0.0499892319
100
AcDbArc
 50
360.0
 51
90.00361377709999
  0
LINE
  5
153
330
A
100
AcDbEntity
  8
0
  6
Continuous
 62
     7
100
AcDbLine
 10
11.2894049587
 20
17.2849182462
 30
0.0
 11
11.28678669889999
 21
17.2822999865
 31
0.0
  0
LINE
  5
154
330
A
100
AcDbEntity
  8
0
  6
Continuous
 62
     7
100
AcDbLine
 10
11.1620232184
 20
17.2822999865
 30
0.0
 11
11.1594049587
 21
17.2849182462
 31
0.0
  0
ARC
  5
155
330
A
100
AcDbEntity
  8
0
  6
Continuous
 62
     7
100
AcDbCircle
 10
11.20939419049999
 20
17.2849213991
 30
0.0
 40
0.0499892319
100
AcDbArc
 50
89.9963862229
 51
180.0
  0
ARC
  5
156
330
A
100
AcDbEntity
  8
0
  6
Continuous
 62
     7
100
AcDbCircle
 10
8.3106218312
 20
16.60370757229999
 30
0.0
 40
2.851528946
100
AcDbArc
 50
359.4580546089999
 51
2.2323029378
  0
ARC
  5
157
330
A
100
AcDbEntity
  8
0
  6
Continuous
 62
     7
100
AcDbCircle
 10
11.9740910692
 20
16.7465123945
 30
0.0
 40
0.8147225558999998
100
AcDbArc
 50
179.4580546088
 51
182.232302938
  0
LINE
  5
158
330
A
100
AcDbEntity
  8
0
  6
Continuous
 62
     7
100
AcDbLine
 10
11.1594049587
 20
17.2849182462
 30
0.0
 11
11.1594049587
 21
16.7542185215
 31
0.0
  0
ARC
  5
159
330
A
100
AcDbEntity
  8
0
  6
Continuous
 62
     7
100
AcDbCircle
 10
10.47471884809999
 20
16.7465123945
 30
0.0
 40
0.8147225558999998
100
AcDbArc
 50
357.767697062
 51
0.5419453912
  0
ARC
  5
15A
330
A
100
AcDbEntity
  8
0
  6
Continuous
 62
     7
100
AcDbCircle
 10
14.1381880861
 20
16.60370757229999
 30
0.0
 40
2.851528946
100
AcDbArc
 50
177.7676970622
 51
180.541945391
  0
LINE
  5
15B
330
A
100
AcDbEntity
  8
0
  6
Continuous
 62
     7
100
AcDbLine
 10
11.2894049587
 20
16.7542185215
 30
0.0
 11
11.2894049587
 21
17.2849182462
 31
0.0
  0
LINE
  5
15C
330
A
100
AcDbEntity
  8
0
  6
Continuous
 62
     7
100
AcDbLine
 10
7.0625794616
 20
16.576736128
 30
0.0
 11
6.924537599999999
 21
16.7147779896
 31
0.0
  0
LINE
  5
15D
330
A
100
AcDbEntity
  8
0
  6
Continuous
 62
     7
100
AcDbLine
 10
6.924537599999999
 20
13.9092131812
 30
0.0
 11
6.924537599999999
 21
16.7147779896
 31
0.0
  0
LINE
  5
15E
330
A
100
AcDbEntity
  8
0
  6
Continuous
 62
     7
100
AcDbLine
 10
11.2888231232
 20
16.7147779896
 30
0.0
 11
15.5242723173
 21
16.7147779896
 31
0.0
  0
LINE
  5
15F
330
A
100
AcDbEntity
  8
0
  6
Continuous
 62
     7
100
AcDbLine
 10
15.5242723173
 20
16.7147779896
 30
0.0
 11
15.3862304557
 21
16.576736128
 31
0.0
  0
LINE
  5
160
330
A
100
AcDbEntity
  8
0
  6
Continuous
 62
     7
100
AcDbLine
 10
15.5242723173
 20
16.7147779896
 30
0.0
 11
15.5242723173
 21
13.9092131812
 31
0.0
  0
LINE
  5
161
330
A
100
AcDbEntity
  8
0
  6
Continuous
 62
     7
100
AcDbLine
 10
6.924537599999999
 20
16.7147779896
 30
0.0
 11
11.1599867942
 21
16.7147779896
 31
0.0
  0
LINE
  5
162
330
A
100
AcDbEntity
  8
0
  6
Continuous
 62
     7
100
AcDbLine
 10
14.5444049587
 20
16.124910631
 30
0.0
 11
14.5444049587
 21
16.1253644626
 31
0.0
  0
LINE
  5
163
330
A
100
AcDbEntity
  8
0
  6
Continuous
 62
     7
100
AcDbLine
 10
14.5444049587
 20
16.124910631
 30
0.0
 11
7.904404958699999
 21
16.124910631
 31
0.0
  0
LINE
  5
164
330
A
100
AcDbEntity
  8
0
  6
Continuous
 62
     7
100
AcDbLine
 10
7.904404958699999
 20
16.124910631
 30
0.0
 11
7.904404958699999
 21
16.1253644626
 31
0.0
  0
LINE
  5
165
330
A
100
AcDbEntity
  8
0
  6
Continuous
 62
     7
100
AcDbLine
 10
14.7444049587
 20
15.92491063099999
 30
0.0
 11
14.7448587904
 21
15.92491063099999
 31
0.0
  0
ARC
  5
166
330
A
100
AcDbEntity
  8
0
  6
Continuous
 62
     7
100
AcDbCircle
 10
14.5444049587
 20
15.92491063099999
 30
0.0
 40
0.2
100
AcDbArc
 50
0.0
 51
90.0
  0
ARC
  5
167
330
A
100
AcDbEntity
  8
0
  6
Continuous
 62
     7
100
AcDbCircle
 10
7.904404958699999
 20
15.92491063099999
 30
0.0
 40
0.2
100
AcDbArc
 50
90.0
 51
180.0
  0
LINE
  5
168
330
A
100
AcDbEntity
  8
0
  6
Continuous
 62
     7
100
AcDbLine
 10
7.704404958699999
 20
15.92491063099999
 30
0.0
 11
7.703951126999999
 21
15.92491063099999
 31
0.0
  0
LINE
  5
169
330
A
100
AcDbEntity
  8
0
  6
Continuous
 62
     7
100
AcDbLine
 10
14.7444049587
 20
11.284910631
 30
0.0
 11
14.7448587904
 21
11.284910631
 31
0.0
  0
LINE
  5
16A
330
A
100
AcDbEntity
  8
0
  6
Continuous
 62
     7
100
AcDbLine
 10
14.7444049587
 20
11.284910631
 30
0.0
 11
14.7444049587
 21
15.92491063099999
 31
0.0
  0
LINE
  5
16B
330
A
100
AcDbEntity
  8
0
  6
Continuous
 62
     7
100
AcDbLine
 10
7.704404958699999
 20
15.92491063099999
 30
0.0
 11
7.704404958699999
 21
11.284910631
 31
0.0
  0
LINE
  5
16C
330
A
100
AcDbEntity
  8
0
  6
Continuous
 62
     7
100
AcDbLine
 10
7.704404958699999
 20
11.284910631
 30
0.0
 11
7.703951126999999
 21
11.284910631
 31
0.0
  0
LINE
  5
16D
330
A
100
AcDbEntity
  8
0
  6
Continuous
 62
     7
100
AcDbLine
 10
6.834566978299999
 20
10.7410369327
 30
0.0
 11
6.584605054499999
 21
10.7410369327
 31
0.0
  0
LINE
  5
16E
330
A
100
AcDbEntity
  8
0
  6
Continuous
 62
     7
100
AcDbLine
 10
6.584605054499999
 20
10.7410369327
 30
0.0
 11
6.584605054499999
 21
13.8528586452
 31
0.0
  0
LWPOLYLINE
  5
16F
330
A
100
AcDbEntity
  8
0
  6
Continuous
 62
     7
100
AcDbPolyline
 90
        3
 70
   128
 43
0.0
 10
6.589623531199999
 20
13.8437870112
 10
6.586061651099999
 20
13.84742695829999
 10
6.584605054499999
 20
13.8528586452
  0
ARC
  5
174
330
A
100
AcDbEntity
  8
0
  6
Continuous
 62
     7
100
AcDbCircle
 10
6.782362686899999
 20
14.510393855
 30
0.0
 40
0.6939114254
100
AcDbArc
 50
253.8735846580999
 51
274.3145482041999
  0
ARC
  5
175
330
A
100
AcDbEntity
  8
0
  6
Continuous
 62
     7
100
AcDbCircle
 10
15.651563079
 20
14.6542790781
 30
0.0
 40
0.8366629119999998
100
AcDbArc
 50
267.4434193226999
 51
284.368447815
  0
LINE
  5
176
330
A
100
AcDbEntity
  8
0
  6
Continuous
 62
     7
100
AcDbLine
 10
15.614242939
 20
13.8184489306
 30
0.0
 11
15.614242939
 21
13.8678333477
 31
0.0
  0
ARC
  5
177
330
A
100
AcDbEntity
  8
0
  6
Continuous
 62
     7
100
AcDbCircle
 10
15.6556230598
 20
14.3182033408
 30
0.0
 40
0.4522670065
100
AcDbArc
 50
264.750387047
 51
289.9851993057
  0
LWPOLYLINE
  5
178
330
A
100
AcDbEntity
  8
0
  6
Continuous
 62
     7
100
AcDbPolyline
 90
        9
 70
   128
 43
0.0
 10
15.85918638619999
 20
13.8437870112
 10
15.8579886847
 20
13.8532364326
 10
15.855026662
 20
13.8623370055
 10
15.8504096683
 20
13.87075276
 10
15.8443081513
 20
13.8781730079
 10
15.8369473634
 20
13.8843238126
 10
15.8285990461
 20
13.8889781021
 10
15.819571398
 20
13.8919640518
 10
15.8101976967
 20
13.8931714282
  0
LINE
  5
183
330
A
100
AcDbEntity
  8
0
  6
Continuous
 62
     7
100
AcDbLine
 10
6.834566978299999
 20
13.8184489306
 30
0.0
 11
6.834566978299999
 21
13.8678333477
 31
0.0
  0
LINE
  5
184
330
A
100
AcDbEntity
  8
0
  6
Continuous
 62
     7
100
AcDbLine
 10
6.834566978299999
 20
13.8678333477
 30
0.0
 11
6.926967055999999
 21
13.8678333477
 31
0.0
  0
LINE
  5
185
330
A
100
AcDbEntity
  8
0
  6
Continuous
 62
     7
100
AcDbLine
 10
15.5218428613
 20
13.8678333477
 30
0.0
 11
15.614242939
 21
13.8678333477
 31
0.0
  0
LWPOLYLINE
  5
186
330
A
100
AcDbEntity
  8
0
  6
Continuous
 62
     7
100
AcDbPolyline
 90
        9
 70
   128
 43
0.0
 10
6.589623531199999
 20
13.8437870112
 10
6.590821232599999
 20
13.8532364326
 10
6.593783255299999
 20
13.8623370055
 10
6.598400248999999
 20
13.87075276
 10
6.604501766
 20
13.8781730079
 10
6.611862553899999
 20
13.8843238126
 10
6.6202108712
 20
13.8889781021
 10
6.6292385193
 20
13.8919640518
 10
6.638612220599999
 20
13.8931714282
  0
ARC
  5
191
330
A
100
AcDbEntity
  8
0
  6
Continuous
 62
     7
100
AcDbCircle
 10
6.8049848912
 20
14.4094446967
 30
0.0
 40
0.5424186144
100
AcDbArc
 50
252.1381011702
 51
273.1263124770999
  0
LINE
  5
192
330
A
100
AcDbEntity
  8
0
  6
Continuous
 62
     7
100
AcDbLine
 10
15.614242939
 20
10.7410369327
 30
0.0
 11
15.86420486279999
 21
10.7410369327
 31
0.0
  0
LWPOLYLINE
  5
193
330
A
100
AcDbEntity
  8
0
  6
Continuous
 62
     7
100
AcDbPolyline
 90
        3
 70
   128
 43
0.0
 10
15.86420486279999
 20
13.8528586452
 10
15.8627829107
 20
13.8474891881
 10
15.85918638619999
 20
13.8437870112
  0
LINE
  5
198
330
A
100
AcDbEntity
  8
0
  6
Continuous
 62
     7
100
AcDbLine
 10
15.86420486279999
 20
13.8528586452
 30
0.0
 11
15.86420486279999
 21
10.7410369327
 31
0.0
  0
ARC
  5
199
330
A
100
AcDbEntity
  8
0
  6
Continuous
 62
     7
100
AcDbCircle
 10
7.904404958699999
 20
11.284910631
 30
0.0
 40
0.2
100
AcDbArc
 50
180.0
 51
270.0
  0
LINE
  5
19A
330
A
100
AcDbEntity
  8
0
  6
Continuous
 62
     7
100
AcDbLine
 10
7.904404958699999
 20
11.084910631
 30
0.0
 11
7.904404958699999
 21
11.08445679929999
 31
0.0
  0
LINE
  5
19B
330
A
100
AcDbEntity
  8
0
  6
Continuous
 62
     7
100
AcDbLine
 10
14.5444049587
 20
11.084910631
 30
0.0
 11
14.5444049587
 21
11.08445679929999
 31
0.0
  0
ARC
  5
19C
330
A
100
AcDbEntity
  8
0
  6
Continuous
 62
     7
100
AcDbCircle
 10
14.5444049587
 20
11.284910631
 30
0.0
 40
0.2
100
AcDbArc
 50
270.0
 51
0.0
  0
LINE
  5
19D
330
A
100
AcDbEntity
  8
0
  6
Continuous
 62
     7
100
AcDbLine
 10
7.904404958699999
 20
11.084910631
 30
0.0
 11
14.5444049587
 21
11.084910631
 31
0.0
  0
LINE
  5
19E
330
A
100
AcDbEntity
  8
0
  6
Continuous
 62
     7
100
AcDbLine
 10
15.614242939
 20
10.7410369327
 30
0.0
 11
15.614242939
 21
10.49483499449999
 31
0.0
  0
LINE
  5
19F
330
A
100
AcDbEntity
  8
0
  6
Continuous
 62
     7
100
AcDbLine
 10
15.614242939
 20
10.49483499449999
 30
0.0
 11
6.834566978299999
 21
10.49483499449999
 31
0.0
  0
LINE
  5
1A0
330
A
100
AcDbEntity
  8
0
  6
Continuous
 62
     7
100
AcDbLine
 10
6.834566978299999
 20
10.7410369327
 30
0.0
 11
6.834566978299999
 21
10.49483499449999
 31
0.0
  0
LWPOLYLINE
  5
1A1
330
A
100
AcDbEntity
  8
0
  6
Continuous
 62
     7
100
AcDbPolyline
 90
        9
 70
   128
 43
0.0
 10
6.584605054499999
 20
10.7410369327
 10
6.589537052899999
 20
10.6930965755
 10
6.603849230599999
 20
10.6469914599
 10
6.6269936923
 20
10.6044865716
 10
6.6580844268
 20
10.5672090729
 10
6.695931225899999
 20
10.5365860124
 10
6.7390852471
 20
10.51378969519999
 10
6.7858944779
 20
10.4996928046
 10
6.834566978299999
 20
10.49483499449999
  0
LWPOLYLINE
  5
1AC
330
A
100
AcDbEntity
  8
0
  6
Continuous
 62
     7
100
AcDbPolyline
 90
        9
 70
   128
 43
0.0
 10
15.614242939
 20
10.49483499449999
 10
15.6629154394
 20
10.4996928046
 10
15.7097246703
 20
10.51378969519999
 10
15.7528786914
 20
10.5365860124
 10
15.7907254905
 20
10.5672090729
 10
15.8218162251
 20
10.6044865716
 10
15.8449606867
 20
10.6469914599
 10
15.8592728644
 20
10.6930965755
 10
15.86420486279999
 20
10.7410369327
  0
ARC
  5
1B7
330
A
100
AcDbEntity
  8
0
  6
Continuous
 62
     7
100
AcDbCircle
 10
15.5618340733
 20
13.8574477036
 30
0.0
 40
0.0235298246
100
AcDbArc
 50
85.4202530991
 51
109.8282462818
  0
LINE
  5
1B8
330
A
100
AcDbEntity
  8
0
  6
Continuous
 62
     7
100
AcDbLine
 10
15.6168611987
 20
13.8809024013
 30
0.0
 11
15.56371284919999
 21
13.8809024013
 31
0.0
  0
ARC
  5
1B9
330
A
100
AcDbEntity
  8
0
  6
Continuous
 62
     7
100
AcDbCircle
 10
15.6272635325
 20
15.2464234491
 30
0.0
 40
1.365560668899999
100
AcDbArc
 50
269.5635378197999
 51
277.6986408727
  0
ARC
  5
1BA
330
A
100
AcDbEntity
  8
0
  6
Continuous
 62
     7
100
AcDbCircle
 10
6.8215463848
 20
15.2464234491
 30
0.0
 40
1.365560668899999
100
AcDbArc
 50
262.3013591272999
 51
270.4364621802
  0
LINE
  5
1BB
330
A
100
AcDbEntity
  8
0
  6
Continuous
 62
     7
100
AcDbLine
 10
6.8850970681
 20
13.8809024013
 30
0.0
 11
6.831948718599999
 21
13.8809024013
 31
0.0
  0
ARC
  5
1BC
330
A
100
AcDbEntity
  8
0
  6
Continuous
 62
     7
100
AcDbCircle
 10
6.886975844
 20
13.8574477036
 30
0.0
 40
0.0235298246
100
AcDbArc
 50
70.1717537185
 51
94.57974690410001
  0
ARC
  5
1BD
330
A
100
AcDbEntity
  8
0
  6
Continuous
 62
     7
100
AcDbCircle
 10
6.892793457899999
 20
13.55057413289999
 30
0.0
 40
0.3600411887
100
AcDbArc
 50
84.94177290899999
 51
91.22487164810001
  0
LINE
  5
1BE
330
A
100
AcDbEntity
  8
0
  6
Continuous
 62
     7
100
AcDbLine
 10
6.8850970681
 20
13.9105330515
 30
0.0
 11
6.8850970681
 21
13.8809024013
 31
0.0
  0
ARC
  5
1BF
330
A
100
AcDbEntity
  8
0
  6
Continuous
 62
     7
100
AcDbCircle
 10
15.5560164594
 20
13.55057413279999
 30
0.0
 40
0.3600411887
100
AcDbArc
 50
88.77512835199999
 51
95.058227091
  0
LINE
  5
1C0
330
A
100
AcDbEntity
  8
0
  6
Continuous
 62
     7
100
AcDbLine
 10
15.56371284919999
 20
13.8809024013
 30
0.0
 11
15.56371284919999
 21
13.9105330515
 31
0.0
  0
LINE
  5
1C1
330
A
100
AcDbEntity
  8
0
  6
Continuous
 62
     7
100
AcDbLine
 10
6.924537599999999
 20
16.7147779896
 30
0.0
 11
6.8850970681
 21
16.7542185215
 31
0.0
  0
LINE
  5
1C2
330
A
100
AcDbEntity
  8
0
  6
Continuous
 62
     7
100
AcDbLine
 10
6.8850970681
 20
13.9105330515
 30
0.0
 11
6.8850970681
 21
16.7542185215
 31
0.0
  0
LINE
  5
1C3
330
A
100
AcDbEntity
  8
0
  6
Continuous
 62
     7
100
AcDbLine
 10
15.5242723173
 20
16.7147779896
 30
0.0
 11
15.56371284919999
 21
16.7542185215
 31
0.0
  0
LINE
  5
1C4
330
A
100
AcDbEntity
  8
0
  6
Continuous
 62
     7
100
AcDbLine
 10
15.56371284919999
 20
16.7542185215
 30
0.0
 11
15.56371284919999
 21
13.9105330515
 31
0.0
  0
LINE
  5
1C5
330
A
100
AcDbEntity
  8
0
  6
Continuous
 62
     7
100
AcDbLine
 10
6.8850970681
 20
16.7542185215
 30
0.0
 11
11.1594049587
 21
16.7542185215
 31
0.0
  0
LINE
  5
1C6
330
A
100
AcDbEntity
  8
0
  6
Continuous
 62
     7
100
AcDbLine
 10
11.2894049587
 20
16.7542185215
 30
0.0
 11
15.56371284919999
 21
16.7542185215
 31
0.0
  0
LINE
  5
1C7
330
A
100
AcDbEntity
  8
0
  6
Continuous
 62
     7
100
AcDbLine
 10
15.6168611987
 20
13.8809024013
 30
0.0
 11
15.6168611987
 21
13.9105330515
 31
0.0
  0
ARC
  5
1C8
330
A
100
AcDbEntity
  8
0
  6
Continuous
 62
     7
100
AcDbCircle
 10
15.6759043124
 20
14.3105747205
 30
0.0
 40
0.4043753531000001
100
AcDbArc
 50
261.6041911385
 51
298.1728212274
  0
ARC
  5
1C9
330
A
100
AcDbEntity
  8
0
  6
Continuous
 62
     7
100
AcDbCircle
 10
15.7951048942
 20
13.964872912
 30
0.0
 40
0.0725218251
100
AcDbArc
 50
294.4123526487999
 51
351.4626275806999
  0
LWPOLYLINE
  5
1CA
330
A
100
AcDbEntity
  8
0
  6
Continuous
 62
     7
100
AcDbPolyline
 90
        3
 70
   128
 43
0.0
 10
15.8101976967
 20
13.8931714282
 10
15.8181049292
 20
13.8956389816
 10
15.8250782196
 20
13.8988349314
  0
LINE
  5
1CF
330
A
100
AcDbEntity
  8
0
  6
Continuous
 62
     7
100
AcDbLine
 10
6.831948718599999
 20
13.9105330515
 30
0.0
 11
6.831948718599999
 21
13.8809024013
 31
0.0
  0
LWPOLYLINE
  5
1D0
330
A
100
AcDbEntity
  8
0
  6
Continuous
 62
     7
100
AcDbPolyline
 90
        3
 70
   128
 43
0.0
 10
6.6237316977
 20
13.8988349314
 10
6.6306587804
 20
13.8956564717
 10
6.638612220599999
 20
13.8931714282
  0
LWPOLYLINE
  5
1D5
330
A
100
AcDbEntity
  8
0
  6
Continuous
 62
     7
100
AcDbPolyline
 90
        6
 70
   128
 43
0.0
 10
6.581986794799999
 20
13.9541067217
 10
6.582002821999999
 20
13.953801277
 10
6.5820674576
 20
13.95283941119999
 10
6.582690058199999
 20
13.948154194
 10
6.592541738
 20
13.92615265729999
 10
6.6237316977
 20
13.8988349314
  0
ARC
  5
1DD
330
A
100
AcDbEntity
  8
0
  6
Continuous
 62
     7
100
AcDbCircle
 10
6.7729056049
 20
14.3105747205
 30
0.0
 40
0.4043753531000001
100
AcDbArc
 50
241.8271787726
 51
278.3958088615
  0
LINE
  5
1DE
330
A
100
AcDbEntity
  8
0
  6
Continuous
 62
     7
100
AcDbLine
 10
15.56371284919999
 20
13.9105330515
 30
0.0
 11
15.6168611987
 21
13.9105330515
 31
0.0
  0
LINE
  5
1DF
330
A
100
AcDbEntity
  8
0
  6
Continuous
 62
     7
100
AcDbLine
 10
6.831948718599999
 20
13.9105330515
 30
0.0
 11
6.8850970681
 21
13.9105330515
 31
0.0
  0
ARC
  5
1E0
330
A
100
AcDbEntity
  8
0
  6
Continuous
 62
     7
100
AcDbCircle
 10
7.4752620822
 20
17.6840535074
 30
0.0
 40
0.1199741566
100
AcDbArc
 50
269.9963862216999
 51
0.0
  0
LINE
  5
1E1
330
A
100
AcDbEntity
  8
0
  6
Continuous
 62
     7
100
AcDbLine
 10
7.5952362386
 20
18.194910631
 30
0.0
 11
7.5952362386
 21
17.68406107439999
 31
0.0
  0
LINE
  5
1E2
330
A
100
AcDbEntity
  8
0
  6
Continuous
 62
     7
100
AcDbLine
 10
14.8535736787
 20
18.194910631
 30
0.0
 11
7.5952362386
 21
18.194910631
 31
0.0
  0
LINE
  5
1E3
330
A
100
AcDbEntity
  8
0
  6
Continuous
 62
     7
100
AcDbLine
 10
14.8535736787
 20
17.68406107439999
 30
0.0
 11
14.8535736787
 21
18.194910631
 31
0.0
  0
ARC
  5
1E4
330
A
100
AcDbEntity
  8
0
  6
Continuous
 62
     7
100
AcDbCircle
 10
14.9735478351
 20
17.6840535074
 30
0.0
 40
0.1199741566
100
AcDbArc
 50
180.0
 51
270.0036137780999
  0
LINE
  5
1E5
330
A
100
AcDbEntity
  8
0
  6
Continuous
 62
     7
100
AcDbLine
 10
15.61360261659999
 20
17.564079351
 30
0.0
 11
14.9735554021
 21
17.564079351
 31
0.0
  0
LINE
  5
1E6
330
A
100
AcDbEntity
  8
0
  6
Continuous
 62
     7
100
AcDbLine
 10
15.6168611987
 20
17.56405141
 30
0.0
 11
15.61360261659999
 21
17.564079351
 31
0.0
  0
LINE
  5
1E7
330
A
100
AcDbEntity
  8
0
  6
Continuous
 62
     7
100
AcDbLine
 10
15.6168611987
 20
13.9105330515
 30
0.0
 11
15.6168611987
 21
17.56405141
 31
0.0
  0
LINE
  5
1E8
330
A
100
AcDbEntity
  8
0
  6
Continuous
 62
     7
100
AcDbLine
 10
6.831948718599999
 20
17.56405141
 30
0.0
 11
6.831948718599999
 21
13.9105330515
 31
0.0
  0
LINE
  5
1E9
330
A
100
AcDbEntity
  8
0
  6
Continuous
 62
     7
100
AcDbLine
 10
6.835207300699999
 20
17.564079351
 30
0.0
 11
6.831948718599999
 21
17.56405141
 31
0.0
  0
LINE
  5
1EA
330
A
100
AcDbEntity
  8
0
  6
Continuous
 62
     7
100
AcDbLine
 10
7.475254515199999
 20
17.564079351
 30
0.0
 11
6.835207300699999
 21
17.564079351
 31
0.0
  0
ARC
  5
1EB
330
A
100
AcDbEntity
  8
0
  6
Continuous
 62
     7
100
AcDbCircle
 10
14.8845169866
 20
18.2688599879
 30
0.0
 40
0.0260709551
100
AcDbArc
 50
351.2870094014
 51
92.2618565658
  0
ARC
  5
1EC
330
A
100
AcDbEntity
  8
0
  6
Continuous
 62
     7
100
AcDbCircle
 10
14.8336313912
 20
18.26904204879999
 30
0.0
 40
0.0767669326
100
AcDbArc
 50
285.0568336737
 51
356.9149838983
  0
LWPOLYLINE
  5
1ED
330
A
100
AcDbEntity
  8
0
  6
Continuous
 62
     7
100
AcDbPolyline
 90
        8
 70
   128
 43
0.0
 10
7.5385228458
 20
18.26491063099999
 10
7.5428544539
 20
18.24815384209999
 10
7.5488209483
 20
18.2329788201
 10
7.5562361089
 20
18.2198591921
 10
7.5648685013
 20
18.2092044342
 10
7.574448700199999
 20
18.2013470919
 10
7.5846776982
 20
18.1965324005
 10
7.5952362386
 20
18.194910631
  0
ARC
  5
1F7
330
A
100
AcDbEntity
  8
0
  6
Continuous
 62
     7
100
AcDbCircle
 10
7.5639066842
 20
18.2692050222
 30
0.0
 40
0.0257445344
100
AcDbArc
 50
86.84885995770001
 51
189.6022740800999
  0
LINE
  5
1F8
330
A
100
AcDbEntity
  8
0
  6
Continuous
 62
     7
100
AcDbLine
 10
7.5653218625
 20
18.294910631
 30
0.0
 11
14.8834880548
 21
18.294910631
 31
0.0
  0
LINE
  5
1F9
330
A
100
AcDbEntity
  8
0
  6
Continuous
 62
     7
100
AcDbLine
 10
14.91356454039999
 20
17.68406107439999
 30
0.0
 11
14.8535736787
 21
17.68406107439999
 31
0.0
  0
LINE
  5
1FA
330
A
100
AcDbEntity
  8
0
  6
Continuous
 62
     7
100
AcDbLine
 10
14.91356454039999
 20
18.26491063099999
 30
0.0
 11
14.9102870716
 21
18.26491063099999
 31
0.0
  0
LINE
  5
1FB
330
A
100
AcDbEntity
  8
0
  6
Continuous
 62
     7
100
AcDbLine
 10
14.91356454039999
 20
18.26491063099999
 30
0.0
 11
14.91356454039999
 21
17.68406107439999
 31
0.0
  0
LINE
  5
1FC
330
A
100
AcDbEntity
  8
0
  6
Continuous
 62
     7
100
AcDbLine
 10
7.5952362386
 20
17.68406107439999
 30
0.0
 11
7.535245376899999
 21
17.68406107439999
 31
0.0
  0
LINE
  5
1FD
330
A
100
AcDbEntity
  8
0
  6
Continuous
 62
     7
100
AcDbLine
 10
7.535245376899999
 20
17.68406107439999
 30
0.0
 11
7.535245376899999
 21
18.26491063099999
 31
0.0
  0
LINE
  5
1FE
330
A
100
AcDbEntity
  8
0
  6
Continuous
 62
     7
100
AcDbLine
 10
7.5385228458
 20
18.26491063099999
 30
0.0
 11
7.535245376899999
 21
18.26491063099999
 31
0.0
  0
ARC
  5
1FF
330
A
100
AcDbEntity
  8
0
  6
Continuous
 62
     7
100
AcDbCircle
 10
14.9735258005
 20
17.68403147269999
 30
0.0
 40
0.0599612673
100
AcDbArc
 50
179.9717131912
 51
270.0282857945
  0
LINE
  5
200
330
A
100
AcDbEntity
  8
0
  6
Continuous
 62
     7
100
AcDbLine
 10
14.9735554021
 20
17.6240702127
 30
0.0
 11
14.9735554021
 21
17.564079351
 31
0.0
  0
LINE
  5
201
330
A
100
AcDbEntity
  8
0
  6
Continuous
 62
     7
100
AcDbLine
 10
6.581986794799999
 20
13.9541067217
 30
0.0
 11
6.581986794799999
 21
17.37736687099999
 31
0.0
  0
ARC
  5
202
330
A
100
AcDbEntity
  8
0
  6
Continuous
 62
     7
100
AcDbCircle
 10
6.8084680532
 20
17.3348049595
 30
0.0
 40
0.2304458217
100
AcDbArc
 50
84.1518493919
 51
169.3567199499
  0
ARC
  5
203
330
A
100
AcDbEntity
  8
0
  6
Continuous
 62
     7
100
AcDbCircle
 10
15.6403418641
 20
17.3348049595
 30
0.0
 40
0.2304458217
100
AcDbArc
 50
10.64328005039999
 51
95.848150608
  0
LINE
  5
204
330
A
100
AcDbEntity
  8
0
  6
Continuous
 62
     7
100
AcDbLine
 10
15.8668231225
 20
17.37736687099999
 30
0.0
 11
15.8668231225
 21
13.9541067217
 31
0.0
  0
LINE
  5
205
330
A
100
AcDbEntity
  8
0
  6
Continuous
 62
     7
100
AcDbLine
 10
7.475254515199999
 20
17.564079351
 30
0.0
 11
7.475254515199999
 21
17.6240702127
 31
0.0
  0
ARC
  5
206
330
A
100
AcDbEntity
  8
0
  6
Continuous
 62
     7
100
AcDbCircle
 10
7.4752841169
 20
17.68403147269999
 30
0.0
 40
0.0599612673
100
AcDbArc
 50
269.9717142049
 51
0.0282872391
  0
LINE
  5
207
330
A
100
AcDbEntity
  8
0
  6
Continuous
 62
     7
100
AcDbLine
 10
14.9735554021
 20
17.6240702127
 30
0.0
 11
15.61360261659999
 21
17.6240702127
 31
0.0
  0
LINE
  5
208
330
A
100
AcDbEntity
  8
0
  6
Continuous
 62
     7
100
AcDbLine
 10
15.61360261659999
 20
17.6240702127
 30
0.0
 11
15.61360261659999
 21
17.564079351
 31
0.0
  0
LINE
  5
209
330
A
100
AcDbEntity
  8
0
  6
Continuous
 62
     7
100
AcDbLine
 10
15.61360261659999
 20
17.6240702127
 30
0.0
 11
15.617889914
 21
17.6240331376
 31
0.0
  0
LINE
  5
20A
330
A
100
AcDbEntity
  8
0
  6
Continuous
 62
     7
100
AcDbLine
 10
15.617889914
 20
17.6240331376
 30
0.0
 11
15.6168611987
 21
17.56405141
 31
0.0
  0
LINE
  5
20B
330
A
100
AcDbEntity
  8
0
  6
Continuous
 62
     7
100
AcDbLine
 10
6.831948718599999
 20
17.56405141
 30
0.0
 11
6.8309200033
 21
17.6240331376
 31
0.0
  0
LINE
  5
20C
330
A
100
AcDbEntity
  8
0
  6
Continuous
 62
     7
100
AcDbLine
 10
6.8309200033
 20
17.6240331376
 30
0.0
 11
6.835207300699999
 21
17.6240702127
 31
0.0
  0
LINE
  5
20D
330
A
100
AcDbEntity
  8
0
  6
Continuous
 62
     7
100
AcDbLine
 10
6.835207300699999
 20
17.564079351
 30
0.0
 11
6.835207300699999
 21
17.6240702127
 31
0.0
  0
ARC
  5
20E
330
A
100
AcDbEntity
  8
0
  6
Continuous
 62
     7
100
AcDbCircle
 10
15.6144919319
 20
17.3716603015
 30
0.0
 40
0.2523957105
100
AcDbArc
 50
1.295545842699999
 51
89.22860845989999
  0
ARC
  5
20F
330
A
100
AcDbEntity
  8
0
  6
Continuous
 62
     7
100
AcDbCircle
 10
6.8343179854
 20
17.3716603015
 30
0.0
 40
0.2523957105
100
AcDbArc
 50
90.7713915401
 51
178.7044541577
  0
LINE
  5
210
330
A
100
AcDbEntity
  8
0
  6
Continuous
 62
     7
100
AcDbLine
 10
6.835207300699999
 20
17.6240702127
 30
0.0
 11
7.475254515199999
 21
17.6240702127
 31
0.0
  0
LINE
  5
211
330
A
100
AcDbEntity
  8
0
  6
Continuous
 62
     7
100
AcDbLine
 10
14.8834880548
 20
18.294910631
 30
0.0
 11
14.8835691096
 21
18.294910631
 31
0.0
  0
LWPOLYLINE
  5
212
330
A
100
AcDbEntity
  8
0
  6
Continuous
 62
     7
100
AcDbPolyline
 90
        9
 70
   128
 43
0.0
 10
14.91356454039999
 20
18.26491063099999
 10
14.9129881866
 20
18.2707633406
 10
14.9112812742
 20
18.2763911339
 10
14.9085093988
 20
18.281577738
 10
14.90477908209999
 20
18.2861238344
 10
14.9002336781
 20
18.2898547193
 10
14.895047864
 20
18.2926270169
 10
14.8894209278
 20
18.2943341894
 10
14.8835691096
 20
18.294910631
  0
LINE
  5
21D
330
A
100
AcDbEntity
  8
0
  6
Continuous
 62
     7
100
AcDbLine
 10
7.5652408077
 20
18.294910631
 30
0.0
 11
7.5653218625
 21
18.294910631
 31
0.0
  0
LWPOLYLINE
  5
21E
330
A
100
AcDbEntity
  8
0
  6
Continuous
 62
     7
100
AcDbPolyline
 90
        9
 70
   128
 43
0.0
 10
7.5652408077
 20
18.294910631
 10
7.5593889895
 20
18.2943341894
 10
7.553762053299999
 20
18.2926270169
 10
7.548576239199999
 20
18.2898547193
 10
7.5440308352
 20
18.2861238344
 10
7.540300518499999
 20
18.281577738
 10
7.537528643099999
 20
18.2763911339
 10
7.5358217307
 20
18.2707633406
 10
7.535245376899999
 20
18.26491063099999
  0
LWPOLYLINE
  5
229
330
A
100
AcDbEntity
  8
0
  6
Continuous
 62
     7
100
AcDbPolyline
 90
        9
 70
   128
 43
0.0
 10
15.86420486279999
 20
13.8528586452
 10
15.8634505213
 20
13.8607560555
 10
15.8613058201
 20
13.8684304626
 10
15.8578313201
 20
13.8756651603
 10
15.8531251326
 20
13.8822558589
 10
15.8473201485
 20
13.8880164532
 10
15.8405802863
 20
13.8927842786
 10
15.8330958628
 20
13.8964247035
 10
15.8250782196
 20
13.8988349314
  0
LWPOLYLINE
  5
234
330
A
100
AcDbEntity
  8
0
  6
Continuous
 62
     7
100
AcDbPolyline
 90
        9
 70
   128
 43
0.0
 10
6.584605054499999
 20
13.8528586452
 10
6.585359396
 20
13.8607560555
 10
6.5875040973
 20
13.8684304626
 10
6.5909785973
 20
13.8756651603
 10
6.5956847848
 20
13.8822558589
 10
6.601489768799999
 20
13.8880164532
 10
6.608229631
 20
13.8927842786
 10
6.615714054499999
 20
13.8964247035
 10
6.6237316977
 20
13.8988349314
  0
LINE
  5
23F
330
A
100
AcDbEntity
  8
0
  6
Continuous
 62
     7
100
AcDbLine
 10
15.6251246367
 20
10.384910631
 30
0.0
 11
15.614242939
 21
10.49483499449999
 31
0.0
  0
LINE
  5
240
330
A
100
AcDbEntity
  8
0
  6
Continuous
 62
     7
100
AcDbLine
 10
15.86420486279999
 20
10.7410369327
 30
0.0
 11
15.8744049587
 21
10.6379979514
 31
0.0
  0
ARC
  5
241
330
A
100
AcDbEntity
  8
0
  6
Continuous
 62
     7
100
AcDbCircle
 10
15.62336513209999
 20
10.6359526235
 30
0.0
 40
0.2510481585
100
AcDbArc
 50
270.4015684173
 51
0.46680268
  0
LINE
  5
242
330
A
100
AcDbEntity
  8
0
  6
Continuous
 62
     7
100
AcDbLine
 10
6.574404958699999
 20
10.6379979514
 30
0.0
 11
6.584605054499999
 21
10.7410369327
 31
0.0
  0
LINE
  5
243
330
A
100
AcDbEntity
  8
0
  6
Continuous
 62
     7
100
AcDbLine
 10
6.834566978299999
 20
10.49483499449999
 30
0.0
 11
6.8236852806
 21
10.384910631
 31
0.0
  0
ARC
  5
244
330
A
100
AcDbEntity
  8
0
  6
Continuous
 62
     7
100
AcDbCircle
 10
6.8254447852
 20
10.6359526235
 30
0.0
 40
0.2510481585
100
AcDbArc
 50
179.5331973200999
 51
269.5984315827
  0
LINE
  5
245
330
A
100
AcDbEntity
  8
0
  6
Continuous
 62
     7
100
AcDbLine
 10
6.8236852806
 20
10.384910631
 30
0.0
 11
6.9561683675
 21
10.384910631
 31
0.0
  0
LINE
  5
246
330
A
100
AcDbEntity
  8
0
  6
Continuous
 62
     7
100
AcDbLine
 10
13.2956661471
 20
10.384910631
 30
0.0
 11
15.6251246367
 21
10.384910631
 31
0.0
  0
ARC
  5
247
330
A
100
AcDbEntity
  8
0
  6
Continuous
 62
     7
100
AcDbCircle
 10
14.9843920368
 20
17.6948977091
 30
0.0
 40
0.0599870783
100
AcDbArc
 50
180.0
 51
270.0036137773
  0
LINE
  5
248
330
A
100
AcDbEntity
  8
0
  6
Continuous
 62
     7
100
AcDbLine
 10
14.9843958204
 20
17.634910631
 30
0.0
 11
14.9735554021
 21
17.6240702127
 31
0.0
  0
LINE
  5
249
330
A
100
AcDbEntity
  8
0
  6
Continuous
 62
     7
100
AcDbLine
 10
14.91356454039999
 20
17.68406107439999
 30
0.0
 11
14.9244049587
 21
17.6949014927
 31
0.0
  0
ARC
  5
24A
330
A
100
AcDbEntity
  8
0
  6
Continuous
 62
     7
100
AcDbCircle
 10
7.4644178805
 20
17.6948977091
 30
0.0
 40
0.0599870783
100
AcDbArc
 50
269.9963862228
 51
0.0
  0
LINE
  5
24B
330
A
100
AcDbEntity
  8
0
  6
Continuous
 62
     7
100
AcDbLine
 10
7.524404958699999
 20
17.6949014927
 30
0.0
 11
7.535245376899999
 21
17.68406107439999
 31
0.0
  0
LINE
  5
24C
330
A
100
AcDbEntity
  8
0
  6
Continuous
 62
     7
100
AcDbLine
 10
7.475254515199999
 20
17.6240702127
 30
0.0
 11
7.464414096999999
 21
17.634910631
 31
0.0
  0
LINE
  5
24D
330
A
100
AcDbEntity
  8
0
  6
Continuous
 62
     7
100
AcDbLine
 10
15.61360261659999
 20
17.6240702127
 30
0.0
 11
15.6244430349
 21
17.634910631
 31
0.0
  0
ARC
  5
24E
330
A
100
AcDbEntity
  8
0
  6
Continuous
 62
     7
100
AcDbCircle
 10
15.6244587996
 20
17.38496447189999
 30
0.0
 40
0.2499461596
100
AcDbArc
 50
360.0
 51
90.0036137778
  0
LINE
  5
24F
330
A
100
AcDbEntity
  8
0
  6
Continuous
 62
     7
100
AcDbLine
 10
15.8744049587
 20
17.3849487072
 30
0.0
 11
15.8668231225
 21
17.37736687099999
 31
0.0
  0
ARC
  5
250
330
A
100
AcDbEntity
  8
0
  6
Continuous
 62
     7
100
AcDbCircle
 10
6.8243511178
 20
17.38496447189999
 30
0.0
 40
0.2499461596
100
AcDbArc
 50
89.99638622209999
 51
180.0
  0
LINE
  5
251
330
A
100
AcDbEntity
  8
0
  6
Continuous
 62
     7
100
AcDbLine
 10
6.824366882499999
 20
17.634910631
 30
0.0
 11
6.835207300699999
 21
17.6240702127
 31
0.0
  0
LINE
  5
252
330
A
100
AcDbEntity
  8
0
  6
Continuous
 62
     7
100
AcDbLine
 10
6.581986794799999
 20
17.37736687099999
 30
0.0
 11
6.574404958699999
 21
17.3849487072
 31
0.0
  0
LINE
  5
253
330
A
100
AcDbEntity
  8
0
  6
Continuous
 62
     7
100
AcDbLine
 10
7.535245376899999
 20
18.26491063099999
 30
0.0
 11
7.5338398327
 21
18.26491063099999
 31
0.0
  0
LWPOLYLINE
  5
254
330
A
100
AcDbEntity
  8
0
  6
Continuous
 62
     7
100
AcDbPolyline
 90
        9
 70
   128
 43
0.0
 10
7.563835263599999
 20
18.294910631
 10
7.557983445299999
 20
18.2943341894
 10
7.5523565091
 20
18.2926270169
 10
7.5471706951
 20
18.2898547193
 10
7.542625291
 20
18.2861238344
 10
7.538894974299999
 20
18.281577738
 10
7.5361230989
 20
18.2763911339
 10
7.534416186499999
 20
18.2707633406
 10
7.5338398327
 20
18.26491063099999
  0
LINE
  5
25F
330
A
100
AcDbEntity
  8
0
  6
Continuous
 62
     7
100
AcDbLine
 10
7.524404958699999
 20
18.26491063099999
 30
0.0
 11
7.524404958699999
 21
17.6949014927
 31
0.0
  0
LINE
  5
260
330
A
100
AcDbEntity
  8
0
  6
Continuous
 62
     7
100
AcDbLine
 10
7.5338398327
 20
18.26491063099999
 30
0.0
 11
7.524404958699999
 21
18.26491063099999
 31
0.0
  0
LINE
  5
261
330
A
100
AcDbEntity
  8
0
  6
Continuous
 62
     7
100
AcDbLine
 10
14.9244049587
 20
18.26491063099999
 30
0.0
 11
14.9244049587
 21
17.6949014927
 31
0.0
  0
LINE
  5
262
330
A
100
AcDbEntity
  8
0
  6
Continuous
 62
     7
100
AcDbLine
 10
14.9149700846
 20
18.26491063099999
 30
0.0
 11
14.91356454039999
 21
18.26491063099999
 31
0.0
  0
LINE
  5
263
330
A
100
AcDbEntity
  8
0
  6
Continuous
 62
     7
100
AcDbLine
 10
14.9244049587
 20
18.26491063099999
 30
0.0
 11
14.9149700846
 21
18.26491063099999
 31
0.0
  0
LWPOLYLINE
  5
264
330
A
100
AcDbEntity
  8
0
  6
Continuous
 62
     7
100
AcDbPolyline
 90
        9
 70
   128
 43
0.0
 10
14.9149700846
 20
18.26491063099999
 10
14.9143937308
 20
18.2707633406
 10
14.9126868184
 20
18.2763911339
 10
14.909914943
 20
18.281577738
 10
14.9061846263
 20
18.2861238344
 10
14.9016392223
 20
18.2898547193
 10
14.8964534082
 20
18.2926270169
 10
14.890826472
 20
18.2943341894
 10
14.8849746538
 20
18.294910631
  0
LINE
  5
26F
330
A
100
AcDbEntity
  8
0
  6
Continuous
 62
     7
100
AcDbLine
 10
15.6244430349
 20
17.634910631
 30
0.0
 11
14.9843958204
 21
17.634910631
 31
0.0
  0
LINE
  5
270
330
A
100
AcDbEntity
  8
0
  6
Continuous
 62
     7
100
AcDbLine
 10
7.464414096999999
 20
17.634910631
 30
0.0
 11
6.824366882499999
 21
17.634910631
 31
0.0
  0
ARC
  5
271
330
A
100
AcDbEntity
  8
0
  6
Continuous
 62
     7
100
AcDbCircle
 10
12.8909019507
 20
13.98040569499999
 30
0.0
 40
2.9760373749
100
AcDbArc
 50
357.5436643515999
 51
359.4936757862
  0
ARC
  5
272
330
A
100
AcDbEntity
  8
0
  6
Continuous
 62
     7
100
AcDbCircle
 10
13.4601117194
 20
14.08131608589999
 30
0.0
 40
6.8793011782
100
AcDbArc
 50
181.05955168
 51
181.9031081821999
  0
LINE
  5
273
330
A
100
AcDbEntity
  8
0
  6
Continuous
 62
     7
100
AcDbLine
 10
6.574404958699999
 20
10.88491063099999
 30
0.0
 11
6.574404958699999
 21
10.6379979514
 31
0.0
  0
LINE
  5
274
330
A
100
AcDbEntity
  8
0
  6
Continuous
 62
     7
100
AcDbLine
 10
6.575033341
 20
10.8880602228
 30
0.0
 11
6.574404958699999
 21
10.88491063099999
 31
0.0
  0
LINE
  5
275
330
A
100
AcDbEntity
  8
0
  6
Continuous
 62
     7
100
AcDbLine
 10
6.575033341
 20
10.8880602228
 30
0.0
 11
6.575033341
 21
10.98176103909999
 31
0.0
  0
LINE
  5
276
330
A
100
AcDbEntity
  8
0
  6
Continuous
 62
     7
100
AcDbLine
 10
6.575033341
 20
10.98176103909999
 30
0.0
 11
6.574404958699999
 21
10.98491063099999
 31
0.0
  0
LINE
  5
277
330
A
100
AcDbEntity
  8
0
  6
Continuous
 62
     7
100
AcDbLine
 10
6.574404958699999
 20
11.284910631
 30
0.0
 11
6.574404958699999
 21
10.98491063099999
 31
0.0
  0
LINE
  5
278
330
A
100
AcDbEntity
  8
0
  6
Continuous
 62
     7
100
AcDbLine
 10
6.575033341
 20
11.2880602228
 30
0.0
 11
6.574404958699999
 21
11.284910631
 31
0.0
  0
LINE
  5
279
330
A
100
AcDbEntity
  8
0
  6
Continuous
 62
     7
100
AcDbLine
 10
6.575033341
 20
11.2880602228
 30
0.0
 11
6.575033341
 21
11.3817610391
 31
0.0
  0
LINE
  5
27A
330
A
100
AcDbEntity
  8
0
  6
Continuous
 62
     7
100
AcDbLine
 10
6.575033341
 20
11.3817610391
 30
0.0
 11
6.574404958699999
 21
11.384910631
 31
0.0
  0
LINE
  5
27B
330
A
100
AcDbEntity
  8
0
  6
Continuous
 62
     7
100
AcDbLine
 10
6.574404958699999
 20
17.3849487072
 30
0.0
 11
6.574404958699999
 21
13.834910631
 31
0.0
  0
LINE
  5
27C
330
A
100
AcDbEntity
  8
0
  6
Continuous
 62
     7
100
AcDbLine
 10
6.574404958699999
 20
12.334910631
 30
0.0
 11
6.574404958699999
 21
11.384910631
 31
0.0
  0
LINE
  5
27D
330
A
100
AcDbEntity
  8
0
  6
Continuous
 62
     7
100
AcDbLine
 10
15.8744049587
 20
10.6379979514
 30
0.0
 11
15.8744049587
 21
17.3849487072
 31
0.0
  0
ARC
  5
27E
330
A
100
AcDbEntity
  8
0
  6
Continuous
 62
     7
100
AcDbCircle
 10
14.8944071839
 20
18.2649102144
 30
0.0
 40
0.0299977748
100
AcDbArc
 50
0.0
 51
45.0053756694
  0
LWPOLYLINE
  5
27F
330
A
100
AcDbEntity
  8
0
  6
Continuous
 62
     7
100
AcDbPolyline
 90
        3
 70
   128
 43
0.0
 10
14.89440038879999
 20
18.294910631
 10
14.9058823744
 20
18.2926270169
 10
14.9156168236
 20
18.2861238344
  0
LINE
  5
284
330
A
100
AcDbEntity
  8
0
  6
Continuous
 62
     7
100
AcDbLine
 10
7.528308257499999
 20
18.2797046379
 30
0.0
 11
7.528545840199999
 21
18.28011605289999
 31
0.0
  0
ARC
  5
285
330
A
100
AcDbEntity
  8
0
  6
Continuous
 62
     7
100
AcDbCircle
 10
7.554409528499999
 20
18.2649060608
 30
0.0
 40
0.0300045702
100
AcDbArc
 50
89.99999999979999
 51
149.5409436362999
  0
LWPOLYLINE
  5
286
330
A
100
AcDbEntity
  8
0
  6
Continuous
 62
     7
100
AcDbPolyline
 90
        3
 70
   128
 43
0.0
 10
7.524404958699999
 20
18.26491063099999
 10
7.525397772199999
 20
18.27256061679999
 10
7.528308257499999
 20
18.2797046379
  0
LINE
  5
28B
330
A
100
AcDbEntity
  8
0
  6
Continuous
 62
     7
100
AcDbLine
 10
7.4123655886
 20
10.38079391649999
 30
0.0
 11
7.4123655886
 21
10.3837342605
 31
0.0
  0
LINE
  5
28C
330
A
100
AcDbEntity
  8
0
  6
Continuous
 62
     7
100
AcDbLine
 10
7.4123655886
 20
10.38079391649999
 30
0.0
 11
7.3223655886
 21
10.38079391649999
 31
0.0
  0
LINE
  5
28D
330
A
100
AcDbEntity
  8
0
  6
Continuous
 62
     7
100
AcDbLine
 10
7.3223655886
 20
10.3837342605
 30
0.0
 11
7.3223655886
 21
10.38079391649999
 31
0.0
  0
LINE
  5
28E
330
A
100
AcDbEntity
  8
0
  6
Continuous
 62
     7
100
AcDbLine
 10
7.972365588599999
 20
10.3837342605
 30
0.0
 11
7.972365588599999
 21
10.38079391649999
 31
0.0
  0
LINE
  5
28F
330
A
100
AcDbEntity
  8
0
  6
Continuous
 62
     7
100
AcDbLine
 10
7.972365588599999
 20
10.38079391649999
 30
0.0
 11
7.882365588599999
 21
10.38079391649999
 31
0.0
  0
LINE
  5
290
330
A
100
AcDbEntity
  8
0
  6
Continuous
 62
     7
100
AcDbLine
 10
7.882365588599999
 20
10.3837342605
 30
0.0
 11
7.882365588599999
 21
10.38079391649999
 31
0.0
  0
LINE
  5
291
330
A
100
AcDbEntity
  8
0
  6
Continuous
 62
     7
100
AcDbLine
 10
7.972365588599999
 20
10.2430208672
 30
0.0
 11
7.882365588599999
 21
10.2430208672
 31
0.0
  0
LINE
  5
292
330
A
100
AcDbEntity
  8
0
  6
Continuous
 62
     7
100
AcDbLine
 10
7.882365588599999
 20
10.38079391649999
 30
0.0
 11
7.882365588599999
 21
10.2430208672
 31
0.0
  0
LINE
  5
293
330
A
100
AcDbEntity
  8
0
  6
Continuous
 62
     7
100
AcDbLine
 10
7.972365588599999
 20
10.2430208672
 30
0.0
 11
7.972365588599999
 21
10.38079391649999
 31
0.0
  0
LINE
  5
294
330
A
100
AcDbEntity
  8
0
  6
Continuous
 62
     7
100
AcDbLine
 10
7.4123655886
 20
10.2430208672
 30
0.0
 11
7.3223655886
 21
10.2430208672
 31
0.0
  0
LINE
  5
295
330
A
100
AcDbEntity
  8
0
  6
Continuous
 62
     7
100
AcDbLine
 10
7.4123655886
 20
10.2430208672
 30
0.0
 11
7.4123655886
 21
10.38079391649999
 31
0.0
  0
LINE
  5
296
330
A
100
AcDbEntity
  8
0
  6
Continuous
 62
     7
100
AcDbLine
 10
7.3223655886
 20
10.38079391649999
 30
0.0
 11
7.3223655886
 21
10.2430208672
 31
0.0
  0
LINE
  5
297
330
A
100
AcDbEntity
  8
0
  6
Continuous
 62
     7
100
AcDbLine
 10
7.7423655886
 20
10.3510208672
 30
0.0
 11
7.7423655886
 21
10.3837342605
 31
0.0
  0
LINE
  5
298
330
A
100
AcDbEntity
  8
0
  6
Continuous
 62
     7
100
AcDbLine
 10
7.552365588599999
 20
10.3837342605
 30
0.0
 11
7.552365588599999
 21
10.3510208672
 31
0.0
  0
LINE
  5
299
330
A
100
AcDbEntity
  8
0
  6
Continuous
 62
     7
100
AcDbLine
 10
7.552365588599999
 20
10.3510208672
 30
0.0
 11
7.7423655886
 21
10.3510208672
 31
0.0
  0
LINE
  5
29A
330
A
100
AcDbEntity
  8
0
  6
Continuous
 62
     7
100
AcDbLine
 10
7.4123655886
 20
10.2430208672
 30
0.0
 11
7.882365588599999
 21
10.2430208672
 31
0.0
  0
LINE
  5
29B
330
A
100
AcDbEntity
  8
0
  6
Continuous
 62
     7
100
AcDbLine
 10
9.8764049587
 20
10.328310631
 30
0.0
 11
10.1904049587
 21
10.328310631
 31
0.0
  0
LINE
  5
29C
330
A
100
AcDbEntity
  8
0
  6
Continuous
 62
     7
100
AcDbLine
 10
9.8764049587
 20
10.3837342605
 30
0.0
 11
9.8764049587
 21
10.328310631
 31
0.0
  0
LINE
  5
29D
330
A
100
AcDbEntity
  8
0
  6
Continuous
 62
     7
100
AcDbLine
 10
10.1904049587
 20
10.328310631
 30
0.0
 11
10.1904049587
 21
10.3837342605
 31
0.0
  0
LINE
  5
29E
330
A
100
AcDbEntity
  8
0
  6
Continuous
 62
     7
100
AcDbLine
 10
11.01240495869999
 20
10.328310631
 30
0.0
 11
10.6984049587
 21
10.328310631
 31
0.0
  0
LINE
  5
29F
330
A
100
AcDbEntity
  8
0
  6
Continuous
 62
     7
100
AcDbLine
 10
11.01240495869999
 20
10.328310631
 30
0.0
 11
11.01240495869999
 21
10.3837342605
 31
0.0
  0
LINE
  5
2A0
330
A
100
AcDbEntity
  8
0
  6
Continuous
 62
     7
100
AcDbLine
 10
10.6984049587
 20
10.328310631
 30
0.0
 11
10.6984049587
 21
10.3837342605
 31
0.0
  0
LINE
  5
2A1
330
A
100
AcDbEntity
  8
0
  6
Continuous
 62
     7
100
AcDbLine
 10
12.5724049587
 20
10.328310631
 30
0.0
 11
12.25840495869999
 21
10.328310631
 31
0.0
  0
LINE
  5
2A2
330
A
100
AcDbEntity
  8
0
  6
Continuous
 62
     7
100
AcDbLine
 10
12.5724049587
 20
10.328310631
 30
0.0
 11
12.5724049587
 21
10.3837342605
 31
0.0
  0
LINE
  5
2A3
330
A
100
AcDbEntity
  8
0
  6
Continuous
 62
     7
100
AcDbLine
 10
12.25840495869999
 20
10.328310631
 30
0.0
 11
12.25840495869999
 21
10.3837342605
 31
0.0
  0
LINE
  5
2A4
330
A
100
AcDbEntity
  8
0
  6
Continuous
 62
     7
100
AcDbLine
 10
11.4364049587
 20
10.328310631
 30
0.0
 11
11.7504049587
 21
10.328310631
 31
0.0
  0
LINE
  5
2A5
330
A
100
AcDbEntity
  8
0
  6
Continuous
 62
     7
100
AcDbLine
 10
11.4364049587
 20
10.3837342605
 30
0.0
 11
11.4364049587
 21
10.328310631
 31
0.0
  0
LINE
  5
2A6
330
A
100
AcDbEntity
  8
0
  6
Continuous
 62
     7
100
AcDbLine
 10
11.7504049587
 20
10.328310631
 30
0.0
 11
11.7504049587
 21
10.3837342605
 31
0.0
  0
LINE
  5
2A7
330
A
100
AcDbEntity
  8
0
  6
Continuous
 62
     7
100
AcDbLine
 10
11.04070417129999
 20
18.42491063099999
 30
0.0
 11
11.8081057461
 21
18.42491063099999
 31
0.0
  0
LINE
  5
2A8
330
A
100
AcDbEntity
  8
0
  6
Continuous
 62
     7
100
AcDbLine
 10
11.04070417129999
 20
18.454910631
 30
0.0
 11
11.04070417129999
 21
18.42491063099999
 31
0.0
  0
LINE
  5
2A9
330
A
100
AcDbEntity
  8
0
  6
Continuous
 62
     7
100
AcDbLine
 10
11.12070417129999
 20
18.53491063099999
 30
0.0
 11
11.04070417129999
 21
18.454910631
 31
0.0
  0
LINE
  5
2AA
330
A
100
AcDbEntity
  8
0
  6
Continuous
 62
     7
100
AcDbLine
 10
11.12070417129999
 20
18.53491063099999
 30
0.0
 11
11.7281057461
 21
18.53491063099999
 31
0.0
  0
LINE
  5
2AB
330
A
100
AcDbEntity
  8
0
  6
Continuous
 62
     7
100
AcDbLine
 10
11.8081057461
 20
18.454910631
 30
0.0
 11
11.7281057461
 21
18.53491063099999
 31
0.0
  0
LINE
  5
2AC
330
A
100
AcDbEntity
  8
0
  6
Continuous
 62
     7
100
AcDbLine
 10
11.8081057461
 20
18.42491063099999
 30
0.0
 11
11.8081057461
 21
18.454910631
 31
0.0
  0
LINE
  5
2AD
330
A
100
AcDbEntity
  8
0
  6
Continuous
 62
     7
100
AcDbLine
 10
13.7081057461
 20
18.454910631
 30
0.0
 11
13.6281057461
 21
18.53491063099999
 31
0.0
  0
LINE
  5
2AE
330
A
100
AcDbEntity
  8
0
  6
Continuous
 62
     7
100
AcDbLine
 10
13.7081057461
 20
18.42491063099999
 30
0.0
 11
13.7081057461
 21
18.454910631
 31
0.0
  0
LINE
  5
2AF
330
A
100
AcDbEntity
  8
0
  6
Continuous
 62
     7
100
AcDbLine
 10
12.9407041713
 20
18.42491063099999
 30
0.0
 11
13.7081057461
 21
18.42491063099999
 31
0.0
  0
LINE
  5
2B0
330
A
100
AcDbEntity
  8
0
  6
Continuous
 62
     7
100
AcDbLine
 10
12.9407041713
 20
18.454910631
 30
0.0
 11
12.9407041713
 21
18.42491063099999
 31
0.0
  0
LINE
  5
2B1
330
A
100
AcDbEntity
  8
0
  6
Continuous
 62
     7
100
AcDbLine
 10
13.0207041713
 20
18.53491063099999
 30
0.0
 11
12.9407041713
 21
18.454910631
 31
0.0
  0
LINE
  5
2B2
330
A
100
AcDbEntity
  8
0
  6
Continuous
 62
     7
100
AcDbLine
 10
13.0207041713
 20
18.53491063099999
 30
0.0
 11
13.6281057461
 21
18.53491063099999
 31
0.0
  0
LINE
  5
2B3
330
A
100
AcDbEntity
  8
0
  6
Continuous
 62
     7
100
AcDbLine
 10
8.7407041713
 20
18.42491063099999
 30
0.0
 11
9.5081057461
 21
18.42491063099999
 31
0.0
  0
LINE
  5
2B4
330
A
100
AcDbEntity
  8
0
  6
Continuous
 62
     7
100
AcDbLine
 10
8.7407041713
 20
18.454910631
 30
0.0
 11
8.7407041713
 21
18.42491063099999
 31
0.0
  0
LINE
  5
2B5
330
A
100
AcDbEntity
  8
0
  6
Continuous
 62
     7
100
AcDbLine
 10
8.820704171299999
 20
18.53491063099999
 30
0.0
 11
8.7407041713
 21
18.454910631
 31
0.0
  0
LINE
  5
2B6
330
A
100
AcDbEntity
  8
0
  6
Continuous
 62
     7
100
AcDbLine
 10
8.820704171299999
 20
18.53491063099999
 30
0.0
 11
9.428105746099999
 21
18.53491063099999
 31
0.0
  0
LINE
  5
2B7
330
A
100
AcDbEntity
  8
0
  6
Continuous
 62
     7
100
AcDbLine
 10
9.5081057461
 20
18.454910631
 30
0.0
 11
9.428105746099999
 21
18.53491063099999
 31
0.0
  0
LINE
  5
2B8
330
A
100
AcDbEntity
  8
0
  6
Continuous
 62
     7
100
AcDbLine
 10
9.5081057461
 20
18.42491063099999
 30
0.0
 11
9.5081057461
 21
18.454910631
 31
0.0
  0
LINE
  5
2B9
330
A
100
AcDbEntity
  8
0
  6
Continuous
 62
     7
100
AcDbLine
 10
12.9407041713
 20
18.42491063099999
 30
0.0
 11
12.9407041713
 21
18.294910631
 31
0.0
  0
LINE
  5
2BA
330
A
100
AcDbEntity
  8
0
  6
Continuous
 62
     7
100
AcDbLine
 10
11.8081057461
 20
18.294910631
 30
0.0
 11
11.8081057461
 21
18.42491063099999
 31
0.0
  0
LINE
  5
2BB
330
A
100
AcDbEntity
  8
0
  6
Continuous
 62
     7
100
AcDbLine
 10
8.7407041713
 20
18.42491063099999
 30
0.0
 11
8.7407041713
 21
18.294910631
 31
0.0
  0
LINE
  5
2BC
330
A
100
AcDbEntity
  8
0
  6
Continuous
 62
     7
100
AcDbLine
 10
9.5081057461
 20
18.294910631
 30
0.0
 11
9.5081057461
 21
18.42491063099999
 31
0.0
  0
LINE
  5
2BD
330
A
100
AcDbEntity
  8
0
  6
Continuous
 62
     7
100
AcDbLine
 10
11.04070417129999
 20
18.42491063099999
 30
0.0
 11
11.04070417129999
 21
18.294910631
 31
0.0
  0
LINE
  5
2BE
330
A
100
AcDbEntity
  8
0
  6
Continuous
 62
     7
100
AcDbLine
 10
13.7081057461
 20
18.294910631
 30
0.0
 11
13.7081057461
 21
18.42491063099999
 31
0.0
  0
LINE
  5
2BF
330
A
100
AcDbEntity
  8
0
  6
Continuous
 62
     7
100
AcDbLine
 10
14.86485879039999
 20
11.08445679929999
 30
0.0
 11
15.12485879039999
 21
11.08445679929999
 31
0.0
  0
ARC
  5
2C0
330
A
100
AcDbEntity
  8
0
  6
Continuous
 62
     7
100
AcDbCircle
 10
14.86485879039999
 20
11.2044567993
 30
0.0
 40
0.12
100
AcDbArc
 50
180.0
 51
270.0
  0
LINE
  5
2C1
330
A
100
AcDbEntity
  8
0
  6
Continuous
 62
     7
100
AcDbLine
 10
14.7448587904
 20
15.9644567993
 30
0.0
 11
14.7448587904
 21
11.2044567993
 31
0.0
  0
ARC
  5
2C2
330
A
100
AcDbEntity
  8
0
  6
Continuous
 62
     7
100
AcDbCircle
 10
14.86485879039999
 20
15.9644567993
 30
0.0
 40
0.12
100
AcDbArc
 50
90.0
 51
180.0
  0
LINE
  5
2C3
330
A
100
AcDbEntity
  8
0
  6
Continuous
 62
     7
100
AcDbLine
 10
15.12485879039999
 20
16.08445679929999
 30
0.0
 11
14.86485879039999
 21
16.08445679929999
 31
0.0
  0
ARC
  5
2C4
330
A
100
AcDbEntity
  8
0
  6
Continuous
 62
     7
100
AcDbCircle
 10
15.12485879039999
 20
15.9644567993
 30
0.0
 40
0.12
100
AcDbArc
 50
0.0
 51
90.0
  0
LINE
  5
2C5
330
A
100
AcDbEntity
  8
0
  6
Continuous
 62
     7
100
AcDbLine
 10
15.2448587904
 20
11.2044567993
 30
0.0
 11
15.2448587904
 21
15.9644567993
 31
0.0
  0
ARC
  5
2C6
330
A
100
AcDbEntity
  8
0
  6
Continuous
 62
     7
100
AcDbCircle
 10
15.12485879039999
 20
11.2044567993
 30
0.0
 40
0.12
100
AcDbArc
 50
270.0
 51
0.0
  0
LINE
  5
2C7
330
A
100
AcDbEntity
  8
0
  6
Continuous
 62
     7
100
AcDbLine
 10
6.9959172573
 20
10.49483499449999
 30
0.0
 11
6.9959172573
 21
10.4920907234
 31
0.0
  0
LINE
  5
2C8
330
A
100
AcDbEntity
  8
0
  6
Continuous
 62
     7
100
AcDbLine
 10
13.2559172573
 20
10.49483499449999
 30
0.0
 11
13.2559172573
 21
10.4920907234
 31
0.0
  0
ARC
  5
2C9
330
A
100
AcDbEntity
  8
0
  6
Continuous
 62
     7
100
AcDbCircle
 10
26.3225737823
 20
5.3152494466
 30
0.0
 40
0.3584
100
AcDbArc
 50
281.5984020448
 51
289.2313251945
  0
ARC
  5
2CA
330
A
100
AcDbEntity
  8
0
  6
Continuous
 62
     7
100
AcDbCircle
 10
26.3225737823
 20
5.3152494466
 30
0.0
 40
0.3584
100
AcDbArc
 50
250.7686748055
 51
258.4390143124
  0
LINE
  5
2CB
330
A
100
AcDbEntity
  8
0
  6
Continuous
 62
     7
100
AcDbLine
 10
26.2507465322
 20
4.9641206866
 30
0.0
 11
26.2514191392
 21
4.9698591679
 31
0.0
  0
LINE
  5
2CC
330
A
100
AcDbEntity
  8
0
  6
Continuous
 62
     7
100
AcDbLine
 10
26.3937284254
 20
4.9698591679
 30
0.0
 11
26.3946303177
 21
4.964167667399999
 31
0.0
  0
ARC
  5
2CD
330
A
100
AcDbEntity
  8
0
  6
Continuous
 62
     7
100
AcDbCircle
 10
26.7125737823
 20
5.3152494466
 30
0.0
 40
0.3584
100
AcDbArc
 50
281.5984020448
 51
289.2313251945
  0
ARC
  5
2CE
330
A
100
AcDbEntity
  8
0
  6
Continuous
 62
     7
100
AcDbCircle
 10
26.7125737823
 20
5.3152494466
 30
0.0
 40
0.3584
100
AcDbArc
 50
250.7686748055
 51
258.4390143124
  0
LINE
  5
2CF
330
A
100
AcDbEntity
  8
0
  6
Continuous
 62
     7
100
AcDbLine
 10
26.6407465322
 20
4.9641206866
 30
0.0
 11
26.64141913919999
 21
4.9698591679
 31
0.0
  0
LINE
  5
2D0
330
A
100
AcDbEntity
  8
0
  6
Continuous
 62
     7
100
AcDbLine
 10
26.78372842539999
 20
4.9698591679
 30
0.0
 11
26.7846303177
 21
4.964167667399999
 31
0.0
  0
LWPOLYLINE
  5
2D1
330
A
100
AcDbEntity
  8
0
  6
Continuous
 62
     7
100
AcDbPolyline
 90
        9
 70
   128
 43
0.0
 10
26.4059564783
 20
4.9674974985
 10
26.4069093765
 20
4.967778211699999
 10
26.4078614995
 20
4.968063073399999
 10
26.408812836
 20
4.968352080199999
 10
26.4097633745
 20
4.968645228699999
 10
26.4107131038
 20
4.9689425152
 10
26.41166201249999
 20
4.969243936299999
 10
26.4126100892
 20
4.9695494884
 10
26.4135573226
 20
4.9698591679
  0
LWPOLYLINE
  5
2DC
330
A
100
AcDbEntity
  8
0
  6
Continuous
 62
     7
100
AcDbPolyline
 90
        8
 70
   128
 43
0.0
 10
26.4211124586
 20
4.973696775299999
 10
26.42123672929999
 20
4.9740440744
 10
26.4193313744
 20
4.9744596647
 10
26.4155319286
 20
4.9742903912
 10
26.4102887133
 20
4.9735827047
 10
26.4040762635
 20
4.9724061837
 10
26.3974501016
 20
4.970858931699999
 10
26.3937284254
 20
4.9698591679
  0
LWPOLYLINE
  5
2E6
330
A
100
AcDbEntity
  8
0
  6
Continuous
 62
     7
100
AcDbPolyline
 90
        9
 70
   128
 43
0.0
 10
26.3937284254
 20
4.9698591679
 10
26.3926253487
 20
4.9695494884
 10
26.39152129
 20
4.969243936299999
 10
26.3904162624
 20
4.9689425152
 10
26.3893102793
 20
4.968645228699999
 10
26.3882033537
 20
4.968352080199999
 10
26.3870954989
 20
4.968063073399999
 10
26.3859867282
 20
4.967778211699999
 10
26.3848770547
 20
4.9674974985
  0
ARC
  5
2F1
330
A
100
AcDbEntity
  8
0
  6
Continuous
 62
     7
100
AcDbCircle
 10
26.3642651303
 20
5.0191095341
 30
0.0
 40
0.055575657
100
AcDbArc
 50
248.2300731251
 51
291.7699268764999
  0
LWPOLYLINE
  5
2F2
330
A
100
AcDbEntity
  8
0
  6
Continuous
 62
     7
100
AcDbPolyline
 90
        9
 70
   128
 43
0.0
 10
26.3436532059
 20
4.9674974985
 10
26.3434964306
 20
4.967778211699999
 10
26.34333978289999
 20
4.968063073399999
 10
26.3431832646
 20
4.968352080199999
 10
26.34302687759999
 20
4.968645228699999
 10
26.3428706237
 20
4.9689425152
 10
26.34271450479999
 20
4.969243936299999
 10
26.3425585228
 20
4.9695494884
 10
26.3424026795
 20
4.9698591679
  0
ARC
  5
2FD
330
A
100
AcDbEntity
  8
0
  6
Continuous
 62
     7
100
AcDbCircle
 10
26.3225737823
 20
4.9307246929
 30
0.0
 40
0.0438713152
100
AcDbArc
 50
63.12929776309999
 51
116.87070224
  0
LWPOLYLINE
  5
2FE
330
A
100
AcDbEntity
  8
0
  6
Continuous
 62
     7
100
AcDbPolyline
 90
        9
 70
   128
 43
0.0
 10
26.3027448851
 20
4.9698591679
 10
26.3025890418
 20
4.9695494884
 10
26.3024330598
 20
4.969243936299999
 10
26.3022769409
 20
4.9689425152
 10
26.302120687
 20
4.968645228699999
 10
26.3019643
 20
4.968352080199999
 10
26.3018077817
 20
4.968063073399999
 10
26.301651134
 20
4.967778211699999
 10
26.3014943587
 20
4.9674974985
  0
ARC
  5
309
330
A
100
AcDbEntity
  8
0
  6
Continuous
 62
     7
100
AcDbCircle
 10
26.2808824343
 20
5.026672175199999
 30
0.0
 40
0.062661741
100
AcDbArc
 50
250.7955773352
 51
289.2044226639999
  0
LWPOLYLINE
  5
30A
330
A
100
AcDbEntity
  8
0
  6
Continuous
 62
     7
100
AcDbPolyline
 90
        9
 70
   128
 43
0.0
 10
26.2602705099
 20
4.9674974985
 10
26.25916083639999
 20
4.967778211699999
 10
26.25805206569999
 20
4.968063073399999
 10
26.25694421089999
 20
4.968352080199999
 10
26.2558372853
 20
4.968645228699999
 10
26.2547313022
 20
4.9689425152
 10
26.25362627459999
 20
4.969243936299999
 10
26.2525222159
 20
4.9695494884
 10
26.2514191392
 20
4.9698591679
  0
LWPOLYLINE
  5
315
330
A
100
AcDbEntity
  8
0
  6
Continuous
 62
     7
100
AcDbPolyline
 90
       10
 70
   128
 43
0.0
 10
26.2514191392
 20
4.9698591679
 10
26.2447383232
 20
4.9715852906
 10
26.2378623697
 20
4.9730503594
 10
26.2317469426
 20
4.974044953299999
 10
26.2271464161
 20
4.974459809999999
 10
26.2244476965
 20
4.974289837699999
 10
26.2238044643
 20
4.973581526
 10
26.225258826
 20
4.972404479499999
 10
26.2287544833
 20
4.970856849399999
 10
26.231590242
 20
4.9698591679
  0
LWPOLYLINE
  5
321
330
A
100
AcDbEntity
  8
0
  6
Continuous
 62
     7
100
AcDbPolyline
 90
        9
 70
   128
 43
0.0
 10
26.231590242
 20
4.9698591679
 10
26.2325374754
 20
4.9695494884
 10
26.2334855521
 20
4.969243936299999
 10
26.2344344608
 20
4.9689425152
 10
26.23538419009999
 20
4.968645228699999
 10
26.23633472859999
 20
4.968352080199999
 10
26.2372860651
 20
4.968063073399999
 10
26.2382381881
 20
4.967778211699999
 10
26.23919108629999
 20
4.9674974985
  0
LWPOLYLINE
  5
32C
330
A
100
AcDbEntity
  8
0
  6
Continuous
 62
     7
100
AcDbPolyline
 90
        4
 70
   128
 43
0.0
 10
26.23919108629999
 20
4.9674974985
 10
26.2459573429
 20
4.965525359599999
 10
26.2500232115
 20
4.9643456253
 10
26.2506165544
 20
4.9641738095
  0
LWPOLYLINE
  5
332
330
A
100
AcDbEntity
  8
0
  6
Continuous
 62
     7
100
AcDbPolyline
 90
        5
 70
   128
 43
0.0
 10
26.3945350546
 20
4.9641749806
 10
26.3943267907
 20
4.9641146731
 10
26.3966865862
 20
4.964798446099999
 10
26.4018808015
 20
4.966308239299999
 10
26.4059564783
 20
4.9674974985
  0
LWPOLYLINE
  5
339
330
A
100
AcDbEntity
  8
0
  6
Continuous
 62
     7
100
AcDbPolyline
 90
        9
 70
   128
 43
0.0
 10
26.7959564783
 20
4.9674974985
 10
26.7969093765
 20
4.967778211699999
 10
26.7978614995
 20
4.968063073399999
 10
26.798812836
 20
4.968352080199999
 10
26.7997633745
 20
4.968645228699999
 10
26.8007131038
 20
4.9689425152
 10
26.8016620125
 20
4.969243936299999
 10
26.8026100892
 20
4.9695494884
 10
26.8035573226
 20
4.9698591679
  0
LWPOLYLINE
  5
344
330
A
100
AcDbEntity
  8
0
  6
Continuous
 62
     7
100
AcDbPolyline
 90
        8
 70
   128
 43
0.0
 10
26.8111124586
 20
4.973696775299999
 10
26.8112367293
 20
4.9740440744
 10
26.8093313744
 20
4.9744596647
 10
26.8055319286
 20
4.9742903912
 10
26.8002887133
 20
4.9735827047
 10
26.7940762635
 20
4.9724061837
 10
26.7874501016
 20
4.970858931699999
 10
26.78372842539999
 20
4.9698591679
  0
LWPOLYLINE
  5
34E
330
A
100
AcDbEntity
  8
0
  6
Continuous
 62
     7
100
AcDbPolyline
 90
        9
 70
   128
 43
0.0
 10
26.78372842539999
 20
4.9698591679
 10
26.7826253487
 20
4.9695494884
 10
26.78152129
 20
4.969243936299999
 10
26.7804162624
 20
4.9689425152
 10
26.7793102793
 20
4.968645228699999
 10
26.7782033537
 20
4.968352080199999
 10
26.7770954989
 20
4.968063073399999
 10
26.7759867282
 20
4.967778211699999
 10
26.77487705469999
 20
4.9674974985
  0
ARC
  5
359
330
A
100
AcDbEntity
  8
0
  6
Continuous
 62
     7
100
AcDbCircle
 10
26.7542651303
 20
5.0191095341
 30
0.0
 40
0.055575657
100
AcDbArc
 50
248.230073125
 51
291.7699268750999
  0
LWPOLYLINE
  5
35A
330
A
100
AcDbEntity
  8
0
  6
Continuous
 62
     7
100
AcDbPolyline
 90
        9
 70
   128
 43
0.0
 10
26.7336532059
 20
4.9674974985
 10
26.73349643059999
 20
4.967778211699999
 10
26.7333397829
 20
4.968063073399999
 10
26.7331832646
 20
4.968352080199999
 10
26.7330268776
 20
4.968645228699999
 10
26.7328706237
 20
4.9689425152
 10
26.7327145048
 20
4.969243936299999
 10
26.7325585228
 20
4.9695494884
 10
26.7324026795
 20
4.9698591679
  0
ARC
  5
365
330
A
100
AcDbEntity
  8
0
  6
Continuous
 62
     7
100
AcDbCircle
 10
26.7125737823
 20
4.9307246929
 30
0.0
 40
0.0438713152
100
AcDbArc
 50
63.12929776539999
 51
116.8707022343
  0
LWPOLYLINE
  5
366
330
A
100
AcDbEntity
  8
0
  6
Continuous
 62
     7
100
AcDbPolyline
 90
        9
 70
   128
 43
0.0
 10
26.6927448851
 20
4.9698591679
 10
26.6925890418
 20
4.9695494884
 10
26.6924330598
 20
4.969243936299999
 10
26.6922769409
 20
4.9689425152
 10
26.692120687
 20
4.968645228699999
 10
26.69196429999999
 20
4.968352080199999
 10
26.6918077817
 20
4.968063073399999
 10
26.691651134
 20
4.967778211699999
 10
26.6914943587
 20
4.9674974985
  0
ARC
  5
371
330
A
100
AcDbEntity
  8
0
  6
Continuous
 62
     7
100
AcDbCircle
 10
26.6708824343
 20
5.026672175199999
 30
0.0
 40
0.062661741
100
AcDbArc
 50
250.7955773352
 51
289.2044226662999
  0
LWPOLYLINE
  5
372
330
A
100
AcDbEntity
  8
0
  6
Continuous
 62
     7
100
AcDbPolyline
 90
        9
 70
   128
 43
0.0
 10
26.6502705099
 20
4.9674974985
 10
26.6491608364
 20
4.967778211699999
 10
26.6480520657
 20
4.968063073399999
 10
26.6469442109
 20
4.968352080199999
 10
26.6458372853
 20
4.968645228699999
 10
26.6447313022
 20
4.9689425152
 10
26.6436262746
 20
4.969243936299999
 10
26.6425222159
 20
4.9695494884
 10
26.64141913919999
 20
4.9698591679
  0
ARC
  5
37D
330
A
100
AcDbEntity
  8
0
  6
Continuous
 62
     7
100
AcDbCircle
 10
26.6201665356
 20
4.9182971995
 30
0.0
 40
0.055770151
100
AcDbArc
 50
67.5997209212
 51
96.42288236049999
  0
LWPOLYLINE
  5
37E
330
A
100
AcDbEntity
  8
0
  6
Continuous
 62
     7
100
AcDbPolyline
 90
        9
 70
   128
 43
0.0
 10
26.621590242
 20
4.9698591679
 10
26.6225374754
 20
4.9695494884
 10
26.6234855521
 20
4.969243936299999
 10
26.6244344608
 20
4.9689425152
 10
26.6253841901
 20
4.968645228699999
 10
26.6263347286
 20
4.968352080199999
 10
26.6272860651
 20
4.968063073399999
 10
26.6282381881
 20
4.967778211699999
 10
26.6291910863
 20
4.9674974985
  0
LWPOLYLINE
  5
389
330
A
100
AcDbEntity
  8
0
  6
Continuous
 62
     7
100
AcDbPolyline
 90
        4
 70
   128
 43
0.0
 10
26.6291910863
 20
4.9674974985
 10
26.6359573429
 20
4.965525359599999
 10
26.6400232115
 20
4.9643456253
 10
26.6406165544
 20
4.9641738095
  0
LWPOLYLINE
  5
38F
330
A
100
AcDbEntity
  8
0
  6
Continuous
 62
     7
100
AcDbPolyline
 90
        5
 70
   128
 43
0.0
 10
26.7845350546
 20
4.9641749806
 10
26.7843267907
 20
4.9641146731
 10
26.78668658619999
 20
4.964798446099999
 10
26.7918808015
 20
4.966308239299999
 10
26.7959564783
 20
4.9674974985
  0
LINE
  5
396
330
A
100
AcDbEntity
  8
0
  6
Continuous
 62
     7
100
AcDbLine
 10
23.0065456761
 20
4.7728494466
 30
0.0
 11
21.9402642952
 21
4.7728494466
 31
0.0
  0
LINE
  5
397
330
A
100
AcDbEntity
  8
0
  6
Continuous
 62
     7
100
AcDbLine
 10
21.9696581721
 20
4.776849446599999
 30
0.0
 11
21.92257378229999
 21
4.776849446599999
 31
0.0
  0
LINE
  5
398
330
A
100
AcDbEntity
  8
0
  6
Continuous
 62
     7
100
AcDbLine
 10
20.0824981458
 20
5.9402614911
 30
0.0
 11
20.0797538747
 21
5.9407453801
 31
0.0
  0
LINE
  5
399
330
A
100
AcDbEntity
  8
0
  6
Continuous
 62
     7
100
AcDbLine
 10
20.0589160934
 20
5.8225684497
 30
0.0
 11
20.0797538747
 21
5.9407453801
 31
0.0
  0
LINE
  5
39A
330
A
100
AcDbEntity
  8
0
  6
Continuous
 62
     7
100
AcDbLine
 10
19.9922351932
 20
5.444402272599999
 30
0.0
 11
20.0589160934
 21
5.8225684497
 31
0.0
  0
LINE
  5
39B
330
A
100
AcDbEntity
  8
0
  6
Continuous
 62
     7
100
AcDbLine
 10
19.97414168299999
 20
5.3257414532
 30
0.0
 11
19.9713974119
 21
5.326225342199999
 31
0.0
  0
LINE
  5
39C
330
A
100
AcDbEntity
  8
0
  6
Continuous
 62
     7
100
AcDbLine
 10
19.9713974119
 20
5.326225342199999
 30
0.0
 11
19.9922351932
 21
5.444402272599999
 31
0.0
  0
ARC
  5
39D
330
A
100
AcDbEntity
  8
0
  6
Continuous
 62
     7
100
AcDbCircle
 10
23.8941271505
 20
4.9264099942
 30
0.0
 40
0.476836787
100
AcDbArc
 50
141.6168268926
 51
168.3760794839
  0
ARC
  5
39E
330
A
100
AcDbEntity
  8
0
  6
Continuous
 62
     7
100
AcDbCircle
 10
24.4849916363
 20
4.9096032875
 30
0.0
 40
1.014118539
100
AcDbArc
 50
162.0295105618
 51
173.7459010025
  0
LWPOLYLINE
  5
39F
330
A
100
AcDbEntity
  8
0
  6
Continuous
 62
     7
100
AcDbPolyline
 90
        9
 70
   128
 43
0.0
 10
23.4270697062
 20
5.022486344999999
 10
23.4365139823
 20
5.021888464199999
 10
23.44561679859999
 20
5.021343749699999
 10
23.4540490407
 20
5.0208718958
 10
23.4615058392
 20
5.0204899624
 10
23.4677175919
 20
5.0202117584
 10
23.47245971149999
 20
5.020047342299999
 10
23.4755607457
 20
5.0200026587
 10
23.4769085759
 20
5.0200793231
  0
ARC
  5
3AA
330
A
100
AcDbEntity
  8
0
  6
Continuous
 62
     7
100
AcDbCircle
 10
23.5153726858
 20
4.9368494466
 30
0.0
 40
0.04
100
AcDbArc
 50
90.0
 51
179.0
  0
LINE
  5
3AB
330
A
100
AcDbEntity
  8
0
  6
Continuous
 62
     7
100
AcDbLine
 10
23.4769085759
 20
5.0200793231
 30
0.0
 11
23.476712283
 21
5.013943990599999
 31
0.0
  0
LINE
  5
3AC
330
A
100
AcDbEntity
  8
0
  6
Continuous
 62
     7
100
AcDbLine
 10
23.52034631109999
 20
5.222486345
 30
0.0
 11
23.5153726858
 21
4.9768494466
 31
0.0
  0
ARC
  5
3AD
330
A
100
AcDbEntity
  8
0
  6
Continuous
 62
     7
100
AcDbCircle
 10
21.9696581721
 20
4.662486344999999
 30
0.0
 40
0.36
100
AcDbArc
 50
90.0
 51
170.0
  0
LINE
  5
3AE
330
A
100
AcDbEntity
  8
0
  6
Continuous
 62
     7
100
AcDbLine
 10
21.5159411015
 20
4.162486344999999
 30
0.0
 11
21.61512738109999
 21
4.724999688999999
 31
0.0
  0
LINE
  5
3AF
330
A
100
AcDbEntity
  8
0
  6
Continuous
 62
     7
100
AcDbLine
 10
20.4292064631
 20
4.162486344999999
 30
0.0
 11
21.5159411015
 21
4.162486344999999
 31
0.0
  0
LINE
  5
3B0
330
A
100
AcDbEntity
  8
0
  6
Continuous
 62
     7
100
AcDbLine
 10
20.2256611027
 20
5.3168494466
 30
0.0
 11
20.4292064631
 21
4.162486344999999
 31
0.0
  0
LINE
  5
3B1
330
A
100
AcDbEntity
  8
0
  6
Continuous
 62
     7
100
AcDbLine
 10
20.2256611027
 20
5.3168494466
 30
0.0
 11
26.9785120986
 21
5.3168494466
 31
0.0
  0
LINE
  5
3B2
330
A
100
AcDbEntity
  8
0
  6
Continuous
 62
     7
100
AcDbLine
 10
26.9752168665
 20
5.222486345
 30
0.0
 11
26.9785120986
 21
5.3168494466
 31
0.0
  0
LINE
  5
3B3
330
A
100
AcDbEntity
  8
0
  6
Continuous
 62
     7
100
AcDbLine
 10
23.52034631109999
 20
5.222486345
 30
0.0
 11
26.9752168665
 21
5.222486345
 31
0.0
  0
LINE
  5
3B4
330
A
100
AcDbEntity
  8
0
  6
Continuous
 62
     7
100
AcDbLine
 10
21.9696581721
 20
5.022486344999999
 30
0.0
 11
23.4270697062
 21
5.022486344999999
 31
0.0
  0
LINE
  5
3B5
330
A
100
AcDbEntity
  8
0
  6
Continuous
 62
     7
100
AcDbLine
 10
27.2285121218
 20
5.3168494466
 30
0.0
 11
27.21663906019999
 21
4.9768494466
 31
0.0
  0
LINE
  5
3B6
330
A
100
AcDbEntity
  8
0
  6
Continuous
 62
     7
100
AcDbLine
 10
27.21663906019999
 20
4.9768494466
 30
0.0
 11
27.2166035735
 21
4.9768494466
 31
0.0
  0
ARC
  5
3B7
330
A
100
AcDbEntity
  8
0
  6
Continuous
 62
     7
100
AcDbCircle
 10
34.2554010502
 20
12.1352799171
 30
0.0
 40
10.039312562
100
AcDbArc
 50
223.5172081431
 51
225.4827916712999
  0
LINE
  5
3B8
330
A
100
AcDbEntity
  8
0
  6
Continuous
 62
     7
100
AcDbLine
 10
26.9785120986
 20
5.3168494466
 30
0.0
 11
27.2285121218
 21
5.3168494466
 31
0.0
  0
LWPOLYLINE
  5
3B9
330
A
100
AcDbEntity
  8
0
  6
Continuous
 62
     7
100
AcDbPolyline
 90
        9
 70
   128
 43
0.0
 10
20.4292064631
 20
4.162486344999999
 10
20.3812661058
 20
4.1541192549
 10
20.3351609903
 20
4.1462394991
 10
20.29265610199999
 20
4.1391487286
 10
20.2553786032
 20
4.133118390599999
 10
20.2247555428
 20
4.1283793371
 10
20.2019592255
 20
4.125112987499999
 10
20.1878623349
 20
4.123444383499999
 10
20.1830045248
 20
4.1234374022
  0
LINE
  5
3C4
330
A
100
AcDbEntity
  8
0
  6
Continuous
 62
     7
100
AcDbLine
 10
20.1830045248
 20
4.1234374022
 30
0.0
 11
19.9725737823
 21
5.3168494466
 31
0.0
  0
LINE
  5
3C5
330
A
100
AcDbEntity
  8
0
  6
Continuous
 62
     7
100
AcDbLine
 10
19.9725737823
 20
5.3168494466
 30
0.0
 11
20.2256611027
 21
5.3168494466
 31
0.0
  0
LINE
  5
3C6
330
A
100
AcDbEntity
  8
0
  6
Continuous
 62
     7
100
AcDbLine
 10
27.2166035735
 20
4.9768494466
 30
0.0
 11
23.5153726858
 21
4.9768494466
 31
0.0
  0
LINE
  5
3C7
330
A
100
AcDbEntity
  8
0
  6
Continuous
 62
     7
100
AcDbLine
 10
23.42671989819999
 20
5.011808401999999
 30
0.0
 11
23.4270697062
 21
5.022486344999999
 31
0.0
  0
LWPOLYLINE
  5
3C8
330
A
100
AcDbEntity
  8
0
  6
Continuous
 62
     7
100
AcDbPolyline
 90
        9
 70
   128
 43
0.0
 10
23.42671989819999
 20
5.011808401999999
 10
23.4364664984
 20
5.011696615099999
 10
23.4458390413
 20
5.011704568199999
 10
23.454477825
 20
5.011831956099999
 10
23.4620513082
 20
5.012073889799999
 10
23.4682688339
 20
5.012421084299999
 10
23.4728917844
 20
5.012860214899999
 10
23.47574273889999
 20
5.013374428499999
 10
23.476712283
 20
5.013943990599999
  0
LINE
  5
3D3
330
A
100
AcDbEntity
  8
0
  6
Continuous
 62
     7
100
AcDbLine
 10
21.9696581721
 20
4.776849446599999
 30
0.0
 11
21.9696581721
 21
5.022486344999999
 31
0.0
  0
LINE
  5
3D4
330
A
100
AcDbEntity
  8
0
  6
Continuous
 62
     7
100
AcDbLine
 10
23.4234389191
 20
4.776849446599999
 30
0.0
 11
23.42671989819999
 21
5.011808401999999
 31
0.0
  0
LINE
  5
3D5
330
A
100
AcDbEntity
  8
0
  6
Continuous
 62
     7
100
AcDbLine
 10
23.4234389191
 20
4.776849446599999
 30
0.0
 11
22.4445168803
 21
4.776849446599999
 31
0.0
  0
LWPOLYLINE
  5
3D6
330
A
100
AcDbEntity
  8
0
  6
Continuous
 62
     7
100
AcDbPolyline
 90
        3
 70
   128
 43
0.0
 10
22.3006306843
 20
4.776849446599999
 10
22.3857689802
 20
4.7770858366
 10
22.4445168803
 20
4.776849446599999
  0
LINE
  5
3DB
330
A
100
AcDbEntity
  8
0
  6
Continuous
 62
     7
100
AcDbLine
 10
22.3006306843
 20
4.776849446599999
 30
0.0
 11
21.9696581721
 21
4.776849446599999
 31
0.0
  0
ARC
  5
3DC
330
A
100
AcDbEntity
  8
0
  6
Continuous
 62
     7
100
AcDbCircle
 10
21.9696581721
 20
4.666849446599999
 30
0.0
 40
0.11
100
AcDbArc
 50
89.9999999999
 51
169.9999999999
  0
LWPOLYLINE
  5
3DD
330
A
100
AcDbEntity
  8
0
  6
Continuous
 62
     7
100
AcDbPolyline
 90
        9
 70
   128
 43
0.0
 10
21.8613293193
 20
4.685950746199999
 10
21.85647150919999
 20
4.685957727499999
 10
21.8423746186
 20
4.687626331499999
 10
21.81957830139999
 20
4.6908926811
 10
21.7889552409
 20
4.6956317345
 10
21.75167774219999
 20
4.701662072499999
 10
21.7091728539
 20
4.7087528431
 10
21.6630677383
 20
4.7166325989
 10
21.61512738109999
 20
4.724999688999999
  0
LINE
  5
3E8
330
A
100
AcDbEntity
  8
0
  6
Continuous
 62
     7
100
AcDbLine
 10
23.476712283
 20
5.013943990599999
 30
0.0
 11
23.4734313039
 21
4.825976826299999
 31
0.0
  0
ARC
  5
3E9
330
A
100
AcDbEntity
  8
0
  6
Continuous
 62
     7
100
AcDbCircle
 10
23.4234389191
 20
4.826849446599999
 30
0.0
 40
0.05
100
AcDbArc
 50
270.0
 51
358.9999999999
  0
LINE
  5
3EA
330
A
100
AcDbEntity
  8
0
  6
Continuous
 62
     7
100
AcDbLine
 10
21.8613293193
 20
4.685950746199999
 30
0.0
 11
21.7621430398
 21
4.1234374022
 31
0.0
  0
LWPOLYLINE
  5
3EB
330
A
100
AcDbEntity
  8
0
  6
Continuous
 62
     7
100
AcDbPolyline
 90
        9
 70
   128
 43
0.0
 10
21.7621430398
 20
4.1234374022
 10
21.7572852297
 20
4.123444383499999
 10
21.7431883391
 20
4.125112987499999
 10
21.7203920218
 20
4.1283793371
 10
21.68976896139999
 20
4.133118390599999
 10
21.6524914626
 20
4.1391487286
 10
21.60998657429999
 20
4.1462394991
 10
21.5638814588
 20
4.1541192549
 10
21.5159411015
 20
4.162486344999999
  0
ARC
  5
3F6
330
A
100
AcDbEntity
  8
0
  6
Continuous
 62
     7
100
AcDbCircle
 10
21.5159411015
 20
4.166849446599999
 30
0.0
 40
0.25
100
AcDbArc
 50
270.0
 51
350.0
  0
LINE
  5
3F7
330
A
100
AcDbEntity
  8
0
  6
Continuous
 62
     7
100
AcDbLine
 10
21.5159411015
 20
4.162486344999999
 30
0.0
 11
21.5159411015
 21
3.9168494466
 31
0.0
  0
LINE
  5
3F8
330
A
100
AcDbEntity
  8
0
  6
Continuous
 62
     7
100
AcDbLine
 10
21.5159411015
 20
3.9168494466
 30
0.0
 11
20.4292064631
 21
3.9168494466
 31
0.0
  0
LINE
  5
3F9
330
A
100
AcDbEntity
  8
0
  6
Continuous
 62
     7
100
AcDbLine
 10
20.4292064631
 20
4.162486344999999
 30
0.0
 11
20.4292064631
 21
3.9168494466
 31
0.0
  0
ARC
  5
3FA
330
A
100
AcDbEntity
  8
0
  6
Continuous
 62
     7
100
AcDbCircle
 10
20.4292064631
 20
4.166849446599999
 30
0.0
 40
0.25
100
AcDbArc
 50
190.0
 51
270.0
  0
LINE
  5
3FB
330
A
100
AcDbEntity
  8
0
  6
Continuous
 62
     7
100
AcDbLine
 10
22.6278222778
 20
4.776849446599999
 30
0.0
 11
22.4445168803
 21
4.776849446599999
 31
0.0
  0
LINE
  5
3FC
330
A
100
AcDbEntity
  8
0
  6
Continuous
 62
     7
100
AcDbLine
 10
22.3006306843
 20
4.776849446599999
 30
0.0
 11
22.1173252868
 21
4.776849446599999
 31
0.0
  0
LINE
  5
3FD
330
A
100
AcDbEntity
  8
0
  6
Continuous
 62
     7
100
AcDbLine
 10
24.05906922579999
 20
4.822491659499999
 30
0.0
 11
24.05945048279999
 21
4.826849446599999
 31
0.0
  0
LINE
  5
3FE
330
A
100
AcDbEntity
  8
0
  6
Continuous
 62
     7
100
AcDbLine
 10
23.473248654
 20
4.822491659499999
 30
0.0
 11
24.05906922579999
 21
4.822491659499999
 31
0.0
  0
LINE
  5
3FF
330
A
100
AcDbEntity
  8
0
  6
Continuous
 62
     7
100
AcDbLine
 10
24.05945048279999
 20
4.826849446599999
 30
0.0
 11
23.4734313039
 21
4.825976826299999
 31
0.0
  0
ARC
  5
400
330
A
100
AcDbEntity
  8
0
  6
Continuous
 62
     7
100
AcDbCircle
 10
24.0092594909
 20
4.826849446599999
 30
0.0
 40
0.05
100
AcDbArc
 50
269.9999999986999
 51
354.9999999955999
  0
LINE
  5
401
330
A
100
AcDbEntity
  8
0
  6
Continuous
 62
     7
100
AcDbLine
 10
24.0092594909
 20
4.776849446599999
 30
0.0
 11
23.4234389191
 21
4.776849446599999
 31
0.0
  0
LINE
  5
402
330
A
100
AcDbEntity
  8
0
  6
Continuous
 62
     7
100
AcDbLine
 10
27.4344468439
 20
4.9768494466
 30
0.0
 11
27.4340976362
 21
4.986849446599999
 31
0.0
  0
LINE
  5
403
330
A
100
AcDbEntity
  8
0
  6
Continuous
 62
     7
100
AcDbLine
 10
27.21663906019999
 20
4.9768494466
 30
0.0
 11
27.4344468439
 21
4.9768494466
 31
0.0
  0
ARC
  5
404
330
A
100
AcDbEntity
  8
0
  6
Continuous
 62
     7
100
AcDbCircle
 10
24.1092270293
 20
4.9368494466
 30
0.0
 40
0.04
100
AcDbArc
 50
89.9999999985
 51
174.9999999936999
  0
LINE
  5
405
330
A
100
AcDbEntity
  8
0
  6
Continuous
 62
     7
100
AcDbLine
 10
24.05945048279999
 20
4.826849446599999
 30
0.0
 11
24.0693792413
 21
4.9403356763
 31
0.0
  0
LINE
  5
406
330
A
100
AcDbEntity
  8
0
  6
Continuous
 62
     7
100
AcDbLine
 10
24.8786979887
 20
4.9768494466
 30
0.0
 11
24.8314950939
 21
4.9768494466
 31
0.0
  0
LINE
  5
407
330
A
100
AcDbEntity
  8
0
  6
Continuous
 62
     7
100
AcDbLine
 10
24.06478693409999
 20
4.887845365
 30
0.0
 11
24.26257378229999
 21
4.9768494466
 31
0.0
  0
LINE
  5
408
330
A
100
AcDbEntity
  8
0
  6
Continuous
 62
     7
100
AcDbLine
 10
23.1101128913
 20
4.6681338724
 30
0.0
 11
23.5721083498
 21
4.6681338724
 31
0.0
  0
LINE
  5
409
330
A
100
AcDbEntity
  8
0
  6
Continuous
 62
     7
100
AcDbLine
 10
24.26257378229999
 20
4.9768494466
 30
0.0
 11
24.8314950939
 21
4.9768494466
 31
0.0
  0
LINE
  5
40A
330
A
100
AcDbEntity
  8
0
  6
Continuous
 62
     7
100
AcDbLine
 10
23.6790827693
 20
4.776849446599999
 30
0.0
 11
23.67730679949999
 21
4.675104206
 31
0.0
  0
LWPOLYLINE
  5
40B
330
A
100
AcDbEntity
  8
0
  6
Continuous
 62
     7
100
AcDbPolyline
 90
        9
 70
   128
 43
0.0
 10
23.67730679949999
 20
4.675104206
 10
23.6752292367
 20
4.6733654888
 10
23.66914354549999
 20
4.671769398
 10
23.6592988621
 20
4.6703812744
 10
23.6460982086
 20
4.669257945
 10
23.6300819936
 20
4.6684453968
 10
23.6119058896
 20
4.667976893899999
 10
23.5923139904
 20
4.6678716157
 10
23.5721083498
 20
4.6681338724
  0
LWPOLYLINE
  5
416
330
A
100
AcDbEntity
  8
0
  6
Continuous
 62
     7
100
AcDbPolyline
 90
        9
 70
   128
 43
0.0
 10
23.0157071017
 20
4.6681338724
 10
23.0176141572
 20
4.66674699
 10
23.0229976715
 20
4.6657195377
 10
23.0316661073
 20
4.6650880706
 10
23.04331105489999
 20
4.664875055299999
 10
23.05751820489999
 20
4.6650880706
 10
23.0737820884
 20
4.6657195377
 10
23.0915240614
 20
4.66674699
 10
23.1101128913
 20
4.6681338724
  0
LINE
  5
421
330
A
100
AcDbEntity
  8
0
  6
Continuous
 62
     7
100
AcDbLine
 10
23.0157071017
 20
4.6681338724
 30
0.0
 11
23.0061957214
 21
4.776849446599999
 31
0.0
  0
LWPOLYLINE
  5
422
330
A
100
AcDbEntity
  8
0
  6
Continuous
 62
     7
100
AcDbPolyline
 90
        9
 70
   128
 43
0.0
 10
23.57732203
 20
4.576849446599999
 10
23.5763570585
 20
4.5785639475
 10
23.5754251759
 20
4.583648659699999
 10
23.57455833639999
 20
4.591929228499999
 10
23.5737862641
 20
4.603121713
 10
23.5731354332
 20
4.6168423226
 10
23.57262816079999
 20
4.6326205776
 10
23.57228184119999
 20
4.6499154412
 10
23.5721083498
 20
4.6681338724
  0
ARC
  5
42D
330
A
100
AcDbEntity
  8
0
  6
Continuous
 62
     7
100
AcDbCircle
 10
23.57732203
 20
4.6768494466
 30
0.0
 40
0.1
100
AcDbArc
 50
270.0
 51
358.9999999999
  0
LINE
  5
42E
330
A
100
AcDbEntity
  8
0
  6
Continuous
 62
     7
100
AcDbLine
 10
23.57732203
 20
4.576849446599999
 30
0.0
 11
23.1153265716
 21
4.576849446599999
 31
0.0
  0
LWPOLYLINE
  5
42F
330
A
100
AcDbEntity
  8
0
  6
Continuous
 62
     7
100
AcDbPolyline
 90
        9
 70
   128
 43
0.0
 10
23.1153265716
 20
4.576849446599999
 10
23.11436159999999
 20
4.5785639475
 10
23.11342971739999
 20
4.583648659699999
 10
23.112562878
 20
4.591929228499999
 10
23.1117908056
 20
4.603121713
 10
23.1111399747
 20
4.6168423226
 10
23.1106327023
 20
4.6326205776
 10
23.1102863827
 20
4.6499154412
 10
23.1101128913
 20
4.6681338724
  0
ARC
  5
43A
330
A
100
AcDbEntity
  8
0
  6
Continuous
 62
     7
100
AcDbCircle
 10
23.1153265716
 20
4.6768494466
 30
0.0
 40
0.1
100
AcDbArc
 50
185.0
 51
270.0
  0
LINE
  5
43B
330
A
100
AcDbEntity
  8
0
  6
Continuous
 62
     7
100
AcDbLine
 10
22.9233576327
 20
4.776849446599999
 30
0.0
 11
22.8289518431
 21
4.776849446599999
 31
0.0
  0
LINE
  5
43C
330
A
100
AcDbEntity
  8
0
  6
Continuous
 62
     7
100
AcDbLine
 10
23.0061957214
 20
4.776849446599999
 30
0.0
 11
22.9233576327
 21
4.776849446599999
 31
0.0
  0
LINE
  5
43D
330
A
100
AcDbEntity
  8
0
  6
Continuous
 62
     7
100
AcDbLine
 10
26.8585085044
 20
4.9768494466
 30
0.0
 11
27.21663906019999
 21
4.9768494466
 31
0.0
  0
LINE
  5
43E
330
A
100
AcDbEntity
  8
0
  6
Continuous
 62
     7
100
AcDbLine
 10
19.9725737823
 20
5.3168494466
 30
0.0
 11
19.9919697502
 21
5.206849446599999
 31
0.0
  0
LINE
  5
43F
330
A
100
AcDbEntity
  8
0
  6
Continuous
 62
     7
100
AcDbLine
 10
24.0092594909
 20
4.776849446599999
 30
0.0
 11
23.6790827693
 21
4.776849446599999
 31
0.0
  0
LINE
  5
440
330
A
100
AcDbEntity
  8
0
  6
Continuous
 62
     7
100
AcDbLine
 10
26.5945229458
 20
4.9768494466
 30
0.0
 11
26.4608162968
 21
4.9768494466
 31
0.0
  0
LWPOLYLINE
  5
441
330
A
100
AcDbEntity
  8
0
  6
Continuous
 62
     7
100
AcDbPolyline
 90
        9
 70
   128
 43
0.0
 10
23.44052179659999
 20
5.9012125482
 10
23.44841920689999
 20
5.9039794339
 10
23.456093614
 20
5.906643548999999
 10
23.4633283117
 20
5.9091296655
 10
23.4699190102
 20
5.9113675817
 10
23.4756796046
 20
5.9132941045
 10
23.48044743
 20
5.914854833499999
 10
23.4840878549
 20
5.9160056977
 10
23.48649808269999
 20
5.9167141996
  0
ARC
  5
44C
330
A
100
AcDbEntity
  8
0
  6
Continuous
 62
     7
100
AcDbCircle
 10
25.9718087923
 20
6.654741208699999
 30
0.0
 40
2.592576554199999
100
AcDbArc
 50
196.5390833751
 51
200.3959667466999
  0
ARC
  5
44D
330
A
100
AcDbEntity
  8
0
  6
Continuous
 62
     7
100
AcDbCircle
 10
23.81345455539999
 20
6.0437668015
 30
0.0
 40
0.399249994
100
AcDbArc
 50
200.9194504268
 51
227.1182400424
  0
ARC
  5
44E
330
A
100
AcDbEntity
  8
0
  6
Continuous
 62
     7
100
AcDbCircle
 10
23.4981962029
 20
6.026849446599999
 30
0.0
 40
0.03
100
AcDbArc
 50
189.0
 51
270.0
  0
LINE
  5
44F
330
A
100
AcDbEntity
  8
0
  6
Continuous
 62
     7
100
AcDbLine
 10
23.4981962029
 20
5.996849446599999
 30
0.0
 11
23.5417698731
 21
5.751212548199999
 31
0.0
  0
LWPOLYLINE
  5
450
330
A
100
AcDbEntity
  8
0
  6
Continuous
 62
     7
100
AcDbPolyline
 90
        3
 70
   128
 43
0.0
 10
23.4808345795
 20
5.944692825599999
 10
23.4833021329
 20
5.9309354108
 10
23.48649808269999
 20
5.9167141996
  0
LINE
  5
455
330
A
100
AcDbEntity
  8
0
  6
Continuous
 62
     7
100
AcDbLine
 10
26.97261185849999
 20
5.3168494466
 30
0.0
 11
26.9650300224
 21
5.751212548199999
 31
0.0
  0
LINE
  5
456
330
A
100
AcDbEntity
  8
0
  6
Continuous
 62
     7
100
AcDbLine
 10
20.2256611027
 20
5.3168494466
 30
0.0
 11
26.97261185849999
 21
5.3168494466
 31
0.0
  0
LINE
  5
457
330
A
100
AcDbEntity
  8
0
  6
Continuous
 62
     7
100
AcDbLine
 10
20.3287000841
 20
5.9012125482
 30
0.0
 11
20.2256611027
 21
5.3168494466
 31
0.0
  0
LINE
  5
458
330
A
100
AcDbEntity
  8
0
  6
Continuous
 62
     7
100
AcDbLine
 10
23.44052179659999
 20
5.9012125482
 30
0.0
 11
20.3287000841
 21
5.9012125482
 31
0.0
  0
LINE
  5
459
330
A
100
AcDbEntity
  8
0
  6
Continuous
 62
     7
100
AcDbLine
 10
26.9650300224
 20
5.751212548199999
 30
0.0
 11
23.5417698731
 21
5.751212548199999
 31
0.0
  0
LINE
  5
45A
330
A
100
AcDbEntity
  8
0
  6
Continuous
 62
     7
100
AcDbLine
 10
27.2117333641
 20
5.937896591
 30
0.0
 11
27.2225737823
 21
5.3168494466
 31
0.0
  0
ARC
  5
45B
330
A
100
AcDbEntity
  8
0
  6
Continuous
 62
     7
100
AcDbCircle
 10
31.3869104807
 20
0.1654195318
 30
0.0
 40
7.124191912799999
100
AcDbArc
 50
125.8780115274
 51
128.3661884448
  0
LINE
  5
45C
330
A
100
AcDbEntity
  8
0
  6
Continuous
 62
     7
100
AcDbLine
 10
27.2117333641
 20
5.937896591
 30
0.0
 11
27.211696289
 21
5.9379143879
 31
0.0
  0
LINE
  5
45D
330
A
100
AcDbEntity
  8
0
  6
Continuous
 62
     7
100
AcDbLine
 10
19.9725737823
 20
5.3168494466
 30
0.0
 11
20.0824981458
 21
5.9402614911
 31
0.0
  0
LWPOLYLINE
  5
45E
330
A
100
AcDbEntity
  8
0
  6
Continuous
 62
     7
100
AcDbPolyline
 90
        9
 70
   128
 43
0.0
 10
20.0824981458
 20
5.9402614911
 10
20.0873559559
 20
5.940254509699999
 10
20.1014528465
 20
5.9385859057
 10
20.1242491638
 20
5.935319556199999
 10
20.1548722242
 20
5.930580502699999
 10
20.1921497229
 20
5.9245501647
 10
20.2346546113
 20
5.917459394199999
 10
20.28075972679999
 20
5.9095796383
 10
20.3287000841
 20
5.9012125482
  0
LINE
  5
469
330
A
100
AcDbEntity
  8
0
  6
Continuous
 62
     7
100
AcDbLine
 10
20.2256611027
 20
5.3168494466
 30
0.0
 11
19.9725737823
 21
5.3168494466
 31
0.0
  0
LINE
  5
46A
330
A
100
AcDbEntity
  8
0
  6
Continuous
 62
     7
100
AcDbLine
 10
23.4981962029
 20
5.996849446599999
 30
0.0
 11
27.1517145614
 21
5.996849446599999
 31
0.0
  0
ARC
  5
46B
330
A
100
AcDbEntity
  8
0
  6
Continuous
 62
     7
100
AcDbCircle
 10
34.4749782112
 20
0.2373955161
 30
0.0
 40
9.3167322632
100
AcDbArc
 50
141.8163654675
 51
143.7138198327
  0
LWPOLYLINE
  5
46C
330
A
100
AcDbEntity
  8
0
  6
Continuous
 62
     7
100
AcDbPolyline
 90
        9
 70
   128
 43
0.0
 10
27.211696289
 20
5.9379143879
 10
27.2103641639
 20
5.9494673843
 10
27.2068286579
 20
5.960546342999999
 10
27.2012225948
 20
5.9707350435
 10
27.1937565863
 20
5.979650711099999
 10
27.1847111196
 20
5.9869583969
 10
27.1744260199
 20
5.992383561699999
 10
27.1632876834
 20
5.9957223899
 10
27.1517145614
 20
5.996849446599999
  0
LWPOLYLINE
  5
477
330
A
100
AcDbEntity
  8
0
  6
Continuous
 62
     7
100
AcDbPolyline
 90
        3
 70
   128
 43
0.0
 10
23.44052179659999
 20
5.9012125482
 10
23.43515233939999
 20
5.923828743999999
 10
23.43145016249999
 20
5.946876516199999
  0
LWPOLYLINE
  5
47C
330
A
100
AcDbEntity
  8
0
  6
Continuous
 62
     7
100
AcDbPolyline
 90
        9
 70
   128
 43
0.0
 10
23.43145016249999
 20
5.946876516199999
 10
23.440899584
 20
5.948128539899999
 10
23.4500001569
 20
5.9489649677
 10
23.4584159114
 20
5.9493549209
 10
23.4658361593
 20
5.949284003399999
 10
23.4719869639
 20
5.948754833199999
 10
23.4766412534
 20
5.947786945999999
 10
23.4796272031
 20
5.9464160738
 10
23.4808345795
 20
5.944692825599999
  0
LINE
  5
487
330
A
100
AcDbEntity
  8
0
  6
Continuous
 62
     7
100
AcDbLine
 10
20.3287000841
 20
6.1468494466
 30
0.0
 11
20.3287000841
 21
5.9012125482
 31
0.0
  0
LINE
  5
488
330
A
100
AcDbEntity
  8
0
  6
Continuous
 62
     7
100
AcDbLine
 10
20.3287000841
 20
6.1468494466
 30
0.0
 11
23.40611208199999
 21
6.1468494466
 31
0.0
  0
LINE
  5
489
330
A
100
AcDbEntity
  8
0
  6
Continuous
 62
     7
100
AcDbLine
 10
23.43145016249999
 20
5.946876516199999
 30
0.0
 11
23.40611208199999
 21
6.1468494466
 31
0.0
  0
ARC
  5
48A
330
A
100
AcDbEntity
  8
0
  6
Continuous
 62
     7
100
AcDbCircle
 10
20.3287000841
 20
5.8968494466
 30
0.0
 40
0.25
100
AcDbArc
 50
90.0
 51
170.0
  0
ARC
  5
48B
330
A
100
AcDbEntity
  8
0
  6
Continuous
 62
     7
100
AcDbCircle
 10
23.40611208199999
 20
6.0968494466
 30
0.0
 40
0.05
100
AcDbArc
 50
9.0
 51
90.0
  0
LINE
  5
48C
330
A
100
AcDbEntity
  8
0
  6
Continuous
 62
     7
100
AcDbLine
 10
23.455496499
 20
6.104671169899999
 30
0.0
 11
23.4808345795
 21
5.944692825599999
 31
0.0
  0
ARC
  5
48D
330
A
100
AcDbEntity
  8
0
  6
Continuous
 62
     7
100
AcDbCircle
 10
27.1517425024
 20
5.9368494466
 30
0.0
 40
0.06
100
AcDbArc
 50
1.0
 51
90.0
  0
LINE
  5
48E
330
A
100
AcDbEntity
  8
0
  6
Continuous
 62
     7
100
AcDbLine
 10
23.4968763325
 20
6.030182779999999
 30
0.0
 11
23.4981962029
 21
5.996849446599999
 31
0.0
  0
LINE
  5
48F
330
A
100
AcDbEntity
  8
0
  6
Continuous
 62
     7
100
AcDbLine
 10
26.3024411409
 20
6.030182779999999
 30
0.0
 11
23.4968763325
 21
6.030182779999999
 31
0.0
  0
ARC
  5
490
330
A
100
AcDbEntity
  8
0
  6
Continuous
 62
     7
100
AcDbCircle
 10
26.3418816728
 20
6.036849446599999
 30
0.0
 40
0.04
100
AcDbArc
 50
189.5940682234
 51
270.0000000026
  0
LWPOLYLINE
  5
491
330
A
100
AcDbEntity
  8
0
  6
Continuous
 62
     7
100
AcDbPolyline
 90
        9
 70
   128
 43
0.0
 10
23.46724568229999
 20
6.030489745999999
 10
23.4679446353
 20
6.0296406605
 10
23.4697189244
 20
6.0289975651
 10
23.4725026028
 20
6.0285843623
 10
23.47619220629999
 20
6.0284164101
 10
23.4806505995
 20
6.028499951099999
 10
23.4857120723
 20
6.0288318801
 10
23.4911884995
 20
6.029399859999999
 10
23.4968763325
 20
6.030182779999999
  0
LWPOLYLINE
  5
49C
330
A
100
AcDbEntity
  8
0
  6
Continuous
 62
     7
100
AcDbPolyline
 90
        6
 70
   128
 43
0.0
 10
23.4744385368
 20
6.1468494466
 10
23.4742882567
 20
6.1468482586
 10
23.4713697426
 20
6.146328473899999
 10
23.4628063829
 20
6.1381127048
 10
23.4557514549
 20
6.1177614658
 10
23.455496499
 20
6.104671169899999
  0
LINE
  5
4A4
330
A
100
AcDbEntity
  8
0
  6
Continuous
 62
     7
100
AcDbLine
 10
23.4744385368
 20
6.1468494466
 30
0.0
 11
23.4968763325
 21
6.030182779999999
 31
0.0
  0
ARC
  5
4A5
330
A
100
AcDbEntity
  8
0
  6
Continuous
 62
     7
100
AcDbCircle
 10
26.1643992793
 20
6.0068494466
 30
0.0
 40
0.14
100
AcDbArc
 50
9.594068226899999
 51
89.9999999999
  0
LINE
  5
4A6
330
A
100
AcDbEntity
  8
0
  6
Continuous
 62
     7
100
AcDbLine
 10
26.1623779057
 20
6.1468494466
 30
0.0
 11
26.1643992793
 21
6.1468494466
 31
0.0
  0
LINE
  5
4A7
330
A
100
AcDbEntity
  8
0
  6
Continuous
 62
     7
100
AcDbLine
 10
23.4744385368
 20
6.1468494466
 30
0.0
 11
26.1623779057
 21
6.1468494466
 31
0.0
  0
LINE
  5
4A8
330
A
100
AcDbEntity
  8
0
  6
Continuous
 62
     7
100
AcDbLine
 10
23.40611208199999
 20
6.1468494466
 30
0.0
 11
23.4744385368
 21
6.1468494466
 31
0.0
  0
ARC
  5
4A9
330
A
100
AcDbEntity
  8
0
  6
Continuous
 62
     7
100
AcDbCircle
 10
27.2417287949
 20
5.0786966365
 30
0.0
 40
0.8597233786
100
AcDbArc
 50
88.0005656468
 51
91.99943435319999
  0
LINE
  5
4AA
330
A
100
AcDbEntity
  8
0
  6
Continuous
 62
     7
100
AcDbLine
 10
27.2717242258
 20
5.937896591
 30
0.0
 11
27.282564644
 21
5.3168494466
 31
0.0
  0
LINE
  5
4AB
330
A
100
AcDbEntity
  8
0
  6
Continuous
 62
     7
100
AcDbLine
 10
27.282564644
 20
5.3168494466
 30
0.0
 11
27.2285121218
 21
5.3168494466
 31
0.0
  0
LINE
  5
4AC
330
A
100
AcDbEntity
  8
0
  6
Continuous
 62
     7
100
AcDbLine
 10
27.2717242258
 20
5.937896591
 30
0.0
 11
27.2717242258
 21
5.996849446599999
 31
0.0
  0
LINE
  5
4AD
330
A
100
AcDbEntity
  8
0
  6
Continuous
 62
     7
100
AcDbLine
 10
27.1517425024
 20
5.996849446599999
 30
0.0
 11
27.2717242258
 21
5.996849446599999
 31
0.0
  0
LINE
  5
4AE
330
A
100
AcDbEntity
  8
0
  6
Continuous
 62
     7
100
AcDbLine
 10
27.85257378229999
 20
4.986849446599999
 30
0.0
 11
27.85257378229999
 21
5.3168494466
 31
0.0
  0
LINE
  5
4AF
330
A
100
AcDbEntity
  8
0
  6
Continuous
 62
     7
100
AcDbLine
 10
27.85257378229999
 20
4.986849446599999
 30
0.0
 11
27.26409763619999
 21
4.986849446599999
 31
0.0
  0
LINE
  5
4B0
330
A
100
AcDbEntity
  8
0
  6
Continuous
 62
     7
100
AcDbLine
 10
27.26409763619999
 20
4.986849446599999
 30
0.0
 11
27.2525737823
 21
5.3168494466
 31
0.0
  0
LINE
  5
4B1
330
A
100
AcDbEntity
  8
0
  6
Continuous
 62
     7
100
AcDbLine
 10
27.85257378229999
 20
5.3168494466
 30
0.0
 11
27.282564644
 21
5.3168494466
 31
0.0
  0
LINE
  5
4B2
330
A
100
AcDbEntity
  8
0
  6
Continuous
 62
     7
100
AcDbLine
 10
27.8710499284
 20
4.986849446599999
 30
0.0
 11
27.88257378229999
 21
5.3168494466
 31
0.0
  0
LINE
  5
4B3
330
A
100
AcDbEntity
  8
0
  6
Continuous
 62
     7
100
AcDbLine
 10
27.8710499284
 20
4.986849446599999
 30
0.0
 11
27.85257378229999
 21
4.986849446599999
 31
0.0
  0
LWPOLYLINE
  5
4B4
330
A
100
AcDbEntity
  8
0
  6
Continuous
 62
     7
100
AcDbPolyline
 90
        4
 70
   128
 43
0.0
 10
27.8737869857
 20
5.3168494466
 10
27.8690392385
 20
5.316849809199999
 10
27.8637556772
 20
5.316850068399999
 10
27.85257378229999
 20
5.3168494466
  0
LWPOLYLINE
  5
4BA
330
A
100
AcDbEntity
  8
0
  6
Continuous
 62
     7
100
AcDbPolyline
 90
        3
 70
   128
 43
0.0
 10
27.88257378229999
 20
5.3168494466
 10
27.8802901683
 20
5.316864698299999
 10
27.8737869857
 20
5.3168494466
  0
LINE
  5
4BF
330
A
100
AcDbEntity
  8
0
  6
Continuous
 62
     7
100
AcDbLine
 10
27.85257378229999
 20
5.937896591
 30
0.0
 11
27.2717242258
 21
5.937896591
 31
0.0
  0
LINE
  5
4C0
330
A
100
AcDbEntity
  8
0
  6
Continuous
 62
     7
100
AcDbLine
 10
27.85257378229999
 20
5.857373018799999
 30
0.0
 11
27.85257378229999
 21
5.937896591
 31
0.0
  0
LINE
  5
4C1
330
A
100
AcDbEntity
  8
0
  6
Continuous
 62
     7
100
AcDbLine
 10
27.85257378229999
 20
5.3168494466
 30
0.0
 11
27.85257378229999
 21
5.857373018799999
 31
0.0
  0
LWPOLYLINE
  5
4C2
330
A
100
AcDbEntity
  8
0
  6
Continuous
 62
     7
100
AcDbPolyline
 90
        9
 70
   128
 43
0.0
 10
27.85257378229999
 20
5.857373018799999
 10
27.858426492
 20
5.8573629585
 10
27.8640542853
 20
5.857333164299999
 10
27.8692408893
 20
5.857284780999999
 10
27.8737869857
 20
5.857219668099999
 10
27.8775178707
 20
5.857140327799999
 10
27.8802901683
 20
5.857049809
 10
27.88199734069999
 20
5.856951590499999
 10
27.88257378229999
 20
5.8568494466
  0
LINE
  5
4CD
330
A
100
AcDbEntity
  8
0
  6
Continuous
 62
     7
100
AcDbLine
 10
27.88257378229999
 20
5.8568494466
 30
0.0
 11
27.88257378229999
 21
5.3168494466
 31
0.0
  0
LWPOLYLINE
  5
4CE
330
A
100
AcDbEntity
  8
0
  6
Continuous
 62
     7
100
AcDbPolyline
 90
        9
 70
   128
 43
0.0
 10
27.85257378229999
 20
5.937896591
 10
27.858426492
 20
5.9378865307
 10
27.8640542853
 20
5.937856736499999
 10
27.8692408893
 20
5.9378083532
 10
27.8737869857
 20
5.937743240299999
 10
27.8775178707
 20
5.9376639
 10
27.8802901683
 20
5.9375733812
 10
27.88199734069999
 20
5.9374751627
 10
27.88257378229999
 20
5.937373018799999
  0
LINE
  5
4D9
330
A
100
AcDbEntity
  8
0
  6
Continuous
 62
     7
100
AcDbLine
 10
27.88257378229999
 20
5.937373018799999
 30
0.0
 11
27.88257378229999
 21
5.8568494466
 31
0.0
  0
LINE
  5
4DA
330
A
100
AcDbEntity
  8
0
  6
Continuous
 62
     7
100
AcDbLine
 10
27.7825737823
 20
5.996849446599999
 30
0.0
 11
27.85257378229999
 21
5.9564349278
 31
0.0
  0
LINE
  5
4DB
330
A
100
AcDbEntity
  8
0
  6
Continuous
 62
     7
100
AcDbLine
 10
27.85257378229999
 20
5.937896591
 30
0.0
 11
27.85257378229999
 21
5.9564349278
 31
0.0
  0
LINE
  5
4DC
330
A
100
AcDbEntity
  8
0
  6
Continuous
 62
     7
100
AcDbLine
 10
27.2717242258
 20
5.996849446599999
 30
0.0
 11
27.7825737823
 21
5.996849446599999
 31
0.0
  0
LINE
  5
4DD
330
A
100
AcDbEntity
  8
0
  6
Continuous
 62
     7
100
AcDbLine
 10
27.88257378229999
 20
5.9391144197
 30
0.0
 11
27.88257378229999
 21
5.937373018799999
 31
0.0
  0
LINE
  5
4DE
330
A
100
AcDbEntity
  8
0
  6
Continuous
 62
     7
100
AcDbLine
 10
27.85257378229999
 20
5.9564349278
 30
0.0
 11
27.88257378229999
 21
5.9391144197
 31
0.0
  0
LINE
  5
4DF
330
A
100
AcDbEntity
  8
0
  6
Continuous
 62
     7
100
AcDbLine
 10
27.88257378229999
 20
5.8568494466
 30
0.0
 11
27.88257378229999
 21
5.797896590999999
 31
0.0
  0
LINE
  5
4E0
330
A
100
AcDbEntity
  8
0
  6
Continuous
 62
     7
100
AcDbLine
 10
27.88257378229999
 20
5.797896590999999
 30
0.0
 11
27.88257378229999
 21
5.3788494466
 31
0.0
  0
LINE
  5
4E1
330
A
100
AcDbEntity
  8
0
  6
Continuous
 62
     7
100
AcDbLine
 10
26.87258139749999
 20
5.996849446599999
 30
0.0
 11
26.86996313779999
 21
6.1468494466
 31
0.0
  0
LINE
  5
4E2
330
A
100
AcDbEntity
  8
0
  6
Continuous
 62
     7
100
AcDbLine
 10
26.1643992793
 20
6.1468494466
 30
0.0
 11
26.86996313779999
 21
6.1468494466
 31
0.0
  0
LINE
  5
4E3
330
A
100
AcDbEntity
  8
0
  6
Continuous
 62
     7
100
AcDbLine
 10
26.91995552259999
 20
6.1468494466
 30
0.0
 11
26.92257378229999
 21
5.996849446599999
 31
0.0
  0
LINE
  5
4E4
330
A
100
AcDbEntity
  8
0
  6
Continuous
 62
     7
100
AcDbLine
 10
26.86996313779999
 20
6.1468494466
 30
0.0
 11
26.91995552259999
 21
6.1468494466
 31
0.0
  0
LINE
  5
4E5
330
A
100
AcDbEntity
  8
0
  6
Continuous
 62
     7
100
AcDbLine
 10
20.1243139398
 20
4.4562882502
 30
0.0
 11
20.1243139398
 21
4.380518738
 31
0.0
  0
LINE
  5
4E6
330
A
100
AcDbEntity
  8
0
  6
Continuous
 62
     7
100
AcDbLine
 10
20.1243139398
 20
4.380518738
 30
0.0
 11
20.04557378229999
 21
4.380518738
 31
0.0
  0
LINE
  5
4E7
330
A
100
AcDbEntity
  8
0
  6
Continuous
 62
     7
100
AcDbLine
 10
20.04557378229999
 20
4.380518738
 30
0.0
 11
20.04557378229999
 21
4.902845873799999
 31
0.0
  0
LINE
  5
4E8
330
A
100
AcDbEntity
  8
0
  6
Continuous
 62
     7
100
AcDbLine
 10
20.1348973463
 20
4.3962667695
 30
0.0
 11
20.1243139398
 21
4.3962667695
 31
0.0
  0
LINE
  5
4E9
330
A
100
AcDbEntity
  8
0
  6
Continuous
 62
     7
100
AcDbLine
 10
19.8306840185
 20
4.6013061395
 30
0.0
 11
19.8306840185
 21
4.7213061395
 31
0.0
  0
LINE
  5
4EA
330
A
100
AcDbEntity
  8
0
  6
Continuous
 62
     7
100
AcDbLine
 10
19.8306840185
 20
4.7213061395
 30
0.0
 11
19.9684570678
 21
4.8008494466
 31
0.0
  0
LINE
  5
4EB
330
A
100
AcDbEntity
  8
0
  6
Continuous
 62
     7
100
AcDbLine
 10
19.9925737823
 20
4.8008494466
 30
0.0
 11
19.9684570678
 21
4.8008494466
 31
0.0
  0
LINE
  5
4EC
330
A
100
AcDbEntity
  8
0
  6
Continuous
 62
     7
100
AcDbLine
 10
19.9925737823
 20
4.6013061395
 30
0.0
 11
19.8306840185
 21
4.6013061395
 31
0.0
  0
LINE
  5
4ED
330
A
100
AcDbEntity
  8
0
  6
Continuous
 62
     7
100
AcDbLine
 10
20.03257378229999
 20
4.3548494466
 30
0.0
 11
20.03257378229999
 21
4.554849446599999
 31
0.0
  0
LINE
  5
4EE
330
A
100
AcDbEntity
  8
0
  6
Continuous
 62
     7
100
AcDbLine
 10
20.04557378229999
 20
4.551956494899999
 30
0.0
 11
20.03257378229999
 21
4.554849446599999
 31
0.0
  0
LWPOLYLINE
  5
4EF
330
A
100
AcDbEntity
  8
0
  6
Continuous
 62
     7
100
AcDbPolyline
 90
        3
 70
   128
 43
0.0
 10
20.03257378229999
 20
4.3548494466
 10
20.1121983027
 20
4.372568669099999
 10
20.1380635918
 20
4.3783100987
  0
LINE
  5
4F4
330
A
100
AcDbEntity
  8
0
  6
Continuous
 62
     7
100
AcDbLine
 10
20.03257378229999
 20
4.874849446599999
 30
0.0
 11
20.04557378229999
 21
4.877742398299999
 31
0.0
  0
LINE
  5
4F5
330
A
100
AcDbEntity
  8
0
  6
Continuous
 62
     7
100
AcDbLine
 10
20.03257378229999
 20
4.874849446599999
 30
0.0
 11
20.03257378229999
 21
4.9765725375
 31
0.0
  0
LINE
  5
4F6
330
A
100
AcDbEntity
  8
0
  6
Continuous
 62
     7
100
AcDbLine
 10
20.1704126547
 20
4.1948494466
 30
0.0
 11
19.9925737823
 21
4.1948494466
 31
0.0
  0
LINE
  5
4F7
330
A
100
AcDbEntity
  8
0
  6
Continuous
 62
     7
100
AcDbLine
 10
19.9925737823
 20
4.1948494466
 30
0.0
 11
19.9925737823
 21
5.2034238102
 31
0.0
  0
LINE
  5
4F8
330
A
100
AcDbEntity
  8
0
  6
Continuous
 62
     7
100
AcDbLine
 10
20.1448538598
 20
4.339800574999999
 30
0.0
 11
20.03257378229999
 21
4.3148494466
 31
0.0
  0
LINE
  5
4F9
330
A
100
AcDbEntity
  8
0
  6
Continuous
 62
     7
100
AcDbLine
 10
20.03257378229999
 20
4.594849446599999
 30
0.0
 11
20.04557378229999
 21
4.5919605577
 31
0.0
  0
LINE
  5
4FA
330
A
100
AcDbEntity
  8
0
  6
Continuous
 62
     7
100
AcDbLine
 10
20.03257378229999
 20
4.554849446599999
 30
0.0
 11
20.03257378229999
 21
4.594849446599999
 31
0.0
  0
LINE
  5
4FB
330
A
100
AcDbEntity
  8
0
  6
Continuous
 62
     7
100
AcDbLine
 10
20.03257378229999
 20
4.3148494466
 30
0.0
 11
20.03257378229999
 21
4.3548494466
 31
0.0
  0
LINE
  5
4FC
330
A
100
AcDbEntity
  8
0
  6
Continuous
 62
     7
100
AcDbLine
 10
20.04557378229999
 20
4.8377383355
 30
0.0
 11
20.03257378229999
 21
4.834849446599999
 31
0.0
  0
LINE
  5
4FD
330
A
100
AcDbEntity
  8
0
  6
Continuous
 62
     7
100
AcDbLine
 10
20.03257378229999
 20
4.834849446599999
 30
0.0
 11
20.03257378229999
 21
4.874849446599999
 31
0.0
  0
LINE
  5
4FE
330
A
100
AcDbEntity
  8
0
  6
Continuous
 62
     7
100
AcDbLine
 10
19.9159737823
 20
4.427849446599999
 30
0.0
 11
19.9925737823
 21
4.427849446599999
 31
0.0
  0
LINE
  5
4FF
330
A
100
AcDbEntity
  8
0
  6
Continuous
 62
     7
100
AcDbLine
 10
19.9159737823
 20
4.289849446599999
 30
0.0
 11
19.9925737823
 21
4.289849446599999
 31
0.0
  0
LINE
  5
500
330
A
100
AcDbEntity
  8
0
  6
Continuous
 62
     7
100
AcDbLine
 10
19.9159737823
 20
4.289849446599999
 30
0.0
 11
19.9159737823
 21
4.427849446599999
 31
0.0
  0
LWPOLYLINE
  5
501
330
A
100
AcDbEntity
  8
0
  6
Continuous
 62
     7
100
AcDbPolyline
 90
        3
 70
   128
 43
0.0
 10
20.1826987408
 20
4.124535188
 10
20.1121983027
 20
4.148815298299999
 10
20.03257378229999
 20
4.1948494466
  0
LWPOLYLINE
  5
506
330
A
100
AcDbEntity
  8
0
  6
Continuous
 62
     7
100
AcDbPolyline
 90
        3
 70
   128
 43
0.0
 10
20.18049992799999
 20
4.1376416768
 10
20.1183338748
 20
4.159257619499999
 10
20.0584741177
 20
4.1948494466
  0
LINE
  5
50B
330
A
100
AcDbEntity
  8
0
  6
Continuous
 62
     7
100
AcDbLine
 10
20.1826987408
 20
4.124535188
 30
0.0
 11
20.1121983027
 21
4.148815298299999
 31
0.0
  0
LINE
  5
50C
330
A
100
AcDbEntity
  8
0
  6
Continuous
 62
     7
100
AcDbLine
 10
28.01257378229999
 20
5.3788494466
 30
0.0
 11
28.04257378229999
 21
5.3641221739
 31
0.0
  0
LINE
  5
50D
330
A
100
AcDbEntity
  8
0
  6
Continuous
 62
     7
100
AcDbLine
 10
28.04257378229999
 20
5.269576719399999
 30
0.0
 11
28.04257378229999
 21
5.3641221739
 31
0.0
  0
LINE
  5
50E
330
A
100
AcDbEntity
  8
0
  6
Continuous
 62
     7
100
AcDbLine
 10
28.04257378229999
 20
5.269576719399999
 30
0.0
 11
28.01257378229999
 21
5.254849446599999
 31
0.0
  0
LINE
  5
50F
330
A
100
AcDbEntity
  8
0
  6
Continuous
 62
     7
100
AcDbLine
 10
27.88257378229999
 20
5.3788494466
 30
0.0
 11
28.01257378229999
 21
5.3788494466
 31
0.0
  0
LINE
  5
510
330
A
100
AcDbEntity
  8
0
  6
Continuous
 62
     7
100
AcDbLine
 10
27.8804086946
 20
5.254849446599999
 30
0.0
 11
28.01257378229999
 21
5.254849446599999
 31
0.0
  0
LINE
  5
511
330
A
100
AcDbEntity
  8
0
  6
Continuous
 62
     7
100
AcDbLine
 10
28.1225737823
 20
5.3248494466
 30
0.0
 11
28.1225737823
 21
5.3088494466
 31
0.0
  0
LINE
  5
512
330
A
100
AcDbEntity
  8
0
  6
Continuous
 62
     7
100
AcDbLine
 10
28.04257378229999
 20
5.3641221739
 30
0.0
 11
28.1225737823
 21
5.3248494466
 31
0.0
  0
LINE
  5
513
330
A
100
AcDbEntity
  8
0
  6
Continuous
 62
     7
100
AcDbLine
 10
28.1225737823
 20
5.3088494466
 30
0.0
 11
28.04257378229999
 21
5.269576719399999
 31
0.0
  0
LINE
  5
514
330
A
100
AcDbEntity
  8
0
  6
Continuous
 62
     7
100
AcDbLine
 10
25.6721199506
 20
6.1468494466
 30
0.0
 11
25.6721199506
 21
6.156849446599999
 31
0.0
  0
LINE
  5
515
330
A
100
AcDbEntity
  8
0
  6
Continuous
 62
     7
100
AcDbLine
 10
25.5521199506
 20
6.1468494466
 30
0.0
 11
25.5521199506
 21
6.156849446599999
 31
0.0
  0
LINE
  5
516
330
A
100
AcDbEntity
  8
0
  6
Continuous
 62
     7
100
AcDbLine
 10
25.5521199506
 20
6.156849446599999
 30
0.0
 11
25.6721199506
 21
6.156849446599999
 31
0.0
  0
LINE
  5
517
330
A
100
AcDbEntity
  8
0
  6
Continuous
 62
     7
100
AcDbLine
 10
20.7921199506
 20
6.1468494466
 30
0.0
 11
20.7921199506
 21
6.156849446599999
 31
0.0
  0
LINE
  5
518
330
A
100
AcDbEntity
  8
0
  6
Continuous
 62
     7
100
AcDbLine
 10
20.7921199506
 20
6.156849446599999
 30
0.0
 11
25.5521199506
 21
6.156849446599999
 31
0.0
  0
LINE
  5
519
330
A
100
AcDbEntity
  8
0
  6
Continuous
 62
     7
100
AcDbLine
 10
20.6721199506
 20
6.1468494466
 30
0.0
 11
20.6721199506
 21
6.156849446599999
 31
0.0
  0
LINE
  5
51A
330
A
100
AcDbEntity
  8
0
  6
Continuous
 62
     7
100
AcDbLine
 10
20.6721199506
 20
6.156849446599999
 30
0.0
 11
20.7921199506
 21
6.156849446599999
 31
0.0
  0
LINE
  5
51B
330
A
100
AcDbEntity
  8
0
  6
Continuous
 62
     7
100
AcDbLine
 10
26.4059564783
 20
4.972762260999999
 30
0.0
 11
26.4059564783
 21
4.9674974985
 31
0.0
  0
LINE
  5
51C
330
A
100
AcDbEntity
  8
0
  6
Continuous
 62
     7
100
AcDbLine
 10
26.23919108629999
 20
4.9727672479
 30
0.0
 11
26.23919108629999
 21
4.9674974985
 31
0.0
  0
LINE
  5
51D
330
A
100
AcDbEntity
  8
0
  6
Continuous
 62
     7
100
AcDbLine
 10
26.7959564783
 20
4.972762260999999
 30
0.0
 11
26.7959564783
 21
4.9674974985
 31
0.0
  0
LINE
  5
51E
330
A
100
AcDbEntity
  8
0
  6
Continuous
 62
     7
100
AcDbLine
 10
26.6291910863
 20
4.9727672479
 30
0.0
 11
26.6291910863
 21
4.9674974985
 31
0.0
  0
LINE
  5
51F
330
A
100
AcDbEntity
  8
0
  6
Continuous
 62
     7
100
AcDbLine
 10
20.0616603645
 20
5.822084560699999
 30
0.0
 11
20.0589160934
 21
5.8225684497
 31
0.0
  0
LINE
  5
520
330
A
100
AcDbEntity
  8
0
  6
Continuous
 62
     7
100
AcDbLine
 10
19.9949794643
 20
5.443918383499999
 30
0.0
 11
19.9922351932
 21
5.444402272599999
 31
0.0
  0
LINE
  5
521
330
A
100
AcDbEntity
  8
0
  6
Continuous
 62
     7
100
AcDbLine
 10
23.5721083498
 20
4.6681338724
 30
0.0
 11
23.57400598719999
 21
4.776849446599999
 31
0.0
  0
LINE
  5
522
330
A
100
AcDbEntity
  8
0
  6
Continuous
 62
     7
100
AcDbLine
 10
23.100601511
 20
4.776849446599999
 30
0.0
 11
23.1101128913
 21
4.6681338724
 31
0.0
  0
ENDSEC
  0
SECTION
  2
OBJECTS
  0
DICTIONARY
  5
19
330
0
100
AcDbDictionary
281
     1
  3
ACAD_GROUP
350
1A
  3
ACAD_MLINESTYLE
350
1B
  3
ACAD_PLOTSTYLENAME
350
525
  3
ACAD_LAYOUT
350
527
  3
ACAD_PLOTSETTINGS
350
528
  3
ASE_INDEX_DICTIONARY
350
52E
  0
DICTIONARY
  5
1A
102
{ACAD_REACTORS
330
19
102
}
330
19
100
AcDbDictionary
281
     1
  0
DICTIONARY
  5
1B
102
{ACAD_REACTORS
330
19
102
}
330
19
100
AcDbDictionary
281
     1
  3
STANDARD
350
1C
  0
ACDBDICTIONARYWDFLT
  5
525
102
{ACAD_REACTORS
330
19
102
}
330
19
100
AcDbDictionary
281
     1
  3
Normal
350
526
100
AcDbDictionaryWithDefault
340
526
  0
DICTIONARY
  5
527
102
{ACAD_REACTORS
330
19
102
}
330
19
100
AcDbDictionary
281
     1
  3
Model
350
529
  3
Layout1
350
52A
  0
DICTIONARY
  5
528
102
{ACAD_REACTORS
330
19
102
}
330
19
100
AcDbDictionary
281
     1
  0
DICTIONARY
  5
52E
102
{ACAD_REACTORS
330
19
102
}
330
19
100
AcDbDictionary
281
     1
  3
ASEBlockHierarchyIndexRecord
350
530
1001
DCO15
1040
1617533081.789999
  0
MLINESTYLE
  5
1C
102
{ACAD_REACTORS
330
1B
102
}
330
1B
100
AcDbMlineStyle
  2
STANDARD
 70
     0
  3

 62
     0
 51
90.0
 52
90.0
 71
     2
 49
0.5
 62
   256
  6
BYLAYER
 49
-0.5
 62
   256
  6
BYLAYER
  0
ACDBPLACEHOLDER
  5
526
102
{ACAD_REACTORS
330
525
102
}
330
525
  0
LAYOUT
  5
529
102
{ACAD_REACTORS
330
527
102
}
330
527
100
AcDbPlotSettings
  1

  2
\\nseng\OPLASERACM
  4

  6

 40
0.0
 41
0.0
 42
0.0
 43
0.0
 44
0.0
 45
0.0
 46
0.0
 47
0.0
 48
0.0
 49
0.0
140
0.0
141
0.0
142
1.0
143
1.0
 70
  1712
 72
     0
 73
     0
 74
     0
  7

 75
     0
147
1.0
148
0.0
149
0.0
100
AcDbLayout
  1
Model
 70
     1
 71
     0
 10
0.0
 20
0.0
 11
12.0
 21
9.0
 12
0.0
 22
0.0
 32
0.0
 14
0.0
 24
0.0
 34
0.0
 15
0.0
 25
0.0
 35
0.0
146
0.0
 13
0.0
 23
0.0
 33
0.0
 16
1.0
 26
0.0
 36
0.0
 17
0.0
 27
1.0
 37
0.0
 76
     0
330
A
  0
LAYOUT
  5
52A
102
{ACAD_REACTORS
330
527
102
}
330
527
100
AcDbPlotSettings
  1

  2
\\nseng\OPLASERACM
  4

  6

 40
0.0
 41
0.0
 42
0.0
 43
0.0
 44
0.0
 45
0.0
 46
0.0
 47
0.0
 48
0.0
 49
0.0
140
0.0
141
0.0
142
1.0
143
1.0
 70
   688
 72
     0
 73
     0
 74
     5
  7

 75
    16
147
1.0
148
0.0
149
0.0
100
AcDbLayout
  1
Layout1
 70
     1
 71
     1
 10
0.0
 20
0.0
 11
12.0
 21
9.0
 12
0.0
 22
0.0
 32
0.0
 14
1.000000000000000E+20
 24
1.000000000000000E+20
 34
1.000000000000000E+20
 15
-1.000000000000000E+20
 25
-1.000000000000000E+20
 35
-1.000000000000000E+20
146
0.0
 13
0.0
 23
0.0
 33
0.0
 16
1.0
 26
0.0
 36
0.0
 17
0.0
 27
1.0
 37
0.0
 76
     0
330
B
  0
XRECORD
  5
530
102
{ACAD_REACTORS
330
52E
102
}
330
52E
100
AcDbXrecord
280
     1
  0
ENDSEC
  0
EOF
