  0
SECTION
  2
HEADER
  9
$ACADVER
  1
AC1012
  9
$DWGCODEPAGE
  3
ANSI_1252
  9
$INSBASE
 10
0.0
 20
0.0
 30
0.0
  9
$EXTMIN
 10
-11.08740232871775
 20
0.06495668606944
 30
-0.0015258207003583
  9
$EXTMAX
 10
-6.733154290743584
 20
2.033569348782265
 30
0.0000000349246037
  9
$LIMMIN
 10
0.0
 20
0.0
  9
$LIMMAX
 10
12.0
 20
9.0
  9
$ORTHOMODE
 70
     0
  9
$REGENMODE
 70
     1
  9
$FILLMODE
 70
     1
  9
$QTEXTMODE
 70
     0
  9
$MIRRTEXT
 70
     1
  9
$DRAGMODE
 70
     2
  9
$LTSCALE
 40
1.0
  9
$OSMODE
 70
    33
  9
$ATTMODE
 70
     1
  9
$TEXTSIZE
 40
0.2
  9
$TRACEWID
 40
0.05
  9
$TEXTSTYLE
  7
STANDARD
  9
$CLAYER
  8
0
  9
$CELTYPE
  6
BYLAYER
  9
$CECOLOR
 62
   256
  9
$CELTSCALE
 40
1.0
  9
$DELOBJ
 70
     1
  9
$DISPSILH
 70
     0
  9
$DIMSCALE
 40
1.0
  9
$DIMASZ
 40
0.18
  9
$DIMEXO
 40
0.0625
  9
$DIMDLI
 40
0.38
  9
$DIMRND
 40
0.0
  9
$DIMDLE
 40
0.0
  9
$DIMEXE
 40
0.18
  9
$DIMTP
 40
0.0
  9
$DIMTM
 40
0.0
  9
$DIMTXT
 40
0.18
  9
$DIMCEN
 40
0.09
  9
$DIMTSZ
 40
0.0
  9
$DIMTOL
 70
     0
  9
$DIMLIM
 70
     0
  9
$DIMTIH
 70
     1
  9
$DIMTOH
 70
     1
  9
$DIMSE1
 70
     0
  9
$DIMSE2
 70
     0
  9
$DIMTAD
 70
     0
  9
$DIMZIN
 70
     0
  9
$DIMBLK
  1

  9
$DIMASO
 70
     1
  9
$DIMSHO
 70
     1
  9
$DIMPOST
  1

  9
$DIMAPOST
  1

  9
$DIMALT
 70
     0
  9
$DIMALTD
 70
     2
  9
$DIMALTF
 40
25.4
  9
$DIMLFAC
 40
1.0
  9
$DIMTOFL
 70
     0
  9
$DIMTVP
 40
0.0
  9
$DIMTIX
 70
     0
  9
$DIMSOXD
 70
     0
  9
$DIMSAH
 70
     0
  9
$DIMBLK1
  1

  9
$DIMBLK2
  1

  9
$DIMSTYLE
  2
STANDARD
  9
$DIMCLRD
 70
     0
  9
$DIMCLRE
 70
     0
  9
$DIMCLRT
 70
     0
  9
$DIMTFAC
 40
1.0
  9
$DIMGAP
 40
0.09
  9
$DIMJUST
 70
     0
  9
$DIMSD1
 70
     0
  9
$DIMSD2
 70
     0
  9
$DIMTOLJ
 70
     1
  9
$DIMTZIN
 70
     0
  9
$DIMALTZ
 70
     0
  9
$DIMALTTZ
 70
     0
  9
$DIMFIT
 70
     5
  9
$DIMUPT
 70
     0
  9
$DIMUNIT
 70
     2
  9
$DIMDEC
 70
     4
  9
$DIMTDEC
 70
     4
  9
$DIMALTU
 70
     2
  9
$DIMALTTD
 70
     2
  9
$DIMTXSTY
  7
STANDARD
  9
$DIMAUNIT
 70
     0
  9
$LUNITS
 70
     2
  9
$LUPREC
 70
     4
  9
$SKETCHINC
 40
0.1
  9
$FILLETRAD
 40
0.0
  9
$AUNITS
 70
     0
  9
$AUPREC
 70
     0
  9
$MENU
  1
acad
  9
$ELEVATION
 40
0.0
  9
$PELEVATION
 40
0.0
  9
$THICKNESS
 40
0.0
  9
$LIMCHECK
 70
     0
  9
$BLIPMODE
 70
     0
  9
$CHAMFERA
 40
0.0
  9
$CHAMFERB
 40
0.0
  9
$CHAMFERC
 40
0.0
  9
$CHAMFERD
 40
0.0
  9
$SKPOLY
 70
     0
  9
$TDCREATE
 40
2452612.405011574
  9
$TDUPDATE
 40
2452614.377529641
  9
$TDINDWG
 40
0.0008648032
  9
$TDUSRTIMER
 40
0.0008648032
  9
$USRTIMER
 70
     1
  9
$ANGBASE
 50
0.0
  9
$ANGDIR
 70
     0
  9
$PDMODE
 70
     0
  9
$PDSIZE
 40
0.0
  9
$PLINEWID
 40
0.0
  9
$COORDS
 70
     2
  9
$SPLFRAME
 70
     0
  9
$SPLINETYPE
 70
     6
  9
$SPLINESEGS
 70
     8
  9
$ATTDIA
 70
     0
  9
$ATTREQ
 70
     1
  9
$HANDLING
 70
  4097
  9
$HANDSEED
  5
51D9
  9
$SURFTAB1
 70
     6
  9
$SURFTAB2
 70
     6
  9
$SURFTYPE
 70
     6
  9
$SURFU
 70
     6
  9
$SURFV
 70
     6
  9
$UCSNAME
  2

  9
$UCSORG
 10
0.0
 20
0.0
 30
0.0
  9
$UCSXDIR
 10
1.0
 20
0.0
 30
0.0
  9
$UCSYDIR
 10
0.0
 20
1.0
 30
0.0
  9
$PUCSNAME
  2

  9
$PUCSORG
 10
0.0
 20
0.0
 30
0.0
  9
$PUCSXDIR
 10
1.0
 20
0.0
 30
0.0
  9
$PUCSYDIR
 10
0.0
 20
1.0
 30
0.0
  9
$USERI1
 70
     0
  9
$USERI2
 70
     0
  9
$USERI3
 70
     0
  9
$USERI4
 70
     0
  9
$USERI5
 70
     0
  9
$USERR1
 40
0.0
  9
$USERR2
 40
0.0
  9
$USERR3
 40
0.0
  9
$USERR4
 40
0.0
  9
$USERR5
 40
0.0
  9
$WORLDVIEW
 70
     1
  9
$SHADEDGE
 70
     3
  9
$SHADEDIF
 70
    70
  9
$TILEMODE
 70
     1
  9
$MAXACTVP
 70
    16
  9
$PINSBASE
 10
0.0
 20
0.0
 30
0.0
  9
$PLIMCHECK
 70
     0
  9
$PEXTMIN
 10
1.000000000000000E+20
 20
1.000000000000000E+20
 30
1.000000000000000E+20
  9
$PEXTMAX
 10
-1.000000000000000E+20
 20
-1.000000000000000E+20
 30
-1.000000000000000E+20
  9
$PLIMMIN
 10
0.0
 20
0.0
  9
$PLIMMAX
 10
12.0
 20
9.0
  9
$UNITMODE
 70
     0
  9
$VISRETAIN
 70
     0
  9
$PLINEGEN
 70
     0
  9
$PSLTSCALE
 70
     1
  9
$TREEDEPTH
 70
  3020
  9
$PICKSTYLE
 70
     1
  9
$CMLSTYLE
  2
STANDARD
  9
$CMLJUST
 70
     0
  9
$CMLSCALE
 40
1.0
  9
$SAVEIMAGES
 70
     1
  0
ENDSEC
  0
SECTION
  2
CLASSES
  0
CLASS
  1
ACDBDICTIONARYWDFLT
  2
AcDbDictionaryWithDefault
  3
AutoCAD 2000
 90
    32768
280
     0
281
     0
  0
CLASS
  1
ACDBPLACEHOLDER
  2
AcDbPlaceHolder
  3
AutoCAD 2000
 90
    32768
280
     0
281
     0
  0
CLASS
  1
LAYOUT
  2
AcDbLayout
  3
AutoCAD 2000
 90
    32768
280
     0
281
     0
  0
CLASS
  1
LONG_TRANSACTION
  2
AcDbLongTransaction
  3
AutoCAD 2000
 90
    32768
280
     0
281
     0
  0
CLASS
  1
LWPOLYLINE
  2
AcDbPolyline
  3
AutoCAD 2000
 90
    32768
280
     0
281
     1
  0
CLASS
  1
HATCH
  2
AcDbHatch
  3
AutoCAD 2000
 90
    32768
280
     0
281
     1
  0
CLASS
  1
XRECORD
  2
AcDbXrecord
  3
AutoCAD 2000
 90
    32768
280
     0
281
     0
  0
ENDSEC
  0
SECTION
  2
TABLES
  0
TABLE
  2
VPORT
  5
8
330
0
100
AcDbSymbolTable
 70
     3
  0
VPORT
  5
51D4
330
8
100
AcDbSymbolTableRecord
100
AcDbViewportTableRecord
  2
*ACTIVE
 70
     0
 10
0.0
 20
0.0
 11
1.0
 21
1.0
 12
-8.910278309730671
 22
1.049263017425852
 13
0.0
 23
0.0
 14
1.0
 24
1.0
 15
0.0
 25
0.0
 16
0.0
 26
0.0
 36
1.0
 17
0.0
 27
0.0
 37
0.0
 40
2.685452470814585
 41
1.62928759894459
 42
50.0
 43
0.0
 44
0.0
 50
0.0
 51
0.0
 71
     0
 72
   100
 73
     1
 74
     1
 75
     0
 76
     0
 77
     0
 78
     0
  0
ENDTAB
  0
TABLE
  2
LTYPE
  5
5
330
0
100
AcDbSymbolTable
 70
    25
  0
LTYPE
  5
13
330
5
100
AcDbSymbolTableRecord
100
AcDbLinetypeTableRecord
  2
BYBLOCK
 70
     0
  3

 72
    65
 73
     0
 40
0.0
  0
LTYPE
  5
14
330
5
100
AcDbSymbolTableRecord
100
AcDbLinetypeTableRecord
  2
BYLAYER
 70
     0
  3

 72
    65
 73
     0
 40
0.0
  0
LTYPE
  5
15
330
5
100
AcDbSymbolTableRecord
100
AcDbLinetypeTableRecord
  2
CONTINUOUS
 70
     0
  3
Solid line
 72
    65
 73
     0
 40
0.0
  0
LTYPE
  5
22
330
5
100
AcDbSymbolTableRecord
100
AcDbLinetypeTableRecord
  2
BORDER
 70
     0
  3
__ __ . __ __ . __ __ . __ __ . __ __ . __ __ .
 72
    65
 73
     6
 40
1.75
 49
0.5
 74
     0
 49
-0.25
 74
     0
 49
0.5
 74
     0
 49
-0.25
 74
     0
 49
0.5
 74
     0
 49
-0.25
 74
     0
  0
LTYPE
  5
23
330
5
100
AcDbSymbolTableRecord
100
AcDbLinetypeTableRecord
  2
BORDER2
 70
     0
  3
__.__.__.__.__.__.__.__.__.__.__.__.__.__.__.__
 72
    65
 73
     6
 40
0.875
 49
0.25
 74
     0
 49
-0.125
 74
     0
 49
0.25
 74
     0
 49
-0.125
 74
     0
 49
0.25
 74
     0
 49
-0.125
 74
     0
  0
LTYPE
  5
24
330
5
100
AcDbSymbolTableRecord
100
AcDbLinetypeTableRecord
  2
BORDERX2
 70
     0
  3
____  ____  .  ____  ____  .  
 72
    65
 73
     6
 40
3.5
 49
1.0
 74
     0
 49
-0.5
 74
     0
 49
1.0
 74
     0
 49
-0.5
 74
     0
 49
1.0
 74
     0
 49
-0.5
 74
     0
  0
LTYPE
  5
25
330
5
100
AcDbSymbolTableRecord
100
AcDbLinetypeTableRecord
  2
CENTER
 70
     0
  3
____ _ ____ _ ____ _ ____ _ ____ _ ____ _ ____
 72
    65
 73
     4
 40
2.0
 49
1.25
 74
     0
 49
-0.25
 74
     0
 49
0.25
 74
     0
 49
-0.25
 74
     0
  0
LTYPE
  5
26
330
5
100
AcDbSymbolTableRecord
100
AcDbLinetypeTableRecord
  2
CENTER2
 70
     0
  3
____ _ ____ _ ____ _ ____ _ ____ _ ____ _ ____
 72
    65
 73
     4
 40
1.125
 49
0.75
 74
     0
 49
-0.125
 74
     0
 49
0.125
 74
     0
 49
-0.125
 74
     0
  0
LTYPE
  5
27
330
5
100
AcDbSymbolTableRecord
100
AcDbLinetypeTableRecord
  2
CENTERX2
 70
     0
  3
________  __  ________  __  ________  __  
 72
    65
 73
     4
 40
4.0
 49
2.5
 74
     0
 49
-0.5
 74
     0
 49
0.5
 74
     0
 49
-0.5
 74
     0
  0
LTYPE
  5
28
330
5
100
AcDbSymbolTableRecord
100
AcDbLinetypeTableRecord
  2
DASHDOT
 70
     0
  3
__ . __ . __ . __ . __ . __ . __ . 
 72
    65
 73
     4
 40
1.0
 49
0.5
 74
     0
 49
-0.25
 74
     0
 49
0.0
 74
     0
 49
-0.25
 74
     0
  0
LTYPE
  5
29
330
5
100
AcDbSymbolTableRecord
100
AcDbLinetypeTableRecord
  2
DASHDOT2
 70
     0
  3
_._._._._._._._._._._._._._._._.
 72
    65
 73
     4
 40
0.5
 49
0.25
 74
     0
 49
-0.125
 74
     0
 49
0.0
 74
     0
 49
-0.125
 74
     0
  0
LTYPE
  5
2A
330
5
100
AcDbSymbolTableRecord
100
AcDbLinetypeTableRecord
  2
DASHDOTX2
 70
     0
  3
____  .  ____  .  ____  .  ____  .  
 72
    65
 73
     4
 40
2.0
 49
1.0
 74
     0
 49
-0.5
 74
     0
 49
0.0
 74
     0
 49
-0.5
 74
     0
  0
LTYPE
  5
2B
330
5
100
AcDbSymbolTableRecord
100
AcDbLinetypeTableRecord
  2
DASHED
 70
     0
  3
__ __ __ __ __ __ __ __ __ __ __ __ 
 72
    65
 73
     2
 40
0.75
 49
0.5
 74
     0
 49
-0.25
 74
     0
  0
LTYPE
  5
2C
330
5
100
AcDbSymbolTableRecord
100
AcDbLinetypeTableRecord
  2
DASHED2
 70
     0
  3
_ _ _ _ _ _ _ _ _ _ _ _ _ _ _ _ _ _ 
 72
    65
 73
     2
 40
0.375
 49
0.25
 74
     0
 49
-0.125
 74
     0
  0
LTYPE
  5
2D
330
5
100
AcDbSymbolTableRecord
100
AcDbLinetypeTableRecord
  2
DASHEDX2
 70
     0
  3
____  ____  ____  ____  ____  ____  
 72
    65
 73
     2
 40
1.5
 49
1.0
 74
     0
 49
-0.5
 74
     0
  0
LTYPE
  5
2E
330
5
100
AcDbSymbolTableRecord
100
AcDbLinetypeTableRecord
  2
DIVIDE
 70
     0
  3
____ . . ____ . . ____ . . ____ . . 
 72
    65
 73
     6
 40
1.25
 49
0.5
 74
     0
 49
-0.25
 74
     0
 49
0.0
 74
     0
 49
-0.25
 74
     0
 49
0.0
 74
     0
 49
-0.25
 74
     0
  0
LTYPE
  5
2F
330
5
100
AcDbSymbolTableRecord
100
AcDbLinetypeTableRecord
  2
DIVIDE2
 70
     0
  3
__..__..__..__..__..__..__..__..__..
 72
    65
 73
     6
 40
0.625
 49
0.25
 74
     0
 49
-0.125
 74
     0
 49
0.0
 74
     0
 49
-0.125
 74
     0
 49
0.0
 74
     0
 49
-0.125
 74
     0
  0
LTYPE
  5
30
330
5
100
AcDbSymbolTableRecord
100
AcDbLinetypeTableRecord
  2
DIVIDEX2
 70
     0
  3
________  .  .  ________  .  .  ________  .  . 
 72
    65
 73
     6
 40
2.5
 49
1.0
 74
     0
 49
-0.5
 74
     0
 49
0.0
 74
     0
 49
-0.5
 74
     0
 49
0.0
 74
     0
 49
-0.5
 74
     0
  0
LTYPE
  5
31
330
5
100
AcDbSymbolTableRecord
100
AcDbLinetypeTableRecord
  2
DOT
 70
     0
  3
. . . . . . . . . . . . . . . . . . 
 72
    65
 73
     2
 40
0.25
 49
0.0
 74
     0
 49
-0.25
 74
     0
  0
LTYPE
  5
32
330
5
100
AcDbSymbolTableRecord
100
AcDbLinetypeTableRecord
  2
DOT2
 70
     0
  3
....................................
 72
    65
 73
     2
 40
0.125
 49
0.0
 74
     0
 49
-0.125
 74
     0
  0
LTYPE
  5
33
330
5
100
AcDbSymbolTableRecord
100
AcDbLinetypeTableRecord
  2
DOTX2
 70
     0
  3
.  .  .  .  .  .  .  .  .  .  .  .  .  
 72
    65
 73
     2
 40
0.5
 49
0.0
 74
     0
 49
-0.5
 74
     0
  0
LTYPE
  5
34
330
5
100
AcDbSymbolTableRecord
100
AcDbLinetypeTableRecord
  2
HIDDEN
 70
     0
  3
__ __ __ __ __ __ __ __ __ __ __ __ 
 72
    65
 73
     2
 40
0.375
 49
0.25
 74
     0
 49
-0.125
 74
     0
  0
LTYPE
  5
35
330
5
100
AcDbSymbolTableRecord
100
AcDbLinetypeTableRecord
  2
HIDDEN2
 70
     0
  3
_ _ _ _ _ _ _ _ _ _ _ _ _ _ _ _ _ _ 
 72
    65
 73
     2
 40
0.1875
 49
0.125
 74
     0
 49
-0.0625
 74
     0
  0
LTYPE
  5
36
330
5
100
AcDbSymbolTableRecord
100
AcDbLinetypeTableRecord
  2
HIDDENX2
 70
     0
  3
____ ____ ____ ____ ____ ____ ____ 
 72
    65
 73
     2
 40
0.75
 49
0.5
 74
     0
 49
-0.25
 74
     0
  0
LTYPE
  5
37
330
5
100
AcDbSymbolTableRecord
100
AcDbLinetypeTableRecord
  2
PHANTOM
 70
     0
  3
______  __  __  ______  __  __  
 72
    65
 73
     6
 40
2.5
 49
1.25
 74
     0
 49
-0.25
 74
     0
 49
0.25
 74
     0
 49
-0.25
 74
     0
 49
0.25
 74
     0
 49
-0.25
 74
     0
  0
LTYPE
  5
38
330
5
100
AcDbSymbolTableRecord
100
AcDbLinetypeTableRecord
  2
PHANTOM2
 70
     0
  3
___ _ _ ___ _ _ ___ _ _ ___ _ _ 
 72
    65
 73
     6
 40
1.25
 49
0.625
 74
     0
 49
-0.125
 74
     0
 49
0.125
 74
     0
 49
-0.125
 74
     0
 49
0.125
 74
     0
 49
-0.125
 74
     0
  0
LTYPE
  5
39
330
5
100
AcDbSymbolTableRecord
100
AcDbLinetypeTableRecord
  2
PHANTOMX2
 70
     0
  3
___ _ _ ___ _ _ ___ _ _ ___ _ _ 
 72
    65
 73
     6
 40
5.0
 49
2.5
 74
     0
 49
-0.5
 74
     0
 49
0.5
 74
     0
 49
-0.5
 74
     0
 49
0.5
 74
     0
 49
-0.5
 74
     0
  0
ENDTAB
  0
TABLE
  2
LAYER
  5
2
330
0
100
AcDbSymbolTable
 70
   256
  0
LAYER
  5
10
330
2
100
AcDbSymbolTableRecord
100
AcDbLayerTableRecord
  2
0
 70
     0
 62
     7
  6
CONTINUOUS
  0
LAYER
  5
3A
330
2
100
AcDbSymbolTableRecord
100
AcDbLayerTableRecord
  2
1
 70
     0
 62
     1
  6
CONTINUOUS
  0
LAYER
  5
3B
330
2
100
AcDbSymbolTableRecord
100
AcDbLayerTableRecord
  2
2
 70
     0
 62
     2
  6
CONTINUOUS
  0
LAYER
  5
3C
330
2
100
AcDbSymbolTableRecord
100
AcDbLayerTableRecord
  2
3
 70
     0
 62
     3
  6
CONTINUOUS
  0
LAYER
  5
3D
330
2
100
AcDbSymbolTableRecord
100
AcDbLayerTableRecord
  2
4
 70
     0
 62
     4
  6
CONTINUOUS
  0
LAYER
  5
3E
330
2
100
AcDbSymbolTableRecord
100
AcDbLayerTableRecord
  2
5
 70
     0
 62
     5
  6
CONTINUOUS
  0
LAYER
  5
3F
330
2
100
AcDbSymbolTableRecord
100
AcDbLayerTableRecord
  2
6
 70
     0
 62
     6
  6
CONTINUOUS
  0
LAYER
  5
40
330
2
100
AcDbSymbolTableRecord
100
AcDbLayerTableRecord
  2
7
 70
     0
 62
     7
  6
CONTINUOUS
  0
LAYER
  5
41
330
2
100
AcDbSymbolTableRecord
100
AcDbLayerTableRecord
  2
8
 70
     0
 62
     8
  6
CONTINUOUS
  0
LAYER
  5
42
330
2
100
AcDbSymbolTableRecord
100
AcDbLayerTableRecord
  2
9
 70
     0
 62
     9
  6
CONTINUOUS
  0
LAYER
  5
43
330
2
100
AcDbSymbolTableRecord
100
AcDbLayerTableRecord
  2
10
 70
     0
 62
    10
  6
CONTINUOUS
  0
LAYER
  5
44
330
2
100
AcDbSymbolTableRecord
100
AcDbLayerTableRecord
  2
11
 70
     0
 62
    11
  6
CONTINUOUS
  0
LAYER
  5
45
330
2
100
AcDbSymbolTableRecord
100
AcDbLayerTableRecord
  2
12
 70
     0
 62
    12
  6
CONTINUOUS
  0
LAYER
  5
46
330
2
100
AcDbSymbolTableRecord
100
AcDbLayerTableRecord
  2
13
 70
     0
 62
    13
  6
CONTINUOUS
  0
LAYER
  5
47
330
2
100
AcDbSymbolTableRecord
100
AcDbLayerTableRecord
  2
14
 70
     0
 62
    14
  6
CONTINUOUS
  0
LAYER
  5
48
330
2
100
AcDbSymbolTableRecord
100
AcDbLayerTableRecord
  2
15
 70
     0
 62
    15
  6
CONTINUOUS
  0
LAYER
  5
49
330
2
100
AcDbSymbolTableRecord
100
AcDbLayerTableRecord
  2
16
 70
     0
 62
    16
  6
CONTINUOUS
  0
LAYER
  5
4A
330
2
100
AcDbSymbolTableRecord
100
AcDbLayerTableRecord
  2
17
 70
     0
 62
    17
  6
CONTINUOUS
  0
LAYER
  5
4B
330
2
100
AcDbSymbolTableRecord
100
AcDbLayerTableRecord
  2
18
 70
     0
 62
    18
  6
CONTINUOUS
  0
LAYER
  5
4C
330
2
100
AcDbSymbolTableRecord
100
AcDbLayerTableRecord
  2
19
 70
     0
 62
    19
  6
CONTINUOUS
  0
LAYER
  5
4D
330
2
100
AcDbSymbolTableRecord
100
AcDbLayerTableRecord
  2
20
 70
     0
 62
    20
  6
CONTINUOUS
  0
LAYER
  5
4E
330
2
100
AcDbSymbolTableRecord
100
AcDbLayerTableRecord
  2
21
 70
     0
 62
    21
  6
CONTINUOUS
  0
LAYER
  5
4F
330
2
100
AcDbSymbolTableRecord
100
AcDbLayerTableRecord
  2
22
 70
     0
 62
    22
  6
CONTINUOUS
  0
LAYER
  5
50
330
2
100
AcDbSymbolTableRecord
100
AcDbLayerTableRecord
  2
23
 70
     0
 62
    23
  6
CONTINUOUS
  0
LAYER
  5
51
330
2
100
AcDbSymbolTableRecord
100
AcDbLayerTableRecord
  2
24
 70
     0
 62
    24
  6
CONTINUOUS
  0
LAYER
  5
52
330
2
100
AcDbSymbolTableRecord
100
AcDbLayerTableRecord
  2
25
 70
     0
 62
    25
  6
CONTINUOUS
  0
LAYER
  5
53
330
2
100
AcDbSymbolTableRecord
100
AcDbLayerTableRecord
  2
26
 70
     0
 62
    26
  6
CONTINUOUS
  0
LAYER
  5
54
330
2
100
AcDbSymbolTableRecord
100
AcDbLayerTableRecord
  2
27
 70
     0
 62
    27
  6
CONTINUOUS
  0
LAYER
  5
55
330
2
100
AcDbSymbolTableRecord
100
AcDbLayerTableRecord
  2
28
 70
     0
 62
    28
  6
CONTINUOUS
  0
LAYER
  5
56
330
2
100
AcDbSymbolTableRecord
100
AcDbLayerTableRecord
  2
29
 70
     0
 62
    29
  6
CONTINUOUS
  0
LAYER
  5
57
330
2
100
AcDbSymbolTableRecord
100
AcDbLayerTableRecord
  2
30
 70
     0
 62
    30
  6
CONTINUOUS
  0
LAYER
  5
58
330
2
100
AcDbSymbolTableRecord
100
AcDbLayerTableRecord
  2
31
 70
     0
 62
    31
  6
CONTINUOUS
  0
LAYER
  5
59
330
2
100
AcDbSymbolTableRecord
100
AcDbLayerTableRecord
  2
32
 70
     0
 62
    32
  6
CONTINUOUS
  0
LAYER
  5
5A
330
2
100
AcDbSymbolTableRecord
100
AcDbLayerTableRecord
  2
33
 70
     0
 62
    33
  6
CONTINUOUS
  0
LAYER
  5
5B
330
2
100
AcDbSymbolTableRecord
100
AcDbLayerTableRecord
  2
34
 70
     0
 62
    34
  6
CONTINUOUS
  0
LAYER
  5
5C
330
2
100
AcDbSymbolTableRecord
100
AcDbLayerTableRecord
  2
35
 70
     0
 62
    35
  6
CONTINUOUS
  0
LAYER
  5
5D
330
2
100
AcDbSymbolTableRecord
100
AcDbLayerTableRecord
  2
36
 70
     0
 62
    36
  6
CONTINUOUS
  0
LAYER
  5
5E
330
2
100
AcDbSymbolTableRecord
100
AcDbLayerTableRecord
  2
37
 70
     0
 62
    37
  6
CONTINUOUS
  0
LAYER
  5
5F
330
2
100
AcDbSymbolTableRecord
100
AcDbLayerTableRecord
  2
38
 70
     0
 62
    38
  6
CONTINUOUS
  0
LAYER
  5
60
330
2
100
AcDbSymbolTableRecord
100
AcDbLayerTableRecord
  2
39
 70
     0
 62
    39
  6
CONTINUOUS
  0
LAYER
  5
61
330
2
100
AcDbSymbolTableRecord
100
AcDbLayerTableRecord
  2
40
 70
     0
 62
    40
  6
CONTINUOUS
  0
LAYER
  5
62
330
2
100
AcDbSymbolTableRecord
100
AcDbLayerTableRecord
  2
41
 70
     0
 62
    41
  6
CONTINUOUS
  0
LAYER
  5
63
330
2
100
AcDbSymbolTableRecord
100
AcDbLayerTableRecord
  2
42
 70
     0
 62
    42
  6
CONTINUOUS
  0
LAYER
  5
64
330
2
100
AcDbSymbolTableRecord
100
AcDbLayerTableRecord
  2
43
 70
     0
 62
    43
  6
CONTINUOUS
  0
LAYER
  5
65
330
2
100
AcDbSymbolTableRecord
100
AcDbLayerTableRecord
  2
44
 70
     0
 62
    44
  6
CONTINUOUS
  0
LAYER
  5
66
330
2
100
AcDbSymbolTableRecord
100
AcDbLayerTableRecord
  2
45
 70
     0
 62
    45
  6
CONTINUOUS
  0
LAYER
  5
67
330
2
100
AcDbSymbolTableRecord
100
AcDbLayerTableRecord
  2
46
 70
     0
 62
    46
  6
CONTINUOUS
  0
LAYER
  5
68
330
2
100
AcDbSymbolTableRecord
100
AcDbLayerTableRecord
  2
47
 70
     0
 62
    47
  6
CONTINUOUS
  0
LAYER
  5
69
330
2
100
AcDbSymbolTableRecord
100
AcDbLayerTableRecord
  2
48
 70
     0
 62
    48
  6
CONTINUOUS
  0
LAYER
  5
6A
330
2
100
AcDbSymbolTableRecord
100
AcDbLayerTableRecord
  2
49
 70
     0
 62
    49
  6
CONTINUOUS
  0
LAYER
  5
6B
330
2
100
AcDbSymbolTableRecord
100
AcDbLayerTableRecord
  2
50
 70
     0
 62
    50
  6
CONTINUOUS
  0
LAYER
  5
6C
330
2
100
AcDbSymbolTableRecord
100
AcDbLayerTableRecord
  2
51
 70
     0
 62
    51
  6
CONTINUOUS
  0
LAYER
  5
6D
330
2
100
AcDbSymbolTableRecord
100
AcDbLayerTableRecord
  2
52
 70
     0
 62
    52
  6
CONTINUOUS
  0
LAYER
  5
6E
330
2
100
AcDbSymbolTableRecord
100
AcDbLayerTableRecord
  2
53
 70
     0
 62
    53
  6
CONTINUOUS
  0
LAYER
  5
6F
330
2
100
AcDbSymbolTableRecord
100
AcDbLayerTableRecord
  2
54
 70
     0
 62
    54
  6
CONTINUOUS
  0
LAYER
  5
70
330
2
100
AcDbSymbolTableRecord
100
AcDbLayerTableRecord
  2
55
 70
     0
 62
    55
  6
CONTINUOUS
  0
LAYER
  5
71
330
2
100
AcDbSymbolTableRecord
100
AcDbLayerTableRecord
  2
56
 70
     0
 62
    56
  6
CONTINUOUS
  0
LAYER
  5
72
330
2
100
AcDbSymbolTableRecord
100
AcDbLayerTableRecord
  2
57
 70
     0
 62
    57
  6
CONTINUOUS
  0
LAYER
  5
73
330
2
100
AcDbSymbolTableRecord
100
AcDbLayerTableRecord
  2
58
 70
     0
 62
    58
  6
CONTINUOUS
  0
LAYER
  5
74
330
2
100
AcDbSymbolTableRecord
100
AcDbLayerTableRecord
  2
59
 70
     0
 62
    59
  6
CONTINUOUS
  0
LAYER
  5
75
330
2
100
AcDbSymbolTableRecord
100
AcDbLayerTableRecord
  2
60
 70
     0
 62
    60
  6
CONTINUOUS
  0
LAYER
  5
76
330
2
100
AcDbSymbolTableRecord
100
AcDbLayerTableRecord
  2
61
 70
     0
 62
    61
  6
CONTINUOUS
  0
LAYER
  5
77
330
2
100
AcDbSymbolTableRecord
100
AcDbLayerTableRecord
  2
62
 70
     0
 62
    62
  6
CONTINUOUS
  0
LAYER
  5
78
330
2
100
AcDbSymbolTableRecord
100
AcDbLayerTableRecord
  2
63
 70
     0
 62
    63
  6
CONTINUOUS
  0
LAYER
  5
79
330
2
100
AcDbSymbolTableRecord
100
AcDbLayerTableRecord
  2
64
 70
     0
 62
    64
  6
CONTINUOUS
  0
LAYER
  5
7A
330
2
100
AcDbSymbolTableRecord
100
AcDbLayerTableRecord
  2
65
 70
     0
 62
    65
  6
CONTINUOUS
  0
LAYER
  5
7B
330
2
100
AcDbSymbolTableRecord
100
AcDbLayerTableRecord
  2
66
 70
     0
 62
    66
  6
CONTINUOUS
  0
LAYER
  5
7C
330
2
100
AcDbSymbolTableRecord
100
AcDbLayerTableRecord
  2
67
 70
     0
 62
    67
  6
CONTINUOUS
  0
LAYER
  5
7D
330
2
100
AcDbSymbolTableRecord
100
AcDbLayerTableRecord
  2
68
 70
     0
 62
    68
  6
CONTINUOUS
  0
LAYER
  5
7E
330
2
100
AcDbSymbolTableRecord
100
AcDbLayerTableRecord
  2
69
 70
     0
 62
    69
  6
CONTINUOUS
  0
LAYER
  5
7F
330
2
100
AcDbSymbolTableRecord
100
AcDbLayerTableRecord
  2
70
 70
     0
 62
    70
  6
CONTINUOUS
  0
LAYER
  5
80
330
2
100
AcDbSymbolTableRecord
100
AcDbLayerTableRecord
  2
71
 70
     0
 62
    71
  6
CONTINUOUS
  0
LAYER
  5
81
330
2
100
AcDbSymbolTableRecord
100
AcDbLayerTableRecord
  2
72
 70
     0
 62
    72
  6
CONTINUOUS
  0
LAYER
  5
82
330
2
100
AcDbSymbolTableRecord
100
AcDbLayerTableRecord
  2
73
 70
     0
 62
    73
  6
CONTINUOUS
  0
LAYER
  5
83
330
2
100
AcDbSymbolTableRecord
100
AcDbLayerTableRecord
  2
74
 70
     0
 62
    74
  6
CONTINUOUS
  0
LAYER
  5
84
330
2
100
AcDbSymbolTableRecord
100
AcDbLayerTableRecord
  2
75
 70
     0
 62
    75
  6
CONTINUOUS
  0
LAYER
  5
85
330
2
100
AcDbSymbolTableRecord
100
AcDbLayerTableRecord
  2
76
 70
     0
 62
    76
  6
CONTINUOUS
  0
LAYER
  5
86
330
2
100
AcDbSymbolTableRecord
100
AcDbLayerTableRecord
  2
77
 70
     0
 62
    77
  6
CONTINUOUS
  0
LAYER
  5
87
330
2
100
AcDbSymbolTableRecord
100
AcDbLayerTableRecord
  2
78
 70
     0
 62
    78
  6
CONTINUOUS
  0
LAYER
  5
88
330
2
100
AcDbSymbolTableRecord
100
AcDbLayerTableRecord
  2
79
 70
     0
 62
    79
  6
CONTINUOUS
  0
LAYER
  5
89
330
2
100
AcDbSymbolTableRecord
100
AcDbLayerTableRecord
  2
80
 70
     0
 62
    80
  6
CONTINUOUS
  0
LAYER
  5
8A
330
2
100
AcDbSymbolTableRecord
100
AcDbLayerTableRecord
  2
81
 70
     0
 62
    81
  6
CONTINUOUS
  0
LAYER
  5
8B
330
2
100
AcDbSymbolTableRecord
100
AcDbLayerTableRecord
  2
82
 70
     0
 62
    82
  6
CONTINUOUS
  0
LAYER
  5
8C
330
2
100
AcDbSymbolTableRecord
100
AcDbLayerTableRecord
  2
83
 70
     0
 62
    83
  6
CONTINUOUS
  0
LAYER
  5
8D
330
2
100
AcDbSymbolTableRecord
100
AcDbLayerTableRecord
  2
84
 70
     0
 62
    84
  6
CONTINUOUS
  0
LAYER
  5
8E
330
2
100
AcDbSymbolTableRecord
100
AcDbLayerTableRecord
  2
85
 70
     0
 62
    85
  6
CONTINUOUS
  0
LAYER
  5
8F
330
2
100
AcDbSymbolTableRecord
100
AcDbLayerTableRecord
  2
86
 70
     0
 62
    86
  6
CONTINUOUS
  0
LAYER
  5
90
330
2
100
AcDbSymbolTableRecord
100
AcDbLayerTableRecord
  2
87
 70
     0
 62
    87
  6
CONTINUOUS
  0
LAYER
  5
91
330
2
100
AcDbSymbolTableRecord
100
AcDbLayerTableRecord
  2
88
 70
     0
 62
    88
  6
CONTINUOUS
  0
LAYER
  5
92
330
2
100
AcDbSymbolTableRecord
100
AcDbLayerTableRecord
  2
89
 70
     0
 62
    89
  6
CONTINUOUS
  0
LAYER
  5
93
330
2
100
AcDbSymbolTableRecord
100
AcDbLayerTableRecord
  2
90
 70
     0
 62
    90
  6
CONTINUOUS
  0
LAYER
  5
94
330
2
100
AcDbSymbolTableRecord
100
AcDbLayerTableRecord
  2
91
 70
     0
 62
    91
  6
CONTINUOUS
  0
LAYER
  5
95
330
2
100
AcDbSymbolTableRecord
100
AcDbLayerTableRecord
  2
92
 70
     0
 62
    92
  6
CONTINUOUS
  0
LAYER
  5
96
330
2
100
AcDbSymbolTableRecord
100
AcDbLayerTableRecord
  2
93
 70
     0
 62
    93
  6
CONTINUOUS
  0
LAYER
  5
97
330
2
100
AcDbSymbolTableRecord
100
AcDbLayerTableRecord
  2
94
 70
     0
 62
    94
  6
CONTINUOUS
  0
LAYER
  5
98
330
2
100
AcDbSymbolTableRecord
100
AcDbLayerTableRecord
  2
95
 70
     0
 62
    95
  6
CONTINUOUS
  0
LAYER
  5
99
330
2
100
AcDbSymbolTableRecord
100
AcDbLayerTableRecord
  2
96
 70
     0
 62
    96
  6
CONTINUOUS
  0
LAYER
  5
9A
330
2
100
AcDbSymbolTableRecord
100
AcDbLayerTableRecord
  2
97
 70
     0
 62
    97
  6
CONTINUOUS
  0
LAYER
  5
9B
330
2
100
AcDbSymbolTableRecord
100
AcDbLayerTableRecord
  2
98
 70
     0
 62
    98
  6
CONTINUOUS
  0
LAYER
  5
9C
330
2
100
AcDbSymbolTableRecord
100
AcDbLayerTableRecord
  2
99
 70
     0
 62
    99
  6
CONTINUOUS
  0
LAYER
  5
9D
330
2
100
AcDbSymbolTableRecord
100
AcDbLayerTableRecord
  2
100
 70
     0
 62
   100
  6
CONTINUOUS
  0
LAYER
  5
9E
330
2
100
AcDbSymbolTableRecord
100
AcDbLayerTableRecord
  2
101
 70
     0
 62
   101
  6
CONTINUOUS
  0
LAYER
  5
9F
330
2
100
AcDbSymbolTableRecord
100
AcDbLayerTableRecord
  2
102
 70
     0
 62
   102
  6
CONTINUOUS
  0
LAYER
  5
A0
330
2
100
AcDbSymbolTableRecord
100
AcDbLayerTableRecord
  2
103
 70
     0
 62
   103
  6
CONTINUOUS
  0
LAYER
  5
A1
330
2
100
AcDbSymbolTableRecord
100
AcDbLayerTableRecord
  2
104
 70
     0
 62
   104
  6
CONTINUOUS
  0
LAYER
  5
A2
330
2
100
AcDbSymbolTableRecord
100
AcDbLayerTableRecord
  2
105
 70
     0
 62
   105
  6
CONTINUOUS
  0
LAYER
  5
A3
330
2
100
AcDbSymbolTableRecord
100
AcDbLayerTableRecord
  2
106
 70
     0
 62
   106
  6
CONTINUOUS
  0
LAYER
  5
A4
330
2
100
AcDbSymbolTableRecord
100
AcDbLayerTableRecord
  2
107
 70
     0
 62
   107
  6
CONTINUOUS
  0
LAYER
  5
A5
330
2
100
AcDbSymbolTableRecord
100
AcDbLayerTableRecord
  2
108
 70
     0
 62
   108
  6
CONTINUOUS
  0
LAYER
  5
A6
330
2
100
AcDbSymbolTableRecord
100
AcDbLayerTableRecord
  2
109
 70
     0
 62
   109
  6
CONTINUOUS
  0
LAYER
  5
A7
330
2
100
AcDbSymbolTableRecord
100
AcDbLayerTableRecord
  2
110
 70
     0
 62
   110
  6
CONTINUOUS
  0
LAYER
  5
A8
330
2
100
AcDbSymbolTableRecord
100
AcDbLayerTableRecord
  2
111
 70
     0
 62
   111
  6
CONTINUOUS
  0
LAYER
  5
A9
330
2
100
AcDbSymbolTableRecord
100
AcDbLayerTableRecord
  2
112
 70
     0
 62
   112
  6
CONTINUOUS
  0
LAYER
  5
AA
330
2
100
AcDbSymbolTableRecord
100
AcDbLayerTableRecord
  2
113
 70
     0
 62
   113
  6
CONTINUOUS
  0
LAYER
  5
AB
330
2
100
AcDbSymbolTableRecord
100
AcDbLayerTableRecord
  2
114
 70
     0
 62
   114
  6
CONTINUOUS
  0
LAYER
  5
AC
330
2
100
AcDbSymbolTableRecord
100
AcDbLayerTableRecord
  2
115
 70
     0
 62
   115
  6
CONTINUOUS
  0
LAYER
  5
AD
330
2
100
AcDbSymbolTableRecord
100
AcDbLayerTableRecord
  2
116
 70
     0
 62
   116
  6
CONTINUOUS
  0
LAYER
  5
AE
330
2
100
AcDbSymbolTableRecord
100
AcDbLayerTableRecord
  2
117
 70
     0
 62
   117
  6
CONTINUOUS
  0
LAYER
  5
AF
330
2
100
AcDbSymbolTableRecord
100
AcDbLayerTableRecord
  2
118
 70
     0
 62
   118
  6
CONTINUOUS
  0
LAYER
  5
B0
330
2
100
AcDbSymbolTableRecord
100
AcDbLayerTableRecord
  2
119
 70
     0
 62
   119
  6
CONTINUOUS
  0
LAYER
  5
B1
330
2
100
AcDbSymbolTableRecord
100
AcDbLayerTableRecord
  2
120
 70
     0
 62
   120
  6
CONTINUOUS
  0
LAYER
  5
B2
330
2
100
AcDbSymbolTableRecord
100
AcDbLayerTableRecord
  2
121
 70
     0
 62
   121
  6
CONTINUOUS
  0
LAYER
  5
B3
330
2
100
AcDbSymbolTableRecord
100
AcDbLayerTableRecord
  2
122
 70
     0
 62
   122
  6
CONTINUOUS
  0
LAYER
  5
B4
330
2
100
AcDbSymbolTableRecord
100
AcDbLayerTableRecord
  2
123
 70
     0
 62
   123
  6
CONTINUOUS
  0
LAYER
  5
B5
330
2
100
AcDbSymbolTableRecord
100
AcDbLayerTableRecord
  2
124
 70
     0
 62
   124
  6
CONTINUOUS
  0
LAYER
  5
B6
330
2
100
AcDbSymbolTableRecord
100
AcDbLayerTableRecord
  2
125
 70
     0
 62
   125
  6
CONTINUOUS
  0
LAYER
  5
B7
330
2
100
AcDbSymbolTableRecord
100
AcDbLayerTableRecord
  2
126
 70
     0
 62
   126
  6
CONTINUOUS
  0
LAYER
  5
B8
330
2
100
AcDbSymbolTableRecord
100
AcDbLayerTableRecord
  2
127
 70
     0
 62
   127
  6
CONTINUOUS
  0
LAYER
  5
B9
330
2
100
AcDbSymbolTableRecord
100
AcDbLayerTableRecord
  2
128
 70
     0
 62
   128
  6
CONTINUOUS
  0
LAYER
  5
BA
330
2
100
AcDbSymbolTableRecord
100
AcDbLayerTableRecord
  2
129
 70
     0
 62
   129
  6
CONTINUOUS
  0
LAYER
  5
BB
330
2
100
AcDbSymbolTableRecord
100
AcDbLayerTableRecord
  2
130
 70
     0
 62
   130
  6
CONTINUOUS
  0
LAYER
  5
BC
330
2
100
AcDbSymbolTableRecord
100
AcDbLayerTableRecord
  2
131
 70
     0
 62
   131
  6
CONTINUOUS
  0
LAYER
  5
BD
330
2
100
AcDbSymbolTableRecord
100
AcDbLayerTableRecord
  2
132
 70
     0
 62
   132
  6
CONTINUOUS
  0
LAYER
  5
BE
330
2
100
AcDbSymbolTableRecord
100
AcDbLayerTableRecord
  2
133
 70
     0
 62
   133
  6
CONTINUOUS
  0
LAYER
  5
BF
330
2
100
AcDbSymbolTableRecord
100
AcDbLayerTableRecord
  2
134
 70
     0
 62
   134
  6
CONTINUOUS
  0
LAYER
  5
C0
330
2
100
AcDbSymbolTableRecord
100
AcDbLayerTableRecord
  2
135
 70
     0
 62
   135
  6
CONTINUOUS
  0
LAYER
  5
C1
330
2
100
AcDbSymbolTableRecord
100
AcDbLayerTableRecord
  2
136
 70
     0
 62
   136
  6
CONTINUOUS
  0
LAYER
  5
C2
330
2
100
AcDbSymbolTableRecord
100
AcDbLayerTableRecord
  2
137
 70
     0
 62
   137
  6
CONTINUOUS
  0
LAYER
  5
C3
330
2
100
AcDbSymbolTableRecord
100
AcDbLayerTableRecord
  2
138
 70
     0
 62
   138
  6
CONTINUOUS
  0
LAYER
  5
C4
330
2
100
AcDbSymbolTableRecord
100
AcDbLayerTableRecord
  2
139
 70
     0
 62
   139
  6
CONTINUOUS
  0
LAYER
  5
C5
330
2
100
AcDbSymbolTableRecord
100
AcDbLayerTableRecord
  2
140
 70
     0
 62
   140
  6
CONTINUOUS
  0
LAYER
  5
C6
330
2
100
AcDbSymbolTableRecord
100
AcDbLayerTableRecord
  2
141
 70
     0
 62
   141
  6
CONTINUOUS
  0
LAYER
  5
C7
330
2
100
AcDbSymbolTableRecord
100
AcDbLayerTableRecord
  2
142
 70
     0
 62
   142
  6
CONTINUOUS
  0
LAYER
  5
C8
330
2
100
AcDbSymbolTableRecord
100
AcDbLayerTableRecord
  2
143
 70
     0
 62
   143
  6
CONTINUOUS
  0
LAYER
  5
C9
330
2
100
AcDbSymbolTableRecord
100
AcDbLayerTableRecord
  2
144
 70
     0
 62
   144
  6
CONTINUOUS
  0
LAYER
  5
CA
330
2
100
AcDbSymbolTableRecord
100
AcDbLayerTableRecord
  2
145
 70
     0
 62
   145
  6
CONTINUOUS
  0
LAYER
  5
CB
330
2
100
AcDbSymbolTableRecord
100
AcDbLayerTableRecord
  2
146
 70
     0
 62
   146
  6
CONTINUOUS
  0
LAYER
  5
CC
330
2
100
AcDbSymbolTableRecord
100
AcDbLayerTableRecord
  2
147
 70
     0
 62
   147
  6
CONTINUOUS
  0
LAYER
  5
CD
330
2
100
AcDbSymbolTableRecord
100
AcDbLayerTableRecord
  2
148
 70
     0
 62
   148
  6
CONTINUOUS
  0
LAYER
  5
CE
330
2
100
AcDbSymbolTableRecord
100
AcDbLayerTableRecord
  2
149
 70
     0
 62
   149
  6
CONTINUOUS
  0
LAYER
  5
CF
330
2
100
AcDbSymbolTableRecord
100
AcDbLayerTableRecord
  2
150
 70
     0
 62
   150
  6
CONTINUOUS
  0
LAYER
  5
D0
330
2
100
AcDbSymbolTableRecord
100
AcDbLayerTableRecord
  2
151
 70
     0
 62
   151
  6
CONTINUOUS
  0
LAYER
  5
D1
330
2
100
AcDbSymbolTableRecord
100
AcDbLayerTableRecord
  2
152
 70
     0
 62
   152
  6
CONTINUOUS
  0
LAYER
  5
D2
330
2
100
AcDbSymbolTableRecord
100
AcDbLayerTableRecord
  2
153
 70
     0
 62
   153
  6
CONTINUOUS
  0
LAYER
  5
D3
330
2
100
AcDbSymbolTableRecord
100
AcDbLayerTableRecord
  2
154
 70
     0
 62
   154
  6
CONTINUOUS
  0
LAYER
  5
D4
330
2
100
AcDbSymbolTableRecord
100
AcDbLayerTableRecord
  2
155
 70
     0
 62
   155
  6
CONTINUOUS
  0
LAYER
  5
D5
330
2
100
AcDbSymbolTableRecord
100
AcDbLayerTableRecord
  2
156
 70
     0
 62
   156
  6
CONTINUOUS
  0
LAYER
  5
D6
330
2
100
AcDbSymbolTableRecord
100
AcDbLayerTableRecord
  2
157
 70
     0
 62
   157
  6
CONTINUOUS
  0
LAYER
  5
D7
330
2
100
AcDbSymbolTableRecord
100
AcDbLayerTableRecord
  2
158
 70
     0
 62
   158
  6
CONTINUOUS
  0
LAYER
  5
D8
330
2
100
AcDbSymbolTableRecord
100
AcDbLayerTableRecord
  2
159
 70
     0
 62
   159
  6
CONTINUOUS
  0
LAYER
  5
D9
330
2
100
AcDbSymbolTableRecord
100
AcDbLayerTableRecord
  2
160
 70
     0
 62
   160
  6
CONTINUOUS
  0
LAYER
  5
DA
330
2
100
AcDbSymbolTableRecord
100
AcDbLayerTableRecord
  2
161
 70
     0
 62
   161
  6
CONTINUOUS
  0
LAYER
  5
DB
330
2
100
AcDbSymbolTableRecord
100
AcDbLayerTableRecord
  2
162
 70
     0
 62
   162
  6
CONTINUOUS
  0
LAYER
  5
DC
330
2
100
AcDbSymbolTableRecord
100
AcDbLayerTableRecord
  2
163
 70
     0
 62
   163
  6
CONTINUOUS
  0
LAYER
  5
DD
330
2
100
AcDbSymbolTableRecord
100
AcDbLayerTableRecord
  2
164
 70
     0
 62
   164
  6
CONTINUOUS
  0
LAYER
  5
DE
330
2
100
AcDbSymbolTableRecord
100
AcDbLayerTableRecord
  2
165
 70
     0
 62
   165
  6
CONTINUOUS
  0
LAYER
  5
DF
330
2
100
AcDbSymbolTableRecord
100
AcDbLayerTableRecord
  2
166
 70
     0
 62
   166
  6
CONTINUOUS
  0
LAYER
  5
E0
330
2
100
AcDbSymbolTableRecord
100
AcDbLayerTableRecord
  2
167
 70
     0
 62
   167
  6
CONTINUOUS
  0
LAYER
  5
E1
330
2
100
AcDbSymbolTableRecord
100
AcDbLayerTableRecord
  2
168
 70
     0
 62
   168
  6
CONTINUOUS
  0
LAYER
  5
E2
330
2
100
AcDbSymbolTableRecord
100
AcDbLayerTableRecord
  2
169
 70
     0
 62
   169
  6
CONTINUOUS
  0
LAYER
  5
E3
330
2
100
AcDbSymbolTableRecord
100
AcDbLayerTableRecord
  2
170
 70
     0
 62
   170
  6
CONTINUOUS
  0
LAYER
  5
E4
330
2
100
AcDbSymbolTableRecord
100
AcDbLayerTableRecord
  2
171
 70
     0
 62
   171
  6
CONTINUOUS
  0
LAYER
  5
E5
330
2
100
AcDbSymbolTableRecord
100
AcDbLayerTableRecord
  2
172
 70
     0
 62
   172
  6
CONTINUOUS
  0
LAYER
  5
E6
330
2
100
AcDbSymbolTableRecord
100
AcDbLayerTableRecord
  2
173
 70
     0
 62
   173
  6
CONTINUOUS
  0
LAYER
  5
E7
330
2
100
AcDbSymbolTableRecord
100
AcDbLayerTableRecord
  2
174
 70
     0
 62
   174
  6
CONTINUOUS
  0
LAYER
  5
E8
330
2
100
AcDbSymbolTableRecord
100
AcDbLayerTableRecord
  2
175
 70
     0
 62
   175
  6
CONTINUOUS
  0
LAYER
  5
E9
330
2
100
AcDbSymbolTableRecord
100
AcDbLayerTableRecord
  2
176
 70
     0
 62
   176
  6
CONTINUOUS
  0
LAYER
  5
EA
330
2
100
AcDbSymbolTableRecord
100
AcDbLayerTableRecord
  2
177
 70
     0
 62
   177
  6
CONTINUOUS
  0
LAYER
  5
EB
330
2
100
AcDbSymbolTableRecord
100
AcDbLayerTableRecord
  2
178
 70
     0
 62
   178
  6
CONTINUOUS
  0
LAYER
  5
EC
330
2
100
AcDbSymbolTableRecord
100
AcDbLayerTableRecord
  2
179
 70
     0
 62
   179
  6
CONTINUOUS
  0
LAYER
  5
ED
330
2
100
AcDbSymbolTableRecord
100
AcDbLayerTableRecord
  2
180
 70
     0
 62
   180
  6
CONTINUOUS
  0
LAYER
  5
EE
330
2
100
AcDbSymbolTableRecord
100
AcDbLayerTableRecord
  2
181
 70
     0
 62
   181
  6
CONTINUOUS
  0
LAYER
  5
EF
330
2
100
AcDbSymbolTableRecord
100
AcDbLayerTableRecord
  2
182
 70
     0
 62
   182
  6
CONTINUOUS
  0
LAYER
  5
F0
330
2
100
AcDbSymbolTableRecord
100
AcDbLayerTableRecord
  2
183
 70
     0
 62
   183
  6
CONTINUOUS
  0
LAYER
  5
F1
330
2
100
AcDbSymbolTableRecord
100
AcDbLayerTableRecord
  2
184
 70
     0
 62
   184
  6
CONTINUOUS
  0
LAYER
  5
F2
330
2
100
AcDbSymbolTableRecord
100
AcDbLayerTableRecord
  2
185
 70
     0
 62
   185
  6
CONTINUOUS
  0
LAYER
  5
F3
330
2
100
AcDbSymbolTableRecord
100
AcDbLayerTableRecord
  2
186
 70
     0
 62
   186
  6
CONTINUOUS
  0
LAYER
  5
F4
330
2
100
AcDbSymbolTableRecord
100
AcDbLayerTableRecord
  2
187
 70
     0
 62
   187
  6
CONTINUOUS
  0
LAYER
  5
F5
330
2
100
AcDbSymbolTableRecord
100
AcDbLayerTableRecord
  2
188
 70
     0
 62
   188
  6
CONTINUOUS
  0
LAYER
  5
F6
330
2
100
AcDbSymbolTableRecord
100
AcDbLayerTableRecord
  2
189
 70
     0
 62
   189
  6
CONTINUOUS
  0
LAYER
  5
F7
330
2
100
AcDbSymbolTableRecord
100
AcDbLayerTableRecord
  2
190
 70
     0
 62
   190
  6
CONTINUOUS
  0
LAYER
  5
F8
330
2
100
AcDbSymbolTableRecord
100
AcDbLayerTableRecord
  2
191
 70
     0
 62
   191
  6
CONTINUOUS
  0
LAYER
  5
F9
330
2
100
AcDbSymbolTableRecord
100
AcDbLayerTableRecord
  2
192
 70
     0
 62
   192
  6
CONTINUOUS
  0
LAYER
  5
FA
330
2
100
AcDbSymbolTableRecord
100
AcDbLayerTableRecord
  2
193
 70
     0
 62
   193
  6
CONTINUOUS
  0
LAYER
  5
FB
330
2
100
AcDbSymbolTableRecord
100
AcDbLayerTableRecord
  2
194
 70
     0
 62
   194
  6
CONTINUOUS
  0
LAYER
  5
FC
330
2
100
AcDbSymbolTableRecord
100
AcDbLayerTableRecord
  2
195
 70
     0
 62
   195
  6
CONTINUOUS
  0
LAYER
  5
FD
330
2
100
AcDbSymbolTableRecord
100
AcDbLayerTableRecord
  2
196
 70
     0
 62
   196
  6
CONTINUOUS
  0
LAYER
  5
FE
330
2
100
AcDbSymbolTableRecord
100
AcDbLayerTableRecord
  2
197
 70
     0
 62
   197
  6
CONTINUOUS
  0
LAYER
  5
FF
330
2
100
AcDbSymbolTableRecord
100
AcDbLayerTableRecord
  2
198
 70
     0
 62
   198
  6
CONTINUOUS
  0
LAYER
  5
100
330
2
100
AcDbSymbolTableRecord
100
AcDbLayerTableRecord
  2
199
 70
     0
 62
   199
  6
CONTINUOUS
  0
LAYER
  5
101
330
2
100
AcDbSymbolTableRecord
100
AcDbLayerTableRecord
  2
200
 70
     0
 62
   200
  6
CONTINUOUS
  0
LAYER
  5
102
330
2
100
AcDbSymbolTableRecord
100
AcDbLayerTableRecord
  2
201
 70
     0
 62
   201
  6
CONTINUOUS
  0
LAYER
  5
103
330
2
100
AcDbSymbolTableRecord
100
AcDbLayerTableRecord
  2
202
 70
     0
 62
   202
  6
CONTINUOUS
  0
LAYER
  5
104
330
2
100
AcDbSymbolTableRecord
100
AcDbLayerTableRecord
  2
203
 70
     0
 62
   203
  6
CONTINUOUS
  0
LAYER
  5
105
330
2
100
AcDbSymbolTableRecord
100
AcDbLayerTableRecord
  2
204
 70
     0
 62
   204
  6
CONTINUOUS
  0
LAYER
  5
106
330
2
100
AcDbSymbolTableRecord
100
AcDbLayerTableRecord
  2
205
 70
     0
 62
   205
  6
CONTINUOUS
  0
LAYER
  5
107
330
2
100
AcDbSymbolTableRecord
100
AcDbLayerTableRecord
  2
206
 70
     0
 62
   206
  6
CONTINUOUS
  0
LAYER
  5
108
330
2
100
AcDbSymbolTableRecord
100
AcDbLayerTableRecord
  2
207
 70
     0
 62
   207
  6
CONTINUOUS
  0
LAYER
  5
109
330
2
100
AcDbSymbolTableRecord
100
AcDbLayerTableRecord
  2
208
 70
     0
 62
   208
  6
CONTINUOUS
  0
LAYER
  5
10A
330
2
100
AcDbSymbolTableRecord
100
AcDbLayerTableRecord
  2
209
 70
     0
 62
   209
  6
CONTINUOUS
  0
LAYER
  5
10B
330
2
100
AcDbSymbolTableRecord
100
AcDbLayerTableRecord
  2
210
 70
     0
 62
   210
  6
CONTINUOUS
  0
LAYER
  5
10C
330
2
100
AcDbSymbolTableRecord
100
AcDbLayerTableRecord
  2
211
 70
     0
 62
   211
  6
CONTINUOUS
  0
LAYER
  5
10D
330
2
100
AcDbSymbolTableRecord
100
AcDbLayerTableRecord
  2
212
 70
     0
 62
   212
  6
CONTINUOUS
  0
LAYER
  5
10E
330
2
100
AcDbSymbolTableRecord
100
AcDbLayerTableRecord
  2
213
 70
     0
 62
   213
  6
CONTINUOUS
  0
LAYER
  5
10F
330
2
100
AcDbSymbolTableRecord
100
AcDbLayerTableRecord
  2
214
 70
     0
 62
   214
  6
CONTINUOUS
  0
LAYER
  5
110
330
2
100
AcDbSymbolTableRecord
100
AcDbLayerTableRecord
  2
215
 70
     0
 62
   215
  6
CONTINUOUS
  0
LAYER
  5
111
330
2
100
AcDbSymbolTableRecord
100
AcDbLayerTableRecord
  2
216
 70
     0
 62
   216
  6
CONTINUOUS
  0
LAYER
  5
112
330
2
100
AcDbSymbolTableRecord
100
AcDbLayerTableRecord
  2
217
 70
     0
 62
   217
  6
CONTINUOUS
  0
LAYER
  5
113
330
2
100
AcDbSymbolTableRecord
100
AcDbLayerTableRecord
  2
218
 70
     0
 62
   218
  6
CONTINUOUS
  0
LAYER
  5
114
330
2
100
AcDbSymbolTableRecord
100
AcDbLayerTableRecord
  2
219
 70
     0
 62
   219
  6
CONTINUOUS
  0
LAYER
  5
115
330
2
100
AcDbSymbolTableRecord
100
AcDbLayerTableRecord
  2
220
 70
     0
 62
   220
  6
CONTINUOUS
  0
LAYER
  5
116
330
2
100
AcDbSymbolTableRecord
100
AcDbLayerTableRecord
  2
221
 70
     0
 62
   221
  6
CONTINUOUS
  0
LAYER
  5
117
330
2
100
AcDbSymbolTableRecord
100
AcDbLayerTableRecord
  2
222
 70
     0
 62
   222
  6
CONTINUOUS
  0
LAYER
  5
118
330
2
100
AcDbSymbolTableRecord
100
AcDbLayerTableRecord
  2
223
 70
     0
 62
   223
  6
CONTINUOUS
  0
LAYER
  5
119
330
2
100
AcDbSymbolTableRecord
100
AcDbLayerTableRecord
  2
224
 70
     0
 62
   224
  6
CONTINUOUS
  0
LAYER
  5
11A
330
2
100
AcDbSymbolTableRecord
100
AcDbLayerTableRecord
  2
225
 70
     0
 62
   225
  6
CONTINUOUS
  0
LAYER
  5
11B
330
2
100
AcDbSymbolTableRecord
100
AcDbLayerTableRecord
  2
226
 70
     0
 62
   226
  6
CONTINUOUS
  0
LAYER
  5
11C
330
2
100
AcDbSymbolTableRecord
100
AcDbLayerTableRecord
  2
227
 70
     0
 62
   227
  6
CONTINUOUS
  0
LAYER
  5
11D
330
2
100
AcDbSymbolTableRecord
100
AcDbLayerTableRecord
  2
228
 70
     0
 62
   228
  6
CONTINUOUS
  0
LAYER
  5
11E
330
2
100
AcDbSymbolTableRecord
100
AcDbLayerTableRecord
  2
229
 70
     0
 62
   229
  6
CONTINUOUS
  0
LAYER
  5
11F
330
2
100
AcDbSymbolTableRecord
100
AcDbLayerTableRecord
  2
230
 70
     0
 62
   230
  6
CONTINUOUS
  0
LAYER
  5
120
330
2
100
AcDbSymbolTableRecord
100
AcDbLayerTableRecord
  2
231
 70
     0
 62
   231
  6
CONTINUOUS
  0
LAYER
  5
121
330
2
100
AcDbSymbolTableRecord
100
AcDbLayerTableRecord
  2
232
 70
     0
 62
   232
  6
CONTINUOUS
  0
LAYER
  5
122
330
2
100
AcDbSymbolTableRecord
100
AcDbLayerTableRecord
  2
233
 70
     0
 62
   233
  6
CONTINUOUS
  0
LAYER
  5
123
330
2
100
AcDbSymbolTableRecord
100
AcDbLayerTableRecord
  2
234
 70
     0
 62
   234
  6
CONTINUOUS
  0
LAYER
  5
124
330
2
100
AcDbSymbolTableRecord
100
AcDbLayerTableRecord
  2
235
 70
     0
 62
   235
  6
CONTINUOUS
  0
LAYER
  5
125
330
2
100
AcDbSymbolTableRecord
100
AcDbLayerTableRecord
  2
236
 70
     0
 62
   236
  6
CONTINUOUS
  0
LAYER
  5
126
330
2
100
AcDbSymbolTableRecord
100
AcDbLayerTableRecord
  2
237
 70
     0
 62
   237
  6
CONTINUOUS
  0
LAYER
  5
127
330
2
100
AcDbSymbolTableRecord
100
AcDbLayerTableRecord
  2
238
 70
     0
 62
   238
  6
CONTINUOUS
  0
LAYER
  5
128
330
2
100
AcDbSymbolTableRecord
100
AcDbLayerTableRecord
  2
239
 70
     0
 62
   239
  6
CONTINUOUS
  0
LAYER
  5
129
330
2
100
AcDbSymbolTableRecord
100
AcDbLayerTableRecord
  2
240
 70
     0
 62
   240
  6
CONTINUOUS
  0
LAYER
  5
12A
330
2
100
AcDbSymbolTableRecord
100
AcDbLayerTableRecord
  2
241
 70
     0
 62
   241
  6
CONTINUOUS
  0
LAYER
  5
12B
330
2
100
AcDbSymbolTableRecord
100
AcDbLayerTableRecord
  2
242
 70
     0
 62
   242
  6
CONTINUOUS
  0
LAYER
  5
12C
330
2
100
AcDbSymbolTableRecord
100
AcDbLayerTableRecord
  2
243
 70
     0
 62
   243
  6
CONTINUOUS
  0
LAYER
  5
12D
330
2
100
AcDbSymbolTableRecord
100
AcDbLayerTableRecord
  2
244
 70
     0
 62
   244
  6
CONTINUOUS
  0
LAYER
  5
12E
330
2
100
AcDbSymbolTableRecord
100
AcDbLayerTableRecord
  2
245
 70
     0
 62
   245
  6
CONTINUOUS
  0
LAYER
  5
12F
330
2
100
AcDbSymbolTableRecord
100
AcDbLayerTableRecord
  2
246
 70
     0
 62
   246
  6
CONTINUOUS
  0
LAYER
  5
130
330
2
100
AcDbSymbolTableRecord
100
AcDbLayerTableRecord
  2
247
 70
     0
 62
   247
  6
CONTINUOUS
  0
LAYER
  5
131
330
2
100
AcDbSymbolTableRecord
100
AcDbLayerTableRecord
  2
248
 70
     0
 62
   248
  6
CONTINUOUS
  0
LAYER
  5
132
330
2
100
AcDbSymbolTableRecord
100
AcDbLayerTableRecord
  2
249
 70
     0
 62
   249
  6
CONTINUOUS
  0
LAYER
  5
133
330
2
100
AcDbSymbolTableRecord
100
AcDbLayerTableRecord
  2
250
 70
     0
 62
   250
  6
CONTINUOUS
  0
LAYER
  5
134
330
2
100
AcDbSymbolTableRecord
100
AcDbLayerTableRecord
  2
251
 70
     0
 62
   251
  6
CONTINUOUS
  0
LAYER
  5
135
330
2
100
AcDbSymbolTableRecord
100
AcDbLayerTableRecord
  2
252
 70
     0
 62
   252
  6
CONTINUOUS
  0
LAYER
  5
136
330
2
100
AcDbSymbolTableRecord
100
AcDbLayerTableRecord
  2
253
 70
     0
 62
   253
  6
CONTINUOUS
  0
LAYER
  5
137
330
2
100
AcDbSymbolTableRecord
100
AcDbLayerTableRecord
  2
254
 70
     0
 62
   254
  6
CONTINUOUS
  0
LAYER
  5
138
330
2
100
AcDbSymbolTableRecord
100
AcDbLayerTableRecord
  2
255
 70
     0
 62
   255
  6
CONTINUOUS
  0
ENDTAB
  0
TABLE
  2
STYLE
  5
3
330
0
100
AcDbSymbolTable
 70
     1
  0
STYLE
  5
11
330
3
100
AcDbSymbolTableRecord
100
AcDbTextStyleTableRecord
  2
STANDARD
 70
     0
 40
0.0
 41
1.0
 50
0.0
 71
     0
 42
0.2
  3
monotxt
  4

  0
ENDTAB
  0
TABLE
  2
VIEW
  5
6
330
0
100
AcDbSymbolTable
 70
     0
  0
ENDTAB
  0
TABLE
  2
UCS
  5
7
330
0
100
AcDbSymbolTable
 70
     0
  0
ENDTAB
  0
TABLE
  2
APPID
  5
9
330
0
100
AcDbSymbolTable
 70
     1
  0
APPID
  5
12
330
9
100
AcDbSymbolTableRecord
100
AcDbRegAppTableRecord
  2
ACAD
 70
     0
  0
ENDTAB
  0
TABLE
  2
DIMSTYLE
  5
A
330
0
100
AcDbSymbolTable
 70
     1
  0
DIMSTYLE
105
3960
330
A
100
AcDbSymbolTableRecord
100
AcDbDimStyleTableRecord
  2
STANDARD
 70
     0
  3

  4

  5

  6

  7

 40
1.0
 41
0.18
 42
0.0625
 43
0.38
 44
0.18
 45
0.0
 46
0.0
 47
0.0
 48
0.0
140
0.18
141
0.09
142
0.0
143
25.4
144
1.0
145
0.0
146
1.0
147
0.09
 71
     0
 72
     0
 73
     1
 74
     1
 75
     0
 76
     0
 77
     0
 78
     0
170
     0
171
     2
172
     0
173
     0
174
     0
175
     0
176
     0
177
     0
178
     0
270
     2
271
     4
272
     4
273
     2
274
     2
340
11
275
     0
280
     0
281
     0
282
     0
283
     1
284
     0
285
     0
286
     0
287
     3
288
     0
  0
ENDTAB
  0
TABLE
  2
BLOCK_RECORD
  5
1
330
0
100
AcDbSymbolTable
 70
     0
  0
BLOCK_RECORD
  5
1E
102
{ACAD_XDICTIONARY
360
51D7
102
}
330
1
100
AcDbSymbolTableRecord
100
AcDbBlockTableRecord
  2
*MODEL_SPACE
  0
BLOCK_RECORD
  5
1A
102
{ACAD_XDICTIONARY
360
51D5
102
}
330
1
100
AcDbSymbolTableRecord
100
AcDbBlockTableRecord
  2
*PAPER_SPACE
  0
ENDTAB
  0
ENDSEC
  0
SECTION
  2
BLOCKS
  0
BLOCK
  5
13B
330
1E
100
AcDbEntity
  8
0
100
AcDbBlockBegin
  2
*MODEL_SPACE
 70
     0
 10
0.0
 20
0.0
 30
0.0
  3
*MODEL_SPACE
  1

  0
ENDBLK
  5
13C
330
1E
100
AcDbEntity
  8
0
100
AcDbBlockEnd
  0
BLOCK
  5
139
330
1A
100
AcDbEntity
 67
     1
  8
0
100
AcDbBlockBegin
  2
*PAPER_SPACE
 70
     0
 10
0.0
 20
0.0
 30
0.0
  3
*PAPER_SPACE
  1

  0
ENDBLK
  5
13A
330
1A
100
AcDbEntity
 67
     1
  8
0
100
AcDbBlockEnd
  0
ENDSEC
  0
SECTION
  2
ENTITIES
  0
LINE
  5
2A79
330
1E
100
AcDbEntity
  8
7
100
AcDbLine
 10
-10.18996062992125
 20
1.034448818897637
 30
0.0
 11
-10.01476377952756
 21
1.034448818897637
 31
0.0
  0
LINE
  5
2A7A
330
1E
100
AcDbEntity
  8
7
100
AcDbLine
 10
-9.959645669291338
 20
1.124015748031496
 30
0.0
 11
-10.00984251968504
 21
1.124015748031496
 31
0.0
  0
LINE
  5
2A7B
330
1E
100
AcDbEntity
  8
7
100
AcDbLine
 10
-9.454724409448818
 20
1.124015748031496
 30
0.0
 11
-9.484251968503937
 21
1.124015748031496
 31
0.0
  0
LINE
  5
2A7C
330
1E
100
AcDbEntity
  8
7
100
AcDbLine
 10
-9.431102362204725
 20
1.124015748031496
 30
0.0
 11
-9.450787401574803
 21
1.124015748031496
 31
0.0
  0
LINE
  5
2A7D
330
1E
100
AcDbEntity
  8
7
100
AcDbLine
 10
-9.484251968503937
 20
1.124015748031496
 30
0.0
 11
-9.959645669291338
 21
1.124015748031496
 31
0.0
  0
LINE
  5
2A7E
330
1E
100
AcDbEntity
  8
7
100
AcDbLine
 10
-9.43503937007874
 20
1.035433070866141
 30
0.0
 11
-9.431102362204725
 21
1.035433070866141
 31
0.0
  0
LINE
  5
2A7F
330
1E
100
AcDbEntity
  8
7
100
AcDbLine
 10
-9.278543307086614
 20
0.6141732283464565
 30
0.0
 11
-9.278543307086614
 21
0.6171259842519686
 31
0.0
  0
LINE
  5
2A80
330
1E
100
AcDbEntity
  8
7
100
AcDbLine
 10
-9.353346456692914
 20
0.6899606299212602
 30
0.0
 11
-9.404527559055118
 21
0.6899606299212602
 31
0.0
  0
LINE
  5
2A81
330
1E
100
AcDbEntity
  8
7
100
AcDbLine
 10
-10.07283464566929
 20
0.5413385826771658
 30
0.0
 11
-9.353346456692914
 21
0.5413385826771658
 31
0.0
  0
LINE
  5
2A82
330
1E
100
AcDbEntity
  8
7
100
AcDbLine
 10
-10.72047244094488
 20
1.124015748031496
 30
0.0
 11
-10.7509842519685
 21
1.124015748031496
 31
0.0
  0
LINE
  5
2A83
330
1E
100
AcDbEntity
  8
7
100
AcDbLine
 10
-10.19488188976378
 20
1.124015748031496
 30
0.0
 11
-10.24507874015748
 21
1.124015748031496
 31
0.0
  0
LINE
  5
2A84
330
1E
100
AcDbEntity
  8
7
100
AcDbLine
 10
-10.75393700787401
 20
1.124015748031496
 30
0.0
 11
-10.77460629921259
 21
1.124015748031496
 31
0.0
  0
LINE
  5
2A85
330
1E
100
AcDbEntity
  8
7
100
AcDbLine
 10
-10.24507874015748
 20
1.124015748031496
 30
0.0
 11
-10.72047244094488
 21
1.124015748031496
 31
0.0
  0
LINE
  5
2A86
330
1E
100
AcDbEntity
  8
7
100
AcDbLine
 10
-10.77460629921259
 20
1.035433070866141
 30
0.0
 11
-10.77066929133858
 21
1.035433070866141
 31
0.0
  0
LINE
  5
2A87
330
1E
100
AcDbEntity
  8
7
100
AcDbLine
 10
-10.92716535433071
 20
0.6171259842519686
 30
0.0
 11
-10.92716535433071
 21
0.6141732283464565
 31
0.0
  0
LINE
  5
2A88
330
1E
100
AcDbEntity
  8
7
100
AcDbLine
 10
-10.8001968503937
 20
0.6899606299212602
 30
0.0
 11
-10.85236220472441
 21
0.6899606299212602
 31
0.0
  0
LINE
  5
2A89
330
1E
100
AcDbEntity
  8
7
100
AcDbLine
 10
-10.85236220472441
 20
0.5413385826771658
 30
0.0
 11
-10.13287401574803
 21
0.5413385826771658
 31
0.0
  0
LINE
  5
2A8A
330
1E
100
AcDbEntity
  8
7
100
AcDbLine
 10
-9.431102362204725
 20
1.08267716535433
 30
0.0
 11
-9.43011811023622
 21
1.081692913385826
 31
0.0
  0
LINE
  5
2A8B
330
1E
100
AcDbEntity
  8
7
100
AcDbLine
 10
-9.431102362204725
 20
1.08267716535433
 30
0.0
 11
-9.43011811023622
 21
1.081692913385826
 31
0.0
  0
LINE
  5
2AAF
330
1E
100
AcDbEntity
  8
7
100
AcDbLine
 10
-10.13287401574803
 20
0.5413385826771658
 30
0.0
 11
-10.11909448818897
 21
0.5472440944881889
 31
0.0
  0
LINE
  5
2AB0
330
1E
100
AcDbEntity
  8
7
100
AcDbLine
 10
-10.11909448818897
 20
0.5472440944881889
 30
0.0
 11
-10.11318897637795
 21
0.5610236220472445
 31
0.0
  0
LINE
  5
2B03
330
1E
100
AcDbEntity
  8
7
100
AcDbLine
 10
-9.441929133858268
 20
1.135826771653543
 30
0.0
 11
-9.441929133858268
 21
1.146653543307087
 31
0.0
  0
LINE
  5
2B09
330
1E
100
AcDbEntity
  8
7
100
AcDbLine
 10
-10.76377952755905
 20
1.127952755905512
 30
0.0
 11
-10.76377952755905
 21
1.124015748031496
 31
0.0
  0
LINE
  5
2B19
330
1E
100
AcDbEntity
  8
7
100
AcDbLine
 10
-10.77460629921259
 20
1.146653543307087
 30
0.0
 11
-10.77460629921259
 21
1.133858267716535
 31
0.0
  0
LINE
  5
2B1A
330
1E
100
AcDbEntity
  8
7
100
AcDbLine
 10
-10.77460629921259
 20
1.178149606299212
 30
0.0
 11
-10.77460629921259
 21
1.146653543307087
 31
0.0
  0
LINE
  5
2B1B
330
1E
100
AcDbEntity
  8
7
100
AcDbLine
 10
-10.77460629921259
 20
1.186023622047244
 30
0.0
 11
-10.77460629921259
 21
1.178149606299212
 31
0.0
  0
LINE
  5
2B1C
330
1E
100
AcDbEntity
  8
7
100
AcDbLine
 10
-10.7755905511811
 20
1.113188976377952
 30
0.0
 11
-10.77460629921259
 21
1.186023622047244
 31
0.0
  0
LINE
  5
2B3A
330
1E
100
AcDbEntity
  8
7
100
AcDbLine
 10
-9.431102362204725
 20
1.146653543307087
 30
0.0
 11
-9.431102362204725
 21
1.133858267716535
 31
0.0
  0
LINE
  5
2B3B
330
1E
100
AcDbEntity
  8
7
100
AcDbLine
 10
-9.432086614173229
 20
1.011811023622047
 30
0.0
 11
-9.434055118110237
 21
1.007874015748031
 31
0.0
  0
LINE
  5
2B3C
330
1E
100
AcDbEntity
  8
7
100
AcDbLine
 10
-9.43503937007874
 20
0.9389763779527555
 30
0.0
 11
-9.434055118110237
 21
1.007874015748031
 31
0.0
  0
LINE
  5
2B42
330
1E
100
AcDbEntity
  8
7
100
AcDbLine
 10
-9.43011811023622
 20
1.003937007874015
 30
0.0
 11
-9.433070866141733
 21
0.9488188976377953
 31
0.0
  0
LINE
  5
2B54
330
1E
100
AcDbEntity
  8
7
100
AcDbLine
 10
-10.01476377952756
 20
1.135826771653543
 30
0.0
 11
-10.01476377952756
 21
1.11023622047244
 31
0.0
  0
LINE
  5
2B55
330
1E
100
AcDbEntity
  8
7
100
AcDbLine
 10
-9.441929133858268
 20
1.135826771653543
 30
0.0
 11
-10.01476377952756
 21
1.135826771653543
 31
0.0
  0
LINE
  5
2B56
330
1E
100
AcDbEntity
  8
7
100
AcDbLine
 10
-9.441929133858268
 20
1.146653543307087
 30
0.0
 11
-9.431102362204725
 21
1.146653543307087
 31
0.0
  0
LINE
  5
2B57
330
1E
100
AcDbEntity
  8
7
100
AcDbLine
 10
-9.43011811023622
 20
1.178149606299212
 30
0.0
 11
-9.48523622047244
 21
1.178149606299212
 31
0.0
  0
LINE
  5
2B60
330
1E
100
AcDbEntity
  8
7
100
AcDbLine
 10
-10.72047244094488
 20
1.167322834645669
 30
0.0
 11
-10.12007874015748
 21
1.167322834645669
 31
0.0
  0
LINE
  5
2B61
330
1E
100
AcDbEntity
  8
7
100
AcDbLine
 10
-10.72047244094488
 20
1.167322834645669
 30
0.0
 11
-10.72047244094488
 21
1.178149606299212
 31
0.0
  0
LINE
  5
2B62
330
1E
100
AcDbEntity
  8
7
100
AcDbLine
 10
-10.77460629921259
 20
1.178149606299212
 30
0.0
 11
-10.72047244094488
 21
1.178149606299212
 31
0.0
  0
LINE
  5
2B63
330
1E
100
AcDbEntity
  8
7
100
AcDbLine
 10
-10.76377952755905
 20
1.146653543307087
 30
0.0
 11
-10.77460629921259
 21
1.146653543307087
 31
0.0
  0
LINE
  5
2B64
330
1E
100
AcDbEntity
  8
7
100
AcDbLine
 10
-9.441929133858268
 20
1.127952755905512
 30
0.0
 11
-9.471456692913385
 21
1.127952755905512
 31
0.0
  0
LINE
  5
2B65
330
1E
100
AcDbEntity
  8
7
100
AcDbLine
 10
-10.32381889763779
 20
1.33267716535433
 30
0.0
 11
-10.40846456692913
 21
1.33267716535433
 31
0.0
  0
LINE
  5
2B6F
330
1E
100
AcDbEntity
  8
7
100
AcDbLine
 10
-10.40846456692913
 20
1.33267716535433
 30
0.0
 11
-10.40846456692913
 21
1.254921259842519
 31
0.0
  0
LINE
  5
2B79
330
1E
100
AcDbEntity
  8
7
100
AcDbLine
 10
-10.43208661417323
 20
1.33267716535433
 30
0.0
 11
-10.51673228346456
 21
1.33267716535433
 31
0.0
  0
LINE
  5
2B7A
330
1E
100
AcDbEntity
  8
7
100
AcDbLine
 10
-10.43208661417323
 20
1.254921259842519
 30
0.0
 11
-10.43208661417323
 21
1.33267716535433
 31
0.0
  0
LINE
  5
2B92
330
1E
100
AcDbEntity
  8
7
100
AcDbLine
 10
-11.02952755905511
 20
1.422244094488188
 30
0.0
 11
-9.176181102362205
 21
1.422244094488188
 31
0.0
  0
LINE
  5
2B93
330
1E
100
AcDbEntity
  8
7
100
AcDbLine
 10
-11.0521653543307
 20
0.1988188976377954
 30
0.0
 11
-11.02952755905511
 21
1.422244094488188
 31
0.0
  0
LINE
  5
2BB7
330
1E
100
AcDbEntity
  8
7
100
AcDbLine
 10
-9.888779527559055
 20
1.324803149606299
 30
0.0
 11
-9.889763779527559
 21
1.26279527559055
 31
0.0
  0
LINE
  5
2BBD
330
1E
100
AcDbEntity
  8
7
100
AcDbLine
 10
-9.797244094488188
 20
1.33267716535433
 30
0.0
 11
-9.880905511811024
 21
1.33267716535433
 31
0.0
  0
LINE
  5
2BBE
330
1E
100
AcDbEntity
  8
7
100
AcDbLine
 10
-9.797244094488188
 20
1.254921259842519
 30
0.0
 11
-9.797244094488188
 21
1.33267716535433
 31
0.0
  0
LINE
  5
2BBF
330
1E
100
AcDbEntity
  8
7
100
AcDbLine
 10
-9.881889763779527
 20
1.254921259842519
 30
0.0
 11
-9.797244094488188
 21
1.254921259842519
 31
0.0
  0
LINE
  5
2BC5
330
1E
100
AcDbEntity
  8
7
100
AcDbLine
 10
-9.688976377952755
 20
1.33267716535433
 30
0.0
 11
-9.77263779527559
 21
1.33267716535433
 31
0.0
  0
LINE
  5
2BCB
330
1E
100
AcDbEntity
  8
7
100
AcDbLine
 10
-9.68011811023622
 20
1.26279527559055
 30
0.0
 11
-9.681102362204725
 21
1.324803149606299
 31
0.0
  0
LINE
  5
2BD1
330
1E
100
AcDbEntity
  8
7
100
AcDbLine
 10
-9.77263779527559
 20
1.254921259842519
 30
0.0
 11
-9.687992125984251
 21
1.254921259842519
 31
0.0
  0
LINE
  5
2BD2
330
1E
100
AcDbEntity
  8
7
100
AcDbLine
 10
-9.77263779527559
 20
1.33267716535433
 30
0.0
 11
-9.77263779527559
 21
1.254921259842519
 31
0.0
  0
LINE
  5
2BD3
330
1E
100
AcDbEntity
  8
7
100
AcDbLine
 10
-10.77165354330708
 20
1.007874015748031
 30
0.0
 11
-10.77066929133858
 21
1.007874015748031
 31
0.0
  0
LINE
  5
2BD9
330
1E
100
AcDbEntity
  8
7
100
AcDbLine
 10
-10.70964566929133
 20
1.254921259842519
 30
0.0
 11
-10.89862204724409
 21
1.254921259842519
 31
0.0
  0
LINE
  5
2BDA
330
1E
100
AcDbEntity
  8
7
100
AcDbLine
 10
-10.70964566929133
 20
1.254921259842519
 30
0.0
 11
-10.70964566929133
 21
1.194881889763779
 31
0.0
  0
LINE
  5
2BDB
330
1E
100
AcDbEntity
  8
7
100
AcDbLine
 10
-10.12992125984252
 20
1.194881889763779
 30
0.0
 11
-10.70964566929133
 21
1.194881889763779
 31
0.0
  0
LINE
  5
2BEA
330
1E
100
AcDbEntity
  8
7
100
AcDbLine
 10
-9.43503937007874
 20
1.007874015748031
 30
0.0
 11
-9.434055118110237
 21
1.007874015748031
 31
0.0
  0
LINE
  5
2BEB
330
1E
100
AcDbEntity
  8
7
100
AcDbLine
 10
-10.11220472440944
 20
0.606299212598425
 30
0.0
 11
-10.09251968503937
 21
0.606299212598425
 31
0.0
  0
LINE
  5
2BEC
330
1E
100
AcDbEntity
  8
7
100
AcDbLine
 10
-10.73425196850393
 20
1.124015748031496
 30
0.0
 11
-10.73425196850393
 21
1.127952755905512
 31
0.0
  0
LINE
  5
2BED
330
1E
100
AcDbEntity
  8
7
100
AcDbLine
 10
-10.76377952755905
 20
1.127952755905512
 30
0.0
 11
-10.73425196850393
 21
1.127952755905512
 31
0.0
  0
LINE
  5
2BEE
330
1E
100
AcDbEntity
  8
7
100
AcDbLine
 10
-9.470472440944881
 20
1.127952755905512
 30
0.0
 11
-9.470472440944881
 21
1.124015748031496
 31
0.0
  0
LINE
  5
2BEF
330
1E
100
AcDbEntity
  8
7
100
AcDbLine
 10
-9.689960629921259
 20
1.26279527559055
 30
0.0
 11
-9.77263779527559
 21
1.26279527559055
 31
0.0
  0
LINE
  5
2BF6
330
1E
100
AcDbEntity
  8
7
100
AcDbLine
 10
-10.52263779527559
 20
1.270669291338582
 30
0.0
 11
-10.52263779527559
 21
1.271653543307087
 31
0.0
  0
LINE
  5
2C0A
330
1E
100
AcDbEntity
  8
7
100
AcDbLine
 10
-9.797244094488188
 20
1.26279527559055
 30
0.0
 11
-9.87992125984252
 21
1.26279527559055
 31
0.0
  0
LINE
  5
2C0B
330
1E
100
AcDbEntity
  8
7
100
AcDbLine
 10
-9.873031496062992
 20
1.299212598425197
 30
0.0
 11
-9.883858267716535
 21
1.299212598425197
 31
0.0
  0
LINE
  5
2C0C
330
1E
100
AcDbEntity
  8
7
100
AcDbLine
 10
-9.887795275590551
 20
1.271653543307087
 30
0.0
 11
-9.883858267716535
 21
1.299212598425197
 31
0.0
  0
LINE
  5
2C0D
330
1E
100
AcDbEntity
  8
7
100
AcDbLine
 10
-10.31692913385826
 20
1.271653543307087
 30
0.0
 11
-10.32086614173228
 21
1.299212598425197
 31
0.0
  0
LINE
  5
2C0E
330
1E
100
AcDbEntity
  8
7
100
AcDbLine
 10
-10.33267716535433
 20
1.299212598425197
 30
0.0
 11
-10.32086614173228
 21
1.299212598425197
 31
0.0
  0
LINE
  5
2C0F
330
1E
100
AcDbEntity
  8
7
100
AcDbLine
 10
-10.51968503937007
 20
1.299212598425197
 30
0.0
 11
-10.50787401574803
 21
1.299212598425197
 31
0.0
  0
LINE
  5
2C10
330
1E
100
AcDbEntity
  8
7
100
AcDbLine
 10
-10.51968503937007
 20
1.299212598425197
 30
0.0
 11
-10.52263779527559
 21
1.271653543307087
 31
0.0
  0
LINE
  5
2C11
330
1E
100
AcDbEntity
  8
7
100
AcDbLine
 10
-9.876968503937007
 20
1.330708661417323
 30
0.0
 11
-9.802165354330709
 21
1.330708661417323
 31
0.0
  0
LINE
  5
2C12
330
1E
100
AcDbEntity
  8
7
100
AcDbLine
 10
-9.876968503937007
 20
1.330708661417323
 30
0.0
 11
-9.881889763779527
 21
1.328740157480314
 31
0.0
  0
LINE
  5
2C13
330
1E
100
AcDbEntity
  8
7
100
AcDbLine
 10
-9.881889763779527
 20
1.328740157480314
 30
0.0
 11
-9.883858267716535
 21
1.322834645669291
 31
0.0
  0
LINE
  5
2C14
330
1E
100
AcDbEntity
  8
7
100
AcDbLine
 10
-9.883858267716535
 20
1.299212598425197
 30
0.0
 11
-9.883858267716535
 21
1.322834645669291
 31
0.0
  0
LINE
  5
2C1C
330
1E
100
AcDbEntity
  8
7
100
AcDbLine
 10
-9.797244094488188
 20
1.331692913385826
 30
0.0
 11
-9.802165354330709
 21
1.330708661417323
 31
0.0
  0
LINE
  5
2C1D
330
1E
100
AcDbEntity
  8
7
100
AcDbLine
 10
-9.803149606299212
 20
1.299212598425197
 30
0.0
 11
-9.797244094488188
 21
1.27263779527559
 31
0.0
  0
LINE
  5
2C1E
330
1E
100
AcDbEntity
  8
7
100
AcDbLine
 10
-9.686023622047244
 20
1.322834645669291
 30
0.0
 11
-9.686023622047244
 21
1.299212598425197
 31
0.0
  0
LINE
  5
2C24
330
1E
100
AcDbEntity
  8
7
100
AcDbLine
 10
-9.76771653543307
 20
1.330708661417323
 30
0.0
 11
-9.693897637795275
 21
1.330708661417323
 31
0.0
  0
LINE
  5
2C2C
330
1E
100
AcDbEntity
  8
7
100
AcDbLine
 10
-9.686023622047244
 20
1.299212598425197
 30
0.0
 11
-9.697834645669292
 21
1.299212598425197
 31
0.0
  0
LINE
  5
2C2D
330
1E
100
AcDbEntity
  8
7
100
AcDbLine
 10
-9.76771653543307
 20
1.330708661417323
 30
0.0
 11
-9.77263779527559
 21
1.331692913385826
 31
0.0
  0
LINE
  5
2C2E
330
1E
100
AcDbEntity
  8
7
100
AcDbLine
 10
-9.77263779527559
 20
1.27263779527559
 30
0.0
 11
-9.76771653543307
 21
1.299212598425197
 31
0.0
  0
LINE
  5
2C2F
330
1E
100
AcDbEntity
  8
7
100
AcDbLine
 10
-10.40255905511811
 20
1.330708661417323
 30
0.0
 11
-10.40255905511811
 21
1.299212598425197
 31
0.0
  0
LINE
  5
2C30
330
1E
100
AcDbEntity
  8
7
100
AcDbLine
 10
-10.40255905511811
 20
1.330708661417323
 30
0.0
 11
-10.40846456692913
 21
1.331692913385826
 31
0.0
  0
LINE
  5
2C31
330
1E
100
AcDbEntity
  8
7
100
AcDbLine
 10
-10.40846456692913
 20
1.27263779527559
 30
0.0
 11
-10.40255905511811
 21
1.299212598425197
 31
0.0
  0
LINE
  5
2C32
330
1E
100
AcDbEntity
  8
7
100
AcDbLine
 10
-10.43208661417323
 20
1.331692913385826
 30
0.0
 11
-10.43700787401574
 21
1.330708661417323
 31
0.0
  0
LINE
  5
2C33
330
1E
100
AcDbEntity
  8
7
100
AcDbLine
 10
-10.43799212598425
 20
1.299212598425197
 30
0.0
 11
-10.43700787401574
 21
1.330708661417323
 31
0.0
  0
LINE
  5
2C34
330
1E
100
AcDbEntity
  8
7
100
AcDbLine
 10
-10.43799212598425
 20
1.299212598425197
 30
0.0
 11
-10.43208661417323
 21
1.27263779527559
 31
0.0
  0
LINE
  5
2C3F
330
1E
100
AcDbEntity
  8
7
100
AcDbLine
 10
-9.880905511811024
 20
1.260826771653543
 30
0.0
 11
-9.797244094488188
 21
1.260826771653543
 31
0.0
  0
LINE
  5
2C40
330
1E
100
AcDbEntity
  8
7
100
AcDbLine
 10
-9.880905511811024
 20
1.260826771653543
 30
0.0
 11
-9.881889763779527
 21
1.254921259842519
 31
0.0
  0
LINE
  5
2C46
330
1E
100
AcDbEntity
  8
7
100
AcDbLine
 10
-9.686023622047244
 20
1.299212598425197
 30
0.0
 11
-9.682086614173229
 21
1.271653543307087
 31
0.0
  0
LINE
  5
2C47
330
1E
100
AcDbEntity
  8
7
100
AcDbLine
 10
-9.687992125984251
 20
1.254921259842519
 30
0.0
 11
-9.688976377952755
 21
1.260826771653543
 31
0.0
  0
LINE
  5
2C48
330
1E
100
AcDbEntity
  8
7
100
AcDbLine
 10
-10.50787401574803
 20
1.267716535433071
 30
0.0
 11
-10.50787401574803
 21
1.299212598425197
 31
0.0
  0
LINE
  5
2C49
330
1E
100
AcDbEntity
  8
7
100
AcDbLine
 10
-10.33267716535433
 20
1.299212598425197
 30
0.0
 11
-10.33267716535433
 21
1.267716535433071
 31
0.0
  0
LINE
  5
2C5A
330
1E
100
AcDbEntity
  8
7
100
AcDbLine
 10
-10.12499999999999
 20
1.183070866141732
 30
0.0
 11
-10.12499999999999
 21
1.230314960629921
 31
0.0
  0
LINE
  5
2C5B
330
1E
100
AcDbEntity
  8
7
100
AcDbLine
 10
-10.07972440944881
 20
1.230314960629921
 30
0.0
 11
-10.07972440944881
 21
1.183070866141732
 31
0.0
  0
LINE
  5
2C5C
330
1E
100
AcDbEntity
  8
7
100
AcDbLine
 10
-9.490157480314961
 20
1.183070866141732
 30
0.0
 11
-9.490157480314961
 21
1.230314960629921
 31
0.0
  0
LINE
  5
2C5D
330
1E
100
AcDbEntity
  8
7
100
AcDbLine
 10
-10.71555118110236
 20
1.230314960629921
 30
0.0
 11
-10.71555118110236
 21
1.183070866141732
 31
0.0
  0
LINE
  5
2C65
330
1E
100
AcDbEntity
  8
7
100
AcDbLine
 10
-10.43799212598425
 20
1.267716535433071
 30
0.0
 11
-10.50787401574803
 21
1.267716535433071
 31
0.0
  0
LINE
  5
2C66
330
1E
100
AcDbEntity
  8
7
100
AcDbLine
 10
-10.43799212598425
 20
1.267716535433071
 30
0.0
 11
-10.43799212598425
 21
1.299212598425197
 31
0.0
  0
LINE
  5
2C6E
330
1E
100
AcDbEntity
  8
7
100
AcDbLine
 10
-10.40255905511811
 20
1.299212598425197
 30
0.0
 11
-10.4015748031496
 21
1.267716535433071
 31
0.0
  0
LINE
  5
2C6F
330
1E
100
AcDbEntity
  8
7
100
AcDbLine
 10
-10.33267716535433
 20
1.267716535433071
 30
0.0
 11
-10.4015748031496
 21
1.267716535433071
 31
0.0
  0
LINE
  5
2C75
330
1E
100
AcDbEntity
  8
7
100
AcDbLine
 10
-10.72047244094488
 20
1.186023622047244
 30
0.0
 11
-10.77460629921259
 21
1.186023622047244
 31
0.0
  0
LINE
  5
2C84
330
1E
100
AcDbEntity
  8
7
100
AcDbLine
 10
-10.72047244094488
 20
1.186023622047244
 30
0.0
 11
-10.72047244094488
 21
1.232283464566928
 31
0.0
  0
LINE
  5
2C85
330
1E
100
AcDbEntity
  8
7
100
AcDbLine
 10
-10.87992125984251
 20
1.232283464566928
 30
0.0
 11
-10.87401574803149
 21
1.21259842519685
 31
0.0
  0
LINE
  5
2C86
330
1E
100
AcDbEntity
  8
7
100
AcDbLine
 10
-10.87401574803149
 20
1.113188976377952
 30
0.0
 11
-10.87401574803149
 21
1.21259842519685
 31
0.0
  0
LINE
  5
2C87
330
1E
100
AcDbEntity
  8
7
100
AcDbLine
 10
-10.87401574803149
 20
1.113188976377952
 30
0.0
 11
-10.7755905511811
 21
1.113188976377952
 31
0.0
  0
LINE
  5
2C8D
330
1E
100
AcDbEntity
  8
7
100
AcDbLine
 10
-9.255905511811024
 20
0.0728346456692917
 30
0.0
 11
-10.94881889763779
 21
0.0728346456692917
 31
0.0
  0
LINE
  5
2C93
330
1E
100
AcDbEntity
  8
7
100
AcDbLine
 10
-10.95669291338582
 20
0.0649606299212602
 30
0.0
 11
-10.94881889763779
 21
0.0728346456692917
 31
0.0
  0
LINE
  5
2C94
330
1E
100
AcDbEntity
  8
7
100
AcDbLine
 10
-9.248031496062992
 20
0.0649606299212602
 30
0.0
 11
-10.95669291338582
 21
0.0649606299212602
 31
0.0
  0
LINE
  5
2C95
330
1E
100
AcDbEntity
  8
7
100
AcDbLine
 10
-9.248031496062992
 20
0.0649606299212602
 30
0.0
 11
-9.255905511811024
 21
0.0728346456692917
 31
0.0
  0
LINE
  5
2C96
330
1E
100
AcDbEntity
  8
7
100
AcDbLine
 10
-9.176181102362205
 20
1.428149606299212
 30
0.0
 11
-11.02952755905511
 21
1.428149606299212
 31
0.0
  0
LINE
  5
2C9C
330
1E
100
AcDbEntity
  8
7
100
AcDbLine
 10
-9.173228346456692
 20
1.4251968503937
 30
0.0
 11
-9.176181102362205
 21
1.422244094488188
 31
0.0
  0
LINE
  5
2C9D
330
1E
100
AcDbEntity
  8
7
100
AcDbLine
 10
-9.176181102362205
 20
1.428149606299212
 30
0.0
 11
-9.173228346456692
 21
1.4251968503937
 31
0.0
  0
LINE
  5
2C9E
330
1E
100
AcDbEntity
  8
7
100
AcDbLine
 10
-11.02952755905511
 20
1.473425196850393
 30
0.0
 11
-9.176181102362205
 21
1.473425196850393
 31
0.0
  0
LINE
  5
2C9F
330
1E
100
AcDbEntity
  8
7
100
AcDbLine
 10
-11.02952755905511
 20
1.428149606299212
 30
0.0
 11
-11.02952755905511
 21
1.473425196850393
 31
0.0
  0
LINE
  5
2CA0
330
1E
100
AcDbEntity
  8
7
100
AcDbLine
 10
-9.176181102362205
 20
1.428149606299212
 30
0.0
 11
-9.176181102362205
 21
1.473425196850393
 31
0.0
  0
LINE
  5
2CA7
330
1E
100
AcDbEntity
  8
7
100
AcDbLine
 10
-9.169291338582677
 20
1.480314960629921
 30
0.0
 11
-9.176181102362205
 21
1.473425196850393
 31
0.0
  0
LINE
  5
2CA8
330
1E
100
AcDbEntity
  8
7
100
AcDbLine
 10
-9.176181102362205
 20
1.486220472440944
 30
0.0
 11
-9.169291338582677
 21
1.480314960629921
 31
0.0
  0
LINE
  5
2CA9
330
1E
100
AcDbEntity
  8
7
100
AcDbLine
 10
-11.02952755905511
 20
1.486220472440944
 30
0.0
 11
-11.04625984251968
 21
1.900590551181102
 31
0.0
  0
LINE
  5
2CD3
330
1E
100
AcDbEntity
  8
7
100
AcDbLine
 10
-9.380905511811024
 20
1.698818897637795
 30
0.0
 11
-9.380905511811024
 21
1.943897637795275
 31
0.0
  0
LINE
  5
2CDA
330
1E
100
AcDbEntity
  8
7
100
AcDbLine
 10
-10.18110236220472
 20
1.690944881889763
 30
0.0
 11
-10.02362204724409
 21
1.690944881889763
 31
0.0
  0
LINE
  5
2CFE
330
1E
100
AcDbEntity
  8
7
100
AcDbLine
 10
-10.76968503937008
 20
1.975393700787401
 30
0.0
 11
-10.76968503937008
 21
1.667322834645669
 31
0.0
  0
LINE
  5
2CFF
330
1E
100
AcDbEntity
  8
7
100
AcDbLine
 10
-9.436023622047244
 20
1.975393700787401
 30
0.0
 11
-9.436023622047244
 21
1.667322834645669
 31
0.0
  0
LINE
  5
2D00
330
1E
100
AcDbEntity
  8
7
100
AcDbLine
 10
-10.95669291338582
 20
2.033464566929134
 30
0.0
 11
-9.248031496062992
 21
2.033464566929134
 31
0.0
  0
LINE
  5
2D01
330
1E
100
AcDbEntity
  8
7
100
AcDbLine
 10
-10.94586614173228
 20
2.02263779527559
 30
0.0
 11
-10.95669291338582
 21
2.033464566929134
 31
0.0
  0
LINE
  5
2D02
330
1E
100
AcDbEntity
  8
7
100
AcDbLine
 10
-10.94586614173228
 20
2.02263779527559
 30
0.0
 11
-9.25984251968504
 21
2.02263779527559
 31
0.0
  0
LINE
  5
2D03
330
1E
100
AcDbEntity
  8
7
100
AcDbLine
 10
-9.25984251968504
 20
2.02263779527559
 30
0.0
 11
-9.248031496062992
 21
2.033464566929134
 31
0.0
  0
LINE
  5
2D1A
330
1E
100
AcDbEntity
  8
7
100
AcDbLine
 10
-11.08661417322834
 20
0.1948818897637796
 30
0.0
 11
-11.08661417322834
 21
1.904527559055118
 31
0.0
  0
LINE
  5
2D2D
330
1E
100
AcDbEntity
  8
7
100
AcDbLine
 10
-9.118110236220472
 20
0.1948818897637796
 30
0.0
 11
-9.118110236220472
 21
1.904527559055118
 31
0.0
  0
LINE
  5
2D40
330
1E
100
AcDbEntity
  8
7
100
AcDbLine
 10
-9.331692913385827
 20
1.113188976377952
 30
0.0
 11
-9.429133858267716
 21
1.113188976377952
 31
0.0
  0
LINE
  5
2D41
330
1E
100
AcDbEntity
  8
7
100
AcDbLine
 10
-9.331692913385827
 20
1.113188976377952
 30
0.0
 11
-9.331692913385827
 21
1.21259842519685
 31
0.0
  0
LINE
  5
2D42
330
1E
100
AcDbEntity
  8
7
100
AcDbLine
 10
-9.331692913385827
 20
1.21259842519685
 30
0.0
 11
-9.325787401574803
 21
1.232283464566928
 31
0.0
  0
LINE
  5
2D79
330
1E
100
AcDbEntity
  8
7
100
AcDbLine
 10
-10.18110236220472
 20
1.946850393700787
 30
0.0
 11
-10.18110236220472
 21
1.948818897637795
 31
0.0
  0
LINE
  5
2D7A
330
1E
100
AcDbEntity
  8
7
100
AcDbLine
 10
-10.02362204724409
 20
1.946850393700787
 30
0.0
 11
-10.18110236220472
 21
1.946850393700787
 31
0.0
  0
LINE
  5
2D7B
330
1E
100
AcDbEntity
  8
7
100
AcDbLine
 10
-10.02362204724409
 20
1.946850393700787
 30
0.0
 11
-10.02362204724409
 21
1.948818897637795
 31
0.0
  0
LINE
  5
2D87
330
1E
100
AcDbEntity
  8
7
100
AcDbLine
 10
-10.18110236220472
 20
1.748031496062992
 30
0.0
 11
-10.02362204724409
 21
1.748031496062992
 31
0.0
  0
LINE
  5
2D94
330
1E
100
AcDbEntity
  8
7
100
AcDbLine
 10
-10.02362204724409
 20
1.893700787401574
 30
0.0
 11
-10.18110236220472
 21
1.893700787401574
 31
0.0
  0
LINE
  5
2DAF
330
1E
100
AcDbEntity
  8
7
100
AcDbLine
 10
-10.02362204724409
 20
1.710629921259842
 30
0.0
 11
-10.18110236220472
 21
1.710629921259842
 31
0.0
  0
LINE
  5
2DBD
330
1E
100
AcDbEntity
  8
7
100
AcDbLine
 10
-9.992125984251968
 20
1.926181102362204
 30
0.0
 11
-10.02362204724409
 21
1.931102362204724
 31
0.0
  0
LINE
  5
2DBE
330
1E
100
AcDbEntity
  8
7
100
AcDbLine
 10
-10.02362204724409
 20
1.695866141732283
 30
0.0
 11
-10.02362204724409
 21
1.690944881889763
 31
0.0
  0
LINE
  5
2DBF
330
1E
100
AcDbEntity
  8
7
100
AcDbLine
 10
-10.18110236220472
 20
1.695866141732283
 30
0.0
 11
-10.02362204724409
 21
1.695866141732283
 31
0.0
  0
LINE
  5
2DC0
330
1E
100
AcDbEntity
  8
7
100
AcDbLine
 10
-10.18110236220472
 20
1.695866141732283
 30
0.0
 11
-10.18110236220472
 21
1.690944881889763
 31
0.0
  0
LINE
  5
2DD8
330
1E
100
AcDbEntity
  8
7
100
AcDbLine
 10
-9.968503937007874
 20
1.869094488188975
 30
0.0
 11
-10.23622047244094
 21
1.869094488188975
 31
0.0
  0
LINE
  5
2DD9
330
1E
100
AcDbEntity
  8
7
100
AcDbLine
 10
-9.968503937007874
 20
1.773622047244094
 30
0.0
 11
-10.23622047244094
 21
1.773622047244094
 31
0.0
  0
LINE
  5
2E3A
330
1E
100
AcDbEntity
  8
7
100
AcDbLine
 10
-10.07480314960629
 20
1.18011811023622
 30
0.0
 11
-10.07480314960629
 21
1.179133858267716
 31
0.0
  0
LINE
  5
2E45
330
1E
100
AcDbEntity
  8
7
100
AcDbLine
 10
-10.12992125984252
 20
1.18011811023622
 30
0.0
 11
-10.70964566929133
 21
1.18011811023622
 31
0.0
  0
LINE
  5
2E46
330
1E
100
AcDbEntity
  8
7
100
AcDbLine
 10
-10.12992125984252
 20
1.18011811023622
 30
0.0
 11
-10.12992125984252
 21
1.188976377952755
 31
0.0
  0
LINE
  5
2E47
330
1E
100
AcDbEntity
  8
7
100
AcDbLine
 10
-10.70964566929133
 20
1.188976377952755
 30
0.0
 11
-10.12992125984252
 21
1.188976377952755
 31
0.0
  0
LINE
  5
2E48
330
1E
100
AcDbEntity
  8
7
100
AcDbLine
 10
-10.70964566929133
 20
1.188976377952755
 30
0.0
 11
-10.70964566929133
 21
1.18011811023622
 31
0.0
  0
LINE
  5
2E7C
330
1E
100
AcDbEntity
  8
7
100
AcDbLine
 10
-9.127952755905511
 20
0.2047244094488185
 30
0.0
 11
-9.131889763779527
 21
0.1712598425196852
 31
0.0
  0
LINE
  5
2E85
330
1E
100
AcDbEntity
  8
7
100
AcDbLine
 10
-9.331692913385827
 20
1.003937007874015
 30
0.0
 11
-9.43011811023622
 21
1.003937007874015
 31
0.0
  0
LINE
  5
2E86
330
1E
100
AcDbEntity
  8
7
100
AcDbLine
 10
-9.433070866141733
 20
0.9488188976377953
 30
0.0
 11
-9.331692913385827
 21
0.9488188976377953
 31
0.0
  0
LINE
  5
2E87
330
1E
100
AcDbEntity
  8
7
100
AcDbLine
 10
-10.01476377952756
 20
1.107283464566928
 30
0.0
 11
-10.18996062992125
 21
1.107283464566928
 31
0.0
  0
LINE
  5
2E88
330
1E
100
AcDbEntity
  8
7
100
AcDbLine
 10
-10.01476377952756
 20
1.067913385826771
 30
0.0
 11
-10.18996062992125
 21
1.067913385826771
 31
0.0
  0
LINE
  5
2E89
330
1E
100
AcDbEntity
  8
7
100
AcDbLine
 10
-10.04429133858267
 20
0.2421259842519685
 30
0.0
 11
-10.16141732283464
 21
0.2421259842519685
 31
0.0
  0
LINE
  5
2E8A
330
1E
100
AcDbEntity
  8
7
100
AcDbLine
 10
-10.04429133858267
 20
0.3297244094488185
 30
0.0
 11
-10.16141732283464
 21
0.3297244094488185
 31
0.0
  0
LINE
  5
2EC1
330
1E
100
AcDbEntity
  8
7
100
AcDbLine
 10
-10.11220472440944
 20
0.7165354330708658
 30
0.0
 11
-10.09251968503937
 21
0.7165354330708658
 31
0.0
  0
LINE
  5
2EC7
330
1E
100
AcDbEntity
  8
7
100
AcDbLine
 10
-10.87401574803149
 20
1.003937007874015
 30
0.0
 11
-10.77460629921259
 21
1.003937007874015
 31
0.0
  0
LINE
  5
2EDF
330
1E
100
AcDbEntity
  8
7
100
AcDbLine
 10
-11.07086614173228
 20
1.88779527559055
 30
0.0
 11
-11.05413385826771
 21
1.473425196850393
 31
0.0
  0
LINE
  5
2EE0
330
1E
100
AcDbEntity
  8
7
100
AcDbLine
 10
-11.07086614173228
 20
1.88779527559055
 30
0.0
 11
-11.06299212598425
 21
1.896653543307087
 31
0.0
  0
LINE
  5
2EE1
330
1E
100
AcDbEntity
  8
7
100
AcDbLine
 10
-11.06299212598425
 20
1.896653543307087
 30
0.0
 11
-11.04625984251968
 21
1.900590551181102
 31
0.0
  0
LINE
  5
2EEC
330
1E
100
AcDbEntity
  8
7
100
AcDbLine
 10
-11.08661417322834
 20
1.904527559055118
 30
0.0
 11
-11.07086614173228
 21
1.88779527559055
 31
0.0
  0
LINE
  5
2EFB
330
1E
100
AcDbEntity
  8
7
100
AcDbLine
 10
-11.0521653543307
 20
0.1988188976377954
 30
0.0
 11
-11.06889763779527
 21
0.2007874015748028
 31
0.0
  0
LINE
  5
2EFC
330
1E
100
AcDbEntity
  8
7
100
AcDbLine
 10
-11.06889763779527
 20
0.2007874015748028
 30
0.0
 11
-11.0767716535433
 21
0.2047244094488185
 31
0.0
  0
LINE
  5
2F0A
330
1E
100
AcDbEntity
  8
7
100
AcDbLine
 10
-10.71555118110236
 20
1.193897637795275
 30
0.0
 11
-10.71358267716535
 21
1.194881889763779
 31
0.0
  0
LINE
  5
2F0B
330
1E
100
AcDbEntity
  8
7
100
AcDbLine
 10
-10.71358267716535
 20
1.194881889763779
 30
0.0
 11
-10.70964566929133
 21
1.194881889763779
 31
0.0
  0
LINE
  5
2F93
330
1E
100
AcDbEntity
  8
7
100
AcDbLine
 10
-10.12499999999999
 20
1.230314960629921
 30
0.0
 11
-10.1259842519685
 21
1.239173228346456
 31
0.0
  0
LINE
  5
2F94
330
1E
100
AcDbEntity
  8
7
100
AcDbLine
 10
-10.1259842519685
 20
1.239173228346456
 30
0.0
 11
-10.12992125984252
 21
1.254921259842519
 31
0.0
  0
LINE
  5
2FFD
330
1E
100
AcDbEntity
  8
7
100
AcDbLine
 10
-9.471456692913385
 20
1.127952755905512
 30
0.0
 11
-10.01476377952756
 21
1.127952755905512
 31
0.0
  0
LINE
  5
2FFE
330
1E
100
AcDbEntity
  8
7
100
AcDbLine
 10
-10.73425196850393
 20
1.127952755905512
 30
0.0
 11
-10.18996062992125
 21
1.127952755905512
 31
0.0
  0
LINE
  5
2FFF
330
1E
100
AcDbEntity
  8
7
100
AcDbLine
 10
-9.87992125984252
 20
1.26279527559055
 30
0.0
 11
-9.880905511811024
 21
1.260826771653543
 31
0.0
  0
LINE
  5
3000
330
1E
100
AcDbEntity
  8
7
100
AcDbLine
 10
-10.32381889763779
 20
1.260826771653543
 30
0.0
 11
-10.3257874015748
 21
1.26279527559055
 31
0.0
  0
LINE
  5
3001
330
1E
100
AcDbEntity
  8
7
100
AcDbLine
 10
-10.51476377952756
 20
1.26279527559055
 30
0.0
 11
-10.51574803149606
 21
1.260826771653543
 31
0.0
  0
LINE
  5
3002
330
1E
100
AcDbEntity
  8
7
100
AcDbLine
 10
-10.51673228346456
 20
1.33267716535433
 30
0.0
 11
-10.51181102362204
 21
1.330708661417323
 31
0.0
  0
LINE
  5
3003
330
1E
100
AcDbEntity
  8
7
100
AcDbLine
 10
-10.32874015748031
 20
1.330708661417323
 30
0.0
 11
-10.32381889763779
 21
1.33267716535433
 31
0.0
  0
LINE
  5
3004
330
1E
100
AcDbEntity
  8
7
100
AcDbLine
 10
-9.693897637795275
 20
1.330708661417323
 30
0.0
 11
-9.688976377952755
 21
1.33267716535433
 31
0.0
  0
LINE
  5
3005
330
1E
100
AcDbEntity
  8
7
100
AcDbLine
 10
-9.880905511811024
 20
1.33267716535433
 30
0.0
 11
-9.876968503937007
 21
1.330708661417323
 31
0.0
  0
LINE
  5
3006
330
1E
100
AcDbEntity
  8
7
100
AcDbLine
 10
-10.51968503937007
 20
1.322834645669291
 30
0.0
 11
-10.52460629921259
 21
1.324803149606299
 31
0.0
  0
LINE
  5
300C
330
1E
100
AcDbEntity
  8
7
100
AcDbLine
 10
-10.31594488188976
 20
1.324803149606299
 30
0.0
 11
-10.32086614173228
 21
1.322834645669291
 31
0.0
  0
LINE
  5
3012
330
1E
100
AcDbEntity
  8
7
100
AcDbLine
 10
-9.883858267716535
 20
1.322834645669291
 30
0.0
 11
-9.888779527559055
 21
1.324803149606299
 31
0.0
  0
LINE
  5
3018
330
1E
100
AcDbEntity
  8
7
100
AcDbLine
 10
-9.681102362204725
 20
1.324803149606299
 30
0.0
 11
-9.686023622047244
 21
1.322834645669291
 31
0.0
  0
LINE
  5
3037
330
1E
100
AcDbEntity
  8
7
100
AcDbLine
 10
-10.00984251968504
 20
1.040354330708661
 30
0.0
 11
-10.00984251968504
 21
1.053149606299212
 31
0.0
  0
LINE
  5
3046
330
1E
100
AcDbEntity
  8
7
100
AcDbLine
 10
-9.43503937007874
 20
0.7253937007874019
 30
0.0
 11
-9.43503937007874
 21
0.728346456692913
 31
0.0
  0
LINE
  5
3051
330
1E
100
AcDbEntity
  8
7
100
AcDbLine
 10
-9.43503937007874
 20
0.7253937007874019
 30
0.0
 11
-9.43503937007874
 21
0.7155511811023621
 31
0.0
  0
LINE
  5
305F
330
1E
100
AcDbEntity
  8
7
100
AcDbLine
 10
-9.454724409448818
 20
1.123031496062992
 30
0.0
 11
-9.454724409448818
 21
1.124015748031496
 31
0.0
  0
LINE
  5
3060
330
1E
100
AcDbEntity
  8
7
100
AcDbLine
 10
-9.450787401574803
 20
1.124015748031496
 30
0.0
 11
-9.454724409448818
 21
1.123031496062992
 31
0.0
  0
LINE
  5
3061
330
1E
100
AcDbEntity
  8
7
100
AcDbLine
 10
-9.484251968503937
 20
1.123031496062992
 30
0.0
 11
-9.484251968503937
 21
1.124015748031496
 31
0.0
  0
LINE
  5
3099
330
1E
100
AcDbEntity
  8
7
100
AcDbLine
 10
-9.484251968503937
 20
1.02755905511811
 30
0.0
 11
-9.454724409448818
 21
1.02755905511811
 31
0.0
  0
LINE
  5
309A
330
1E
100
AcDbEntity
  8
7
100
AcDbLine
 10
-9.484251968503937
 20
1.040354330708661
 30
0.0
 11
-9.454724409448818
 21
1.040354330708661
 31
0.0
  0
LINE
  5
309B
330
1E
100
AcDbEntity
  8
7
100
AcDbLine
 10
-9.43503937007874
 20
1.032480314960629
 30
0.0
 11
-9.43503937007874
 21
0.8267716535433073
 31
0.0
  0
LINE
  5
309C
330
1E
100
AcDbEntity
  8
7
100
AcDbLine
 10
-9.43011811023622
 20
1.05511811023622
 30
0.0
 11
-9.436023622047244
 21
1.05511811023622
 31
0.0
  0
LINE
  5
309D
330
1E
100
AcDbEntity
  8
7
100
AcDbLine
 10
-9.432086614173229
 20
1.089566929133858
 30
0.0
 11
-9.436023622047244
 21
1.089566929133858
 31
0.0
  0
LINE
  5
30AA
330
1E
100
AcDbEntity
  8
7
100
AcDbLine
 10
-9.959645669291338
 20
1.040354330708661
 30
0.0
 11
-10.00984251968504
 21
1.040354330708661
 31
0.0
  0
LINE
  5
30B6
330
1E
100
AcDbEntity
  8
7
100
AcDbLine
 10
-10.07283464566929
 20
1.019685039370078
 30
0.0
 11
-10.01771653543306
 21
1.019685039370078
 31
0.0
  0
LINE
  5
30C9
330
1E
100
AcDbEntity
  8
7
100
AcDbLine
 10
-9.484251968503937
 20
1.09251968503937
 30
0.0
 11
-9.959645669291338
 21
1.09251968503937
 31
0.0
  0
LINE
  5
30E5
330
1E
100
AcDbEntity
  8
7
100
AcDbLine
 10
-9.404527559055118
 20
0.6870078740157482
 30
0.0
 11
-9.353346456692914
 21
0.6870078740157482
 31
0.0
  0
LINE
  5
30FD
330
1E
100
AcDbEntity
  8
7
100
AcDbLine
 10
-10.09251968503937
 20
1.024606299212598
 30
0.0
 11
-10.08661417322834
 21
1.021653543307087
 31
0.0
  0
LINE
  5
30FE
330
1E
100
AcDbEntity
  8
7
100
AcDbLine
 10
-10.08661417322834
 20
1.021653543307087
 30
0.0
 11
-10.07283464566929
 21
1.019685039370078
 31
0.0
  0
LINE
  5
30FF
330
1E
100
AcDbEntity
  8
7
100
AcDbLine
 10
-10.09251968503937
 20
0.5610236220472445
 30
0.0
 11
-10.09251968503937
 21
1.024606299212598
 31
0.0
  0
LINE
  5
3113
330
1E
100
AcDbEntity
  8
7
100
AcDbLine
 10
-10.01771653543306
 20
1.032480314960629
 30
0.0
 11
-10.01771653543306
 21
1.019685039370078
 31
0.0
  0
LINE
  5
3114
330
1E
100
AcDbEntity
  8
7
100
AcDbLine
 10
-10.09251968503937
 20
1.02755905511811
 30
0.0
 11
-10.09251968503937
 21
1.024606299212598
 31
0.0
  0
LINE
  5
3115
330
1E
100
AcDbEntity
  8
7
100
AcDbLine
 10
-9.353346456692914
 20
0.6899606299212602
 30
0.0
 11
-9.353346456692914
 21
0.6870078740157482
 31
0.0
  0
LINE
  5
3116
330
1E
100
AcDbEntity
  8
7
100
AcDbLine
 10
-9.404527559055118
 20
0.6899606299212602
 30
0.0
 11
-9.404527559055118
 21
0.6870078740157482
 31
0.0
  0
LINE
  5
312A
330
1E
100
AcDbEntity
  8
7
100
AcDbLine
 10
-10.76082677165354
 20
0.7303149606299213
 30
0.0
 11
-10.76082677165354
 21
0.8129921259842518
 31
0.0
  0
LINE
  5
312B
330
1E
100
AcDbEntity
  8
7
100
AcDbLine
 10
-10.77066929133858
 20
0.728346456692913
 30
0.0
 11
-10.77066929133858
 21
0.7253937007874019
 31
0.0
  0
LINE
  5
3136
330
1E
100
AcDbEntity
  8
7
100
AcDbLine
 10
-10.77066929133858
 20
0.7155511811023621
 30
0.0
 11
-10.77066929133858
 21
0.7253937007874019
 31
0.0
  0
LINE
  5
3137
330
1E
100
AcDbEntity
  8
7
100
AcDbLine
 10
-10.72047244094488
 20
1.124015748031496
 30
0.0
 11
-10.72047244094488
 21
1.123031496062992
 31
0.0
  0
LINE
  5
3160
330
1E
100
AcDbEntity
  8
7
100
AcDbLine
 10
-10.72047244094488
 20
1.054133858267716
 30
0.0
 11
-10.72047244094488
 21
1.040354330708661
 31
0.0
  0
LINE
  5
3173
330
1E
100
AcDbEntity
  8
7
100
AcDbLine
 10
-10.7509842519685
 20
1.02755905511811
 30
0.0
 11
-10.76476377952755
 21
1.029527559055118
 31
0.0
  0
LINE
  5
3174
330
1E
100
AcDbEntity
  8
7
100
AcDbLine
 10
-10.76476377952755
 20
1.029527559055118
 30
0.0
 11
-10.77066929133858
 21
1.032480314960629
 31
0.0
  0
LINE
  5
317A
330
1E
100
AcDbEntity
  8
7
100
AcDbLine
 10
-10.7509842519685
 20
1.123031496062992
 30
0.0
 11
-10.75393700787401
 21
1.124015748031496
 31
0.0
  0
LINE
  5
317B
330
1E
100
AcDbEntity
  8
7
100
AcDbLine
 10
-10.7509842519685
 20
1.124015748031496
 30
0.0
 11
-10.7509842519685
 21
1.123031496062992
 31
0.0
  0
LINE
  5
317C
330
1E
100
AcDbEntity
  8
7
100
AcDbLine
 10
-10.72047244094488
 20
1.040354330708661
 30
0.0
 11
-10.7509842519685
 21
1.040354330708661
 31
0.0
  0
LINE
  5
317D
330
1E
100
AcDbEntity
  8
7
100
AcDbLine
 10
-10.72047244094488
 20
1.02755905511811
 30
0.0
 11
-10.7509842519685
 21
1.02755905511811
 31
0.0
  0
LINE
  5
317E
330
1E
100
AcDbEntity
  8
7
100
AcDbLine
 10
-10.77066929133858
 20
0.8267716535433073
 30
0.0
 11
-10.77066929133858
 21
1.032480314960629
 31
0.0
  0
LINE
  5
317F
330
1E
100
AcDbEntity
  8
7
100
AcDbLine
 10
-10.76870078740157
 20
1.05511811023622
 30
0.0
 11
-10.77460629921259
 21
1.05511811023622
 31
0.0
  0
LINE
  5
3180
330
1E
100
AcDbEntity
  8
7
100
AcDbLine
 10
-10.76870078740157
 20
1.089566929133858
 30
0.0
 11
-10.7755905511811
 21
1.089566929133858
 31
0.0
  0
LINE
  5
3190
330
1E
100
AcDbEntity
  8
7
100
AcDbLine
 10
-10.24507874015748
 20
1.02755905511811
 30
0.0
 11
-10.19488188976378
 21
1.02755905511811
 31
0.0
  0
LINE
  5
3196
330
1E
100
AcDbEntity
  8
7
100
AcDbLine
 10
-10.13287401574803
 20
1.032480314960629
 30
0.0
 11
-10.18700787401574
 21
1.032480314960629
 31
0.0
  0
LINE
  5
3197
330
1E
100
AcDbEntity
  8
7
100
AcDbLine
 10
-10.72047244094488
 20
1.09251968503937
 30
0.0
 11
-10.24507874015748
 21
1.09251968503937
 31
0.0
  0
LINE
  5
31B6
330
1E
100
AcDbEntity
  8
7
100
AcDbLine
 10
-10.8001968503937
 20
0.6899606299212602
 30
0.0
 11
-10.85236220472441
 21
0.6899606299212602
 31
0.0
  0
LINE
  5
31C8
330
1E
100
AcDbEntity
  8
7
100
AcDbLine
 10
-10.11220472440944
 20
1.024606299212598
 30
0.0
 11
-10.11220472440944
 21
0.5610236220472445
 31
0.0
  0
LINE
  5
31E9
330
1E
100
AcDbEntity
  8
7
100
AcDbLine
 10
-10.85236220472441
 20
0.6870078740157482
 30
0.0
 11
-10.8001968503937
 21
0.6870078740157482
 31
0.0
  0
LINE
  5
31F5
330
1E
100
AcDbEntity
  8
7
100
AcDbLine
 10
-10.18700787401574
 20
1.019685039370078
 30
0.0
 11
-10.18700787401574
 21
1.032480314960629
 31
0.0
  0
LINE
  5
31F6
330
1E
100
AcDbEntity
  8
7
100
AcDbLine
 10
-10.11220472440944
 20
1.024606299212598
 30
0.0
 11
-10.11220472440944
 21
1.02755905511811
 31
0.0
  0
LINE
  5
31F7
330
1E
100
AcDbEntity
  8
7
100
AcDbLine
 10
-10.85236220472441
 20
0.6870078740157482
 30
0.0
 11
-10.85236220472441
 21
0.6899606299212602
 31
0.0
  0
LINE
  5
31F8
330
1E
100
AcDbEntity
  8
7
100
AcDbLine
 10
-10.8001968503937
 20
0.6870078740157482
 30
0.0
 11
-10.8001968503937
 21
0.6899606299212602
 31
0.0
  0
LINE
  5
31F9
330
1E
100
AcDbEntity
  8
7
100
AcDbLine
 10
-9.432086614173229
 20
1.086614173228346
 30
0.0
 11
-9.432086614173229
 21
1.089566929133858
 31
0.0
  0
LINE
  5
31FA
330
1E
100
AcDbEntity
  8
7
100
AcDbLine
 10
-9.432086614173229
 20
1.089566929133858
 30
0.0
 11
-9.43011811023622
 21
1.090551181102362
 31
0.0
  0
LINE
  5
3207
330
1E
100
AcDbEntity
  8
7
100
AcDbLine
 10
-7.271653543307087
 20
0.6673228346456695
 30
0.0
 11
-6.904527559055118
 21
0.8533464566929129
 31
0.0
  0
LINE
  5
3220
330
1E
100
AcDbEntity
  8
7
100
AcDbLine
 10
-6.934055118110237
 20
0.9143700787401574
 30
0.0
 11
-6.937992125984252
 21
0.9173228346456694
 31
0.0
  0
LINE
  5
322E
330
1E
100
AcDbEntity
  8
7
100
AcDbLine
 10
-7.271653543307087
 20
0.0649606299212602
 30
0.0
 11
-7.383858267716536
 21
0.0728346456692917
 31
0.0
  0
LINE
  5
322F
330
1E
100
AcDbEntity
  8
7
100
AcDbLine
 10
-7.763779527559055
 20
1.4251968503937
 30
0.0
 11
-7.762795275590551
 21
1.422244094488188
 31
0.0
  0
LINE
  5
3230
330
1E
100
AcDbEntity
  8
7
100
AcDbLine
 10
-7.763779527559055
 20
1.428149606299212
 30
0.0
 11
-7.763779527559055
 21
1.4251968503937
 31
0.0
  0
LINE
  5
3231
330
1E
100
AcDbEntity
  8
7
100
AcDbLine
 10
-7.763779527559055
 20
1.428149606299212
 30
0.0
 11
-7.763779527559055
 21
1.473425196850393
 31
0.0
  0
LINE
  5
3232
330
1E
100
AcDbEntity
  8
7
100
AcDbLine
 10
-7.762795275590551
 20
1.480314960629921
 30
0.0
 11
-7.763779527559055
 21
1.473425196850393
 31
0.0
  0
LINE
  5
3233
330
1E
100
AcDbEntity
  8
7
100
AcDbLine
 10
-7.759842519685039
 20
1.486220472440944
 30
0.0
 11
-7.762795275590551
 21
1.480314960629921
 31
0.0
  0
LINE
  5
323E
330
1E
100
AcDbEntity
  8
7
100
AcDbLine
 10
-7.437992125984252
 20
2.02263779527559
 30
0.0
 11
-7.271653543307087
 21
2.033464566929134
 31
0.0
  0
LINE
  5
324D
330
1E
100
AcDbEntity
  8
7
100
AcDbLine
 10
-7.271653543307087
 20
0.1948818897637796
 30
0.0
 11
-7.271653543307087
 21
1.904527559055118
 31
0.0
  0
LINE
  5
3279
330
1E
100
AcDbEntity
  8
7
100
AcDbLine
 10
-7.661417322834646
 20
0.9458661417322833
 30
0.0
 11
-7.732283464566929
 21
1.21259842519685
 31
0.0
  0
LINE
  5
3281
330
1E
100
AcDbEntity
  8
7
100
AcDbLine
 10
-7.760826771653543
 20
1.003937007874015
 30
0.0
 11
-7.666338582677165
 21
0.9488188976377953
 31
0.0
  0
LINE
  5
3290
330
1E
100
AcDbEntity
  8
7
100
AcDbLine
 10
-7.487204724409449
 20
1.918307086614173
 30
0.0
 11
-7.500984251968504
 21
1.88779527559055
 31
0.0
  0
LINE
  5
32B5
330
1E
100
AcDbEntity
  8
7
100
AcDbLine
 10
-7.634842519685039
 20
0.8267716535433073
 30
0.0
 11
-7.625
 21
0.8297244094488185
 31
0.0
  0
LINE
  5
32BC
330
1E
100
AcDbEntity
  8
7
100
AcDbLine
 10
-7.607283464566929
 20
0.7253937007874019
 30
0.0
 11
-7.597440944881889
 21
0.728346456692913
 31
0.0
  0
LINE
  5
32C2
330
1E
100
AcDbEntity
  8
7
100
AcDbLine
 10
-7.607283464566929
 20
0.7253937007874019
 30
0.0
 11
-7.617125984251968
 21
0.7253937007874019
 31
0.0
  0
LINE
  5
32C3
330
1E
100
AcDbEntity
  8
7
100
AcDbLine
 10
-7.617125984251968
 20
0.7253937007874019
 30
0.0
 11
-7.626968503937008
 21
0.7303149606299213
 31
0.0
  0
LINE
  5
32CA
330
1E
100
AcDbEntity
  8
7
100
AcDbLine
 10
-7.667322834645669
 20
0.949803149606299
 30
0.0
 11
-7.634842519685039
 21
0.8267716535433073
 31
0.0
  0
LINE
  5
32CB
330
1E
100
AcDbEntity
  8
7
100
AcDbLine
 10
-7.625
 20
0.8297244094488185
 30
0.0
 11
-7.654527559055118
 21
0.9399606299212601
 31
0.0
  0
LINE
  5
3320
330
1E
100
AcDbEntity
  8
7
100
AcDbLine
 10
-7.548228346456693
 20
0.5442913385826769
 30
0.0
 11
-7.558070866141732
 21
0.5423228346456695
 31
0.0
  0
LINE
  5
3321
330
1E
100
AcDbEntity
  8
7
100
AcDbLine
 10
-7.58759842519685
 20
0.6899606299212602
 30
0.0
 11
-7.597440944881889
 21
0.6870078740157482
 31
0.0
  0
LINE
  5
3C33
330
1E
100
AcDbEntity
  8
7
100
AcDbLine
 10
-7.58759842519685
 20
0.6899606299212602
 30
0.0
 11
-7.588582677165354
 21
0.6929133858267713
 31
0.0
  0
LINE
  5
3C34
330
1E
100
AcDbEntity
  8
7
100
AcDbLine
 10
-7.588582677165354
 20
0.6929133858267713
 30
0.0
 11
-7.591535433070866
 21
0.7037401574803149
 31
0.0
  0
LINE
  5
3C35
330
1E
100
AcDbEntity
  8
7
100
AcDbLine
 10
-7.591535433070866
 20
0.7037401574803149
 30
0.0
 11
-7.595472440944882
 21
0.7185039370078741
 31
0.0
  0
LINE
  5
3C36
330
1E
100
AcDbEntity
  8
7
100
AcDbLine
 10
-7.595472440944882
 20
0.7185039370078741
 30
0.0
 11
-7.581692913385826
 21
0.7224409448818899
 31
0.0
  0
LINE
  5
3C37
330
1E
100
AcDbEntity
  8
7
100
AcDbLine
 10
-7.581692913385826
 20
0.7224409448818899
 30
0.0
 11
-7.575787401574803
 21
0.7234251968503936
 31
0.0
  0
LINE
  5
3C38
330
1E
100
AcDbEntity
  8
7
100
AcDbLine
 10
-7.548228346456693
 20
0.5442913385826769
 30
0.0
 11
-7.549212598425197
 21
0.5492125984251972
 31
0.0
  0
LINE
  5
3C39
330
1E
100
AcDbEntity
  8
7
100
AcDbLine
 10
-7.549212598425197
 20
0.5492125984251972
 30
0.0
 11
-7.553149606299212
 21
0.5620078740157482
 31
0.0
  0
LINE
  5
3C3A
330
1E
100
AcDbEntity
  8
7
100
AcDbLine
 10
-7.553149606299212
 20
0.5620078740157482
 30
0.0
 11
-7.558070866141732
 21
0.5807086614173232
 31
0.0
  0
LINE
  5
3C3B
330
1E
100
AcDbEntity
  8
7
100
AcDbLine
 10
-7.558070866141732
 20
0.5807086614173232
 30
0.0
 11
-7.56496062992126
 21
0.6043307086614176
 31
0.0
  0
LINE
  5
3C3C
330
1E
100
AcDbEntity
  8
7
100
AcDbLine
 10
-7.56496062992126
 20
0.6043307086614176
 30
0.0
 11
-7.570866141732284
 21
0.6299212598425195
 31
0.0
  0
LINE
  5
3C3D
330
1E
100
AcDbEntity
  8
7
100
AcDbLine
 10
-7.570866141732284
 20
0.6299212598425195
 30
0.0
 11
-7.577755905511811
 21
0.6535433070866139
 31
0.0
  0
LINE
  5
3C3E
330
1E
100
AcDbEntity
  8
7
100
AcDbLine
 10
-7.577755905511811
 20
0.6535433070866139
 30
0.0
 11
-7.582677165354331
 21
0.6722440944881889
 31
0.0
  0
LINE
  5
3C3F
330
1E
100
AcDbEntity
  8
7
100
AcDbLine
 10
-7.582677165354331
 20
0.6722440944881889
 30
0.0
 11
-7.586614173228347
 21
0.6850393700787399
 31
0.0
  0
LINE
  5
3C40
330
1E
100
AcDbEntity
  8
7
100
AcDbLine
 10
-7.586614173228347
 20
0.6850393700787399
 30
0.0
 11
-7.58759842519685
 21
0.6899606299212602
 31
0.0
  0
LINE
  5
3C41
330
1E
100
AcDbEntity
  8
7
100
AcDbLine
 10
-7.562992125984252
 20
0.675196850393701
 30
0.0
 11
-7.571850393700787
 21
0.6870078740157482
 31
0.0
  0
LINE
  5
3C42
330
1E
100
AcDbEntity
  8
7
100
AcDbLine
 10
-7.571850393700787
 20
0.6870078740157482
 30
0.0
 11
-7.586614173228347
 21
0.6889763779527556
 31
0.0
  0
LINE
  5
3C43
330
1E
100
AcDbEntity
  8
7
100
AcDbLine
 10
-7.549212598425197
 20
0.5452755905511815
 30
0.0
 11
-7.537401574803149
 21
0.5541338582677167
 31
0.0
  0
LINE
  5
3C44
330
1E
100
AcDbEntity
  8
7
100
AcDbLine
 10
-7.537401574803149
 20
0.5541338582677167
 30
0.0
 11
-7.535433070866142
 21
0.568897637795276
 31
0.0
  0
LINE
  5
3C45
330
1E
100
AcDbEntity
  8
7
100
AcDbLine
 10
-7.597440944881889
 20
0.6870078740157482
 30
0.0
 11
-7.595472440944882
 21
0.6820866141732287
 31
0.0
  0
LINE
  5
3C46
330
1E
100
AcDbEntity
  8
7
100
AcDbLine
 10
-7.595472440944882
 20
0.6820866141732287
 30
0.0
 11
-7.59251968503937
 21
0.6702755905511815
 31
0.0
  0
LINE
  5
3C47
330
1E
100
AcDbEntity
  8
7
100
AcDbLine
 10
-7.59251968503937
 20
0.6702755905511815
 30
0.0
 11
-7.58759842519685
 21
0.6505905511811028
 31
0.0
  0
LINE
  5
3C48
330
1E
100
AcDbEntity
  8
7
100
AcDbLine
 10
-7.58759842519685
 20
0.6505905511811028
 30
0.0
 11
-7.580708661417323
 21
0.6269685039370084
 31
0.0
  0
LINE
  5
3C49
330
1E
100
AcDbEntity
  8
7
100
AcDbLine
 10
-7.580708661417323
 20
0.6269685039370084
 30
0.0
 11
-7.573818897637795
 21
0.6023622047244093
 31
0.0
  0
LINE
  5
3C4A
330
1E
100
AcDbEntity
  8
7
100
AcDbLine
 10
-7.573818897637795
 20
0.6023622047244093
 30
0.0
 11
-7.567913385826772
 21
0.5787401574803149
 31
0.0
  0
LINE
  5
3C4B
330
1E
100
AcDbEntity
  8
7
100
AcDbLine
 10
-7.567913385826772
 20
0.5787401574803149
 30
0.0
 11
-7.562992125984252
 21
0.5590551181102362
 31
0.0
  0
LINE
  5
3C4C
330
1E
100
AcDbEntity
  8
7
100
AcDbLine
 10
-7.562992125984252
 20
0.5590551181102362
 30
0.0
 11
-7.559055118110237
 21
0.5462598425196852
 31
0.0
  0
LINE
  5
3C4D
330
1E
100
AcDbEntity
  8
7
100
AcDbLine
 10
-7.559055118110237
 20
0.5462598425196852
 30
0.0
 11
-7.558070866141732
 21
0.5423228346456695
 31
0.0
  0
LINE
  5
3C4E
330
1E
100
AcDbEntity
  8
7
100
AcDbLine
 10
-7.581692913385826
 20
0.5561023622047241
 30
0.0
 11
-7.572834645669291
 21
0.5442913385826769
 31
0.0
  0
LINE
  5
3C4F
330
1E
100
AcDbEntity
  8
7
100
AcDbLine
 10
-7.572834645669291
 20
0.5442913385826769
 30
0.0
 11
-7.558070866141732
 21
0.5423228346456695
 31
0.0
  0
LINE
  5
3C50
330
1E
100
AcDbEntity
  8
7
100
AcDbLine
 10
-7.596456692913386
 20
0.6860236220472445
 30
0.0
 11
-7.608267716535433
 21
0.6771653543307084
 31
0.0
  0
LINE
  5
3C51
330
1E
100
AcDbEntity
  8
7
100
AcDbLine
 10
-7.608267716535433
 20
0.6771653543307084
 30
0.0
 11
-7.610236220472441
 21
0.66240157480315
 31
0.0
  0
LINE
  5
3C52
330
1E
100
AcDbEntity
  8
7
100
AcDbLine
 10
-7.604330708661417
 20
0.7155511811023621
 30
0.0
 11
-7.600393700787401
 21
0.7017716535433074
 31
0.0
  0
LINE
  5
3C53
330
1E
100
AcDbEntity
  8
7
100
AcDbLine
 10
-7.600393700787401
 20
0.7017716535433074
 30
0.0
 11
-7.598425196850394
 21
0.6909448818897639
 31
0.0
  0
LINE
  5
3C54
330
1E
100
AcDbEntity
  8
7
100
AcDbLine
 10
-7.598425196850394
 20
0.6909448818897639
 30
0.0
 11
-7.597440944881889
 21
0.6870078740157482
 31
0.0
  0
LINE
  5
3C55
330
1E
100
AcDbEntity
  8
7
100
AcDbLine
 10
-7.604330708661417
 20
0.7155511811023621
 30
0.0
 11
-7.618110236220473
 21
0.7125984251968501
 31
0.0
  0
LINE
  5
3C56
330
1E
100
AcDbEntity
  8
7
100
AcDbLine
 10
-7.618110236220473
 20
0.7125984251968501
 30
0.0
 11
-7.624015748031496
 21
0.7106299212598426
 31
0.0
  0
LINE
  5
3C57
330
1E
100
AcDbEntity
  8
7
100
AcDbLine
 10
-7.586614173228347
 20
0.5718503937007871
 30
0.0
 11
-7.591535433070866
 21
0.5885826771653547
 31
0.0
  0
LINE
  5
3C58
330
1E
100
AcDbEntity
  8
7
100
AcDbLine
 10
-7.591535433070866
 20
0.5885826771653547
 30
0.0
 11
-7.596456692913386
 21
0.6092519685039371
 31
0.0
  0
LINE
  5
3C59
330
1E
100
AcDbEntity
  8
7
100
AcDbLine
 10
-7.596456692913386
 20
0.6092519685039371
 30
0.0
 11
-7.60236220472441
 21
0.6299212598425195
 31
0.0
  0
LINE
  5
3C5A
330
1E
100
AcDbEntity
  8
7
100
AcDbLine
 10
-7.60236220472441
 20
0.6299212598425195
 30
0.0
 11
-7.607283464566929
 21
0.6466535433070871
 31
0.0
  0
LINE
  5
3C5B
330
1E
100
AcDbEntity
  8
7
100
AcDbLine
 10
-7.607283464566929
 20
0.6466535433070871
 30
0.0
 11
-7.610236220472441
 21
0.6584645669291343
 31
0.0
  0
LINE
  5
3C5C
330
1E
100
AcDbEntity
  8
7
100
AcDbLine
 10
-7.610236220472441
 20
0.6584645669291343
 30
0.0
 11
-7.611220472440945
 21
0.66240157480315
 31
0.0
  0
LINE
  5
3C5D
330
1E
100
AcDbEntity
  8
7
100
AcDbLine
 10
-7.611220472440945
 20
0.66240157480315
 30
0.0
 11
-7.613188976377952
 21
0.6692913385826769
 31
0.0
  0
LINE
  5
3C5E
330
1E
100
AcDbEntity
  8
7
100
AcDbLine
 10
-7.613188976377952
 20
0.6692913385826769
 30
0.0
 11
-7.617125984251968
 21
0.6870078740157482
 31
0.0
  0
LINE
  5
3C5F
330
1E
100
AcDbEntity
  8
7
100
AcDbLine
 10
-7.617125984251968
 20
0.6870078740157482
 30
0.0
 11
-7.624015748031496
 21
0.7106299212598426
 31
0.0
  0
LINE
  5
3C60
330
1E
100
AcDbEntity
  8
7
100
AcDbLine
 10
-7.624015748031496
 20
0.7106299212598426
 30
0.0
 11
-7.691929133858268
 21
0.9635826771653546
 31
0.0
  0
LINE
  5
3C61
330
1E
100
AcDbEntity
  8
7
100
AcDbLine
 10
-7.582677165354331
 20
0.5561023622047241
 30
0.0
 11
-7.583661417322835
 21
0.5600393700787399
 31
0.0
  0
LINE
  5
3C62
330
1E
100
AcDbEntity
  8
7
100
AcDbLine
 10
-7.583661417322835
 20
0.5600393700787399
 30
0.0
 11
-7.586614173228347
 21
0.5718503937007871
 31
0.0
  0
LINE
  5
3C63
330
1E
100
AcDbEntity
  8
7
100
AcDbLine
 10
-7.607283464566929
 20
0.7253937007874019
 30
0.0
 11
-7.604330708661417
 21
0.7155511811023621
 31
0.0
  0
LINE
  5
3C64
330
1E
100
AcDbEntity
  8
7
100
AcDbLine
 10
-7.604330708661417
 20
0.7155511811023621
 30
0.0
 11
-7.595472440944882
 21
0.7185039370078741
 31
0.0
  0
LINE
  5
3C65
330
1E
100
AcDbEntity
  8
7
100
AcDbLine
 10
-7.595472440944882
 20
0.7185039370078741
 30
0.0
 11
-7.597440944881889
 21
0.728346456692913
 31
0.0
  0
LINE
  5
3C66
330
1E
100
AcDbEntity
  8
7
100
AcDbLine
 10
-7.583661417322835
 20
0.7421259842519686
 30
0.0
 11
-7.588582677165354
 21
0.7332677165354334
 31
0.0
  0
LINE
  5
3C67
330
1E
100
AcDbEntity
  8
7
100
AcDbLine
 10
-7.588582677165354
 20
0.7332677165354334
 30
0.0
 11
-7.597440944881889
 21
0.728346456692913
 31
0.0
  0
LINE
  5
3C68
330
1E
100
AcDbEntity
  8
7
100
AcDbLine
 10
-7.648622047244095
 20
0.8129921259842518
 30
0.0
 11
-7.626968503937008
 21
0.7303149606299213
 31
0.0
  0
LINE
  5
3C69
330
1E
100
AcDbEntity
  8
7
100
AcDbLine
 10
-7.626968503937008
 20
0.7303149606299213
 30
0.0
 11
-7.583661417322835
 21
0.7421259842519686
 31
0.0
  0
LINE
  5
3C6A
330
1E
100
AcDbEntity
  8
7
100
AcDbLine
 10
-7.583661417322835
 20
0.7421259842519686
 30
0.0
 11
-7.605314960629921
 21
0.824803149606299
 31
0.0
  0
LINE
  5
3C6B
330
1E
100
AcDbEntity
  8
7
100
AcDbLine
 10
-7.634842519685039
 20
0.8267716535433073
 30
0.0
 11
-7.643700787401574
 21
0.821850393700787
 31
0.0
  0
LINE
  5
3C6C
330
1E
100
AcDbEntity
  8
7
100
AcDbLine
 10
-7.643700787401574
 20
0.821850393700787
 30
0.0
 11
-7.648622047244095
 21
0.8129921259842518
 31
0.0
  0
LINE
  5
3C6D
330
1E
100
AcDbEntity
  8
7
100
AcDbLine
 10
-7.648622047244095
 20
0.8129921259842518
 30
0.0
 11
-7.605314960629921
 21
0.824803149606299
 31
0.0
  0
LINE
  5
3C6E
330
1E
100
AcDbEntity
  8
7
100
AcDbLine
 10
-7.605314960629921
 20
0.824803149606299
 30
0.0
 11
-7.614173228346457
 21
0.8297244094488185
 31
0.0
  0
LINE
  5
3C6F
330
1E
100
AcDbEntity
  8
7
100
AcDbLine
 10
-7.614173228346457
 20
0.8297244094488185
 30
0.0
 11
-7.625
 21
0.8297244094488185
 31
0.0
  0
LINE
  5
3C70
330
1E
100
AcDbEntity
  8
7
100
AcDbLine
 10
-7.62007874015748
 20
0.8887795275590555
 30
0.0
 11
-7.628937007874016
 21
0.9114173228346453
 31
0.0
  0
LINE
  5
3C71
330
1E
100
AcDbEntity
  8
7
100
AcDbLine
 10
-7.628937007874016
 20
0.9114173228346453
 30
0.0
 11
-7.646653543307087
 21
0.9340551181102361
 31
0.0
  0
LINE
  5
3C72
330
1E
100
AcDbEntity
  8
7
100
AcDbLine
 10
-7.646653543307087
 20
0.9340551181102361
 30
0.0
 11
-7.661417322834646
 21
0.9458661417322833
 31
0.0
  0
LINE
  5
3C73
330
1E
100
AcDbEntity
  8
7
100
AcDbLine
 10
-7.388779527559055
 20
0.0905511811023621
 30
0.0
 11
-7.385826771653543
 21
0.0777559055118111
 31
0.0
  0
LINE
  5
3C74
330
1E
100
AcDbEntity
  8
7
100
AcDbLine
 10
-7.385826771653543
 20
0.0777559055118111
 30
0.0
 11
-7.383858267716536
 21
0.0728346456692917
 31
0.0
  0
LINE
  5
3C75
330
1E
100
AcDbEntity
  8
7
100
AcDbLine
 10
-7.412401574803149
 20
0.2047244094488185
 30
0.0
 11
-7.405511811023622
 21
0.1712598425196852
 31
0.0
  0
LINE
  5
3C76
330
1E
100
AcDbEntity
  8
7
100
AcDbLine
 10
-7.405511811023622
 20
0.1712598425196852
 30
0.0
 11
-7.398622047244095
 21
0.1387795275590555
 31
0.0
  0
LINE
  5
3C77
330
1E
100
AcDbEntity
  8
7
100
AcDbLine
 10
-7.398622047244095
 20
0.1387795275590555
 30
0.0
 11
-7.392716535433071
 21
0.1122047244094491
 31
0.0
  0
LINE
  5
3C78
330
1E
100
AcDbEntity
  8
7
100
AcDbLine
 10
-7.392716535433071
 20
0.1122047244094491
 30
0.0
 11
-7.388779527559055
 21
0.0905511811023621
 31
0.0
  0
LINE
  5
3C79
330
1E
100
AcDbEntity
  8
7
100
AcDbLine
 10
-7.721456692913386
 20
1.232283464566928
 30
0.0
 11
-7.71751968503937
 21
1.242125984251968
 31
0.0
  0
LINE
  5
3C7A
330
1E
100
AcDbEntity
  8
7
100
AcDbLine
 10
-7.71751968503937
 20
1.242125984251968
 30
0.0
 11
-7.718503937007874
 21
1.254921259842519
 31
0.0
  0
LINE
  5
3C7B
330
1E
100
AcDbEntity
  8
7
100
AcDbLine
 10
-7.740157480314961
 20
1.473425196850393
 30
0.0
 11
-7.75492125984252
 21
1.477362204724409
 31
0.0
  0
LINE
  5
3C7C
330
1E
100
AcDbEntity
  8
7
100
AcDbLine
 10
-7.75492125984252
 20
1.477362204724409
 30
0.0
 11
-7.762795275590551
 21
1.480314960629921
 31
0.0
  0
LINE
  5
3C7D
330
1E
100
AcDbEntity
  8
7
100
AcDbLine
 10
-7.437992125984252
 20
2.02263779527559
 30
0.0
 11
-7.43996062992126
 21
2.018700787401574
 31
0.0
  0
LINE
  5
3C7E
330
1E
100
AcDbEntity
  8
7
100
AcDbLine
 10
-7.43996062992126
 20
2.018700787401574
 30
0.0
 11
-7.444881889763779
 21
2.008858267716535
 31
0.0
  0
LINE
  5
3C7F
330
1E
100
AcDbEntity
  8
7
100
AcDbLine
 10
-7.444881889763779
 20
2.008858267716535
 30
0.0
 11
-7.452755905511811
 21
1.993110236220472
 31
0.0
  0
LINE
  5
3C80
330
1E
100
AcDbEntity
  8
7
100
AcDbLine
 10
-7.452755905511811
 20
1.993110236220472
 30
0.0
 11
-7.46259842519685
 21
1.971456692913386
 31
0.0
  0
LINE
  5
3C81
330
1E
100
AcDbEntity
  8
7
100
AcDbLine
 10
-7.46259842519685
 20
1.971456692913386
 30
0.0
 11
-7.474409448818898
 21
1.946850393700787
 31
0.0
  0
LINE
  5
3C82
330
1E
100
AcDbEntity
  8
7
100
AcDbLine
 10
-7.474409448818898
 20
1.946850393700787
 30
0.0
 11
-7.487204724409449
 21
1.918307086614173
 31
0.0
  0
LINE
  5
3C83
330
1E
100
AcDbEntity
  8
7
100
AcDbLine
 10
-7.500984251968504
 20
1.88779527559055
 30
0.0
 11
-7.515748031496063
 21
1.896653543307087
 31
0.0
  0
LINE
  5
3C84
330
1E
100
AcDbEntity
  8
7
100
AcDbLine
 10
-7.515748031496063
 20
1.896653543307087
 30
0.0
 11
-7.520669291338583
 21
1.900590551181102
 31
0.0
  0
LINE
  5
3C85
330
1E
100
AcDbEntity
  8
7
100
AcDbLine
 10
-7.790354330708662
 20
1.113188976377952
 30
0.0
 11
-7.8001968503937
 21
1.083661417322834
 31
0.0
  0
LINE
  5
3C86
330
1E
100
AcDbEntity
  8
7
100
AcDbLine
 10
-7.8001968503937
 20
1.083661417322834
 30
0.0
 11
-7.798228346456693
 21
1.052165354330708
 31
0.0
  0
LINE
  5
3C87
330
1E
100
AcDbEntity
  8
7
100
AcDbLine
 10
-7.798228346456693
 20
1.052165354330708
 30
0.0
 11
-7.784448818897637
 21
1.024606299212598
 31
0.0
  0
LINE
  5
3C88
330
1E
100
AcDbEntity
  8
7
100
AcDbLine
 10
-7.784448818897637
 20
1.024606299212598
 30
0.0
 11
-7.761811023622048
 21
1.003937007874015
 31
0.0
  0
LINE
  5
3C89
330
1E
100
AcDbEntity
  8
7
100
AcDbLine
 10
-7.661417322834646
 20
0.9448818897637796
 30
0.0
 11
-7.664370078740158
 21
0.946850393700787
 31
0.0
  0
LINE
  5
3C8A
330
1E
100
AcDbEntity
  8
7
100
AcDbLine
 10
-7.664370078740158
 20
0.946850393700787
 30
0.0
 11
-7.666338582677165
 21
0.9478346456692916
 31
0.0
  0
LINE
  5
3C8B
330
1E
100
AcDbEntity
  8
7
100
AcDbLine
 10
-7.740157480314961
 20
1.428149606299212
 30
0.0
 11
-7.755905511811024
 21
1.426181102362204
 31
0.0
  0
LINE
  5
3C8C
330
1E
100
AcDbEntity
  8
7
100
AcDbLine
 10
-7.755905511811024
 20
1.426181102362204
 30
0.0
 11
-7.763779527559055
 21
1.4251968503937
 31
0.0
  0
LINE
  5
3C8D
330
1E
100
AcDbEntity
  8
7
100
AcDbLine
 10
-7.43503937007874
 20
0.1988188976377954
 30
0.0
 11
-7.428149606299212
 21
0.2007874015748028
 31
0.0
  0
LINE
  5
3C8E
330
1E
100
AcDbEntity
  8
7
100
AcDbLine
 10
-7.428149606299212
 20
0.2007874015748028
 30
0.0
 11
-7.412401574803149
 21
0.2047244094488185
 31
0.0
  0
LINE
  5
3C8F
330
1E
100
AcDbEntity
  8
7
100
AcDbLine
 10
-7.271653543307087
 20
1.904527559055118
 30
0.0
 11
-7.500984251968504
 21
1.88779527559055
 31
0.0
  0
LINE
  5
3C90
330
1E
100
AcDbEntity
  8
7
100
AcDbLine
 10
-7.500984251968504
 20
1.88779527559055
 30
0.0
 11
-7.740157480314961
 21
1.473425196850393
 31
0.0
  0
LINE
  5
3C91
330
1E
100
AcDbEntity
  8
7
100
AcDbLine
 10
-7.740157480314961
 20
1.473425196850393
 30
0.0
 11
-7.740157480314961
 21
1.428149606299212
 31
0.0
  0
LINE
  5
3C92
330
1E
100
AcDbEntity
  8
7
100
AcDbLine
 10
-7.740157480314961
 20
1.428149606299212
 30
0.0
 11
-7.412401574803149
 21
0.2047244094488185
 31
0.0
  0
LINE
  5
3C93
330
1E
100
AcDbEntity
  8
7
100
AcDbLine
 10
-7.412401574803149
 20
0.2047244094488185
 30
0.0
 11
-7.271653543307087
 21
0.1948818897637796
 31
0.0
  0
LINE
  5
3C94
330
1E
100
AcDbEntity
  8
7
100
AcDbLine
 10
-7.790354330708662
 20
1.113188976377952
 30
0.0
 11
-7.732283464566929
 21
1.21259842519685
 31
0.0
  0
LINE
  5
3C95
330
1E
100
AcDbEntity
  8
7
100
AcDbLine
 10
-7.732283464566929
 20
1.21259842519685
 30
0.0
 11
-7.721456692913386
 21
1.232283464566928
 31
0.0
  0
LINE
  5
3C96
330
1E
100
AcDbEntity
  8
7
100
AcDbLine
 10
-7.271653543307087
 20
0.1299212598425194
 30
0.0
 11
-7.271653543307087
 21
0.103346456692913
 31
0.0
  0
LINE
  5
3C97
330
1E
100
AcDbEntity
  8
7
100
AcDbLine
 10
-7.271653543307087
 20
0.103346456692913
 30
0.0
 11
-7.271653543307087
 21
0.0826771653543306
 31
0.0
  0
LINE
  5
3C98
330
1E
100
AcDbEntity
  8
7
100
AcDbLine
 10
-7.271653543307087
 20
0.0826771653543306
 30
0.0
 11
-7.271653543307087
 21
0.0698818897637796
 31
0.0
  0
LINE
  5
3C99
330
1E
100
AcDbEntity
  8
7
100
AcDbLine
 10
-7.271653543307087
 20
0.0698818897637796
 30
0.0
 11
-7.271653543307087
 21
0.0649606299212602
 31
0.0
  0
LINE
  5
3C9A
330
1E
100
AcDbEntity
  8
7
100
AcDbLine
 10
-7.271653543307087
 20
0.1948818897637796
 30
0.0
 11
-7.271653543307087
 21
0.1614173228346454
 31
0.0
  0
LINE
  5
3C9B
330
1E
100
AcDbEntity
  8
7
100
AcDbLine
 10
-7.271653543307087
 20
0.1614173228346454
 30
0.0
 11
-7.271653543307087
 21
0.1299212598425194
 31
0.0
  0
LINE
  5
3C9C
330
1E
100
AcDbEntity
  8
7
100
AcDbLine
 10
-7.271653543307087
 20
2.033464566929134
 30
0.0
 11
-7.271653543307087
 21
2.029527559055118
 31
0.0
  0
LINE
  5
3C9D
330
1E
100
AcDbEntity
  8
7
100
AcDbLine
 10
-7.271653543307087
 20
2.029527559055118
 30
0.0
 11
-7.271653543307087
 21
2.016732283464566
 31
0.0
  0
LINE
  5
3C9E
330
1E
100
AcDbEntity
  8
7
100
AcDbLine
 10
-7.271653543307087
 20
2.016732283464566
 30
0.0
 11
-7.271653543307087
 21
1.996062992125984
 31
0.0
  0
LINE
  5
3C9F
330
1E
100
AcDbEntity
  8
7
100
AcDbLine
 10
-7.271653543307087
 20
1.996062992125984
 30
0.0
 11
-7.271653543307087
 21
1.969488188976377
 31
0.0
  0
LINE
  5
3CA0
330
1E
100
AcDbEntity
  8
7
100
AcDbLine
 10
-7.271653543307087
 20
1.969488188976377
 30
0.0
 11
-7.271653543307087
 21
1.937992125984251
 31
0.0
  0
LINE
  5
3CA1
330
1E
100
AcDbEntity
  8
7
100
AcDbLine
 10
-7.271653543307087
 20
1.937992125984251
 30
0.0
 11
-7.271653543307087
 21
1.904527559055118
 31
0.0
  0
LINE
  5
3CA2
330
1E
100
AcDbEntity
  8
7
100
AcDbLine
 10
-7.437992125984252
 20
2.021653543307087
 30
0.0
 11
-7.448818897637795
 21
2.017716535433071
 31
0.0
  0
LINE
  5
3CA3
330
1E
100
AcDbEntity
  8
7
100
AcDbLine
 10
-7.448818897637795
 20
2.017716535433071
 30
0.0
 11
-7.457677165354331
 21
2.009842519685039
 31
0.0
  0
LINE
  5
3CA4
330
1E
100
AcDbEntity
  8
7
100
AcDbLine
 10
-7.759842519685039
 20
1.486220472440944
 30
0.0
 11
-7.520669291338583
 21
1.900590551181102
 31
0.0
  0
LINE
  5
3CA5
330
1E
100
AcDbEntity
  8
7
100
AcDbLine
 10
-7.520669291338583
 20
1.900590551181102
 30
0.0
 11
-7.50492125984252
 21
1.929133858267716
 31
0.0
  0
LINE
  5
3CA6
330
1E
100
AcDbEntity
  8
7
100
AcDbLine
 10
-7.50492125984252
 20
1.929133858267716
 30
0.0
 11
-7.489173228346457
 21
1.955708661417323
 31
0.0
  0
LINE
  5
3CA7
330
1E
100
AcDbEntity
  8
7
100
AcDbLine
 10
-7.489173228346457
 20
1.955708661417323
 30
0.0
 11
-7.476377952755905
 21
1.978346456692912
 31
0.0
  0
LINE
  5
3CA8
330
1E
100
AcDbEntity
  8
7
100
AcDbLine
 10
-7.476377952755905
 20
1.978346456692912
 30
0.0
 11
-7.466535433070866
 21
1.99507874015748
 31
0.0
  0
LINE
  5
3CA9
330
1E
100
AcDbEntity
  8
7
100
AcDbLine
 10
-7.466535433070866
 20
1.99507874015748
 30
0.0
 11
-7.459645669291338
 21
2.005905511811024
 31
0.0
  0
LINE
  5
3CAA
330
1E
100
AcDbEntity
  8
7
100
AcDbLine
 10
-7.459645669291338
 20
2.005905511811024
 30
0.0
 11
-7.457677165354331
 21
2.009842519685039
 31
0.0
  0
LINE
  5
3CAB
330
1E
100
AcDbEntity
  8
7
100
AcDbLine
 10
-7.405511811023622
 20
0.0925196850393704
 30
0.0
 11
-7.39763779527559
 21
0.0797244094488185
 31
0.0
  0
LINE
  5
3CAC
330
1E
100
AcDbEntity
  8
7
100
AcDbLine
 10
-7.39763779527559
 20
0.0797244094488185
 30
0.0
 11
-7.383858267716536
 21
0.0738188976377954
 31
0.0
  0
LINE
  5
3CAD
330
1E
100
AcDbEntity
  8
7
100
AcDbLine
 10
-6.934055118110237
 20
0.9143700787401574
 30
0.0
 11
-6.921259842519685
 21
0.9045275590551185
 31
0.0
  0
LINE
  5
3CAE
330
1E
100
AcDbEntity
  8
7
100
AcDbLine
 10
-6.921259842519685
 20
0.9045275590551185
 30
0.0
 11
-6.911417322834646
 21
0.8907480314960629
 31
0.0
  0
LINE
  5
3CAF
330
1E
100
AcDbEntity
  8
7
100
AcDbLine
 10
-6.911417322834646
 20
0.8907480314960629
 30
0.0
 11
-6.900590551181102
 21
0.8671259842519685
 31
0.0
  0
LINE
  5
3CB0
330
1E
100
AcDbEntity
  8
7
100
AcDbLine
 10
-6.900590551181102
 20
0.8671259842519685
 30
0.0
 11
-6.899606299212599
 21
0.859251968503937
 31
0.0
  0
LINE
  5
3CB1
330
1E
100
AcDbEntity
  8
7
100
AcDbLine
 10
-6.899606299212599
 20
0.859251968503937
 30
0.0
 11
-6.904527559055118
 21
0.8533464566929129
 31
0.0
  0
LINE
  5
3CB2
330
1E
100
AcDbEntity
  8
7
100
AcDbLine
 10
-7.271653543307087
 20
0.5698818897637797
 30
0.0
 11
-6.744094488188976
 21
0.862204724409449
 31
0.0
  0
LINE
  5
3CB3
330
1E
100
AcDbEntity
  8
7
100
AcDbLine
 10
-6.744094488188976
 20
0.862204724409449
 30
0.0
 11
-6.735236220472441
 21
0.8710629921259842
 31
0.0
  0
LINE
  5
3CB4
330
1E
100
AcDbEntity
  8
7
100
AcDbLine
 10
-6.735236220472441
 20
0.8710629921259842
 30
0.0
 11
-6.733267716535433
 21
0.8818897637795277
 31
0.0
  0
LINE
  5
3CB5
330
1E
100
AcDbEntity
  8
7
100
AcDbLine
 10
-6.733267716535433
 20
0.8818897637795277
 30
0.0
 11
-6.738188976377952
 21
0.8927165354330712
 31
0.0
  0
LINE
  5
3CB6
330
1E
100
AcDbEntity
  8
7
100
AcDbLine
 10
-6.738188976377952
 20
0.8927165354330712
 30
0.0
 11
-6.748031496062992
 21
0.8986220472440944
 31
0.0
  0
LINE
  5
3CB7
330
1E
100
AcDbEntity
  8
7
100
AcDbLine
 10
-6.748031496062992
 20
0.8986220472440944
 30
0.0
 11
-6.847440944881889
 21
0.9261811023622046
 31
0.0
  0
LINE
  5
3CB8
330
1E
100
AcDbEntity
  8
7
100
AcDbLine
 10
-6.847440944881889
 20
0.9261811023622046
 30
0.0
 11
-6.941929133858268
 21
0.9261811023622046
 31
0.0
  0
LINE
  5
3CB9
330
1E
100
AcDbEntity
  8
7
100
AcDbLine
 10
-6.941929133858268
 20
0.9261811023622046
 30
0.0
 11
-6.937992125984252
 21
0.9173228346456694
 31
0.0
  0
LINE
  5
3CBA
330
1E
100
AcDbEntity
  8
7
100
AcDbLine
 10
-7.410433070866142
 20
0.106299212598425
 30
0.0
 11
-7.414370078740158
 21
0.1230314960629926
 31
0.0
  0
LINE
  5
3CBB
330
1E
100
AcDbEntity
  8
7
100
AcDbLine
 10
-7.414370078740158
 20
0.1230314960629926
 30
0.0
 11
-7.420275590551181
 21
0.1446850393700787
 31
0.0
  0
LINE
  5
3CBC
330
1E
100
AcDbEntity
  8
7
100
AcDbLine
 10
-7.420275590551181
 20
0.1446850393700787
 30
0.0
 11
-7.427165354330709
 21
0.1712598425196852
 31
0.0
  0
LINE
  5
3CBD
330
1E
100
AcDbEntity
  8
7
100
AcDbLine
 10
-7.427165354330709
 20
0.1712598425196852
 30
0.0
 11
-7.43503937007874
 21
0.1988188976377954
 31
0.0
  0
LINE
  5
3CBE
330
1E
100
AcDbEntity
  8
7
100
AcDbLine
 10
-7.43503937007874
 20
0.1988188976377954
 30
0.0
 11
-7.762795275590551
 21
1.422244094488188
 31
0.0
  0
LINE
  5
3CBF
330
1E
100
AcDbEntity
  8
7
100
AcDbLine
 10
-7.406496062992126
 20
0.0915354330708658
 30
0.0
 11
-7.40748031496063
 21
0.0954724409448815
 31
0.0
  0
LINE
  5
3CC0
330
1E
100
AcDbEntity
  8
7
100
AcDbLine
 10
-7.40748031496063
 20
0.0954724409448815
 30
0.0
 11
-7.410433070866142
 21
0.106299212598425
 31
0.0
  0
LINE
  5
3CC1
330
1E
100
AcDbEntity
  8
7
100
AcDbLine
 10
-9.43011811023622
 20
1.081692913385826
 30
0.0
 11
-9.432086614173229
 21
1.083661417322834
 31
0.0
  0
LINE
  5
3CC2
330
1E
100
AcDbEntity
  8
7
100
AcDbLine
 10
-9.432086614173229
 20
1.083661417322834
 30
0.0
 11
-9.432086614173229
 21
1.086614173228346
 31
0.0
  0
LINE
  5
3CC3
330
1E
100
AcDbEntity
  8
7
100
AcDbLine
 10
-9.43011811023622
 20
1.081692913385826
 30
0.0
 11
-9.432086614173229
 21
1.083661417322834
 31
0.0
  0
LINE
  5
3CC4
330
1E
100
AcDbEntity
  8
7
100
AcDbLine
 10
-9.432086614173229
 20
1.083661417322834
 30
0.0
 11
-9.432086614173229
 21
1.086614173228346
 31
0.0
  0
LINE
  5
3CC5
330
1E
100
AcDbEntity
  8
7
100
AcDbLine
 10
-9.432086614173229
 20
1.086614173228346
 30
0.0
 11
-9.432086614173229
 21
1.089566929133858
 31
0.0
  0
LINE
  5
3CC6
330
1E
100
AcDbEntity
  8
7
100
AcDbLine
 10
-9.432086614173229
 20
1.089566929133858
 30
0.0
 11
-9.43011811023622
 21
1.090551181102362
 31
0.0
  0
LINE
  5
3CC7
330
1E
100
AcDbEntity
  8
7
100
AcDbLine
 10
-10.8001968503937
 20
0.6870078740157482
 30
0.0
 11
-10.78543307086614
 21
0.6909448818897639
 31
0.0
  0
LINE
  5
3CC8
330
1E
100
AcDbEntity
  8
7
100
AcDbLine
 10
-10.78543307086614
 20
0.6909448818897639
 30
0.0
 11
-10.77460629921259
 21
0.7017716535433074
 31
0.0
  0
LINE
  5
3CC9
330
1E
100
AcDbEntity
  8
7
100
AcDbLine
 10
-10.77460629921259
 20
0.7017716535433074
 30
0.0
 11
-10.77066929133858
 21
0.7155511811023621
 31
0.0
  0
LINE
  5
3CCA
330
1E
100
AcDbEntity
  8
7
100
AcDbLine
 10
-10.77066929133858
 20
0.7155511811023621
 30
0.0
 11
-10.76476377952755
 21
0.7125984251968501
 31
0.0
  0
LINE
  5
3CCB
330
1E
100
AcDbEntity
  8
7
100
AcDbLine
 10
-10.76476377952755
 20
0.7125984251968501
 30
0.0
 11
-10.7509842519685
 21
0.7106299212598426
 31
0.0
  0
LINE
  5
3CCC
330
1E
100
AcDbEntity
  8
7
100
AcDbLine
 10
-10.8001968503937
 20
0.6870078740157482
 30
0.0
 11
-10.8001968503937
 21
0.6771653543307084
 31
0.0
  0
LINE
  5
3CCD
330
1E
100
AcDbEntity
  8
7
100
AcDbLine
 10
-10.8001968503937
 20
0.6771653543307084
 30
0.0
 11
-10.8001968503937
 21
0.66240157480315
 31
0.0
  0
LINE
  5
3CCE
330
1E
100
AcDbEntity
  8
7
100
AcDbLine
 10
-10.92716535433071
 20
0.6141732283464565
 30
0.0
 11
-10.92125984251968
 21
0.6417322834645667
 31
0.0
  0
LINE
  5
3CCF
330
1E
100
AcDbEntity
  8
7
100
AcDbLine
 10
-10.92125984251968
 20
0.6417322834645667
 30
0.0
 11
-10.90551181102362
 21
0.6653543307086612
 31
0.0
  0
LINE
  5
3CD0
330
1E
100
AcDbEntity
  8
7
100
AcDbLine
 10
-10.90551181102362
 20
0.6653543307086612
 30
0.0
 11
-10.88090551181102
 21
0.6811023622047241
 31
0.0
  0
LINE
  5
3CD1
330
1E
100
AcDbEntity
  8
7
100
AcDbLine
 10
-10.88090551181102
 20
0.6811023622047241
 30
0.0
 11
-10.85236220472441
 21
0.6870078740157482
 31
0.0
  0
LINE
  5
3CD2
330
1E
100
AcDbEntity
  8
7
100
AcDbLine
 10
-10.85236220472441
 20
0.6870078740157482
 30
0.0
 11
-10.85236220472441
 21
0.6771653543307084
 31
0.0
  0
LINE
  5
3CD3
330
1E
100
AcDbEntity
  8
7
100
AcDbLine
 10
-10.85236220472441
 20
0.6771653543307084
 30
0.0
 11
-10.85236220472441
 21
0.66240157480315
 31
0.0
  0
LINE
  5
3CD4
330
1E
100
AcDbEntity
  8
7
100
AcDbLine
 10
-10.85236220472441
 20
0.5413385826771658
 30
0.0
 11
-10.85236220472441
 21
0.5452755905511815
 31
0.0
  0
LINE
  5
3CD5
330
1E
100
AcDbEntity
  8
7
100
AcDbLine
 10
-10.85236220472441
 20
0.5452755905511815
 30
0.0
 11
-10.85236220472441
 21
0.5561023622047241
 31
0.0
  0
LINE
  5
3CD6
330
1E
100
AcDbEntity
  8
7
100
AcDbLine
 10
-10.13287401574803
 20
0.5413385826771658
 30
0.0
 11
-10.13287401574803
 21
0.5452755905511815
 31
0.0
  0
LINE
  5
3CD7
330
1E
100
AcDbEntity
  8
7
100
AcDbLine
 10
-10.13287401574803
 20
0.5452755905511815
 30
0.0
 11
-10.13287401574803
 21
0.5561023622047241
 31
0.0
  0
LINE
  5
3CD8
330
1E
100
AcDbEntity
  8
7
100
AcDbLine
 10
-10.13287401574803
 20
1.019685039370078
 30
0.0
 11
-10.11811023622047
 21
1.021653543307087
 31
0.0
  0
LINE
  5
3CD9
330
1E
100
AcDbEntity
  8
7
100
AcDbLine
 10
-10.11811023622047
 20
1.021653543307087
 30
0.0
 11
-10.11220472440944
 21
1.024606299212598
 31
0.0
  0
LINE
  5
3CDA
330
1E
100
AcDbEntity
  8
7
100
AcDbLine
 10
-10.11220472440944
 20
0.5610236220472445
 30
0.0
 11
-10.11811023622047
 21
0.5580708661417324
 31
0.0
  0
LINE
  5
3CDB
330
1E
100
AcDbEntity
  8
7
100
AcDbLine
 10
-10.11811023622047
 20
0.5580708661417324
 30
0.0
 11
-10.13287401574803
 21
0.5561023622047241
 31
0.0
  0
LINE
  5
3CDC
330
1E
100
AcDbEntity
  8
7
100
AcDbLine
 10
-10.11220472440944
 20
1.02755905511811
 30
0.0
 11
-10.11811023622047
 21
1.031496062992125
 31
0.0
  0
LINE
  5
3CDD
330
1E
100
AcDbEntity
  8
7
100
AcDbLine
 10
-10.11811023622047
 20
1.031496062992125
 30
0.0
 11
-10.13287401574803
 21
1.032480314960629
 31
0.0
  0
LINE
  5
3CDE
330
1E
100
AcDbEntity
  8
7
100
AcDbLine
 10
-10.85236220472441
 20
0.6899606299212602
 30
0.0
 11
-10.88090551181102
 21
0.6840551181102362
 31
0.0
  0
LINE
  5
3CDF
330
1E
100
AcDbEntity
  8
7
100
AcDbLine
 10
-10.88090551181102
 20
0.6840551181102362
 30
0.0
 11
-10.90551181102362
 21
0.6683070866141732
 31
0.0
  0
LINE
  5
3CE0
330
1E
100
AcDbEntity
  8
7
100
AcDbLine
 10
-10.90551181102362
 20
0.6683070866141732
 30
0.0
 11
-10.92224409448818
 21
0.643700787401575
 31
0.0
  0
LINE
  5
3CE1
330
1E
100
AcDbEntity
  8
7
100
AcDbLine
 10
-10.92224409448818
 20
0.643700787401575
 30
0.0
 11
-10.92716535433071
 21
0.6161417322834648
 31
0.0
  0
LINE
  5
3CE2
330
1E
100
AcDbEntity
  8
7
100
AcDbLine
 10
-10.77066929133858
 20
0.7185039370078741
 30
0.0
 11
-10.77460629921259
 21
0.7037401574803149
 31
0.0
  0
LINE
  5
3CE3
330
1E
100
AcDbEntity
  8
7
100
AcDbLine
 10
-10.77460629921259
 20
0.7037401574803149
 30
0.0
 11
-10.78543307086614
 21
0.6929133858267713
 31
0.0
  0
LINE
  5
3CE4
330
1E
100
AcDbEntity
  8
7
100
AcDbLine
 10
-10.78543307086614
 20
0.6929133858267713
 30
0.0
 11
-10.8001968503937
 21
0.6899606299212602
 31
0.0
  0
LINE
  5
3CE5
330
1E
100
AcDbEntity
  8
7
100
AcDbLine
 10
-10.85236220472441
 20
0.5561023622047241
 30
0.0
 11
-10.13287401574803
 21
0.5561023622047241
 31
0.0
  0
LINE
  5
3CE6
330
1E
100
AcDbEntity
  8
7
100
AcDbLine
 10
-10.13287401574803
 20
0.5561023622047241
 30
0.0
 11
-10.13287401574803
 21
1.019685039370078
 31
0.0
  0
LINE
  5
3CE7
330
1E
100
AcDbEntity
  8
7
100
AcDbLine
 10
-10.13287401574803
 20
1.019685039370078
 30
0.0
 11
-10.18700787401574
 21
1.019685039370078
 31
0.0
  0
LINE
  5
3CE8
330
1E
100
AcDbEntity
  8
7
100
AcDbLine
 10
-10.18700787401574
 20
1.019685039370078
 30
0.0
 11
-10.19291338582677
 21
1.021653543307087
 31
0.0
  0
LINE
  5
3CE9
330
1E
100
AcDbEntity
  8
7
100
AcDbLine
 10
-10.19291338582677
 20
1.021653543307087
 30
0.0
 11
-10.19488188976378
 21
1.02755905511811
 31
0.0
  0
LINE
  5
3CEA
330
1E
100
AcDbEntity
  8
7
100
AcDbLine
 10
-10.7509842519685
 20
1.02755905511811
 30
0.0
 11
-10.7509842519685
 21
0.7106299212598426
 31
0.0
  0
LINE
  5
3CEB
330
1E
100
AcDbEntity
  8
7
100
AcDbLine
 10
-10.7509842519685
 20
0.7106299212598426
 30
0.0
 11
-10.75688976377952
 21
0.6870078740157482
 31
0.0
  0
LINE
  5
3CEC
330
1E
100
AcDbEntity
  8
7
100
AcDbLine
 10
-10.75688976377952
 20
0.6870078740157482
 30
0.0
 11
-10.7755905511811
 21
0.6692913385826769
 31
0.0
  0
LINE
  5
3CED
330
1E
100
AcDbEntity
  8
7
100
AcDbLine
 10
-10.7755905511811
 20
0.6692913385826769
 30
0.0
 11
-10.8001968503937
 21
0.66240157480315
 31
0.0
  0
LINE
  5
3CEE
330
1E
100
AcDbEntity
  8
7
100
AcDbLine
 10
-10.8001968503937
 20
0.66240157480315
 30
0.0
 11
-10.85236220472441
 21
0.66240157480315
 31
0.0
  0
LINE
  5
3CEF
330
1E
100
AcDbEntity
  8
7
100
AcDbLine
 10
-10.85236220472441
 20
0.66240157480315
 30
0.0
 11
-10.87303149606299
 21
0.6584645669291343
 31
0.0
  0
LINE
  5
3CF0
330
1E
100
AcDbEntity
  8
7
100
AcDbLine
 10
-10.87303149606299
 20
0.6584645669291343
 30
0.0
 11
-10.89074803149606
 21
0.6466535433070871
 31
0.0
  0
LINE
  5
3CF1
330
1E
100
AcDbEntity
  8
7
100
AcDbLine
 10
-10.89074803149606
 20
0.6466535433070871
 30
0.0
 11
-10.90255905511811
 21
0.6299212598425195
 31
0.0
  0
LINE
  5
3CF2
330
1E
100
AcDbEntity
  8
7
100
AcDbLine
 10
-10.90255905511811
 20
0.6299212598425195
 30
0.0
 11
-10.90748031496062
 21
0.6092519685039371
 31
0.0
  0
LINE
  5
3CF3
330
1E
100
AcDbEntity
  8
7
100
AcDbLine
 10
-10.90748031496062
 20
0.6092519685039371
 30
0.0
 11
-10.90255905511811
 21
0.5885826771653547
 31
0.0
  0
LINE
  5
3CF4
330
1E
100
AcDbEntity
  8
7
100
AcDbLine
 10
-10.90255905511811
 20
0.5885826771653547
 30
0.0
 11
-10.89074803149606
 21
0.5718503937007871
 31
0.0
  0
LINE
  5
3CF5
330
1E
100
AcDbEntity
  8
7
100
AcDbLine
 10
-10.89074803149606
 20
0.5718503937007871
 30
0.0
 11
-10.87303149606299
 21
0.5600393700787399
 31
0.0
  0
LINE
  5
3CF6
330
1E
100
AcDbEntity
  8
7
100
AcDbLine
 10
-10.87303149606299
 20
0.5600393700787399
 30
0.0
 11
-10.85236220472441
 21
0.5561023622047241
 31
0.0
  0
LINE
  5
3CF7
330
1E
100
AcDbEntity
  8
7
100
AcDbLine
 10
-10.18700787401574
 20
1.032480314960629
 30
0.0
 11
-10.19291338582677
 21
1.035433070866141
 31
0.0
  0
LINE
  5
3CF8
330
1E
100
AcDbEntity
  8
7
100
AcDbLine
 10
-10.19291338582677
 20
1.035433070866141
 30
0.0
 11
-10.19488188976378
 21
1.040354330708661
 31
0.0
  0
LINE
  5
3CF9
330
1E
100
AcDbEntity
  8
7
100
AcDbLine
 10
-10.24507874015748
 20
1.02755905511811
 30
0.0
 11
-10.24507874015748
 21
1.034448818897637
 31
0.0
  0
LINE
  5
3CFA
330
1E
100
AcDbEntity
  8
7
100
AcDbLine
 10
-10.24507874015748
 20
1.034448818897637
 30
0.0
 11
-10.24507874015748
 21
1.040354330708661
 31
0.0
  0
LINE
  5
3CFB
330
1E
100
AcDbEntity
  8
7
100
AcDbLine
 10
-10.24507874015748
 20
1.124015748031496
 30
0.0
 11
-10.24507874015748
 21
1.123031496062992
 31
0.0
  0
LINE
  5
3CFC
330
1E
100
AcDbEntity
  8
7
100
AcDbLine
 10
-10.24507874015748
 20
1.123031496062992
 30
0.0
 11
-10.24507874015748
 21
1.113188976377952
 31
0.0
  0
LINE
  5
3CFD
330
1E
100
AcDbEntity
  8
7
100
AcDbLine
 10
-10.24507874015748
 20
1.113188976377952
 30
0.0
 11
-10.24507874015748
 21
1.095472440944881
 31
0.0
  0
LINE
  5
3CFE
330
1E
100
AcDbEntity
  8
7
100
AcDbLine
 10
-10.24507874015748
 20
1.095472440944881
 30
0.0
 11
-10.24507874015748
 21
1.073818897637795
 31
0.0
  0
LINE
  5
3CFF
330
1E
100
AcDbEntity
  8
7
100
AcDbLine
 10
-10.24507874015748
 20
1.073818897637795
 30
0.0
 11
-10.24507874015748
 21
1.054133858267716
 31
0.0
  0
LINE
  5
3D00
330
1E
100
AcDbEntity
  8
7
100
AcDbLine
 10
-10.24507874015748
 20
1.054133858267716
 30
0.0
 11
-10.24507874015748
 21
1.040354330708661
 31
0.0
  0
LINE
  5
3D01
330
1E
100
AcDbEntity
  8
7
100
AcDbLine
 10
-10.24507874015748
 20
1.040354330708661
 30
0.0
 11
-10.19488188976378
 21
1.040354330708661
 31
0.0
  0
LINE
  5
3D02
330
1E
100
AcDbEntity
  8
7
100
AcDbLine
 10
-10.7509842519685
 20
1.040354330708661
 30
0.0
 11
-10.7509842519685
 21
1.034448818897637
 31
0.0
  0
LINE
  5
3D03
330
1E
100
AcDbEntity
  8
7
100
AcDbLine
 10
-10.7509842519685
 20
1.034448818897637
 30
0.0
 11
-10.7509842519685
 21
1.02755905511811
 31
0.0
  0
LINE
  5
3D04
330
1E
100
AcDbEntity
  8
7
100
AcDbLine
 10
-10.77066929133858
 20
1.032480314960629
 30
0.0
 11
-10.77066929133858
 21
1.034448818897637
 31
0.0
  0
LINE
  5
3D05
330
1E
100
AcDbEntity
  8
7
100
AcDbLine
 10
-10.77066929133858
 20
1.034448818897637
 30
0.0
 11
-10.77066929133858
 21
1.035433070866141
 31
0.0
  0
LINE
  5
3D06
330
1E
100
AcDbEntity
  8
7
100
AcDbLine
 10
-10.77066929133858
 20
1.035433070866141
 30
0.0
 11
-10.76968503937008
 21
1.035433070866141
 31
0.0
  0
LINE
  5
3D07
330
1E
100
AcDbEntity
  8
7
100
AcDbLine
 10
-10.76968503937008
 20
1.035433070866141
 30
0.0
 11
-10.76673228346456
 21
1.038385826771653
 31
0.0
  0
LINE
  5
3D08
330
1E
100
AcDbEntity
  8
7
100
AcDbLine
 10
-10.76673228346456
 20
1.038385826771653
 30
0.0
 11
-10.76476377952755
 21
1.041338582677165
 31
0.0
  0
LINE
  5
3D09
330
1E
100
AcDbEntity
  8
7
100
AcDbLine
 10
-10.76476377952755
 20
1.041338582677165
 30
0.0
 11
-10.76574803149606
 21
1.044291338582676
 31
0.0
  0
LINE
  5
3D0A
330
1E
100
AcDbEntity
  8
7
100
AcDbLine
 10
-10.76574803149606
 20
1.044291338582676
 30
0.0
 11
-10.76673228346456
 21
1.046259842519685
 31
0.0
  0
LINE
  5
3D0B
330
1E
100
AcDbEntity
  8
7
100
AcDbLine
 10
-10.72047244094488
 20
1.02755905511811
 30
0.0
 11
-10.72047244094488
 21
1.034448818897637
 31
0.0
  0
LINE
  5
3D0C
330
1E
100
AcDbEntity
  8
7
100
AcDbLine
 10
-10.72047244094488
 20
1.034448818897637
 30
0.0
 11
-10.72047244094488
 21
1.040354330708661
 31
0.0
  0
LINE
  5
3D0D
330
1E
100
AcDbEntity
  8
7
100
AcDbLine
 10
-10.72047244094488
 20
1.123031496062992
 30
0.0
 11
-10.72047244094488
 21
1.113188976377952
 31
0.0
  0
LINE
  5
3D0E
330
1E
100
AcDbEntity
  8
7
100
AcDbLine
 10
-10.72047244094488
 20
1.113188976377952
 30
0.0
 11
-10.72047244094488
 21
1.095472440944881
 31
0.0
  0
LINE
  5
3D0F
330
1E
100
AcDbEntity
  8
7
100
AcDbLine
 10
-10.72047244094488
 20
1.095472440944881
 30
0.0
 11
-10.72047244094488
 21
1.073818897637795
 31
0.0
  0
LINE
  5
3D10
330
1E
100
AcDbEntity
  8
7
100
AcDbLine
 10
-10.72047244094488
 20
1.073818897637795
 30
0.0
 11
-10.72047244094488
 21
1.054133858267716
 31
0.0
  0
LINE
  5
3D11
330
1E
100
AcDbEntity
  8
7
100
AcDbLine
 10
-10.76870078740157
 20
1.05511811023622
 30
0.0
 11
-10.77066929133858
 21
1.067913385826771
 31
0.0
  0
LINE
  5
3D12
330
1E
100
AcDbEntity
  8
7
100
AcDbLine
 10
-10.77066929133858
 20
1.067913385826771
 30
0.0
 11
-10.77066929133858
 21
1.071850393700787
 31
0.0
  0
LINE
  5
3D13
330
1E
100
AcDbEntity
  8
7
100
AcDbLine
 10
-10.77066929133858
 20
1.071850393700787
 30
0.0
 11
-10.76968503937008
 21
1.08759842519685
 31
0.0
  0
LINE
  5
3D14
330
1E
100
AcDbEntity
  8
7
100
AcDbLine
 10
-10.76968503937008
 20
1.08759842519685
 30
0.0
 11
-10.76870078740157
 21
1.089566929133858
 31
0.0
  0
LINE
  5
3D15
330
1E
100
AcDbEntity
  8
7
100
AcDbLine
 10
-10.76870078740157
 20
1.089566929133858
 30
0.0
 11
-10.76673228346456
 21
1.097440944881889
 31
0.0
  0
LINE
  5
3D16
330
1E
100
AcDbEntity
  8
7
100
AcDbLine
 10
-10.76673228346456
 20
1.097440944881889
 30
0.0
 11
-10.76377952755905
 21
1.106299212598425
 31
0.0
  0
LINE
  5
3D17
330
1E
100
AcDbEntity
  8
7
100
AcDbLine
 10
-10.76377952755905
 20
1.106299212598425
 30
0.0
 11
-10.75885826771653
 21
1.114173228346456
 31
0.0
  0
LINE
  5
3D18
330
1E
100
AcDbEntity
  8
7
100
AcDbLine
 10
-10.75885826771653
 20
1.114173228346456
 30
0.0
 11
-10.75393700787401
 21
1.12007874015748
 31
0.0
  0
LINE
  5
3D19
330
1E
100
AcDbEntity
  8
7
100
AcDbLine
 10
-10.75393700787401
 20
1.12007874015748
 30
0.0
 11
-10.7509842519685
 21
1.123031496062992
 31
0.0
  0
LINE
  5
3D1A
330
1E
100
AcDbEntity
  8
7
100
AcDbLine
 10
-10.7509842519685
 20
1.123031496062992
 30
0.0
 11
-10.7509842519685
 21
1.113188976377952
 31
0.0
  0
LINE
  5
3D1B
330
1E
100
AcDbEntity
  8
7
100
AcDbLine
 10
-10.7509842519685
 20
1.113188976377952
 30
0.0
 11
-10.7509842519685
 21
1.095472440944881
 31
0.0
  0
LINE
  5
3D1C
330
1E
100
AcDbEntity
  8
7
100
AcDbLine
 10
-10.7509842519685
 20
1.095472440944881
 30
0.0
 11
-10.7509842519685
 21
1.073818897637795
 31
0.0
  0
LINE
  5
3D1D
330
1E
100
AcDbEntity
  8
7
100
AcDbLine
 10
-10.7509842519685
 20
1.073818897637795
 30
0.0
 11
-10.7509842519685
 21
1.054133858267716
 31
0.0
  0
LINE
  5
3D1E
330
1E
100
AcDbEntity
  8
7
100
AcDbLine
 10
-10.7509842519685
 20
1.054133858267716
 30
0.0
 11
-10.7509842519685
 21
1.040354330708661
 31
0.0
  0
LINE
  5
3D1F
330
1E
100
AcDbEntity
  8
7
100
AcDbLine
 10
-10.76673228346456
 20
1.046259842519685
 30
0.0
 11
-10.75885826771653
 21
1.041338582677165
 31
0.0
  0
LINE
  5
3D20
330
1E
100
AcDbEntity
  8
7
100
AcDbLine
 10
-10.75885826771653
 20
1.041338582677165
 30
0.0
 11
-10.7509842519685
 21
1.040354330708661
 31
0.0
  0
LINE
  5
3D21
330
1E
100
AcDbEntity
  8
7
100
AcDbLine
 10
-10.76673228346456
 20
1.046259842519685
 30
0.0
 11
-10.76771653543307
 21
1.049212598425197
 31
0.0
  0
LINE
  5
3D22
330
1E
100
AcDbEntity
  8
7
100
AcDbLine
 10
-10.76771653543307
 20
1.049212598425197
 30
0.0
 11
-10.76870078740157
 21
1.05511811023622
 31
0.0
  0
LINE
  5
3D23
330
1E
100
AcDbEntity
  8
7
100
AcDbLine
 10
-10.77066929133858
 20
0.728346456692913
 30
0.0
 11
-10.76771653543307
 21
0.7332677165354334
 31
0.0
  0
LINE
  5
3D24
330
1E
100
AcDbEntity
  8
7
100
AcDbLine
 10
-10.76771653543307
 20
0.7332677165354334
 30
0.0
 11
-10.76082677165354
 21
0.7421259842519686
 31
0.0
  0
LINE
  5
3D25
330
1E
100
AcDbEntity
  8
7
100
AcDbLine
 10
-10.76082677165354
 20
0.7303149606299213
 30
0.0
 11
-10.76771653543307
 21
0.7253937007874019
 31
0.0
  0
LINE
  5
3D26
330
1E
100
AcDbEntity
  8
7
100
AcDbLine
 10
-10.76771653543307
 20
0.7253937007874019
 30
0.0
 11
-10.77066929133858
 21
0.7253937007874019
 31
0.0
  0
LINE
  5
3D27
330
1E
100
AcDbEntity
  8
7
100
AcDbLine
 10
-10.76082677165354
 20
0.8129921259842518
 30
0.0
 11
-10.76771653543307
 21
0.821850393700787
 31
0.0
  0
LINE
  5
3D28
330
1E
100
AcDbEntity
  8
7
100
AcDbLine
 10
-10.76771653543307
 20
0.821850393700787
 30
0.0
 11
-10.77066929133858
 21
0.8267716535433073
 31
0.0
  0
LINE
  5
3D29
330
1E
100
AcDbEntity
  8
7
100
AcDbLine
 10
-10.19488188976378
 20
1.02755905511811
 30
0.0
 11
-10.19488188976378
 21
1.034448818897637
 31
0.0
  0
LINE
  5
3D2A
330
1E
100
AcDbEntity
  8
7
100
AcDbLine
 10
-10.19488188976378
 20
1.034448818897637
 30
0.0
 11
-10.19488188976378
 21
1.040354330708661
 31
0.0
  0
LINE
  5
3D2B
330
1E
100
AcDbEntity
  8
7
100
AcDbLine
 10
-10.19488188976378
 20
1.124015748031496
 30
0.0
 11
-10.19488188976378
 21
1.12007874015748
 31
0.0
  0
LINE
  5
3D2C
330
1E
100
AcDbEntity
  8
7
100
AcDbLine
 10
-10.19488188976378
 20
1.12007874015748
 30
0.0
 11
-10.19488188976378
 21
1.108267716535433
 31
0.0
  0
LINE
  5
3D2D
330
1E
100
AcDbEntity
  8
7
100
AcDbLine
 10
-10.19488188976378
 20
1.108267716535433
 30
0.0
 11
-10.19488188976378
 21
1.090551181102362
 31
0.0
  0
LINE
  5
3D2E
330
1E
100
AcDbEntity
  8
7
100
AcDbLine
 10
-10.19488188976378
 20
1.090551181102362
 30
0.0
 11
-10.19488188976378
 21
1.070866141732283
 31
0.0
  0
LINE
  5
3D2F
330
1E
100
AcDbEntity
  8
7
100
AcDbLine
 10
-10.19488188976378
 20
1.070866141732283
 30
0.0
 11
-10.19488188976378
 21
1.053149606299212
 31
0.0
  0
LINE
  5
3D30
330
1E
100
AcDbEntity
  8
7
100
AcDbLine
 10
-10.19488188976378
 20
1.053149606299212
 30
0.0
 11
-10.19488188976378
 21
1.040354330708661
 31
0.0
  0
LINE
  5
3D31
330
1E
100
AcDbEntity
  8
7
100
AcDbLine
 10
-9.353346456692914
 20
0.6899606299212602
 30
0.0
 11
-9.404527559055118
 21
0.6899606299212602
 31
0.0
  0
LINE
  5
3D32
330
1E
100
AcDbEntity
  8
7
100
AcDbLine
 10
-9.404527559055118
 20
0.6899606299212602
 30
0.0
 11
-9.419291338582677
 21
0.6929133858267713
 31
0.0
  0
LINE
  5
3D33
330
1E
100
AcDbEntity
  8
7
100
AcDbLine
 10
-9.419291338582677
 20
0.6929133858267713
 30
0.0
 11
-9.43011811023622
 21
0.7037401574803149
 31
0.0
  0
LINE
  5
3D34
330
1E
100
AcDbEntity
  8
7
100
AcDbLine
 10
-9.43011811023622
 20
0.7037401574803149
 30
0.0
 11
-9.43503937007874
 21
0.7185039370078741
 31
0.0
  0
LINE
  5
3D35
330
1E
100
AcDbEntity
  8
7
100
AcDbLine
 10
-9.278543307086614
 20
0.6171259842519686
 30
0.0
 11
-9.283464566929133
 21
0.6446850393700787
 31
0.0
  0
LINE
  5
3D36
330
1E
100
AcDbEntity
  8
7
100
AcDbLine
 10
-9.283464566929133
 20
0.6446850393700787
 30
0.0
 11
-9.300196850393701
 21
0.6683070866141732
 31
0.0
  0
LINE
  5
3D37
330
1E
100
AcDbEntity
  8
7
100
AcDbLine
 10
-9.300196850393701
 20
0.6683070866141732
 30
0.0
 11
-9.324803149606299
 21
0.6840551181102362
 31
0.0
  0
LINE
  5
3D38
330
1E
100
AcDbEntity
  8
7
100
AcDbLine
 10
-9.324803149606299
 20
0.6840551181102362
 30
0.0
 11
-9.353346456692914
 21
0.6899606299212602
 31
0.0
  0
LINE
  5
3D39
330
1E
100
AcDbEntity
  8
7
100
AcDbLine
 10
-10.07283464566929
 20
1.032480314960629
 30
0.0
 11
-10.08661417322834
 21
1.031496062992125
 31
0.0
  0
LINE
  5
3D3A
330
1E
100
AcDbEntity
  8
7
100
AcDbLine
 10
-10.08661417322834
 20
1.031496062992125
 30
0.0
 11
-10.09251968503937
 21
1.02755905511811
 31
0.0
  0
LINE
  5
3D3B
330
1E
100
AcDbEntity
  8
7
100
AcDbLine
 10
-10.09251968503937
 20
0.5610236220472445
 30
0.0
 11
-10.08661417322834
 21
0.5580708661417324
 31
0.0
  0
LINE
  5
3D3C
330
1E
100
AcDbEntity
  8
7
100
AcDbLine
 10
-10.08661417322834
 20
0.5580708661417324
 30
0.0
 11
-10.07283464566929
 21
0.5561023622047241
 31
0.0
  0
LINE
  5
3D3D
330
1E
100
AcDbEntity
  8
7
100
AcDbLine
 10
-10.07283464566929
 20
0.5413385826771658
 30
0.0
 11
-10.07283464566929
 21
0.5452755905511815
 31
0.0
  0
LINE
  5
3D3E
330
1E
100
AcDbEntity
  8
7
100
AcDbLine
 10
-10.07283464566929
 20
0.5452755905511815
 30
0.0
 11
-10.07283464566929
 21
0.5561023622047241
 31
0.0
  0
LINE
  5
3D3F
330
1E
100
AcDbEntity
  8
7
100
AcDbLine
 10
-9.353346456692914
 20
0.6870078740157482
 30
0.0
 11
-9.328740157480314
 21
0.6830708661417324
 31
0.0
  0
LINE
  5
3D40
330
1E
100
AcDbEntity
  8
7
100
AcDbLine
 10
-9.328740157480314
 20
0.6830708661417324
 30
0.0
 11
-9.307086614173229
 21
0.6712598425196852
 31
0.0
  0
LINE
  5
3D41
330
1E
100
AcDbEntity
  8
7
100
AcDbLine
 10
-9.307086614173229
 20
0.6712598425196852
 30
0.0
 11
-9.290354330708662
 21
0.6535433070866139
 31
0.0
  0
LINE
  5
3D42
330
1E
100
AcDbEntity
  8
7
100
AcDbLine
 10
-9.290354330708662
 20
0.6535433070866139
 30
0.0
 11
-9.280511811023622
 21
0.6318897637795278
 31
0.0
  0
LINE
  5
3D43
330
1E
100
AcDbEntity
  8
7
100
AcDbLine
 10
-9.280511811023622
 20
0.6318897637795278
 30
0.0
 11
-9.278543307086614
 21
0.6082677165354334
 31
0.0
  0
LINE
  5
3D44
330
1E
100
AcDbEntity
  8
7
100
AcDbLine
 10
-9.353346456692914
 20
0.5413385826771658
 30
0.0
 11
-9.353346456692914
 21
0.5452755905511815
 31
0.0
  0
LINE
  5
3D45
330
1E
100
AcDbEntity
  8
7
100
AcDbLine
 10
-9.353346456692914
 20
0.5452755905511815
 30
0.0
 11
-9.353346456692914
 21
0.5561023622047241
 31
0.0
  0
LINE
  5
3D46
330
1E
100
AcDbEntity
  8
7
100
AcDbLine
 10
-9.353346456692914
 20
0.6870078740157482
 30
0.0
 11
-9.353346456692914
 21
0.6771653543307084
 31
0.0
  0
LINE
  5
3D47
330
1E
100
AcDbEntity
  8
7
100
AcDbLine
 10
-9.353346456692914
 20
0.6771653543307084
 30
0.0
 11
-9.353346456692914
 21
0.66240157480315
 31
0.0
  0
LINE
  5
3D48
330
1E
100
AcDbEntity
  8
7
100
AcDbLine
 10
-9.43503937007874
 20
0.7155511811023621
 30
0.0
 11
-9.43011811023622
 21
0.7017716535433074
 31
0.0
  0
LINE
  5
3D49
330
1E
100
AcDbEntity
  8
7
100
AcDbLine
 10
-9.43011811023622
 20
0.7017716535433074
 30
0.0
 11
-9.419291338582677
 21
0.6909448818897639
 31
0.0
  0
LINE
  5
3D4A
330
1E
100
AcDbEntity
  8
7
100
AcDbLine
 10
-9.419291338582677
 20
0.6909448818897639
 30
0.0
 11
-9.404527559055118
 21
0.6870078740157482
 31
0.0
  0
LINE
  5
3D4B
330
1E
100
AcDbEntity
  8
7
100
AcDbLine
 10
-9.404527559055118
 20
0.6870078740157482
 30
0.0
 11
-9.404527559055118
 21
0.6771653543307084
 31
0.0
  0
LINE
  5
3D4C
330
1E
100
AcDbEntity
  8
7
100
AcDbLine
 10
-9.404527559055118
 20
0.6771653543307084
 30
0.0
 11
-9.404527559055118
 21
0.66240157480315
 31
0.0
  0
LINE
  5
3D4D
330
1E
100
AcDbEntity
  8
7
100
AcDbLine
 10
-9.43503937007874
 20
0.7155511811023621
 30
0.0
 11
-9.440944881889764
 21
0.7125984251968501
 31
0.0
  0
LINE
  5
3D4E
330
1E
100
AcDbEntity
  8
7
100
AcDbLine
 10
-9.440944881889764
 20
0.7125984251968501
 30
0.0
 11
-9.454724409448818
 21
0.7106299212598426
 31
0.0
  0
LINE
  5
3D4F
330
1E
100
AcDbEntity
  8
7
100
AcDbLine
 10
-10.07283464566929
 20
1.032480314960629
 30
0.0
 11
-10.01771653543306
 21
1.032480314960629
 31
0.0
  0
LINE
  5
3D50
330
1E
100
AcDbEntity
  8
7
100
AcDbLine
 10
-10.01771653543306
 20
1.032480314960629
 30
0.0
 11
-10.01279527559055
 21
1.035433070866141
 31
0.0
  0
LINE
  5
3D51
330
1E
100
AcDbEntity
  8
7
100
AcDbLine
 10
-10.01279527559055
 20
1.035433070866141
 30
0.0
 11
-10.00984251968504
 21
1.040354330708661
 31
0.0
  0
LINE
  5
3D52
330
1E
100
AcDbEntity
  8
7
100
AcDbLine
 10
-10.07283464566929
 20
1.019685039370078
 30
0.0
 11
-10.07283464566929
 21
0.5561023622047241
 31
0.0
  0
LINE
  5
3D53
330
1E
100
AcDbEntity
  8
7
100
AcDbLine
 10
-10.07283464566929
 20
0.5561023622047241
 30
0.0
 11
-9.353346456692914
 21
0.5561023622047241
 31
0.0
  0
LINE
  5
3D54
330
1E
100
AcDbEntity
  8
7
100
AcDbLine
 10
-9.353346456692914
 20
0.5561023622047241
 30
0.0
 11
-9.331692913385827
 21
0.5600393700787399
 31
0.0
  0
LINE
  5
3D55
330
1E
100
AcDbEntity
  8
7
100
AcDbLine
 10
-9.331692913385827
 20
0.5600393700787399
 30
0.0
 11
-9.313976377952755
 21
0.5718503937007871
 31
0.0
  0
LINE
  5
3D56
330
1E
100
AcDbEntity
  8
7
100
AcDbLine
 10
-9.313976377952755
 20
0.5718503937007871
 30
0.0
 11
-9.302165354330709
 21
0.5885826771653547
 31
0.0
  0
LINE
  5
3D57
330
1E
100
AcDbEntity
  8
7
100
AcDbLine
 10
-9.302165354330709
 20
0.5885826771653547
 30
0.0
 11
-9.298228346456692
 21
0.6092519685039371
 31
0.0
  0
LINE
  5
3D58
330
1E
100
AcDbEntity
  8
7
100
AcDbLine
 10
-9.298228346456692
 20
0.6092519685039371
 30
0.0
 11
-9.302165354330709
 21
0.6299212598425195
 31
0.0
  0
LINE
  5
3D59
330
1E
100
AcDbEntity
  8
7
100
AcDbLine
 10
-9.302165354330709
 20
0.6299212598425195
 30
0.0
 11
-9.313976377952755
 21
0.6466535433070871
 31
0.0
  0
LINE
  5
3D5A
330
1E
100
AcDbEntity
  8
7
100
AcDbLine
 10
-9.313976377952755
 20
0.6466535433070871
 30
0.0
 11
-9.331692913385827
 21
0.6584645669291343
 31
0.0
  0
LINE
  5
3D5B
330
1E
100
AcDbEntity
  8
7
100
AcDbLine
 10
-9.331692913385827
 20
0.6584645669291343
 30
0.0
 11
-9.353346456692914
 21
0.66240157480315
 31
0.0
  0
LINE
  5
3D5C
330
1E
100
AcDbEntity
  8
7
100
AcDbLine
 10
-9.353346456692914
 20
0.66240157480315
 30
0.0
 11
-9.404527559055118
 21
0.66240157480315
 31
0.0
  0
LINE
  5
3D5D
330
1E
100
AcDbEntity
  8
7
100
AcDbLine
 10
-9.404527559055118
 20
0.66240157480315
 30
0.0
 11
-9.429133858267716
 21
0.6692913385826769
 31
0.0
  0
LINE
  5
3D5E
330
1E
100
AcDbEntity
  8
7
100
AcDbLine
 10
-9.429133858267716
 20
0.6692913385826769
 30
0.0
 11
-9.447834645669292
 21
0.6870078740157482
 31
0.0
  0
LINE
  5
3D5F
330
1E
100
AcDbEntity
  8
7
100
AcDbLine
 10
-9.447834645669292
 20
0.6870078740157482
 30
0.0
 11
-9.454724409448818
 21
0.7106299212598426
 31
0.0
  0
LINE
  5
3D60
330
1E
100
AcDbEntity
  8
7
100
AcDbLine
 10
-9.454724409448818
 20
0.7106299212598426
 30
0.0
 11
-9.454724409448818
 21
1.02755905511811
 31
0.0
  0
LINE
  5
3D61
330
1E
100
AcDbEntity
  8
7
100
AcDbLine
 10
-10.01771653543306
 20
1.019685039370078
 30
0.0
 11
-10.01279527559055
 21
1.021653543307087
 31
0.0
  0
LINE
  5
3D62
330
1E
100
AcDbEntity
  8
7
100
AcDbLine
 10
-10.01279527559055
 20
1.021653543307087
 30
0.0
 11
-10.00984251968504
 21
1.02755905511811
 31
0.0
  0
LINE
  5
3D63
330
1E
100
AcDbEntity
  8
7
100
AcDbLine
 10
-9.959645669291338
 20
1.040354330708661
 30
0.0
 11
-9.959645669291338
 21
1.034448818897637
 31
0.0
  0
LINE
  5
3D64
330
1E
100
AcDbEntity
  8
7
100
AcDbLine
 10
-9.959645669291338
 20
1.034448818897637
 30
0.0
 11
-9.959645669291338
 21
1.02755905511811
 31
0.0
  0
LINE
  5
3D65
330
1E
100
AcDbEntity
  8
7
100
AcDbLine
 10
-9.959645669291338
 20
1.02755905511811
 30
0.0
 11
-10.00984251968504
 21
1.02755905511811
 31
0.0
  0
LINE
  5
3D66
330
1E
100
AcDbEntity
  8
7
100
AcDbLine
 10
-9.959645669291338
 20
1.113188976377952
 30
0.0
 11
-9.959645669291338
 21
1.123031496062992
 31
0.0
  0
LINE
  5
3D67
330
1E
100
AcDbEntity
  8
7
100
AcDbLine
 10
-9.959645669291338
 20
1.123031496062992
 30
0.0
 11
-9.959645669291338
 21
1.124015748031496
 31
0.0
  0
LINE
  5
3D68
330
1E
100
AcDbEntity
  8
7
100
AcDbLine
 10
-9.959645669291338
 20
1.040354330708661
 30
0.0
 11
-9.959645669291338
 21
1.054133858267716
 31
0.0
  0
LINE
  5
3D69
330
1E
100
AcDbEntity
  8
7
100
AcDbLine
 10
-9.959645669291338
 20
1.054133858267716
 30
0.0
 11
-9.959645669291338
 21
1.073818897637795
 31
0.0
  0
LINE
  5
3D6A
330
1E
100
AcDbEntity
  8
7
100
AcDbLine
 10
-9.959645669291338
 20
1.073818897637795
 30
0.0
 11
-9.959645669291338
 21
1.095472440944881
 31
0.0
  0
LINE
  5
3D6B
330
1E
100
AcDbEntity
  8
7
100
AcDbLine
 10
-9.959645669291338
 20
1.095472440944881
 30
0.0
 11
-9.959645669291338
 21
1.113188976377952
 31
0.0
  0
LINE
  5
3D6C
330
1E
100
AcDbEntity
  8
7
100
AcDbLine
 10
-9.43503937007874
 20
1.035433070866141
 30
0.0
 11
-9.43503937007874
 21
1.034448818897637
 31
0.0
  0
LINE
  5
3D6D
330
1E
100
AcDbEntity
  8
7
100
AcDbLine
 10
-9.43503937007874
 20
1.034448818897637
 30
0.0
 11
-9.43503937007874
 21
1.032480314960629
 31
0.0
  0
LINE
  5
3D6E
330
1E
100
AcDbEntity
  8
7
100
AcDbLine
 10
-9.454724409448818
 20
1.02755905511811
 30
0.0
 11
-9.440944881889764
 21
1.029527559055118
 31
0.0
  0
LINE
  5
3D6F
330
1E
100
AcDbEntity
  8
7
100
AcDbLine
 10
-9.440944881889764
 20
1.029527559055118
 30
0.0
 11
-9.43503937007874
 21
1.032480314960629
 31
0.0
  0
LINE
  5
3D70
330
1E
100
AcDbEntity
  8
7
100
AcDbLine
 10
-9.454724409448818
 20
1.02755905511811
 30
0.0
 11
-9.454724409448818
 21
1.034448818897637
 31
0.0
  0
LINE
  5
3D71
330
1E
100
AcDbEntity
  8
7
100
AcDbLine
 10
-9.454724409448818
 20
1.034448818897637
 30
0.0
 11
-9.454724409448818
 21
1.040354330708661
 31
0.0
  0
LINE
  5
3D72
330
1E
100
AcDbEntity
  8
7
100
AcDbLine
 10
-9.438976377952755
 20
1.046259842519685
 30
0.0
 11
-9.439960629921259
 21
1.042322834645669
 31
0.0
  0
LINE
  5
3D73
330
1E
100
AcDbEntity
  8
7
100
AcDbLine
 10
-9.439960629921259
 20
1.042322834645669
 30
0.0
 11
-9.439960629921259
 21
1.039370078740157
 31
0.0
  0
LINE
  5
3D74
330
1E
100
AcDbEntity
  8
7
100
AcDbLine
 10
-9.439960629921259
 20
1.039370078740157
 30
0.0
 11
-9.437007874015748
 21
1.036417322834645
 31
0.0
  0
LINE
  5
3D75
330
1E
100
AcDbEntity
  8
7
100
AcDbLine
 10
-9.437007874015748
 20
1.036417322834645
 30
0.0
 11
-9.43503937007874
 21
1.035433070866141
 31
0.0
  0
LINE
  5
3D76
330
1E
100
AcDbEntity
  8
7
100
AcDbLine
 10
-9.438976377952755
 20
1.046259842519685
 30
0.0
 11
-9.445866141732283
 21
1.041338582677165
 31
0.0
  0
LINE
  5
3D77
330
1E
100
AcDbEntity
  8
7
100
AcDbLine
 10
-9.445866141732283
 20
1.041338582677165
 30
0.0
 11
-9.454724409448818
 21
1.040354330708661
 31
0.0
  0
LINE
  5
3D78
330
1E
100
AcDbEntity
  8
7
100
AcDbLine
 10
-9.454724409448818
 20
1.040354330708661
 30
0.0
 11
-9.454724409448818
 21
1.054133858267716
 31
0.0
  0
LINE
  5
3D79
330
1E
100
AcDbEntity
  8
7
100
AcDbLine
 10
-9.454724409448818
 20
1.054133858267716
 30
0.0
 11
-9.454724409448818
 21
1.073818897637795
 31
0.0
  0
LINE
  5
3D7A
330
1E
100
AcDbEntity
  8
7
100
AcDbLine
 10
-9.454724409448818
 20
1.073818897637795
 30
0.0
 11
-9.454724409448818
 21
1.095472440944881
 31
0.0
  0
LINE
  5
3D7B
330
1E
100
AcDbEntity
  8
7
100
AcDbLine
 10
-9.454724409448818
 20
1.095472440944881
 30
0.0
 11
-9.454724409448818
 21
1.113188976377952
 31
0.0
  0
LINE
  5
3D7C
330
1E
100
AcDbEntity
  8
7
100
AcDbLine
 10
-9.454724409448818
 20
1.113188976377952
 30
0.0
 11
-9.454724409448818
 21
1.123031496062992
 31
0.0
  0
LINE
  5
3D7D
330
1E
100
AcDbEntity
  8
7
100
AcDbLine
 10
-9.454724409448818
 20
1.123031496062992
 30
0.0
 11
-9.449803149606299
 21
1.119094488188976
 31
0.0
  0
LINE
  5
3D7E
330
1E
100
AcDbEntity
  8
7
100
AcDbLine
 10
-9.449803149606299
 20
1.119094488188976
 30
0.0
 11
-9.444881889763779
 21
1.111220472440944
 31
0.0
  0
LINE
  5
3D7F
330
1E
100
AcDbEntity
  8
7
100
AcDbLine
 10
-9.444881889763779
 20
1.111220472440944
 30
0.0
 11
-9.439960629921259
 21
1.101377952755905
 31
0.0
  0
LINE
  5
3D80
330
1E
100
AcDbEntity
  8
7
100
AcDbLine
 10
-9.439960629921259
 20
1.101377952755905
 30
0.0
 11
-9.437007874015748
 21
1.091535433070865
 31
0.0
  0
LINE
  5
3D81
330
1E
100
AcDbEntity
  8
7
100
AcDbLine
 10
-9.437007874015748
 20
1.091535433070865
 30
0.0
 11
-9.436023622047244
 21
1.089566929133858
 31
0.0
  0
LINE
  5
3D82
330
1E
100
AcDbEntity
  8
7
100
AcDbLine
 10
-9.436023622047244
 20
1.089566929133858
 30
0.0
 11
-9.43503937007874
 21
1.076771653543307
 31
0.0
  0
LINE
  5
3D83
330
1E
100
AcDbEntity
  8
7
100
AcDbLine
 10
-9.43503937007874
 20
1.076771653543307
 30
0.0
 11
-9.43503937007874
 21
1.071850393700787
 31
0.0
  0
LINE
  5
3D84
330
1E
100
AcDbEntity
  8
7
100
AcDbLine
 10
-9.43503937007874
 20
1.071850393700787
 30
0.0
 11
-9.436023622047244
 21
1.057086614173228
 31
0.0
  0
LINE
  5
3D85
330
1E
100
AcDbEntity
  8
7
100
AcDbLine
 10
-9.436023622047244
 20
1.057086614173228
 30
0.0
 11
-9.436023622047244
 21
1.05511811023622
 31
0.0
  0
LINE
  5
3D86
330
1E
100
AcDbEntity
  8
7
100
AcDbLine
 10
-9.436023622047244
 20
1.05511811023622
 30
0.0
 11
-9.437992125984251
 21
1.048228346456692
 31
0.0
  0
LINE
  5
3D87
330
1E
100
AcDbEntity
  8
7
100
AcDbLine
 10
-9.437992125984251
 20
1.048228346456692
 30
0.0
 11
-9.438976377952755
 21
1.046259842519685
 31
0.0
  0
LINE
  5
3D88
330
1E
100
AcDbEntity
  8
7
100
AcDbLine
 10
-9.484251968503937
 20
1.040354330708661
 30
0.0
 11
-9.484251968503937
 21
1.054133858267716
 31
0.0
  0
LINE
  5
3D89
330
1E
100
AcDbEntity
  8
7
100
AcDbLine
 10
-9.484251968503937
 20
1.054133858267716
 30
0.0
 11
-9.484251968503937
 21
1.073818897637795
 31
0.0
  0
LINE
  5
3D8A
330
1E
100
AcDbEntity
  8
7
100
AcDbLine
 10
-9.484251968503937
 20
1.073818897637795
 30
0.0
 11
-9.484251968503937
 21
1.095472440944881
 31
0.0
  0
LINE
  5
3D8B
330
1E
100
AcDbEntity
  8
7
100
AcDbLine
 10
-9.484251968503937
 20
1.095472440944881
 30
0.0
 11
-9.484251968503937
 21
1.113188976377952
 31
0.0
  0
LINE
  5
3D8C
330
1E
100
AcDbEntity
  8
7
100
AcDbLine
 10
-9.484251968503937
 20
1.113188976377952
 30
0.0
 11
-9.484251968503937
 21
1.123031496062992
 31
0.0
  0
LINE
  5
3D8D
330
1E
100
AcDbEntity
  8
7
100
AcDbLine
 10
-9.484251968503937
 20
1.040354330708661
 30
0.0
 11
-9.484251968503937
 21
1.034448818897637
 31
0.0
  0
LINE
  5
3D8E
330
1E
100
AcDbEntity
  8
7
100
AcDbLine
 10
-9.484251968503937
 20
1.034448818897637
 30
0.0
 11
-9.484251968503937
 21
1.02755905511811
 31
0.0
  0
LINE
  5
3D8F
330
1E
100
AcDbEntity
  8
7
100
AcDbLine
 10
-9.43503937007874
 20
0.7253937007874019
 30
0.0
 11
-9.437007874015748
 21
0.7253937007874019
 31
0.0
  0
LINE
  5
3D90
330
1E
100
AcDbEntity
  8
7
100
AcDbLine
 10
-9.437007874015748
 20
0.7253937007874019
 30
0.0
 11
-9.444881889763779
 21
0.7303149606299213
 31
0.0
  0
LINE
  5
3D91
330
1E
100
AcDbEntity
  8
7
100
AcDbLine
 10
-9.444881889763779
 20
0.7421259842519686
 30
0.0
 11
-9.437007874015748
 21
0.7332677165354334
 31
0.0
  0
LINE
  5
3D92
330
1E
100
AcDbEntity
  8
7
100
AcDbLine
 10
-9.437007874015748
 20
0.7332677165354334
 30
0.0
 11
-9.43503937007874
 21
0.728346456692913
 31
0.0
  0
LINE
  5
3D93
330
1E
100
AcDbEntity
  8
7
100
AcDbLine
 10
-9.43503937007874
 20
0.8267716535433073
 30
0.0
 11
-9.437007874015748
 21
0.821850393700787
 31
0.0
  0
LINE
  5
3D94
330
1E
100
AcDbEntity
  8
7
100
AcDbLine
 10
-9.437007874015748
 20
0.821850393700787
 30
0.0
 11
-9.444881889763779
 21
0.8129921259842518
 31
0.0
  0
LINE
  5
3D95
330
1E
100
AcDbEntity
  8
7
100
AcDbLine
 10
-9.444881889763779
 20
0.8129921259842518
 30
0.0
 11
-9.444881889763779
 21
0.7303149606299213
 31
0.0
  0
LINE
  5
3D96
330
1E
100
AcDbEntity
  8
7
100
AcDbLine
 10
-10.00984251968504
 20
1.053149606299212
 30
0.0
 11
-10.00984251968504
 21
1.070866141732283
 31
0.0
  0
LINE
  5
3D97
330
1E
100
AcDbEntity
  8
7
100
AcDbLine
 10
-10.00984251968504
 20
1.070866141732283
 30
0.0
 11
-10.00984251968504
 21
1.090551181102362
 31
0.0
  0
LINE
  5
3D98
330
1E
100
AcDbEntity
  8
7
100
AcDbLine
 10
-10.00984251968504
 20
1.090551181102362
 30
0.0
 11
-10.00984251968504
 21
1.108267716535433
 31
0.0
  0
LINE
  5
3D99
330
1E
100
AcDbEntity
  8
7
100
AcDbLine
 10
-10.00984251968504
 20
1.108267716535433
 30
0.0
 11
-10.00984251968504
 21
1.12007874015748
 31
0.0
  0
LINE
  5
3D9A
330
1E
100
AcDbEntity
  8
7
100
AcDbLine
 10
-10.00984251968504
 20
1.12007874015748
 30
0.0
 11
-10.00984251968504
 21
1.124015748031496
 31
0.0
  0
LINE
  5
3D9B
330
1E
100
AcDbEntity
  8
7
100
AcDbLine
 10
-10.00984251968504
 20
1.040354330708661
 30
0.0
 11
-10.00984251968504
 21
1.034448818897637
 31
0.0
  0
LINE
  5
3D9C
330
1E
100
AcDbEntity
  8
7
100
AcDbLine
 10
-10.00984251968504
 20
1.034448818897637
 30
0.0
 11
-10.00984251968504
 21
1.02755905511811
 31
0.0
  0
LINE
  5
3D9D
330
1E
100
AcDbEntity
  8
7
100
AcDbLine
 10
-10.51574803149606
 20
1.260826771653543
 30
0.0
 11
-10.52165354330708
 21
1.263779527559055
 31
0.0
  0
LINE
  5
3D9E
330
1E
100
AcDbEntity
  8
7
100
AcDbLine
 10
-10.52165354330708
 20
1.263779527559055
 30
0.0
 11
-10.52362204724409
 21
1.269685039370078
 31
0.0
  0
LINE
  5
3D9F
330
1E
100
AcDbEntity
  8
7
100
AcDbLine
 10
-10.31594488188976
 20
1.269685039370078
 30
0.0
 11
-10.31889763779527
 21
1.263779527559055
 31
0.0
  0
LINE
  5
3DA0
330
1E
100
AcDbEntity
  8
7
100
AcDbLine
 10
-10.31889763779527
 20
1.263779527559055
 30
0.0
 11
-10.32381889763779
 21
1.260826771653543
 31
0.0
  0
LINE
  5
3DA1
330
1E
100
AcDbEntity
  8
7
100
AcDbLine
 10
-9.880905511811024
 20
1.260826771653543
 30
0.0
 11
-9.886811023622048
 21
1.263779527559055
 31
0.0
  0
LINE
  5
3DA2
330
1E
100
AcDbEntity
  8
7
100
AcDbLine
 10
-9.886811023622048
 20
1.263779527559055
 30
0.0
 11
-9.888779527559055
 21
1.269685039370078
 31
0.0
  0
LINE
  5
3DA3
330
1E
100
AcDbEntity
  8
7
100
AcDbLine
 10
-9.681102362204725
 20
1.269685039370078
 30
0.0
 11
-9.683070866141733
 21
1.263779527559055
 31
0.0
  0
LINE
  5
3DA4
330
1E
100
AcDbEntity
  8
7
100
AcDbLine
 10
-9.683070866141733
 20
1.263779527559055
 30
0.0
 11
-9.688976377952755
 21
1.260826771653543
 31
0.0
  0
LINE
  5
3DA5
330
1E
100
AcDbEntity
  8
7
100
AcDbLine
 10
-9.682086614173229
 20
1.270669291338582
 30
0.0
 11
-9.681102362204725
 21
1.269685039370078
 31
0.0
  0
LINE
  5
3DA6
330
1E
100
AcDbEntity
  8
7
100
AcDbLine
 10
-9.681102362204725
 20
1.269685039370078
 30
0.0
 11
-9.68011811023622
 21
1.26279527559055
 31
0.0
  0
LINE
  5
3DA7
330
1E
100
AcDbEntity
  8
7
100
AcDbLine
 10
-9.889763779527559
 20
1.26279527559055
 30
0.0
 11
-9.888779527559055
 21
1.269685039370078
 31
0.0
  0
LINE
  5
3DA8
330
1E
100
AcDbEntity
  8
7
100
AcDbLine
 10
-9.888779527559055
 20
1.269685039370078
 30
0.0
 11
-9.887795275590551
 21
1.270669291338582
 31
0.0
  0
LINE
  5
3DA9
330
1E
100
AcDbEntity
  8
7
100
AcDbLine
 10
-10.31692913385826
 20
1.270669291338582
 30
0.0
 11
-10.31594488188976
 21
1.269685039370078
 31
0.0
  0
LINE
  5
3DAA
330
1E
100
AcDbEntity
  8
7
100
AcDbLine
 10
-10.31594488188976
 20
1.269685039370078
 30
0.0
 11
-10.31496062992125
 21
1.26279527559055
 31
0.0
  0
LINE
  5
3DAB
330
1E
100
AcDbEntity
  8
7
100
AcDbLine
 10
-10.52460629921259
 20
1.26279527559055
 30
0.0
 11
-10.52362204724409
 21
1.269685039370078
 31
0.0
  0
LINE
  5
3DAC
330
1E
100
AcDbEntity
  8
7
100
AcDbLine
 10
-10.52362204724409
 20
1.269685039370078
 30
0.0
 11
-10.52263779527559
 21
1.270669291338582
 31
0.0
  0
LINE
  5
3DAD
330
1E
100
AcDbEntity
  8
7
100
AcDbLine
 10
-10.0767716535433
 20
1.1751968503937
 30
0.0
 11
-10.07874015748031
 21
1.177165354330708
 31
0.0
  0
LINE
  5
3DAE
330
1E
100
AcDbEntity
  8
7
100
AcDbLine
 10
-10.07874015748031
 20
1.177165354330708
 30
0.0
 11
-10.08070866141732
 21
1.179133858267716
 31
0.0
  0
LINE
  5
3DAF
330
1E
100
AcDbEntity
  8
7
100
AcDbLine
 10
-10.07480314960629
 20
1.179133858267716
 30
0.0
 11
-10.07874015748031
 21
1.18011811023622
 31
0.0
  0
LINE
  5
3DB0
330
1E
100
AcDbEntity
  8
7
100
AcDbLine
 10
-10.07874015748031
 20
1.18011811023622
 30
0.0
 11
-10.07972440944881
 21
1.183070866141732
 31
0.0
  0
LINE
  5
3DB1
330
1E
100
AcDbEntity
  8
7
100
AcDbLine
 10
-10.07480314960629
 20
1.179133858267716
 30
0.0
 11
-10.07874015748031
 21
1.18011811023622
 31
0.0
  0
LINE
  5
3DB2
330
1E
100
AcDbEntity
  8
7
100
AcDbLine
 10
-10.07874015748031
 20
1.18011811023622
 30
0.0
 11
-10.07972440944881
 21
1.183070866141732
 31
0.0
  0
LINE
  5
3DB3
330
1E
100
AcDbEntity
  8
7
100
AcDbLine
 10
-10.07480314960629
 20
1.18011811023622
 30
0.0
 11
-10.07874015748031
 21
1.181102362204724
 31
0.0
  0
LINE
  5
3DB4
330
1E
100
AcDbEntity
  8
7
100
AcDbLine
 10
-10.07874015748031
 20
1.181102362204724
 30
0.0
 11
-10.07972440944881
 21
1.185039370078739
 31
0.0
  0
LINE
  5
3DB5
330
1E
100
AcDbEntity
  8
7
100
AcDbLine
 10
-10.07480314960629
 20
1.188976377952755
 30
0.0
 11
-10.07874015748031
 21
1.18996062992126
 31
0.0
  0
LINE
  5
3DB6
330
1E
100
AcDbEntity
  8
7
100
AcDbLine
 10
-10.07874015748031
 20
1.18996062992126
 30
0.0
 11
-10.07972440944881
 21
1.193897637795275
 31
0.0
  0
LINE
  5
3DB7
330
1E
100
AcDbEntity
  8
7
100
AcDbLine
 10
-10.12401574803149
 20
1.179133858267716
 30
0.0
 11
-10.1259842519685
 21
1.177165354330708
 31
0.0
  0
LINE
  5
3DB8
330
1E
100
AcDbEntity
  8
7
100
AcDbLine
 10
-10.1259842519685
 20
1.177165354330708
 30
0.0
 11
-10.12893700787401
 21
1.1751968503937
 31
0.0
  0
LINE
  5
3DB9
330
1E
100
AcDbEntity
  8
7
100
AcDbLine
 10
-10.12499999999999
 20
1.183070866141732
 30
0.0
 11
-10.126968503937
 21
1.18011811023622
 31
0.0
  0
LINE
  5
3DBA
330
1E
100
AcDbEntity
  8
7
100
AcDbLine
 10
-10.126968503937
 20
1.18011811023622
 30
0.0
 11
-10.12992125984252
 21
1.179133858267716
 31
0.0
  0
LINE
  5
3DBB
330
1E
100
AcDbEntity
  8
7
100
AcDbLine
 10
-10.12499999999999
 20
1.183070866141732
 30
0.0
 11
-10.126968503937
 21
1.18011811023622
 31
0.0
  0
LINE
  5
3DBC
330
1E
100
AcDbEntity
  8
7
100
AcDbLine
 10
-10.126968503937
 20
1.18011811023622
 30
0.0
 11
-10.12992125984252
 21
1.179133858267716
 31
0.0
  0
LINE
  5
3DBD
330
1E
100
AcDbEntity
  8
7
100
AcDbLine
 10
-10.12499999999999
 20
1.185039370078739
 30
0.0
 11
-10.126968503937
 21
1.181102362204724
 31
0.0
  0
LINE
  5
3DBE
330
1E
100
AcDbEntity
  8
7
100
AcDbLine
 10
-10.126968503937
 20
1.181102362204724
 30
0.0
 11
-10.12992125984252
 21
1.18011811023622
 31
0.0
  0
LINE
  5
3DBF
330
1E
100
AcDbEntity
  8
7
100
AcDbLine
 10
-10.12499999999999
 20
1.193897637795275
 30
0.0
 11
-10.126968503937
 21
1.18996062992126
 31
0.0
  0
LINE
  5
3DC0
330
1E
100
AcDbEntity
  8
7
100
AcDbLine
 10
-10.126968503937
 20
1.18996062992126
 30
0.0
 11
-10.12992125984252
 21
1.188976377952755
 31
0.0
  0
LINE
  5
3DC1
330
1E
100
AcDbEntity
  8
7
100
AcDbLine
 10
-10.08464566929133
 20
1.167322834645669
 30
0.0
 11
-10.08267716535433
 21
1.172244094488188
 31
0.0
  0
LINE
  5
3DC2
330
1E
100
AcDbEntity
  8
7
100
AcDbLine
 10
-10.08267716535433
 20
1.172244094488188
 30
0.0
 11
-10.08070866141732
 21
1.179133858267716
 31
0.0
  0
LINE
  5
3DC3
330
1E
100
AcDbEntity
  8
7
100
AcDbLine
 10
-10.08070866141732
 20
1.179133858267716
 30
0.0
 11
-10.08070866141732
 21
1.181102362204724
 31
0.0
  0
LINE
  5
3DC4
330
1E
100
AcDbEntity
  8
7
100
AcDbLine
 10
-10.08070866141732
 20
1.181102362204724
 30
0.0
 11
-10.07972440944881
 21
1.183070866141732
 31
0.0
  0
LINE
  5
3DC5
330
1E
100
AcDbEntity
  8
7
100
AcDbLine
 10
-10.08070866141732
 20
1.179133858267716
 30
0.0
 11
-10.08267716535433
 21
1.178149606299212
 31
0.0
  0
LINE
  5
3DC6
330
1E
100
AcDbEntity
  8
7
100
AcDbLine
 10
-10.08267716535433
 20
1.178149606299212
 30
0.0
 11
-10.08464566929133
 21
1.178149606299212
 31
0.0
  0
LINE
  5
3DC7
330
1E
100
AcDbEntity
  8
7
100
AcDbLine
 10
-10.07972440944881
 20
1.183070866141732
 30
0.0
 11
-10.08169291338582
 21
1.185039370078739
 31
0.0
  0
LINE
  5
3DC8
330
1E
100
AcDbEntity
  8
7
100
AcDbLine
 10
-10.08169291338582
 20
1.185039370078739
 30
0.0
 11
-10.08464566929133
 21
1.186023622047244
 31
0.0
  0
LINE
  5
3DC9
330
1E
100
AcDbEntity
  8
7
100
AcDbLine
 10
-10.07972440944881
 20
1.230314960629921
 30
0.0
 11
-10.08169291338582
 21
1.232283464566928
 31
0.0
  0
LINE
  5
3DCA
330
1E
100
AcDbEntity
  8
7
100
AcDbLine
 10
-10.08169291338582
 20
1.232283464566928
 30
0.0
 11
-10.08464566929133
 21
1.232283464566928
 31
0.0
  0
LINE
  5
3DCB
330
1E
100
AcDbEntity
  8
7
100
AcDbLine
 10
-10.07972440944881
 20
1.230314960629921
 30
0.0
 11
-10.08169291338582
 21
1.232283464566928
 31
0.0
  0
LINE
  5
3DCC
330
1E
100
AcDbEntity
  8
7
100
AcDbLine
 10
-10.08169291338582
 20
1.232283464566928
 30
0.0
 11
-10.08464566929133
 21
1.233267716535433
 31
0.0
  0
LINE
  5
3DCD
330
1E
100
AcDbEntity
  8
7
100
AcDbLine
 10
-10.12007874015748
 20
1.178149606299212
 30
0.0
 11
-10.12204724409448
 21
1.178149606299212
 31
0.0
  0
LINE
  5
3DCE
330
1E
100
AcDbEntity
  8
7
100
AcDbLine
 10
-10.12204724409448
 20
1.178149606299212
 30
0.0
 11
-10.12401574803149
 21
1.179133858267716
 31
0.0
  0
LINE
  5
3DCF
330
1E
100
AcDbEntity
  8
7
100
AcDbLine
 10
-10.12401574803149
 20
1.179133858267716
 30
0.0
 11
-10.12204724409448
 21
1.172244094488188
 31
0.0
  0
LINE
  5
3DD0
330
1E
100
AcDbEntity
  8
7
100
AcDbLine
 10
-10.12204724409448
 20
1.172244094488188
 30
0.0
 11
-10.12007874015748
 21
1.167322834645669
 31
0.0
  0
LINE
  5
3DD1
330
1E
100
AcDbEntity
  8
7
100
AcDbLine
 10
-10.12007874015748
 20
1.186023622047244
 30
0.0
 11
-10.12401574803149
 21
1.185039370078739
 31
0.0
  0
LINE
  5
3DD2
330
1E
100
AcDbEntity
  8
7
100
AcDbLine
 10
-10.12401574803149
 20
1.185039370078739
 30
0.0
 11
-10.12499999999999
 21
1.183070866141732
 31
0.0
  0
LINE
  5
3DD3
330
1E
100
AcDbEntity
  8
7
100
AcDbLine
 10
-10.12499999999999
 20
1.183070866141732
 30
0.0
 11
-10.12499999999999
 21
1.18011811023622
 31
0.0
  0
LINE
  5
3DD4
330
1E
100
AcDbEntity
  8
7
100
AcDbLine
 10
-10.12499999999999
 20
1.18011811023622
 30
0.0
 11
-10.12401574803149
 21
1.179133858267716
 31
0.0
  0
LINE
  5
3DD5
330
1E
100
AcDbEntity
  8
7
100
AcDbLine
 10
-10.12007874015748
 20
1.232283464566928
 30
0.0
 11
-10.12401574803149
 21
1.232283464566928
 31
0.0
  0
LINE
  5
3DD6
330
1E
100
AcDbEntity
  8
7
100
AcDbLine
 10
-10.12401574803149
 20
1.232283464566928
 30
0.0
 11
-10.12499999999999
 21
1.230314960629921
 31
0.0
  0
LINE
  5
3DD7
330
1E
100
AcDbEntity
  8
7
100
AcDbLine
 10
-10.12007874015748
 20
1.233267716535433
 30
0.0
 11
-10.12401574803149
 21
1.232283464566928
 31
0.0
  0
LINE
  5
3DD8
330
1E
100
AcDbEntity
  8
7
100
AcDbLine
 10
-10.12401574803149
 20
1.232283464566928
 30
0.0
 11
-10.12499999999999
 21
1.230314960629921
 31
0.0
  0
LINE
  5
3DD9
330
1E
100
AcDbEntity
  8
7
100
AcDbLine
 10
-10.12992125984252
 20
1.194881889763779
 30
0.0
 11
-10.126968503937
 21
1.194881889763779
 31
0.0
  0
LINE
  5
3DDA
330
1E
100
AcDbEntity
  8
7
100
AcDbLine
 10
-10.126968503937
 20
1.194881889763779
 30
0.0
 11
-10.12499999999999
 21
1.193897637795275
 31
0.0
  0
LINE
  5
3DDB
330
1E
100
AcDbEntity
  8
7
100
AcDbLine
 10
-10.07480314960629
 20
1.254921259842519
 30
0.0
 11
-10.07874015748031
 21
1.239173228346456
 31
0.0
  0
LINE
  5
3DDC
330
1E
100
AcDbEntity
  8
7
100
AcDbLine
 10
-10.07874015748031
 20
1.239173228346456
 30
0.0
 11
-10.07972440944881
 21
1.230314960629921
 31
0.0
  0
LINE
  5
3DDD
330
1E
100
AcDbEntity
  8
7
100
AcDbLine
 10
-10.07972440944881
 20
1.193897637795275
 30
0.0
 11
-10.07874015748031
 21
1.194881889763779
 31
0.0
  0
LINE
  5
3DDE
330
1E
100
AcDbEntity
  8
7
100
AcDbLine
 10
-10.07874015748031
 20
1.194881889763779
 30
0.0
 11
-10.07480314960629
 21
1.194881889763779
 31
0.0
  0
LINE
  5
3DDF
330
1E
100
AcDbEntity
  8
7
100
AcDbLine
 10
-9.489173228346457
 20
1.179133858267716
 30
0.0
 11
-9.491141732283464
 21
1.177165354330708
 31
0.0
  0
LINE
  5
3DE0
330
1E
100
AcDbEntity
  8
7
100
AcDbLine
 10
-9.491141732283464
 20
1.177165354330708
 30
0.0
 11
-9.493110236220472
 21
1.1751968503937
 31
0.0
  0
LINE
  5
3DE1
330
1E
100
AcDbEntity
  8
7
100
AcDbLine
 10
-9.490157480314961
 20
1.183070866141732
 30
0.0
 11
-9.491141732283464
 21
1.18011811023622
 31
0.0
  0
LINE
  5
3DE2
330
1E
100
AcDbEntity
  8
7
100
AcDbLine
 10
-9.491141732283464
 20
1.18011811023622
 30
0.0
 11
-9.495078740157481
 21
1.179133858267716
 31
0.0
  0
LINE
  5
3DE3
330
1E
100
AcDbEntity
  8
7
100
AcDbLine
 10
-9.490157480314961
 20
1.183070866141732
 30
0.0
 11
-9.491141732283464
 21
1.18011811023622
 31
0.0
  0
LINE
  5
3DE4
330
1E
100
AcDbEntity
  8
7
100
AcDbLine
 10
-9.491141732283464
 20
1.18011811023622
 30
0.0
 11
-9.495078740157481
 21
1.179133858267716
 31
0.0
  0
LINE
  5
3DE5
330
1E
100
AcDbEntity
  8
7
100
AcDbLine
 10
-9.490157480314961
 20
1.185039370078739
 30
0.0
 11
-9.491141732283464
 21
1.181102362204724
 31
0.0
  0
LINE
  5
3DE6
330
1E
100
AcDbEntity
  8
7
100
AcDbLine
 10
-9.491141732283464
 20
1.181102362204724
 30
0.0
 11
-9.495078740157481
 21
1.18011811023622
 31
0.0
  0
LINE
  5
3DE7
330
1E
100
AcDbEntity
  8
7
100
AcDbLine
 10
-9.490157480314961
 20
1.193897637795275
 30
0.0
 11
-9.491141732283464
 21
1.18996062992126
 31
0.0
  0
LINE
  5
3DE8
330
1E
100
AcDbEntity
  8
7
100
AcDbLine
 10
-9.491141732283464
 20
1.18996062992126
 30
0.0
 11
-9.495078740157481
 21
1.188976377952755
 31
0.0
  0
LINE
  5
3DE9
330
1E
100
AcDbEntity
  8
7
100
AcDbLine
 10
-9.489173228346457
 20
1.179133858267716
 30
0.0
 11
-9.487204724409448
 21
1.172244094488188
 31
0.0
  0
LINE
  5
3DEA
330
1E
100
AcDbEntity
  8
7
100
AcDbLine
 10
-9.487204724409448
 20
1.172244094488188
 30
0.0
 11
-9.48523622047244
 21
1.167322834645669
 31
0.0
  0
LINE
  5
3DEB
330
1E
100
AcDbEntity
  8
7
100
AcDbLine
 10
-9.48523622047244
 20
1.178149606299212
 30
0.0
 11
-9.487204724409448
 21
1.178149606299212
 31
0.0
  0
LINE
  5
3DEC
330
1E
100
AcDbEntity
  8
7
100
AcDbLine
 10
-9.487204724409448
 20
1.178149606299212
 30
0.0
 11
-9.489173228346457
 21
1.179133858267716
 31
0.0
  0
LINE
  5
3DED
330
1E
100
AcDbEntity
  8
7
100
AcDbLine
 10
-9.48523622047244
 20
1.186023622047244
 30
0.0
 11
-9.488188976377953
 21
1.185039370078739
 31
0.0
  0
LINE
  5
3DEE
330
1E
100
AcDbEntity
  8
7
100
AcDbLine
 10
-9.488188976377953
 20
1.185039370078739
 30
0.0
 11
-9.490157480314961
 21
1.183070866141732
 31
0.0
  0
LINE
  5
3DEF
330
1E
100
AcDbEntity
  8
7
100
AcDbLine
 10
-9.490157480314961
 20
1.183070866141732
 30
0.0
 11
-9.490157480314961
 21
1.18011811023622
 31
0.0
  0
LINE
  5
3DF0
330
1E
100
AcDbEntity
  8
7
100
AcDbLine
 10
-9.490157480314961
 20
1.18011811023622
 30
0.0
 11
-9.489173228346457
 21
1.179133858267716
 31
0.0
  0
LINE
  5
3DF1
330
1E
100
AcDbEntity
  8
7
100
AcDbLine
 10
-9.48523622047244
 20
1.232283464566928
 30
0.0
 11
-9.488188976377953
 21
1.232283464566928
 31
0.0
  0
LINE
  5
3DF2
330
1E
100
AcDbEntity
  8
7
100
AcDbLine
 10
-9.488188976377953
 20
1.232283464566928
 30
0.0
 11
-9.490157480314961
 21
1.230314960629921
 31
0.0
  0
LINE
  5
3DF3
330
1E
100
AcDbEntity
  8
7
100
AcDbLine
 10
-9.48523622047244
 20
1.233267716535433
 30
0.0
 11
-9.488188976377953
 21
1.232283464566928
 31
0.0
  0
LINE
  5
3DF4
330
1E
100
AcDbEntity
  8
7
100
AcDbLine
 10
-9.488188976377953
 20
1.232283464566928
 30
0.0
 11
-9.490157480314961
 21
1.230314960629921
 31
0.0
  0
LINE
  5
3DF5
330
1E
100
AcDbEntity
  8
7
100
AcDbLine
 10
-9.490157480314961
 20
1.230314960629921
 30
0.0
 11
-9.491141732283464
 21
1.239173228346456
 31
0.0
  0
LINE
  5
3DF6
330
1E
100
AcDbEntity
  8
7
100
AcDbLine
 10
-9.491141732283464
 20
1.239173228346456
 30
0.0
 11
-9.495078740157481
 21
1.254921259842519
 31
0.0
  0
LINE
  5
3DF7
330
1E
100
AcDbEntity
  8
7
100
AcDbLine
 10
-9.495078740157481
 20
1.194881889763779
 30
0.0
 11
-9.491141732283464
 21
1.194881889763779
 31
0.0
  0
LINE
  5
3DF8
330
1E
100
AcDbEntity
  8
7
100
AcDbLine
 10
-9.491141732283464
 20
1.194881889763779
 30
0.0
 11
-9.490157480314961
 21
1.193897637795275
 31
0.0
  0
LINE
  5
3DF9
330
1E
100
AcDbEntity
  8
7
100
AcDbLine
 10
-10.71161417322834
 20
1.1751968503937
 30
0.0
 11
-10.71456692913385
 21
1.177165354330708
 31
0.0
  0
LINE
  5
3DFA
330
1E
100
AcDbEntity
  8
7
100
AcDbLine
 10
-10.71456692913385
 20
1.177165354330708
 30
0.0
 11
-10.71555118110236
 21
1.179133858267716
 31
0.0
  0
LINE
  5
3DFB
330
1E
100
AcDbEntity
  8
7
100
AcDbLine
 10
-10.70964566929133
 20
1.179133858267716
 30
0.0
 11
-10.71358267716535
 21
1.18011811023622
 31
0.0
  0
LINE
  5
3DFC
330
1E
100
AcDbEntity
  8
7
100
AcDbLine
 10
-10.71358267716535
 20
1.18011811023622
 30
0.0
 11
-10.71555118110236
 21
1.183070866141732
 31
0.0
  0
LINE
  5
3DFD
330
1E
100
AcDbEntity
  8
7
100
AcDbLine
 10
-10.70964566929133
 20
1.179133858267716
 30
0.0
 11
-10.71358267716535
 21
1.18011811023622
 31
0.0
  0
LINE
  5
3DFE
330
1E
100
AcDbEntity
  8
7
100
AcDbLine
 10
-10.71358267716535
 20
1.18011811023622
 30
0.0
 11
-10.71555118110236
 21
1.183070866141732
 31
0.0
  0
LINE
  5
3DFF
330
1E
100
AcDbEntity
  8
7
100
AcDbLine
 10
-10.70964566929133
 20
1.18011811023622
 30
0.0
 11
-10.71358267716535
 21
1.181102362204724
 31
0.0
  0
LINE
  5
3E00
330
1E
100
AcDbEntity
  8
7
100
AcDbLine
 10
-10.71358267716535
 20
1.181102362204724
 30
0.0
 11
-10.71555118110236
 21
1.185039370078739
 31
0.0
  0
LINE
  5
3E01
330
1E
100
AcDbEntity
  8
7
100
AcDbLine
 10
-10.70964566929133
 20
1.188976377952755
 30
0.0
 11
-10.71358267716535
 21
1.18996062992126
 31
0.0
  0
LINE
  5
3E02
330
1E
100
AcDbEntity
  8
7
100
AcDbLine
 10
-10.71358267716535
 20
1.18996062992126
 30
0.0
 11
-10.71555118110236
 21
1.193897637795275
 31
0.0
  0
LINE
  5
3E03
330
1E
100
AcDbEntity
  8
7
100
AcDbLine
 10
-10.72047244094488
 20
1.167322834645669
 30
0.0
 11
-10.71850393700787
 21
1.172244094488188
 31
0.0
  0
LINE
  5
3E04
330
1E
100
AcDbEntity
  8
7
100
AcDbLine
 10
-10.71850393700787
 20
1.172244094488188
 30
0.0
 11
-10.71555118110236
 21
1.179133858267716
 31
0.0
  0
LINE
  5
3E05
330
1E
100
AcDbEntity
  8
7
100
AcDbLine
 10
-10.71555118110236
 20
1.179133858267716
 30
0.0
 11
-10.71555118110236
 21
1.181102362204724
 31
0.0
  0
LINE
  5
3E06
330
1E
100
AcDbEntity
  8
7
100
AcDbLine
 10
-10.71555118110236
 20
1.181102362204724
 30
0.0
 11
-10.71555118110236
 21
1.183070866141732
 31
0.0
  0
LINE
  5
3E07
330
1E
100
AcDbEntity
  8
7
100
AcDbLine
 10
-10.71555118110236
 20
1.179133858267716
 30
0.0
 11
-10.71751968503937
 21
1.178149606299212
 31
0.0
  0
LINE
  5
3E08
330
1E
100
AcDbEntity
  8
7
100
AcDbLine
 10
-10.71751968503937
 20
1.178149606299212
 30
0.0
 11
-10.72047244094488
 21
1.178149606299212
 31
0.0
  0
LINE
  5
3E09
330
1E
100
AcDbEntity
  8
7
100
AcDbLine
 10
-10.71555118110236
 20
1.183070866141732
 30
0.0
 11
-10.71653543307086
 21
1.185039370078739
 31
0.0
  0
LINE
  5
3E0A
330
1E
100
AcDbEntity
  8
7
100
AcDbLine
 10
-10.71653543307086
 20
1.185039370078739
 30
0.0
 11
-10.72047244094488
 21
1.186023622047244
 31
0.0
  0
LINE
  5
3E0B
330
1E
100
AcDbEntity
  8
7
100
AcDbLine
 10
-10.71555118110236
 20
1.230314960629921
 30
0.0
 11
-10.71653543307086
 21
1.232283464566928
 31
0.0
  0
LINE
  5
3E0C
330
1E
100
AcDbEntity
  8
7
100
AcDbLine
 10
-10.71653543307086
 20
1.232283464566928
 30
0.0
 11
-10.72047244094488
 21
1.232283464566928
 31
0.0
  0
LINE
  5
3E0D
330
1E
100
AcDbEntity
  8
7
100
AcDbLine
 10
-10.70964566929133
 20
1.254921259842519
 30
0.0
 11
-10.71062992125984
 21
1.254921259842519
 31
0.0
  0
LINE
  5
3E0E
330
1E
100
AcDbEntity
  8
7
100
AcDbLine
 10
-10.71062992125984
 20
1.254921259842519
 30
0.0
 11
-10.71358267716535
 21
1.239173228346456
 31
0.0
  0
LINE
  5
3E0F
330
1E
100
AcDbEntity
  8
7
100
AcDbLine
 10
-10.71358267716535
 20
1.239173228346456
 30
0.0
 11
-10.71555118110236
 21
1.230314960629921
 31
0.0
  0
LINE
  5
3E10
330
1E
100
AcDbEntity
  8
7
100
AcDbLine
 10
-10.71555118110236
 20
1.230314960629921
 30
0.0
 11
-10.71653543307086
 21
1.232283464566928
 31
0.0
  0
LINE
  5
3E11
330
1E
100
AcDbEntity
  8
7
100
AcDbLine
 10
-10.71653543307086
 20
1.232283464566928
 30
0.0
 11
-10.72047244094488
 21
1.233267716535433
 31
0.0
  0
LINE
  5
3E12
330
1E
100
AcDbEntity
  8
7
100
AcDbLine
 10
-9.306102362204725
 20
0.8887795275590555
 30
0.0
 11
-9.307086614173229
 21
0.8887795275590555
 31
0.0
  0
LINE
  5
3E13
330
1E
100
AcDbEntity
  8
7
100
AcDbLine
 10
-9.307086614173229
 20
0.8887795275590555
 30
0.0
 11
-9.318897637795275
 21
0.9114173228346453
 31
0.0
  0
LINE
  5
3E14
330
1E
100
AcDbEntity
  8
7
100
AcDbLine
 10
-9.318897637795275
 20
0.9114173228346453
 30
0.0
 11
-9.328740157480314
 21
0.9340551181102361
 31
0.0
  0
LINE
  5
3E15
330
1E
100
AcDbEntity
  8
7
100
AcDbLine
 10
-9.328740157480314
 20
0.9340551181102361
 30
0.0
 11
-9.331692913385827
 21
0.9458661417322833
 31
0.0
  0
LINE
  5
3E16
330
1E
100
AcDbEntity
  8
7
100
AcDbLine
 10
-10.87401574803149
 20
0.9458661417322833
 30
0.0
 11
-10.8759842519685
 21
0.9340551181102361
 31
0.0
  0
LINE
  5
3E17
330
1E
100
AcDbEntity
  8
7
100
AcDbLine
 10
-10.8759842519685
 20
0.9340551181102361
 30
0.0
 11
-10.88681102362204
 21
0.9114173228346453
 31
0.0
  0
LINE
  5
3E18
330
1E
100
AcDbEntity
  8
7
100
AcDbLine
 10
-10.88681102362204
 20
0.9114173228346453
 30
0.0
 11
-10.89862204724409
 21
0.8887795275590555
 31
0.0
  0
LINE
  5
3E19
330
1E
100
AcDbEntity
  8
7
100
AcDbLine
 10
-11.0767716535433
 20
0.2047244094488185
 30
0.0
 11
-11.07283464566929
 21
0.1712598425196852
 31
0.0
  0
LINE
  5
3E1A
330
1E
100
AcDbEntity
  8
7
100
AcDbLine
 10
-11.07283464566929
 20
0.1712598425196852
 30
0.0
 11
-11.06102362204724
 21
0.1387795275590555
 31
0.0
  0
LINE
  5
3E1B
330
1E
100
AcDbEntity
  8
7
100
AcDbLine
 10
-11.06102362204724
 20
0.1387795275590555
 30
0.0
 11
-11.04035433070866
 21
0.1122047244094491
 31
0.0
  0
LINE
  5
3E1C
330
1E
100
AcDbEntity
  8
7
100
AcDbLine
 10
-11.04035433070866
 20
0.1122047244094491
 30
0.0
 11
-11.01377952755905
 21
0.0905511811023621
 31
0.0
  0
LINE
  5
3E1D
330
1E
100
AcDbEntity
  8
7
100
AcDbLine
 10
-11.01377952755905
 20
0.0905511811023621
 30
0.0
 11
-10.98326771653543
 21
0.0777559055118111
 31
0.0
  0
LINE
  5
3E1E
330
1E
100
AcDbEntity
  8
7
100
AcDbLine
 10
-10.98326771653543
 20
0.0777559055118111
 30
0.0
 11
-10.94881889763779
 21
0.0728346456692917
 31
0.0
  0
LINE
  5
3E1F
330
1E
100
AcDbEntity
  8
7
100
AcDbLine
 10
-11.05413385826771
 20
1.428149606299212
 30
0.0
 11
-11.0767716535433
 21
0.2047244094488185
 31
0.0
  0
LINE
  5
3E20
330
1E
100
AcDbEntity
  8
7
100
AcDbLine
 10
-11.0767716535433
 20
0.2047244094488185
 30
0.0
 11
-11.08661417322834
 21
0.1948818897637796
 31
0.0
  0
LINE
  5
3E21
330
1E
100
AcDbEntity
  8
7
100
AcDbLine
 10
-10.94586614173228
 20
2.02263779527559
 30
0.0
 11
-10.97440944881889
 21
2.018700787401574
 31
0.0
  0
LINE
  5
3E22
330
1E
100
AcDbEntity
  8
7
100
AcDbLine
 10
-10.97440944881889
 20
2.018700787401574
 30
0.0
 11
-11.0009842519685
 21
2.008858267716535
 31
0.0
  0
LINE
  5
3E23
330
1E
100
AcDbEntity
  8
7
100
AcDbLine
 10
-11.0009842519685
 20
2.008858267716535
 30
0.0
 11
-11.0255905511811
 21
1.993110236220472
 31
0.0
  0
LINE
  5
3E24
330
1E
100
AcDbEntity
  8
7
100
AcDbLine
 10
-11.0255905511811
 20
1.993110236220472
 30
0.0
 11
-11.04527559055118
 21
1.971456692913386
 31
0.0
  0
LINE
  5
3E25
330
1E
100
AcDbEntity
  8
7
100
AcDbLine
 10
-11.04527559055118
 20
1.971456692913386
 30
0.0
 11
-11.06003937007874
 21
1.946850393700787
 31
0.0
  0
LINE
  5
3E26
330
1E
100
AcDbEntity
  8
7
100
AcDbLine
 10
-11.06003937007874
 20
1.946850393700787
 30
0.0
 11
-11.06889763779527
 21
1.918307086614173
 31
0.0
  0
LINE
  5
3E27
330
1E
100
AcDbEntity
  8
7
100
AcDbLine
 10
-11.06889763779527
 20
1.918307086614173
 30
0.0
 11
-11.07086614173228
 21
1.88779527559055
 31
0.0
  0
LINE
  5
3E28
330
1E
100
AcDbEntity
  8
7
100
AcDbLine
 10
-11.05413385826771
 20
1.473425196850393
 30
0.0
 11
-11.04822834645669
 21
1.477362204724409
 31
0.0
  0
LINE
  5
3E29
330
1E
100
AcDbEntity
  8
7
100
AcDbLine
 10
-11.04822834645669
 20
1.477362204724409
 30
0.0
 11
-11.03543307086614
 21
1.480314960629921
 31
0.0
  0
LINE
  5
3E2A
330
1E
100
AcDbEntity
  8
7
100
AcDbLine
 10
-11.05413385826771
 20
1.473425196850393
 30
0.0
 11
-11.05413385826771
 21
1.428149606299212
 31
0.0
  0
LINE
  5
3E2B
330
1E
100
AcDbEntity
  8
7
100
AcDbLine
 10
-11.05413385826771
 20
1.428149606299212
 30
0.0
 11
-11.04724409448818
 21
1.426181102362204
 31
0.0
  0
LINE
  5
3E2C
330
1E
100
AcDbEntity
  8
7
100
AcDbLine
 10
-11.04724409448818
 20
1.426181102362204
 30
0.0
 11
-11.03248031496063
 21
1.4251968503937
 31
0.0
  0
LINE
  5
3E2D
330
1E
100
AcDbEntity
  8
7
100
AcDbLine
 10
-10.87401574803149
 20
0.9458661417322833
 30
0.0
 11
-10.87401574803149
 21
0.9478346456692916
 31
0.0
  0
LINE
  5
3E2E
330
1E
100
AcDbEntity
  8
7
100
AcDbLine
 10
-10.87401574803149
 20
0.9478346456692916
 30
0.0
 11
-10.87401574803149
 21
0.9488188976377953
 31
0.0
  0
LINE
  5
3E2F
330
1E
100
AcDbEntity
  8
7
100
AcDbLine
 10
-10.87401574803149
 20
1.113188976377952
 30
0.0
 11
-10.87401574803149
 21
1.083661417322834
 31
0.0
  0
LINE
  5
3E30
330
1E
100
AcDbEntity
  8
7
100
AcDbLine
 10
-10.87401574803149
 20
1.083661417322834
 30
0.0
 11
-10.87401574803149
 21
1.052165354330708
 31
0.0
  0
LINE
  5
3E31
330
1E
100
AcDbEntity
  8
7
100
AcDbLine
 10
-10.87401574803149
 20
1.052165354330708
 30
0.0
 11
-10.87401574803149
 21
1.024606299212598
 31
0.0
  0
LINE
  5
3E32
330
1E
100
AcDbEntity
  8
7
100
AcDbLine
 10
-10.87401574803149
 20
1.024606299212598
 30
0.0
 11
-10.87401574803149
 21
1.003937007874015
 31
0.0
  0
LINE
  5
3E33
330
1E
100
AcDbEntity
  8
7
100
AcDbLine
 10
-10.87401574803149
 20
1.003937007874015
 30
0.0
 11
-10.87401574803149
 21
0.9488188976377953
 31
0.0
  0
LINE
  5
3E34
330
1E
100
AcDbEntity
  8
7
100
AcDbLine
 10
-10.87401574803149
 20
0.9488188976377953
 30
0.0
 11
-10.77165354330708
 21
0.9488188976377953
 31
0.0
  0
LINE
  5
3E35
330
1E
100
AcDbEntity
  8
7
100
AcDbLine
 10
-9.981299212598425
 20
0.3179133858267713
 30
0.0
 11
-9.994094488188977
 21
0.3474409448818898
 31
0.0
  0
LINE
  5
3E36
330
1E
100
AcDbEntity
  8
7
100
AcDbLine
 10
-9.994094488188977
 20
0.3474409448818898
 30
0.0
 11
-10.01377952755905
 21
0.3740157480314963
 31
0.0
  0
LINE
  5
3E37
330
1E
100
AcDbEntity
  8
7
100
AcDbLine
 10
-10.01377952755905
 20
0.3740157480314963
 30
0.0
 11
-10.03937007874015
 21
0.393700787401575
 31
0.0
  0
LINE
  5
3E38
330
1E
100
AcDbEntity
  8
7
100
AcDbLine
 10
-10.03937007874015
 20
0.393700787401575
 30
0.0
 11
-10.06988188976378
 21
0.406496062992126
 31
0.0
  0
LINE
  5
3E39
330
1E
100
AcDbEntity
  8
7
100
AcDbLine
 10
-10.06988188976378
 20
0.406496062992126
 30
0.0
 11
-10.1023622047244
 21
0.4104330708661417
 31
0.0
  0
LINE
  5
3E3A
330
1E
100
AcDbEntity
  8
7
100
AcDbLine
 10
-10.1023622047244
 20
0.4104330708661417
 30
0.0
 11
-10.13484251968504
 21
0.406496062992126
 31
0.0
  0
LINE
  5
3E3B
330
1E
100
AcDbEntity
  8
7
100
AcDbLine
 10
-10.13484251968504
 20
0.406496062992126
 30
0.0
 11
-10.16437007874015
 21
0.393700787401575
 31
0.0
  0
LINE
  5
3E3C
330
1E
100
AcDbEntity
  8
7
100
AcDbLine
 10
-10.16437007874015
 20
0.393700787401575
 30
0.0
 11
-10.19094488188976
 21
0.3740157480314963
 31
0.0
  0
LINE
  5
3E3D
330
1E
100
AcDbEntity
  8
7
100
AcDbLine
 10
-10.19094488188976
 20
0.3740157480314963
 30
0.0
 11
-10.21062992125984
 21
0.3484251968503935
 31
0.0
  0
LINE
  5
3E3E
330
1E
100
AcDbEntity
  8
7
100
AcDbLine
 10
-10.21062992125984
 20
0.3484251968503935
 30
0.0
 11
-10.22342519685039
 21
0.3179133858267713
 31
0.0
  0
LINE
  5
3E3F
330
1E
100
AcDbEntity
  8
7
100
AcDbLine
 10
-10.22342519685039
 20
0.3179133858267713
 30
0.0
 11
-10.22736220472441
 21
0.2854330708661417
 31
0.0
  0
LINE
  5
3E40
330
1E
100
AcDbEntity
  8
7
100
AcDbLine
 10
-10.22736220472441
 20
0.2854330708661417
 30
0.0
 11
-10.22342519685039
 21
0.252952755905512
 31
0.0
  0
LINE
  5
3E41
330
1E
100
AcDbEntity
  8
7
100
AcDbLine
 10
-10.22342519685039
 20
0.252952755905512
 30
0.0
 11
-10.21062992125984
 21
0.2234251968503935
 31
0.0
  0
LINE
  5
3E42
330
1E
100
AcDbEntity
  8
7
100
AcDbLine
 10
-10.21062992125984
 20
0.2234251968503935
 30
0.0
 11
-10.19094488188976
 21
0.196850393700787
 31
0.0
  0
LINE
  5
3E43
330
1E
100
AcDbEntity
  8
7
100
AcDbLine
 10
-10.19094488188976
 20
0.196850393700787
 30
0.0
 11
-10.16535433070866
 21
0.1771653543307083
 31
0.0
  0
LINE
  5
3E44
330
1E
100
AcDbEntity
  8
7
100
AcDbLine
 10
-10.16535433070866
 20
0.1771653543307083
 30
0.0
 11
-10.13484251968504
 21
0.1643700787401574
 31
0.0
  0
LINE
  5
3E45
330
1E
100
AcDbEntity
  8
7
100
AcDbLine
 10
-10.13484251968504
 20
0.1643700787401574
 30
0.0
 11
-10.1023622047244
 21
0.1604330708661417
 31
0.0
  0
LINE
  5
3E46
330
1E
100
AcDbEntity
  8
7
100
AcDbLine
 10
-10.1023622047244
 20
0.1604330708661417
 30
0.0
 11
-10.06988188976378
 21
0.1643700787401574
 31
0.0
  0
LINE
  5
3E47
330
1E
100
AcDbEntity
  8
7
100
AcDbLine
 10
-10.06988188976378
 20
0.1643700787401574
 30
0.0
 11
-10.04035433070866
 21
0.1771653543307083
 31
0.0
  0
LINE
  5
3E48
330
1E
100
AcDbEntity
  8
7
100
AcDbLine
 10
-10.04035433070866
 20
0.1771653543307083
 30
0.0
 11
-10.01377952755905
 21
0.196850393700787
 31
0.0
  0
LINE
  5
3E49
330
1E
100
AcDbEntity
  8
7
100
AcDbLine
 10
-10.01377952755905
 20
0.196850393700787
 30
0.0
 11
-9.994094488188977
 21
0.2224409448818898
 31
0.0
  0
LINE
  5
3E4A
330
1E
100
AcDbEntity
  8
7
100
AcDbLine
 10
-9.994094488188977
 20
0.2224409448818898
 30
0.0
 11
-9.981299212598425
 21
0.252952755905512
 31
0.0
  0
LINE
  5
3E4B
330
1E
100
AcDbEntity
  8
7
100
AcDbLine
 10
-9.981299212598425
 20
0.252952755905512
 30
0.0
 11
-9.977362204724409
 21
0.2854330708661417
 31
0.0
  0
LINE
  5
3E4C
330
1E
100
AcDbEntity
  8
7
100
AcDbLine
 10
-9.977362204724409
 20
0.2854330708661417
 30
0.0
 11
-9.981299212598425
 21
0.3179133858267713
 31
0.0
  0
LINE
  5
3E4D
330
1E
100
AcDbEntity
  8
7
100
AcDbLine
 10
-10.06594488188976
 20
0.3484251968503935
 30
0.0
 11
-10.08956692913385
 21
0.3572834645669287
 31
0.0
  0
LINE
  5
3E4E
330
1E
100
AcDbEntity
  8
7
100
AcDbLine
 10
-10.08956692913385
 20
0.3572834645669287
 30
0.0
 11
-10.11515748031496
 21
0.3572834645669287
 31
0.0
  0
LINE
  5
3E4F
330
1E
100
AcDbEntity
  8
7
100
AcDbLine
 10
-10.11515748031496
 20
0.3572834645669287
 30
0.0
 11
-10.13877952755905
 21
0.3484251968503935
 31
0.0
  0
LINE
  5
3E50
330
1E
100
AcDbEntity
  8
7
100
AcDbLine
 10
-10.13877952755905
 20
0.3484251968503935
 30
0.0
 11
-10.15846456692913
 21
0.3326771653543306
 31
0.0
  0
LINE
  5
3E51
330
1E
100
AcDbEntity
  8
7
100
AcDbLine
 10
-10.15846456692913
 20
0.3326771653543306
 30
0.0
 11
-10.17125984251968
 21
0.3100393700787398
 31
0.0
  0
LINE
  5
3E52
330
1E
100
AcDbEntity
  8
7
100
AcDbLine
 10
-10.17125984251968
 20
0.3100393700787398
 30
0.0
 11
-10.1751968503937
 21
0.2854330708661417
 31
0.0
  0
LINE
  5
3E53
330
1E
100
AcDbEntity
  8
7
100
AcDbLine
 10
-10.1751968503937
 20
0.2854330708661417
 30
0.0
 11
-10.17125984251968
 21
0.2608267716535435
 31
0.0
  0
LINE
  5
3E54
330
1E
100
AcDbEntity
  8
7
100
AcDbLine
 10
-10.17125984251968
 20
0.2608267716535435
 30
0.0
 11
-10.15846456692913
 21
0.2381889763779528
 31
0.0
  0
LINE
  5
3E55
330
1E
100
AcDbEntity
  8
7
100
AcDbLine
 10
-10.15846456692913
 20
0.2381889763779528
 30
0.0
 11
-10.13877952755905
 21
0.2224409448818898
 31
0.0
  0
LINE
  5
3E56
330
1E
100
AcDbEntity
  8
7
100
AcDbLine
 10
-10.13877952755905
 20
0.2224409448818898
 30
0.0
 11
-10.11515748031496
 21
0.2135826771653546
 31
0.0
  0
LINE
  5
3E57
330
1E
100
AcDbEntity
  8
7
100
AcDbLine
 10
-10.11515748031496
 20
0.2135826771653546
 30
0.0
 11
-10.08956692913385
 21
0.2135826771653546
 31
0.0
  0
LINE
  5
3E58
330
1E
100
AcDbEntity
  8
7
100
AcDbLine
 10
-10.08956692913385
 20
0.2135826771653546
 30
0.0
 11
-10.06594488188976
 21
0.2224409448818898
 31
0.0
  0
LINE
  5
3E59
330
1E
100
AcDbEntity
  8
7
100
AcDbLine
 10
-10.06594488188976
 20
0.2224409448818898
 30
0.0
 11
-10.04625984251968
 21
0.2381889763779528
 31
0.0
  0
LINE
  5
3E5A
330
1E
100
AcDbEntity
  8
7
100
AcDbLine
 10
-10.04625984251968
 20
0.2381889763779528
 30
0.0
 11
-10.03346456692913
 21
0.2608267716535435
 31
0.0
  0
LINE
  5
3E5B
330
1E
100
AcDbEntity
  8
7
100
AcDbLine
 10
-10.03346456692913
 20
0.2608267716535435
 30
0.0
 11
-10.02952755905511
 21
0.2854330708661417
 31
0.0
  0
LINE
  5
3E5C
330
1E
100
AcDbEntity
  8
7
100
AcDbLine
 10
-10.02952755905511
 20
0.2854330708661417
 30
0.0
 11
-10.03346456692913
 21
0.3100393700787398
 31
0.0
  0
LINE
  5
3E5D
330
1E
100
AcDbEntity
  8
7
100
AcDbLine
 10
-10.03346456692913
 20
0.3100393700787398
 30
0.0
 11
-10.04625984251968
 21
0.3326771653543306
 31
0.0
  0
LINE
  5
3E5E
330
1E
100
AcDbEntity
  8
7
100
AcDbLine
 10
-10.04625984251968
 20
0.3326771653543306
 30
0.0
 11
-10.06594488188976
 21
0.3484251968503935
 31
0.0
  0
LINE
  5
3E5F
330
1E
100
AcDbEntity
  8
7
100
AcDbLine
 10
-9.131889763779527
 20
0.1712598425196852
 30
0.0
 11
-9.144685039370079
 21
0.1387795275590555
 31
0.0
  0
LINE
  5
3E60
330
1E
100
AcDbEntity
  8
7
100
AcDbLine
 10
-9.144685039370079
 20
0.1387795275590555
 30
0.0
 11
-9.164370078740157
 21
0.1122047244094491
 31
0.0
  0
LINE
  5
3E61
330
1E
100
AcDbEntity
  8
7
100
AcDbLine
 10
-9.164370078740157
 20
0.1122047244094491
 30
0.0
 11
-9.190944881889764
 21
0.0905511811023621
 31
0.0
  0
LINE
  5
3E62
330
1E
100
AcDbEntity
  8
7
100
AcDbLine
 10
-9.190944881889764
 20
0.0905511811023621
 30
0.0
 11
-9.22244094488189
 21
0.0777559055118111
 31
0.0
  0
LINE
  5
3E63
330
1E
100
AcDbEntity
  8
7
100
AcDbLine
 10
-9.22244094488189
 20
0.0777559055118111
 30
0.0
 11
-9.255905511811024
 21
0.0728346456692917
 31
0.0
  0
LINE
  5
3E64
330
1E
100
AcDbEntity
  8
7
100
AcDbLine
 10
-10.70964566929133
 20
1.18011811023622
 30
0.0
 11
-10.70964566929133
 21
1.179133858267716
 31
0.0
  0
LINE
  5
3E65
330
1E
100
AcDbEntity
  8
7
100
AcDbLine
 10
-10.70964566929133
 20
1.179133858267716
 30
0.0
 11
-10.71062992125984
 21
1.177165354330708
 31
0.0
  0
LINE
  5
3E66
330
1E
100
AcDbEntity
  8
7
100
AcDbLine
 10
-10.71062992125984
 20
1.177165354330708
 30
0.0
 11
-10.71161417322834
 21
1.176181102362204
 31
0.0
  0
LINE
  5
3E67
330
1E
100
AcDbEntity
  8
7
100
AcDbLine
 10
-10.71161417322834
 20
1.176181102362204
 30
0.0
 11
-10.71161417322834
 21
1.1751968503937
 31
0.0
  0
LINE
  5
3E68
330
1E
100
AcDbEntity
  8
7
100
AcDbLine
 10
-10.71161417322834
 20
1.1751968503937
 30
0.0
 11
-10.71358267716535
 21
1.173228346456692
 31
0.0
  0
LINE
  5
3E69
330
1E
100
AcDbEntity
  8
7
100
AcDbLine
 10
-10.71358267716535
 20
1.173228346456692
 30
0.0
 11
-10.71948818897637
 21
1.168307086614173
 31
0.0
  0
LINE
  5
3E6A
330
1E
100
AcDbEntity
  8
7
100
AcDbLine
 10
-10.71948818897637
 20
1.168307086614173
 30
0.0
 11
-10.72047244094488
 21
1.167322834645669
 31
0.0
  0
LINE
  5
3E6B
330
1E
100
AcDbEntity
  8
7
100
AcDbLine
 10
-10.12893700787401
 20
1.1751968503937
 30
0.0
 11
-10.12992125984252
 21
1.177165354330708
 31
0.0
  0
LINE
  5
3E6C
330
1E
100
AcDbEntity
  8
7
100
AcDbLine
 10
-10.12992125984252
 20
1.177165354330708
 30
0.0
 11
-10.12992125984252
 21
1.178149606299212
 31
0.0
  0
LINE
  5
3E6D
330
1E
100
AcDbEntity
  8
7
100
AcDbLine
 10
-10.12992125984252
 20
1.178149606299212
 30
0.0
 11
-10.12992125984252
 21
1.179133858267716
 31
0.0
  0
LINE
  5
3E6E
330
1E
100
AcDbEntity
  8
7
100
AcDbLine
 10
-10.12992125984252
 20
1.179133858267716
 30
0.0
 11
-10.12992125984252
 21
1.18011811023622
 31
0.0
  0
LINE
  5
3E6F
330
1E
100
AcDbEntity
  8
7
100
AcDbLine
 10
-10.12007874015748
 20
1.167322834645669
 30
0.0
 11
-10.12106299212598
 21
1.168307086614173
 31
0.0
  0
LINE
  5
3E70
330
1E
100
AcDbEntity
  8
7
100
AcDbLine
 10
-10.12106299212598
 20
1.168307086614173
 30
0.0
 11
-10.1259842519685
 21
1.173228346456692
 31
0.0
  0
LINE
  5
3E71
330
1E
100
AcDbEntity
  8
7
100
AcDbLine
 10
-10.1259842519685
 20
1.173228346456692
 30
0.0
 11
-10.12893700787401
 21
1.1751968503937
 31
0.0
  0
LINE
  5
3E72
330
1E
100
AcDbEntity
  8
7
100
AcDbLine
 10
-10.70964566929133
 20
1.194881889763779
 30
0.0
 11
-10.70964566929133
 21
1.190944881889763
 31
0.0
  0
LINE
  5
3E73
330
1E
100
AcDbEntity
  8
7
100
AcDbLine
 10
-10.70964566929133
 20
1.190944881889763
 30
0.0
 11
-10.70964566929133
 21
1.188976377952755
 31
0.0
  0
LINE
  5
3E74
330
1E
100
AcDbEntity
  8
7
100
AcDbLine
 10
-10.12992125984252
 20
1.188976377952755
 30
0.0
 11
-10.12992125984252
 21
1.190944881889763
 31
0.0
  0
LINE
  5
3E75
330
1E
100
AcDbEntity
  8
7
100
AcDbLine
 10
-10.12992125984252
 20
1.190944881889763
 30
0.0
 11
-10.12992125984252
 21
1.194881889763779
 31
0.0
  0
LINE
  5
3E76
330
1E
100
AcDbEntity
  8
7
100
AcDbLine
 10
-10.26968503937008
 20
1.732283464566928
 30
0.0
 11
-10.24409448818897
 21
1.71259842519685
 31
0.0
  0
LINE
  5
3E77
330
1E
100
AcDbEntity
  8
7
100
AcDbLine
 10
-10.24409448818897
 20
1.71259842519685
 30
0.0
 11
-10.21358267716535
 21
1.699803149606299
 31
0.0
  0
LINE
  5
3E78
330
1E
100
AcDbEntity
  8
7
100
AcDbLine
 10
-10.21358267716535
 20
1.699803149606299
 30
0.0
 11
-10.18110236220472
 21
1.695866141732283
 31
0.0
  0
LINE
  5
3E79
330
1E
100
AcDbEntity
  8
7
100
AcDbLine
 10
-10.18110236220472
 20
1.945866141732283
 30
0.0
 11
-10.21358267716535
 21
1.941929133858267
 31
0.0
  0
LINE
  5
3E7A
330
1E
100
AcDbEntity
  8
7
100
AcDbLine
 10
-10.21358267716535
 20
1.941929133858267
 30
0.0
 11
-10.24311023622047
 21
1.929133858267716
 31
0.0
  0
LINE
  5
3E7B
330
1E
100
AcDbEntity
  8
7
100
AcDbLine
 10
-10.24311023622047
 20
1.929133858267716
 30
0.0
 11
-10.26968503937008
 21
1.909448818897637
 31
0.0
  0
LINE
  5
3E7C
330
1E
100
AcDbEntity
  8
7
100
AcDbLine
 10
-10.26968503937008
 20
1.909448818897637
 30
0.0
 11
-10.28937007874015
 21
1.883858267716535
 31
0.0
  0
LINE
  5
3E7D
330
1E
100
AcDbEntity
  8
7
100
AcDbLine
 10
-10.28937007874015
 20
1.883858267716535
 30
0.0
 11
-10.30216535433071
 21
1.853346456692912
 31
0.0
  0
LINE
  5
3E7E
330
1E
100
AcDbEntity
  8
7
100
AcDbLine
 10
-10.30216535433071
 20
1.853346456692912
 30
0.0
 11
-10.30610236220472
 21
1.820866141732283
 31
0.0
  0
LINE
  5
3E7F
330
1E
100
AcDbEntity
  8
7
100
AcDbLine
 10
-10.30610236220472
 20
1.820866141732283
 30
0.0
 11
-10.30216535433071
 21
1.788385826771653
 31
0.0
  0
LINE
  5
3E80
330
1E
100
AcDbEntity
  8
7
100
AcDbLine
 10
-10.30216535433071
 20
1.788385826771653
 30
0.0
 11
-10.28937007874015
 21
1.758858267716535
 31
0.0
  0
LINE
  5
3E81
330
1E
100
AcDbEntity
  8
7
100
AcDbLine
 10
-10.28937007874015
 20
1.758858267716535
 30
0.0
 11
-10.26968503937008
 21
1.732283464566928
 31
0.0
  0
LINE
  5
3E82
330
1E
100
AcDbEntity
  8
7
100
AcDbLine
 10
-10.08464566929133
 20
1.178149606299212
 30
0.0
 11
-10.08464566929133
 21
1.182086614173228
 31
0.0
  0
LINE
  5
3E83
330
1E
100
AcDbEntity
  8
7
100
AcDbLine
 10
-10.08464566929133
 20
1.182086614173228
 30
0.0
 11
-10.08464566929133
 21
1.186023622047244
 31
0.0
  0
LINE
  5
3E84
330
1E
100
AcDbEntity
  8
7
100
AcDbLine
 10
-10.12007874015748
 20
1.186023622047244
 30
0.0
 11
-10.12007874015748
 21
1.182086614173228
 31
0.0
  0
LINE
  5
3E85
330
1E
100
AcDbEntity
  8
7
100
AcDbLine
 10
-10.12007874015748
 20
1.182086614173228
 30
0.0
 11
-10.12007874015748
 21
1.178149606299212
 31
0.0
  0
LINE
  5
3E86
330
1E
100
AcDbEntity
  8
7
100
AcDbLine
 10
-9.48523622047244
 20
1.167322834645669
 30
0.0
 11
-9.486220472440944
 21
1.168307086614173
 31
0.0
  0
LINE
  5
3E87
330
1E
100
AcDbEntity
  8
7
100
AcDbLine
 10
-9.486220472440944
 20
1.168307086614173
 30
0.0
 11
-9.491141732283464
 21
1.173228346456692
 31
0.0
  0
LINE
  5
3E88
330
1E
100
AcDbEntity
  8
7
100
AcDbLine
 10
-9.491141732283464
 20
1.173228346456692
 30
0.0
 11
-9.493110236220472
 21
1.1751968503937
 31
0.0
  0
LINE
  5
3E89
330
1E
100
AcDbEntity
  8
7
100
AcDbLine
 10
-9.493110236220472
 20
1.1751968503937
 30
0.0
 11
-9.495078740157481
 21
1.177165354330708
 31
0.0
  0
LINE
  5
3E8A
330
1E
100
AcDbEntity
  8
7
100
AcDbLine
 10
-9.495078740157481
 20
1.177165354330708
 30
0.0
 11
-9.495078740157481
 21
1.178149606299212
 31
0.0
  0
LINE
  5
3E8B
330
1E
100
AcDbEntity
  8
7
100
AcDbLine
 10
-9.495078740157481
 20
1.178149606299212
 30
0.0
 11
-9.495078740157481
 21
1.179133858267716
 31
0.0
  0
LINE
  5
3E8C
330
1E
100
AcDbEntity
  8
7
100
AcDbLine
 10
-9.495078740157481
 20
1.179133858267716
 30
0.0
 11
-9.495078740157481
 21
1.18011811023622
 31
0.0
  0
LINE
  5
3E8D
330
1E
100
AcDbEntity
  8
7
100
AcDbLine
 10
-10.07480314960629
 20
1.179133858267716
 30
0.0
 11
-10.0757874015748
 21
1.177165354330708
 31
0.0
  0
LINE
  5
3E8E
330
1E
100
AcDbEntity
  8
7
100
AcDbLine
 10
-10.0757874015748
 20
1.177165354330708
 30
0.0
 11
-10.0767716535433
 21
1.176181102362204
 31
0.0
  0
LINE
  5
3E8F
330
1E
100
AcDbEntity
  8
7
100
AcDbLine
 10
-10.0767716535433
 20
1.176181102362204
 30
0.0
 11
-10.0767716535433
 21
1.1751968503937
 31
0.0
  0
LINE
  5
3E90
330
1E
100
AcDbEntity
  8
7
100
AcDbLine
 10
-10.0767716535433
 20
1.1751968503937
 30
0.0
 11
-10.07874015748031
 21
1.173228346456692
 31
0.0
  0
LINE
  5
3E91
330
1E
100
AcDbEntity
  8
7
100
AcDbLine
 10
-10.07874015748031
 20
1.173228346456692
 30
0.0
 11
-10.08366141732283
 21
1.168307086614173
 31
0.0
  0
LINE
  5
3E92
330
1E
100
AcDbEntity
  8
7
100
AcDbLine
 10
-10.08366141732283
 20
1.168307086614173
 30
0.0
 11
-10.08464566929133
 21
1.167322834645669
 31
0.0
  0
LINE
  5
3E93
330
1E
100
AcDbEntity
  8
7
100
AcDbLine
 10
-9.48523622047244
 20
1.186023622047244
 30
0.0
 11
-9.48523622047244
 21
1.182086614173228
 31
0.0
  0
LINE
  5
3E94
330
1E
100
AcDbEntity
  8
7
100
AcDbLine
 10
-9.48523622047244
 20
1.182086614173228
 30
0.0
 11
-9.48523622047244
 21
1.178149606299212
 31
0.0
  0
LINE
  5
3E95
330
1E
100
AcDbEntity
  8
7
100
AcDbLine
 10
-10.08464566929133
 20
1.232283464566928
 30
0.0
 11
-10.08464566929133
 21
1.233267716535433
 31
0.0
  0
LINE
  5
3E96
330
1E
100
AcDbEntity
  8
7
100
AcDbLine
 10
-10.08464566929133
 20
1.233267716535433
 30
0.0
 11
-10.08464566929133
 21
1.238188976377952
 31
0.0
  0
LINE
  5
3E97
330
1E
100
AcDbEntity
  8
7
100
AcDbLine
 10
-10.08464566929133
 20
1.238188976377952
 30
0.0
 11
-10.08070866141732
 21
1.24507874015748
 31
0.0
  0
LINE
  5
3E98
330
1E
100
AcDbEntity
  8
7
100
AcDbLine
 10
-10.08070866141732
 20
1.24507874015748
 30
0.0
 11
-10.07480314960629
 21
1.254921259842519
 31
0.0
  0
LINE
  5
3E99
330
1E
100
AcDbEntity
  8
7
100
AcDbLine
 10
-10.12992125984252
 20
1.254921259842519
 30
0.0
 11
-10.12401574803149
 21
1.24507874015748
 31
0.0
  0
LINE
  5
3E9A
330
1E
100
AcDbEntity
  8
7
100
AcDbLine
 10
-10.12401574803149
 20
1.24507874015748
 30
0.0
 11
-10.12106299212598
 21
1.238188976377952
 31
0.0
  0
LINE
  5
3E9B
330
1E
100
AcDbEntity
  8
7
100
AcDbLine
 10
-10.12106299212598
 20
1.238188976377952
 30
0.0
 11
-10.12007874015748
 21
1.233267716535433
 31
0.0
  0
LINE
  5
3E9C
330
1E
100
AcDbEntity
  8
7
100
AcDbLine
 10
-10.12007874015748
 20
1.233267716535433
 30
0.0
 11
-10.12007874015748
 21
1.232283464566928
 31
0.0
  0
LINE
  5
3E9D
330
1E
100
AcDbEntity
  8
7
100
AcDbLine
 10
-10.12007874015748
 20
1.186023622047244
 30
0.0
 11
-10.08464566929133
 21
1.186023622047244
 31
0.0
  0
LINE
  5
3E9E
330
1E
100
AcDbEntity
  8
7
100
AcDbLine
 10
-10.08464566929133
 20
1.186023622047244
 30
0.0
 11
-10.08464566929133
 21
1.232283464566928
 31
0.0
  0
LINE
  5
3E9F
330
1E
100
AcDbEntity
  8
7
100
AcDbLine
 10
-10.08464566929133
 20
1.232283464566928
 30
0.0
 11
-10.12007874015748
 21
1.232283464566928
 31
0.0
  0
LINE
  5
3EA0
330
1E
100
AcDbEntity
  8
7
100
AcDbLine
 10
-10.12007874015748
 20
1.232283464566928
 30
0.0
 11
-10.12007874015748
 21
1.186023622047244
 31
0.0
  0
LINE
  5
3EA1
330
1E
100
AcDbEntity
  8
7
100
AcDbLine
 10
-9.325787401574803
 20
1.232283464566928
 30
0.0
 11
-9.317913385826772
 21
1.242125984251968
 31
0.0
  0
LINE
  5
3EA2
330
1E
100
AcDbEntity
  8
7
100
AcDbLine
 10
-9.317913385826772
 20
1.242125984251968
 30
0.0
 11
-9.307086614173229
 21
1.254921259842519
 31
0.0
  0
LINE
  5
3EA3
330
1E
100
AcDbEntity
  8
7
100
AcDbLine
 10
-9.307086614173229
 20
1.254921259842519
 30
0.0
 11
-9.306102362204725
 21
1.254921259842519
 31
0.0
  0
LINE
  5
3EA4
330
1E
100
AcDbEntity
  8
7
100
AcDbLine
 10
-9.495078740157481
 20
1.254921259842519
 30
0.0
 11
-9.489173228346457
 21
1.24507874015748
 31
0.0
  0
LINE
  5
3EA5
330
1E
100
AcDbEntity
  8
7
100
AcDbLine
 10
-9.489173228346457
 20
1.24507874015748
 30
0.0
 11
-9.486220472440944
 21
1.238188976377952
 31
0.0
  0
LINE
  5
3EA6
330
1E
100
AcDbEntity
  8
7
100
AcDbLine
 10
-9.486220472440944
 20
1.238188976377952
 30
0.0
 11
-9.48523622047244
 21
1.233267716535433
 31
0.0
  0
LINE
  5
3EA7
330
1E
100
AcDbEntity
  8
7
100
AcDbLine
 10
-9.48523622047244
 20
1.233267716535433
 30
0.0
 11
-9.48523622047244
 21
1.232283464566928
 31
0.0
  0
LINE
  5
3EA8
330
1E
100
AcDbEntity
  8
7
100
AcDbLine
 10
-9.495078740157481
 20
1.188976377952755
 30
0.0
 11
-9.495078740157481
 21
1.190944881889763
 31
0.0
  0
LINE
  5
3EA9
330
1E
100
AcDbEntity
  8
7
100
AcDbLine
 10
-9.495078740157481
 20
1.190944881889763
 30
0.0
 11
-9.495078740157481
 21
1.194881889763779
 31
0.0
  0
LINE
  5
3EAA
330
1E
100
AcDbEntity
  8
7
100
AcDbLine
 10
-10.07480314960629
 20
1.194881889763779
 30
0.0
 11
-10.07480314960629
 21
1.190944881889763
 31
0.0
  0
LINE
  5
3EAB
330
1E
100
AcDbEntity
  8
7
100
AcDbLine
 10
-10.07480314960629
 20
1.190944881889763
 30
0.0
 11
-10.07480314960629
 21
1.188976377952755
 31
0.0
  0
LINE
  5
3EAC
330
1E
100
AcDbEntity
  8
7
100
AcDbLine
 10
-9.151574803149607
 20
1.473425196850393
 30
0.0
 11
-9.156496062992125
 21
1.477362204724409
 31
0.0
  0
LINE
  5
3EAD
330
1E
100
AcDbEntity
  8
7
100
AcDbLine
 10
-9.156496062992125
 20
1.477362204724409
 30
0.0
 11
-9.169291338582677
 21
1.480314960629921
 31
0.0
  0
LINE
  5
3EAE
330
1E
100
AcDbEntity
  8
7
100
AcDbLine
 10
-9.25984251968504
 20
2.02263779527559
 30
0.0
 11
-9.231299212598425
 21
2.018700787401574
 31
0.0
  0
LINE
  5
3EAF
330
1E
100
AcDbEntity
  8
7
100
AcDbLine
 10
-9.231299212598425
 20
2.018700787401574
 30
0.0
 11
-9.203740157480314
 21
2.008858267716535
 31
0.0
  0
LINE
  5
3EB0
330
1E
100
AcDbEntity
  8
7
100
AcDbLine
 10
-9.203740157480314
 20
2.008858267716535
 30
0.0
 11
-9.18011811023622
 21
1.993110236220472
 31
0.0
  0
LINE
  5
3EB1
330
1E
100
AcDbEntity
  8
7
100
AcDbLine
 10
-9.18011811023622
 20
1.993110236220472
 30
0.0
 11
-9.160433070866142
 21
1.971456692913386
 31
0.0
  0
LINE
  5
3EB2
330
1E
100
AcDbEntity
  8
7
100
AcDbLine
 10
-9.160433070866142
 20
1.971456692913386
 30
0.0
 11
-9.145669291338583
 21
1.946850393700787
 31
0.0
  0
LINE
  5
3EB3
330
1E
100
AcDbEntity
  8
7
100
AcDbLine
 10
-9.145669291338583
 20
1.946850393700787
 30
0.0
 11
-9.136811023622048
 21
1.918307086614173
 31
0.0
  0
LINE
  5
3EB4
330
1E
100
AcDbEntity
  8
7
100
AcDbLine
 10
-9.136811023622048
 20
1.918307086614173
 30
0.0
 11
-9.13484251968504
 21
1.88779527559055
 31
0.0
  0
LINE
  5
3EB5
330
1E
100
AcDbEntity
  8
7
100
AcDbLine
 10
-9.13484251968504
 20
1.88779527559055
 30
0.0
 11
-9.141732283464566
 21
1.896653543307087
 31
0.0
  0
LINE
  5
3EB6
330
1E
100
AcDbEntity
  8
7
100
AcDbLine
 10
-9.141732283464566
 20
1.896653543307087
 30
0.0
 11
-9.159448818897638
 21
1.900590551181102
 31
0.0
  0
LINE
  5
3EB7
330
1E
100
AcDbEntity
  8
7
100
AcDbLine
 10
-10.18110236220472
 20
1.710629921259842
 30
0.0
 11
-10.18110236220472
 21
1.699803149606299
 31
0.0
  0
LINE
  5
3EB8
330
1E
100
AcDbEntity
  8
7
100
AcDbLine
 10
-10.18110236220472
 20
1.699803149606299
 30
0.0
 11
-10.18110236220472
 21
1.695866141732283
 31
0.0
  0
LINE
  5
3EB9
330
1E
100
AcDbEntity
  8
7
100
AcDbLine
 10
-10.02362204724409
 20
1.710629921259842
 30
0.0
 11
-10.02362204724409
 21
1.699803149606299
 31
0.0
  0
LINE
  5
3EBA
330
1E
100
AcDbEntity
  8
7
100
AcDbLine
 10
-10.02362204724409
 20
1.699803149606299
 30
0.0
 11
-10.02362204724409
 21
1.695866141732283
 31
0.0
  0
LINE
  5
3EBB
330
1E
100
AcDbEntity
  8
7
100
AcDbLine
 10
-9.961614173228346
 20
1.71259842519685
 30
0.0
 11
-9.93503937007874
 21
1.732283464566928
 31
0.0
  0
LINE
  5
3EBC
330
1E
100
AcDbEntity
  8
7
100
AcDbLine
 10
-9.93503937007874
 20
1.732283464566928
 30
0.0
 11
-9.915354330708662
 21
1.757874015748031
 31
0.0
  0
LINE
  5
3EBD
330
1E
100
AcDbEntity
  8
7
100
AcDbLine
 10
-9.915354330708662
 20
1.757874015748031
 30
0.0
 11
-9.902559055118111
 21
1.788385826771653
 31
0.0
  0
LINE
  5
3EBE
330
1E
100
AcDbEntity
  8
7
100
AcDbLine
 10
-9.902559055118111
 20
1.788385826771653
 30
0.0
 11
-9.898622047244094
 21
1.820866141732283
 31
0.0
  0
LINE
  5
3EBF
330
1E
100
AcDbEntity
  8
7
100
AcDbLine
 10
-9.898622047244094
 20
1.820866141732283
 30
0.0
 11
-9.902559055118111
 21
1.853346456692912
 31
0.0
  0
LINE
  5
3EC0
330
1E
100
AcDbEntity
  8
7
100
AcDbLine
 10
-9.902559055118111
 20
1.853346456692912
 30
0.0
 11
-9.915354330708662
 21
1.882874015748031
 31
0.0
  0
LINE
  5
3EC1
330
1E
100
AcDbEntity
  8
7
100
AcDbLine
 10
-9.915354330708662
 20
1.882874015748031
 30
0.0
 11
-9.93503937007874
 21
1.909448818897637
 31
0.0
  0
LINE
  5
3EC2
330
1E
100
AcDbEntity
  8
7
100
AcDbLine
 10
-9.93503937007874
 20
1.909448818897637
 30
0.0
 11
-9.960629921259842
 21
1.929133858267716
 31
0.0
  0
LINE
  5
3EC3
330
1E
100
AcDbEntity
  8
7
100
AcDbLine
 10
-9.960629921259842
 20
1.929133858267716
 30
0.0
 11
-9.991141732283464
 21
1.941929133858267
 31
0.0
  0
LINE
  5
3EC4
330
1E
100
AcDbEntity
  8
7
100
AcDbLine
 10
-9.991141732283464
 20
1.941929133858267
 30
0.0
 11
-10.02362204724409
 21
1.945866141732283
 31
0.0
  0
LINE
  5
3EC5
330
1E
100
AcDbEntity
  8
7
100
AcDbLine
 10
-10.02362204724409
 20
1.695866141732283
 30
0.0
 11
-9.991141732283464
 21
1.699803149606299
 31
0.0
  0
LINE
  5
3EC6
330
1E
100
AcDbEntity
  8
7
100
AcDbLine
 10
-9.991141732283464
 20
1.699803149606299
 30
0.0
 11
-9.961614173228346
 21
1.71259842519685
 31
0.0
  0
LINE
  5
3EC7
330
1E
100
AcDbEntity
  8
7
100
AcDbLine
 10
-10.02362204724409
 20
1.710629921259842
 30
0.0
 11
-9.992125984251968
 21
1.715551181102362
 31
0.0
  0
LINE
  5
3EC8
330
1E
100
AcDbEntity
  8
7
100
AcDbLine
 10
-9.992125984251968
 20
1.715551181102362
 30
0.0
 11
-9.963582677165355
 21
1.728346456692912
 31
0.0
  0
LINE
  5
3EC9
330
1E
100
AcDbEntity
  8
7
100
AcDbLine
 10
-9.963582677165355
 20
1.728346456692912
 30
0.0
 11
-9.939960629921259
 21
1.749015748031496
 31
0.0
  0
LINE
  5
3ECA
330
1E
100
AcDbEntity
  8
7
100
AcDbLine
 10
-9.939960629921259
 20
1.749015748031496
 30
0.0
 11
-9.923228346456692
 21
1.774606299212598
 31
0.0
  0
LINE
  5
3ECB
330
1E
100
AcDbEntity
  8
7
100
AcDbLine
 10
-9.923228346456692
 20
1.774606299212598
 30
0.0
 11
-9.914370078740157
 21
1.80511811023622
 31
0.0
  0
LINE
  5
3ECC
330
1E
100
AcDbEntity
  8
7
100
AcDbLine
 10
-9.914370078740157
 20
1.80511811023622
 30
0.0
 11
-9.914370078740157
 21
1.836614173228346
 31
0.0
  0
LINE
  5
3ECD
330
1E
100
AcDbEntity
  8
7
100
AcDbLine
 10
-9.914370078740157
 20
1.836614173228346
 30
0.0
 11
-9.923228346456692
 21
1.867125984251968
 31
0.0
  0
LINE
  5
3ECE
330
1E
100
AcDbEntity
  8
7
100
AcDbLine
 10
-9.923228346456692
 20
1.867125984251968
 30
0.0
 11
-9.939960629921259
 21
1.892716535433071
 31
0.0
  0
LINE
  5
3ECF
330
1E
100
AcDbEntity
  8
7
100
AcDbLine
 10
-9.939960629921259
 20
1.892716535433071
 30
0.0
 11
-9.963582677165355
 21
1.913385826771653
 31
0.0
  0
LINE
  5
3ED0
330
1E
100
AcDbEntity
  8
7
100
AcDbLine
 10
-9.963582677165355
 20
1.913385826771653
 30
0.0
 11
-9.992125984251968
 21
1.926181102362204
 31
0.0
  0
LINE
  5
3ED1
330
1E
100
AcDbEntity
  8
7
100
AcDbLine
 10
-10.18110236220472
 20
1.931102362204724
 30
0.0
 11
-10.21259842519685
 21
1.926181102362204
 31
0.0
  0
LINE
  5
3ED2
330
1E
100
AcDbEntity
  8
7
100
AcDbLine
 10
-10.21259842519685
 20
1.926181102362204
 30
0.0
 11
-10.24114173228346
 21
1.913385826771653
 31
0.0
  0
LINE
  5
3ED3
330
1E
100
AcDbEntity
  8
7
100
AcDbLine
 10
-10.24114173228346
 20
1.913385826771653
 30
0.0
 11
-10.26476377952755
 21
1.892716535433071
 31
0.0
  0
LINE
  5
3ED4
330
1E
100
AcDbEntity
  8
7
100
AcDbLine
 10
-10.26476377952755
 20
1.892716535433071
 30
0.0
 11
-10.28149606299212
 21
1.867125984251968
 31
0.0
  0
LINE
  5
3ED5
330
1E
100
AcDbEntity
  8
7
100
AcDbLine
 10
-10.28149606299212
 20
1.867125984251968
 30
0.0
 11
-10.29035433070866
 21
1.836614173228346
 31
0.0
  0
LINE
  5
3ED6
330
1E
100
AcDbEntity
  8
7
100
AcDbLine
 10
-10.29035433070866
 20
1.836614173228346
 30
0.0
 11
-10.29035433070866
 21
1.80511811023622
 31
0.0
  0
LINE
  5
3ED7
330
1E
100
AcDbEntity
  8
7
100
AcDbLine
 10
-10.29035433070866
 20
1.80511811023622
 30
0.0
 11
-10.28149606299212
 21
1.774606299212598
 31
0.0
  0
LINE
  5
3ED8
330
1E
100
AcDbEntity
  8
7
100
AcDbLine
 10
-10.28149606299212
 20
1.774606299212598
 30
0.0
 11
-10.26476377952755
 21
1.749015748031496
 31
0.0
  0
LINE
  5
3ED9
330
1E
100
AcDbEntity
  8
7
100
AcDbLine
 10
-10.26476377952755
 20
1.749015748031496
 30
0.0
 11
-10.24114173228346
 21
1.728346456692912
 31
0.0
  0
LINE
  5
3EDA
330
1E
100
AcDbEntity
  8
7
100
AcDbLine
 10
-10.24114173228346
 20
1.728346456692912
 30
0.0
 11
-10.21259842519685
 21
1.715551181102362
 31
0.0
  0
LINE
  5
3EDB
330
1E
100
AcDbEntity
  8
7
100
AcDbLine
 10
-10.21259842519685
 20
1.715551181102362
 30
0.0
 11
-10.18110236220472
 21
1.710629921259842
 31
0.0
  0
LINE
  5
3EDC
330
1E
100
AcDbEntity
  8
7
100
AcDbLine
 10
-10.02362204724409
 20
1.748031496062992
 30
0.0
 11
-9.999015748031496
 21
1.751968503937008
 31
0.0
  0
LINE
  5
3EDD
330
1E
100
AcDbEntity
  8
7
100
AcDbLine
 10
-9.999015748031496
 20
1.751968503937008
 30
0.0
 11
-9.976377952755905
 21
1.764763779527559
 31
0.0
  0
LINE
  5
3EDE
330
1E
100
AcDbEntity
  8
7
100
AcDbLine
 10
-9.976377952755905
 20
1.764763779527559
 30
0.0
 11
-9.960629921259842
 21
1.784448818897637
 31
0.0
  0
LINE
  5
3EDF
330
1E
100
AcDbEntity
  8
7
100
AcDbLine
 10
-9.960629921259842
 20
1.784448818897637
 30
0.0
 11
-9.951771653543307
 21
1.808070866141732
 31
0.0
  0
LINE
  5
3EE0
330
1E
100
AcDbEntity
  8
7
100
AcDbLine
 10
-9.951771653543307
 20
1.808070866141732
 30
0.0
 11
-9.951771653543307
 21
1.833661417322834
 31
0.0
  0
LINE
  5
3EE1
330
1E
100
AcDbEntity
  8
7
100
AcDbLine
 10
-9.951771653543307
 20
1.833661417322834
 30
0.0
 11
-9.960629921259842
 21
1.857283464566928
 31
0.0
  0
LINE
  5
3EE2
330
1E
100
AcDbEntity
  8
7
100
AcDbLine
 10
-9.960629921259842
 20
1.857283464566928
 30
0.0
 11
-9.976377952755905
 21
1.876968503937008
 31
0.0
  0
LINE
  5
3EE3
330
1E
100
AcDbEntity
  8
7
100
AcDbLine
 10
-9.976377952755905
 20
1.876968503937008
 30
0.0
 11
-9.999015748031496
 21
1.889763779527559
 31
0.0
  0
LINE
  5
3EE4
330
1E
100
AcDbEntity
  8
7
100
AcDbLine
 10
-9.999015748031496
 20
1.889763779527559
 30
0.0
 11
-10.02362204724409
 21
1.893700787401574
 31
0.0
  0
LINE
  5
3EE5
330
1E
100
AcDbEntity
  8
7
100
AcDbLine
 10
-10.18110236220472
 20
1.893700787401574
 30
0.0
 11
-10.20570866141732
 21
1.889763779527559
 31
0.0
  0
LINE
  5
3EE6
330
1E
100
AcDbEntity
  8
7
100
AcDbLine
 10
-10.20570866141732
 20
1.889763779527559
 30
0.0
 11
-10.22834645669291
 21
1.876968503937008
 31
0.0
  0
LINE
  5
3EE7
330
1E
100
AcDbEntity
  8
7
100
AcDbLine
 10
-10.22834645669291
 20
1.876968503937008
 30
0.0
 11
-10.24409448818897
 21
1.857283464566928
 31
0.0
  0
LINE
  5
3EE8
330
1E
100
AcDbEntity
  8
7
100
AcDbLine
 10
-10.24409448818897
 20
1.857283464566928
 30
0.0
 11
-10.25295275590551
 21
1.833661417322834
 31
0.0
  0
LINE
  5
3EE9
330
1E
100
AcDbEntity
  8
7
100
AcDbLine
 10
-10.25295275590551
 20
1.833661417322834
 30
0.0
 11
-10.25295275590551
 21
1.808070866141732
 31
0.0
  0
LINE
  5
3EEA
330
1E
100
AcDbEntity
  8
7
100
AcDbLine
 10
-10.25295275590551
 20
1.808070866141732
 30
0.0
 11
-10.24409448818897
 21
1.784448818897637
 31
0.0
  0
LINE
  5
3EEB
330
1E
100
AcDbEntity
  8
7
100
AcDbLine
 10
-10.24409448818897
 20
1.784448818897637
 30
0.0
 11
-10.22834645669291
 21
1.764763779527559
 31
0.0
  0
LINE
  5
3EEC
330
1E
100
AcDbEntity
  8
7
100
AcDbLine
 10
-10.22834645669291
 20
1.764763779527559
 30
0.0
 11
-10.20570866141732
 21
1.751968503937008
 31
0.0
  0
LINE
  5
3EED
330
1E
100
AcDbEntity
  8
7
100
AcDbLine
 10
-10.20570866141732
 20
1.751968503937008
 30
0.0
 11
-10.18110236220472
 21
1.748031496062992
 31
0.0
  0
LINE
  5
3EEE
330
1E
100
AcDbEntity
  8
7
100
AcDbLine
 10
-10.18110236220472
 20
1.932086614173228
 30
0.0
 11
-10.02362204724409
 21
1.932086614173228
 31
0.0
  0
LINE
  5
3EEF
330
1E
100
AcDbEntity
  8
7
100
AcDbLine
 10
-10.02362204724409
 20
1.932086614173228
 30
0.0
 11
-10.02362204724409
 21
1.942913385826771
 31
0.0
  0
LINE
  5
3EF0
330
1E
100
AcDbEntity
  8
7
100
AcDbLine
 10
-10.02362204724409
 20
1.942913385826771
 30
0.0
 11
-10.02362204724409
 21
1.946850393700787
 31
0.0
  0
LINE
  5
3EF1
330
1E
100
AcDbEntity
  8
7
100
AcDbLine
 10
-10.18110236220472
 20
1.932086614173228
 30
0.0
 11
-10.18110236220472
 21
1.942913385826771
 31
0.0
  0
LINE
  5
3EF2
330
1E
100
AcDbEntity
  8
7
100
AcDbLine
 10
-10.18110236220472
 20
1.942913385826771
 30
0.0
 11
-10.18110236220472
 21
1.946850393700787
 31
0.0
  0
LINE
  5
3EF3
330
1E
100
AcDbEntity
  8
7
100
AcDbLine
 10
-9.495078740157481
 20
1.188976377952755
 30
0.0
 11
-10.07480314960629
 21
1.188976377952755
 31
0.0
  0
LINE
  5
3EF4
330
1E
100
AcDbEntity
  8
7
100
AcDbLine
 10
-10.07480314960629
 20
1.188976377952755
 30
0.0
 11
-10.07480314960629
 21
1.18011811023622
 31
0.0
  0
LINE
  5
3EF5
330
1E
100
AcDbEntity
  8
7
100
AcDbLine
 10
-10.07480314960629
 20
1.18011811023622
 30
0.0
 11
-9.495078740157481
 21
1.18011811023622
 31
0.0
  0
LINE
  5
3EF6
330
1E
100
AcDbEntity
  8
7
100
AcDbLine
 10
-9.495078740157481
 20
1.18011811023622
 30
0.0
 11
-9.495078740157481
 21
1.188976377952755
 31
0.0
  0
LINE
  5
3EF7
330
1E
100
AcDbEntity
  8
7
100
AcDbLine
 10
-10.18996062992125
 20
1.11023622047244
 30
0.0
 11
-10.18996062992125
 21
1.109251968503937
 31
0.0
  0
LINE
  5
3EF8
330
1E
100
AcDbEntity
  8
7
100
AcDbLine
 10
-10.18996062992125
 20
1.109251968503937
 30
0.0
 11
-10.18996062992125
 21
1.107283464566928
 31
0.0
  0
LINE
  5
3EF9
330
1E
100
AcDbEntity
  8
7
100
AcDbLine
 10
-10.18996062992125
 20
1.034448818897637
 30
0.0
 11
-10.18996062992125
 21
1.038385826771653
 31
0.0
  0
LINE
  5
3EFA
330
1E
100
AcDbEntity
  8
7
100
AcDbLine
 10
-10.18996062992125
 20
1.038385826771653
 30
0.0
 11
-10.18996062992125
 21
1.0501968503937
 31
0.0
  0
LINE
  5
3EFB
330
1E
100
AcDbEntity
  8
7
100
AcDbLine
 10
-10.18996062992125
 20
1.0501968503937
 30
0.0
 11
-10.18996062992125
 21
1.067913385826771
 31
0.0
  0
LINE
  5
3EFC
330
1E
100
AcDbEntity
  8
7
100
AcDbLine
 10
-10.18996062992125
 20
1.067913385826771
 30
0.0
 11
-10.18996062992125
 21
1.088582677165354
 31
0.0
  0
LINE
  5
3EFD
330
1E
100
AcDbEntity
  8
7
100
AcDbLine
 10
-10.18996062992125
 20
1.088582677165354
 30
0.0
 11
-10.18996062992125
 21
1.107283464566928
 31
0.0
  0
LINE
  5
3EFE
330
1E
100
AcDbEntity
  8
7
100
AcDbLine
 10
-9.331692913385827
 20
1.113188976377952
 30
0.0
 11
-9.331692913385827
 21
1.083661417322834
 31
0.0
  0
LINE
  5
3EFF
330
1E
100
AcDbEntity
  8
7
100
AcDbLine
 10
-9.331692913385827
 20
1.083661417322834
 30
0.0
 11
-9.331692913385827
 21
1.052165354330708
 31
0.0
  0
LINE
  5
3F00
330
1E
100
AcDbEntity
  8
7
100
AcDbLine
 10
-9.331692913385827
 20
1.052165354330708
 30
0.0
 11
-9.331692913385827
 21
1.024606299212598
 31
0.0
  0
LINE
  5
3F01
330
1E
100
AcDbEntity
  8
7
100
AcDbLine
 10
-9.331692913385827
 20
1.024606299212598
 30
0.0
 11
-9.331692913385827
 21
1.003937007874015
 31
0.0
  0
LINE
  5
3F02
330
1E
100
AcDbEntity
  8
7
100
AcDbLine
 10
-9.331692913385827
 20
1.003937007874015
 30
0.0
 11
-9.331692913385827
 21
0.9488188976377953
 31
0.0
  0
LINE
  5
3F03
330
1E
100
AcDbEntity
  8
7
100
AcDbLine
 10
-9.331692913385827
 20
0.9488188976377953
 30
0.0
 11
-9.331692913385827
 21
0.9478346456692916
 31
0.0
  0
LINE
  5
3F04
330
1E
100
AcDbEntity
  8
7
100
AcDbLine
 10
-9.331692913385827
 20
0.9478346456692916
 30
0.0
 11
-9.331692913385827
 21
0.9458661417322833
 31
0.0
  0
LINE
  5
3F05
330
1E
100
AcDbEntity
  8
7
100
AcDbLine
 10
-9.151574803149607
 20
1.428149606299212
 30
0.0
 11
-9.157480314960629
 21
1.426181102362204
 31
0.0
  0
LINE
  5
3F06
330
1E
100
AcDbEntity
  8
7
100
AcDbLine
 10
-9.157480314960629
 20
1.426181102362204
 30
0.0
 11
-9.173228346456692
 21
1.4251968503937
 31
0.0
  0
LINE
  5
3F07
330
1E
100
AcDbEntity
  8
7
100
AcDbLine
 10
-9.153543307086614
 20
0.1988188976377954
 30
0.0
 11
-9.135826771653544
 21
0.2007874015748028
 31
0.0
  0
LINE
  5
3F08
330
1E
100
AcDbEntity
  8
7
100
AcDbLine
 10
-9.135826771653544
 20
0.2007874015748028
 30
0.0
 11
-9.127952755905511
 21
0.2047244094488185
 31
0.0
  0
LINE
  5
3F09
330
1E
100
AcDbEntity
  8
7
100
AcDbLine
 10
-9.118110236220472
 20
1.904527559055118
 30
0.0
 11
-9.13484251968504
 21
1.88779527559055
 31
0.0
  0
LINE
  5
3F0A
330
1E
100
AcDbEntity
  8
7
100
AcDbLine
 10
-9.13484251968504
 20
1.88779527559055
 30
0.0
 11
-9.151574803149607
 21
1.473425196850393
 31
0.0
  0
LINE
  5
3F0B
330
1E
100
AcDbEntity
  8
7
100
AcDbLine
 10
-9.151574803149607
 20
1.473425196850393
 30
0.0
 11
-9.151574803149607
 21
1.428149606299212
 31
0.0
  0
LINE
  5
3F0C
330
1E
100
AcDbEntity
  8
7
100
AcDbLine
 10
-9.151574803149607
 20
1.428149606299212
 30
0.0
 11
-9.127952755905511
 21
0.2047244094488185
 31
0.0
  0
LINE
  5
3F0D
330
1E
100
AcDbEntity
  8
7
100
AcDbLine
 10
-9.127952755905511
 20
0.2047244094488185
 30
0.0
 11
-9.118110236220472
 21
0.1948818897637796
 31
0.0
  0
LINE
  5
3F0E
330
1E
100
AcDbEntity
  8
7
100
AcDbLine
 10
-9.325787401574803
 20
1.232283464566928
 30
0.0
 11
-9.48523622047244
 21
1.232283464566928
 31
0.0
  0
LINE
  5
3F0F
330
1E
100
AcDbEntity
  8
7
100
AcDbLine
 10
-9.48523622047244
 20
1.232283464566928
 30
0.0
 11
-9.48523622047244
 21
1.186023622047244
 31
0.0
  0
LINE
  5
3F10
330
1E
100
AcDbEntity
  8
7
100
AcDbLine
 10
-9.48523622047244
 20
1.186023622047244
 30
0.0
 11
-9.43011811023622
 21
1.186023622047244
 31
0.0
  0
LINE
  5
3F11
330
1E
100
AcDbEntity
  8
7
100
AcDbLine
 10
-9.135826771653544
 20
0.1299212598425194
 30
0.0
 11
-9.156496062992125
 21
0.103346456692913
 31
0.0
  0
LINE
  5
3F12
330
1E
100
AcDbEntity
  8
7
100
AcDbLine
 10
-9.156496062992125
 20
0.103346456692913
 30
0.0
 11
-9.183070866141733
 21
0.0826771653543306
 31
0.0
  0
LINE
  5
3F13
330
1E
100
AcDbEntity
  8
7
100
AcDbLine
 10
-9.183070866141733
 20
0.0826771653543306
 30
0.0
 11
-9.214566929133859
 21
0.0698818897637796
 31
0.0
  0
LINE
  5
3F14
330
1E
100
AcDbEntity
  8
7
100
AcDbLine
 10
-9.214566929133859
 20
0.0698818897637796
 30
0.0
 11
-9.248031496062992
 21
0.0649606299212602
 31
0.0
  0
LINE
  5
3F15
330
1E
100
AcDbEntity
  8
7
100
AcDbLine
 10
-9.118110236220472
 20
0.1948818897637796
 30
0.0
 11
-9.123031496062992
 21
0.1614173228346454
 31
0.0
  0
LINE
  5
3F16
330
1E
100
AcDbEntity
  8
7
100
AcDbLine
 10
-9.123031496062992
 20
0.1614173228346454
 30
0.0
 11
-9.135826771653544
 21
0.1299212598425194
 31
0.0
  0
LINE
  5
3F17
330
1E
100
AcDbEntity
  8
7
100
AcDbLine
 10
-9.248031496062992
 20
2.033464566929134
 30
0.0
 11
-9.214566929133859
 21
2.029527559055118
 31
0.0
  0
LINE
  5
3F18
330
1E
100
AcDbEntity
  8
7
100
AcDbLine
 10
-9.214566929133859
 20
2.029527559055118
 30
0.0
 11
-9.183070866141733
 21
2.016732283464566
 31
0.0
  0
LINE
  5
3F19
330
1E
100
AcDbEntity
  8
7
100
AcDbLine
 10
-9.183070866141733
 20
2.016732283464566
 30
0.0
 11
-9.156496062992125
 21
1.996062992125984
 31
0.0
  0
LINE
  5
3F1A
330
1E
100
AcDbEntity
  8
7
100
AcDbLine
 10
-9.156496062992125
 20
1.996062992125984
 30
0.0
 11
-9.135826771653544
 21
1.969488188976377
 31
0.0
  0
LINE
  5
3F1B
330
1E
100
AcDbEntity
  8
7
100
AcDbLine
 10
-9.135826771653544
 20
1.969488188976377
 30
0.0
 11
-9.123031496062992
 21
1.937992125984251
 31
0.0
  0
LINE
  5
3F1C
330
1E
100
AcDbEntity
  8
7
100
AcDbLine
 10
-9.123031496062992
 20
1.937992125984251
 30
0.0
 11
-9.118110236220472
 21
1.904527559055118
 31
0.0
  0
LINE
  5
3F1D
330
1E
100
AcDbEntity
  8
7
100
AcDbLine
 10
-10.95669291338582
 20
2.033464566929134
 30
0.0
 11
-10.99114173228346
 21
2.029527559055118
 31
0.0
  0
LINE
  5
3F1E
330
1E
100
AcDbEntity
  8
7
100
AcDbLine
 10
-10.99114173228346
 20
2.029527559055118
 30
0.0
 11
-11.02165354330708
 21
2.016732283464566
 31
0.0
  0
LINE
  5
3F1F
330
1E
100
AcDbEntity
  8
7
100
AcDbLine
 10
-11.02165354330708
 20
2.016732283464566
 30
0.0
 11
-11.04921259842519
 21
1.996062992125984
 31
0.0
  0
LINE
  5
3F20
330
1E
100
AcDbEntity
  8
7
100
AcDbLine
 10
-11.04921259842519
 20
1.996062992125984
 30
0.0
 11
-11.06988188976377
 21
1.969488188976377
 31
0.0
  0
LINE
  5
3F21
330
1E
100
AcDbEntity
  8
7
100
AcDbLine
 10
-11.06988188976377
 20
1.969488188976377
 30
0.0
 11
-11.08267716535433
 21
1.937992125984251
 31
0.0
  0
LINE
  5
3F22
330
1E
100
AcDbEntity
  8
7
100
AcDbLine
 10
-11.08267716535433
 20
1.937992125984251
 30
0.0
 11
-11.08661417322834
 21
1.904527559055118
 31
0.0
  0
LINE
  5
3F23
330
1E
100
AcDbEntity
  8
7
100
AcDbLine
 10
-11.02165354330708
 20
0.0826771653543306
 30
0.0
 11
-10.99114173228346
 21
0.0698818897637796
 31
0.0
  0
LINE
  5
3F24
330
1E
100
AcDbEntity
  8
7
100
AcDbLine
 10
-10.99114173228346
 20
0.0698818897637796
 30
0.0
 11
-10.95669291338582
 21
0.0649606299212602
 31
0.0
  0
LINE
  5
3F25
330
1E
100
AcDbEntity
  8
7
100
AcDbLine
 10
-11.08661417322834
 20
0.1948818897637796
 30
0.0
 11
-11.08267716535433
 21
0.1614173228346454
 31
0.0
  0
LINE
  5
3F26
330
1E
100
AcDbEntity
  8
7
100
AcDbLine
 10
-11.08267716535433
 20
0.1614173228346454
 30
0.0
 11
-11.06988188976377
 21
0.1299212598425194
 31
0.0
  0
LINE
  5
3F27
330
1E
100
AcDbEntity
  8
7
100
AcDbLine
 10
-11.06988188976377
 20
0.1299212598425194
 30
0.0
 11
-11.04921259842519
 21
0.103346456692913
 31
0.0
  0
LINE
  5
3F28
330
1E
100
AcDbEntity
  8
7
100
AcDbLine
 10
-11.04921259842519
 20
0.103346456692913
 30
0.0
 11
-11.02165354330708
 21
0.0826771653543306
 31
0.0
  0
LINE
  5
3F29
330
1E
100
AcDbEntity
  8
7
100
AcDbLine
 10
-9.25984251968504
 20
2.009842519685039
 30
0.0
 11
-9.25984251968504
 21
2.018700787401574
 31
0.0
  0
LINE
  5
3F2A
330
1E
100
AcDbEntity
  8
7
100
AcDbLine
 10
-9.25984251968504
 20
2.018700787401574
 30
0.0
 11
-9.25984251968504
 21
2.02263779527559
 31
0.0
  0
LINE
  5
3F2B
330
1E
100
AcDbEntity
  8
7
100
AcDbLine
 10
-10.94586614173228
 20
2.009842519685039
 30
0.0
 11
-10.94586614173228
 21
2.018700787401574
 31
0.0
  0
LINE
  5
3F2C
330
1E
100
AcDbEntity
  8
7
100
AcDbLine
 10
-10.94586614173228
 20
2.018700787401574
 30
0.0
 11
-10.94586614173228
 21
2.02263779527559
 31
0.0
  0
LINE
  5
3F2D
330
1E
100
AcDbEntity
  8
7
100
AcDbLine
 10
-10.02362204724409
 20
1.690944881889763
 30
0.0
 11
-9.995078740157481
 21
1.694881889763779
 31
0.0
  0
LINE
  5
3F2E
330
1E
100
AcDbEntity
  8
7
100
AcDbLine
 10
-9.995078740157481
 20
1.694881889763779
 30
0.0
 11
-9.968503937007874
 21
1.703740157480314
 31
0.0
  0
LINE
  5
3F2F
330
1E
100
AcDbEntity
  8
7
100
AcDbLine
 10
-9.968503937007874
 20
1.703740157480314
 30
0.0
 11
-9.943897637795275
 21
1.719488188976377
 31
0.0
  0
LINE
  5
3F30
330
1E
100
AcDbEntity
  8
7
100
AcDbLine
 10
-9.943897637795275
 20
1.719488188976377
 30
0.0
 11
-9.923228346456692
 21
1.74015748031496
 31
0.0
  0
LINE
  5
3F31
330
1E
100
AcDbEntity
  8
7
100
AcDbLine
 10
-9.923228346456692
 20
1.74015748031496
 30
0.0
 11
-9.908464566929133
 21
1.763779527559055
 31
0.0
  0
LINE
  5
3F32
330
1E
100
AcDbEntity
  8
7
100
AcDbLine
 10
-9.908464566929133
 20
1.763779527559055
 30
0.0
 11
-9.898622047244094
 21
1.791338582677165
 31
0.0
  0
LINE
  5
3F33
330
1E
100
AcDbEntity
  8
7
100
AcDbLine
 10
-9.898622047244094
 20
1.791338582677165
 30
0.0
 11
-9.895669291338583
 21
1.819881889763779
 31
0.0
  0
LINE
  5
3F34
330
1E
100
AcDbEntity
  8
7
100
AcDbLine
 10
-9.895669291338583
 20
1.819881889763779
 30
0.0
 11
-9.898622047244094
 21
1.848425196850393
 31
0.0
  0
LINE
  5
3F35
330
1E
100
AcDbEntity
  8
7
100
AcDbLine
 10
-9.898622047244094
 20
1.848425196850393
 30
0.0
 11
-9.908464566929133
 21
1.875984251968503
 31
0.0
  0
LINE
  5
3F36
330
1E
100
AcDbEntity
  8
7
100
AcDbLine
 10
-9.908464566929133
 20
1.875984251968503
 30
0.0
 11
-9.923228346456692
 21
1.900590551181102
 31
0.0
  0
LINE
  5
3F37
330
1E
100
AcDbEntity
  8
7
100
AcDbLine
 10
-9.923228346456692
 20
1.900590551181102
 30
0.0
 11
-9.943897637795275
 21
1.920275590551181
 31
0.0
  0
LINE
  5
3F38
330
1E
100
AcDbEntity
  8
7
100
AcDbLine
 10
-9.943897637795275
 20
1.920275590551181
 30
0.0
 11
-9.968503937007874
 21
1.936023622047244
 31
0.0
  0
LINE
  5
3F39
330
1E
100
AcDbEntity
  8
7
100
AcDbLine
 10
-9.968503937007874
 20
1.936023622047244
 30
0.0
 11
-9.995078740157481
 21
1.944881889763779
 31
0.0
  0
LINE
  5
3F3A
330
1E
100
AcDbEntity
  8
7
100
AcDbLine
 10
-9.995078740157481
 20
1.944881889763779
 30
0.0
 11
-10.02362204724409
 21
1.948818897637795
 31
0.0
  0
LINE
  5
3F3B
330
1E
100
AcDbEntity
  8
7
100
AcDbLine
 10
-10.18110236220472
 20
1.690944881889763
 30
0.0
 11
-10.20964566929133
 21
1.694881889763779
 31
0.0
  0
LINE
  5
3F3C
330
1E
100
AcDbEntity
  8
7
100
AcDbLine
 10
-10.20964566929133
 20
1.694881889763779
 30
0.0
 11
-10.23720472440944
 21
1.703740157480314
 31
0.0
  0
LINE
  5
3F3D
330
1E
100
AcDbEntity
  8
7
100
AcDbLine
 10
-10.23720472440944
 20
1.703740157480314
 30
0.0
 11
-10.26181102362204
 21
1.719488188976377
 31
0.0
  0
LINE
  5
3F3E
330
1E
100
AcDbEntity
  8
7
100
AcDbLine
 10
-10.26181102362204
 20
1.719488188976377
 30
0.0
 11
-10.28149606299212
 21
1.74015748031496
 31
0.0
  0
LINE
  5
3F3F
330
1E
100
AcDbEntity
  8
7
100
AcDbLine
 10
-10.28149606299212
 20
1.74015748031496
 30
0.0
 11
-10.29724409448818
 21
1.763779527559055
 31
0.0
  0
LINE
  5
3F40
330
1E
100
AcDbEntity
  8
7
100
AcDbLine
 10
-10.29724409448818
 20
1.763779527559055
 30
0.0
 11
-10.30708661417323
 21
1.791338582677165
 31
0.0
  0
LINE
  5
3F41
330
1E
100
AcDbEntity
  8
7
100
AcDbLine
 10
-10.30708661417323
 20
1.791338582677165
 30
0.0
 11
-10.31003937007874
 21
1.819881889763779
 31
0.0
  0
LINE
  5
3F42
330
1E
100
AcDbEntity
  8
7
100
AcDbLine
 10
-10.31003937007874
 20
1.819881889763779
 30
0.0
 11
-10.30708661417323
 21
1.848425196850393
 31
0.0
  0
LINE
  5
3F43
330
1E
100
AcDbEntity
  8
7
100
AcDbLine
 10
-10.30708661417323
 20
1.848425196850393
 30
0.0
 11
-10.29724409448818
 21
1.875984251968503
 31
0.0
  0
LINE
  5
3F44
330
1E
100
AcDbEntity
  8
7
100
AcDbLine
 10
-10.29724409448818
 20
1.875984251968503
 30
0.0
 11
-10.28149606299212
 21
1.900590551181102
 31
0.0
  0
LINE
  5
3F45
330
1E
100
AcDbEntity
  8
7
100
AcDbLine
 10
-10.28149606299212
 20
1.900590551181102
 30
0.0
 11
-10.26181102362204
 21
1.920275590551181
 31
0.0
  0
LINE
  5
3F46
330
1E
100
AcDbEntity
  8
7
100
AcDbLine
 10
-10.26181102362204
 20
1.920275590551181
 30
0.0
 11
-10.23720472440944
 21
1.936023622047244
 31
0.0
  0
LINE
  5
3F47
330
1E
100
AcDbEntity
  8
7
100
AcDbLine
 10
-10.23720472440944
 20
1.936023622047244
 30
0.0
 11
-10.20964566929133
 21
1.944881889763779
 31
0.0
  0
LINE
  5
3F48
330
1E
100
AcDbEntity
  8
7
100
AcDbLine
 10
-10.20964566929133
 20
1.944881889763779
 30
0.0
 11
-10.18110236220472
 21
1.948818897637795
 31
0.0
  0
LINE
  5
3F49
330
1E
100
AcDbEntity
  8
7
100
AcDbLine
 10
-10.18110236220472
 20
1.948818897637795
 30
0.0
 11
-10.02362204724409
 21
1.948818897637795
 31
0.0
  0
LINE
  5
3F4A
330
1E
100
AcDbEntity
  8
7
100
AcDbLine
 10
-9.412401574803149
 20
1.667322834645669
 30
0.0
 11
-9.396653543307087
 21
1.672244094488188
 31
0.0
  0
LINE
  5
3F4B
330
1E
100
AcDbEntity
  8
7
100
AcDbLine
 10
-9.396653543307087
 20
1.672244094488188
 30
0.0
 11
-9.38484251968504
 21
1.683070866141732
 31
0.0
  0
LINE
  5
3F4C
330
1E
100
AcDbEntity
  8
7
100
AcDbLine
 10
-9.38484251968504
 20
1.683070866141732
 30
0.0
 11
-9.380905511811024
 21
1.698818897637795
 31
0.0
  0
LINE
  5
3F4D
330
1E
100
AcDbEntity
  8
7
100
AcDbLine
 10
-9.380905511811024
 20
1.943897637795275
 30
0.0
 11
-9.38484251968504
 21
1.959645669291338
 31
0.0
  0
LINE
  5
3F4E
330
1E
100
AcDbEntity
  8
7
100
AcDbLine
 10
-9.38484251968504
 20
1.959645669291338
 30
0.0
 11
-9.396653543307087
 21
1.970472440944881
 31
0.0
  0
LINE
  5
3F4F
330
1E
100
AcDbEntity
  8
7
100
AcDbLine
 10
-9.396653543307087
 20
1.970472440944881
 30
0.0
 11
-9.412401574803149
 21
1.975393700787401
 31
0.0
  0
LINE
  5
3F50
330
1E
100
AcDbEntity
  8
7
100
AcDbLine
 10
-9.412401574803149
 20
1.667322834645669
 30
0.0
 11
-10.79330708661417
 21
1.667322834645669
 31
0.0
  0
LINE
  5
3F51
330
1E
100
AcDbEntity
  8
7
100
AcDbLine
 10
-10.79330708661417
 20
1.667322834645669
 30
0.0
 11
-10.80905511811023
 21
1.672244094488188
 31
0.0
  0
LINE
  5
3F52
330
1E
100
AcDbEntity
  8
7
100
AcDbLine
 10
-10.80905511811023
 20
1.672244094488188
 30
0.0
 11
-10.81988188976378
 21
1.683070866141732
 31
0.0
  0
LINE
  5
3F53
330
1E
100
AcDbEntity
  8
7
100
AcDbLine
 10
-10.81988188976378
 20
1.683070866141732
 30
0.0
 11
-10.8248031496063
 21
1.698818897637795
 31
0.0
  0
LINE
  5
3F54
330
1E
100
AcDbEntity
  8
7
100
AcDbLine
 10
-10.8248031496063
 20
1.698818897637795
 30
0.0
 11
-10.8248031496063
 21
1.943897637795275
 31
0.0
  0
LINE
  5
3F55
330
1E
100
AcDbEntity
  8
7
100
AcDbLine
 10
-10.8248031496063
 20
1.943897637795275
 30
0.0
 11
-10.81988188976378
 21
1.959645669291338
 31
0.0
  0
LINE
  5
3F56
330
1E
100
AcDbEntity
  8
7
100
AcDbLine
 10
-10.81988188976378
 20
1.959645669291338
 30
0.0
 11
-10.80905511811023
 21
1.970472440944881
 31
0.0
  0
LINE
  5
3F57
330
1E
100
AcDbEntity
  8
7
100
AcDbLine
 10
-10.80905511811023
 20
1.970472440944881
 30
0.0
 11
-10.79330708661417
 21
1.975393700787401
 31
0.0
  0
LINE
  5
3F58
330
1E
100
AcDbEntity
  8
7
100
AcDbLine
 10
-10.79330708661417
 20
1.975393700787401
 30
0.0
 11
-9.412401574803149
 21
1.975393700787401
 31
0.0
  0
LINE
  5
3F59
330
1E
100
AcDbEntity
  8
7
100
AcDbLine
 10
-10.99704724409448
 20
1.99507874015748
 30
0.0
 11
-10.97244094488189
 21
2.005905511811024
 31
0.0
  0
LINE
  5
3F5A
330
1E
100
AcDbEntity
  8
7
100
AcDbLine
 10
-10.97244094488189
 20
2.005905511811024
 30
0.0
 11
-10.94586614173228
 21
2.009842519685039
 31
0.0
  0
LINE
  5
3F5B
330
1E
100
AcDbEntity
  8
7
100
AcDbLine
 10
-11.04625984251968
 20
1.900590551181102
 30
0.0
 11
-11.04330708661417
 21
1.929133858267716
 31
0.0
  0
LINE
  5
3F5C
330
1E
100
AcDbEntity
  8
7
100
AcDbLine
 10
-11.04330708661417
 20
1.929133858267716
 30
0.0
 11
-11.03444881889763
 21
1.955708661417323
 31
0.0
  0
LINE
  5
3F5D
330
1E
100
AcDbEntity
  8
7
100
AcDbLine
 10
-11.03444881889763
 20
1.955708661417323
 30
0.0
 11
-11.01870078740157
 21
1.978346456692912
 31
0.0
  0
LINE
  5
3F5E
330
1E
100
AcDbEntity
  8
7
100
AcDbLine
 10
-11.01870078740157
 20
1.978346456692912
 30
0.0
 11
-10.99704724409448
 21
1.99507874015748
 31
0.0
  0
LINE
  5
3F5F
330
1E
100
AcDbEntity
  8
7
100
AcDbLine
 10
-9.176181102362205
 20
1.486220472440944
 30
0.0
 11
-9.159448818897638
 21
1.900590551181102
 31
0.0
  0
LINE
  5
3F60
330
1E
100
AcDbEntity
  8
7
100
AcDbLine
 10
-9.159448818897638
 20
1.900590551181102
 30
0.0
 11
-9.161417322834646
 21
1.929133858267716
 31
0.0
  0
LINE
  5
3F61
330
1E
100
AcDbEntity
  8
7
100
AcDbLine
 10
-9.161417322834646
 20
1.929133858267716
 30
0.0
 11
-9.171259842519685
 21
1.955708661417323
 31
0.0
  0
LINE
  5
3F62
330
1E
100
AcDbEntity
  8
7
100
AcDbLine
 10
-9.171259842519685
 20
1.955708661417323
 30
0.0
 11
-9.187007874015748
 21
1.978346456692912
 31
0.0
  0
LINE
  5
3F63
330
1E
100
AcDbEntity
  8
7
100
AcDbLine
 10
-9.187007874015748
 20
1.978346456692912
 30
0.0
 11
-9.207677165354331
 21
1.99507874015748
 31
0.0
  0
LINE
  5
3F64
330
1E
100
AcDbEntity
  8
7
100
AcDbLine
 10
-9.207677165354331
 20
1.99507874015748
 30
0.0
 11
-9.232283464566929
 21
2.005905511811024
 31
0.0
  0
LINE
  5
3F65
330
1E
100
AcDbEntity
  8
7
100
AcDbLine
 10
-9.232283464566929
 20
2.005905511811024
 30
0.0
 11
-9.25984251968504
 21
2.009842519685039
 31
0.0
  0
LINE
  5
3F66
330
1E
100
AcDbEntity
  8
7
100
AcDbLine
 10
-9.25984251968504
 20
2.009842519685039
 30
0.0
 11
-10.94586614173228
 21
2.009842519685039
 31
0.0
  0
LINE
  5
3F67
330
1E
100
AcDbEntity
  8
7
100
AcDbLine
 10
-9.176181102362205
 20
1.486220472440944
 30
0.0
 11
-11.02952755905511
 21
1.486220472440944
 31
0.0
  0
LINE
  5
3F68
330
1E
100
AcDbEntity
  8
7
100
AcDbLine
 10
-11.02952755905511
 20
1.486220472440944
 30
0.0
 11
-11.03543307086614
 21
1.480314960629921
 31
0.0
  0
LINE
  5
3F69
330
1E
100
AcDbEntity
  8
7
100
AcDbLine
 10
-11.03543307086614
 20
1.480314960629921
 30
0.0
 11
-11.02952755905511
 21
1.473425196850393
 31
0.0
  0
LINE
  5
3F6A
330
1E
100
AcDbEntity
  8
7
100
AcDbLine
 10
-11.02952755905511
 20
1.428149606299212
 30
0.0
 11
-11.03248031496063
 21
1.4251968503937
 31
0.0
  0
LINE
  5
3F6B
330
1E
100
AcDbEntity
  8
7
100
AcDbLine
 10
-11.03248031496063
 20
1.4251968503937
 30
0.0
 11
-11.02952755905511
 21
1.422244094488188
 31
0.0
  0
LINE
  5
3F6C
330
1E
100
AcDbEntity
  8
7
100
AcDbLine
 10
-9.255905511811024
 20
0.0915354330708658
 30
0.0
 11
-9.255905511811024
 21
0.0787401574803148
 31
0.0
  0
LINE
  5
3F6D
330
1E
100
AcDbEntity
  8
7
100
AcDbLine
 10
-9.255905511811024
 20
0.0787401574803148
 30
0.0
 11
-9.255905511811024
 21
0.0728346456692917
 31
0.0
  0
LINE
  5
3F6E
330
1E
100
AcDbEntity
  8
7
100
AcDbLine
 10
-10.94881889763779
 20
0.0915354330708658
 30
0.0
 11
-10.94881889763779
 21
0.0787401574803148
 31
0.0
  0
LINE
  5
3F6F
330
1E
100
AcDbEntity
  8
7
100
AcDbLine
 10
-10.94881889763779
 20
0.0787401574803148
 30
0.0
 11
-10.94881889763779
 21
0.0728346456692917
 31
0.0
  0
LINE
  5
3F70
330
1E
100
AcDbEntity
  8
7
100
AcDbLine
 10
-10.89862204724409
 20
1.254921259842519
 30
0.0
 11
-10.88681102362204
 21
1.242125984251968
 31
0.0
  0
LINE
  5
3F71
330
1E
100
AcDbEntity
  8
7
100
AcDbLine
 10
-10.88681102362204
 20
1.242125984251968
 30
0.0
 11
-10.87992125984251
 21
1.232283464566928
 31
0.0
  0
LINE
  5
3F72
330
1E
100
AcDbEntity
  8
7
100
AcDbLine
 10
-10.87992125984251
 20
1.232283464566928
 30
0.0
 11
-10.72047244094488
 21
1.232283464566928
 31
0.0
  0
LINE
  5
3F73
330
1E
100
AcDbEntity
  8
7
100
AcDbLine
 10
-10.72047244094488
 20
1.232283464566928
 30
0.0
 11
-10.72047244094488
 21
1.233267716535433
 31
0.0
  0
LINE
  5
3F74
330
1E
100
AcDbEntity
  8
7
100
AcDbLine
 10
-10.72047244094488
 20
1.233267716535433
 30
0.0
 11
-10.71948818897637
 21
1.238188976377952
 31
0.0
  0
LINE
  5
3F75
330
1E
100
AcDbEntity
  8
7
100
AcDbLine
 10
-10.71948818897637
 20
1.238188976377952
 30
0.0
 11
-10.71653543307086
 21
1.24507874015748
 31
0.0
  0
LINE
  5
3F76
330
1E
100
AcDbEntity
  8
7
100
AcDbLine
 10
-10.71653543307086
 20
1.24507874015748
 30
0.0
 11
-10.71062992125984
 21
1.254921259842519
 31
0.0
  0
LINE
  5
3F77
330
1E
100
AcDbEntity
  8
7
100
AcDbLine
 10
-10.71062992125984
 20
1.254921259842519
 30
0.0
 11
-10.70964566929133
 21
1.254921259842519
 31
0.0
  0
LINE
  5
3F78
330
1E
100
AcDbEntity
  8
7
100
AcDbLine
 10
-10.72047244094488
 20
1.178149606299212
 30
0.0
 11
-10.72047244094488
 21
1.182086614173228
 31
0.0
  0
LINE
  5
3F79
330
1E
100
AcDbEntity
  8
7
100
AcDbLine
 10
-10.72047244094488
 20
1.182086614173228
 30
0.0
 11
-10.72047244094488
 21
1.186023622047244
 31
0.0
  0
LINE
  5
3F7A
330
1E
100
AcDbEntity
  8
7
100
AcDbLine
 10
-10.32086614173228
 20
1.299212598425197
 30
0.0
 11
-10.32086614173228
 21
1.322834645669291
 31
0.0
  0
LINE
  5
3F7B
330
1E
100
AcDbEntity
  8
7
100
AcDbLine
 10
-10.32086614173228
 20
1.322834645669291
 30
0.0
 11
-10.32283464566929
 21
1.328740157480314
 31
0.0
  0
LINE
  5
3F7C
330
1E
100
AcDbEntity
  8
7
100
AcDbLine
 10
-10.32283464566929
 20
1.328740157480314
 30
0.0
 11
-10.32874015748031
 21
1.330708661417323
 31
0.0
  0
LINE
  5
3F7D
330
1E
100
AcDbEntity
  8
7
100
AcDbLine
 10
-10.32874015748031
 20
1.330708661417323
 30
0.0
 11
-10.40255905511811
 21
1.330708661417323
 31
0.0
  0
LINE
  5
3F7E
330
1E
100
AcDbEntity
  8
7
100
AcDbLine
 10
-10.43700787401574
 20
1.330708661417323
 30
0.0
 11
-10.51181102362204
 21
1.330708661417323
 31
0.0
  0
LINE
  5
3F7F
330
1E
100
AcDbEntity
  8
7
100
AcDbLine
 10
-10.51181102362204
 20
1.330708661417323
 30
0.0
 11
-10.51673228346456
 21
1.328740157480314
 31
0.0
  0
LINE
  5
3F80
330
1E
100
AcDbEntity
  8
7
100
AcDbLine
 10
-10.51673228346456
 20
1.328740157480314
 30
0.0
 11
-10.51968503937007
 21
1.322834645669291
 31
0.0
  0
LINE
  5
3F81
330
1E
100
AcDbEntity
  8
7
100
AcDbLine
 10
-10.51968503937007
 20
1.322834645669291
 30
0.0
 11
-10.51968503937007
 21
1.299212598425197
 31
0.0
  0
LINE
  5
3F82
330
1E
100
AcDbEntity
  8
7
100
AcDbLine
 10
-10.01476377952756
 20
1.034448818897637
 30
0.0
 11
-10.01476377952756
 21
1.038385826771653
 31
0.0
  0
LINE
  5
3F83
330
1E
100
AcDbEntity
  8
7
100
AcDbLine
 10
-10.01476377952756
 20
1.038385826771653
 30
0.0
 11
-10.01476377952756
 21
1.0501968503937
 31
0.0
  0
LINE
  5
3F84
330
1E
100
AcDbEntity
  8
7
100
AcDbLine
 10
-10.01476377952756
 20
1.0501968503937
 30
0.0
 11
-10.01476377952756
 21
1.067913385826771
 31
0.0
  0
LINE
  5
3F85
330
1E
100
AcDbEntity
  8
7
100
AcDbLine
 10
-10.01476377952756
 20
1.067913385826771
 30
0.0
 11
-10.01476377952756
 21
1.088582677165354
 31
0.0
  0
LINE
  5
3F86
330
1E
100
AcDbEntity
  8
7
100
AcDbLine
 10
-10.01476377952756
 20
1.088582677165354
 30
0.0
 11
-10.01476377952756
 21
1.107283464566928
 31
0.0
  0
LINE
  5
3F87
330
1E
100
AcDbEntity
  8
7
100
AcDbLine
 10
-10.01476377952756
 20
1.11023622047244
 30
0.0
 11
-10.01476377952756
 21
1.109251968503937
 31
0.0
  0
LINE
  5
3F88
330
1E
100
AcDbEntity
  8
7
100
AcDbLine
 10
-10.01476377952756
 20
1.109251968503937
 30
0.0
 11
-10.01476377952756
 21
1.107283464566928
 31
0.0
  0
LINE
  5
3F89
330
1E
100
AcDbEntity
  8
7
100
AcDbLine
 10
-9.77263779527559
 20
1.260826771653543
 30
0.0
 11
-9.688976377952755
 21
1.260826771653543
 31
0.0
  0
LINE
  5
3F8A
330
1E
100
AcDbEntity
  8
7
100
AcDbLine
 10
-9.688976377952755
 20
1.260826771653543
 30
0.0
 11
-9.689960629921259
 21
1.26279527559055
 31
0.0
  0
LINE
  5
3F8B
330
1E
100
AcDbEntity
  8
7
100
AcDbLine
 10
-10.32283464566929
 20
1.254921259842519
 30
0.0
 11
-10.32381889763779
 21
1.260826771653543
 31
0.0
  0
LINE
  5
3F8C
330
1E
100
AcDbEntity
  8
7
100
AcDbLine
 10
-10.32381889763779
 20
1.260826771653543
 30
0.0
 11
-10.40846456692913
 21
1.260826771653543
 31
0.0
  0
LINE
  5
3F8D
330
1E
100
AcDbEntity
  8
7
100
AcDbLine
 10
-10.43208661417323
 20
1.260826771653543
 30
0.0
 11
-10.51574803149606
 21
1.260826771653543
 31
0.0
  0
LINE
  5
3F8E
330
1E
100
AcDbEntity
  8
7
100
AcDbLine
 10
-10.51574803149606
 20
1.260826771653543
 30
0.0
 11
-10.51673228346456
 21
1.254921259842519
 31
0.0
  0
LINE
  5
3F8F
330
1E
100
AcDbEntity
  8
7
100
AcDbLine
 10
-9.76771653543307
 20
1.330708661417323
 30
0.0
 11
-9.76771653543307
 21
1.299212598425197
 31
0.0
  0
LINE
  5
3F90
330
1E
100
AcDbEntity
  8
7
100
AcDbLine
 10
-9.76771653543307
 20
1.299212598425197
 30
0.0
 11
-9.766732283464566
 21
1.267716535433071
 31
0.0
  0
LINE
  5
3F91
330
1E
100
AcDbEntity
  8
7
100
AcDbLine
 10
-9.766732283464566
 20
1.267716535433071
 30
0.0
 11
-9.697834645669292
 21
1.267716535433071
 31
0.0
  0
LINE
  5
3F92
330
1E
100
AcDbEntity
  8
7
100
AcDbLine
 10
-9.697834645669292
 20
1.267716535433071
 30
0.0
 11
-9.697834645669292
 21
1.299212598425197
 31
0.0
  0
LINE
  5
3F93
330
1E
100
AcDbEntity
  8
7
100
AcDbLine
 10
-9.686023622047244
 20
1.322834645669291
 30
0.0
 11
-9.687992125984251
 21
1.328740157480314
 31
0.0
  0
LINE
  5
3F94
330
1E
100
AcDbEntity
  8
7
100
AcDbLine
 10
-9.687992125984251
 20
1.328740157480314
 30
0.0
 11
-9.693897637795275
 21
1.330708661417323
 31
0.0
  0
LINE
  5
3F95
330
1E
100
AcDbEntity
  8
7
100
AcDbLine
 10
-9.873031496062992
 20
1.299212598425197
 30
0.0
 11
-9.873031496062992
 21
1.267716535433071
 31
0.0
  0
LINE
  5
3F96
330
1E
100
AcDbEntity
  8
7
100
AcDbLine
 10
-9.873031496062992
 20
1.267716535433071
 30
0.0
 11
-9.803149606299212
 21
1.267716535433071
 31
0.0
  0
LINE
  5
3F97
330
1E
100
AcDbEntity
  8
7
100
AcDbLine
 10
-9.803149606299212
 20
1.267716535433071
 30
0.0
 11
-9.803149606299212
 21
1.299212598425197
 31
0.0
  0
LINE
  5
3F98
330
1E
100
AcDbEntity
  8
7
100
AcDbLine
 10
-9.803149606299212
 20
1.299212598425197
 30
0.0
 11
-9.802165354330709
 21
1.330708661417323
 31
0.0
  0
LINE
  5
3F99
330
1E
100
AcDbEntity
  8
7
100
AcDbLine
 10
-9.887795275590551
 20
1.271653543307087
 30
0.0
 11
-9.887795275590551
 21
1.270669291338582
 31
0.0
  0
LINE
  5
3F9A
330
1E
100
AcDbEntity
  8
7
100
AcDbLine
 10
-9.887795275590551
 20
1.270669291338582
 30
0.0
 11
-9.885826771653544
 21
1.265748031496062
 31
0.0
  0
LINE
  5
3F9B
330
1E
100
AcDbEntity
  8
7
100
AcDbLine
 10
-9.885826771653544
 20
1.265748031496062
 30
0.0
 11
-9.87992125984252
 21
1.26279527559055
 31
0.0
  0
LINE
  5
3F9C
330
1E
100
AcDbEntity
  8
7
100
AcDbLine
 10
-10.40846456692913
 20
1.26279527559055
 30
0.0
 11
-10.3257874015748
 21
1.26279527559055
 31
0.0
  0
LINE
  5
3F9D
330
1E
100
AcDbEntity
  8
7
100
AcDbLine
 10
-10.3257874015748
 20
1.26279527559055
 30
0.0
 11
-10.31988188976378
 21
1.265748031496062
 31
0.0
  0
LINE
  5
3F9E
330
1E
100
AcDbEntity
  8
7
100
AcDbLine
 10
-10.31988188976378
 20
1.265748031496062
 30
0.0
 11
-10.31692913385826
 21
1.270669291338582
 31
0.0
  0
LINE
  5
3F9F
330
1E
100
AcDbEntity
  8
7
100
AcDbLine
 10
-10.31692913385826
 20
1.270669291338582
 30
0.0
 11
-10.31692913385826
 21
1.271653543307087
 31
0.0
  0
LINE
  5
3FA0
330
1E
100
AcDbEntity
  8
7
100
AcDbLine
 10
-10.52263779527559
 20
1.270669291338582
 30
0.0
 11
-10.52066929133858
 21
1.265748031496062
 31
0.0
  0
LINE
  5
3FA1
330
1E
100
AcDbEntity
  8
7
100
AcDbLine
 10
-10.52066929133858
 20
1.265748031496062
 30
0.0
 11
-10.51476377952756
 21
1.26279527559055
 31
0.0
  0
LINE
  5
3FA2
330
1E
100
AcDbEntity
  8
7
100
AcDbLine
 10
-10.51476377952756
 20
1.26279527559055
 30
0.0
 11
-10.43208661417323
 21
1.26279527559055
 31
0.0
  0
LINE
  5
3FA3
330
1E
100
AcDbEntity
  8
7
100
AcDbLine
 10
-9.689960629921259
 20
1.26279527559055
 30
0.0
 11
-9.68503937007874
 21
1.265748031496062
 31
0.0
  0
LINE
  5
3FA4
330
1E
100
AcDbEntity
  8
7
100
AcDbLine
 10
-9.68503937007874
 20
1.265748031496062
 30
0.0
 11
-9.682086614173229
 21
1.270669291338582
 31
0.0
  0
LINE
  5
3FA5
330
1E
100
AcDbEntity
  8
7
100
AcDbLine
 10
-9.682086614173229
 20
1.270669291338582
 30
0.0
 11
-9.682086614173229
 21
1.271653543307087
 31
0.0
  0
LINE
  5
3FA6
330
1E
100
AcDbEntity
  8
7
100
AcDbLine
 10
-9.495078740157481
 20
1.194881889763779
 30
0.0
 11
-9.495078740157481
 21
1.254921259842519
 31
0.0
  0
LINE
  5
3FA7
330
1E
100
AcDbEntity
  8
7
100
AcDbLine
 10
-9.495078740157481
 20
1.254921259842519
 30
0.0
 11
-9.306102362204725
 21
1.254921259842519
 31
0.0
  0
LINE
  5
3FA8
330
1E
100
AcDbEntity
  8
7
100
AcDbLine
 10
-9.306102362204725
 20
1.254921259842519
 30
0.0
 11
-9.306102362204725
 21
0.8887795275590555
 31
0.0
  0
LINE
  5
3FA9
330
1E
100
AcDbEntity
  8
7
100
AcDbLine
 10
-9.306102362204725
 20
0.8887795275590555
 30
0.0
 11
-9.43503937007874
 21
0.8887795275590555
 31
0.0
  0
LINE
  5
3FAA
330
1E
100
AcDbEntity
  8
7
100
AcDbLine
 10
-10.12992125984252
 20
1.194881889763779
 30
0.0
 11
-10.12992125984252
 21
1.254921259842519
 31
0.0
  0
LINE
  5
3FAB
330
1E
100
AcDbEntity
  8
7
100
AcDbLine
 10
-10.12992125984252
 20
1.254921259842519
 30
0.0
 11
-10.07480314960629
 21
1.254921259842519
 31
0.0
  0
LINE
  5
3FAC
330
1E
100
AcDbEntity
  8
7
100
AcDbLine
 10
-10.07480314960629
 20
1.254921259842519
 30
0.0
 11
-10.07480314960629
 21
1.194881889763779
 31
0.0
  0
LINE
  5
3FAD
330
1E
100
AcDbEntity
  8
7
100
AcDbLine
 10
-10.07480314960629
 20
1.194881889763779
 30
0.0
 11
-9.495078740157481
 21
1.194881889763779
 31
0.0
  0
LINE
  5
3FAE
330
1E
100
AcDbEntity
  8
7
100
AcDbLine
 10
-10.77066929133858
 20
0.8887795275590555
 30
0.0
 11
-10.89862204724409
 21
0.8887795275590555
 31
0.0
  0
LINE
  5
3FAF
330
1E
100
AcDbEntity
  8
7
100
AcDbLine
 10
-10.89862204724409
 20
0.8887795275590555
 30
0.0
 11
-10.89862204724409
 21
1.254921259842519
 31
0.0
  0
LINE
  5
3FB0
330
1E
100
AcDbEntity
  8
7
100
AcDbLine
 10
-9.68011811023622
 20
1.26279527559055
 30
0.0
 11
-9.683070866141733
 21
1.257874015748031
 31
0.0
  0
LINE
  5
3FB1
330
1E
100
AcDbEntity
  8
7
100
AcDbLine
 10
-9.683070866141733
 20
1.257874015748031
 30
0.0
 11
-9.687992125984251
 21
1.254921259842519
 31
0.0
  0
LINE
  5
3FB2
330
1E
100
AcDbEntity
  8
7
100
AcDbLine
 10
-9.688976377952755
 20
1.33267716535433
 30
0.0
 11
-9.683070866141733
 21
1.330708661417323
 31
0.0
  0
LINE
  5
3FB3
330
1E
100
AcDbEntity
  8
7
100
AcDbLine
 10
-9.683070866141733
 20
1.330708661417323
 30
0.0
 11
-9.681102362204725
 21
1.324803149606299
 31
0.0
  0
LINE
  5
3FB4
330
1E
100
AcDbEntity
  8
7
100
AcDbLine
 10
-9.881889763779527
 20
1.254921259842519
 30
0.0
 11
-9.887795275590551
 21
1.257874015748031
 31
0.0
  0
LINE
  5
3FB5
330
1E
100
AcDbEntity
  8
7
100
AcDbLine
 10
-9.887795275590551
 20
1.257874015748031
 30
0.0
 11
-9.889763779527559
 21
1.26279527559055
 31
0.0
  0
LINE
  5
3FB6
330
1E
100
AcDbEntity
  8
7
100
AcDbLine
 10
-9.888779527559055
 20
1.324803149606299
 30
0.0
 11
-9.886811023622048
 21
1.330708661417323
 31
0.0
  0
LINE
  5
3FB7
330
1E
100
AcDbEntity
  8
7
100
AcDbLine
 10
-9.886811023622048
 20
1.330708661417323
 30
0.0
 11
-9.880905511811024
 21
1.33267716535433
 31
0.0
  0
LINE
  5
3FB8
330
1E
100
AcDbEntity
  8
7
100
AcDbLine
 10
-10.22933070866141
 20
0.2706692913385824
 30
0.0
 11
-10.22933070866141
 21
0.3021653543307083
 31
0.0
  0
LINE
  5
3FB9
330
1E
100
AcDbEntity
  8
7
100
AcDbLine
 10
-10.22933070866141
 20
0.3021653543307083
 30
0.0
 11
-10.22244094488189
 21
0.3316929133858268
 31
0.0
  0
LINE
  5
3FBA
330
1E
100
AcDbEntity
  8
7
100
AcDbLine
 10
-10.22244094488189
 20
0.3316929133858268
 30
0.0
 11
-10.20767716535433
 21
0.359251968503937
 31
0.0
  0
LINE
  5
3FBB
330
1E
100
AcDbEntity
  8
7
100
AcDbLine
 10
-10.20767716535433
 20
0.359251968503937
 30
0.0
 11
-10.18700787401574
 21
0.3818897637795278
 31
0.0
  0
LINE
  5
3FBC
330
1E
100
AcDbEntity
  8
7
100
AcDbLine
 10
-10.18700787401574
 20
0.3818897637795278
 30
0.0
 11
-10.16240157480315
 21
0.3996062992125981
 31
0.0
  0
LINE
  5
3FBD
330
1E
100
AcDbEntity
  8
7
100
AcDbLine
 10
-10.16240157480315
 20
0.3996062992125981
 30
0.0
 11
-10.13287401574803
 21
0.4104330708661417
 31
0.0
  0
LINE
  5
3FBE
330
1E
100
AcDbEntity
  8
7
100
AcDbLine
 10
-10.13287401574803
 20
0.4104330708661417
 30
0.0
 11
-10.1023622047244
 21
0.4143700787401574
 31
0.0
  0
LINE
  5
3FBF
330
1E
100
AcDbEntity
  8
7
100
AcDbLine
 10
-9.975393700787401
 20
0.3021653543307083
 30
0.0
 11
-9.975393700787401
 21
0.2706692913385824
 31
0.0
  0
LINE
  5
3FC0
330
1E
100
AcDbEntity
  8
7
100
AcDbLine
 10
-9.975393700787401
 20
0.2706692913385824
 30
0.0
 11
-9.983267716535433
 21
0.2411417322834648
 31
0.0
  0
LINE
  5
3FC1
330
1E
100
AcDbEntity
  8
7
100
AcDbLine
 10
-9.983267716535433
 20
0.2411417322834648
 30
0.0
 11
-9.997047244094488
 21
0.2135826771653546
 31
0.0
  0
LINE
  5
3FC2
330
1E
100
AcDbEntity
  8
7
100
AcDbLine
 10
-9.997047244094488
 20
0.2135826771653546
 30
0.0
 11
-10.01771653543306
 21
0.1909448818897639
 31
0.0
  0
LINE
  5
3FC3
330
1E
100
AcDbEntity
  8
7
100
AcDbLine
 10
-10.01771653543306
 20
0.1909448818897639
 30
0.0
 11
-10.04330708661417
 21
0.1732283464566926
 31
0.0
  0
LINE
  5
3FC4
330
1E
100
AcDbEntity
  8
7
100
AcDbLine
 10
-10.04330708661417
 20
0.1732283464566926
 30
0.0
 11
-10.07185039370078
 21
0.16240157480315
 31
0.0
  0
LINE
  5
3FC5
330
1E
100
AcDbEntity
  8
7
100
AcDbLine
 10
-10.07185039370078
 20
0.16240157480315
 30
0.0
 11
-10.1023622047244
 21
0.1584645669291342
 31
0.0
  0
LINE
  5
3FC6
330
1E
100
AcDbEntity
  8
7
100
AcDbLine
 10
-10.1023622047244
 20
0.1584645669291342
 30
0.0
 11
-10.13287401574803
 21
0.16240157480315
 31
0.0
  0
LINE
  5
3FC7
330
1E
100
AcDbEntity
  8
7
100
AcDbLine
 10
-10.13287401574803
 20
0.16240157480315
 30
0.0
 11
-10.16240157480315
 21
0.1732283464566926
 31
0.0
  0
LINE
  5
3FC8
330
1E
100
AcDbEntity
  8
7
100
AcDbLine
 10
-10.16240157480315
 20
0.1732283464566926
 30
0.0
 11
-10.18700787401574
 21
0.1909448818897639
 31
0.0
  0
LINE
  5
3FC9
330
1E
100
AcDbEntity
  8
7
100
AcDbLine
 10
-10.18700787401574
 20
0.1909448818897639
 30
0.0
 11
-10.20767716535433
 21
0.2135826771653546
 31
0.0
  0
LINE
  5
3FCA
330
1E
100
AcDbEntity
  8
7
100
AcDbLine
 10
-10.20767716535433
 20
0.2135826771653546
 30
0.0
 11
-10.22244094488189
 21
0.2411417322834648
 31
0.0
  0
LINE
  5
3FCB
330
1E
100
AcDbEntity
  8
7
100
AcDbLine
 10
-10.22244094488189
 20
0.2411417322834648
 30
0.0
 11
-10.22933070866141
 21
0.2706692913385824
 31
0.0
  0
LINE
  5
3FCC
330
1E
100
AcDbEntity
  8
7
100
AcDbLine
 10
-10.1023622047244
 20
0.4143700787401574
 30
0.0
 11
-10.07185039370078
 21
0.4104330708661417
 31
0.0
  0
LINE
  5
3FCD
330
1E
100
AcDbEntity
  8
7
100
AcDbLine
 10
-10.07185039370078
 20
0.4104330708661417
 30
0.0
 11
-10.04330708661417
 21
0.3996062992125981
 31
0.0
  0
LINE
  5
3FCE
330
1E
100
AcDbEntity
  8
7
100
AcDbLine
 10
-10.04330708661417
 20
0.3996062992125981
 30
0.0
 11
-10.01771653543306
 21
0.3818897637795278
 31
0.0
  0
LINE
  5
3FCF
330
1E
100
AcDbEntity
  8
7
100
AcDbLine
 10
-10.01771653543306
 20
0.3818897637795278
 30
0.0
 11
-9.997047244094488
 21
0.359251968503937
 31
0.0
  0
LINE
  5
3FD0
330
1E
100
AcDbEntity
  8
7
100
AcDbLine
 10
-9.997047244094488
 20
0.359251968503937
 30
0.0
 11
-9.983267716535433
 21
0.3316929133858268
 31
0.0
  0
LINE
  5
3FD1
330
1E
100
AcDbEntity
  8
7
100
AcDbLine
 10
-9.983267716535433
 20
0.3316929133858268
 30
0.0
 11
-9.975393700787401
 21
0.3021653543307083
 31
0.0
  0
LINE
  5
3FD2
330
1E
100
AcDbEntity
  8
7
100
AcDbLine
 10
-10.94881889763779
 20
0.0915354330708658
 30
0.0
 11
-9.255905511811024
 21
0.0915354330708658
 31
0.0
  0
LINE
  5
3FD3
330
1E
100
AcDbEntity
  8
7
100
AcDbLine
 10
-9.255905511811024
 20
0.0915354330708658
 30
0.0
 11
-9.228346456692914
 21
0.0954724409448815
 31
0.0
  0
LINE
  5
3FD4
330
1E
100
AcDbEntity
  8
7
100
AcDbLine
 10
-9.228346456692914
 20
0.0954724409448815
 30
0.0
 11
-9.203740157480314
 21
0.106299212598425
 31
0.0
  0
LINE
  5
3FD5
330
1E
100
AcDbEntity
  8
7
100
AcDbLine
 10
-9.203740157480314
 20
0.106299212598425
 30
0.0
 11
-9.182086614173229
 21
0.1230314960629926
 31
0.0
  0
LINE
  5
3FD6
330
1E
100
AcDbEntity
  8
7
100
AcDbLine
 10
-9.182086614173229
 20
0.1230314960629926
 30
0.0
 11
-9.166338582677166
 21
0.1446850393700787
 31
0.0
  0
LINE
  5
3FD7
330
1E
100
AcDbEntity
  8
7
100
AcDbLine
 10
-9.166338582677166
 20
0.1446850393700787
 30
0.0
 11
-9.156496062992125
 21
0.1712598425196852
 31
0.0
  0
LINE
  5
3FD8
330
1E
100
AcDbEntity
  8
7
100
AcDbLine
 10
-9.156496062992125
 20
0.1712598425196852
 30
0.0
 11
-9.153543307086614
 21
0.1988188976377954
 31
0.0
  0
LINE
  5
3FD9
330
1E
100
AcDbEntity
  8
7
100
AcDbLine
 10
-9.153543307086614
 20
0.1988188976377954
 30
0.0
 11
-9.176181102362205
 21
1.422244094488188
 31
0.0
  0
LINE
  5
3FDA
330
1E
100
AcDbEntity
  8
7
100
AcDbLine
 10
-11.0009842519685
 20
0.106299212598425
 30
0.0
 11
-11.02263779527559
 21
0.1230314960629926
 31
0.0
  0
LINE
  5
3FDB
330
1E
100
AcDbEntity
  8
7
100
AcDbLine
 10
-11.02263779527559
 20
0.1230314960629926
 30
0.0
 11
-11.03937007874015
 21
0.1446850393700787
 31
0.0
  0
LINE
  5
3FDC
330
1E
100
AcDbEntity
  8
7
100
AcDbLine
 10
-11.03937007874015
 20
0.1446850393700787
 30
0.0
 11
-11.04921259842519
 21
0.1712598425196852
 31
0.0
  0
LINE
  5
3FDD
330
1E
100
AcDbEntity
  8
7
100
AcDbLine
 10
-11.04921259842519
 20
0.1712598425196852
 30
0.0
 11
-11.0521653543307
 21
0.1988188976377954
 31
0.0
  0
LINE
  5
3FDE
330
1E
100
AcDbEntity
  8
7
100
AcDbLine
 10
-10.94881889763779
 20
0.0915354330708658
 30
0.0
 11
-10.9763779527559
 21
0.0954724409448815
 31
0.0
  0
LINE
  5
3FDF
330
1E
100
AcDbEntity
  8
7
100
AcDbLine
 10
-10.9763779527559
 20
0.0954724409448815
 30
0.0
 11
-11.0009842519685
 21
0.106299212598425
 31
0.0
  0
LINE
  5
3FE0
330
1E
100
AcDbEntity
  8
7
100
AcDbLine
 10
-10.43208661417323
 20
1.254921259842519
 30
0.0
 11
-10.51673228346456
 21
1.254921259842519
 31
0.0
  0
LINE
  5
3FE1
330
1E
100
AcDbEntity
  8
7
100
AcDbLine
 10
-10.51673228346456
 20
1.254921259842519
 30
0.0
 11
-10.52263779527559
 21
1.257874015748031
 31
0.0
  0
LINE
  5
3FE2
330
1E
100
AcDbEntity
  8
7
100
AcDbLine
 10
-10.52263779527559
 20
1.257874015748031
 30
0.0
 11
-10.52460629921259
 21
1.26279527559055
 31
0.0
  0
LINE
  5
3FE3
330
1E
100
AcDbEntity
  8
7
100
AcDbLine
 10
-10.52460629921259
 20
1.26279527559055
 30
0.0
 11
-10.52460629921259
 21
1.324803149606299
 31
0.0
  0
LINE
  5
3FE4
330
1E
100
AcDbEntity
  8
7
100
AcDbLine
 10
-10.52460629921259
 20
1.324803149606299
 30
0.0
 11
-10.52165354330708
 21
1.330708661417323
 31
0.0
  0
LINE
  5
3FE5
330
1E
100
AcDbEntity
  8
7
100
AcDbLine
 10
-10.52165354330708
 20
1.330708661417323
 30
0.0
 11
-10.51673228346456
 21
1.33267716535433
 31
0.0
  0
LINE
  5
3FE6
330
1E
100
AcDbEntity
  8
7
100
AcDbLine
 10
-10.32381889763779
 20
1.33267716535433
 30
0.0
 11
-10.31791338582677
 21
1.330708661417323
 31
0.0
  0
LINE
  5
3FE7
330
1E
100
AcDbEntity
  8
7
100
AcDbLine
 10
-10.31791338582677
 20
1.330708661417323
 30
0.0
 11
-10.31594488188976
 21
1.324803149606299
 31
0.0
  0
LINE
  5
3FE8
330
1E
100
AcDbEntity
  8
7
100
AcDbLine
 10
-10.31594488188976
 20
1.324803149606299
 30
0.0
 11
-10.31496062992125
 21
1.26279527559055
 31
0.0
  0
LINE
  5
3FE9
330
1E
100
AcDbEntity
  8
7
100
AcDbLine
 10
-10.31496062992125
 20
1.26279527559055
 30
0.0
 11
-10.31791338582677
 21
1.257874015748031
 31
0.0
  0
LINE
  5
3FEA
330
1E
100
AcDbEntity
  8
7
100
AcDbLine
 10
-10.31791338582677
 20
1.257874015748031
 30
0.0
 11
-10.32283464566929
 21
1.254921259842519
 31
0.0
  0
LINE
  5
3FEB
330
1E
100
AcDbEntity
  8
7
100
AcDbLine
 10
-10.32283464566929
 20
1.254921259842519
 30
0.0
 11
-10.40846456692913
 21
1.254921259842519
 31
0.0
  0
LINE
  5
3FEC
330
1E
100
AcDbEntity
  8
7
100
AcDbLine
 10
-9.48523622047244
 20
1.178149606299212
 30
0.0
 11
-9.48523622047244
 21
1.167322834645669
 31
0.0
  0
LINE
  5
3FED
330
1E
100
AcDbEntity
  8
7
100
AcDbLine
 10
-9.48523622047244
 20
1.167322834645669
 30
0.0
 11
-10.08464566929133
 21
1.167322834645669
 31
0.0
  0
LINE
  5
3FEE
330
1E
100
AcDbEntity
  8
7
100
AcDbLine
 10
-10.08464566929133
 20
1.167322834645669
 30
0.0
 11
-10.08464566929133
 21
1.178149606299212
 31
0.0
  0
LINE
  5
3FEF
330
1E
100
AcDbEntity
  8
7
100
AcDbLine
 10
-10.08464566929133
 20
1.178149606299212
 30
0.0
 11
-10.12007874015748
 21
1.178149606299212
 31
0.0
  0
LINE
  5
3FF0
330
1E
100
AcDbEntity
  8
7
100
AcDbLine
 10
-10.12007874015748
 20
1.178149606299212
 30
0.0
 11
-10.12007874015748
 21
1.167322834645669
 31
0.0
  0
LINE
  5
3FF1
330
1E
100
AcDbEntity
  8
7
100
AcDbLine
 10
-10.76377952755905
 20
1.135826771653543
 30
0.0
 11
-10.18996062992125
 21
1.135826771653543
 31
0.0
  0
LINE
  5
3FF2
330
1E
100
AcDbEntity
  8
7
100
AcDbLine
 10
-10.18996062992125
 20
1.135826771653543
 30
0.0
 11
-10.18996062992125
 21
1.11023622047244
 31
0.0
  0
LINE
  5
3FF3
330
1E
100
AcDbEntity
  8
7
100
AcDbLine
 10
-10.18996062992125
 20
1.11023622047244
 30
0.0
 11
-10.01476377952756
 21
1.11023622047244
 31
0.0
  0
LINE
  5
3FF4
330
1E
100
AcDbEntity
  8
7
100
AcDbLine
 10
-9.43011811023622
 20
1.003937007874015
 30
0.0
 11
-9.429133858267716
 21
1.019685039370078
 31
0.0
  0
LINE
  5
3FF5
330
1E
100
AcDbEntity
  8
7
100
AcDbLine
 10
-9.429133858267716
 20
1.019685039370078
 30
0.0
 11
-9.429133858267716
 21
1.040354330708661
 31
0.0
  0
LINE
  5
3FF6
330
1E
100
AcDbEntity
  8
7
100
AcDbLine
 10
-9.429133858267716
 20
1.040354330708661
 30
0.0
 11
-9.429133858267716
 21
1.06496062992126
 31
0.0
  0
LINE
  5
3FF7
330
1E
100
AcDbEntity
  8
7
100
AcDbLine
 10
-9.429133858267716
 20
1.06496062992126
 30
0.0
 11
-9.429133858267716
 21
1.089566929133858
 31
0.0
  0
LINE
  5
3FF8
330
1E
100
AcDbEntity
  8
7
100
AcDbLine
 10
-9.429133858267716
 20
1.089566929133858
 30
0.0
 11
-9.429133858267716
 21
1.113188976377952
 31
0.0
  0
LINE
  5
3FF9
330
1E
100
AcDbEntity
  8
7
100
AcDbLine
 10
-9.429133858267716
 20
1.113188976377952
 30
0.0
 11
-9.43011811023622
 21
1.186023622047244
 31
0.0
  0
LINE
  5
3FFA
330
1E
100
AcDbEntity
  8
7
100
AcDbLine
 10
-9.43011811023622
 20
1.186023622047244
 30
0.0
 11
-9.43011811023622
 21
1.178149606299212
 31
0.0
  0
LINE
  5
3FFB
330
1E
100
AcDbEntity
  8
7
100
AcDbLine
 10
-9.43011811023622
 20
1.178149606299212
 30
0.0
 11
-9.431102362204725
 21
1.146653543307087
 31
0.0
  0
LINE
  5
3FFC
330
1E
100
AcDbEntity
  8
7
100
AcDbLine
 10
-9.43503937007874
 20
0.9183070866141731
 30
0.0
 11
-9.434055118110237
 21
0.9350393700787398
 31
0.0
  0
LINE
  5
3FFD
330
1E
100
AcDbEntity
  8
7
100
AcDbLine
 10
-9.434055118110237
 20
0.9350393700787398
 30
0.0
 11
-9.433070866141733
 21
0.9488188976377953
 31
0.0
  0
LINE
  5
3FFE
330
1E
100
AcDbEntity
  8
7
100
AcDbLine
 10
-9.432086614173229
 20
1.011811023622047
 30
0.0
 11
-9.431102362204725
 21
1.017716535433071
 31
0.0
  0
LINE
  5
3FFF
330
1E
100
AcDbEntity
  8
7
100
AcDbLine
 10
-9.431102362204725
 20
1.017716535433071
 30
0.0
 11
-9.431102362204725
 21
1.031496062992125
 31
0.0
  0
LINE
  5
4000
330
1E
100
AcDbEntity
  8
7
100
AcDbLine
 10
-9.431102362204725
 20
1.031496062992125
 30
0.0
 11
-9.43011811023622
 21
1.0501968503937
 31
0.0
  0
LINE
  5
4001
330
1E
100
AcDbEntity
  8
7
100
AcDbLine
 10
-9.43011811023622
 20
1.0501968503937
 30
0.0
 11
-9.43011811023622
 21
1.072834645669291
 31
0.0
  0
LINE
  5
4002
330
1E
100
AcDbEntity
  8
7
100
AcDbLine
 10
-9.43011811023622
 20
1.072834645669291
 30
0.0
 11
-9.43011811023622
 21
1.095472440944881
 31
0.0
  0
LINE
  5
4003
330
1E
100
AcDbEntity
  8
7
100
AcDbLine
 10
-9.43011811023622
 20
1.095472440944881
 30
0.0
 11
-9.43011811023622
 21
1.117125984251968
 31
0.0
  0
LINE
  5
4004
330
1E
100
AcDbEntity
  8
7
100
AcDbLine
 10
-9.43011811023622
 20
1.117125984251968
 30
0.0
 11
-9.431102362204725
 21
1.133858267716535
 31
0.0
  0
LINE
  5
4005
330
1E
100
AcDbEntity
  8
7
100
AcDbLine
 10
-10.77066929133858
 20
0.9389763779527555
 30
0.0
 11
-10.77165354330708
 21
1.007874015748031
 31
0.0
  0
LINE
  5
4006
330
1E
100
AcDbEntity
  8
7
100
AcDbLine
 10
-10.77165354330708
 20
1.007874015748031
 30
0.0
 11
-10.77263779527559
 21
1.011811023622047
 31
0.0
  0
LINE
  5
4007
330
1E
100
AcDbEntity
  8
7
100
AcDbLine
 10
-10.77460629921259
 20
1.003937007874015
 30
0.0
 11
-10.77165354330708
 21
0.9488188976377953
 31
0.0
  0
LINE
  5
4008
330
1E
100
AcDbEntity
  8
7
100
AcDbLine
 10
-10.77165354330708
 20
0.9488188976377953
 30
0.0
 11
-10.77066929133858
 21
0.9350393700787398
 31
0.0
  0
LINE
  5
4009
330
1E
100
AcDbEntity
  8
7
100
AcDbLine
 10
-10.77066929133858
 20
0.9350393700787398
 30
0.0
 11
-10.77066929133858
 21
0.9183070866141731
 31
0.0
  0
LINE
  5
400A
330
1E
100
AcDbEntity
  8
7
100
AcDbLine
 10
-10.77460629921259
 20
1.003937007874015
 30
0.0
 11
-10.7755905511811
 21
1.019685039370078
 31
0.0
  0
LINE
  5
400B
330
1E
100
AcDbEntity
  8
7
100
AcDbLine
 10
-10.7755905511811
 20
1.019685039370078
 30
0.0
 11
-10.7765748031496
 21
1.040354330708661
 31
0.0
  0
LINE
  5
400C
330
1E
100
AcDbEntity
  8
7
100
AcDbLine
 10
-10.7765748031496
 20
1.040354330708661
 30
0.0
 11
-10.7765748031496
 21
1.06496062992126
 31
0.0
  0
LINE
  5
400D
330
1E
100
AcDbEntity
  8
7
100
AcDbLine
 10
-10.7765748031496
 20
1.06496062992126
 30
0.0
 11
-10.7765748031496
 21
1.089566929133858
 31
0.0
  0
LINE
  5
400E
330
1E
100
AcDbEntity
  8
7
100
AcDbLine
 10
-10.7765748031496
 20
1.089566929133858
 30
0.0
 11
-10.7755905511811
 21
1.113188976377952
 31
0.0
  0
LINE
  5
400F
330
1E
100
AcDbEntity
  8
7
100
AcDbLine
 10
-10.77263779527559
 20
1.011811023622047
 30
0.0
 11
-10.77362204724409
 21
1.017716535433071
 31
0.0
  0
LINE
  5
4010
330
1E
100
AcDbEntity
  8
7
100
AcDbLine
 10
-10.77362204724409
 20
1.017716535433071
 30
0.0
 11
-10.77460629921259
 21
1.031496062992125
 31
0.0
  0
LINE
  5
4011
330
1E
100
AcDbEntity
  8
7
100
AcDbLine
 10
-10.77460629921259
 20
1.031496062992125
 30
0.0
 11
-10.77460629921259
 21
1.0501968503937
 31
0.0
  0
LINE
  5
4012
330
1E
100
AcDbEntity
  8
7
100
AcDbLine
 10
-10.77460629921259
 20
1.0501968503937
 30
0.0
 11
-10.7755905511811
 21
1.072834645669291
 31
0.0
  0
LINE
  5
4013
330
1E
100
AcDbEntity
  8
7
100
AcDbLine
 10
-10.7755905511811
 20
1.072834645669291
 30
0.0
 11
-10.77460629921259
 21
1.095472440944881
 31
0.0
  0
LINE
  5
4014
330
1E
100
AcDbEntity
  8
7
100
AcDbLine
 10
-10.77460629921259
 20
1.095472440944881
 30
0.0
 11
-10.77460629921259
 21
1.117125984251968
 31
0.0
  0
LINE
  5
4015
330
1E
100
AcDbEntity
  8
7
100
AcDbLine
 10
-10.77460629921259
 20
1.117125984251968
 30
0.0
 11
-10.77460629921259
 21
1.133858267716535
 31
0.0
  0
LINE
  5
4016
330
1E
100
AcDbEntity
  8
7
100
AcDbLine
 10
-10.76377952755905
 20
1.127952755905512
 30
0.0
 11
-10.76377952755905
 21
1.135826771653543
 31
0.0
  0
LINE
  5
4017
330
1E
100
AcDbEntity
  8
7
100
AcDbLine
 10
-10.76377952755905
 20
1.135826771653543
 30
0.0
 11
-10.76377952755905
 21
1.146653543307087
 31
0.0
  0
LINE
  5
4018
330
1E
100
AcDbEntity
  8
7
100
AcDbLine
 10
-9.441929133858268
 20
1.135826771653543
 30
0.0
 11
-9.441929133858268
 21
1.127952755905512
 31
0.0
  0
LINE
  5
4019
330
1E
100
AcDbEntity
  8
7
100
AcDbLine
 10
-9.441929133858268
 20
1.127952755905512
 30
0.0
 11
-9.441929133858268
 21
1.124015748031496
 31
0.0
  0
LINE
  5
401A
330
1E
100
AcDbEntity
  8
7
100
AcDbLine
 10
-10.9261811023622
 20
0.6289370078740158
 30
0.0
 11
-10.92716535433071
 21
0.6171259842519686
 31
0.0
  0
LINE
  5
401B
330
1E
100
AcDbEntity
  8
7
100
AcDbLine
 10
-10.92716535433071
 20
0.6171259842519686
 30
0.0
 11
-10.92716535433071
 21
0.6161417322834648
 31
0.0
  0
LINE
  5
401C
330
1E
100
AcDbEntity
  8
7
100
AcDbLine
 10
-10.85236220472441
 20
0.6899606299212602
 30
0.0
 11
-10.85925196850393
 21
0.6899606299212602
 31
0.0
  0
LINE
  5
401D
330
1E
100
AcDbEntity
  8
7
100
AcDbLine
 10
-10.85925196850393
 20
0.6899606299212602
 30
0.0
 11
-10.87106299212598
 21
0.6879921259842519
 31
0.0
  0
LINE
  5
401E
330
1E
100
AcDbEntity
  8
7
100
AcDbLine
 10
-10.87106299212598
 20
0.6879921259842519
 30
0.0
 11
-10.88287401574803
 21
0.6840551181102362
 31
0.0
  0
LINE
  5
401F
330
1E
100
AcDbEntity
  8
7
100
AcDbLine
 10
-10.88287401574803
 20
0.6840551181102362
 30
0.0
 11
-10.89370078740157
 21
0.678149606299213
 31
0.0
  0
LINE
  5
4020
330
1E
100
AcDbEntity
  8
7
100
AcDbLine
 10
-10.89370078740157
 20
0.678149606299213
 30
0.0
 11
-10.90354330708661
 21
0.6702755905511815
 31
0.0
  0
LINE
  5
4021
330
1E
100
AcDbEntity
  8
7
100
AcDbLine
 10
-10.90354330708661
 20
0.6702755905511815
 30
0.0
 11
-10.91141732283464
 21
0.6614173228346454
 31
0.0
  0
LINE
  5
4022
330
1E
100
AcDbEntity
  8
7
100
AcDbLine
 10
-10.91141732283464
 20
0.6614173228346454
 30
0.0
 11
-10.91830708661417
 21
0.6515748031496065
 31
0.0
  0
LINE
  5
4023
330
1E
100
AcDbEntity
  8
7
100
AcDbLine
 10
-10.91830708661417
 20
0.6515748031496065
 30
0.0
 11
-10.92322834645669
 21
0.640748031496063
 31
0.0
  0
LINE
  5
4024
330
1E
100
AcDbEntity
  8
7
100
AcDbLine
 10
-10.92322834645669
 20
0.640748031496063
 30
0.0
 11
-10.9261811023622
 21
0.6289370078740158
 31
0.0
  0
LINE
  5
4025
330
1E
100
AcDbEntity
  8
7
100
AcDbLine
 10
-10.7765748031496
 20
0.7017716535433074
 30
0.0
 11
-10.78149606299212
 21
0.6968503937007871
 31
0.0
  0
LINE
  5
4026
330
1E
100
AcDbEntity
  8
7
100
AcDbLine
 10
-10.78149606299212
 20
0.6968503937007871
 30
0.0
 11
-10.78740157480315
 21
0.6929133858267713
 31
0.0
  0
LINE
  5
4027
330
1E
100
AcDbEntity
  8
7
100
AcDbLine
 10
-10.78740157480315
 20
0.6929133858267713
 30
0.0
 11
-10.79527559055118
 21
0.6909448818897639
 31
0.0
  0
LINE
  5
4028
330
1E
100
AcDbEntity
  8
7
100
AcDbLine
 10
-10.79527559055118
 20
0.6909448818897639
 30
0.0
 11
-10.8001968503937
 21
0.6899606299212602
 31
0.0
  0
LINE
  5
4029
330
1E
100
AcDbEntity
  8
7
100
AcDbLine
 10
-10.77066929133858
 20
0.7185039370078741
 30
0.0
 11
-10.77066929133858
 21
0.7155511811023621
 31
0.0
  0
LINE
  5
402A
330
1E
100
AcDbEntity
  8
7
100
AcDbLine
 10
-10.77066929133858
 20
0.7155511811023621
 30
0.0
 11
-10.77263779527559
 21
0.7086614173228343
 31
0.0
  0
LINE
  5
402B
330
1E
100
AcDbEntity
  8
7
100
AcDbLine
 10
-10.77263779527559
 20
0.7086614173228343
 30
0.0
 11
-10.7765748031496
 21
0.7017716535433074
 31
0.0
  0
LINE
  5
402C
330
1E
100
AcDbEntity
  8
7
100
AcDbLine
 10
-10.92716535433071
 20
0.6141732283464565
 30
0.0
 11
-10.9261811023622
 21
0.603346456692913
 31
0.0
  0
LINE
  5
402D
330
1E
100
AcDbEntity
  8
7
100
AcDbLine
 10
-10.9261811023622
 20
0.603346456692913
 30
0.0
 11
-10.92322834645669
 21
0.5915354330708658
 31
0.0
  0
LINE
  5
402E
330
1E
100
AcDbEntity
  8
7
100
AcDbLine
 10
-10.92322834645669
 20
0.5915354330708658
 30
0.0
 11
-10.91830708661417
 21
0.5807086614173232
 31
0.0
  0
LINE
  5
402F
330
1E
100
AcDbEntity
  8
7
100
AcDbLine
 10
-10.91830708661417
 20
0.5807086614173232
 30
0.0
 11
-10.91240157480314
 21
0.5708661417322834
 31
0.0
  0
LINE
  5
4030
330
1E
100
AcDbEntity
  8
7
100
AcDbLine
 10
-10.91240157480314
 20
0.5708661417322834
 30
0.0
 11
-10.90354330708661
 21
0.5620078740157482
 31
0.0
  0
LINE
  5
4031
330
1E
100
AcDbEntity
  8
7
100
AcDbLine
 10
-10.90354330708661
 20
0.5620078740157482
 30
0.0
 11
-10.89468503937007
 21
0.5541338582677167
 31
0.0
  0
LINE
  5
4032
330
1E
100
AcDbEntity
  8
7
100
AcDbLine
 10
-10.89468503937007
 20
0.5541338582677167
 30
0.0
 11
-10.88385826771653
 21
0.5482283464566926
 31
0.0
  0
LINE
  5
4033
330
1E
100
AcDbEntity
  8
7
100
AcDbLine
 10
-10.88385826771653
 20
0.5482283464566926
 30
0.0
 11
-10.87303149606299
 21
0.5442913385826769
 31
0.0
  0
LINE
  5
4034
330
1E
100
AcDbEntity
  8
7
100
AcDbLine
 10
-10.87303149606299
 20
0.5442913385826769
 30
0.0
 11
-10.86023622047244
 21
0.5413385826771658
 31
0.0
  0
LINE
  5
4035
330
1E
100
AcDbEntity
  8
7
100
AcDbLine
 10
-10.86023622047244
 20
0.5413385826771658
 30
0.0
 11
-10.85236220472441
 21
0.5413385826771658
 31
0.0
  0
LINE
  5
4036
330
1E
100
AcDbEntity
  8
7
100
AcDbLine
 10
-9.278543307086614
 20
0.6240157480314963
 30
0.0
 11
-9.279527559055118
 21
0.6289370078740158
 31
0.0
  0
LINE
  5
4037
330
1E
100
AcDbEntity
  8
7
100
AcDbLine
 10
-9.279527559055118
 20
0.6289370078740158
 30
0.0
 11
-9.281496062992125
 21
0.6397637795275593
 31
0.0
  0
LINE
  5
4038
330
1E
100
AcDbEntity
  8
7
100
AcDbLine
 10
-9.281496062992125
 20
0.6397637795275593
 30
0.0
 11
-9.286417322834646
 21
0.6505905511811028
 31
0.0
  0
LINE
  5
4039
330
1E
100
AcDbEntity
  8
7
100
AcDbLine
 10
-9.286417322834646
 20
0.6505905511811028
 30
0.0
 11
-9.293307086614174
 21
0.6614173228346454
 31
0.0
  0
LINE
  5
403A
330
1E
100
AcDbEntity
  8
7
100
AcDbLine
 10
-9.293307086614174
 20
0.6614173228346454
 30
0.0
 11
-9.301181102362205
 21
0.6702755905511815
 31
0.0
  0
LINE
  5
403B
330
1E
100
AcDbEntity
  8
7
100
AcDbLine
 10
-9.301181102362205
 20
0.6702755905511815
 30
0.0
 11
-9.311023622047244
 21
0.6771653543307084
 31
0.0
  0
LINE
  5
403C
330
1E
100
AcDbEntity
  8
7
100
AcDbLine
 10
-9.311023622047244
 20
0.6771653543307084
 30
0.0
 11
-9.320866141732283
 21
0.6830708661417324
 31
0.0
  0
LINE
  5
403D
330
1E
100
AcDbEntity
  8
7
100
AcDbLine
 10
-9.320866141732283
 20
0.6830708661417324
 30
0.0
 11
-9.332677165354331
 21
0.6870078740157482
 31
0.0
  0
LINE
  5
403E
330
1E
100
AcDbEntity
  8
7
100
AcDbLine
 10
-9.332677165354331
 20
0.6870078740157482
 30
0.0
 11
-9.344488188976377
 21
0.6899606299212602
 31
0.0
  0
LINE
  5
403F
330
1E
100
AcDbEntity
  8
7
100
AcDbLine
 10
-9.344488188976377
 20
0.6899606299212602
 30
0.0
 11
-9.353346456692914
 21
0.6899606299212602
 31
0.0
  0
LINE
  5
4040
330
1E
100
AcDbEntity
  8
7
100
AcDbLine
 10
-9.422244094488188
 20
0.6948818897637797
 30
0.0
 11
-9.427165354330709
 21
0.6998031496062991
 31
0.0
  0
LINE
  5
4041
330
1E
100
AcDbEntity
  8
7
100
AcDbLine
 10
-9.427165354330709
 20
0.6998031496062991
 30
0.0
 11
-9.431102362204725
 21
0.7057086614173232
 31
0.0
  0
LINE
  5
4042
330
1E
100
AcDbEntity
  8
7
100
AcDbLine
 10
-9.431102362204725
 20
0.7057086614173232
 30
0.0
 11
-9.434055118110237
 21
0.7125984251968501
 31
0.0
  0
LINE
  5
4043
330
1E
100
AcDbEntity
  8
7
100
AcDbLine
 10
-9.434055118110237
 20
0.7125984251968501
 30
0.0
 11
-9.43503937007874
 21
0.7185039370078741
 31
0.0
  0
LINE
  5
4044
330
1E
100
AcDbEntity
  8
7
100
AcDbLine
 10
-9.404527559055118
 20
0.6899606299212602
 30
0.0
 11
-9.407480314960629
 21
0.6899606299212602
 31
0.0
  0
LINE
  5
4045
330
1E
100
AcDbEntity
  8
7
100
AcDbLine
 10
-9.407480314960629
 20
0.6899606299212602
 30
0.0
 11
-9.415354330708662
 21
0.6919291338582676
 31
0.0
  0
LINE
  5
4046
330
1E
100
AcDbEntity
  8
7
100
AcDbLine
 10
-9.415354330708662
 20
0.6919291338582676
 30
0.0
 11
-9.422244094488188
 21
0.6948818897637797
 31
0.0
  0
LINE
  5
4047
330
1E
100
AcDbEntity
  8
7
100
AcDbLine
 10
-9.353346456692914
 20
0.5413385826771658
 30
0.0
 11
-9.345472440944881
 21
0.5413385826771658
 31
0.0
  0
LINE
  5
4048
330
1E
100
AcDbEntity
  8
7
100
AcDbLine
 10
-9.345472440944881
 20
0.5413385826771658
 30
0.0
 11
-9.333661417322835
 21
0.5442913385826769
 31
0.0
  0
LINE
  5
4049
330
1E
100
AcDbEntity
  8
7
100
AcDbLine
 10
-9.333661417322835
 20
0.5442913385826769
 30
0.0
 11
-9.321850393700788
 21
0.5482283464566926
 31
0.0
  0
LINE
  5
404A
330
1E
100
AcDbEntity
  8
7
100
AcDbLine
 10
-9.321850393700788
 20
0.5482283464566926
 30
0.0
 11
-9.311023622047244
 21
0.553149606299213
 31
0.0
  0
LINE
  5
404B
330
1E
100
AcDbEntity
  8
7
100
AcDbLine
 10
-9.311023622047244
 20
0.553149606299213
 30
0.0
 11
-9.302165354330709
 21
0.5610236220472445
 31
0.0
  0
LINE
  5
404C
330
1E
100
AcDbEntity
  8
7
100
AcDbLine
 10
-9.302165354330709
 20
0.5610236220472445
 30
0.0
 11
-9.293307086614174
 21
0.5698818897637797
 31
0.0
  0
LINE
  5
404D
330
1E
100
AcDbEntity
  8
7
100
AcDbLine
 10
-9.293307086614174
 20
0.5698818897637797
 30
0.0
 11
-9.287401574803149
 21
0.5797244094488186
 31
0.0
  0
LINE
  5
404E
330
1E
100
AcDbEntity
  8
7
100
AcDbLine
 10
-9.287401574803149
 20
0.5797244094488186
 30
0.0
 11
-9.282480314960629
 21
0.5905511811023621
 31
0.0
  0
LINE
  5
404F
330
1E
100
AcDbEntity
  8
7
100
AcDbLine
 10
-9.282480314960629
 20
0.5905511811023621
 30
0.0
 11
-9.279527559055118
 21
0.6023622047244093
 31
0.0
  0
LINE
  5
4050
330
1E
100
AcDbEntity
  8
7
100
AcDbLine
 10
-9.279527559055118
 20
0.6023622047244093
 30
0.0
 11
-9.278543307086614
 21
0.6082677165354334
 31
0.0
  0
LINE
  5
4051
330
1E
100
AcDbEntity
  8
7
100
AcDbLine
 10
-10.7509842519685
 20
1.124015748031496
 30
0.0
 11
-10.75295275590551
 21
1.124015748031496
 31
0.0
  0
LINE
  5
4052
330
1E
100
AcDbEntity
  8
7
100
AcDbLine
 10
-10.75295275590551
 20
1.124015748031496
 30
0.0
 11
-10.75590551181102
 21
1.123031496062992
 31
0.0
  0
LINE
  5
4053
330
1E
100
AcDbEntity
  8
7
100
AcDbLine
 10
-10.09251968503937
 20
0.5610236220472445
 30
0.0
 11
-10.08661417322834
 21
0.5472440944881889
 31
0.0
  0
LINE
  5
4054
330
1E
100
AcDbEntity
  8
7
100
AcDbLine
 10
-10.08661417322834
 20
0.5472440944881889
 30
0.0
 11
-10.07283464566929
 21
0.5413385826771658
 31
0.0
  0
LINE
  5
4055
330
1E
100
AcDbEntity
  8
7
100
AcDbLine
 10
-9.449803149606299
 20
1.123031496062992
 30
0.0
 11
-9.452755905511811
 21
1.124015748031496
 31
0.0
  0
LINE
  5
4056
330
1E
100
AcDbEntity
  8
7
100
AcDbLine
 10
-9.452755905511811
 20
1.124015748031496
 30
0.0
 11
-9.454724409448818
 21
1.124015748031496
 31
0.0
  0
LINE
  5
4057
330
1E
100
AcDbEntity
  8
7
100
AcDbLine
 10
-10.00984251968504
 20
1.104330708661417
 30
0.0
 11
-10.01279527559055
 21
1.106299212598425
 31
0.0
  0
LINE
  5
4058
330
1E
100
AcDbEntity
  8
7
100
AcDbLine
 10
-10.01279527559055
 20
1.106299212598425
 30
0.0
 11
-10.01476377952756
 21
1.107283464566928
 31
0.0
  0
LINE
  5
4059
330
1E
100
AcDbEntity
  8
7
100
AcDbLine
 10
-10.01476377952756
 20
1.052165354330708
 30
0.0
 11
-10.01279527559055
 21
1.053149606299212
 31
0.0
  0
LINE
  5
405A
330
1E
100
AcDbEntity
  8
7
100
AcDbLine
 10
-10.01279527559055
 20
1.053149606299212
 30
0.0
 11
-10.00984251968504
 21
1.05511811023622
 31
0.0
  0
LINE
  5
405B
330
1E
100
AcDbEntity
  8
7
100
AcDbLine
 10
-10.19488188976378
 20
1.05511811023622
 30
0.0
 11
-10.19192913385826
 21
1.053149606299212
 31
0.0
  0
LINE
  5
405C
330
1E
100
AcDbEntity
  8
7
100
AcDbLine
 10
-10.19192913385826
 20
1.053149606299212
 30
0.0
 11
-10.18996062992125
 21
1.052165354330708
 31
0.0
  0
LINE
  5
405D
330
1E
100
AcDbEntity
  8
7
100
AcDbLine
 10
-10.18996062992125
 20
1.107283464566928
 30
0.0
 11
-10.19192913385826
 21
1.106299212598425
 31
0.0
  0
LINE
  5
405E
330
1E
100
AcDbEntity
  8
7
100
AcDbLine
 10
-10.19192913385826
 20
1.106299212598425
 30
0.0
 11
-10.19488188976378
 21
1.104330708661417
 31
0.0
  0
ENDSEC
  0
SECTION
  2
OBJECTS
  0
DICTIONARY
  5
C
330
0
100
AcDbDictionary
  3
ACAD_GROUP
350
D
  3
ACAD_MLINESTYLE
350
16
  3
ACAD_PLOTSETTINGS
350
18
  3
ACAD_LAYOUT
350
19
1001
ACAD
1000
TREAT_AS_HARD
1070
     0
  0
DICTIONARY
  5
51D7
330
1E
100
AcDbDictionary
  3
ACAD_LAYOUTSELFREF
350
51D8
  0
DICTIONARY
  5
51D5
330
1A
100
AcDbDictionary
  3
ACAD_LAYOUTSELFREF
350
51D6
  0
DICTIONARY
  5
D
102
{ACAD_REACTORS
330
C
102
}
330
C
100
AcDbDictionary
1001
ACAD
1000
TREAT_AS_HARD
1070
     0
  0
DICTIONARY
  5
16
102
{ACAD_REACTORS
330
C
102
}
330
C
100
AcDbDictionary
  3
STANDARD
350
17
1001
ACAD
1000
TREAT_AS_HARD
1070
     0
  0
DICTIONARY
  5
18
102
{ACAD_REACTORS
330
C
102
}
330
C
100
AcDbDictionary
1001
ACAD
1000
TREAT_AS_HARD
1070
     0
  0
DICTIONARY
  5
19
102
{ACAD_REACTORS
330
C
102
}
330
C
100
AcDbDictionary
1001
ACAD
1000
TREAT_AS_HARD
1070
     0
  0
XRECORD
  5
51D8
102
{ACAD_REACTORS
330
51D7
102
}
330
51D7
100
AcDbXrecord
340
1E
  0
XRECORD
  5
51D6
102
{ACAD_REACTORS
330
51D5
102
}
330
51D5
100
AcDbXrecord
340
1A
  0
MLINESTYLE
  5
17
102
{ACAD_REACTORS
330
16
102
}
330
16
100
AcDbMlineStyle
  2
STANDARD
 70
     0
  3

 62
   256
 51
90.0
 52
90.0
 71
     2
 49
0.5
 62
   256
  6
BYLAYER
 49
-0.5
 62
   256
  6
BYLAYER
  0
ENDSEC
  0
EOF
