  0
SECTION
  2
HEADER
  9
$ACADVER
  1
AC1012
  9
$DWGCODEPAGE
  3
ANSI_1252
  9
$INSBASE
 10
0.0
 20
0.0
 30
0.0
  9
$EXTMIN
 10
0.3209839150321017
 20
3.220779443649551
 30
-0.0015258207003583
  9
$EXTMAX
 10
5.454345723444532
 20
7.725173969665977
 30
0.0000000349246037
  9
$LIMMIN
 10
0.0
 20
0.0
  9
$LIMMAX
 10
12.0
 20
9.0
  9
$ORTHOMODE
 70
     0
  9
$REGENMODE
 70
     1
  9
$FILLMODE
 70
     1
  9
$QTEXTMODE
 70
     0
  9
$MIRRTEXT
 70
     1
  9
$DRAGMODE
 70
     2
  9
$LTSCALE
 40
1.0
  9
$OSMODE
 70
   547
  9
$ATTMODE
 70
     1
  9
$TEXTSIZE
 40
0.2
  9
$TRACEWID
 40
0.05
  9
$TEXTSTYLE
  7
STANDARD
  9
$CLAYER
  8
0
  9
$CELTYPE
  6
BYLAYER
  9
$CECOLOR
 62
   256
  9
$CELTSCALE
 40
1.0
  9
$DELOBJ
 70
     1
  9
$DISPSILH
 70
     0
  9
$DIMSCALE
 40
1.0
  9
$DIMASZ
 40
0.18
  9
$DIMEXO
 40
0.0625
  9
$DIMDLI
 40
0.38
  9
$DIMRND
 40
0.0
  9
$DIMDLE
 40
0.0
  9
$DIMEXE
 40
0.18
  9
$DIMTP
 40
0.0
  9
$DIMTM
 40
0.0
  9
$DIMTXT
 40
0.18
  9
$DIMCEN
 40
0.09
  9
$DIMTSZ
 40
0.0
  9
$DIMTOL
 70
     0
  9
$DIMLIM
 70
     0
  9
$DIMTIH
 70
     1
  9
$DIMTOH
 70
     1
  9
$DIMSE1
 70
     0
  9
$DIMSE2
 70
     0
  9
$DIMTAD
 70
     0
  9
$DIMZIN
 70
     0
  9
$DIMBLK
  1

  9
$DIMASO
 70
     1
  9
$DIMSHO
 70
     1
  9
$DIMPOST
  1

  9
$DIMAPOST
  1

  9
$DIMALT
 70
     0
  9
$DIMALTD
 70
     2
  9
$DIMALTF
 40
25.4
  9
$DIMLFAC
 40
1.0
  9
$DIMTOFL
 70
     0
  9
$DIMTVP
 40
0.0
  9
$DIMTIX
 70
     0
  9
$DIMSOXD
 70
     0
  9
$DIMSAH
 70
     0
  9
$DIMBLK1
  1

  9
$DIMBLK2
  1

  9
$DIMSTYLE
  2
STANDARD
  9
$DIMCLRD
 70
     0
  9
$DIMCLRE
 70
     0
  9
$DIMCLRT
 70
     0
  9
$DIMTFAC
 40
1.0
  9
$DIMGAP
 40
0.09
  9
$DIMJUST
 70
     0
  9
$DIMSD1
 70
     0
  9
$DIMSD2
 70
     0
  9
$DIMTOLJ
 70
     1
  9
$DIMTZIN
 70
     0
  9
$DIMALTZ
 70
     0
  9
$DIMALTTZ
 70
     0
  9
$DIMFIT
 70
     5
  9
$DIMUPT
 70
     0
  9
$DIMUNIT
 70
     2
  9
$DIMDEC
 70
     4
  9
$DIMTDEC
 70
     4
  9
$DIMALTU
 70
     2
  9
$DIMALTTD
 70
     2
  9
$DIMTXSTY
  7
STANDARD
  9
$DIMAUNIT
 70
     0
  9
$LUNITS
 70
     2
  9
$LUPREC
 70
     4
  9
$SKETCHINC
 40
0.1
  9
$FILLETRAD
 40
0.0
  9
$AUNITS
 70
     0
  9
$AUPREC
 70
     0
  9
$MENU
  1
acad
  9
$ELEVATION
 40
0.0
  9
$PELEVATION
 40
0.0
  9
$THICKNESS
 40
0.0
  9
$LIMCHECK
 70
     0
  9
$BLIPMODE
 70
     0
  9
$CHAMFERA
 40
0.0
  9
$CHAMFERB
 40
0.0
  9
$CHAMFERC
 40
0.0
  9
$CHAMFERD
 40
0.0
  9
$SKPOLY
 70
     0
  9
$TDCREATE
 40
2454215.312731481
  9
$TDUPDATE
 40
2454215.314930521
  9
$TDINDWG
 40
0.0016791667
  9
$TDUSRTIMER
 40
0.0016791667
  9
$USRTIMER
 70
     1
  9
$ANGBASE
 50
0.0
  9
$ANGDIR
 70
     0
  9
$PDMODE
 70
     0
  9
$PDSIZE
 40
0.0
  9
$PLINEWID
 40
0.0
  9
$COORDS
 70
     1
  9
$SPLFRAME
 70
     0
  9
$SPLINETYPE
 70
     6
  9
$SPLINESEGS
 70
     8
  9
$ATTDIA
 70
     0
  9
$ATTREQ
 70
     1
  9
$HANDLING
 70
  4097
  9
$HANDSEED
  5
3A40
  9
$SURFTAB1
 70
     6
  9
$SURFTAB2
 70
     6
  9
$SURFTYPE
 70
     6
  9
$SURFU
 70
     6
  9
$SURFV
 70
     6
  9
$UCSNAME
  2

  9
$UCSORG
 10
0.0
 20
0.0
 30
0.0
  9
$UCSXDIR
 10
1.0
 20
0.0
 30
0.0
  9
$UCSYDIR
 10
0.0
 20
1.0
 30
0.0
  9
$PUCSNAME
  2

  9
$PUCSORG
 10
0.0
 20
0.0
 30
0.0
  9
$PUCSXDIR
 10
1.0
 20
0.0
 30
0.0
  9
$PUCSYDIR
 10
0.0
 20
1.0
 30
0.0
  9
$USERI1
 70
     0
  9
$USERI2
 70
     0
  9
$USERI3
 70
     0
  9
$USERI4
 70
     0
  9
$USERI5
 70
     0
  9
$USERR1
 40
0.0
  9
$USERR2
 40
0.0
  9
$USERR3
 40
0.0
  9
$USERR4
 40
0.0
  9
$USERR5
 40
0.0
  9
$WORLDVIEW
 70
     1
  9
$SHADEDGE
 70
     3
  9
$SHADEDIF
 70
    70
  9
$TILEMODE
 70
     1
  9
$MAXACTVP
 70
    16
  9
$PINSBASE
 10
0.0
 20
0.0
 30
0.0
  9
$PLIMCHECK
 70
     0
  9
$PEXTMIN
 10
1.000000000000000E+20
 20
1.000000000000000E+20
 30
1.000000000000000E+20
  9
$PEXTMAX
 10
-1.000000000000000E+20
 20
-1.000000000000000E+20
 30
-1.000000000000000E+20
  9
$PLIMMIN
 10
0.0
 20
0.0
  9
$PLIMMAX
 10
12.0
 20
9.0
  9
$UNITMODE
 70
     0
  9
$VISRETAIN
 70
     0
  9
$PLINEGEN
 70
     0
  9
$PSLTSCALE
 70
     1
  9
$TREEDEPTH
 70
  3020
  9
$PICKSTYLE
 70
     1
  9
$CMLSTYLE
  2
STANDARD
  9
$CMLJUST
 70
     0
  9
$CMLSCALE
 40
1.0
  9
$SAVEIMAGES
 70
     1
  0
ENDSEC
  0
SECTION
  2
CLASSES
  0
CLASS
  1
ACDBDICTIONARYWDFLT
  2
AcDbDictionaryWithDefault
  3
AutoCAD 2000
 90
    32768
280
     0
281
     0
  0
CLASS
  1
ACDBPLACEHOLDER
  2
AcDbPlaceHolder
  3
AutoCAD 2000
 90
    32768
280
     0
281
     0
  0
CLASS
  1
LAYOUT
  2
AcDbLayout
  3
AutoCAD 2000
 90
    32768
280
     0
281
     0
  0
CLASS
  1
LONG_TRANSACTION
  2
AcDbLongTransaction
  3
AutoCAD 2000
 90
    32768
280
     0
281
     0
  0
CLASS
  1
LWPOLYLINE
  2
AcDbPolyline
  3
AutoCAD 2000
 90
    32768
280
     0
281
     1
  0
CLASS
  1
HATCH
  2
AcDbHatch
  3
AutoCAD 2000
 90
    32768
280
     0
281
     1
  0
CLASS
  1
XRECORD
  2
AcDbXrecord
  3
AutoCAD 2000
 90
    32768
280
     0
281
     0
  0
ENDSEC
  0
SECTION
  2
TABLES
  0
TABLE
  2
VPORT
  5
8
330
0
100
AcDbSymbolTable
 70
     3
  0
VPORT
  5
3589
330
8
100
AcDbSymbolTableRecord
100
AcDbViewportTableRecord
  2
*ACTIVE
 70
     0
 10
0.0
 20
0.0
 11
1.0
 21
1.0
 12
2.887664819238317
 22
5.472976706657764
 13
0.0
 23
0.0
 14
1.0
 24
1.0
 15
0.0
 25
0.0
 16
0.0
 26
0.0
 36
1.0
 17
0.0
 27
0.0
 37
0.0
 40
4.554911100139975
 41
1.747191011235955
 42
50.0
 43
0.0
 44
0.0
 50
0.0
 51
0.0
 71
     0
 72
   100
 73
     1
 74
     1
 75
     0
 76
     0
 77
     0
 78
     0
  0
ENDTAB
  0
TABLE
  2
LTYPE
  5
5
330
0
100
AcDbSymbolTable
 70
    25
  0
LTYPE
  5
13
330
5
100
AcDbSymbolTableRecord
100
AcDbLinetypeTableRecord
  2
BYBLOCK
 70
     0
  3

 72
    65
 73
     0
 40
0.0
  0
LTYPE
  5
14
330
5
100
AcDbSymbolTableRecord
100
AcDbLinetypeTableRecord
  2
BYLAYER
 70
     0
  3

 72
    65
 73
     0
 40
0.0
  0
LTYPE
  5
15
330
5
100
AcDbSymbolTableRecord
100
AcDbLinetypeTableRecord
  2
CONTINUOUS
 70
     0
  3
Solid line
 72
    65
 73
     0
 40
0.0
  0
LTYPE
  5
22
330
5
100
AcDbSymbolTableRecord
100
AcDbLinetypeTableRecord
  2
BORDER
 70
     0
  3
__ __ . __ __ . __ __ . __ __ . __ __ . __ __ .
 72
    65
 73
     6
 40
1.75
 49
0.5
 74
     0
 49
-0.25
 74
     0
 49
0.5
 74
     0
 49
-0.25
 74
     0
 49
0.5
 74
     0
 49
-0.25
 74
     0
  0
LTYPE
  5
23
330
5
100
AcDbSymbolTableRecord
100
AcDbLinetypeTableRecord
  2
BORDER2
 70
     0
  3
__.__.__.__.__.__.__.__.
 72
    65
 73
     6
 40
0.875
 49
0.25
 74
     0
 49
-0.125
 74
     0
 49
0.25
 74
     0
 49
-0.125
 74
     0
 49
0.25
 74
     0
 49
-0.125
 74
     0
  0
LTYPE
  5
24
330
5
100
AcDbSymbolTableRecord
100
AcDbLinetypeTableRecord
  2
BORDERX2
 70
     0
  3
____  ____  .  
 72
    65
 73
     6
 40
3.5
 49
1.0
 74
     0
 49
-0.5
 74
     0
 49
1.0
 74
     0
 49
-0.5
 74
     0
 49
1.0
 74
     0
 49
-0.5
 74
     0
  0
LTYPE
  5
25
330
5
100
AcDbSymbolTableRecord
100
AcDbLinetypeTableRecord
  2
CENTER
 70
     0
  3
____ _ ____ _ ____ _ 
 72
    65
 73
     4
 40
2.0
 49
1.25
 74
     0
 49
-0.25
 74
     0
 49
0.25
 74
     0
 49
-0.25
 74
     0
  0
LTYPE
  5
26
330
5
100
AcDbSymbolTableRecord
100
AcDbLinetypeTableRecord
  2
CENTER2
 70
     0
  3
____ _ ____ _ ____ _ 
 72
    65
 73
     4
 40
1.125
 49
0.75
 74
     0
 49
-0.125
 74
     0
 49
0.125
 74
     0
 49
-0.125
 74
     0
  0
LTYPE
  5
27
330
5
100
AcDbSymbolTableRecord
100
AcDbLinetypeTableRecord
  2
CENTERX2
 70
     0
  3
________  __  
 72
    65
 73
     4
 40
4.0
 49
2.5
 74
     0
 49
-0.5
 74
     0
 49
0.5
 74
     0
 49
-0.5
 74
     0
  0
LTYPE
  5
28
330
5
100
AcDbSymbolTableRecord
100
AcDbLinetypeTableRecord
  2
DASHDOT
 70
     0
  3
__ . __ . __ . __ . 
 72
    65
 73
     4
 40
1.0
 49
0.5
 74
     0
 49
-0.25
 74
     0
 49
0.0
 74
     0
 49
-0.25
 74
     0
  0
LTYPE
  5
29
330
5
100
AcDbSymbolTableRecord
100
AcDbLinetypeTableRecord
  2
DASHDOT2
 70
     0
  3
_._._._._._._._._.
 72
    65
 73
     4
 40
0.5
 49
0.25
 74
     0
 49
-0.125
 74
     0
 49
0.0
 74
     0
 49
-0.125
 74
     0
  0
LTYPE
  5
2A
330
5
100
AcDbSymbolTableRecord
100
AcDbLinetypeTableRecord
  2
DASHDOTX2
 70
     0
  3
____  .  ____  .  
 72
    65
 73
     4
 40
2.0
 49
1.0
 74
     0
 49
-0.5
 74
     0
 49
0.0
 74
     0
 49
-0.5
 74
     0
  0
LTYPE
  5
2B
330
5
100
AcDbSymbolTableRecord
100
AcDbLinetypeTableRecord
  2
DASHED
 70
     0
  3
__ __ __ __ __ __ __ 
 72
    65
 73
     2
 40
0.75
 49
0.5
 74
     0
 49
-0.25
 74
     0
  0
LTYPE
  5
2C
330
5
100
AcDbSymbolTableRecord
100
AcDbLinetypeTableRecord
  2
DASHED2
 70
     0
  3
_ _ _ _ _ _ _ _ _ _ 
 72
    65
 73
     2
 40
0.375
 49
0.25
 74
     0
 49
-0.125
 74
     0
  0
LTYPE
  5
2D
330
5
100
AcDbSymbolTableRecord
100
AcDbLinetypeTableRecord
  2
DASHEDX2
 70
     0
  3
____  ____  ____  
 72
    65
 73
     2
 40
1.5
 49
1.0
 74
     0
 49
-0.5
 74
     0
  0
LTYPE
  5
2E
330
5
100
AcDbSymbolTableRecord
100
AcDbLinetypeTableRecord
  2
DIVIDE
 70
     0
  3
____ . . ____ . . 
 72
    65
 73
     6
 40
1.25
 49
0.5
 74
     0
 49
-0.25
 74
     0
 49
0.0
 74
     0
 49
-0.25
 74
     0
 49
0.0
 74
     0
 49
-0.25
 74
     0
  0
LTYPE
  5
2F
330
5
100
AcDbSymbolTableRecord
100
AcDbLinetypeTableRecord
  2
DIVIDE2
 70
     0
  3
__..__..__..__..__..
 72
    65
 73
     6
 40
0.625
 49
0.25
 74
     0
 49
-0.125
 74
     0
 49
0.0
 74
     0
 49
-0.125
 74
     0
 49
0.0
 74
     0
 49
-0.125
 74
     0
  0
LTYPE
  5
30
330
5
100
AcDbSymbolTableRecord
100
AcDbLinetypeTableRecord
  2
DIVIDEX2
 70
     0
  3
________  .  .  
 72
    65
 73
     6
 40
2.5
 49
1.0
 74
     0
 49
-0.5
 74
     0
 49
0.0
 74
     0
 49
-0.5
 74
     0
 49
0.0
 74
     0
 49
-0.5
 74
     0
  0
LTYPE
  5
31
330
5
100
AcDbSymbolTableRecord
100
AcDbLinetypeTableRecord
  2
DOT
 70
     0
  3
. . . . . . . . . 
 72
    65
 73
     2
 40
0.25
 49
0.0
 74
     0
 49
-0.25
 74
     0
  0
LTYPE
  5
32
330
5
100
AcDbSymbolTableRecord
100
AcDbLinetypeTableRecord
  2
DOT2
 70
     0
  3
..................
 72
    65
 73
     2
 40
0.125
 49
0.0
 74
     0
 49
-0.125
 74
     0
  0
LTYPE
  5
33
330
5
100
AcDbSymbolTableRecord
100
AcDbLinetypeTableRecord
  2
DOTX2
 70
     0
  3
.  .  .  .  .  .  
 72
    65
 73
     2
 40
0.5
 49
0.0
 74
     0
 49
-0.5
 74
     0
  0
LTYPE
  5
34
330
5
100
AcDbSymbolTableRecord
100
AcDbLinetypeTableRecord
  2
HIDDEN
 70
     0
  3
__ __ __ __ __ __ 
 72
    65
 73
     2
 40
0.375
 49
0.25
 74
     0
 49
-0.125
 74
     0
  0
LTYPE
  5
35
330
5
100
AcDbSymbolTableRecord
100
AcDbLinetypeTableRecord
  2
HIDDEN2
 70
     0
  3
_ _ _ _ _ _ _ _ _ 
 72
    65
 73
     2
 40
0.1875
 49
0.125
 74
     0
 49
-0.0625
 74
     0
  0
LTYPE
  5
36
330
5
100
AcDbSymbolTableRecord
100
AcDbLinetypeTableRecord
  2
HIDDENX2
 70
     0
  3
____ ____ ____ ____ 
 72
    65
 73
     2
 40
0.75
 49
0.5
 74
     0
 49
-0.25
 74
     0
  0
LTYPE
  5
37
330
5
100
AcDbSymbolTableRecord
100
AcDbLinetypeTableRecord
  2
PHANTOM
 70
     0
  3
______  __  __  
 72
    65
 73
     6
 40
2.5
 49
1.25
 74
     0
 49
-0.25
 74
     0
 49
0.25
 74
     0
 49
-0.25
 74
     0
 49
0.25
 74
     0
 49
-0.25
 74
     0
  0
LTYPE
  5
38
330
5
100
AcDbSymbolTableRecord
100
AcDbLinetypeTableRecord
  2
PHANTOM2
 70
     0
  3
___ _ _ ___ _ _ 
 72
    65
 73
     6
 40
1.25
 49
0.625
 74
     0
 49
-0.125
 74
     0
 49
0.125
 74
     0
 49
-0.125
 74
     0
 49
0.125
 74
     0
 49
-0.125
 74
     0
  0
LTYPE
  5
39
330
5
100
AcDbSymbolTableRecord
100
AcDbLinetypeTableRecord
  2
PHANTOMX2
 70
     0
  3
___ _ _ ___ _ _ 
 72
    65
 73
     6
 40
5.0
 49
2.5
 74
     0
 49
-0.5
 74
     0
 49
0.5
 74
     0
 49
-0.5
 74
     0
 49
0.5
 74
     0
 49
-0.5
 74
     0
  0
ENDTAB
  0
TABLE
  2
LAYER
  5
2
330
0
100
AcDbSymbolTable
 70
   256
  0
LAYER
  5
10
330
2
100
AcDbSymbolTableRecord
100
AcDbLayerTableRecord
  2
0
 70
     0
 62
     7
  6
CONTINUOUS
  0
LAYER
  5
3A
330
2
100
AcDbSymbolTableRecord
100
AcDbLayerTableRecord
  2
1
 70
     0
 62
     1
  6
CONTINUOUS
  0
LAYER
  5
3B
330
2
100
AcDbSymbolTableRecord
100
AcDbLayerTableRecord
  2
2
 70
     0
 62
     2
  6
CONTINUOUS
  0
LAYER
  5
3C
330
2
100
AcDbSymbolTableRecord
100
AcDbLayerTableRecord
  2
3
 70
     0
 62
     3
  6
CONTINUOUS
  0
LAYER
  5
3D
330
2
100
AcDbSymbolTableRecord
100
AcDbLayerTableRecord
  2
4
 70
     0
 62
     4
  6
CONTINUOUS
  0
LAYER
  5
3E
330
2
100
AcDbSymbolTableRecord
100
AcDbLayerTableRecord
  2
5
 70
     0
 62
     5
  6
CONTINUOUS
  0
LAYER
  5
3F
330
2
100
AcDbSymbolTableRecord
100
AcDbLayerTableRecord
  2
6
 70
     0
 62
     6
  6
CONTINUOUS
  0
LAYER
  5
40
330
2
100
AcDbSymbolTableRecord
100
AcDbLayerTableRecord
  2
7
 70
     0
 62
     7
  6
CONTINUOUS
  0
LAYER
  5
41
330
2
100
AcDbSymbolTableRecord
100
AcDbLayerTableRecord
  2
8
 70
     0
 62
     8
  6
CONTINUOUS
  0
LAYER
  5
42
330
2
100
AcDbSymbolTableRecord
100
AcDbLayerTableRecord
  2
9
 70
     0
 62
     9
  6
CONTINUOUS
  0
LAYER
  5
43
330
2
100
AcDbSymbolTableRecord
100
AcDbLayerTableRecord
  2
10
 70
     0
 62
    10
  6
CONTINUOUS
  0
LAYER
  5
44
330
2
100
AcDbSymbolTableRecord
100
AcDbLayerTableRecord
  2
11
 70
     0
 62
    11
  6
CONTINUOUS
  0
LAYER
  5
45
330
2
100
AcDbSymbolTableRecord
100
AcDbLayerTableRecord
  2
12
 70
     0
 62
    12
  6
CONTINUOUS
  0
LAYER
  5
46
330
2
100
AcDbSymbolTableRecord
100
AcDbLayerTableRecord
  2
13
 70
     0
 62
    13
  6
CONTINUOUS
  0
LAYER
  5
47
330
2
100
AcDbSymbolTableRecord
100
AcDbLayerTableRecord
  2
14
 70
     0
 62
    14
  6
CONTINUOUS
  0
LAYER
  5
48
330
2
100
AcDbSymbolTableRecord
100
AcDbLayerTableRecord
  2
15
 70
     0
 62
    15
  6
CONTINUOUS
  0
LAYER
  5
49
330
2
100
AcDbSymbolTableRecord
100
AcDbLayerTableRecord
  2
16
 70
     0
 62
    16
  6
CONTINUOUS
  0
LAYER
  5
4A
330
2
100
AcDbSymbolTableRecord
100
AcDbLayerTableRecord
  2
17
 70
     0
 62
    17
  6
CONTINUOUS
  0
LAYER
  5
4B
330
2
100
AcDbSymbolTableRecord
100
AcDbLayerTableRecord
  2
18
 70
     0
 62
    18
  6
CONTINUOUS
  0
LAYER
  5
4C
330
2
100
AcDbSymbolTableRecord
100
AcDbLayerTableRecord
  2
19
 70
     0
 62
    19
  6
CONTINUOUS
  0
LAYER
  5
4D
330
2
100
AcDbSymbolTableRecord
100
AcDbLayerTableRecord
  2
20
 70
     0
 62
    20
  6
CONTINUOUS
  0
LAYER
  5
4E
330
2
100
AcDbSymbolTableRecord
100
AcDbLayerTableRecord
  2
21
 70
     0
 62
    21
  6
CONTINUOUS
  0
LAYER
  5
4F
330
2
100
AcDbSymbolTableRecord
100
AcDbLayerTableRecord
  2
22
 70
     0
 62
    22
  6
CONTINUOUS
  0
LAYER
  5
50
330
2
100
AcDbSymbolTableRecord
100
AcDbLayerTableRecord
  2
23
 70
     0
 62
    23
  6
CONTINUOUS
  0
LAYER
  5
51
330
2
100
AcDbSymbolTableRecord
100
AcDbLayerTableRecord
  2
24
 70
     0
 62
    24
  6
CONTINUOUS
  0
LAYER
  5
52
330
2
100
AcDbSymbolTableRecord
100
AcDbLayerTableRecord
  2
25
 70
     0
 62
    25
  6
CONTINUOUS
  0
LAYER
  5
53
330
2
100
AcDbSymbolTableRecord
100
AcDbLayerTableRecord
  2
26
 70
     0
 62
    26
  6
CONTINUOUS
  0
LAYER
  5
54
330
2
100
AcDbSymbolTableRecord
100
AcDbLayerTableRecord
  2
27
 70
     0
 62
    27
  6
CONTINUOUS
  0
LAYER
  5
55
330
2
100
AcDbSymbolTableRecord
100
AcDbLayerTableRecord
  2
28
 70
     0
 62
    28
  6
CONTINUOUS
  0
LAYER
  5
56
330
2
100
AcDbSymbolTableRecord
100
AcDbLayerTableRecord
  2
29
 70
     0
 62
    29
  6
CONTINUOUS
  0
LAYER
  5
57
330
2
100
AcDbSymbolTableRecord
100
AcDbLayerTableRecord
  2
30
 70
     0
 62
    30
  6
CONTINUOUS
  0
LAYER
  5
58
330
2
100
AcDbSymbolTableRecord
100
AcDbLayerTableRecord
  2
31
 70
     0
 62
    31
  6
CONTINUOUS
  0
LAYER
  5
59
330
2
100
AcDbSymbolTableRecord
100
AcDbLayerTableRecord
  2
32
 70
     0
 62
    32
  6
CONTINUOUS
  0
LAYER
  5
5A
330
2
100
AcDbSymbolTableRecord
100
AcDbLayerTableRecord
  2
33
 70
     0
 62
    33
  6
CONTINUOUS
  0
LAYER
  5
5B
330
2
100
AcDbSymbolTableRecord
100
AcDbLayerTableRecord
  2
34
 70
     0
 62
    34
  6
CONTINUOUS
  0
LAYER
  5
5C
330
2
100
AcDbSymbolTableRecord
100
AcDbLayerTableRecord
  2
35
 70
     0
 62
    35
  6
CONTINUOUS
  0
LAYER
  5
5D
330
2
100
AcDbSymbolTableRecord
100
AcDbLayerTableRecord
  2
36
 70
     0
 62
    36
  6
CONTINUOUS
  0
LAYER
  5
5E
330
2
100
AcDbSymbolTableRecord
100
AcDbLayerTableRecord
  2
37
 70
     0
 62
    37
  6
CONTINUOUS
  0
LAYER
  5
5F
330
2
100
AcDbSymbolTableRecord
100
AcDbLayerTableRecord
  2
38
 70
     0
 62
    38
  6
CONTINUOUS
  0
LAYER
  5
60
330
2
100
AcDbSymbolTableRecord
100
AcDbLayerTableRecord
  2
39
 70
     0
 62
    39
  6
CONTINUOUS
  0
LAYER
  5
61
330
2
100
AcDbSymbolTableRecord
100
AcDbLayerTableRecord
  2
40
 70
     0
 62
    40
  6
CONTINUOUS
  0
LAYER
  5
62
330
2
100
AcDbSymbolTableRecord
100
AcDbLayerTableRecord
  2
41
 70
     0
 62
    41
  6
CONTINUOUS
  0
LAYER
  5
63
330
2
100
AcDbSymbolTableRecord
100
AcDbLayerTableRecord
  2
42
 70
     0
 62
    42
  6
CONTINUOUS
  0
LAYER
  5
64
330
2
100
AcDbSymbolTableRecord
100
AcDbLayerTableRecord
  2
43
 70
     0
 62
    43
  6
CONTINUOUS
  0
LAYER
  5
65
330
2
100
AcDbSymbolTableRecord
100
AcDbLayerTableRecord
  2
44
 70
     0
 62
    44
  6
CONTINUOUS
  0
LAYER
  5
66
330
2
100
AcDbSymbolTableRecord
100
AcDbLayerTableRecord
  2
45
 70
     0
 62
    45
  6
CONTINUOUS
  0
LAYER
  5
67
330
2
100
AcDbSymbolTableRecord
100
AcDbLayerTableRecord
  2
46
 70
     0
 62
    46
  6
CONTINUOUS
  0
LAYER
  5
68
330
2
100
AcDbSymbolTableRecord
100
AcDbLayerTableRecord
  2
47
 70
     0
 62
    47
  6
CONTINUOUS
  0
LAYER
  5
69
330
2
100
AcDbSymbolTableRecord
100
AcDbLayerTableRecord
  2
48
 70
     0
 62
    48
  6
CONTINUOUS
  0
LAYER
  5
6A
330
2
100
AcDbSymbolTableRecord
100
AcDbLayerTableRecord
  2
49
 70
     0
 62
    49
  6
CONTINUOUS
  0
LAYER
  5
6B
330
2
100
AcDbSymbolTableRecord
100
AcDbLayerTableRecord
  2
50
 70
     0
 62
    50
  6
CONTINUOUS
  0
LAYER
  5
6C
330
2
100
AcDbSymbolTableRecord
100
AcDbLayerTableRecord
  2
51
 70
     0
 62
    51
  6
CONTINUOUS
  0
LAYER
  5
6D
330
2
100
AcDbSymbolTableRecord
100
AcDbLayerTableRecord
  2
52
 70
     0
 62
    52
  6
CONTINUOUS
  0
LAYER
  5
6E
330
2
100
AcDbSymbolTableRecord
100
AcDbLayerTableRecord
  2
53
 70
     0
 62
    53
  6
CONTINUOUS
  0
LAYER
  5
6F
330
2
100
AcDbSymbolTableRecord
100
AcDbLayerTableRecord
  2
54
 70
     0
 62
    54
  6
CONTINUOUS
  0
LAYER
  5
70
330
2
100
AcDbSymbolTableRecord
100
AcDbLayerTableRecord
  2
55
 70
     0
 62
    55
  6
CONTINUOUS
  0
LAYER
  5
71
330
2
100
AcDbSymbolTableRecord
100
AcDbLayerTableRecord
  2
56
 70
     0
 62
    56
  6
CONTINUOUS
  0
LAYER
  5
72
330
2
100
AcDbSymbolTableRecord
100
AcDbLayerTableRecord
  2
57
 70
     0
 62
    57
  6
CONTINUOUS
  0
LAYER
  5
73
330
2
100
AcDbSymbolTableRecord
100
AcDbLayerTableRecord
  2
58
 70
     0
 62
    58
  6
CONTINUOUS
  0
LAYER
  5
74
330
2
100
AcDbSymbolTableRecord
100
AcDbLayerTableRecord
  2
59
 70
     0
 62
    59
  6
CONTINUOUS
  0
LAYER
  5
75
330
2
100
AcDbSymbolTableRecord
100
AcDbLayerTableRecord
  2
60
 70
     0
 62
    60
  6
CONTINUOUS
  0
LAYER
  5
76
330
2
100
AcDbSymbolTableRecord
100
AcDbLayerTableRecord
  2
61
 70
     0
 62
    61
  6
CONTINUOUS
  0
LAYER
  5
77
330
2
100
AcDbSymbolTableRecord
100
AcDbLayerTableRecord
  2
62
 70
     0
 62
    62
  6
CONTINUOUS
  0
LAYER
  5
78
330
2
100
AcDbSymbolTableRecord
100
AcDbLayerTableRecord
  2
63
 70
     0
 62
    63
  6
CONTINUOUS
  0
LAYER
  5
79
330
2
100
AcDbSymbolTableRecord
100
AcDbLayerTableRecord
  2
64
 70
     0
 62
    64
  6
CONTINUOUS
  0
LAYER
  5
7A
330
2
100
AcDbSymbolTableRecord
100
AcDbLayerTableRecord
  2
65
 70
     0
 62
    65
  6
CONTINUOUS
  0
LAYER
  5
7B
330
2
100
AcDbSymbolTableRecord
100
AcDbLayerTableRecord
  2
66
 70
     0
 62
    66
  6
CONTINUOUS
  0
LAYER
  5
7C
330
2
100
AcDbSymbolTableRecord
100
AcDbLayerTableRecord
  2
67
 70
     0
 62
    67
  6
CONTINUOUS
  0
LAYER
  5
7D
330
2
100
AcDbSymbolTableRecord
100
AcDbLayerTableRecord
  2
68
 70
     0
 62
    68
  6
CONTINUOUS
  0
LAYER
  5
7E
330
2
100
AcDbSymbolTableRecord
100
AcDbLayerTableRecord
  2
69
 70
     0
 62
    69
  6
CONTINUOUS
  0
LAYER
  5
7F
330
2
100
AcDbSymbolTableRecord
100
AcDbLayerTableRecord
  2
70
 70
     0
 62
    70
  6
CONTINUOUS
  0
LAYER
  5
80
330
2
100
AcDbSymbolTableRecord
100
AcDbLayerTableRecord
  2
71
 70
     0
 62
    71
  6
CONTINUOUS
  0
LAYER
  5
81
330
2
100
AcDbSymbolTableRecord
100
AcDbLayerTableRecord
  2
72
 70
     0
 62
    72
  6
CONTINUOUS
  0
LAYER
  5
82
330
2
100
AcDbSymbolTableRecord
100
AcDbLayerTableRecord
  2
73
 70
     0
 62
    73
  6
CONTINUOUS
  0
LAYER
  5
83
330
2
100
AcDbSymbolTableRecord
100
AcDbLayerTableRecord
  2
74
 70
     0
 62
    74
  6
CONTINUOUS
  0
LAYER
  5
84
330
2
100
AcDbSymbolTableRecord
100
AcDbLayerTableRecord
  2
75
 70
     0
 62
    75
  6
CONTINUOUS
  0
LAYER
  5
85
330
2
100
AcDbSymbolTableRecord
100
AcDbLayerTableRecord
  2
76
 70
     0
 62
    76
  6
CONTINUOUS
  0
LAYER
  5
86
330
2
100
AcDbSymbolTableRecord
100
AcDbLayerTableRecord
  2
77
 70
     0
 62
    77
  6
CONTINUOUS
  0
LAYER
  5
87
330
2
100
AcDbSymbolTableRecord
100
AcDbLayerTableRecord
  2
78
 70
     0
 62
    78
  6
CONTINUOUS
  0
LAYER
  5
88
330
2
100
AcDbSymbolTableRecord
100
AcDbLayerTableRecord
  2
79
 70
     0
 62
    79
  6
CONTINUOUS
  0
LAYER
  5
89
330
2
100
AcDbSymbolTableRecord
100
AcDbLayerTableRecord
  2
80
 70
     0
 62
    80
  6
CONTINUOUS
  0
LAYER
  5
8A
330
2
100
AcDbSymbolTableRecord
100
AcDbLayerTableRecord
  2
81
 70
     0
 62
    81
  6
CONTINUOUS
  0
LAYER
  5
8B
330
2
100
AcDbSymbolTableRecord
100
AcDbLayerTableRecord
  2
82
 70
     0
 62
    82
  6
CONTINUOUS
  0
LAYER
  5
8C
330
2
100
AcDbSymbolTableRecord
100
AcDbLayerTableRecord
  2
83
 70
     0
 62
    83
  6
CONTINUOUS
  0
LAYER
  5
8D
330
2
100
AcDbSymbolTableRecord
100
AcDbLayerTableRecord
  2
84
 70
     0
 62
    84
  6
CONTINUOUS
  0
LAYER
  5
8E
330
2
100
AcDbSymbolTableRecord
100
AcDbLayerTableRecord
  2
85
 70
     0
 62
    85
  6
CONTINUOUS
  0
LAYER
  5
8F
330
2
100
AcDbSymbolTableRecord
100
AcDbLayerTableRecord
  2
86
 70
     0
 62
    86
  6
CONTINUOUS
  0
LAYER
  5
90
330
2
100
AcDbSymbolTableRecord
100
AcDbLayerTableRecord
  2
87
 70
     0
 62
    87
  6
CONTINUOUS
  0
LAYER
  5
91
330
2
100
AcDbSymbolTableRecord
100
AcDbLayerTableRecord
  2
88
 70
     0
 62
    88
  6
CONTINUOUS
  0
LAYER
  5
92
330
2
100
AcDbSymbolTableRecord
100
AcDbLayerTableRecord
  2
89
 70
     0
 62
    89
  6
CONTINUOUS
  0
LAYER
  5
93
330
2
100
AcDbSymbolTableRecord
100
AcDbLayerTableRecord
  2
90
 70
     0
 62
    90
  6
CONTINUOUS
  0
LAYER
  5
94
330
2
100
AcDbSymbolTableRecord
100
AcDbLayerTableRecord
  2
91
 70
     0
 62
    91
  6
CONTINUOUS
  0
LAYER
  5
95
330
2
100
AcDbSymbolTableRecord
100
AcDbLayerTableRecord
  2
92
 70
     0
 62
    92
  6
CONTINUOUS
  0
LAYER
  5
96
330
2
100
AcDbSymbolTableRecord
100
AcDbLayerTableRecord
  2
93
 70
     0
 62
    93
  6
CONTINUOUS
  0
LAYER
  5
97
330
2
100
AcDbSymbolTableRecord
100
AcDbLayerTableRecord
  2
94
 70
     0
 62
    94
  6
CONTINUOUS
  0
LAYER
  5
98
330
2
100
AcDbSymbolTableRecord
100
AcDbLayerTableRecord
  2
95
 70
     0
 62
    95
  6
CONTINUOUS
  0
LAYER
  5
99
330
2
100
AcDbSymbolTableRecord
100
AcDbLayerTableRecord
  2
96
 70
     0
 62
    96
  6
CONTINUOUS
  0
LAYER
  5
9A
330
2
100
AcDbSymbolTableRecord
100
AcDbLayerTableRecord
  2
97
 70
     0
 62
    97
  6
CONTINUOUS
  0
LAYER
  5
9B
330
2
100
AcDbSymbolTableRecord
100
AcDbLayerTableRecord
  2
98
 70
     0
 62
    98
  6
CONTINUOUS
  0
LAYER
  5
9C
330
2
100
AcDbSymbolTableRecord
100
AcDbLayerTableRecord
  2
99
 70
     0
 62
    99
  6
CONTINUOUS
  0
LAYER
  5
9D
330
2
100
AcDbSymbolTableRecord
100
AcDbLayerTableRecord
  2
100
 70
     0
 62
   100
  6
CONTINUOUS
  0
LAYER
  5
9E
330
2
100
AcDbSymbolTableRecord
100
AcDbLayerTableRecord
  2
101
 70
     0
 62
   101
  6
CONTINUOUS
  0
LAYER
  5
9F
330
2
100
AcDbSymbolTableRecord
100
AcDbLayerTableRecord
  2
102
 70
     0
 62
   102
  6
CONTINUOUS
  0
LAYER
  5
A0
330
2
100
AcDbSymbolTableRecord
100
AcDbLayerTableRecord
  2
103
 70
     0
 62
   103
  6
CONTINUOUS
  0
LAYER
  5
A1
330
2
100
AcDbSymbolTableRecord
100
AcDbLayerTableRecord
  2
104
 70
     0
 62
   104
  6
CONTINUOUS
  0
LAYER
  5
A2
330
2
100
AcDbSymbolTableRecord
100
AcDbLayerTableRecord
  2
105
 70
     0
 62
   105
  6
CONTINUOUS
  0
LAYER
  5
A3
330
2
100
AcDbSymbolTableRecord
100
AcDbLayerTableRecord
  2
106
 70
     0
 62
   106
  6
CONTINUOUS
  0
LAYER
  5
A4
330
2
100
AcDbSymbolTableRecord
100
AcDbLayerTableRecord
  2
107
 70
     0
 62
   107
  6
CONTINUOUS
  0
LAYER
  5
A5
330
2
100
AcDbSymbolTableRecord
100
AcDbLayerTableRecord
  2
108
 70
     0
 62
   108
  6
CONTINUOUS
  0
LAYER
  5
A6
330
2
100
AcDbSymbolTableRecord
100
AcDbLayerTableRecord
  2
109
 70
     0
 62
   109
  6
CONTINUOUS
  0
LAYER
  5
A7
330
2
100
AcDbSymbolTableRecord
100
AcDbLayerTableRecord
  2
110
 70
     0
 62
   110
  6
CONTINUOUS
  0
LAYER
  5
A8
330
2
100
AcDbSymbolTableRecord
100
AcDbLayerTableRecord
  2
111
 70
     0
 62
   111
  6
CONTINUOUS
  0
LAYER
  5
A9
330
2
100
AcDbSymbolTableRecord
100
AcDbLayerTableRecord
  2
112
 70
     0
 62
   112
  6
CONTINUOUS
  0
LAYER
  5
AA
330
2
100
AcDbSymbolTableRecord
100
AcDbLayerTableRecord
  2
113
 70
     0
 62
   113
  6
CONTINUOUS
  0
LAYER
  5
AB
330
2
100
AcDbSymbolTableRecord
100
AcDbLayerTableRecord
  2
114
 70
     0
 62
   114
  6
CONTINUOUS
  0
LAYER
  5
AC
330
2
100
AcDbSymbolTableRecord
100
AcDbLayerTableRecord
  2
115
 70
     0
 62
   115
  6
CONTINUOUS
  0
LAYER
  5
AD
330
2
100
AcDbSymbolTableRecord
100
AcDbLayerTableRecord
  2
116
 70
     0
 62
   116
  6
CONTINUOUS
  0
LAYER
  5
AE
330
2
100
AcDbSymbolTableRecord
100
AcDbLayerTableRecord
  2
117
 70
     0
 62
   117
  6
CONTINUOUS
  0
LAYER
  5
AF
330
2
100
AcDbSymbolTableRecord
100
AcDbLayerTableRecord
  2
118
 70
     0
 62
   118
  6
CONTINUOUS
  0
LAYER
  5
B0
330
2
100
AcDbSymbolTableRecord
100
AcDbLayerTableRecord
  2
119
 70
     0
 62
   119
  6
CONTINUOUS
  0
LAYER
  5
B1
330
2
100
AcDbSymbolTableRecord
100
AcDbLayerTableRecord
  2
120
 70
     0
 62
   120
  6
CONTINUOUS
  0
LAYER
  5
B2
330
2
100
AcDbSymbolTableRecord
100
AcDbLayerTableRecord
  2
121
 70
     0
 62
   121
  6
CONTINUOUS
  0
LAYER
  5
B3
330
2
100
AcDbSymbolTableRecord
100
AcDbLayerTableRecord
  2
122
 70
     0
 62
   122
  6
CONTINUOUS
  0
LAYER
  5
B4
330
2
100
AcDbSymbolTableRecord
100
AcDbLayerTableRecord
  2
123
 70
     0
 62
   123
  6
CONTINUOUS
  0
LAYER
  5
B5
330
2
100
AcDbSymbolTableRecord
100
AcDbLayerTableRecord
  2
124
 70
     0
 62
   124
  6
CONTINUOUS
  0
LAYER
  5
B6
330
2
100
AcDbSymbolTableRecord
100
AcDbLayerTableRecord
  2
125
 70
     0
 62
   125
  6
CONTINUOUS
  0
LAYER
  5
B7
330
2
100
AcDbSymbolTableRecord
100
AcDbLayerTableRecord
  2
126
 70
     0
 62
   126
  6
CONTINUOUS
  0
LAYER
  5
B8
330
2
100
AcDbSymbolTableRecord
100
AcDbLayerTableRecord
  2
127
 70
     0
 62
   127
  6
CONTINUOUS
  0
LAYER
  5
B9
330
2
100
AcDbSymbolTableRecord
100
AcDbLayerTableRecord
  2
128
 70
     0
 62
   128
  6
CONTINUOUS
  0
LAYER
  5
BA
330
2
100
AcDbSymbolTableRecord
100
AcDbLayerTableRecord
  2
129
 70
     0
 62
   129
  6
CONTINUOUS
  0
LAYER
  5
BB
330
2
100
AcDbSymbolTableRecord
100
AcDbLayerTableRecord
  2
130
 70
     0
 62
   130
  6
CONTINUOUS
  0
LAYER
  5
BC
330
2
100
AcDbSymbolTableRecord
100
AcDbLayerTableRecord
  2
131
 70
     0
 62
   131
  6
CONTINUOUS
  0
LAYER
  5
BD
330
2
100
AcDbSymbolTableRecord
100
AcDbLayerTableRecord
  2
132
 70
     0
 62
   132
  6
CONTINUOUS
  0
LAYER
  5
BE
330
2
100
AcDbSymbolTableRecord
100
AcDbLayerTableRecord
  2
133
 70
     0
 62
   133
  6
CONTINUOUS
  0
LAYER
  5
BF
330
2
100
AcDbSymbolTableRecord
100
AcDbLayerTableRecord
  2
134
 70
     0
 62
   134
  6
CONTINUOUS
  0
LAYER
  5
C0
330
2
100
AcDbSymbolTableRecord
100
AcDbLayerTableRecord
  2
135
 70
     0
 62
   135
  6
CONTINUOUS
  0
LAYER
  5
C1
330
2
100
AcDbSymbolTableRecord
100
AcDbLayerTableRecord
  2
136
 70
     0
 62
   136
  6
CONTINUOUS
  0
LAYER
  5
C2
330
2
100
AcDbSymbolTableRecord
100
AcDbLayerTableRecord
  2
137
 70
     0
 62
   137
  6
CONTINUOUS
  0
LAYER
  5
C3
330
2
100
AcDbSymbolTableRecord
100
AcDbLayerTableRecord
  2
138
 70
     0
 62
   138
  6
CONTINUOUS
  0
LAYER
  5
C4
330
2
100
AcDbSymbolTableRecord
100
AcDbLayerTableRecord
  2
139
 70
     0
 62
   139
  6
CONTINUOUS
  0
LAYER
  5
C5
330
2
100
AcDbSymbolTableRecord
100
AcDbLayerTableRecord
  2
140
 70
     0
 62
   140
  6
CONTINUOUS
  0
LAYER
  5
C6
330
2
100
AcDbSymbolTableRecord
100
AcDbLayerTableRecord
  2
141
 70
     0
 62
   141
  6
CONTINUOUS
  0
LAYER
  5
C7
330
2
100
AcDbSymbolTableRecord
100
AcDbLayerTableRecord
  2
142
 70
     0
 62
   142
  6
CONTINUOUS
  0
LAYER
  5
C8
330
2
100
AcDbSymbolTableRecord
100
AcDbLayerTableRecord
  2
143
 70
     0
 62
   143
  6
CONTINUOUS
  0
LAYER
  5
C9
330
2
100
AcDbSymbolTableRecord
100
AcDbLayerTableRecord
  2
144
 70
     0
 62
   144
  6
CONTINUOUS
  0
LAYER
  5
CA
330
2
100
AcDbSymbolTableRecord
100
AcDbLayerTableRecord
  2
145
 70
     0
 62
   145
  6
CONTINUOUS
  0
LAYER
  5
CB
330
2
100
AcDbSymbolTableRecord
100
AcDbLayerTableRecord
  2
146
 70
     0
 62
   146
  6
CONTINUOUS
  0
LAYER
  5
CC
330
2
100
AcDbSymbolTableRecord
100
AcDbLayerTableRecord
  2
147
 70
     0
 62
   147
  6
CONTINUOUS
  0
LAYER
  5
CD
330
2
100
AcDbSymbolTableRecord
100
AcDbLayerTableRecord
  2
148
 70
     0
 62
   148
  6
CONTINUOUS
  0
LAYER
  5
CE
330
2
100
AcDbSymbolTableRecord
100
AcDbLayerTableRecord
  2
149
 70
     0
 62
   149
  6
CONTINUOUS
  0
LAYER
  5
CF
330
2
100
AcDbSymbolTableRecord
100
AcDbLayerTableRecord
  2
150
 70
     0
 62
   150
  6
CONTINUOUS
  0
LAYER
  5
D0
330
2
100
AcDbSymbolTableRecord
100
AcDbLayerTableRecord
  2
151
 70
     0
 62
   151
  6
CONTINUOUS
  0
LAYER
  5
D1
330
2
100
AcDbSymbolTableRecord
100
AcDbLayerTableRecord
  2
152
 70
     0
 62
   152
  6
CONTINUOUS
  0
LAYER
  5
D2
330
2
100
AcDbSymbolTableRecord
100
AcDbLayerTableRecord
  2
153
 70
     0
 62
   153
  6
CONTINUOUS
  0
LAYER
  5
D3
330
2
100
AcDbSymbolTableRecord
100
AcDbLayerTableRecord
  2
154
 70
     0
 62
   154
  6
CONTINUOUS
  0
LAYER
  5
D4
330
2
100
AcDbSymbolTableRecord
100
AcDbLayerTableRecord
  2
155
 70
     0
 62
   155
  6
CONTINUOUS
  0
LAYER
  5
D5
330
2
100
AcDbSymbolTableRecord
100
AcDbLayerTableRecord
  2
156
 70
     0
 62
   156
  6
CONTINUOUS
  0
LAYER
  5
D6
330
2
100
AcDbSymbolTableRecord
100
AcDbLayerTableRecord
  2
157
 70
     0
 62
   157
  6
CONTINUOUS
  0
LAYER
  5
D7
330
2
100
AcDbSymbolTableRecord
100
AcDbLayerTableRecord
  2
158
 70
     0
 62
   158
  6
CONTINUOUS
  0
LAYER
  5
D8
330
2
100
AcDbSymbolTableRecord
100
AcDbLayerTableRecord
  2
159
 70
     0
 62
   159
  6
CONTINUOUS
  0
LAYER
  5
D9
330
2
100
AcDbSymbolTableRecord
100
AcDbLayerTableRecord
  2
160
 70
     0
 62
   160
  6
CONTINUOUS
  0
LAYER
  5
DA
330
2
100
AcDbSymbolTableRecord
100
AcDbLayerTableRecord
  2
161
 70
     0
 62
   161
  6
CONTINUOUS
  0
LAYER
  5
DB
330
2
100
AcDbSymbolTableRecord
100
AcDbLayerTableRecord
  2
162
 70
     0
 62
   162
  6
CONTINUOUS
  0
LAYER
  5
DC
330
2
100
AcDbSymbolTableRecord
100
AcDbLayerTableRecord
  2
163
 70
     0
 62
   163
  6
CONTINUOUS
  0
LAYER
  5
DD
330
2
100
AcDbSymbolTableRecord
100
AcDbLayerTableRecord
  2
164
 70
     0
 62
   164
  6
CONTINUOUS
  0
LAYER
  5
DE
330
2
100
AcDbSymbolTableRecord
100
AcDbLayerTableRecord
  2
165
 70
     0
 62
   165
  6
CONTINUOUS
  0
LAYER
  5
DF
330
2
100
AcDbSymbolTableRecord
100
AcDbLayerTableRecord
  2
166
 70
     0
 62
   166
  6
CONTINUOUS
  0
LAYER
  5
E0
330
2
100
AcDbSymbolTableRecord
100
AcDbLayerTableRecord
  2
167
 70
     0
 62
   167
  6
CONTINUOUS
  0
LAYER
  5
E1
330
2
100
AcDbSymbolTableRecord
100
AcDbLayerTableRecord
  2
168
 70
     0
 62
   168
  6
CONTINUOUS
  0
LAYER
  5
E2
330
2
100
AcDbSymbolTableRecord
100
AcDbLayerTableRecord
  2
169
 70
     0
 62
   169
  6
CONTINUOUS
  0
LAYER
  5
E3
330
2
100
AcDbSymbolTableRecord
100
AcDbLayerTableRecord
  2
170
 70
     0
 62
   170
  6
CONTINUOUS
  0
LAYER
  5
E4
330
2
100
AcDbSymbolTableRecord
100
AcDbLayerTableRecord
  2
171
 70
     0
 62
   171
  6
CONTINUOUS
  0
LAYER
  5
E5
330
2
100
AcDbSymbolTableRecord
100
AcDbLayerTableRecord
  2
172
 70
     0
 62
   172
  6
CONTINUOUS
  0
LAYER
  5
E6
330
2
100
AcDbSymbolTableRecord
100
AcDbLayerTableRecord
  2
173
 70
     0
 62
   173
  6
CONTINUOUS
  0
LAYER
  5
E7
330
2
100
AcDbSymbolTableRecord
100
AcDbLayerTableRecord
  2
174
 70
     0
 62
   174
  6
CONTINUOUS
  0
LAYER
  5
E8
330
2
100
AcDbSymbolTableRecord
100
AcDbLayerTableRecord
  2
175
 70
     0
 62
   175
  6
CONTINUOUS
  0
LAYER
  5
E9
330
2
100
AcDbSymbolTableRecord
100
AcDbLayerTableRecord
  2
176
 70
     0
 62
   176
  6
CONTINUOUS
  0
LAYER
  5
EA
330
2
100
AcDbSymbolTableRecord
100
AcDbLayerTableRecord
  2
177
 70
     0
 62
   177
  6
CONTINUOUS
  0
LAYER
  5
EB
330
2
100
AcDbSymbolTableRecord
100
AcDbLayerTableRecord
  2
178
 70
     0
 62
   178
  6
CONTINUOUS
  0
LAYER
  5
EC
330
2
100
AcDbSymbolTableRecord
100
AcDbLayerTableRecord
  2
179
 70
     0
 62
   179
  6
CONTINUOUS
  0
LAYER
  5
ED
330
2
100
AcDbSymbolTableRecord
100
AcDbLayerTableRecord
  2
180
 70
     0
 62
   180
  6
CONTINUOUS
  0
LAYER
  5
EE
330
2
100
AcDbSymbolTableRecord
100
AcDbLayerTableRecord
  2
181
 70
     0
 62
   181
  6
CONTINUOUS
  0
LAYER
  5
EF
330
2
100
AcDbSymbolTableRecord
100
AcDbLayerTableRecord
  2
182
 70
     0
 62
   182
  6
CONTINUOUS
  0
LAYER
  5
F0
330
2
100
AcDbSymbolTableRecord
100
AcDbLayerTableRecord
  2
183
 70
     0
 62
   183
  6
CONTINUOUS
  0
LAYER
  5
F1
330
2
100
AcDbSymbolTableRecord
100
AcDbLayerTableRecord
  2
184
 70
     0
 62
   184
  6
CONTINUOUS
  0
LAYER
  5
F2
330
2
100
AcDbSymbolTableRecord
100
AcDbLayerTableRecord
  2
185
 70
     0
 62
   185
  6
CONTINUOUS
  0
LAYER
  5
F3
330
2
100
AcDbSymbolTableRecord
100
AcDbLayerTableRecord
  2
186
 70
     0
 62
   186
  6
CONTINUOUS
  0
LAYER
  5
F4
330
2
100
AcDbSymbolTableRecord
100
AcDbLayerTableRecord
  2
187
 70
     0
 62
   187
  6
CONTINUOUS
  0
LAYER
  5
F5
330
2
100
AcDbSymbolTableRecord
100
AcDbLayerTableRecord
  2
188
 70
     0
 62
   188
  6
CONTINUOUS
  0
LAYER
  5
F6
330
2
100
AcDbSymbolTableRecord
100
AcDbLayerTableRecord
  2
189
 70
     0
 62
   189
  6
CONTINUOUS
  0
LAYER
  5
F7
330
2
100
AcDbSymbolTableRecord
100
AcDbLayerTableRecord
  2
190
 70
     0
 62
   190
  6
CONTINUOUS
  0
LAYER
  5
F8
330
2
100
AcDbSymbolTableRecord
100
AcDbLayerTableRecord
  2
191
 70
     0
 62
   191
  6
CONTINUOUS
  0
LAYER
  5
F9
330
2
100
AcDbSymbolTableRecord
100
AcDbLayerTableRecord
  2
192
 70
     0
 62
   192
  6
CONTINUOUS
  0
LAYER
  5
FA
330
2
100
AcDbSymbolTableRecord
100
AcDbLayerTableRecord
  2
193
 70
     0
 62
   193
  6
CONTINUOUS
  0
LAYER
  5
FB
330
2
100
AcDbSymbolTableRecord
100
AcDbLayerTableRecord
  2
194
 70
     0
 62
   194
  6
CONTINUOUS
  0
LAYER
  5
FC
330
2
100
AcDbSymbolTableRecord
100
AcDbLayerTableRecord
  2
195
 70
     0
 62
   195
  6
CONTINUOUS
  0
LAYER
  5
FD
330
2
100
AcDbSymbolTableRecord
100
AcDbLayerTableRecord
  2
196
 70
     0
 62
   196
  6
CONTINUOUS
  0
LAYER
  5
FE
330
2
100
AcDbSymbolTableRecord
100
AcDbLayerTableRecord
  2
197
 70
     0
 62
   197
  6
CONTINUOUS
  0
LAYER
  5
FF
330
2
100
AcDbSymbolTableRecord
100
AcDbLayerTableRecord
  2
198
 70
     0
 62
   198
  6
CONTINUOUS
  0
LAYER
  5
100
330
2
100
AcDbSymbolTableRecord
100
AcDbLayerTableRecord
  2
199
 70
     0
 62
   199
  6
CONTINUOUS
  0
LAYER
  5
101
330
2
100
AcDbSymbolTableRecord
100
AcDbLayerTableRecord
  2
200
 70
     0
 62
   200
  6
CONTINUOUS
  0
LAYER
  5
102
330
2
100
AcDbSymbolTableRecord
100
AcDbLayerTableRecord
  2
201
 70
     0
 62
   201
  6
CONTINUOUS
  0
LAYER
  5
103
330
2
100
AcDbSymbolTableRecord
100
AcDbLayerTableRecord
  2
202
 70
     0
 62
   202
  6
CONTINUOUS
  0
LAYER
  5
104
330
2
100
AcDbSymbolTableRecord
100
AcDbLayerTableRecord
  2
203
 70
     0
 62
   203
  6
CONTINUOUS
  0
LAYER
  5
105
330
2
100
AcDbSymbolTableRecord
100
AcDbLayerTableRecord
  2
204
 70
     0
 62
   204
  6
CONTINUOUS
  0
LAYER
  5
106
330
2
100
AcDbSymbolTableRecord
100
AcDbLayerTableRecord
  2
205
 70
     0
 62
   205
  6
CONTINUOUS
  0
LAYER
  5
107
330
2
100
AcDbSymbolTableRecord
100
AcDbLayerTableRecord
  2
206
 70
     0
 62
   206
  6
CONTINUOUS
  0
LAYER
  5
108
330
2
100
AcDbSymbolTableRecord
100
AcDbLayerTableRecord
  2
207
 70
     0
 62
   207
  6
CONTINUOUS
  0
LAYER
  5
109
330
2
100
AcDbSymbolTableRecord
100
AcDbLayerTableRecord
  2
208
 70
     0
 62
   208
  6
CONTINUOUS
  0
LAYER
  5
10A
330
2
100
AcDbSymbolTableRecord
100
AcDbLayerTableRecord
  2
209
 70
     0
 62
   209
  6
CONTINUOUS
  0
LAYER
  5
10B
330
2
100
AcDbSymbolTableRecord
100
AcDbLayerTableRecord
  2
210
 70
     0
 62
   210
  6
CONTINUOUS
  0
LAYER
  5
10C
330
2
100
AcDbSymbolTableRecord
100
AcDbLayerTableRecord
  2
211
 70
     0
 62
   211
  6
CONTINUOUS
  0
LAYER
  5
10D
330
2
100
AcDbSymbolTableRecord
100
AcDbLayerTableRecord
  2
212
 70
     0
 62
   212
  6
CONTINUOUS
  0
LAYER
  5
10E
330
2
100
AcDbSymbolTableRecord
100
AcDbLayerTableRecord
  2
213
 70
     0
 62
   213
  6
CONTINUOUS
  0
LAYER
  5
10F
330
2
100
AcDbSymbolTableRecord
100
AcDbLayerTableRecord
  2
214
 70
     0
 62
   214
  6
CONTINUOUS
  0
LAYER
  5
110
330
2
100
AcDbSymbolTableRecord
100
AcDbLayerTableRecord
  2
215
 70
     0
 62
   215
  6
CONTINUOUS
  0
LAYER
  5
111
330
2
100
AcDbSymbolTableRecord
100
AcDbLayerTableRecord
  2
216
 70
     0
 62
   216
  6
CONTINUOUS
  0
LAYER
  5
112
330
2
100
AcDbSymbolTableRecord
100
AcDbLayerTableRecord
  2
217
 70
     0
 62
   217
  6
CONTINUOUS
  0
LAYER
  5
113
330
2
100
AcDbSymbolTableRecord
100
AcDbLayerTableRecord
  2
218
 70
     0
 62
   218
  6
CONTINUOUS
  0
LAYER
  5
114
330
2
100
AcDbSymbolTableRecord
100
AcDbLayerTableRecord
  2
219
 70
     0
 62
   219
  6
CONTINUOUS
  0
LAYER
  5
115
330
2
100
AcDbSymbolTableRecord
100
AcDbLayerTableRecord
  2
220
 70
     0
 62
   220
  6
CONTINUOUS
  0
LAYER
  5
116
330
2
100
AcDbSymbolTableRecord
100
AcDbLayerTableRecord
  2
221
 70
     0
 62
   221
  6
CONTINUOUS
  0
LAYER
  5
117
330
2
100
AcDbSymbolTableRecord
100
AcDbLayerTableRecord
  2
222
 70
     0
 62
   222
  6
CONTINUOUS
  0
LAYER
  5
118
330
2
100
AcDbSymbolTableRecord
100
AcDbLayerTableRecord
  2
223
 70
     0
 62
   223
  6
CONTINUOUS
  0
LAYER
  5
119
330
2
100
AcDbSymbolTableRecord
100
AcDbLayerTableRecord
  2
224
 70
     0
 62
   224
  6
CONTINUOUS
  0
LAYER
  5
11A
330
2
100
AcDbSymbolTableRecord
100
AcDbLayerTableRecord
  2
225
 70
     0
 62
   225
  6
CONTINUOUS
  0
LAYER
  5
11B
330
2
100
AcDbSymbolTableRecord
100
AcDbLayerTableRecord
  2
226
 70
     0
 62
   226
  6
CONTINUOUS
  0
LAYER
  5
11C
330
2
100
AcDbSymbolTableRecord
100
AcDbLayerTableRecord
  2
227
 70
     0
 62
   227
  6
CONTINUOUS
  0
LAYER
  5
11D
330
2
100
AcDbSymbolTableRecord
100
AcDbLayerTableRecord
  2
228
 70
     0
 62
   228
  6
CONTINUOUS
  0
LAYER
  5
11E
330
2
100
AcDbSymbolTableRecord
100
AcDbLayerTableRecord
  2
229
 70
     0
 62
   229
  6
CONTINUOUS
  0
LAYER
  5
11F
330
2
100
AcDbSymbolTableRecord
100
AcDbLayerTableRecord
  2
230
 70
     0
 62
   230
  6
CONTINUOUS
  0
LAYER
  5
120
330
2
100
AcDbSymbolTableRecord
100
AcDbLayerTableRecord
  2
231
 70
     0
 62
   231
  6
CONTINUOUS
  0
LAYER
  5
121
330
2
100
AcDbSymbolTableRecord
100
AcDbLayerTableRecord
  2
232
 70
     0
 62
   232
  6
CONTINUOUS
  0
LAYER
  5
122
330
2
100
AcDbSymbolTableRecord
100
AcDbLayerTableRecord
  2
233
 70
     0
 62
   233
  6
CONTINUOUS
  0
LAYER
  5
123
330
2
100
AcDbSymbolTableRecord
100
AcDbLayerTableRecord
  2
234
 70
     0
 62
   234
  6
CONTINUOUS
  0
LAYER
  5
124
330
2
100
AcDbSymbolTableRecord
100
AcDbLayerTableRecord
  2
235
 70
     0
 62
   235
  6
CONTINUOUS
  0
LAYER
  5
125
330
2
100
AcDbSymbolTableRecord
100
AcDbLayerTableRecord
  2
236
 70
     0
 62
   236
  6
CONTINUOUS
  0
LAYER
  5
126
330
2
100
AcDbSymbolTableRecord
100
AcDbLayerTableRecord
  2
237
 70
     0
 62
   237
  6
CONTINUOUS
  0
LAYER
  5
127
330
2
100
AcDbSymbolTableRecord
100
AcDbLayerTableRecord
  2
238
 70
     0
 62
   238
  6
CONTINUOUS
  0
LAYER
  5
128
330
2
100
AcDbSymbolTableRecord
100
AcDbLayerTableRecord
  2
239
 70
     0
 62
   239
  6
CONTINUOUS
  0
LAYER
  5
129
330
2
100
AcDbSymbolTableRecord
100
AcDbLayerTableRecord
  2
240
 70
     0
 62
   240
  6
CONTINUOUS
  0
LAYER
  5
12A
330
2
100
AcDbSymbolTableRecord
100
AcDbLayerTableRecord
  2
241
 70
     0
 62
   241
  6
CONTINUOUS
  0
LAYER
  5
12B
330
2
100
AcDbSymbolTableRecord
100
AcDbLayerTableRecord
  2
242
 70
     0
 62
   242
  6
CONTINUOUS
  0
LAYER
  5
12C
330
2
100
AcDbSymbolTableRecord
100
AcDbLayerTableRecord
  2
243
 70
     0
 62
   243
  6
CONTINUOUS
  0
LAYER
  5
12D
330
2
100
AcDbSymbolTableRecord
100
AcDbLayerTableRecord
  2
244
 70
     0
 62
   244
  6
CONTINUOUS
  0
LAYER
  5
12E
330
2
100
AcDbSymbolTableRecord
100
AcDbLayerTableRecord
  2
245
 70
     0
 62
   245
  6
CONTINUOUS
  0
LAYER
  5
12F
330
2
100
AcDbSymbolTableRecord
100
AcDbLayerTableRecord
  2
246
 70
     0
 62
   246
  6
CONTINUOUS
  0
LAYER
  5
130
330
2
100
AcDbSymbolTableRecord
100
AcDbLayerTableRecord
  2
247
 70
     0
 62
   247
  6
CONTINUOUS
  0
LAYER
  5
131
330
2
100
AcDbSymbolTableRecord
100
AcDbLayerTableRecord
  2
248
 70
     0
 62
   248
  6
CONTINUOUS
  0
LAYER
  5
132
330
2
100
AcDbSymbolTableRecord
100
AcDbLayerTableRecord
  2
249
 70
     0
 62
   249
  6
CONTINUOUS
  0
LAYER
  5
133
330
2
100
AcDbSymbolTableRecord
100
AcDbLayerTableRecord
  2
250
 70
     0
 62
   250
  6
CONTINUOUS
  0
LAYER
  5
134
330
2
100
AcDbSymbolTableRecord
100
AcDbLayerTableRecord
  2
251
 70
     0
 62
   251
  6
CONTINUOUS
  0
LAYER
  5
135
330
2
100
AcDbSymbolTableRecord
100
AcDbLayerTableRecord
  2
252
 70
     0
 62
   252
  6
CONTINUOUS
  0
LAYER
  5
136
330
2
100
AcDbSymbolTableRecord
100
AcDbLayerTableRecord
  2
253
 70
     0
 62
   253
  6
CONTINUOUS
  0
LAYER
  5
137
330
2
100
AcDbSymbolTableRecord
100
AcDbLayerTableRecord
  2
254
 70
     0
 62
   254
  6
CONTINUOUS
  0
LAYER
  5
138
330
2
100
AcDbSymbolTableRecord
100
AcDbLayerTableRecord
  2
255
 70
     0
 62
   255
  6
CONTINUOUS
  0
ENDTAB
  0
TABLE
  2
STYLE
  5
3
330
0
100
AcDbSymbolTable
 70
     1
  0
STYLE
  5
11
330
3
100
AcDbSymbolTableRecord
100
AcDbTextStyleTableRecord
  2
STANDARD
 70
     0
 40
0.0
 41
1.0
 50
0.0
 71
     0
 42
0.2
  3
txt
  4

  0
ENDTAB
  0
TABLE
  2
VIEW
  5
6
330
0
100
AcDbSymbolTable
 70
     0
  0
ENDTAB
  0
TABLE
  2
UCS
  5
7
330
0
100
AcDbSymbolTable
 70
     0
  0
ENDTAB
  0
TABLE
  2
APPID
  5
9
330
0
100
AcDbSymbolTable
 70
     1
  0
APPID
  5
12
330
9
100
AcDbSymbolTableRecord
100
AcDbRegAppTableRecord
  2
ACAD
 70
     0
  0
ENDTAB
  0
TABLE
  2
DIMSTYLE
  5
A
330
0
100
AcDbSymbolTable
 70
     1
  0
DIMSTYLE
105
3585
330
A
100
AcDbSymbolTableRecord
100
AcDbDimStyleTableRecord
  2
STANDARD
 70
     0
  3

  4

  5

  6

  7

 40
1.0
 41
0.18
 42
0.0625
 43
0.38
 44
0.18
 45
0.0
 46
0.0
 47
0.0
 48
0.0
140
0.18
141
0.09
142
0.0
143
25.4
144
1.0
145
0.0
146
1.0
147
0.09
 71
     0
 72
     0
 73
     1
 74
     1
 75
     0
 76
     0
 77
     0
 78
     0
170
     0
171
     2
172
     0
173
     0
174
     0
175
     0
176
     0
177
     0
178
     0
270
     2
271
     4
272
     4
273
     2
274
     2
340
11
275
     0
280
     0
281
     0
282
     0
283
     1
284
     0
285
     0
286
     0
287
     3
288
     0
  0
ENDTAB
  0
TABLE
  2
BLOCK_RECORD
  5
1
330
0
100
AcDbSymbolTable
 70
     0
  0
BLOCK_RECORD
  5
1E
102
{ACAD_XDICTIONARY
360
358C
102
}
330
1
100
AcDbSymbolTableRecord
100
AcDbBlockTableRecord
  2
*MODEL_SPACE
  0
BLOCK_RECORD
  5
1A
102
{ACAD_XDICTIONARY
360
358A
102
}
330
1
100
AcDbSymbolTableRecord
100
AcDbBlockTableRecord
  2
*PAPER_SPACE
  0
ENDTAB
  0
ENDSEC
  0
SECTION
  2
BLOCKS
  0
BLOCK
  5
13B
330
1E
100
AcDbEntity
  8
0
100
AcDbBlockBegin
  2
*MODEL_SPACE
 70
     0
 10
0.0
 20
0.0
 30
0.0
  3
*MODEL_SPACE
  1

  0
ENDBLK
  5
13C
330
1E
100
AcDbEntity
  8
0
100
AcDbBlockEnd
  0
BLOCK
  5
139
330
1A
100
AcDbEntity
 67
     1
  8
0
100
AcDbBlockBegin
  2
*PAPER_SPACE
 70
     0
 10
0.0
 20
0.0
 30
0.0
  3
*PAPER_SPACE
  1

  0
ENDBLK
  5
13A
330
1A
100
AcDbEntity
 67
     1
  8
0
100
AcDbBlockEnd
  0
ENDSEC
  0
SECTION
  2
ENTITIES
  0
LINE
  5
2D2E
330
1E
100
AcDbEntity
  8
0
100
AcDbLine
 10
3.073808632456301
 20
3.303622473274164
 30
0.0
 11
3.076432648204332
 21
3.300998457526132
 31
0.0
  0
LINE
  5
2D2F
330
1E
100
AcDbEntity
  8
0
100
AcDbLine
 10
3.076432648204332
 20
7.64636853626629
 30
0.0
 11
3.076432648204332
 21
3.300998457526132
 31
0.0
  0
LINE
  5
2D30
330
1E
100
AcDbEntity
  8
0
100
AcDbLine
 10
3.076432648204332
 20
7.64636853626629
 30
0.0
 11
3.073808632456301
 21
7.642432512644243
 31
0.0
  0
LINE
  5
2D31
330
1E
100
AcDbEntity
  8
0
100
AcDbLine
 10
3.076432648204332
 20
3.300998457526132
 30
0.0
 11
3.073808632456301
 21
3.278694323667865
 31
0.0
  0
LINE
  5
2D32
330
1E
100
AcDbEntity
  8
0
100
AcDbLine
 10
3.017392293873624
 20
3.223589992959203
 30
0.0
 11
2.996400167889372
 21
3.220965977211172
 31
0.0
  0
LINE
  5
2D33
330
1E
100
AcDbEntity
  8
0
100
AcDbLine
 10
0.4012485930862218
 20
3.220965977211172
 30
0.0
 11
2.996400167889372
 21
3.220965977211172
 31
0.0
  0
LINE
  5
2D34
330
1E
100
AcDbEntity
  8
0
100
AcDbLine
 10
0.4012485930862218
 20
3.220965977211172
 30
0.0
 11
0.3789444592279549
 21
3.223589992959203
 31
0.0
  0
LINE
  5
2D35
330
1E
100
AcDbEntity
  8
0
100
AcDbLine
 10
0.3238401285192927
 20
3.278694323667865
 30
0.0
 11
0.3212161127712623
 21
3.300998457526132
 31
0.0
  0
LINE
  5
2D36
330
1E
100
AcDbEntity
  8
0
100
AcDbLine
 10
0.3212161127712623
 20
7.64636853626629
 30
0.0
 11
0.3212161127712623
 21
3.300998457526132
 31
0.0
  0
LINE
  5
2D37
330
1E
100
AcDbEntity
  8
0
100
AcDbLine
 10
0.3212161127712623
 20
7.64636853626629
 30
0.0
 11
0.3238401285192927
 21
7.667360662250542
 31
0.0
  0
LINE
  5
2D38
330
1E
100
AcDbEntity
  8
0
100
AcDbLine
 10
0.3789444592279549
 20
7.722464992959203
 30
0.0
 11
0.4012485930862218
 21
7.725089008707236
 31
0.0
  0
LINE
  5
2D39
330
1E
100
AcDbEntity
  8
0
100
AcDbLine
 10
0.4012485930862218
 20
7.725089008707236
 30
0.0
 11
2.996400167889372
 21
7.725089008707236
 31
0.0
  0
LINE
  5
2D3A
330
1E
100
AcDbEntity
  8
0
100
AcDbLine
 10
2.996400167889372
 20
7.725089008707236
 30
0.0
 11
3.017392293873624
 21
7.722464992959203
 31
0.0
  0
LINE
  5
2D3B
330
1E
100
AcDbEntity
  8
0
100
AcDbLine
 10
3.073808632456301
 20
7.667360662250542
 30
0.0
 11
3.076432648204332
 21
7.64636853626629
 31
0.0
  0
LINE
  5
2D3C
330
1E
100
AcDbEntity
  8
0
100
AcDbLine
 10
2.110794852928742
 20
3.94388231579385
 30
0.0
 11
2.164587175763387
 21
3.94388231579385
 31
0.0
  0
LINE
  5
2D3D
330
1E
100
AcDbEntity
  8
0
100
AcDbLine
 10
2.164587175763387
 20
3.94388231579385
 30
0.0
 11
2.164587175763387
 21
3.934698260675739
 31
0.0
  0
LINE
  5
2D3E
330
1E
100
AcDbEntity
  8
0
100
AcDbLine
 10
2.164587175763387
 20
3.731337040203297
 30
0.0
 11
2.164587175763387
 21
3.722152985085187
 31
0.0
  0
LINE
  5
2D3F
330
1E
100
AcDbEntity
  8
0
100
AcDbLine
 10
2.110794852928742
 20
3.722152985085187
 30
0.0
 11
2.164587175763387
 21
3.722152985085187
 31
0.0
  0
POLYLINE
  5
2D40
330
1E
100
AcDbEntity
  8
0
100
AcDb2dPolyline
 66
     1
 10
0.0
 20
0.0
 30
0.0
  0
VERTEX
  5
358E
330
2D40
100
AcDbEntity
  8
0
100
AcDbVertex
100
AcDb2dVertex
 10
2.110794852928742
 20
3.722152985085187
 30
0.0
  0
VERTEX
  5
358F
330
2D40
100
AcDbEntity
  8
0
100
AcDbVertex
100
AcDb2dVertex
 10
2.104234813558663
 20
3.726089008707234
 30
0.0
  0
VERTEX
  5
3590
330
2D40
100
AcDbEntity
  8
0
100
AcDbVertex
100
AcDb2dVertex
 10
2.100298789936616
 20
3.732649048077314
 30
0.0
  0
SEQEND
  5
3591
330
2D40
100
AcDbEntity
  8
0
  0
LINE
  5
2D45
330
1E
100
AcDbEntity
  8
0
100
AcDbLine
 10
2.100298789936616
 20
3.933386252801722
 30
0.0
 11
2.100298789936616
 21
3.732649048077314
 31
0.0
  0
POLYLINE
  5
2D46
330
1E
100
AcDbEntity
  8
0
100
AcDb2dPolyline
 66
     1
 10
0.0
 20
0.0
 30
0.0
  0
VERTEX
  5
3592
330
2D46
100
AcDbEntity
  8
0
100
AcDbVertex
100
AcDb2dVertex
 10
2.100298789936616
 20
3.933386252801723
 30
0.0
  0
VERTEX
  5
3593
330
2D46
100
AcDbEntity
  8
0
100
AcDbVertex
100
AcDb2dVertex
 10
2.104234813558663
 20
3.941258300045817
 30
0.0
  0
VERTEX
  5
3594
330
2D46
100
AcDbEntity
  8
0
100
AcDbVertex
100
AcDb2dVertex
 10
2.110794852928742
 20
3.94388231579385
 30
0.0
  0
SEQEND
  5
3595
330
2D46
100
AcDbEntity
  8
0
  0
LINE
  5
2D4B
330
1E
100
AcDbEntity
  8
0
100
AcDbLine
 10
1.286853908046851
 20
3.722152985085187
 30
0.0
 11
1.231749577338191
 21
3.722152985085187
 31
0.0
  0
LINE
  5
2D4C
330
1E
100
AcDbEntity
  8
0
100
AcDbLine
 10
1.231749577338191
 20
3.94388231579385
 30
0.0
 11
1.231749577338191
 21
3.934698260675739
 31
0.0
  0
LINE
  5
2D4D
330
1E
100
AcDbEntity
  8
0
100
AcDbLine
 10
1.231749577338191
 20
3.731337040203297
 30
0.0
 11
1.231749577338191
 21
3.722152985085187
 31
0.0
  0
LINE
  5
2D4E
330
1E
100
AcDbEntity
  8
0
100
AcDbLine
 10
1.286853908046851
 20
3.94388231579385
 30
0.0
 11
1.231749577338191
 21
3.94388231579385
 31
0.0
  0
POLYLINE
  5
2D4F
330
1E
100
AcDbEntity
  8
0
100
AcDb2dPolyline
 66
     1
 10
0.0
 20
0.0
 30
0.0
  0
VERTEX
  5
3596
330
2D4F
100
AcDbEntity
  8
0
100
AcDbVertex
100
AcDb2dVertex
 10
1.296037963164962
 20
3.933386252801723
 30
0.0
  0
VERTEX
  5
3597
330
2D4F
100
AcDbEntity
  8
0
100
AcDbVertex
100
AcDb2dVertex
 10
1.293413947416931
 20
3.941258300045817
 30
0.0
  0
VERTEX
  5
3598
330
2D4F
100
AcDbEntity
  8
0
100
AcDbVertex
100
AcDb2dVertex
 10
1.286853908046851
 20
3.94388231579385
 30
0.0
  0
SEQEND
  5
3599
330
2D4F
100
AcDbEntity
  8
0
  0
LINE
  5
2D54
330
1E
100
AcDbEntity
  8
0
100
AcDbLine
 10
1.296037963164963
 20
3.933386252801722
 30
0.0
 11
1.296037963164963
 21
3.732649048077314
 31
0.0
  0
POLYLINE
  5
2D55
330
1E
100
AcDbEntity
  8
0
100
AcDb2dPolyline
 66
     1
 10
0.0
 20
0.0
 30
0.0
  0
VERTEX
  5
359A
330
2D55
100
AcDbEntity
  8
0
100
AcDbVertex
100
AcDb2dVertex
 10
1.286853908046851
 20
3.722152985085187
 30
0.0
  0
VERTEX
  5
359B
330
2D55
100
AcDbEntity
  8
0
100
AcDbVertex
100
AcDb2dVertex
 10
1.293413947416931
 20
3.726089008707234
 30
0.0
  0
VERTEX
  5
359C
330
2D55
100
AcDbEntity
  8
0
100
AcDbVertex
100
AcDb2dVertex
 10
1.296037963164962
 20
3.732649048077314
 30
0.0
  0
SEQEND
  5
359D
330
2D55
100
AcDbEntity
  8
0
  0
LINE
  5
2D5A
330
1E
100
AcDbEntity
  8
0
100
AcDbLine
 10
1.286853908046851
 20
7.002172670124558
 30
0.0
 11
1.231749577338191
 21
7.002172670124558
 31
0.0
  0
LINE
  5
2D5B
330
1E
100
AcDbEntity
  8
0
100
AcDbLine
 10
1.231749577338191
 20
7.002172670124558
 30
0.0
 11
1.231749577338191
 21
7.012668733116684
 31
0.0
  0
LINE
  5
2D5C
330
1E
100
AcDbEntity
  8
0
100
AcDbLine
 10
1.231749577338191
 20
7.21471794571511
 30
0.0
 11
1.231749577338191
 21
7.223902000833218
 31
0.0
  0
LINE
  5
2D5D
330
1E
100
AcDbEntity
  8
0
100
AcDbLine
 10
1.286853908046851
 20
7.223902000833218
 30
0.0
 11
1.231749577338191
 21
7.223902000833218
 31
0.0
  0
POLYLINE
  5
2D5E
330
1E
100
AcDbEntity
  8
0
100
AcDb2dPolyline
 66
     1
 10
0.0
 20
0.0
 30
0.0
  0
VERTEX
  5
359E
330
2D5E
100
AcDbEntity
  8
0
100
AcDbVertex
100
AcDb2dVertex
 10
1.286853908046851
 20
7.223902000833219
 30
0.0
  0
VERTEX
  5
359F
330
2D5E
100
AcDbEntity
  8
0
100
AcDbVertex
100
AcDb2dVertex
 10
1.293413947416931
 20
7.221277985085188
 30
0.0
  0
VERTEX
  5
35A0
330
2D5E
100
AcDbEntity
  8
0
100
AcDbVertex
100
AcDb2dVertex
 10
1.296037963164962
 20
7.213405937841092
 30
0.0
  0
SEQEND
  5
35A1
330
2D5E
100
AcDbEntity
  8
0
  0
LINE
  5
2D63
330
1E
100
AcDbEntity
  8
0
100
AcDbLine
 10
1.296037963164963
 20
7.012668733116684
 30
0.0
 11
1.296037963164963
 21
7.213405937841093
 31
0.0
  0
POLYLINE
  5
2D64
330
1E
100
AcDbEntity
  8
0
100
AcDb2dPolyline
 66
     1
 10
0.0
 20
0.0
 30
0.0
  0
VERTEX
  5
35A2
330
2D64
100
AcDbEntity
  8
0
100
AcDbVertex
100
AcDb2dVertex
 10
1.296037963164962
 20
7.012668733116684
 30
0.0
  0
VERTEX
  5
35A3
330
2D64
100
AcDbEntity
  8
0
100
AcDbVertex
100
AcDb2dVertex
 10
1.293413947416931
 20
7.006108693746607
 30
0.0
  0
VERTEX
  5
35A4
330
2D64
100
AcDbEntity
  8
0
100
AcDbVertex
100
AcDb2dVertex
 10
1.286853908046851
 20
7.002172670124559
 30
0.0
  0
SEQEND
  5
35A5
330
2D64
100
AcDbEntity
  8
0
  0
LINE
  5
2D69
330
1E
100
AcDbEntity
  8
0
100
AcDbLine
 10
2.110794852928742
 20
7.223902000833218
 30
0.0
 11
2.164587175763387
 21
7.223902000833218
 31
0.0
  0
LINE
  5
2D6A
330
1E
100
AcDbEntity
  8
0
100
AcDbLine
 10
2.164587175763387
 20
7.002172670124558
 30
0.0
 11
2.164587175763387
 21
7.012668733116684
 31
0.0
  0
LINE
  5
2D6B
330
1E
100
AcDbEntity
  8
0
100
AcDbLine
 10
2.164587175763387
 20
7.21471794571511
 30
0.0
 11
2.164587175763387
 21
7.223902000833218
 31
0.0
  0
LINE
  5
2D6C
330
1E
100
AcDbEntity
  8
0
100
AcDbLine
 10
2.110794852928742
 20
7.002172670124558
 30
0.0
 11
2.164587175763387
 21
7.002172670124558
 31
0.0
  0
POLYLINE
  5
2D6D
330
1E
100
AcDbEntity
  8
0
100
AcDb2dPolyline
 66
     1
 10
0.0
 20
0.0
 30
0.0
  0
VERTEX
  5
35A6
330
2D6D
100
AcDbEntity
  8
0
100
AcDbVertex
100
AcDb2dVertex
 10
2.100298789936616
 20
7.012668733116684
 30
0.0
  0
VERTEX
  5
35A7
330
2D6D
100
AcDbEntity
  8
0
100
AcDbVertex
100
AcDb2dVertex
 10
2.104234813558663
 20
7.006108693746607
 30
0.0
  0
VERTEX
  5
35A8
330
2D6D
100
AcDbEntity
  8
0
100
AcDbVertex
100
AcDb2dVertex
 10
2.110794852928742
 20
7.002172670124559
 30
0.0
  0
SEQEND
  5
35A9
330
2D6D
100
AcDbEntity
  8
0
  0
LINE
  5
2D72
330
1E
100
AcDbEntity
  8
0
100
AcDbLine
 10
2.100298789936616
 20
7.012668733116684
 30
0.0
 11
2.100298789936616
 21
7.213405937841093
 31
0.0
  0
POLYLINE
  5
2D73
330
1E
100
AcDbEntity
  8
0
100
AcDb2dPolyline
 66
     1
 10
0.0
 20
0.0
 30
0.0
  0
VERTEX
  5
35AA
330
2D73
100
AcDbEntity
  8
0
100
AcDbVertex
100
AcDb2dVertex
 10
2.110794852928742
 20
7.223902000833219
 30
0.0
  0
VERTEX
  5
35AB
330
2D73
100
AcDbEntity
  8
0
100
AcDbVertex
100
AcDb2dVertex
 10
2.104234813558663
 20
7.221277985085188
 30
0.0
  0
VERTEX
  5
35AC
330
2D73
100
AcDbEntity
  8
0
100
AcDbVertex
100
AcDb2dVertex
 10
2.100298789936616
 20
7.213405937841092
 30
0.0
  0
SEQEND
  5
35AD
330
2D73
100
AcDbEntity
  8
0
  0
LINE
  5
2D78
330
1E
100
AcDbEntity
  8
0
100
AcDbLine
 10
2.270859813558663
 20
4.283692355163928
 30
0.0
 11
2.261675758440553
 21
4.283692355163928
 31
0.0
  0
LINE
  5
2D79
330
1E
100
AcDbEntity
  8
0
100
AcDbLine
 10
2.261675758440553
 20
4.273196292171801
 30
0.0
 11
2.261675758440553
 21
4.283692355163928
 31
0.0
  0
LINE
  5
2D7A
330
1E
100
AcDbEntity
  8
0
100
AcDbLine
 10
1.770984813558663
 20
4.283692355163928
 30
0.0
 11
1.770984813558663
 21
4.273196292171801
 31
0.0
  0
LINE
  5
2D7B
330
1E
100
AcDbEntity
  8
0
100
AcDbLine
 10
1.770984813558663
 20
4.283692355163928
 30
0.0
 11
1.760488750566537
 21
4.283692355163928
 31
0.0
  0
LINE
  5
2D7C
330
1E
100
AcDbEntity
  8
0
100
AcDbLine
 10
1.63584800253504
 20
4.283692355163928
 30
0.0
 11
1.626663947416931
 21
4.283692355163928
 31
0.0
  0
LINE
  5
2D7D
330
1E
100
AcDbEntity
  8
0
100
AcDbLine
 10
1.626663947416931
 20
4.273196292171801
 30
0.0
 11
1.626663947416931
 21
4.283692355163928
 31
0.0
  0
LINE
  5
2D7E
330
1E
100
AcDbEntity
  8
0
100
AcDbLine
 10
1.135973002535041
 20
4.283692355163928
 30
0.0
 11
1.135973002535041
 21
4.273196292171801
 31
0.0
  0
LINE
  5
2D7F
330
1E
100
AcDbEntity
  8
0
100
AcDbLine
 10
1.135973002535041
 20
4.283692355163928
 30
0.0
 11
1.125476939542915
 21
4.283692355163928
 31
0.0
  0
LINE
  5
2D80
330
1E
100
AcDbEntity
  8
0
100
AcDbLine
 10
1.011332254503544
 20
5.055152985085188
 30
0.0
 11
2.386316506472049
 21
5.055152985085188
 31
0.0
  0
POLYLINE
  5
2D81
330
1E
100
AcDbEntity
  8
0
100
AcDb2dPolyline
 66
     1
 10
0.0
 20
0.0
 30
0.0
  0
VERTEX
  5
35AE
330
2D81
100
AcDbEntity
  8
0
100
AcDbVertex
100
AcDb2dVertex
 10
1.011332254503545
 20
5.055152985085188
 30
0.0
  0
VERTEX
  5
35AF
330
2D81
100
AcDbEntity
  8
0
100
AcDbVertex
100
AcDb2dVertex
 10
0.996900167889372
 20
5.059089008707235
 30
0.0
  0
VERTEX
  5
35B0
330
2D81
100
AcDbEntity
  8
0
100
AcDbVertex
100
AcDb2dVertex
 10
0.98509209702323
 20
5.069585071699362
 30
0.0
  0
VERTEX
  5
35B1
330
2D81
100
AcDbEntity
  8
0
100
AcDbVertex
100
AcDb2dVertex
 10
0.981156073401183
 20
5.084017158313534
 30
0.0
  0
SEQEND
  5
35B2
330
2D81
100
AcDbEntity
  8
0
  0
LINE
  5
2D87
330
1E
100
AcDbEntity
  8
0
100
AcDbLine
 10
0.9811560734011832
 20
5.084017158313534
 30
0.0
 11
0.9811560734011832
 21
5.326738615006448
 31
0.0
  0
POLYLINE
  5
2D88
330
1E
100
AcDbEntity
  8
0
100
AcDb2dPolyline
 66
     1
 10
0.0
 20
0.0
 30
0.0
  0
VERTEX
  5
35B3
330
2D88
100
AcDbEntity
  8
0
100
AcDbVertex
100
AcDb2dVertex
 10
0.981156073401183
 20
5.326738615006448
 30
0.0
  0
VERTEX
  5
35B4
330
2D88
100
AcDbEntity
  8
0
100
AcDbVertex
100
AcDb2dVertex
 10
0.98509209702323
 20
5.341170701620621
 30
0.0
  0
VERTEX
  5
35B5
330
2D88
100
AcDbEntity
  8
0
100
AcDbVertex
100
AcDb2dVertex
 10
0.996900167889372
 20
5.352978772486762
 30
0.0
  0
VERTEX
  5
35B6
330
2D88
100
AcDbEntity
  8
0
100
AcDbVertex
100
AcDb2dVertex
 10
1.011332254503545
 20
5.35691479610881
 30
0.0
  0
SEQEND
  5
35B7
330
2D88
100
AcDbEntity
  8
0
  0
LINE
  5
2D8E
330
1E
100
AcDbEntity
  8
0
100
AcDbLine
 10
1.011332254503544
 20
5.35691479610881
 30
0.0
 11
2.386316506472049
 21
5.35691479610881
 31
0.0
  0
POLYLINE
  5
2D8F
330
1E
100
AcDbEntity
  8
0
100
AcDb2dPolyline
 66
     1
 10
0.0
 20
0.0
 30
0.0
  0
VERTEX
  5
35B8
330
2D8F
100
AcDbEntity
  8
0
100
AcDbVertex
100
AcDb2dVertex
 10
2.386316506472049
 20
5.35691479610881
 30
0.0
  0
VERTEX
  5
35B9
330
2D8F
100
AcDbEntity
  8
0
100
AcDbVertex
100
AcDb2dVertex
 10
2.400748593086222
 20
5.352978772486762
 30
0.0
  0
VERTEX
  5
35BA
330
2D8F
100
AcDbEntity
  8
0
100
AcDbVertex
100
AcDb2dVertex
 10
2.412556663952364
 20
5.341170701620621
 30
0.0
  0
VERTEX
  5
35BB
330
2D8F
100
AcDbEntity
  8
0
100
AcDbVertex
100
AcDb2dVertex
 10
2.416492687574411
 20
5.326738615006448
 30
0.0
  0
SEQEND
  5
35BC
330
2D8F
100
AcDbEntity
  8
0
  0
LINE
  5
2D95
330
1E
100
AcDbEntity
  8
0
100
AcDbLine
 10
2.416492687574411
 20
5.084017158313534
 30
0.0
 11
2.416492687574411
 21
5.326738615006448
 31
0.0
  0
POLYLINE
  5
2D96
330
1E
100
AcDbEntity
  8
0
100
AcDb2dPolyline
 66
     1
 10
0.0
 20
0.0
 30
0.0
  0
VERTEX
  5
35BD
330
2D96
100
AcDbEntity
  8
0
100
AcDbVertex
100
AcDb2dVertex
 10
2.416492687574411
 20
5.084017158313534
 30
0.0
  0
VERTEX
  5
35BE
330
2D96
100
AcDbEntity
  8
0
100
AcDbVertex
100
AcDb2dVertex
 10
2.412556663952364
 20
5.069585071699362
 30
0.0
  0
VERTEX
  5
35BF
330
2D96
100
AcDbEntity
  8
0
100
AcDbVertex
100
AcDb2dVertex
 10
2.400748593086222
 20
5.059089008707235
 30
0.0
  0
VERTEX
  5
35C0
330
2D96
100
AcDbEntity
  8
0
100
AcDbVertex
100
AcDb2dVertex
 10
2.386316506472049
 20
5.055152985085188
 30
0.0
  0
SEQEND
  5
35C1
330
2D96
100
AcDbEntity
  8
0
  0
LINE
  5
2D9C
330
1E
100
AcDbEntity
  8
0
100
AcDbLine
 10
2.270859813558663
 20
5.656052591384399
 30
0.0
 11
2.261675758440553
 21
5.656052591384399
 31
0.0
  0
LINE
  5
2D9D
330
1E
100
AcDbEntity
  8
0
100
AcDbLine
 10
2.261675758440553
 20
5.645556528392273
 30
0.0
 11
2.261675758440553
 21
5.656052591384399
 31
0.0
  0
LINE
  5
2D9E
330
1E
100
AcDbEntity
  8
0
100
AcDbLine
 10
1.770984813558663
 20
5.656052591384399
 30
0.0
 11
1.770984813558663
 21
5.645556528392273
 31
0.0
  0
LINE
  5
2D9F
330
1E
100
AcDbEntity
  8
0
100
AcDbLine
 10
1.770984813558663
 20
5.656052591384399
 30
0.0
 11
1.760488750566537
 21
5.656052591384399
 31
0.0
  0
LINE
  5
2DA0
330
1E
100
AcDbEntity
  8
0
100
AcDbLine
 10
1.63584800253504
 20
5.656052591384399
 30
0.0
 11
1.626663947416931
 21
5.656052591384399
 31
0.0
  0
LINE
  5
2DA1
330
1E
100
AcDbEntity
  8
0
100
AcDbLine
 10
1.626663947416931
 20
5.645556528392273
 30
0.0
 11
1.626663947416931
 21
5.656052591384399
 31
0.0
  0
LINE
  5
2DA2
330
1E
100
AcDbEntity
  8
0
100
AcDbLine
 10
1.135973002535041
 20
5.656052591384399
 30
0.0
 11
1.135973002535041
 21
5.645556528392273
 31
0.0
  0
LINE
  5
2DA3
330
1E
100
AcDbEntity
  8
0
100
AcDbLine
 10
1.135973002535041
 20
5.656052591384399
 30
0.0
 11
1.125476939542915
 21
5.656052591384399
 31
0.0
  0
LINE
  5
2DA4
330
1E
100
AcDbEntity
  8
0
100
AcDbLine
 10
1.011332254503544
 20
6.426201213431644
 30
0.0
 11
2.386316506472049
 21
6.426201213431644
 31
0.0
  0
POLYLINE
  5
2DA5
330
1E
100
AcDbEntity
  8
0
100
AcDb2dPolyline
 66
     1
 10
0.0
 20
0.0
 30
0.0
  0
VERTEX
  5
35C2
330
2DA5
100
AcDbEntity
  8
0
100
AcDbVertex
100
AcDb2dVertex
 10
1.011332254503545
 20
6.426201213431645
 30
0.0
  0
VERTEX
  5
35C3
330
2DA5
100
AcDbEntity
  8
0
100
AcDbVertex
100
AcDb2dVertex
 10
0.996900167889372
 20
6.431449244927708
 30
0.0
  0
VERTEX
  5
35C4
330
2DA5
100
AcDbEntity
  8
0
100
AcDbVertex
100
AcDb2dVertex
 10
0.98509209702323
 20
6.441945307919833
 30
0.0
  0
VERTEX
  5
35C5
330
2DA5
100
AcDbEntity
  8
0
100
AcDbVertex
100
AcDb2dVertex
 10
0.981156073401183
 20
6.456377394534007
 30
0.0
  0
SEQEND
  5
35C6
330
2DA5
100
AcDbEntity
  8
0
  0
LINE
  5
2DAB
330
1E
100
AcDbEntity
  8
0
100
AcDbLine
 10
0.9811560734011832
 20
6.456377394534007
 30
0.0
 11
0.9811560734011832
 21
6.699098851226921
 31
0.0
  0
POLYLINE
  5
2DAC
330
1E
100
AcDbEntity
  8
0
100
AcDb2dPolyline
 66
     1
 10
0.0
 20
0.0
 30
0.0
  0
VERTEX
  5
35C7
330
2DAC
100
AcDbEntity
  8
0
100
AcDbVertex
100
AcDb2dVertex
 10
0.981156073401183
 20
6.69909885122692
 30
0.0
  0
VERTEX
  5
35C8
330
2DAC
100
AcDbEntity
  8
0
100
AcDbVertex
100
AcDb2dVertex
 10
0.98509209702323
 20
6.713530937841093
 30
0.0
  0
VERTEX
  5
35C9
330
2DAC
100
AcDbEntity
  8
0
100
AcDbVertex
100
AcDb2dVertex
 10
0.996900167889372
 20
6.725339008707236
 30
0.0
  0
VERTEX
  5
35CA
330
2DAC
100
AcDbEntity
  8
0
100
AcDbVertex
100
AcDb2dVertex
 10
1.011332254503545
 20
6.729275032329282
 30
0.0
  0
SEQEND
  5
35CB
330
2DAC
100
AcDbEntity
  8
0
  0
LINE
  5
2DB2
330
1E
100
AcDbEntity
  8
0
100
AcDbLine
 10
1.011332254503544
 20
6.729275032329281
 30
0.0
 11
2.386316506472049
 21
6.729275032329281
 31
0.0
  0
POLYLINE
  5
2DB3
330
1E
100
AcDbEntity
  8
0
100
AcDb2dPolyline
 66
     1
 10
0.0
 20
0.0
 30
0.0
  0
VERTEX
  5
35CC
330
2DB3
100
AcDbEntity
  8
0
100
AcDbVertex
100
AcDb2dVertex
 10
2.386316506472049
 20
6.729275032329282
 30
0.0
  0
VERTEX
  5
35CD
330
2DB3
100
AcDbEntity
  8
0
100
AcDbVertex
100
AcDb2dVertex
 10
2.400748593086222
 20
6.725339008707236
 30
0.0
  0
VERTEX
  5
35CE
330
2DB3
100
AcDbEntity
  8
0
100
AcDbVertex
100
AcDb2dVertex
 10
2.412556663952364
 20
6.713530937841093
 30
0.0
  0
VERTEX
  5
35CF
330
2DB3
100
AcDbEntity
  8
0
100
AcDbVertex
100
AcDb2dVertex
 10
2.416492687574411
 20
6.69909885122692
 30
0.0
  0
SEQEND
  5
35D0
330
2DB3
100
AcDbEntity
  8
0
  0
LINE
  5
2DB9
330
1E
100
AcDbEntity
  8
0
100
AcDbLine
 10
2.416492687574411
 20
6.456377394534007
 30
0.0
 11
2.416492687574411
 21
6.699098851226921
 31
0.0
  0
POLYLINE
  5
2DBA
330
1E
100
AcDbEntity
  8
0
100
AcDb2dPolyline
 66
     1
 10
0.0
 20
0.0
 30
0.0
  0
VERTEX
  5
35D1
330
2DBA
100
AcDbEntity
  8
0
100
AcDbVertex
100
AcDb2dVertex
 10
2.416492687574411
 20
6.456377394534007
 30
0.0
  0
VERTEX
  5
35D2
330
2DBA
100
AcDbEntity
  8
0
100
AcDbVertex
100
AcDb2dVertex
 10
2.412556663952364
 20
6.441945307919833
 30
0.0
  0
VERTEX
  5
35D3
330
2DBA
100
AcDbEntity
  8
0
100
AcDbVertex
100
AcDb2dVertex
 10
2.400748593086222
 20
6.431449244927708
 30
0.0
  0
VERTEX
  5
35D4
330
2DBA
100
AcDbEntity
  8
0
100
AcDbVertex
100
AcDb2dVertex
 10
2.386316506472049
 20
6.426201213431645
 30
0.0
  0
SEQEND
  5
35D5
330
2DBA
100
AcDbEntity
  8
0
  0
POLYLINE
  5
2DC0
330
1E
100
AcDbEntity
  8
0
100
AcDb2dPolyline
 66
     1
 10
0.0
 20
0.0
 30
0.0
  0
VERTEX
  5
35D6
330
2DC0
100
AcDbEntity
  8
0
100
AcDbVertex
100
AcDb2dVertex
 10
1.328838160015356
 20
3.682792748864716
 30
0.0
  0
VERTEX
  5
35D7
330
2DC0
100
AcDbEntity
  8
0
100
AcDbVertex
100
AcDb2dVertex
 10
1.314406073401183
 20
3.686728772486763
 30
0.0
  0
VERTEX
  5
35D8
330
2DC0
100
AcDbEntity
  8
0
100
AcDbVertex
100
AcDb2dVertex
 10
1.30259800253504
 20
3.697224835478888
 30
0.0
  0
VERTEX
  5
35D9
330
2DC0
100
AcDbEntity
  8
0
100
AcDbVertex
100
AcDb2dVertex
 10
1.298661978912994
 20
3.711656922093061
 30
0.0
  0
SEQEND
  5
35DA
330
2DC0
100
AcDbEntity
  8
0
  0
LINE
  5
2DC6
330
1E
100
AcDbEntity
  8
0
100
AcDbLine
 10
1.298661978912994
 20
3.954378378785975
 30
0.0
 11
1.298661978912994
 21
3.711656922093061
 31
0.0
  0
POLYLINE
  5
2DC7
330
1E
100
AcDbEntity
  8
0
100
AcDb2dPolyline
 66
     1
 10
0.0
 20
0.0
 30
0.0
  0
VERTEX
  5
35DB
330
2DC7
100
AcDbEntity
  8
0
100
AcDbVertex
100
AcDb2dVertex
 10
1.298661978912994
 20
3.954378378785976
 30
0.0
  0
VERTEX
  5
35DC
330
2DC7
100
AcDbEntity
  8
0
100
AcDbVertex
100
AcDb2dVertex
 10
1.30259800253504
 20
3.968810465400148
 30
0.0
  0
VERTEX
  5
35DD
330
2DC7
100
AcDbEntity
  8
0
100
AcDbVertex
100
AcDb2dVertex
 10
1.314406073401183
 20
3.98061853626629
 30
0.0
  0
VERTEX
  5
35DE
330
2DC7
100
AcDbEntity
  8
0
100
AcDbVertex
100
AcDb2dVertex
 10
1.328838160015356
 20
3.984554559888337
 30
0.0
  0
SEQEND
  5
35DF
330
2DC7
100
AcDbEntity
  8
0
  0
LINE
  5
2DCD
330
1E
100
AcDbEntity
  8
0
100
AcDbLine
 10
1.328838160015355
 20
3.984554559888337
 30
0.0
 11
1.63584800253504
 21
3.984554559888337
 31
0.0
  0
LINE
  5
2DCE
330
1E
100
AcDbEntity
  8
0
100
AcDbLine
 10
1.63584800253504
 20
3.984554559888337
 30
0.0
 11
1.63584800253504
 21
4.006858693746605
 31
0.0
  0
LINE
  5
2DCF
330
1E
100
AcDbEntity
  8
0
100
AcDbLine
 10
1.761800758440553
 20
4.006858693746605
 30
0.0
 11
1.753928711196459
 21
4.006858693746605
 31
0.0
  0
LINE
  5
2DD0
330
1E
100
AcDbEntity
  8
0
100
AcDbLine
 10
1.643720049779135
 20
4.006858693746605
 30
0.0
 11
1.63584800253504
 21
4.006858693746605
 31
0.0
  0
LINE
  5
2DD1
330
1E
100
AcDbEntity
  8
0
100
AcDbLine
 10
1.761800758440553
 20
4.006858693746605
 30
0.0
 11
1.761800758440553
 21
3.984554559888337
 31
0.0
  0
LINE
  5
2DD2
330
1E
100
AcDbEntity
  8
0
100
AcDbLine
 10
1.761800758440553
 20
3.984554559888337
 30
0.0
 11
2.068810600960238
 21
3.984554559888337
 31
0.0
  0
POLYLINE
  5
2DD3
330
1E
100
AcDbEntity
  8
0
100
AcDb2dPolyline
 66
     1
 10
0.0
 20
0.0
 30
0.0
  0
VERTEX
  5
35E0
330
2DD3
100
AcDbEntity
  8
0
100
AcDbVertex
100
AcDb2dVertex
 10
2.0989867820626
 20
3.954378378785976
 30
0.0
  0
VERTEX
  5
35E1
330
2DD3
100
AcDbEntity
  8
0
100
AcDbVertex
100
AcDb2dVertex
 10
2.095050758440552
 20
3.968810465400148
 30
0.0
  0
VERTEX
  5
35E2
330
2DD3
100
AcDbEntity
  8
0
100
AcDbVertex
100
AcDb2dVertex
 10
2.083242687574411
 20
3.98061853626629
 30
0.0
  0
VERTEX
  5
35E3
330
2DD3
100
AcDbEntity
  8
0
100
AcDbVertex
100
AcDb2dVertex
 10
2.068810600960238
 20
3.984554559888337
 30
0.0
  0
SEQEND
  5
35E4
330
2DD3
100
AcDbEntity
  8
0
  0
LINE
  5
2DD9
330
1E
100
AcDbEntity
  8
0
100
AcDbLine
 10
2.0989867820626
 20
3.954378378785975
 30
0.0
 11
2.0989867820626
 21
3.711656922093061
 31
0.0
  0
POLYLINE
  5
2DDA
330
1E
100
AcDbEntity
  8
0
100
AcDb2dPolyline
 66
     1
 10
0.0
 20
0.0
 30
0.0
  0
VERTEX
  5
35E5
330
2DDA
100
AcDbEntity
  8
0
100
AcDbVertex
100
AcDb2dVertex
 10
2.068810600960238
 20
3.682792748864716
 30
0.0
  0
VERTEX
  5
35E6
330
2DDA
100
AcDbEntity
  8
0
100
AcDbVertex
100
AcDb2dVertex
 10
2.083242687574411
 20
3.686728772486763
 30
0.0
  0
VERTEX
  5
35E7
330
2DDA
100
AcDbEntity
  8
0
100
AcDbVertex
100
AcDb2dVertex
 10
2.095050758440552
 20
3.697224835478888
 30
0.0
  0
VERTEX
  5
35E8
330
2DDA
100
AcDbEntity
  8
0
100
AcDbVertex
100
AcDb2dVertex
 10
2.0989867820626
 20
3.711656922093061
 30
0.0
  0
SEQEND
  5
35E9
330
2DDA
100
AcDbEntity
  8
0
  0
LINE
  5
2DE0
330
1E
100
AcDbEntity
  8
0
100
AcDbLine
 10
1.328838160015355
 20
3.682792748864715
 30
0.0
 11
2.068810600960238
 21
3.682792748864715
 31
0.0
  0
POLYLINE
  5
2DE1
330
1E
100
AcDbEntity
  8
0
100
AcDb2dPolyline
 66
     1
 10
0.0
 20
0.0
 30
0.0
  0
VERTEX
  5
35EA
330
2DE1
100
AcDbEntity
  8
0
100
AcDbVertex
100
AcDb2dVertex
 10
1.328838160015356
 20
7.264574244927707
 30
0.0
  0
VERTEX
  5
35EB
330
2DE1
100
AcDbEntity
  8
0
100
AcDbVertex
100
AcDb2dVertex
 10
1.314406073401183
 20
7.260638221305661
 30
0.0
  0
VERTEX
  5
35EC
330
2DE1
100
AcDbEntity
  8
0
100
AcDbVertex
100
AcDb2dVertex
 10
1.30259800253504
 20
7.248830150439519
 30
0.0
  0
VERTEX
  5
35ED
330
2DE1
100
AcDbEntity
  8
0
100
AcDbVertex
100
AcDb2dVertex
 10
1.298661978912994
 20
7.234398063825344
 30
0.0
  0
SEQEND
  5
35EE
330
2DE1
100
AcDbEntity
  8
0
  0
LINE
  5
2DE7
330
1E
100
AcDbEntity
  8
0
100
AcDbLine
 10
1.328838160015355
 20
7.264574244927707
 30
0.0
 11
2.068810600960238
 21
7.264574244927707
 31
0.0
  0
POLYLINE
  5
2DE8
330
1E
100
AcDbEntity
  8
0
100
AcDb2dPolyline
 66
     1
 10
0.0
 20
0.0
 30
0.0
  0
VERTEX
  5
35EF
330
2DE8
100
AcDbEntity
  8
0
100
AcDbVertex
100
AcDb2dVertex
 10
2.068810600960238
 20
7.264574244927707
 30
0.0
  0
VERTEX
  5
35F0
330
2DE8
100
AcDbEntity
  8
0
100
AcDbVertex
100
AcDb2dVertex
 10
2.083242687574411
 20
7.260638221305661
 30
0.0
  0
VERTEX
  5
35F1
330
2DE8
100
AcDbEntity
  8
0
100
AcDbVertex
100
AcDb2dVertex
 10
2.095050758440552
 20
7.248830150439519
 30
0.0
  0
VERTEX
  5
35F2
330
2DE8
100
AcDbEntity
  8
0
100
AcDbVertex
100
AcDb2dVertex
 10
2.0989867820626
 20
7.234398063825344
 30
0.0
  0
SEQEND
  5
35F3
330
2DE8
100
AcDbEntity
  8
0
  0
LINE
  5
2DEE
330
1E
100
AcDbEntity
  8
0
100
AcDbLine
 10
2.0989867820626
 20
6.992988615006447
 30
0.0
 11
2.0989867820626
 21
7.234398063825345
 31
0.0
  0
POLYLINE
  5
2DEF
330
1E
100
AcDbEntity
  8
0
100
AcDb2dPolyline
 66
     1
 10
0.0
 20
0.0
 30
0.0
  0
VERTEX
  5
35F4
330
2DEF
100
AcDbEntity
  8
0
100
AcDbVertex
100
AcDb2dVertex
 10
2.0989867820626
 20
6.992988615006448
 30
0.0
  0
VERTEX
  5
35F5
330
2DEF
100
AcDbEntity
  8
0
100
AcDbVertex
100
AcDb2dVertex
 10
2.095050758440552
 20
6.977244520518259
 30
0.0
  0
VERTEX
  5
35F6
330
2DEF
100
AcDbEntity
  8
0
100
AcDbVertex
100
AcDb2dVertex
 10
2.083242687574411
 20
6.966748457526132
 30
0.0
  0
VERTEX
  5
35F7
330
2DEF
100
AcDbEntity
  8
0
100
AcDbVertex
100
AcDb2dVertex
 10
2.068810600960238
 20
6.962812433904086
 30
0.0
  0
SEQEND
  5
35F8
330
2DEF
100
AcDbEntity
  8
0
  0
LINE
  5
2DF5
330
1E
100
AcDbEntity
  8
0
100
AcDbLine
 10
1.761800758440553
 20
6.962812433904085
 30
0.0
 11
2.068810600960238
 21
6.962812433904085
 31
0.0
  0
LINE
  5
2DF6
330
1E
100
AcDbEntity
  8
0
100
AcDbLine
 10
1.761800758440553
 20
6.940508300045818
 30
0.0
 11
1.761800758440553
 21
6.962812433904085
 31
0.0
  0
LINE
  5
2DF7
330
1E
100
AcDbEntity
  8
0
100
AcDbLine
 10
1.761800758440553
 20
6.940508300045818
 30
0.0
 11
1.753928711196459
 21
6.940508300045818
 31
0.0
  0
LINE
  5
2DF8
330
1E
100
AcDbEntity
  8
0
100
AcDbLine
 10
1.643720049779135
 20
6.940508300045818
 30
0.0
 11
1.63584800253504
 21
6.940508300045818
 31
0.0
  0
LINE
  5
2DF9
330
1E
100
AcDbEntity
  8
0
100
AcDbLine
 10
1.63584800253504
 20
6.962812433904085
 30
0.0
 11
1.63584800253504
 21
6.940508300045818
 31
0.0
  0
LINE
  5
2DFA
330
1E
100
AcDbEntity
  8
0
100
AcDbLine
 10
1.328838160015355
 20
6.962812433904085
 30
0.0
 11
1.63584800253504
 21
6.962812433904085
 31
0.0
  0
POLYLINE
  5
2DFB
330
1E
100
AcDbEntity
  8
0
100
AcDb2dPolyline
 66
     1
 10
0.0
 20
0.0
 30
0.0
  0
VERTEX
  5
35F9
330
2DFB
100
AcDbEntity
  8
0
100
AcDbVertex
100
AcDb2dVertex
 10
1.298661978912994
 20
6.992988615006448
 30
0.0
  0
VERTEX
  5
35FA
330
2DFB
100
AcDbEntity
  8
0
100
AcDbVertex
100
AcDb2dVertex
 10
1.30259800253504
 20
6.977244520518259
 30
0.0
  0
VERTEX
  5
35FB
330
2DFB
100
AcDbEntity
  8
0
100
AcDbVertex
100
AcDb2dVertex
 10
1.314406073401183
 20
6.966748457526132
 30
0.0
  0
VERTEX
  5
35FC
330
2DFB
100
AcDbEntity
  8
0
100
AcDbVertex
100
AcDb2dVertex
 10
1.328838160015356
 20
6.962812433904086
 30
0.0
  0
SEQEND
  5
35FD
330
2DFB
100
AcDbEntity
  8
0
  0
LINE
  5
2E01
330
1E
100
AcDbEntity
  8
0
100
AcDbLine
 10
1.298661978912994
 20
6.992988615006447
 30
0.0
 11
1.298661978912994
 21
7.234398063825345
 31
0.0
  0
LINE
  5
2E02
330
1E
100
AcDbEntity
  8
0
100
AcDbLine
 10
1.928425758440553
 20
6.276632315793849
 30
0.0
 11
2.102922805684647
 21
6.276632315793849
 31
0.0
  0
LINE
  5
2E03
330
1E
100
AcDbEntity
  8
0
100
AcDbLine
 10
2.118666900172836
 20
5.69934885122692
 30
0.0
 11
1.912681663952364
 21
5.69934885122692
 31
0.0
  0
LINE
  5
2E04
330
1E
100
AcDbEntity
  8
0
100
AcDbLine
 10
1.912681663952364
 20
5.69934885122692
 30
0.0
 11
1.912681663952364
 21
5.669172670124558
 31
0.0
  0
LINE
  5
2E05
330
1E
100
AcDbEntity
  8
0
100
AcDbLine
 10
2.118666900172836
 20
5.669172670124558
 30
0.0
 11
1.912681663952364
 21
5.669172670124558
 31
0.0
  0
LINE
  5
2E06
330
1E
100
AcDbEntity
  8
0
100
AcDbLine
 10
2.118666900172836
 20
5.69934885122692
 30
0.0
 11
2.118666900172836
 21
5.669172670124558
 31
0.0
  0
LINE
  5
2E07
330
1E
100
AcDbEntity
  8
0
100
AcDbLine
 10
1.912681663952364
 20
5.663924638628495
 30
0.0
 11
2.118666900172836
 21
5.663924638628495
 31
0.0
  0
LINE
  5
2E08
330
1E
100
AcDbEntity
  8
0
100
AcDbLine
 10
2.118666900172836
 20
5.663924638628495
 30
0.0
 11
2.118666900172836
 21
5.669172670124558
 31
0.0
  0
LINE
  5
2E09
330
1E
100
AcDbEntity
  8
0
100
AcDbLine
 10
1.912681663952364
 20
5.663924638628495
 30
0.0
 11
1.912681663952364
 21
5.669172670124558
 31
0.0
  0
LINE
  5
2E0A
330
1E
100
AcDbEntity
  8
0
100
AcDbLine
 10
2.118666900172836
 20
5.628500426030069
 30
0.0
 11
1.913993671826379
 21
5.628500426030069
 31
0.0
  0
POLYLINE
  5
2E0B
330
1E
100
AcDbEntity
  8
0
100
AcDb2dPolyline
 66
     1
 10
0.0
 20
0.0
 30
0.0
  0
VERTEX
  5
35FE
330
2E0B
100
AcDbEntity
  8
0
100
AcDbVertex
100
AcDb2dVertex
 10
2.118666900172836
 20
5.628500426030069
 30
0.0
  0
VERTEX
  5
35FF
330
2E0B
100
AcDbEntity
  8
0
100
AcDbVertex
100
AcDb2dVertex
 10
2.118666900172836
 20
5.648180544140306
 30
0.0
  0
VERTEX
  5
3600
330
2E0B
100
AcDbEntity
  8
0
100
AcDbVertex
100
AcDb2dVertex
 10
2.118666900172836
 20
5.663924638628495
 30
0.0
  0
SEQEND
  5
3601
330
2E0B
100
AcDbEntity
  8
0
  0
POLYLINE
  5
2E10
330
1E
100
AcDbEntity
  8
0
100
AcDb2dPolyline
 66
     1
 10
0.0
 20
0.0
 30
0.0
  0
VERTEX
  5
3602
330
2E10
100
AcDbEntity
  8
0
100
AcDbVertex
100
AcDb2dVertex
 10
1.913993671826379
 20
5.628500426030069
 30
0.0
  0
VERTEX
  5
3603
330
2E10
100
AcDbEntity
  8
0
100
AcDbVertex
100
AcDb2dVertex
 10
1.913993671826379
 20
5.648180544140306
 30
0.0
  0
VERTEX
  5
3604
330
2E10
100
AcDbEntity
  8
0
100
AcDbVertex
100
AcDb2dVertex
 10
1.912681663952364
 20
5.663924638628495
 30
0.0
  0
SEQEND
  5
3605
330
2E10
100
AcDbEntity
  8
0
  0
LINE
  5
2E15
330
1E
100
AcDbEntity
  8
0
100
AcDbLine
 10
2.118666900172836
 20
5.618004363037943
 30
0.0
 11
1.913993671826379
 21
5.618004363037943
 31
0.0
  0
LINE
  5
2E16
330
1E
100
AcDbEntity
  8
0
100
AcDbLine
 10
2.118666900172836
 20
5.628500426030069
 30
0.0
 11
2.118666900172836
 21
5.618004363037943
 31
0.0
  0
LINE
  5
2E17
330
1E
100
AcDbEntity
  8
0
100
AcDbLine
 10
1.913993671826379
 20
5.628500426030069
 30
0.0
 11
1.913993671826379
 21
5.618004363037943
 31
0.0
  0
LINE
  5
2E18
330
1E
100
AcDbEntity
  8
0
100
AcDbLine
 10
2.261675758440553
 20
5.656052591384399
 30
0.0
 11
2.31809209702323
 21
5.656052591384399
 31
0.0
  0
LINE
  5
2E19
330
1E
100
AcDbEntity
  8
0
100
AcDbLine
 10
1.928425758440553
 20
6.315992552014321
 30
0.0
 11
1.928425758440553
 21
6.276632315793849
 31
0.0
  0
LINE
  5
2E1A
330
1E
100
AcDbEntity
  8
0
100
AcDbLine
 10
2.102922805684647
 20
6.315992552014321
 30
0.0
 11
2.102922805684647
 21
6.276632315793849
 31
0.0
  0
LINE
  5
2E1B
330
1E
100
AcDbEntity
  8
0
100
AcDbLine
 10
1.626663947416931
 20
5.656052591384399
 30
0.0
 11
1.770984813558663
 21
5.656052591384399
 31
0.0
  0
LINE
  5
2E1C
330
1E
100
AcDbEntity
  8
0
100
AcDbLine
 10
1.770984813558663
 20
5.642932512644243
 30
0.0
 11
1.770984813558663
 21
5.656052591384399
 31
0.0
  0
POLYLINE
  5
2E1D
330
1E
100
AcDbEntity
  8
0
100
AcDb2dPolyline
 66
     1
 10
0.0
 20
0.0
 30
0.0
  0
VERTEX
  5
3606
330
2E1D
100
AcDbEntity
  8
0
100
AcDbVertex
100
AcDb2dVertex
 10
1.912681663952364
 20
5.602260268549755
 30
0.0
  0
VERTEX
  5
3607
330
2E1D
100
AcDbEntity
  8
0
100
AcDbVertex
100
AcDb2dVertex
 10
1.913993671826379
 20
5.607508300045818
 30
0.0
  0
VERTEX
  5
3608
330
2E1D
100
AcDbEntity
  8
0
100
AcDbVertex
100
AcDb2dVertex
 10
1.913993671826379
 20
5.618004363037943
 30
0.0
  0
SEQEND
  5
3609
330
2E1D
100
AcDbEntity
  8
0
  0
LINE
  5
2E22
330
1E
100
AcDbEntity
  8
0
100
AcDbLine
 10
1.912681663952364
 20
5.602260268549755
 30
0.0
 11
2.118666900172836
 21
5.602260268549755
 31
0.0
  0
POLYLINE
  5
2E23
330
1E
100
AcDbEntity
  8
0
100
AcDb2dPolyline
 66
     1
 10
0.0
 20
0.0
 30
0.0
  0
VERTEX
  5
360A
330
2E23
100
AcDbEntity
  8
0
100
AcDbVertex
100
AcDb2dVertex
 10
2.118666900172836
 20
5.602260268549755
 30
0.0
  0
VERTEX
  5
360B
330
2E23
100
AcDbEntity
  8
0
100
AcDbVertex
100
AcDb2dVertex
 10
2.118666900172836
 20
5.607508300045818
 30
0.0
  0
VERTEX
  5
360C
330
2E23
100
AcDbEntity
  8
0
100
AcDbVertex
100
AcDb2dVertex
 10
2.118666900172836
 20
5.618004363037943
 30
0.0
  0
SEQEND
  5
360D
330
2E23
100
AcDbEntity
  8
0
  0
LINE
  5
2E28
330
1E
100
AcDbEntity
  8
0
100
AcDbLine
 10
2.249867687574411
 20
5.590452197683613
 30
0.0
 11
2.143595049779135
 21
5.590452197683613
 31
0.0
  0
LINE
  5
2E29
330
1E
100
AcDbEntity
  8
0
100
AcDbLine
 10
1.88906552222008
 20
5.590452197683613
 30
0.0
 11
1.781480876550789
 21
5.590452197683613
 31
0.0
  0
LINE
  5
2E2A
330
1E
100
AcDbEntity
  8
0
100
AcDbLine
 10
2.261675758440553
 20
5.656052591384399
 30
0.0
 11
2.261675758440553
 21
5.642932512644243
 31
0.0
  0
LINE
  5
2E2B
330
1E
100
AcDbEntity
  8
0
100
AcDbLine
 10
2.143595049779135
 20
5.590452197683613
 30
0.0
 11
2.118666900172836
 21
5.602260268549755
 31
0.0
  0
LINE
  5
2E2C
330
1E
100
AcDbEntity
  8
0
100
AcDbLine
 10
1.88906552222008
 20
5.590452197683613
 30
0.0
 11
1.912681663952364
 21
5.602260268549755
 31
0.0
  0
LINE
  5
2E2D
330
1E
100
AcDbEntity
  8
0
100
AcDbLine
 10
2.261675758440553
 20
5.656052591384399
 30
0.0
 11
2.261675758440553
 21
5.656052591384399
 31
0.0
  0
LINE
  5
2E2E
330
1E
100
AcDbEntity
  8
0
100
AcDbLine
 10
1.626663947416931
 20
5.656052591384399
 30
0.0
 11
1.626663947416931
 21
5.656052591384399
 31
0.0
  0
LINE
  5
2E2F
330
1E
100
AcDbEntity
  8
0
100
AcDbLine
 10
1.770984813558663
 20
5.656052591384399
 30
0.0
 11
1.770984813558663
 21
5.656052591384399
 31
0.0
  0
LINE
  5
2E30
330
1E
100
AcDbEntity
  8
0
100
AcDbLine
 10
1.011332254503544
 20
6.729275032329281
 30
0.0
 11
1.012644262377561
 21
6.727963024455267
 31
0.0
  0
LINE
  5
2E31
330
1E
100
AcDbEntity
  8
0
100
AcDbLine
 10
1.012644262377561
 20
6.727963024455267
 30
0.0
 11
2.385004498598033
 21
6.727963024455267
 31
0.0
  0
LINE
  5
2E32
330
1E
100
AcDbEntity
  8
0
100
AcDbLine
 10
2.385004498598033
 20
6.727963024455267
 30
0.0
 11
2.386316506472049
 21
6.729275032329281
 31
0.0
  0
LINE
  5
2E33
330
1E
100
AcDbEntity
  8
0
100
AcDbLine
 10
2.415180679700395
 20
6.457689402408022
 30
0.0
 11
2.415180679700395
 21
6.697786843352904
 31
0.0
  0
LINE
  5
2E34
330
1E
100
AcDbEntity
  8
0
100
AcDbLine
 10
2.415180679700395
 20
6.457689402408022
 30
0.0
 11
2.416492687574411
 21
6.456377394534007
 31
0.0
  0
LINE
  5
2E35
330
1E
100
AcDbEntity
  8
0
100
AcDbLine
 10
2.416492687574411
 20
6.699098851226921
 30
0.0
 11
2.415180679700395
 21
6.697786843352904
 31
0.0
  0
LINE
  5
2E36
330
1E
100
AcDbEntity
  8
0
100
AcDbLine
 10
1.012644262377561
 20
6.42751322130566
 30
0.0
 11
2.385004498598033
 21
6.42751322130566
 31
0.0
  0
LINE
  5
2E37
330
1E
100
AcDbEntity
  8
0
100
AcDbLine
 10
1.012644262377561
 20
6.42751322130566
 30
0.0
 11
1.011332254503544
 21
6.426201213431644
 31
0.0
  0
LINE
  5
2E38
330
1E
100
AcDbEntity
  8
0
100
AcDbLine
 10
2.386316506472049
 20
6.426201213431644
 30
0.0
 11
2.385004498598033
 21
6.42751322130566
 31
0.0
  0
POLYLINE
  5
2E39
330
1E
100
AcDbEntity
  8
0
100
AcDb2dPolyline
 66
     1
 10
0.0
 20
0.0
 30
0.0
  0
VERTEX
  5
360E
330
2E39
100
AcDbEntity
  8
0
100
AcDbVertex
100
AcDb2dVertex
 10
1.012644262377561
 20
6.727963024455266
 30
0.0
  0
VERTEX
  5
360F
330
2E39
100
AcDbEntity
  8
0
100
AcDbVertex
100
AcDb2dVertex
 10
0.996900167889372
 20
6.72402700083322
 30
0.0
  0
VERTEX
  5
3610
330
2E39
100
AcDbEntity
  8
0
100
AcDbVertex
100
AcDb2dVertex
 10
0.986404104897246
 20
6.713530937841093
 30
0.0
  0
VERTEX
  5
3611
330
2E39
100
AcDbEntity
  8
0
100
AcDbVertex
100
AcDb2dVertex
 10
0.9824680812751982
 20
6.697786843352903
 30
0.0
  0
SEQEND
  5
3612
330
2E39
100
AcDbEntity
  8
0
  0
LINE
  5
2E3F
330
1E
100
AcDbEntity
  8
0
100
AcDbLine
 10
0.9824680812751989
 20
6.457689402408022
 30
0.0
 11
0.9824680812751989
 21
6.697786843352904
 31
0.0
  0
POLYLINE
  5
2E40
330
1E
100
AcDbEntity
  8
0
100
AcDb2dPolyline
 66
     1
 10
0.0
 20
0.0
 30
0.0
  0
VERTEX
  5
3613
330
2E40
100
AcDbEntity
  8
0
100
AcDbVertex
100
AcDb2dVertex
 10
0.9824680812751982
 20
6.457689402408022
 30
0.0
  0
VERTEX
  5
3614
330
2E40
100
AcDbEntity
  8
0
100
AcDbVertex
100
AcDb2dVertex
 10
0.986404104897246
 20
6.441945307919833
 30
0.0
  0
VERTEX
  5
3615
330
2E40
100
AcDbEntity
  8
0
100
AcDbVertex
100
AcDb2dVertex
 10
0.996900167889372
 20
6.431449244927708
 30
0.0
  0
VERTEX
  5
3616
330
2E40
100
AcDbEntity
  8
0
100
AcDbVertex
100
AcDb2dVertex
 10
1.012644262377561
 20
6.42751322130566
 30
0.0
  0
SEQEND
  5
3617
330
2E40
100
AcDbEntity
  8
0
  0
POLYLINE
  5
2E46
330
1E
100
AcDbEntity
  8
0
100
AcDb2dPolyline
 66
     1
 10
0.0
 20
0.0
 30
0.0
  0
VERTEX
  5
3618
330
2E46
100
AcDbEntity
  8
0
100
AcDbVertex
100
AcDb2dVertex
 10
2.385004498598033
 20
6.42751322130566
 30
0.0
  0
VERTEX
  5
3619
330
2E46
100
AcDbEntity
  8
0
100
AcDbVertex
100
AcDb2dVertex
 10
2.400748593086222
 20
6.431449244927708
 30
0.0
  0
VERTEX
  5
361A
330
2E46
100
AcDbEntity
  8
0
100
AcDbVertex
100
AcDb2dVertex
 10
2.411244656078348
 20
6.441945307919833
 30
0.0
  0
VERTEX
  5
361B
330
2E46
100
AcDbEntity
  8
0
100
AcDbVertex
100
AcDb2dVertex
 10
2.415180679700395
 20
6.457689402408022
 30
0.0
  0
SEQEND
  5
361C
330
2E46
100
AcDbEntity
  8
0
  0
POLYLINE
  5
2E4C
330
1E
100
AcDbEntity
  8
0
100
AcDb2dPolyline
 66
     1
 10
0.0
 20
0.0
 30
0.0
  0
VERTEX
  5
361D
330
2E4C
100
AcDbEntity
  8
0
100
AcDbVertex
100
AcDb2dVertex
 10
2.415180679700395
 20
6.697786843352903
 30
0.0
  0
VERTEX
  5
361E
330
2E4C
100
AcDbEntity
  8
0
100
AcDbVertex
100
AcDb2dVertex
 10
2.411244656078348
 20
6.713530937841093
 30
0.0
  0
VERTEX
  5
361F
330
2E4C
100
AcDbEntity
  8
0
100
AcDbVertex
100
AcDb2dVertex
 10
2.400748593086222
 20
6.72402700083322
 30
0.0
  0
VERTEX
  5
3620
330
2E4C
100
AcDbEntity
  8
0
100
AcDbVertex
100
AcDb2dVertex
 10
2.385004498598033
 20
6.727963024455266
 30
0.0
  0
SEQEND
  5
3621
330
2E4C
100
AcDbEntity
  8
0
  0
LINE
  5
2E52
330
1E
100
AcDbEntity
  8
0
100
AcDbLine
 10
1.059876545842127
 20
6.455065386659991
 30
0.0
 11
2.337772215133466
 21
6.455065386659991
 31
0.0
  0
LINE
  5
2E53
330
1E
100
AcDbEntity
  8
0
100
AcDbLine
 10
1.059876545842127
 20
6.507545701620621
 30
0.0
 11
1.059876545842127
 21
6.455065386659991
 31
0.0
  0
LINE
  5
2E54
330
1E
100
AcDbEntity
  8
0
100
AcDbLine
 10
1.034948396235828
 20
6.507545701620621
 30
0.0
 11
1.059876545842127
 21
6.507545701620621
 31
0.0
  0
LINE
  5
2E55
330
1E
100
AcDbEntity
  8
0
100
AcDbLine
 10
1.034948396235828
 20
6.647930544140306
 30
0.0
 11
1.034948396235828
 21
6.507545701620621
 31
0.0
  0
LINE
  5
2E56
330
1E
100
AcDbEntity
  8
0
100
AcDbLine
 10
1.034948396235828
 20
6.647930544140306
 30
0.0
 11
1.059876545842127
 21
6.647930544140306
 31
0.0
  0
LINE
  5
2E57
330
1E
100
AcDbEntity
  8
0
100
AcDbLine
 10
1.059876545842127
 20
6.700410859100935
 30
0.0
 11
1.059876545842127
 21
6.647930544140306
 31
0.0
  0
LINE
  5
2E58
330
1E
100
AcDbEntity
  8
0
100
AcDbLine
 10
1.059876545842127
 20
6.700410859100935
 30
0.0
 11
2.337772215133466
 21
6.700410859100935
 31
0.0
  0
LINE
  5
2E59
330
1E
100
AcDbEntity
  8
0
100
AcDbLine
 10
2.337772215133466
 20
6.700410859100935
 30
0.0
 11
2.337772215133466
 21
6.647930544140306
 31
0.0
  0
LINE
  5
2E5A
330
1E
100
AcDbEntity
  8
0
100
AcDbLine
 10
2.337772215133466
 20
6.647930544140306
 30
0.0
 11
2.362700364739765
 21
6.647930544140306
 31
0.0
  0
LINE
  5
2E5B
330
1E
100
AcDbEntity
  8
0
100
AcDbLine
 10
2.362700364739765
 20
6.647930544140306
 30
0.0
 11
2.362700364739765
 21
6.507545701620621
 31
0.0
  0
LINE
  5
2E5C
330
1E
100
AcDbEntity
  8
0
100
AcDbLine
 10
2.337772215133466
 20
6.507545701620621
 30
0.0
 11
2.362700364739765
 21
6.507545701620621
 31
0.0
  0
LINE
  5
2E5D
330
1E
100
AcDbEntity
  8
0
100
AcDbLine
 10
2.337772215133466
 20
6.507545701620621
 30
0.0
 11
2.337772215133466
 21
6.455065386659991
 31
0.0
  0
LINE
  5
2E5E
330
1E
100
AcDbEntity
  8
0
100
AcDbLine
 10
2.362700364739765
 20
6.507545701620621
 30
0.0
 11
2.36138835686575
 21
6.507545701620621
 31
0.0
  0
LINE
  5
2E5F
330
1E
100
AcDbEntity
  8
0
100
AcDbLine
 10
2.36138835686575
 20
6.507545701620621
 30
0.0
 11
2.33646020725945
 21
6.507545701620621
 31
0.0
  0
LINE
  5
2E60
330
1E
100
AcDbEntity
  8
0
100
AcDbLine
 10
2.33646020725945
 20
6.507545701620621
 30
0.0
 11
2.337772215133466
 21
6.507545701620621
 31
0.0
  0
LINE
  5
2E61
330
1E
100
AcDbEntity
  8
0
100
AcDbLine
 10
2.362700364739765
 20
6.647930544140306
 30
0.0
 11
2.36138835686575
 21
6.647930544140306
 31
0.0
  0
LINE
  5
2E62
330
1E
100
AcDbEntity
  8
0
100
AcDbLine
 10
2.36138835686575
 20
6.647930544140306
 30
0.0
 11
2.36138835686575
 21
6.646618536266291
 31
0.0
  0
LINE
  5
2E63
330
1E
100
AcDbEntity
  8
0
100
AcDbLine
 10
2.36138835686575
 20
6.646618536266291
 30
0.0
 11
2.36138835686575
 21
6.508857709494637
 31
0.0
  0
LINE
  5
2E64
330
1E
100
AcDbEntity
  8
0
100
AcDbLine
 10
2.36138835686575
 20
6.508857709494637
 30
0.0
 11
2.36138835686575
 21
6.507545701620621
 31
0.0
  0
POLYLINE
  5
2E65
330
1E
100
AcDbEntity
  8
0
100
AcDb2dPolyline
 66
     1
 10
0.0
 20
0.0
 30
0.0
  0
VERTEX
  5
3622
330
2E65
100
AcDbEntity
  8
0
100
AcDbVertex
100
AcDb2dVertex
 10
2.016330285999607
 20
6.54165790634503
 30
0.0
  0
VERTEX
  5
3623
330
2E65
100
AcDbEntity
  8
0
100
AcDbVertex
100
AcDb2dVertex
 10
1.996650167889372
 20
6.546905937841093
 30
0.0
  0
VERTEX
  5
3624
330
2E65
100
AcDbEntity
  8
0
100
AcDbVertex
100
AcDb2dVertex
 10
1.982218081275198
 20
6.562650032329282
 30
0.0
  0
VERTEX
  5
3625
330
2E65
100
AcDbEntity
  8
0
100
AcDbVertex
100
AcDb2dVertex
 10
1.979594065527167
 20
6.582330150439518
 30
0.0
  0
VERTEX
  5
3626
330
2E65
100
AcDbEntity
  8
0
100
AcDbVertex
100
AcDb2dVertex
 10
1.988778120645277
 20
6.602010268549755
 30
0.0
  0
VERTEX
  5
3627
330
2E65
100
AcDbEntity
  8
0
100
AcDbVertex
100
AcDb2dVertex
 10
2.005834223007481
 20
6.61250633154188
 30
0.0
  0
VERTEX
  5
3628
330
2E65
100
AcDbEntity
  8
0
100
AcDbVertex
100
AcDb2dVertex
 10
2.026826348991733
 20
6.61250633154188
 30
0.0
  0
VERTEX
  5
3629
330
2E65
100
AcDbEntity
  8
0
100
AcDbVertex
100
AcDb2dVertex
 10
2.043882451353939
 20
6.602010268549755
 30
0.0
  0
VERTEX
  5
362A
330
2E65
100
AcDbEntity
  8
0
100
AcDbVertex
100
AcDb2dVertex
 10
2.051754498598032
 20
6.582330150439518
 30
0.0
  0
VERTEX
  5
362B
330
2E65
100
AcDbEntity
  8
0
100
AcDbVertex
100
AcDb2dVertex
 10
2.049130482850001
 20
6.562650032329282
 30
0.0
  0
VERTEX
  5
362C
330
2E65
100
AcDbEntity
  8
0
100
AcDbVertex
100
AcDb2dVertex
 10
2.036010404109844
 20
6.546905937841093
 30
0.0
  0
VERTEX
  5
362D
330
2E65
100
AcDbEntity
  8
0
100
AcDbVertex
100
AcDb2dVertex
 10
2.016330285999607
 20
6.54165790634503
 30
0.0
  0
SEQEND
  5
362E
330
2E65
100
AcDbEntity
  8
0
  0
LINE
  5
2E73
330
1E
100
AcDbEntity
  8
0
100
AcDbLine
 10
1.061188553716143
 20
6.699098851226921
 30
0.0
 11
2.33646020725945
 21
6.699098851226921
 31
0.0
  0
LINE
  5
2E74
330
1E
100
AcDbEntity
  8
0
100
AcDbLine
 10
1.061188553716143
 20
6.699098851226921
 30
0.0
 11
1.061188553716143
 21
6.646618536266291
 31
0.0
  0
LINE
  5
2E75
330
1E
100
AcDbEntity
  8
0
100
AcDbLine
 10
1.036260404109844
 20
6.646618536266291
 30
0.0
 11
1.061188553716143
 21
6.646618536266291
 31
0.0
  0
LINE
  5
2E76
330
1E
100
AcDbEntity
  8
0
100
AcDbLine
 10
1.036260404109844
 20
6.646618536266291
 30
0.0
 11
1.036260404109844
 21
6.508857709494637
 31
0.0
  0
LINE
  5
2E77
330
1E
100
AcDbEntity
  8
0
100
AcDbLine
 10
1.036260404109844
 20
6.508857709494637
 30
0.0
 11
1.061188553716143
 21
6.508857709494637
 31
0.0
  0
LINE
  5
2E78
330
1E
100
AcDbEntity
  8
0
100
AcDbLine
 10
1.061188553716143
 20
6.508857709494637
 30
0.0
 11
1.061188553716143
 21
6.456377394534007
 31
0.0
  0
LINE
  5
2E79
330
1E
100
AcDbEntity
  8
0
100
AcDbLine
 10
1.061188553716143
 20
6.456377394534007
 30
0.0
 11
2.33646020725945
 21
6.456377394534007
 31
0.0
  0
LINE
  5
2E7A
330
1E
100
AcDbEntity
  8
0
100
AcDbLine
 10
2.33646020725945
 20
6.508857709494637
 30
0.0
 11
2.33646020725945
 21
6.456377394534007
 31
0.0
  0
LINE
  5
2E7B
330
1E
100
AcDbEntity
  8
0
100
AcDbLine
 10
2.33646020725945
 20
6.508857709494637
 30
0.0
 11
2.36138835686575
 21
6.508857709494637
 31
0.0
  0
LINE
  5
2E7C
330
1E
100
AcDbEntity
  8
0
100
AcDbLine
 10
2.33646020725945
 20
6.646618536266291
 30
0.0
 11
2.36138835686575
 21
6.646618536266291
 31
0.0
  0
LINE
  5
2E7D
330
1E
100
AcDbEntity
  8
0
100
AcDbLine
 10
2.33646020725945
 20
6.699098851226921
 30
0.0
 11
2.33646020725945
 21
6.646618536266291
 31
0.0
  0
POLYLINE
  5
2E7E
330
1E
100
AcDbEntity
  8
0
100
AcDb2dPolyline
 66
     1
 10
0.0
 20
0.0
 30
0.0
  0
VERTEX
  5
362F
330
2E7E
100
AcDbEntity
  8
0
100
AcDbVertex
100
AcDb2dVertex
 10
1.381318474975986
 20
6.54165790634503
 30
0.0
  0
VERTEX
  5
3630
330
2E7E
100
AcDbEntity
  8
0
100
AcDbVertex
100
AcDb2dVertex
 10
1.361638356865749
 20
6.546905937841093
 30
0.0
  0
VERTEX
  5
3631
330
2E7E
100
AcDbEntity
  8
0
100
AcDbVertex
100
AcDb2dVertex
 10
1.348518278125592
 20
6.562650032329282
 30
0.0
  0
VERTEX
  5
3632
330
2E7E
100
AcDbEntity
  8
0
100
AcDbVertex
100
AcDb2dVertex
 10
1.344582254503545
 20
6.582330150439518
 30
0.0
  0
VERTEX
  5
3633
330
2E7E
100
AcDbEntity
  8
0
100
AcDbVertex
100
AcDb2dVertex
 10
1.353766309621655
 20
6.602010268549755
 30
0.0
  0
VERTEX
  5
3634
330
2E7E
100
AcDbEntity
  8
0
100
AcDbVertex
100
AcDb2dVertex
 10
1.370822411983859
 20
6.61250633154188
 30
0.0
  0
VERTEX
  5
3635
330
2E7E
100
AcDbEntity
  8
0
100
AcDbVertex
100
AcDb2dVertex
 10
1.391814537968112
 20
6.61250633154188
 30
0.0
  0
VERTEX
  5
3636
330
2E7E
100
AcDbEntity
  8
0
100
AcDbVertex
100
AcDb2dVertex
 10
1.408870640330316
 20
6.602010268549755
 30
0.0
  0
VERTEX
  5
3637
330
2E7E
100
AcDbEntity
  8
0
100
AcDbVertex
100
AcDb2dVertex
 10
1.418054695448427
 20
6.582330150439518
 30
0.0
  0
VERTEX
  5
3638
330
2E7E
100
AcDbEntity
  8
0
100
AcDbVertex
100
AcDb2dVertex
 10
1.414118671826379
 20
6.562650032329282
 30
0.0
  0
VERTEX
  5
3639
330
2E7E
100
AcDbEntity
  8
0
100
AcDbVertex
100
AcDb2dVertex
 10
1.400998593086222
 20
6.546905937841093
 30
0.0
  0
VERTEX
  5
363A
330
2E7E
100
AcDbEntity
  8
0
100
AcDbVertex
100
AcDb2dVertex
 10
1.381318474975986
 20
6.54165790634503
 30
0.0
  0
SEQEND
  5
363B
330
2E7E
100
AcDbEntity
  8
0
  0
LINE
  5
2E8C
330
1E
100
AcDbEntity
  8
0
100
AcDbLine
 10
2.337772215133466
 20
6.647930544140306
 30
0.0
 11
2.33646020725945
 21
6.647930544140306
 31
0.0
  0
LINE
  5
2E8D
330
1E
100
AcDbEntity
  8
0
100
AcDbLine
 10
2.36138835686575
 20
6.647930544140306
 30
0.0
 11
2.33646020725945
 21
6.647930544140306
 31
0.0
  0
LINE
  5
2E8E
330
1E
100
AcDbEntity
  8
0
100
AcDbLine
 10
2.337772215133466
 20
6.700410859100935
 30
0.0
 11
2.33646020725945
 21
6.699098851226921
 31
0.0
  0
LINE
  5
2E8F
330
1E
100
AcDbEntity
  8
0
100
AcDbLine
 10
2.33646020725945
 20
6.699098851226921
 30
0.0
 11
2.33646020725945
 21
6.647930544140306
 31
0.0
  0
LINE
  5
2E90
330
1E
100
AcDbEntity
  8
0
100
AcDbLine
 10
1.059876545842127
 20
6.700410859100935
 30
0.0
 11
1.059876545842127
 21
6.699098851226921
 31
0.0
  0
LINE
  5
2E91
330
1E
100
AcDbEntity
  8
0
100
AcDbLine
 10
1.059876545842127
 20
6.699098851226921
 30
0.0
 11
1.061188553716143
 21
6.699098851226921
 31
0.0
  0
LINE
  5
2E92
330
1E
100
AcDbEntity
  8
0
100
AcDbLine
 10
2.33646020725945
 20
6.699098851226921
 30
0.0
 11
2.33646020725945
 21
6.699098851226921
 31
0.0
  0
LINE
  5
2E93
330
1E
100
AcDbEntity
  8
0
100
AcDbLine
 10
2.33646020725945
 20
6.456377394534007
 30
0.0
 11
2.33646020725945
 21
6.507545701620621
 31
0.0
  0
LINE
  5
2E94
330
1E
100
AcDbEntity
  8
0
100
AcDbLine
 10
2.337772215133466
 20
6.455065386659991
 30
0.0
 11
2.33646020725945
 21
6.456377394534007
 31
0.0
  0
LINE
  5
2E95
330
1E
100
AcDbEntity
  8
0
100
AcDbLine
 10
1.059876545842127
 20
6.456377394534007
 30
0.0
 11
1.061188553716143
 21
6.456377394534007
 31
0.0
  0
LINE
  5
2E96
330
1E
100
AcDbEntity
  8
0
100
AcDbLine
 10
1.059876545842127
 20
6.455065386659991
 30
0.0
 11
1.059876545842127
 21
6.456377394534007
 31
0.0
  0
LINE
  5
2E97
330
1E
100
AcDbEntity
  8
0
100
AcDbLine
 10
2.33646020725945
 20
6.456377394534007
 30
0.0
 11
2.33646020725945
 21
6.456377394534007
 31
0.0
  0
POLYLINE
  5
2E98
330
1E
100
AcDbEntity
  8
0
100
AcDb2dPolyline
 66
     1
 10
0.0
 20
0.0
 30
0.0
  0
VERTEX
  5
363C
330
2E98
100
AcDbEntity
  8
0
100
AcDbVertex
100
AcDb2dVertex
 10
2.016330285999607
 20
6.54165790634503
 30
0.0
  0
VERTEX
  5
363D
330
2E98
100
AcDbEntity
  8
0
100
AcDbVertex
100
AcDb2dVertex
 10
1.996650167889372
 20
6.546905937841093
 30
0.0
  0
VERTEX
  5
363E
330
2E98
100
AcDbEntity
  8
0
100
AcDbVertex
100
AcDb2dVertex
 10
1.983530089149214
 20
6.562650032329282
 30
0.0
  0
VERTEX
  5
363F
330
2E98
100
AcDbEntity
  8
0
100
AcDbVertex
100
AcDb2dVertex
 10
1.980906073401183
 20
6.582330150439518
 30
0.0
  0
VERTEX
  5
3640
330
2E98
100
AcDbEntity
  8
0
100
AcDbVertex
100
AcDb2dVertex
 10
1.988778120645277
 20
6.600698260675739
 30
0.0
  0
VERTEX
  5
3641
330
2E98
100
AcDbEntity
  8
0
100
AcDbVertex
100
AcDb2dVertex
 10
2.005834223007481
 20
6.61250633154188
 30
0.0
  0
VERTEX
  5
3642
330
2E98
100
AcDbEntity
  8
0
100
AcDbVertex
100
AcDb2dVertex
 10
2.026826348991733
 20
6.61250633154188
 30
0.0
  0
VERTEX
  5
3643
330
2E98
100
AcDbEntity
  8
0
100
AcDbVertex
100
AcDb2dVertex
 10
2.043882451353939
 20
6.600698260675739
 30
0.0
  0
VERTEX
  5
3644
330
2E98
100
AcDbEntity
  8
0
100
AcDbVertex
100
AcDb2dVertex
 10
2.051754498598032
 20
6.582330150439518
 30
0.0
  0
VERTEX
  5
3645
330
2E98
100
AcDbEntity
  8
0
100
AcDbVertex
100
AcDb2dVertex
 10
2.049130482850001
 20
6.562650032329282
 30
0.0
  0
VERTEX
  5
3646
330
2E98
100
AcDbEntity
  8
0
100
AcDbVertex
100
AcDb2dVertex
 10
2.036010404109844
 20
6.546905937841093
 30
0.0
  0
VERTEX
  5
3647
330
2E98
100
AcDbEntity
  8
0
100
AcDbVertex
100
AcDb2dVertex
 10
2.016330285999607
 20
6.54165790634503
 30
0.0
  0
SEQEND
  5
3648
330
2E98
100
AcDbEntity
  8
0
  0
LINE
  5
2EA6
330
1E
100
AcDbEntity
  8
0
100
AcDbLine
 10
1.135973002535041
 20
5.642932512644243
 30
0.0
 11
1.135973002535041
 21
5.656052591384399
 31
0.0
  0
POLYLINE
  5
2EA7
330
1E
100
AcDbEntity
  8
0
100
AcDb2dPolyline
 66
     1
 10
0.0
 20
0.0
 30
0.0
  0
VERTEX
  5
3649
330
2EA7
100
AcDbEntity
  8
0
100
AcDbVertex
100
AcDb2dVertex
 10
1.381318474975986
 20
6.54165790634503
 30
0.0
  0
VERTEX
  5
364A
330
2EA7
100
AcDbEntity
  8
0
100
AcDbVertex
100
AcDb2dVertex
 10
1.361638356865749
 20
6.546905937841093
 30
0.0
  0
VERTEX
  5
364B
330
2EA7
100
AcDbEntity
  8
0
100
AcDbVertex
100
AcDb2dVertex
 10
1.348518278125592
 20
6.562650032329282
 30
0.0
  0
VERTEX
  5
364C
330
2EA7
100
AcDbEntity
  8
0
100
AcDbVertex
100
AcDb2dVertex
 10
1.345894262377561
 20
6.582330150439518
 30
0.0
  0
VERTEX
  5
364D
330
2EA7
100
AcDbEntity
  8
0
100
AcDbVertex
100
AcDb2dVertex
 10
1.353766309621655
 20
6.600698260675739
 30
0.0
  0
VERTEX
  5
364E
330
2EA7
100
AcDbEntity
  8
0
100
AcDbVertex
100
AcDb2dVertex
 10
1.370822411983859
 20
6.61250633154188
 30
0.0
  0
VERTEX
  5
364F
330
2EA7
100
AcDbEntity
  8
0
100
AcDbVertex
100
AcDb2dVertex
 10
1.391814537968112
 20
6.61250633154188
 30
0.0
  0
VERTEX
  5
3650
330
2EA7
100
AcDbEntity
  8
0
100
AcDbVertex
100
AcDb2dVertex
 10
1.408870640330316
 20
6.600698260675739
 30
0.0
  0
VERTEX
  5
3651
330
2EA7
100
AcDbEntity
  8
0
100
AcDbVertex
100
AcDb2dVertex
 10
1.416742687574411
 20
6.582330150439518
 30
0.0
  0
VERTEX
  5
3652
330
2EA7
100
AcDbEntity
  8
0
100
AcDbVertex
100
AcDb2dVertex
 10
1.414118671826379
 20
6.562650032329282
 30
0.0
  0
VERTEX
  5
3653
330
2EA7
100
AcDbEntity
  8
0
100
AcDbVertex
100
AcDb2dVertex
 10
1.400998593086222
 20
6.546905937841093
 30
0.0
  0
VERTEX
  5
3654
330
2EA7
100
AcDbEntity
  8
0
100
AcDbVertex
100
AcDb2dVertex
 10
1.381318474975986
 20
6.54165790634503
 30
0.0
  0
SEQEND
  5
3655
330
2EA7
100
AcDbEntity
  8
0
  0
LINE
  5
2EB5
330
1E
100
AcDbEntity
  8
0
100
AcDbLine
 10
1.059876545842127
 20
6.699098851226921
 30
0.0
 11
1.059876545842127
 21
6.647930544140306
 31
0.0
  0
LINE
  5
2EB6
330
1E
100
AcDbEntity
  8
0
100
AcDbLine
 10
1.034948396235828
 20
6.647930544140306
 30
0.0
 11
1.059876545842127
 21
6.647930544140306
 31
0.0
  0
LINE
  5
2EB7
330
1E
100
AcDbEntity
  8
0
100
AcDbLine
 10
1.034948396235828
 20
6.507545701620621
 30
0.0
 11
1.059876545842127
 21
6.507545701620621
 31
0.0
  0
LINE
  5
2EB8
330
1E
100
AcDbEntity
  8
0
100
AcDbLine
 10
1.059876545842127
 20
6.456377394534007
 30
0.0
 11
1.059876545842127
 21
6.507545701620621
 31
0.0
  0
LINE
  5
2EB9
330
1E
100
AcDbEntity
  8
0
100
AcDbLine
 10
1.483655089149214
 20
5.69934885122692
 30
0.0
 11
1.277669852928742
 21
5.69934885122692
 31
0.0
  0
LINE
  5
2EBA
330
1E
100
AcDbEntity
  8
0
100
AcDbLine
 10
1.277669852928742
 20
5.69934885122692
 30
0.0
 11
1.277669852928742
 21
5.669172670124558
 31
0.0
  0
LINE
  5
2EBB
330
1E
100
AcDbEntity
  8
0
100
AcDbLine
 10
1.483655089149214
 20
5.669172670124558
 30
0.0
 11
1.277669852928742
 21
5.669172670124558
 31
0.0
  0
LINE
  5
2EBC
330
1E
100
AcDbEntity
  8
0
100
AcDbLine
 10
1.483655089149214
 20
5.69934885122692
 30
0.0
 11
1.483655089149214
 21
5.669172670124558
 31
0.0
  0
LINE
  5
2EBD
330
1E
100
AcDbEntity
  8
0
100
AcDbLine
 10
1.277669852928742
 20
5.663924638628495
 30
0.0
 11
1.483655089149214
 21
5.663924638628495
 31
0.0
  0
LINE
  5
2EBE
330
1E
100
AcDbEntity
  8
0
100
AcDbLine
 10
1.483655089149214
 20
5.663924638628495
 30
0.0
 11
1.483655089149214
 21
5.669172670124558
 31
0.0
  0
LINE
  5
2EBF
330
1E
100
AcDbEntity
  8
0
100
AcDbLine
 10
1.277669852928742
 20
5.663924638628495
 30
0.0
 11
1.277669852928742
 21
5.669172670124558
 31
0.0
  0
LINE
  5
2EC0
330
1E
100
AcDbEntity
  8
0
100
AcDbLine
 10
1.483655089149214
 20
5.628500426030069
 30
0.0
 11
1.278981860802757
 21
5.628500426030069
 31
0.0
  0
POLYLINE
  5
2EC1
330
1E
100
AcDbEntity
  8
0
100
AcDb2dPolyline
 66
     1
 10
0.0
 20
0.0
 30
0.0
  0
VERTEX
  5
3656
330
2EC1
100
AcDbEntity
  8
0
100
AcDbVertex
100
AcDb2dVertex
 10
1.483655089149214
 20
5.628500426030069
 30
0.0
  0
VERTEX
  5
3657
330
2EC1
100
AcDbEntity
  8
0
100
AcDbVertex
100
AcDb2dVertex
 10
1.483655089149214
 20
5.648180544140306
 30
0.0
  0
VERTEX
  5
3658
330
2EC1
100
AcDbEntity
  8
0
100
AcDbVertex
100
AcDb2dVertex
 10
1.483655089149214
 20
5.663924638628495
 30
0.0
  0
SEQEND
  5
3659
330
2EC1
100
AcDbEntity
  8
0
  0
POLYLINE
  5
2EC6
330
1E
100
AcDbEntity
  8
0
100
AcDb2dPolyline
 66
     1
 10
0.0
 20
0.0
 30
0.0
  0
VERTEX
  5
365A
330
2EC6
100
AcDbEntity
  8
0
100
AcDbVertex
100
AcDb2dVertex
 10
1.278981860802757
 20
5.628500426030069
 30
0.0
  0
VERTEX
  5
365B
330
2EC6
100
AcDbEntity
  8
0
100
AcDbVertex
100
AcDb2dVertex
 10
1.278981860802757
 20
5.648180544140306
 30
0.0
  0
VERTEX
  5
365C
330
2EC6
100
AcDbEntity
  8
0
100
AcDbVertex
100
AcDb2dVertex
 10
1.277669852928742
 20
5.663924638628495
 30
0.0
  0
SEQEND
  5
365D
330
2EC6
100
AcDbEntity
  8
0
  0
LINE
  5
2ECB
330
1E
100
AcDbEntity
  8
0
100
AcDbLine
 10
1.483655089149214
 20
5.618004363037943
 30
0.0
 11
1.278981860802757
 21
5.618004363037943
 31
0.0
  0
LINE
  5
2ECC
330
1E
100
AcDbEntity
  8
0
100
AcDbLine
 10
1.483655089149214
 20
5.628500426030069
 30
0.0
 11
1.483655089149214
 21
5.618004363037943
 31
0.0
  0
LINE
  5
2ECD
330
1E
100
AcDbEntity
  8
0
100
AcDbLine
 10
1.278981860802757
 20
5.628500426030069
 30
0.0
 11
1.278981860802757
 21
5.618004363037943
 31
0.0
  0
POLYLINE
  5
2ECE
330
1E
100
AcDbEntity
  8
0
100
AcDb2dPolyline
 66
     1
 10
0.0
 20
0.0
 30
0.0
  0
VERTEX
  5
365E
330
2ECE
100
AcDbEntity
  8
0
100
AcDbVertex
100
AcDb2dVertex
 10
1.277669852928742
 20
5.602260268549755
 30
0.0
  0
VERTEX
  5
365F
330
2ECE
100
AcDbEntity
  8
0
100
AcDbVertex
100
AcDb2dVertex
 10
1.278981860802757
 20
5.607508300045818
 30
0.0
  0
VERTEX
  5
3660
330
2ECE
100
AcDbEntity
  8
0
100
AcDbVertex
100
AcDb2dVertex
 10
1.278981860802757
 20
5.618004363037943
 30
0.0
  0
SEQEND
  5
3661
330
2ECE
100
AcDbEntity
  8
0
  0
LINE
  5
2ED3
330
1E
100
AcDbEntity
  8
0
100
AcDbLine
 10
1.277669852928742
 20
5.602260268549755
 30
0.0
 11
1.48496709702323
 21
5.602260268549755
 31
0.0
  0
POLYLINE
  5
2ED4
330
1E
100
AcDbEntity
  8
0
100
AcDb2dPolyline
 66
     1
 10
0.0
 20
0.0
 30
0.0
  0
VERTEX
  5
3662
330
2ED4
100
AcDbEntity
  8
0
100
AcDbVertex
100
AcDb2dVertex
 10
1.484967097023229
 20
5.602260268549755
 30
0.0
  0
VERTEX
  5
3663
330
2ED4
100
AcDbEntity
  8
0
100
AcDbVertex
100
AcDb2dVertex
 10
1.483655089149214
 20
5.607508300045818
 30
0.0
  0
VERTEX
  5
3664
330
2ED4
100
AcDbEntity
  8
0
100
AcDbVertex
100
AcDb2dVertex
 10
1.483655089149214
 20
5.618004363037943
 30
0.0
  0
SEQEND
  5
3665
330
2ED4
100
AcDbEntity
  8
0
  0
LINE
  5
2ED9
330
1E
100
AcDbEntity
  8
0
100
AcDbLine
 10
1.254053711196458
 20
5.590452197683613
 30
0.0
 11
1.147781073401183
 21
5.590452197683613
 31
0.0
  0
LINE
  5
2EDA
330
1E
100
AcDbEntity
  8
0
100
AcDbLine
 10
1.079556663952364
 20
5.656052591384399
 30
0.0
 11
1.135973002535041
 21
5.656052591384399
 31
0.0
  0
LINE
  5
2EDB
330
1E
100
AcDbEntity
  8
0
100
AcDbLine
 10
1.29341394741693
 20
6.276632315793849
 30
0.0
 11
1.469223002535041
 21
6.276632315793849
 31
0.0
  0
LINE
  5
2EDC
330
1E
100
AcDbEntity
  8
0
100
AcDbLine
 10
1.614855876550788
 20
5.590452197683613
 30
0.0
 11
1.508583238755513
 21
5.590452197683613
 31
0.0
  0
LINE
  5
2EDD
330
1E
100
AcDbEntity
  8
0
100
AcDbLine
 10
1.626663947416931
 20
5.656052591384399
 30
0.0
 11
1.626663947416931
 21
5.642932512644243
 31
0.0
  0
LINE
  5
2EDE
330
1E
100
AcDbEntity
  8
0
100
AcDbLine
 10
1.059876545842127
 20
6.647930544140306
 30
0.0
 11
1.059876545842127
 21
6.647930544140306
 31
0.0
  0
LINE
  5
2EDF
330
1E
100
AcDbEntity
  8
0
100
AcDbLine
 10
1.034948396235828
 20
6.647930544140306
 30
0.0
 11
1.034948396235828
 21
6.647930544140306
 31
0.0
  0
LINE
  5
2EE0
330
1E
100
AcDbEntity
  8
0
100
AcDbLine
 10
1.034948396235828
 20
6.507545701620621
 30
0.0
 11
1.034948396235828
 21
6.507545701620621
 31
0.0
  0
LINE
  5
2EE1
330
1E
100
AcDbEntity
  8
0
100
AcDbLine
 10
1.034948396235828
 20
6.507545701620621
 30
0.0
 11
1.036260404109844
 21
6.508857709494637
 31
0.0
  0
LINE
  5
2EE2
330
1E
100
AcDbEntity
  8
0
100
AcDbLine
 10
1.036260404109844
 20
6.646618536266291
 30
0.0
 11
1.034948396235828
 21
6.647930544140306
 31
0.0
  0
LINE
  5
2EE3
330
1E
100
AcDbEntity
  8
0
100
AcDbLine
 10
1.059876545842127
 20
6.507545701620621
 30
0.0
 11
1.059876545842127
 21
6.507545701620621
 31
0.0
  0
LINE
  5
2EE4
330
1E
100
AcDbEntity
  8
0
100
AcDbLine
 10
0.9824680812751989
 20
6.697786843352904
 30
0.0
 11
0.9811560734011832
 21
6.699098851226921
 31
0.0
  0
LINE
  5
2EE5
330
1E
100
AcDbEntity
  8
0
100
AcDbLine
 10
0.9811560734011832
 20
6.456377394534007
 30
0.0
 11
0.9824680812751989
 21
6.457689402408022
 31
0.0
  0
LINE
  5
2EE6
330
1E
100
AcDbEntity
  8
0
100
AcDbLine
 10
1.135973002535041
 20
5.656052591384399
 30
0.0
 11
1.135973002535041
 21
5.656052591384399
 31
0.0
  0
LINE
  5
2EE7
330
1E
100
AcDbEntity
  8
0
100
AcDbLine
 10
1.508583238755513
 20
5.590452197683613
 30
0.0
 11
1.48496709702323
 21
5.602260268549755
 31
0.0
  0
LINE
  5
2EE8
330
1E
100
AcDbEntity
  8
0
100
AcDbLine
 10
1.254053711196458
 20
5.590452197683613
 30
0.0
 11
1.277669852928742
 21
5.602260268549755
 31
0.0
  0
LINE
  5
2EE9
330
1E
100
AcDbEntity
  8
0
100
AcDbLine
 10
1.29341394741693
 20
6.315992552014321
 30
0.0
 11
1.29341394741693
 21
6.276632315793849
 31
0.0
  0
LINE
  5
2EEA
330
1E
100
AcDbEntity
  8
0
100
AcDbLine
 10
1.469223002535041
 20
6.315992552014321
 30
0.0
 11
1.469223002535041
 21
6.276632315793849
 31
0.0
  0
LINE
  5
2EEB
330
1E
100
AcDbEntity
  8
0
100
AcDbLine
 10
0.3212161127712623
 20
3.300998457526132
 30
0.0
 11
0.3238401285192927
 21
3.303622473274164
 31
0.0
  0
LINE
  5
2EEC
330
1E
100
AcDbEntity
  8
0
100
AcDbLine
 10
0.3238401285192927
 20
7.642432512644243
 30
0.0
 11
0.3212161127712623
 21
7.64636853626629
 31
0.0
  0
LINE
  5
2EED
330
1E
100
AcDbEntity
  8
0
100
AcDbLine
 10
1.928425758440553
 20
4.904272079573376
 30
0.0
 11
2.102922805684647
 21
4.904272079573376
 31
0.0
  0
LINE
  5
2EEE
330
1E
100
AcDbEntity
  8
0
100
AcDbLine
 10
2.118666900172836
 20
4.326988615006447
 30
0.0
 11
1.912681663952364
 21
4.326988615006447
 31
0.0
  0
LINE
  5
2EEF
330
1E
100
AcDbEntity
  8
0
100
AcDbLine
 10
1.912681663952364
 20
4.326988615006447
 30
0.0
 11
1.912681663952364
 21
4.296812433904085
 31
0.0
  0
LINE
  5
2EF0
330
1E
100
AcDbEntity
  8
0
100
AcDbLine
 10
2.118666900172836
 20
4.296812433904085
 30
0.0
 11
1.912681663952364
 21
4.296812433904085
 31
0.0
  0
LINE
  5
2EF1
330
1E
100
AcDbEntity
  8
0
100
AcDbLine
 10
2.118666900172836
 20
4.326988615006447
 30
0.0
 11
2.118666900172836
 21
4.296812433904085
 31
0.0
  0
LINE
  5
2EF2
330
1E
100
AcDbEntity
  8
0
100
AcDbLine
 10
1.912681663952364
 20
4.292876410282039
 30
0.0
 11
2.118666900172836
 21
4.292876410282039
 31
0.0
  0
LINE
  5
2EF3
330
1E
100
AcDbEntity
  8
0
100
AcDbLine
 10
2.118666900172836
 20
4.292876410282039
 30
0.0
 11
2.118666900172836
 21
4.296812433904085
 31
0.0
  0
LINE
  5
2EF4
330
1E
100
AcDbEntity
  8
0
100
AcDbLine
 10
1.912681663952364
 20
4.292876410282039
 30
0.0
 11
1.912681663952364
 21
4.296812433904085
 31
0.0
  0
LINE
  5
2EF5
330
1E
100
AcDbEntity
  8
0
100
AcDbLine
 10
2.118666900172836
 20
4.256140189809596
 30
0.0
 11
1.913993671826379
 21
4.256140189809596
 31
0.0
  0
POLYLINE
  5
2EF6
330
1E
100
AcDbEntity
  8
0
100
AcDb2dPolyline
 66
     1
 10
0.0
 20
0.0
 30
0.0
  0
VERTEX
  5
3666
330
2EF6
100
AcDbEntity
  8
0
100
AcDbVertex
100
AcDb2dVertex
 10
2.118666900172836
 20
4.256140189809596
 30
0.0
  0
VERTEX
  5
3667
330
2EF6
100
AcDbEntity
  8
0
100
AcDbVertex
100
AcDb2dVertex
 10
2.118666900172836
 20
4.275820307919833
 30
0.0
  0
VERTEX
  5
3668
330
2EF6
100
AcDbEntity
  8
0
100
AcDbVertex
100
AcDb2dVertex
 10
2.118666900172836
 20
4.292876410282039
 30
0.0
  0
SEQEND
  5
3669
330
2EF6
100
AcDbEntity
  8
0
  0
POLYLINE
  5
2EFB
330
1E
100
AcDbEntity
  8
0
100
AcDb2dPolyline
 66
     1
 10
0.0
 20
0.0
 30
0.0
  0
VERTEX
  5
366A
330
2EFB
100
AcDbEntity
  8
0
100
AcDbVertex
100
AcDb2dVertex
 10
1.913993671826379
 20
4.256140189809596
 30
0.0
  0
VERTEX
  5
366B
330
2EFB
100
AcDbEntity
  8
0
100
AcDbVertex
100
AcDb2dVertex
 10
1.913993671826379
 20
4.275820307919833
 30
0.0
  0
VERTEX
  5
366C
330
2EFB
100
AcDbEntity
  8
0
100
AcDbVertex
100
AcDb2dVertex
 10
1.912681663952364
 20
4.292876410282039
 30
0.0
  0
SEQEND
  5
366D
330
2EFB
100
AcDbEntity
  8
0
  0
LINE
  5
2F00
330
1E
100
AcDbEntity
  8
0
100
AcDbLine
 10
2.118666900172836
 20
4.24564412681747
 30
0.0
 11
1.913993671826379
 21
4.24564412681747
 31
0.0
  0
LINE
  5
2F01
330
1E
100
AcDbEntity
  8
0
100
AcDbLine
 10
2.118666900172836
 20
4.256140189809596
 30
0.0
 11
2.118666900172836
 21
4.24564412681747
 31
0.0
  0
LINE
  5
2F02
330
1E
100
AcDbEntity
  8
0
100
AcDbLine
 10
1.913993671826379
 20
4.256140189809596
 30
0.0
 11
1.913993671826379
 21
4.24564412681747
 31
0.0
  0
LINE
  5
2F03
330
1E
100
AcDbEntity
  8
0
100
AcDbLine
 10
2.261675758440553
 20
4.283692355163928
 30
0.0
 11
2.31809209702323
 21
4.283692355163928
 31
0.0
  0
LINE
  5
2F04
330
1E
100
AcDbEntity
  8
0
100
AcDbLine
 10
1.928425758440553
 20
4.943632315793848
 30
0.0
 11
1.928425758440553
 21
4.904272079573376
 31
0.0
  0
LINE
  5
2F05
330
1E
100
AcDbEntity
  8
0
100
AcDbLine
 10
2.102922805684647
 20
4.943632315793848
 30
0.0
 11
2.102922805684647
 21
4.904272079573376
 31
0.0
  0
LINE
  5
2F06
330
1E
100
AcDbEntity
  8
0
100
AcDbLine
 10
1.626663947416931
 20
4.283692355163928
 30
0.0
 11
1.770984813558663
 21
4.283692355163928
 31
0.0
  0
LINE
  5
2F07
330
1E
100
AcDbEntity
  8
0
100
AcDbLine
 10
1.770984813558663
 20
4.271884284297785
 30
0.0
 11
1.770984813558663
 21
4.283692355163928
 31
0.0
  0
POLYLINE
  5
2F08
330
1E
100
AcDbEntity
  8
0
100
AcDb2dPolyline
 66
     1
 10
0.0
 20
0.0
 30
0.0
  0
VERTEX
  5
366E
330
2F08
100
AcDbEntity
  8
0
100
AcDbVertex
100
AcDb2dVertex
 10
1.912681663952364
 20
4.229900032329282
 30
0.0
  0
VERTEX
  5
366F
330
2F08
100
AcDbEntity
  8
0
100
AcDbVertex
100
AcDb2dVertex
 10
1.913993671826379
 20
4.235148063825344
 30
0.0
  0
VERTEX
  5
3670
330
2F08
100
AcDbEntity
  8
0
100
AcDbVertex
100
AcDb2dVertex
 10
1.913993671826379
 20
4.24564412681747
 30
0.0
  0
SEQEND
  5
3671
330
2F08
100
AcDbEntity
  8
0
  0
LINE
  5
2F0D
330
1E
100
AcDbEntity
  8
0
100
AcDbLine
 10
1.912681663952364
 20
4.229900032329282
 30
0.0
 11
2.118666900172836
 21
4.229900032329282
 31
0.0
  0
POLYLINE
  5
2F0E
330
1E
100
AcDbEntity
  8
0
100
AcDb2dPolyline
 66
     1
 10
0.0
 20
0.0
 30
0.0
  0
VERTEX
  5
3672
330
2F0E
100
AcDbEntity
  8
0
100
AcDbVertex
100
AcDb2dVertex
 10
2.118666900172836
 20
4.229900032329282
 30
0.0
  0
VERTEX
  5
3673
330
2F0E
100
AcDbEntity
  8
0
100
AcDbVertex
100
AcDb2dVertex
 10
2.118666900172836
 20
4.235148063825344
 30
0.0
  0
VERTEX
  5
3674
330
2F0E
100
AcDbEntity
  8
0
100
AcDbVertex
100
AcDb2dVertex
 10
2.118666900172836
 20
4.24564412681747
 30
0.0
  0
SEQEND
  5
3675
330
2F0E
100
AcDbEntity
  8
0
  0
LINE
  5
2F13
330
1E
100
AcDbEntity
  8
0
100
AcDbLine
 10
2.249867687574411
 20
4.21809196146314
 30
0.0
 11
2.143595049779135
 21
4.21809196146314
 31
0.0
  0
LINE
  5
2F14
330
1E
100
AcDbEntity
  8
0
100
AcDbLine
 10
1.88906552222008
 20
4.21809196146314
 30
0.0
 11
1.781480876550789
 21
4.21809196146314
 31
0.0
  0
LINE
  5
2F15
330
1E
100
AcDbEntity
  8
0
100
AcDbLine
 10
2.261675758440553
 20
4.283692355163928
 30
0.0
 11
2.261675758440553
 21
4.271884284297785
 31
0.0
  0
LINE
  5
2F16
330
1E
100
AcDbEntity
  8
0
100
AcDbLine
 10
2.143595049779135
 20
4.21809196146314
 30
0.0
 11
2.118666900172836
 21
4.229900032329282
 31
0.0
  0
LINE
  5
2F17
330
1E
100
AcDbEntity
  8
0
100
AcDbLine
 10
1.88906552222008
 20
4.21809196146314
 30
0.0
 11
1.912681663952364
 21
4.229900032329282
 31
0.0
  0
LINE
  5
2F18
330
1E
100
AcDbEntity
  8
0
100
AcDbLine
 10
2.261675758440553
 20
4.283692355163928
 30
0.0
 11
2.261675758440553
 21
4.283692355163928
 31
0.0
  0
LINE
  5
2F19
330
1E
100
AcDbEntity
  8
0
100
AcDbLine
 10
1.626663947416931
 20
4.283692355163928
 30
0.0
 11
1.626663947416931
 21
4.283692355163928
 31
0.0
  0
LINE
  5
2F1A
330
1E
100
AcDbEntity
  8
0
100
AcDbLine
 10
1.770984813558663
 20
4.283692355163928
 30
0.0
 11
1.770984813558663
 21
4.283692355163928
 31
0.0
  0
LINE
  5
2F1B
330
1E
100
AcDbEntity
  8
0
100
AcDbLine
 10
1.011332254503544
 20
5.35691479610881
 30
0.0
 11
1.012644262377561
 21
5.355602788234794
 31
0.0
  0
LINE
  5
2F1C
330
1E
100
AcDbEntity
  8
0
100
AcDbLine
 10
1.012644262377561
 20
5.355602788234794
 30
0.0
 11
2.385004498598033
 21
5.355602788234794
 31
0.0
  0
LINE
  5
2F1D
330
1E
100
AcDbEntity
  8
0
100
AcDbLine
 10
2.385004498598033
 20
5.355602788234794
 30
0.0
 11
2.386316506472049
 21
5.35691479610881
 31
0.0
  0
LINE
  5
2F1E
330
1E
100
AcDbEntity
  8
0
100
AcDbLine
 10
2.415180679700395
 20
5.08532916618755
 30
0.0
 11
2.415180679700395
 21
5.325426607132432
 31
0.0
  0
LINE
  5
2F1F
330
1E
100
AcDbEntity
  8
0
100
AcDbLine
 10
2.415180679700395
 20
5.08532916618755
 30
0.0
 11
2.416492687574411
 21
5.084017158313534
 31
0.0
  0
LINE
  5
2F20
330
1E
100
AcDbEntity
  8
0
100
AcDbLine
 10
2.416492687574411
 20
5.326738615006448
 30
0.0
 11
2.415180679700395
 21
5.325426607132432
 31
0.0
  0
LINE
  5
2F21
330
1E
100
AcDbEntity
  8
0
100
AcDbLine
 10
1.012644262377561
 20
5.055152985085188
 30
0.0
 11
2.385004498598033
 21
5.055152985085188
 31
0.0
  0
LINE
  5
2F22
330
1E
100
AcDbEntity
  8
0
100
AcDbLine
 10
1.012644262377561
 20
5.055152985085188
 30
0.0
 11
1.011332254503544
 21
5.055152985085188
 31
0.0
  0
LINE
  5
2F23
330
1E
100
AcDbEntity
  8
0
100
AcDbLine
 10
2.386316506472049
 20
5.055152985085188
 30
0.0
 11
2.385004498598033
 21
5.055152985085188
 31
0.0
  0
POLYLINE
  5
2F24
330
1E
100
AcDbEntity
  8
0
100
AcDb2dPolyline
 66
     1
 10
0.0
 20
0.0
 30
0.0
  0
VERTEX
  5
3676
330
2F24
100
AcDbEntity
  8
0
100
AcDbVertex
100
AcDb2dVertex
 10
1.012644262377561
 20
5.355602788234794
 30
0.0
  0
VERTEX
  5
3677
330
2F24
100
AcDbEntity
  8
0
100
AcDbVertex
100
AcDb2dVertex
 10
0.996900167889372
 20
5.351666764612747
 30
0.0
  0
VERTEX
  5
3678
330
2F24
100
AcDbEntity
  8
0
100
AcDbVertex
100
AcDb2dVertex
 10
0.986404104897246
 20
5.341170701620621
 30
0.0
  0
VERTEX
  5
3679
330
2F24
100
AcDbEntity
  8
0
100
AcDbVertex
100
AcDb2dVertex
 10
0.9824680812751982
 20
5.325426607132432
 30
0.0
  0
SEQEND
  5
367A
330
2F24
100
AcDbEntity
  8
0
  0
LINE
  5
2F2A
330
1E
100
AcDbEntity
  8
0
100
AcDbLine
 10
0.9824680812751989
 20
5.08532916618755
 30
0.0
 11
0.9824680812751989
 21
5.325426607132432
 31
0.0
  0
POLYLINE
  5
2F2B
330
1E
100
AcDbEntity
  8
0
100
AcDb2dPolyline
 66
     1
 10
0.0
 20
0.0
 30
0.0
  0
VERTEX
  5
367B
330
2F2B
100
AcDbEntity
  8
0
100
AcDbVertex
100
AcDb2dVertex
 10
0.9824680812751982
 20
5.08532916618755
 30
0.0
  0
VERTEX
  5
367C
330
2F2B
100
AcDbEntity
  8
0
100
AcDbVertex
100
AcDb2dVertex
 10
0.986404104897246
 20
5.069585071699362
 30
0.0
  0
VERTEX
  5
367D
330
2F2B
100
AcDbEntity
  8
0
100
AcDbVertex
100
AcDb2dVertex
 10
0.996900167889372
 20
5.059089008707235
 30
0.0
  0
VERTEX
  5
367E
330
2F2B
100
AcDbEntity
  8
0
100
AcDbVertex
100
AcDb2dVertex
 10
1.012644262377561
 20
5.055152985085188
 30
0.0
  0
SEQEND
  5
367F
330
2F2B
100
AcDbEntity
  8
0
  0
POLYLINE
  5
2F31
330
1E
100
AcDbEntity
  8
0
100
AcDb2dPolyline
 66
     1
 10
0.0
 20
0.0
 30
0.0
  0
VERTEX
  5
3680
330
2F31
100
AcDbEntity
  8
0
100
AcDbVertex
100
AcDb2dVertex
 10
2.385004498598033
 20
5.055152985085188
 30
0.0
  0
VERTEX
  5
3681
330
2F31
100
AcDbEntity
  8
0
100
AcDbVertex
100
AcDb2dVertex
 10
2.400748593086222
 20
5.059089008707235
 30
0.0
  0
VERTEX
  5
3682
330
2F31
100
AcDbEntity
  8
0
100
AcDbVertex
100
AcDb2dVertex
 10
2.411244656078348
 20
5.069585071699362
 30
0.0
  0
VERTEX
  5
3683
330
2F31
100
AcDbEntity
  8
0
100
AcDbVertex
100
AcDb2dVertex
 10
2.415180679700395
 20
5.08532916618755
 30
0.0
  0
SEQEND
  5
3684
330
2F31
100
AcDbEntity
  8
0
  0
POLYLINE
  5
2F37
330
1E
100
AcDbEntity
  8
0
100
AcDb2dPolyline
 66
     1
 10
0.0
 20
0.0
 30
0.0
  0
VERTEX
  5
3685
330
2F37
100
AcDbEntity
  8
0
100
AcDbVertex
100
AcDb2dVertex
 10
2.415180679700395
 20
5.325426607132432
 30
0.0
  0
VERTEX
  5
3686
330
2F37
100
AcDbEntity
  8
0
100
AcDbVertex
100
AcDb2dVertex
 10
2.411244656078348
 20
5.341170701620621
 30
0.0
  0
VERTEX
  5
3687
330
2F37
100
AcDbEntity
  8
0
100
AcDbVertex
100
AcDb2dVertex
 10
2.400748593086222
 20
5.351666764612747
 30
0.0
  0
VERTEX
  5
3688
330
2F37
100
AcDbEntity
  8
0
100
AcDbVertex
100
AcDb2dVertex
 10
2.385004498598033
 20
5.355602788234794
 30
0.0
  0
SEQEND
  5
3689
330
2F37
100
AcDbEntity
  8
0
  0
LINE
  5
2F3D
330
1E
100
AcDbEntity
  8
0
100
AcDbLine
 10
1.059876545842127
 20
5.084017158313534
 30
0.0
 11
2.337772215133466
 21
5.084017158313534
 31
0.0
  0
LINE
  5
2F3E
330
1E
100
AcDbEntity
  8
0
100
AcDbLine
 10
1.059876545842127
 20
5.135185465400148
 30
0.0
 11
1.059876545842127
 21
5.084017158313534
 31
0.0
  0
LINE
  5
2F3F
330
1E
100
AcDbEntity
  8
0
100
AcDbLine
 10
1.034948396235828
 20
5.135185465400148
 30
0.0
 11
1.059876545842127
 21
5.135185465400148
 31
0.0
  0
LINE
  5
2F40
330
1E
100
AcDbEntity
  8
0
100
AcDbLine
 10
1.034948396235828
 20
5.275570307919833
 30
0.0
 11
1.034948396235828
 21
5.135185465400148
 31
0.0
  0
LINE
  5
2F41
330
1E
100
AcDbEntity
  8
0
100
AcDbLine
 10
1.034948396235828
 20
5.275570307919833
 30
0.0
 11
1.059876545842127
 21
5.275570307919833
 31
0.0
  0
LINE
  5
2F42
330
1E
100
AcDbEntity
  8
0
100
AcDbLine
 10
1.059876545842127
 20
5.328050622880462
 30
0.0
 11
1.059876545842127
 21
5.275570307919833
 31
0.0
  0
LINE
  5
2F43
330
1E
100
AcDbEntity
  8
0
100
AcDbLine
 10
1.059876545842127
 20
5.328050622880462
 30
0.0
 11
2.337772215133466
 21
5.328050622880462
 31
0.0
  0
LINE
  5
2F44
330
1E
100
AcDbEntity
  8
0
100
AcDbLine
 10
2.337772215133466
 20
5.328050622880462
 30
0.0
 11
2.337772215133466
 21
5.275570307919833
 31
0.0
  0
LINE
  5
2F45
330
1E
100
AcDbEntity
  8
0
100
AcDbLine
 10
2.337772215133466
 20
5.275570307919833
 30
0.0
 11
2.362700364739765
 21
5.275570307919833
 31
0.0
  0
LINE
  5
2F46
330
1E
100
AcDbEntity
  8
0
100
AcDbLine
 10
2.362700364739765
 20
5.275570307919833
 30
0.0
 11
2.362700364739765
 21
5.135185465400148
 31
0.0
  0
LINE
  5
2F47
330
1E
100
AcDbEntity
  8
0
100
AcDbLine
 10
2.337772215133466
 20
5.135185465400148
 30
0.0
 11
2.362700364739765
 21
5.135185465400148
 31
0.0
  0
LINE
  5
2F48
330
1E
100
AcDbEntity
  8
0
100
AcDbLine
 10
2.337772215133466
 20
5.135185465400148
 30
0.0
 11
2.337772215133466
 21
5.084017158313534
 31
0.0
  0
LINE
  5
2F49
330
1E
100
AcDbEntity
  8
0
100
AcDbLine
 10
2.362700364739765
 20
5.135185465400148
 30
0.0
 11
2.36138835686575
 21
5.135185465400148
 31
0.0
  0
LINE
  5
2F4A
330
1E
100
AcDbEntity
  8
0
100
AcDbLine
 10
2.36138835686575
 20
5.135185465400148
 30
0.0
 11
2.33646020725945
 21
5.135185465400148
 31
0.0
  0
LINE
  5
2F4B
330
1E
100
AcDbEntity
  8
0
100
AcDbLine
 10
2.33646020725945
 20
5.135185465400148
 30
0.0
 11
2.337772215133466
 21
5.135185465400148
 31
0.0
  0
LINE
  5
2F4C
330
1E
100
AcDbEntity
  8
0
100
AcDbLine
 10
2.362700364739765
 20
5.275570307919833
 30
0.0
 11
2.36138835686575
 21
5.275570307919833
 31
0.0
  0
LINE
  5
2F4D
330
1E
100
AcDbEntity
  8
0
100
AcDbLine
 10
2.36138835686575
 20
5.275570307919833
 30
0.0
 11
2.36138835686575
 21
5.274258300045818
 31
0.0
  0
LINE
  5
2F4E
330
1E
100
AcDbEntity
  8
0
100
AcDbLine
 10
2.36138835686575
 20
5.274258300045818
 30
0.0
 11
2.36138835686575
 21
5.136497473274165
 31
0.0
  0
LINE
  5
2F4F
330
1E
100
AcDbEntity
  8
0
100
AcDbLine
 10
2.36138835686575
 20
5.136497473274165
 30
0.0
 11
2.36138835686575
 21
5.135185465400148
 31
0.0
  0
POLYLINE
  5
2F50
330
1E
100
AcDbEntity
  8
0
100
AcDb2dPolyline
 66
     1
 10
0.0
 20
0.0
 30
0.0
  0
VERTEX
  5
368A
330
2F50
100
AcDbEntity
  8
0
100
AcDbVertex
100
AcDb2dVertex
 10
2.016330285999607
 20
5.169297670124558
 30
0.0
  0
VERTEX
  5
368B
330
2F50
100
AcDbEntity
  8
0
100
AcDbVertex
100
AcDb2dVertex
 10
1.996650167889372
 20
5.174545701620621
 30
0.0
  0
VERTEX
  5
368C
330
2F50
100
AcDbEntity
  8
0
100
AcDbVertex
100
AcDb2dVertex
 10
1.982218081275198
 20
5.190289796108809
 30
0.0
  0
VERTEX
  5
368D
330
2F50
100
AcDbEntity
  8
0
100
AcDbVertex
100
AcDb2dVertex
 10
1.979594065527167
 20
5.211281922093061
 30
0.0
  0
VERTEX
  5
368E
330
2F50
100
AcDbEntity
  8
0
100
AcDbVertex
100
AcDb2dVertex
 10
1.988778120645277
 20
5.229650032329281
 30
0.0
  0
VERTEX
  5
368F
330
2F50
100
AcDbEntity
  8
0
100
AcDbVertex
100
AcDb2dVertex
 10
2.005834223007481
 20
5.240146095321407
 30
0.0
  0
VERTEX
  5
3690
330
2F50
100
AcDbEntity
  8
0
100
AcDbVertex
100
AcDb2dVertex
 10
2.026826348991733
 20
5.240146095321407
 30
0.0
  0
VERTEX
  5
3691
330
2F50
100
AcDbEntity
  8
0
100
AcDbVertex
100
AcDb2dVertex
 10
2.043882451353939
 20
5.229650032329281
 30
0.0
  0
VERTEX
  5
3692
330
2F50
100
AcDbEntity
  8
0
100
AcDbVertex
100
AcDb2dVertex
 10
2.051754498598032
 20
5.211281922093061
 30
0.0
  0
VERTEX
  5
3693
330
2F50
100
AcDbEntity
  8
0
100
AcDbVertex
100
AcDb2dVertex
 10
2.049130482850001
 20
5.190289796108809
 30
0.0
  0
VERTEX
  5
3694
330
2F50
100
AcDbEntity
  8
0
100
AcDbVertex
100
AcDb2dVertex
 10
2.036010404109844
 20
5.174545701620621
 30
0.0
  0
VERTEX
  5
3695
330
2F50
100
AcDbEntity
  8
0
100
AcDbVertex
100
AcDb2dVertex
 10
2.016330285999607
 20
5.169297670124558
 30
0.0
  0
SEQEND
  5
3696
330
2F50
100
AcDbEntity
  8
0
  0
LINE
  5
2F5E
330
1E
100
AcDbEntity
  8
0
100
AcDbLine
 10
1.061188553716143
 20
5.326738615006448
 30
0.0
 11
2.33646020725945
 21
5.326738615006448
 31
0.0
  0
LINE
  5
2F5F
330
1E
100
AcDbEntity
  8
0
100
AcDbLine
 10
1.061188553716143
 20
5.326738615006448
 30
0.0
 11
1.061188553716143
 21
5.274258300045818
 31
0.0
  0
LINE
  5
2F60
330
1E
100
AcDbEntity
  8
0
100
AcDbLine
 10
1.036260404109844
 20
5.274258300045818
 30
0.0
 11
1.061188553716143
 21
5.274258300045818
 31
0.0
  0
LINE
  5
2F61
330
1E
100
AcDbEntity
  8
0
100
AcDbLine
 10
1.036260404109844
 20
5.274258300045818
 30
0.0
 11
1.036260404109844
 21
5.136497473274165
 31
0.0
  0
LINE
  5
2F62
330
1E
100
AcDbEntity
  8
0
100
AcDbLine
 10
1.036260404109844
 20
5.136497473274165
 30
0.0
 11
1.061188553716143
 21
5.136497473274165
 31
0.0
  0
LINE
  5
2F63
330
1E
100
AcDbEntity
  8
0
100
AcDbLine
 10
1.061188553716143
 20
5.136497473274165
 30
0.0
 11
1.061188553716143
 21
5.084017158313534
 31
0.0
  0
LINE
  5
2F64
330
1E
100
AcDbEntity
  8
0
100
AcDbLine
 10
1.061188553716143
 20
5.084017158313534
 30
0.0
 11
2.33646020725945
 21
5.084017158313534
 31
0.0
  0
LINE
  5
2F65
330
1E
100
AcDbEntity
  8
0
100
AcDbLine
 10
2.33646020725945
 20
5.136497473274165
 30
0.0
 11
2.33646020725945
 21
5.084017158313534
 31
0.0
  0
LINE
  5
2F66
330
1E
100
AcDbEntity
  8
0
100
AcDbLine
 10
2.33646020725945
 20
5.136497473274165
 30
0.0
 11
2.36138835686575
 21
5.136497473274165
 31
0.0
  0
LINE
  5
2F67
330
1E
100
AcDbEntity
  8
0
100
AcDbLine
 10
2.33646020725945
 20
5.274258300045818
 30
0.0
 11
2.36138835686575
 21
5.274258300045818
 31
0.0
  0
LINE
  5
2F68
330
1E
100
AcDbEntity
  8
0
100
AcDbLine
 10
2.33646020725945
 20
5.326738615006448
 30
0.0
 11
2.33646020725945
 21
5.274258300045818
 31
0.0
  0
POLYLINE
  5
2F69
330
1E
100
AcDbEntity
  8
0
100
AcDb2dPolyline
 66
     1
 10
0.0
 20
0.0
 30
0.0
  0
VERTEX
  5
3697
330
2F69
100
AcDbEntity
  8
0
100
AcDbVertex
100
AcDb2dVertex
 10
1.381318474975986
 20
5.169297670124558
 30
0.0
  0
VERTEX
  5
3698
330
2F69
100
AcDbEntity
  8
0
100
AcDbVertex
100
AcDb2dVertex
 10
1.361638356865749
 20
5.174545701620621
 30
0.0
  0
VERTEX
  5
3699
330
2F69
100
AcDbEntity
  8
0
100
AcDbVertex
100
AcDb2dVertex
 10
1.348518278125592
 20
5.190289796108809
 30
0.0
  0
VERTEX
  5
369A
330
2F69
100
AcDbEntity
  8
0
100
AcDbVertex
100
AcDb2dVertex
 10
1.344582254503545
 20
5.211281922093061
 30
0.0
  0
VERTEX
  5
369B
330
2F69
100
AcDbEntity
  8
0
100
AcDbVertex
100
AcDb2dVertex
 10
1.353766309621655
 20
5.229650032329281
 30
0.0
  0
VERTEX
  5
369C
330
2F69
100
AcDbEntity
  8
0
100
AcDbVertex
100
AcDb2dVertex
 10
1.370822411983859
 20
5.240146095321407
 30
0.0
  0
VERTEX
  5
369D
330
2F69
100
AcDbEntity
  8
0
100
AcDbVertex
100
AcDb2dVertex
 10
1.391814537968112
 20
5.240146095321407
 30
0.0
  0
VERTEX
  5
369E
330
2F69
100
AcDbEntity
  8
0
100
AcDbVertex
100
AcDb2dVertex
 10
1.408870640330316
 20
5.229650032329281
 30
0.0
  0
VERTEX
  5
369F
330
2F69
100
AcDbEntity
  8
0
100
AcDbVertex
100
AcDb2dVertex
 10
1.418054695448427
 20
5.211281922093061
 30
0.0
  0
VERTEX
  5
36A0
330
2F69
100
AcDbEntity
  8
0
100
AcDbVertex
100
AcDb2dVertex
 10
1.414118671826379
 20
5.190289796108809
 30
0.0
  0
VERTEX
  5
36A1
330
2F69
100
AcDbEntity
  8
0
100
AcDbVertex
100
AcDb2dVertex
 10
1.400998593086222
 20
5.174545701620621
 30
0.0
  0
VERTEX
  5
36A2
330
2F69
100
AcDbEntity
  8
0
100
AcDbVertex
100
AcDb2dVertex
 10
1.381318474975986
 20
5.169297670124558
 30
0.0
  0
SEQEND
  5
36A3
330
2F69
100
AcDbEntity
  8
0
  0
LINE
  5
2F77
330
1E
100
AcDbEntity
  8
0
100
AcDbLine
 10
2.337772215133466
 20
5.275570307919833
 30
0.0
 11
2.33646020725945
 21
5.275570307919833
 31
0.0
  0
LINE
  5
2F78
330
1E
100
AcDbEntity
  8
0
100
AcDbLine
 10
2.36138835686575
 20
5.275570307919833
 30
0.0
 11
2.33646020725945
 21
5.275570307919833
 31
0.0
  0
LINE
  5
2F79
330
1E
100
AcDbEntity
  8
0
100
AcDbLine
 10
2.337772215133466
 20
5.328050622880462
 30
0.0
 11
2.33646020725945
 21
5.326738615006448
 31
0.0
  0
LINE
  5
2F7A
330
1E
100
AcDbEntity
  8
0
100
AcDbLine
 10
2.33646020725945
 20
5.326738615006448
 30
0.0
 11
2.33646020725945
 21
5.275570307919833
 31
0.0
  0
LINE
  5
2F7B
330
1E
100
AcDbEntity
  8
0
100
AcDbLine
 10
1.059876545842127
 20
5.328050622880462
 30
0.0
 11
1.059876545842127
 21
5.326738615006448
 31
0.0
  0
LINE
  5
2F7C
330
1E
100
AcDbEntity
  8
0
100
AcDbLine
 10
1.059876545842127
 20
5.326738615006448
 30
0.0
 11
1.061188553716143
 21
5.326738615006448
 31
0.0
  0
LINE
  5
2F7D
330
1E
100
AcDbEntity
  8
0
100
AcDbLine
 10
2.33646020725945
 20
5.326738615006448
 30
0.0
 11
2.33646020725945
 21
5.326738615006448
 31
0.0
  0
LINE
  5
2F7E
330
1E
100
AcDbEntity
  8
0
100
AcDbLine
 10
2.33646020725945
 20
5.084017158313534
 30
0.0
 11
2.33646020725945
 21
5.135185465400148
 31
0.0
  0
LINE
  5
2F7F
330
1E
100
AcDbEntity
  8
0
100
AcDbLine
 10
2.337772215133466
 20
5.084017158313534
 30
0.0
 11
2.33646020725945
 21
5.084017158313534
 31
0.0
  0
LINE
  5
2F80
330
1E
100
AcDbEntity
  8
0
100
AcDbLine
 10
1.059876545842127
 20
5.084017158313534
 30
0.0
 11
1.061188553716143
 21
5.084017158313534
 31
0.0
  0
LINE
  5
2F81
330
1E
100
AcDbEntity
  8
0
100
AcDbLine
 10
1.059876545842127
 20
5.084017158313534
 30
0.0
 11
1.059876545842127
 21
5.084017158313534
 31
0.0
  0
LINE
  5
2F82
330
1E
100
AcDbEntity
  8
0
100
AcDbLine
 10
2.33646020725945
 20
5.084017158313534
 30
0.0
 11
2.33646020725945
 21
5.084017158313534
 31
0.0
  0
POLYLINE
  5
2F83
330
1E
100
AcDbEntity
  8
0
100
AcDb2dPolyline
 66
     1
 10
0.0
 20
0.0
 30
0.0
  0
VERTEX
  5
36A4
330
2F83
100
AcDbEntity
  8
0
100
AcDbVertex
100
AcDb2dVertex
 10
2.016330285999607
 20
5.169297670124558
 30
0.0
  0
VERTEX
  5
36A5
330
2F83
100
AcDbEntity
  8
0
100
AcDbVertex
100
AcDb2dVertex
 10
1.996650167889372
 20
5.174545701620621
 30
0.0
  0
VERTEX
  5
36A6
330
2F83
100
AcDbEntity
  8
0
100
AcDbVertex
100
AcDb2dVertex
 10
1.983530089149214
 20
5.190289796108809
 30
0.0
  0
VERTEX
  5
36A7
330
2F83
100
AcDbEntity
  8
0
100
AcDbVertex
100
AcDb2dVertex
 10
1.980906073401183
 20
5.209969914219047
 30
0.0
  0
VERTEX
  5
36A8
330
2F83
100
AcDbEntity
  8
0
100
AcDbVertex
100
AcDb2dVertex
 10
1.988778120645277
 20
5.229650032329281
 30
0.0
  0
VERTEX
  5
36A9
330
2F83
100
AcDbEntity
  8
0
100
AcDbVertex
100
AcDb2dVertex
 10
2.005834223007481
 20
5.240146095321407
 30
0.0
  0
VERTEX
  5
36AA
330
2F83
100
AcDbEntity
  8
0
100
AcDbVertex
100
AcDb2dVertex
 10
2.026826348991733
 20
5.240146095321407
 30
0.0
  0
VERTEX
  5
36AB
330
2F83
100
AcDbEntity
  8
0
100
AcDbVertex
100
AcDb2dVertex
 10
2.043882451353939
 20
5.229650032329281
 30
0.0
  0
VERTEX
  5
36AC
330
2F83
100
AcDbEntity
  8
0
100
AcDbVertex
100
AcDb2dVertex
 10
2.051754498598032
 20
5.209969914219047
 30
0.0
  0
VERTEX
  5
36AD
330
2F83
100
AcDbEntity
  8
0
100
AcDbVertex
100
AcDb2dVertex
 10
2.049130482850001
 20
5.190289796108809
 30
0.0
  0
VERTEX
  5
36AE
330
2F83
100
AcDbEntity
  8
0
100
AcDbVertex
100
AcDb2dVertex
 10
2.036010404109844
 20
5.174545701620621
 30
0.0
  0
VERTEX
  5
36AF
330
2F83
100
AcDbEntity
  8
0
100
AcDbVertex
100
AcDb2dVertex
 10
2.016330285999607
 20
5.169297670124558
 30
0.0
  0
SEQEND
  5
36B0
330
2F83
100
AcDbEntity
  8
0
  0
LINE
  5
2F91
330
1E
100
AcDbEntity
  8
0
100
AcDbLine
 10
1.135973002535041
 20
4.271884284297785
 30
0.0
 11
1.135973002535041
 21
4.283692355163928
 31
0.0
  0
POLYLINE
  5
2F92
330
1E
100
AcDbEntity
  8
0
100
AcDb2dPolyline
 66
     1
 10
0.0
 20
0.0
 30
0.0
  0
VERTEX
  5
36B1
330
2F92
100
AcDbEntity
  8
0
100
AcDbVertex
100
AcDb2dVertex
 10
1.381318474975986
 20
5.169297670124558
 30
0.0
  0
VERTEX
  5
36B2
330
2F92
100
AcDbEntity
  8
0
100
AcDbVertex
100
AcDb2dVertex
 10
1.361638356865749
 20
5.174545701620621
 30
0.0
  0
VERTEX
  5
36B3
330
2F92
100
AcDbEntity
  8
0
100
AcDbVertex
100
AcDb2dVertex
 10
1.348518278125592
 20
5.190289796108809
 30
0.0
  0
VERTEX
  5
36B4
330
2F92
100
AcDbEntity
  8
0
100
AcDbVertex
100
AcDb2dVertex
 10
1.345894262377561
 20
5.209969914219047
 30
0.0
  0
VERTEX
  5
36B5
330
2F92
100
AcDbEntity
  8
0
100
AcDbVertex
100
AcDb2dVertex
 10
1.353766309621655
 20
5.229650032329281
 30
0.0
  0
VERTEX
  5
36B6
330
2F92
100
AcDbEntity
  8
0
100
AcDbVertex
100
AcDb2dVertex
 10
1.370822411983859
 20
5.240146095321407
 30
0.0
  0
VERTEX
  5
36B7
330
2F92
100
AcDbEntity
  8
0
100
AcDbVertex
100
AcDb2dVertex
 10
1.391814537968112
 20
5.240146095321407
 30
0.0
  0
VERTEX
  5
36B8
330
2F92
100
AcDbEntity
  8
0
100
AcDbVertex
100
AcDb2dVertex
 10
1.408870640330316
 20
5.229650032329281
 30
0.0
  0
VERTEX
  5
36B9
330
2F92
100
AcDbEntity
  8
0
100
AcDbVertex
100
AcDb2dVertex
 10
1.416742687574411
 20
5.209969914219047
 30
0.0
  0
VERTEX
  5
36BA
330
2F92
100
AcDbEntity
  8
0
100
AcDbVertex
100
AcDb2dVertex
 10
1.414118671826379
 20
5.190289796108809
 30
0.0
  0
VERTEX
  5
36BB
330
2F92
100
AcDbEntity
  8
0
100
AcDbVertex
100
AcDb2dVertex
 10
1.400998593086222
 20
5.174545701620621
 30
0.0
  0
VERTEX
  5
36BC
330
2F92
100
AcDbEntity
  8
0
100
AcDbVertex
100
AcDb2dVertex
 10
1.381318474975986
 20
5.169297670124558
 30
0.0
  0
SEQEND
  5
36BD
330
2F92
100
AcDbEntity
  8
0
  0
LINE
  5
2FA0
330
1E
100
AcDbEntity
  8
0
100
AcDbLine
 10
1.059876545842127
 20
5.326738615006448
 30
0.0
 11
1.059876545842127
 21
5.275570307919833
 31
0.0
  0
LINE
  5
2FA1
330
1E
100
AcDbEntity
  8
0
100
AcDbLine
 10
1.034948396235828
 20
5.275570307919833
 30
0.0
 11
1.059876545842127
 21
5.275570307919833
 31
0.0
  0
LINE
  5
2FA2
330
1E
100
AcDbEntity
  8
0
100
AcDbLine
 10
1.034948396235828
 20
5.135185465400148
 30
0.0
 11
1.059876545842127
 21
5.135185465400148
 31
0.0
  0
LINE
  5
2FA3
330
1E
100
AcDbEntity
  8
0
100
AcDbLine
 10
1.059876545842127
 20
5.084017158313534
 30
0.0
 11
1.059876545842127
 21
5.135185465400148
 31
0.0
  0
LINE
  5
2FA4
330
1E
100
AcDbEntity
  8
0
100
AcDbLine
 10
1.483655089149214
 20
4.326988615006447
 30
0.0
 11
1.277669852928742
 21
4.326988615006447
 31
0.0
  0
LINE
  5
2FA5
330
1E
100
AcDbEntity
  8
0
100
AcDbLine
 10
1.277669852928742
 20
4.326988615006447
 30
0.0
 11
1.277669852928742
 21
4.296812433904085
 31
0.0
  0
LINE
  5
2FA6
330
1E
100
AcDbEntity
  8
0
100
AcDbLine
 10
1.483655089149214
 20
4.296812433904085
 30
0.0
 11
1.277669852928742
 21
4.296812433904085
 31
0.0
  0
LINE
  5
2FA7
330
1E
100
AcDbEntity
  8
0
100
AcDbLine
 10
1.483655089149214
 20
4.326988615006447
 30
0.0
 11
1.483655089149214
 21
4.296812433904085
 31
0.0
  0
LINE
  5
2FA8
330
1E
100
AcDbEntity
  8
0
100
AcDbLine
 10
1.277669852928742
 20
4.292876410282039
 30
0.0
 11
1.483655089149214
 21
4.292876410282039
 31
0.0
  0
LINE
  5
2FA9
330
1E
100
AcDbEntity
  8
0
100
AcDbLine
 10
1.483655089149214
 20
4.292876410282039
 30
0.0
 11
1.483655089149214
 21
4.296812433904085
 31
0.0
  0
LINE
  5
2FAA
330
1E
100
AcDbEntity
  8
0
100
AcDbLine
 10
1.277669852928742
 20
4.292876410282039
 30
0.0
 11
1.277669852928742
 21
4.296812433904085
 31
0.0
  0
LINE
  5
2FAB
330
1E
100
AcDbEntity
  8
0
100
AcDbLine
 10
1.483655089149214
 20
4.256140189809596
 30
0.0
 11
1.278981860802757
 21
4.256140189809596
 31
0.0
  0
POLYLINE
  5
2FAC
330
1E
100
AcDbEntity
  8
0
100
AcDb2dPolyline
 66
     1
 10
0.0
 20
0.0
 30
0.0
  0
VERTEX
  5
36BE
330
2FAC
100
AcDbEntity
  8
0
100
AcDbVertex
100
AcDb2dVertex
 10
1.483655089149214
 20
4.256140189809596
 30
0.0
  0
VERTEX
  5
36BF
330
2FAC
100
AcDbEntity
  8
0
100
AcDbVertex
100
AcDb2dVertex
 10
1.483655089149214
 20
4.275820307919833
 30
0.0
  0
VERTEX
  5
36C0
330
2FAC
100
AcDbEntity
  8
0
100
AcDbVertex
100
AcDb2dVertex
 10
1.483655089149214
 20
4.292876410282039
 30
0.0
  0
SEQEND
  5
36C1
330
2FAC
100
AcDbEntity
  8
0
  0
POLYLINE
  5
2FB1
330
1E
100
AcDbEntity
  8
0
100
AcDb2dPolyline
 66
     1
 10
0.0
 20
0.0
 30
0.0
  0
VERTEX
  5
36C2
330
2FB1
100
AcDbEntity
  8
0
100
AcDbVertex
100
AcDb2dVertex
 10
1.278981860802757
 20
4.256140189809596
 30
0.0
  0
VERTEX
  5
36C3
330
2FB1
100
AcDbEntity
  8
0
100
AcDbVertex
100
AcDb2dVertex
 10
1.278981860802757
 20
4.275820307919833
 30
0.0
  0
VERTEX
  5
36C4
330
2FB1
100
AcDbEntity
  8
0
100
AcDbVertex
100
AcDb2dVertex
 10
1.277669852928742
 20
4.292876410282039
 30
0.0
  0
SEQEND
  5
36C5
330
2FB1
100
AcDbEntity
  8
0
  0
LINE
  5
2FB6
330
1E
100
AcDbEntity
  8
0
100
AcDbLine
 10
1.483655089149214
 20
4.24564412681747
 30
0.0
 11
1.278981860802757
 21
4.24564412681747
 31
0.0
  0
LINE
  5
2FB7
330
1E
100
AcDbEntity
  8
0
100
AcDbLine
 10
1.483655089149214
 20
4.256140189809596
 30
0.0
 11
1.483655089149214
 21
4.24564412681747
 31
0.0
  0
LINE
  5
2FB8
330
1E
100
AcDbEntity
  8
0
100
AcDbLine
 10
1.278981860802757
 20
4.256140189809596
 30
0.0
 11
1.278981860802757
 21
4.24564412681747
 31
0.0
  0
POLYLINE
  5
2FB9
330
1E
100
AcDbEntity
  8
0
100
AcDb2dPolyline
 66
     1
 10
0.0
 20
0.0
 30
0.0
  0
VERTEX
  5
36C6
330
2FB9
100
AcDbEntity
  8
0
100
AcDbVertex
100
AcDb2dVertex
 10
1.277669852928742
 20
4.229900032329282
 30
0.0
  0
VERTEX
  5
36C7
330
2FB9
100
AcDbEntity
  8
0
100
AcDbVertex
100
AcDb2dVertex
 10
1.278981860802757
 20
4.235148063825344
 30
0.0
  0
VERTEX
  5
36C8
330
2FB9
100
AcDbEntity
  8
0
100
AcDbVertex
100
AcDb2dVertex
 10
1.278981860802757
 20
4.24564412681747
 30
0.0
  0
SEQEND
  5
36C9
330
2FB9
100
AcDbEntity
  8
0
  0
LINE
  5
2FBE
330
1E
100
AcDbEntity
  8
0
100
AcDbLine
 10
1.277669852928742
 20
4.229900032329282
 30
0.0
 11
1.48496709702323
 21
4.229900032329282
 31
0.0
  0
POLYLINE
  5
2FBF
330
1E
100
AcDbEntity
  8
0
100
AcDb2dPolyline
 66
     1
 10
0.0
 20
0.0
 30
0.0
  0
VERTEX
  5
36CA
330
2FBF
100
AcDbEntity
  8
0
100
AcDbVertex
100
AcDb2dVertex
 10
1.484967097023229
 20
4.229900032329282
 30
0.0
  0
VERTEX
  5
36CB
330
2FBF
100
AcDbEntity
  8
0
100
AcDbVertex
100
AcDb2dVertex
 10
1.483655089149214
 20
4.235148063825344
 30
0.0
  0
VERTEX
  5
36CC
330
2FBF
100
AcDbEntity
  8
0
100
AcDbVertex
100
AcDb2dVertex
 10
1.483655089149214
 20
4.24564412681747
 30
0.0
  0
SEQEND
  5
36CD
330
2FBF
100
AcDbEntity
  8
0
  0
LINE
  5
2FC4
330
1E
100
AcDbEntity
  8
0
100
AcDbLine
 10
1.254053711196458
 20
4.21809196146314
 30
0.0
 11
1.147781073401183
 21
4.21809196146314
 31
0.0
  0
LINE
  5
2FC5
330
1E
100
AcDbEntity
  8
0
100
AcDbLine
 10
1.079556663952364
 20
4.283692355163928
 30
0.0
 11
1.135973002535041
 21
4.283692355163928
 31
0.0
  0
LINE
  5
2FC6
330
1E
100
AcDbEntity
  8
0
100
AcDbLine
 10
1.29341394741693
 20
4.904272079573376
 30
0.0
 11
1.469223002535041
 21
4.904272079573376
 31
0.0
  0
LINE
  5
2FC7
330
1E
100
AcDbEntity
  8
0
100
AcDbLine
 10
1.614855876550788
 20
4.21809196146314
 30
0.0
 11
1.508583238755513
 21
4.21809196146314
 31
0.0
  0
LINE
  5
2FC8
330
1E
100
AcDbEntity
  8
0
100
AcDbLine
 10
1.626663947416931
 20
4.283692355163928
 30
0.0
 11
1.626663947416931
 21
4.271884284297785
 31
0.0
  0
LINE
  5
2FC9
330
1E
100
AcDbEntity
  8
0
100
AcDbLine
 10
1.059876545842127
 20
5.275570307919833
 30
0.0
 11
1.059876545842127
 21
5.275570307919833
 31
0.0
  0
LINE
  5
2FCA
330
1E
100
AcDbEntity
  8
0
100
AcDbLine
 10
1.034948396235828
 20
5.275570307919833
 30
0.0
 11
1.034948396235828
 21
5.275570307919833
 31
0.0
  0
LINE
  5
2FCB
330
1E
100
AcDbEntity
  8
0
100
AcDbLine
 10
1.034948396235828
 20
5.135185465400148
 30
0.0
 11
1.034948396235828
 21
5.135185465400148
 31
0.0
  0
LINE
  5
2FCC
330
1E
100
AcDbEntity
  8
0
100
AcDbLine
 10
1.034948396235828
 20
5.135185465400148
 30
0.0
 11
1.036260404109844
 21
5.136497473274165
 31
0.0
  0
LINE
  5
2FCD
330
1E
100
AcDbEntity
  8
0
100
AcDbLine
 10
1.036260404109844
 20
5.274258300045818
 30
0.0
 11
1.034948396235828
 21
5.275570307919833
 31
0.0
  0
LINE
  5
2FCE
330
1E
100
AcDbEntity
  8
0
100
AcDbLine
 10
1.059876545842127
 20
5.135185465400148
 30
0.0
 11
1.059876545842127
 21
5.135185465400148
 31
0.0
  0
LINE
  5
2FCF
330
1E
100
AcDbEntity
  8
0
100
AcDbLine
 10
0.9824680812751989
 20
5.325426607132432
 30
0.0
 11
0.9811560734011832
 21
5.326738615006448
 31
0.0
  0
LINE
  5
2FD0
330
1E
100
AcDbEntity
  8
0
100
AcDbLine
 10
0.9811560734011832
 20
5.084017158313534
 30
0.0
 11
0.9824680812751989
 21
5.08532916618755
 31
0.0
  0
LINE
  5
2FD1
330
1E
100
AcDbEntity
  8
0
100
AcDbLine
 10
1.135973002535041
 20
4.283692355163928
 30
0.0
 11
1.135973002535041
 21
4.283692355163928
 31
0.0
  0
LINE
  5
2FD2
330
1E
100
AcDbEntity
  8
0
100
AcDbLine
 10
1.508583238755513
 20
4.21809196146314
 30
0.0
 11
1.48496709702323
 21
4.229900032329282
 31
0.0
  0
LINE
  5
2FD3
330
1E
100
AcDbEntity
  8
0
100
AcDbLine
 10
1.254053711196458
 20
4.21809196146314
 30
0.0
 11
1.277669852928742
 21
4.229900032329282
 31
0.0
  0
LINE
  5
2FD4
330
1E
100
AcDbEntity
  8
0
100
AcDbLine
 10
1.29341394741693
 20
4.943632315793848
 30
0.0
 11
1.29341394741693
 21
4.904272079573376
 31
0.0
  0
LINE
  5
2FD5
330
1E
100
AcDbEntity
  8
0
100
AcDbLine
 10
1.469223002535041
 20
4.943632315793848
 30
0.0
 11
1.469223002535041
 21
4.904272079573376
 31
0.0
  0
LINE
  5
2FD6
330
1E
100
AcDbEntity
  8
0
100
AcDbLine
 10
0.4012485930862218
 20
7.725089008707236
 30
0.0
 11
0.4038726088342531
 21
7.722464992959203
 31
0.0
  0
LINE
  5
2FD7
330
1E
100
AcDbEntity
  8
0
100
AcDbLine
 10
2.99377615214134
 20
7.722464992959203
 30
0.0
 11
2.996400167889372
 21
7.725089008707236
 31
0.0
  0
LINE
  5
2FD8
330
1E
100
AcDbEntity
  8
0
100
AcDbLine
 10
2.996400167889372
 20
3.220965977211172
 30
0.0
 11
2.99377615214134
 21
3.223589992959203
 31
0.0
  0
LINE
  5
2FD9
330
1E
100
AcDbEntity
  8
0
100
AcDbLine
 10
0.4038726088342531
 20
3.223589992959203
 30
0.0
 11
0.4012485930862218
 21
3.220965977211172
 31
0.0
  0
LINE
  5
2FDA
330
1E
100
AcDbEntity
  8
0
100
AcDbLine
 10
1.759176742692521
 20
3.766761252801722
 30
0.0
 11
1.638472018283072
 21
3.766761252801722
 31
0.0
  0
LINE
  5
2FDB
330
1E
100
AcDbEntity
  8
0
100
AcDbLine
 10
1.638472018283072
 20
3.900586055951329
 30
0.0
 11
1.759176742692521
 21
3.900586055951329
 31
0.0
  0
POLYLINE
  5
2FDC
330
1E
100
AcDbEntity
  8
0
100
AcDb2dPolyline
 66
     1
 10
0.0
 20
0.0
 30
0.0
  0
VERTEX
  5
36CE
330
2FDC
100
AcDbEntity
  8
0
100
AcDbVertex
100
AcDb2dVertex
 10
1.638472018283072
 20
3.766761252801722
 30
0.0
  0
VERTEX
  5
36CF
330
2FDC
100
AcDbEntity
  8
0
100
AcDbVertex
100
AcDb2dVertex
 10
1.609607845054726
 20
3.773321292171802
 30
0.0
  0
VERTEX
  5
36D0
330
2FDC
100
AcDbEntity
  8
0
100
AcDbVertex
100
AcDb2dVertex
 10
1.585991703322442
 20
3.791689402408022
 30
0.0
  0
VERTEX
  5
36D1
330
2FDC
100
AcDbEntity
  8
0
100
AcDbVertex
100
AcDb2dVertex
 10
1.572871624582285
 20
3.817929559888336
 30
0.0
  0
VERTEX
  5
36D2
330
2FDC
100
AcDbEntity
  8
0
100
AcDbVertex
100
AcDb2dVertex
 10
1.572871624582285
 20
3.848105740990699
 30
0.0
  0
VERTEX
  5
36D3
330
2FDC
100
AcDbEntity
  8
0
100
AcDbVertex
100
AcDb2dVertex
 10
1.585991703322442
 20
3.874345898471014
 30
0.0
  0
VERTEX
  5
36D4
330
2FDC
100
AcDbEntity
  8
0
100
AcDbVertex
100
AcDb2dVertex
 10
1.609607845054726
 20
3.894026016581251
 30
0.0
  0
VERTEX
  5
36D5
330
2FDC
100
AcDbEntity
  8
0
100
AcDbVertex
100
AcDb2dVertex
 10
1.638472018283072
 20
3.900586055951329
 30
0.0
  0
SEQEND
  5
36D6
330
2FDC
100
AcDbEntity
  8
0
  0
POLYLINE
  5
2FE6
330
1E
100
AcDbEntity
  8
0
100
AcDb2dPolyline
 66
     1
 10
0.0
 20
0.0
 30
0.0
  0
VERTEX
  5
36D7
330
2FE6
100
AcDbEntity
  8
0
100
AcDbVertex
100
AcDb2dVertex
 10
1.759176742692521
 20
3.900586055951329
 30
0.0
  0
VERTEX
  5
36D8
330
2FE6
100
AcDbEntity
  8
0
100
AcDbVertex
100
AcDb2dVertex
 10
1.788040915920868
 20
3.894026016581251
 30
0.0
  0
VERTEX
  5
36D9
330
2FE6
100
AcDbEntity
  8
0
100
AcDbVertex
100
AcDb2dVertex
 10
1.811657057653151
 20
3.874345898471014
 30
0.0
  0
VERTEX
  5
36DA
330
2FE6
100
AcDbEntity
  8
0
100
AcDbVertex
100
AcDb2dVertex
 10
1.823465128519292
 20
3.848105740990699
 30
0.0
  0
VERTEX
  5
36DB
330
2FE6
100
AcDbEntity
  8
0
100
AcDbVertex
100
AcDb2dVertex
 10
1.823465128519292
 20
3.817929559888336
 30
0.0
  0
VERTEX
  5
36DC
330
2FE6
100
AcDbEntity
  8
0
100
AcDbVertex
100
AcDb2dVertex
 10
1.811657057653151
 20
3.791689402408022
 30
0.0
  0
VERTEX
  5
36DD
330
2FE6
100
AcDbEntity
  8
0
100
AcDbVertex
100
AcDb2dVertex
 10
1.788040915920868
 20
3.773321292171802
 30
0.0
  0
VERTEX
  5
36DE
330
2FE6
100
AcDbEntity
  8
0
100
AcDbVertex
100
AcDb2dVertex
 10
1.759176742692521
 20
3.766761252801722
 30
0.0
  0
SEQEND
  5
36DF
330
2FE6
100
AcDbEntity
  8
0
  0
LINE
  5
2FF0
330
1E
100
AcDbEntity
  8
0
100
AcDbLine
 10
1.638472018283072
 20
3.765449244927707
 30
0.0
 11
1.638472018283072
 21
3.766761252801722
 31
0.0
  0
LINE
  5
2FF1
330
1E
100
AcDbEntity
  8
0
100
AcDbLine
 10
1.638472018283072
 20
3.765449244927707
 30
0.0
 11
1.759176742692521
 21
3.765449244927707
 31
0.0
  0
LINE
  5
2FF2
330
1E
100
AcDbEntity
  8
0
100
AcDbLine
 10
1.759176742692521
 20
3.766761252801722
 30
0.0
 11
1.759176742692521
 21
3.765449244927707
 31
0.0
  0
LINE
  5
2FF3
330
1E
100
AcDbEntity
  8
0
100
AcDbLine
 10
1.638472018283072
 20
3.719528969337156
 30
0.0
 11
1.638472018283072
 21
3.71821696146314
 31
0.0
  0
LINE
  5
2FF4
330
1E
100
AcDbEntity
  8
0
100
AcDbLine
 10
1.638472018283072
 20
3.71821696146314
 30
0.0
 11
1.759176742692521
 21
3.71821696146314
 31
0.0
  0
LINE
  5
2FF5
330
1E
100
AcDbEntity
  8
0
100
AcDbLine
 10
1.759176742692521
 20
3.719528969337156
 30
0.0
 11
1.759176742692521
 21
3.71821696146314
 31
0.0
  0
LINE
  5
2FF6
330
1E
100
AcDbEntity
  8
0
100
AcDbLine
 10
1.638472018283072
 20
3.719528969337156
 30
0.0
 11
1.759176742692521
 21
3.719528969337156
 31
0.0
  0
LINE
  5
2FF7
330
1E
100
AcDbEntity
  8
0
100
AcDbLine
 10
1.759176742692521
 20
3.900586055951329
 30
0.0
 11
1.638472018283072
 21
3.900586055951329
 31
0.0
  0
LINE
  5
2FF8
330
1E
100
AcDbEntity
  8
0
100
AcDbLine
 10
1.638472018283072
 20
3.900586055951329
 30
0.0
 11
1.638472018283072
 21
3.900586055951329
 31
0.0
  0
LINE
  5
2FF9
330
1E
100
AcDbEntity
  8
0
100
AcDbLine
 10
1.759176742692521
 20
3.900586055951329
 30
0.0
 11
1.759176742692521
 21
3.900586055951329
 31
0.0
  0
LINE
  5
2FFA
330
1E
100
AcDbEntity
  8
0
100
AcDbLine
 10
2.018954301747639
 20
3.903210071699361
 30
0.0
 11
2.020266309621655
 21
3.903210071699361
 31
0.0
  0
LINE
  5
2FFB
330
1E
100
AcDbEntity
  8
0
100
AcDbLine
 10
2.020266309621655
 20
3.903210071699361
 30
0.0
 11
2.020266309621655
 21
3.955690386659991
 31
0.0
  0
LINE
  5
2FFC
330
1E
100
AcDbEntity
  8
0
100
AcDbLine
 10
2.020266309621655
 20
3.955690386659991
 30
0.0
 11
2.018954301747639
 21
3.954378378785975
 31
0.0
  0
LINE
  5
2FFD
330
1E
100
AcDbEntity
  8
0
100
AcDbLine
 10
2.018954301747639
 20
3.954378378785975
 30
0.0
 11
2.018954301747639
 21
3.903210071699361
 31
0.0
  0
LINE
  5
2FFE
330
1E
100
AcDbEntity
  8
0
100
AcDbLine
 10
2.045194459227954
 20
3.903210071699361
 30
0.0
 11
2.043882451353939
 21
3.903210071699361
 31
0.0
  0
LINE
  5
2FFF
330
1E
100
AcDbEntity
  8
0
100
AcDbLine
 10
2.020266309621655
 20
3.903210071699361
 30
0.0
 11
2.045194459227954
 21
3.903210071699361
 31
0.0
  0
LINE
  5
3000
330
1E
100
AcDbEntity
  8
0
100
AcDbLine
 10
2.043882451353939
 20
3.903210071699361
 30
0.0
 11
2.018954301747639
 21
3.903210071699361
 31
0.0
  0
LINE
  5
3001
330
1E
100
AcDbEntity
  8
0
100
AcDbLine
 10
2.020266309621655
 20
3.762825229179676
 30
0.0
 11
2.018954301747639
 21
3.762825229179676
 31
0.0
  0
LINE
  5
3002
330
1E
100
AcDbEntity
  8
0
100
AcDbLine
 10
2.020266309621655
 20
3.762825229179676
 30
0.0
 11
2.045194459227954
 21
3.762825229179676
 31
0.0
  0
LINE
  5
3003
330
1E
100
AcDbEntity
  8
0
100
AcDbLine
 10
2.045194459227954
 20
3.762825229179676
 30
0.0
 11
2.043882451353939
 21
3.762825229179676
 31
0.0
  0
LINE
  5
3004
330
1E
100
AcDbEntity
  8
0
100
AcDbLine
 10
2.043882451353939
 20
3.762825229179676
 30
0.0
 11
2.018954301747639
 21
3.762825229179676
 31
0.0
  0
LINE
  5
3005
330
1E
100
AcDbEntity
  8
0
100
AcDbLine
 10
2.020266309621655
 20
3.711656922093061
 30
0.0
 11
2.018954301747639
 21
3.711656922093061
 31
0.0
  0
LINE
  5
3006
330
1E
100
AcDbEntity
  8
0
100
AcDbLine
 10
2.020266309621655
 20
3.711656922093061
 30
0.0
 11
2.020266309621655
 21
3.762825229179676
 31
0.0
  0
LINE
  5
3007
330
1E
100
AcDbEntity
  8
0
100
AcDbLine
 10
2.018954301747639
 20
3.711656922093061
 30
0.0
 11
2.018954301747639
 21
3.762825229179676
 31
0.0
  0
LINE
  5
3008
330
1E
100
AcDbEntity
  8
0
100
AcDbLine
 10
1.377382451353938
 20
3.711656922093061
 30
0.0
 11
1.377382451353938
 21
3.711656922093061
 31
0.0
  0
LINE
  5
3009
330
1E
100
AcDbEntity
  8
0
100
AcDbLine
 10
1.377382451353938
 20
3.711656922093061
 30
0.0
 11
1.377382451353938
 21
3.762825229179676
 31
0.0
  0
LINE
  5
300A
330
1E
100
AcDbEntity
  8
0
100
AcDbLine
 10
1.377382451353938
 20
3.762825229179676
 30
0.0
 11
1.377382451353938
 21
3.762825229179676
 31
0.0
  0
LINE
  5
300B
330
1E
100
AcDbEntity
  8
0
100
AcDbLine
 10
1.377382451353938
 20
3.711656922093061
 30
0.0
 11
1.377382451353938
 21
3.762825229179676
 31
0.0
  0
LINE
  5
300C
330
1E
100
AcDbEntity
  8
0
100
AcDbLine
 10
1.352454301747639
 20
3.762825229179676
 30
0.0
 11
1.377382451353938
 21
3.762825229179676
 31
0.0
  0
LINE
  5
300D
330
1E
100
AcDbEntity
  8
0
100
AcDbLine
 10
1.352454301747639
 20
3.762825229179676
 30
0.0
 11
1.352454301747639
 21
3.762825229179676
 31
0.0
  0
LINE
  5
300E
330
1E
100
AcDbEntity
  8
0
100
AcDbLine
 10
1.377382451353938
 20
3.762825229179676
 30
0.0
 11
1.352454301747639
 21
3.762825229179676
 31
0.0
  0
LINE
  5
300F
330
1E
100
AcDbEntity
  8
0
100
AcDbLine
 10
1.352454301747639
 20
3.903210071699361
 30
0.0
 11
1.352454301747639
 21
3.903210071699361
 31
0.0
  0
LINE
  5
3010
330
1E
100
AcDbEntity
  8
0
100
AcDbLine
 10
1.352454301747639
 20
3.903210071699361
 30
0.0
 11
1.377382451353938
 21
3.903210071699361
 31
0.0
  0
LINE
  5
3011
330
1E
100
AcDbEntity
  8
0
100
AcDbLine
 10
1.377382451353938
 20
3.903210071699361
 30
0.0
 11
1.377382451353938
 21
3.903210071699361
 31
0.0
  0
LINE
  5
3012
330
1E
100
AcDbEntity
  8
0
100
AcDbLine
 10
1.377382451353938
 20
3.903210071699361
 30
0.0
 11
1.352454301747639
 21
3.903210071699361
 31
0.0
  0
LINE
  5
3013
330
1E
100
AcDbEntity
  8
0
100
AcDbLine
 10
1.377382451353938
 20
3.954378378785975
 30
0.0
 11
1.377382451353938
 21
3.903210071699361
 31
0.0
  0
LINE
  5
3014
330
1E
100
AcDbEntity
  8
0
100
AcDbLine
 10
1.377382451353938
 20
3.955690386659991
 30
0.0
 11
1.377382451353938
 21
3.954378378785975
 31
0.0
  0
LINE
  5
3015
330
1E
100
AcDbEntity
  8
0
100
AcDbLine
 10
1.377382451353938
 20
3.903210071699361
 30
0.0
 11
1.377382451353938
 21
3.955690386659991
 31
0.0
  0
LINE
  5
3016
330
1E
100
AcDbEntity
  8
0
100
AcDbLine
 10
1.352454301747639
 20
3.762825229179676
 30
0.0
 11
1.352454301747639
 21
3.903210071699361
 31
0.0
  0
LINE
  5
3017
330
1E
100
AcDbEntity
  8
0
100
AcDbLine
 10
1.352454301747639
 20
3.762825229179676
 30
0.0
 11
1.353766309621655
 21
3.764137237053691
 31
0.0
  0
LINE
  5
3018
330
1E
100
AcDbEntity
  8
0
100
AcDbLine
 10
1.353766309621655
 20
3.764137237053691
 30
0.0
 11
1.353766309621655
 21
3.901898063825344
 31
0.0
  0
LINE
  5
3019
330
1E
100
AcDbEntity
  8
0
100
AcDbLine
 10
1.353766309621655
 20
3.901898063825344
 30
0.0
 11
1.352454301747639
 21
3.903210071699361
 31
0.0
  0
LINE
  5
301A
330
1E
100
AcDbEntity
  8
0
100
AcDbLine
 10
2.045194459227954
 20
3.762825229179676
 30
0.0
 11
2.045194459227954
 21
3.903210071699361
 31
0.0
  0
LINE
  5
301B
330
1E
100
AcDbEntity
  8
0
100
AcDbLine
 10
2.043882451353939
 20
3.901898063825344
 30
0.0
 11
2.043882451353939
 21
3.903210071699361
 31
0.0
  0
LINE
  5
301C
330
1E
100
AcDbEntity
  8
0
100
AcDbLine
 10
2.043882451353939
 20
3.764137237053691
 30
0.0
 11
2.043882451353939
 21
3.901898063825344
 31
0.0
  0
LINE
  5
301D
330
1E
100
AcDbEntity
  8
0
100
AcDbLine
 10
2.043882451353939
 20
3.762825229179676
 30
0.0
 11
2.043882451353939
 21
3.764137237053691
 31
0.0
  0
LINE
  5
301E
330
1E
100
AcDbEntity
  8
0
100
AcDbLine
 10
1.377382451353938
 20
3.711656922093061
 30
0.0
 11
2.020266309621655
 21
3.711656922093061
 31
0.0
  0
LINE
  5
301F
330
1E
100
AcDbEntity
  8
0
100
AcDbLine
 10
2.018954301747639
 20
3.711656922093061
 30
0.0
 11
2.018954301747639
 21
3.711656922093061
 31
0.0
  0
LINE
  5
3020
330
1E
100
AcDbEntity
  8
0
100
AcDbLine
 10
1.378694459227954
 20
3.711656922093061
 30
0.0
 11
2.018954301747639
 21
3.711656922093061
 31
0.0
  0
LINE
  5
3021
330
1E
100
AcDbEntity
  8
0
100
AcDbLine
 10
1.377382451353938
 20
3.711656922093061
 30
0.0
 11
1.378694459227954
 21
3.711656922093061
 31
0.0
  0
LINE
  5
3022
330
1E
100
AcDbEntity
  8
0
100
AcDbLine
 10
1.29341394741693
 20
3.737897079573376
 30
0.0
 11
1.29341394741693
 21
3.737897079573376
 31
0.0
  0
LINE
  5
3023
330
1E
100
AcDbEntity
  8
0
100
AcDbLine
 10
1.29341394741693
 20
3.928138221305659
 30
0.0
 11
1.29341394741693
 21
3.737897079573376
 31
0.0
  0
LINE
  5
3024
330
1E
100
AcDbEntity
  8
0
100
AcDbLine
 10
1.29341394741693
 20
3.928138221305659
 30
0.0
 11
1.29341394741693
 21
3.928138221305659
 31
0.0
  0
POLYLINE
  5
3025
330
1E
100
AcDbEntity
  8
0
100
AcDb2dPolyline
 66
     1
 10
0.0
 20
0.0
 30
0.0
  0
VERTEX
  5
36E0
330
3025
100
AcDbEntity
  8
0
100
AcDbVertex
100
AcDb2dVertex
 10
1.28422989229882
 20
3.728713024455266
 30
0.0
  0
VERTEX
  5
36E1
330
3025
100
AcDbEntity
  8
0
100
AcDbVertex
100
AcDb2dVertex
 10
1.285541900172836
 20
3.728713024455266
 30
0.0
  0
VERTEX
  5
36E2
330
3025
100
AcDbEntity
  8
0
100
AcDbVertex
100
AcDb2dVertex
 10
1.288165915920868
 20
3.728713024455266
 30
0.0
  0
VERTEX
  5
36E3
330
3025
100
AcDbEntity
  8
0
100
AcDbVertex
100
AcDb2dVertex
 10
1.290789931668899
 20
3.731337040203298
 30
0.0
  0
VERTEX
  5
36E4
330
3025
100
AcDbEntity
  8
0
100
AcDbVertex
100
AcDb2dVertex
 10
1.293413947416931
 20
3.733961055951329
 30
0.0
  0
VERTEX
  5
36E5
330
3025
100
AcDbEntity
  8
0
100
AcDbVertex
100
AcDb2dVertex
 10
1.293413947416931
 20
3.736585071699361
 30
0.0
  0
VERTEX
  5
36E6
330
3025
100
AcDbEntity
  8
0
100
AcDbVertex
100
AcDb2dVertex
 10
1.293413947416931
 20
3.737897079573376
 30
0.0
  0
SEQEND
  5
36E7
330
3025
100
AcDbEntity
  8
0
  0
POLYLINE
  5
302E
330
1E
100
AcDbEntity
  8
0
100
AcDb2dPolyline
 66
     1
 10
0.0
 20
0.0
 30
0.0
  0
VERTEX
  5
36E8
330
302E
100
AcDbEntity
  8
0
100
AcDbVertex
100
AcDb2dVertex
 10
1.28422989229882
 20
3.938634284297785
 30
0.0
  0
VERTEX
  5
36E9
330
302E
100
AcDbEntity
  8
0
100
AcDbVertex
100
AcDb2dVertex
 10
1.288165915920868
 20
3.93732227642377
 30
0.0
  0
VERTEX
  5
36EA
330
302E
100
AcDbEntity
  8
0
100
AcDbVertex
100
AcDb2dVertex
 10
1.290789931668899
 20
3.934698260675739
 30
0.0
  0
VERTEX
  5
36EB
330
302E
100
AcDbEntity
  8
0
100
AcDbVertex
100
AcDb2dVertex
 10
1.293413947416931
 20
3.932074244927707
 30
0.0
  0
VERTEX
  5
36EC
330
302E
100
AcDbEntity
  8
0
100
AcDbVertex
100
AcDb2dVertex
 10
1.293413947416931
 20
3.930762237053691
 30
0.0
  0
VERTEX
  5
36ED
330
302E
100
AcDbEntity
  8
0
100
AcDbVertex
100
AcDb2dVertex
 10
1.293413947416931
 20
3.928138221305659
 30
0.0
  0
SEQEND
  5
36EE
330
302E
100
AcDbEntity
  8
0
  0
LINE
  5
3036
330
1E
100
AcDbEntity
  8
0
100
AcDbLine
 10
2.102922805684647
 20
3.928138221305659
 30
0.0
 11
2.102922805684647
 21
3.928138221305659
 31
0.0
  0
LINE
  5
3037
330
1E
100
AcDbEntity
  8
0
100
AcDbLine
 10
2.102922805684647
 20
3.928138221305659
 30
0.0
 11
2.102922805684647
 21
3.737897079573376
 31
0.0
  0
LINE
  5
3038
330
1E
100
AcDbEntity
  8
0
100
AcDbLine
 10
2.102922805684647
 20
3.737897079573376
 30
0.0
 11
2.102922805684647
 21
3.737897079573376
 31
0.0
  0
POLYLINE
  5
3039
330
1E
100
AcDbEntity
  8
0
100
AcDb2dPolyline
 66
     1
 10
0.0
 20
0.0
 30
0.0
  0
VERTEX
  5
36EF
330
3039
100
AcDbEntity
  8
0
100
AcDbVertex
100
AcDb2dVertex
 10
2.113418868676773
 20
3.938634284297785
 30
0.0
  0
VERTEX
  5
36F0
330
3039
100
AcDbEntity
  8
0
100
AcDbVertex
100
AcDb2dVertex
 10
2.112106860802757
 20
3.938634284297785
 30
0.0
  0
VERTEX
  5
36F1
330
3039
100
AcDbEntity
  8
0
100
AcDbVertex
100
AcDb2dVertex
 10
2.109482845054725
 20
3.93732227642377
 30
0.0
  0
VERTEX
  5
36F2
330
3039
100
AcDbEntity
  8
0
100
AcDbVertex
100
AcDb2dVertex
 10
2.106858829306694
 20
3.934698260675739
 30
0.0
  0
VERTEX
  5
36F3
330
3039
100
AcDbEntity
  8
0
100
AcDbVertex
100
AcDb2dVertex
 10
2.104234813558663
 20
3.932074244927707
 30
0.0
  0
VERTEX
  5
36F4
330
3039
100
AcDbEntity
  8
0
100
AcDbVertex
100
AcDb2dVertex
 10
2.104234813558663
 20
3.930762237053691
 30
0.0
  0
VERTEX
  5
36F5
330
3039
100
AcDbEntity
  8
0
100
AcDbVertex
100
AcDb2dVertex
 10
2.102922805684647
 20
3.928138221305659
 30
0.0
  0
SEQEND
  5
36F6
330
3039
100
AcDbEntity
  8
0
  0
POLYLINE
  5
3042
330
1E
100
AcDbEntity
  8
0
100
AcDb2dPolyline
 66
     1
 10
0.0
 20
0.0
 30
0.0
  0
VERTEX
  5
36F7
330
3042
100
AcDbEntity
  8
0
100
AcDbVertex
100
AcDb2dVertex
 10
2.113418868676773
 20
3.728713024455266
 30
0.0
  0
VERTEX
  5
36F8
330
3042
100
AcDbEntity
  8
0
100
AcDbVertex
100
AcDb2dVertex
 10
2.109482845054725
 20
3.728713024455266
 30
0.0
  0
VERTEX
  5
36F9
330
3042
100
AcDbEntity
  8
0
100
AcDbVertex
100
AcDb2dVertex
 10
2.106858829306694
 20
3.731337040203298
 30
0.0
  0
VERTEX
  5
36FA
330
3042
100
AcDbEntity
  8
0
100
AcDbVertex
100
AcDb2dVertex
 10
2.104234813558663
 20
3.733961055951329
 30
0.0
  0
VERTEX
  5
36FB
330
3042
100
AcDbEntity
  8
0
100
AcDbVertex
100
AcDb2dVertex
 10
2.104234813558663
 20
3.736585071699361
 30
0.0
  0
VERTEX
  5
36FC
330
3042
100
AcDbEntity
  8
0
100
AcDbVertex
100
AcDb2dVertex
 10
2.102922805684647
 20
3.737897079573376
 30
0.0
  0
SEQEND
  5
36FD
330
3042
100
AcDbEntity
  8
0
  0
LINE
  5
304A
330
1E
100
AcDbEntity
  8
0
100
AcDbLine
 10
1.378694459227954
 20
3.954378378785975
 30
0.0
 11
1.637160010409057
 21
3.954378378785975
 31
0.0
  0
LINE
  5
304B
330
1E
100
AcDbEntity
  8
0
100
AcDbLine
 10
1.63584800253504
 20
3.955690386659991
 30
0.0
 11
1.637160010409057
 21
3.954378378785975
 31
0.0
  0
LINE
  5
304C
330
1E
100
AcDbEntity
  8
0
100
AcDbLine
 10
1.377382451353938
 20
3.955690386659991
 30
0.0
 11
1.63584800253504
 21
3.955690386659991
 31
0.0
  0
LINE
  5
304D
330
1E
100
AcDbEntity
  8
0
100
AcDbLine
 10
1.377382451353938
 20
3.954378378785975
 30
0.0
 11
1.378694459227954
 21
3.954378378785975
 31
0.0
  0
LINE
  5
304E
330
1E
100
AcDbEntity
  8
0
100
AcDbLine
 10
1.638472018283072
 20
3.94650633154188
 30
0.0
 11
1.637160010409057
 21
3.947818339415896
 31
0.0
  0
POLYLINE
  5
304F
330
1E
100
AcDbEntity
  8
0
100
AcDb2dPolyline
 66
     1
 10
0.0
 20
0.0
 30
0.0
  0
VERTEX
  5
36FE
330
304F
100
AcDbEntity
  8
0
100
AcDbVertex
100
AcDb2dVertex
 10
1.638472018283072
 20
3.71821696146314
 30
0.0
  0
VERTEX
  5
36FF
330
304F
100
AcDbEntity
  8
0
100
AcDbVertex
100
AcDb2dVertex
 10
1.603047805684647
 20
3.723464992959203
 30
0.0
  0
VERTEX
  5
3700
330
304F
100
AcDbEntity
  8
0
100
AcDbVertex
100
AcDb2dVertex
 10
1.571559616708269
 20
3.740521095321407
 30
0.0
  0
VERTEX
  5
3701
330
304F
100
AcDbEntity
  8
0
100
AcDbVertex
100
AcDb2dVertex
 10
1.54663146710197
 20
3.765449244927707
 30
0.0
  0
VERTEX
  5
3702
330
304F
100
AcDbEntity
  8
0
100
AcDbVertex
100
AcDb2dVertex
 10
1.529575364739765
 20
3.796937433904084
 30
0.0
  0
VERTEX
  5
3703
330
304F
100
AcDbEntity
  8
0
100
AcDbVertex
100
AcDb2dVertex
 10
1.524327333243702
 20
3.83236164650251
 30
0.0
  0
VERTEX
  5
3704
330
304F
100
AcDbEntity
  8
0
100
AcDbVertex
100
AcDb2dVertex
 10
1.529575364739765
 20
3.867785859100935
 30
0.0
  0
VERTEX
  5
3705
330
304F
100
AcDbEntity
  8
0
100
AcDbVertex
100
AcDb2dVertex
 10
1.545319459227955
 20
3.899274048077313
 30
0.0
  0
VERTEX
  5
3706
330
304F
100
AcDbEntity
  8
0
100
AcDbVertex
100
AcDb2dVertex
 10
1.570247608834253
 20
3.925514205557629
 30
0.0
  0
VERTEX
  5
3707
330
304F
100
AcDbEntity
  8
0
100
AcDbVertex
100
AcDb2dVertex
 10
1.601735797810631
 20
3.942570307919833
 30
0.0
  0
VERTEX
  5
3708
330
304F
100
AcDbEntity
  8
0
100
AcDbVertex
100
AcDb2dVertex
 10
1.637160010409057
 20
3.947818339415896
 30
0.0
  0
SEQEND
  5
3709
330
304F
100
AcDbEntity
  8
0
  0
POLYLINE
  5
305C
330
1E
100
AcDbEntity
  8
0
100
AcDb2dPolyline
 66
     1
 10
0.0
 20
0.0
 30
0.0
  0
VERTEX
  5
370A
330
305C
100
AcDbEntity
  8
0
100
AcDbVertex
100
AcDb2dVertex
 10
1.638472018283072
 20
3.719528969337156
 30
0.0
  0
VERTEX
  5
370B
330
305C
100
AcDbEntity
  8
0
100
AcDbVertex
100
AcDb2dVertex
 10
1.603047805684647
 20
3.724777000833219
 30
0.0
  0
VERTEX
  5
370C
330
305C
100
AcDbEntity
  8
0
100
AcDbVertex
100
AcDb2dVertex
 10
1.571559616708269
 20
3.741833103195424
 30
0.0
  0
VERTEX
  5
370D
330
305C
100
AcDbEntity
  8
0
100
AcDbVertex
100
AcDb2dVertex
 10
1.54663146710197
 20
3.766761252801722
 30
0.0
  0
VERTEX
  5
370E
330
305C
100
AcDbEntity
  8
0
100
AcDbVertex
100
AcDb2dVertex
 10
1.530887372613781
 20
3.798249441778102
 30
0.0
  0
VERTEX
  5
370F
330
305C
100
AcDbEntity
  8
0
100
AcDbVertex
100
AcDb2dVertex
 10
1.525639341117718
 20
3.83236164650251
 30
0.0
  0
VERTEX
  5
3710
330
305C
100
AcDbEntity
  8
0
100
AcDbVertex
100
AcDb2dVertex
 10
1.530887372613781
 20
3.867785859100935
 30
0.0
  0
VERTEX
  5
3711
330
305C
100
AcDbEntity
  8
0
100
AcDbVertex
100
AcDb2dVertex
 10
1.54663146710197
 20
3.899274048077313
 30
0.0
  0
VERTEX
  5
3712
330
305C
100
AcDbEntity
  8
0
100
AcDbVertex
100
AcDb2dVertex
 10
1.571559616708269
 20
3.924202197683613
 30
0.0
  0
VERTEX
  5
3713
330
305C
100
AcDbEntity
  8
0
100
AcDbVertex
100
AcDb2dVertex
 10
1.603047805684647
 20
3.941258300045817
 30
0.0
  0
VERTEX
  5
3714
330
305C
100
AcDbEntity
  8
0
100
AcDbVertex
100
AcDb2dVertex
 10
1.638472018283072
 20
3.94650633154188
 30
0.0
  0
SEQEND
  5
3715
330
305C
100
AcDbEntity
  8
0
  0
LINE
  5
3069
330
1E
100
AcDbEntity
  8
0
100
AcDbLine
 10
1.638472018283072
 20
3.901898063825344
 30
0.0
 11
1.638472018283072
 21
3.900586055951329
 31
0.0
  0
POLYLINE
  5
306A
330
1E
100
AcDbEntity
  8
0
100
AcDb2dPolyline
 66
     1
 10
0.0
 20
0.0
 30
0.0
  0
VERTEX
  5
3716
330
306A
100
AcDbEntity
  8
0
100
AcDbVertex
100
AcDb2dVertex
 10
1.638472018283072
 20
3.901898063825345
 30
0.0
  0
VERTEX
  5
3717
330
306A
100
AcDbEntity
  8
0
100
AcDbVertex
100
AcDb2dVertex
 10
1.60829583718071
 20
3.894026016581251
 30
0.0
  0
VERTEX
  5
3718
330
306A
100
AcDbEntity
  8
0
100
AcDbVertex
100
AcDb2dVertex
 10
1.584679695448427
 20
3.875657906345029
 30
0.0
  0
VERTEX
  5
3719
330
306A
100
AcDbEntity
  8
0
100
AcDbVertex
100
AcDb2dVertex
 10
1.572871624582285
 20
3.848105740990699
 30
0.0
  0
VERTEX
  5
371A
330
306A
100
AcDbEntity
  8
0
100
AcDbVertex
100
AcDb2dVertex
 10
1.572871624582285
 20
3.817929559888336
 30
0.0
  0
VERTEX
  5
371B
330
306A
100
AcDbEntity
  8
0
100
AcDbVertex
100
AcDb2dVertex
 10
1.585991703322442
 20
3.790377394534006
 30
0.0
  0
VERTEX
  5
371C
330
306A
100
AcDbEntity
  8
0
100
AcDbVertex
100
AcDb2dVertex
 10
1.609607845054726
 20
3.772009284297785
 30
0.0
  0
VERTEX
  5
371D
330
306A
100
AcDbEntity
  8
0
100
AcDbVertex
100
AcDb2dVertex
 10
1.638472018283072
 20
3.765449244927707
 30
0.0
  0
SEQEND
  5
371E
330
306A
100
AcDbEntity
  8
0
  0
POLYLINE
  5
3074
330
1E
100
AcDbEntity
  8
0
100
AcDb2dPolyline
 66
     1
 10
0.0
 20
0.0
 30
0.0
  0
VERTEX
  5
371F
330
3074
100
AcDbEntity
  8
0
100
AcDbVertex
100
AcDb2dVertex
 10
1.759176742692521
 20
3.765449244927707
 30
0.0
  0
VERTEX
  5
3720
330
3074
100
AcDbEntity
  8
0
100
AcDbVertex
100
AcDb2dVertex
 10
1.788040915920868
 20
3.772009284297785
 30
0.0
  0
VERTEX
  5
3721
330
3074
100
AcDbEntity
  8
0
100
AcDbVertex
100
AcDb2dVertex
 10
1.811657057653151
 20
3.790377394534006
 30
0.0
  0
VERTEX
  5
3722
330
3074
100
AcDbEntity
  8
0
100
AcDbVertex
100
AcDb2dVertex
 10
1.824777136393309
 20
3.817929559888336
 30
0.0
  0
VERTEX
  5
3723
330
3074
100
AcDbEntity
  8
0
100
AcDbVertex
100
AcDb2dVertex
 10
1.824777136393309
 20
3.848105740990699
 30
0.0
  0
VERTEX
  5
3724
330
3074
100
AcDbEntity
  8
0
100
AcDbVertex
100
AcDb2dVertex
 10
1.811657057653151
 20
3.875657906345029
 30
0.0
  0
VERTEX
  5
3725
330
3074
100
AcDbEntity
  8
0
100
AcDbVertex
100
AcDb2dVertex
 10
1.789352923794883
 20
3.894026016581251
 30
0.0
  0
VERTEX
  5
3726
330
3074
100
AcDbEntity
  8
0
100
AcDbVertex
100
AcDb2dVertex
 10
1.759176742692521
 20
3.901898063825345
 30
0.0
  0
SEQEND
  5
3727
330
3074
100
AcDbEntity
  8
0
  0
LINE
  5
307E
330
1E
100
AcDbEntity
  8
0
100
AcDbLine
 10
1.759176742692521
 20
3.900586055951329
 30
0.0
 11
1.759176742692521
 21
3.901898063825344
 31
0.0
  0
LINE
  5
307F
330
1E
100
AcDbEntity
  8
0
100
AcDbLine
 10
1.638472018283072
 20
3.94650633154188
 30
0.0
 11
1.638472018283072
 21
3.901898063825344
 31
0.0
  0
POLYLINE
  5
3080
330
1E
100
AcDbEntity
  8
0
100
AcDb2dPolyline
 66
     1
 10
0.0
 20
0.0
 30
0.0
  0
VERTEX
  5
3728
330
3080
100
AcDbEntity
  8
0
100
AcDbVertex
100
AcDb2dVertex
 10
1.759176742692521
 20
3.94650633154188
 30
0.0
  0
VERTEX
  5
3729
330
3080
100
AcDbEntity
  8
0
100
AcDbVertex
100
AcDb2dVertex
 10
1.794600955290946
 20
3.941258300045817
 30
0.0
  0
VERTEX
  5
372A
330
3080
100
AcDbEntity
  8
0
100
AcDbVertex
100
AcDb2dVertex
 10
1.826089144267324
 20
3.924202197683613
 30
0.0
  0
VERTEX
  5
372B
330
3080
100
AcDbEntity
  8
0
100
AcDbVertex
100
AcDb2dVertex
 10
1.851017293873623
 20
3.899274048077313
 30
0.0
  0
VERTEX
  5
372C
330
3080
100
AcDbEntity
  8
0
100
AcDbVertex
100
AcDb2dVertex
 10
1.866761388361813
 20
3.867785859100935
 30
0.0
  0
VERTEX
  5
372D
330
3080
100
AcDbEntity
  8
0
100
AcDbVertex
100
AcDb2dVertex
 10
1.872009419857876
 20
3.83236164650251
 30
0.0
  0
VERTEX
  5
372E
330
3080
100
AcDbEntity
  8
0
100
AcDbVertex
100
AcDb2dVertex
 10
1.866761388361813
 20
3.798249441778102
 30
0.0
  0
VERTEX
  5
372F
330
3080
100
AcDbEntity
  8
0
100
AcDbVertex
100
AcDb2dVertex
 10
1.851017293873623
 20
3.766761252801722
 30
0.0
  0
VERTEX
  5
3730
330
3080
100
AcDbEntity
  8
0
100
AcDbVertex
100
AcDb2dVertex
 10
1.824777136393309
 20
3.741833103195424
 30
0.0
  0
VERTEX
  5
3731
330
3080
100
AcDbEntity
  8
0
100
AcDbVertex
100
AcDb2dVertex
 10
1.793288947416931
 20
3.724777000833219
 30
0.0
  0
VERTEX
  5
3732
330
3080
100
AcDbEntity
  8
0
100
AcDbVertex
100
AcDb2dVertex
 10
1.759176742692521
 20
3.719528969337156
 30
0.0
  0
SEQEND
  5
3733
330
3080
100
AcDbEntity
  8
0
  0
LINE
  5
308D
330
1E
100
AcDbEntity
  8
0
100
AcDbLine
 10
1.759176742692521
 20
3.901898063825344
 30
0.0
 11
1.759176742692521
 21
3.94650633154188
 31
0.0
  0
POLYLINE
  5
308E
330
1E
100
AcDbEntity
  8
0
100
AcDb2dPolyline
 66
     1
 10
0.0
 20
0.0
 30
0.0
  0
VERTEX
  5
3734
330
308E
100
AcDbEntity
  8
0
100
AcDbVertex
100
AcDb2dVertex
 10
1.760488750566537
 20
3.947818339415896
 30
0.0
  0
VERTEX
  5
3735
330
308E
100
AcDbEntity
  8
0
100
AcDbVertex
100
AcDb2dVertex
 10
1.795912963164962
 20
3.942570307919833
 30
0.0
  0
VERTEX
  5
3736
330
308E
100
AcDbEntity
  8
0
100
AcDbVertex
100
AcDb2dVertex
 10
1.82740115214134
 20
3.925514205557629
 30
0.0
  0
VERTEX
  5
3737
330
308E
100
AcDbEntity
  8
0
100
AcDbVertex
100
AcDb2dVertex
 10
1.852329301747639
 20
3.899274048077313
 30
0.0
  0
VERTEX
  5
3738
330
308E
100
AcDbEntity
  8
0
100
AcDbVertex
100
AcDb2dVertex
 10
1.868073396235828
 20
3.867785859100935
 30
0.0
  0
VERTEX
  5
3739
330
308E
100
AcDbEntity
  8
0
100
AcDbVertex
100
AcDb2dVertex
 10
1.873321427731891
 20
3.83236164650251
 30
0.0
  0
VERTEX
  5
373A
330
308E
100
AcDbEntity
  8
0
100
AcDbVertex
100
AcDb2dVertex
 10
1.868073396235828
 20
3.796937433904084
 30
0.0
  0
VERTEX
  5
373B
330
308E
100
AcDbEntity
  8
0
100
AcDbVertex
100
AcDb2dVertex
 10
1.851017293873623
 20
3.765449244927707
 30
0.0
  0
VERTEX
  5
373C
330
308E
100
AcDbEntity
  8
0
100
AcDbVertex
100
AcDb2dVertex
 10
1.826089144267324
 20
3.740521095321407
 30
0.0
  0
VERTEX
  5
373D
330
308E
100
AcDbEntity
  8
0
100
AcDbVertex
100
AcDb2dVertex
 10
1.794600955290946
 20
3.723464992959203
 30
0.0
  0
VERTEX
  5
373E
330
308E
100
AcDbEntity
  8
0
100
AcDbVertex
100
AcDb2dVertex
 10
1.759176742692521
 20
3.71821696146314
 30
0.0
  0
SEQEND
  5
373F
330
308E
100
AcDbEntity
  8
0
  0
LINE
  5
309B
330
1E
100
AcDbEntity
  8
0
100
AcDbLine
 10
1.759176742692521
 20
3.94650633154188
 30
0.0
 11
1.760488750566537
 21
3.947818339415896
 31
0.0
  0
LINE
  5
309C
330
1E
100
AcDbEntity
  8
0
100
AcDbLine
 10
2.018954301747639
 20
3.711656922093061
 30
0.0
 11
2.018954301747639
 21
3.764137237053691
 31
0.0
  0
LINE
  5
309D
330
1E
100
AcDbEntity
  8
0
100
AcDbLine
 10
2.018954301747639
 20
3.764137237053691
 30
0.0
 11
2.043882451353939
 21
3.764137237053691
 31
0.0
  0
LINE
  5
309E
330
1E
100
AcDbEntity
  8
0
100
AcDbLine
 10
2.018954301747639
 20
3.901898063825344
 30
0.0
 11
2.043882451353939
 21
3.901898063825344
 31
0.0
  0
LINE
  5
309F
330
1E
100
AcDbEntity
  8
0
100
AcDbLine
 10
2.018954301747639
 20
3.901898063825344
 30
0.0
 11
2.018954301747639
 21
3.954378378785975
 31
0.0
  0
LINE
  5
30A0
330
1E
100
AcDbEntity
  8
0
100
AcDbLine
 10
1.760488750566537
 20
3.954378378785975
 30
0.0
 11
2.018954301747639
 21
3.954378378785975
 31
0.0
  0
LINE
  5
30A1
330
1E
100
AcDbEntity
  8
0
100
AcDbLine
 10
1.760488750566537
 20
3.947818339415896
 30
0.0
 11
1.760488750566537
 21
3.954378378785975
 31
0.0
  0
LINE
  5
30A2
330
1E
100
AcDbEntity
  8
0
100
AcDbLine
 10
1.637160010409057
 20
3.954378378785975
 30
0.0
 11
1.637160010409057
 21
3.947818339415896
 31
0.0
  0
LINE
  5
30A3
330
1E
100
AcDbEntity
  8
0
100
AcDbLine
 10
1.378694459227954
 20
3.901898063825344
 30
0.0
 11
1.378694459227954
 21
3.954378378785975
 31
0.0
  0
LINE
  5
30A4
330
1E
100
AcDbEntity
  8
0
100
AcDbLine
 10
1.378694459227954
 20
3.901898063825344
 30
0.0
 11
1.353766309621655
 21
3.901898063825344
 31
0.0
  0
LINE
  5
30A5
330
1E
100
AcDbEntity
  8
0
100
AcDbLine
 10
1.378694459227954
 20
3.764137237053691
 30
0.0
 11
1.353766309621655
 21
3.764137237053691
 31
0.0
  0
LINE
  5
30A6
330
1E
100
AcDbEntity
  8
0
100
AcDbLine
 10
1.378694459227954
 20
3.711656922093061
 30
0.0
 11
1.378694459227954
 21
3.764137237053691
 31
0.0
  0
LINE
  5
30A7
330
1E
100
AcDbEntity
  8
0
100
AcDbLine
 10
1.761800758440553
 20
3.955690386659991
 30
0.0
 11
2.020266309621655
 21
3.955690386659991
 31
0.0
  0
LINE
  5
30A8
330
1E
100
AcDbEntity
  8
0
100
AcDbLine
 10
1.760488750566537
 20
3.954378378785975
 30
0.0
 11
1.761800758440553
 21
3.955690386659991
 31
0.0
  0
LINE
  5
30A9
330
1E
100
AcDbEntity
  8
0
100
AcDbLine
 10
2.018954301747639
 20
3.954378378785975
 30
0.0
 11
2.018954301747639
 21
3.954378378785975
 31
0.0
  0
LINE
  5
30AA
330
1E
100
AcDbEntity
  8
0
100
AcDbLine
 10
1.63584800253504
 20
3.996362630754479
 30
0.0
 11
1.643720049779135
 21
3.996362630754479
 31
0.0
  0
LINE
  5
30AB
330
1E
100
AcDbEntity
  8
0
100
AcDbLine
 10
1.753928711196459
 20
3.996362630754479
 30
0.0
 11
1.760488750566537
 21
3.996362630754479
 31
0.0
  0
POLYLINE
  5
30AC
330
1E
100
AcDbEntity
  8
0
100
AcDb2dPolyline
 66
     1
 10
0.0
 20
0.0
 30
0.0
  0
VERTEX
  5
3740
330
30AC
100
AcDbEntity
  8
0
100
AcDbVertex
100
AcDb2dVertex
 10
1.759176742692521
 20
3.966186449652117
 30
0.0
  0
VERTEX
  5
3741
330
30AC
100
AcDbEntity
  8
0
100
AcDbVertex
100
AcDb2dVertex
 10
1.759176742692521
 20
3.981930544140306
 30
0.0
  0
VERTEX
  5
3742
330
30AC
100
AcDbEntity
  8
0
100
AcDbVertex
100
AcDb2dVertex
 10
1.759176742692521
 20
3.992426607132432
 30
0.0
  0
VERTEX
  5
3743
330
30AC
100
AcDbEntity
  8
0
100
AcDbVertex
100
AcDb2dVertex
 10
1.759176742692521
 20
3.99636263075448
 30
0.0
  0
SEQEND
  5
3744
330
30AC
100
AcDbEntity
  8
0
  0
POLYLINE
  5
30B2
330
1E
100
AcDbEntity
  8
0
100
AcDb2dPolyline
 66
     1
 10
0.0
 20
0.0
 30
0.0
  0
VERTEX
  5
3745
330
30B2
100
AcDbEntity
  8
0
100
AcDbVertex
100
AcDb2dVertex
 10
1.638472018283072
 20
3.99636263075448
 30
0.0
  0
VERTEX
  5
3746
330
30B2
100
AcDbEntity
  8
0
100
AcDbVertex
100
AcDb2dVertex
 10
1.638472018283072
 20
3.992426607132432
 30
0.0
  0
VERTEX
  5
3747
330
30B2
100
AcDbEntity
  8
0
100
AcDbVertex
100
AcDb2dVertex
 10
1.638472018283072
 20
3.981930544140306
 30
0.0
  0
VERTEX
  5
3748
330
30B2
100
AcDbEntity
  8
0
100
AcDbVertex
100
AcDb2dVertex
 10
1.638472018283072
 20
3.966186449652117
 30
0.0
  0
SEQEND
  5
3749
330
30B2
100
AcDbEntity
  8
0
  0
LINE
  5
30B8
330
1E
100
AcDbEntity
  8
0
100
AcDbLine
 10
1.638472018283072
 20
3.966186449652117
 30
0.0
 11
1.643720049779135
 21
3.966186449652117
 31
0.0
  0
LINE
  5
30B9
330
1E
100
AcDbEntity
  8
0
100
AcDbLine
 10
1.753928711196459
 20
3.966186449652117
 30
0.0
 11
1.759176742692521
 21
3.966186449652117
 31
0.0
  0
LINE
  5
30BA
330
1E
100
AcDbEntity
  8
0
100
AcDbLine
 10
1.638472018283072
 20
3.966186449652117
 30
0.0
 11
1.638472018283072
 21
3.900586055951329
 31
0.0
  0
LINE
  5
30BB
330
1E
100
AcDbEntity
  8
0
100
AcDbLine
 10
1.759176742692521
 20
3.966186449652117
 30
0.0
 11
1.759176742692521
 21
3.900586055951329
 31
0.0
  0
LINE
  5
30BC
330
1E
100
AcDbEntity
  8
0
100
AcDbLine
 10
1.761800758440553
 20
3.983242552014321
 30
0.0
 11
2.067498593086222
 21
3.983242552014321
 31
0.0
  0
LINE
  5
30BD
330
1E
100
AcDbEntity
  8
0
100
AcDbLine
 10
1.761800758440553
 20
3.983242552014321
 30
0.0
 11
1.761800758440553
 21
3.955690386659991
 31
0.0
  0
LINE
  5
30BE
330
1E
100
AcDbEntity
  8
0
100
AcDbLine
 10
1.63584800253504
 20
3.983242552014321
 30
0.0
 11
1.63584800253504
 21
3.955690386659991
 31
0.0
  0
LINE
  5
30BF
330
1E
100
AcDbEntity
  8
0
100
AcDbLine
 10
1.328838160015355
 20
3.983242552014321
 30
0.0
 11
1.63584800253504
 21
3.983242552014321
 31
0.0
  0
POLYLINE
  5
30C0
330
1E
100
AcDbEntity
  8
0
100
AcDb2dPolyline
 66
     1
 10
0.0
 20
0.0
 30
0.0
  0
VERTEX
  5
374A
330
30C0
100
AcDbEntity
  8
0
100
AcDbVertex
100
AcDb2dVertex
 10
1.328838160015356
 20
3.983242552014321
 30
0.0
  0
VERTEX
  5
374B
330
30C0
100
AcDbEntity
  8
0
100
AcDbVertex
100
AcDb2dVertex
 10
1.314406073401183
 20
3.979306528392274
 30
0.0
  0
VERTEX
  5
374C
330
30C0
100
AcDbEntity
  8
0
100
AcDbVertex
100
AcDb2dVertex
 10
1.303910010409057
 20
3.968810465400148
 30
0.0
  0
VERTEX
  5
374D
330
30C0
100
AcDbEntity
  8
0
100
AcDbVertex
100
AcDb2dVertex
 10
1.299973986787009
 20
3.953066370911959
 30
0.0
  0
SEQEND
  5
374E
330
30C0
100
AcDbEntity
  8
0
  0
LINE
  5
30C6
330
1E
100
AcDbEntity
  8
0
100
AcDbLine
 10
1.299973986787009
 20
3.953066370911959
 30
0.0
 11
1.299973986787009
 21
3.712968929967077
 31
0.0
  0
POLYLINE
  5
30C7
330
1E
100
AcDbEntity
  8
0
100
AcDb2dPolyline
 66
     1
 10
0.0
 20
0.0
 30
0.0
  0
VERTEX
  5
374F
330
30C7
100
AcDbEntity
  8
0
100
AcDbVertex
100
AcDb2dVertex
 10
1.299973986787009
 20
3.712968929967077
 30
0.0
  0
VERTEX
  5
3750
330
30C7
100
AcDbEntity
  8
0
100
AcDbVertex
100
AcDb2dVertex
 10
1.303910010409057
 20
3.698536843352904
 30
0.0
  0
VERTEX
  5
3751
330
30C7
100
AcDbEntity
  8
0
100
AcDbVertex
100
AcDb2dVertex
 10
1.314406073401183
 20
3.686728772486763
 30
0.0
  0
VERTEX
  5
3752
330
30C7
100
AcDbEntity
  8
0
100
AcDbVertex
100
AcDb2dVertex
 10
1.328838160015356
 20
3.682792748864716
 30
0.0
  0
SEQEND
  5
3753
330
30C7
100
AcDbEntity
  8
0
  0
LINE
  5
30CD
330
1E
100
AcDbEntity
  8
0
100
AcDbLine
 10
1.328838160015355
 20
3.682792748864715
 30
0.0
 11
2.067498593086222
 21
3.682792748864715
 31
0.0
  0
POLYLINE
  5
30CE
330
1E
100
AcDbEntity
  8
0
100
AcDb2dPolyline
 66
     1
 10
0.0
 20
0.0
 30
0.0
  0
VERTEX
  5
3754
330
30CE
100
AcDbEntity
  8
0
100
AcDbVertex
100
AcDb2dVertex
 10
2.097674774188584
 20
3.712968929967077
 30
0.0
  0
VERTEX
  5
3755
330
30CE
100
AcDbEntity
  8
0
100
AcDbVertex
100
AcDb2dVertex
 10
2.093738750566537
 20
3.698536843352904
 30
0.0
  0
VERTEX
  5
3756
330
30CE
100
AcDbEntity
  8
0
100
AcDbVertex
100
AcDb2dVertex
 10
2.083242687574411
 20
3.686728772486763
 30
0.0
  0
VERTEX
  5
3757
330
30CE
100
AcDbEntity
  8
0
100
AcDbVertex
100
AcDb2dVertex
 10
2.067498593086222
 20
3.682792748864716
 30
0.0
  0
SEQEND
  5
3758
330
30CE
100
AcDbEntity
  8
0
  0
LINE
  5
30D4
330
1E
100
AcDbEntity
  8
0
100
AcDbLine
 10
2.097674774188584
 20
3.953066370911959
 30
0.0
 11
2.097674774188584
 21
3.712968929967077
 31
0.0
  0
POLYLINE
  5
30D5
330
1E
100
AcDbEntity
  8
0
100
AcDb2dPolyline
 66
     1
 10
0.0
 20
0.0
 30
0.0
  0
VERTEX
  5
3759
330
30D5
100
AcDbEntity
  8
0
100
AcDbVertex
100
AcDb2dVertex
 10
2.067498593086222
 20
3.983242552014321
 30
0.0
  0
VERTEX
  5
375A
330
30D5
100
AcDbEntity
  8
0
100
AcDbVertex
100
AcDb2dVertex
 10
2.083242687574411
 20
3.979306528392274
 30
0.0
  0
VERTEX
  5
375B
330
30D5
100
AcDbEntity
  8
0
100
AcDbVertex
100
AcDb2dVertex
 10
2.093738750566537
 20
3.968810465400148
 30
0.0
  0
VERTEX
  5
375C
330
30D5
100
AcDbEntity
  8
0
100
AcDbVertex
100
AcDb2dVertex
 10
2.097674774188584
 20
3.953066370911959
 30
0.0
  0
SEQEND
  5
375D
330
30D5
100
AcDbEntity
  8
0
  0
LINE
  5
30DB
330
1E
100
AcDbEntity
  8
0
100
AcDbLine
 10
1.246181663952364
 20
3.938634284297785
 30
0.0
 11
1.231749577338191
 21
3.94388231579385
 31
0.0
  0
LINE
  5
30DC
330
1E
100
AcDbEntity
  8
0
100
AcDbLine
 10
1.28422989229882
 20
3.938634284297785
 30
0.0
 11
1.246181663952364
 21
3.938634284297785
 31
0.0
  0
LINE
  5
30DD
330
1E
100
AcDbEntity
  8
0
100
AcDbLine
 10
1.286853908046851
 20
3.94388231579385
 30
0.0
 11
1.28422989229882
 21
3.938634284297785
 31
0.0
  0
LINE
  5
30DE
330
1E
100
AcDbEntity
  8
0
100
AcDbLine
 10
1.29341394741693
 20
3.928138221305659
 30
0.0
 11
1.296037963164963
 21
3.933386252801722
 31
0.0
  0
LINE
  5
30DF
330
1E
100
AcDbEntity
  8
0
100
AcDbLine
 10
1.296037963164963
 20
3.732649048077314
 30
0.0
 11
1.29341394741693
 21
3.737897079573376
 31
0.0
  0
LINE
  5
30E0
330
1E
100
AcDbEntity
  8
0
100
AcDbLine
 10
1.28422989229882
 20
3.728713024455266
 30
0.0
 11
1.286853908046851
 21
3.722152985085187
 31
0.0
  0
LINE
  5
30E1
330
1E
100
AcDbEntity
  8
0
100
AcDbLine
 10
1.28422989229882
 20
3.728713024455266
 30
0.0
 11
1.246181663952364
 21
3.728713024455266
 31
0.0
  0
LINE
  5
30E2
330
1E
100
AcDbEntity
  8
0
100
AcDbLine
 10
1.246181663952364
 20
3.728713024455266
 30
0.0
 11
1.231749577338191
 21
3.722152985085187
 31
0.0
  0
LINE
  5
30E3
330
1E
100
AcDbEntity
  8
0
100
AcDbLine
 10
1.246181663952364
 20
3.728713024455266
 30
0.0
 11
1.238309616708269
 21
3.731337040203297
 31
0.0
  0
LINE
  5
30E4
330
1E
100
AcDbEntity
  8
0
100
AcDbLine
 10
1.246181663952364
 20
3.938634284297785
 30
0.0
 11
1.238309616708269
 21
3.934698260675739
 31
0.0
  0
LINE
  5
30E5
330
1E
100
AcDbEntity
  8
0
100
AcDbLine
 10
2.15146709702323
 20
3.728713024455266
 30
0.0
 11
2.164587175763387
 21
3.722152985085187
 31
0.0
  0
LINE
  5
30E6
330
1E
100
AcDbEntity
  8
0
100
AcDbLine
 10
2.113418868676773
 20
3.728713024455266
 30
0.0
 11
2.15146709702323
 21
3.728713024455266
 31
0.0
  0
LINE
  5
30E7
330
1E
100
AcDbEntity
  8
0
100
AcDbLine
 10
2.113418868676773
 20
3.728713024455266
 30
0.0
 11
2.110794852928742
 21
3.722152985085187
 31
0.0
  0
LINE
  5
30E8
330
1E
100
AcDbEntity
  8
0
100
AcDbLine
 10
2.100298789936616
 20
3.732649048077314
 30
0.0
 11
2.102922805684647
 21
3.737897079573376
 31
0.0
  0
LINE
  5
30E9
330
1E
100
AcDbEntity
  8
0
100
AcDbLine
 10
2.102922805684647
 20
3.928138221305659
 30
0.0
 11
2.100298789936616
 21
3.933386252801722
 31
0.0
  0
LINE
  5
30EA
330
1E
100
AcDbEntity
  8
0
100
AcDbLine
 10
2.110794852928742
 20
3.94388231579385
 30
0.0
 11
2.113418868676773
 21
3.938634284297785
 31
0.0
  0
LINE
  5
30EB
330
1E
100
AcDbEntity
  8
0
100
AcDbLine
 10
2.113418868676773
 20
3.938634284297785
 30
0.0
 11
2.15146709702323
 21
3.938634284297785
 31
0.0
  0
LINE
  5
30EC
330
1E
100
AcDbEntity
  8
0
100
AcDbLine
 10
2.15146709702323
 20
3.938634284297785
 30
0.0
 11
2.164587175763387
 21
3.94388231579385
 31
0.0
  0
LINE
  5
30ED
330
1E
100
AcDbEntity
  8
0
100
AcDbLine
 10
2.15146709702323
 20
3.938634284297785
 30
0.0
 11
2.159339144267324
 21
3.934698260675739
 31
0.0
  0
LINE
  5
30EE
330
1E
100
AcDbEntity
  8
0
100
AcDbLine
 10
2.15146709702323
 20
3.728713024455266
 30
0.0
 11
2.159339144267324
 21
3.731337040203297
 31
0.0
  0
LINE
  5
30EF
330
1E
100
AcDbEntity
  8
0
100
AcDbLine
 10
1.299973986787009
 20
3.953066370911959
 30
0.0
 11
1.298661978912994
 21
3.954378378785975
 31
0.0
  0
LINE
  5
30F0
330
1E
100
AcDbEntity
  8
0
100
AcDbLine
 10
1.298661978912994
 20
3.711656922093061
 30
0.0
 11
1.299973986787009
 21
3.712968929967077
 31
0.0
  0
LINE
  5
30F1
330
1E
100
AcDbEntity
  8
0
100
AcDbLine
 10
1.328838160015355
 20
3.984554559888337
 30
0.0
 11
1.328838160015355
 21
3.983242552014321
 31
0.0
  0
LINE
  5
30F2
330
1E
100
AcDbEntity
  8
0
100
AcDbLine
 10
1.63584800253504
 20
3.983242552014321
 30
0.0
 11
1.63584800253504
 21
3.984554559888337
 31
0.0
  0
POLYLINE
  5
30F3
330
1E
100
AcDbEntity
  8
0
100
AcDb2dPolyline
 66
     1
 10
0.0
 20
0.0
 30
0.0
  0
VERTEX
  5
375E
330
30F3
100
AcDbEntity
  8
0
100
AcDbVertex
100
AcDb2dVertex
 10
1.63584800253504
 20
4.006858693746606
 30
0.0
  0
VERTEX
  5
375F
330
30F3
100
AcDbEntity
  8
0
100
AcDbVertex
100
AcDb2dVertex
 10
1.63584800253504
 20
3.99898664650251
 30
0.0
  0
VERTEX
  5
3760
330
30F3
100
AcDbEntity
  8
0
100
AcDbVertex
100
AcDb2dVertex
 10
1.63584800253504
 20
3.99636263075448
 30
0.0
  0
SEQEND
  5
3761
330
30F3
100
AcDbEntity
  8
0
  0
POLYLINE
  5
30F8
330
1E
100
AcDbEntity
  8
0
100
AcDb2dPolyline
 66
     1
 10
0.0
 20
0.0
 30
0.0
  0
VERTEX
  5
3762
330
30F8
100
AcDbEntity
  8
0
100
AcDbVertex
100
AcDb2dVertex
 10
1.760488750566537
 20
3.99636263075448
 30
0.0
  0
VERTEX
  5
3763
330
30F8
100
AcDbEntity
  8
0
100
AcDbVertex
100
AcDb2dVertex
 10
1.761800758440553
 20
3.99898664650251
 30
0.0
  0
VERTEX
  5
3764
330
30F8
100
AcDbEntity
  8
0
100
AcDbVertex
100
AcDb2dVertex
 10
1.761800758440553
 20
4.006858693746606
 30
0.0
  0
SEQEND
  5
3765
330
30F8
100
AcDbEntity
  8
0
  0
LINE
  5
30FD
330
1E
100
AcDbEntity
  8
0
100
AcDbLine
 10
1.761800758440553
 20
3.984554559888337
 30
0.0
 11
1.761800758440553
 21
3.983242552014321
 31
0.0
  0
LINE
  5
30FE
330
1E
100
AcDbEntity
  8
0
100
AcDbLine
 10
2.068810600960238
 20
3.984554559888337
 30
0.0
 11
2.067498593086222
 21
3.983242552014321
 31
0.0
  0
LINE
  5
30FF
330
1E
100
AcDbEntity
  8
0
100
AcDbLine
 10
2.097674774188584
 20
3.953066370911959
 30
0.0
 11
2.0989867820626
 21
3.954378378785975
 31
0.0
  0
LINE
  5
3100
330
1E
100
AcDbEntity
  8
0
100
AcDbLine
 10
2.0989867820626
 20
3.711656922093061
 30
0.0
 11
2.097674774188584
 21
3.712968929967077
 31
0.0
  0
LINE
  5
3101
330
1E
100
AcDbEntity
  8
0
100
AcDbLine
 10
2.067498593086222
 20
3.682792748864715
 30
0.0
 11
2.068810600960238
 21
3.682792748864715
 31
0.0
  0
LINE
  5
3102
330
1E
100
AcDbEntity
  8
0
100
AcDbLine
 10
1.328838160015355
 20
3.682792748864715
 30
0.0
 11
1.328838160015355
 21
3.682792748864715
 31
0.0
  0
LINE
  5
3103
330
1E
100
AcDbEntity
  8
0
100
AcDbLine
 10
1.759176742692521
 20
7.180605740990699
 30
0.0
 11
1.638472018283072
 21
7.180605740990699
 31
0.0
  0
LINE
  5
3104
330
1E
100
AcDbEntity
  8
0
100
AcDbLine
 10
1.638472018283072
 20
7.046780937841093
 30
0.0
 11
1.759176742692521
 21
7.046780937841093
 31
0.0
  0
POLYLINE
  5
3105
330
1E
100
AcDbEntity
  8
0
100
AcDb2dPolyline
 66
     1
 10
0.0
 20
0.0
 30
0.0
  0
VERTEX
  5
3766
330
3105
100
AcDbEntity
  8
0
100
AcDbVertex
100
AcDb2dVertex
 10
1.638472018283072
 20
7.1806057409907
 30
0.0
  0
VERTEX
  5
3767
330
3105
100
AcDbEntity
  8
0
100
AcDbVertex
100
AcDb2dVertex
 10
1.609607845054726
 20
7.174045701620621
 30
0.0
  0
VERTEX
  5
3768
330
3105
100
AcDbEntity
  8
0
100
AcDbVertex
100
AcDb2dVertex
 10
1.585991703322442
 20
7.1556775913844
 30
0.0
  0
VERTEX
  5
3769
330
3105
100
AcDbEntity
  8
0
100
AcDbVertex
100
AcDb2dVertex
 10
1.572871624582285
 20
7.128125426030069
 30
0.0
  0
VERTEX
  5
376A
330
3105
100
AcDbEntity
  8
0
100
AcDbVertex
100
AcDb2dVertex
 10
1.572871624582285
 20
7.097949244927707
 30
0.0
  0
VERTEX
  5
376B
330
3105
100
AcDbEntity
  8
0
100
AcDbVertex
100
AcDb2dVertex
 10
1.585991703322442
 20
7.071709087447392
 30
0.0
  0
VERTEX
  5
376C
330
3105
100
AcDbEntity
  8
0
100
AcDbVertex
100
AcDb2dVertex
 10
1.609607845054726
 20
7.053340977211173
 30
0.0
  0
VERTEX
  5
376D
330
3105
100
AcDbEntity
  8
0
100
AcDbVertex
100
AcDb2dVertex
 10
1.638472018283072
 20
7.046780937841092
 30
0.0
  0
SEQEND
  5
376E
330
3105
100
AcDbEntity
  8
0
  0
POLYLINE
  5
310F
330
1E
100
AcDbEntity
  8
0
100
AcDb2dPolyline
 66
     1
 10
0.0
 20
0.0
 30
0.0
  0
VERTEX
  5
376F
330
310F
100
AcDbEntity
  8
0
100
AcDbVertex
100
AcDb2dVertex
 10
1.759176742692521
 20
7.046780937841092
 30
0.0
  0
VERTEX
  5
3770
330
310F
100
AcDbEntity
  8
0
100
AcDbVertex
100
AcDb2dVertex
 10
1.788040915920868
 20
7.053340977211173
 30
0.0
  0
VERTEX
  5
3771
330
310F
100
AcDbEntity
  8
0
100
AcDbVertex
100
AcDb2dVertex
 10
1.811657057653151
 20
7.071709087447392
 30
0.0
  0
VERTEX
  5
3772
330
310F
100
AcDbEntity
  8
0
100
AcDbVertex
100
AcDb2dVertex
 10
1.823465128519292
 20
7.097949244927707
 30
0.0
  0
VERTEX
  5
3773
330
310F
100
AcDbEntity
  8
0
100
AcDbVertex
100
AcDb2dVertex
 10
1.823465128519292
 20
7.128125426030069
 30
0.0
  0
VERTEX
  5
3774
330
310F
100
AcDbEntity
  8
0
100
AcDbVertex
100
AcDb2dVertex
 10
1.811657057653151
 20
7.1556775913844
 30
0.0
  0
VERTEX
  5
3775
330
310F
100
AcDbEntity
  8
0
100
AcDbVertex
100
AcDb2dVertex
 10
1.788040915920868
 20
7.174045701620621
 30
0.0
  0
VERTEX
  5
3776
330
310F
100
AcDbEntity
  8
0
100
AcDbVertex
100
AcDb2dVertex
 10
1.759176742692521
 20
7.1806057409907
 30
0.0
  0
SEQEND
  5
3777
330
310F
100
AcDbEntity
  8
0
  0
LINE
  5
3119
330
1E
100
AcDbEntity
  8
0
100
AcDbLine
 10
1.638472018283072
 20
7.181917748864715
 30
0.0
 11
1.638472018283072
 21
7.180605740990699
 31
0.0
  0
LINE
  5
311A
330
1E
100
AcDbEntity
  8
0
100
AcDbLine
 10
1.759176742692521
 20
7.180605740990699
 30
0.0
 11
1.759176742692521
 21
7.181917748864715
 31
0.0
  0
LINE
  5
311B
330
1E
100
AcDbEntity
  8
0
100
AcDbLine
 10
1.638472018283072
 20
7.181917748864715
 30
0.0
 11
1.759176742692521
 21
7.181917748864715
 31
0.0
  0
LINE
  5
311C
330
1E
100
AcDbEntity
  8
0
100
AcDbLine
 10
1.638472018283072
 20
7.226526016581251
 30
0.0
 11
1.638472018283072
 21
7.227838024455266
 31
0.0
  0
LINE
  5
311D
330
1E
100
AcDbEntity
  8
0
100
AcDbLine
 10
1.638472018283072
 20
7.226526016581251
 30
0.0
 11
1.759176742692521
 21
7.226526016581251
 31
0.0
  0
LINE
  5
311E
330
1E
100
AcDbEntity
  8
0
100
AcDbLine
 10
1.759176742692521
 20
7.226526016581251
 30
0.0
 11
1.759176742692521
 21
7.227838024455266
 31
0.0
  0
LINE
  5
311F
330
1E
100
AcDbEntity
  8
0
100
AcDbLine
 10
1.638472018283072
 20
7.227838024455266
 30
0.0
 11
1.759176742692521
 21
7.227838024455266
 31
0.0
  0
LINE
  5
3120
330
1E
100
AcDbEntity
  8
0
100
AcDbLine
 10
1.759176742692521
 20
7.045468929967077
 30
0.0
 11
1.638472018283072
 21
7.045468929967077
 31
0.0
  0
LINE
  5
3121
330
1E
100
AcDbEntity
  8
0
100
AcDbLine
 10
1.759176742692521
 20
7.046780937841093
 30
0.0
 11
1.759176742692521
 21
7.045468929967077
 31
0.0
  0
LINE
  5
3122
330
1E
100
AcDbEntity
  8
0
100
AcDbLine
 10
1.638472018283072
 20
7.045468929967077
 30
0.0
 11
1.638472018283072
 21
7.046780937841093
 31
0.0
  0
LINE
  5
3123
330
1E
100
AcDbEntity
  8
0
100
AcDbLine
 10
2.018954301747639
 20
7.042844914219046
 30
0.0
 11
2.020266309621655
 21
7.042844914219046
 31
0.0
  0
LINE
  5
3124
330
1E
100
AcDbEntity
  8
0
100
AcDbLine
 10
2.018954301747639
 20
6.991676607132432
 30
0.0
 11
2.018954301747639
 21
7.042844914219046
 31
0.0
  0
LINE
  5
3125
330
1E
100
AcDbEntity
  8
0
100
AcDbLine
 10
2.020266309621655
 20
6.991676607132432
 30
0.0
 11
2.018954301747639
 21
6.991676607132432
 31
0.0
  0
LINE
  5
3126
330
1E
100
AcDbEntity
  8
0
100
AcDbLine
 10
2.020266309621655
 20
7.042844914219046
 30
0.0
 11
2.020266309621655
 21
6.991676607132432
 31
0.0
  0
LINE
  5
3127
330
1E
100
AcDbEntity
  8
0
100
AcDbLine
 10
2.045194459227954
 20
7.042844914219046
 30
0.0
 11
2.043882451353939
 21
7.042844914219046
 31
0.0
  0
LINE
  5
3128
330
1E
100
AcDbEntity
  8
0
100
AcDbLine
 10
2.043882451353939
 20
7.042844914219046
 30
0.0
 11
2.018954301747639
 21
7.042844914219046
 31
0.0
  0
LINE
  5
3129
330
1E
100
AcDbEntity
  8
0
100
AcDbLine
 10
2.020266309621655
 20
7.042844914219046
 30
0.0
 11
2.045194459227954
 21
7.042844914219046
 31
0.0
  0
LINE
  5
312A
330
1E
100
AcDbEntity
  8
0
100
AcDbLine
 10
2.020266309621655
 20
7.183229756738731
 30
0.0
 11
2.018954301747639
 21
7.183229756738731
 31
0.0
  0
LINE
  5
312B
330
1E
100
AcDbEntity
  8
0
100
AcDbLine
 10
2.043882451353939
 20
7.183229756738731
 30
0.0
 11
2.018954301747639
 21
7.183229756738731
 31
0.0
  0
LINE
  5
312C
330
1E
100
AcDbEntity
  8
0
100
AcDbLine
 10
2.045194459227954
 20
7.183229756738731
 30
0.0
 11
2.043882451353939
 21
7.183229756738731
 31
0.0
  0
LINE
  5
312D
330
1E
100
AcDbEntity
  8
0
100
AcDbLine
 10
2.020266309621655
 20
7.183229756738731
 30
0.0
 11
2.045194459227954
 21
7.183229756738731
 31
0.0
  0
LINE
  5
312E
330
1E
100
AcDbEntity
  8
0
100
AcDbLine
 10
2.020266309621655
 20
7.235710071699362
 30
0.0
 11
2.018954301747639
 21
7.235710071699362
 31
0.0
  0
LINE
  5
312F
330
1E
100
AcDbEntity
  8
0
100
AcDbLine
 10
2.018954301747639
 20
7.235710071699362
 30
0.0
 11
2.018954301747639
 21
7.183229756738731
 31
0.0
  0
LINE
  5
3130
330
1E
100
AcDbEntity
  8
0
100
AcDbLine
 10
2.020266309621655
 20
7.235710071699362
 30
0.0
 11
2.020266309621655
 21
7.183229756738731
 31
0.0
  0
LINE
  5
3131
330
1E
100
AcDbEntity
  8
0
100
AcDbLine
 10
1.377382451353938
 20
7.235710071699362
 30
0.0
 11
1.377382451353938
 21
7.235710071699362
 31
0.0
  0
LINE
  5
3132
330
1E
100
AcDbEntity
  8
0
100
AcDbLine
 10
1.377382451353938
 20
7.235710071699362
 30
0.0
 11
1.377382451353938
 21
7.183229756738731
 31
0.0
  0
LINE
  5
3133
330
1E
100
AcDbEntity
  8
0
100
AcDbLine
 10
1.377382451353938
 20
7.183229756738731
 30
0.0
 11
1.377382451353938
 21
7.183229756738731
 31
0.0
  0
LINE
  5
3134
330
1E
100
AcDbEntity
  8
0
100
AcDbLine
 10
1.377382451353938
 20
7.235710071699362
 30
0.0
 11
1.377382451353938
 21
7.183229756738731
 31
0.0
  0
LINE
  5
3135
330
1E
100
AcDbEntity
  8
0
100
AcDbLine
 10
1.377382451353938
 20
7.183229756738731
 30
0.0
 11
1.352454301747639
 21
7.183229756738731
 31
0.0
  0
LINE
  5
3136
330
1E
100
AcDbEntity
  8
0
100
AcDbLine
 10
1.352454301747639
 20
7.183229756738731
 30
0.0
 11
1.352454301747639
 21
7.183229756738731
 31
0.0
  0
LINE
  5
3137
330
1E
100
AcDbEntity
  8
0
100
AcDbLine
 10
1.352454301747639
 20
7.183229756738731
 30
0.0
 11
1.377382451353938
 21
7.183229756738731
 31
0.0
  0
LINE
  5
3138
330
1E
100
AcDbEntity
  8
0
100
AcDbLine
 10
1.352454301747639
 20
7.042844914219046
 30
0.0
 11
1.352454301747639
 21
7.042844914219046
 31
0.0
  0
LINE
  5
3139
330
1E
100
AcDbEntity
  8
0
100
AcDbLine
 10
1.377382451353938
 20
7.042844914219046
 30
0.0
 11
1.352454301747639
 21
7.042844914219046
 31
0.0
  0
LINE
  5
313A
330
1E
100
AcDbEntity
  8
0
100
AcDbLine
 10
1.377382451353938
 20
7.042844914219046
 30
0.0
 11
1.377382451353938
 21
7.042844914219046
 31
0.0
  0
LINE
  5
313B
330
1E
100
AcDbEntity
  8
0
100
AcDbLine
 10
1.352454301747639
 20
7.042844914219046
 30
0.0
 11
1.377382451353938
 21
7.042844914219046
 31
0.0
  0
LINE
  5
313C
330
1E
100
AcDbEntity
  8
0
100
AcDbLine
 10
1.377382451353938
 20
7.042844914219046
 30
0.0
 11
1.377382451353938
 21
6.991676607132432
 31
0.0
  0
LINE
  5
313D
330
1E
100
AcDbEntity
  8
0
100
AcDbLine
 10
1.377382451353938
 20
6.991676607132432
 30
0.0
 11
1.377382451353938
 21
6.991676607132432
 31
0.0
  0
LINE
  5
313E
330
1E
100
AcDbEntity
  8
0
100
AcDbLine
 10
1.377382451353938
 20
6.991676607132432
 30
0.0
 11
1.377382451353938
 21
7.042844914219046
 31
0.0
  0
LINE
  5
313F
330
1E
100
AcDbEntity
  8
0
100
AcDbLine
 10
1.352454301747639
 20
7.183229756738731
 30
0.0
 11
1.352454301747639
 21
7.042844914219046
 31
0.0
  0
LINE
  5
3140
330
1E
100
AcDbEntity
  8
0
100
AcDbLine
 10
1.353766309621655
 20
7.044156922093062
 30
0.0
 11
1.352454301747639
 21
7.042844914219046
 31
0.0
  0
LINE
  5
3141
330
1E
100
AcDbEntity
  8
0
100
AcDbLine
 10
1.353766309621655
 20
7.183229756738731
 30
0.0
 11
1.353766309621655
 21
7.044156922093062
 31
0.0
  0
LINE
  5
3142
330
1E
100
AcDbEntity
  8
0
100
AcDbLine
 10
1.352454301747639
 20
7.183229756738731
 30
0.0
 11
1.353766309621655
 21
7.183229756738731
 31
0.0
  0
LINE
  5
3143
330
1E
100
AcDbEntity
  8
0
100
AcDbLine
 10
2.045194459227954
 20
7.183229756738731
 30
0.0
 11
2.045194459227954
 21
7.042844914219046
 31
0.0
  0
LINE
  5
3144
330
1E
100
AcDbEntity
  8
0
100
AcDbLine
 10
2.043882451353939
 20
7.183229756738731
 30
0.0
 11
2.043882451353939
 21
7.183229756738731
 31
0.0
  0
LINE
  5
3145
330
1E
100
AcDbEntity
  8
0
100
AcDbLine
 10
2.043882451353939
 20
7.183229756738731
 30
0.0
 11
2.043882451353939
 21
7.044156922093062
 31
0.0
  0
LINE
  5
3146
330
1E
100
AcDbEntity
  8
0
100
AcDbLine
 10
2.043882451353939
 20
7.044156922093062
 30
0.0
 11
2.043882451353939
 21
7.042844914219046
 31
0.0
  0
LINE
  5
3147
330
1E
100
AcDbEntity
  8
0
100
AcDbLine
 10
1.377382451353938
 20
7.235710071699362
 30
0.0
 11
2.020266309621655
 21
7.235710071699362
 31
0.0
  0
LINE
  5
3148
330
1E
100
AcDbEntity
  8
0
100
AcDbLine
 10
1.377382451353938
 20
7.235710071699362
 30
0.0
 11
1.378694459227954
 21
7.234398063825345
 31
0.0
  0
LINE
  5
3149
330
1E
100
AcDbEntity
  8
0
100
AcDbLine
 10
1.378694459227954
 20
7.234398063825345
 30
0.0
 11
2.018954301747639
 21
7.234398063825345
 31
0.0
  0
LINE
  5
314A
330
1E
100
AcDbEntity
  8
0
100
AcDbLine
 10
2.018954301747639
 20
7.235710071699362
 30
0.0
 11
2.018954301747639
 21
7.234398063825345
 31
0.0
  0
LINE
  5
314B
330
1E
100
AcDbEntity
  8
0
100
AcDbLine
 10
1.29341394741693
 20
7.017916764612747
 30
0.0
 11
1.29341394741693
 21
7.017916764612747
 31
0.0
  0
LINE
  5
314C
330
1E
100
AcDbEntity
  8
0
100
AcDbLine
 10
1.29341394741693
 20
7.017916764612747
 30
0.0
 11
1.29341394741693
 21
7.20815790634503
 31
0.0
  0
LINE
  5
314D
330
1E
100
AcDbEntity
  8
0
100
AcDbLine
 10
1.29341394741693
 20
7.20815790634503
 30
0.0
 11
1.29341394741693
 21
7.20815790634503
 31
0.0
  0
POLYLINE
  5
314E
330
1E
100
AcDbEntity
  8
0
100
AcDb2dPolyline
 66
     1
 10
0.0
 20
0.0
 30
0.0
  0
VERTEX
  5
3778
330
314E
100
AcDbEntity
  8
0
100
AcDbVertex
100
AcDb2dVertex
 10
1.28422989229882
 20
7.218653969337156
 30
0.0
  0
VERTEX
  5
3779
330
314E
100
AcDbEntity
  8
0
100
AcDbVertex
100
AcDb2dVertex
 10
1.288165915920868
 20
7.21734196146314
 30
0.0
  0
VERTEX
  5
377A
330
314E
100
AcDbEntity
  8
0
100
AcDbVertex
100
AcDb2dVertex
 10
1.290789931668899
 20
7.216029953589125
 30
0.0
  0
VERTEX
  5
377B
330
314E
100
AcDbEntity
  8
0
100
AcDbVertex
100
AcDb2dVertex
 10
1.293413947416931
 20
7.212093929967077
 30
0.0
  0
VERTEX
  5
377C
330
314E
100
AcDbEntity
  8
0
100
AcDbVertex
100
AcDb2dVertex
 10
1.293413947416931
 20
7.210781922093063
 30
0.0
  0
VERTEX
  5
377D
330
314E
100
AcDbEntity
  8
0
100
AcDbVertex
100
AcDb2dVertex
 10
1.293413947416931
 20
7.20815790634503
 30
0.0
  0
SEQEND
  5
377E
330
314E
100
AcDbEntity
  8
0
  0
POLYLINE
  5
3156
330
1E
100
AcDbEntity
  8
0
100
AcDb2dPolyline
 66
     1
 10
0.0
 20
0.0
 30
0.0
  0
VERTEX
  5
377F
330
3156
100
AcDbEntity
  8
0
100
AcDbVertex
100
AcDb2dVertex
 10
1.28422989229882
 20
7.008732709494636
 30
0.0
  0
VERTEX
  5
3780
330
3156
100
AcDbEntity
  8
0
100
AcDbVertex
100
AcDb2dVertex
 10
1.285541900172836
 20
7.008732709494636
 30
0.0
  0
VERTEX
  5
3781
330
3156
100
AcDbEntity
  8
0
100
AcDbVertex
100
AcDb2dVertex
 10
1.288165915920868
 20
7.008732709494636
 30
0.0
  0
VERTEX
  5
3782
330
3156
100
AcDbEntity
  8
0
100
AcDbVertex
100
AcDb2dVertex
 10
1.290789931668899
 20
7.011356725242669
 30
0.0
  0
VERTEX
  5
3783
330
3156
100
AcDbEntity
  8
0
100
AcDbVertex
100
AcDb2dVertex
 10
1.293413947416931
 20
7.0139807409907
 30
0.0
  0
VERTEX
  5
3784
330
3156
100
AcDbEntity
  8
0
100
AcDbVertex
100
AcDb2dVertex
 10
1.293413947416931
 20
7.016604756738732
 30
0.0
  0
VERTEX
  5
3785
330
3156
100
AcDbEntity
  8
0
100
AcDbVertex
100
AcDb2dVertex
 10
1.293413947416931
 20
7.017916764612746
 30
0.0
  0
SEQEND
  5
3786
330
3156
100
AcDbEntity
  8
0
  0
LINE
  5
315F
330
1E
100
AcDbEntity
  8
0
100
AcDbLine
 10
2.102922805684647
 20
7.20815790634503
 30
0.0
 11
2.102922805684647
 21
7.20815790634503
 31
0.0
  0
LINE
  5
3160
330
1E
100
AcDbEntity
  8
0
100
AcDbLine
 10
2.102922805684647
 20
7.017916764612747
 30
0.0
 11
2.102922805684647
 21
7.20815790634503
 31
0.0
  0
LINE
  5
3161
330
1E
100
AcDbEntity
  8
0
100
AcDbLine
 10
2.102922805684647
 20
7.017916764612747
 30
0.0
 11
2.102922805684647
 21
7.017916764612747
 31
0.0
  0
POLYLINE
  5
3162
330
1E
100
AcDbEntity
  8
0
100
AcDb2dPolyline
 66
     1
 10
0.0
 20
0.0
 30
0.0
  0
VERTEX
  5
3787
330
3162
100
AcDbEntity
  8
0
100
AcDbVertex
100
AcDb2dVertex
 10
2.113418868676773
 20
7.008732709494636
 30
0.0
  0
VERTEX
  5
3788
330
3162
100
AcDbEntity
  8
0
100
AcDbVertex
100
AcDb2dVertex
 10
2.109482845054725
 20
7.008732709494636
 30
0.0
  0
VERTEX
  5
3789
330
3162
100
AcDbEntity
  8
0
100
AcDbVertex
100
AcDb2dVertex
 10
2.106858829306694
 20
7.011356725242669
 30
0.0
  0
VERTEX
  5
378A
330
3162
100
AcDbEntity
  8
0
100
AcDbVertex
100
AcDb2dVertex
 10
2.104234813558663
 20
7.0139807409907
 30
0.0
  0
VERTEX
  5
378B
330
3162
100
AcDbEntity
  8
0
100
AcDbVertex
100
AcDb2dVertex
 10
2.104234813558663
 20
7.016604756738732
 30
0.0
  0
VERTEX
  5
378C
330
3162
100
AcDbEntity
  8
0
100
AcDbVertex
100
AcDb2dVertex
 10
2.102922805684647
 20
7.017916764612746
 30
0.0
  0
SEQEND
  5
378D
330
3162
100
AcDbEntity
  8
0
  0
POLYLINE
  5
316A
330
1E
100
AcDbEntity
  8
0
100
AcDb2dPolyline
 66
     1
 10
0.0
 20
0.0
 30
0.0
  0
VERTEX
  5
378E
330
316A
100
AcDbEntity
  8
0
100
AcDbVertex
100
AcDb2dVertex
 10
2.113418868676773
 20
7.218653969337156
 30
0.0
  0
VERTEX
  5
378F
330
316A
100
AcDbEntity
  8
0
100
AcDbVertex
100
AcDb2dVertex
 10
2.112106860802757
 20
7.218653969337156
 30
0.0
  0
VERTEX
  5
3790
330
316A
100
AcDbEntity
  8
0
100
AcDbVertex
100
AcDb2dVertex
 10
2.109482845054725
 20
7.21734196146314
 30
0.0
  0
VERTEX
  5
3791
330
316A
100
AcDbEntity
  8
0
100
AcDbVertex
100
AcDb2dVertex
 10
2.106858829306694
 20
7.216029953589125
 30
0.0
  0
VERTEX
  5
3792
330
316A
100
AcDbEntity
  8
0
100
AcDbVertex
100
AcDb2dVertex
 10
2.104234813558663
 20
7.212093929967077
 30
0.0
  0
VERTEX
  5
3793
330
316A
100
AcDbEntity
  8
0
100
AcDbVertex
100
AcDb2dVertex
 10
2.104234813558663
 20
7.210781922093063
 30
0.0
  0
VERTEX
  5
3794
330
316A
100
AcDbEntity
  8
0
100
AcDbVertex
100
AcDb2dVertex
 10
2.102922805684647
 20
7.20815790634503
 30
0.0
  0
SEQEND
  5
3795
330
316A
100
AcDbEntity
  8
0
  0
LINE
  5
3173
330
1E
100
AcDbEntity
  8
0
100
AcDbLine
 10
1.378694459227954
 20
6.992988615006447
 30
0.0
 11
1.637160010409057
 21
6.992988615006447
 31
0.0
  0
LINE
  5
3174
330
1E
100
AcDbEntity
  8
0
100
AcDbLine
 10
1.377382451353938
 20
6.991676607132432
 30
0.0
 11
1.378694459227954
 21
6.992988615006447
 31
0.0
  0
LINE
  5
3175
330
1E
100
AcDbEntity
  8
0
100
AcDbLine
 10
1.377382451353938
 20
6.991676607132432
 30
0.0
 11
1.63584800253504
 21
6.991676607132432
 31
0.0
  0
LINE
  5
3176
330
1E
100
AcDbEntity
  8
0
100
AcDbLine
 10
1.63584800253504
 20
6.991676607132432
 30
0.0
 11
1.637160010409057
 21
6.992988615006447
 31
0.0
  0
LINE
  5
3177
330
1E
100
AcDbEntity
  8
0
100
AcDbLine
 10
1.638472018283072
 20
6.999548654376527
 30
0.0
 11
1.637160010409057
 21
6.99823664650251
 31
0.0
  0
POLYLINE
  5
3178
330
1E
100
AcDbEntity
  8
0
100
AcDb2dPolyline
 66
     1
 10
0.0
 20
0.0
 30
0.0
  0
VERTEX
  5
3796
330
3178
100
AcDbEntity
  8
0
100
AcDbVertex
100
AcDb2dVertex
 10
1.638472018283072
 20
7.22652601658125
 30
0.0
  0
VERTEX
  5
3797
330
3178
100
AcDbEntity
  8
0
100
AcDbVertex
100
AcDb2dVertex
 10
1.603047805684647
 20
7.221277985085188
 30
0.0
  0
VERTEX
  5
3798
330
3178
100
AcDbEntity
  8
0
100
AcDbVertex
100
AcDb2dVertex
 10
1.571559616708269
 20
7.205533890596998
 30
0.0
  0
VERTEX
  5
3799
330
3178
100
AcDbEntity
  8
0
100
AcDbVertex
100
AcDb2dVertex
 10
1.54663146710197
 20
7.1806057409907
 30
0.0
  0
VERTEX
  5
379A
330
3178
100
AcDbEntity
  8
0
100
AcDbVertex
100
AcDb2dVertex
 10
1.530887372613781
 20
7.149117552014321
 30
0.0
  0
VERTEX
  5
379B
330
3178
100
AcDbEntity
  8
0
100
AcDbVertex
100
AcDb2dVertex
 10
1.525639341117718
 20
7.113693339415896
 30
0.0
  0
VERTEX
  5
379C
330
3178
100
AcDbEntity
  8
0
100
AcDbVertex
100
AcDb2dVertex
 10
1.530887372613781
 20
7.078269126817471
 30
0.0
  0
VERTEX
  5
379D
330
3178
100
AcDbEntity
  8
0
100
AcDbVertex
100
AcDb2dVertex
 10
1.54663146710197
 20
7.046780937841092
 30
0.0
  0
VERTEX
  5
379E
330
3178
100
AcDbEntity
  8
0
100
AcDbVertex
100
AcDb2dVertex
 10
1.571559616708269
 20
7.021852788234794
 30
0.0
  0
VERTEX
  5
379F
330
3178
100
AcDbEntity
  8
0
100
AcDbVertex
100
AcDb2dVertex
 10
1.603047805684647
 20
7.006108693746607
 30
0.0
  0
VERTEX
  5
37A0
330
3178
100
AcDbEntity
  8
0
100
AcDbVertex
100
AcDb2dVertex
 10
1.638472018283072
 20
6.999548654376526
 30
0.0
  0
SEQEND
  5
37A1
330
3178
100
AcDbEntity
  8
0
  0
POLYLINE
  5
3185
330
1E
100
AcDbEntity
  8
0
100
AcDb2dPolyline
 66
     1
 10
0.0
 20
0.0
 30
0.0
  0
VERTEX
  5
37A2
330
3185
100
AcDbEntity
  8
0
100
AcDbVertex
100
AcDb2dVertex
 10
1.638472018283072
 20
7.227838024455267
 30
0.0
  0
VERTEX
  5
37A3
330
3185
100
AcDbEntity
  8
0
100
AcDbVertex
100
AcDb2dVertex
 10
1.603047805684647
 20
7.222589992959204
 30
0.0
  0
VERTEX
  5
37A4
330
3185
100
AcDbEntity
  8
0
100
AcDbVertex
100
AcDb2dVertex
 10
1.571559616708269
 20
7.206845898471015
 30
0.0
  0
VERTEX
  5
37A5
330
3185
100
AcDbEntity
  8
0
100
AcDbVertex
100
AcDb2dVertex
 10
1.54663146710197
 20
7.181917748864715
 30
0.0
  0
VERTEX
  5
37A6
330
3185
100
AcDbEntity
  8
0
100
AcDbVertex
100
AcDb2dVertex
 10
1.529575364739765
 20
7.149117552014321
 30
0.0
  0
VERTEX
  5
37A7
330
3185
100
AcDbEntity
  8
0
100
AcDbVertex
100
AcDb2dVertex
 10
1.524327333243702
 20
7.115005347289911
 30
0.0
  0
VERTEX
  5
37A8
330
3185
100
AcDbEntity
  8
0
100
AcDbVertex
100
AcDb2dVertex
 10
1.529575364739765
 20
7.079581134691488
 30
0.0
  0
VERTEX
  5
37A9
330
3185
100
AcDbEntity
  8
0
100
AcDbVertex
100
AcDb2dVertex
 10
1.545319459227955
 20
7.046780937841092
 30
0.0
  0
VERTEX
  5
37AA
330
3185
100
AcDbEntity
  8
0
100
AcDbVertex
100
AcDb2dVertex
 10
1.570247608834253
 20
7.021852788234794
 30
0.0
  0
VERTEX
  5
37AB
330
3185
100
AcDbEntity
  8
0
100
AcDbVertex
100
AcDb2dVertex
 10
1.601735797810631
 20
7.004796685872588
 30
0.0
  0
VERTEX
  5
37AC
330
3185
100
AcDbEntity
  8
0
100
AcDbVertex
100
AcDb2dVertex
 10
1.637160010409057
 20
6.998236646502511
 30
0.0
  0
SEQEND
  5
37AD
330
3185
100
AcDbEntity
  8
0
  0
LINE
  5
3192
330
1E
100
AcDbEntity
  8
0
100
AcDbLine
 10
1.638472018283072
 20
7.045468929967077
 30
0.0
 11
1.638472018283072
 21
7.045468929967077
 31
0.0
  0
POLYLINE
  5
3193
330
1E
100
AcDbEntity
  8
0
100
AcDb2dPolyline
 66
     1
 10
0.0
 20
0.0
 30
0.0
  0
VERTEX
  5
37AE
330
3193
100
AcDbEntity
  8
0
100
AcDbVertex
100
AcDb2dVertex
 10
1.638472018283072
 20
7.045468929967078
 30
0.0
  0
VERTEX
  5
37AF
330
3193
100
AcDbEntity
  8
0
100
AcDbVertex
100
AcDb2dVertex
 10
1.60829583718071
 20
7.052028969337157
 30
0.0
  0
VERTEX
  5
37B0
330
3193
100
AcDbEntity
  8
0
100
AcDbVertex
100
AcDb2dVertex
 10
1.584679695448427
 20
7.071709087447392
 30
0.0
  0
VERTEX
  5
37B1
330
3193
100
AcDbEntity
  8
0
100
AcDbVertex
100
AcDb2dVertex
 10
1.572871624582285
 20
7.099261252801723
 30
0.0
  0
VERTEX
  5
37B2
330
3193
100
AcDbEntity
  8
0
100
AcDbVertex
100
AcDb2dVertex
 10
1.572871624582285
 20
7.129437433904086
 30
0.0
  0
VERTEX
  5
37B3
330
3193
100
AcDbEntity
  8
0
100
AcDbVertex
100
AcDb2dVertex
 10
1.585991703322442
 20
7.1556775913844
 30
0.0
  0
VERTEX
  5
37B4
330
3193
100
AcDbEntity
  8
0
100
AcDbVertex
100
AcDb2dVertex
 10
1.609607845054726
 20
7.175357709494636
 30
0.0
  0
VERTEX
  5
37B5
330
3193
100
AcDbEntity
  8
0
100
AcDbVertex
100
AcDb2dVertex
 10
1.638472018283072
 20
7.181917748864715
 30
0.0
  0
SEQEND
  5
37B6
330
3193
100
AcDbEntity
  8
0
  0
POLYLINE
  5
319D
330
1E
100
AcDbEntity
  8
0
100
AcDb2dPolyline
 66
     1
 10
0.0
 20
0.0
 30
0.0
  0
VERTEX
  5
37B7
330
319D
100
AcDbEntity
  8
0
100
AcDbVertex
100
AcDb2dVertex
 10
1.759176742692521
 20
7.181917748864715
 30
0.0
  0
VERTEX
  5
37B8
330
319D
100
AcDbEntity
  8
0
100
AcDbVertex
100
AcDb2dVertex
 10
1.788040915920868
 20
7.175357709494636
 30
0.0
  0
VERTEX
  5
37B9
330
319D
100
AcDbEntity
  8
0
100
AcDbVertex
100
AcDb2dVertex
 10
1.811657057653151
 20
7.1556775913844
 30
0.0
  0
VERTEX
  5
37BA
330
319D
100
AcDbEntity
  8
0
100
AcDbVertex
100
AcDb2dVertex
 10
1.824777136393309
 20
7.129437433904086
 30
0.0
  0
VERTEX
  5
37BB
330
319D
100
AcDbEntity
  8
0
100
AcDbVertex
100
AcDb2dVertex
 10
1.824777136393309
 20
7.099261252801723
 30
0.0
  0
VERTEX
  5
37BC
330
319D
100
AcDbEntity
  8
0
100
AcDbVertex
100
AcDb2dVertex
 10
1.811657057653151
 20
7.071709087447392
 30
0.0
  0
VERTEX
  5
37BD
330
319D
100
AcDbEntity
  8
0
100
AcDbVertex
100
AcDb2dVertex
 10
1.789352923794883
 20
7.052028969337157
 30
0.0
  0
VERTEX
  5
37BE
330
319D
100
AcDbEntity
  8
0
100
AcDbVertex
100
AcDb2dVertex
 10
1.759176742692521
 20
7.045468929967078
 30
0.0
  0
SEQEND
  5
37BF
330
319D
100
AcDbEntity
  8
0
  0
LINE
  5
31A7
330
1E
100
AcDbEntity
  8
0
100
AcDbLine
 10
1.759176742692521
 20
7.045468929967077
 30
0.0
 11
1.759176742692521
 21
6.999548654376527
 31
0.0
  0
POLYLINE
  5
31A8
330
1E
100
AcDbEntity
  8
0
100
AcDb2dPolyline
 66
     1
 10
0.0
 20
0.0
 30
0.0
  0
VERTEX
  5
37C0
330
31A8
100
AcDbEntity
  8
0
100
AcDbVertex
100
AcDb2dVertex
 10
1.759176742692521
 20
6.999548654376526
 30
0.0
  0
VERTEX
  5
37C1
330
31A8
100
AcDbEntity
  8
0
100
AcDbVertex
100
AcDb2dVertex
 10
1.794600955290946
 20
7.006108693746607
 30
0.0
  0
VERTEX
  5
37C2
330
31A8
100
AcDbEntity
  8
0
100
AcDbVertex
100
AcDb2dVertex
 10
1.826089144267324
 20
7.021852788234794
 30
0.0
  0
VERTEX
  5
37C3
330
31A8
100
AcDbEntity
  8
0
100
AcDbVertex
100
AcDb2dVertex
 10
1.851017293873623
 20
7.046780937841092
 30
0.0
  0
VERTEX
  5
37C4
330
31A8
100
AcDbEntity
  8
0
100
AcDbVertex
100
AcDb2dVertex
 10
1.866761388361813
 20
7.078269126817471
 30
0.0
  0
VERTEX
  5
37C5
330
31A8
100
AcDbEntity
  8
0
100
AcDbVertex
100
AcDb2dVertex
 10
1.872009419857876
 20
7.113693339415896
 30
0.0
  0
VERTEX
  5
37C6
330
31A8
100
AcDbEntity
  8
0
100
AcDbVertex
100
AcDb2dVertex
 10
1.866761388361813
 20
7.149117552014321
 30
0.0
  0
VERTEX
  5
37C7
330
31A8
100
AcDbEntity
  8
0
100
AcDbVertex
100
AcDb2dVertex
 10
1.851017293873623
 20
7.1806057409907
 30
0.0
  0
VERTEX
  5
37C8
330
31A8
100
AcDbEntity
  8
0
100
AcDbVertex
100
AcDb2dVertex
 10
1.824777136393309
 20
7.205533890596998
 30
0.0
  0
VERTEX
  5
37C9
330
31A8
100
AcDbEntity
  8
0
100
AcDbVertex
100
AcDb2dVertex
 10
1.793288947416931
 20
7.221277985085188
 30
0.0
  0
VERTEX
  5
37CA
330
31A8
100
AcDbEntity
  8
0
100
AcDbVertex
100
AcDb2dVertex
 10
1.759176742692521
 20
7.22652601658125
 30
0.0
  0
SEQEND
  5
37CB
330
31A8
100
AcDbEntity
  8
0
  0
LINE
  5
31B5
330
1E
100
AcDbEntity
  8
0
100
AcDbLine
 10
1.638472018283072
 20
6.999548654376527
 30
0.0
 11
1.638472018283072
 21
7.045468929967077
 31
0.0
  0
LINE
  5
31B6
330
1E
100
AcDbEntity
  8
0
100
AcDbLine
 10
1.759176742692521
 20
6.999548654376527
 30
0.0
 11
1.760488750566537
 21
6.99823664650251
 31
0.0
  0
POLYLINE
  5
31B7
330
1E
100
AcDbEntity
  8
0
100
AcDb2dPolyline
 66
     1
 10
0.0
 20
0.0
 30
0.0
  0
VERTEX
  5
37CC
330
31B7
100
AcDbEntity
  8
0
100
AcDbVertex
100
AcDb2dVertex
 10
1.760488750566537
 20
6.998236646502511
 30
0.0
  0
VERTEX
  5
37CD
330
31B7
100
AcDbEntity
  8
0
100
AcDbVertex
100
AcDb2dVertex
 10
1.795912963164962
 20
7.004796685872588
 30
0.0
  0
VERTEX
  5
37CE
330
31B7
100
AcDbEntity
  8
0
100
AcDbVertex
100
AcDb2dVertex
 10
1.82740115214134
 20
7.021852788234794
 30
0.0
  0
VERTEX
  5
37CF
330
31B7
100
AcDbEntity
  8
0
100
AcDbVertex
100
AcDb2dVertex
 10
1.852329301747639
 20
7.046780937841092
 30
0.0
  0
VERTEX
  5
37D0
330
31B7
100
AcDbEntity
  8
0
100
AcDbVertex
100
AcDb2dVertex
 10
1.868073396235828
 20
7.079581134691488
 30
0.0
  0
VERTEX
  5
37D1
330
31B7
100
AcDbEntity
  8
0
100
AcDbVertex
100
AcDb2dVertex
 10
1.873321427731891
 20
7.115005347289911
 30
0.0
  0
VERTEX
  5
37D2
330
31B7
100
AcDbEntity
  8
0
100
AcDbVertex
100
AcDb2dVertex
 10
1.868073396235828
 20
7.149117552014321
 30
0.0
  0
VERTEX
  5
37D3
330
31B7
100
AcDbEntity
  8
0
100
AcDbVertex
100
AcDb2dVertex
 10
1.851017293873623
 20
7.181917748864715
 30
0.0
  0
VERTEX
  5
37D4
330
31B7
100
AcDbEntity
  8
0
100
AcDbVertex
100
AcDb2dVertex
 10
1.826089144267324
 20
7.206845898471015
 30
0.0
  0
VERTEX
  5
37D5
330
31B7
100
AcDbEntity
  8
0
100
AcDbVertex
100
AcDb2dVertex
 10
1.794600955290946
 20
7.222589992959204
 30
0.0
  0
VERTEX
  5
37D6
330
31B7
100
AcDbEntity
  8
0
100
AcDbVertex
100
AcDb2dVertex
 10
1.759176742692521
 20
7.227838024455267
 30
0.0
  0
SEQEND
  5
37D7
330
31B7
100
AcDbEntity
  8
0
  0
LINE
  5
31C4
330
1E
100
AcDbEntity
  8
0
100
AcDbLine
 10
1.378694459227954
 20
7.234398063825345
 30
0.0
 11
1.378694459227954
 21
7.183229756738731
 31
0.0
  0
LINE
  5
31C5
330
1E
100
AcDbEntity
  8
0
100
AcDbLine
 10
1.378694459227954
 20
7.183229756738731
 30
0.0
 11
1.353766309621655
 21
7.183229756738731
 31
0.0
  0
LINE
  5
31C6
330
1E
100
AcDbEntity
  8
0
100
AcDbLine
 10
1.378694459227954
 20
7.044156922093062
 30
0.0
 11
1.353766309621655
 21
7.044156922093062
 31
0.0
  0
LINE
  5
31C7
330
1E
100
AcDbEntity
  8
0
100
AcDbLine
 10
1.378694459227954
 20
7.044156922093062
 30
0.0
 11
1.378694459227954
 21
6.992988615006447
 31
0.0
  0
LINE
  5
31C8
330
1E
100
AcDbEntity
  8
0
100
AcDbLine
 10
1.637160010409057
 20
6.992988615006447
 30
0.0
 11
1.637160010409057
 21
6.99823664650251
 31
0.0
  0
LINE
  5
31C9
330
1E
100
AcDbEntity
  8
0
100
AcDbLine
 10
1.760488750566537
 20
6.99823664650251
 30
0.0
 11
1.760488750566537
 21
6.992988615006447
 31
0.0
  0
LINE
  5
31CA
330
1E
100
AcDbEntity
  8
0
100
AcDbLine
 10
1.760488750566537
 20
6.992988615006447
 30
0.0
 11
2.018954301747639
 21
6.992988615006447
 31
0.0
  0
LINE
  5
31CB
330
1E
100
AcDbEntity
  8
0
100
AcDbLine
 10
2.018954301747639
 20
7.044156922093062
 30
0.0
 11
2.018954301747639
 21
6.992988615006447
 31
0.0
  0
LINE
  5
31CC
330
1E
100
AcDbEntity
  8
0
100
AcDbLine
 10
2.018954301747639
 20
7.044156922093062
 30
0.0
 11
2.043882451353939
 21
7.044156922093062
 31
0.0
  0
LINE
  5
31CD
330
1E
100
AcDbEntity
  8
0
100
AcDbLine
 10
2.018954301747639
 20
7.183229756738731
 30
0.0
 11
2.043882451353939
 21
7.183229756738731
 31
0.0
  0
LINE
  5
31CE
330
1E
100
AcDbEntity
  8
0
100
AcDbLine
 10
2.018954301747639
 20
7.234398063825345
 30
0.0
 11
2.018954301747639
 21
7.183229756738731
 31
0.0
  0
LINE
  5
31CF
330
1E
100
AcDbEntity
  8
0
100
AcDbLine
 10
1.761800758440553
 20
6.991676607132432
 30
0.0
 11
2.020266309621655
 21
6.991676607132432
 31
0.0
  0
LINE
  5
31D0
330
1E
100
AcDbEntity
  8
0
100
AcDbLine
 10
2.018954301747639
 20
6.991676607132432
 30
0.0
 11
2.018954301747639
 21
6.992988615006447
 31
0.0
  0
LINE
  5
31D1
330
1E
100
AcDbEntity
  8
0
100
AcDbLine
 10
1.760488750566537
 20
6.992988615006447
 30
0.0
 11
1.761800758440553
 21
6.991676607132432
 31
0.0
  0
LINE
  5
31D2
330
1E
100
AcDbEntity
  8
0
100
AcDbLine
 10
1.63584800253504
 20
6.949692355163929
 30
0.0
 11
1.643720049779135
 21
6.949692355163929
 31
0.0
  0
LINE
  5
31D3
330
1E
100
AcDbEntity
  8
0
100
AcDbLine
 10
1.753928711196459
 20
6.949692355163929
 30
0.0
 11
1.760488750566537
 21
6.949692355163929
 31
0.0
  0
POLYLINE
  5
31D4
330
1E
100
AcDbEntity
  8
0
100
AcDb2dPolyline
 66
     1
 10
0.0
 20
0.0
 30
0.0
  0
VERTEX
  5
37D8
330
31D4
100
AcDbEntity
  8
0
100
AcDbVertex
100
AcDb2dVertex
 10
1.759176742692521
 20
6.97986853626629
 30
0.0
  0
VERTEX
  5
37D9
330
31D4
100
AcDbEntity
  8
0
100
AcDbVertex
100
AcDb2dVertex
 10
1.759176742692521
 20
6.965436449652117
 30
0.0
  0
VERTEX
  5
37DA
330
31D4
100
AcDbEntity
  8
0
100
AcDbVertex
100
AcDb2dVertex
 10
1.759176742692521
 20
6.953628378785976
 30
0.0
  0
VERTEX
  5
37DB
330
31D4
100
AcDbEntity
  8
0
100
AcDbVertex
100
AcDb2dVertex
 10
1.759176742692521
 20
6.949692355163928
 30
0.0
  0
SEQEND
  5
37DC
330
31D4
100
AcDbEntity
  8
0
  0
LINE
  5
31DA
330
1E
100
AcDbEntity
  8
0
100
AcDbLine
 10
1.638472018283072
 20
6.979868536266291
 30
0.0
 11
1.643720049779135
 21
6.979868536266291
 31
0.0
  0
LINE
  5
31DB
330
1E
100
AcDbEntity
  8
0
100
AcDbLine
 10
1.753928711196459
 20
6.979868536266291
 30
0.0
 11
1.759176742692521
 21
6.979868536266291
 31
0.0
  0
POLYLINE
  5
31DC
330
1E
100
AcDbEntity
  8
0
100
AcDb2dPolyline
 66
     1
 10
0.0
 20
0.0
 30
0.0
  0
VERTEX
  5
37DD
330
31DC
100
AcDbEntity
  8
0
100
AcDbVertex
100
AcDb2dVertex
 10
1.638472018283072
 20
6.949692355163928
 30
0.0
  0
VERTEX
  5
37DE
330
31DC
100
AcDbEntity
  8
0
100
AcDbVertex
100
AcDb2dVertex
 10
1.638472018283072
 20
6.953628378785976
 30
0.0
  0
VERTEX
  5
37DF
330
31DC
100
AcDbEntity
  8
0
100
AcDbVertex
100
AcDb2dVertex
 10
1.638472018283072
 20
6.965436449652117
 30
0.0
  0
VERTEX
  5
37E0
330
31DC
100
AcDbEntity
  8
0
100
AcDbVertex
100
AcDb2dVertex
 10
1.638472018283072
 20
6.97986853626629
 30
0.0
  0
SEQEND
  5
37E1
330
31DC
100
AcDbEntity
  8
0
  0
LINE
  5
31E2
330
1E
100
AcDbEntity
  8
0
100
AcDbLine
 10
1.638472018283072
 20
6.979868536266291
 30
0.0
 11
1.638472018283072
 21
7.045468929967077
 31
0.0
  0
LINE
  5
31E3
330
1E
100
AcDbEntity
  8
0
100
AcDbLine
 10
1.759176742692521
 20
6.979868536266291
 30
0.0
 11
1.759176742692521
 21
7.045468929967077
 31
0.0
  0
LINE
  5
31E4
330
1E
100
AcDbEntity
  8
0
100
AcDbLine
 10
1.761800758440553
 20
6.962812433904085
 30
0.0
 11
2.067498593086222
 21
6.962812433904085
 31
0.0
  0
POLYLINE
  5
31E5
330
1E
100
AcDbEntity
  8
0
100
AcDb2dPolyline
 66
     1
 10
0.0
 20
0.0
 30
0.0
  0
VERTEX
  5
37E2
330
31E5
100
AcDbEntity
  8
0
100
AcDbVertex
100
AcDb2dVertex
 10
2.067498593086222
 20
6.962812433904086
 30
0.0
  0
VERTEX
  5
37E3
330
31E5
100
AcDbEntity
  8
0
100
AcDbVertex
100
AcDb2dVertex
 10
2.083242687574411
 20
6.966748457526132
 30
0.0
  0
VERTEX
  5
37E4
330
31E5
100
AcDbEntity
  8
0
100
AcDbVertex
100
AcDb2dVertex
 10
2.093738750566537
 20
6.978556528392274
 30
0.0
  0
VERTEX
  5
37E5
330
31E5
100
AcDbEntity
  8
0
100
AcDbVertex
100
AcDb2dVertex
 10
2.097674774188584
 20
6.992988615006448
 30
0.0
  0
SEQEND
  5
37E6
330
31E5
100
AcDbEntity
  8
0
  0
LINE
  5
31EB
330
1E
100
AcDbEntity
  8
0
100
AcDbLine
 10
2.097674774188584
 20
6.992988615006447
 30
0.0
 11
2.097674774188584
 21
7.233086055951329
 31
0.0
  0
POLYLINE
  5
31EC
330
1E
100
AcDbEntity
  8
0
100
AcDb2dPolyline
 66
     1
 10
0.0
 20
0.0
 30
0.0
  0
VERTEX
  5
37E7
330
31EC
100
AcDbEntity
  8
0
100
AcDbVertex
100
AcDb2dVertex
 10
2.097674774188584
 20
7.233086055951329
 30
0.0
  0
VERTEX
  5
37E8
330
31EC
100
AcDbEntity
  8
0
100
AcDbVertex
100
AcDb2dVertex
 10
2.093738750566537
 20
7.248830150439519
 30
0.0
  0
VERTEX
  5
37E9
330
31EC
100
AcDbEntity
  8
0
100
AcDbVertex
100
AcDb2dVertex
 10
2.083242687574411
 20
7.259326213431644
 30
0.0
  0
VERTEX
  5
37EA
330
31EC
100
AcDbEntity
  8
0
100
AcDbVertex
100
AcDb2dVertex
 10
2.067498593086222
 20
7.263262237053692
 30
0.0
  0
SEQEND
  5
37EB
330
31EC
100
AcDbEntity
  8
0
  0
LINE
  5
31F2
330
1E
100
AcDbEntity
  8
0
100
AcDbLine
 10
1.328838160015355
 20
7.263262237053692
 30
0.0
 11
2.067498593086222
 21
7.263262237053692
 31
0.0
  0
POLYLINE
  5
31F3
330
1E
100
AcDbEntity
  8
0
100
AcDb2dPolyline
 66
     1
 10
0.0
 20
0.0
 30
0.0
  0
VERTEX
  5
37EC
330
31F3
100
AcDbEntity
  8
0
100
AcDbVertex
100
AcDb2dVertex
 10
1.299973986787009
 20
7.233086055951329
 30
0.0
  0
VERTEX
  5
37ED
330
31F3
100
AcDbEntity
  8
0
100
AcDbVertex
100
AcDb2dVertex
 10
1.303910010409057
 20
7.248830150439519
 30
0.0
  0
VERTEX
  5
37EE
330
31F3
100
AcDbEntity
  8
0
100
AcDbVertex
100
AcDb2dVertex
 10
1.314406073401183
 20
7.259326213431644
 30
0.0
  0
VERTEX
  5
37EF
330
31F3
100
AcDbEntity
  8
0
100
AcDbVertex
100
AcDb2dVertex
 10
1.328838160015356
 20
7.263262237053692
 30
0.0
  0
SEQEND
  5
37F0
330
31F3
100
AcDbEntity
  8
0
  0
LINE
  5
31F9
330
1E
100
AcDbEntity
  8
0
100
AcDbLine
 10
1.299973986787009
 20
6.992988615006447
 30
0.0
 11
1.299973986787009
 21
7.233086055951329
 31
0.0
  0
POLYLINE
  5
31FA
330
1E
100
AcDbEntity
  8
0
100
AcDb2dPolyline
 66
     1
 10
0.0
 20
0.0
 30
0.0
  0
VERTEX
  5
37F1
330
31FA
100
AcDbEntity
  8
0
100
AcDbVertex
100
AcDb2dVertex
 10
1.328838160015356
 20
6.962812433904086
 30
0.0
  0
VERTEX
  5
37F2
330
31FA
100
AcDbEntity
  8
0
100
AcDbVertex
100
AcDb2dVertex
 10
1.314406073401183
 20
6.966748457526132
 30
0.0
  0
VERTEX
  5
37F3
330
31FA
100
AcDbEntity
  8
0
100
AcDbVertex
100
AcDb2dVertex
 10
1.303910010409057
 20
6.978556528392274
 30
0.0
  0
VERTEX
  5
37F4
330
31FA
100
AcDbEntity
  8
0
100
AcDbVertex
100
AcDb2dVertex
 10
1.299973986787009
 20
6.992988615006448
 30
0.0
  0
SEQEND
  5
37F5
330
31FA
100
AcDbEntity
  8
0
  0
LINE
  5
3200
330
1E
100
AcDbEntity
  8
0
100
AcDbLine
 10
1.328838160015355
 20
6.962812433904085
 30
0.0
 11
1.63584800253504
 21
6.962812433904085
 31
0.0
  0
LINE
  5
3201
330
1E
100
AcDbEntity
  8
0
100
AcDbLine
 10
1.63584800253504
 20
6.962812433904085
 30
0.0
 11
1.63584800253504
 21
6.991676607132432
 31
0.0
  0
LINE
  5
3202
330
1E
100
AcDbEntity
  8
0
100
AcDbLine
 10
1.761800758440553
 20
6.962812433904085
 30
0.0
 11
1.761800758440553
 21
6.991676607132432
 31
0.0
  0
LINE
  5
3203
330
1E
100
AcDbEntity
  8
0
100
AcDbLine
 10
1.28422989229882
 20
7.008732709494637
 30
0.0
 11
1.246181663952364
 21
7.008732709494637
 31
0.0
  0
LINE
  5
3204
330
1E
100
AcDbEntity
  8
0
100
AcDbLine
 10
1.246181663952364
 20
7.008732709494637
 30
0.0
 11
1.231749577338191
 21
7.002172670124558
 31
0.0
  0
LINE
  5
3205
330
1E
100
AcDbEntity
  8
0
100
AcDbLine
 10
1.286853908046851
 20
7.002172670124558
 30
0.0
 11
1.28422989229882
 21
7.008732709494637
 31
0.0
  0
LINE
  5
3206
330
1E
100
AcDbEntity
  8
0
100
AcDbLine
 10
1.29341394741693
 20
7.017916764612747
 30
0.0
 11
1.296037963164963
 21
7.012668733116684
 31
0.0
  0
LINE
  5
3207
330
1E
100
AcDbEntity
  8
0
100
AcDbLine
 10
1.296037963164963
 20
7.213405937841093
 30
0.0
 11
1.29341394741693
 21
7.20815790634503
 31
0.0
  0
LINE
  5
3208
330
1E
100
AcDbEntity
  8
0
100
AcDbLine
 10
1.28422989229882
 20
7.218653969337156
 30
0.0
 11
1.286853908046851
 21
7.223902000833218
 31
0.0
  0
LINE
  5
3209
330
1E
100
AcDbEntity
  8
0
100
AcDbLine
 10
1.246181663952364
 20
7.218653969337156
 30
0.0
 11
1.231749577338191
 21
7.223902000833218
 31
0.0
  0
LINE
  5
320A
330
1E
100
AcDbEntity
  8
0
100
AcDbLine
 10
1.28422989229882
 20
7.218653969337156
 30
0.0
 11
1.246181663952364
 21
7.218653969337156
 31
0.0
  0
LINE
  5
320B
330
1E
100
AcDbEntity
  8
0
100
AcDbLine
 10
1.246181663952364
 20
7.218653969337156
 30
0.0
 11
1.238309616708269
 21
7.21471794571511
 31
0.0
  0
LINE
  5
320C
330
1E
100
AcDbEntity
  8
0
100
AcDbLine
 10
1.246181663952364
 20
7.008732709494637
 30
0.0
 11
1.238309616708269
 21
7.011356725242668
 31
0.0
  0
LINE
  5
320D
330
1E
100
AcDbEntity
  8
0
100
AcDbLine
 10
2.113418868676773
 20
7.218653969337156
 30
0.0
 11
2.15146709702323
 21
7.218653969337156
 31
0.0
  0
LINE
  5
320E
330
1E
100
AcDbEntity
  8
0
100
AcDbLine
 10
2.15146709702323
 20
7.218653969337156
 30
0.0
 11
2.164587175763387
 21
7.223902000833218
 31
0.0
  0
LINE
  5
320F
330
1E
100
AcDbEntity
  8
0
100
AcDbLine
 10
2.113418868676773
 20
7.218653969337156
 30
0.0
 11
2.110794852928742
 21
7.223902000833218
 31
0.0
  0
LINE
  5
3210
330
1E
100
AcDbEntity
  8
0
100
AcDbLine
 10
2.100298789936616
 20
7.213405937841093
 30
0.0
 11
2.102922805684647
 21
7.20815790634503
 31
0.0
  0
LINE
  5
3211
330
1E
100
AcDbEntity
  8
0
100
AcDbLine
 10
2.102922805684647
 20
7.017916764612747
 30
0.0
 11
2.100298789936616
 21
7.012668733116684
 31
0.0
  0
LINE
  5
3212
330
1E
100
AcDbEntity
  8
0
100
AcDbLine
 10
2.110794852928742
 20
7.002172670124558
 30
0.0
 11
2.113418868676773
 21
7.008732709494637
 31
0.0
  0
LINE
  5
3213
330
1E
100
AcDbEntity
  8
0
100
AcDbLine
 10
2.15146709702323
 20
7.008732709494637
 30
0.0
 11
2.164587175763387
 21
7.002172670124558
 31
0.0
  0
LINE
  5
3214
330
1E
100
AcDbEntity
  8
0
100
AcDbLine
 10
2.113418868676773
 20
7.008732709494637
 30
0.0
 11
2.15146709702323
 21
7.008732709494637
 31
0.0
  0
LINE
  5
3215
330
1E
100
AcDbEntity
  8
0
100
AcDbLine
 10
2.15146709702323
 20
7.008732709494637
 30
0.0
 11
2.159339144267324
 21
7.011356725242668
 31
0.0
  0
LINE
  5
3216
330
1E
100
AcDbEntity
  8
0
100
AcDbLine
 10
2.15146709702323
 20
7.218653969337156
 30
0.0
 11
2.159339144267324
 21
7.21471794571511
 31
0.0
  0
LINE
  5
3217
330
1E
100
AcDbEntity
  8
0
100
AcDbLine
 10
1.298661978912994
 20
7.234398063825345
 30
0.0
 11
1.299973986787009
 21
7.233086055951329
 31
0.0
  0
LINE
  5
3218
330
1E
100
AcDbEntity
  8
0
100
AcDbLine
 10
1.299973986787009
 20
6.992988615006447
 30
0.0
 11
1.298661978912994
 21
6.992988615006447
 31
0.0
  0
LINE
  5
3219
330
1E
100
AcDbEntity
  8
0
100
AcDbLine
 10
1.328838160015355
 20
6.962812433904085
 30
0.0
 11
1.328838160015355
 21
6.962812433904085
 31
0.0
  0
LINE
  5
321A
330
1E
100
AcDbEntity
  8
0
100
AcDbLine
 10
1.63584800253504
 20
6.962812433904085
 30
0.0
 11
1.63584800253504
 21
6.962812433904085
 31
0.0
  0
POLYLINE
  5
321B
330
1E
100
AcDbEntity
  8
0
100
AcDb2dPolyline
 66
     1
 10
0.0
 20
0.0
 30
0.0
  0
VERTEX
  5
37F6
330
321B
100
AcDbEntity
  8
0
100
AcDbVertex
100
AcDb2dVertex
 10
1.63584800253504
 20
6.940508300045817
 30
0.0
  0
VERTEX
  5
37F7
330
321B
100
AcDbEntity
  8
0
100
AcDbVertex
100
AcDb2dVertex
 10
1.63584800253504
 20
6.947068339415896
 30
0.0
  0
VERTEX
  5
37F8
330
321B
100
AcDbEntity
  8
0
100
AcDbVertex
100
AcDb2dVertex
 10
1.63584800253504
 20
6.949692355163928
 30
0.0
  0
SEQEND
  5
37F9
330
321B
100
AcDbEntity
  8
0
  0
POLYLINE
  5
3220
330
1E
100
AcDbEntity
  8
0
100
AcDb2dPolyline
 66
     1
 10
0.0
 20
0.0
 30
0.0
  0
VERTEX
  5
37FA
330
3220
100
AcDbEntity
  8
0
100
AcDbVertex
100
AcDb2dVertex
 10
1.760488750566537
 20
6.949692355163928
 30
0.0
  0
VERTEX
  5
37FB
330
3220
100
AcDbEntity
  8
0
100
AcDbVertex
100
AcDb2dVertex
 10
1.761800758440553
 20
6.947068339415896
 30
0.0
  0
VERTEX
  5
37FC
330
3220
100
AcDbEntity
  8
0
100
AcDbVertex
100
AcDb2dVertex
 10
1.761800758440553
 20
6.940508300045817
 30
0.0
  0
SEQEND
  5
37FD
330
3220
100
AcDbEntity
  8
0
  0
LINE
  5
3225
330
1E
100
AcDbEntity
  8
0
100
AcDbLine
 10
1.761800758440553
 20
6.962812433904085
 30
0.0
 11
1.761800758440553
 21
6.962812433904085
 31
0.0
  0
LINE
  5
3226
330
1E
100
AcDbEntity
  8
0
100
AcDbLine
 10
2.068810600960238
 20
6.962812433904085
 30
0.0
 11
2.067498593086222
 21
6.962812433904085
 31
0.0
  0
LINE
  5
3227
330
1E
100
AcDbEntity
  8
0
100
AcDbLine
 10
2.097674774188584
 20
6.992988615006447
 30
0.0
 11
2.0989867820626
 21
6.992988615006447
 31
0.0
  0
LINE
  5
3228
330
1E
100
AcDbEntity
  8
0
100
AcDbLine
 10
2.0989867820626
 20
7.234398063825345
 30
0.0
 11
2.097674774188584
 21
7.233086055951329
 31
0.0
  0
LINE
  5
3229
330
1E
100
AcDbEntity
  8
0
100
AcDbLine
 10
2.067498593086222
 20
7.263262237053692
 30
0.0
 11
2.068810600960238
 21
7.264574244927707
 31
0.0
  0
LINE
  5
322A
330
1E
100
AcDbEntity
  8
0
100
AcDbLine
 10
1.328838160015355
 20
7.263262237053692
 30
0.0
 11
1.328838160015355
 21
7.264574244927707
 31
0.0
  0
LINE
  5
322B
330
1E
100
AcDbEntity
  8
0
100
AcDbLine
 10
2.159339144267324
 20
7.21471794571511
 30
0.0
 11
2.159339144267324
 21
7.21471794571511
 31
0.0
  0
LINE
  5
322C
330
1E
100
AcDbEntity
  8
0
100
AcDbLine
 10
2.159339144267324
 20
7.012668733116684
 30
0.0
 11
2.159339144267324
 21
7.011356725242668
 31
0.0
  0
LINE
  5
322D
330
1E
100
AcDbEntity
  8
0
100
AcDbLine
 10
1.238309616708269
 20
7.21471794571511
 30
0.0
 11
1.238309616708269
 21
7.21471794571511
 31
0.0
  0
LINE
  5
322E
330
1E
100
AcDbEntity
  8
0
100
AcDbLine
 10
1.238309616708269
 20
7.012668733116684
 30
0.0
 11
1.238309616708269
 21
7.011356725242668
 31
0.0
  0
LINE
  5
322F
330
1E
100
AcDbEntity
  8
0
100
AcDbLine
 10
1.238309616708269
 20
3.731337040203297
 30
0.0
 11
1.238309616708269
 21
3.732649048077314
 31
0.0
  0
LINE
  5
3230
330
1E
100
AcDbEntity
  8
0
100
AcDbLine
 10
1.238309616708269
 20
3.934698260675739
 30
0.0
 11
1.238309616708269
 21
3.934698260675739
 31
0.0
  0
LINE
  5
3231
330
1E
100
AcDbEntity
  8
0
100
AcDbLine
 10
2.159339144267324
 20
3.731337040203297
 30
0.0
 11
2.159339144267324
 21
3.732649048077314
 31
0.0
  0
LINE
  5
3232
330
1E
100
AcDbEntity
  8
0
100
AcDbLine
 10
2.159339144267324
 20
3.934698260675739
 30
0.0
 11
2.159339144267324
 21
3.934698260675739
 31
0.0
  0
LINE
  5
3233
330
1E
100
AcDbEntity
  8
0
100
AcDbLine
 10
1.235685600960238
 20
6.952316370911959
 30
0.0
 11
1.554503514346064
 21
6.952316370911959
 31
0.0
  0
LINE
  5
3234
330
1E
100
AcDbEntity
  8
0
100
AcDbLine
 10
0.4484808765507893
 20
7.537471882722984
 30
0.0
 11
0.4484808765507893
 21
3.408583103195423
 31
0.0
  0
POLYLINE
  5
3235
330
1E
100
AcDbEntity
  8
0
100
AcDb2dPolyline
 66
     1
 10
0.0
 20
0.0
 30
0.0
  0
VERTEX
  5
37FE
330
3235
100
AcDbEntity
  8
0
100
AcDbVertex
100
AcDb2dVertex
 10
0.4484808765507891
 20
3.408583103195423
 30
0.0
  0
VERTEX
  5
37FF
330
3235
100
AcDbEntity
  8
0
100
AcDbVertex
100
AcDb2dVertex
 10
0.4760330419051197
 20
3.408583103195423
 30
0.0
  0
VERTEX
  5
3800
330
3235
100
AcDbEntity
  8
0
100
AcDbVertex
100
AcDb2dVertex
 10
0.5088332387555134
 20
3.408583103195423
 30
0.0
  0
SEQEND
  5
3801
330
3235
100
AcDbEntity
  8
0
  0
LINE
  5
323A
330
1E
100
AcDbEntity
  8
0
100
AcDbLine
 10
0.5088332387555142
 20
3.408583103195423
 30
0.0
 11
0.5088332387555142
 21
7.537471882722984
 31
0.0
  0
POLYLINE
  5
323B
330
1E
100
AcDbEntity
  8
0
100
AcDb2dPolyline
 66
     1
 10
0.0
 20
0.0
 30
0.0
  0
VERTEX
  5
3802
330
323B
100
AcDbEntity
  8
0
100
AcDbVertex
100
AcDb2dVertex
 10
0.4484808765507891
 20
7.537471882722983
 30
0.0
  0
VERTEX
  5
3803
330
323B
100
AcDbEntity
  8
0
100
AcDbVertex
100
AcDb2dVertex
 10
0.4760330419051197
 20
7.537471882722983
 30
0.0
  0
VERTEX
  5
3804
330
323B
100
AcDbEntity
  8
0
100
AcDbVertex
100
AcDb2dVertex
 10
0.5088332387555134
 20
7.537471882722983
 30
0.0
  0
SEQEND
  5
3805
330
323B
100
AcDbEntity
  8
0
  0
LINE
  5
3240
330
1E
100
AcDbEntity
  8
0
100
AcDbLine
 10
0.3238401285192927
 20
7.660800622880463
 30
0.0
 11
0.3238401285192927
 21
3.285254363037943
 31
0.0
  0
LINE
  5
3241
330
1E
100
AcDbEntity
  8
0
100
AcDbLine
 10
0.4484808765507893
 20
3.408583103195423
 30
0.0
 11
0.3238401285192927
 21
3.285254363037943
 31
0.0
  0
LINE
  5
3242
330
1E
100
AcDbEntity
  8
0
100
AcDbLine
 10
0.4484808765507893
 20
7.537471882722984
 30
0.0
 11
0.3238401285192927
 21
7.660800622880463
 31
0.0
  0
LINE
  5
3243
330
1E
100
AcDbEntity
  8
0
100
AcDbLine
 10
0.3238401285192927
 20
3.285254363037943
 30
0.0
 11
0.3238401285192927
 21
3.253766174061565
 31
0.0
  0
LINE
  5
3244
330
1E
100
AcDbEntity
  8
0
100
AcDbLine
 10
0.3238401285192927
 20
7.660800622880463
 30
0.0
 11
0.3238401285192927
 21
7.69228881185684
 31
0.0
  0
POLYLINE
  5
3245
330
1E
100
AcDbEntity
  8
0
100
AcDb2dPolyline
 66
     1
 10
0.0
 20
0.0
 30
0.0
  0
VERTEX
  5
3806
330
3245
100
AcDbEntity
  8
0
100
AcDbVertex
100
AcDb2dVertex
 10
1.235685600960238
 20
6.952316370911959
 30
0.0
  0
VERTEX
  5
3807
330
3245
100
AcDbEntity
  8
0
100
AcDbVertex
100
AcDb2dVertex
 10
1.218629498598033
 20
6.957564402408022
 30
0.0
  0
VERTEX
  5
3808
330
3245
100
AcDbEntity
  8
0
100
AcDbVertex
100
AcDb2dVertex
 10
1.208133435605907
 20
6.973308496896211
 30
0.0
  0
VERTEX
  5
3809
330
3245
100
AcDbEntity
  8
0
100
AcDbVertex
100
AcDb2dVertex
 10
1.208133435605907
 20
6.991676607132432
 30
0.0
  0
VERTEX
  5
380A
330
3245
100
AcDbEntity
  8
0
100
AcDbVertex
100
AcDb2dVertex
 10
1.218629498598033
 20
7.006108693746607
 30
0.0
  0
VERTEX
  5
380B
330
3245
100
AcDbEntity
  8
0
100
AcDbVertex
100
AcDb2dVertex
 10
1.235685600960238
 20
7.012668733116684
 30
0.0
  0
SEQEND
  5
380C
330
3245
100
AcDbEntity
  8
0
  0
LINE
  5
324D
330
1E
100
AcDbEntity
  8
0
100
AcDbLine
 10
1.235685600960238
 20
7.012668733116684
 30
0.0
 11
1.235685600960238
 21
7.21471794571511
 31
0.0
  0
POLYLINE
  5
324E
330
1E
100
AcDbEntity
  8
0
100
AcDb2dPolyline
 66
     1
 10
0.0
 20
0.0
 30
0.0
  0
VERTEX
  5
380D
330
324E
100
AcDbEntity
  8
0
100
AcDbVertex
100
AcDb2dVertex
 10
1.235685600960238
 20
7.21471794571511
 30
0.0
  0
VERTEX
  5
380E
330
324E
100
AcDbEntity
  8
0
100
AcDbVertex
100
AcDb2dVertex
 10
1.218629498598033
 20
7.219965977211173
 30
0.0
  0
VERTEX
  5
380F
330
324E
100
AcDbEntity
  8
0
100
AcDbVertex
100
AcDb2dVertex
 10
1.208133435605907
 20
7.235710071699361
 30
0.0
  0
VERTEX
  5
3810
330
324E
100
AcDbEntity
  8
0
100
AcDbVertex
100
AcDb2dVertex
 10
1.208133435605907
 20
7.254078181935581
 30
0.0
  0
VERTEX
  5
3811
330
324E
100
AcDbEntity
  8
0
100
AcDbVertex
100
AcDb2dVertex
 10
1.218629498598033
 20
7.268510268549754
 30
0.0
  0
VERTEX
  5
3812
330
324E
100
AcDbEntity
  8
0
100
AcDbVertex
100
AcDb2dVertex
 10
1.235685600960238
 20
7.273758300045819
 30
0.0
  0
SEQEND
  5
3813
330
324E
100
AcDbEntity
  8
0
  0
LINE
  5
3256
330
1E
100
AcDbEntity
  8
0
100
AcDbLine
 10
1.235685600960238
 20
7.273758300045818
 30
0.0
 11
2.16065115214134
 21
7.273758300045818
 31
0.0
  0
POLYLINE
  5
3257
330
1E
100
AcDbEntity
  8
0
100
AcDb2dPolyline
 66
     1
 10
0.0
 20
0.0
 30
0.0
  0
VERTEX
  5
3814
330
3257
100
AcDbEntity
  8
0
100
AcDbVertex
100
AcDb2dVertex
 10
2.16065115214134
 20
7.273758300045819
 30
0.0
  0
VERTEX
  5
3815
330
3257
100
AcDbEntity
  8
0
100
AcDbVertex
100
AcDb2dVertex
 10
2.17901926237756
 20
7.268510268549754
 30
0.0
  0
VERTEX
  5
3816
330
3257
100
AcDbEntity
  8
0
100
AcDbVertex
100
AcDb2dVertex
 10
2.189515325369686
 20
7.254078181935581
 30
0.0
  0
VERTEX
  5
3817
330
3257
100
AcDbEntity
  8
0
100
AcDbVertex
100
AcDb2dVertex
 10
2.189515325369686
 20
7.235710071699361
 30
0.0
  0
VERTEX
  5
3818
330
3257
100
AcDbEntity
  8
0
100
AcDbVertex
100
AcDb2dVertex
 10
2.17901926237756
 20
7.219965977211173
 30
0.0
  0
VERTEX
  5
3819
330
3257
100
AcDbEntity
  8
0
100
AcDbVertex
100
AcDb2dVertex
 10
2.16065115214134
 20
7.21471794571511
 30
0.0
  0
SEQEND
  5
381A
330
3257
100
AcDbEntity
  8
0
  0
LINE
  5
325F
330
1E
100
AcDbEntity
  8
0
100
AcDbLine
 10
2.16065115214134
 20
7.012668733116684
 30
0.0
 11
2.16065115214134
 21
7.21471794571511
 31
0.0
  0
POLYLINE
  5
3260
330
1E
100
AcDbEntity
  8
0
100
AcDb2dPolyline
 66
     1
 10
0.0
 20
0.0
 30
0.0
  0
VERTEX
  5
381B
330
3260
100
AcDbEntity
  8
0
100
AcDbVertex
100
AcDb2dVertex
 10
2.16065115214134
 20
7.012668733116684
 30
0.0
  0
VERTEX
  5
381C
330
3260
100
AcDbEntity
  8
0
100
AcDbVertex
100
AcDb2dVertex
 10
2.17901926237756
 20
7.006108693746607
 30
0.0
  0
VERTEX
  5
381D
330
3260
100
AcDbEntity
  8
0
100
AcDbVertex
100
AcDb2dVertex
 10
2.189515325369686
 20
6.991676607132432
 30
0.0
  0
VERTEX
  5
381E
330
3260
100
AcDbEntity
  8
0
100
AcDbVertex
100
AcDb2dVertex
 10
2.189515325369686
 20
6.973308496896211
 30
0.0
  0
VERTEX
  5
381F
330
3260
100
AcDbEntity
  8
0
100
AcDbVertex
100
AcDb2dVertex
 10
2.17901926237756
 20
6.957564402408022
 30
0.0
  0
VERTEX
  5
3820
330
3260
100
AcDbEntity
  8
0
100
AcDbVertex
100
AcDb2dVertex
 10
2.16065115214134
 20
6.952316370911959
 30
0.0
  0
SEQEND
  5
3821
330
3260
100
AcDbEntity
  8
0
  0
LINE
  5
3268
330
1E
100
AcDbEntity
  8
0
100
AcDbLine
 10
1.843145246629529
 20
6.952316370911959
 30
0.0
 11
2.16065115214134
 21
6.952316370911959
 31
0.0
  0
POLYLINE
  5
3269
330
1E
100
AcDbEntity
  8
0
100
AcDb2dPolyline
 66
     1
 10
0.0
 20
0.0
 30
0.0
  0
VERTEX
  5
3822
330
3269
100
AcDbEntity
  8
0
100
AcDbVertex
100
AcDb2dVertex
 10
1.843145246629529
 20
6.952316370911959
 30
0.0
  0
VERTEX
  5
3823
330
3269
100
AcDbEntity
  8
0
100
AcDbVertex
100
AcDb2dVertex
 10
1.823465128519292
 20
6.94575633154188
 30
0.0
  0
VERTEX
  5
3824
330
3269
100
AcDbEntity
  8
0
100
AcDbVertex
100
AcDb2dVertex
 10
1.812969065527166
 20
6.927388221305659
 30
0.0
  0
SEQEND
  5
3825
330
3269
100
AcDbEntity
  8
0
  0
POLYLINE
  5
326E
330
1E
100
AcDbEntity
  8
0
100
AcDb2dPolyline
 66
     1
 10
0.0
 20
0.0
 30
0.0
  0
VERTEX
  5
3826
330
326E
100
AcDbEntity
  8
0
100
AcDbVertex
100
AcDb2dVertex
 10
1.812969065527166
 20
6.927388221305659
 30
0.0
  0
VERTEX
  5
3827
330
326E
100
AcDbEntity
  8
0
100
AcDbVertex
100
AcDb2dVertex
 10
1.801160994661025
 20
6.90902011106944
 30
0.0
  0
VERTEX
  5
3828
330
326E
100
AcDbEntity
  8
0
100
AcDbVertex
100
AcDb2dVertex
 10
1.781480876550789
 20
6.903772079573378
 30
0.0
  0
VERTEX
  5
3829
330
326E
100
AcDbEntity
  8
0
100
AcDbVertex
100
AcDb2dVertex
 10
1.761800758440553
 20
6.912956134691488
 30
0.0
  0
VERTEX
  5
382A
330
326E
100
AcDbEntity
  8
0
100
AcDbVertex
100
AcDb2dVertex
 10
1.753928711196459
 20
6.93394826067574
 30
0.0
  0
SEQEND
  5
382B
330
326E
100
AcDbEntity
  8
0
  0
LINE
  5
3275
330
1E
100
AcDbEntity
  8
0
100
AcDbLine
 10
1.753928711196459
 20
6.933948260675739
 30
0.0
 11
1.643720049779135
 21
6.933948260675739
 31
0.0
  0
POLYLINE
  5
3276
330
1E
100
AcDbEntity
  8
0
100
AcDb2dPolyline
 66
     1
 10
0.0
 20
0.0
 30
0.0
  0
VERTEX
  5
382C
330
3276
100
AcDbEntity
  8
0
100
AcDbVertex
100
AcDb2dVertex
 10
1.643720049779135
 20
6.93394826067574
 30
0.0
  0
VERTEX
  5
382D
330
3276
100
AcDbEntity
  8
0
100
AcDbVertex
100
AcDb2dVertex
 10
1.63584800253504
 20
6.912956134691488
 30
0.0
  0
VERTEX
  5
382E
330
3276
100
AcDbEntity
  8
0
100
AcDbVertex
100
AcDb2dVertex
 10
1.616167884424805
 20
6.903772079573378
 30
0.0
  0
VERTEX
  5
382F
330
3276
100
AcDbEntity
  8
0
100
AcDbVertex
100
AcDb2dVertex
 10
1.595175758440553
 20
6.90902011106944
 30
0.0
  0
VERTEX
  5
3830
330
3276
100
AcDbEntity
  8
0
100
AcDbVertex
100
AcDb2dVertex
 10
1.584679695448427
 20
6.927388221305659
 30
0.0
  0
SEQEND
  5
3831
330
3276
100
AcDbEntity
  8
0
  0
POLYLINE
  5
327D
330
1E
100
AcDbEntity
  8
0
100
AcDb2dPolyline
 66
     1
 10
0.0
 20
0.0
 30
0.0
  0
VERTEX
  5
3832
330
327D
100
AcDbEntity
  8
0
100
AcDbVertex
100
AcDb2dVertex
 10
1.584679695448427
 20
6.927388221305659
 30
0.0
  0
VERTEX
  5
3833
330
327D
100
AcDbEntity
  8
0
100
AcDbVertex
100
AcDb2dVertex
 10
1.574183632456301
 20
6.94575633154188
 30
0.0
  0
VERTEX
  5
3834
330
327D
100
AcDbEntity
  8
0
100
AcDbVertex
100
AcDb2dVertex
 10
1.554503514346064
 20
6.952316370911959
 30
0.0
  0
SEQEND
  5
3835
330
327D
100
AcDbEntity
  8
0
  0
LINE
  5
3282
330
1E
100
AcDbEntity
  8
0
100
AcDbLine
 10
1.843145246629529
 20
3.993738615006447
 30
0.0
 11
2.16065115214134
 21
3.993738615006447
 31
0.0
  0
POLYLINE
  5
3283
330
1E
100
AcDbEntity
  8
0
100
AcDb2dPolyline
 66
     1
 10
0.0
 20
0.0
 30
0.0
  0
VERTEX
  5
3836
330
3283
100
AcDbEntity
  8
0
100
AcDbVertex
100
AcDb2dVertex
 10
2.16065115214134
 20
3.934698260675739
 30
0.0
  0
VERTEX
  5
3837
330
3283
100
AcDbEntity
  8
0
100
AcDbVertex
100
AcDb2dVertex
 10
2.17901926237756
 20
3.939946292171802
 30
0.0
  0
VERTEX
  5
3838
330
3283
100
AcDbEntity
  8
0
100
AcDbVertex
100
AcDb2dVertex
 10
2.189515325369686
 20
3.954378378785976
 30
0.0
  0
VERTEX
  5
3839
330
3283
100
AcDbEntity
  8
0
100
AcDbVertex
100
AcDb2dVertex
 10
2.189515325369686
 20
3.974058496896211
 30
0.0
  0
VERTEX
  5
383A
330
3283
100
AcDbEntity
  8
0
100
AcDbVertex
100
AcDb2dVertex
 10
2.17901926237756
 20
3.988490583510384
 30
0.0
  0
VERTEX
  5
383B
330
3283
100
AcDbEntity
  8
0
100
AcDbVertex
100
AcDb2dVertex
 10
2.16065115214134
 20
3.993738615006448
 30
0.0
  0
SEQEND
  5
383C
330
3283
100
AcDbEntity
  8
0
  0
LINE
  5
328B
330
1E
100
AcDbEntity
  8
0
100
AcDbLine
 10
2.16065115214134
 20
3.934698260675739
 30
0.0
 11
2.16065115214134
 21
3.732649048077314
 31
0.0
  0
POLYLINE
  5
328C
330
1E
100
AcDbEntity
  8
0
100
AcDb2dPolyline
 66
     1
 10
0.0
 20
0.0
 30
0.0
  0
VERTEX
  5
383D
330
328C
100
AcDbEntity
  8
0
100
AcDbVertex
100
AcDb2dVertex
 10
2.16065115214134
 20
3.67229668587259
 30
0.0
  0
VERTEX
  5
383E
330
328C
100
AcDbEntity
  8
0
100
AcDbVertex
100
AcDb2dVertex
 10
2.17901926237756
 20
3.677544717368652
 30
0.0
  0
VERTEX
  5
383F
330
328C
100
AcDbEntity
  8
0
100
AcDbVertex
100
AcDb2dVertex
 10
2.189515325369686
 20
3.693288811856841
 30
0.0
  0
VERTEX
  5
3840
330
328C
100
AcDbEntity
  8
0
100
AcDbVertex
100
AcDb2dVertex
 10
2.189515325369686
 20
3.711656922093061
 30
0.0
  0
VERTEX
  5
3841
330
328C
100
AcDbEntity
  8
0
100
AcDbVertex
100
AcDb2dVertex
 10
2.17901926237756
 20
3.726089008707234
 30
0.0
  0
VERTEX
  5
3842
330
328C
100
AcDbEntity
  8
0
100
AcDbVertex
100
AcDb2dVertex
 10
2.16065115214134
 20
3.732649048077314
 30
0.0
  0
SEQEND
  5
3843
330
328C
100
AcDbEntity
  8
0
  0
LINE
  5
3294
330
1E
100
AcDbEntity
  8
0
100
AcDbLine
 10
1.235685600960238
 20
3.672296685872589
 30
0.0
 11
2.16065115214134
 21
3.672296685872589
 31
0.0
  0
POLYLINE
  5
3295
330
1E
100
AcDbEntity
  8
0
100
AcDb2dPolyline
 66
     1
 10
0.0
 20
0.0
 30
0.0
  0
VERTEX
  5
3844
330
3295
100
AcDbEntity
  8
0
100
AcDbVertex
100
AcDb2dVertex
 10
1.235685600960238
 20
3.732649048077314
 30
0.0
  0
VERTEX
  5
3845
330
3295
100
AcDbEntity
  8
0
100
AcDbVertex
100
AcDb2dVertex
 10
1.218629498598033
 20
3.726089008707234
 30
0.0
  0
VERTEX
  5
3846
330
3295
100
AcDbEntity
  8
0
100
AcDbVertex
100
AcDb2dVertex
 10
1.208133435605907
 20
3.711656922093061
 30
0.0
  0
VERTEX
  5
3847
330
3295
100
AcDbEntity
  8
0
100
AcDbVertex
100
AcDb2dVertex
 10
1.208133435605907
 20
3.693288811856841
 30
0.0
  0
VERTEX
  5
3848
330
3295
100
AcDbEntity
  8
0
100
AcDbVertex
100
AcDb2dVertex
 10
1.218629498598033
 20
3.677544717368652
 30
0.0
  0
VERTEX
  5
3849
330
3295
100
AcDbEntity
  8
0
100
AcDbVertex
100
AcDb2dVertex
 10
1.235685600960238
 20
3.67229668587259
 30
0.0
  0
SEQEND
  5
384A
330
3295
100
AcDbEntity
  8
0
  0
LINE
  5
329D
330
1E
100
AcDbEntity
  8
0
100
AcDbLine
 10
1.235685600960238
 20
3.934698260675739
 30
0.0
 11
1.235685600960238
 21
3.732649048077314
 31
0.0
  0
POLYLINE
  5
329E
330
1E
100
AcDbEntity
  8
0
100
AcDb2dPolyline
 66
     1
 10
0.0
 20
0.0
 30
0.0
  0
VERTEX
  5
384B
330
329E
100
AcDbEntity
  8
0
100
AcDbVertex
100
AcDb2dVertex
 10
1.235685600960238
 20
3.993738615006448
 30
0.0
  0
VERTEX
  5
384C
330
329E
100
AcDbEntity
  8
0
100
AcDbVertex
100
AcDb2dVertex
 10
1.218629498598033
 20
3.988490583510384
 30
0.0
  0
VERTEX
  5
384D
330
329E
100
AcDbEntity
  8
0
100
AcDbVertex
100
AcDb2dVertex
 10
1.208133435605907
 20
3.974058496896211
 30
0.0
  0
VERTEX
  5
384E
330
329E
100
AcDbEntity
  8
0
100
AcDbVertex
100
AcDb2dVertex
 10
1.208133435605907
 20
3.954378378785976
 30
0.0
  0
VERTEX
  5
384F
330
329E
100
AcDbEntity
  8
0
100
AcDbVertex
100
AcDb2dVertex
 10
1.218629498598033
 20
3.939946292171802
 30
0.0
  0
VERTEX
  5
3850
330
329E
100
AcDbEntity
  8
0
100
AcDbVertex
100
AcDb2dVertex
 10
1.235685600960238
 20
3.934698260675739
 30
0.0
  0
SEQEND
  5
3851
330
329E
100
AcDbEntity
  8
0
  0
LINE
  5
32A6
330
1E
100
AcDbEntity
  8
0
100
AcDbLine
 10
1.235685600960238
 20
3.993738615006447
 30
0.0
 11
1.554503514346064
 21
3.993738615006447
 31
0.0
  0
POLYLINE
  5
32A7
330
1E
100
AcDbEntity
  8
0
100
AcDb2dPolyline
 66
     1
 10
0.0
 20
0.0
 30
0.0
  0
VERTEX
  5
3852
330
32A7
100
AcDbEntity
  8
0
100
AcDbVertex
100
AcDb2dVertex
 10
1.584679695448427
 20
4.018666764612746
 30
0.0
  0
VERTEX
  5
3853
330
32A7
100
AcDbEntity
  8
0
100
AcDbVertex
100
AcDb2dVertex
 10
1.574183632456301
 20
4.001610662250542
 30
0.0
  0
VERTEX
  5
3854
330
32A7
100
AcDbEntity
  8
0
100
AcDbVertex
100
AcDb2dVertex
 10
1.554503514346064
 20
3.993738615006448
 30
0.0
  0
SEQEND
  5
3855
330
32A7
100
AcDbEntity
  8
0
  0
POLYLINE
  5
32AC
330
1E
100
AcDbEntity
  8
0
100
AcDb2dPolyline
 66
     1
 10
0.0
 20
0.0
 30
0.0
  0
VERTEX
  5
3856
330
32AC
100
AcDbEntity
  8
0
100
AcDbVertex
100
AcDb2dVertex
 10
1.643720049779135
 20
4.013418733116684
 30
0.0
  0
VERTEX
  5
3857
330
32AC
100
AcDbEntity
  8
0
100
AcDbVertex
100
AcDb2dVertex
 10
1.63584800253504
 20
4.03309885122692
 30
0.0
  0
VERTEX
  5
3858
330
32AC
100
AcDbEntity
  8
0
100
AcDbVertex
100
AcDb2dVertex
 10
1.616167884424805
 20
4.043594914219046
 30
0.0
  0
VERTEX
  5
3859
330
32AC
100
AcDbEntity
  8
0
100
AcDbVertex
100
AcDb2dVertex
 10
1.595175758440553
 20
4.037034874848966
 30
0.0
  0
VERTEX
  5
385A
330
32AC
100
AcDbEntity
  8
0
100
AcDbVertex
100
AcDb2dVertex
 10
1.584679695448427
 20
4.018666764612746
 30
0.0
  0
SEQEND
  5
385B
330
32AC
100
AcDbEntity
  8
0
  0
LINE
  5
32B3
330
1E
100
AcDbEntity
  8
0
100
AcDbLine
 10
1.753928711196459
 20
4.013418733116684
 30
0.0
 11
1.643720049779135
 21
4.013418733116684
 31
0.0
  0
POLYLINE
  5
32B4
330
1E
100
AcDbEntity
  8
0
100
AcDb2dPolyline
 66
     1
 10
0.0
 20
0.0
 30
0.0
  0
VERTEX
  5
385C
330
32B4
100
AcDbEntity
  8
0
100
AcDbVertex
100
AcDb2dVertex
 10
1.812969065527166
 20
4.018666764612746
 30
0.0
  0
VERTEX
  5
385D
330
32B4
100
AcDbEntity
  8
0
100
AcDbVertex
100
AcDb2dVertex
 10
1.801160994661025
 20
4.037034874848966
 30
0.0
  0
VERTEX
  5
385E
330
32B4
100
AcDbEntity
  8
0
100
AcDbVertex
100
AcDb2dVertex
 10
1.781480876550789
 20
4.043594914219046
 30
0.0
  0
VERTEX
  5
385F
330
32B4
100
AcDbEntity
  8
0
100
AcDbVertex
100
AcDb2dVertex
 10
1.761800758440553
 20
4.03309885122692
 30
0.0
  0
VERTEX
  5
3860
330
32B4
100
AcDbEntity
  8
0
100
AcDbVertex
100
AcDb2dVertex
 10
1.753928711196459
 20
4.013418733116684
 30
0.0
  0
SEQEND
  5
3861
330
32B4
100
AcDbEntity
  8
0
  0
POLYLINE
  5
32BB
330
1E
100
AcDbEntity
  8
0
100
AcDb2dPolyline
 66
     1
 10
0.0
 20
0.0
 30
0.0
  0
VERTEX
  5
3862
330
32BB
100
AcDbEntity
  8
0
100
AcDbVertex
100
AcDb2dVertex
 10
1.843145246629529
 20
3.993738615006448
 30
0.0
  0
VERTEX
  5
3863
330
32BB
100
AcDbEntity
  8
0
100
AcDbVertex
100
AcDb2dVertex
 10
1.823465128519292
 20
4.001610662250542
 30
0.0
  0
VERTEX
  5
3864
330
32BB
100
AcDbEntity
  8
0
100
AcDbVertex
100
AcDb2dVertex
 10
1.812969065527166
 20
4.018666764612746
 30
0.0
  0
SEQEND
  5
3865
330
32BB
100
AcDbEntity
  8
0
  0
LINE
  5
32C0
330
1E
100
AcDbEntity
  8
0
100
AcDbLine
 10
2.887503514346065
 20
3.408583103195423
 30
0.0
 11
0.5088332387555142
 21
3.408583103195423
 31
0.0
  0
LINE
  5
32C1
330
1E
100
AcDbEntity
  8
0
100
AcDbLine
 10
2.887503514346065
 20
3.408583103195423
 30
0.0
 11
2.887503514346065
 21
7.537471882722984
 31
0.0
  0
LINE
  5
32C2
330
1E
100
AcDbEntity
  8
0
100
AcDbLine
 10
2.887503514346065
 20
7.537471882722984
 30
0.0
 11
0.5088332387555142
 21
7.537471882722984
 31
0.0
  0
LINE
  5
32C3
330
1E
100
AcDbEntity
  8
0
100
AcDbLine
 10
1.638472018283072
 20
5.656052591384399
 30
0.0
 11
1.759176742692521
 21
5.656052591384399
 31
0.0
  0
POLYLINE
  5
32C4
330
1E
100
AcDbEntity
  8
0
100
AcDb2dPolyline
 66
     1
 10
0.0
 20
0.0
 30
0.0
  0
VERTEX
  5
3866
330
32C4
100
AcDbEntity
  8
0
100
AcDbVertex
100
AcDb2dVertex
 10
1.638472018283072
 20
5.6560525913844
 30
0.0
  0
VERTEX
  5
3867
330
32C4
100
AcDbEntity
  8
0
100
AcDbVertex
100
AcDb2dVertex
 10
1.629287963164962
 20
5.652116567762353
 30
0.0
  0
VERTEX
  5
3868
330
32C4
100
AcDbEntity
  8
0
100
AcDbVertex
100
AcDb2dVertex
 10
1.626663947416931
 20
5.642932512644243
 30
0.0
  0
SEQEND
  5
3869
330
32C4
100
AcDbEntity
  8
0
  0
LINE
  5
32C9
330
1E
100
AcDbEntity
  8
0
100
AcDbLine
 10
1.626663947416931
 20
5.642932512644243
 30
0.0
 11
1.626663947416931
 21
5.602260268549755
 31
0.0
  0
POLYLINE
  5
32CA
330
1E
100
AcDbEntity
  8
0
100
AcDb2dPolyline
 66
     1
 10
0.0
 20
0.0
 30
0.0
  0
VERTEX
  5
386A
330
32CA
100
AcDbEntity
  8
0
100
AcDbVertex
100
AcDb2dVertex
 10
1.626663947416931
 20
5.602260268549755
 30
0.0
  0
VERTEX
  5
386B
330
32CA
100
AcDbEntity
  8
0
100
AcDbVertex
100
AcDb2dVertex
 10
1.622727923794883
 20
5.59438822130566
 30
0.0
  0
VERTEX
  5
386C
330
32CA
100
AcDbEntity
  8
0
100
AcDbVertex
100
AcDb2dVertex
 10
1.613543868676773
 20
5.590452197683613
 30
0.0
  0
SEQEND
  5
386D
330
32CA
100
AcDbEntity
  8
0
  0
LINE
  5
32CF
330
1E
100
AcDbEntity
  8
0
100
AcDbLine
 10
1.147781073401183
 20
5.590452197683613
 30
0.0
 11
1.613543868676774
 21
5.590452197683613
 31
0.0
  0
POLYLINE
  5
32D0
330
1E
100
AcDbEntity
  8
0
100
AcDb2dPolyline
 66
     1
 10
0.0
 20
0.0
 30
0.0
  0
VERTEX
  5
386E
330
32D0
100
AcDbEntity
  8
0
100
AcDbVertex
100
AcDb2dVertex
 10
1.147781073401182
 20
5.590452197683613
 30
0.0
  0
VERTEX
  5
386F
330
32D0
100
AcDbEntity
  8
0
100
AcDbVertex
100
AcDb2dVertex
 10
1.139909026157088
 20
5.59438822130566
 30
0.0
  0
VERTEX
  5
3870
330
32D0
100
AcDbEntity
  8
0
100
AcDbVertex
100
AcDb2dVertex
 10
1.135973002535041
 20
5.602260268549755
 30
0.0
  0
SEQEND
  5
3871
330
32D0
100
AcDbEntity
  8
0
  0
LINE
  5
32D5
330
1E
100
AcDbEntity
  8
0
100
AcDbLine
 10
1.135973002535041
 20
5.642932512644243
 30
0.0
 11
1.135973002535041
 21
5.602260268549755
 31
0.0
  0
POLYLINE
  5
32D6
330
1E
100
AcDbEntity
  8
0
100
AcDb2dPolyline
 66
     1
 10
0.0
 20
0.0
 30
0.0
  0
VERTEX
  5
3872
330
32D6
100
AcDbEntity
  8
0
100
AcDbVertex
100
AcDb2dVertex
 10
1.135973002535041
 20
5.642932512644243
 30
0.0
  0
VERTEX
  5
3873
330
32D6
100
AcDbEntity
  8
0
100
AcDbVertex
100
AcDb2dVertex
 10
1.133348986787009
 20
5.652116567762353
 30
0.0
  0
VERTEX
  5
3874
330
32D6
100
AcDbEntity
  8
0
100
AcDbVertex
100
AcDb2dVertex
 10
1.124164931668899
 20
5.6560525913844
 30
0.0
  0
SEQEND
  5
3875
330
32D6
100
AcDbEntity
  8
0
  0
LINE
  5
32DB
330
1E
100
AcDbEntity
  8
0
100
AcDbLine
 10
1.124164931668899
 20
5.656052591384399
 30
0.0
 11
1.08086867182638
 21
5.656052591384399
 31
0.0
  0
POLYLINE
  5
32DC
330
1E
100
AcDbEntity
  8
0
100
AcDb2dPolyline
 66
     1
 10
0.0
 20
0.0
 30
0.0
  0
VERTEX
  5
3876
330
32DC
100
AcDbEntity
  8
0
100
AcDbVertex
100
AcDb2dVertex
 10
1.080868671826379
 20
5.6560525913844
 30
0.0
  0
VERTEX
  5
3877
330
32DC
100
AcDbEntity
  8
0
100
AcDbVertex
100
AcDb2dVertex
 10
1.072996624582285
 20
5.658676607132432
 30
0.0
  0
VERTEX
  5
3878
330
32DC
100
AcDbEntity
  8
0
100
AcDbVertex
100
AcDb2dVertex
 10
1.069060600960238
 20
5.667860662250543
 30
0.0
  0
SEQEND
  5
3879
330
32DC
100
AcDbEntity
  8
0
  0
LINE
  5
32E1
330
1E
100
AcDbEntity
  8
0
100
AcDbLine
 10
1.069060600960238
 20
6.302872473274165
 30
0.0
 11
1.069060600960238
 21
5.667860662250542
 31
0.0
  0
POLYLINE
  5
32E2
330
1E
100
AcDbEntity
  8
0
100
AcDb2dPolyline
 66
     1
 10
0.0
 20
0.0
 30
0.0
  0
VERTEX
  5
387A
330
32E2
100
AcDbEntity
  8
0
100
AcDbVertex
100
AcDb2dVertex
 10
1.069060600960238
 20
6.302872473274165
 30
0.0
  0
VERTEX
  5
387B
330
32E2
100
AcDbEntity
  8
0
100
AcDbVertex
100
AcDb2dVertex
 10
1.072996624582285
 20
6.312056528392274
 30
0.0
  0
VERTEX
  5
387C
330
32E2
100
AcDbEntity
  8
0
100
AcDbVertex
100
AcDb2dVertex
 10
1.080868671826379
 20
6.315992552014321
 30
0.0
  0
SEQEND
  5
387D
330
32E2
100
AcDbEntity
  8
0
  0
LINE
  5
32E7
330
1E
100
AcDbEntity
  8
0
100
AcDbLine
 10
2.316780089149214
 20
6.315992552014321
 30
0.0
 11
1.08086867182638
 21
6.315992552014321
 31
0.0
  0
POLYLINE
  5
32E8
330
1E
100
AcDbEntity
  8
0
100
AcDb2dPolyline
 66
     1
 10
0.0
 20
0.0
 30
0.0
  0
VERTEX
  5
387E
330
32E8
100
AcDbEntity
  8
0
100
AcDbVertex
100
AcDb2dVertex
 10
2.316780089149214
 20
6.315992552014321
 30
0.0
  0
VERTEX
  5
387F
330
32E8
100
AcDbEntity
  8
0
100
AcDbVertex
100
AcDb2dVertex
 10
2.324652136393308
 20
6.312056528392274
 30
0.0
  0
VERTEX
  5
3880
330
32E8
100
AcDbEntity
  8
0
100
AcDbVertex
100
AcDb2dVertex
 10
2.328588160015355
 20
6.302872473274165
 30
0.0
  0
SEQEND
  5
3881
330
32E8
100
AcDbEntity
  8
0
  0
LINE
  5
32ED
330
1E
100
AcDbEntity
  8
0
100
AcDbLine
 10
2.328588160015355
 20
6.302872473274165
 30
0.0
 11
2.328588160015355
 21
5.667860662250542
 31
0.0
  0
POLYLINE
  5
32EE
330
1E
100
AcDbEntity
  8
0
100
AcDb2dPolyline
 66
     1
 10
0.0
 20
0.0
 30
0.0
  0
VERTEX
  5
3882
330
32EE
100
AcDbEntity
  8
0
100
AcDbVertex
100
AcDb2dVertex
 10
2.328588160015355
 20
5.667860662250543
 30
0.0
  0
VERTEX
  5
3883
330
32EE
100
AcDbEntity
  8
0
100
AcDbVertex
100
AcDb2dVertex
 10
2.324652136393308
 20
5.658676607132432
 30
0.0
  0
VERTEX
  5
3884
330
32EE
100
AcDbEntity
  8
0
100
AcDbVertex
100
AcDb2dVertex
 10
2.316780089149214
 20
5.6560525913844
 30
0.0
  0
SEQEND
  5
3885
330
32EE
100
AcDbEntity
  8
0
  0
LINE
  5
32F3
330
1E
100
AcDbEntity
  8
0
100
AcDbLine
 10
2.273483829306695
 20
5.656052591384399
 30
0.0
 11
2.316780089149214
 21
5.656052591384399
 31
0.0
  0
POLYLINE
  5
32F4
330
1E
100
AcDbEntity
  8
0
100
AcDb2dPolyline
 66
     1
 10
0.0
 20
0.0
 30
0.0
  0
VERTEX
  5
3886
330
32F4
100
AcDbEntity
  8
0
100
AcDbVertex
100
AcDb2dVertex
 10
2.273483829306694
 20
5.6560525913844
 30
0.0
  0
VERTEX
  5
3887
330
32F4
100
AcDbEntity
  8
0
100
AcDbVertex
100
AcDb2dVertex
 10
2.264299774188584
 20
5.652116567762353
 30
0.0
  0
VERTEX
  5
3888
330
32F4
100
AcDbEntity
  8
0
100
AcDbVertex
100
AcDb2dVertex
 10
2.261675758440553
 20
5.642932512644243
 30
0.0
  0
SEQEND
  5
3889
330
32F4
100
AcDbEntity
  8
0
  0
LINE
  5
32F9
330
1E
100
AcDbEntity
  8
0
100
AcDbLine
 10
2.261675758440553
 20
5.642932512644243
 30
0.0
 11
2.261675758440553
 21
5.602260268549755
 31
0.0
  0
POLYLINE
  5
32FA
330
1E
100
AcDbEntity
  8
0
100
AcDb2dPolyline
 66
     1
 10
0.0
 20
0.0
 30
0.0
  0
VERTEX
  5
388A
330
32FA
100
AcDbEntity
  8
0
100
AcDbVertex
100
AcDb2dVertex
 10
2.261675758440553
 20
5.602260268549755
 30
0.0
  0
VERTEX
  5
388B
330
32FA
100
AcDbEntity
  8
0
100
AcDbVertex
100
AcDb2dVertex
 10
2.257739734818505
 20
5.59438822130566
 30
0.0
  0
VERTEX
  5
388C
330
32FA
100
AcDbEntity
  8
0
100
AcDbVertex
100
AcDb2dVertex
 10
2.248555679700396
 20
5.590452197683613
 30
0.0
  0
SEQEND
  5
388D
330
32FA
100
AcDbEntity
  8
0
  0
LINE
  5
32FF
330
1E
100
AcDbEntity
  8
0
100
AcDbLine
 10
1.782792884424805
 20
5.590452197683613
 30
0.0
 11
2.248555679700396
 21
5.590452197683613
 31
0.0
  0
POLYLINE
  5
3300
330
1E
100
AcDbEntity
  8
0
100
AcDb2dPolyline
 66
     1
 10
0.0
 20
0.0
 30
0.0
  0
VERTEX
  5
388E
330
3300
100
AcDbEntity
  8
0
100
AcDbVertex
100
AcDb2dVertex
 10
1.782792884424805
 20
5.590452197683613
 30
0.0
  0
VERTEX
  5
388F
330
3300
100
AcDbEntity
  8
0
100
AcDbVertex
100
AcDb2dVertex
 10
1.77492083718071
 20
5.59438822130566
 30
0.0
  0
VERTEX
  5
3890
330
3300
100
AcDbEntity
  8
0
100
AcDbVertex
100
AcDb2dVertex
 10
1.770984813558663
 20
5.602260268549755
 30
0.0
  0
SEQEND
  5
3891
330
3300
100
AcDbEntity
  8
0
  0
LINE
  5
3305
330
1E
100
AcDbEntity
  8
0
100
AcDbLine
 10
1.770984813558663
 20
5.642932512644243
 30
0.0
 11
1.770984813558663
 21
5.602260268549755
 31
0.0
  0
POLYLINE
  5
3306
330
1E
100
AcDbEntity
  8
0
100
AcDb2dPolyline
 66
     1
 10
0.0
 20
0.0
 30
0.0
  0
VERTEX
  5
3892
330
3306
100
AcDbEntity
  8
0
100
AcDbVertex
100
AcDb2dVertex
 10
1.770984813558663
 20
5.642932512644243
 30
0.0
  0
VERTEX
  5
3893
330
3306
100
AcDbEntity
  8
0
100
AcDbVertex
100
AcDb2dVertex
 10
1.767048789936616
 20
5.652116567762353
 30
0.0
  0
VERTEX
  5
3894
330
3306
100
AcDbEntity
  8
0
100
AcDbVertex
100
AcDb2dVertex
 10
1.759176742692521
 20
5.6560525913844
 30
0.0
  0
SEQEND
  5
3895
330
3306
100
AcDbEntity
  8
0
  0
POLYLINE
  5
330B
330
1E
100
AcDbEntity
  8
0
100
AcDb2dPolyline
 66
     1
 10
0.0
 20
0.0
 30
0.0
  0
VERTEX
  5
3896
330
330B
100
AcDbEntity
  8
0
100
AcDbVertex
100
AcDb2dVertex
 10
0.9719720182830727
 20
6.69909885122692
 30
0.0
  0
VERTEX
  5
3897
330
330B
100
AcDbEntity
  8
0
100
AcDbVertex
100
AcDb2dVertex
 10
0.9772200497791356
 20
6.718778969337155
 30
0.0
  0
VERTEX
  5
3898
330
330B
100
AcDbEntity
  8
0
100
AcDbVertex
100
AcDb2dVertex
 10
0.9916521363933091
 20
6.73321105595133
 30
0.0
  0
VERTEX
  5
3899
330
330B
100
AcDbEntity
  8
0
100
AcDbVertex
100
AcDb2dVertex
 10
1.011332254503545
 20
6.738459087447393
 30
0.0
  0
SEQEND
  5
389A
330
330B
100
AcDbEntity
  8
0
  0
LINE
  5
3311
330
1E
100
AcDbEntity
  8
0
100
AcDbLine
 10
1.011332254503544
 20
6.738459087447392
 30
0.0
 11
2.386316506472049
 21
6.738459087447392
 31
0.0
  0
POLYLINE
  5
3312
330
1E
100
AcDbEntity
  8
0
100
AcDb2dPolyline
 66
     1
 10
0.0
 20
0.0
 30
0.0
  0
VERTEX
  5
389B
330
3312
100
AcDbEntity
  8
0
100
AcDbVertex
100
AcDb2dVertex
 10
2.386316506472049
 20
6.738459087447393
 30
0.0
  0
VERTEX
  5
389C
330
3312
100
AcDbEntity
  8
0
100
AcDbVertex
100
AcDb2dVertex
 10
2.405996624582285
 20
6.73321105595133
 30
0.0
  0
VERTEX
  5
389D
330
3312
100
AcDbEntity
  8
0
100
AcDbVertex
100
AcDb2dVertex
 10
2.420428711196458
 20
6.718778969337155
 30
0.0
  0
VERTEX
  5
389E
330
3312
100
AcDbEntity
  8
0
100
AcDbVertex
100
AcDb2dVertex
 10
2.425676742692521
 20
6.69909885122692
 30
0.0
  0
SEQEND
  5
389F
330
3312
100
AcDbEntity
  8
0
  0
LINE
  5
3318
330
1E
100
AcDbEntity
  8
0
100
AcDbLine
 10
2.425676742692521
 20
6.699098851226921
 30
0.0
 11
2.425676742692521
 21
6.456377394534007
 31
0.0
  0
POLYLINE
  5
3319
330
1E
100
AcDbEntity
  8
0
100
AcDb2dPolyline
 66
     1
 10
0.0
 20
0.0
 30
0.0
  0
VERTEX
  5
38A0
330
3319
100
AcDbEntity
  8
0
100
AcDbVertex
100
AcDb2dVertex
 10
2.425676742692521
 20
6.456377394534007
 30
0.0
  0
VERTEX
  5
38A1
330
3319
100
AcDbEntity
  8
0
100
AcDbVertex
100
AcDb2dVertex
 10
2.420428711196458
 20
6.43669727642377
 30
0.0
  0
VERTEX
  5
38A2
330
3319
100
AcDbEntity
  8
0
100
AcDbVertex
100
AcDb2dVertex
 10
2.405996624582285
 20
6.422265189809597
 30
0.0
  0
VERTEX
  5
38A3
330
3319
100
AcDbEntity
  8
0
100
AcDbVertex
100
AcDb2dVertex
 10
2.386316506472049
 20
6.417017158313533
 30
0.0
  0
SEQEND
  5
38A4
330
3319
100
AcDbEntity
  8
0
  0
LINE
  5
331F
330
1E
100
AcDbEntity
  8
0
100
AcDbLine
 10
1.011332254503544
 20
6.417017158313534
 30
0.0
 11
2.386316506472049
 21
6.417017158313534
 31
0.0
  0
POLYLINE
  5
3320
330
1E
100
AcDbEntity
  8
0
100
AcDb2dPolyline
 66
     1
 10
0.0
 20
0.0
 30
0.0
  0
VERTEX
  5
38A5
330
3320
100
AcDbEntity
  8
0
100
AcDbVertex
100
AcDb2dVertex
 10
1.011332254503545
 20
6.417017158313533
 30
0.0
  0
VERTEX
  5
38A6
330
3320
100
AcDbEntity
  8
0
100
AcDbVertex
100
AcDb2dVertex
 10
0.9916521363933091
 20
6.422265189809597
 30
0.0
  0
VERTEX
  5
38A7
330
3320
100
AcDbEntity
  8
0
100
AcDbVertex
100
AcDb2dVertex
 10
0.9772200497791356
 20
6.43669727642377
 30
0.0
  0
VERTEX
  5
38A8
330
3320
100
AcDbEntity
  8
0
100
AcDbVertex
100
AcDb2dVertex
 10
0.9719720182830727
 20
6.456377394534007
 30
0.0
  0
SEQEND
  5
38A9
330
3320
100
AcDbEntity
  8
0
  0
LINE
  5
3326
330
1E
100
AcDbEntity
  8
0
100
AcDbLine
 10
0.9719720182830728
 20
6.699098851226921
 30
0.0
 11
0.9719720182830728
 21
6.456377394534007
 31
0.0
  0
LINE
  5
3327
330
1E
100
AcDbEntity
  8
0
100
AcDbLine
 10
1.638472018283072
 20
4.283692355163928
 30
0.0
 11
1.759176742692521
 21
4.283692355163928
 31
0.0
  0
POLYLINE
  5
3328
330
1E
100
AcDbEntity
  8
0
100
AcDb2dPolyline
 66
     1
 10
0.0
 20
0.0
 30
0.0
  0
VERTEX
  5
38AA
330
3328
100
AcDbEntity
  8
0
100
AcDbVertex
100
AcDb2dVertex
 10
1.638472018283072
 20
4.283692355163928
 30
0.0
  0
VERTEX
  5
38AB
330
3328
100
AcDbEntity
  8
0
100
AcDbVertex
100
AcDb2dVertex
 10
1.629287963164962
 20
4.27975633154188
 30
0.0
  0
VERTEX
  5
38AC
330
3328
100
AcDbEntity
  8
0
100
AcDbVertex
100
AcDb2dVertex
 10
1.626663947416931
 20
4.271884284297786
 30
0.0
  0
SEQEND
  5
38AD
330
3328
100
AcDbEntity
  8
0
  0
LINE
  5
332D
330
1E
100
AcDbEntity
  8
0
100
AcDbLine
 10
1.626663947416931
 20
4.271884284297785
 30
0.0
 11
1.626663947416931
 21
4.229900032329282
 31
0.0
  0
POLYLINE
  5
332E
330
1E
100
AcDbEntity
  8
0
100
AcDb2dPolyline
 66
     1
 10
0.0
 20
0.0
 30
0.0
  0
VERTEX
  5
38AE
330
332E
100
AcDbEntity
  8
0
100
AcDbVertex
100
AcDb2dVertex
 10
1.626663947416931
 20
4.229900032329282
 30
0.0
  0
VERTEX
  5
38AF
330
332E
100
AcDbEntity
  8
0
100
AcDbVertex
100
AcDb2dVertex
 10
1.622727923794883
 20
4.222027985085188
 30
0.0
  0
VERTEX
  5
38B0
330
332E
100
AcDbEntity
  8
0
100
AcDbVertex
100
AcDb2dVertex
 10
1.613543868676773
 20
4.21809196146314
 30
0.0
  0
SEQEND
  5
38B1
330
332E
100
AcDbEntity
  8
0
  0
LINE
  5
3333
330
1E
100
AcDbEntity
  8
0
100
AcDbLine
 10
1.147781073401183
 20
4.21809196146314
 30
0.0
 11
1.613543868676774
 21
4.21809196146314
 31
0.0
  0
POLYLINE
  5
3334
330
1E
100
AcDbEntity
  8
0
100
AcDb2dPolyline
 66
     1
 10
0.0
 20
0.0
 30
0.0
  0
VERTEX
  5
38B2
330
3334
100
AcDbEntity
  8
0
100
AcDbVertex
100
AcDb2dVertex
 10
1.147781073401182
 20
4.21809196146314
 30
0.0
  0
VERTEX
  5
38B3
330
3334
100
AcDbEntity
  8
0
100
AcDbVertex
100
AcDb2dVertex
 10
1.139909026157088
 20
4.222027985085188
 30
0.0
  0
VERTEX
  5
38B4
330
3334
100
AcDbEntity
  8
0
100
AcDbVertex
100
AcDb2dVertex
 10
1.135973002535041
 20
4.229900032329282
 30
0.0
  0
SEQEND
  5
38B5
330
3334
100
AcDbEntity
  8
0
  0
LINE
  5
3339
330
1E
100
AcDbEntity
  8
0
100
AcDbLine
 10
1.135973002535041
 20
4.271884284297785
 30
0.0
 11
1.135973002535041
 21
4.229900032329282
 31
0.0
  0
POLYLINE
  5
333A
330
1E
100
AcDbEntity
  8
0
100
AcDb2dPolyline
 66
     1
 10
0.0
 20
0.0
 30
0.0
  0
VERTEX
  5
38B6
330
333A
100
AcDbEntity
  8
0
100
AcDbVertex
100
AcDb2dVertex
 10
1.135973002535041
 20
4.271884284297786
 30
0.0
  0
VERTEX
  5
38B7
330
333A
100
AcDbEntity
  8
0
100
AcDbVertex
100
AcDb2dVertex
 10
1.133348986787009
 20
4.27975633154188
 30
0.0
  0
VERTEX
  5
38B8
330
333A
100
AcDbEntity
  8
0
100
AcDbVertex
100
AcDb2dVertex
 10
1.124164931668899
 20
4.283692355163928
 30
0.0
  0
SEQEND
  5
38B9
330
333A
100
AcDbEntity
  8
0
  0
LINE
  5
333F
330
1E
100
AcDbEntity
  8
0
100
AcDbLine
 10
1.124164931668899
 20
4.283692355163928
 30
0.0
 11
1.08086867182638
 21
4.283692355163928
 31
0.0
  0
POLYLINE
  5
3340
330
1E
100
AcDbEntity
  8
0
100
AcDb2dPolyline
 66
     1
 10
0.0
 20
0.0
 30
0.0
  0
VERTEX
  5
38BA
330
3340
100
AcDbEntity
  8
0
100
AcDbVertex
100
AcDb2dVertex
 10
1.080868671826379
 20
4.283692355163928
 30
0.0
  0
VERTEX
  5
38BB
330
3340
100
AcDbEntity
  8
0
100
AcDbVertex
100
AcDb2dVertex
 10
1.072996624582285
 20
4.286316370911959
 30
0.0
  0
VERTEX
  5
38BC
330
3340
100
AcDbEntity
  8
0
100
AcDbVertex
100
AcDb2dVertex
 10
1.069060600960238
 20
4.295500426030069
 30
0.0
  0
SEQEND
  5
38BD
330
3340
100
AcDbEntity
  8
0
  0
LINE
  5
3345
330
1E
100
AcDbEntity
  8
0
100
AcDbLine
 10
1.069060600960238
 20
4.930512237053691
 30
0.0
 11
1.069060600960238
 21
4.295500426030069
 31
0.0
  0
POLYLINE
  5
3346
330
1E
100
AcDbEntity
  8
0
100
AcDb2dPolyline
 66
     1
 10
0.0
 20
0.0
 30
0.0
  0
VERTEX
  5
38BE
330
3346
100
AcDbEntity
  8
0
100
AcDbVertex
100
AcDb2dVertex
 10
1.069060600960238
 20
4.930512237053692
 30
0.0
  0
VERTEX
  5
38BF
330
3346
100
AcDbEntity
  8
0
100
AcDbVertex
100
AcDb2dVertex
 10
1.072996624582285
 20
4.939696292171802
 30
0.0
  0
VERTEX
  5
38C0
330
3346
100
AcDbEntity
  8
0
100
AcDbVertex
100
AcDb2dVertex
 10
1.080868671826379
 20
4.943632315793848
 30
0.0
  0
SEQEND
  5
38C1
330
3346
100
AcDbEntity
  8
0
  0
LINE
  5
334B
330
1E
100
AcDbEntity
  8
0
100
AcDbLine
 10
2.316780089149214
 20
4.943632315793848
 30
0.0
 11
1.08086867182638
 21
4.943632315793848
 31
0.0
  0
POLYLINE
  5
334C
330
1E
100
AcDbEntity
  8
0
100
AcDb2dPolyline
 66
     1
 10
0.0
 20
0.0
 30
0.0
  0
VERTEX
  5
38C2
330
334C
100
AcDbEntity
  8
0
100
AcDbVertex
100
AcDb2dVertex
 10
2.316780089149214
 20
4.943632315793848
 30
0.0
  0
VERTEX
  5
38C3
330
334C
100
AcDbEntity
  8
0
100
AcDbVertex
100
AcDb2dVertex
 10
2.324652136393308
 20
4.939696292171802
 30
0.0
  0
VERTEX
  5
38C4
330
334C
100
AcDbEntity
  8
0
100
AcDbVertex
100
AcDb2dVertex
 10
2.328588160015355
 20
4.930512237053692
 30
0.0
  0
SEQEND
  5
38C5
330
334C
100
AcDbEntity
  8
0
  0
LINE
  5
3351
330
1E
100
AcDbEntity
  8
0
100
AcDbLine
 10
2.328588160015355
 20
4.930512237053691
 30
0.0
 11
2.328588160015355
 21
4.295500426030069
 31
0.0
  0
POLYLINE
  5
3352
330
1E
100
AcDbEntity
  8
0
100
AcDb2dPolyline
 66
     1
 10
0.0
 20
0.0
 30
0.0
  0
VERTEX
  5
38C6
330
3352
100
AcDbEntity
  8
0
100
AcDbVertex
100
AcDb2dVertex
 10
2.328588160015355
 20
4.295500426030069
 30
0.0
  0
VERTEX
  5
38C7
330
3352
100
AcDbEntity
  8
0
100
AcDbVertex
100
AcDb2dVertex
 10
2.324652136393308
 20
4.286316370911959
 30
0.0
  0
VERTEX
  5
38C8
330
3352
100
AcDbEntity
  8
0
100
AcDbVertex
100
AcDb2dVertex
 10
2.316780089149214
 20
4.283692355163928
 30
0.0
  0
SEQEND
  5
38C9
330
3352
100
AcDbEntity
  8
0
  0
LINE
  5
3357
330
1E
100
AcDbEntity
  8
0
100
AcDbLine
 10
2.273483829306695
 20
4.283692355163928
 30
0.0
 11
2.316780089149214
 21
4.283692355163928
 31
0.0
  0
POLYLINE
  5
3358
330
1E
100
AcDbEntity
  8
0
100
AcDb2dPolyline
 66
     1
 10
0.0
 20
0.0
 30
0.0
  0
VERTEX
  5
38CA
330
3358
100
AcDbEntity
  8
0
100
AcDbVertex
100
AcDb2dVertex
 10
2.273483829306694
 20
4.283692355163928
 30
0.0
  0
VERTEX
  5
38CB
330
3358
100
AcDbEntity
  8
0
100
AcDbVertex
100
AcDb2dVertex
 10
2.264299774188584
 20
4.27975633154188
 30
0.0
  0
VERTEX
  5
38CC
330
3358
100
AcDbEntity
  8
0
100
AcDbVertex
100
AcDb2dVertex
 10
2.261675758440553
 20
4.271884284297786
 30
0.0
  0
SEQEND
  5
38CD
330
3358
100
AcDbEntity
  8
0
  0
LINE
  5
335D
330
1E
100
AcDbEntity
  8
0
100
AcDbLine
 10
2.261675758440553
 20
4.271884284297785
 30
0.0
 11
2.261675758440553
 21
4.229900032329282
 31
0.0
  0
POLYLINE
  5
335E
330
1E
100
AcDbEntity
  8
0
100
AcDb2dPolyline
 66
     1
 10
0.0
 20
0.0
 30
0.0
  0
VERTEX
  5
38CE
330
335E
100
AcDbEntity
  8
0
100
AcDbVertex
100
AcDb2dVertex
 10
2.261675758440553
 20
4.229900032329282
 30
0.0
  0
VERTEX
  5
38CF
330
335E
100
AcDbEntity
  8
0
100
AcDbVertex
100
AcDb2dVertex
 10
2.257739734818505
 20
4.222027985085188
 30
0.0
  0
VERTEX
  5
38D0
330
335E
100
AcDbEntity
  8
0
100
AcDbVertex
100
AcDb2dVertex
 10
2.248555679700396
 20
4.21809196146314
 30
0.0
  0
SEQEND
  5
38D1
330
335E
100
AcDbEntity
  8
0
  0
LINE
  5
3363
330
1E
100
AcDbEntity
  8
0
100
AcDbLine
 10
1.782792884424805
 20
4.21809196146314
 30
0.0
 11
2.248555679700396
 21
4.21809196146314
 31
0.0
  0
POLYLINE
  5
3364
330
1E
100
AcDbEntity
  8
0
100
AcDb2dPolyline
 66
     1
 10
0.0
 20
0.0
 30
0.0
  0
VERTEX
  5
38D2
330
3364
100
AcDbEntity
  8
0
100
AcDbVertex
100
AcDb2dVertex
 10
1.782792884424805
 20
4.21809196146314
 30
0.0
  0
VERTEX
  5
38D3
330
3364
100
AcDbEntity
  8
0
100
AcDbVertex
100
AcDb2dVertex
 10
1.77492083718071
 20
4.222027985085188
 30
0.0
  0
VERTEX
  5
38D4
330
3364
100
AcDbEntity
  8
0
100
AcDbVertex
100
AcDb2dVertex
 10
1.770984813558663
 20
4.229900032329282
 30
0.0
  0
SEQEND
  5
38D5
330
3364
100
AcDbEntity
  8
0
  0
LINE
  5
3369
330
1E
100
AcDbEntity
  8
0
100
AcDbLine
 10
1.770984813558663
 20
4.271884284297785
 30
0.0
 11
1.770984813558663
 21
4.229900032329282
 31
0.0
  0
POLYLINE
  5
336A
330
1E
100
AcDbEntity
  8
0
100
AcDb2dPolyline
 66
     1
 10
0.0
 20
0.0
 30
0.0
  0
VERTEX
  5
38D6
330
336A
100
AcDbEntity
  8
0
100
AcDbVertex
100
AcDb2dVertex
 10
1.770984813558663
 20
4.271884284297786
 30
0.0
  0
VERTEX
  5
38D7
330
336A
100
AcDbEntity
  8
0
100
AcDbVertex
100
AcDb2dVertex
 10
1.767048789936616
 20
4.27975633154188
 30
0.0
  0
VERTEX
  5
38D8
330
336A
100
AcDbEntity
  8
0
100
AcDbVertex
100
AcDb2dVertex
 10
1.759176742692521
 20
4.283692355163928
 30
0.0
  0
SEQEND
  5
38D9
330
336A
100
AcDbEntity
  8
0
  0
POLYLINE
  5
336F
330
1E
100
AcDbEntity
  8
0
100
AcDb2dPolyline
 66
     1
 10
0.0
 20
0.0
 30
0.0
  0
VERTEX
  5
38DA
330
336F
100
AcDbEntity
  8
0
100
AcDbVertex
100
AcDb2dVertex
 10
0.9719720182830727
 20
5.326738615006448
 30
0.0
  0
VERTEX
  5
38DB
330
336F
100
AcDbEntity
  8
0
100
AcDbVertex
100
AcDb2dVertex
 10
0.9772200497791356
 20
5.346418733116684
 30
0.0
  0
VERTEX
  5
38DC
330
336F
100
AcDbEntity
  8
0
100
AcDbVertex
100
AcDb2dVertex
 10
0.9916521363933091
 20
5.360850819730857
 30
0.0
  0
VERTEX
  5
38DD
330
336F
100
AcDbEntity
  8
0
100
AcDbVertex
100
AcDb2dVertex
 10
1.011332254503545
 20
5.36609885122692
 30
0.0
  0
SEQEND
  5
38DE
330
336F
100
AcDbEntity
  8
0
  0
LINE
  5
3375
330
1E
100
AcDbEntity
  8
0
100
AcDbLine
 10
1.011332254503544
 20
5.36609885122692
 30
0.0
 11
2.386316506472049
 21
5.36609885122692
 31
0.0
  0
POLYLINE
  5
3376
330
1E
100
AcDbEntity
  8
0
100
AcDb2dPolyline
 66
     1
 10
0.0
 20
0.0
 30
0.0
  0
VERTEX
  5
38DF
330
3376
100
AcDbEntity
  8
0
100
AcDbVertex
100
AcDb2dVertex
 10
2.386316506472049
 20
5.36609885122692
 30
0.0
  0
VERTEX
  5
38E0
330
3376
100
AcDbEntity
  8
0
100
AcDbVertex
100
AcDb2dVertex
 10
2.405996624582285
 20
5.360850819730857
 30
0.0
  0
VERTEX
  5
38E1
330
3376
100
AcDbEntity
  8
0
100
AcDbVertex
100
AcDb2dVertex
 10
2.420428711196458
 20
5.346418733116684
 30
0.0
  0
VERTEX
  5
38E2
330
3376
100
AcDbEntity
  8
0
100
AcDbVertex
100
AcDb2dVertex
 10
2.425676742692521
 20
5.326738615006448
 30
0.0
  0
SEQEND
  5
38E3
330
3376
100
AcDbEntity
  8
0
  0
LINE
  5
337C
330
1E
100
AcDbEntity
  8
0
100
AcDbLine
 10
2.425676742692521
 20
5.326738615006448
 30
0.0
 11
2.425676742692521
 21
5.084017158313534
 31
0.0
  0
POLYLINE
  5
337D
330
1E
100
AcDbEntity
  8
0
100
AcDb2dPolyline
 66
     1
 10
0.0
 20
0.0
 30
0.0
  0
VERTEX
  5
38E4
330
337D
100
AcDbEntity
  8
0
100
AcDbVertex
100
AcDb2dVertex
 10
2.425676742692521
 20
5.084017158313534
 30
0.0
  0
VERTEX
  5
38E5
330
337D
100
AcDbEntity
  8
0
100
AcDbVertex
100
AcDb2dVertex
 10
2.420428711196458
 20
5.064337040203298
 30
0.0
  0
VERTEX
  5
38E6
330
337D
100
AcDbEntity
  8
0
100
AcDbVertex
100
AcDb2dVertex
 10
2.405996624582285
 20
5.049904953589125
 30
0.0
  0
VERTEX
  5
38E7
330
337D
100
AcDbEntity
  8
0
100
AcDbVertex
100
AcDb2dVertex
 10
2.386316506472049
 20
5.044656922093062
 30
0.0
  0
SEQEND
  5
38E8
330
337D
100
AcDbEntity
  8
0
  0
LINE
  5
3383
330
1E
100
AcDbEntity
  8
0
100
AcDbLine
 10
1.011332254503544
 20
5.044656922093062
 30
0.0
 11
2.386316506472049
 21
5.044656922093062
 31
0.0
  0
POLYLINE
  5
3384
330
1E
100
AcDbEntity
  8
0
100
AcDb2dPolyline
 66
     1
 10
0.0
 20
0.0
 30
0.0
  0
VERTEX
  5
38E9
330
3384
100
AcDbEntity
  8
0
100
AcDbVertex
100
AcDb2dVertex
 10
1.011332254503545
 20
5.044656922093062
 30
0.0
  0
VERTEX
  5
38EA
330
3384
100
AcDbEntity
  8
0
100
AcDbVertex
100
AcDb2dVertex
 10
0.9916521363933091
 20
5.049904953589125
 30
0.0
  0
VERTEX
  5
38EB
330
3384
100
AcDbEntity
  8
0
100
AcDbVertex
100
AcDb2dVertex
 10
0.9772200497791356
 20
5.064337040203298
 30
0.0
  0
VERTEX
  5
38EC
330
3384
100
AcDbEntity
  8
0
100
AcDbVertex
100
AcDb2dVertex
 10
0.9719720182830727
 20
5.084017158313534
 30
0.0
  0
SEQEND
  5
38ED
330
3384
100
AcDbEntity
  8
0
  0
LINE
  5
338A
330
1E
100
AcDbEntity
  8
0
100
AcDbLine
 10
0.9719720182830728
 20
5.326738615006448
 30
0.0
 11
0.9719720182830728
 21
5.084017158313534
 31
0.0
  0
LINE
  5
338B
330
1E
100
AcDbEntity
  8
0
100
AcDbLine
 10
3.073808632456301
 20
7.660800622880463
 30
0.0
 11
3.073808632456301
 21
3.285254363037943
 31
0.0
  0
LINE
  5
338C
330
1E
100
AcDbEntity
  8
0
100
AcDbLine
 10
3.073808632456301
 20
3.253766174061565
 30
0.0
 11
3.073808632456301
 21
3.285254363037943
 31
0.0
  0
LINE
  5
338D
330
1E
100
AcDbEntity
  8
0
100
AcDbLine
 10
3.073808632456301
 20
7.69228881185684
 30
0.0
 11
3.073808632456301
 21
7.660800622880463
 31
0.0
  0
LINE
  5
338E
330
1E
100
AcDbEntity
  8
0
100
AcDbLine
 10
2.949167884424805
 20
7.537471882722984
 30
0.0
 11
2.949167884424805
 21
3.408583103195423
 31
0.0
  0
LINE
  5
338F
330
1E
100
AcDbEntity
  8
0
100
AcDbLine
 10
3.073808632456301
 20
3.285254363037943
 30
0.0
 11
2.949167884424805
 21
3.408583103195423
 31
0.0
  0
LINE
  5
3390
330
1E
100
AcDbEntity
  8
0
100
AcDbLine
 10
3.073808632456301
 20
7.660800622880463
 30
0.0
 11
2.949167884424805
 21
7.537471882722984
 31
0.0
  0
POLYLINE
  5
3391
330
1E
100
AcDbEntity
  8
0
100
AcDb2dPolyline
 66
     1
 10
0.0
 20
0.0
 30
0.0
  0
VERTEX
  5
38EE
330
3391
100
AcDbEntity
  8
0
100
AcDbVertex
100
AcDb2dVertex
 10
2.887503514346065
 20
3.408583103195423
 30
0.0
  0
VERTEX
  5
38EF
330
3391
100
AcDbEntity
  8
0
100
AcDbVertex
100
AcDb2dVertex
 10
2.920303711196458
 20
3.408583103195423
 30
0.0
  0
VERTEX
  5
38F0
330
3391
100
AcDbEntity
  8
0
100
AcDbVertex
100
AcDb2dVertex
 10
2.949167884424805
 20
3.408583103195423
 30
0.0
  0
SEQEND
  5
38F1
330
3391
100
AcDbEntity
  8
0
  0
POLYLINE
  5
3396
330
1E
100
AcDbEntity
  8
0
100
AcDb2dPolyline
 66
     1
 10
0.0
 20
0.0
 30
0.0
  0
VERTEX
  5
38F2
330
3396
100
AcDbEntity
  8
0
100
AcDbVertex
100
AcDb2dVertex
 10
2.887503514346065
 20
7.537471882722983
 30
0.0
  0
VERTEX
  5
38F3
330
3396
100
AcDbEntity
  8
0
100
AcDbVertex
100
AcDb2dVertex
 10
2.920303711196458
 20
7.537471882722983
 30
0.0
  0
VERTEX
  5
38F4
330
3396
100
AcDbEntity
  8
0
100
AcDbVertex
100
AcDb2dVertex
 10
2.949167884424805
 20
7.537471882722983
 30
0.0
  0
SEQEND
  5
38F5
330
3396
100
AcDbEntity
  8
0
  0
POLYLINE
  5
339B
330
1E
100
AcDbEntity
  8
0
100
AcDb2dPolyline
 66
     1
 10
0.0
 20
0.0
 30
0.0
  0
VERTEX
  5
38F6
330
339B
100
AcDbEntity
  8
0
100
AcDbVertex
100
AcDb2dVertex
 10
2.949167884424805
 20
7.537471882722983
 30
0.0
  0
VERTEX
  5
38F7
330
339B
100
AcDbEntity
  8
0
100
AcDbVertex
100
AcDb2dVertex
 10
2.922927726944489
 20
7.571584087447393
 30
0.0
  0
VERTEX
  5
38F8
330
339B
100
AcDbEntity
  8
0
100
AcDbVertex
100
AcDb2dVertex
 10
2.887503514346065
 20
7.599136252801723
 30
0.0
  0
SEQEND
  5
38F9
330
339B
100
AcDbEntity
  8
0
  0
POLYLINE
  5
33A0
330
1E
100
AcDbEntity
  8
0
100
AcDb2dPolyline
 66
     1
 10
0.0
 20
0.0
 30
0.0
  0
VERTEX
  5
38FA
330
33A0
100
AcDbEntity
  8
0
100
AcDbVertex
100
AcDb2dVertex
 10
2.887503514346065
 20
7.537471882722983
 30
0.0
  0
VERTEX
  5
38FB
330
33A0
100
AcDbEntity
  8
0
100
AcDbVertex
100
AcDb2dVertex
 10
2.887503514346065
 20
7.570272079573377
 30
0.0
  0
VERTEX
  5
38FC
330
33A0
100
AcDbEntity
  8
0
100
AcDbVertex
100
AcDb2dVertex
 10
2.887503514346065
 20
7.599136252801723
 30
0.0
  0
SEQEND
  5
38FD
330
33A0
100
AcDbEntity
  8
0
  0
POLYLINE
  5
33A5
330
1E
100
AcDbEntity
  8
0
100
AcDb2dPolyline
 66
     1
 10
0.0
 20
0.0
 30
0.0
  0
VERTEX
  5
38FE
330
33A5
100
AcDbEntity
  8
0
100
AcDbVertex
100
AcDb2dVertex
 10
3.073808632456301
 20
7.692288811856841
 30
0.0
  0
VERTEX
  5
38FF
330
33A5
100
AcDbEntity
  8
0
100
AcDbVertex
100
AcDb2dVertex
 10
3.072496624582285
 20
7.697536843352904
 30
0.0
  0
VERTEX
  5
3900
330
33A5
100
AcDbEntity
  8
0
100
AcDbVertex
100
AcDb2dVertex
 10
3.069872608834253
 20
7.706720898471014
 30
0.0
  0
VERTEX
  5
3901
330
33A5
100
AcDbEntity
  8
0
100
AcDbVertex
100
AcDb2dVertex
 10
3.067248593086222
 20
7.710656922093062
 30
0.0
  0
VERTEX
  5
3902
330
33A5
100
AcDbEntity
  8
0
100
AcDbVertex
100
AcDb2dVertex
 10
3.060688553716143
 20
7.717216961463141
 30
0.0
  0
VERTEX
  5
3903
330
33A5
100
AcDbEntity
  8
0
100
AcDbVertex
100
AcDb2dVertex
 10
3.051504498598033
 20
7.721152985085189
 30
0.0
  0
VERTEX
  5
3904
330
33A5
100
AcDbEntity
  8
0
100
AcDbVertex
100
AcDb2dVertex
 10
3.043632451353938
 20
7.722464992959204
 30
0.0
  0
SEQEND
  5
3905
330
33A5
100
AcDbEntity
  8
0
  0
LINE
  5
33AE
330
1E
100
AcDbEntity
  8
0
100
AcDbLine
 10
3.012144262377561
 20
7.722464992959203
 30
0.0
 11
3.043632451353939
 21
7.722464992959203
 31
0.0
  0
LINE
  5
33AF
330
1E
100
AcDbEntity
  8
0
100
AcDbLine
 10
2.887503514346065
 20
7.599136252801723
 30
0.0
 11
3.012144262377561
 21
7.722464992959203
 31
0.0
  0
LINE
  5
33B0
330
1E
100
AcDbEntity
  8
0
100
AcDbLine
 10
0.3540163096216551
 20
7.722464992959203
 30
0.0
 11
0.3855044985980331
 21
7.722464992959203
 31
0.0
  0
LINE
  5
33B1
330
1E
100
AcDbEntity
  8
0
100
AcDbLine
 10
0.3855044985980331
 20
7.722464992959203
 30
0.0
 11
3.012144262377561
 21
7.722464992959203
 31
0.0
  0
LINE
  5
33B2
330
1E
100
AcDbEntity
  8
0
100
AcDbLine
 10
0.3855044985980331
 20
7.722464992959203
 30
0.0
 11
0.5088332387555142
 21
7.599136252801723
 31
0.0
  0
LINE
  5
33B3
330
1E
100
AcDbEntity
  8
0
100
AcDbLine
 10
0.5088332387555142
 20
7.599136252801723
 30
0.0
 11
2.887503514346065
 21
7.599136252801723
 31
0.0
  0
POLYLINE
  5
33B4
330
1E
100
AcDbEntity
  8
0
100
AcDb2dPolyline
 66
     1
 10
0.0
 20
0.0
 30
0.0
  0
VERTEX
  5
3906
330
33B4
100
AcDbEntity
  8
0
100
AcDbVertex
100
AcDb2dVertex
 10
0.5088332387555134
 20
7.537471882722983
 30
0.0
  0
VERTEX
  5
3907
330
33B4
100
AcDbEntity
  8
0
100
AcDbVertex
100
AcDb2dVertex
 10
0.5088332387555134
 20
7.570272079573377
 30
0.0
  0
VERTEX
  5
3908
330
33B4
100
AcDbEntity
  8
0
100
AcDbVertex
100
AcDb2dVertex
 10
0.5088332387555134
 20
7.599136252801723
 30
0.0
  0
SEQEND
  5
3909
330
33B4
100
AcDbEntity
  8
0
  0
POLYLINE
  5
33B9
330
1E
100
AcDbEntity
  8
0
100
AcDb2dPolyline
 66
     1
 10
0.0
 20
0.0
 30
0.0
  0
VERTEX
  5
390A
330
33B9
100
AcDbEntity
  8
0
100
AcDbVertex
100
AcDb2dVertex
 10
0.4484808765507891
 20
7.537471882722983
 30
0.0
  0
VERTEX
  5
390B
330
33B9
100
AcDbEntity
  8
0
100
AcDbVertex
100
AcDb2dVertex
 10
0.4747210340311041
 20
7.571584087447393
 30
0.0
  0
VERTEX
  5
390C
330
33B9
100
AcDbEntity
  8
0
100
AcDbVertex
100
AcDb2dVertex
 10
0.5088332387555134
 20
7.599136252801723
 30
0.0
  0
SEQEND
  5
390D
330
33B9
100
AcDbEntity
  8
0
  0
POLYLINE
  5
33BE
330
1E
100
AcDbEntity
  8
0
100
AcDb2dPolyline
 66
     1
 10
0.0
 20
0.0
 30
0.0
  0
VERTEX
  5
390E
330
33BE
100
AcDbEntity
  8
0
100
AcDbVertex
100
AcDb2dVertex
 10
0.3540163096216553
 20
7.722464992959204
 30
0.0
  0
VERTEX
  5
390F
330
33BE
100
AcDbEntity
  8
0
100
AcDbVertex
100
AcDb2dVertex
 10
0.3487682781255923
 20
7.722464992959204
 30
0.0
  0
VERTEX
  5
3910
330
33BE
100
AcDbEntity
  8
0
100
AcDbVertex
100
AcDb2dVertex
 10
0.3395842230074819
 20
7.718528969337156
 30
0.0
  0
VERTEX
  5
3911
330
33BE
100
AcDbEntity
  8
0
100
AcDbVertex
100
AcDb2dVertex
 10
0.335648199385435
 20
7.717216961463141
 30
0.0
  0
VERTEX
  5
3912
330
33BE
100
AcDbEntity
  8
0
100
AcDbVertex
100
AcDb2dVertex
 10
0.3290881600153559
 20
7.709344914219047
 30
0.0
  0
VERTEX
  5
3913
330
33BE
100
AcDbEntity
  8
0
100
AcDbVertex
100
AcDb2dVertex
 10
0.325152136393309
 20
7.700160859100937
 30
0.0
  0
VERTEX
  5
3914
330
33BE
100
AcDbEntity
  8
0
100
AcDbVertex
100
AcDb2dVertex
 10
0.3238401285192933
 20
7.692288811856841
 30
0.0
  0
SEQEND
  5
3915
330
33BE
100
AcDbEntity
  8
0
  0
POLYLINE
  5
33C7
330
1E
100
AcDbEntity
  8
0
100
AcDb2dPolyline
 66
     1
 10
0.0
 20
0.0
 30
0.0
  0
VERTEX
  5
3916
330
33C7
100
AcDbEntity
  8
0
100
AcDbVertex
100
AcDb2dVertex
 10
1.753928711196459
 20
6.93394826067574
 30
0.0
  0
VERTEX
  5
3917
330
33C7
100
AcDbEntity
  8
0
100
AcDbVertex
100
AcDb2dVertex
 10
1.753928711196459
 20
6.957564402408022
 30
0.0
  0
VERTEX
  5
3918
330
33C7
100
AcDbEntity
  8
0
100
AcDbVertex
100
AcDb2dVertex
 10
1.753928711196459
 20
6.975932512644244
 30
0.0
  0
VERTEX
  5
3919
330
33C7
100
AcDbEntity
  8
0
100
AcDbVertex
100
AcDb2dVertex
 10
1.753928711196459
 20
6.982492552014321
 30
0.0
  0
SEQEND
  5
391A
330
33C7
100
AcDbEntity
  8
0
  0
POLYLINE
  5
33CD
330
1E
100
AcDbEntity
  8
0
100
AcDb2dPolyline
 66
     1
 10
0.0
 20
0.0
 30
0.0
  0
VERTEX
  5
391B
330
33CD
100
AcDbEntity
  8
0
100
AcDbVertex
100
AcDb2dVertex
 10
1.643720049779135
 20
6.93394826067574
 30
0.0
  0
VERTEX
  5
391C
330
33CD
100
AcDbEntity
  8
0
100
AcDbVertex
100
AcDb2dVertex
 10
1.643720049779135
 20
6.957564402408022
 30
0.0
  0
VERTEX
  5
391D
330
33CD
100
AcDbEntity
  8
0
100
AcDbVertex
100
AcDb2dVertex
 10
1.643720049779135
 20
6.975932512644244
 30
0.0
  0
VERTEX
  5
391E
330
33CD
100
AcDbEntity
  8
0
100
AcDbVertex
100
AcDb2dVertex
 10
1.643720049779135
 20
6.982492552014321
 30
0.0
  0
SEQEND
  5
391F
330
33CD
100
AcDbEntity
  8
0
  0
LINE
  5
33D3
330
1E
100
AcDbEntity
  8
0
100
AcDbLine
 10
1.753928711196459
 20
6.982492552014321
 30
0.0
 11
1.643720049779135
 21
6.982492552014321
 31
0.0
  0
POLYLINE
  5
33D4
330
1E
100
AcDbEntity
  8
0
100
AcDb2dPolyline
 66
     1
 10
0.0
 20
0.0
 30
0.0
  0
VERTEX
  5
3920
330
33D4
100
AcDbEntity
  8
0
100
AcDbVertex
100
AcDb2dVertex
 10
1.643720049779135
 20
6.982492552014321
 30
0.0
  0
VERTEX
  5
3921
330
33D4
100
AcDbEntity
  8
0
100
AcDbVertex
100
AcDb2dVertex
 10
1.643720049779135
 20
6.989052591384401
 30
0.0
  0
VERTEX
  5
3922
330
33D4
100
AcDbEntity
  8
0
100
AcDbVertex
100
AcDb2dVertex
 10
1.643720049779135
 20
7.004796685872588
 30
0.0
  0
SEQEND
  5
3923
330
33D4
100
AcDbEntity
  8
0
  0
POLYLINE
  5
33D9
330
1E
100
AcDbEntity
  8
0
100
AcDb2dPolyline
 66
     1
 10
0.0
 20
0.0
 30
0.0
  0
VERTEX
  5
3924
330
33D9
100
AcDbEntity
  8
0
100
AcDbVertex
100
AcDb2dVertex
 10
1.753928711196459
 20
6.982492552014321
 30
0.0
  0
VERTEX
  5
3925
330
33D9
100
AcDbEntity
  8
0
100
AcDbVertex
100
AcDb2dVertex
 10
1.753928711196459
 20
6.989052591384401
 30
0.0
  0
VERTEX
  5
3926
330
33D9
100
AcDbEntity
  8
0
100
AcDbVertex
100
AcDb2dVertex
 10
1.753928711196459
 20
7.004796685872588
 30
0.0
  0
SEQEND
  5
3927
330
33D9
100
AcDbEntity
  8
0
  0
LINE
  5
33DE
330
1E
100
AcDbEntity
  8
0
100
AcDbLine
 10
1.753928711196459
 20
7.004796685872589
 30
0.0
 11
1.643720049779135
 21
7.004796685872589
 31
0.0
  0
LINE
  5
33DF
330
1E
100
AcDbEntity
  8
0
100
AcDbLine
 10
1.643720049779135
 20
7.004796685872589
 30
0.0
 11
1.643720049779135
 21
7.031036843352904
 31
0.0
  0
LINE
  5
33E0
330
1E
100
AcDbEntity
  8
0
100
AcDbLine
 10
1.753928711196459
 20
7.004796685872589
 30
0.0
 11
1.753928711196459
 21
7.031036843352904
 31
0.0
  0
LINE
  5
33E1
330
1E
100
AcDbEntity
  8
0
100
AcDbLine
 10
1.743432648204333
 20
7.040220898471014
 30
0.0
 11
1.654216112771261
 21
7.040220898471014
 31
0.0
  0
POLYLINE
  5
33E2
330
1E
100
AcDbEntity
  8
0
100
AcDb2dPolyline
 66
     1
 10
0.0
 20
0.0
 30
0.0
  0
VERTEX
  5
3928
330
33E2
100
AcDbEntity
  8
0
100
AcDbVertex
100
AcDb2dVertex
 10
1.654216112771261
 20
7.040220898471015
 30
0.0
  0
VERTEX
  5
3929
330
33E2
100
AcDbEntity
  8
0
100
AcDbVertex
100
AcDb2dVertex
 10
1.646344065527167
 20
7.037596882722984
 30
0.0
  0
VERTEX
  5
392A
330
33E2
100
AcDbEntity
  8
0
100
AcDbVertex
100
AcDb2dVertex
 10
1.643720049779135
 20
7.031036843352905
 30
0.0
  0
SEQEND
  5
392B
330
33E2
100
AcDbEntity
  8
0
  0
POLYLINE
  5
33E7
330
1E
100
AcDbEntity
  8
0
100
AcDb2dPolyline
 66
     1
 10
0.0
 20
0.0
 30
0.0
  0
VERTEX
  5
392C
330
33E7
100
AcDbEntity
  8
0
100
AcDbVertex
100
AcDb2dVertex
 10
1.753928711196459
 20
7.031036843352905
 30
0.0
  0
VERTEX
  5
392D
330
33E7
100
AcDbEntity
  8
0
100
AcDbVertex
100
AcDb2dVertex
 10
1.751304695448427
 20
7.037596882722984
 30
0.0
  0
VERTEX
  5
392E
330
33E7
100
AcDbEntity
  8
0
100
AcDbVertex
100
AcDb2dVertex
 10
1.743432648204333
 20
7.040220898471015
 30
0.0
  0
SEQEND
  5
392F
330
33E7
100
AcDbEntity
  8
0
  0
POLYLINE
  5
33EC
330
1E
100
AcDbEntity
  8
0
100
AcDb2dPolyline
 66
     1
 10
0.0
 20
0.0
 30
0.0
  0
VERTEX
  5
3930
330
33EC
100
AcDbEntity
  8
0
100
AcDbVertex
100
AcDb2dVertex
 10
2.887503514346065
 20
3.408583103195423
 30
0.0
  0
VERTEX
  5
3931
330
33EC
100
AcDbEntity
  8
0
100
AcDbVertex
100
AcDb2dVertex
 10
2.887503514346065
 20
3.377094914219045
 30
0.0
  0
VERTEX
  5
3932
330
33EC
100
AcDbEntity
  8
0
100
AcDbVertex
100
AcDb2dVertex
 10
2.887503514346065
 20
3.348230740990699
 30
0.0
  0
SEQEND
  5
3933
330
33EC
100
AcDbEntity
  8
0
  0
POLYLINE
  5
33F1
330
1E
100
AcDbEntity
  8
0
100
AcDb2dPolyline
 66
     1
 10
0.0
 20
0.0
 30
0.0
  0
VERTEX
  5
3934
330
33F1
100
AcDbEntity
  8
0
100
AcDbVertex
100
AcDb2dVertex
 10
2.949167884424805
 20
3.408583103195423
 30
0.0
  0
VERTEX
  5
3935
330
33F1
100
AcDbEntity
  8
0
100
AcDbVertex
100
AcDb2dVertex
 10
2.922927726944489
 20
3.374470898471014
 30
0.0
  0
VERTEX
  5
3936
330
33F1
100
AcDbEntity
  8
0
100
AcDbVertex
100
AcDb2dVertex
 10
2.887503514346065
 20
3.348230740990699
 30
0.0
  0
SEQEND
  5
3937
330
33F1
100
AcDbEntity
  8
0
  0
LINE
  5
33F6
330
1E
100
AcDbEntity
  8
0
100
AcDbLine
 10
2.887503514346065
 20
3.348230740990699
 30
0.0
 11
3.012144262377561
 21
3.223589992959203
 31
0.0
  0
LINE
  5
33F7
330
1E
100
AcDbEntity
  8
0
100
AcDbLine
 10
3.012144262377561
 20
3.223589992959203
 30
0.0
 11
3.043632451353939
 21
3.223589992959203
 31
0.0
  0
POLYLINE
  5
33F8
330
1E
100
AcDbEntity
  8
0
100
AcDb2dPolyline
 66
     1
 10
0.0
 20
0.0
 30
0.0
  0
VERTEX
  5
3938
330
33F8
100
AcDbEntity
  8
0
100
AcDbVertex
100
AcDb2dVertex
 10
3.073808632456301
 20
3.253766174061565
 30
0.0
  0
VERTEX
  5
3939
330
33F8
100
AcDbEntity
  8
0
100
AcDbVertex
100
AcDb2dVertex
 10
3.072496624582285
 20
3.248518142565503
 30
0.0
  0
VERTEX
  5
393A
330
33F8
100
AcDbEntity
  8
0
100
AcDbVertex
100
AcDb2dVertex
 10
3.069872608834253
 20
3.239334087447392
 30
0.0
  0
VERTEX
  5
393B
330
33F8
100
AcDbEntity
  8
0
100
AcDbVertex
100
AcDb2dVertex
 10
3.067248593086222
 20
3.235398063825345
 30
0.0
  0
VERTEX
  5
393C
330
33F8
100
AcDbEntity
  8
0
100
AcDbVertex
100
AcDb2dVertex
 10
3.060688553716143
 20
3.228838024455266
 30
0.0
  0
VERTEX
  5
393D
330
33F8
100
AcDbEntity
  8
0
100
AcDbVertex
100
AcDb2dVertex
 10
3.051504498598033
 20
3.224902000833219
 30
0.0
  0
VERTEX
  5
393E
330
33F8
100
AcDbEntity
  8
0
100
AcDbVertex
100
AcDb2dVertex
 10
3.043632451353938
 20
3.223589992959203
 30
0.0
  0
SEQEND
  5
393F
330
33F8
100
AcDbEntity
  8
0
  0
LINE
  5
3401
330
1E
100
AcDbEntity
  8
0
100
AcDbLine
 10
0.3855044985980331
 20
3.223589992959203
 30
0.0
 11
3.012144262377561
 21
3.223589992959203
 31
0.0
  0
LINE
  5
3402
330
1E
100
AcDbEntity
  8
0
100
AcDbLine
 10
0.3540163096216551
 20
3.223589992959203
 30
0.0
 11
0.3855044985980331
 21
3.223589992959203
 31
0.0
  0
LINE
  5
3403
330
1E
100
AcDbEntity
  8
0
100
AcDbLine
 10
0.5088332387555142
 20
3.348230740990699
 30
0.0
 11
2.887503514346065
 21
3.348230740990699
 31
0.0
  0
LINE
  5
3404
330
1E
100
AcDbEntity
  8
0
100
AcDbLine
 10
0.3855044985980331
 20
3.223589992959203
 30
0.0
 11
0.5088332387555142
 21
3.348230740990699
 31
0.0
  0
POLYLINE
  5
3405
330
1E
100
AcDbEntity
  8
0
100
AcDb2dPolyline
 66
     1
 10
0.0
 20
0.0
 30
0.0
  0
VERTEX
  5
3940
330
3405
100
AcDbEntity
  8
0
100
AcDbVertex
100
AcDb2dVertex
 10
0.5088332387555134
 20
3.408583103195423
 30
0.0
  0
VERTEX
  5
3941
330
3405
100
AcDbEntity
  8
0
100
AcDbVertex
100
AcDb2dVertex
 10
0.5088332387555134
 20
3.377094914219045
 30
0.0
  0
VERTEX
  5
3942
330
3405
100
AcDbEntity
  8
0
100
AcDbVertex
100
AcDb2dVertex
 10
0.5088332387555134
 20
3.348230740990699
 30
0.0
  0
SEQEND
  5
3943
330
3405
100
AcDbEntity
  8
0
  0
POLYLINE
  5
340A
330
1E
100
AcDbEntity
  8
0
100
AcDb2dPolyline
 66
     1
 10
0.0
 20
0.0
 30
0.0
  0
VERTEX
  5
3944
330
340A
100
AcDbEntity
  8
0
100
AcDbVertex
100
AcDb2dVertex
 10
0.4484808765507891
 20
3.408583103195423
 30
0.0
  0
VERTEX
  5
3945
330
340A
100
AcDbEntity
  8
0
100
AcDbVertex
100
AcDb2dVertex
 10
0.4747210340311041
 20
3.374470898471014
 30
0.0
  0
VERTEX
  5
3946
330
340A
100
AcDbEntity
  8
0
100
AcDbVertex
100
AcDb2dVertex
 10
0.5088332387555134
 20
3.348230740990699
 30
0.0
  0
SEQEND
  5
3947
330
340A
100
AcDbEntity
  8
0
  0
POLYLINE
  5
340F
330
1E
100
AcDbEntity
  8
0
100
AcDb2dPolyline
 66
     1
 10
0.0
 20
0.0
 30
0.0
  0
VERTEX
  5
3948
330
340F
100
AcDbEntity
  8
0
100
AcDbVertex
100
AcDb2dVertex
 10
0.3540163096216553
 20
3.223589992959203
 30
0.0
  0
VERTEX
  5
3949
330
340F
100
AcDbEntity
  8
0
100
AcDbVertex
100
AcDb2dVertex
 10
0.3487682781255923
 20
3.224902000833219
 30
0.0
  0
VERTEX
  5
394A
330
340F
100
AcDbEntity
  8
0
100
AcDbVertex
100
AcDb2dVertex
 10
0.3395842230074819
 20
3.227526016581251
 30
0.0
  0
VERTEX
  5
394B
330
340F
100
AcDbEntity
  8
0
100
AcDbVertex
100
AcDb2dVertex
 10
0.335648199385435
 20
3.230150032329282
 30
0.0
  0
VERTEX
  5
394C
330
340F
100
AcDbEntity
  8
0
100
AcDbVertex
100
AcDb2dVertex
 10
0.3290881600153559
 20
3.23671007169936
 30
0.0
  0
VERTEX
  5
394D
330
340F
100
AcDbEntity
  8
0
100
AcDbVertex
100
AcDb2dVertex
 10
0.325152136393309
 20
3.245894126817471
 30
0.0
  0
VERTEX
  5
394E
330
340F
100
AcDbEntity
  8
0
100
AcDbVertex
100
AcDb2dVertex
 10
0.3238401285192933
 20
3.253766174061565
 30
0.0
  0
SEQEND
  5
394F
330
340F
100
AcDbEntity
  8
0
  0
POLYLINE
  5
3418
330
1E
100
AcDbEntity
  8
0
100
AcDb2dPolyline
 66
     1
 10
0.0
 20
0.0
 30
0.0
  0
VERTEX
  5
3950
330
3418
100
AcDbEntity
  8
0
100
AcDbVertex
100
AcDb2dVertex
 10
1.753928711196459
 20
4.013418733116684
 30
0.0
  0
VERTEX
  5
3951
330
3418
100
AcDbEntity
  8
0
100
AcDbVertex
100
AcDb2dVertex
 10
1.753928711196459
 20
3.988490583510384
 30
0.0
  0
VERTEX
  5
3952
330
3418
100
AcDbEntity
  8
0
100
AcDbVertex
100
AcDb2dVertex
 10
1.753928711196459
 20
3.970122473274164
 30
0.0
  0
VERTEX
  5
3953
330
3418
100
AcDbEntity
  8
0
100
AcDbVertex
100
AcDb2dVertex
 10
1.753928711196459
 20
3.963562433904085
 30
0.0
  0
SEQEND
  5
3954
330
3418
100
AcDbEntity
  8
0
  0
POLYLINE
  5
341E
330
1E
100
AcDbEntity
  8
0
100
AcDb2dPolyline
 66
     1
 10
0.0
 20
0.0
 30
0.0
  0
VERTEX
  5
3955
330
341E
100
AcDbEntity
  8
0
100
AcDbVertex
100
AcDb2dVertex
 10
1.643720049779135
 20
4.013418733116684
 30
0.0
  0
VERTEX
  5
3956
330
341E
100
AcDbEntity
  8
0
100
AcDbVertex
100
AcDb2dVertex
 10
1.643720049779135
 20
3.988490583510384
 30
0.0
  0
VERTEX
  5
3957
330
341E
100
AcDbEntity
  8
0
100
AcDbVertex
100
AcDb2dVertex
 10
1.643720049779135
 20
3.970122473274164
 30
0.0
  0
VERTEX
  5
3958
330
341E
100
AcDbEntity
  8
0
100
AcDbVertex
100
AcDb2dVertex
 10
1.643720049779135
 20
3.963562433904085
 30
0.0
  0
SEQEND
  5
3959
330
341E
100
AcDbEntity
  8
0
  0
LINE
  5
3424
330
1E
100
AcDbEntity
  8
0
100
AcDbLine
 10
1.753928711196459
 20
3.963562433904085
 30
0.0
 11
1.643720049779135
 21
3.963562433904085
 31
0.0
  0
POLYLINE
  5
3425
330
1E
100
AcDbEntity
  8
0
100
AcDb2dPolyline
 66
     1
 10
0.0
 20
0.0
 30
0.0
  0
VERTEX
  5
395A
330
3425
100
AcDbEntity
  8
0
100
AcDbVertex
100
AcDb2dVertex
 10
1.643720049779135
 20
3.963562433904085
 30
0.0
  0
VERTEX
  5
395B
330
3425
100
AcDbEntity
  8
0
100
AcDbVertex
100
AcDb2dVertex
 10
1.643720049779135
 20
3.957002394534006
 30
0.0
  0
VERTEX
  5
395C
330
3425
100
AcDbEntity
  8
0
100
AcDbVertex
100
AcDb2dVertex
 10
1.643720049779135
 20
3.941258300045817
 30
0.0
  0
SEQEND
  5
395D
330
3425
100
AcDbEntity
  8
0
  0
POLYLINE
  5
342A
330
1E
100
AcDbEntity
  8
0
100
AcDb2dPolyline
 66
     1
 10
0.0
 20
0.0
 30
0.0
  0
VERTEX
  5
395E
330
342A
100
AcDbEntity
  8
0
100
AcDbVertex
100
AcDb2dVertex
 10
1.753928711196459
 20
3.963562433904085
 30
0.0
  0
VERTEX
  5
395F
330
342A
100
AcDbEntity
  8
0
100
AcDbVertex
100
AcDb2dVertex
 10
1.753928711196459
 20
3.957002394534006
 30
0.0
  0
VERTEX
  5
3960
330
342A
100
AcDbEntity
  8
0
100
AcDbVertex
100
AcDb2dVertex
 10
1.753928711196459
 20
3.941258300045817
 30
0.0
  0
SEQEND
  5
3961
330
342A
100
AcDbEntity
  8
0
  0
LINE
  5
342F
330
1E
100
AcDbEntity
  8
0
100
AcDbLine
 10
1.753928711196459
 20
3.941258300045817
 30
0.0
 11
1.643720049779135
 21
3.941258300045817
 31
0.0
  0
LINE
  5
3430
330
1E
100
AcDbEntity
  8
0
100
AcDbLine
 10
1.643720049779135
 20
3.941258300045817
 30
0.0
 11
1.643720049779135
 21
3.916330150439518
 31
0.0
  0
LINE
  5
3431
330
1E
100
AcDbEntity
  8
0
100
AcDbLine
 10
1.753928711196459
 20
3.941258300045817
 30
0.0
 11
1.753928711196459
 21
3.916330150439518
 31
0.0
  0
LINE
  5
3432
330
1E
100
AcDbEntity
  8
0
100
AcDbLine
 10
1.743432648204333
 20
3.905834087447392
 30
0.0
 11
1.654216112771261
 21
3.905834087447392
 31
0.0
  0
POLYLINE
  5
3433
330
1E
100
AcDbEntity
  8
0
100
AcDb2dPolyline
 66
     1
 10
0.0
 20
0.0
 30
0.0
  0
VERTEX
  5
3962
330
3433
100
AcDbEntity
  8
0
100
AcDbVertex
100
AcDb2dVertex
 10
1.753928711196459
 20
3.916330150439518
 30
0.0
  0
VERTEX
  5
3963
330
3433
100
AcDbEntity
  8
0
100
AcDbVertex
100
AcDb2dVertex
 10
1.751304695448427
 20
3.909770111069439
 30
0.0
  0
VERTEX
  5
3964
330
3433
100
AcDbEntity
  8
0
100
AcDbVertex
100
AcDb2dVertex
 10
1.743432648204333
 20
3.905834087447392
 30
0.0
  0
SEQEND
  5
3965
330
3433
100
AcDbEntity
  8
0
  0
POLYLINE
  5
3438
330
1E
100
AcDbEntity
  8
0
100
AcDb2dPolyline
 66
     1
 10
0.0
 20
0.0
 30
0.0
  0
VERTEX
  5
3966
330
3438
100
AcDbEntity
  8
0
100
AcDbVertex
100
AcDb2dVertex
 10
1.654216112771261
 20
3.905834087447392
 30
0.0
  0
VERTEX
  5
3967
330
3438
100
AcDbEntity
  8
0
100
AcDbVertex
100
AcDb2dVertex
 10
1.646344065527167
 20
3.909770111069439
 30
0.0
  0
VERTEX
  5
3968
330
3438
100
AcDbEntity
  8
0
100
AcDbVertex
100
AcDb2dVertex
 10
1.643720049779135
 20
3.916330150439518
 30
0.0
  0
SEQEND
  5
3969
330
3438
100
AcDbEntity
  8
0
  0
LINE
  5
343D
330
1E
100
AcDbEntity
  8
0
100
AcDbLine
 10
1.285541900172836
 20
3.732649048077314
 30
0.0
 11
1.285541900172836
 21
3.934698260675739
 31
0.0
  0
POLYLINE
  5
343E
330
1E
100
AcDbEntity
  8
0
100
AcDb2dPolyline
 66
     1
 10
0.0
 20
0.0
 30
0.0
  0
VERTEX
  5
396A
330
343E
100
AcDbEntity
  8
0
100
AcDbVertex
100
AcDb2dVertex
 10
1.235685600960238
 20
3.732649048077314
 30
0.0
  0
VERTEX
  5
396B
330
343E
100
AcDbEntity
  8
0
100
AcDbVertex
100
AcDb2dVertex
 10
1.260613750566537
 20
3.732649048077314
 30
0.0
  0
VERTEX
  5
396C
330
343E
100
AcDbEntity
  8
0
100
AcDbVertex
100
AcDb2dVertex
 10
1.278981860802757
 20
3.732649048077314
 30
0.0
  0
VERTEX
  5
396D
330
343E
100
AcDbEntity
  8
0
100
AcDbVertex
100
AcDb2dVertex
 10
1.285541900172836
 20
3.732649048077314
 30
0.0
  0
SEQEND
  5
396E
330
343E
100
AcDbEntity
  8
0
  0
POLYLINE
  5
3444
330
1E
100
AcDbEntity
  8
0
100
AcDb2dPolyline
 66
     1
 10
0.0
 20
0.0
 30
0.0
  0
VERTEX
  5
396F
330
3444
100
AcDbEntity
  8
0
100
AcDbVertex
100
AcDb2dVertex
 10
1.235685600960238
 20
3.934698260675739
 30
0.0
  0
VERTEX
  5
3970
330
3444
100
AcDbEntity
  8
0
100
AcDbVertex
100
AcDb2dVertex
 10
1.260613750566537
 20
3.934698260675739
 30
0.0
  0
VERTEX
  5
3971
330
3444
100
AcDbEntity
  8
0
100
AcDbVertex
100
AcDb2dVertex
 10
1.278981860802757
 20
3.934698260675739
 30
0.0
  0
VERTEX
  5
3972
330
3444
100
AcDbEntity
  8
0
100
AcDbVertex
100
AcDb2dVertex
 10
1.285541900172836
 20
3.934698260675739
 30
0.0
  0
SEQEND
  5
3973
330
3444
100
AcDbEntity
  8
0
  0
LINE
  5
344A
330
1E
100
AcDbEntity
  8
0
100
AcDbLine
 10
2.112106860802757
 20
3.732649048077314
 30
0.0
 11
2.112106860802757
 21
3.934698260675739
 31
0.0
  0
POLYLINE
  5
344B
330
1E
100
AcDbEntity
  8
0
100
AcDb2dPolyline
 66
     1
 10
0.0
 20
0.0
 30
0.0
  0
VERTEX
  5
3974
330
344B
100
AcDbEntity
  8
0
100
AcDbVertex
100
AcDb2dVertex
 10
2.16065115214134
 20
3.732649048077314
 30
0.0
  0
VERTEX
  5
3975
330
344B
100
AcDbEntity
  8
0
100
AcDbVertex
100
AcDb2dVertex
 10
2.135723002535041
 20
3.732649048077314
 30
0.0
  0
VERTEX
  5
3976
330
344B
100
AcDbEntity
  8
0
100
AcDbVertex
100
AcDb2dVertex
 10
2.118666900172836
 20
3.732649048077314
 30
0.0
  0
VERTEX
  5
3977
330
344B
100
AcDbEntity
  8
0
100
AcDbVertex
100
AcDb2dVertex
 10
2.112106860802757
 20
3.732649048077314
 30
0.0
  0
SEQEND
  5
3978
330
344B
100
AcDbEntity
  8
0
  0
POLYLINE
  5
3451
330
1E
100
AcDbEntity
  8
0
100
AcDb2dPolyline
 66
     1
 10
0.0
 20
0.0
 30
0.0
  0
VERTEX
  5
3979
330
3451
100
AcDbEntity
  8
0
100
AcDbVertex
100
AcDb2dVertex
 10
2.16065115214134
 20
3.934698260675739
 30
0.0
  0
VERTEX
  5
397A
330
3451
100
AcDbEntity
  8
0
100
AcDbVertex
100
AcDb2dVertex
 10
2.135723002535041
 20
3.934698260675739
 30
0.0
  0
VERTEX
  5
397B
330
3451
100
AcDbEntity
  8
0
100
AcDbVertex
100
AcDb2dVertex
 10
2.118666900172836
 20
3.934698260675739
 30
0.0
  0
VERTEX
  5
397C
330
3451
100
AcDbEntity
  8
0
100
AcDbVertex
100
AcDb2dVertex
 10
2.112106860802757
 20
3.934698260675739
 30
0.0
  0
SEQEND
  5
397D
330
3451
100
AcDbEntity
  8
0
  0
LINE
  5
3457
330
1E
100
AcDbEntity
  8
0
100
AcDbLine
 10
2.112106860802757
 20
7.21471794571511
 30
0.0
 11
2.112106860802757
 21
7.012668733116684
 31
0.0
  0
POLYLINE
  5
3458
330
1E
100
AcDbEntity
  8
0
100
AcDb2dPolyline
 66
     1
 10
0.0
 20
0.0
 30
0.0
  0
VERTEX
  5
397E
330
3458
100
AcDbEntity
  8
0
100
AcDbVertex
100
AcDb2dVertex
 10
2.16065115214134
 20
7.21471794571511
 30
0.0
  0
VERTEX
  5
397F
330
3458
100
AcDbEntity
  8
0
100
AcDbVertex
100
AcDb2dVertex
 10
2.135723002535041
 20
7.21471794571511
 30
0.0
  0
VERTEX
  5
3980
330
3458
100
AcDbEntity
  8
0
100
AcDbVertex
100
AcDb2dVertex
 10
2.118666900172836
 20
7.21471794571511
 30
0.0
  0
VERTEX
  5
3981
330
3458
100
AcDbEntity
  8
0
100
AcDbVertex
100
AcDb2dVertex
 10
2.112106860802757
 20
7.21471794571511
 30
0.0
  0
SEQEND
  5
3982
330
3458
100
AcDbEntity
  8
0
  0
POLYLINE
  5
345E
330
1E
100
AcDbEntity
  8
0
100
AcDb2dPolyline
 66
     1
 10
0.0
 20
0.0
 30
0.0
  0
VERTEX
  5
3983
330
345E
100
AcDbEntity
  8
0
100
AcDbVertex
100
AcDb2dVertex
 10
2.16065115214134
 20
7.012668733116684
 30
0.0
  0
VERTEX
  5
3984
330
345E
100
AcDbEntity
  8
0
100
AcDbVertex
100
AcDb2dVertex
 10
2.135723002535041
 20
7.012668733116684
 30
0.0
  0
VERTEX
  5
3985
330
345E
100
AcDbEntity
  8
0
100
AcDbVertex
100
AcDb2dVertex
 10
2.118666900172836
 20
7.012668733116684
 30
0.0
  0
VERTEX
  5
3986
330
345E
100
AcDbEntity
  8
0
100
AcDbVertex
100
AcDb2dVertex
 10
2.112106860802757
 20
7.012668733116684
 30
0.0
  0
SEQEND
  5
3987
330
345E
100
AcDbEntity
  8
0
  0
LINE
  5
3464
330
1E
100
AcDbEntity
  8
0
100
AcDbLine
 10
1.285541900172836
 20
7.21471794571511
 30
0.0
 11
1.285541900172836
 21
7.012668733116684
 31
0.0
  0
POLYLINE
  5
3465
330
1E
100
AcDbEntity
  8
0
100
AcDb2dPolyline
 66
     1
 10
0.0
 20
0.0
 30
0.0
  0
VERTEX
  5
3988
330
3465
100
AcDbEntity
  8
0
100
AcDbVertex
100
AcDb2dVertex
 10
1.235685600960238
 20
7.21471794571511
 30
0.0
  0
VERTEX
  5
3989
330
3465
100
AcDbEntity
  8
0
100
AcDbVertex
100
AcDb2dVertex
 10
1.260613750566537
 20
7.21471794571511
 30
0.0
  0
VERTEX
  5
398A
330
3465
100
AcDbEntity
  8
0
100
AcDbVertex
100
AcDb2dVertex
 10
1.278981860802757
 20
7.21471794571511
 30
0.0
  0
VERTEX
  5
398B
330
3465
100
AcDbEntity
  8
0
100
AcDbVertex
100
AcDb2dVertex
 10
1.285541900172836
 20
7.21471794571511
 30
0.0
  0
SEQEND
  5
398C
330
3465
100
AcDbEntity
  8
0
  0
POLYLINE
  5
346B
330
1E
100
AcDbEntity
  8
0
100
AcDb2dPolyline
 66
     1
 10
0.0
 20
0.0
 30
0.0
  0
VERTEX
  5
398D
330
346B
100
AcDbEntity
  8
0
100
AcDbVertex
100
AcDb2dVertex
 10
1.235685600960238
 20
7.012668733116684
 30
0.0
  0
VERTEX
  5
398E
330
346B
100
AcDbEntity
  8
0
100
AcDbVertex
100
AcDb2dVertex
 10
1.260613750566537
 20
7.012668733116684
 30
0.0
  0
VERTEX
  5
398F
330
346B
100
AcDbEntity
  8
0
100
AcDbVertex
100
AcDb2dVertex
 10
1.278981860802757
 20
7.012668733116684
 30
0.0
  0
VERTEX
  5
3990
330
346B
100
AcDbEntity
  8
0
100
AcDbVertex
100
AcDb2dVertex
 10
1.285541900172836
 20
7.012668733116684
 30
0.0
  0
SEQEND
  5
3991
330
346B
100
AcDbEntity
  8
0
  0
POLYLINE
  5
3471
330
1E
100
AcDbEntity
  8
0
100
AcDb2dPolyline
 66
     1
 10
0.0
 20
0.0
 30
0.0
  0
VERTEX
  5
3992
330
3471
100
AcDbEntity
  8
0
100
AcDbVertex
100
AcDb2dVertex
 10
4.858139341117718
 20
3.253766174061565
 30
0.0
  0
VERTEX
  5
3993
330
3471
100
AcDbEntity
  8
0
100
AcDbVertex
100
AcDb2dVertex
 10
4.858139341117718
 20
3.277382315793849
 30
0.0
  0
VERTEX
  5
3994
330
3471
100
AcDbEntity
  8
0
100
AcDbVertex
100
AcDb2dVertex
 10
4.858139341117718
 20
3.303622473274164
 30
0.0
  0
SEQEND
  5
3995
330
3471
100
AcDbEntity
  8
0
  0
LINE
  5
3476
330
1E
100
AcDbEntity
  8
0
100
AcDbLine
 10
4.858139341117718
 20
3.303622473274164
 30
0.0
 11
4.858139341117718
 21
7.642432512644243
 31
0.0
  0
POLYLINE
  5
3477
330
1E
100
AcDbEntity
  8
0
100
AcDb2dPolyline
 66
     1
 10
0.0
 20
0.0
 30
0.0
  0
VERTEX
  5
3996
330
3477
100
AcDbEntity
  8
0
100
AcDbVertex
100
AcDb2dVertex
 10
4.858139341117718
 20
7.642432512644243
 30
0.0
  0
VERTEX
  5
3997
330
3477
100
AcDbEntity
  8
0
100
AcDbVertex
100
AcDb2dVertex
 10
4.858139341117718
 20
7.668672670124558
 30
0.0
  0
VERTEX
  5
3998
330
3477
100
AcDbEntity
  8
0
100
AcDbVertex
100
AcDb2dVertex
 10
4.858139341117718
 20
7.692288811856841
 30
0.0
  0
SEQEND
  5
3999
330
3477
100
AcDbEntity
  8
0
  0
LINE
  5
347C
330
1E
100
AcDbEntity
  8
0
100
AcDbLine
 10
4.858139341117718
 20
3.303622473274164
 30
0.0
 11
5.027388356865749
 21
3.300998457526132
 31
0.0
  0
LINE
  5
347D
330
1E
100
AcDbEntity
  8
0
100
AcDbLine
 10
5.027388356865749
 20
7.64636853626629
 30
0.0
 11
5.027388356865749
 21
3.300998457526132
 31
0.0
  0
LINE
  5
347E
330
1E
100
AcDbEntity
  8
0
100
AcDbLine
 10
5.027388356865749
 20
7.64636853626629
 30
0.0
 11
4.858139341117718
 21
7.642432512644243
 31
0.0
  0
POLYLINE
  5
347F
330
1E
100
AcDbEntity
  8
0
100
AcDb2dPolyline
 66
     1
 10
0.0
 20
0.0
 30
0.0
  0
VERTEX
  5
399A
330
347F
100
AcDbEntity
  8
0
100
AcDbVertex
100
AcDb2dVertex
 10
5.027388356865749
 20
3.300998457526132
 30
0.0
  0
VERTEX
  5
399B
330
347F
100
AcDbEntity
  8
0
100
AcDbVertex
100
AcDb2dVertex
 10
5.027388356865749
 20
3.270822276423769
 30
0.0
  0
VERTEX
  5
399C
330
347F
100
AcDbEntity
  8
0
100
AcDbVertex
100
AcDb2dVertex
 10
5.027388356865749
 20
3.244582118943455
 30
0.0
  0
VERTEX
  5
399D
330
347F
100
AcDbEntity
  8
0
100
AcDbVertex
100
AcDb2dVertex
 10
5.027388356865749
 20
3.227526016581251
 30
0.0
  0
VERTEX
  5
399E
330
347F
100
AcDbEntity
  8
0
100
AcDbVertex
100
AcDb2dVertex
 10
5.027388356865749
 20
3.220965977211172
 30
0.0
  0
SEQEND
  5
399F
330
347F
100
AcDbEntity
  8
0
  0
POLYLINE
  5
3486
330
1E
100
AcDbEntity
  8
0
100
AcDb2dPolyline
 66
     1
 10
0.0
 20
0.0
 30
0.0
  0
VERTEX
  5
39A0
330
3486
100
AcDbEntity
  8
0
100
AcDbVertex
100
AcDb2dVertex
 10
5.027388356865749
 20
7.725089008707235
 30
0.0
  0
VERTEX
  5
39A1
330
3486
100
AcDbEntity
  8
0
100
AcDbVertex
100
AcDb2dVertex
 10
5.027388356865749
 20
7.719840977211172
 30
0.0
  0
VERTEX
  5
39A2
330
3486
100
AcDbEntity
  8
0
100
AcDbVertex
100
AcDb2dVertex
 10
5.027388356865749
 20
7.702784874848966
 30
0.0
  0
VERTEX
  5
39A3
330
3486
100
AcDbEntity
  8
0
100
AcDbVertex
100
AcDb2dVertex
 10
5.027388356865749
 20
7.676544717368652
 30
0.0
  0
VERTEX
  5
39A4
330
3486
100
AcDbEntity
  8
0
100
AcDbVertex
100
AcDb2dVertex
 10
5.027388356865749
 20
7.646368536266291
 30
0.0
  0
SEQEND
  5
39A5
330
3486
100
AcDbEntity
  8
0
  0
POLYLINE
  5
348D
330
1E
100
AcDbEntity
  8
0
100
AcDb2dPolyline
 66
     1
 10
0.0
 20
0.0
 30
0.0
  0
VERTEX
  5
39A6
330
348D
100
AcDbEntity
  8
0
100
AcDbVertex
100
AcDb2dVertex
 10
5.364574380487797
 20
5.593076213431644
 30
0.0
  0
VERTEX
  5
39A7
330
348D
100
AcDbEntity
  8
0
100
AcDbVertex
100
AcDb2dVertex
 10
5.338334223007482
 20
5.600948260675739
 30
0.0
  0
VERTEX
  5
39A8
330
348D
100
AcDbEntity
  8
0
100
AcDbVertex
100
AcDb2dVertex
 10
5.31734209702323
 20
5.619316370911959
 30
0.0
  0
SEQEND
  5
39A9
330
348D
100
AcDbEntity
  8
0
  0
LINE
  5
3492
330
1E
100
AcDbEntity
  8
0
100
AcDbLine
 10
5.31734209702323
 20
5.619316370911959
 30
0.0
 11
5.291101939542915
 21
5.656052591384399
 31
0.0
  0
POLYLINE
  5
3493
330
1E
100
AcDbEntity
  8
0
100
AcDb2dPolyline
 66
     1
 10
0.0
 20
0.0
 30
0.0
  0
VERTEX
  5
39AA
330
3493
100
AcDbEntity
  8
0
100
AcDbVertex
100
AcDb2dVertex
 10
5.291101939542915
 20
5.6560525913844
 30
0.0
  0
VERTEX
  5
39AB
330
3493
100
AcDbEntity
  8
0
100
AcDbVertex
100
AcDb2dVertex
 10
5.271421821432679
 20
5.677044717368652
 30
0.0
  0
VERTEX
  5
39AC
330
3493
100
AcDbEntity
  8
0
100
AcDbVertex
100
AcDb2dVertex
 10
5.24649367182638
 20
5.691476803982825
 30
0.0
  0
VERTEX
  5
39AD
330
3493
100
AcDbEntity
  8
0
100
AcDbVertex
100
AcDb2dVertex
 10
5.217629498598033
 20
5.698036843352904
 30
0.0
  0
SEQEND
  5
39AE
330
3493
100
AcDbEntity
  8
0
  0
LINE
  5
3499
330
1E
100
AcDbEntity
  8
0
100
AcDbLine
 10
5.209757451353938
 20
5.69934885122692
 30
0.0
 11
5.217629498598033
 21
5.698036843352904
 31
0.0
  0
LINE
  5
349A
330
1E
100
AcDbEntity
  8
0
100
AcDbLine
 10
5.209757451353938
 20
5.69934885122692
 30
0.0
 11
5.209757451353938
 21
5.669172670124558
 31
0.0
  0
LINE
  5
349B
330
1E
100
AcDbEntity
  8
0
100
AcDbLine
 10
5.211069459227955
 20
5.663924638628495
 30
0.0
 11
5.209757451353938
 21
5.669172670124558
 31
0.0
  0
POLYLINE
  5
349C
330
1E
100
AcDbEntity
  8
0
100
AcDb2dPolyline
 66
     1
 10
0.0
 20
0.0
 30
0.0
  0
VERTEX
  5
39AF
330
349C
100
AcDbEntity
  8
0
100
AcDbVertex
100
AcDb2dVertex
 10
5.221565522220081
 20
5.628500426030069
 30
0.0
  0
VERTEX
  5
39B0
330
349C
100
AcDbEntity
  8
0
100
AcDbVertex
100
AcDb2dVertex
 10
5.220253514346064
 20
5.648180544140306
 30
0.0
  0
VERTEX
  5
39B1
330
349C
100
AcDbEntity
  8
0
100
AcDbVertex
100
AcDb2dVertex
 10
5.211069459227955
 20
5.663924638628495
 30
0.0
  0
SEQEND
  5
39B2
330
349C
100
AcDbEntity
  8
0
  0
LINE
  5
34A1
330
1E
100
AcDbEntity
  8
0
100
AcDbLine
 10
5.221565522220081
 20
5.628500426030069
 30
0.0
 11
5.221565522220081
 21
5.618004363037943
 31
0.0
  0
LINE
  5
34A2
330
1E
100
AcDbEntity
  8
0
100
AcDbLine
 10
5.453790915920867
 20
5.577332118943455
 30
0.0
 11
5.453790915920867
 21
5.556339992959203
 31
0.0
  0
POLYLINE
  5
34A3
330
1E
100
AcDbEntity
  8
0
100
AcDb2dPolyline
 66
     1
 10
0.0
 20
0.0
 30
0.0
  0
VERTEX
  5
39B3
330
34A3
100
AcDbEntity
  8
0
100
AcDbVertex
100
AcDb2dVertex
 10
5.453790915920867
 20
5.577332118943455
 30
0.0
  0
VERTEX
  5
39B4
330
34A3
100
AcDbEntity
  8
0
100
AcDbVertex
100
AcDb2dVertex
 10
5.449854892298821
 20
5.587828181935581
 30
0.0
  0
VERTEX
  5
39B5
330
34A3
100
AcDbEntity
  8
0
100
AcDbVertex
100
AcDb2dVertex
 10
5.439358829306695
 20
5.591764205557629
 30
0.0
  0
SEQEND
  5
39B6
330
34A3
100
AcDbEntity
  8
0
  0
LINE
  5
34A8
330
1E
100
AcDbEntity
  8
0
100
AcDbLine
 10
5.364574380487797
 20
5.593076213431644
 30
0.0
 11
5.439358829306695
 21
5.591764205557629
 31
0.0
  0
POLYLINE
  5
34A9
330
1E
100
AcDbEntity
  8
0
100
AcDb2dPolyline
 66
     1
 10
0.0
 20
0.0
 30
0.0
  0
VERTEX
  5
39B7
330
34A9
100
AcDbEntity
  8
0
100
AcDbVertex
100
AcDb2dVertex
 10
5.207133435605907
 20
5.602260268549755
 30
0.0
  0
VERTEX
  5
39B8
330
34A9
100
AcDbEntity
  8
0
100
AcDbVertex
100
AcDb2dVertex
 10
5.217629498598033
 20
5.607508300045818
 30
0.0
  0
VERTEX
  5
39B9
330
34A9
100
AcDbEntity
  8
0
100
AcDbVertex
100
AcDb2dVertex
 10
5.221565522220081
 20
5.618004363037943
 30
0.0
  0
SEQEND
  5
39BA
330
34A9
100
AcDbEntity
  8
0
  0
LINE
  5
34AE
330
1E
100
AcDbEntity
  8
0
100
AcDbLine
 10
5.027388356865749
 20
5.598324244927707
 30
0.0
 11
5.207133435605907
 21
5.602260268549755
 31
0.0
  0
LINE
  5
34AF
330
1E
100
AcDbEntity
  8
0
100
AcDbLine
 10
5.439358829306695
 20
5.54190790634503
 30
0.0
 11
5.027388356865749
 21
5.513043733116684
 31
0.0
  0
POLYLINE
  5
34B0
330
1E
100
AcDbEntity
  8
0
100
AcDb2dPolyline
 66
     1
 10
0.0
 20
0.0
 30
0.0
  0
VERTEX
  5
39BB
330
34B0
100
AcDbEntity
  8
0
100
AcDbVertex
100
AcDb2dVertex
 10
5.439358829306695
 20
5.54190790634503
 30
0.0
  0
VERTEX
  5
39BC
330
34B0
100
AcDbEntity
  8
0
100
AcDbVertex
100
AcDb2dVertex
 10
5.449854892298821
 20
5.545843929967078
 30
0.0
  0
VERTEX
  5
39BD
330
34B0
100
AcDbEntity
  8
0
100
AcDbVertex
100
AcDb2dVertex
 10
5.453790915920867
 20
5.556339992959204
 30
0.0
  0
SEQEND
  5
39BE
330
34B0
100
AcDbEntity
  8
0
  0
LINE
  5
34B5
330
1E
100
AcDbEntity
  8
0
100
AcDbLine
 10
4.699386388361812
 20
6.727963024455267
 30
0.0
 11
4.702010404109844
 21
6.727963024455267
 31
0.0
  0
LINE
  5
34B6
330
1E
100
AcDbEntity
  8
0
100
AcDbLine
 10
4.699386388361812
 20
6.457689402408022
 30
0.0
 11
4.699386388361812
 21
6.697786843352904
 31
0.0
  0
LINE
  5
34B7
330
1E
100
AcDbEntity
  8
0
100
AcDbLine
 10
4.699386388361812
 20
6.457689402408022
 30
0.0
 11
4.702010404109844
 21
6.457689402408022
 31
0.0
  0
LINE
  5
34B8
330
1E
100
AcDbEntity
  8
0
100
AcDbLine
 10
4.702010404109844
 20
6.697786843352904
 30
0.0
 11
4.699386388361812
 21
6.697786843352904
 31
0.0
  0
LINE
  5
34B9
330
1E
100
AcDbEntity
  8
0
100
AcDbLine
 10
4.702010404109844
 20
6.42751322130566
 30
0.0
 11
4.699386388361812
 21
6.42751322130566
 31
0.0
  0
POLYLINE
  5
34BA
330
1E
100
AcDbEntity
  8
0
100
AcDb2dPolyline
 66
     1
 10
0.0
 20
0.0
 30
0.0
  0
VERTEX
  5
39BF
330
34BA
100
AcDbEntity
  8
0
100
AcDbVertex
100
AcDb2dVertex
 10
4.699386388361812
 20
6.42751322130566
 30
0.0
  0
VERTEX
  5
39C0
330
34BA
100
AcDbEntity
  8
0
100
AcDbVertex
100
AcDb2dVertex
 10
4.699386388361812
 20
6.431449244927708
 30
0.0
  0
VERTEX
  5
39C1
330
34BA
100
AcDbEntity
  8
0
100
AcDbVertex
100
AcDb2dVertex
 10
4.699386388361812
 20
6.441945307919833
 30
0.0
  0
VERTEX
  5
39C2
330
34BA
100
AcDbEntity
  8
0
100
AcDbVertex
100
AcDb2dVertex
 10
4.699386388361812
 20
6.457689402408022
 30
0.0
  0
SEQEND
  5
39C3
330
34BA
100
AcDbEntity
  8
0
  0
POLYLINE
  5
34C0
330
1E
100
AcDbEntity
  8
0
100
AcDb2dPolyline
 66
     1
 10
0.0
 20
0.0
 30
0.0
  0
VERTEX
  5
39C4
330
34C0
100
AcDbEntity
  8
0
100
AcDbVertex
100
AcDb2dVertex
 10
4.699386388361812
 20
6.697786843352903
 30
0.0
  0
VERTEX
  5
39C5
330
34C0
100
AcDbEntity
  8
0
100
AcDbVertex
100
AcDb2dVertex
 10
4.699386388361812
 20
6.713530937841093
 30
0.0
  0
VERTEX
  5
39C6
330
34C0
100
AcDbEntity
  8
0
100
AcDbVertex
100
AcDb2dVertex
 10
4.699386388361812
 20
6.72402700083322
 30
0.0
  0
VERTEX
  5
39C7
330
34C0
100
AcDbEntity
  8
0
100
AcDbVertex
100
AcDb2dVertex
 10
4.699386388361812
 20
6.727963024455266
 30
0.0
  0
SEQEND
  5
39C8
330
34C0
100
AcDbEntity
  8
0
  0
POLYLINE
  5
34C6
330
1E
100
AcDbEntity
  8
0
100
AcDb2dPolyline
 66
     1
 10
0.0
 20
0.0
 30
0.0
  0
VERTEX
  5
39C9
330
34C6
100
AcDbEntity
  8
0
100
AcDbVertex
100
AcDb2dVertex
 10
5.040508435605907
 20
6.466873457526133
 30
0.0
  0
VERTEX
  5
39CA
330
34C6
100
AcDbEntity
  8
0
100
AcDbVertex
100
AcDb2dVertex
 10
5.037884419857875
 20
6.466873457526133
 30
0.0
  0
VERTEX
  5
39CB
330
34C6
100
AcDbEntity
  8
0
100
AcDbVertex
100
AcDb2dVertex
 10
5.027388356865749
 20
6.466873457526133
 30
0.0
  0
SEQEND
  5
39CC
330
34C6
100
AcDbEntity
  8
0
  0
LINE
  5
34CB
330
1E
100
AcDbEntity
  8
0
100
AcDbLine
 10
5.040508435605907
 20
6.508857709494637
 30
0.0
 11
5.040508435605907
 21
6.466873457526133
 31
0.0
  0
POLYLINE
  5
34CC
330
1E
100
AcDbEntity
  8
0
100
AcDb2dPolyline
 66
     1
 10
0.0
 20
0.0
 30
0.0
  0
VERTEX
  5
39CD
330
34CC
100
AcDbEntity
  8
0
100
AcDbVertex
100
AcDb2dVertex
 10
5.027388356865749
 20
6.508857709494637
 30
0.0
  0
VERTEX
  5
39CE
330
34CC
100
AcDbEntity
  8
0
100
AcDbVertex
100
AcDb2dVertex
 10
5.037884419857875
 20
6.508857709494637
 30
0.0
  0
VERTEX
  5
39CF
330
34CC
100
AcDbEntity
  8
0
100
AcDbVertex
100
AcDb2dVertex
 10
5.040508435605907
 20
6.508857709494637
 30
0.0
  0
SEQEND
  5
39D0
330
34CC
100
AcDbEntity
  8
0
  0
LINE
  5
34D1
330
1E
100
AcDbEntity
  8
0
100
AcDbLine
 10
5.040508435605907
 20
6.466873457526133
 30
0.0
 11
5.027388356865749
 21
6.460313418156054
 31
0.0
  0
POLYLINE
  5
34D2
330
1E
100
AcDbEntity
  8
0
100
AcDb2dPolyline
 66
     1
 10
0.0
 20
0.0
 30
0.0
  0
VERTEX
  5
39D1
330
34D2
100
AcDbEntity
  8
0
100
AcDbVertex
100
AcDb2dVertex
 10
5.364574380487797
 20
4.220715977211172
 30
0.0
  0
VERTEX
  5
39D2
330
34D2
100
AcDbEntity
  8
0
100
AcDbVertex
100
AcDb2dVertex
 10
5.338334223007482
 20
4.228588024455266
 30
0.0
  0
VERTEX
  5
39D3
330
34D2
100
AcDbEntity
  8
0
100
AcDbVertex
100
AcDb2dVertex
 10
5.31734209702323
 20
4.246956134691487
 30
0.0
  0
SEQEND
  5
39D4
330
34D2
100
AcDbEntity
  8
0
  0
LINE
  5
34D7
330
1E
100
AcDbEntity
  8
0
100
AcDbLine
 10
5.31734209702323
 20
4.246956134691487
 30
0.0
 11
5.291101939542915
 21
4.283692355163928
 31
0.0
  0
POLYLINE
  5
34D8
330
1E
100
AcDbEntity
  8
0
100
AcDb2dPolyline
 66
     1
 10
0.0
 20
0.0
 30
0.0
  0
VERTEX
  5
39D5
330
34D8
100
AcDbEntity
  8
0
100
AcDbVertex
100
AcDb2dVertex
 10
5.291101939542915
 20
4.283692355163928
 30
0.0
  0
VERTEX
  5
39D6
330
34D8
100
AcDbEntity
  8
0
100
AcDbVertex
100
AcDb2dVertex
 10
5.271421821432679
 20
4.30468448114818
 30
0.0
  0
VERTEX
  5
39D7
330
34D8
100
AcDbEntity
  8
0
100
AcDbVertex
100
AcDb2dVertex
 10
5.24649367182638
 20
4.319116567762353
 30
0.0
  0
VERTEX
  5
39D8
330
34D8
100
AcDbEntity
  8
0
100
AcDbVertex
100
AcDb2dVertex
 10
5.217629498598033
 20
4.325676607132431
 30
0.0
  0
SEQEND
  5
39D9
330
34D8
100
AcDbEntity
  8
0
  0
LINE
  5
34DE
330
1E
100
AcDbEntity
  8
0
100
AcDbLine
 10
5.209757451353938
 20
4.326988615006447
 30
0.0
 11
5.217629498598033
 21
4.325676607132431
 31
0.0
  0
LINE
  5
34DF
330
1E
100
AcDbEntity
  8
0
100
AcDbLine
 10
5.209757451353938
 20
4.326988615006447
 30
0.0
 11
5.209757451353938
 21
4.296812433904085
 31
0.0
  0
LINE
  5
34E0
330
1E
100
AcDbEntity
  8
0
100
AcDbLine
 10
5.211069459227955
 20
4.292876410282039
 30
0.0
 11
5.209757451353938
 21
4.296812433904085
 31
0.0
  0
POLYLINE
  5
34E1
330
1E
100
AcDbEntity
  8
0
100
AcDb2dPolyline
 66
     1
 10
0.0
 20
0.0
 30
0.0
  0
VERTEX
  5
39DA
330
34E1
100
AcDbEntity
  8
0
100
AcDbVertex
100
AcDb2dVertex
 10
5.221565522220081
 20
4.256140189809596
 30
0.0
  0
VERTEX
  5
39DB
330
34E1
100
AcDbEntity
  8
0
100
AcDbVertex
100
AcDb2dVertex
 10
5.220253514346064
 20
4.275820307919833
 30
0.0
  0
VERTEX
  5
39DC
330
34E1
100
AcDbEntity
  8
0
100
AcDbVertex
100
AcDb2dVertex
 10
5.211069459227955
 20
4.292876410282039
 30
0.0
  0
SEQEND
  5
39DD
330
34E1
100
AcDbEntity
  8
0
  0
LINE
  5
34E6
330
1E
100
AcDbEntity
  8
0
100
AcDbLine
 10
5.221565522220081
 20
4.256140189809596
 30
0.0
 11
5.221565522220081
 21
4.24564412681747
 31
0.0
  0
LINE
  5
34E7
330
1E
100
AcDbEntity
  8
0
100
AcDbLine
 10
5.453790915920867
 20
4.204971882722983
 30
0.0
 11
5.453790915920867
 21
4.183979756738731
 31
0.0
  0
POLYLINE
  5
34E8
330
1E
100
AcDbEntity
  8
0
100
AcDb2dPolyline
 66
     1
 10
0.0
 20
0.0
 30
0.0
  0
VERTEX
  5
39DE
330
34E8
100
AcDbEntity
  8
0
100
AcDbVertex
100
AcDb2dVertex
 10
5.453790915920867
 20
4.204971882722984
 30
0.0
  0
VERTEX
  5
39DF
330
34E8
100
AcDbEntity
  8
0
100
AcDbVertex
100
AcDb2dVertex
 10
5.449854892298821
 20
4.21546794571511
 30
0.0
  0
VERTEX
  5
39E0
330
34E8
100
AcDbEntity
  8
0
100
AcDbVertex
100
AcDb2dVertex
 10
5.439358829306695
 20
4.220715977211172
 30
0.0
  0
SEQEND
  5
39E1
330
34E8
100
AcDbEntity
  8
0
  0
LINE
  5
34ED
330
1E
100
AcDbEntity
  8
0
100
AcDbLine
 10
5.364574380487797
 20
4.220715977211172
 30
0.0
 11
5.439358829306695
 21
4.220715977211172
 31
0.0
  0
POLYLINE
  5
34EE
330
1E
100
AcDbEntity
  8
0
100
AcDb2dPolyline
 66
     1
 10
0.0
 20
0.0
 30
0.0
  0
VERTEX
  5
39E2
330
34EE
100
AcDbEntity
  8
0
100
AcDbVertex
100
AcDb2dVertex
 10
5.207133435605907
 20
4.229900032329282
 30
0.0
  0
VERTEX
  5
39E3
330
34EE
100
AcDbEntity
  8
0
100
AcDbVertex
100
AcDb2dVertex
 10
5.217629498598033
 20
4.235148063825344
 30
0.0
  0
VERTEX
  5
39E4
330
34EE
100
AcDbEntity
  8
0
100
AcDbVertex
100
AcDb2dVertex
 10
5.221565522220081
 20
4.24564412681747
 30
0.0
  0
SEQEND
  5
39E5
330
34EE
100
AcDbEntity
  8
0
  0
LINE
  5
34F3
330
1E
100
AcDbEntity
  8
0
100
AcDbLine
 10
5.027388356865749
 20
4.225964008707235
 30
0.0
 11
5.207133435605907
 21
4.229900032329282
 31
0.0
  0
LINE
  5
34F4
330
1E
100
AcDbEntity
  8
0
100
AcDbLine
 10
5.439358829306695
 20
4.169547670124558
 30
0.0
 11
5.027388356865749
 21
4.140683496896211
 31
0.0
  0
POLYLINE
  5
34F5
330
1E
100
AcDbEntity
  8
0
100
AcDb2dPolyline
 66
     1
 10
0.0
 20
0.0
 30
0.0
  0
VERTEX
  5
39E6
330
34F5
100
AcDbEntity
  8
0
100
AcDbVertex
100
AcDb2dVertex
 10
5.439358829306695
 20
4.169547670124558
 30
0.0
  0
VERTEX
  5
39E7
330
34F5
100
AcDbEntity
  8
0
100
AcDbVertex
100
AcDb2dVertex
 10
5.449854892298821
 20
4.174795701620621
 30
0.0
  0
VERTEX
  5
39E8
330
34F5
100
AcDbEntity
  8
0
100
AcDbVertex
100
AcDb2dVertex
 10
5.453790915920867
 20
4.183979756738732
 30
0.0
  0
SEQEND
  5
39E9
330
34F5
100
AcDbEntity
  8
0
  0
LINE
  5
34FA
330
1E
100
AcDbEntity
  8
0
100
AcDbLine
 10
4.699386388361812
 20
5.355602788234794
 30
0.0
 11
4.702010404109844
 21
5.355602788234794
 31
0.0
  0
LINE
  5
34FB
330
1E
100
AcDbEntity
  8
0
100
AcDbLine
 10
4.699386388361812
 20
5.08532916618755
 30
0.0
 11
4.699386388361812
 21
5.325426607132432
 31
0.0
  0
LINE
  5
34FC
330
1E
100
AcDbEntity
  8
0
100
AcDbLine
 10
4.699386388361812
 20
5.08532916618755
 30
0.0
 11
4.702010404109844
 21
5.08532916618755
 31
0.0
  0
LINE
  5
34FD
330
1E
100
AcDbEntity
  8
0
100
AcDbLine
 10
4.702010404109844
 20
5.325426607132432
 30
0.0
 11
4.699386388361812
 21
5.325426607132432
 31
0.0
  0
LINE
  5
34FE
330
1E
100
AcDbEntity
  8
0
100
AcDbLine
 10
4.702010404109844
 20
5.055152985085188
 30
0.0
 11
4.699386388361812
 21
5.055152985085188
 31
0.0
  0
POLYLINE
  5
34FF
330
1E
100
AcDbEntity
  8
0
100
AcDb2dPolyline
 66
     1
 10
0.0
 20
0.0
 30
0.0
  0
VERTEX
  5
39EA
330
34FF
100
AcDbEntity
  8
0
100
AcDbVertex
100
AcDb2dVertex
 10
4.699386388361812
 20
5.055152985085188
 30
0.0
  0
VERTEX
  5
39EB
330
34FF
100
AcDbEntity
  8
0
100
AcDbVertex
100
AcDb2dVertex
 10
4.699386388361812
 20
5.059089008707235
 30
0.0
  0
VERTEX
  5
39EC
330
34FF
100
AcDbEntity
  8
0
100
AcDbVertex
100
AcDb2dVertex
 10
4.699386388361812
 20
5.069585071699362
 30
0.0
  0
VERTEX
  5
39ED
330
34FF
100
AcDbEntity
  8
0
100
AcDbVertex
100
AcDb2dVertex
 10
4.699386388361812
 20
5.08532916618755
 30
0.0
  0
SEQEND
  5
39EE
330
34FF
100
AcDbEntity
  8
0
  0
POLYLINE
  5
3505
330
1E
100
AcDbEntity
  8
0
100
AcDb2dPolyline
 66
     1
 10
0.0
 20
0.0
 30
0.0
  0
VERTEX
  5
39EF
330
3505
100
AcDbEntity
  8
0
100
AcDbVertex
100
AcDb2dVertex
 10
4.699386388361812
 20
5.325426607132432
 30
0.0
  0
VERTEX
  5
39F0
330
3505
100
AcDbEntity
  8
0
100
AcDbVertex
100
AcDb2dVertex
 10
4.699386388361812
 20
5.341170701620621
 30
0.0
  0
VERTEX
  5
39F1
330
3505
100
AcDbEntity
  8
0
100
AcDbVertex
100
AcDb2dVertex
 10
4.699386388361812
 20
5.351666764612747
 30
0.0
  0
VERTEX
  5
39F2
330
3505
100
AcDbEntity
  8
0
100
AcDbVertex
100
AcDb2dVertex
 10
4.699386388361812
 20
5.355602788234794
 30
0.0
  0
SEQEND
  5
39F3
330
3505
100
AcDbEntity
  8
0
  0
POLYLINE
  5
350B
330
1E
100
AcDbEntity
  8
0
100
AcDb2dPolyline
 66
     1
 10
0.0
 20
0.0
 30
0.0
  0
VERTEX
  5
39F4
330
350B
100
AcDbEntity
  8
0
100
AcDbVertex
100
AcDb2dVertex
 10
5.040508435605907
 20
5.09451322130566
 30
0.0
  0
VERTEX
  5
39F5
330
350B
100
AcDbEntity
  8
0
100
AcDbVertex
100
AcDb2dVertex
 10
5.037884419857875
 20
5.09451322130566
 30
0.0
  0
VERTEX
  5
39F6
330
350B
100
AcDbEntity
  8
0
100
AcDbVertex
100
AcDb2dVertex
 10
5.027388356865749
 20
5.09451322130566
 30
0.0
  0
SEQEND
  5
39F7
330
350B
100
AcDbEntity
  8
0
  0
LINE
  5
3510
330
1E
100
AcDbEntity
  8
0
100
AcDbLine
 10
5.040508435605907
 20
5.136497473274165
 30
0.0
 11
5.040508435605907
 21
5.09451322130566
 31
0.0
  0
POLYLINE
  5
3511
330
1E
100
AcDbEntity
  8
0
100
AcDb2dPolyline
 66
     1
 10
0.0
 20
0.0
 30
0.0
  0
VERTEX
  5
39F8
330
3511
100
AcDbEntity
  8
0
100
AcDbVertex
100
AcDb2dVertex
 10
5.027388356865749
 20
5.136497473274165
 30
0.0
  0
VERTEX
  5
39F9
330
3511
100
AcDbEntity
  8
0
100
AcDbVertex
100
AcDb2dVertex
 10
5.037884419857875
 20
5.136497473274165
 30
0.0
  0
VERTEX
  5
39FA
330
3511
100
AcDbEntity
  8
0
100
AcDbVertex
100
AcDb2dVertex
 10
5.040508435605907
 20
5.136497473274165
 30
0.0
  0
SEQEND
  5
39FB
330
3511
100
AcDbEntity
  8
0
  0
LINE
  5
3516
330
1E
100
AcDbEntity
  8
0
100
AcDbLine
 10
5.040508435605907
 20
5.09451322130566
 30
0.0
 11
5.027388356865749
 21
5.08795318193558
 31
0.0
  0
LINE
  5
3517
330
1E
100
AcDbEntity
  8
0
100
AcDbLine
 10
4.858139341117718
 20
7.722464992959203
 30
0.0
 11
5.027388356865749
 21
7.725089008707236
 31
0.0
  0
LINE
  5
3518
330
1E
100
AcDbEntity
  8
0
100
AcDbLine
 10
5.027388356865749
 20
3.220965977211172
 30
0.0
 11
4.858139341117718
 21
3.223589992959203
 31
0.0
  0
POLYLINE
  5
3519
330
1E
100
AcDbEntity
  8
0
100
AcDb2dPolyline
 66
     1
 10
0.0
 20
0.0
 30
0.0
  0
VERTEX
  5
39FC
330
3519
100
AcDbEntity
  8
0
100
AcDbVertex
100
AcDb2dVertex
 10
4.699386388361812
 20
3.712968929967077
 30
0.0
  0
VERTEX
  5
39FD
330
3519
100
AcDbEntity
  8
0
100
AcDbVertex
100
AcDb2dVertex
 10
4.699386388361812
 20
3.698536843352904
 30
0.0
  0
VERTEX
  5
39FE
330
3519
100
AcDbEntity
  8
0
100
AcDbVertex
100
AcDb2dVertex
 10
4.699386388361812
 20
3.686728772486763
 30
0.0
  0
VERTEX
  5
39FF
330
3519
100
AcDbEntity
  8
0
100
AcDbVertex
100
AcDb2dVertex
 10
4.699386388361812
 20
3.682792748864716
 30
0.0
  0
SEQEND
  5
3A00
330
3519
100
AcDbEntity
  8
0
  0
LINE
  5
351F
330
1E
100
AcDbEntity
  8
0
100
AcDbLine
 10
4.699386388361812
 20
3.953066370911959
 30
0.0
 11
4.699386388361812
 21
3.712968929967077
 31
0.0
  0
POLYLINE
  5
3520
330
1E
100
AcDbEntity
  8
0
100
AcDb2dPolyline
 66
     1
 10
0.0
 20
0.0
 30
0.0
  0
VERTEX
  5
3A01
330
3520
100
AcDbEntity
  8
0
100
AcDbVertex
100
AcDb2dVertex
 10
4.699386388361812
 20
3.983242552014321
 30
0.0
  0
VERTEX
  5
3A02
330
3520
100
AcDbEntity
  8
0
100
AcDbVertex
100
AcDb2dVertex
 10
4.699386388361812
 20
3.979306528392274
 30
0.0
  0
VERTEX
  5
3A03
330
3520
100
AcDbEntity
  8
0
100
AcDbVertex
100
AcDb2dVertex
 10
4.699386388361812
 20
3.968810465400148
 30
0.0
  0
VERTEX
  5
3A04
330
3520
100
AcDbEntity
  8
0
100
AcDbVertex
100
AcDb2dVertex
 10
4.699386388361812
 20
3.953066370911959
 30
0.0
  0
SEQEND
  5
3A05
330
3520
100
AcDbEntity
  8
0
  0
LINE
  5
3526
330
1E
100
AcDbEntity
  8
0
100
AcDbLine
 10
4.702010404109844
 20
3.983242552014321
 30
0.0
 11
4.699386388361812
 21
3.983242552014321
 31
0.0
  0
LINE
  5
3527
330
1E
100
AcDbEntity
  8
0
100
AcDbLine
 10
4.699386388361812
 20
3.953066370911959
 30
0.0
 11
4.702010404109844
 21
3.953066370911959
 31
0.0
  0
LINE
  5
3528
330
1E
100
AcDbEntity
  8
0
100
AcDbLine
 10
4.702010404109844
 20
3.712968929967077
 30
0.0
 11
4.699386388361812
 21
3.712968929967077
 31
0.0
  0
LINE
  5
3529
330
1E
100
AcDbEntity
  8
0
100
AcDbLine
 10
4.699386388361812
 20
3.682792748864715
 30
0.0
 11
4.702010404109844
 21
3.682792748864715
 31
0.0
  0
POLYLINE
  5
352A
330
1E
100
AcDbEntity
  8
0
100
AcDb2dPolyline
 66
     1
 10
0.0
 20
0.0
 30
0.0
  0
VERTEX
  5
3A06
330
352A
100
AcDbEntity
  8
0
100
AcDbVertex
100
AcDb2dVertex
 10
4.699386388361812
 20
6.962812433904086
 30
0.0
  0
VERTEX
  5
3A07
330
352A
100
AcDbEntity
  8
0
100
AcDbVertex
100
AcDb2dVertex
 10
4.699386388361812
 20
6.966748457526132
 30
0.0
  0
VERTEX
  5
3A08
330
352A
100
AcDbEntity
  8
0
100
AcDbVertex
100
AcDb2dVertex
 10
4.699386388361812
 20
6.978556528392274
 30
0.0
  0
VERTEX
  5
3A09
330
352A
100
AcDbEntity
  8
0
100
AcDbVertex
100
AcDb2dVertex
 10
4.699386388361812
 20
6.992988615006448
 30
0.0
  0
SEQEND
  5
3A0A
330
352A
100
AcDbEntity
  8
0
  0
LINE
  5
3530
330
1E
100
AcDbEntity
  8
0
100
AcDbLine
 10
4.699386388361812
 20
6.992988615006447
 30
0.0
 11
4.699386388361812
 21
7.233086055951329
 31
0.0
  0
POLYLINE
  5
3531
330
1E
100
AcDbEntity
  8
0
100
AcDb2dPolyline
 66
     1
 10
0.0
 20
0.0
 30
0.0
  0
VERTEX
  5
3A0B
330
3531
100
AcDbEntity
  8
0
100
AcDbVertex
100
AcDb2dVertex
 10
4.699386388361812
 20
7.233086055951329
 30
0.0
  0
VERTEX
  5
3A0C
330
3531
100
AcDbEntity
  8
0
100
AcDbVertex
100
AcDb2dVertex
 10
4.699386388361812
 20
7.248830150439519
 30
0.0
  0
VERTEX
  5
3A0D
330
3531
100
AcDbEntity
  8
0
100
AcDbVertex
100
AcDb2dVertex
 10
4.699386388361812
 20
7.259326213431644
 30
0.0
  0
VERTEX
  5
3A0E
330
3531
100
AcDbEntity
  8
0
100
AcDbVertex
100
AcDb2dVertex
 10
4.699386388361812
 20
7.263262237053692
 30
0.0
  0
SEQEND
  5
3A0F
330
3531
100
AcDbEntity
  8
0
  0
LINE
  5
3537
330
1E
100
AcDbEntity
  8
0
100
AcDbLine
 10
4.702010404109844
 20
6.962812433904085
 30
0.0
 11
4.699386388361812
 21
6.962812433904085
 31
0.0
  0
LINE
  5
3538
330
1E
100
AcDbEntity
  8
0
100
AcDbLine
 10
4.699386388361812
 20
6.992988615006447
 30
0.0
 11
4.702010404109844
 21
6.992988615006447
 31
0.0
  0
LINE
  5
3539
330
1E
100
AcDbEntity
  8
0
100
AcDbLine
 10
4.702010404109844
 20
7.233086055951329
 30
0.0
 11
4.699386388361812
 21
7.233086055951329
 31
0.0
  0
LINE
  5
353A
330
1E
100
AcDbEntity
  8
0
100
AcDbLine
 10
4.699386388361812
 20
7.263262237053692
 30
0.0
 11
4.702010404109844
 21
7.263262237053692
 31
0.0
  0
POLYLINE
  5
353B
330
1E
100
AcDbEntity
  8
0
100
AcDb2dPolyline
 66
     1
 10
0.0
 20
0.0
 30
0.0
  0
VERTEX
  5
3A10
330
353B
100
AcDbEntity
  8
0
100
AcDbVertex
100
AcDb2dVertex
 10
4.858139341117718
 20
7.722464992959204
 30
0.0
  0
VERTEX
  5
3A11
330
353B
100
AcDbEntity
  8
0
100
AcDbVertex
100
AcDb2dVertex
 10
4.858139341117718
 20
7.71459294571511
 30
0.0
  0
VERTEX
  5
3A12
330
353B
100
AcDbEntity
  8
0
100
AcDbVertex
100
AcDb2dVertex
 10
4.858139341117718
 20
7.692288811856841
 30
0.0
  0
SEQEND
  5
3A13
330
353B
100
AcDbEntity
  8
0
  0
LINE
  5
3540
330
1E
100
AcDbEntity
  8
0
100
AcDbLine
 10
4.858139341117718
 20
3.253766174061565
 30
0.0
 11
4.858139341117718
 21
7.69228881185684
 31
0.0
  0
POLYLINE
  5
3541
330
1E
100
AcDbEntity
  8
0
100
AcDb2dPolyline
 66
     1
 10
0.0
 20
0.0
 30
0.0
  0
VERTEX
  5
3A14
330
3541
100
AcDbEntity
  8
0
100
AcDbVertex
100
AcDb2dVertex
 10
4.858139341117718
 20
3.223589992959203
 30
0.0
  0
VERTEX
  5
3A15
330
3541
100
AcDbEntity
  8
0
100
AcDbVertex
100
AcDb2dVertex
 10
4.858139341117718
 20
3.232774048077313
 30
0.0
  0
VERTEX
  5
3A16
330
3541
100
AcDbEntity
  8
0
100
AcDbVertex
100
AcDb2dVertex
 10
4.858139341117718
 20
3.253766174061565
 30
0.0
  0
SEQEND
  5
3A17
330
3541
100
AcDbEntity
  8
0
  0
LINE
  5
3546
330
1E
100
AcDbEntity
  8
0
100
AcDbLine
 10
4.702010404109844
 20
3.408583103195423
 30
0.0
 11
4.702010404109844
 21
7.537471882722984
 31
0.0
  0
LINE
  5
3547
330
1E
100
AcDbEntity
  8
0
100
AcDbLine
 10
4.829275167889371
 20
7.660800622880463
 30
0.0
 11
4.829275167889371
 21
3.285254363037943
 31
0.0
  0
LINE
  5
3548
330
1E
100
AcDbEntity
  8
0
100
AcDbLine
 10
4.833211191511419
 20
3.253766174061565
 30
0.0
 11
4.829275167889371
 21
3.285254363037943
 31
0.0
  0
LINE
  5
3549
330
1E
100
AcDbEntity
  8
0
100
AcDbLine
 10
4.858139341117718
 20
3.253766174061565
 30
0.0
 11
4.833211191511419
 21
3.253766174061565
 31
0.0
  0
LINE
  5
354A
330
1E
100
AcDbEntity
  8
0
100
AcDbLine
 10
4.858139341117718
 20
7.69228881185684
 30
0.0
 11
4.833211191511419
 21
7.69228881185684
 31
0.0
  0
LINE
  5
354B
330
1E
100
AcDbEntity
  8
0
100
AcDbLine
 10
4.833211191511419
 20
7.69228881185684
 30
0.0
 11
4.829275167889371
 21
7.660800622880463
 31
0.0
  0
LINE
  5
354C
330
1E
100
AcDbEntity
  8
0
100
AcDbLine
 10
4.724314537968112
 20
7.537471882722984
 30
0.0
 11
4.724314537968112
 21
3.408583103195423
 31
0.0
  0
LINE
  5
354D
330
1E
100
AcDbEntity
  8
0
100
AcDbLine
 10
4.829275167889371
 20
3.285254363037943
 30
0.0
 11
4.724314537968112
 21
3.408583103195423
 31
0.0
  0
LINE
  5
354E
330
1E
100
AcDbEntity
  8
0
100
AcDbLine
 10
4.829275167889371
 20
7.660800622880463
 30
0.0
 11
4.724314537968112
 21
7.537471882722984
 31
0.0
  0
POLYLINE
  5
354F
330
1E
100
AcDbEntity
  8
0
100
AcDb2dPolyline
 66
     1
 10
0.0
 20
0.0
 30
0.0
  0
VERTEX
  5
3A18
330
354F
100
AcDbEntity
  8
0
100
AcDbVertex
100
AcDb2dVertex
 10
4.702010404109844
 20
3.408583103195423
 30
0.0
  0
VERTEX
  5
3A19
330
354F
100
AcDbEntity
  8
0
100
AcDbVertex
100
AcDb2dVertex
 10
4.708570443479922
 20
3.408583103195423
 30
0.0
  0
VERTEX
  5
3A1A
330
354F
100
AcDbEntity
  8
0
100
AcDbVertex
100
AcDb2dVertex
 10
4.724314537968112
 20
3.408583103195423
 30
0.0
  0
SEQEND
  5
3A1B
330
354F
100
AcDbEntity
  8
0
  0
POLYLINE
  5
3554
330
1E
100
AcDbEntity
  8
0
100
AcDb2dPolyline
 66
     1
 10
0.0
 20
0.0
 30
0.0
  0
VERTEX
  5
3A1C
330
3554
100
AcDbEntity
  8
0
100
AcDbVertex
100
AcDb2dVertex
 10
4.702010404109844
 20
7.537471882722983
 30
0.0
  0
VERTEX
  5
3A1D
330
3554
100
AcDbEntity
  8
0
100
AcDbVertex
100
AcDb2dVertex
 10
4.708570443479922
 20
7.537471882722983
 30
0.0
  0
VERTEX
  5
3A1E
330
3554
100
AcDbEntity
  8
0
100
AcDbVertex
100
AcDb2dVertex
 10
4.724314537968112
 20
7.537471882722983
 30
0.0
  0
SEQEND
  5
3A1F
330
3554
100
AcDbEntity
  8
0
  0
POLYLINE
  5
3559
330
1E
100
AcDbEntity
  8
0
100
AcDb2dPolyline
 66
     1
 10
0.0
 20
0.0
 30
0.0
  0
VERTEX
  5
3A20
330
3559
100
AcDbEntity
  8
0
100
AcDbVertex
100
AcDb2dVertex
 10
4.724314537968112
 20
7.537471882722983
 30
0.0
  0
VERTEX
  5
3A21
330
3559
100
AcDbEntity
  8
0
100
AcDbVertex
100
AcDb2dVertex
 10
4.716442490724018
 20
7.571584087447393
 30
0.0
  0
VERTEX
  5
3A22
330
3559
100
AcDbEntity
  8
0
100
AcDbVertex
100
AcDb2dVertex
 10
4.724314537968112
 20
7.599136252801723
 30
0.0
  0
SEQEND
  5
3A23
330
3559
100
AcDbEntity
  8
0
  0
POLYLINE
  5
355E
330
1E
100
AcDbEntity
  8
0
100
AcDb2dPolyline
 66
     1
 10
0.0
 20
0.0
 30
0.0
  0
VERTEX
  5
3A24
330
355E
100
AcDbEntity
  8
0
100
AcDbVertex
100
AcDb2dVertex
 10
4.702010404109844
 20
7.537471882722983
 30
0.0
  0
VERTEX
  5
3A25
330
355E
100
AcDbEntity
  8
0
100
AcDbVertex
100
AcDb2dVertex
 10
4.708570443479922
 20
7.570272079573377
 30
0.0
  0
VERTEX
  5
3A26
330
355E
100
AcDbEntity
  8
0
100
AcDbVertex
100
AcDb2dVertex
 10
4.724314537968112
 20
7.599136252801723
 30
0.0
  0
SEQEND
  5
3A27
330
355E
100
AcDbEntity
  8
0
  0
POLYLINE
  5
3563
330
1E
100
AcDbEntity
  8
0
100
AcDb2dPolyline
 66
     1
 10
0.0
 20
0.0
 30
0.0
  0
VERTEX
  5
3A28
330
3563
100
AcDbEntity
  8
0
100
AcDbVertex
100
AcDb2dVertex
 10
4.833211191511419
 20
7.692288811856841
 30
0.0
  0
VERTEX
  5
3A29
330
3563
100
AcDbEntity
  8
0
100
AcDbVertex
100
AcDb2dVertex
 10
4.833211191511419
 20
7.697536843352904
 30
0.0
  0
VERTEX
  5
3A2A
330
3563
100
AcDbEntity
  8
0
100
AcDbVertex
100
AcDb2dVertex
 10
4.834523199385434
 20
7.706720898471014
 30
0.0
  0
VERTEX
  5
3A2B
330
3563
100
AcDbEntity
  8
0
100
AcDbVertex
100
AcDb2dVertex
 10
4.834523199385434
 20
7.710656922093062
 30
0.0
  0
VERTEX
  5
3A2C
330
3563
100
AcDbEntity
  8
0
100
AcDbVertex
100
AcDb2dVertex
 10
4.834523199385434
 20
7.717216961463141
 30
0.0
  0
VERTEX
  5
3A2D
330
3563
100
AcDbEntity
  8
0
100
AcDbVertex
100
AcDb2dVertex
 10
4.834523199385434
 20
7.721152985085189
 30
0.0
  0
VERTEX
  5
3A2E
330
3563
100
AcDbEntity
  8
0
100
AcDbVertex
100
AcDb2dVertex
 10
4.833211191511419
 20
7.722464992959204
 30
0.0
  0
SEQEND
  5
3A2F
330
3563
100
AcDbEntity
  8
0
  0
LINE
  5
356C
330
1E
100
AcDbEntity
  8
0
100
AcDbLine
 10
4.829275167889371
 20
7.722464992959203
 30
0.0
 11
4.833211191511419
 21
7.722464992959203
 31
0.0
  0
LINE
  5
356D
330
1E
100
AcDbEntity
  8
0
100
AcDbLine
 10
4.724314537968112
 20
7.599136252801723
 30
0.0
 11
4.829275167889371
 21
7.722464992959203
 31
0.0
  0
LINE
  5
356E
330
1E
100
AcDbEntity
  8
0
100
AcDbLine
 10
4.833211191511419
 20
7.722464992959203
 30
0.0
 11
4.858139341117718
 21
7.722464992959203
 31
0.0
  0
POLYLINE
  5
356F
330
1E
100
AcDbEntity
  8
0
100
AcDb2dPolyline
 66
     1
 10
0.0
 20
0.0
 30
0.0
  0
VERTEX
  5
3A30
330
356F
100
AcDbEntity
  8
0
100
AcDbVertex
100
AcDb2dVertex
 10
4.702010404109844
 20
3.408583103195423
 30
0.0
  0
VERTEX
  5
3A31
330
356F
100
AcDbEntity
  8
0
100
AcDbVertex
100
AcDb2dVertex
 10
4.708570443479922
 20
3.377094914219045
 30
0.0
  0
VERTEX
  5
3A32
330
356F
100
AcDbEntity
  8
0
100
AcDbVertex
100
AcDb2dVertex
 10
4.724314537968112
 20
3.348230740990699
 30
0.0
  0
SEQEND
  5
3A33
330
356F
100
AcDbEntity
  8
0
  0
POLYLINE
  5
3574
330
1E
100
AcDbEntity
  8
0
100
AcDb2dPolyline
 66
     1
 10
0.0
 20
0.0
 30
0.0
  0
VERTEX
  5
3A34
330
3574
100
AcDbEntity
  8
0
100
AcDbVertex
100
AcDb2dVertex
 10
4.724314537968112
 20
3.408583103195423
 30
0.0
  0
VERTEX
  5
3A35
330
3574
100
AcDbEntity
  8
0
100
AcDbVertex
100
AcDb2dVertex
 10
4.716442490724018
 20
3.374470898471014
 30
0.0
  0
VERTEX
  5
3A36
330
3574
100
AcDbEntity
  8
0
100
AcDbVertex
100
AcDb2dVertex
 10
4.724314537968112
 20
3.348230740990699
 30
0.0
  0
SEQEND
  5
3A37
330
3574
100
AcDbEntity
  8
0
  0
LINE
  5
3579
330
1E
100
AcDbEntity
  8
0
100
AcDbLine
 10
4.724314537968112
 20
3.348230740990699
 30
0.0
 11
4.829275167889371
 21
3.223589992959203
 31
0.0
  0
LINE
  5
357A
330
1E
100
AcDbEntity
  8
0
100
AcDbLine
 10
4.829275167889371
 20
3.223589992959203
 30
0.0
 11
4.833211191511419
 21
3.223589992959203
 31
0.0
  0
POLYLINE
  5
357B
330
1E
100
AcDbEntity
  8
0
100
AcDb2dPolyline
 66
     1
 10
0.0
 20
0.0
 30
0.0
  0
VERTEX
  5
3A38
330
357B
100
AcDbEntity
  8
0
100
AcDbVertex
100
AcDb2dVertex
 10
4.833211191511419
 20
3.253766174061565
 30
0.0
  0
VERTEX
  5
3A39
330
357B
100
AcDbEntity
  8
0
100
AcDbVertex
100
AcDb2dVertex
 10
4.833211191511419
 20
3.248518142565503
 30
0.0
  0
VERTEX
  5
3A3A
330
357B
100
AcDbEntity
  8
0
100
AcDbVertex
100
AcDb2dVertex
 10
4.834523199385434
 20
3.239334087447392
 30
0.0
  0
VERTEX
  5
3A3B
330
357B
100
AcDbEntity
  8
0
100
AcDbVertex
100
AcDb2dVertex
 10
4.834523199385434
 20
3.235398063825345
 30
0.0
  0
VERTEX
  5
3A3C
330
357B
100
AcDbEntity
  8
0
100
AcDbVertex
100
AcDb2dVertex
 10
4.834523199385434
 20
3.228838024455266
 30
0.0
  0
VERTEX
  5
3A3D
330
357B
100
AcDbEntity
  8
0
100
AcDbVertex
100
AcDb2dVertex
 10
4.834523199385434
 20
3.224902000833219
 30
0.0
  0
VERTEX
  5
3A3E
330
357B
100
AcDbEntity
  8
0
100
AcDbVertex
100
AcDb2dVertex
 10
4.833211191511419
 20
3.223589992959203
 30
0.0
  0
SEQEND
  5
3A3F
330
357B
100
AcDbEntity
  8
0
  0
LINE
  5
3584
330
1E
100
AcDbEntity
  8
0
100
AcDbLine
 10
4.833211191511419
 20
3.223589992959203
 30
0.0
 11
4.858139341117718
 21
3.223589992959203
 31
0.0
  0
ENDSEC
  0
SECTION
  2
OBJECTS
  0
DICTIONARY
  5
C
330
0
100
AcDbDictionary
  3
ACAD_GROUP
350
D
  3
ACAD_MLINESTYLE
350
16
  3
ACAD_PLOTSETTINGS
350
18
  3
ACAD_LAYOUT
350
19
1001
ACAD
1000
TREAT_AS_HARD
1070
     0
  0
DICTIONARY
  5
358C
330
1E
100
AcDbDictionary
  3
ACAD_LAYOUTSELFREF
350
358D
  0
DICTIONARY
  5
358A
330
1A
100
AcDbDictionary
  3
ACAD_LAYOUTSELFREF
350
358B
  0
DICTIONARY
  5
D
102
{ACAD_REACTORS
330
C
102
}
330
C
100
AcDbDictionary
1001
ACAD
1000
TREAT_AS_HARD
1070
     0
  0
DICTIONARY
  5
16
102
{ACAD_REACTORS
330
C
102
}
330
C
100
AcDbDictionary
  3
STANDARD
350
17
1001
ACAD
1000
TREAT_AS_HARD
1070
     0
  0
DICTIONARY
  5
18
102
{ACAD_REACTORS
330
C
102
}
330
C
100
AcDbDictionary
1001
ACAD
1000
TREAT_AS_HARD
1070
     0
  0
DICTIONARY
  5
19
102
{ACAD_REACTORS
330
C
102
}
330
C
100
AcDbDictionary
1001
ACAD
1000
TREAT_AS_HARD
1070
     0
  0
XRECORD
  5
358D
102
{ACAD_REACTORS
330
358C
102
}
330
358C
100
AcDbXrecord
340
1E
  0
XRECORD
  5
358B
102
{ACAD_REACTORS
330
358A
102
}
330
358A
100
AcDbXrecord
340
1A
  0
MLINESTYLE
  5
17
102
{ACAD_REACTORS
330
16
102
}
330
16
100
AcDbMlineStyle
  2
STANDARD
 70
     0
  3

 62
   256
 51
90.0
 52
90.0
 71
     2
 49
0.5
 62
   256
  6
BYLAYER
 49
-0.5
 62
   256
  6
BYLAYER
  0
ENDSEC
  0
EOF
