  0
SECTION
  2
HEADER
  9
$ACADVER
  1
AC1015
  9
$ACADMAINTVER
 70
     6
  9
$DWGCODEPAGE
  3
ANSI_1252
  9
$INSBASE
 10
0.0
 20
0.0
 30
0.0
  9
$EXTMIN
 10
9.009338417334177
 20
2.455169701547326
 30
-0.0015258207003583
  9
$EXTMAX
 10
10.11071779917776
 20
4.396316543915677
 30
0.0000000349246037
  9
$LIMMIN
 10
0.0
 20
0.0
  9
$LIMMAX
 10
12.0
 20
9.0
  9
$ORTHOMODE
 70
     0
  9
$REGENMODE
 70
     1
  9
$FILLMODE
 70
     1
  9
$QTEXTMODE
 70
     0
  9
$MIRRTEXT
 70
     1
  9
$LTSCALE
 40
1.0
  9
$ATTMODE
 70
     1
  9
$TEXTSIZE
 40
0.2
  9
$TRACEWID
 40
0.05
  9
$TEXTSTYLE
  7
STANDARD
  9
$CLAYER
  8
0
  9
$CELTYPE
  6
ByLayer
  9
$CECOLOR
 62
   256
  9
$CELTSCALE
 40
1.0
  9
$DISPSILH
 70
     0
  9
$DIMSCALE
 40
1.0
  9
$DIMASZ
 40
0.18
  9
$DIMEXO
 40
0.0625
  9
$DIMDLI
 40
0.38
  9
$DIMRND
 40
0.0
  9
$DIMDLE
 40
0.0
  9
$DIMEXE
 40
0.18
  9
$DIMTP
 40
0.0
  9
$DIMTM
 40
0.0
  9
$DIMTXT
 40
0.18
  9
$DIMCEN
 40
0.09
  9
$DIMTSZ
 40
0.0
  9
$DIMTOL
 70
     0
  9
$DIMLIM
 70
     0
  9
$DIMTIH
 70
     1
  9
$DIMTOH
 70
     1
  9
$DIMSE1
 70
     0
  9
$DIMSE2
 70
     0
  9
$DIMTAD
 70
     0
  9
$DIMZIN
 70
     0
  9
$DIMBLK
  1

  9
$DIMASO
 70
     1
  9
$DIMSHO
 70
     1
  9
$DIMPOST
  1

  9
$DIMAPOST
  1

  9
$DIMALT
 70
     0
  9
$DIMALTD
 70
     2
  9
$DIMALTF
 40
25.4
  9
$DIMLFAC
 40
1.0
  9
$DIMTOFL
 70
     0
  9
$DIMTVP
 40
0.0
  9
$DIMTIX
 70
     0
  9
$DIMSOXD
 70
     0
  9
$DIMSAH
 70
     0
  9
$DIMBLK1
  1

  9
$DIMBLK2
  1

  9
$DIMSTYLE
  2
Standard
  9
$DIMCLRD
 70
     0
  9
$DIMCLRE
 70
     0
  9
$DIMCLRT
 70
     0
  9
$DIMTFAC
 40
1.0
  9
$DIMGAP
 40
0.09
  9
$DIMJUST
 70
     0
  9
$DIMSD1
 70
     0
  9
$DIMSD2
 70
     0
  9
$DIMTOLJ
 70
     1
  9
$DIMTZIN
 70
     0
  9
$DIMALTZ
 70
     0
  9
$DIMALTTZ
 70
     0
  9
$DIMUPT
 70
     0
  9
$DIMDEC
 70
     4
  9
$DIMTDEC
 70
     4
  9
$DIMALTU
 70
     2
  9
$DIMALTTD
 70
     2
  9
$DIMTXSTY
  7
STANDARD
  9
$DIMAUNIT
 70
     0
  9
$DIMADEC
 70
     0
  9
$DIMALTRND
 40
0.0
  9
$DIMAZIN
 70
     0
  9
$DIMDSEP
 70
    46
  9
$DIMATFIT
 70
     3
  9
$DIMFRAC
 70
     0
  9
$DIMLDRBLK
  1

  9
$DIMLUNIT
 70
     2
  9
$DIMLWD
 70
    -2
  9
$DIMLWE
 70
    -2
  9
$DIMTMOVE
 70
     2
  9
$LUNITS
 70
     2
  9
$LUPREC
 70
     4
  9
$SKETCHINC
 40
0.1
  9
$FILLETRAD
 40
0.0
  9
$AUNITS
 70
     0
  9
$AUPREC
 70
     0
  9
$MENU
  1
acad
  9
$ELEVATION
 40
0.0
  9
$PELEVATION
 40
0.0
  9
$THICKNESS
 40
0.0
  9
$LIMCHECK
 70
     0
  9
$CHAMFERA
 40
0.0
  9
$CHAMFERB
 40
0.0
  9
$CHAMFERC
 40
0.0
  9
$CHAMFERD
 40
0.0
  9
$SKPOLY
 70
     0
  9
$TDCREATE
 40
2452507.406481481
  9
$TDUCREATE
 40
2452507.614814814
  9
$TDUPDATE
 40
2452507.464877291
  9
$TDUUPDATE
 40
2452507.673210625
  9
$TDINDWG
 40
0.0003492130
  9
$TDUSRTIMER
 40
0.0003492130
  9
$USRTIMER
 70
     1
  9
$ANGBASE
 50
0.0
  9
$ANGDIR
 70
     0
  9
$PDMODE
 70
     0
  9
$PDSIZE
 40
0.0
  9
$PLINEWID
 40
0.0
  9
$SPLFRAME
 70
     0
  9
$SPLINETYPE
 70
     6
  9
$SPLINESEGS
 70
     8
  9
$HANDSEED
  5
876
  9
$SURFTAB1
 70
     6
  9
$SURFTAB2
 70
     6
  9
$SURFTYPE
 70
     6
  9
$SURFU
 70
     6
  9
$SURFV
 70
     6
  9
$UCSBASE
  2

  9
$UCSNAME
  2

  9
$UCSORG
 10
0.0
 20
0.0
 30
0.0
  9
$UCSXDIR
 10
1.0
 20
0.0
 30
0.0
  9
$UCSYDIR
 10
0.0
 20
1.0
 30
0.0
  9
$UCSORTHOREF
  2

  9
$UCSORTHOVIEW
 70
     0
  9
$UCSORGTOP
 10
0.0
 20
0.0
 30
0.0
  9
$UCSORGBOTTOM
 10
0.0
 20
0.0
 30
0.0
  9
$UCSORGLEFT
 10
0.0
 20
0.0
 30
0.0
  9
$UCSORGRIGHT
 10
0.0
 20
0.0
 30
0.0
  9
$UCSORGFRONT
 10
0.0
 20
0.0
 30
0.0
  9
$UCSORGBACK
 10
0.0
 20
0.0
 30
0.0
  9
$PUCSBASE
  2

  9
$PUCSNAME
  2

  9
$PUCSORG
 10
0.0
 20
0.0
 30
0.0
  9
$PUCSXDIR
 10
1.0
 20
0.0
 30
0.0
  9
$PUCSYDIR
 10
0.0
 20
1.0
 30
0.0
  9
$PUCSORTHOREF
  2

  9
$PUCSORTHOVIEW
 70
     0
  9
$PUCSORGTOP
 10
0.0
 20
0.0
 30
0.0
  9
$PUCSORGBOTTOM
 10
0.0
 20
0.0
 30
0.0
  9
$PUCSORGLEFT
 10
0.0
 20
0.0
 30
0.0
  9
$PUCSORGRIGHT
 10
0.0
 20
0.0
 30
0.0
  9
$PUCSORGFRONT
 10
0.0
 20
0.0
 30
0.0
  9
$PUCSORGBACK
 10
0.0
 20
0.0
 30
0.0
  9
$USERI1
 70
     0
  9
$USERI2
 70
     0
  9
$USERI3
 70
     0
  9
$USERI4
 70
     0
  9
$USERI5
 70
     0
  9
$USERR1
 40
0.0
  9
$USERR2
 40
0.0
  9
$USERR3
 40
0.0
  9
$USERR4
 40
0.0
  9
$USERR5
 40
0.0
  9
$WORLDVIEW
 70
     1
  9
$SHADEDGE
 70
     3
  9
$SHADEDIF
 70
    70
  9
$TILEMODE
 70
     1
  9
$MAXACTVP
 70
    16
  9
$PINSBASE
 10
0.0
 20
0.0
 30
0.0
  9
$PLIMCHECK
 70
     0
  9
$PEXTMIN
 10
1.000000000000000E+20
 20
1.000000000000000E+20
 30
1.000000000000000E+20
  9
$PEXTMAX
 10
-1.000000000000000E+20
 20
-1.000000000000000E+20
 30
-1.000000000000000E+20
  9
$PLIMMIN
 10
0.0
 20
0.0
  9
$PLIMMAX
 10
12.0
 20
9.0
  9
$UNITMODE
 70
     0
  9
$VISRETAIN
 70
     0
  9
$PLINEGEN
 70
     0
  9
$PSLTSCALE
 70
     1
  9
$TREEDEPTH
 70
  3020
  9
$CMLSTYLE
  2
Standard
  9
$CMLJUST
 70
     0
  9
$CMLSCALE
 40
1.0
  9
$PROXYGRAPHICS
 70
     1
  9
$MEASUREMENT
 70
     0
  9
$CELWEIGHT
370
    -1
  9
$ENDCAPS
280
     0
  9
$JOINSTYLE
280
     0
  9
$LWDISPLAY
290
     0
  9
$INSUNITS
 70
     0
  9
$HYPERLINKBASE
  1

  9
$STYLESHEET
  1

  9
$XEDIT
290
     1
  9
$CEPSNTYPE
380
     0
  9
$PSTYLEMODE
290
     1
  9
$FINGERPRINTGUID
  2
{2063D018-B457-11D6-A1C4-00B0D0A1FBDD}
  9
$VERSIONGUID
  2
{2063D01A-B457-11D6-A1C4-00B0D0A1FBDD}
  9
$EXTNAMES
290
     1
  9
$PSVPSCALE
 40
0.0
  9
$OLESTARTUP
290
     0
  0
ENDSEC
  0
SECTION
  2
CLASSES
  0
CLASS
  1
ACDBDICTIONARYWDFLT
  2
AcDbDictionaryWithDefault
  3
AutoCAD 2000
 90
        0
280
     0
281
     0
  0
CLASS
  1
ACDBPLACEHOLDER
  2
AcDbPlaceHolder
  3
AutoCAD 2000
 90
        0
280
     0
281
     0
  0
CLASS
  1
LAYOUT
  2
AcDbLayout
  3
AutoCAD 2000
 90
        0
280
     0
281
     0
  0
ENDSEC
  0
SECTION
  2
TABLES
  0
TABLE
  2
VPORT
  5
8
330
0
100
AcDbSymbolTable
 70
     3
  0
VPORT
  5
875
330
8
100
AcDbSymbolTableRecord
100
AcDbViewportTableRecord
  2
*Active
 70
     0
 10
0.0
 20
0.0
 11
1.0
 21
1.0
 12
9.56002810825597
 22
3.425743122731502
 13
0.0
 23
0.0
 14
1.0
 24
1.0
 15
0.0
 25
0.0
 16
0.0
 26
0.0
 36
1.0
 17
0.0
 27
0.0
 37
0.0
 40
1.955615017590972
 41
1.498756218905472
 42
50.0
 43
0.0
 44
0.0
 50
0.0
 51
0.0
 71
     0
 72
   100
 73
     1
 74
     1
 75
     0
 76
     0
 77
     0
 78
     0
281
     0
 65
     1
110
0.0
120
0.0
130
0.0
111
1.0
121
0.0
131
0.0
112
0.0
122
1.0
132
0.0
 79
     0
146
0.0
  0
ENDTAB
  0
TABLE
  2
LTYPE
  5
5
330
0
100
AcDbSymbolTable
 70
    25
  0
LTYPE
  5
13
330
5
100
AcDbSymbolTableRecord
100
AcDbLinetypeTableRecord
  2
ByBlock
 70
     0
  3

 72
    65
 73
     0
 40
0.0
  0
LTYPE
  5
14
330
5
100
AcDbSymbolTableRecord
100
AcDbLinetypeTableRecord
  2
ByLayer
 70
     0
  3

 72
    65
 73
     0
 40
0.0
  0
LTYPE
  5
15
330
5
100
AcDbSymbolTableRecord
100
AcDbLinetypeTableRecord
  2
CONTINUOUS
 70
     0
  3
Solid line
 72
    65
 73
     0
 40
0.0
  0
LTYPE
  5
22
330
5
100
AcDbSymbolTableRecord
100
AcDbLinetypeTableRecord
  2
BORDER
 70
     0
  3
__ __ . __ __ . __ __ . __ __ . __ __ . __ __ .
 72
    65
 73
     6
 40
1.75
 49
0.5
 74
     0
 49
-0.25
 74
     0
 49
0.5
 74
     0
 49
-0.25
 74
     0
 49
0.5
 74
     0
 49
-0.25
 74
     0
  0
LTYPE
  5
23
330
5
100
AcDbSymbolTableRecord
100
AcDbLinetypeTableRecord
  2
BORDER2
 70
     0
  3
__.__.__.__.__.__.__.__.__.__.__.__.__.__.__.__
 72
    65
 73
     6
 40
0.875
 49
0.25
 74
     0
 49
-0.125
 74
     0
 49
0.25
 74
     0
 49
-0.125
 74
     0
 49
0.25
 74
     0
 49
-0.125
 74
     0
  0
LTYPE
  5
24
330
5
100
AcDbSymbolTableRecord
100
AcDbLinetypeTableRecord
  2
BORDERX2
 70
     0
  3
____  ____  .  ____  ____  .  
 72
    65
 73
     6
 40
3.5
 49
1.0
 74
     0
 49
-0.5
 74
     0
 49
1.0
 74
     0
 49
-0.5
 74
     0
 49
1.0
 74
     0
 49
-0.5
 74
     0
  0
LTYPE
  5
25
330
5
100
AcDbSymbolTableRecord
100
AcDbLinetypeTableRecord
  2
CENTER
 70
     0
  3
____ _ ____ _ ____ _ ____ _ ____ _ ____ _ ____
 72
    65
 73
     4
 40
2.0
 49
1.25
 74
     0
 49
-0.25
 74
     0
 49
0.25
 74
     0
 49
-0.25
 74
     0
  0
LTYPE
  5
26
330
5
100
AcDbSymbolTableRecord
100
AcDbLinetypeTableRecord
  2
CENTER2
 70
     0
  3
____ _ ____ _ ____ _ ____ _ ____ _ ____ _ ____
 72
    65
 73
     4
 40
1.125
 49
0.75
 74
     0
 49
-0.125
 74
     0
 49
0.125
 74
     0
 49
-0.125
 74
     0
  0
LTYPE
  5
27
330
5
100
AcDbSymbolTableRecord
100
AcDbLinetypeTableRecord
  2
CENTERX2
 70
     0
  3
________  __  ________  __  ________  __  
 72
    65
 73
     4
 40
4.0
 49
2.5
 74
     0
 49
-0.5
 74
     0
 49
0.5
 74
     0
 49
-0.5
 74
     0
  0
LTYPE
  5
28
330
5
100
AcDbSymbolTableRecord
100
AcDbLinetypeTableRecord
  2
DASHDOT
 70
     0
  3
__ . __ . __ . __ . __ . __ . __ . 
 72
    65
 73
     4
 40
1.0
 49
0.5
 74
     0
 49
-0.25
 74
     0
 49
0.0
 74
     0
 49
-0.25
 74
     0
  0
LTYPE
  5
29
330
5
100
AcDbSymbolTableRecord
100
AcDbLinetypeTableRecord
  2
DASHDOT2
 70
     0
  3
_._._._._._._._._._._._._._._._.
 72
    65
 73
     4
 40
0.5
 49
0.25
 74
     0
 49
-0.125
 74
     0
 49
0.0
 74
     0
 49
-0.125
 74
     0
  0
LTYPE
  5
2A
330
5
100
AcDbSymbolTableRecord
100
AcDbLinetypeTableRecord
  2
DASHDOTX2
 70
     0
  3
____  .  ____  .  ____  .  ____  .  
 72
    65
 73
     4
 40
2.0
 49
1.0
 74
     0
 49
-0.5
 74
     0
 49
0.0
 74
     0
 49
-0.5
 74
     0
  0
LTYPE
  5
2B
330
5
100
AcDbSymbolTableRecord
100
AcDbLinetypeTableRecord
  2
DASHED
 70
     0
  3
__ __ __ __ __ __ __ __ __ __ __ __ 
 72
    65
 73
     2
 40
0.75
 49
0.5
 74
     0
 49
-0.25
 74
     0
  0
LTYPE
  5
2C
330
5
100
AcDbSymbolTableRecord
100
AcDbLinetypeTableRecord
  2
DASHED2
 70
     0
  3
_ _ _ _ _ _ _ _ _ _ _ _ _ _ _ _ _ _ 
 72
    65
 73
     2
 40
0.375
 49
0.25
 74
     0
 49
-0.125
 74
     0
  0
LTYPE
  5
2D
330
5
100
AcDbSymbolTableRecord
100
AcDbLinetypeTableRecord
  2
DASHEDX2
 70
     0
  3
____  ____  ____  ____  ____  ____  
 72
    65
 73
     2
 40
1.5
 49
1.0
 74
     0
 49
-0.5
 74
     0
  0
LTYPE
  5
2E
330
5
100
AcDbSymbolTableRecord
100
AcDbLinetypeTableRecord
  2
DIVIDE
 70
     0
  3
____ . . ____ . . ____ . . ____ . . 
 72
    65
 73
     6
 40
1.25
 49
0.5
 74
     0
 49
-0.25
 74
     0
 49
0.0
 74
     0
 49
-0.25
 74
     0
 49
0.0
 74
     0
 49
-0.25
 74
     0
  0
LTYPE
  5
2F
330
5
100
AcDbSymbolTableRecord
100
AcDbLinetypeTableRecord
  2
DIVIDE2
 70
     0
  3
__..__..__..__..__..__..__..__..__..
 72
    65
 73
     6
 40
0.625
 49
0.25
 74
     0
 49
-0.125
 74
     0
 49
0.0
 74
     0
 49
-0.125
 74
     0
 49
0.0
 74
     0
 49
-0.125
 74
     0
  0
LTYPE
  5
30
330
5
100
AcDbSymbolTableRecord
100
AcDbLinetypeTableRecord
  2
DIVIDEX2
 70
     0
  3
________  .  .  ________  .  .  ________  .  . 
 72
    65
 73
     6
 40
2.5
 49
1.0
 74
     0
 49
-0.5
 74
     0
 49
0.0
 74
     0
 49
-0.5
 74
     0
 49
0.0
 74
     0
 49
-0.5
 74
     0
  0
LTYPE
  5
31
330
5
100
AcDbSymbolTableRecord
100
AcDbLinetypeTableRecord
  2
DOT
 70
     0
  3
. . . . . . . . . . . . . . . . . . 
 72
    65
 73
     2
 40
0.25
 49
0.0
 74
     0
 49
-0.25
 74
     0
  0
LTYPE
  5
32
330
5
100
AcDbSymbolTableRecord
100
AcDbLinetypeTableRecord
  2
DOT2
 70
     0
  3
....................................
 72
    65
 73
     2
 40
0.125
 49
0.0
 74
     0
 49
-0.125
 74
     0
  0
LTYPE
  5
33
330
5
100
AcDbSymbolTableRecord
100
AcDbLinetypeTableRecord
  2
DOTX2
 70
     0
  3
.  .  .  .  .  .  .  .  .  .  .  .  .  
 72
    65
 73
     2
 40
0.5
 49
0.0
 74
     0
 49
-0.5
 74
     0
  0
LTYPE
  5
34
330
5
100
AcDbSymbolTableRecord
100
AcDbLinetypeTableRecord
  2
HIDDEN
 70
     0
  3
__ __ __ __ __ __ __ __ __ __ __ __ 
 72
    65
 73
     2
 40
0.375
 49
0.25
 74
     0
 49
-0.125
 74
     0
  0
LTYPE
  5
35
330
5
100
AcDbSymbolTableRecord
100
AcDbLinetypeTableRecord
  2
HIDDEN2
 70
     0
  3
_ _ _ _ _ _ _ _ _ _ _ _ _ _ _ _ _ _ 
 72
    65
 73
     2
 40
0.1875
 49
0.125
 74
     0
 49
-0.0625
 74
     0
  0
LTYPE
  5
36
330
5
100
AcDbSymbolTableRecord
100
AcDbLinetypeTableRecord
  2
HIDDENX2
 70
     0
  3
____ ____ ____ ____ ____ ____ ____ 
 72
    65
 73
     2
 40
0.75
 49
0.5
 74
     0
 49
-0.25
 74
     0
  0
LTYPE
  5
37
330
5
100
AcDbSymbolTableRecord
100
AcDbLinetypeTableRecord
  2
PHANTOM
 70
     0
  3
______  __  __  ______  __  __  
 72
    65
 73
     6
 40
2.5
 49
1.25
 74
     0
 49
-0.25
 74
     0
 49
0.25
 74
     0
 49
-0.25
 74
     0
 49
0.25
 74
     0
 49
-0.25
 74
     0
  0
LTYPE
  5
38
330
5
100
AcDbSymbolTableRecord
100
AcDbLinetypeTableRecord
  2
PHANTOM2
 70
     0
  3
___ _ _ ___ _ _ ___ _ _ ___ _ _ 
 72
    65
 73
     6
 40
1.25
 49
0.625
 74
     0
 49
-0.125
 74
     0
 49
0.125
 74
     0
 49
-0.125
 74
     0
 49
0.125
 74
     0
 49
-0.125
 74
     0
  0
LTYPE
  5
39
330
5
100
AcDbSymbolTableRecord
100
AcDbLinetypeTableRecord
  2
PHANTOMX2
 70
     0
  3
___ _ _ ___ _ _ ___ _ _ ___ _ _ 
 72
    65
 73
     6
 40
5.0
 49
2.5
 74
     0
 49
-0.5
 74
     0
 49
0.5
 74
     0
 49
-0.5
 74
     0
 49
0.5
 74
     0
 49
-0.5
 74
     0
  0
ENDTAB
  0
TABLE
  2
LAYER
  5
2
330
0
100
AcDbSymbolTable
 70
   256
  0
LAYER
  5
10
330
2
100
AcDbSymbolTableRecord
100
AcDbLayerTableRecord
  2
0
 70
     0
 62
     7
  6
CONTINUOUS
370
    -3
390
F
  0
LAYER
  5
3A
330
2
100
AcDbSymbolTableRecord
100
AcDbLayerTableRecord
  2
1
 70
     0
 62
     1
  6
CONTINUOUS
370
    -3
390
F
  0
LAYER
  5
3B
330
2
100
AcDbSymbolTableRecord
100
AcDbLayerTableRecord
  2
2
 70
     0
 62
     2
  6
CONTINUOUS
370
    -3
390
F
  0
LAYER
  5
3C
330
2
100
AcDbSymbolTableRecord
100
AcDbLayerTableRecord
  2
3
 70
     0
 62
     3
  6
CONTINUOUS
370
    -3
390
F
  0
LAYER
  5
3D
330
2
100
AcDbSymbolTableRecord
100
AcDbLayerTableRecord
  2
4
 70
     0
 62
     4
  6
CONTINUOUS
370
    -3
390
F
  0
LAYER
  5
3E
330
2
100
AcDbSymbolTableRecord
100
AcDbLayerTableRecord
  2
5
 70
     0
 62
     5
  6
CONTINUOUS
370
    -3
390
F
  0
LAYER
  5
3F
330
2
100
AcDbSymbolTableRecord
100
AcDbLayerTableRecord
  2
6
 70
     0
 62
     6
  6
CONTINUOUS
370
    -3
390
F
  0
LAYER
  5
40
330
2
100
AcDbSymbolTableRecord
100
AcDbLayerTableRecord
  2
7
 70
     0
 62
     7
  6
CONTINUOUS
370
    -3
390
F
  0
LAYER
  5
41
330
2
100
AcDbSymbolTableRecord
100
AcDbLayerTableRecord
  2
8
 70
     0
 62
     8
  6
CONTINUOUS
370
    -3
390
F
  0
LAYER
  5
42
330
2
100
AcDbSymbolTableRecord
100
AcDbLayerTableRecord
  2
9
 70
     0
 62
     9
  6
CONTINUOUS
370
    -3
390
F
  0
LAYER
  5
43
330
2
100
AcDbSymbolTableRecord
100
AcDbLayerTableRecord
  2
10
 70
     0
 62
    10
  6
CONTINUOUS
370
    -3
390
F
  0
LAYER
  5
44
330
2
100
AcDbSymbolTableRecord
100
AcDbLayerTableRecord
  2
11
 70
     0
 62
    11
  6
CONTINUOUS
370
    -3
390
F
  0
LAYER
  5
45
330
2
100
AcDbSymbolTableRecord
100
AcDbLayerTableRecord
  2
12
 70
     0
 62
    12
  6
CONTINUOUS
370
    -3
390
F
  0
LAYER
  5
46
330
2
100
AcDbSymbolTableRecord
100
AcDbLayerTableRecord
  2
13
 70
     0
 62
    13
  6
CONTINUOUS
370
    -3
390
F
  0
LAYER
  5
47
330
2
100
AcDbSymbolTableRecord
100
AcDbLayerTableRecord
  2
14
 70
     0
 62
    14
  6
CONTINUOUS
370
    -3
390
F
  0
LAYER
  5
48
330
2
100
AcDbSymbolTableRecord
100
AcDbLayerTableRecord
  2
15
 70
     0
 62
    15
  6
CONTINUOUS
370
    -3
390
F
  0
LAYER
  5
49
330
2
100
AcDbSymbolTableRecord
100
AcDbLayerTableRecord
  2
16
 70
     0
 62
    16
  6
CONTINUOUS
370
    -3
390
F
  0
LAYER
  5
4A
330
2
100
AcDbSymbolTableRecord
100
AcDbLayerTableRecord
  2
17
 70
     0
 62
    17
  6
CONTINUOUS
370
    -3
390
F
  0
LAYER
  5
4B
330
2
100
AcDbSymbolTableRecord
100
AcDbLayerTableRecord
  2
18
 70
     0
 62
    18
  6
CONTINUOUS
370
    -3
390
F
  0
LAYER
  5
4C
330
2
100
AcDbSymbolTableRecord
100
AcDbLayerTableRecord
  2
19
 70
     0
 62
    19
  6
CONTINUOUS
370
    -3
390
F
  0
LAYER
  5
4D
330
2
100
AcDbSymbolTableRecord
100
AcDbLayerTableRecord
  2
20
 70
     0
 62
    20
  6
CONTINUOUS
370
    -3
390
F
  0
LAYER
  5
4E
330
2
100
AcDbSymbolTableRecord
100
AcDbLayerTableRecord
  2
21
 70
     0
 62
    21
  6
CONTINUOUS
370
    -3
390
F
  0
LAYER
  5
4F
330
2
100
AcDbSymbolTableRecord
100
AcDbLayerTableRecord
  2
22
 70
     0
 62
    22
  6
CONTINUOUS
370
    -3
390
F
  0
LAYER
  5
50
330
2
100
AcDbSymbolTableRecord
100
AcDbLayerTableRecord
  2
23
 70
     0
 62
    23
  6
CONTINUOUS
370
    -3
390
F
  0
LAYER
  5
51
330
2
100
AcDbSymbolTableRecord
100
AcDbLayerTableRecord
  2
24
 70
     0
 62
    24
  6
CONTINUOUS
370
    -3
390
F
  0
LAYER
  5
52
330
2
100
AcDbSymbolTableRecord
100
AcDbLayerTableRecord
  2
25
 70
     0
 62
    25
  6
CONTINUOUS
370
    -3
390
F
  0
LAYER
  5
53
330
2
100
AcDbSymbolTableRecord
100
AcDbLayerTableRecord
  2
26
 70
     0
 62
    26
  6
CONTINUOUS
370
    -3
390
F
  0
LAYER
  5
54
330
2
100
AcDbSymbolTableRecord
100
AcDbLayerTableRecord
  2
27
 70
     0
 62
    27
  6
CONTINUOUS
370
    -3
390
F
  0
LAYER
  5
55
330
2
100
AcDbSymbolTableRecord
100
AcDbLayerTableRecord
  2
28
 70
     0
 62
    28
  6
CONTINUOUS
370
    -3
390
F
  0
LAYER
  5
56
330
2
100
AcDbSymbolTableRecord
100
AcDbLayerTableRecord
  2
29
 70
     0
 62
    29
  6
CONTINUOUS
370
    -3
390
F
  0
LAYER
  5
57
330
2
100
AcDbSymbolTableRecord
100
AcDbLayerTableRecord
  2
30
 70
     0
 62
    30
  6
CONTINUOUS
370
    -3
390
F
  0
LAYER
  5
58
330
2
100
AcDbSymbolTableRecord
100
AcDbLayerTableRecord
  2
31
 70
     0
 62
    31
  6
CONTINUOUS
370
    -3
390
F
  0
LAYER
  5
59
330
2
100
AcDbSymbolTableRecord
100
AcDbLayerTableRecord
  2
32
 70
     0
 62
    32
  6
CONTINUOUS
370
    -3
390
F
  0
LAYER
  5
5A
330
2
100
AcDbSymbolTableRecord
100
AcDbLayerTableRecord
  2
33
 70
     0
 62
    33
  6
CONTINUOUS
370
    -3
390
F
  0
LAYER
  5
5B
330
2
100
AcDbSymbolTableRecord
100
AcDbLayerTableRecord
  2
34
 70
     0
 62
    34
  6
CONTINUOUS
370
    -3
390
F
  0
LAYER
  5
5C
330
2
100
AcDbSymbolTableRecord
100
AcDbLayerTableRecord
  2
35
 70
     0
 62
    35
  6
CONTINUOUS
370
    -3
390
F
  0
LAYER
  5
5D
330
2
100
AcDbSymbolTableRecord
100
AcDbLayerTableRecord
  2
36
 70
     0
 62
    36
  6
CONTINUOUS
370
    -3
390
F
  0
LAYER
  5
5E
330
2
100
AcDbSymbolTableRecord
100
AcDbLayerTableRecord
  2
37
 70
     0
 62
    37
  6
CONTINUOUS
370
    -3
390
F
  0
LAYER
  5
5F
330
2
100
AcDbSymbolTableRecord
100
AcDbLayerTableRecord
  2
38
 70
     0
 62
    38
  6
CONTINUOUS
370
    -3
390
F
  0
LAYER
  5
60
330
2
100
AcDbSymbolTableRecord
100
AcDbLayerTableRecord
  2
39
 70
     0
 62
    39
  6
CONTINUOUS
370
    -3
390
F
  0
LAYER
  5
61
330
2
100
AcDbSymbolTableRecord
100
AcDbLayerTableRecord
  2
40
 70
     0
 62
    40
  6
CONTINUOUS
370
    -3
390
F
  0
LAYER
  5
62
330
2
100
AcDbSymbolTableRecord
100
AcDbLayerTableRecord
  2
41
 70
     0
 62
    41
  6
CONTINUOUS
370
    -3
390
F
  0
LAYER
  5
63
330
2
100
AcDbSymbolTableRecord
100
AcDbLayerTableRecord
  2
42
 70
     0
 62
    42
  6
CONTINUOUS
370
    -3
390
F
  0
LAYER
  5
64
330
2
100
AcDbSymbolTableRecord
100
AcDbLayerTableRecord
  2
43
 70
     0
 62
    43
  6
CONTINUOUS
370
    -3
390
F
  0
LAYER
  5
65
330
2
100
AcDbSymbolTableRecord
100
AcDbLayerTableRecord
  2
44
 70
     0
 62
    44
  6
CONTINUOUS
370
    -3
390
F
  0
LAYER
  5
66
330
2
100
AcDbSymbolTableRecord
100
AcDbLayerTableRecord
  2
45
 70
     0
 62
    45
  6
CONTINUOUS
370
    -3
390
F
  0
LAYER
  5
67
330
2
100
AcDbSymbolTableRecord
100
AcDbLayerTableRecord
  2
46
 70
     0
 62
    46
  6
CONTINUOUS
370
    -3
390
F
  0
LAYER
  5
68
330
2
100
AcDbSymbolTableRecord
100
AcDbLayerTableRecord
  2
47
 70
     0
 62
    47
  6
CONTINUOUS
370
    -3
390
F
  0
LAYER
  5
69
330
2
100
AcDbSymbolTableRecord
100
AcDbLayerTableRecord
  2
48
 70
     0
 62
    48
  6
CONTINUOUS
370
    -3
390
F
  0
LAYER
  5
6A
330
2
100
AcDbSymbolTableRecord
100
AcDbLayerTableRecord
  2
49
 70
     0
 62
    49
  6
CONTINUOUS
370
    -3
390
F
  0
LAYER
  5
6B
330
2
100
AcDbSymbolTableRecord
100
AcDbLayerTableRecord
  2
50
 70
     0
 62
    50
  6
CONTINUOUS
370
    -3
390
F
  0
LAYER
  5
6C
330
2
100
AcDbSymbolTableRecord
100
AcDbLayerTableRecord
  2
51
 70
     0
 62
    51
  6
CONTINUOUS
370
    -3
390
F
  0
LAYER
  5
6D
330
2
100
AcDbSymbolTableRecord
100
AcDbLayerTableRecord
  2
52
 70
     0
 62
    52
  6
CONTINUOUS
370
    -3
390
F
  0
LAYER
  5
6E
330
2
100
AcDbSymbolTableRecord
100
AcDbLayerTableRecord
  2
53
 70
     0
 62
    53
  6
CONTINUOUS
370
    -3
390
F
  0
LAYER
  5
6F
330
2
100
AcDbSymbolTableRecord
100
AcDbLayerTableRecord
  2
54
 70
     0
 62
    54
  6
CONTINUOUS
370
    -3
390
F
  0
LAYER
  5
70
330
2
100
AcDbSymbolTableRecord
100
AcDbLayerTableRecord
  2
55
 70
     0
 62
    55
  6
CONTINUOUS
370
    -3
390
F
  0
LAYER
  5
71
330
2
100
AcDbSymbolTableRecord
100
AcDbLayerTableRecord
  2
56
 70
     0
 62
    56
  6
CONTINUOUS
370
    -3
390
F
  0
LAYER
  5
72
330
2
100
AcDbSymbolTableRecord
100
AcDbLayerTableRecord
  2
57
 70
     0
 62
    57
  6
CONTINUOUS
370
    -3
390
F
  0
LAYER
  5
73
330
2
100
AcDbSymbolTableRecord
100
AcDbLayerTableRecord
  2
58
 70
     0
 62
    58
  6
CONTINUOUS
370
    -3
390
F
  0
LAYER
  5
74
330
2
100
AcDbSymbolTableRecord
100
AcDbLayerTableRecord
  2
59
 70
     0
 62
    59
  6
CONTINUOUS
370
    -3
390
F
  0
LAYER
  5
75
330
2
100
AcDbSymbolTableRecord
100
AcDbLayerTableRecord
  2
60
 70
     0
 62
    60
  6
CONTINUOUS
370
    -3
390
F
  0
LAYER
  5
76
330
2
100
AcDbSymbolTableRecord
100
AcDbLayerTableRecord
  2
61
 70
     0
 62
    61
  6
CONTINUOUS
370
    -3
390
F
  0
LAYER
  5
77
330
2
100
AcDbSymbolTableRecord
100
AcDbLayerTableRecord
  2
62
 70
     0
 62
    62
  6
CONTINUOUS
370
    -3
390
F
  0
LAYER
  5
78
330
2
100
AcDbSymbolTableRecord
100
AcDbLayerTableRecord
  2
63
 70
     0
 62
    63
  6
CONTINUOUS
370
    -3
390
F
  0
LAYER
  5
79
330
2
100
AcDbSymbolTableRecord
100
AcDbLayerTableRecord
  2
64
 70
     0
 62
    64
  6
CONTINUOUS
370
    -3
390
F
  0
LAYER
  5
7A
330
2
100
AcDbSymbolTableRecord
100
AcDbLayerTableRecord
  2
65
 70
     0
 62
    65
  6
CONTINUOUS
370
    -3
390
F
  0
LAYER
  5
7B
330
2
100
AcDbSymbolTableRecord
100
AcDbLayerTableRecord
  2
66
 70
     0
 62
    66
  6
CONTINUOUS
370
    -3
390
F
  0
LAYER
  5
7C
330
2
100
AcDbSymbolTableRecord
100
AcDbLayerTableRecord
  2
67
 70
     0
 62
    67
  6
CONTINUOUS
370
    -3
390
F
  0
LAYER
  5
7D
330
2
100
AcDbSymbolTableRecord
100
AcDbLayerTableRecord
  2
68
 70
     0
 62
    68
  6
CONTINUOUS
370
    -3
390
F
  0
LAYER
  5
7E
330
2
100
AcDbSymbolTableRecord
100
AcDbLayerTableRecord
  2
69
 70
     0
 62
    69
  6
CONTINUOUS
370
    -3
390
F
  0
LAYER
  5
7F
330
2
100
AcDbSymbolTableRecord
100
AcDbLayerTableRecord
  2
70
 70
     0
 62
    70
  6
CONTINUOUS
370
    -3
390
F
  0
LAYER
  5
80
330
2
100
AcDbSymbolTableRecord
100
AcDbLayerTableRecord
  2
71
 70
     0
 62
    71
  6
CONTINUOUS
370
    -3
390
F
  0
LAYER
  5
81
330
2
100
AcDbSymbolTableRecord
100
AcDbLayerTableRecord
  2
72
 70
     0
 62
    72
  6
CONTINUOUS
370
    -3
390
F
  0
LAYER
  5
82
330
2
100
AcDbSymbolTableRecord
100
AcDbLayerTableRecord
  2
73
 70
     0
 62
    73
  6
CONTINUOUS
370
    -3
390
F
  0
LAYER
  5
83
330
2
100
AcDbSymbolTableRecord
100
AcDbLayerTableRecord
  2
74
 70
     0
 62
    74
  6
CONTINUOUS
370
    -3
390
F
  0
LAYER
  5
84
330
2
100
AcDbSymbolTableRecord
100
AcDbLayerTableRecord
  2
75
 70
     0
 62
    75
  6
CONTINUOUS
370
    -3
390
F
  0
LAYER
  5
85
330
2
100
AcDbSymbolTableRecord
100
AcDbLayerTableRecord
  2
76
 70
     0
 62
    76
  6
CONTINUOUS
370
    -3
390
F
  0
LAYER
  5
86
330
2
100
AcDbSymbolTableRecord
100
AcDbLayerTableRecord
  2
77
 70
     0
 62
    77
  6
CONTINUOUS
370
    -3
390
F
  0
LAYER
  5
87
330
2
100
AcDbSymbolTableRecord
100
AcDbLayerTableRecord
  2
78
 70
     0
 62
    78
  6
CONTINUOUS
370
    -3
390
F
  0
LAYER
  5
88
330
2
100
AcDbSymbolTableRecord
100
AcDbLayerTableRecord
  2
79
 70
     0
 62
    79
  6
CONTINUOUS
370
    -3
390
F
  0
LAYER
  5
89
330
2
100
AcDbSymbolTableRecord
100
AcDbLayerTableRecord
  2
80
 70
     0
 62
    80
  6
CONTINUOUS
370
    -3
390
F
  0
LAYER
  5
8A
330
2
100
AcDbSymbolTableRecord
100
AcDbLayerTableRecord
  2
81
 70
     0
 62
    81
  6
CONTINUOUS
370
    -3
390
F
  0
LAYER
  5
8B
330
2
100
AcDbSymbolTableRecord
100
AcDbLayerTableRecord
  2
82
 70
     0
 62
    82
  6
CONTINUOUS
370
    -3
390
F
  0
LAYER
  5
8C
330
2
100
AcDbSymbolTableRecord
100
AcDbLayerTableRecord
  2
83
 70
     0
 62
    83
  6
CONTINUOUS
370
    -3
390
F
  0
LAYER
  5
8D
330
2
100
AcDbSymbolTableRecord
100
AcDbLayerTableRecord
  2
84
 70
     0
 62
    84
  6
CONTINUOUS
370
    -3
390
F
  0
LAYER
  5
8E
330
2
100
AcDbSymbolTableRecord
100
AcDbLayerTableRecord
  2
85
 70
     0
 62
    85
  6
CONTINUOUS
370
    -3
390
F
  0
LAYER
  5
8F
330
2
100
AcDbSymbolTableRecord
100
AcDbLayerTableRecord
  2
86
 70
     0
 62
    86
  6
CONTINUOUS
370
    -3
390
F
  0
LAYER
  5
90
330
2
100
AcDbSymbolTableRecord
100
AcDbLayerTableRecord
  2
87
 70
     0
 62
    87
  6
CONTINUOUS
370
    -3
390
F
  0
LAYER
  5
91
330
2
100
AcDbSymbolTableRecord
100
AcDbLayerTableRecord
  2
88
 70
     0
 62
    88
  6
CONTINUOUS
370
    -3
390
F
  0
LAYER
  5
92
330
2
100
AcDbSymbolTableRecord
100
AcDbLayerTableRecord
  2
89
 70
     0
 62
    89
  6
CONTINUOUS
370
    -3
390
F
  0
LAYER
  5
93
330
2
100
AcDbSymbolTableRecord
100
AcDbLayerTableRecord
  2
90
 70
     0
 62
    90
  6
CONTINUOUS
370
    -3
390
F
  0
LAYER
  5
94
330
2
100
AcDbSymbolTableRecord
100
AcDbLayerTableRecord
  2
91
 70
     0
 62
    91
  6
CONTINUOUS
370
    -3
390
F
  0
LAYER
  5
95
330
2
100
AcDbSymbolTableRecord
100
AcDbLayerTableRecord
  2
92
 70
     0
 62
    92
  6
CONTINUOUS
370
    -3
390
F
  0
LAYER
  5
96
330
2
100
AcDbSymbolTableRecord
100
AcDbLayerTableRecord
  2
93
 70
     0
 62
    93
  6
CONTINUOUS
370
    -3
390
F
  0
LAYER
  5
97
330
2
100
AcDbSymbolTableRecord
100
AcDbLayerTableRecord
  2
94
 70
     0
 62
    94
  6
CONTINUOUS
370
    -3
390
F
  0
LAYER
  5
98
330
2
100
AcDbSymbolTableRecord
100
AcDbLayerTableRecord
  2
95
 70
     0
 62
    95
  6
CONTINUOUS
370
    -3
390
F
  0
LAYER
  5
99
330
2
100
AcDbSymbolTableRecord
100
AcDbLayerTableRecord
  2
96
 70
     0
 62
    96
  6
CONTINUOUS
370
    -3
390
F
  0
LAYER
  5
9A
330
2
100
AcDbSymbolTableRecord
100
AcDbLayerTableRecord
  2
97
 70
     0
 62
    97
  6
CONTINUOUS
370
    -3
390
F
  0
LAYER
  5
9B
330
2
100
AcDbSymbolTableRecord
100
AcDbLayerTableRecord
  2
98
 70
     0
 62
    98
  6
CONTINUOUS
370
    -3
390
F
  0
LAYER
  5
9C
330
2
100
AcDbSymbolTableRecord
100
AcDbLayerTableRecord
  2
99
 70
     0
 62
    99
  6
CONTINUOUS
370
    -3
390
F
  0
LAYER
  5
9D
330
2
100
AcDbSymbolTableRecord
100
AcDbLayerTableRecord
  2
100
 70
     0
 62
   100
  6
CONTINUOUS
370
    -3
390
F
  0
LAYER
  5
9E
330
2
100
AcDbSymbolTableRecord
100
AcDbLayerTableRecord
  2
101
 70
     0
 62
   101
  6
CONTINUOUS
370
    -3
390
F
  0
LAYER
  5
9F
330
2
100
AcDbSymbolTableRecord
100
AcDbLayerTableRecord
  2
102
 70
     0
 62
   102
  6
CONTINUOUS
370
    -3
390
F
  0
LAYER
  5
A0
330
2
100
AcDbSymbolTableRecord
100
AcDbLayerTableRecord
  2
103
 70
     0
 62
   103
  6
CONTINUOUS
370
    -3
390
F
  0
LAYER
  5
A1
330
2
100
AcDbSymbolTableRecord
100
AcDbLayerTableRecord
  2
104
 70
     0
 62
   104
  6
CONTINUOUS
370
    -3
390
F
  0
LAYER
  5
A2
330
2
100
AcDbSymbolTableRecord
100
AcDbLayerTableRecord
  2
105
 70
     0
 62
   105
  6
CONTINUOUS
370
    -3
390
F
  0
LAYER
  5
A3
330
2
100
AcDbSymbolTableRecord
100
AcDbLayerTableRecord
  2
106
 70
     0
 62
   106
  6
CONTINUOUS
370
    -3
390
F
  0
LAYER
  5
A4
330
2
100
AcDbSymbolTableRecord
100
AcDbLayerTableRecord
  2
107
 70
     0
 62
   107
  6
CONTINUOUS
370
    -3
390
F
  0
LAYER
  5
A5
330
2
100
AcDbSymbolTableRecord
100
AcDbLayerTableRecord
  2
108
 70
     0
 62
   108
  6
CONTINUOUS
370
    -3
390
F
  0
LAYER
  5
A6
330
2
100
AcDbSymbolTableRecord
100
AcDbLayerTableRecord
  2
109
 70
     0
 62
   109
  6
CONTINUOUS
370
    -3
390
F
  0
LAYER
  5
A7
330
2
100
AcDbSymbolTableRecord
100
AcDbLayerTableRecord
  2
110
 70
     0
 62
   110
  6
CONTINUOUS
370
    -3
390
F
  0
LAYER
  5
A8
330
2
100
AcDbSymbolTableRecord
100
AcDbLayerTableRecord
  2
111
 70
     0
 62
   111
  6
CONTINUOUS
370
    -3
390
F
  0
LAYER
  5
A9
330
2
100
AcDbSymbolTableRecord
100
AcDbLayerTableRecord
  2
112
 70
     0
 62
   112
  6
CONTINUOUS
370
    -3
390
F
  0
LAYER
  5
AA
330
2
100
AcDbSymbolTableRecord
100
AcDbLayerTableRecord
  2
113
 70
     0
 62
   113
  6
CONTINUOUS
370
    -3
390
F
  0
LAYER
  5
AB
330
2
100
AcDbSymbolTableRecord
100
AcDbLayerTableRecord
  2
114
 70
     0
 62
   114
  6
CONTINUOUS
370
    -3
390
F
  0
LAYER
  5
AC
330
2
100
AcDbSymbolTableRecord
100
AcDbLayerTableRecord
  2
115
 70
     0
 62
   115
  6
CONTINUOUS
370
    -3
390
F
  0
LAYER
  5
AD
330
2
100
AcDbSymbolTableRecord
100
AcDbLayerTableRecord
  2
116
 70
     0
 62
   116
  6
CONTINUOUS
370
    -3
390
F
  0
LAYER
  5
AE
330
2
100
AcDbSymbolTableRecord
100
AcDbLayerTableRecord
  2
117
 70
     0
 62
   117
  6
CONTINUOUS
370
    -3
390
F
  0
LAYER
  5
AF
330
2
100
AcDbSymbolTableRecord
100
AcDbLayerTableRecord
  2
118
 70
     0
 62
   118
  6
CONTINUOUS
370
    -3
390
F
  0
LAYER
  5
B0
330
2
100
AcDbSymbolTableRecord
100
AcDbLayerTableRecord
  2
119
 70
     0
 62
   119
  6
CONTINUOUS
370
    -3
390
F
  0
LAYER
  5
B1
330
2
100
AcDbSymbolTableRecord
100
AcDbLayerTableRecord
  2
120
 70
     0
 62
   120
  6
CONTINUOUS
370
    -3
390
F
  0
LAYER
  5
B2
330
2
100
AcDbSymbolTableRecord
100
AcDbLayerTableRecord
  2
121
 70
     0
 62
   121
  6
CONTINUOUS
370
    -3
390
F
  0
LAYER
  5
B3
330
2
100
AcDbSymbolTableRecord
100
AcDbLayerTableRecord
  2
122
 70
     0
 62
   122
  6
CONTINUOUS
370
    -3
390
F
  0
LAYER
  5
B4
330
2
100
AcDbSymbolTableRecord
100
AcDbLayerTableRecord
  2
123
 70
     0
 62
   123
  6
CONTINUOUS
370
    -3
390
F
  0
LAYER
  5
B5
330
2
100
AcDbSymbolTableRecord
100
AcDbLayerTableRecord
  2
124
 70
     0
 62
   124
  6
CONTINUOUS
370
    -3
390
F
  0
LAYER
  5
B6
330
2
100
AcDbSymbolTableRecord
100
AcDbLayerTableRecord
  2
125
 70
     0
 62
   125
  6
CONTINUOUS
370
    -3
390
F
  0
LAYER
  5
B7
330
2
100
AcDbSymbolTableRecord
100
AcDbLayerTableRecord
  2
126
 70
     0
 62
   126
  6
CONTINUOUS
370
    -3
390
F
  0
LAYER
  5
B8
330
2
100
AcDbSymbolTableRecord
100
AcDbLayerTableRecord
  2
127
 70
     0
 62
   127
  6
CONTINUOUS
370
    -3
390
F
  0
LAYER
  5
B9
330
2
100
AcDbSymbolTableRecord
100
AcDbLayerTableRecord
  2
128
 70
     0
 62
   128
  6
CONTINUOUS
370
    -3
390
F
  0
LAYER
  5
BA
330
2
100
AcDbSymbolTableRecord
100
AcDbLayerTableRecord
  2
129
 70
     0
 62
   129
  6
CONTINUOUS
370
    -3
390
F
  0
LAYER
  5
BB
330
2
100
AcDbSymbolTableRecord
100
AcDbLayerTableRecord
  2
130
 70
     0
 62
   130
  6
CONTINUOUS
370
    -3
390
F
  0
LAYER
  5
BC
330
2
100
AcDbSymbolTableRecord
100
AcDbLayerTableRecord
  2
131
 70
     0
 62
   131
  6
CONTINUOUS
370
    -3
390
F
  0
LAYER
  5
BD
330
2
100
AcDbSymbolTableRecord
100
AcDbLayerTableRecord
  2
132
 70
     0
 62
   132
  6
CONTINUOUS
370
    -3
390
F
  0
LAYER
  5
BE
330
2
100
AcDbSymbolTableRecord
100
AcDbLayerTableRecord
  2
133
 70
     0
 62
   133
  6
CONTINUOUS
370
    -3
390
F
  0
LAYER
  5
BF
330
2
100
AcDbSymbolTableRecord
100
AcDbLayerTableRecord
  2
134
 70
     0
 62
   134
  6
CONTINUOUS
370
    -3
390
F
  0
LAYER
  5
C0
330
2
100
AcDbSymbolTableRecord
100
AcDbLayerTableRecord
  2
135
 70
     0
 62
   135
  6
CONTINUOUS
370
    -3
390
F
  0
LAYER
  5
C1
330
2
100
AcDbSymbolTableRecord
100
AcDbLayerTableRecord
  2
136
 70
     0
 62
   136
  6
CONTINUOUS
370
    -3
390
F
  0
LAYER
  5
C2
330
2
100
AcDbSymbolTableRecord
100
AcDbLayerTableRecord
  2
137
 70
     0
 62
   137
  6
CONTINUOUS
370
    -3
390
F
  0
LAYER
  5
C3
330
2
100
AcDbSymbolTableRecord
100
AcDbLayerTableRecord
  2
138
 70
     0
 62
   138
  6
CONTINUOUS
370
    -3
390
F
  0
LAYER
  5
C4
330
2
100
AcDbSymbolTableRecord
100
AcDbLayerTableRecord
  2
139
 70
     0
 62
   139
  6
CONTINUOUS
370
    -3
390
F
  0
LAYER
  5
C5
330
2
100
AcDbSymbolTableRecord
100
AcDbLayerTableRecord
  2
140
 70
     0
 62
   140
  6
CONTINUOUS
370
    -3
390
F
  0
LAYER
  5
C6
330
2
100
AcDbSymbolTableRecord
100
AcDbLayerTableRecord
  2
141
 70
     0
 62
   141
  6
CONTINUOUS
370
    -3
390
F
  0
LAYER
  5
C7
330
2
100
AcDbSymbolTableRecord
100
AcDbLayerTableRecord
  2
142
 70
     0
 62
   142
  6
CONTINUOUS
370
    -3
390
F
  0
LAYER
  5
C8
330
2
100
AcDbSymbolTableRecord
100
AcDbLayerTableRecord
  2
143
 70
     0
 62
   143
  6
CONTINUOUS
370
    -3
390
F
  0
LAYER
  5
C9
330
2
100
AcDbSymbolTableRecord
100
AcDbLayerTableRecord
  2
144
 70
     0
 62
   144
  6
CONTINUOUS
370
    -3
390
F
  0
LAYER
  5
CA
330
2
100
AcDbSymbolTableRecord
100
AcDbLayerTableRecord
  2
145
 70
     0
 62
   145
  6
CONTINUOUS
370
    -3
390
F
  0
LAYER
  5
CB
330
2
100
AcDbSymbolTableRecord
100
AcDbLayerTableRecord
  2
146
 70
     0
 62
   146
  6
CONTINUOUS
370
    -3
390
F
  0
LAYER
  5
CC
330
2
100
AcDbSymbolTableRecord
100
AcDbLayerTableRecord
  2
147
 70
     0
 62
   147
  6
CONTINUOUS
370
    -3
390
F
  0
LAYER
  5
CD
330
2
100
AcDbSymbolTableRecord
100
AcDbLayerTableRecord
  2
148
 70
     0
 62
   148
  6
CONTINUOUS
370
    -3
390
F
  0
LAYER
  5
CE
330
2
100
AcDbSymbolTableRecord
100
AcDbLayerTableRecord
  2
149
 70
     0
 62
   149
  6
CONTINUOUS
370
    -3
390
F
  0
LAYER
  5
CF
330
2
100
AcDbSymbolTableRecord
100
AcDbLayerTableRecord
  2
150
 70
     0
 62
   150
  6
CONTINUOUS
370
    -3
390
F
  0
LAYER
  5
D0
330
2
100
AcDbSymbolTableRecord
100
AcDbLayerTableRecord
  2
151
 70
     0
 62
   151
  6
CONTINUOUS
370
    -3
390
F
  0
LAYER
  5
D1
330
2
100
AcDbSymbolTableRecord
100
AcDbLayerTableRecord
  2
152
 70
     0
 62
   152
  6
CONTINUOUS
370
    -3
390
F
  0
LAYER
  5
D2
330
2
100
AcDbSymbolTableRecord
100
AcDbLayerTableRecord
  2
153
 70
     0
 62
   153
  6
CONTINUOUS
370
    -3
390
F
  0
LAYER
  5
D3
330
2
100
AcDbSymbolTableRecord
100
AcDbLayerTableRecord
  2
154
 70
     0
 62
   154
  6
CONTINUOUS
370
    -3
390
F
  0
LAYER
  5
D4
330
2
100
AcDbSymbolTableRecord
100
AcDbLayerTableRecord
  2
155
 70
     0
 62
   155
  6
CONTINUOUS
370
    -3
390
F
  0
LAYER
  5
D5
330
2
100
AcDbSymbolTableRecord
100
AcDbLayerTableRecord
  2
156
 70
     0
 62
   156
  6
CONTINUOUS
370
    -3
390
F
  0
LAYER
  5
D6
330
2
100
AcDbSymbolTableRecord
100
AcDbLayerTableRecord
  2
157
 70
     0
 62
   157
  6
CONTINUOUS
370
    -3
390
F
  0
LAYER
  5
D7
330
2
100
AcDbSymbolTableRecord
100
AcDbLayerTableRecord
  2
158
 70
     0
 62
   158
  6
CONTINUOUS
370
    -3
390
F
  0
LAYER
  5
D8
330
2
100
AcDbSymbolTableRecord
100
AcDbLayerTableRecord
  2
159
 70
     0
 62
   159
  6
CONTINUOUS
370
    -3
390
F
  0
LAYER
  5
D9
330
2
100
AcDbSymbolTableRecord
100
AcDbLayerTableRecord
  2
160
 70
     0
 62
   160
  6
CONTINUOUS
370
    -3
390
F
  0
LAYER
  5
DA
330
2
100
AcDbSymbolTableRecord
100
AcDbLayerTableRecord
  2
161
 70
     0
 62
   161
  6
CONTINUOUS
370
    -3
390
F
  0
LAYER
  5
DB
330
2
100
AcDbSymbolTableRecord
100
AcDbLayerTableRecord
  2
162
 70
     0
 62
   162
  6
CONTINUOUS
370
    -3
390
F
  0
LAYER
  5
DC
330
2
100
AcDbSymbolTableRecord
100
AcDbLayerTableRecord
  2
163
 70
     0
 62
   163
  6
CONTINUOUS
370
    -3
390
F
  0
LAYER
  5
DD
330
2
100
AcDbSymbolTableRecord
100
AcDbLayerTableRecord
  2
164
 70
     0
 62
   164
  6
CONTINUOUS
370
    -3
390
F
  0
LAYER
  5
DE
330
2
100
AcDbSymbolTableRecord
100
AcDbLayerTableRecord
  2
165
 70
     0
 62
   165
  6
CONTINUOUS
370
    -3
390
F
  0
LAYER
  5
DF
330
2
100
AcDbSymbolTableRecord
100
AcDbLayerTableRecord
  2
166
 70
     0
 62
   166
  6
CONTINUOUS
370
    -3
390
F
  0
LAYER
  5
E0
330
2
100
AcDbSymbolTableRecord
100
AcDbLayerTableRecord
  2
167
 70
     0
 62
   167
  6
CONTINUOUS
370
    -3
390
F
  0
LAYER
  5
E1
330
2
100
AcDbSymbolTableRecord
100
AcDbLayerTableRecord
  2
168
 70
     0
 62
   168
  6
CONTINUOUS
370
    -3
390
F
  0
LAYER
  5
E2
330
2
100
AcDbSymbolTableRecord
100
AcDbLayerTableRecord
  2
169
 70
     0
 62
   169
  6
CONTINUOUS
370
    -3
390
F
  0
LAYER
  5
E3
330
2
100
AcDbSymbolTableRecord
100
AcDbLayerTableRecord
  2
170
 70
     0
 62
   170
  6
CONTINUOUS
370
    -3
390
F
  0
LAYER
  5
E4
330
2
100
AcDbSymbolTableRecord
100
AcDbLayerTableRecord
  2
171
 70
     0
 62
   171
  6
CONTINUOUS
370
    -3
390
F
  0
LAYER
  5
E5
330
2
100
AcDbSymbolTableRecord
100
AcDbLayerTableRecord
  2
172
 70
     0
 62
   172
  6
CONTINUOUS
370
    -3
390
F
  0
LAYER
  5
E6
330
2
100
AcDbSymbolTableRecord
100
AcDbLayerTableRecord
  2
173
 70
     0
 62
   173
  6
CONTINUOUS
370
    -3
390
F
  0
LAYER
  5
E7
330
2
100
AcDbSymbolTableRecord
100
AcDbLayerTableRecord
  2
174
 70
     0
 62
   174
  6
CONTINUOUS
370
    -3
390
F
  0
LAYER
  5
E8
330
2
100
AcDbSymbolTableRecord
100
AcDbLayerTableRecord
  2
175
 70
     0
 62
   175
  6
CONTINUOUS
370
    -3
390
F
  0
LAYER
  5
E9
330
2
100
AcDbSymbolTableRecord
100
AcDbLayerTableRecord
  2
176
 70
     0
 62
   176
  6
CONTINUOUS
370
    -3
390
F
  0
LAYER
  5
EA
330
2
100
AcDbSymbolTableRecord
100
AcDbLayerTableRecord
  2
177
 70
     0
 62
   177
  6
CONTINUOUS
370
    -3
390
F
  0
LAYER
  5
EB
330
2
100
AcDbSymbolTableRecord
100
AcDbLayerTableRecord
  2
178
 70
     0
 62
   178
  6
CONTINUOUS
370
    -3
390
F
  0
LAYER
  5
EC
330
2
100
AcDbSymbolTableRecord
100
AcDbLayerTableRecord
  2
179
 70
     0
 62
   179
  6
CONTINUOUS
370
    -3
390
F
  0
LAYER
  5
ED
330
2
100
AcDbSymbolTableRecord
100
AcDbLayerTableRecord
  2
180
 70
     0
 62
   180
  6
CONTINUOUS
370
    -3
390
F
  0
LAYER
  5
EE
330
2
100
AcDbSymbolTableRecord
100
AcDbLayerTableRecord
  2
181
 70
     0
 62
   181
  6
CONTINUOUS
370
    -3
390
F
  0
LAYER
  5
EF
330
2
100
AcDbSymbolTableRecord
100
AcDbLayerTableRecord
  2
182
 70
     0
 62
   182
  6
CONTINUOUS
370
    -3
390
F
  0
LAYER
  5
F0
330
2
100
AcDbSymbolTableRecord
100
AcDbLayerTableRecord
  2
183
 70
     0
 62
   183
  6
CONTINUOUS
370
    -3
390
F
  0
LAYER
  5
F1
330
2
100
AcDbSymbolTableRecord
100
AcDbLayerTableRecord
  2
184
 70
     0
 62
   184
  6
CONTINUOUS
370
    -3
390
F
  0
LAYER
  5
F2
330
2
100
AcDbSymbolTableRecord
100
AcDbLayerTableRecord
  2
185
 70
     0
 62
   185
  6
CONTINUOUS
370
    -3
390
F
  0
LAYER
  5
F3
330
2
100
AcDbSymbolTableRecord
100
AcDbLayerTableRecord
  2
186
 70
     0
 62
   186
  6
CONTINUOUS
370
    -3
390
F
  0
LAYER
  5
F4
330
2
100
AcDbSymbolTableRecord
100
AcDbLayerTableRecord
  2
187
 70
     0
 62
   187
  6
CONTINUOUS
370
    -3
390
F
  0
LAYER
  5
F5
330
2
100
AcDbSymbolTableRecord
100
AcDbLayerTableRecord
  2
188
 70
     0
 62
   188
  6
CONTINUOUS
370
    -3
390
F
  0
LAYER
  5
F6
330
2
100
AcDbSymbolTableRecord
100
AcDbLayerTableRecord
  2
189
 70
     0
 62
   189
  6
CONTINUOUS
370
    -3
390
F
  0
LAYER
  5
F7
330
2
100
AcDbSymbolTableRecord
100
AcDbLayerTableRecord
  2
190
 70
     0
 62
   190
  6
CONTINUOUS
370
    -3
390
F
  0
LAYER
  5
F8
330
2
100
AcDbSymbolTableRecord
100
AcDbLayerTableRecord
  2
191
 70
     0
 62
   191
  6
CONTINUOUS
370
    -3
390
F
  0
LAYER
  5
F9
330
2
100
AcDbSymbolTableRecord
100
AcDbLayerTableRecord
  2
192
 70
     0
 62
   192
  6
CONTINUOUS
370
    -3
390
F
  0
LAYER
  5
FA
330
2
100
AcDbSymbolTableRecord
100
AcDbLayerTableRecord
  2
193
 70
     0
 62
   193
  6
CONTINUOUS
370
    -3
390
F
  0
LAYER
  5
FB
330
2
100
AcDbSymbolTableRecord
100
AcDbLayerTableRecord
  2
194
 70
     0
 62
   194
  6
CONTINUOUS
370
    -3
390
F
  0
LAYER
  5
FC
330
2
100
AcDbSymbolTableRecord
100
AcDbLayerTableRecord
  2
195
 70
     0
 62
   195
  6
CONTINUOUS
370
    -3
390
F
  0
LAYER
  5
FD
330
2
100
AcDbSymbolTableRecord
100
AcDbLayerTableRecord
  2
196
 70
     0
 62
   196
  6
CONTINUOUS
370
    -3
390
F
  0
LAYER
  5
FE
330
2
100
AcDbSymbolTableRecord
100
AcDbLayerTableRecord
  2
197
 70
     0
 62
   197
  6
CONTINUOUS
370
    -3
390
F
  0
LAYER
  5
FF
330
2
100
AcDbSymbolTableRecord
100
AcDbLayerTableRecord
  2
198
 70
     0
 62
   198
  6
CONTINUOUS
370
    -3
390
F
  0
LAYER
  5
100
330
2
100
AcDbSymbolTableRecord
100
AcDbLayerTableRecord
  2
199
 70
     0
 62
   199
  6
CONTINUOUS
370
    -3
390
F
  0
LAYER
  5
101
330
2
100
AcDbSymbolTableRecord
100
AcDbLayerTableRecord
  2
200
 70
     0
 62
   200
  6
CONTINUOUS
370
    -3
390
F
  0
LAYER
  5
102
330
2
100
AcDbSymbolTableRecord
100
AcDbLayerTableRecord
  2
201
 70
     0
 62
   201
  6
CONTINUOUS
370
    -3
390
F
  0
LAYER
  5
103
330
2
100
AcDbSymbolTableRecord
100
AcDbLayerTableRecord
  2
202
 70
     0
 62
   202
  6
CONTINUOUS
370
    -3
390
F
  0
LAYER
  5
104
330
2
100
AcDbSymbolTableRecord
100
AcDbLayerTableRecord
  2
203
 70
     0
 62
   203
  6
CONTINUOUS
370
    -3
390
F
  0
LAYER
  5
105
330
2
100
AcDbSymbolTableRecord
100
AcDbLayerTableRecord
  2
204
 70
     0
 62
   204
  6
CONTINUOUS
370
    -3
390
F
  0
LAYER
  5
106
330
2
100
AcDbSymbolTableRecord
100
AcDbLayerTableRecord
  2
205
 70
     0
 62
   205
  6
CONTINUOUS
370
    -3
390
F
  0
LAYER
  5
107
330
2
100
AcDbSymbolTableRecord
100
AcDbLayerTableRecord
  2
206
 70
     0
 62
   206
  6
CONTINUOUS
370
    -3
390
F
  0
LAYER
  5
108
330
2
100
AcDbSymbolTableRecord
100
AcDbLayerTableRecord
  2
207
 70
     0
 62
   207
  6
CONTINUOUS
370
    -3
390
F
  0
LAYER
  5
109
330
2
100
AcDbSymbolTableRecord
100
AcDbLayerTableRecord
  2
208
 70
     0
 62
   208
  6
CONTINUOUS
370
    -3
390
F
  0
LAYER
  5
10A
330
2
100
AcDbSymbolTableRecord
100
AcDbLayerTableRecord
  2
209
 70
     0
 62
   209
  6
CONTINUOUS
370
    -3
390
F
  0
LAYER
  5
10B
330
2
100
AcDbSymbolTableRecord
100
AcDbLayerTableRecord
  2
210
 70
     0
 62
   210
  6
CONTINUOUS
370
    -3
390
F
  0
LAYER
  5
10C
330
2
100
AcDbSymbolTableRecord
100
AcDbLayerTableRecord
  2
211
 70
     0
 62
   211
  6
CONTINUOUS
370
    -3
390
F
  0
LAYER
  5
10D
330
2
100
AcDbSymbolTableRecord
100
AcDbLayerTableRecord
  2
212
 70
     0
 62
   212
  6
CONTINUOUS
370
    -3
390
F
  0
LAYER
  5
10E
330
2
100
AcDbSymbolTableRecord
100
AcDbLayerTableRecord
  2
213
 70
     0
 62
   213
  6
CONTINUOUS
370
    -3
390
F
  0
LAYER
  5
10F
330
2
100
AcDbSymbolTableRecord
100
AcDbLayerTableRecord
  2
214
 70
     0
 62
   214
  6
CONTINUOUS
370
    -3
390
F
  0
LAYER
  5
110
330
2
100
AcDbSymbolTableRecord
100
AcDbLayerTableRecord
  2
215
 70
     0
 62
   215
  6
CONTINUOUS
370
    -3
390
F
  0
LAYER
  5
111
330
2
100
AcDbSymbolTableRecord
100
AcDbLayerTableRecord
  2
216
 70
     0
 62
   216
  6
CONTINUOUS
370
    -3
390
F
  0
LAYER
  5
112
330
2
100
AcDbSymbolTableRecord
100
AcDbLayerTableRecord
  2
217
 70
     0
 62
   217
  6
CONTINUOUS
370
    -3
390
F
  0
LAYER
  5
113
330
2
100
AcDbSymbolTableRecord
100
AcDbLayerTableRecord
  2
218
 70
     0
 62
   218
  6
CONTINUOUS
370
    -3
390
F
  0
LAYER
  5
114
330
2
100
AcDbSymbolTableRecord
100
AcDbLayerTableRecord
  2
219
 70
     0
 62
   219
  6
CONTINUOUS
370
    -3
390
F
  0
LAYER
  5
115
330
2
100
AcDbSymbolTableRecord
100
AcDbLayerTableRecord
  2
220
 70
     0
 62
   220
  6
CONTINUOUS
370
    -3
390
F
  0
LAYER
  5
116
330
2
100
AcDbSymbolTableRecord
100
AcDbLayerTableRecord
  2
221
 70
     0
 62
   221
  6
CONTINUOUS
370
    -3
390
F
  0
LAYER
  5
117
330
2
100
AcDbSymbolTableRecord
100
AcDbLayerTableRecord
  2
222
 70
     0
 62
   222
  6
CONTINUOUS
370
    -3
390
F
  0
LAYER
  5
118
330
2
100
AcDbSymbolTableRecord
100
AcDbLayerTableRecord
  2
223
 70
     0
 62
   223
  6
CONTINUOUS
370
    -3
390
F
  0
LAYER
  5
119
330
2
100
AcDbSymbolTableRecord
100
AcDbLayerTableRecord
  2
224
 70
     0
 62
   224
  6
CONTINUOUS
370
    -3
390
F
  0
LAYER
  5
11A
330
2
100
AcDbSymbolTableRecord
100
AcDbLayerTableRecord
  2
225
 70
     0
 62
   225
  6
CONTINUOUS
370
    -3
390
F
  0
LAYER
  5
11B
330
2
100
AcDbSymbolTableRecord
100
AcDbLayerTableRecord
  2
226
 70
     0
 62
   226
  6
CONTINUOUS
370
    -3
390
F
  0
LAYER
  5
11C
330
2
100
AcDbSymbolTableRecord
100
AcDbLayerTableRecord
  2
227
 70
     0
 62
   227
  6
CONTINUOUS
370
    -3
390
F
  0
LAYER
  5
11D
330
2
100
AcDbSymbolTableRecord
100
AcDbLayerTableRecord
  2
228
 70
     0
 62
   228
  6
CONTINUOUS
370
    -3
390
F
  0
LAYER
  5
11E
330
2
100
AcDbSymbolTableRecord
100
AcDbLayerTableRecord
  2
229
 70
     0
 62
   229
  6
CONTINUOUS
370
    -3
390
F
  0
LAYER
  5
11F
330
2
100
AcDbSymbolTableRecord
100
AcDbLayerTableRecord
  2
230
 70
     0
 62
   230
  6
CONTINUOUS
370
    -3
390
F
  0
LAYER
  5
120
330
2
100
AcDbSymbolTableRecord
100
AcDbLayerTableRecord
  2
231
 70
     0
 62
   231
  6
CONTINUOUS
370
    -3
390
F
  0
LAYER
  5
121
330
2
100
AcDbSymbolTableRecord
100
AcDbLayerTableRecord
  2
232
 70
     0
 62
   232
  6
CONTINUOUS
370
    -3
390
F
  0
LAYER
  5
122
330
2
100
AcDbSymbolTableRecord
100
AcDbLayerTableRecord
  2
233
 70
     0
 62
   233
  6
CONTINUOUS
370
    -3
390
F
  0
LAYER
  5
123
330
2
100
AcDbSymbolTableRecord
100
AcDbLayerTableRecord
  2
234
 70
     0
 62
   234
  6
CONTINUOUS
370
    -3
390
F
  0
LAYER
  5
124
330
2
100
AcDbSymbolTableRecord
100
AcDbLayerTableRecord
  2
235
 70
     0
 62
   235
  6
CONTINUOUS
370
    -3
390
F
  0
LAYER
  5
125
330
2
100
AcDbSymbolTableRecord
100
AcDbLayerTableRecord
  2
236
 70
     0
 62
   236
  6
CONTINUOUS
370
    -3
390
F
  0
LAYER
  5
126
330
2
100
AcDbSymbolTableRecord
100
AcDbLayerTableRecord
  2
237
 70
     0
 62
   237
  6
CONTINUOUS
370
    -3
390
F
  0
LAYER
  5
127
330
2
100
AcDbSymbolTableRecord
100
AcDbLayerTableRecord
  2
238
 70
     0
 62
   238
  6
CONTINUOUS
370
    -3
390
F
  0
LAYER
  5
128
330
2
100
AcDbSymbolTableRecord
100
AcDbLayerTableRecord
  2
239
 70
     0
 62
   239
  6
CONTINUOUS
370
    -3
390
F
  0
LAYER
  5
129
330
2
100
AcDbSymbolTableRecord
100
AcDbLayerTableRecord
  2
240
 70
     0
 62
   240
  6
CONTINUOUS
370
    -3
390
F
  0
LAYER
  5
12A
330
2
100
AcDbSymbolTableRecord
100
AcDbLayerTableRecord
  2
241
 70
     0
 62
   241
  6
CONTINUOUS
370
    -3
390
F
  0
LAYER
  5
12B
330
2
100
AcDbSymbolTableRecord
100
AcDbLayerTableRecord
  2
242
 70
     0
 62
   242
  6
CONTINUOUS
370
    -3
390
F
  0
LAYER
  5
12C
330
2
100
AcDbSymbolTableRecord
100
AcDbLayerTableRecord
  2
243
 70
     0
 62
   243
  6
CONTINUOUS
370
    -3
390
F
  0
LAYER
  5
12D
330
2
100
AcDbSymbolTableRecord
100
AcDbLayerTableRecord
  2
244
 70
     0
 62
   244
  6
CONTINUOUS
370
    -3
390
F
  0
LAYER
  5
12E
330
2
100
AcDbSymbolTableRecord
100
AcDbLayerTableRecord
  2
245
 70
     0
 62
   245
  6
CONTINUOUS
370
    -3
390
F
  0
LAYER
  5
12F
330
2
100
AcDbSymbolTableRecord
100
AcDbLayerTableRecord
  2
246
 70
     0
 62
   246
  6
CONTINUOUS
370
    -3
390
F
  0
LAYER
  5
130
330
2
100
AcDbSymbolTableRecord
100
AcDbLayerTableRecord
  2
247
 70
     0
 62
   247
  6
CONTINUOUS
370
    -3
390
F
  0
LAYER
  5
131
330
2
100
AcDbSymbolTableRecord
100
AcDbLayerTableRecord
  2
248
 70
     0
 62
   248
  6
CONTINUOUS
370
    -3
390
F
  0
LAYER
  5
132
330
2
100
AcDbSymbolTableRecord
100
AcDbLayerTableRecord
  2
249
 70
     0
 62
   249
  6
CONTINUOUS
370
    -3
390
F
  0
LAYER
  5
133
330
2
100
AcDbSymbolTableRecord
100
AcDbLayerTableRecord
  2
250
 70
     0
 62
   250
  6
CONTINUOUS
370
    -3
390
F
  0
LAYER
  5
134
330
2
100
AcDbSymbolTableRecord
100
AcDbLayerTableRecord
  2
251
 70
     0
 62
   251
  6
CONTINUOUS
370
    -3
390
F
  0
LAYER
  5
135
330
2
100
AcDbSymbolTableRecord
100
AcDbLayerTableRecord
  2
252
 70
     0
 62
   252
  6
CONTINUOUS
370
    -3
390
F
  0
LAYER
  5
136
330
2
100
AcDbSymbolTableRecord
100
AcDbLayerTableRecord
  2
253
 70
     0
 62
   253
  6
CONTINUOUS
370
    -3
390
F
  0
LAYER
  5
137
330
2
100
AcDbSymbolTableRecord
100
AcDbLayerTableRecord
  2
254
 70
     0
 62
   254
  6
CONTINUOUS
370
    -3
390
F
  0
LAYER
  5
138
330
2
100
AcDbSymbolTableRecord
100
AcDbLayerTableRecord
  2
255
 70
     0
 62
   255
  6
CONTINUOUS
370
    -3
390
F
  0
ENDTAB
  0
TABLE
  2
STYLE
  5
3
330
0
100
AcDbSymbolTable
 70
     1
  0
STYLE
  5
11
330
3
100
AcDbSymbolTableRecord
100
AcDbTextStyleTableRecord
  2
STANDARD
 70
     0
 40
0.0
 41
1.0
 50
0.0
 71
     0
 42
0.2
  3
monotxt
  4

  0
ENDTAB
  0
TABLE
  2
VIEW
  5
6
330
0
100
AcDbSymbolTable
 70
     0
  0
ENDTAB
  0
TABLE
  2
UCS
  5
7
330
0
100
AcDbSymbolTable
 70
     0
  0
ENDTAB
  0
TABLE
  2
APPID
  5
9
330
0
100
AcDbSymbolTable
 70
     1
  0
APPID
  5
12
330
9
100
AcDbSymbolTableRecord
100
AcDbRegAppTableRecord
  2
ACAD
 70
     0
  0
ENDTAB
  0
TABLE
  2
DIMSTYLE
  5
A
330
0
100
AcDbSymbolTable
 70
     1
100
AcDbDimStyleTable
 71
     0
  0
DIMSTYLE
105
5EF
330
A
100
AcDbSymbolTableRecord
100
AcDbDimStyleTableRecord
  2
Standard
 70
     0
340
11
  0
ENDTAB
  0
TABLE
  2
BLOCK_RECORD
  5
1
330
0
100
AcDbSymbolTable
 70
     0
  0
BLOCK_RECORD
  5
1E
330
1
100
AcDbSymbolTableRecord
100
AcDbBlockTableRecord
  2
*Model_Space
340
21
  0
BLOCK_RECORD
  5
1A
330
1
100
AcDbSymbolTableRecord
100
AcDbBlockTableRecord
  2
*Paper_Space
340
1D
  0
ENDTAB
  0
ENDSEC
  0
SECTION
  2
BLOCKS
  0
BLOCK
  5
13B
330
1E
100
AcDbEntity
  8
0
100
AcDbBlockBegin
  2
*Model_Space
 70
     0
 10
0.0
 20
0.0
 30
0.0
  3
*Model_Space
  1

  0
ENDBLK
  5
13C
330
1E
100
AcDbEntity
  8
0
100
AcDbBlockEnd
  0
BLOCK
  5
139
330
1A
100
AcDbEntity
 67
     1
  8
0
100
AcDbBlockBegin
  2
*Paper_Space
 70
     0
 10
0.0
 20
0.0
 30
0.0
  3
*Paper_Space
  1

  0
ENDBLK
  5
13A
330
1A
100
AcDbEntity
 67
     1
  8
0
100
AcDbBlockEnd
  0
ENDSEC
  0
SECTION
  2
ENTITIES
  0
LINE
  5
13E
330
1E
100
AcDbEntity
  8
7
100
AcDbLine
 10
9.996062992125985
 20
3.400590551181102
 30
0.0
 11
9.990157480314961
 21
3.403543307086613
 31
0.0
  0
LINE
  5
14A
330
1E
100
AcDbEntity
  8
7
100
AcDbLine
 10
9.991141732283464
 20
3.421259842519685
 30
0.0
 11
9.992125984251968
 21
3.415354330708661
 31
0.0
  0
LINE
  5
17C
330
1E
100
AcDbEntity
  8
7
100
AcDbLine
 10
9.788385826771653
 20
3.30511811023622
 30
0.0
 11
9.788385826771653
 21
3.384842519685038
 31
0.0
  0
LINE
  5
17D
330
1E
100
AcDbEntity
  8
7
100
AcDbLine
 10
10.0757874015748
 20
3.30511811023622
 30
0.0
 11
10.07185039370078
 21
3.270669291338582
 31
0.0
  0
LINE
  5
18D
330
1E
100
AcDbEntity
  8
7
100
AcDbLine
 10
10.0757874015748
 20
3.416338582677165
 30
0.0
 11
10.0757874015748
 21
3.30511811023622
 31
0.0
  0
LINE
  5
1AC
330
1E
100
AcDbEntity
  8
7
100
AcDbLine
 10
10.05610236220472
 20
4.23523622047244
 30
0.0
 11
9.953740157480314
 21
4.202755905511811
 31
0.0
  0
LINE
  5
1C7
330
1E
100
AcDbEntity
  8
7
100
AcDbLine
 10
9.370078740157481
 20
3.593503937007874
 30
0.0
 11
9.370078740157481
 21
4.222440944881889
 31
0.0
  0
LINE
  5
1C8
330
1E
100
AcDbEntity
  8
7
100
AcDbLine
 10
9.166338582677166
 20
4.182086614173227
 30
0.0
 11
9.370078740157481
 21
4.222440944881889
 31
0.0
  0
LINE
  5
1C9
330
1E
100
AcDbEntity
  8
7
100
AcDbLine
 10
9.166338582677166
 20
3.633858267716535
 30
0.0
 11
9.166338582677166
 21
4.182086614173227
 31
0.0
  0
LINE
  5
1CA
330
1E
100
AcDbEntity
  8
7
100
AcDbLine
 10
9.370078740157481
 20
3.593503937007874
 30
0.0
 11
9.166338582677166
 21
3.633858267716535
 31
0.0
  0
LINE
  5
1D7
330
1E
100
AcDbEntity
  8
7
100
AcDbLine
 10
10.10629921259842
 20
3.518700787401574
 30
0.0
 11
10.11023622047244
 21
3.518700787401574
 31
0.0
  0
LINE
  5
212
330
1E
100
AcDbEntity
  8
7
100
AcDbLine
 10
10.08169291338582
 20
3.676181102362204
 30
0.0
 11
10.08169291338582
 21
3.617125984251968
 31
0.0
  0
LINE
  5
223
330
1E
100
AcDbEntity
  8
7
100
AcDbLine
 10
10.05610236220472
 20
4.296259842519685
 30
0.0
 11
10.05610236220472
 21
4.23523622047244
 31
0.0
  0
LINE
  5
22C
330
1E
100
AcDbEntity
  8
7
100
AcDbLine
 10
9.369094488188975
 20
4.223425196850393
 30
0.0
 11
9.993110236220472
 21
4.348425196850393
 31
0.0
  0
LINE
  5
22D
330
1E
100
AcDbEntity
  8
7
100
AcDbLine
 10
9.370078740157481
 20
4.222440944881889
 30
0.0
 11
9.369094488188975
 21
4.223425196850393
 31
0.0
  0
LINE
  5
22E
330
1E
100
AcDbEntity
  8
7
100
AcDbLine
 10
9.369094488188975
 20
3.591535433070865
 30
0.0
 11
9.370078740157481
 21
3.593503937007874
 31
0.0
  0
LINE
  5
22F
330
1E
100
AcDbEntity
  8
7
100
AcDbLine
 10
9.993110236220472
 20
3.467519685039369
 30
0.0
 11
9.369094488188975
 21
3.591535433070865
 31
0.0
  0
LINE
  5
230
330
1E
100
AcDbEntity
  8
7
100
AcDbLine
 10
10.05610236220472
 20
3.580708661417322
 30
0.0
 11
10.05610236220472
 21
3.518700787401574
 31
0.0
  0
LINE
  5
238
330
1E
100
AcDbEntity
  8
7
100
AcDbLine
 10
9.759842519685038
 20
3.411417322834645
 30
0.0
 11
9.763779527559055
 21
3.384842519685038
 31
0.0
  0
LINE
  5
26C
330
1E
100
AcDbEntity
  8
7
100
AcDbLine
 10
9.099409448818898
 20
4.136811023622047
 30
0.0
 11
9.099409448818898
 21
3.679133858267716
 31
0.0
  0
LINE
  5
282
330
1E
100
AcDbEntity
  8
7
100
AcDbLine
 10
9.045275590551181
 20
4.136811023622047
 30
0.0
 11
9.099409448818898
 21
4.136811023622047
 31
0.0
  0
LINE
  5
288
330
1E
100
AcDbEntity
  8
7
100
AcDbLine
 10
9.00984251968504
 20
4.127952755905512
 30
0.0
 11
9.036417322834646
 21
4.135826771653543
 31
0.0
  0
LINE
  5
289
330
1E
100
AcDbEntity
  8
7
100
AcDbLine
 10
9.00984251968504
 20
4.127952755905512
 30
0.0
 11
9.00984251968504
 21
3.687007874015748
 31
0.0
  0
LINE
  5
28A
330
1E
100
AcDbEntity
  8
7
100
AcDbLine
 10
9.036417322834646
 20
3.68011811023622
 30
0.0
 11
9.00984251968504
 21
3.687007874015748
 31
0.0
  0
LINE
  5
290
330
1E
100
AcDbEntity
  8
7
100
AcDbLine
 10
9.099409448818898
 20
3.679133858267716
 30
0.0
 11
9.045275590551181
 21
3.679133858267716
 31
0.0
  0
LINE
  5
291
330
1E
100
AcDbEntity
  8
7
100
AcDbLine
 10
9.991141732283464
 20
4.394685039370078
 30
0.0
 11
9.364173228346457
 21
4.268700787401574
 31
0.0
  0
LINE
  5
299
330
1E
100
AcDbEntity
  8
7
100
AcDbLine
 10
9.993110236220472
 20
4.348425196850393
 30
0.0
 11
9.989173228346457
 21
4.371062992125984
 31
0.0
  0
LINE
  5
29F
330
1E
100
AcDbEntity
  8
7
100
AcDbLine
 10
9.364173228346457
 20
4.268700787401574
 30
0.0
 11
9.120078740157481
 21
4.220472440944881
 31
0.0
  0
LINE
  5
2AC
330
1E
100
AcDbEntity
  8
7
100
AcDbLine
 10
10.02066929133858
 20
4.395669291338582
 30
0.0
 11
9.991141732283464
 21
4.394685039370078
 31
0.0
  0
LINE
  5
2BF
330
1E
100
AcDbEntity
  8
7
100
AcDbLine
 10
10.11023622047244
 20
4.215551181102362
 30
0.0
 11
10.11023622047244
 21
4.296259842519685
 31
0.0
  0
LINE
  5
2D5
330
1E
100
AcDbEntity
  8
7
100
AcDbLine
 10
9.045275590551181
 20
3.663385826771653
 30
0.0
 11
9.099409448818898
 21
3.663385826771653
 31
0.0
  0
LINE
  5
2EB
330
1E
100
AcDbEntity
  8
7
100
AcDbLine
 10
9.032480314960629
 20
4.150590551181101
 30
0.0
 11
9.00984251968504
 21
4.144685039370078
 31
0.0
  0
LINE
  5
303
330
1E
100
AcDbEntity
  8
7
100
AcDbLine
 10
9.763779527559055
 20
3.384842519685038
 30
0.0
 11
9.763779527559055
 21
3.30511811023622
 31
0.0
  0
LINE
  5
304
330
1E
100
AcDbEntity
  8
7
100
AcDbLine
 10
9.518700787401575
 20
2.52263779527559
 30
0.0
 11
9.494094488188975
 21
2.518700787401574
 31
0.0
  0
LINE
  5
305
330
1E
100
AcDbEntity
  8
7
100
AcDbLine
 10
9.518700787401575
 20
2.52263779527559
 30
0.0
 11
9.494094488188975
 21
2.518700787401574
 31
0.0
  0
LINE
  5
306
330
1E
100
AcDbEntity
  8
7
100
AcDbLine
 10
9.615157480314961
 20
2.538385826771653
 30
0.0
 11
9.494094488188975
 21
2.518700787401574
 31
0.0
  0
LINE
  5
311
330
1E
100
AcDbEntity
  8
7
100
AcDbLine
 10
9.494094488188975
 20
2.518700787401574
 30
0.0
 11
9.518700787401575
 21
2.52263779527559
 31
0.0
  0
LINE
  5
312
330
1E
100
AcDbEntity
  8
7
100
AcDbLine
 10
9.494094488188975
 20
2.518700787401574
 30
0.0
 11
9.518700787401575
 21
2.52263779527559
 31
0.0
  0
LINE
  5
313
330
1E
100
AcDbEntity
  8
7
100
AcDbLine
 10
10.06200787401574
 20
2.750984251968503
 30
0.0
 11
10.06692913385826
 21
2.736220472440944
 31
0.0
  0
LINE
  5
314
330
1E
100
AcDbEntity
  8
7
100
AcDbLine
 10
10.06692913385826
 20
2.736220472440944
 30
0.0
 11
10.0757874015748
 21
2.731299212598425
 31
0.0
  0
LINE
  5
323
330
1E
100
AcDbEntity
  8
7
100
AcDbLine
 10
9.788385826771653
 20
2.686023622047243
 30
0.0
 11
9.785433070866142
 21
2.685039370078739
 31
0.0
  0
LINE
  5
324
330
1E
100
AcDbEntity
  8
7
100
AcDbLine
 10
9.785433070866142
 20
2.685039370078739
 30
0.0
 11
9.773622047244094
 21
2.683070866141732
 31
0.0
  0
LINE
  5
341
330
1E
100
AcDbEntity
  8
7
100
AcDbLine
 10
9.377952755905512
 20
2.5
 30
0.0
 11
9.699803149606299
 21
2.551181102362204
 31
0.0
  0
LINE
  5
355
330
1E
100
AcDbEntity
  8
7
100
AcDbLine
 10
9.370078740157481
 20
2.698818897637795
 30
0.0
 11
9.166338582677166
 21
2.698818897637795
 31
0.0
  0
LINE
  5
37B
330
1E
100
AcDbEntity
  8
7
100
AcDbLine
 10
9.993110236220472
 20
2.798228346456692
 30
0.0
 11
9.369094488188975
 21
2.698818897637795
 31
0.0
  0
LINE
  5
37C
330
1E
100
AcDbEntity
  8
7
100
AcDbLine
 10
9.683070866141733
 20
2.639763779527559
 30
0.0
 11
9.708661417322835
 21
2.644685039370078
 31
0.0
  0
LINE
  5
392
330
1E
100
AcDbEntity
  8
7
100
AcDbLine
 10
9.120078740157481
 20
2.65255905511811
 30
0.0
 11
9.364173228346457
 21
2.65255905511811
 31
0.0
  0
LINE
  5
3B1
330
1E
100
AcDbEntity
  8
7
100
AcDbLine
 10
9.036417322834646
 20
2.61023622047244
 30
0.0
 11
9.00984251968504
 21
2.61023622047244
 31
0.0
  0
LINE
  5
3B7
330
1E
100
AcDbEntity
  8
7
100
AcDbLine
 10
9.099409448818898
 20
2.61023622047244
 30
0.0
 11
9.045275590551181
 21
2.61023622047244
 31
0.0
  0
LINE
  5
3BE
330
1E
100
AcDbEntity
  8
7
100
AcDbLine
 10
10.11023622047244
 20
2.701771653543306
 30
0.0
 11
10.11023622047244
 21
2.761811023622047
 31
0.0
  0
LINE
  5
3BF
330
1E
100
AcDbEntity
  8
7
100
AcDbLine
 10
9.991141732283464
 20
2.751968503937007
 30
0.0
 11
9.991141732283464
 21
2.737204724409448
 31
0.0
  0
LINE
  5
3C8
330
1E
100
AcDbEntity
  8
7
100
AcDbLine
 10
9.683070866141733
 20
2.639763779527559
 30
0.0
 11
9.683070866141733
 21
2.598425196850393
 31
0.0
  0
LINE
  5
3C9
330
1E
100
AcDbEntity
  8
7
100
AcDbLine
 10
9.032480314960629
 20
2.594488188976377
 30
0.0
 11
9.033464566929133
 21
2.605314960629921
 31
0.0
  0
LINE
  5
3CA
330
1E
100
AcDbEntity
  8
7
100
AcDbLine
 10
9.033464566929133
 20
2.605314960629921
 30
0.0
 11
9.036417322834646
 21
2.61023622047244
 31
0.0
  0
LINE
  5
3DC
330
1E
100
AcDbEntity
  8
7
100
AcDbLine
 10
9.045275590551181
 20
2.55511811023622
 30
0.0
 11
9.045275590551181
 21
2.594488188976377
 31
0.0
  0
LINE
  5
3DD
330
1E
100
AcDbEntity
  8
7
100
AcDbLine
 10
9.108267716535433
 20
2.55511811023622
 30
0.0
 11
9.045275590551181
 21
2.55511811023622
 31
0.0
  0
LINE
  5
3E3
330
1E
100
AcDbEntity
  8
7
100
AcDbLine
 10
9.361220472440944
 20
2.547244094488188
 30
0.0
 11
9.352362204724409
 21
2.546259842519685
 31
0.0
  0
LINE
  5
3E4
330
1E
100
AcDbEntity
  8
7
100
AcDbLine
 10
9.683070866141733
 20
2.598425196850393
 30
0.0
 11
9.361220472440944
 21
2.547244094488188
 31
0.0
  0
LINE
  5
3EA
330
1E
100
AcDbEntity
  8
7
100
AcDbLine
 10
9.352362204724409
 20
2.546259842519685
 30
0.0
 11
9.137795275590551
 21
2.546259842519685
 31
0.0
  0
LINE
  5
3F7
330
1E
100
AcDbEntity
  8
7
100
AcDbLine
 10
9.00984251968504
 20
2.55511811023622
 30
0.0
 11
9.00984251968504
 21
2.594488188976377
 31
0.0
  0
LINE
  5
3FD
330
1E
100
AcDbEntity
  8
7
100
AcDbLine
 10
10.11023622047244
 20
2.656496062992125
 30
0.0
 11
10.11023622047244
 21
2.701771653543306
 31
0.0
  0
LINE
  5
40B
330
1E
100
AcDbEntity
  8
7
100
AcDbLine
 10
9.157480314960629
 20
2.499015748031495
 30
0.0
 11
9.362204724409449
 21
2.499015748031495
 31
0.0
  0
LINE
  5
40C
330
1E
100
AcDbEntity
  8
7
100
AcDbLine
 10
9.414370078740157
 20
2.499015748031495
 30
0.0
 11
9.414370078740157
 21
2.505905511811023
 31
0.0
  0
LINE
  5
40D
330
1E
100
AcDbEntity
  8
7
100
AcDbLine
 10
9.325787401574803
 20
2.499015748031495
 30
0.0
 11
9.329724409448818
 21
2.479330708661417
 31
0.0
  0
LINE
  5
417
330
1E
100
AcDbEntity
  8
7
100
AcDbLine
 10
9.362204724409449
 20
2.499015748031495
 30
0.0
 11
9.377952755905512
 21
2.5
 31
0.0
  0
LINE
  5
433
330
1E
100
AcDbEntity
  8
7
100
AcDbLine
 10
9.108267716535433
 20
2.55511811023622
 30
0.0
 11
9.108267716535433
 21
2.544291338582676
 31
0.0
  0
LINE
  5
434
330
1E
100
AcDbEntity
  8
7
100
AcDbLine
 10
9.108267716535433
 20
2.544291338582676
 30
0.0
 11
9.108267716535433
 21
2.539370078740157
 31
0.0
  0
LINE
  5
435
330
1E
100
AcDbEntity
  8
7
100
AcDbLine
 10
9.045275590551181
 20
2.539370078740157
 30
0.0
 11
9.108267716535433
 21
2.539370078740157
 31
0.0
  0
LINE
  5
43B
330
1E
100
AcDbEntity
  8
7
100
AcDbLine
 10
9.00984251968504
 20
2.539370078740157
 30
0.0
 11
9.036417322834646
 21
2.539370078740157
 31
0.0
  0
LINE
  5
45D
330
1E
100
AcDbEntity
  8
7
100
AcDbLine
 10
9.788385826771653
 20
2.685039370078739
 30
0.0
 11
9.770669291338583
 21
2.674212598425196
 31
0.0
  0
LINE
  5
45E
330
1E
100
AcDbEntity
  8
7
100
AcDbLine
 10
9.770669291338583
 20
2.674212598425196
 30
0.0
 11
9.763779527559055
 21
2.655511811023622
 31
0.0
  0
LINE
  5
471
330
1E
100
AcDbEntity
  8
7
100
AcDbLine
 10
9.763779527559055
 20
2.655511811023622
 30
0.0
 11
9.763779527559055
 21
2.617125984251968
 31
0.0
  0
LINE
  5
472
330
1E
100
AcDbEntity
  8
7
100
AcDbLine
 10
9.518700787401575
 20
2.52263779527559
 30
0.0
 11
9.494094488188975
 21
2.518700787401574
 31
0.0
  0
LINE
  5
473
330
1E
100
AcDbEntity
  8
7
100
AcDbLine
 10
9.518700787401575
 20
2.52263779527559
 30
0.0
 11
9.494094488188975
 21
2.518700787401574
 31
0.0
  0
LINE
  5
474
330
1E
100
AcDbEntity
  8
7
100
AcDbLine
 10
9.615157480314961
 20
2.538385826771653
 30
0.0
 11
9.494094488188975
 21
2.518700787401574
 31
0.0
  0
LINE
  5
47F
330
1E
100
AcDbEntity
  8
7
100
AcDbLine
 10
9.494094488188975
 20
2.518700787401574
 30
0.0
 11
9.518700787401575
 21
2.52263779527559
 31
0.0
  0
LINE
  5
480
330
1E
100
AcDbEntity
  8
7
100
AcDbLine
 10
9.494094488188975
 20
2.518700787401574
 30
0.0
 11
9.518700787401575
 21
2.52263779527559
 31
0.0
  0
LINE
  5
4B5
330
1E
100
AcDbEntity
  8
7
100
AcDbLine
 10
9.377952755905512
 20
2.5
 30
0.0
 11
9.699803149606299
 21
2.551181102362204
 31
0.0
  0
LINE
  5
4B6
330
1E
100
AcDbEntity
  8
7
100
AcDbLine
 10
9.817913385826772
 20
2.569881889763779
 30
0.0
 11
9.821850393700787
 21
2.570866141732283
 31
0.0
  0
LINE
  5
4C6
330
1E
100
AcDbEntity
  8
7
100
AcDbLine
 10
9.370078740157481
 20
2.698818897637795
 30
0.0
 11
9.166338582677166
 21
2.698818897637795
 31
0.0
  0
LINE
  5
4C7
330
1E
100
AcDbEntity
  8
7
100
AcDbLine
 10
10.11023622047244
 20
2.701771653543306
 30
0.0
 11
10.10433070866141
 21
2.727362204724409
 31
0.0
  0
LINE
  5
4E9
330
1E
100
AcDbEntity
  8
7
100
AcDbLine
 10
9.993110236220472
 20
2.798228346456692
 30
0.0
 11
9.369094488188975
 21
2.698818897637795
 31
0.0
  0
LINE
  5
512
330
1E
100
AcDbEntity
  8
7
100
AcDbLine
 10
9.703740157480314
 20
2.661417322834645
 30
0.0
 11
9.683070866141733
 21
2.639763779527559
 31
0.0
  0
LINE
  5
522
330
1E
100
AcDbEntity
  8
7
100
AcDbLine
 10
9.036417322834646
 20
2.61023622047244
 30
0.0
 11
9.00984251968504
 21
2.61023622047244
 31
0.0
  0
LINE
  5
528
330
1E
100
AcDbEntity
  8
7
100
AcDbLine
 10
9.099409448818898
 20
2.61023622047244
 30
0.0
 11
9.045275590551181
 21
2.61023622047244
 31
0.0
  0
LINE
  5
52F
330
1E
100
AcDbEntity
  8
7
100
AcDbLine
 10
10.11023622047244
 20
2.701771653543306
 30
0.0
 11
10.11023622047244
 21
2.761811023622047
 31
0.0
  0
LINE
  5
530
330
1E
100
AcDbEntity
  8
7
100
AcDbLine
 10
9.991141732283464
 20
2.751968503937007
 30
0.0
 11
9.991141732283464
 21
2.737204724409448
 31
0.0
  0
LINE
  5
539
330
1E
100
AcDbEntity
  8
7
100
AcDbLine
 10
9.683070866141733
 20
2.639763779527559
 30
0.0
 11
9.683070866141733
 21
2.598425196850393
 31
0.0
  0
LINE
  5
550
330
1E
100
AcDbEntity
  8
7
100
AcDbLine
 10
9.045275590551181
 20
2.55511811023622
 30
0.0
 11
9.045275590551181
 21
2.594488188976377
 31
0.0
  0
LINE
  5
551
330
1E
100
AcDbEntity
  8
7
100
AcDbLine
 10
9.108267716535433
 20
2.55511811023622
 30
0.0
 11
9.045275590551181
 21
2.55511811023622
 31
0.0
  0
LINE
  5
557
330
1E
100
AcDbEntity
  8
7
100
AcDbLine
 10
9.361220472440944
 20
2.547244094488188
 30
0.0
 11
9.352362204724409
 21
2.546259842519685
 31
0.0
  0
LINE
  5
558
330
1E
100
AcDbEntity
  8
7
100
AcDbLine
 10
9.683070866141733
 20
2.598425196850393
 30
0.0
 11
9.361220472440944
 21
2.547244094488188
 31
0.0
  0
LINE
  5
55E
330
1E
100
AcDbEntity
  8
7
100
AcDbLine
 10
9.352362204724409
 20
2.546259842519685
 30
0.0
 11
9.137795275590551
 21
2.546259842519685
 31
0.0
  0
LINE
  5
56A
330
1E
100
AcDbEntity
  8
7
100
AcDbLine
 10
9.372047244094488
 20
2.505905511811023
 30
0.0
 11
9.377952755905512
 21
2.5
 31
0.0
  0
LINE
  5
56B
330
1E
100
AcDbEntity
  8
7
100
AcDbLine
 10
9.00984251968504
 20
2.55511811023622
 30
0.0
 11
9.00984251968504
 21
2.594488188976377
 31
0.0
  0
LINE
  5
571
330
1E
100
AcDbEntity
  8
7
100
AcDbLine
 10
10.11023622047244
 20
2.656496062992125
 30
0.0
 11
10.11023622047244
 21
2.701771653543306
 31
0.0
  0
LINE
  5
578
330
1E
100
AcDbEntity
  8
7
100
AcDbLine
 10
9.156496062992125
 20
2.502952755905511
 30
0.0
 11
9.157480314960629
 21
2.499015748031495
 31
0.0
  0
LINE
  5
57F
330
1E
100
AcDbEntity
  8
7
100
AcDbLine
 10
9.157480314960629
 20
2.499015748031495
 30
0.0
 11
9.362204724409449
 21
2.499015748031495
 31
0.0
  0
LINE
  5
580
330
1E
100
AcDbEntity
  8
7
100
AcDbLine
 10
9.414370078740157
 20
2.499015748031495
 30
0.0
 11
9.414370078740157
 21
2.505905511811023
 31
0.0
  0
LINE
  5
58B
330
1E
100
AcDbEntity
  8
7
100
AcDbLine
 10
9.362204724409449
 20
2.499015748031495
 30
0.0
 11
9.377952755905512
 21
2.5
 31
0.0
  0
LINE
  5
5AC
330
1E
100
AcDbEntity
  8
7
100
AcDbLine
 10
9.045275590551181
 20
2.539370078740157
 30
0.0
 11
9.108267716535433
 21
2.539370078740157
 31
0.0
  0
LINE
  5
5B2
330
1E
100
AcDbEntity
  8
7
100
AcDbLine
 10
9.00984251968504
 20
2.539370078740157
 30
0.0
 11
9.036417322834646
 21
2.539370078740157
 31
0.0
  0
LINE
  5
5EE
330
1E
100
AcDbEntity
  8
7
100
AcDbLine
 10
9.763779527559055
 20
2.655511811023622
 30
0.0
 11
9.763779527559055
 21
2.617125984251968
 31
0.0
  0
LINE
  5
5F2
330
1E
100
AcDbEntity
  8
7
100
AcDbLine
 10
9.763779527559055
 20
2.617125984251968
 30
0.0
 11
9.759842519685038
 21
2.616141732283464
 31
0.0
  0
LINE
  5
5F3
330
1E
100
AcDbEntity
  8
7
100
AcDbLine
 10
9.759842519685038
 20
2.616141732283464
 30
0.0
 11
9.749015748031496
 21
2.613188976377952
 31
0.0
  0
LINE
  5
5F4
330
1E
100
AcDbEntity
  8
7
100
AcDbLine
 10
9.749015748031496
 20
2.613188976377952
 30
0.0
 11
9.731299212598425
 21
2.609251968503937
 31
0.0
  0
LINE
  5
5F5
330
1E
100
AcDbEntity
  8
7
100
AcDbLine
 10
9.731299212598425
 20
2.609251968503937
 30
0.0
 11
9.708661417322835
 21
2.604330708661417
 31
0.0
  0
LINE
  5
5F6
330
1E
100
AcDbEntity
  8
7
100
AcDbLine
 10
9.708661417322835
 20
2.604330708661417
 30
0.0
 11
9.683070866141733
 21
2.598425196850393
 31
0.0
  0
LINE
  5
5F7
330
1E
100
AcDbEntity
  8
7
100
AcDbLine
 10
9.774606299212598
 20
2.702755905511811
 30
0.0
 11
9.745078740157481
 21
2.692913385826771
 31
0.0
  0
LINE
  5
5F8
330
1E
100
AcDbEntity
  8
7
100
AcDbLine
 10
9.745078740157481
 20
2.692913385826771
 30
0.0
 11
9.723425196850394
 21
2.678149606299212
 31
0.0
  0
LINE
  5
5F9
330
1E
100
AcDbEntity
  8
7
100
AcDbLine
 10
9.723425196850394
 20
2.678149606299212
 30
0.0
 11
9.703740157480314
 21
2.661417322834645
 31
0.0
  0
LINE
  5
5FA
330
1E
100
AcDbEntity
  8
7
100
AcDbLine
 10
9.369094488188975
 20
2.698818897637795
 30
0.0
 11
9.366141732283464
 21
2.694881889763779
 31
0.0
  0
LINE
  5
5FB
330
1E
100
AcDbEntity
  8
7
100
AcDbLine
 10
9.366141732283464
 20
2.694881889763779
 30
0.0
 11
9.364173228346457
 21
2.685039370078739
 31
0.0
  0
LINE
  5
5FC
330
1E
100
AcDbEntity
  8
7
100
AcDbLine
 10
9.364173228346457
 20
2.685039370078739
 30
0.0
 11
9.363188976377953
 21
2.670275590551181
 31
0.0
  0
LINE
  5
5FD
330
1E
100
AcDbEntity
  8
7
100
AcDbLine
 10
9.363188976377953
 20
2.670275590551181
 30
0.0
 11
9.364173228346457
 21
2.65255905511811
 31
0.0
  0
LINE
  5
5FE
330
1E
100
AcDbEntity
  8
7
100
AcDbLine
 10
9.364173228346457
 20
2.65255905511811
 30
0.0
 11
9.991141732283464
 21
2.751968503937007
 31
0.0
  0
LINE
  5
5FF
330
1E
100
AcDbEntity
  8
7
100
AcDbLine
 10
9.683070866141733
 20
2.639763779527559
 30
0.0
 11
9.710629921259842
 21
2.655511811023622
 31
0.0
  0
LINE
  5
600
330
1E
100
AcDbEntity
  8
7
100
AcDbLine
 10
9.710629921259842
 20
2.655511811023622
 30
0.0
 11
9.737204724409449
 21
2.670275590551181
 31
0.0
  0
LINE
  5
601
330
1E
100
AcDbEntity
  8
7
100
AcDbLine
 10
9.737204724409449
 20
2.670275590551181
 30
0.0
 11
9.75492125984252
 21
2.678149606299212
 31
0.0
  0
LINE
  5
602
330
1E
100
AcDbEntity
  8
7
100
AcDbLine
 10
9.75492125984252
 20
2.678149606299212
 30
0.0
 11
9.773622047244094
 21
2.683070866141732
 31
0.0
  0
LINE
  5
603
330
1E
100
AcDbEntity
  8
7
100
AcDbLine
 10
9.683070866141733
 20
2.639763779527559
 30
0.0
 11
9.708661417322835
 21
2.644685039370078
 31
0.0
  0
LINE
  5
604
330
1E
100
AcDbEntity
  8
7
100
AcDbLine
 10
9.708661417322835
 20
2.644685039370078
 30
0.0
 11
9.731299212598425
 21
2.649606299212598
 31
0.0
  0
LINE
  5
605
330
1E
100
AcDbEntity
  8
7
100
AcDbLine
 10
9.731299212598425
 20
2.649606299212598
 30
0.0
 11
9.749015748031496
 21
2.65255905511811
 31
0.0
  0
LINE
  5
606
330
1E
100
AcDbEntity
  8
7
100
AcDbLine
 10
9.749015748031496
 20
2.65255905511811
 30
0.0
 11
9.759842519685038
 21
2.655511811023622
 31
0.0
  0
LINE
  5
607
330
1E
100
AcDbEntity
  8
7
100
AcDbLine
 10
9.759842519685038
 20
2.655511811023622
 30
0.0
 11
9.763779527559055
 21
2.655511811023622
 31
0.0
  0
LINE
  5
608
330
1E
100
AcDbEntity
  8
7
100
AcDbLine
 10
9.699803149606299
 20
2.551181102362204
 30
0.0
 11
9.731299212598425
 21
2.556102362204724
 31
0.0
  0
LINE
  5
609
330
1E
100
AcDbEntity
  8
7
100
AcDbLine
 10
9.731299212598425
 20
2.556102362204724
 30
0.0
 11
9.760826771653544
 21
2.561023622047243
 31
0.0
  0
LINE
  5
60A
330
1E
100
AcDbEntity
  8
7
100
AcDbLine
 10
9.760826771653544
 20
2.561023622047243
 30
0.0
 11
9.784448818897638
 21
2.564960629921259
 31
0.0
  0
LINE
  5
60B
330
1E
100
AcDbEntity
  8
7
100
AcDbLine
 10
9.784448818897638
 20
2.564960629921259
 30
0.0
 11
9.803149606299212
 21
2.567913385826771
 31
0.0
  0
LINE
  5
60C
330
1E
100
AcDbEntity
  8
7
100
AcDbLine
 10
9.803149606299212
 20
2.567913385826771
 30
0.0
 11
9.813976377952755
 21
2.569881889763779
 31
0.0
  0
LINE
  5
60D
330
1E
100
AcDbEntity
  8
7
100
AcDbLine
 10
9.813976377952755
 20
2.569881889763779
 30
0.0
 11
9.817913385826772
 21
2.569881889763779
 31
0.0
  0
LINE
  5
60E
330
1E
100
AcDbEntity
  8
7
100
AcDbLine
 10
9.763779527559055
 20
2.617125984251968
 30
0.0
 11
9.759842519685038
 21
2.616141732283464
 31
0.0
  0
LINE
  5
60F
330
1E
100
AcDbEntity
  8
7
100
AcDbLine
 10
9.759842519685038
 20
2.616141732283464
 30
0.0
 11
9.749015748031496
 21
2.613188976377952
 31
0.0
  0
LINE
  5
610
330
1E
100
AcDbEntity
  8
7
100
AcDbLine
 10
9.749015748031496
 20
2.613188976377952
 30
0.0
 11
9.731299212598425
 21
2.609251968503937
 31
0.0
  0
LINE
  5
611
330
1E
100
AcDbEntity
  8
7
100
AcDbLine
 10
9.731299212598425
 20
2.609251968503937
 30
0.0
 11
9.708661417322835
 21
2.604330708661417
 31
0.0
  0
LINE
  5
612
330
1E
100
AcDbEntity
  8
7
100
AcDbLine
 10
9.708661417322835
 20
2.604330708661417
 30
0.0
 11
9.683070866141733
 21
2.598425196850393
 31
0.0
  0
LINE
  5
613
330
1E
100
AcDbEntity
  8
7
100
AcDbLine
 10
9.774606299212598
 20
2.702755905511811
 30
0.0
 11
9.745078740157481
 21
2.692913385826771
 31
0.0
  0
LINE
  5
614
330
1E
100
AcDbEntity
  8
7
100
AcDbLine
 10
9.745078740157481
 20
2.692913385826771
 30
0.0
 11
9.723425196850394
 21
2.678149606299212
 31
0.0
  0
LINE
  5
615
330
1E
100
AcDbEntity
  8
7
100
AcDbLine
 10
9.723425196850394
 20
2.678149606299212
 30
0.0
 11
9.703740157480314
 21
2.661417322834645
 31
0.0
  0
LINE
  5
616
330
1E
100
AcDbEntity
  8
7
100
AcDbLine
 10
9.703740157480314
 20
2.661417322834645
 30
0.0
 11
9.683070866141733
 21
2.639763779527559
 31
0.0
  0
LINE
  5
617
330
1E
100
AcDbEntity
  8
7
100
AcDbLine
 10
9.369094488188975
 20
2.698818897637795
 30
0.0
 11
9.366141732283464
 21
2.694881889763779
 31
0.0
  0
LINE
  5
618
330
1E
100
AcDbEntity
  8
7
100
AcDbLine
 10
9.366141732283464
 20
2.694881889763779
 30
0.0
 11
9.364173228346457
 21
2.685039370078739
 31
0.0
  0
LINE
  5
619
330
1E
100
AcDbEntity
  8
7
100
AcDbLine
 10
9.364173228346457
 20
2.685039370078739
 30
0.0
 11
9.363188976377953
 21
2.670275590551181
 31
0.0
  0
LINE
  5
61A
330
1E
100
AcDbEntity
  8
7
100
AcDbLine
 10
9.363188976377953
 20
2.670275590551181
 30
0.0
 11
9.364173228346457
 21
2.65255905511811
 31
0.0
  0
LINE
  5
61B
330
1E
100
AcDbEntity
  8
7
100
AcDbLine
 10
9.364173228346457
 20
2.65255905511811
 30
0.0
 11
9.991141732283464
 21
2.751968503937007
 31
0.0
  0
LINE
  5
61C
330
1E
100
AcDbEntity
  8
7
100
AcDbLine
 10
9.683070866141733
 20
2.639763779527559
 30
0.0
 11
9.710629921259842
 21
2.655511811023622
 31
0.0
  0
LINE
  5
61D
330
1E
100
AcDbEntity
  8
7
100
AcDbLine
 10
9.710629921259842
 20
2.655511811023622
 30
0.0
 11
9.737204724409449
 21
2.670275590551181
 31
0.0
  0
LINE
  5
61E
330
1E
100
AcDbEntity
  8
7
100
AcDbLine
 10
9.737204724409449
 20
2.670275590551181
 30
0.0
 11
9.75492125984252
 21
2.678149606299212
 31
0.0
  0
LINE
  5
61F
330
1E
100
AcDbEntity
  8
7
100
AcDbLine
 10
9.75492125984252
 20
2.678149606299212
 30
0.0
 11
9.773622047244094
 21
2.683070866141732
 31
0.0
  0
LINE
  5
620
330
1E
100
AcDbEntity
  8
7
100
AcDbLine
 10
9.708661417322835
 20
2.644685039370078
 30
0.0
 11
9.731299212598425
 21
2.649606299212598
 31
0.0
  0
LINE
  5
621
330
1E
100
AcDbEntity
  8
7
100
AcDbLine
 10
9.731299212598425
 20
2.649606299212598
 30
0.0
 11
9.749015748031496
 21
2.65255905511811
 31
0.0
  0
LINE
  5
622
330
1E
100
AcDbEntity
  8
7
100
AcDbLine
 10
9.749015748031496
 20
2.65255905511811
 30
0.0
 11
9.759842519685038
 21
2.655511811023622
 31
0.0
  0
LINE
  5
623
330
1E
100
AcDbEntity
  8
7
100
AcDbLine
 10
9.759842519685038
 20
2.655511811023622
 30
0.0
 11
9.763779527559055
 21
2.655511811023622
 31
0.0
  0
LINE
  5
624
330
1E
100
AcDbEntity
  8
7
100
AcDbLine
 10
9.699803149606299
 20
2.551181102362204
 30
0.0
 11
9.731299212598425
 21
2.556102362204724
 31
0.0
  0
LINE
  5
625
330
1E
100
AcDbEntity
  8
7
100
AcDbLine
 10
9.731299212598425
 20
2.556102362204724
 30
0.0
 11
9.760826771653544
 21
2.561023622047243
 31
0.0
  0
LINE
  5
626
330
1E
100
AcDbEntity
  8
7
100
AcDbLine
 10
9.760826771653544
 20
2.561023622047243
 30
0.0
 11
9.784448818897638
 21
2.564960629921259
 31
0.0
  0
LINE
  5
627
330
1E
100
AcDbEntity
  8
7
100
AcDbLine
 10
9.784448818897638
 20
2.564960629921259
 30
0.0
 11
9.803149606299212
 21
2.567913385826771
 31
0.0
  0
LINE
  5
628
330
1E
100
AcDbEntity
  8
7
100
AcDbLine
 10
9.803149606299212
 20
2.567913385826771
 30
0.0
 11
9.813976377952755
 21
2.569881889763779
 31
0.0
  0
LINE
  5
629
330
1E
100
AcDbEntity
  8
7
100
AcDbLine
 10
9.813976377952755
 20
2.569881889763779
 30
0.0
 11
9.817913385826772
 21
2.569881889763779
 31
0.0
  0
LINE
  5
62A
330
1E
100
AcDbEntity
  8
7
100
AcDbLine
 10
9.369094488188975
 20
3.591535433070865
 30
0.0
 11
9.366141732283464
 21
3.574803149606299
 31
0.0
  0
LINE
  5
62B
330
1E
100
AcDbEntity
  8
7
100
AcDbLine
 10
9.366141732283464
 20
3.574803149606299
 30
0.0
 11
9.364173228346457
 21
3.560039370078739
 31
0.0
  0
LINE
  5
62C
330
1E
100
AcDbEntity
  8
7
100
AcDbLine
 10
9.364173228346457
 20
3.560039370078739
 30
0.0
 11
9.363188976377953
 21
3.5501968503937
 31
0.0
  0
LINE
  5
62D
330
1E
100
AcDbEntity
  8
7
100
AcDbLine
 10
9.363188976377953
 20
3.5501968503937
 30
0.0
 11
9.364173228346457
 21
3.546259842519684
 31
0.0
  0
LINE
  5
62E
330
1E
100
AcDbEntity
  8
7
100
AcDbLine
 10
9.364173228346457
 20
3.546259842519684
 30
0.0
 11
9.991141732283464
 21
3.421259842519685
 31
0.0
  0
LINE
  5
62F
330
1E
100
AcDbEntity
  8
7
100
AcDbLine
 10
9.683070866141733
 20
3.482283464566928
 30
0.0
 11
9.710629921259842
 21
3.474409448818897
 31
0.0
  0
LINE
  5
630
330
1E
100
AcDbEntity
  8
7
100
AcDbLine
 10
9.710629921259842
 20
3.474409448818897
 30
0.0
 11
9.737204724409449
 21
3.46259842519685
 31
0.0
  0
LINE
  5
631
330
1E
100
AcDbEntity
  8
7
100
AcDbLine
 10
9.737204724409449
 20
3.46259842519685
 30
0.0
 11
9.75492125984252
 21
3.453740157480314
 31
0.0
  0
LINE
  5
632
330
1E
100
AcDbEntity
  8
7
100
AcDbLine
 10
9.75492125984252
 20
3.453740157480314
 30
0.0
 11
9.773622047244094
 21
3.444881889763779
 31
0.0
  0
LINE
  5
633
330
1E
100
AcDbEntity
  8
7
100
AcDbLine
 10
9.683070866141733
 20
3.482283464566928
 30
0.0
 11
9.708661417322835
 21
3.473425196850393
 31
0.0
  0
LINE
  5
634
330
1E
100
AcDbEntity
  8
7
100
AcDbLine
 10
9.708661417322835
 20
3.473425196850393
 30
0.0
 11
9.731299212598425
 21
3.45767716535433
 31
0.0
  0
LINE
  5
635
330
1E
100
AcDbEntity
  8
7
100
AcDbLine
 10
9.731299212598425
 20
3.45767716535433
 30
0.0
 11
9.749015748031496
 21
3.437007874015748
 31
0.0
  0
LINE
  5
636
330
1E
100
AcDbEntity
  8
7
100
AcDbLine
 10
9.749015748031496
 20
3.437007874015748
 30
0.0
 11
9.759842519685038
 21
3.411417322834645
 31
0.0
  0
LINE
  5
637
330
1E
100
AcDbEntity
  8
7
100
AcDbLine
 10
9.59744094488189
 20
3.796259842519684
 30
0.0
 11
9.630905511811024
 21
3.768700787401574
 31
0.0
  0
LINE
  5
638
330
1E
100
AcDbEntity
  8
7
100
AcDbLine
 10
9.630905511811024
 20
3.768700787401574
 30
0.0
 11
9.707677165354331
 21
3.717519685039369
 31
0.0
  0
LINE
  5
639
330
1E
100
AcDbEntity
  8
7
100
AcDbLine
 10
9.707677165354331
 20
3.717519685039369
 30
0.0
 11
9.790354330708661
 21
3.676181102362204
 31
0.0
  0
LINE
  5
63A
330
1E
100
AcDbEntity
  8
7
100
AcDbLine
 10
9.790354330708661
 20
3.676181102362204
 30
0.0
 11
9.875984251968503
 21
3.641732283464566
 31
0.0
  0
LINE
  5
63B
330
1E
100
AcDbEntity
  8
7
100
AcDbLine
 10
9.875984251968503
 20
3.641732283464566
 30
0.0
 11
9.965551181102362
 21
3.609251968503937
 31
0.0
  0
LINE
  5
63C
330
1E
100
AcDbEntity
  8
7
100
AcDbLine
 10
9.965551181102362
 20
3.609251968503937
 30
0.0
 11
10.05610236220472
 21
3.580708661417322
 31
0.0
  0
LINE
  5
63D
330
1E
100
AcDbEntity
  8
7
100
AcDbLine
 10
10.05610236220472
 20
3.580708661417322
 30
0.0
 11
10.05905511811023
 21
3.590551181102362
 31
0.0
  0
LINE
  5
63E
330
1E
100
AcDbEntity
  8
7
100
AcDbLine
 10
10.05905511811023
 20
3.590551181102362
 30
0.0
 11
10.06299212598425
 21
3.599409448818897
 31
0.0
  0
LINE
  5
63F
330
1E
100
AcDbEntity
  8
7
100
AcDbLine
 10
9.953740157480314
 20
4.202755905511811
 30
0.0
 11
9.853346456692912
 21
4.165354330708661
 31
0.0
  0
LINE
  5
640
330
1E
100
AcDbEntity
  8
7
100
AcDbLine
 10
9.853346456692912
 20
4.165354330708661
 30
0.0
 11
9.755905511811024
 21
4.122047244094487
 31
0.0
  0
LINE
  5
641
330
1E
100
AcDbEntity
  8
7
100
AcDbLine
 10
9.755905511811024
 20
4.122047244094487
 30
0.0
 11
9.68503937007874
 21
4.083661417322834
 31
0.0
  0
LINE
  5
642
330
1E
100
AcDbEntity
  8
7
100
AcDbLine
 10
9.68503937007874
 20
4.083661417322834
 30
0.0
 11
9.619094488188975
 21
4.037401574803149
 31
0.0
  0
LINE
  5
643
330
1E
100
AcDbEntity
  8
7
100
AcDbLine
 10
9.619094488188975
 20
4.037401574803149
 30
0.0
 11
9.578740157480314
 21
3.998031496062992
 31
0.0
  0
LINE
  5
644
330
1E
100
AcDbEntity
  8
7
100
AcDbLine
 10
9.578740157480314
 20
3.998031496062992
 30
0.0
 11
9.561023622047244
 21
3.974409448818897
 31
0.0
  0
LINE
  5
645
330
1E
100
AcDbEntity
  8
7
100
AcDbLine
 10
9.561023622047244
 20
3.974409448818897
 30
0.0
 11
9.548228346456692
 21
3.947834645669291
 31
0.0
  0
LINE
  5
646
330
1E
100
AcDbEntity
  8
7
100
AcDbLine
 10
9.548228346456692
 20
3.947834645669291
 30
0.0
 11
9.541338582677166
 21
3.910433070866141
 31
0.0
  0
LINE
  5
647
330
1E
100
AcDbEntity
  8
7
100
AcDbLine
 10
9.541338582677166
 20
3.910433070866141
 30
0.0
 11
9.546259842519685
 21
3.873031496062992
 31
0.0
  0
LINE
  5
648
330
1E
100
AcDbEntity
  8
7
100
AcDbLine
 10
9.546259842519685
 20
3.873031496062992
 30
0.0
 11
9.556102362204724
 21
3.850393700787401
 31
0.0
  0
LINE
  5
649
330
1E
100
AcDbEntity
  8
7
100
AcDbLine
 10
9.556102362204724
 20
3.850393700787401
 30
0.0
 11
9.568897637795275
 21
3.828740157480314
 31
0.0
  0
LINE
  5
64A
330
1E
100
AcDbEntity
  8
7
100
AcDbLine
 10
9.568897637795275
 20
3.828740157480314
 30
0.0
 11
9.59744094488189
 21
3.796259842519684
 31
0.0
  0
LINE
  5
64B
330
1E
100
AcDbEntity
  8
7
100
AcDbLine
 10
9.56003937007874
 20
3.955708661417322
 30
0.0
 11
9.570866141732283
 21
3.974409448818897
 31
0.0
  0
LINE
  5
64C
330
1E
100
AcDbEntity
  8
7
100
AcDbLine
 10
9.570866141732283
 20
3.974409448818897
 30
0.0
 11
9.595472440944881
 21
4.002952755905512
 31
0.0
  0
LINE
  5
64D
330
1E
100
AcDbEntity
  8
7
100
AcDbLine
 10
9.595472440944881
 20
4.002952755905512
 30
0.0
 11
9.623031496062992
 21
4.02755905511811
 31
0.0
  0
LINE
  5
64E
330
1E
100
AcDbEntity
  8
7
100
AcDbLine
 10
9.623031496062992
 20
4.02755905511811
 30
0.0
 11
9.687007874015748
 21
4.070866141732283
 31
0.0
  0
LINE
  5
64F
330
1E
100
AcDbEntity
  8
7
100
AcDbLine
 10
9.687007874015748
 20
4.070866141732283
 30
0.0
 11
9.755905511811024
 21
4.106299212598425
 31
0.0
  0
LINE
  5
650
330
1E
100
AcDbEntity
  8
7
100
AcDbLine
 10
9.755905511811024
 20
4.106299212598425
 30
0.0
 11
9.827755905511811
 21
4.136811023622047
 31
0.0
  0
LINE
  5
651
330
1E
100
AcDbEntity
  8
7
100
AcDbLine
 10
9.827755905511811
 20
4.136811023622047
 30
0.0
 11
9.943897637795275
 21
4.179133858267716
 31
0.0
  0
LINE
  5
652
330
1E
100
AcDbEntity
  8
7
100
AcDbLine
 10
9.943897637795275
 20
4.179133858267716
 30
0.0
 11
10.06299212598425
 21
4.215551181102362
 31
0.0
  0
LINE
  5
653
330
1E
100
AcDbEntity
  8
7
100
AcDbLine
 10
10.06299212598425
 20
3.599409448818897
 30
0.0
 11
9.951771653543307
 21
3.632874015748031
 31
0.0
  0
LINE
  5
654
330
1E
100
AcDbEntity
  8
7
100
AcDbLine
 10
9.951771653543307
 20
3.632874015748031
 30
0.0
 11
9.84251968503937
 21
3.672244094488188
 31
0.0
  0
LINE
  5
655
330
1E
100
AcDbEntity
  8
7
100
AcDbLine
 10
9.84251968503937
 20
3.672244094488188
 30
0.0
 11
9.769685039370079
 21
3.702755905511811
 31
0.0
  0
LINE
  5
656
330
1E
100
AcDbEntity
  8
7
100
AcDbLine
 10
9.769685039370079
 20
3.702755905511811
 30
0.0
 11
9.698818897637796
 21
3.738188976377952
 31
0.0
  0
LINE
  5
657
330
1E
100
AcDbEntity
  8
7
100
AcDbLine
 10
9.698818897637796
 20
3.738188976377952
 30
0.0
 11
9.632874015748031
 21
3.780511811023621
 31
0.0
  0
LINE
  5
658
330
1E
100
AcDbEntity
  8
7
100
AcDbLine
 10
9.632874015748031
 20
3.780511811023621
 30
0.0
 11
9.603346456692912
 21
3.80511811023622
 31
0.0
  0
LINE
  5
659
330
1E
100
AcDbEntity
  8
7
100
AcDbLine
 10
9.603346456692912
 20
3.80511811023622
 30
0.0
 11
9.576771653543307
 21
3.83267716535433
 31
0.0
  0
LINE
  5
65A
330
1E
100
AcDbEntity
  8
7
100
AcDbLine
 10
9.576771653543307
 20
3.83267716535433
 30
0.0
 11
9.556102362204724
 21
3.868110236220472
 31
0.0
  0
LINE
  5
65B
330
1E
100
AcDbEntity
  8
7
100
AcDbLine
 10
9.556102362204724
 20
3.868110236220472
 30
0.0
 11
9.548228346456692
 21
3.901574803149605
 31
0.0
  0
LINE
  5
65C
330
1E
100
AcDbEntity
  8
7
100
AcDbLine
 10
9.548228346456692
 20
3.901574803149605
 30
0.0
 11
9.552165354330709
 21
3.936023622047244
 31
0.0
  0
LINE
  5
65D
330
1E
100
AcDbEntity
  8
7
100
AcDbLine
 10
9.552165354330709
 20
3.936023622047244
 30
0.0
 11
9.56003937007874
 21
3.955708661417322
 31
0.0
  0
LINE
  5
65E
330
1E
100
AcDbEntity
  8
7
100
AcDbLine
 10
9.123031496062992
 20
2.670275590551181
 30
0.0
 11
9.120078740157481
 21
2.65255905511811
 31
0.0
  0
LINE
  5
65F
330
1E
100
AcDbEntity
  8
7
100
AcDbLine
 10
9.120078740157481
 20
2.65255905511811
 30
0.0
 11
9.364173228346457
 21
2.65255905511811
 31
0.0
  0
LINE
  5
660
330
1E
100
AcDbEntity
  8
7
100
AcDbLine
 10
9.045275590551181
 20
2.55511811023622
 30
0.0
 11
9.045275590551181
 21
2.544291338582676
 31
0.0
  0
LINE
  5
661
330
1E
100
AcDbEntity
  8
7
100
AcDbLine
 10
9.045275590551181
 20
2.544291338582676
 30
0.0
 11
9.045275590551181
 21
2.539370078740157
 31
0.0
  0
LINE
  5
662
330
1E
100
AcDbEntity
  8
7
100
AcDbLine
 10
9.032480314960629
 20
2.594488188976377
 30
0.0
 11
9.038385826771653
 21
2.594488188976377
 31
0.0
  0
LINE
  5
663
330
1E
100
AcDbEntity
  8
7
100
AcDbLine
 10
9.038385826771653
 20
2.594488188976377
 30
0.0
 11
9.045275590551181
 21
2.594488188976377
 31
0.0
  0
LINE
  5
664
330
1E
100
AcDbEntity
  8
7
100
AcDbLine
 10
9.045275590551181
 20
2.594488188976377
 30
0.0
 11
9.099409448818898
 21
2.594488188976377
 31
0.0
  0
LINE
  5
665
330
1E
100
AcDbEntity
  8
7
100
AcDbLine
 10
9.045275590551181
 20
2.594488188976377
 30
0.0
 11
9.045275590551181
 21
2.605314960629921
 31
0.0
  0
LINE
  5
666
330
1E
100
AcDbEntity
  8
7
100
AcDbLine
 10
9.045275590551181
 20
2.605314960629921
 30
0.0
 11
9.045275590551181
 21
2.61023622047244
 31
0.0
  0
LINE
  5
667
330
1E
100
AcDbEntity
  8
7
100
AcDbLine
 10
9.045275590551181
 20
2.55511811023622
 30
0.0
 11
9.045275590551181
 21
2.544291338582676
 31
0.0
  0
LINE
  5
668
330
1E
100
AcDbEntity
  8
7
100
AcDbLine
 10
9.045275590551181
 20
2.544291338582676
 30
0.0
 11
9.045275590551181
 21
2.539370078740157
 31
0.0
  0
LINE
  5
669
330
1E
100
AcDbEntity
  8
7
100
AcDbLine
 10
9.032480314960629
 20
2.594488188976377
 30
0.0
 11
9.038385826771653
 21
2.594488188976377
 31
0.0
  0
LINE
  5
66A
330
1E
100
AcDbEntity
  8
7
100
AcDbLine
 10
9.038385826771653
 20
2.594488188976377
 30
0.0
 11
9.045275590551181
 21
2.594488188976377
 31
0.0
  0
LINE
  5
66B
330
1E
100
AcDbEntity
  8
7
100
AcDbLine
 10
9.045275590551181
 20
2.594488188976377
 30
0.0
 11
9.099409448818898
 21
2.594488188976377
 31
0.0
  0
LINE
  5
66C
330
1E
100
AcDbEntity
  8
7
100
AcDbLine
 10
9.045275590551181
 20
2.594488188976377
 30
0.0
 11
9.045275590551181
 21
2.605314960629921
 31
0.0
  0
LINE
  5
66D
330
1E
100
AcDbEntity
  8
7
100
AcDbLine
 10
9.045275590551181
 20
2.605314960629921
 30
0.0
 11
9.045275590551181
 21
2.61023622047244
 31
0.0
  0
LINE
  5
66E
330
1E
100
AcDbEntity
  8
7
100
AcDbLine
 10
9.032480314960629
 20
2.594488188976377
 30
0.0
 11
9.032480314960629
 21
2.55511811023622
 31
0.0
  0
LINE
  5
66F
330
1E
100
AcDbEntity
  8
7
100
AcDbLine
 10
9.032480314960629
 20
2.55511811023622
 30
0.0
 11
9.00984251968504
 21
2.55511811023622
 31
0.0
  0
LINE
  5
670
330
1E
100
AcDbEntity
  8
7
100
AcDbLine
 10
9.032480314960629
 20
2.594488188976377
 30
0.0
 11
9.032480314960629
 21
2.55511811023622
 31
0.0
  0
LINE
  5
671
330
1E
100
AcDbEntity
  8
7
100
AcDbLine
 10
9.032480314960629
 20
2.55511811023622
 30
0.0
 11
9.00984251968504
 21
2.55511811023622
 31
0.0
  0
LINE
  5
672
330
1E
100
AcDbEntity
  8
7
100
AcDbLine
 10
9.045275590551181
 20
2.55511811023622
 30
0.0
 11
9.038385826771653
 21
2.55511811023622
 31
0.0
  0
LINE
  5
673
330
1E
100
AcDbEntity
  8
7
100
AcDbLine
 10
9.038385826771653
 20
2.55511811023622
 30
0.0
 11
9.032480314960629
 21
2.55511811023622
 31
0.0
  0
LINE
  5
674
330
1E
100
AcDbEntity
  8
7
100
AcDbLine
 10
9.032480314960629
 20
2.55511811023622
 30
0.0
 11
9.033464566929133
 21
2.544291338582676
 31
0.0
  0
LINE
  5
675
330
1E
100
AcDbEntity
  8
7
100
AcDbLine
 10
9.033464566929133
 20
2.544291338582676
 30
0.0
 11
9.036417322834646
 21
2.539370078740157
 31
0.0
  0
LINE
  5
676
330
1E
100
AcDbEntity
  8
7
100
AcDbLine
 10
9.036417322834646
 20
2.539370078740157
 30
0.0
 11
9.040354330708661
 21
2.539370078740157
 31
0.0
  0
LINE
  5
677
330
1E
100
AcDbEntity
  8
7
100
AcDbLine
 10
9.040354330708661
 20
2.539370078740157
 30
0.0
 11
9.045275590551181
 21
2.539370078740157
 31
0.0
  0
LINE
  5
678
330
1E
100
AcDbEntity
  8
7
100
AcDbLine
 10
9.00984251968504
 20
2.55511811023622
 30
0.0
 11
9.00984251968504
 21
2.544291338582676
 31
0.0
  0
LINE
  5
679
330
1E
100
AcDbEntity
  8
7
100
AcDbLine
 10
9.00984251968504
 20
2.544291338582676
 30
0.0
 11
9.00984251968504
 21
2.539370078740157
 31
0.0
  0
LINE
  5
67A
330
1E
100
AcDbEntity
  8
7
100
AcDbLine
 10
9.045275590551181
 20
2.55511811023622
 30
0.0
 11
9.038385826771653
 21
2.55511811023622
 31
0.0
  0
LINE
  5
67B
330
1E
100
AcDbEntity
  8
7
100
AcDbLine
 10
9.038385826771653
 20
2.55511811023622
 30
0.0
 11
9.032480314960629
 21
2.55511811023622
 31
0.0
  0
LINE
  5
67C
330
1E
100
AcDbEntity
  8
7
100
AcDbLine
 10
9.032480314960629
 20
2.55511811023622
 30
0.0
 11
9.033464566929133
 21
2.544291338582676
 31
0.0
  0
LINE
  5
67D
330
1E
100
AcDbEntity
  8
7
100
AcDbLine
 10
9.033464566929133
 20
2.544291338582676
 30
0.0
 11
9.036417322834646
 21
2.539370078740157
 31
0.0
  0
LINE
  5
67E
330
1E
100
AcDbEntity
  8
7
100
AcDbLine
 10
9.036417322834646
 20
2.539370078740157
 30
0.0
 11
9.040354330708661
 21
2.539370078740157
 31
0.0
  0
LINE
  5
67F
330
1E
100
AcDbEntity
  8
7
100
AcDbLine
 10
9.040354330708661
 20
2.539370078740157
 30
0.0
 11
9.045275590551181
 21
2.539370078740157
 31
0.0
  0
LINE
  5
680
330
1E
100
AcDbEntity
  8
7
100
AcDbLine
 10
9.00984251968504
 20
2.55511811023622
 30
0.0
 11
9.00984251968504
 21
2.544291338582676
 31
0.0
  0
LINE
  5
681
330
1E
100
AcDbEntity
  8
7
100
AcDbLine
 10
9.00984251968504
 20
2.544291338582676
 30
0.0
 11
9.00984251968504
 21
2.539370078740157
 31
0.0
  0
LINE
  5
682
330
1E
100
AcDbEntity
  8
7
100
AcDbLine
 10
9.00984251968504
 20
2.61023622047244
 30
0.0
 11
9.00984251968504
 21
2.605314960629921
 31
0.0
  0
LINE
  5
683
330
1E
100
AcDbEntity
  8
7
100
AcDbLine
 10
9.00984251968504
 20
2.605314960629921
 30
0.0
 11
9.00984251968504
 21
2.594488188976377
 31
0.0
  0
LINE
  5
684
330
1E
100
AcDbEntity
  8
7
100
AcDbLine
 10
9.00984251968504
 20
2.594488188976377
 30
0.0
 11
9.032480314960629
 21
2.594488188976377
 31
0.0
  0
LINE
  5
685
330
1E
100
AcDbEntity
  8
7
100
AcDbLine
 10
9.032480314960629
 20
2.594488188976377
 30
0.0
 11
9.033464566929133
 21
2.605314960629921
 31
0.0
  0
LINE
  5
686
330
1E
100
AcDbEntity
  8
7
100
AcDbLine
 10
9.033464566929133
 20
2.605314960629921
 30
0.0
 11
9.036417322834646
 21
2.61023622047244
 31
0.0
  0
LINE
  5
687
330
1E
100
AcDbEntity
  8
7
100
AcDbLine
 10
9.045275590551181
 20
2.61023622047244
 30
0.0
 11
9.040354330708661
 21
2.61023622047244
 31
0.0
  0
LINE
  5
688
330
1E
100
AcDbEntity
  8
7
100
AcDbLine
 10
9.040354330708661
 20
2.61023622047244
 30
0.0
 11
9.036417322834646
 21
2.61023622047244
 31
0.0
  0
LINE
  5
689
330
1E
100
AcDbEntity
  8
7
100
AcDbLine
 10
9.00984251968504
 20
2.61023622047244
 30
0.0
 11
9.00984251968504
 21
2.605314960629921
 31
0.0
  0
LINE
  5
68A
330
1E
100
AcDbEntity
  8
7
100
AcDbLine
 10
9.00984251968504
 20
2.605314960629921
 30
0.0
 11
9.00984251968504
 21
2.594488188976377
 31
0.0
  0
LINE
  5
68B
330
1E
100
AcDbEntity
  8
7
100
AcDbLine
 10
9.00984251968504
 20
2.594488188976377
 30
0.0
 11
9.032480314960629
 21
2.594488188976377
 31
0.0
  0
LINE
  5
68C
330
1E
100
AcDbEntity
  8
7
100
AcDbLine
 10
9.045275590551181
 20
2.61023622047244
 30
0.0
 11
9.040354330708661
 21
2.61023622047244
 31
0.0
  0
LINE
  5
68D
330
1E
100
AcDbEntity
  8
7
100
AcDbLine
 10
9.040354330708661
 20
2.61023622047244
 30
0.0
 11
9.036417322834646
 21
2.61023622047244
 31
0.0
  0
LINE
  5
68E
330
1E
100
AcDbEntity
  8
7
100
AcDbLine
 10
9.120078740157481
 20
2.65255905511811
 30
0.0
 11
9.120078740157481
 21
2.589566929133858
 31
0.0
  0
LINE
  5
68F
330
1E
100
AcDbEntity
  8
7
100
AcDbLine
 10
9.120078740157481
 20
2.589566929133858
 30
0.0
 11
9.137795275590551
 21
2.546259842519685
 31
0.0
  0
LINE
  5
690
330
1E
100
AcDbEntity
  8
7
100
AcDbLine
 10
9.120078740157481
 20
2.65255905511811
 30
0.0
 11
9.120078740157481
 21
2.589566929133858
 31
0.0
  0
LINE
  5
691
330
1E
100
AcDbEntity
  8
7
100
AcDbLine
 10
9.120078740157481
 20
2.589566929133858
 30
0.0
 11
9.137795275590551
 21
2.546259842519685
 31
0.0
  0
LINE
  5
692
330
1E
100
AcDbEntity
  8
7
100
AcDbLine
 10
9.153543307086614
 20
2.508858267716535
 30
0.0
 11
9.135826771653544
 21
2.530511811023622
 31
0.0
  0
LINE
  5
693
330
1E
100
AcDbEntity
  8
7
100
AcDbLine
 10
9.135826771653544
 20
2.530511811023622
 30
0.0
 11
9.108267716535433
 21
2.538385826771653
 31
0.0
  0
LINE
  5
694
330
1E
100
AcDbEntity
  8
7
100
AcDbLine
 10
9.108267716535433
 20
2.55511811023622
 30
0.0
 11
9.108267716535433
 21
2.544291338582676
 31
0.0
  0
LINE
  5
695
330
1E
100
AcDbEntity
  8
7
100
AcDbLine
 10
9.108267716535433
 20
2.544291338582676
 30
0.0
 11
9.108267716535433
 21
2.539370078740157
 31
0.0
  0
LINE
  5
696
330
1E
100
AcDbEntity
  8
7
100
AcDbLine
 10
9.137795275590551
 20
2.546259842519685
 30
0.0
 11
9.145669291338583
 21
2.528543307086613
 31
0.0
  0
LINE
  5
697
330
1E
100
AcDbEntity
  8
7
100
AcDbLine
 10
9.145669291338583
 20
2.528543307086613
 30
0.0
 11
9.152559055118111
 21
2.51279527559055
 31
0.0
  0
LINE
  5
698
330
1E
100
AcDbEntity
  8
7
100
AcDbLine
 10
9.152559055118111
 20
2.51279527559055
 30
0.0
 11
9.156496062992125
 21
2.502952755905511
 31
0.0
  0
LINE
  5
699
330
1E
100
AcDbEntity
  8
7
100
AcDbLine
 10
9.137795275590551
 20
2.547244094488188
 30
0.0
 11
9.123031496062992
 21
2.552165354330708
 31
0.0
  0
LINE
  5
69A
330
1E
100
AcDbEntity
  8
7
100
AcDbLine
 10
9.123031496062992
 20
2.552165354330708
 30
0.0
 11
9.108267716535433
 21
2.554133858267716
 31
0.0
  0
LINE
  5
69B
330
1E
100
AcDbEntity
  8
7
100
AcDbLine
 10
9.153543307086614
 20
2.508858267716535
 30
0.0
 11
9.135826771653544
 21
2.530511811023622
 31
0.0
  0
LINE
  5
69C
330
1E
100
AcDbEntity
  8
7
100
AcDbLine
 10
9.135826771653544
 20
2.530511811023622
 30
0.0
 11
9.108267716535433
 21
2.538385826771653
 31
0.0
  0
LINE
  5
69D
330
1E
100
AcDbEntity
  8
7
100
AcDbLine
 10
9.137795275590551
 20
2.546259842519685
 30
0.0
 11
9.145669291338583
 21
2.528543307086613
 31
0.0
  0
LINE
  5
69E
330
1E
100
AcDbEntity
  8
7
100
AcDbLine
 10
9.145669291338583
 20
2.528543307086613
 30
0.0
 11
9.152559055118111
 21
2.51279527559055
 31
0.0
  0
LINE
  5
69F
330
1E
100
AcDbEntity
  8
7
100
AcDbLine
 10
9.152559055118111
 20
2.51279527559055
 30
0.0
 11
9.156496062992125
 21
2.502952755905511
 31
0.0
  0
LINE
  5
6A0
330
1E
100
AcDbEntity
  8
7
100
AcDbLine
 10
9.156496062992125
 20
2.502952755905511
 30
0.0
 11
9.157480314960629
 21
2.499015748031495
 31
0.0
  0
LINE
  5
6A1
330
1E
100
AcDbEntity
  8
7
100
AcDbLine
 10
9.137795275590551
 20
2.547244094488188
 30
0.0
 11
9.123031496062992
 21
2.552165354330708
 31
0.0
  0
LINE
  5
6A2
330
1E
100
AcDbEntity
  8
7
100
AcDbLine
 10
9.123031496062992
 20
2.552165354330708
 30
0.0
 11
9.108267716535433
 21
2.554133858267716
 31
0.0
  0
LINE
  5
6A3
330
1E
100
AcDbEntity
  8
7
100
AcDbLine
 10
9.166338582677166
 20
2.698818897637795
 30
0.0
 11
9.148622047244094
 21
2.695866141732283
 31
0.0
  0
LINE
  5
6A4
330
1E
100
AcDbEntity
  8
7
100
AcDbLine
 10
9.148622047244094
 20
2.695866141732283
 30
0.0
 11
9.133858267716535
 21
2.685039370078739
 31
0.0
  0
LINE
  5
6A5
330
1E
100
AcDbEntity
  8
7
100
AcDbLine
 10
9.133858267716535
 20
2.685039370078739
 30
0.0
 11
9.123031496062992
 21
2.670275590551181
 31
0.0
  0
LINE
  5
6A6
330
1E
100
AcDbEntity
  8
7
100
AcDbLine
 10
9.166338582677166
 20
2.698818897637795
 30
0.0
 11
9.148622047244094
 21
2.695866141732283
 31
0.0
  0
LINE
  5
6A7
330
1E
100
AcDbEntity
  8
7
100
AcDbLine
 10
9.148622047244094
 20
2.695866141732283
 30
0.0
 11
9.133858267716535
 21
2.685039370078739
 31
0.0
  0
LINE
  5
6A8
330
1E
100
AcDbEntity
  8
7
100
AcDbLine
 10
9.133858267716535
 20
2.685039370078739
 30
0.0
 11
9.123031496062992
 21
2.670275590551181
 31
0.0
  0
LINE
  5
6A9
330
1E
100
AcDbEntity
  8
7
100
AcDbLine
 10
9.123031496062992
 20
2.670275590551181
 30
0.0
 11
9.120078740157481
 21
2.65255905511811
 31
0.0
  0
LINE
  5
6AA
330
1E
100
AcDbEntity
  8
7
100
AcDbLine
 10
9.099409448818898
 20
2.594488188976377
 30
0.0
 11
9.099409448818898
 21
2.605314960629921
 31
0.0
  0
LINE
  5
6AB
330
1E
100
AcDbEntity
  8
7
100
AcDbLine
 10
9.099409448818898
 20
2.605314960629921
 30
0.0
 11
9.099409448818898
 21
2.61023622047244
 31
0.0
  0
LINE
  5
6AC
330
1E
100
AcDbEntity
  8
7
100
AcDbLine
 10
9.099409448818898
 20
2.61023622047244
 30
0.0
 11
9.113188976377953
 21
2.616141732283464
 31
0.0
  0
LINE
  5
6AD
330
1E
100
AcDbEntity
  8
7
100
AcDbLine
 10
9.113188976377953
 20
2.616141732283464
 30
0.0
 11
9.119094488188975
 21
2.629921259842519
 31
0.0
  0
LINE
  5
6AE
330
1E
100
AcDbEntity
  8
7
100
AcDbLine
 10
9.099409448818898
 20
2.594488188976377
 30
0.0
 11
9.11023622047244
 21
2.596456692913385
 31
0.0
  0
LINE
  5
6AF
330
1E
100
AcDbEntity
  8
7
100
AcDbLine
 10
9.11023622047244
 20
2.596456692913385
 30
0.0
 11
9.119094488188975
 21
2.600393700787401
 31
0.0
  0
LINE
  5
6B0
330
1E
100
AcDbEntity
  8
7
100
AcDbLine
 10
9.099409448818898
 20
2.594488188976377
 30
0.0
 11
9.099409448818898
 21
2.605314960629921
 31
0.0
  0
LINE
  5
6B1
330
1E
100
AcDbEntity
  8
7
100
AcDbLine
 10
9.099409448818898
 20
2.605314960629921
 30
0.0
 11
9.099409448818898
 21
2.61023622047244
 31
0.0
  0
LINE
  5
6B2
330
1E
100
AcDbEntity
  8
7
100
AcDbLine
 10
9.099409448818898
 20
2.61023622047244
 30
0.0
 11
9.113188976377953
 21
2.616141732283464
 31
0.0
  0
LINE
  5
6B3
330
1E
100
AcDbEntity
  8
7
100
AcDbLine
 10
9.113188976377953
 20
2.616141732283464
 30
0.0
 11
9.119094488188975
 21
2.629921259842519
 31
0.0
  0
LINE
  5
6B4
330
1E
100
AcDbEntity
  8
7
100
AcDbLine
 10
9.099409448818898
 20
2.594488188976377
 30
0.0
 11
9.11023622047244
 21
2.596456692913385
 31
0.0
  0
LINE
  5
6B5
330
1E
100
AcDbEntity
  8
7
100
AcDbLine
 10
9.11023622047244
 20
2.596456692913385
 30
0.0
 11
9.119094488188975
 21
2.600393700787401
 31
0.0
  0
LINE
  5
6B6
330
1E
100
AcDbEntity
  8
7
100
AcDbLine
 10
9.362204724409449
 20
2.499015748031495
 30
0.0
 11
9.380905511811024
 21
2.499015748031495
 31
0.0
  0
LINE
  5
6B7
330
1E
100
AcDbEntity
  8
7
100
AcDbLine
 10
9.380905511811024
 20
2.499015748031495
 30
0.0
 11
9.398622047244094
 21
2.499015748031495
 31
0.0
  0
LINE
  5
6B8
330
1E
100
AcDbEntity
  8
7
100
AcDbLine
 10
9.398622047244094
 20
2.499015748031495
 30
0.0
 11
9.410433070866142
 21
2.499015748031495
 31
0.0
  0
LINE
  5
6B9
330
1E
100
AcDbEntity
  8
7
100
AcDbLine
 10
9.410433070866142
 20
2.499015748031495
 30
0.0
 11
9.414370078740157
 21
2.499015748031495
 31
0.0
  0
LINE
  5
6BA
330
1E
100
AcDbEntity
  8
7
100
AcDbLine
 10
9.325787401574803
 20
2.499015748031495
 30
0.0
 11
9.329724409448818
 21
2.479330708661417
 31
0.0
  0
LINE
  5
6BB
330
1E
100
AcDbEntity
  8
7
100
AcDbLine
 10
9.329724409448818
 20
2.479330708661417
 30
0.0
 11
9.34251968503937
 21
2.464566929133858
 31
0.0
  0
LINE
  5
6BC
330
1E
100
AcDbEntity
  8
7
100
AcDbLine
 10
9.34251968503937
 20
2.464566929133858
 30
0.0
 11
9.36023622047244
 21
2.455708661417322
 31
0.0
  0
LINE
  5
6BD
330
1E
100
AcDbEntity
  8
7
100
AcDbLine
 10
9.36023622047244
 20
2.455708661417322
 30
0.0
 11
9.37992125984252
 21
2.455708661417322
 31
0.0
  0
LINE
  5
6BE
330
1E
100
AcDbEntity
  8
7
100
AcDbLine
 10
9.37992125984252
 20
2.455708661417322
 30
0.0
 11
9.39763779527559
 21
2.464566929133858
 31
0.0
  0
LINE
  5
6BF
330
1E
100
AcDbEntity
  8
7
100
AcDbLine
 10
9.39763779527559
 20
2.464566929133858
 30
0.0
 11
9.410433070866142
 21
2.479330708661417
 31
0.0
  0
LINE
  5
6C0
330
1E
100
AcDbEntity
  8
7
100
AcDbLine
 10
9.410433070866142
 20
2.479330708661417
 30
0.0
 11
9.414370078740157
 21
2.499015748031495
 31
0.0
  0
LINE
  5
6C1
330
1E
100
AcDbEntity
  8
7
100
AcDbLine
 10
9.362204724409449
 20
2.499015748031495
 30
0.0
 11
9.380905511811024
 21
2.499015748031495
 31
0.0
  0
LINE
  5
6C2
330
1E
100
AcDbEntity
  8
7
100
AcDbLine
 10
9.380905511811024
 20
2.499015748031495
 30
0.0
 11
9.398622047244094
 21
2.499015748031495
 31
0.0
  0
LINE
  5
6C3
330
1E
100
AcDbEntity
  8
7
100
AcDbLine
 10
9.398622047244094
 20
2.499015748031495
 30
0.0
 11
9.410433070866142
 21
2.499015748031495
 31
0.0
  0
LINE
  5
6C4
330
1E
100
AcDbEntity
  8
7
100
AcDbLine
 10
9.410433070866142
 20
2.499015748031495
 30
0.0
 11
9.414370078740157
 21
2.499015748031495
 31
0.0
  0
LINE
  5
6C5
330
1E
100
AcDbEntity
  8
7
100
AcDbLine
 10
9.329724409448818
 20
2.479330708661417
 30
0.0
 11
9.34251968503937
 21
2.464566929133858
 31
0.0
  0
LINE
  5
6C6
330
1E
100
AcDbEntity
  8
7
100
AcDbLine
 10
9.34251968503937
 20
2.464566929133858
 30
0.0
 11
9.36023622047244
 21
2.455708661417322
 31
0.0
  0
LINE
  5
6C7
330
1E
100
AcDbEntity
  8
7
100
AcDbLine
 10
9.36023622047244
 20
2.455708661417322
 30
0.0
 11
9.37992125984252
 21
2.455708661417322
 31
0.0
  0
LINE
  5
6C8
330
1E
100
AcDbEntity
  8
7
100
AcDbLine
 10
9.37992125984252
 20
2.455708661417322
 30
0.0
 11
9.39763779527559
 21
2.464566929133858
 31
0.0
  0
LINE
  5
6C9
330
1E
100
AcDbEntity
  8
7
100
AcDbLine
 10
9.39763779527559
 20
2.464566929133858
 30
0.0
 11
9.410433070866142
 21
2.479330708661417
 31
0.0
  0
LINE
  5
6CA
330
1E
100
AcDbEntity
  8
7
100
AcDbLine
 10
9.410433070866142
 20
2.479330708661417
 30
0.0
 11
9.414370078740157
 21
2.499015748031495
 31
0.0
  0
LINE
  5
6CB
330
1E
100
AcDbEntity
  8
7
100
AcDbLine
 10
9.352362204724409
 20
2.546259842519685
 30
0.0
 11
9.354330708661418
 21
2.52263779527559
 31
0.0
  0
LINE
  5
6CC
330
1E
100
AcDbEntity
  8
7
100
AcDbLine
 10
9.354330708661418
 20
2.52263779527559
 30
0.0
 11
9.357283464566929
 21
2.505905511811023
 31
0.0
  0
LINE
  5
6CD
330
1E
100
AcDbEntity
  8
7
100
AcDbLine
 10
9.357283464566929
 20
2.505905511811023
 30
0.0
 11
9.362204724409449
 21
2.499015748031495
 31
0.0
  0
LINE
  5
6CE
330
1E
100
AcDbEntity
  8
7
100
AcDbLine
 10
9.361220472440944
 20
2.547244094488188
 30
0.0
 11
9.366141732283464
 21
2.523622047244094
 31
0.0
  0
LINE
  5
6CF
330
1E
100
AcDbEntity
  8
7
100
AcDbLine
 10
9.366141732283464
 20
2.523622047244094
 30
0.0
 11
9.372047244094488
 21
2.505905511811023
 31
0.0
  0
LINE
  5
6D0
330
1E
100
AcDbEntity
  8
7
100
AcDbLine
 10
9.352362204724409
 20
2.546259842519685
 30
0.0
 11
9.354330708661418
 21
2.52263779527559
 31
0.0
  0
LINE
  5
6D1
330
1E
100
AcDbEntity
  8
7
100
AcDbLine
 10
9.354330708661418
 20
2.52263779527559
 30
0.0
 11
9.357283464566929
 21
2.505905511811023
 31
0.0
  0
LINE
  5
6D2
330
1E
100
AcDbEntity
  8
7
100
AcDbLine
 10
9.357283464566929
 20
2.505905511811023
 30
0.0
 11
9.362204724409449
 21
2.499015748031495
 31
0.0
  0
LINE
  5
6D3
330
1E
100
AcDbEntity
  8
7
100
AcDbLine
 10
9.361220472440944
 20
2.547244094488188
 30
0.0
 11
9.366141732283464
 21
2.523622047244094
 31
0.0
  0
LINE
  5
6D4
330
1E
100
AcDbEntity
  8
7
100
AcDbLine
 10
9.366141732283464
 20
2.523622047244094
 30
0.0
 11
9.372047244094488
 21
2.505905511811023
 31
0.0
  0
LINE
  5
6D5
330
1E
100
AcDbEntity
  8
7
100
AcDbLine
 10
9.372047244094488
 20
2.505905511811023
 30
0.0
 11
9.377952755905512
 21
2.5
 31
0.0
  0
LINE
  5
6D6
330
1E
100
AcDbEntity
  8
7
100
AcDbLine
 10
9.683070866141733
 20
2.598425196850393
 30
0.0
 11
9.687992125984251
 21
2.573818897637795
 31
0.0
  0
LINE
  5
6D7
330
1E
100
AcDbEntity
  8
7
100
AcDbLine
 10
9.687992125984251
 20
2.573818897637795
 30
0.0
 11
9.693897637795275
 21
2.557086614173228
 31
0.0
  0
LINE
  5
6D8
330
1E
100
AcDbEntity
  8
7
100
AcDbLine
 10
9.693897637795275
 20
2.557086614173228
 30
0.0
 11
9.699803149606299
 21
2.551181102362204
 31
0.0
  0
LINE
  5
6D9
330
1E
100
AcDbEntity
  8
7
100
AcDbLine
 10
9.683070866141733
 20
2.598425196850393
 30
0.0
 11
9.687992125984251
 21
2.573818897637795
 31
0.0
  0
LINE
  5
6DA
330
1E
100
AcDbEntity
  8
7
100
AcDbLine
 10
9.687992125984251
 20
2.573818897637795
 30
0.0
 11
9.693897637795275
 21
2.557086614173228
 31
0.0
  0
LINE
  5
6DB
330
1E
100
AcDbEntity
  8
7
100
AcDbLine
 10
9.693897637795275
 20
2.557086614173228
 30
0.0
 11
9.699803149606299
 21
2.551181102362204
 31
0.0
  0
LINE
  5
6DC
330
1E
100
AcDbEntity
  8
7
100
AcDbLine
 10
9.518700787401575
 20
2.52263779527559
 30
0.0
 11
9.615157480314961
 21
2.538385826771653
 31
0.0
  0
LINE
  5
6DD
330
1E
100
AcDbEntity
  8
7
100
AcDbLine
 10
9.615157480314961
 20
2.538385826771653
 30
0.0
 11
9.590551181102362
 21
2.534448818897637
 31
0.0
  0
LINE
  5
6DE
330
1E
100
AcDbEntity
  8
7
100
AcDbLine
 10
9.518700787401575
 20
2.52263779527559
 30
0.0
 11
9.590551181102362
 21
2.534448818897637
 31
0.0
  0
LINE
  5
6DF
330
1E
100
AcDbEntity
  8
7
100
AcDbLine
 10
9.590551181102362
 20
2.534448818897637
 30
0.0
 11
9.615157480314961
 21
2.538385826771653
 31
0.0
  0
LINE
  5
6E0
330
1E
100
AcDbEntity
  8
7
100
AcDbLine
 10
9.518700787401575
 20
2.52263779527559
 30
0.0
 11
9.615157480314961
 21
2.538385826771653
 31
0.0
  0
LINE
  5
6E1
330
1E
100
AcDbEntity
  8
7
100
AcDbLine
 10
9.615157480314961
 20
2.538385826771653
 30
0.0
 11
9.590551181102362
 21
2.534448818897637
 31
0.0
  0
LINE
  5
6E2
330
1E
100
AcDbEntity
  8
7
100
AcDbLine
 10
9.518700787401575
 20
2.52263779527559
 30
0.0
 11
9.590551181102362
 21
2.534448818897637
 31
0.0
  0
LINE
  5
6E3
330
1E
100
AcDbEntity
  8
7
100
AcDbLine
 10
9.590551181102362
 20
2.534448818897637
 30
0.0
 11
9.615157480314961
 21
2.538385826771653
 31
0.0
  0
LINE
  5
6E4
330
1E
100
AcDbEntity
  8
7
100
AcDbLine
 10
9.133858267716535
 20
4.208661417322834
 30
0.0
 11
9.123031496062992
 21
4.21751968503937
 31
0.0
  0
LINE
  5
6E5
330
1E
100
AcDbEntity
  8
7
100
AcDbLine
 10
9.123031496062992
 20
4.21751968503937
 30
0.0
 11
9.120078740157481
 21
4.220472440944881
 31
0.0
  0
LINE
  5
6E6
330
1E
100
AcDbEntity
  8
7
100
AcDbLine
 10
9.120078740157481
 20
4.220472440944881
 30
0.0
 11
9.120078740157481
 21
3.595472440944881
 31
0.0
  0
LINE
  5
6E7
330
1E
100
AcDbEntity
  8
7
100
AcDbLine
 10
9.133858267716535
 20
3.606299212598425
 30
0.0
 11
9.123031496062992
 21
3.598425196850393
 31
0.0
  0
LINE
  5
6E8
330
1E
100
AcDbEntity
  8
7
100
AcDbLine
 10
9.123031496062992
 20
3.598425196850393
 30
0.0
 11
9.120078740157481
 21
3.595472440944881
 31
0.0
  0
LINE
  5
6E9
330
1E
100
AcDbEntity
  8
7
100
AcDbLine
 10
9.120078740157481
 20
3.595472440944881
 30
0.0
 11
9.364173228346457
 21
3.546259842519684
 31
0.0
  0
LINE
  5
6EA
330
1E
100
AcDbEntity
  8
7
100
AcDbLine
 10
9.045275590551181
 20
3.663385826771653
 30
0.0
 11
9.045275590551181
 21
3.667322834645668
 31
0.0
  0
LINE
  5
6EB
330
1E
100
AcDbEntity
  8
7
100
AcDbLine
 10
9.045275590551181
 20
3.667322834645668
 30
0.0
 11
9.045275590551181
 21
3.679133858267716
 31
0.0
  0
LINE
  5
6EC
330
1E
100
AcDbEntity
  8
7
100
AcDbLine
 10
9.033464566929133
 20
3.666338582677165
 30
0.0
 11
9.039370078740157
 21
3.664370078740157
 31
0.0
  0
LINE
  5
6ED
330
1E
100
AcDbEntity
  8
7
100
AcDbLine
 10
9.039370078740157
 20
3.664370078740157
 30
0.0
 11
9.045275590551181
 21
3.664370078740157
 31
0.0
  0
LINE
  5
6EE
330
1E
100
AcDbEntity
  8
7
100
AcDbLine
 10
9.00984251968504
 20
3.687007874015748
 30
0.0
 11
9.00984251968504
 21
3.676181102362204
 31
0.0
  0
LINE
  5
6EF
330
1E
100
AcDbEntity
  8
7
100
AcDbLine
 10
9.00984251968504
 20
3.676181102362204
 30
0.0
 11
9.00984251968504
 21
3.671259842519684
 31
0.0
  0
LINE
  5
6F0
330
1E
100
AcDbEntity
  8
7
100
AcDbLine
 10
9.00984251968504
 20
3.671259842519684
 30
0.0
 11
9.032480314960629
 21
3.665354330708661
 31
0.0
  0
LINE
  5
6F1
330
1E
100
AcDbEntity
  8
7
100
AcDbLine
 10
9.032480314960629
 20
3.665354330708661
 30
0.0
 11
9.033464566929133
 21
3.669291338582676
 31
0.0
  0
LINE
  5
6F2
330
1E
100
AcDbEntity
  8
7
100
AcDbLine
 10
9.033464566929133
 20
3.669291338582676
 30
0.0
 11
9.036417322834646
 21
3.68011811023622
 31
0.0
  0
LINE
  5
6F3
330
1E
100
AcDbEntity
  8
7
100
AcDbLine
 10
9.037401574803149
 20
3.68011811023622
 30
0.0
 11
9.041338582677166
 21
3.679133858267716
 31
0.0
  0
LINE
  5
6F4
330
1E
100
AcDbEntity
  8
7
100
AcDbLine
 10
9.041338582677166
 20
3.679133858267716
 30
0.0
 11
9.045275590551181
 21
3.679133858267716
 31
0.0
  0
LINE
  5
6F5
330
1E
100
AcDbEntity
  8
7
100
AcDbLine
 10
9.166338582677166
 20
3.633858267716535
 30
0.0
 11
9.148622047244094
 21
3.619094488188976
 31
0.0
  0
LINE
  5
6F6
330
1E
100
AcDbEntity
  8
7
100
AcDbLine
 10
9.148622047244094
 20
3.619094488188976
 30
0.0
 11
9.133858267716535
 21
3.606299212598425
 31
0.0
  0
LINE
  5
6F7
330
1E
100
AcDbEntity
  8
7
100
AcDbLine
 10
9.099409448818898
 20
3.663385826771653
 30
0.0
 11
9.099409448818898
 21
3.667322834645668
 31
0.0
  0
LINE
  5
6F8
330
1E
100
AcDbEntity
  8
7
100
AcDbLine
 10
9.099409448818898
 20
3.667322834645668
 30
0.0
 11
9.099409448818898
 21
3.679133858267716
 31
0.0
  0
LINE
  5
6F9
330
1E
100
AcDbEntity
  8
7
100
AcDbLine
 10
9.120078740157481
 20
3.679133858267716
 30
0.0
 11
9.114173228346457
 21
3.679133858267716
 31
0.0
  0
LINE
  5
6FA
330
1E
100
AcDbEntity
  8
7
100
AcDbLine
 10
9.114173228346457
 20
3.679133858267716
 30
0.0
 11
9.099409448818898
 21
3.679133858267716
 31
0.0
  0
LINE
  5
6FB
330
1E
100
AcDbEntity
  8
7
100
AcDbLine
 10
9.099409448818898
 20
3.663385826771653
 30
0.0
 11
9.11023622047244
 21
3.663385826771653
 31
0.0
  0
LINE
  5
6FC
330
1E
100
AcDbEntity
  8
7
100
AcDbLine
 10
9.11023622047244
 20
3.663385826771653
 30
0.0
 11
9.120078740157481
 21
3.663385826771653
 31
0.0
  0
LINE
  5
6FD
330
1E
100
AcDbEntity
  8
7
100
AcDbLine
 10
9.045275590551181
 20
4.151574803149606
 30
0.0
 11
9.039370078740157
 21
4.151574803149606
 31
0.0
  0
LINE
  5
6FE
330
1E
100
AcDbEntity
  8
7
100
AcDbLine
 10
9.039370078740157
 20
4.151574803149606
 30
0.0
 11
9.033464566929133
 21
4.149606299212598
 31
0.0
  0
LINE
  5
6FF
330
1E
100
AcDbEntity
  8
7
100
AcDbLine
 10
9.032480314960629
 20
4.150590551181101
 30
0.0
 11
9.033464566929133
 21
4.145669291338582
 31
0.0
  0
LINE
  5
700
330
1E
100
AcDbEntity
  8
7
100
AcDbLine
 10
9.033464566929133
 20
4.145669291338582
 30
0.0
 11
9.036417322834646
 21
4.135826771653543
 31
0.0
  0
LINE
  5
701
330
1E
100
AcDbEntity
  8
7
100
AcDbLine
 10
9.099409448818898
 20
4.15255905511811
 30
0.0
 11
9.045275590551181
 21
4.15255905511811
 31
0.0
  0
LINE
  5
702
330
1E
100
AcDbEntity
  8
7
100
AcDbLine
 10
9.045275590551181
 20
4.15255905511811
 30
0.0
 11
9.045275590551181
 21
4.14763779527559
 31
0.0
  0
LINE
  5
703
330
1E
100
AcDbEntity
  8
7
100
AcDbLine
 10
9.045275590551181
 20
4.14763779527559
 30
0.0
 11
9.045275590551181
 21
4.136811023622047
 31
0.0
  0
LINE
  5
704
330
1E
100
AcDbEntity
  8
7
100
AcDbLine
 10
9.120078740157481
 20
4.15255905511811
 30
0.0
 11
9.11023622047244
 21
4.15255905511811
 31
0.0
  0
LINE
  5
705
330
1E
100
AcDbEntity
  8
7
100
AcDbLine
 10
9.11023622047244
 20
4.15255905511811
 30
0.0
 11
9.099409448818898
 21
4.15255905511811
 31
0.0
  0
LINE
  5
706
330
1E
100
AcDbEntity
  8
7
100
AcDbLine
 10
9.099409448818898
 20
4.15255905511811
 30
0.0
 11
9.099409448818898
 21
4.14763779527559
 31
0.0
  0
LINE
  5
707
330
1E
100
AcDbEntity
  8
7
100
AcDbLine
 10
9.099409448818898
 20
4.14763779527559
 30
0.0
 11
9.099409448818898
 21
4.136811023622047
 31
0.0
  0
LINE
  5
708
330
1E
100
AcDbEntity
  8
7
100
AcDbLine
 10
9.00984251968504
 20
4.144685039370078
 30
0.0
 11
9.00984251968504
 21
4.139763779527559
 31
0.0
  0
LINE
  5
709
330
1E
100
AcDbEntity
  8
7
100
AcDbLine
 10
9.00984251968504
 20
4.139763779527559
 30
0.0
 11
9.00984251968504
 21
4.127952755905512
 31
0.0
  0
LINE
  5
70A
330
1E
100
AcDbEntity
  8
7
100
AcDbLine
 10
9.045275590551181
 20
4.136811023622047
 30
0.0
 11
9.041338582677166
 21
4.136811023622047
 31
0.0
  0
LINE
  5
70B
330
1E
100
AcDbEntity
  8
7
100
AcDbLine
 10
9.041338582677166
 20
4.136811023622047
 30
0.0
 11
9.037401574803149
 21
4.135826771653543
 31
0.0
  0
LINE
  5
70C
330
1E
100
AcDbEntity
  8
7
100
AcDbLine
 10
9.099409448818898
 20
4.136811023622047
 30
0.0
 11
9.114173228346457
 21
4.136811023622047
 31
0.0
  0
LINE
  5
70D
330
1E
100
AcDbEntity
  8
7
100
AcDbLine
 10
9.114173228346457
 20
4.136811023622047
 30
0.0
 11
9.120078740157481
 21
4.136811023622047
 31
0.0
  0
LINE
  5
70E
330
1E
100
AcDbEntity
  8
7
100
AcDbLine
 10
9.166338582677166
 20
4.182086614173227
 30
0.0
 11
9.148622047244094
 21
4.196850393700787
 31
0.0
  0
LINE
  5
70F
330
1E
100
AcDbEntity
  8
7
100
AcDbLine
 10
9.148622047244094
 20
4.196850393700787
 30
0.0
 11
9.133858267716535
 21
4.208661417322834
 31
0.0
  0
LINE
  5
710
330
1E
100
AcDbEntity
  8
7
100
AcDbLine
 10
9.369094488188975
 20
4.223425196850393
 30
0.0
 11
9.366141732283464
 21
4.241141732283464
 31
0.0
  0
LINE
  5
711
330
1E
100
AcDbEntity
  8
7
100
AcDbLine
 10
9.366141732283464
 20
4.241141732283464
 30
0.0
 11
9.364173228346457
 21
4.255905511811023
 31
0.0
  0
LINE
  5
712
330
1E
100
AcDbEntity
  8
7
100
AcDbLine
 10
9.364173228346457
 20
4.255905511811023
 30
0.0
 11
9.363188976377953
 21
4.265748031496062
 31
0.0
  0
LINE
  5
713
330
1E
100
AcDbEntity
  8
7
100
AcDbLine
 10
9.363188976377953
 20
4.265748031496062
 30
0.0
 11
9.364173228346457
 21
4.268700787401574
 31
0.0
  0
LINE
  5
714
330
1E
100
AcDbEntity
  8
7
100
AcDbLine
 10
10.10433070866141
 20
2.727362204724409
 30
0.0
 11
10.09055118110236
 21
2.744094488188975
 31
0.0
  0
LINE
  5
715
330
1E
100
AcDbEntity
  8
7
100
AcDbLine
 10
10.09055118110236
 20
2.744094488188975
 30
0.0
 11
10.0757874015748
 21
2.750984251968503
 31
0.0
  0
LINE
  5
716
330
1E
100
AcDbEntity
  8
7
100
AcDbLine
 10
10.0757874015748
 20
2.750984251968503
 30
0.0
 11
10.06200787401574
 21
2.750984251968503
 31
0.0
  0
LINE
  5
717
330
1E
100
AcDbEntity
  8
7
100
AcDbLine
 10
10.06200787401574
 20
2.750984251968503
 30
0.0
 11
10.03937007874015
 21
2.747047244094487
 31
0.0
  0
LINE
  5
718
330
1E
100
AcDbEntity
  8
7
100
AcDbLine
 10
10.03937007874015
 20
2.747047244094487
 30
0.0
 11
10.01574803149606
 21
2.742125984251968
 31
0.0
  0
LINE
  5
719
330
1E
100
AcDbEntity
  8
7
100
AcDbLine
 10
10.01574803149606
 20
2.742125984251968
 30
0.0
 11
9.991141732283464
 21
2.737204724409448
 31
0.0
  0
LINE
  5
71A
330
1E
100
AcDbEntity
  8
7
100
AcDbLine
 10
9.991141732283464
 20
2.737204724409448
 30
0.0
 11
9.992125984251968
 21
2.724409448818897
 31
0.0
  0
LINE
  5
71B
330
1E
100
AcDbEntity
  8
7
100
AcDbLine
 10
9.992125984251968
 20
2.724409448818897
 30
0.0
 11
9.990157480314961
 21
2.717519685039369
 31
0.0
  0
LINE
  5
71C
330
1E
100
AcDbEntity
  8
7
100
AcDbLine
 10
10.06200787401574
 20
2.750984251968503
 30
0.0
 11
10.06692913385826
 21
2.736220472440944
 31
0.0
  0
LINE
  5
71D
330
1E
100
AcDbEntity
  8
7
100
AcDbLine
 10
10.06692913385826
 20
2.736220472440944
 30
0.0
 11
10.0757874015748
 21
2.731299212598425
 31
0.0
  0
LINE
  5
71E
330
1E
100
AcDbEntity
  8
7
100
AcDbLine
 10
10.09055118110236
 20
2.744094488188975
 30
0.0
 11
10.0757874015748
 21
2.750984251968503
 31
0.0
  0
LINE
  5
71F
330
1E
100
AcDbEntity
  8
7
100
AcDbLine
 10
10.0757874015748
 20
2.750984251968503
 30
0.0
 11
10.06200787401574
 21
2.750984251968503
 31
0.0
  0
LINE
  5
720
330
1E
100
AcDbEntity
  8
7
100
AcDbLine
 10
10.11023622047244
 20
2.701771653543306
 30
0.0
 11
10.10433070866141
 21
2.727362204724409
 31
0.0
  0
LINE
  5
721
330
1E
100
AcDbEntity
  8
7
100
AcDbLine
 10
10.10433070866141
 20
2.727362204724409
 30
0.0
 11
10.09055118110236
 21
2.744094488188975
 31
0.0
  0
LINE
  5
722
330
1E
100
AcDbEntity
  8
7
100
AcDbLine
 10
10.06200787401574
 20
2.750984251968503
 30
0.0
 11
10.03937007874015
 21
2.747047244094487
 31
0.0
  0
LINE
  5
723
330
1E
100
AcDbEntity
  8
7
100
AcDbLine
 10
10.03937007874015
 20
2.747047244094487
 30
0.0
 11
10.01574803149606
 21
2.742125984251968
 31
0.0
  0
LINE
  5
724
330
1E
100
AcDbEntity
  8
7
100
AcDbLine
 10
10.01574803149606
 20
2.742125984251968
 30
0.0
 11
9.991141732283464
 21
2.737204724409448
 31
0.0
  0
LINE
  5
725
330
1E
100
AcDbEntity
  8
7
100
AcDbLine
 10
9.991141732283464
 20
2.737204724409448
 30
0.0
 11
9.992125984251968
 21
2.724409448818897
 31
0.0
  0
LINE
  5
726
330
1E
100
AcDbEntity
  8
7
100
AcDbLine
 10
9.992125984251968
 20
2.724409448818897
 30
0.0
 11
9.990157480314961
 21
2.717519685039369
 31
0.0
  0
LINE
  5
727
330
1E
100
AcDbEntity
  8
7
100
AcDbLine
 10
9.763779527559055
 20
2.655511811023622
 30
0.0
 11
9.76771653543307
 21
2.656496062992125
 31
0.0
  0
LINE
  5
728
330
1E
100
AcDbEntity
  8
7
100
AcDbLine
 10
9.76771653543307
 20
2.656496062992125
 30
0.0
 11
9.778543307086614
 21
2.657480314960629
 31
0.0
  0
LINE
  5
729
330
1E
100
AcDbEntity
  8
7
100
AcDbLine
 10
9.778543307086614
 20
2.657480314960629
 30
0.0
 11
9.796259842519685
 21
2.660433070866141
 31
0.0
  0
LINE
  5
72A
330
1E
100
AcDbEntity
  8
7
100
AcDbLine
 10
9.796259842519685
 20
2.660433070866141
 30
0.0
 11
9.820866141732283
 21
2.663385826771653
 31
0.0
  0
LINE
  5
72B
330
1E
100
AcDbEntity
  8
7
100
AcDbLine
 10
9.820866141732283
 20
2.663385826771653
 30
0.0
 11
9.850393700787401
 21
2.667322834645669
 31
0.0
  0
LINE
  5
72C
330
1E
100
AcDbEntity
  8
7
100
AcDbLine
 10
9.850393700787401
 20
2.667322834645669
 30
0.0
 11
9.882874015748031
 21
2.671259842519685
 31
0.0
  0
LINE
  5
72D
330
1E
100
AcDbEntity
  8
7
100
AcDbLine
 10
9.882874015748031
 20
2.671259842519685
 30
0.0
 11
9.919291338582677
 21
2.676181102362204
 31
0.0
  0
LINE
  5
72E
330
1E
100
AcDbEntity
  8
7
100
AcDbLine
 10
9.919291338582677
 20
2.676181102362204
 30
0.0
 11
9.954724409448818
 21
2.681102362204724
 31
0.0
  0
LINE
  5
72F
330
1E
100
AcDbEntity
  8
7
100
AcDbLine
 10
9.954724409448818
 20
2.681102362204724
 30
0.0
 11
9.990157480314961
 21
2.686023622047243
 31
0.0
  0
LINE
  5
730
330
1E
100
AcDbEntity
  8
7
100
AcDbLine
 10
9.990157480314961
 20
2.686023622047243
 30
0.0
 11
10.02362204724409
 21
2.689960629921259
 31
0.0
  0
LINE
  5
731
330
1E
100
AcDbEntity
  8
7
100
AcDbLine
 10
10.02362204724409
 20
2.689960629921259
 30
0.0
 11
10.05314960629921
 21
2.693897637795275
 31
0.0
  0
LINE
  5
732
330
1E
100
AcDbEntity
  8
7
100
AcDbLine
 10
10.05314960629921
 20
2.693897637795275
 30
0.0
 11
10.07775590551181
 21
2.696850393700787
 31
0.0
  0
LINE
  5
733
330
1E
100
AcDbEntity
  8
7
100
AcDbLine
 10
10.07775590551181
 20
2.696850393700787
 30
0.0
 11
10.09547244094488
 21
2.699803149606299
 31
0.0
  0
LINE
  5
734
330
1E
100
AcDbEntity
  8
7
100
AcDbLine
 10
10.11023622047244
 20
2.656496062992125
 30
0.0
 11
10.10629921259842
 21
2.656496062992125
 31
0.0
  0
LINE
  5
735
330
1E
100
AcDbEntity
  8
7
100
AcDbLine
 10
10.10629921259842
 20
2.656496062992125
 30
0.0
 11
10.09547244094488
 21
2.654527559055118
 31
0.0
  0
LINE
  5
736
330
1E
100
AcDbEntity
  8
7
100
AcDbLine
 10
10.09547244094488
 20
2.654527559055118
 30
0.0
 11
10.07775590551181
 21
2.65255905511811
 31
0.0
  0
LINE
  5
737
330
1E
100
AcDbEntity
  8
7
100
AcDbLine
 10
10.07775590551181
 20
2.65255905511811
 30
0.0
 11
10.05314960629921
 21
2.649606299212598
 31
0.0
  0
LINE
  5
738
330
1E
100
AcDbEntity
  8
7
100
AcDbLine
 10
10.05314960629921
 20
2.649606299212598
 30
0.0
 11
10.02362204724409
 21
2.646653543307086
 31
0.0
  0
LINE
  5
739
330
1E
100
AcDbEntity
  8
7
100
AcDbLine
 10
10.02362204724409
 20
2.646653543307086
 30
0.0
 11
9.990157480314961
 21
2.64271653543307
 31
0.0
  0
LINE
  5
73A
330
1E
100
AcDbEntity
  8
7
100
AcDbLine
 10
9.990157480314961
 20
2.64271653543307
 30
0.0
 11
9.954724409448818
 21
2.638779527559055
 31
0.0
  0
LINE
  5
73B
330
1E
100
AcDbEntity
  8
7
100
AcDbLine
 10
9.954724409448818
 20
2.638779527559055
 30
0.0
 11
9.919291338582677
 21
2.634842519685039
 31
0.0
  0
LINE
  5
73C
330
1E
100
AcDbEntity
  8
7
100
AcDbLine
 10
9.919291338582677
 20
2.634842519685039
 30
0.0
 11
9.882874015748031
 21
2.630905511811023
 31
0.0
  0
LINE
  5
73D
330
1E
100
AcDbEntity
  8
7
100
AcDbLine
 10
9.882874015748031
 20
2.630905511811023
 30
0.0
 11
9.850393700787401
 21
2.626968503937007
 31
0.0
  0
LINE
  5
73E
330
1E
100
AcDbEntity
  8
7
100
AcDbLine
 10
9.850393700787401
 20
2.626968503937007
 30
0.0
 11
9.820866141732283
 21
2.623031496062991
 31
0.0
  0
LINE
  5
73F
330
1E
100
AcDbEntity
  8
7
100
AcDbLine
 10
9.821850393700787
 20
2.570866141732283
 30
0.0
 11
9.832677165354331
 21
2.572834645669291
 31
0.0
  0
LINE
  5
740
330
1E
100
AcDbEntity
  8
7
100
AcDbLine
 10
9.832677165354331
 20
2.572834645669291
 30
0.0
 11
9.849409448818898
 21
2.574803149606299
 31
0.0
  0
LINE
  5
741
330
1E
100
AcDbEntity
  8
7
100
AcDbLine
 10
9.849409448818898
 20
2.574803149606299
 30
0.0
 11
9.872047244094488
 21
2.578740157480314
 31
0.0
  0
LINE
  5
742
330
1E
100
AcDbEntity
  8
7
100
AcDbLine
 10
9.872047244094488
 20
2.578740157480314
 30
0.0
 11
9.899606299212598
 21
2.58267716535433
 31
0.0
  0
LINE
  5
743
330
1E
100
AcDbEntity
  8
7
100
AcDbLine
 10
9.899606299212598
 20
2.58267716535433
 30
0.0
 11
9.929133858267716
 21
2.58759842519685
 31
0.0
  0
LINE
  5
744
330
1E
100
AcDbEntity
  8
7
100
AcDbLine
 10
9.929133858267716
 20
2.58759842519685
 30
0.0
 11
9.959645669291338
 21
2.592519685039369
 31
0.0
  0
LINE
  5
745
330
1E
100
AcDbEntity
  8
7
100
AcDbLine
 10
9.959645669291338
 20
2.592519685039369
 30
0.0
 11
9.989173228346457
 21
2.597440944881889
 31
0.0
  0
LINE
  5
746
330
1E
100
AcDbEntity
  8
7
100
AcDbLine
 10
9.989173228346457
 20
2.597440944881889
 30
0.0
 11
10.01574803149606
 21
2.601377952755905
 31
0.0
  0
LINE
  5
747
330
1E
100
AcDbEntity
  8
7
100
AcDbLine
 10
10.01574803149606
 20
2.601377952755905
 30
0.0
 11
10.03937007874015
 21
2.605314960629921
 31
0.0
  0
LINE
  5
748
330
1E
100
AcDbEntity
  8
7
100
AcDbLine
 10
10.03937007874015
 20
2.605314960629921
 30
0.0
 11
10.05610236220472
 21
2.608267716535432
 31
0.0
  0
LINE
  5
749
330
1E
100
AcDbEntity
  8
7
100
AcDbLine
 10
10.05610236220472
 20
2.608267716535432
 30
0.0
 11
10.06692913385826
 21
2.609251968503937
 31
0.0
  0
LINE
  5
74A
330
1E
100
AcDbEntity
  8
7
100
AcDbLine
 10
10.06692913385826
 20
2.609251968503937
 30
0.0
 11
10.07086614173228
 21
2.61023622047244
 31
0.0
  0
LINE
  5
74B
330
1E
100
AcDbEntity
  8
7
100
AcDbLine
 10
10.0757874015748
 20
2.731299212598425
 30
0.0
 11
10.07185039370078
 21
2.730314960629921
 31
0.0
  0
LINE
  5
74C
330
1E
100
AcDbEntity
  8
7
100
AcDbLine
 10
10.07185039370078
 20
2.730314960629921
 30
0.0
 11
10.05905511811023
 21
2.728346456692912
 31
0.0
  0
LINE
  5
74D
330
1E
100
AcDbEntity
  8
7
100
AcDbLine
 10
10.05905511811023
 20
2.728346456692912
 30
0.0
 11
10.03937007874015
 21
2.725393700787401
 31
0.0
  0
LINE
  5
74E
330
1E
100
AcDbEntity
  8
7
100
AcDbLine
 10
10.03937007874015
 20
2.725393700787401
 30
0.0
 11
10.01377952755905
 21
2.721456692913385
 31
0.0
  0
LINE
  5
74F
330
1E
100
AcDbEntity
  8
7
100
AcDbLine
 10
10.01377952755905
 20
2.721456692913385
 30
0.0
 11
9.983267716535433
 21
2.716535433070865
 31
0.0
  0
LINE
  5
750
330
1E
100
AcDbEntity
  8
7
100
AcDbLine
 10
9.983267716535433
 20
2.716535433070865
 30
0.0
 11
9.949803149606299
 21
2.710629921259842
 31
0.0
  0
LINE
  5
751
330
1E
100
AcDbEntity
  8
7
100
AcDbLine
 10
9.949803149606299
 20
2.710629921259842
 30
0.0
 11
9.915354330708661
 21
2.705708661417322
 31
0.0
  0
LINE
  5
752
330
1E
100
AcDbEntity
  8
7
100
AcDbLine
 10
9.915354330708661
 20
2.705708661417322
 30
0.0
 11
9.880905511811024
 21
2.700787401574802
 31
0.0
  0
LINE
  5
753
330
1E
100
AcDbEntity
  8
7
100
AcDbLine
 10
9.880905511811024
 20
2.700787401574802
 30
0.0
 11
9.850393700787401
 21
2.695866141732283
 31
0.0
  0
LINE
  5
754
330
1E
100
AcDbEntity
  8
7
100
AcDbLine
 10
9.850393700787401
 20
2.695866141732283
 30
0.0
 11
9.824803149606299
 21
2.690944881889763
 31
0.0
  0
LINE
  5
755
330
1E
100
AcDbEntity
  8
7
100
AcDbLine
 10
9.991141732283464
 20
2.737204724409448
 30
0.0
 11
9.774606299212598
 21
2.702755905511811
 31
0.0
  0
LINE
  5
756
330
1E
100
AcDbEntity
  8
7
100
AcDbLine
 10
9.774606299212598
 20
2.702755905511811
 30
0.0
 11
9.775590551181101
 21
2.688976377952755
 31
0.0
  0
LINE
  5
757
330
1E
100
AcDbEntity
  8
7
100
AcDbLine
 10
9.775590551181101
 20
2.688976377952755
 30
0.0
 11
9.773622047244094
 21
2.683070866141732
 31
0.0
  0
LINE
  5
758
330
1E
100
AcDbEntity
  8
7
100
AcDbLine
 10
9.763779527559055
 20
2.655511811023622
 30
0.0
 11
9.76771653543307
 21
2.656496062992125
 31
0.0
  0
LINE
  5
759
330
1E
100
AcDbEntity
  8
7
100
AcDbLine
 10
9.76771653543307
 20
2.656496062992125
 30
0.0
 11
9.778543307086614
 21
2.657480314960629
 31
0.0
  0
LINE
  5
75A
330
1E
100
AcDbEntity
  8
7
100
AcDbLine
 10
9.778543307086614
 20
2.657480314960629
 30
0.0
 11
9.796259842519685
 21
2.660433070866141
 31
0.0
  0
LINE
  5
75B
330
1E
100
AcDbEntity
  8
7
100
AcDbLine
 10
9.796259842519685
 20
2.660433070866141
 30
0.0
 11
9.820866141732283
 21
2.663385826771653
 31
0.0
  0
LINE
  5
75C
330
1E
100
AcDbEntity
  8
7
100
AcDbLine
 10
9.820866141732283
 20
2.663385826771653
 30
0.0
 11
9.850393700787401
 21
2.667322834645669
 31
0.0
  0
LINE
  5
75D
330
1E
100
AcDbEntity
  8
7
100
AcDbLine
 10
9.850393700787401
 20
2.667322834645669
 30
0.0
 11
9.882874015748031
 21
2.671259842519685
 31
0.0
  0
LINE
  5
75E
330
1E
100
AcDbEntity
  8
7
100
AcDbLine
 10
9.882874015748031
 20
2.671259842519685
 30
0.0
 11
9.919291338582677
 21
2.676181102362204
 31
0.0
  0
LINE
  5
75F
330
1E
100
AcDbEntity
  8
7
100
AcDbLine
 10
9.919291338582677
 20
2.676181102362204
 30
0.0
 11
9.954724409448818
 21
2.681102362204724
 31
0.0
  0
LINE
  5
760
330
1E
100
AcDbEntity
  8
7
100
AcDbLine
 10
9.954724409448818
 20
2.681102362204724
 30
0.0
 11
9.990157480314961
 21
2.686023622047243
 31
0.0
  0
LINE
  5
761
330
1E
100
AcDbEntity
  8
7
100
AcDbLine
 10
9.990157480314961
 20
2.686023622047243
 30
0.0
 11
10.02362204724409
 21
2.689960629921259
 31
0.0
  0
LINE
  5
762
330
1E
100
AcDbEntity
  8
7
100
AcDbLine
 10
10.02362204724409
 20
2.689960629921259
 30
0.0
 11
10.05314960629921
 21
2.693897637795275
 31
0.0
  0
LINE
  5
763
330
1E
100
AcDbEntity
  8
7
100
AcDbLine
 10
10.05314960629921
 20
2.693897637795275
 30
0.0
 11
10.07775590551181
 21
2.696850393700787
 31
0.0
  0
LINE
  5
764
330
1E
100
AcDbEntity
  8
7
100
AcDbLine
 10
10.07775590551181
 20
2.696850393700787
 30
0.0
 11
10.09547244094488
 21
2.699803149606299
 31
0.0
  0
LINE
  5
765
330
1E
100
AcDbEntity
  8
7
100
AcDbLine
 10
10.09547244094488
 20
2.699803149606299
 30
0.0
 11
10.10629921259842
 21
2.700787401574802
 31
0.0
  0
LINE
  5
766
330
1E
100
AcDbEntity
  8
7
100
AcDbLine
 10
10.10629921259842
 20
2.700787401574802
 30
0.0
 11
10.11023622047244
 21
2.701771653543306
 31
0.0
  0
LINE
  5
767
330
1E
100
AcDbEntity
  8
7
100
AcDbLine
 10
10.11023622047244
 20
2.656496062992125
 30
0.0
 11
10.10629921259842
 21
2.656496062992125
 31
0.0
  0
LINE
  5
768
330
1E
100
AcDbEntity
  8
7
100
AcDbLine
 10
10.10629921259842
 20
2.656496062992125
 30
0.0
 11
10.09547244094488
 21
2.654527559055118
 31
0.0
  0
LINE
  5
769
330
1E
100
AcDbEntity
  8
7
100
AcDbLine
 10
10.09547244094488
 20
2.654527559055118
 30
0.0
 11
10.07775590551181
 21
2.65255905511811
 31
0.0
  0
LINE
  5
76A
330
1E
100
AcDbEntity
  8
7
100
AcDbLine
 10
10.07775590551181
 20
2.65255905511811
 30
0.0
 11
10.05314960629921
 21
2.649606299212598
 31
0.0
  0
LINE
  5
76B
330
1E
100
AcDbEntity
  8
7
100
AcDbLine
 10
10.05314960629921
 20
2.649606299212598
 30
0.0
 11
10.02362204724409
 21
2.646653543307086
 31
0.0
  0
LINE
  5
76C
330
1E
100
AcDbEntity
  8
7
100
AcDbLine
 10
10.02362204724409
 20
2.646653543307086
 30
0.0
 11
9.990157480314961
 21
2.64271653543307
 31
0.0
  0
LINE
  5
76D
330
1E
100
AcDbEntity
  8
7
100
AcDbLine
 10
9.990157480314961
 20
2.64271653543307
 30
0.0
 11
9.954724409448818
 21
2.638779527559055
 31
0.0
  0
LINE
  5
76E
330
1E
100
AcDbEntity
  8
7
100
AcDbLine
 10
9.954724409448818
 20
2.638779527559055
 30
0.0
 11
9.919291338582677
 21
2.634842519685039
 31
0.0
  0
LINE
  5
76F
330
1E
100
AcDbEntity
  8
7
100
AcDbLine
 10
9.919291338582677
 20
2.634842519685039
 30
0.0
 11
9.882874015748031
 21
2.630905511811023
 31
0.0
  0
LINE
  5
770
330
1E
100
AcDbEntity
  8
7
100
AcDbLine
 10
9.882874015748031
 20
2.630905511811023
 30
0.0
 11
9.850393700787401
 21
2.626968503937007
 31
0.0
  0
LINE
  5
771
330
1E
100
AcDbEntity
  8
7
100
AcDbLine
 10
9.850393700787401
 20
2.626968503937007
 30
0.0
 11
9.820866141732283
 21
2.623031496062991
 31
0.0
  0
LINE
  5
772
330
1E
100
AcDbEntity
  8
7
100
AcDbLine
 10
9.820866141732283
 20
2.623031496062991
 30
0.0
 11
9.796259842519685
 21
2.62007874015748
 31
0.0
  0
LINE
  5
773
330
1E
100
AcDbEntity
  8
7
100
AcDbLine
 10
9.832677165354331
 20
2.572834645669291
 30
0.0
 11
9.849409448818898
 21
2.574803149606299
 31
0.0
  0
LINE
  5
774
330
1E
100
AcDbEntity
  8
7
100
AcDbLine
 10
9.849409448818898
 20
2.574803149606299
 30
0.0
 11
9.872047244094488
 21
2.578740157480314
 31
0.0
  0
LINE
  5
775
330
1E
100
AcDbEntity
  8
7
100
AcDbLine
 10
9.872047244094488
 20
2.578740157480314
 30
0.0
 11
9.899606299212598
 21
2.58267716535433
 31
0.0
  0
LINE
  5
776
330
1E
100
AcDbEntity
  8
7
100
AcDbLine
 10
9.899606299212598
 20
2.58267716535433
 30
0.0
 11
9.929133858267716
 21
2.58759842519685
 31
0.0
  0
LINE
  5
777
330
1E
100
AcDbEntity
  8
7
100
AcDbLine
 10
9.929133858267716
 20
2.58759842519685
 30
0.0
 11
9.959645669291338
 21
2.592519685039369
 31
0.0
  0
LINE
  5
778
330
1E
100
AcDbEntity
  8
7
100
AcDbLine
 10
9.959645669291338
 20
2.592519685039369
 30
0.0
 11
9.989173228346457
 21
2.597440944881889
 31
0.0
  0
LINE
  5
779
330
1E
100
AcDbEntity
  8
7
100
AcDbLine
 10
9.989173228346457
 20
2.597440944881889
 30
0.0
 11
10.01574803149606
 21
2.601377952755905
 31
0.0
  0
LINE
  5
77A
330
1E
100
AcDbEntity
  8
7
100
AcDbLine
 10
10.01574803149606
 20
2.601377952755905
 30
0.0
 11
10.03937007874015
 21
2.605314960629921
 31
0.0
  0
LINE
  5
77B
330
1E
100
AcDbEntity
  8
7
100
AcDbLine
 10
10.03937007874015
 20
2.605314960629921
 30
0.0
 11
10.05610236220472
 21
2.608267716535432
 31
0.0
  0
LINE
  5
77C
330
1E
100
AcDbEntity
  8
7
100
AcDbLine
 10
10.05610236220472
 20
2.608267716535432
 30
0.0
 11
10.06692913385826
 21
2.609251968503937
 31
0.0
  0
LINE
  5
77D
330
1E
100
AcDbEntity
  8
7
100
AcDbLine
 10
10.06692913385826
 20
2.609251968503937
 30
0.0
 11
10.07086614173228
 21
2.61023622047244
 31
0.0
  0
LINE
  5
77E
330
1E
100
AcDbEntity
  8
7
100
AcDbLine
 10
10.0757874015748
 20
2.731299212598425
 30
0.0
 11
10.07185039370078
 21
2.730314960629921
 31
0.0
  0
LINE
  5
77F
330
1E
100
AcDbEntity
  8
7
100
AcDbLine
 10
10.07185039370078
 20
2.730314960629921
 30
0.0
 11
10.05905511811023
 21
2.728346456692912
 31
0.0
  0
LINE
  5
780
330
1E
100
AcDbEntity
  8
7
100
AcDbLine
 10
10.05905511811023
 20
2.728346456692912
 30
0.0
 11
10.03937007874015
 21
2.725393700787401
 31
0.0
  0
LINE
  5
781
330
1E
100
AcDbEntity
  8
7
100
AcDbLine
 10
10.03937007874015
 20
2.725393700787401
 30
0.0
 11
10.01377952755905
 21
2.721456692913385
 31
0.0
  0
LINE
  5
782
330
1E
100
AcDbEntity
  8
7
100
AcDbLine
 10
10.01377952755905
 20
2.721456692913385
 30
0.0
 11
9.983267716535433
 21
2.716535433070865
 31
0.0
  0
LINE
  5
783
330
1E
100
AcDbEntity
  8
7
100
AcDbLine
 10
9.983267716535433
 20
2.716535433070865
 30
0.0
 11
9.949803149606299
 21
2.710629921259842
 31
0.0
  0
LINE
  5
784
330
1E
100
AcDbEntity
  8
7
100
AcDbLine
 10
9.949803149606299
 20
2.710629921259842
 30
0.0
 11
9.915354330708661
 21
2.705708661417322
 31
0.0
  0
LINE
  5
785
330
1E
100
AcDbEntity
  8
7
100
AcDbLine
 10
9.915354330708661
 20
2.705708661417322
 30
0.0
 11
9.880905511811024
 21
2.700787401574802
 31
0.0
  0
LINE
  5
786
330
1E
100
AcDbEntity
  8
7
100
AcDbLine
 10
9.880905511811024
 20
2.700787401574802
 30
0.0
 11
9.850393700787401
 21
2.695866141732283
 31
0.0
  0
LINE
  5
787
330
1E
100
AcDbEntity
  8
7
100
AcDbLine
 10
9.850393700787401
 20
2.695866141732283
 30
0.0
 11
9.824803149606299
 21
2.690944881889763
 31
0.0
  0
LINE
  5
788
330
1E
100
AcDbEntity
  8
7
100
AcDbLine
 10
9.824803149606299
 20
2.690944881889763
 30
0.0
 11
9.80511811023622
 21
2.687992125984251
 31
0.0
  0
LINE
  5
789
330
1E
100
AcDbEntity
  8
7
100
AcDbLine
 10
9.991141732283464
 20
2.737204724409448
 30
0.0
 11
9.774606299212598
 21
2.702755905511811
 31
0.0
  0
LINE
  5
78A
330
1E
100
AcDbEntity
  8
7
100
AcDbLine
 10
9.774606299212598
 20
2.702755905511811
 30
0.0
 11
9.775590551181101
 21
2.688976377952755
 31
0.0
  0
LINE
  5
78B
330
1E
100
AcDbEntity
  8
7
100
AcDbLine
 10
9.775590551181101
 20
2.688976377952755
 30
0.0
 11
9.773622047244094
 21
2.683070866141732
 31
0.0
  0
LINE
  5
78C
330
1E
100
AcDbEntity
  8
7
100
AcDbLine
 10
9.817913385826772
 20
2.569881889763779
 30
0.0
 11
9.821850393700787
 21
2.570866141732283
 31
0.0
  0
LINE
  5
78D
330
1E
100
AcDbEntity
  8
7
100
AcDbLine
 10
9.821850393700787
 20
2.570866141732283
 30
0.0
 11
9.832677165354331
 21
2.572834645669291
 31
0.0
  0
LINE
  5
78E
330
1E
100
AcDbEntity
  8
7
100
AcDbLine
 10
9.788385826771653
 20
2.685039370078739
 30
0.0
 11
9.770669291338583
 21
2.674212598425196
 31
0.0
  0
LINE
  5
78F
330
1E
100
AcDbEntity
  8
7
100
AcDbLine
 10
9.770669291338583
 20
2.674212598425196
 30
0.0
 11
9.763779527559055
 21
2.655511811023622
 31
0.0
  0
LINE
  5
790
330
1E
100
AcDbEntity
  8
7
100
AcDbLine
 10
9.763779527559055
 20
2.617125984251968
 30
0.0
 11
9.76771653543307
 21
2.597440944881889
 31
0.0
  0
LINE
  5
791
330
1E
100
AcDbEntity
  8
7
100
AcDbLine
 10
9.76771653543307
 20
2.597440944881889
 30
0.0
 11
9.779527559055118
 21
2.581692913385826
 31
0.0
  0
LINE
  5
792
330
1E
100
AcDbEntity
  8
7
100
AcDbLine
 10
9.779527559055118
 20
2.581692913385826
 30
0.0
 11
9.797244094488188
 21
2.572834645669291
 31
0.0
  0
LINE
  5
793
330
1E
100
AcDbEntity
  8
7
100
AcDbLine
 10
9.797244094488188
 20
2.572834645669291
 30
0.0
 11
9.816929133858268
 21
2.571850393700787
 31
0.0
  0
LINE
  5
794
330
1E
100
AcDbEntity
  8
7
100
AcDbLine
 10
9.820866141732283
 20
2.623031496062991
 30
0.0
 11
9.796259842519685
 21
2.62007874015748
 31
0.0
  0
LINE
  5
795
330
1E
100
AcDbEntity
  8
7
100
AcDbLine
 10
9.796259842519685
 20
2.62007874015748
 30
0.0
 11
9.778543307086614
 21
2.618110236220472
 31
0.0
  0
LINE
  5
796
330
1E
100
AcDbEntity
  8
7
100
AcDbLine
 10
9.778543307086614
 20
2.618110236220472
 30
0.0
 11
9.76771653543307
 21
2.617125984251968
 31
0.0
  0
LINE
  5
797
330
1E
100
AcDbEntity
  8
7
100
AcDbLine
 10
9.76771653543307
 20
2.617125984251968
 30
0.0
 11
9.763779527559055
 21
2.617125984251968
 31
0.0
  0
LINE
  5
798
330
1E
100
AcDbEntity
  8
7
100
AcDbLine
 10
9.824803149606299
 20
2.690944881889763
 30
0.0
 11
9.80511811023622
 21
2.687992125984251
 31
0.0
  0
LINE
  5
799
330
1E
100
AcDbEntity
  8
7
100
AcDbLine
 10
9.80511811023622
 20
2.687992125984251
 30
0.0
 11
9.793307086614174
 21
2.686023622047243
 31
0.0
  0
LINE
  5
79A
330
1E
100
AcDbEntity
  8
7
100
AcDbLine
 10
9.793307086614174
 20
2.686023622047243
 30
0.0
 11
9.788385826771653
 21
2.686023622047243
 31
0.0
  0
LINE
  5
79B
330
1E
100
AcDbEntity
  8
7
100
AcDbLine
 10
9.788385826771653
 20
2.686023622047243
 30
0.0
 11
9.785433070866142
 21
2.685039370078739
 31
0.0
  0
LINE
  5
79C
330
1E
100
AcDbEntity
  8
7
100
AcDbLine
 10
9.785433070866142
 20
2.685039370078739
 30
0.0
 11
9.773622047244094
 21
2.683070866141732
 31
0.0
  0
LINE
  5
79D
330
1E
100
AcDbEntity
  8
7
100
AcDbLine
 10
9.763779527559055
 20
2.617125984251968
 30
0.0
 11
9.76771653543307
 21
2.597440944881889
 31
0.0
  0
LINE
  5
79E
330
1E
100
AcDbEntity
  8
7
100
AcDbLine
 10
9.76771653543307
 20
2.597440944881889
 30
0.0
 11
9.779527559055118
 21
2.581692913385826
 31
0.0
  0
LINE
  5
79F
330
1E
100
AcDbEntity
  8
7
100
AcDbLine
 10
9.779527559055118
 20
2.581692913385826
 30
0.0
 11
9.797244094488188
 21
2.572834645669291
 31
0.0
  0
LINE
  5
7A0
330
1E
100
AcDbEntity
  8
7
100
AcDbLine
 10
9.797244094488188
 20
2.572834645669291
 30
0.0
 11
9.816929133858268
 21
2.571850393700787
 31
0.0
  0
LINE
  5
7A1
330
1E
100
AcDbEntity
  8
7
100
AcDbLine
 10
9.796259842519685
 20
2.62007874015748
 30
0.0
 11
9.778543307086614
 21
2.618110236220472
 31
0.0
  0
LINE
  5
7A2
330
1E
100
AcDbEntity
  8
7
100
AcDbLine
 10
9.778543307086614
 20
2.618110236220472
 30
0.0
 11
9.76771653543307
 21
2.617125984251968
 31
0.0
  0
LINE
  5
7A3
330
1E
100
AcDbEntity
  8
7
100
AcDbLine
 10
9.76771653543307
 20
2.617125984251968
 30
0.0
 11
9.763779527559055
 21
2.617125984251968
 31
0.0
  0
LINE
  5
7A4
330
1E
100
AcDbEntity
  8
7
100
AcDbLine
 10
9.80511811023622
 20
2.687992125984251
 30
0.0
 11
9.793307086614174
 21
2.686023622047243
 31
0.0
  0
LINE
  5
7A5
330
1E
100
AcDbEntity
  8
7
100
AcDbLine
 10
9.793307086614174
 20
2.686023622047243
 30
0.0
 11
9.788385826771653
 21
2.686023622047243
 31
0.0
  0
LINE
  5
7A6
330
1E
100
AcDbEntity
  8
7
100
AcDbLine
 10
10.09547244094488
 20
2.699803149606299
 30
0.0
 11
10.10629921259842
 21
2.700787401574802
 31
0.0
  0
LINE
  5
7A7
330
1E
100
AcDbEntity
  8
7
100
AcDbLine
 10
10.10629921259842
 20
2.700787401574802
 30
0.0
 11
10.11023622047244
 21
2.701771653543306
 31
0.0
  0
LINE
  5
7A8
330
1E
100
AcDbEntity
  8
7
100
AcDbLine
 10
10.06988188976378
 20
2.611220472440944
 30
0.0
 11
10.09055118110236
 21
2.619094488188975
 31
0.0
  0
LINE
  5
7A9
330
1E
100
AcDbEntity
  8
7
100
AcDbLine
 10
10.09055118110236
 20
2.619094488188975
 30
0.0
 11
10.10433070866141
 21
2.635826771653543
 31
0.0
  0
LINE
  5
7AA
330
1E
100
AcDbEntity
  8
7
100
AcDbLine
 10
10.10433070866141
 20
2.635826771653543
 30
0.0
 11
10.10925196850393
 21
2.656496062992125
 31
0.0
  0
LINE
  5
7AB
330
1E
100
AcDbEntity
  8
7
100
AcDbLine
 10
10.11023622047244
 20
2.701771653543306
 30
0.0
 11
10.10531496062992
 21
2.717519685039369
 31
0.0
  0
LINE
  5
7AC
330
1E
100
AcDbEntity
  8
7
100
AcDbLine
 10
10.10531496062992
 20
2.717519685039369
 30
0.0
 11
10.09251968503937
 21
2.728346456692912
 31
0.0
  0
LINE
  5
7AD
330
1E
100
AcDbEntity
  8
7
100
AcDbLine
 10
10.09251968503937
 20
2.728346456692912
 30
0.0
 11
10.0757874015748
 21
2.731299212598425
 31
0.0
  0
LINE
  5
7AE
330
1E
100
AcDbEntity
  8
7
100
AcDbLine
 10
10.06988188976378
 20
2.611220472440944
 30
0.0
 11
10.09055118110236
 21
2.619094488188975
 31
0.0
  0
LINE
  5
7AF
330
1E
100
AcDbEntity
  8
7
100
AcDbLine
 10
10.09055118110236
 20
2.619094488188975
 30
0.0
 11
10.10433070866141
 21
2.635826771653543
 31
0.0
  0
LINE
  5
7B0
330
1E
100
AcDbEntity
  8
7
100
AcDbLine
 10
10.10433070866141
 20
2.635826771653543
 30
0.0
 11
10.10925196850393
 21
2.656496062992125
 31
0.0
  0
LINE
  5
7B1
330
1E
100
AcDbEntity
  8
7
100
AcDbLine
 10
10.11023622047244
 20
2.701771653543306
 30
0.0
 11
10.10531496062992
 21
2.717519685039369
 31
0.0
  0
LINE
  5
7B2
330
1E
100
AcDbEntity
  8
7
100
AcDbLine
 10
10.10531496062992
 20
2.717519685039369
 30
0.0
 11
10.09251968503937
 21
2.728346456692912
 31
0.0
  0
LINE
  5
7B3
330
1E
100
AcDbEntity
  8
7
100
AcDbLine
 10
10.09251968503937
 20
2.728346456692912
 30
0.0
 11
10.0757874015748
 21
2.731299212598425
 31
0.0
  0
LINE
  5
7B4
330
1E
100
AcDbEntity
  8
7
100
AcDbLine
 10
10.02854330708661
 20
2.804133858267716
 30
0.0
 11
10.01181102362204
 21
2.801181102362204
 31
0.0
  0
LINE
  5
7B5
330
1E
100
AcDbEntity
  8
7
100
AcDbLine
 10
10.01181102362204
 20
2.801181102362204
 30
0.0
 11
9.993110236220472
 21
2.798228346456692
 31
0.0
  0
LINE
  5
7B6
330
1E
100
AcDbEntity
  8
7
100
AcDbLine
 10
9.993110236220472
 20
2.798228346456692
 30
0.0
 11
9.989173228346457
 21
2.791338582677165
 31
0.0
  0
LINE
  5
7B7
330
1E
100
AcDbEntity
  8
7
100
AcDbLine
 10
9.989173228346457
 20
2.791338582677165
 30
0.0
 11
9.988188976377953
 21
2.774606299212598
 31
0.0
  0
LINE
  5
7B8
330
1E
100
AcDbEntity
  8
7
100
AcDbLine
 10
9.988188976377953
 20
2.774606299212598
 30
0.0
 11
9.991141732283464
 21
2.751968503937007
 31
0.0
  0
LINE
  5
7B9
330
1E
100
AcDbEntity
  8
7
100
AcDbLine
 10
9.991141732283464
 20
2.751968503937007
 30
0.0
 11
10.02066929133858
 21
2.753937007874015
 31
0.0
  0
LINE
  5
7BA
330
1E
100
AcDbEntity
  8
7
100
AcDbLine
 10
10.02066929133858
 20
2.753937007874015
 30
0.0
 11
10.04822834645669
 21
2.755905511811023
 31
0.0
  0
LINE
  5
7BB
330
1E
100
AcDbEntity
  8
7
100
AcDbLine
 10
10.04822834645669
 20
2.755905511811023
 30
0.0
 11
10.07381889763779
 21
2.758858267716535
 31
0.0
  0
LINE
  5
7BC
330
1E
100
AcDbEntity
  8
7
100
AcDbLine
 10
10.07381889763779
 20
2.758858267716535
 30
0.0
 11
10.09350393700787
 21
2.759842519685038
 31
0.0
  0
LINE
  5
7BD
330
1E
100
AcDbEntity
  8
7
100
AcDbLine
 10
10.09350393700787
 20
2.759842519685038
 30
0.0
 11
10.10629921259842
 21
2.760826771653543
 31
0.0
  0
LINE
  5
7BE
330
1E
100
AcDbEntity
  8
7
100
AcDbLine
 10
10.10629921259842
 20
2.760826771653543
 30
0.0
 11
10.11023622047244
 21
2.761811023622047
 31
0.0
  0
LINE
  5
7BF
330
1E
100
AcDbEntity
  8
7
100
AcDbLine
 10
10.01181102362204
 20
2.801181102362204
 30
0.0
 11
9.993110236220472
 21
2.798228346456692
 31
0.0
  0
LINE
  5
7C0
330
1E
100
AcDbEntity
  8
7
100
AcDbLine
 10
9.993110236220472
 20
2.798228346456692
 30
0.0
 11
9.989173228346457
 21
2.791338582677165
 31
0.0
  0
LINE
  5
7C1
330
1E
100
AcDbEntity
  8
7
100
AcDbLine
 10
9.989173228346457
 20
2.791338582677165
 30
0.0
 11
9.988188976377953
 21
2.774606299212598
 31
0.0
  0
LINE
  5
7C2
330
1E
100
AcDbEntity
  8
7
100
AcDbLine
 10
9.988188976377953
 20
2.774606299212598
 30
0.0
 11
9.991141732283464
 21
2.751968503937007
 31
0.0
  0
LINE
  5
7C3
330
1E
100
AcDbEntity
  8
7
100
AcDbLine
 10
9.991141732283464
 20
2.751968503937007
 30
0.0
 11
10.02066929133858
 21
2.753937007874015
 31
0.0
  0
LINE
  5
7C4
330
1E
100
AcDbEntity
  8
7
100
AcDbLine
 10
10.02066929133858
 20
2.753937007874015
 30
0.0
 11
10.04822834645669
 21
2.755905511811023
 31
0.0
  0
LINE
  5
7C5
330
1E
100
AcDbEntity
  8
7
100
AcDbLine
 10
10.04822834645669
 20
2.755905511811023
 30
0.0
 11
10.07381889763779
 21
2.758858267716535
 31
0.0
  0
LINE
  5
7C6
330
1E
100
AcDbEntity
  8
7
100
AcDbLine
 10
10.07381889763779
 20
2.758858267716535
 30
0.0
 11
10.09350393700787
 21
2.759842519685038
 31
0.0
  0
LINE
  5
7C7
330
1E
100
AcDbEntity
  8
7
100
AcDbLine
 10
10.09350393700787
 20
2.759842519685038
 30
0.0
 11
10.10629921259842
 21
2.760826771653543
 31
0.0
  0
LINE
  5
7C8
330
1E
100
AcDbEntity
  8
7
100
AcDbLine
 10
10.10629921259842
 20
2.760826771653543
 30
0.0
 11
10.11023622047244
 21
2.761811023622047
 31
0.0
  0
LINE
  5
7C9
330
1E
100
AcDbEntity
  8
7
100
AcDbLine
 10
10.10925196850393
 20
2.761811023622047
 30
0.0
 11
10.10531496062992
 21
2.781496062992125
 31
0.0
  0
LINE
  5
7CA
330
1E
100
AcDbEntity
  8
7
100
AcDbLine
 10
10.10531496062992
 20
2.781496062992125
 30
0.0
 11
10.09350393700787
 21
2.797244094488188
 31
0.0
  0
LINE
  5
7CB
330
1E
100
AcDbEntity
  8
7
100
AcDbLine
 10
10.09350393700787
 20
2.797244094488188
 30
0.0
 11
10.0757874015748
 21
2.806102362204724
 31
0.0
  0
LINE
  5
7CC
330
1E
100
AcDbEntity
  8
7
100
AcDbLine
 10
10.0757874015748
 20
2.806102362204724
 30
0.0
 11
10.05610236220472
 21
2.807086614173228
 31
0.0
  0
LINE
  5
7CD
330
1E
100
AcDbEntity
  8
7
100
AcDbLine
 10
10.10925196850393
 20
2.761811023622047
 30
0.0
 11
10.10531496062992
 21
2.781496062992125
 31
0.0
  0
LINE
  5
7CE
330
1E
100
AcDbEntity
  8
7
100
AcDbLine
 10
10.10531496062992
 20
2.781496062992125
 30
0.0
 11
10.09350393700787
 21
2.797244094488188
 31
0.0
  0
LINE
  5
7CF
330
1E
100
AcDbEntity
  8
7
100
AcDbLine
 10
10.09350393700787
 20
2.797244094488188
 30
0.0
 11
10.0757874015748
 21
2.806102362204724
 31
0.0
  0
LINE
  5
7D0
330
1E
100
AcDbEntity
  8
7
100
AcDbLine
 10
10.0757874015748
 20
2.806102362204724
 30
0.0
 11
10.05610236220472
 21
2.807086614173228
 31
0.0
  0
LINE
  5
7D1
330
1E
100
AcDbEntity
  8
7
100
AcDbLine
 10
10.05610236220472
 20
2.808070866141732
 30
0.0
 11
10.05314960629921
 21
2.807086614173228
 31
0.0
  0
LINE
  5
7D2
330
1E
100
AcDbEntity
  8
7
100
AcDbLine
 10
10.05314960629921
 20
2.807086614173228
 30
0.0
 11
10.04330708661417
 21
2.806102362204724
 31
0.0
  0
LINE
  5
7D3
330
1E
100
AcDbEntity
  8
7
100
AcDbLine
 10
10.04330708661417
 20
2.806102362204724
 30
0.0
 11
10.02854330708661
 21
2.804133858267716
 31
0.0
  0
LINE
  5
7D4
330
1E
100
AcDbEntity
  8
7
100
AcDbLine
 10
10.05610236220472
 20
2.808070866141732
 30
0.0
 11
10.05314960629921
 21
2.807086614173228
 31
0.0
  0
LINE
  5
7D5
330
1E
100
AcDbEntity
  8
7
100
AcDbLine
 10
10.05314960629921
 20
2.807086614173228
 30
0.0
 11
10.04330708661417
 21
2.806102362204724
 31
0.0
  0
LINE
  5
7D6
330
1E
100
AcDbEntity
  8
7
100
AcDbLine
 10
10.04330708661417
 20
2.806102362204724
 30
0.0
 11
10.02854330708661
 21
2.804133858267716
 31
0.0
  0
LINE
  5
7D7
330
1E
100
AcDbEntity
  8
7
100
AcDbLine
 10
10.02854330708661
 20
2.804133858267716
 30
0.0
 11
10.01181102362204
 21
2.801181102362204
 31
0.0
  0
LINE
  5
7D8
330
1E
100
AcDbEntity
  8
7
100
AcDbLine
 10
10.0757874015748
 20
3.30511811023622
 30
0.0
 11
10.09251968503937
 21
3.30511811023622
 31
0.0
  0
LINE
  5
7D9
330
1E
100
AcDbEntity
  8
7
100
AcDbLine
 10
10.09251968503937
 20
3.30511811023622
 30
0.0
 11
10.10531496062992
 21
3.30511811023622
 31
0.0
  0
LINE
  5
7DA
330
1E
100
AcDbEntity
  8
7
100
AcDbLine
 10
10.10531496062992
 20
3.30511811023622
 30
0.0
 11
10.11023622047244
 21
3.30511811023622
 31
0.0
  0
LINE
  5
7DB
330
1E
100
AcDbEntity
  8
7
100
AcDbLine
 10
10.11023622047244
 20
3.30511811023622
 30
0.0
 11
10.11023622047244
 21
3.518700787401574
 31
0.0
  0
LINE
  5
7DC
330
1E
100
AcDbEntity
  8
7
100
AcDbLine
 10
10.11023622047244
 20
3.518700787401574
 30
0.0
 11
10.11023622047244
 21
3.599409448818897
 31
0.0
  0
LINE
  5
7DD
330
1E
100
AcDbEntity
  8
7
100
AcDbLine
 10
10.11023622047244
 20
3.599409448818897
 30
0.0
 11
10.11023622047244
 21
3.655511811023621
 31
0.0
  0
LINE
  5
7DE
330
1E
100
AcDbEntity
  8
7
100
AcDbLine
 10
10.11023622047244
 20
3.655511811023621
 30
0.0
 11
10.11023622047244
 21
3.714566929133858
 31
0.0
  0
LINE
  5
7DF
330
1E
100
AcDbEntity
  8
7
100
AcDbLine
 10
10.11023622047244
 20
3.714566929133858
 30
0.0
 11
10.11023622047244
 21
3.77755905511811
 31
0.0
  0
LINE
  5
7E0
330
1E
100
AcDbEntity
  8
7
100
AcDbLine
 10
10.11023622047244
 20
3.77755905511811
 30
0.0
 11
10.11023622047244
 21
3.841535433070865
 31
0.0
  0
LINE
  5
7E1
330
1E
100
AcDbEntity
  8
7
100
AcDbLine
 10
10.11023622047244
 20
3.841535433070865
 30
0.0
 11
10.11023622047244
 21
3.907480314960629
 31
0.0
  0
LINE
  5
7E2
330
1E
100
AcDbEntity
  8
7
100
AcDbLine
 10
10.11023622047244
 20
3.907480314960629
 30
0.0
 11
10.11023622047244
 21
3.973425196850393
 31
0.0
  0
LINE
  5
7E3
330
1E
100
AcDbEntity
  8
7
100
AcDbLine
 10
10.11023622047244
 20
3.973425196850393
 30
0.0
 11
10.11023622047244
 21
4.038385826771653
 31
0.0
  0
LINE
  5
7E4
330
1E
100
AcDbEntity
  8
7
100
AcDbLine
 10
10.11023622047244
 20
4.038385826771653
 30
0.0
 11
10.11023622047244
 21
4.100393700787401
 31
0.0
  0
LINE
  5
7E5
330
1E
100
AcDbEntity
  8
7
100
AcDbLine
 10
10.11023622047244
 20
4.100393700787401
 30
0.0
 11
10.11023622047244
 21
4.160433070866141
 31
0.0
  0
LINE
  5
7E6
330
1E
100
AcDbEntity
  8
7
100
AcDbLine
 10
10.11023622047244
 20
4.160433070866141
 30
0.0
 11
10.11023622047244
 21
4.215551181102362
 31
0.0
  0
LINE
  5
7E7
330
1E
100
AcDbEntity
  8
7
100
AcDbLine
 10
10.08169291338582
 20
4.19783464566929
 30
0.0
 11
10.08169291338582
 21
4.139763779527559
 31
0.0
  0
LINE
  5
7E8
330
1E
100
AcDbEntity
  8
7
100
AcDbLine
 10
10.08169291338582
 20
4.139763779527559
 30
0.0
 11
10.08169291338582
 21
4.076771653543307
 31
0.0
  0
LINE
  5
7E9
330
1E
100
AcDbEntity
  8
7
100
AcDbLine
 10
10.08169291338582
 20
4.076771653543307
 30
0.0
 11
10.08169291338582
 21
4.009842519685038
 31
0.0
  0
LINE
  5
7EA
330
1E
100
AcDbEntity
  8
7
100
AcDbLine
 10
10.08169291338582
 20
4.009842519685038
 30
0.0
 11
10.08169291338582
 21
3.941929133858267
 31
0.0
  0
LINE
  5
7EB
330
1E
100
AcDbEntity
  8
7
100
AcDbLine
 10
10.08169291338582
 20
3.941929133858267
 30
0.0
 11
10.08169291338582
 21
3.873031496062992
 31
0.0
  0
LINE
  5
7EC
330
1E
100
AcDbEntity
  8
7
100
AcDbLine
 10
10.08169291338582
 20
3.873031496062992
 30
0.0
 11
10.08169291338582
 21
3.80511811023622
 31
0.0
  0
LINE
  5
7ED
330
1E
100
AcDbEntity
  8
7
100
AcDbLine
 10
10.08169291338582
 20
3.80511811023622
 30
0.0
 11
10.08169291338582
 21
3.739173228346456
 31
0.0
  0
LINE
  5
7EE
330
1E
100
AcDbEntity
  8
7
100
AcDbLine
 10
10.08169291338582
 20
3.739173228346456
 30
0.0
 11
10.08169291338582
 21
3.676181102362204
 31
0.0
  0
LINE
  5
7EF
330
1E
100
AcDbEntity
  8
7
100
AcDbLine
 10
10.05610236220472
 20
3.518700787401574
 30
0.0
 11
10.05314960629921
 21
3.500984251968503
 31
0.0
  0
LINE
  5
7F0
330
1E
100
AcDbEntity
  8
7
100
AcDbLine
 10
10.05314960629921
 20
3.500984251968503
 30
0.0
 11
10.04330708661417
 21
3.484251968503937
 31
0.0
  0
LINE
  5
7F1
330
1E
100
AcDbEntity
  8
7
100
AcDbLine
 10
10.04330708661417
 20
3.484251968503937
 30
0.0
 11
10.02854330708661
 21
3.472440944881889
 31
0.0
  0
LINE
  5
7F2
330
1E
100
AcDbEntity
  8
7
100
AcDbLine
 10
10.02854330708661
 20
3.472440944881889
 30
0.0
 11
10.01181102362204
 21
3.466535433070865
 31
0.0
  0
LINE
  5
7F3
330
1E
100
AcDbEntity
  8
7
100
AcDbLine
 10
10.01181102362204
 20
3.466535433070865
 30
0.0
 11
9.993110236220472
 21
3.467519685039369
 31
0.0
  0
LINE
  5
7F4
330
1E
100
AcDbEntity
  8
7
100
AcDbLine
 10
9.993110236220472
 20
3.467519685039369
 30
0.0
 11
9.989173228346457
 21
3.443897637795275
 31
0.0
  0
LINE
  5
7F5
330
1E
100
AcDbEntity
  8
7
100
AcDbLine
 10
9.989173228346457
 20
3.443897637795275
 30
0.0
 11
9.988188976377953
 21
3.427165354330708
 31
0.0
  0
LINE
  5
7F6
330
1E
100
AcDbEntity
  8
7
100
AcDbLine
 10
9.988188976377953
 20
3.427165354330708
 30
0.0
 11
9.991141732283464
 21
3.421259842519685
 31
0.0
  0
LINE
  5
7F7
330
1E
100
AcDbEntity
  8
7
100
AcDbLine
 10
9.991141732283464
 20
3.421259842519685
 30
0.0
 11
10.02066929133858
 21
3.419291338582676
 31
0.0
  0
LINE
  5
7F8
330
1E
100
AcDbEntity
  8
7
100
AcDbLine
 10
10.02066929133858
 20
3.419291338582676
 30
0.0
 11
10.04822834645669
 21
3.426181102362204
 31
0.0
  0
LINE
  5
7F9
330
1E
100
AcDbEntity
  8
7
100
AcDbLine
 10
10.04822834645669
 20
3.426181102362204
 30
0.0
 11
10.07381889763779
 21
3.441929133858267
 31
0.0
  0
LINE
  5
7FA
330
1E
100
AcDbEntity
  8
7
100
AcDbLine
 10
10.07381889763779
 20
3.441929133858267
 30
0.0
 11
10.09350393700787
 21
3.463582677165354
 31
0.0
  0
LINE
  5
7FB
330
1E
100
AcDbEntity
  8
7
100
AcDbLine
 10
10.0757874015748
 20
3.416338582677165
 30
0.0
 11
10.08759842519685
 21
3.431102362204724
 31
0.0
  0
LINE
  5
7FC
330
1E
100
AcDbEntity
  8
7
100
AcDbLine
 10
10.08759842519685
 20
3.431102362204724
 30
0.0
 11
10.1013779527559
 21
3.460629921259842
 31
0.0
  0
LINE
  5
7FD
330
1E
100
AcDbEntity
  8
7
100
AcDbLine
 10
10.1013779527559
 20
3.460629921259842
 30
0.0
 11
10.11023622047244
 21
3.51279527559055
 31
0.0
  0
LINE
  5
7FE
330
1E
100
AcDbEntity
  8
7
100
AcDbLine
 10
9.788385826771653
 20
3.384842519685038
 30
0.0
 11
9.785433070866142
 21
3.415354330708661
 31
0.0
  0
LINE
  5
7FF
330
1E
100
AcDbEntity
  8
7
100
AcDbLine
 10
9.785433070866142
 20
3.415354330708661
 30
0.0
 11
9.773622047244094
 21
3.444881889763779
 31
0.0
  0
LINE
  5
800
330
1E
100
AcDbEntity
  8
7
100
AcDbLine
 10
9.774606299212598
 20
3.464566929133858
 30
0.0
 11
9.775590551181101
 21
3.458661417322834
 31
0.0
  0
LINE
  5
801
330
1E
100
AcDbEntity
  8
7
100
AcDbLine
 10
9.775590551181101
 20
3.458661417322834
 30
0.0
 11
9.773622047244094
 21
3.444881889763779
 31
0.0
  0
LINE
  5
802
330
1E
100
AcDbEntity
  8
7
100
AcDbLine
 10
9.773622047244094
 20
3.444881889763779
 30
0.0
 11
9.920275590551181
 21
3.415354330708661
 31
0.0
  0
LINE
  5
803
330
1E
100
AcDbEntity
  8
7
100
AcDbLine
 10
9.778543307086614
 20
3.234251968503937
 30
0.0
 11
9.796259842519685
 21
3.202755905511811
 31
0.0
  0
LINE
  5
804
330
1E
100
AcDbEntity
  8
7
100
AcDbLine
 10
9.796259842519685
 20
3.202755905511811
 30
0.0
 11
9.820866141732283
 21
3.176181102362204
 31
0.0
  0
LINE
  5
805
330
1E
100
AcDbEntity
  8
7
100
AcDbLine
 10
9.820866141732283
 20
3.176181102362204
 30
0.0
 11
9.850393700787401
 21
3.154527559055118
 31
0.0
  0
LINE
  5
806
330
1E
100
AcDbEntity
  8
7
100
AcDbLine
 10
9.850393700787401
 20
3.154527559055118
 30
0.0
 11
9.882874015748031
 21
3.139763779527559
 31
0.0
  0
LINE
  5
807
330
1E
100
AcDbEntity
  8
7
100
AcDbLine
 10
9.882874015748031
 20
3.139763779527559
 30
0.0
 11
9.919291338582677
 21
3.132874015748031
 31
0.0
  0
LINE
  5
808
330
1E
100
AcDbEntity
  8
7
100
AcDbLine
 10
9.919291338582677
 20
3.132874015748031
 30
0.0
 11
9.954724409448818
 21
3.132874015748031
 31
0.0
  0
LINE
  5
809
330
1E
100
AcDbEntity
  8
7
100
AcDbLine
 10
9.954724409448818
 20
3.132874015748031
 30
0.0
 11
9.990157480314961
 21
3.139763779527559
 31
0.0
  0
LINE
  5
80A
330
1E
100
AcDbEntity
  8
7
100
AcDbLine
 10
9.990157480314961
 20
3.139763779527559
 30
0.0
 11
10.02362204724409
 21
3.154527559055118
 31
0.0
  0
LINE
  5
80B
330
1E
100
AcDbEntity
  8
7
100
AcDbLine
 10
10.02362204724409
 20
3.154527559055118
 30
0.0
 11
10.05314960629921
 21
3.176181102362204
 31
0.0
  0
LINE
  5
80C
330
1E
100
AcDbEntity
  8
7
100
AcDbLine
 10
10.05314960629921
 20
3.176181102362204
 30
0.0
 11
10.07775590551181
 21
3.202755905511811
 31
0.0
  0
LINE
  5
80D
330
1E
100
AcDbEntity
  8
7
100
AcDbLine
 10
10.07775590551181
 20
3.202755905511811
 30
0.0
 11
10.09547244094488
 21
3.234251968503937
 31
0.0
  0
LINE
  5
80E
330
1E
100
AcDbEntity
  8
7
100
AcDbLine
 10
10.09547244094488
 20
3.234251968503937
 30
0.0
 11
10.10629921259842
 21
3.268700787401574
 31
0.0
  0
LINE
  5
80F
330
1E
100
AcDbEntity
  8
7
100
AcDbLine
 10
10.10629921259842
 20
3.268700787401574
 30
0.0
 11
10.11023622047244
 21
3.30511811023622
 31
0.0
  0
LINE
  5
810
330
1E
100
AcDbEntity
  8
7
100
AcDbLine
 10
10.07185039370078
 20
3.270669291338582
 30
0.0
 11
10.05905511811023
 21
3.238188976377952
 31
0.0
  0
LINE
  5
811
330
1E
100
AcDbEntity
  8
7
100
AcDbLine
 10
10.05905511811023
 20
3.238188976377952
 30
0.0
 11
10.03937007874015
 21
3.209645669291338
 31
0.0
  0
LINE
  5
812
330
1E
100
AcDbEntity
  8
7
100
AcDbLine
 10
10.03937007874015
 20
3.209645669291338
 30
0.0
 11
10.01377952755905
 21
3.187007874015748
 31
0.0
  0
LINE
  5
813
330
1E
100
AcDbEntity
  8
7
100
AcDbLine
 10
10.01377952755905
 20
3.187007874015748
 30
0.0
 11
9.983267716535433
 21
3.171259842519685
 31
0.0
  0
LINE
  5
814
330
1E
100
AcDbEntity
  8
7
100
AcDbLine
 10
9.983267716535433
 20
3.171259842519685
 30
0.0
 11
9.949803149606299
 21
3.162401574803149
 31
0.0
  0
LINE
  5
815
330
1E
100
AcDbEntity
  8
7
100
AcDbLine
 10
9.949803149606299
 20
3.162401574803149
 30
0.0
 11
9.915354330708661
 21
3.162401574803149
 31
0.0
  0
LINE
  5
816
330
1E
100
AcDbEntity
  8
7
100
AcDbLine
 10
9.915354330708661
 20
3.162401574803149
 30
0.0
 11
9.880905511811024
 21
3.171259842519685
 31
0.0
  0
LINE
  5
817
330
1E
100
AcDbEntity
  8
7
100
AcDbLine
 10
9.880905511811024
 20
3.171259842519685
 30
0.0
 11
9.850393700787401
 21
3.187007874015748
 31
0.0
  0
LINE
  5
818
330
1E
100
AcDbEntity
  8
7
100
AcDbLine
 10
9.850393700787401
 20
3.187007874015748
 30
0.0
 11
9.824803149606299
 21
3.209645669291338
 31
0.0
  0
LINE
  5
819
330
1E
100
AcDbEntity
  8
7
100
AcDbLine
 10
9.824803149606299
 20
3.209645669291338
 30
0.0
 11
9.80511811023622
 21
3.238188976377952
 31
0.0
  0
LINE
  5
81A
330
1E
100
AcDbEntity
  8
7
100
AcDbLine
 10
9.80511811023622
 20
3.238188976377952
 30
0.0
 11
9.793307086614174
 21
3.270669291338582
 31
0.0
  0
LINE
  5
81B
330
1E
100
AcDbEntity
  8
7
100
AcDbLine
 10
9.793307086614174
 20
3.270669291338582
 30
0.0
 11
9.788385826771653
 21
3.30511811023622
 31
0.0
  0
LINE
  5
81C
330
1E
100
AcDbEntity
  8
7
100
AcDbLine
 10
10.04429133858267
 20
3.331692913385826
 30
0.0
 11
10.04724409448819
 21
3.303149606299212
 31
0.0
  0
LINE
  5
81D
330
1E
100
AcDbEntity
  8
7
100
AcDbLine
 10
10.04724409448819
 20
3.303149606299212
 30
0.0
 11
10.04232283464567
 21
3.274606299212598
 31
0.0
  0
LINE
  5
81E
330
1E
100
AcDbEntity
  8
7
100
AcDbLine
 10
10.04232283464567
 20
3.274606299212598
 30
0.0
 11
10.02952755905511
 21
3.249015748031495
 31
0.0
  0
LINE
  5
81F
330
1E
100
AcDbEntity
  8
7
100
AcDbLine
 10
10.02952755905511
 20
3.249015748031495
 30
0.0
 11
10.01082677165354
 21
3.227362204724409
 31
0.0
  0
LINE
  5
820
330
1E
100
AcDbEntity
  8
7
100
AcDbLine
 10
10.01082677165354
 20
3.227362204724409
 30
0.0
 11
9.987204724409449
 21
3.210629921259842
 31
0.0
  0
LINE
  5
821
330
1E
100
AcDbEntity
  8
7
100
AcDbLine
 10
9.987204724409449
 20
3.210629921259842
 30
0.0
 11
9.959645669291338
 21
3.200787401574802
 31
0.0
  0
LINE
  5
822
330
1E
100
AcDbEntity
  8
7
100
AcDbLine
 10
9.959645669291338
 20
3.200787401574802
 30
0.0
 11
9.931102362204724
 21
3.198818897637795
 31
0.0
  0
LINE
  5
823
330
1E
100
AcDbEntity
  8
7
100
AcDbLine
 10
9.931102362204724
 20
3.198818897637795
 30
0.0
 11
9.903543307086614
 21
3.204724409448818
 31
0.0
  0
LINE
  5
824
330
1E
100
AcDbEntity
  8
7
100
AcDbLine
 10
9.903543307086614
 20
3.204724409448818
 30
0.0
 11
9.876968503937007
 21
3.217519685039369
 31
0.0
  0
LINE
  5
825
330
1E
100
AcDbEntity
  8
7
100
AcDbLine
 10
9.876968503937007
 20
3.217519685039369
 30
0.0
 11
9.856299212598425
 21
3.237204724409448
 31
0.0
  0
LINE
  5
826
330
1E
100
AcDbEntity
  8
7
100
AcDbLine
 10
9.856299212598425
 20
3.237204724409448
 30
0.0
 11
9.840551181102362
 21
3.260826771653543
 31
0.0
  0
LINE
  5
827
330
1E
100
AcDbEntity
  8
7
100
AcDbLine
 10
9.840551181102362
 20
3.260826771653543
 30
0.0
 11
9.830708661417322
 21
3.288385826771653
 31
0.0
  0
LINE
  5
828
330
1E
100
AcDbEntity
  8
7
100
AcDbLine
 10
9.830708661417322
 20
3.288385826771653
 30
0.0
 11
9.829724409448818
 21
3.316929133858267
 31
0.0
  0
LINE
  5
829
330
1E
100
AcDbEntity
  8
7
100
AcDbLine
 10
9.992125984251968
 20
3.415354330708661
 30
0.0
 11
9.990157480314961
 21
3.403543307086613
 31
0.0
  0
LINE
  5
82A
330
1E
100
AcDbEntity
  8
7
100
AcDbLine
 10
9.990157480314961
 20
3.403543307086613
 30
0.0
 11
9.974409448818898
 21
3.410433070866141
 31
0.0
  0
LINE
  5
82B
330
1E
100
AcDbEntity
  8
7
100
AcDbLine
 10
9.974409448818898
 20
3.410433070866141
 30
0.0
 11
9.955708661417322
 21
3.415354330708661
 31
0.0
  0
LINE
  5
82C
330
1E
100
AcDbEntity
  8
7
100
AcDbLine
 10
9.955708661417322
 20
3.415354330708661
 30
0.0
 11
9.937992125984251
 21
3.416338582677165
 31
0.0
  0
LINE
  5
82D
330
1E
100
AcDbEntity
  8
7
100
AcDbLine
 10
9.937992125984251
 20
3.416338582677165
 30
0.0
 11
9.920275590551181
 21
3.415354330708661
 31
0.0
  0
LINE
  5
82E
330
1E
100
AcDbEntity
  8
7
100
AcDbLine
 10
9.788385826771653
 20
3.30511811023622
 30
0.0
 11
9.770669291338583
 21
3.30511811023622
 31
0.0
  0
LINE
  5
82F
330
1E
100
AcDbEntity
  8
7
100
AcDbLine
 10
9.770669291338583
 20
3.30511811023622
 30
0.0
 11
9.763779527559055
 21
3.30511811023622
 31
0.0
  0
LINE
  5
830
330
1E
100
AcDbEntity
  8
7
100
AcDbLine
 10
9.763779527559055
 20
3.30511811023622
 30
0.0
 11
9.76771653543307
 21
3.268700787401574
 31
0.0
  0
LINE
  5
831
330
1E
100
AcDbEntity
  8
7
100
AcDbLine
 10
9.76771653543307
 20
3.268700787401574
 30
0.0
 11
9.778543307086614
 21
3.234251968503937
 31
0.0
  0
LINE
  5
832
330
1E
100
AcDbEntity
  8
7
100
AcDbLine
 10
9.829724409448818
 20
3.316929133858267
 30
0.0
 11
9.835629921259842
 21
3.344488188976377
 31
0.0
  0
LINE
  5
833
330
1E
100
AcDbEntity
  8
7
100
AcDbLine
 10
9.835629921259842
 20
3.344488188976377
 30
0.0
 11
9.849409448818898
 21
3.37007874015748
 31
0.0
  0
LINE
  5
834
330
1E
100
AcDbEntity
  8
7
100
AcDbLine
 10
9.849409448818898
 20
3.37007874015748
 30
0.0
 11
9.868110236220472
 21
3.391732283464566
 31
0.0
  0
LINE
  5
835
330
1E
100
AcDbEntity
  8
7
100
AcDbLine
 10
9.868110236220472
 20
3.391732283464566
 30
0.0
 11
9.89271653543307
 21
3.406496062992125
 31
0.0
  0
LINE
  5
836
330
1E
100
AcDbEntity
  8
7
100
AcDbLine
 10
9.89271653543307
 20
3.406496062992125
 30
0.0
 11
9.920275590551181
 21
3.415354330708661
 31
0.0
  0
LINE
  5
837
330
1E
100
AcDbEntity
  8
7
100
AcDbLine
 10
9.788385826771653
 20
3.384842519685038
 30
0.0
 11
9.770669291338583
 21
3.384842519685038
 31
0.0
  0
LINE
  5
838
330
1E
100
AcDbEntity
  8
7
100
AcDbLine
 10
9.770669291338583
 20
3.384842519685038
 30
0.0
 11
9.763779527559055
 21
3.384842519685038
 31
0.0
  0
LINE
  5
839
330
1E
100
AcDbEntity
  8
7
100
AcDbLine
 10
9.996062992125985
 20
3.400590551181102
 30
0.0
 11
10.01771653543306
 21
3.381889763779527
 31
0.0
  0
LINE
  5
83A
330
1E
100
AcDbEntity
  8
7
100
AcDbLine
 10
10.01771653543306
 20
3.381889763779527
 30
0.0
 11
10.03444881889763
 21
3.358267716535432
 31
0.0
  0
LINE
  5
83B
330
1E
100
AcDbEntity
  8
7
100
AcDbLine
 10
10.03444881889763
 20
3.358267716535432
 30
0.0
 11
10.04429133858267
 21
3.331692913385826
 31
0.0
  0
LINE
  5
83C
330
1E
100
AcDbEntity
  8
7
100
AcDbLine
 10
10.06200787401574
 20
3.433070866141732
 30
0.0
 11
10.06692913385826
 21
3.429133858267716
 31
0.0
  0
LINE
  5
83D
330
1E
100
AcDbEntity
  8
7
100
AcDbLine
 10
10.06692913385826
 20
3.429133858267716
 30
0.0
 11
10.0757874015748
 21
3.416338582677165
 31
0.0
  0
LINE
  5
83E
330
1E
100
AcDbEntity
  8
7
100
AcDbLine
 10
9.996062992125985
 20
3.400590551181102
 30
0.0
 11
10.02362204724409
 21
3.399606299212598
 31
0.0
  0
LINE
  5
83F
330
1E
100
AcDbEntity
  8
7
100
AcDbLine
 10
10.02362204724409
 20
3.399606299212598
 30
0.0
 11
10.0501968503937
 21
3.404527559055118
 31
0.0
  0
LINE
  5
840
330
1E
100
AcDbEntity
  8
7
100
AcDbLine
 10
10.0501968503937
 20
3.404527559055118
 30
0.0
 11
10.0757874015748
 21
3.416338582677165
 31
0.0
  0
LINE
  5
841
330
1E
100
AcDbEntity
  8
7
100
AcDbLine
 10
10.08169291338582
 20
3.617125984251968
 30
0.0
 11
10.1023622047244
 21
3.612204724409448
 31
0.0
  0
LINE
  5
842
330
1E
100
AcDbEntity
  8
7
100
AcDbLine
 10
10.1023622047244
 20
3.612204724409448
 30
0.0
 11
10.11023622047244
 21
3.599409448818897
 31
0.0
  0
LINE
  5
843
330
1E
100
AcDbEntity
  8
7
100
AcDbLine
 10
10.07775590551181
 20
3.580708661417322
 30
0.0
 11
10.08464566929133
 21
3.581692913385826
 31
0.0
  0
LINE
  5
844
330
1E
100
AcDbEntity
  8
7
100
AcDbLine
 10
10.08464566929133
 20
3.581692913385826
 30
0.0
 11
10.09645669291338
 21
3.584645669291338
 31
0.0
  0
LINE
  5
845
330
1E
100
AcDbEntity
  8
7
100
AcDbLine
 10
10.09645669291338
 20
3.584645669291338
 30
0.0
 11
10.10531496062992
 21
3.589566929133858
 31
0.0
  0
LINE
  5
846
330
1E
100
AcDbEntity
  8
7
100
AcDbLine
 10
10.10531496062992
 20
3.589566929133858
 30
0.0
 11
10.11023622047244
 21
3.595472440944881
 31
0.0
  0
LINE
  5
847
330
1E
100
AcDbEntity
  8
7
100
AcDbLine
 10
10.11023622047244
 20
3.595472440944881
 30
0.0
 11
10.11023622047244
 21
3.599409448818897
 31
0.0
  0
LINE
  5
848
330
1E
100
AcDbEntity
  8
7
100
AcDbLine
 10
10.09350393700787
 20
3.463582677165354
 30
0.0
 11
10.10629921259842
 21
3.49015748031496
 31
0.0
  0
LINE
  5
849
330
1E
100
AcDbEntity
  8
7
100
AcDbLine
 10
10.10629921259842
 20
3.49015748031496
 30
0.0
 11
10.11023622047244
 21
3.518700787401574
 31
0.0
  0
LINE
  5
84A
330
1E
100
AcDbEntity
  8
7
100
AcDbLine
 10
10.05610236220472
 20
3.518700787401574
 30
0.0
 11
10.0757874015748
 21
3.518700787401574
 31
0.0
  0
LINE
  5
84B
330
1E
100
AcDbEntity
  8
7
100
AcDbLine
 10
10.0757874015748
 20
3.518700787401574
 30
0.0
 11
10.09448818897637
 21
3.518700787401574
 31
0.0
  0
LINE
  5
84C
330
1E
100
AcDbEntity
  8
7
100
AcDbLine
 10
10.09448818897637
 20
3.518700787401574
 30
0.0
 11
10.10629921259842
 21
3.518700787401574
 31
0.0
  0
LINE
  5
84D
330
1E
100
AcDbEntity
  8
7
100
AcDbLine
 10
10.08169291338582
 20
3.617125984251968
 30
0.0
 11
10.07972440944881
 21
3.607283464566928
 31
0.0
  0
LINE
  5
84E
330
1E
100
AcDbEntity
  8
7
100
AcDbLine
 10
10.07972440944881
 20
3.607283464566928
 30
0.0
 11
10.0767716535433
 21
3.603346456692912
 31
0.0
  0
LINE
  5
84F
330
1E
100
AcDbEntity
  8
7
100
AcDbLine
 10
10.0767716535433
 20
3.603346456692912
 30
0.0
 11
10.07283464566929
 21
3.600393700787401
 31
0.0
  0
LINE
  5
850
330
1E
100
AcDbEntity
  8
7
100
AcDbLine
 10
10.07283464566929
 20
3.600393700787401
 30
0.0
 11
10.06889763779527
 21
3.599409448818897
 31
0.0
  0
LINE
  5
851
330
1E
100
AcDbEntity
  8
7
100
AcDbLine
 10
10.06889763779527
 20
3.599409448818897
 30
0.0
 11
10.06496062992126
 21
3.599409448818897
 31
0.0
  0
LINE
  5
852
330
1E
100
AcDbEntity
  8
7
100
AcDbLine
 10
10.06496062992126
 20
3.599409448818897
 30
0.0
 11
10.06299212598425
 21
3.599409448818897
 31
0.0
  0
LINE
  5
853
330
1E
100
AcDbEntity
  8
7
100
AcDbLine
 10
10.07775590551181
 20
3.580708661417322
 30
0.0
 11
10.06692913385826
 21
3.580708661417322
 31
0.0
  0
LINE
  5
854
330
1E
100
AcDbEntity
  8
7
100
AcDbLine
 10
10.06692913385826
 20
3.580708661417322
 30
0.0
 11
10.05610236220472
 21
3.580708661417322
 31
0.0
  0
LINE
  5
855
330
1E
100
AcDbEntity
  8
7
100
AcDbLine
 10
9.989173228346457
 20
4.371062992125984
 30
0.0
 11
9.988188976377953
 21
4.38779527559055
 31
0.0
  0
LINE
  5
856
330
1E
100
AcDbEntity
  8
7
100
AcDbLine
 10
9.988188976377953
 20
4.38779527559055
 30
0.0
 11
9.991141732283464
 21
4.394685039370078
 31
0.0
  0
LINE
  5
857
330
1E
100
AcDbEntity
  8
7
100
AcDbLine
 10
10.05610236220472
 20
4.296259842519685
 30
0.0
 11
10.0757874015748
 21
4.296259842519685
 31
0.0
  0
LINE
  5
858
330
1E
100
AcDbEntity
  8
7
100
AcDbLine
 10
10.0757874015748
 20
4.296259842519685
 30
0.0
 11
10.09448818897637
 21
4.296259842519685
 31
0.0
  0
LINE
  5
859
330
1E
100
AcDbEntity
  8
7
100
AcDbLine
 10
10.09448818897637
 20
4.296259842519685
 30
0.0
 11
10.10629921259842
 21
4.296259842519685
 31
0.0
  0
LINE
  5
85A
330
1E
100
AcDbEntity
  8
7
100
AcDbLine
 10
10.10629921259842
 20
4.296259842519685
 30
0.0
 11
10.11023622047244
 21
4.296259842519685
 31
0.0
  0
LINE
  5
85B
330
1E
100
AcDbEntity
  8
7
100
AcDbLine
 10
10.11023622047244
 20
4.296259842519685
 30
0.0
 11
10.10629921259842
 21
4.325787401574802
 31
0.0
  0
LINE
  5
85C
330
1E
100
AcDbEntity
  8
7
100
AcDbLine
 10
10.10629921259842
 20
4.325787401574802
 30
0.0
 11
10.09350393700787
 21
4.352362204724409
 31
0.0
  0
LINE
  5
85D
330
1E
100
AcDbEntity
  8
7
100
AcDbLine
 10
10.09350393700787
 20
4.352362204724409
 30
0.0
 11
10.07381889763779
 21
4.374015748031496
 31
0.0
  0
LINE
  5
85E
330
1E
100
AcDbEntity
  8
7
100
AcDbLine
 10
10.07381889763779
 20
4.374015748031496
 30
0.0
 11
10.04822834645669
 21
4.388779527559054
 31
0.0
  0
LINE
  5
85F
330
1E
100
AcDbEntity
  8
7
100
AcDbLine
 10
10.04822834645669
 20
4.388779527559054
 30
0.0
 11
10.02066929133858
 21
4.395669291338582
 31
0.0
  0
LINE
  5
860
330
1E
100
AcDbEntity
  8
7
100
AcDbLine
 10
9.993110236220472
 20
4.348425196850393
 30
0.0
 11
10.01181102362204
 21
4.348425196850393
 31
0.0
  0
LINE
  5
861
330
1E
100
AcDbEntity
  8
7
100
AcDbLine
 10
10.01181102362204
 20
4.348425196850393
 30
0.0
 11
10.02854330708661
 21
4.34251968503937
 31
0.0
  0
LINE
  5
862
330
1E
100
AcDbEntity
  8
7
100
AcDbLine
 10
10.02854330708661
 20
4.34251968503937
 30
0.0
 11
10.04330708661417
 21
4.330708661417322
 31
0.0
  0
LINE
  5
863
330
1E
100
AcDbEntity
  8
7
100
AcDbLine
 10
10.04330708661417
 20
4.330708661417322
 30
0.0
 11
10.05314960629921
 21
4.314960629921259
 31
0.0
  0
LINE
  5
864
330
1E
100
AcDbEntity
  8
7
100
AcDbLine
 10
10.05314960629921
 20
4.314960629921259
 30
0.0
 11
10.05610236220472
 21
4.296259842519685
 31
0.0
  0
LINE
  5
865
330
1E
100
AcDbEntity
  8
7
100
AcDbLine
 10
10.06299212598425
 20
4.215551181102362
 30
0.0
 11
10.06692913385826
 21
4.216535433070865
 31
0.0
  0
LINE
  5
866
330
1E
100
AcDbEntity
  8
7
100
AcDbLine
 10
10.06692913385826
 20
4.216535433070865
 30
0.0
 11
10.06988188976378
 21
4.215551181102362
 31
0.0
  0
LINE
  5
867
330
1E
100
AcDbEntity
  8
7
100
AcDbLine
 10
10.06988188976378
 20
4.215551181102362
 30
0.0
 11
10.07283464566929
 21
4.214566929133858
 31
0.0
  0
LINE
  5
868
330
1E
100
AcDbEntity
  8
7
100
AcDbLine
 10
10.07283464566929
 20
4.214566929133858
 30
0.0
 11
10.0767716535433
 21
4.211614173228346
 31
0.0
  0
LINE
  5
869
330
1E
100
AcDbEntity
  8
7
100
AcDbLine
 10
10.0767716535433
 20
4.211614173228346
 30
0.0
 11
10.07972440944881
 21
4.205708661417322
 31
0.0
  0
LINE
  5
86A
330
1E
100
AcDbEntity
  8
7
100
AcDbLine
 10
10.07972440944881
 20
4.205708661417322
 30
0.0
 11
10.08169291338582
 21
4.19783464566929
 31
0.0
  0
LINE
  5
86B
330
1E
100
AcDbEntity
  8
7
100
AcDbLine
 10
10.08169291338582
 20
4.19783464566929
 30
0.0
 11
10.1023622047244
 21
4.203740157480314
 31
0.0
  0
LINE
  5
86C
330
1E
100
AcDbEntity
  8
7
100
AcDbLine
 10
10.1023622047244
 20
4.203740157480314
 30
0.0
 11
10.11023622047244
 21
4.215551181102362
 31
0.0
  0
LINE
  5
86D
330
1E
100
AcDbEntity
  8
7
100
AcDbLine
 10
10.11023622047244
 20
4.215551181102362
 30
0.0
 11
10.10728346456692
 21
4.223425196850393
 31
0.0
  0
LINE
  5
86E
330
1E
100
AcDbEntity
  8
7
100
AcDbLine
 10
10.10728346456692
 20
4.223425196850393
 30
0.0
 11
10.09842519685039
 21
4.230314960629921
 31
0.0
  0
LINE
  5
86F
330
1E
100
AcDbEntity
  8
7
100
AcDbLine
 10
10.09842519685039
 20
4.230314960629921
 30
0.0
 11
10.08464566929133
 21
4.234251968503937
 31
0.0
  0
LINE
  5
870
330
1E
100
AcDbEntity
  8
7
100
AcDbLine
 10
10.08464566929133
 20
4.234251968503937
 30
0.0
 11
10.06988188976378
 21
4.23523622047244
 31
0.0
  0
LINE
  5
871
330
1E
100
AcDbEntity
  8
7
100
AcDbLine
 10
10.06988188976378
 20
4.23523622047244
 30
0.0
 11
10.05610236220472
 21
4.23523622047244
 31
0.0
  0
LINE
  5
872
330
1E
100
AcDbEntity
  8
7
100
AcDbLine
 10
10.05610236220472
 20
4.23523622047244
 30
0.0
 11
10.05905511811023
 21
4.224409448818897
 31
0.0
  0
LINE
  5
873
330
1E
100
AcDbEntity
  8
7
100
AcDbLine
 10
10.05905511811023
 20
4.224409448818897
 30
0.0
 11
10.06299212598425
 21
4.215551181102362
 31
0.0
  0
ENDSEC
  0
SECTION
  2
OBJECTS
  0
DICTIONARY
  5
C
330
0
100
AcDbDictionary
281
     1
  3
ACAD_GROUP
350
D
  3
ACAD_PLOTSTYLENAME
350
E
  3
ACAD_MLINESTYLE
350
16
  3
ACAD_PLOTSETTINGS
350
18
  3
ACAD_LAYOUT
350
19
  0
DICTIONARY
  5
D
102
{ACAD_REACTORS
330
C
102
}
330
C
100
AcDbDictionary
281
     1
  0
ACDBDICTIONARYWDFLT
  5
E
102
{ACAD_REACTORS
330
C
102
}
330
C
100
AcDbDictionary
281
     1
  3
Normal
350
F
100
AcDbDictionaryWithDefault
340
F
  0
DICTIONARY
  5
16
102
{ACAD_REACTORS
330
C
102
}
330
C
100
AcDbDictionary
281
     1
  3
Standard
350
17
  0
DICTIONARY
  5
18
102
{ACAD_REACTORS
330
C
102
}
330
C
100
AcDbDictionary
281
     1
  0
DICTIONARY
  5
19
102
{ACAD_REACTORS
330
C
102
}
330
C
100
AcDbDictionary
281
     1
  3
Layout1
350
1D
  3
Model
350
21
  0
ACDBPLACEHOLDER
  5
F
102
{ACAD_REACTORS
330
E
102
}
330
E
  0
MLINESTYLE
  5
17
102
{ACAD_REACTORS
330
16
102
}
330
16
100
AcDbMlineStyle
  2
STANDARD
 70
     0
  3

 62
   256
 51
90.0
 52
90.0
 71
     2
 49
0.5
 62
   256
  6
BYLAYER
 49
-0.5
 62
   256
  6
BYLAYER
  0
LAYOUT
  5
1D
102
{ACAD_REACTORS
330
19
102
}
330
19
100
AcDbPlotSettings
  1

  2
\\nseng\OPlaser1
  4

  6

 40
0.0
 41
0.0
 42
0.0
 43
0.0
 44
0.0
 45
0.0
 46
0.0
 47
0.0
 48
0.0
 49
0.0
140
0.0
141
0.0
142
1.0
143
1.0
 70
   688
 72
     0
 73
     0
 74
     5
  7

 75
    16
147
1.0
148
0.0
149
0.0
100
AcDbLayout
  1
Layout1
 70
     1
 71
     1
 10
0.0
 20
0.0
 11
12.0
 21
9.0
 12
0.0
 22
0.0
 32
0.0
 14
1.000000000000000E+20
 24
1.000000000000000E+20
 34
1.000000000000000E+20
 15
-1.000000000000000E+20
 25
-1.000000000000000E+20
 35
-1.000000000000000E+20
146
0.0
 13
0.0
 23
0.0
 33
0.0
 16
1.0
 26
0.0
 36
0.0
 17
0.0
 27
1.0
 37
0.0
 76
     0
330
1A
  0
LAYOUT
  5
21
102
{ACAD_REACTORS
330
19
102
}
330
19
100
AcDbPlotSettings
  1

  2
\\nseng\OPlaser1
  4

  6

 40
0.0
 41
0.0
 42
0.0
 43
0.0
 44
0.0
 45
0.0
 46
0.0
 47
0.0
 48
0.0
 49
0.0
140
0.0
141
0.0
142
1.0
143
1.0
 70
  1712
 72
     0
 73
     0
 74
     0
  7

 75
     0
147
1.0
148
0.0
149
0.0
100
AcDbLayout
  1
Model
 70
     1
 71
     0
 10
0.0
 20
0.0
 11
12.0
 21
9.0
 12
0.0
 22
0.0
 32
0.0
 14
0.0
 24
0.0
 34
0.0
 15
0.0
 25
0.0
 35
0.0
146
0.0
 13
0.0
 23
0.0
 33
0.0
 16
1.0
 26
0.0
 36
0.0
 17
0.0
 27
1.0
 37
0.0
 76
     0
330
1E
  0
ENDSEC
  0
EOF
