  0
SECTION
  2
HEADER
  9
$ACADVER
  1
AC1012
  9
$DWGCODEPAGE
  3
ANSI_1252
  9
$INSBASE
 10
0.0
 20
0.0
 30
0.0
  9
$EXTMIN
 10
0.6359253216487418
 20
2.573272729028566
 30
-0.0000000349181948
  9
$EXTMAX
 10
5.067077656587443
 20
7.794525166035775
 30
0.0000000814935747
  9
$LIMMIN
 10
0.0
 20
0.0
  9
$LIMMAX
 10
12.0
 20
9.0
  9
$ORTHOMODE
 70
     0
  9
$REGENMODE
 70
     1
  9
$FILLMODE
 70
     1
  9
$QTEXTMODE
 70
     0
  9
$MIRRTEXT
 70
     1
  9
$DRAGMODE
 70
     2
  9
$LTSCALE
 40
1.0
  9
$OSMODE
 70
   547
  9
$ATTMODE
 70
     1
  9
$TEXTSIZE
 40
0.2
  9
$TRACEWID
 40
0.05
  9
$TEXTSTYLE
  7
STANDARD
  9
$CLAYER
  8
0
  9
$CELTYPE
  6
BYLAYER
  9
$CECOLOR
 62
   256
  9
$CELTSCALE
 40
1.0
  9
$DELOBJ
 70
     1
  9
$DISPSILH
 70
     0
  9
$DIMSCALE
 40
1.0
  9
$DIMASZ
 40
0.18
  9
$DIMEXO
 40
0.0625
  9
$DIMDLI
 40
0.38
  9
$DIMRND
 40
0.0
  9
$DIMDLE
 40
0.0
  9
$DIMEXE
 40
0.18
  9
$DIMTP
 40
0.0
  9
$DIMTM
 40
0.0
  9
$DIMTXT
 40
0.18
  9
$DIMCEN
 40
0.09
  9
$DIMTSZ
 40
0.0
  9
$DIMTOL
 70
     0
  9
$DIMLIM
 70
     0
  9
$DIMTIH
 70
     1
  9
$DIMTOH
 70
     1
  9
$DIMSE1
 70
     0
  9
$DIMSE2
 70
     0
  9
$DIMTAD
 70
     0
  9
$DIMZIN
 70
     0
  9
$DIMBLK
  1

  9
$DIMASO
 70
     1
  9
$DIMSHO
 70
     1
  9
$DIMPOST
  1

  9
$DIMAPOST
  1

  9
$DIMALT
 70
     0
  9
$DIMALTD
 70
     2
  9
$DIMALTF
 40
25.4
  9
$DIMLFAC
 40
1.0
  9
$DIMTOFL
 70
     0
  9
$DIMTVP
 40
0.0
  9
$DIMTIX
 70
     0
  9
$DIMSOXD
 70
     0
  9
$DIMSAH
 70
     0
  9
$DIMBLK1
  1

  9
$DIMBLK2
  1

  9
$DIMSTYLE
  2
STANDARD
  9
$DIMCLRD
 70
     0
  9
$DIMCLRE
 70
     0
  9
$DIMCLRT
 70
     0
  9
$DIMTFAC
 40
1.0
  9
$DIMGAP
 40
0.09
  9
$DIMJUST
 70
     0
  9
$DIMSD1
 70
     0
  9
$DIMSD2
 70
     0
  9
$DIMTOLJ
 70
     1
  9
$DIMTZIN
 70
     0
  9
$DIMALTZ
 70
     0
  9
$DIMALTTZ
 70
     0
  9
$DIMFIT
 70
     3
  9
$DIMUPT
 70
     0
  9
$DIMUNIT
 70
     2
  9
$DIMDEC
 70
     4
  9
$DIMTDEC
 70
     4
  9
$DIMALTU
 70
     2
  9
$DIMALTTD
 70
     2
  9
$DIMTXSTY
  7
STANDARD
  9
$DIMAUNIT
 70
     0
  9
$LUNITS
 70
     2
  9
$LUPREC
 70
     4
  9
$SKETCHINC
 40
0.1
  9
$FILLETRAD
 40
0.0
  9
$AUNITS
 70
     0
  9
$AUPREC
 70
     0
  9
$MENU
  1
acad
  9
$ELEVATION
 40
0.0
  9
$PELEVATION
 40
0.0
  9
$THICKNESS
 40
0.0
  9
$LIMCHECK
 70
     0
  9
$BLIPMODE
 70
     0
  9
$CHAMFERA
 40
0.0
  9
$CHAMFERB
 40
0.0
  9
$CHAMFERC
 40
0.0
  9
$CHAMFERD
 40
0.0
  9
$SKPOLY
 70
     0
  9
$TDCREATE
 40
2454071.536550926
  9
$TDUPDATE
 40
2454071.539095509
  9
$TDINDWG
 40
0.0009449769
  9
$TDUSRTIMER
 40
0.0009449769
  9
$USRTIMER
 70
     1
  9
$ANGBASE
 50
0.0
  9
$ANGDIR
 70
     0
  9
$PDMODE
 70
     0
  9
$PDSIZE
 40
0.0
  9
$PLINEWID
 40
0.0
  9
$COORDS
 70
     1
  9
$SPLFRAME
 70
     0
  9
$SPLINETYPE
 70
     6
  9
$SPLINESEGS
 70
     8
  9
$ATTDIA
 70
     0
  9
$ATTREQ
 70
     1
  9
$HANDLING
 70
  4097
  9
$HANDSEED
  5
AE9
  9
$SURFTAB1
 70
     6
  9
$SURFTAB2
 70
     6
  9
$SURFTYPE
 70
     6
  9
$SURFU
 70
     6
  9
$SURFV
 70
     6
  9
$UCSNAME
  2

  9
$UCSORG
 10
0.0
 20
0.0
 30
0.0
  9
$UCSXDIR
 10
1.0
 20
0.0
 30
0.0
  9
$UCSYDIR
 10
0.0
 20
1.0
 30
0.0
  9
$PUCSNAME
  2

  9
$PUCSORG
 10
0.0
 20
0.0
 30
0.0
  9
$PUCSXDIR
 10
1.0
 20
0.0
 30
0.0
  9
$PUCSYDIR
 10
0.0
 20
1.0
 30
0.0
  9
$USERI1
 70
     0
  9
$USERI2
 70
     0
  9
$USERI3
 70
     0
  9
$USERI4
 70
     0
  9
$USERI5
 70
     0
  9
$USERR1
 40
0.0
  9
$USERR2
 40
0.0
  9
$USERR3
 40
0.0
  9
$USERR4
 40
0.0
  9
$USERR5
 40
0.0
  9
$WORLDVIEW
 70
     1
  9
$SHADEDGE
 70
     3
  9
$SHADEDIF
 70
    70
  9
$TILEMODE
 70
     1
  9
$MAXACTVP
 70
    16
  9
$PINSBASE
 10
0.0
 20
0.0
 30
0.0
  9
$PLIMCHECK
 70
     0
  9
$PEXTMIN
 10
1.000000000000000E+20
 20
1.000000000000000E+20
 30
1.000000000000000E+20
  9
$PEXTMAX
 10
-1.000000000000000E+20
 20
-1.000000000000000E+20
 30
-1.000000000000000E+20
  9
$PLIMMIN
 10
0.0
 20
0.0
  9
$PLIMMAX
 10
12.0
 20
9.0
  9
$UNITMODE
 70
     0
  9
$VISRETAIN
 70
     0
  9
$PLINEGEN
 70
     0
  9
$PSLTSCALE
 70
     1
  9
$TREEDEPTH
 70
  3020
  9
$PICKSTYLE
 70
     1
  9
$CMLSTYLE
  2
STANDARD
  9
$CMLJUST
 70
     0
  9
$CMLSCALE
 40
1.0
  9
$SAVEIMAGES
 70
     1
  0
ENDSEC
  0
SECTION
  2
CLASSES
  0
CLASS
  1
ACDBDICTIONARYWDFLT
  2
AcDbDictionaryWithDefault
  3
AutoCAD 2000
 90
    32768
280
     0
281
     0
  0
CLASS
  1
ACDBPLACEHOLDER
  2
AcDbPlaceHolder
  3
AutoCAD 2000
 90
    32768
280
     0
281
     0
  0
CLASS
  1
LAYOUT
  2
AcDbLayout
  3
AutoCAD 2000
 90
    32768
280
     0
281
     0
  0
CLASS
  1
LONG_TRANSACTION
  2
AcDbLongTransaction
  3
AutoCAD 2000
 90
    32768
280
     0
281
     0
  0
CLASS
  1
LWPOLYLINE
  2
AcDbPolyline
  3
AutoCAD 2000
 90
    32768
280
     0
281
     1
  0
CLASS
  1
HATCH
  2
AcDbHatch
  3
AutoCAD 2000
 90
    32768
280
     0
281
     1
  0
CLASS
  1
XRECORD
  2
AcDbXrecord
  3
AutoCAD 2000
 90
    32768
280
     0
281
     0
  0
CLASS
  1
LONG_TRANSACTION
  2
AcDbLongTransaction
  3
AutoCAD 2000
 90
    32768
280
     0
281
     0
  0
CLASS
  1
LWPOLYLINE
  2
AcDbPolyline
  3
AutoCAD 2000
 90
    32768
280
     0
281
     1
  0
CLASS
  1
HATCH
  2
AcDbHatch
  3
AutoCAD 2000
 90
    32768
280
     0
281
     1
  0
CLASS
  1
XRECORD
  2
AcDbXrecord
  3
AutoCAD 2000
 90
    32768
280
     0
281
     0
  0
ENDSEC
  0
SECTION
  2
TABLES
  0
TABLE
  2
VPORT
  5
8
330
0
100
AcDbSymbolTable
 70
     2
  0
VPORT
  5
989
330
8
100
AcDbSymbolTableRecord
100
AcDbViewportTableRecord
  2
*ACTIVE
 70
     0
 10
0.0
 20
0.0
 11
1.0
 21
1.0
 12
2.851501489118092
 22
5.183898947532171
 13
0.0
 23
0.0
 14
1.0
 24
1.0
 15
0.0
 25
0.0
 16
0.0
 26
0.0
 36
1.0
 17
0.0
 27
0.0
 37
0.0
 40
5.279590453063155
 41
1.740671641791044
 42
50.0
 43
0.0
 44
0.0
 50
0.0
 51
0.0
 71
     0
 72
   100
 73
     1
 74
     1
 75
     0
 76
     0
 77
     0
 78
     0
  0
ENDTAB
  0
TABLE
  2
LTYPE
  5
5
330
0
100
AcDbSymbolTable
 70
    25
  0
LTYPE
  5
13
330
5
100
AcDbSymbolTableRecord
100
AcDbLinetypeTableRecord
  2
BYBLOCK
 70
     0
  3

 72
    65
 73
     0
 40
0.0
  0
LTYPE
  5
14
330
5
100
AcDbSymbolTableRecord
100
AcDbLinetypeTableRecord
  2
BYLAYER
 70
     0
  3

 72
    65
 73
     0
 40
0.0
  0
LTYPE
  5
15
330
5
100
AcDbSymbolTableRecord
100
AcDbLinetypeTableRecord
  2
CONTINUOUS
 70
     0
  3
Solid line
 72
    65
 73
     0
 40
0.0
  0
LTYPE
  5
22
330
5
100
AcDbSymbolTableRecord
100
AcDbLinetypeTableRecord
  2
BORDER
 70
     0
  3
__ __ . __ __ . __ __ . __ __ . __ __ . __ __ .
 72
    65
 73
     6
 40
1.75
 49
0.5
 74
     0
 49
-0.25
 74
     0
 49
0.5
 74
     0
 49
-0.25
 74
     0
 49
0.5
 74
     0
 49
-0.25
 74
     0
  0
LTYPE
  5
23
330
5
100
AcDbSymbolTableRecord
100
AcDbLinetypeTableRecord
  2
BORDER2
 70
     0
  3
__.__.__.__.__.__.__.__.
 72
    65
 73
     6
 40
0.875
 49
0.25
 74
     0
 49
-0.125
 74
     0
 49
0.25
 74
     0
 49
-0.125
 74
     0
 49
0.25
 74
     0
 49
-0.125
 74
     0
  0
LTYPE
  5
24
330
5
100
AcDbSymbolTableRecord
100
AcDbLinetypeTableRecord
  2
BORDERX2
 70
     0
  3
____  ____  .  
 72
    65
 73
     6
 40
3.5
 49
1.0
 74
     0
 49
-0.5
 74
     0
 49
1.0
 74
     0
 49
-0.5
 74
     0
 49
1.0
 74
     0
 49
-0.5
 74
     0
  0
LTYPE
  5
25
330
5
100
AcDbSymbolTableRecord
100
AcDbLinetypeTableRecord
  2
CENTER
 70
     0
  3
____ _ ____ _ ____ _ 
 72
    65
 73
     4
 40
2.0
 49
1.25
 74
     0
 49
-0.25
 74
     0
 49
0.25
 74
     0
 49
-0.25
 74
     0
  0
LTYPE
  5
26
330
5
100
AcDbSymbolTableRecord
100
AcDbLinetypeTableRecord
  2
CENTER2
 70
     0
  3
____ _ ____ _ ____ _ 
 72
    65
 73
     4
 40
1.125
 49
0.75
 74
     0
 49
-0.125
 74
     0
 49
0.125
 74
     0
 49
-0.125
 74
     0
  0
LTYPE
  5
27
330
5
100
AcDbSymbolTableRecord
100
AcDbLinetypeTableRecord
  2
CENTERX2
 70
     0
  3
________  __  
 72
    65
 73
     4
 40
4.0
 49
2.5
 74
     0
 49
-0.5
 74
     0
 49
0.5
 74
     0
 49
-0.5
 74
     0
  0
LTYPE
  5
28
330
5
100
AcDbSymbolTableRecord
100
AcDbLinetypeTableRecord
  2
DASHDOT
 70
     0
  3
__ . __ . __ . __ . 
 72
    65
 73
     4
 40
1.0
 49
0.5
 74
     0
 49
-0.25
 74
     0
 49
0.0
 74
     0
 49
-0.25
 74
     0
  0
LTYPE
  5
29
330
5
100
AcDbSymbolTableRecord
100
AcDbLinetypeTableRecord
  2
DASHDOT2
 70
     0
  3
_._._._._._._._._.
 72
    65
 73
     4
 40
0.5
 49
0.25
 74
     0
 49
-0.125
 74
     0
 49
0.0
 74
     0
 49
-0.125
 74
     0
  0
LTYPE
  5
2A
330
5
100
AcDbSymbolTableRecord
100
AcDbLinetypeTableRecord
  2
DASHDOTX2
 70
     0
  3
____  .  ____  .  
 72
    65
 73
     4
 40
2.0
 49
1.0
 74
     0
 49
-0.5
 74
     0
 49
0.0
 74
     0
 49
-0.5
 74
     0
  0
LTYPE
  5
2B
330
5
100
AcDbSymbolTableRecord
100
AcDbLinetypeTableRecord
  2
DASHED
 70
     0
  3
__ __ __ __ __ __ __ 
 72
    65
 73
     2
 40
0.75
 49
0.5
 74
     0
 49
-0.25
 74
     0
  0
LTYPE
  5
2C
330
5
100
AcDbSymbolTableRecord
100
AcDbLinetypeTableRecord
  2
DASHED2
 70
     0
  3
_ _ _ _ _ _ _ _ _ _ 
 72
    65
 73
     2
 40
0.375
 49
0.25
 74
     0
 49
-0.125
 74
     0
  0
LTYPE
  5
2D
330
5
100
AcDbSymbolTableRecord
100
AcDbLinetypeTableRecord
  2
DASHEDX2
 70
     0
  3
____  ____  ____  
 72
    65
 73
     2
 40
1.5
 49
1.0
 74
     0
 49
-0.5
 74
     0
  0
LTYPE
  5
2E
330
5
100
AcDbSymbolTableRecord
100
AcDbLinetypeTableRecord
  2
DIVIDE
 70
     0
  3
____ . . ____ . . 
 72
    65
 73
     6
 40
1.25
 49
0.5
 74
     0
 49
-0.25
 74
     0
 49
0.0
 74
     0
 49
-0.25
 74
     0
 49
0.0
 74
     0
 49
-0.25
 74
     0
  0
LTYPE
  5
2F
330
5
100
AcDbSymbolTableRecord
100
AcDbLinetypeTableRecord
  2
DIVIDE2
 70
     0
  3
__..__..__..__..__..
 72
    65
 73
     6
 40
0.625
 49
0.25
 74
     0
 49
-0.125
 74
     0
 49
0.0
 74
     0
 49
-0.125
 74
     0
 49
0.0
 74
     0
 49
-0.125
 74
     0
  0
LTYPE
  5
30
330
5
100
AcDbSymbolTableRecord
100
AcDbLinetypeTableRecord
  2
DIVIDEX2
 70
     0
  3
________  .  .  
 72
    65
 73
     6
 40
2.5
 49
1.0
 74
     0
 49
-0.5
 74
     0
 49
0.0
 74
     0
 49
-0.5
 74
     0
 49
0.0
 74
     0
 49
-0.5
 74
     0
  0
LTYPE
  5
31
330
5
100
AcDbSymbolTableRecord
100
AcDbLinetypeTableRecord
  2
DOT
 70
     0
  3
. . . . . . . . . 
 72
    65
 73
     2
 40
0.25
 49
0.0
 74
     0
 49
-0.25
 74
     0
  0
LTYPE
  5
32
330
5
100
AcDbSymbolTableRecord
100
AcDbLinetypeTableRecord
  2
DOT2
 70
     0
  3
..................
 72
    65
 73
     2
 40
0.125
 49
0.0
 74
     0
 49
-0.125
 74
     0
  0
LTYPE
  5
33
330
5
100
AcDbSymbolTableRecord
100
AcDbLinetypeTableRecord
  2
DOTX2
 70
     0
  3
.  .  .  .  .  .  
 72
    65
 73
     2
 40
0.5
 49
0.0
 74
     0
 49
-0.5
 74
     0
  0
LTYPE
  5
34
330
5
100
AcDbSymbolTableRecord
100
AcDbLinetypeTableRecord
  2
HIDDEN
 70
     0
  3
__ __ __ __ __ __ 
 72
    65
 73
     2
 40
0.375
 49
0.25
 74
     0
 49
-0.125
 74
     0
  0
LTYPE
  5
35
330
5
100
AcDbSymbolTableRecord
100
AcDbLinetypeTableRecord
  2
HIDDEN2
 70
     0
  3
_ _ _ _ _ _ _ _ _ 
 72
    65
 73
     2
 40
0.1875
 49
0.125
 74
     0
 49
-0.0625
 74
     0
  0
LTYPE
  5
36
330
5
100
AcDbSymbolTableRecord
100
AcDbLinetypeTableRecord
  2
HIDDENX2
 70
     0
  3
____ ____ ____ ____ 
 72
    65
 73
     2
 40
0.75
 49
0.5
 74
     0
 49
-0.25
 74
     0
  0
LTYPE
  5
37
330
5
100
AcDbSymbolTableRecord
100
AcDbLinetypeTableRecord
  2
PHANTOM
 70
     0
  3
______  __  __  
 72
    65
 73
     6
 40
2.5
 49
1.25
 74
     0
 49
-0.25
 74
     0
 49
0.25
 74
     0
 49
-0.25
 74
     0
 49
0.25
 74
     0
 49
-0.25
 74
     0
  0
LTYPE
  5
38
330
5
100
AcDbSymbolTableRecord
100
AcDbLinetypeTableRecord
  2
PHANTOM2
 70
     0
  3
___ _ _ ___ _ _ 
 72
    65
 73
     6
 40
1.25
 49
0.625
 74
     0
 49
-0.125
 74
     0
 49
0.125
 74
     0
 49
-0.125
 74
     0
 49
0.125
 74
     0
 49
-0.125
 74
     0
  0
LTYPE
  5
39
330
5
100
AcDbSymbolTableRecord
100
AcDbLinetypeTableRecord
  2
PHANTOMX2
 70
     0
  3
___ _ _ ___ _ _ 
 72
    65
 73
     6
 40
5.0
 49
2.5
 74
     0
 49
-0.5
 74
     0
 49
0.5
 74
     0
 49
-0.5
 74
     0
 49
0.5
 74
     0
 49
-0.5
 74
     0
  0
ENDTAB
  0
TABLE
  2
LAYER
  5
2
330
0
100
AcDbSymbolTable
 70
   257
  0
LAYER
  5
10
330
2
100
AcDbSymbolTableRecord
100
AcDbLayerTableRecord
  2
0
 70
     0
 62
     7
  6
CONTINUOUS
  0
LAYER
  5
3A
330
2
100
AcDbSymbolTableRecord
100
AcDbLayerTableRecord
  2
1
 70
     0
 62
     1
  6
CONTINUOUS
  0
LAYER
  5
3B
330
2
100
AcDbSymbolTableRecord
100
AcDbLayerTableRecord
  2
2
 70
     0
 62
     2
  6
CONTINUOUS
  0
LAYER
  5
3C
330
2
100
AcDbSymbolTableRecord
100
AcDbLayerTableRecord
  2
3
 70
     0
 62
     3
  6
CONTINUOUS
  0
LAYER
  5
3D
330
2
100
AcDbSymbolTableRecord
100
AcDbLayerTableRecord
  2
4
 70
     0
 62
     4
  6
CONTINUOUS
  0
LAYER
  5
3E
330
2
100
AcDbSymbolTableRecord
100
AcDbLayerTableRecord
  2
5
 70
     0
 62
     5
  6
CONTINUOUS
  0
LAYER
  5
3F
330
2
100
AcDbSymbolTableRecord
100
AcDbLayerTableRecord
  2
6
 70
     0
 62
     6
  6
CONTINUOUS
  0
LAYER
  5
40
330
2
100
AcDbSymbolTableRecord
100
AcDbLayerTableRecord
  2
7
 70
     0
 62
     7
  6
CONTINUOUS
  0
LAYER
  5
41
330
2
100
AcDbSymbolTableRecord
100
AcDbLayerTableRecord
  2
8
 70
     0
 62
     8
  6
CONTINUOUS
  0
LAYER
  5
42
330
2
100
AcDbSymbolTableRecord
100
AcDbLayerTableRecord
  2
9
 70
     0
 62
     9
  6
CONTINUOUS
  0
LAYER
  5
43
330
2
100
AcDbSymbolTableRecord
100
AcDbLayerTableRecord
  2
10
 70
     0
 62
    10
  6
CONTINUOUS
  0
LAYER
  5
44
330
2
100
AcDbSymbolTableRecord
100
AcDbLayerTableRecord
  2
11
 70
     0
 62
    11
  6
CONTINUOUS
  0
LAYER
  5
45
330
2
100
AcDbSymbolTableRecord
100
AcDbLayerTableRecord
  2
12
 70
     0
 62
    12
  6
CONTINUOUS
  0
LAYER
  5
46
330
2
100
AcDbSymbolTableRecord
100
AcDbLayerTableRecord
  2
13
 70
     0
 62
    13
  6
CONTINUOUS
  0
LAYER
  5
47
330
2
100
AcDbSymbolTableRecord
100
AcDbLayerTableRecord
  2
14
 70
     0
 62
    14
  6
CONTINUOUS
  0
LAYER
  5
48
330
2
100
AcDbSymbolTableRecord
100
AcDbLayerTableRecord
  2
15
 70
     0
 62
    15
  6
CONTINUOUS
  0
LAYER
  5
49
330
2
100
AcDbSymbolTableRecord
100
AcDbLayerTableRecord
  2
16
 70
     0
 62
    16
  6
CONTINUOUS
  0
LAYER
  5
4A
330
2
100
AcDbSymbolTableRecord
100
AcDbLayerTableRecord
  2
17
 70
     0
 62
    17
  6
CONTINUOUS
  0
LAYER
  5
4B
330
2
100
AcDbSymbolTableRecord
100
AcDbLayerTableRecord
  2
18
 70
     0
 62
    18
  6
CONTINUOUS
  0
LAYER
  5
4C
330
2
100
AcDbSymbolTableRecord
100
AcDbLayerTableRecord
  2
19
 70
     0
 62
    19
  6
CONTINUOUS
  0
LAYER
  5
4D
330
2
100
AcDbSymbolTableRecord
100
AcDbLayerTableRecord
  2
20
 70
     0
 62
    20
  6
CONTINUOUS
  0
LAYER
  5
4E
330
2
100
AcDbSymbolTableRecord
100
AcDbLayerTableRecord
  2
21
 70
     0
 62
    21
  6
CONTINUOUS
  0
LAYER
  5
4F
330
2
100
AcDbSymbolTableRecord
100
AcDbLayerTableRecord
  2
22
 70
     0
 62
    22
  6
CONTINUOUS
  0
LAYER
  5
50
330
2
100
AcDbSymbolTableRecord
100
AcDbLayerTableRecord
  2
23
 70
     0
 62
    23
  6
CONTINUOUS
  0
LAYER
  5
51
330
2
100
AcDbSymbolTableRecord
100
AcDbLayerTableRecord
  2
24
 70
     0
 62
    24
  6
CONTINUOUS
  0
LAYER
  5
52
330
2
100
AcDbSymbolTableRecord
100
AcDbLayerTableRecord
  2
25
 70
     0
 62
    25
  6
CONTINUOUS
  0
LAYER
  5
53
330
2
100
AcDbSymbolTableRecord
100
AcDbLayerTableRecord
  2
26
 70
     0
 62
    26
  6
CONTINUOUS
  0
LAYER
  5
54
330
2
100
AcDbSymbolTableRecord
100
AcDbLayerTableRecord
  2
27
 70
     0
 62
    27
  6
CONTINUOUS
  0
LAYER
  5
55
330
2
100
AcDbSymbolTableRecord
100
AcDbLayerTableRecord
  2
28
 70
     0
 62
    28
  6
CONTINUOUS
  0
LAYER
  5
56
330
2
100
AcDbSymbolTableRecord
100
AcDbLayerTableRecord
  2
29
 70
     0
 62
    29
  6
CONTINUOUS
  0
LAYER
  5
57
330
2
100
AcDbSymbolTableRecord
100
AcDbLayerTableRecord
  2
30
 70
     0
 62
    30
  6
CONTINUOUS
  0
LAYER
  5
58
330
2
100
AcDbSymbolTableRecord
100
AcDbLayerTableRecord
  2
31
 70
     0
 62
    31
  6
CONTINUOUS
  0
LAYER
  5
59
330
2
100
AcDbSymbolTableRecord
100
AcDbLayerTableRecord
  2
32
 70
     0
 62
    32
  6
CONTINUOUS
  0
LAYER
  5
5A
330
2
100
AcDbSymbolTableRecord
100
AcDbLayerTableRecord
  2
33
 70
     0
 62
    33
  6
CONTINUOUS
  0
LAYER
  5
5B
330
2
100
AcDbSymbolTableRecord
100
AcDbLayerTableRecord
  2
34
 70
     0
 62
    34
  6
CONTINUOUS
  0
LAYER
  5
5C
330
2
100
AcDbSymbolTableRecord
100
AcDbLayerTableRecord
  2
35
 70
     0
 62
    35
  6
CONTINUOUS
  0
LAYER
  5
5D
330
2
100
AcDbSymbolTableRecord
100
AcDbLayerTableRecord
  2
36
 70
     0
 62
    36
  6
CONTINUOUS
  0
LAYER
  5
5E
330
2
100
AcDbSymbolTableRecord
100
AcDbLayerTableRecord
  2
37
 70
     0
 62
    37
  6
CONTINUOUS
  0
LAYER
  5
5F
330
2
100
AcDbSymbolTableRecord
100
AcDbLayerTableRecord
  2
38
 70
     0
 62
    38
  6
CONTINUOUS
  0
LAYER
  5
60
330
2
100
AcDbSymbolTableRecord
100
AcDbLayerTableRecord
  2
39
 70
     0
 62
    39
  6
CONTINUOUS
  0
LAYER
  5
61
330
2
100
AcDbSymbolTableRecord
100
AcDbLayerTableRecord
  2
40
 70
     0
 62
    40
  6
CONTINUOUS
  0
LAYER
  5
62
330
2
100
AcDbSymbolTableRecord
100
AcDbLayerTableRecord
  2
41
 70
     0
 62
    41
  6
CONTINUOUS
  0
LAYER
  5
63
330
2
100
AcDbSymbolTableRecord
100
AcDbLayerTableRecord
  2
42
 70
     0
 62
    42
  6
CONTINUOUS
  0
LAYER
  5
64
330
2
100
AcDbSymbolTableRecord
100
AcDbLayerTableRecord
  2
43
 70
     0
 62
    43
  6
CONTINUOUS
  0
LAYER
  5
65
330
2
100
AcDbSymbolTableRecord
100
AcDbLayerTableRecord
  2
44
 70
     0
 62
    44
  6
CONTINUOUS
  0
LAYER
  5
66
330
2
100
AcDbSymbolTableRecord
100
AcDbLayerTableRecord
  2
45
 70
     0
 62
    45
  6
CONTINUOUS
  0
LAYER
  5
67
330
2
100
AcDbSymbolTableRecord
100
AcDbLayerTableRecord
  2
46
 70
     0
 62
    46
  6
CONTINUOUS
  0
LAYER
  5
68
330
2
100
AcDbSymbolTableRecord
100
AcDbLayerTableRecord
  2
47
 70
     0
 62
    47
  6
CONTINUOUS
  0
LAYER
  5
69
330
2
100
AcDbSymbolTableRecord
100
AcDbLayerTableRecord
  2
48
 70
     0
 62
    48
  6
CONTINUOUS
  0
LAYER
  5
6A
330
2
100
AcDbSymbolTableRecord
100
AcDbLayerTableRecord
  2
49
 70
     0
 62
    49
  6
CONTINUOUS
  0
LAYER
  5
6B
330
2
100
AcDbSymbolTableRecord
100
AcDbLayerTableRecord
  2
50
 70
     0
 62
    50
  6
CONTINUOUS
  0
LAYER
  5
6C
330
2
100
AcDbSymbolTableRecord
100
AcDbLayerTableRecord
  2
51
 70
     0
 62
    51
  6
CONTINUOUS
  0
LAYER
  5
6D
330
2
100
AcDbSymbolTableRecord
100
AcDbLayerTableRecord
  2
52
 70
     0
 62
    52
  6
CONTINUOUS
  0
LAYER
  5
6E
330
2
100
AcDbSymbolTableRecord
100
AcDbLayerTableRecord
  2
53
 70
     0
 62
    53
  6
CONTINUOUS
  0
LAYER
  5
6F
330
2
100
AcDbSymbolTableRecord
100
AcDbLayerTableRecord
  2
54
 70
     0
 62
    54
  6
CONTINUOUS
  0
LAYER
  5
70
330
2
100
AcDbSymbolTableRecord
100
AcDbLayerTableRecord
  2
55
 70
     0
 62
    55
  6
CONTINUOUS
  0
LAYER
  5
71
330
2
100
AcDbSymbolTableRecord
100
AcDbLayerTableRecord
  2
56
 70
     0
 62
    56
  6
CONTINUOUS
  0
LAYER
  5
72
330
2
100
AcDbSymbolTableRecord
100
AcDbLayerTableRecord
  2
57
 70
     0
 62
    57
  6
CONTINUOUS
  0
LAYER
  5
73
330
2
100
AcDbSymbolTableRecord
100
AcDbLayerTableRecord
  2
58
 70
     0
 62
    58
  6
CONTINUOUS
  0
LAYER
  5
74
330
2
100
AcDbSymbolTableRecord
100
AcDbLayerTableRecord
  2
59
 70
     0
 62
    59
  6
CONTINUOUS
  0
LAYER
  5
75
330
2
100
AcDbSymbolTableRecord
100
AcDbLayerTableRecord
  2
60
 70
     0
 62
    60
  6
CONTINUOUS
  0
LAYER
  5
76
330
2
100
AcDbSymbolTableRecord
100
AcDbLayerTableRecord
  2
61
 70
     0
 62
    61
  6
CONTINUOUS
  0
LAYER
  5
77
330
2
100
AcDbSymbolTableRecord
100
AcDbLayerTableRecord
  2
62
 70
     0
 62
    62
  6
CONTINUOUS
  0
LAYER
  5
78
330
2
100
AcDbSymbolTableRecord
100
AcDbLayerTableRecord
  2
63
 70
     0
 62
    63
  6
CONTINUOUS
  0
LAYER
  5
79
330
2
100
AcDbSymbolTableRecord
100
AcDbLayerTableRecord
  2
64
 70
     0
 62
    64
  6
CONTINUOUS
  0
LAYER
  5
7A
330
2
100
AcDbSymbolTableRecord
100
AcDbLayerTableRecord
  2
65
 70
     0
 62
    65
  6
CONTINUOUS
  0
LAYER
  5
7B
330
2
100
AcDbSymbolTableRecord
100
AcDbLayerTableRecord
  2
66
 70
     0
 62
    66
  6
CONTINUOUS
  0
LAYER
  5
7C
330
2
100
AcDbSymbolTableRecord
100
AcDbLayerTableRecord
  2
67
 70
     0
 62
    67
  6
CONTINUOUS
  0
LAYER
  5
7D
330
2
100
AcDbSymbolTableRecord
100
AcDbLayerTableRecord
  2
68
 70
     0
 62
    68
  6
CONTINUOUS
  0
LAYER
  5
7E
330
2
100
AcDbSymbolTableRecord
100
AcDbLayerTableRecord
  2
69
 70
     0
 62
    69
  6
CONTINUOUS
  0
LAYER
  5
7F
330
2
100
AcDbSymbolTableRecord
100
AcDbLayerTableRecord
  2
70
 70
     0
 62
    70
  6
CONTINUOUS
  0
LAYER
  5
80
330
2
100
AcDbSymbolTableRecord
100
AcDbLayerTableRecord
  2
71
 70
     0
 62
    71
  6
CONTINUOUS
  0
LAYER
  5
81
330
2
100
AcDbSymbolTableRecord
100
AcDbLayerTableRecord
  2
72
 70
     0
 62
    72
  6
CONTINUOUS
  0
LAYER
  5
82
330
2
100
AcDbSymbolTableRecord
100
AcDbLayerTableRecord
  2
73
 70
     0
 62
    73
  6
CONTINUOUS
  0
LAYER
  5
83
330
2
100
AcDbSymbolTableRecord
100
AcDbLayerTableRecord
  2
74
 70
     0
 62
    74
  6
CONTINUOUS
  0
LAYER
  5
84
330
2
100
AcDbSymbolTableRecord
100
AcDbLayerTableRecord
  2
75
 70
     0
 62
    75
  6
CONTINUOUS
  0
LAYER
  5
85
330
2
100
AcDbSymbolTableRecord
100
AcDbLayerTableRecord
  2
76
 70
     0
 62
    76
  6
CONTINUOUS
  0
LAYER
  5
86
330
2
100
AcDbSymbolTableRecord
100
AcDbLayerTableRecord
  2
77
 70
     0
 62
    77
  6
CONTINUOUS
  0
LAYER
  5
87
330
2
100
AcDbSymbolTableRecord
100
AcDbLayerTableRecord
  2
78
 70
     0
 62
    78
  6
CONTINUOUS
  0
LAYER
  5
88
330
2
100
AcDbSymbolTableRecord
100
AcDbLayerTableRecord
  2
79
 70
     0
 62
    79
  6
CONTINUOUS
  0
LAYER
  5
89
330
2
100
AcDbSymbolTableRecord
100
AcDbLayerTableRecord
  2
80
 70
     0
 62
    80
  6
CONTINUOUS
  0
LAYER
  5
8A
330
2
100
AcDbSymbolTableRecord
100
AcDbLayerTableRecord
  2
81
 70
     0
 62
    81
  6
CONTINUOUS
  0
LAYER
  5
8B
330
2
100
AcDbSymbolTableRecord
100
AcDbLayerTableRecord
  2
82
 70
     0
 62
    82
  6
CONTINUOUS
  0
LAYER
  5
8C
330
2
100
AcDbSymbolTableRecord
100
AcDbLayerTableRecord
  2
83
 70
     0
 62
    83
  6
CONTINUOUS
  0
LAYER
  5
8D
330
2
100
AcDbSymbolTableRecord
100
AcDbLayerTableRecord
  2
84
 70
     0
 62
    84
  6
CONTINUOUS
  0
LAYER
  5
8E
330
2
100
AcDbSymbolTableRecord
100
AcDbLayerTableRecord
  2
85
 70
     0
 62
    85
  6
CONTINUOUS
  0
LAYER
  5
8F
330
2
100
AcDbSymbolTableRecord
100
AcDbLayerTableRecord
  2
86
 70
     0
 62
    86
  6
CONTINUOUS
  0
LAYER
  5
90
330
2
100
AcDbSymbolTableRecord
100
AcDbLayerTableRecord
  2
87
 70
     0
 62
    87
  6
CONTINUOUS
  0
LAYER
  5
91
330
2
100
AcDbSymbolTableRecord
100
AcDbLayerTableRecord
  2
88
 70
     0
 62
    88
  6
CONTINUOUS
  0
LAYER
  5
92
330
2
100
AcDbSymbolTableRecord
100
AcDbLayerTableRecord
  2
89
 70
     0
 62
    89
  6
CONTINUOUS
  0
LAYER
  5
93
330
2
100
AcDbSymbolTableRecord
100
AcDbLayerTableRecord
  2
90
 70
     0
 62
    90
  6
CONTINUOUS
  0
LAYER
  5
94
330
2
100
AcDbSymbolTableRecord
100
AcDbLayerTableRecord
  2
91
 70
     0
 62
    91
  6
CONTINUOUS
  0
LAYER
  5
95
330
2
100
AcDbSymbolTableRecord
100
AcDbLayerTableRecord
  2
92
 70
     0
 62
    92
  6
CONTINUOUS
  0
LAYER
  5
96
330
2
100
AcDbSymbolTableRecord
100
AcDbLayerTableRecord
  2
93
 70
     0
 62
    93
  6
CONTINUOUS
  0
LAYER
  5
97
330
2
100
AcDbSymbolTableRecord
100
AcDbLayerTableRecord
  2
94
 70
     0
 62
    94
  6
CONTINUOUS
  0
LAYER
  5
98
330
2
100
AcDbSymbolTableRecord
100
AcDbLayerTableRecord
  2
95
 70
     0
 62
    95
  6
CONTINUOUS
  0
LAYER
  5
99
330
2
100
AcDbSymbolTableRecord
100
AcDbLayerTableRecord
  2
96
 70
     0
 62
    96
  6
CONTINUOUS
  0
LAYER
  5
9A
330
2
100
AcDbSymbolTableRecord
100
AcDbLayerTableRecord
  2
97
 70
     0
 62
    97
  6
CONTINUOUS
  0
LAYER
  5
9B
330
2
100
AcDbSymbolTableRecord
100
AcDbLayerTableRecord
  2
98
 70
     0
 62
    98
  6
CONTINUOUS
  0
LAYER
  5
9C
330
2
100
AcDbSymbolTableRecord
100
AcDbLayerTableRecord
  2
99
 70
     0
 62
    99
  6
CONTINUOUS
  0
LAYER
  5
9D
330
2
100
AcDbSymbolTableRecord
100
AcDbLayerTableRecord
  2
100
 70
     0
 62
   100
  6
CONTINUOUS
  0
LAYER
  5
9E
330
2
100
AcDbSymbolTableRecord
100
AcDbLayerTableRecord
  2
101
 70
     0
 62
   101
  6
CONTINUOUS
  0
LAYER
  5
9F
330
2
100
AcDbSymbolTableRecord
100
AcDbLayerTableRecord
  2
102
 70
     0
 62
   102
  6
CONTINUOUS
  0
LAYER
  5
A0
330
2
100
AcDbSymbolTableRecord
100
AcDbLayerTableRecord
  2
103
 70
     0
 62
   103
  6
CONTINUOUS
  0
LAYER
  5
A1
330
2
100
AcDbSymbolTableRecord
100
AcDbLayerTableRecord
  2
104
 70
     0
 62
   104
  6
CONTINUOUS
  0
LAYER
  5
A2
330
2
100
AcDbSymbolTableRecord
100
AcDbLayerTableRecord
  2
105
 70
     0
 62
   105
  6
CONTINUOUS
  0
LAYER
  5
A3
330
2
100
AcDbSymbolTableRecord
100
AcDbLayerTableRecord
  2
106
 70
     0
 62
   106
  6
CONTINUOUS
  0
LAYER
  5
A4
330
2
100
AcDbSymbolTableRecord
100
AcDbLayerTableRecord
  2
107
 70
     0
 62
   107
  6
CONTINUOUS
  0
LAYER
  5
A5
330
2
100
AcDbSymbolTableRecord
100
AcDbLayerTableRecord
  2
108
 70
     0
 62
   108
  6
CONTINUOUS
  0
LAYER
  5
A6
330
2
100
AcDbSymbolTableRecord
100
AcDbLayerTableRecord
  2
109
 70
     0
 62
   109
  6
CONTINUOUS
  0
LAYER
  5
A7
330
2
100
AcDbSymbolTableRecord
100
AcDbLayerTableRecord
  2
110
 70
     0
 62
   110
  6
CONTINUOUS
  0
LAYER
  5
A8
330
2
100
AcDbSymbolTableRecord
100
AcDbLayerTableRecord
  2
111
 70
     0
 62
   111
  6
CONTINUOUS
  0
LAYER
  5
A9
330
2
100
AcDbSymbolTableRecord
100
AcDbLayerTableRecord
  2
112
 70
     0
 62
   112
  6
CONTINUOUS
  0
LAYER
  5
AA
330
2
100
AcDbSymbolTableRecord
100
AcDbLayerTableRecord
  2
113
 70
     0
 62
   113
  6
CONTINUOUS
  0
LAYER
  5
AB
330
2
100
AcDbSymbolTableRecord
100
AcDbLayerTableRecord
  2
114
 70
     0
 62
   114
  6
CONTINUOUS
  0
LAYER
  5
AC
330
2
100
AcDbSymbolTableRecord
100
AcDbLayerTableRecord
  2
115
 70
     0
 62
   115
  6
CONTINUOUS
  0
LAYER
  5
AD
330
2
100
AcDbSymbolTableRecord
100
AcDbLayerTableRecord
  2
116
 70
     0
 62
   116
  6
CONTINUOUS
  0
LAYER
  5
AE
330
2
100
AcDbSymbolTableRecord
100
AcDbLayerTableRecord
  2
117
 70
     0
 62
   117
  6
CONTINUOUS
  0
LAYER
  5
AF
330
2
100
AcDbSymbolTableRecord
100
AcDbLayerTableRecord
  2
118
 70
     0
 62
   118
  6
CONTINUOUS
  0
LAYER
  5
B0
330
2
100
AcDbSymbolTableRecord
100
AcDbLayerTableRecord
  2
119
 70
     0
 62
   119
  6
CONTINUOUS
  0
LAYER
  5
B1
330
2
100
AcDbSymbolTableRecord
100
AcDbLayerTableRecord
  2
120
 70
     0
 62
   120
  6
CONTINUOUS
  0
LAYER
  5
B2
330
2
100
AcDbSymbolTableRecord
100
AcDbLayerTableRecord
  2
121
 70
     0
 62
   121
  6
CONTINUOUS
  0
LAYER
  5
B3
330
2
100
AcDbSymbolTableRecord
100
AcDbLayerTableRecord
  2
122
 70
     0
 62
   122
  6
CONTINUOUS
  0
LAYER
  5
B4
330
2
100
AcDbSymbolTableRecord
100
AcDbLayerTableRecord
  2
123
 70
     0
 62
   123
  6
CONTINUOUS
  0
LAYER
  5
B5
330
2
100
AcDbSymbolTableRecord
100
AcDbLayerTableRecord
  2
124
 70
     0
 62
   124
  6
CONTINUOUS
  0
LAYER
  5
B6
330
2
100
AcDbSymbolTableRecord
100
AcDbLayerTableRecord
  2
125
 70
     0
 62
   125
  6
CONTINUOUS
  0
LAYER
  5
B7
330
2
100
AcDbSymbolTableRecord
100
AcDbLayerTableRecord
  2
126
 70
     0
 62
   126
  6
CONTINUOUS
  0
LAYER
  5
B8
330
2
100
AcDbSymbolTableRecord
100
AcDbLayerTableRecord
  2
127
 70
     0
 62
   127
  6
CONTINUOUS
  0
LAYER
  5
B9
330
2
100
AcDbSymbolTableRecord
100
AcDbLayerTableRecord
  2
128
 70
     0
 62
   128
  6
CONTINUOUS
  0
LAYER
  5
BA
330
2
100
AcDbSymbolTableRecord
100
AcDbLayerTableRecord
  2
129
 70
     0
 62
   129
  6
CONTINUOUS
  0
LAYER
  5
BB
330
2
100
AcDbSymbolTableRecord
100
AcDbLayerTableRecord
  2
130
 70
     0
 62
   130
  6
CONTINUOUS
  0
LAYER
  5
BC
330
2
100
AcDbSymbolTableRecord
100
AcDbLayerTableRecord
  2
131
 70
     0
 62
   131
  6
CONTINUOUS
  0
LAYER
  5
BD
330
2
100
AcDbSymbolTableRecord
100
AcDbLayerTableRecord
  2
132
 70
     0
 62
   132
  6
CONTINUOUS
  0
LAYER
  5
BE
330
2
100
AcDbSymbolTableRecord
100
AcDbLayerTableRecord
  2
133
 70
     0
 62
   133
  6
CONTINUOUS
  0
LAYER
  5
BF
330
2
100
AcDbSymbolTableRecord
100
AcDbLayerTableRecord
  2
134
 70
     0
 62
   134
  6
CONTINUOUS
  0
LAYER
  5
C0
330
2
100
AcDbSymbolTableRecord
100
AcDbLayerTableRecord
  2
135
 70
     0
 62
   135
  6
CONTINUOUS
  0
LAYER
  5
C1
330
2
100
AcDbSymbolTableRecord
100
AcDbLayerTableRecord
  2
136
 70
     0
 62
   136
  6
CONTINUOUS
  0
LAYER
  5
C2
330
2
100
AcDbSymbolTableRecord
100
AcDbLayerTableRecord
  2
137
 70
     0
 62
   137
  6
CONTINUOUS
  0
LAYER
  5
C3
330
2
100
AcDbSymbolTableRecord
100
AcDbLayerTableRecord
  2
138
 70
     0
 62
   138
  6
CONTINUOUS
  0
LAYER
  5
C4
330
2
100
AcDbSymbolTableRecord
100
AcDbLayerTableRecord
  2
139
 70
     0
 62
   139
  6
CONTINUOUS
  0
LAYER
  5
C5
330
2
100
AcDbSymbolTableRecord
100
AcDbLayerTableRecord
  2
140
 70
     0
 62
   140
  6
CONTINUOUS
  0
LAYER
  5
C6
330
2
100
AcDbSymbolTableRecord
100
AcDbLayerTableRecord
  2
141
 70
     0
 62
   141
  6
CONTINUOUS
  0
LAYER
  5
C7
330
2
100
AcDbSymbolTableRecord
100
AcDbLayerTableRecord
  2
142
 70
     0
 62
   142
  6
CONTINUOUS
  0
LAYER
  5
C8
330
2
100
AcDbSymbolTableRecord
100
AcDbLayerTableRecord
  2
143
 70
     0
 62
   143
  6
CONTINUOUS
  0
LAYER
  5
C9
330
2
100
AcDbSymbolTableRecord
100
AcDbLayerTableRecord
  2
144
 70
     0
 62
   144
  6
CONTINUOUS
  0
LAYER
  5
CA
330
2
100
AcDbSymbolTableRecord
100
AcDbLayerTableRecord
  2
145
 70
     0
 62
   145
  6
CONTINUOUS
  0
LAYER
  5
CB
330
2
100
AcDbSymbolTableRecord
100
AcDbLayerTableRecord
  2
146
 70
     0
 62
   146
  6
CONTINUOUS
  0
LAYER
  5
CC
330
2
100
AcDbSymbolTableRecord
100
AcDbLayerTableRecord
  2
147
 70
     0
 62
   147
  6
CONTINUOUS
  0
LAYER
  5
CD
330
2
100
AcDbSymbolTableRecord
100
AcDbLayerTableRecord
  2
148
 70
     0
 62
   148
  6
CONTINUOUS
  0
LAYER
  5
CE
330
2
100
AcDbSymbolTableRecord
100
AcDbLayerTableRecord
  2
149
 70
     0
 62
   149
  6
CONTINUOUS
  0
LAYER
  5
CF
330
2
100
AcDbSymbolTableRecord
100
AcDbLayerTableRecord
  2
150
 70
     0
 62
   150
  6
CONTINUOUS
  0
LAYER
  5
D0
330
2
100
AcDbSymbolTableRecord
100
AcDbLayerTableRecord
  2
151
 70
     0
 62
   151
  6
CONTINUOUS
  0
LAYER
  5
D1
330
2
100
AcDbSymbolTableRecord
100
AcDbLayerTableRecord
  2
152
 70
     0
 62
   152
  6
CONTINUOUS
  0
LAYER
  5
D2
330
2
100
AcDbSymbolTableRecord
100
AcDbLayerTableRecord
  2
153
 70
     0
 62
   153
  6
CONTINUOUS
  0
LAYER
  5
D3
330
2
100
AcDbSymbolTableRecord
100
AcDbLayerTableRecord
  2
154
 70
     0
 62
   154
  6
CONTINUOUS
  0
LAYER
  5
D4
330
2
100
AcDbSymbolTableRecord
100
AcDbLayerTableRecord
  2
155
 70
     0
 62
   155
  6
CONTINUOUS
  0
LAYER
  5
D5
330
2
100
AcDbSymbolTableRecord
100
AcDbLayerTableRecord
  2
156
 70
     0
 62
   156
  6
CONTINUOUS
  0
LAYER
  5
D6
330
2
100
AcDbSymbolTableRecord
100
AcDbLayerTableRecord
  2
157
 70
     0
 62
   157
  6
CONTINUOUS
  0
LAYER
  5
D7
330
2
100
AcDbSymbolTableRecord
100
AcDbLayerTableRecord
  2
158
 70
     0
 62
   158
  6
CONTINUOUS
  0
LAYER
  5
D8
330
2
100
AcDbSymbolTableRecord
100
AcDbLayerTableRecord
  2
159
 70
     0
 62
   159
  6
CONTINUOUS
  0
LAYER
  5
D9
330
2
100
AcDbSymbolTableRecord
100
AcDbLayerTableRecord
  2
160
 70
     0
 62
   160
  6
CONTINUOUS
  0
LAYER
  5
DA
330
2
100
AcDbSymbolTableRecord
100
AcDbLayerTableRecord
  2
161
 70
     0
 62
   161
  6
CONTINUOUS
  0
LAYER
  5
DB
330
2
100
AcDbSymbolTableRecord
100
AcDbLayerTableRecord
  2
162
 70
     0
 62
   162
  6
CONTINUOUS
  0
LAYER
  5
DC
330
2
100
AcDbSymbolTableRecord
100
AcDbLayerTableRecord
  2
163
 70
     0
 62
   163
  6
CONTINUOUS
  0
LAYER
  5
DD
330
2
100
AcDbSymbolTableRecord
100
AcDbLayerTableRecord
  2
164
 70
     0
 62
   164
  6
CONTINUOUS
  0
LAYER
  5
DE
330
2
100
AcDbSymbolTableRecord
100
AcDbLayerTableRecord
  2
165
 70
     0
 62
   165
  6
CONTINUOUS
  0
LAYER
  5
DF
330
2
100
AcDbSymbolTableRecord
100
AcDbLayerTableRecord
  2
166
 70
     0
 62
   166
  6
CONTINUOUS
  0
LAYER
  5
E0
330
2
100
AcDbSymbolTableRecord
100
AcDbLayerTableRecord
  2
167
 70
     0
 62
   167
  6
CONTINUOUS
  0
LAYER
  5
E1
330
2
100
AcDbSymbolTableRecord
100
AcDbLayerTableRecord
  2
168
 70
     0
 62
   168
  6
CONTINUOUS
  0
LAYER
  5
E2
330
2
100
AcDbSymbolTableRecord
100
AcDbLayerTableRecord
  2
169
 70
     0
 62
   169
  6
CONTINUOUS
  0
LAYER
  5
E3
330
2
100
AcDbSymbolTableRecord
100
AcDbLayerTableRecord
  2
170
 70
     0
 62
   170
  6
CONTINUOUS
  0
LAYER
  5
E4
330
2
100
AcDbSymbolTableRecord
100
AcDbLayerTableRecord
  2
171
 70
     0
 62
   171
  6
CONTINUOUS
  0
LAYER
  5
E5
330
2
100
AcDbSymbolTableRecord
100
AcDbLayerTableRecord
  2
172
 70
     0
 62
   172
  6
CONTINUOUS
  0
LAYER
  5
E6
330
2
100
AcDbSymbolTableRecord
100
AcDbLayerTableRecord
  2
173
 70
     0
 62
   173
  6
CONTINUOUS
  0
LAYER
  5
E7
330
2
100
AcDbSymbolTableRecord
100
AcDbLayerTableRecord
  2
174
 70
     0
 62
   174
  6
CONTINUOUS
  0
LAYER
  5
E8
330
2
100
AcDbSymbolTableRecord
100
AcDbLayerTableRecord
  2
175
 70
     0
 62
   175
  6
CONTINUOUS
  0
LAYER
  5
E9
330
2
100
AcDbSymbolTableRecord
100
AcDbLayerTableRecord
  2
176
 70
     0
 62
   176
  6
CONTINUOUS
  0
LAYER
  5
EA
330
2
100
AcDbSymbolTableRecord
100
AcDbLayerTableRecord
  2
177
 70
     0
 62
   177
  6
CONTINUOUS
  0
LAYER
  5
EB
330
2
100
AcDbSymbolTableRecord
100
AcDbLayerTableRecord
  2
178
 70
     0
 62
   178
  6
CONTINUOUS
  0
LAYER
  5
EC
330
2
100
AcDbSymbolTableRecord
100
AcDbLayerTableRecord
  2
179
 70
     0
 62
   179
  6
CONTINUOUS
  0
LAYER
  5
ED
330
2
100
AcDbSymbolTableRecord
100
AcDbLayerTableRecord
  2
180
 70
     0
 62
   180
  6
CONTINUOUS
  0
LAYER
  5
EE
330
2
100
AcDbSymbolTableRecord
100
AcDbLayerTableRecord
  2
181
 70
     0
 62
   181
  6
CONTINUOUS
  0
LAYER
  5
EF
330
2
100
AcDbSymbolTableRecord
100
AcDbLayerTableRecord
  2
182
 70
     0
 62
   182
  6
CONTINUOUS
  0
LAYER
  5
F0
330
2
100
AcDbSymbolTableRecord
100
AcDbLayerTableRecord
  2
183
 70
     0
 62
   183
  6
CONTINUOUS
  0
LAYER
  5
F1
330
2
100
AcDbSymbolTableRecord
100
AcDbLayerTableRecord
  2
184
 70
     0
 62
   184
  6
CONTINUOUS
  0
LAYER
  5
F2
330
2
100
AcDbSymbolTableRecord
100
AcDbLayerTableRecord
  2
185
 70
     0
 62
   185
  6
CONTINUOUS
  0
LAYER
  5
F3
330
2
100
AcDbSymbolTableRecord
100
AcDbLayerTableRecord
  2
186
 70
     0
 62
   186
  6
CONTINUOUS
  0
LAYER
  5
F4
330
2
100
AcDbSymbolTableRecord
100
AcDbLayerTableRecord
  2
187
 70
     0
 62
   187
  6
CONTINUOUS
  0
LAYER
  5
F5
330
2
100
AcDbSymbolTableRecord
100
AcDbLayerTableRecord
  2
188
 70
     0
 62
   188
  6
CONTINUOUS
  0
LAYER
  5
F6
330
2
100
AcDbSymbolTableRecord
100
AcDbLayerTableRecord
  2
189
 70
     0
 62
   189
  6
CONTINUOUS
  0
LAYER
  5
F7
330
2
100
AcDbSymbolTableRecord
100
AcDbLayerTableRecord
  2
190
 70
     0
 62
   190
  6
CONTINUOUS
  0
LAYER
  5
F8
330
2
100
AcDbSymbolTableRecord
100
AcDbLayerTableRecord
  2
191
 70
     0
 62
   191
  6
CONTINUOUS
  0
LAYER
  5
F9
330
2
100
AcDbSymbolTableRecord
100
AcDbLayerTableRecord
  2
192
 70
     0
 62
   192
  6
CONTINUOUS
  0
LAYER
  5
FA
330
2
100
AcDbSymbolTableRecord
100
AcDbLayerTableRecord
  2
193
 70
     0
 62
   193
  6
CONTINUOUS
  0
LAYER
  5
FB
330
2
100
AcDbSymbolTableRecord
100
AcDbLayerTableRecord
  2
194
 70
     0
 62
   194
  6
CONTINUOUS
  0
LAYER
  5
FC
330
2
100
AcDbSymbolTableRecord
100
AcDbLayerTableRecord
  2
195
 70
     0
 62
   195
  6
CONTINUOUS
  0
LAYER
  5
FD
330
2
100
AcDbSymbolTableRecord
100
AcDbLayerTableRecord
  2
196
 70
     0
 62
   196
  6
CONTINUOUS
  0
LAYER
  5
FE
330
2
100
AcDbSymbolTableRecord
100
AcDbLayerTableRecord
  2
197
 70
     0
 62
   197
  6
CONTINUOUS
  0
LAYER
  5
FF
330
2
100
AcDbSymbolTableRecord
100
AcDbLayerTableRecord
  2
198
 70
     0
 62
   198
  6
CONTINUOUS
  0
LAYER
  5
100
330
2
100
AcDbSymbolTableRecord
100
AcDbLayerTableRecord
  2
199
 70
     0
 62
   199
  6
CONTINUOUS
  0
LAYER
  5
101
330
2
100
AcDbSymbolTableRecord
100
AcDbLayerTableRecord
  2
200
 70
     0
 62
   200
  6
CONTINUOUS
  0
LAYER
  5
102
330
2
100
AcDbSymbolTableRecord
100
AcDbLayerTableRecord
  2
201
 70
     0
 62
   201
  6
CONTINUOUS
  0
LAYER
  5
103
330
2
100
AcDbSymbolTableRecord
100
AcDbLayerTableRecord
  2
202
 70
     0
 62
   202
  6
CONTINUOUS
  0
LAYER
  5
104
330
2
100
AcDbSymbolTableRecord
100
AcDbLayerTableRecord
  2
203
 70
     0
 62
   203
  6
CONTINUOUS
  0
LAYER
  5
105
330
2
100
AcDbSymbolTableRecord
100
AcDbLayerTableRecord
  2
204
 70
     0
 62
   204
  6
CONTINUOUS
  0
LAYER
  5
106
330
2
100
AcDbSymbolTableRecord
100
AcDbLayerTableRecord
  2
205
 70
     0
 62
   205
  6
CONTINUOUS
  0
LAYER
  5
107
330
2
100
AcDbSymbolTableRecord
100
AcDbLayerTableRecord
  2
206
 70
     0
 62
   206
  6
CONTINUOUS
  0
LAYER
  5
108
330
2
100
AcDbSymbolTableRecord
100
AcDbLayerTableRecord
  2
207
 70
     0
 62
   207
  6
CONTINUOUS
  0
LAYER
  5
109
330
2
100
AcDbSymbolTableRecord
100
AcDbLayerTableRecord
  2
208
 70
     0
 62
   208
  6
CONTINUOUS
  0
LAYER
  5
10A
330
2
100
AcDbSymbolTableRecord
100
AcDbLayerTableRecord
  2
209
 70
     0
 62
   209
  6
CONTINUOUS
  0
LAYER
  5
10B
330
2
100
AcDbSymbolTableRecord
100
AcDbLayerTableRecord
  2
210
 70
     0
 62
   210
  6
CONTINUOUS
  0
LAYER
  5
10C
330
2
100
AcDbSymbolTableRecord
100
AcDbLayerTableRecord
  2
211
 70
     0
 62
   211
  6
CONTINUOUS
  0
LAYER
  5
10D
330
2
100
AcDbSymbolTableRecord
100
AcDbLayerTableRecord
  2
212
 70
     0
 62
   212
  6
CONTINUOUS
  0
LAYER
  5
10E
330
2
100
AcDbSymbolTableRecord
100
AcDbLayerTableRecord
  2
213
 70
     0
 62
   213
  6
CONTINUOUS
  0
LAYER
  5
10F
330
2
100
AcDbSymbolTableRecord
100
AcDbLayerTableRecord
  2
214
 70
     0
 62
   214
  6
CONTINUOUS
  0
LAYER
  5
110
330
2
100
AcDbSymbolTableRecord
100
AcDbLayerTableRecord
  2
215
 70
     0
 62
   215
  6
CONTINUOUS
  0
LAYER
  5
111
330
2
100
AcDbSymbolTableRecord
100
AcDbLayerTableRecord
  2
216
 70
     0
 62
   216
  6
CONTINUOUS
  0
LAYER
  5
112
330
2
100
AcDbSymbolTableRecord
100
AcDbLayerTableRecord
  2
217
 70
     0
 62
   217
  6
CONTINUOUS
  0
LAYER
  5
113
330
2
100
AcDbSymbolTableRecord
100
AcDbLayerTableRecord
  2
218
 70
     0
 62
   218
  6
CONTINUOUS
  0
LAYER
  5
114
330
2
100
AcDbSymbolTableRecord
100
AcDbLayerTableRecord
  2
219
 70
     0
 62
   219
  6
CONTINUOUS
  0
LAYER
  5
115
330
2
100
AcDbSymbolTableRecord
100
AcDbLayerTableRecord
  2
220
 70
     0
 62
   220
  6
CONTINUOUS
  0
LAYER
  5
116
330
2
100
AcDbSymbolTableRecord
100
AcDbLayerTableRecord
  2
221
 70
     0
 62
   221
  6
CONTINUOUS
  0
LAYER
  5
117
330
2
100
AcDbSymbolTableRecord
100
AcDbLayerTableRecord
  2
222
 70
     0
 62
   222
  6
CONTINUOUS
  0
LAYER
  5
118
330
2
100
AcDbSymbolTableRecord
100
AcDbLayerTableRecord
  2
223
 70
     0
 62
   223
  6
CONTINUOUS
  0
LAYER
  5
119
330
2
100
AcDbSymbolTableRecord
100
AcDbLayerTableRecord
  2
224
 70
     0
 62
   224
  6
CONTINUOUS
  0
LAYER
  5
11A
330
2
100
AcDbSymbolTableRecord
100
AcDbLayerTableRecord
  2
225
 70
     0
 62
   225
  6
CONTINUOUS
  0
LAYER
  5
11B
330
2
100
AcDbSymbolTableRecord
100
AcDbLayerTableRecord
  2
226
 70
     0
 62
   226
  6
CONTINUOUS
  0
LAYER
  5
11C
330
2
100
AcDbSymbolTableRecord
100
AcDbLayerTableRecord
  2
227
 70
     0
 62
   227
  6
CONTINUOUS
  0
LAYER
  5
11D
330
2
100
AcDbSymbolTableRecord
100
AcDbLayerTableRecord
  2
228
 70
     0
 62
   228
  6
CONTINUOUS
  0
LAYER
  5
11E
330
2
100
AcDbSymbolTableRecord
100
AcDbLayerTableRecord
  2
229
 70
     0
 62
   229
  6
CONTINUOUS
  0
LAYER
  5
11F
330
2
100
AcDbSymbolTableRecord
100
AcDbLayerTableRecord
  2
230
 70
     0
 62
   230
  6
CONTINUOUS
  0
LAYER
  5
120
330
2
100
AcDbSymbolTableRecord
100
AcDbLayerTableRecord
  2
231
 70
     0
 62
   231
  6
CONTINUOUS
  0
LAYER
  5
121
330
2
100
AcDbSymbolTableRecord
100
AcDbLayerTableRecord
  2
232
 70
     0
 62
   232
  6
CONTINUOUS
  0
LAYER
  5
122
330
2
100
AcDbSymbolTableRecord
100
AcDbLayerTableRecord
  2
233
 70
     0
 62
   233
  6
CONTINUOUS
  0
LAYER
  5
123
330
2
100
AcDbSymbolTableRecord
100
AcDbLayerTableRecord
  2
234
 70
     0
 62
   234
  6
CONTINUOUS
  0
LAYER
  5
124
330
2
100
AcDbSymbolTableRecord
100
AcDbLayerTableRecord
  2
235
 70
     0
 62
   235
  6
CONTINUOUS
  0
LAYER
  5
125
330
2
100
AcDbSymbolTableRecord
100
AcDbLayerTableRecord
  2
236
 70
     0
 62
   236
  6
CONTINUOUS
  0
LAYER
  5
126
330
2
100
AcDbSymbolTableRecord
100
AcDbLayerTableRecord
  2
237
 70
     0
 62
   237
  6
CONTINUOUS
  0
LAYER
  5
127
330
2
100
AcDbSymbolTableRecord
100
AcDbLayerTableRecord
  2
238
 70
     0
 62
   238
  6
CONTINUOUS
  0
LAYER
  5
128
330
2
100
AcDbSymbolTableRecord
100
AcDbLayerTableRecord
  2
239
 70
     0
 62
   239
  6
CONTINUOUS
  0
LAYER
  5
129
330
2
100
AcDbSymbolTableRecord
100
AcDbLayerTableRecord
  2
240
 70
     0
 62
   240
  6
CONTINUOUS
  0
LAYER
  5
12A
330
2
100
AcDbSymbolTableRecord
100
AcDbLayerTableRecord
  2
241
 70
     0
 62
   241
  6
CONTINUOUS
  0
LAYER
  5
12B
330
2
100
AcDbSymbolTableRecord
100
AcDbLayerTableRecord
  2
242
 70
     0
 62
   242
  6
CONTINUOUS
  0
LAYER
  5
12C
330
2
100
AcDbSymbolTableRecord
100
AcDbLayerTableRecord
  2
243
 70
     0
 62
   243
  6
CONTINUOUS
  0
LAYER
  5
12D
330
2
100
AcDbSymbolTableRecord
100
AcDbLayerTableRecord
  2
244
 70
     0
 62
   244
  6
CONTINUOUS
  0
LAYER
  5
12E
330
2
100
AcDbSymbolTableRecord
100
AcDbLayerTableRecord
  2
245
 70
     0
 62
   245
  6
CONTINUOUS
  0
LAYER
  5
12F
330
2
100
AcDbSymbolTableRecord
100
AcDbLayerTableRecord
  2
246
 70
     0
 62
   246
  6
CONTINUOUS
  0
LAYER
  5
130
330
2
100
AcDbSymbolTableRecord
100
AcDbLayerTableRecord
  2
247
 70
     0
 62
   247
  6
CONTINUOUS
  0
LAYER
  5
131
330
2
100
AcDbSymbolTableRecord
100
AcDbLayerTableRecord
  2
248
 70
     0
 62
   248
  6
CONTINUOUS
  0
LAYER
  5
132
330
2
100
AcDbSymbolTableRecord
100
AcDbLayerTableRecord
  2
249
 70
     0
 62
   249
  6
CONTINUOUS
  0
LAYER
  5
133
330
2
100
AcDbSymbolTableRecord
100
AcDbLayerTableRecord
  2
250
 70
     0
 62
   250
  6
CONTINUOUS
  0
LAYER
  5
134
330
2
100
AcDbSymbolTableRecord
100
AcDbLayerTableRecord
  2
251
 70
     0
 62
   251
  6
CONTINUOUS
  0
LAYER
  5
135
330
2
100
AcDbSymbolTableRecord
100
AcDbLayerTableRecord
  2
252
 70
     0
 62
   252
  6
CONTINUOUS
  0
LAYER
  5
136
330
2
100
AcDbSymbolTableRecord
100
AcDbLayerTableRecord
  2
253
 70
     0
 62
   253
  6
CONTINUOUS
  0
LAYER
  5
137
330
2
100
AcDbSymbolTableRecord
100
AcDbLayerTableRecord
  2
254
 70
     0
 62
   254
  6
CONTINUOUS
  0
LAYER
  5
138
330
2
100
AcDbSymbolTableRecord
100
AcDbLayerTableRecord
  2
255
 70
     0
 62
   255
  6
CONTINUOUS
  0
LAYER
  5
7F6
330
2
100
AcDbSymbolTableRecord
100
AcDbLayerTableRecord
  2
DEFPOINTS
 70
     0
 62
     7
  6
CONTINUOUS
  0
ENDTAB
  0
TABLE
  2
STYLE
  5
3
330
0
100
AcDbSymbolTable
 70
     1
  0
STYLE
  5
11
330
3
100
AcDbSymbolTableRecord
100
AcDbTextStyleTableRecord
  2
STANDARD
 70
     0
 40
0.0
 41
1.0
 50
0.0
 71
     0
 42
0.2
  3
txt
  4

  0
ENDTAB
  0
TABLE
  2
VIEW
  5
6
330
0
100
AcDbSymbolTable
 70
     0
  0
ENDTAB
  0
TABLE
  2
UCS
  5
7
330
0
100
AcDbSymbolTable
 70
     0
  0
ENDTAB
  0
TABLE
  2
APPID
  5
9
330
0
100
AcDbSymbolTable
 70
     1
  0
APPID
  5
12
330
9
100
AcDbSymbolTableRecord
100
AcDbRegAppTableRecord
  2
ACAD
 70
     0
  0
ENDTAB
  0
TABLE
  2
DIMSTYLE
  5
A
330
0
100
AcDbSymbolTable
 70
     1
  0
DIMSTYLE
105
7F2
330
A
100
AcDbSymbolTableRecord
100
AcDbDimStyleTableRecord
  2
STANDARD
 70
     0
  3

  4

  5

  6

  7

 40
1.0
 41
0.18
 42
0.0625
 43
0.38
 44
0.18
 45
0.0
 46
0.0
 47
0.0
 48
0.0
140
0.18
141
0.09
142
0.0
143
25.4
144
1.0
145
0.0
146
1.0
147
0.09
 71
     0
 72
     0
 73
     1
 74
     1
 75
     0
 76
     0
 77
     0
 78
     0
170
     0
171
     2
172
     0
173
     0
174
     0
175
     0
176
     0
177
     0
178
     0
270
     2
271
     4
272
     4
273
     2
274
     2
340
11
275
     0
280
     0
281
     0
282
     0
283
     1
284
     0
285
     0
286
     0
287
     3
288
     0
  0
ENDTAB
  0
TABLE
  2
BLOCK_RECORD
  5
1
330
0
100
AcDbSymbolTable
 70
     1
  0
BLOCK_RECORD
  5
1E
102
{ACAD_XDICTIONARY
360
812
102
}
330
1
100
AcDbSymbolTableRecord
100
AcDbBlockTableRecord
  2
*MODEL_SPACE
  0
BLOCK_RECORD
  5
1A
102
{ACAD_XDICTIONARY
360
810
102
}
330
1
100
AcDbSymbolTableRecord
100
AcDbBlockTableRecord
  2
*PAPER_SPACE
  0
BLOCK_RECORD
  5
7F7
330
1
100
AcDbSymbolTableRecord
100
AcDbBlockTableRecord
  2
*D0
  0
ENDTAB
  0
ENDSEC
  0
SECTION
  2
BLOCKS
  0
BLOCK
  5
13B
330
1E
100
AcDbEntity
  8
0
100
AcDbBlockBegin
  2
*MODEL_SPACE
 70
     0
 10
0.0
 20
0.0
 30
0.0
  3
*MODEL_SPACE
  1

  0
ENDBLK
  5
13C
330
1E
100
AcDbEntity
  8
0
100
AcDbBlockEnd
  0
BLOCK
  5
139
330
1A
100
AcDbEntity
 67
     1
  8
0
100
AcDbBlockBegin
  2
*PAPER_SPACE
 70
     0
 10
0.0
 20
0.0
 30
0.0
  3
*PAPER_SPACE
  1

  0
ENDBLK
  5
13A
330
1A
100
AcDbEntity
 67
     1
  8
0
100
AcDbBlockEnd
  0
BLOCK
  5
802
330
7F7
100
AcDbEntity
  8
0
100
AcDbBlockBegin
  2
*D0
 70
     1
 10
0.0
 20
0.0
 30
0.0
  3
*D0
  1

  0
LINE
  5
804
330
7F7
100
AcDbEntity
  8
0
 62
     0
100
AcDbLine
 10
5.973161326074972
 20
7.794514931433734
 30
0.0
 11
7.119942537779188
 21
7.794514931433734
 31
0.0
  0
LINE
  5
805
330
7F7
100
AcDbEntity
  8
0
 62
     0
100
AcDbLine
 10
5.973161326074972
 20
4.144726151906176
 30
0.0
 11
7.119942537779187
 21
4.144726151906175
 31
0.0
  0
LINE
  5
806
330
7F7
100
AcDbEntity
  8
0
 62
     0
100
AcDbLine
 10
6.939942537779188
 20
7.614514931433735
 30
0.0
 11
6.939942537779188
 21
6.149620541669955
 31
0.0
  0
LINE
  5
807
330
7F7
100
AcDbEntity
  8
0
 62
     0
100
AcDbLine
 10
6.939942537779186
 20
4.324726151906176
 30
0.0
 11
6.939942537779186
 21
5.789620541669956
 31
0.0
  0
SOLID
  5
808
330
7F7
100
AcDbEntity
  8
0
 62
     0
100
AcDbTrace
 10
6.909942537779188
 20
7.614514931433735
 30
0.0
 11
6.969942537779187
 21
7.614514931433735
 31
0.0
 12
6.939942537779188
 22
7.794514931433734
 32
0.0
 13
6.939942537779188
 23
7.794514931433734
 33
0.0
  0
SOLID
  5
809
330
7F7
100
AcDbEntity
  8
0
 62
     0
100
AcDbTrace
 10
6.909942537779186
 20
4.324726151906176
 30
0.0
 11
6.969942537779187
 21
4.324726151906176
 31
0.0
 12
6.939942537779186
 22
4.144726151906175
 32
0.0
 13
6.939942537779186
 23
4.144726151906175
 33
0.0
  0
MTEXT
  5
80A
330
7F7
100
AcDbEntity
  8
0
 62
     0
100
AcDbMText
 10
6.939942537779186
 20
5.969620541669956
 30
0.0
 40
0.18
 41
0.0
 71
     5
 72
     1
  1
\A1;3.6498
1001
ACAD
1000
MTEXTBEGIN
1070
    73
1070
     1
1070
    44
1040
1.0
1070
    74
1070
     0
1000
MTEXTEND
1000
MTEXTBEGIN
1070
    73
1070
     1
1070
    44
1040
1.0
1070
    74
1070
     0
1000
MTEXTEND
  0
POINT
  5
80B
330
7F7
100
AcDbEntity
  8
DEFPOINTS
 62
     0
100
AcDbPoint
 10
5.910661326074972
 20
7.794514931433734
 30
0.0
  0
POINT
  5
80C
330
7F7
100
AcDbEntity
  8
DEFPOINTS
 62
     0
100
AcDbPoint
 10
5.910661326074972
 20
4.144726151906176
 30
0.0
  0
POINT
  5
80D
330
7F7
100
AcDbEntity
  8
DEFPOINTS
 62
     0
100
AcDbPoint
 10
6.939942537779186
 20
4.144726151906175
 30
0.0
  0
ENDBLK
  5
803
330
7F7
100
AcDbEntity
  8
0
100
AcDbBlockEnd
  0
ENDSEC
  0
SECTION
  2
ENTITIES
  0
LINE
  5
1E6
330
1E
100
AcDbEntity
  8
0
100
AcDbLine
 10
0.6413690032403281
 20
5.119840521984916
 30
0.0
 11
0.6453062079647376
 21
5.114590915685704
 31
0.0
  0
LINE
  5
1E7
330
1E
100
AcDbEntity
  8
0
100
AcDbLine
 10
0.6413690032403281
 20
5.119840521984916
 30
0.0
 11
0.6413690032403281
 21
4.871796624347121
 31
0.0
  0
LINE
  5
1E8
330
1E
100
AcDbEntity
  8
0
100
AcDbLine
 10
2.579786129224578
 20
4.871796624347121
 30
0.0
 11
2.579786129224578
 21
5.119840521984916
 31
0.0
  0
LINE
  5
1E9
330
1E
100
AcDbEntity
  8
0
100
AcDbLine
 10
2.579786129224578
 20
5.119840521984916
 30
0.0
 11
2.575848924500169
 21
5.114590915685704
 31
0.0
  0
LINE
  5
1EA
330
1E
100
AcDbEntity
  8
0
100
AcDbLine
 10
2.577161326074973
 20
5.119840521984916
 30
0.0
 11
2.579786129224578
 21
5.119840521984916
 31
0.0
  0
LINE
  5
1EB
330
1E
100
AcDbEntity
  8
0
100
AcDbLine
 10
0.6439938063899345
 20
5.119840521984916
 30
0.0
 11
0.6413690032403281
 21
5.119840521984916
 31
0.0
  0
LINE
  5
1EC
330
1E
100
AcDbEntity
  8
0
100
AcDbLine
 10
2.342241444185209
 20
4.160474970803814
 30
0.0
 11
2.342241444185209
 21
4.144726151906175
 31
0.0
  0
LINE
  5
1ED
330
1E
100
AcDbEntity
  8
0
100
AcDbLine
 10
0.8789136882796977
 20
4.144726151906175
 30
0.0
 11
2.342241444185209
 21
4.144726151906175
 31
0.0
  0
LINE
  5
1EE
330
1E
100
AcDbEntity
  8
0
100
AcDbLine
 10
0.8789136882796977
 20
4.144726151906175
 30
0.0
 11
0.8789136882796977
 21
4.160474970803814
 31
0.0
  0
LINE
  5
1EF
330
1E
100
AcDbEntity
  8
0
100
AcDbLine
 10
2.342241444185209
 20
4.144726151906175
 30
0.0
 11
2.336991837885996
 21
4.164412175528225
 31
0.0
  0
LINE
  5
1F0
330
1E
100
AcDbEntity
  8
0
100
AcDbLine
 10
0.8841632945789106
 20
4.164412175528225
 30
0.0
 11
2.336991837885996
 21
4.164412175528225
 31
0.0
  0
LINE
  5
1F1
330
1E
100
AcDbEntity
  8
0
100
AcDbLine
 10
0.8789136882796977
 20
4.144726151906175
 30
0.0
 11
0.8841632945789106
 21
4.164412175528225
 31
0.0
  0
LINE
  5
1F2
330
1E
100
AcDbEntity
  8
0
100
AcDbLine
 10
0.8841632945789106
 20
4.165724577103026
 30
0.0
 11
0.8841632945789106
 21
4.164412175528225
 31
0.0
  0
LINE
  5
1F3
330
1E
100
AcDbEntity
  8
0
100
AcDbLine
 10
2.336991837885996
 20
4.164412175528225
 30
0.0
 11
2.336991837885996
 21
4.165724577103026
 31
0.0
  0
LINE
  5
1F4
330
1E
100
AcDbEntity
  8
0
100
AcDbLine
 10
0.6361193969411155
 20
7.530722214898302
 30
0.0
 11
0.6361193969411155
 21
5.127714931433736
 31
0.0
  0
POLYLINE
  5
1F5
330
1E
100
AcDbEntity
  8
0
100
AcDb2dPolyline
 66
     1
 10
0.0
 20
0.0
 30
0.0
  0
VERTEX
  5
98C
330
1F5
100
AcDbEntity
  8
0
100
AcDbVertex
100
AcDb2dVertex
 10
0.6361193969411155
 20
7.530722214898302
 30
0.0
  0
VERTEX
  5
98D
330
1F5
100
AcDbEntity
  8
0
100
AcDbVertex
100
AcDb2dVertex
 10
0.6413690032403281
 20
7.581905876315626
 30
0.0
  0
VERTEX
  5
98E
330
1F5
100
AcDbEntity
  8
0
100
AcDbVertex
100
AcDb2dVertex
 10
0.6571178221379661
 20
7.631777136158143
 30
0.0
  0
VERTEX
  5
98F
330
1F5
100
AcDbEntity
  8
0
100
AcDbVertex
100
AcDb2dVertex
 10
0.6807410504844225
 20
7.677711191276253
 30
0.0
  0
VERTEX
  5
990
330
1F5
100
AcDbEntity
  8
0
100
AcDbVertex
100
AcDb2dVertex
 10
0.7135510898545014
 20
7.717083238520348
 30
0.0
  0
VERTEX
  5
991
330
1F5
100
AcDbEntity
  8
0
100
AcDbVertex
100
AcDb2dVertex
 10
0.7542355386733992
 20
7.749893277890428
 30
0.0
  0
VERTEX
  5
992
330
1F5
100
AcDbEntity
  8
0
100
AcDbVertex
100
AcDb2dVertex
 10
0.8001695937915091
 20
7.774828907811688
 30
0.0
  0
VERTEX
  5
993
330
1F5
100
AcDbEntity
  8
0
100
AcDbVertex
100
AcDb2dVertex
 10
0.8487284520592258
 20
7.789265325134523
 30
0.0
  0
VERTEX
  5
994
330
1F5
100
AcDbEntity
  8
0
100
AcDbVertex
100
AcDb2dVertex
 10
0.9012245150513516
 20
7.794514931433734
 30
0.0
  0
SEQEND
  5
995
330
1F5
100
AcDbEntity
  8
0
  0
LINE
  5
200
330
1E
100
AcDbEntity
  8
0
100
AcDbLine
 10
2.319930617413556
 20
7.794514931433735
 30
0.0
 11
0.9012245150513518
 21
7.794514931433735
 31
0.0
  0
POLYLINE
  5
201
330
1E
100
AcDbEntity
  8
0
100
AcDb2dPolyline
 66
     1
 10
0.0
 20
0.0
 30
0.0
  0
VERTEX
  5
996
330
201
100
AcDbEntity
  8
0
100
AcDbVertex
100
AcDb2dVertex
 10
2.319930617413556
 20
7.794514931433734
 30
0.0
  0
VERTEX
  5
997
330
201
100
AcDbEntity
  8
0
100
AcDbVertex
100
AcDb2dVertex
 10
2.372426680405681
 20
7.789265325134523
 30
0.0
  0
VERTEX
  5
998
330
201
100
AcDbEntity
  8
0
100
AcDbVertex
100
AcDb2dVertex
 10
2.420985538673397
 20
7.774828907811688
 30
0.0
  0
VERTEX
  5
999
330
201
100
AcDbEntity
  8
0
100
AcDbVertex
100
AcDb2dVertex
 10
2.466919593791509
 20
7.749893277890428
 30
0.0
  0
VERTEX
  5
99A
330
201
100
AcDbEntity
  8
0
100
AcDbVertex
100
AcDb2dVertex
 10
2.507604042610405
 20
7.717083238520348
 30
0.0
  0
VERTEX
  5
99B
330
201
100
AcDbEntity
  8
0
100
AcDbVertex
100
AcDb2dVertex
 10
2.540414081980484
 20
7.677711191276253
 30
0.0
  0
VERTEX
  5
99C
330
201
100
AcDbEntity
  8
0
100
AcDbVertex
100
AcDb2dVertex
 10
2.56403731032694
 20
7.631777136158143
 30
0.0
  0
VERTEX
  5
99D
330
201
100
AcDbEntity
  8
0
100
AcDbVertex
100
AcDb2dVertex
 10
2.579786129224578
 20
7.581905876315626
 30
0.0
  0
VERTEX
  5
99E
330
201
100
AcDbEntity
  8
0
100
AcDbVertex
100
AcDb2dVertex
 10
2.585035735523792
 20
7.530722214898302
 30
0.0
  0
SEQEND
  5
99F
330
201
100
AcDbEntity
  8
0
  0
LINE
  5
20C
330
1E
100
AcDbEntity
  8
0
100
AcDbLine
 10
2.585035735523792
 20
5.127714931433736
 30
0.0
 11
2.585035735523792
 21
7.530722214898302
 31
0.0
  0
LINE
  5
20D
330
1E
100
AcDbEntity
  8
0
100
AcDbLine
 10
2.585035735523792
 20
7.530722214898302
 30
0.0
 11
2.52204045993324
 21
7.467726939307753
 31
0.0
  0
LINE
  5
20E
330
1E
100
AcDbEntity
  8
0
100
AcDbLine
 10
2.52204045993324
 20
7.467726939307753
 30
0.0
 11
2.52204045993324
 21
4.207721427496728
 31
0.0
  0
LINE
  5
20F
330
1E
100
AcDbEntity
  8
0
100
AcDbLine
 10
2.585035735523792
 20
4.144726151906175
 30
0.0
 11
2.52204045993324
 21
4.207721427496728
 31
0.0
  0
LINE
  5
210
330
1E
100
AcDbEntity
  8
0
100
AcDbLine
 10
2.585035735523792
 20
4.144726151906175
 30
0.0
 11
2.585035735523792
 21
4.865234616473106
 31
0.0
  0
LINE
  5
211
330
1E
100
AcDbEntity
  8
0
100
AcDbLine
 10
2.575848924500169
 20
4.875733829071529
 30
0.0
 11
2.585035735523792
 21
4.865234616473106
 31
0.0
  0
LINE
  5
212
330
1E
100
AcDbEntity
  8
0
100
AcDbLine
 10
2.575848924500169
 20
5.117215718835311
 30
0.0
 11
2.575848924500169
 21
4.875733829071529
 31
0.0
  0
LINE
  5
213
330
1E
100
AcDbEntity
  8
0
100
AcDbLine
 10
2.585035735523792
 20
5.127714931433736
 30
0.0
 11
2.575848924500169
 21
5.117215718835311
 31
0.0
  0
LINE
  5
214
330
1E
100
AcDbEntity
  8
0
100
AcDbLine
 10
2.258247743397808
 20
7.732832057417987
 30
0.0
 11
2.319930617413556
 21
7.794514931433735
 31
0.0
  0
POLYLINE
  5
215
330
1E
100
AcDbEntity
  8
0
100
AcDb2dPolyline
 66
     1
 10
0.0
 20
0.0
 30
0.0
  0
VERTEX
  5
9A0
330
215
100
AcDbEntity
  8
0
100
AcDbVertex
100
AcDb2dVertex
 10
2.258247743397808
 20
7.732832057417987
 30
0.0
  0
VERTEX
  5
9A1
330
215
100
AcDbEntity
  8
0
100
AcDbVertex
100
AcDb2dVertex
 10
2.309431404815129
 20
7.727582451118775
 30
0.0
  0
VERTEX
  5
9A2
330
215
100
AcDbEntity
  8
0
100
AcDbVertex
100
AcDb2dVertex
 10
2.35930266465765
 20
7.711833632221137
 30
0.0
  0
VERTEX
  5
9A3
330
215
100
AcDbEntity
  8
0
100
AcDbVertex
100
AcDb2dVertex
 10
2.403924318200957
 20
7.68821040387468
 30
0.0
  0
VERTEX
  5
9A4
330
215
100
AcDbEntity
  8
0
100
AcDbVertex
100
AcDb2dVertex
 10
2.444608767019855
 20
7.655400364504601
 30
0.0
  0
VERTEX
  5
9A5
330
215
100
AcDbEntity
  8
0
100
AcDbVertex
100
AcDb2dVertex
 10
2.477418806389934
 20
7.614715915685703
 30
0.0
  0
VERTEX
  5
9A6
330
215
100
AcDbEntity
  8
0
100
AcDbVertex
100
AcDb2dVertex
 10
2.502354436311193
 20
7.568781860567593
 30
0.0
  0
VERTEX
  5
9A7
330
215
100
AcDbEntity
  8
0
100
AcDbVertex
100
AcDb2dVertex
 10
2.516790853634028
 20
7.520223002299877
 30
0.0
  0
VERTEX
  5
9A8
330
215
100
AcDbEntity
  8
0
100
AcDbVertex
100
AcDb2dVertex
 10
2.52204045993324
 20
7.46772693930775
 30
0.0
  0
SEQEND
  5
9A9
330
215
100
AcDbEntity
  8
0
  0
LINE
  5
220
330
1E
100
AcDbEntity
  8
0
100
AcDbLine
 10
2.346178648909619
 20
4.144726151906175
 30
0.0
 11
2.585035735523792
 21
4.144726151906175
 31
0.0
  0
LINE
  5
221
330
1E
100
AcDbEntity
  8
0
100
AcDbLine
 10
0.6991146725316666
 20
7.467726939307753
 30
0.0
 11
0.6361193969411155
 21
7.530722214898302
 31
0.0
  0
POLYLINE
  5
222
330
1E
100
AcDbEntity
  8
0
100
AcDb2dPolyline
 66
     1
 10
0.0
 20
0.0
 30
0.0
  0
VERTEX
  5
9AA
330
222
100
AcDbEntity
  8
0
100
AcDbVertex
100
AcDb2dVertex
 10
0.6991146725316666
 20
7.46772693930775
 30
0.0
  0
VERTEX
  5
9AB
330
222
100
AcDbEntity
  8
0
100
AcDbVertex
100
AcDb2dVertex
 10
0.7043642788308792
 20
7.520223002299877
 30
0.0
  0
VERTEX
  5
9AC
330
222
100
AcDbEntity
  8
0
100
AcDbVertex
100
AcDb2dVertex
 10
0.7188006961537137
 20
7.568781860567593
 30
0.0
  0
VERTEX
  5
9AD
330
222
100
AcDbEntity
  8
0
100
AcDbVertex
100
AcDb2dVertex
 10
0.7437363260749739
 20
7.614715915685703
 30
0.0
  0
VERTEX
  5
9AE
330
222
100
AcDbEntity
  8
0
100
AcDbVertex
100
AcDb2dVertex
 10
0.7765463654450526
 20
7.655400364504601
 30
0.0
  0
VERTEX
  5
9AF
330
222
100
AcDbEntity
  8
0
100
AcDbVertex
100
AcDb2dVertex
 10
0.8172308142639501
 20
7.68821040387468
 30
0.0
  0
VERTEX
  5
9B0
330
222
100
AcDbEntity
  8
0
100
AcDbVertex
100
AcDb2dVertex
 10
0.8618524678072569
 20
7.711833632221137
 30
0.0
  0
VERTEX
  5
9B1
330
222
100
AcDbEntity
  8
0
100
AcDbVertex
100
AcDb2dVertex
 10
0.9117237276497768
 20
7.727582451118775
 30
0.0
  0
VERTEX
  5
9B2
330
222
100
AcDbEntity
  8
0
100
AcDbVertex
100
AcDb2dVertex
 10
0.9629073890670996
 20
7.732832057417987
 30
0.0
  0
SEQEND
  5
9B3
330
222
100
AcDbEntity
  8
0
  0
LINE
  5
22D
330
1E
100
AcDbEntity
  8
0
100
AcDbLine
 10
0.9012245150513518
 20
7.794514931433735
 30
0.0
 11
0.9629073890670998
 21
7.732832057417987
 31
0.0
  0
LINE
  5
22E
330
1E
100
AcDbEntity
  8
0
100
AcDbLine
 10
0.9629073890670998
 20
7.732832057417987
 30
0.0
 11
2.258247743397808
 21
7.732832057417987
 31
0.0
  0
LINE
  5
22F
330
1E
100
AcDbEntity
  8
0
100
AcDbLine
 10
0.6361193969411155
 20
5.127714931433736
 30
0.0
 11
0.6453062079647376
 21
5.117215718835311
 31
0.0
  0
LINE
  5
230
330
1E
100
AcDbEntity
  8
0
100
AcDbLine
 10
0.6453062079647376
 20
5.117215718835311
 30
0.0
 11
0.6453062079647376
 21
4.875733829071529
 31
0.0
  0
LINE
  5
231
330
1E
100
AcDbEntity
  8
0
100
AcDbLine
 10
0.6453062079647376
 20
4.875733829071529
 30
0.0
 11
0.6361193969411155
 21
4.865234616473106
 31
0.0
  0
LINE
  5
232
330
1E
100
AcDbEntity
  8
0
100
AcDbLine
 10
0.6361193969411155
 20
4.144726151906175
 30
0.0
 11
0.8749764835552888
 21
4.144726151906175
 31
0.0
  0
LINE
  5
233
330
1E
100
AcDbEntity
  8
0
100
AcDbLine
 10
0.6361193969411155
 20
4.865234616473106
 30
0.0
 11
0.6361193969411155
 21
4.144726151906175
 31
0.0
  0
LINE
  5
234
330
1E
100
AcDbEntity
  8
0
100
AcDbLine
 10
0.6361193969411155
 20
4.144726151906175
 30
0.0
 11
0.6991146725316666
 21
4.207721427496728
 31
0.0
  0
LINE
  5
235
330
1E
100
AcDbEntity
  8
0
100
AcDbLine
 10
0.6991146725316666
 20
4.207721427496728
 30
0.0
 11
0.6991146725316666
 21
7.467726939307753
 31
0.0
  0
LINE
  5
236
330
1E
100
AcDbEntity
  8
0
100
AcDbLine
 10
0.8749764835552888
 20
4.144726151906175
 30
0.0
 11
0.8802260898545013
 21
4.165724577103026
 31
0.0
  0
LINE
  5
237
330
1E
100
AcDbEntity
  8
0
100
AcDbLine
 10
0.9694693969411151
 20
4.165724577103026
 30
0.0
 11
0.8802260898545013
 21
4.165724577103026
 31
0.0
  0
LINE
  5
238
330
1E
100
AcDbEntity
  8
0
100
AcDbLine
 10
0.9694693969411151
 20
4.165724577103026
 30
0.0
 11
0.9760314048151311
 21
4.207721427496728
 31
0.0
  0
LINE
  5
239
330
1E
100
AcDbEntity
  8
0
100
AcDbLine
 10
2.250373333948989
 20
4.165724577103026
 30
0.0
 11
2.245123727649775
 21
4.207721427496728
 31
0.0
  0
LINE
  5
23A
330
1E
100
AcDbEntity
  8
0
100
AcDbLine
 10
0.8789136882796977
 20
4.218220640095153
 30
0.0
 11
2.342241444185209
 21
4.218220640095153
 31
0.0
  0
POLYLINE
  5
23B
330
1E
100
AcDbEntity
  8
0
100
AcDb2dPolyline
 66
     1
 10
0.0
 20
0.0
 30
0.0
  0
VERTEX
  5
9B4
330
23B
100
AcDbEntity
  8
0
100
AcDbVertex
100
AcDb2dVertex
 10
0.8789136882796981
 20
4.218220640095153
 30
0.0
  0
VERTEX
  5
9B5
330
23B
100
AcDbEntity
  8
0
100
AcDbVertex
100
AcDb2dVertex
 10
0.8342920347363909
 20
4.218220640095153
 30
0.0
  0
VERTEX
  5
9B6
330
23B
100
AcDbEntity
  8
0
100
AcDbVertex
100
AcDb2dVertex
 10
0.7922951843426902
 20
4.216908238520351
 30
0.0
  0
VERTEX
  5
9B7
330
23B
100
AcDbEntity
  8
0
100
AcDbVertex
100
AcDb2dVertex
 10
0.7555479402482021
 20
4.215595836945547
 30
0.0
  0
VERTEX
  5
9B8
330
23B
100
AcDbEntity
  8
0
100
AcDbVertex
100
AcDb2dVertex
 10
0.7266751056025327
 20
4.212971033795939
 30
0.0
  0
VERTEX
  5
9B9
330
23B
100
AcDbEntity
  8
0
100
AcDbVertex
100
AcDb2dVertex
 10
0.7069890819804856
 20
4.210346230646333
 30
0.0
  0
VERTEX
  5
9BA
330
23B
100
AcDbEntity
  8
0
100
AcDbVertex
100
AcDb2dVertex
 10
0.6991146725316666
 20
4.207721427496728
 30
0.0
  0
SEQEND
  5
9BB
330
23B
100
AcDbEntity
  8
0
  0
LINE
  5
244
330
1E
100
AcDbEntity
  8
0
100
AcDbLine
 10
0.9760314048151311
 20
4.207721427496728
 30
0.0
 11
2.245123727649775
 21
4.207721427496728
 31
0.0
  0
LINE
  5
245
330
1E
100
AcDbEntity
  8
0
100
AcDbLine
 10
2.340929042610405
 20
4.165724577103026
 30
0.0
 11
2.250373333948989
 21
4.165724577103026
 31
0.0
  0
LINE
  5
246
330
1E
100
AcDbEntity
  8
0
100
AcDbLine
 10
2.346178648909619
 20
4.144726151906175
 30
0.0
 11
2.340929042610405
 21
4.165724577103026
 31
0.0
  0
POLYLINE
  5
247
330
1E
100
AcDbEntity
  8
0
100
AcDb2dPolyline
 66
     1
 10
0.0
 20
0.0
 30
0.0
  0
VERTEX
  5
9BC
330
247
100
AcDbEntity
  8
0
100
AcDbVertex
100
AcDb2dVertex
 10
2.52204045993324
 20
4.207721427496728
 30
0.0
  0
VERTEX
  5
9BD
330
247
100
AcDbEntity
  8
0
100
AcDbVertex
100
AcDb2dVertex
 10
2.512853648909619
 20
4.210346230646333
 30
0.0
  0
VERTEX
  5
9BE
330
247
100
AcDbEntity
  8
0
100
AcDbVertex
100
AcDb2dVertex
 10
2.494480026862373
 20
4.212971033795939
 30
0.0
  0
VERTEX
  5
9BF
330
247
100
AcDbEntity
  8
0
100
AcDbVertex
100
AcDb2dVertex
 10
2.465607192216705
 20
4.215595836945547
 30
0.0
  0
VERTEX
  5
9C0
330
247
100
AcDbEntity
  8
0
100
AcDbVertex
100
AcDb2dVertex
 10
2.428859948122216
 20
4.216908238520351
 30
0.0
  0
VERTEX
  5
9C1
330
247
100
AcDbEntity
  8
0
100
AcDbVertex
100
AcDb2dVertex
 10
2.386863097728516
 20
4.218220640095153
 30
0.0
  0
VERTEX
  5
9C2
330
247
100
AcDbEntity
  8
0
100
AcDbVertex
100
AcDb2dVertex
 10
2.342241444185209
 20
4.218220640095153
 30
0.0
  0
SEQEND
  5
9C3
330
247
100
AcDbEntity
  8
0
  0
LINE
  5
250
330
1E
100
AcDbEntity
  8
0
100
AcDbLine
 10
1.932772152846626
 20
5.849535797575468
 30
0.0
 11
1.932772152846626
 21
5.90071945899279
 31
0.0
  0
LINE
  5
251
330
1E
100
AcDbEntity
  8
0
100
AcDbLine
 10
1.28838297961828
 20
5.849535797575468
 30
0.0
 11
1.932772152846626
 21
5.849535797575468
 31
0.0
  0
LINE
  5
252
330
1E
100
AcDbEntity
  8
0
100
AcDbLine
 10
1.28838297961828
 20
5.90071945899279
 30
0.0
 11
1.28838297961828
 21
5.849535797575468
 31
0.0
  0
LINE
  5
253
330
1E
100
AcDbEntity
  8
0
100
AcDbLine
 10
1.264759751271824
 20
5.90071945899279
 30
0.0
 11
1.28838297961828
 21
5.90071945899279
 31
0.0
  0
LINE
  5
254
330
1E
100
AcDbEntity
  8
0
100
AcDbLine
 10
1.264759751271824
 20
6.042458829071531
 30
0.0
 11
1.264759751271824
 21
5.90071945899279
 31
0.0
  0
LINE
  5
255
330
1E
100
AcDbEntity
  8
0
100
AcDbLine
 10
1.28838297961828
 20
6.042458829071531
 30
0.0
 11
1.264759751271824
 21
6.042458829071531
 31
0.0
  0
LINE
  5
256
330
1E
100
AcDbEntity
  8
0
100
AcDbLine
 10
1.28838297961828
 20
6.093642490488852
 30
0.0
 11
1.28838297961828
 21
6.042458829071531
 31
0.0
  0
LINE
  5
257
330
1E
100
AcDbEntity
  8
0
100
AcDbLine
 10
1.932772152846626
 20
6.093642490488852
 30
0.0
 11
1.28838297961828
 21
6.093642490488852
 31
0.0
  0
LINE
  5
258
330
1E
100
AcDbEntity
  8
0
100
AcDbLine
 10
1.932772152846626
 20
6.042458829071531
 30
0.0
 11
1.932772152846626
 21
6.093642490488852
 31
0.0
  0
LINE
  5
259
330
1E
100
AcDbEntity
  8
0
100
AcDbLine
 10
1.956395381193082
 20
6.042458829071531
 30
0.0
 11
1.932772152846626
 21
6.042458829071531
 31
0.0
  0
LINE
  5
25A
330
1E
100
AcDbEntity
  8
0
100
AcDbLine
 10
1.956395381193082
 20
5.90071945899279
 30
0.0
 11
1.956395381193082
 21
6.042458829071531
 31
0.0
  0
LINE
  5
25B
330
1E
100
AcDbEntity
  8
0
100
AcDbLine
 10
1.932772152846626
 20
5.90071945899279
 30
0.0
 11
1.956395381193082
 21
5.90071945899279
 31
0.0
  0
LINE
  5
25C
330
1E
100
AcDbEntity
  8
0
100
AcDbLine
 10
2.250373333948989
 20
4.917730679465231
 30
0.0
 11
2.250373333948989
 21
4.968914340882553
 31
0.0
  0
LINE
  5
25D
330
1E
100
AcDbEntity
  8
0
100
AcDbLine
 10
0.9707817985159184
 20
4.917730679465231
 30
0.0
 11
2.250373333948989
 21
4.917730679465231
 31
0.0
  0
LINE
  5
25E
330
1E
100
AcDbEntity
  8
0
100
AcDbLine
 10
0.9707817985159184
 20
4.968914340882553
 30
0.0
 11
0.9707817985159184
 21
4.917730679465231
 31
0.0
  0
LINE
  5
25F
330
1E
100
AcDbEntity
  8
0
100
AcDbLine
 10
0.9471585701694618
 20
4.968914340882553
 30
0.0
 11
0.9707817985159184
 21
4.968914340882553
 31
0.0
  0
LINE
  5
260
330
1E
100
AcDbEntity
  8
0
100
AcDbLine
 10
0.9471585701694618
 20
4.968914340882553
 30
0.0
 11
0.9471585701694618
 21
5.111966112536098
 31
0.0
  0
LINE
  5
261
330
1E
100
AcDbEntity
  8
0
100
AcDbLine
 10
0.9707817985159184
 20
5.111966112536098
 30
0.0
 11
0.9471585701694618
 21
5.111966112536098
 31
0.0
  0
LINE
  5
262
330
1E
100
AcDbEntity
  8
0
100
AcDbLine
 10
0.9707817985159184
 20
5.163149773953421
 30
0.0
 11
0.9707817985159184
 21
5.111966112536098
 31
0.0
  0
LINE
  5
263
330
1E
100
AcDbEntity
  8
0
100
AcDbLine
 10
2.250373333948989
 20
5.163149773953421
 30
0.0
 11
0.9707817985159184
 21
5.163149773953421
 31
0.0
  0
LINE
  5
264
330
1E
100
AcDbEntity
  8
0
100
AcDbLine
 10
2.250373333948989
 20
5.111966112536098
 30
0.0
 11
2.250373333948989
 21
5.163149773953421
 31
0.0
  0
LINE
  5
265
330
1E
100
AcDbEntity
  8
0
100
AcDbLine
 10
2.273996562295445
 20
5.111966112536098
 30
0.0
 11
2.250373333948989
 21
5.111966112536098
 31
0.0
  0
LINE
  5
266
330
1E
100
AcDbEntity
  8
0
100
AcDbLine
 10
2.273996562295445
 20
4.968914340882553
 30
0.0
 11
2.273996562295445
 21
5.111966112536098
 31
0.0
  0
LINE
  5
267
330
1E
100
AcDbEntity
  8
0
100
AcDbLine
 10
2.250373333948989
 20
4.968914340882553
 30
0.0
 11
2.273996562295445
 21
4.968914340882553
 31
0.0
  0
POLYLINE
  5
268
330
1E
100
AcDbEntity
  8
0
100
AcDb2dPolyline
 66
     1
 10
0.0
 20
0.0
 30
0.0
  0
VERTEX
  5
9C4
330
268
100
AcDbEntity
  8
0
100
AcDbVertex
100
AcDb2dVertex
 10
0.9629073890670996
 20
7.553033041669956
 30
0.0
  0
VERTEX
  5
9C5
330
268
100
AcDbEntity
  8
0
100
AcDbVertex
100
AcDb2dVertex
 10
0.9300973496970208
 20
7.54647103379594
 30
0.0
  0
VERTEX
  5
9C6
330
268
100
AcDbEntity
  8
0
100
AcDbVertex
100
AcDb2dVertex
 10
0.9038493182009579
 20
7.528097411748695
 30
0.0
  0
VERTEX
  5
9C7
330
268
100
AcDbEntity
  8
0
100
AcDbVertex
100
AcDb2dVertex
 10
0.8854756961537136
 20
7.500536978677829
 30
0.0
  0
VERTEX
  5
9C8
330
268
100
AcDbEntity
  8
0
100
AcDbVertex
100
AcDb2dVertex
 10
0.8789136882796981
 20
7.46772693930775
 30
0.0
  0
SEQEND
  5
9C9
330
268
100
AcDbEntity
  8
0
  0
LINE
  5
26F
330
1E
100
AcDbEntity
  8
0
100
AcDbLine
 10
0.8789136882796977
 20
7.467726939307753
 30
0.0
 11
0.8789136882796977
 21
4.218220640095153
 31
0.0
  0
LINE
  5
270
330
1E
100
AcDbEntity
  8
0
100
AcDbLine
 10
2.342241444185209
 20
4.218220640095153
 30
0.0
 11
2.342241444185209
 21
7.467726939307753
 31
0.0
  0
POLYLINE
  5
271
330
1E
100
AcDbEntity
  8
0
100
AcDb2dPolyline
 66
     1
 10
0.0
 20
0.0
 30
0.0
  0
VERTEX
  5
9CA
330
271
100
AcDbEntity
  8
0
100
AcDbVertex
100
AcDb2dVertex
 10
2.342241444185209
 20
7.46772693930775
 30
0.0
  0
VERTEX
  5
9CB
330
271
100
AcDbEntity
  8
0
100
AcDbVertex
100
AcDb2dVertex
 10
2.335679436311193
 20
7.500536978677829
 30
0.0
  0
VERTEX
  5
9CC
330
271
100
AcDbEntity
  8
0
100
AcDbVertex
100
AcDb2dVertex
 10
2.317305814263948
 20
7.528097411748695
 30
0.0
  0
VERTEX
  5
9CD
330
271
100
AcDbEntity
  8
0
100
AcDbVertex
100
AcDb2dVertex
 10
2.289745381193084
 20
7.54647103379594
 30
0.0
  0
VERTEX
  5
9CE
330
271
100
AcDbEntity
  8
0
100
AcDbVertex
100
AcDb2dVertex
 10
2.258247743397808
 20
7.553033041669956
 30
0.0
  0
SEQEND
  5
9CF
330
271
100
AcDbEntity
  8
0
  0
LINE
  5
278
330
1E
100
AcDbEntity
  8
0
100
AcDbLine
 10
2.258247743397808
 20
7.553033041669956
 30
0.0
 11
0.9629073890670998
 21
7.553033041669956
 31
0.0
  0
POLYLINE
  5
279
330
1E
100
AcDbEntity
  8
0
100
AcDb2dPolyline
 66
     1
 10
0.0
 20
0.0
 30
0.0
  0
VERTEX
  5
9D0
330
279
100
AcDbEntity
  8
0
100
AcDbVertex
100
AcDb2dVertex
 10
1.964269790641901
 20
5.041096427496728
 30
0.0
  0
VERTEX
  5
9D1
330
279
100
AcDbEntity
  8
0
100
AcDbVertex
100
AcDb2dVertex
 10
1.959020184342689
 20
5.060782451118775
 30
0.0
  0
VERTEX
  5
9D2
330
279
100
AcDbEntity
  8
0
100
AcDbVertex
100
AcDb2dVertex
 10
1.943271365445051
 20
5.073906466866806
 30
0.0
  0
VERTEX
  5
9D3
330
279
100
AcDbEntity
  8
0
100
AcDbVertex
100
AcDb2dVertex
 10
1.922272940248201
 20
5.076531270016412
 30
0.0
  0
VERTEX
  5
9D4
330
279
100
AcDbEntity
  8
0
100
AcDbVertex
100
AcDb2dVertex
 10
1.903899318200956
 20
5.068656860567593
 30
0.0
  0
VERTEX
  5
9D5
330
279
100
AcDbEntity
  8
0
100
AcDbVertex
100
AcDb2dVertex
 10
1.893400105602531
 20
5.050283238520349
 30
0.0
  0
VERTEX
  5
9D6
330
279
100
AcDbEntity
  8
0
100
AcDbVertex
100
AcDb2dVertex
 10
1.893400105602531
 20
5.030597214898302
 30
0.0
  0
VERTEX
  5
9D7
330
279
100
AcDbEntity
  8
0
100
AcDbVertex
100
AcDb2dVertex
 10
1.903899318200956
 20
5.012223592851058
 30
0.0
  0
VERTEX
  5
9D8
330
279
100
AcDbEntity
  8
0
100
AcDbVertex
100
AcDb2dVertex
 10
1.922272940248201
 20
5.00434918340224
 30
0.0
  0
VERTEX
  5
9D9
330
279
100
AcDbEntity
  8
0
100
AcDbVertex
100
AcDb2dVertex
 10
1.943271365445051
 20
5.006973986551844
 30
0.0
  0
VERTEX
  5
9DA
330
279
100
AcDbEntity
  8
0
100
AcDbVertex
100
AcDb2dVertex
 10
1.959020184342689
 20
5.020098002299877
 30
0.0
  0
VERTEX
  5
9DB
330
279
100
AcDbEntity
  8
0
100
AcDbVertex
100
AcDb2dVertex
 10
1.964269790641901
 20
5.041096427496728
 30
0.0
  0
SEQEND
  5
9DC
330
279
100
AcDbEntity
  8
0
  0
POLYLINE
  5
287
330
1E
100
AcDbEntity
  8
0
100
AcDb2dPolyline
 66
     1
 10
0.0
 20
0.0
 30
0.0
  0
VERTEX
  5
9DD
330
287
100
AcDbEntity
  8
0
100
AcDbVertex
100
AcDb2dVertex
 10
1.964269790641901
 20
5.041096427496728
 30
0.0
  0
VERTEX
  5
9DE
330
287
100
AcDbEntity
  8
0
100
AcDbVertex
100
AcDb2dVertex
 10
1.957707782767885
 20
5.059470049543971
 30
0.0
  0
VERTEX
  5
9DF
330
287
100
AcDbEntity
  8
0
100
AcDbVertex
100
AcDb2dVertex
 10
1.943271365445051
 20
5.073906466866806
 30
0.0
  0
VERTEX
  5
9E0
330
287
100
AcDbEntity
  8
0
100
AcDbVertex
100
AcDb2dVertex
 10
1.922272940248201
 20
5.076531270016412
 30
0.0
  0
VERTEX
  5
9E1
330
287
100
AcDbEntity
  8
0
100
AcDbVertex
100
AcDb2dVertex
 10
1.903899318200956
 20
5.06734445899279
 30
0.0
  0
VERTEX
  5
9E2
330
287
100
AcDbEntity
  8
0
100
AcDbVertex
100
AcDb2dVertex
 10
1.893400105602531
 20
5.050283238520349
 30
0.0
  0
VERTEX
  5
9E3
330
287
100
AcDbEntity
  8
0
100
AcDbVertex
100
AcDb2dVertex
 10
1.893400105602531
 20
5.030597214898302
 30
0.0
  0
VERTEX
  5
9E4
330
287
100
AcDbEntity
  8
0
100
AcDbVertex
100
AcDb2dVertex
 10
1.903899318200956
 20
5.013535994425862
 30
0.0
  0
VERTEX
  5
9E5
330
287
100
AcDbEntity
  8
0
100
AcDbVertex
100
AcDb2dVertex
 10
1.922272940248201
 20
5.00434918340224
 30
0.0
  0
VERTEX
  5
9E6
330
287
100
AcDbEntity
  8
0
100
AcDbVertex
100
AcDb2dVertex
 10
1.943271365445051
 20
5.008286388126649
 30
0.0
  0
VERTEX
  5
9E7
330
287
100
AcDbEntity
  8
0
100
AcDbVertex
100
AcDb2dVertex
 10
1.957707782767885
 20
5.021410403874679
 30
0.0
  0
VERTEX
  5
9E8
330
287
100
AcDbEntity
  8
0
100
AcDbVertex
100
AcDb2dVertex
 10
1.964269790641901
 20
5.041096427496728
 30
0.0
  0
SEQEND
  5
9E9
330
287
100
AcDbEntity
  8
0
  0
POLYLINE
  5
295
330
1E
100
AcDbEntity
  8
0
100
AcDb2dPolyline
 66
     1
 10
0.0
 20
0.0
 30
0.0
  0
VERTEX
  5
9EA
330
295
100
AcDbEntity
  8
0
100
AcDbVertex
100
AcDb2dVertex
 10
1.329067428437177
 20
5.041096427496728
 30
0.0
  0
VERTEX
  5
9EB
330
295
100
AcDbEntity
  8
0
100
AcDbVertex
100
AcDb2dVertex
 10
1.323817822137965
 20
5.060782451118775
 30
0.0
  0
VERTEX
  5
9EC
330
295
100
AcDbEntity
  8
0
100
AcDbVertex
100
AcDb2dVertex
 10
1.308069003240327
 20
5.073906466866806
 30
0.0
  0
VERTEX
  5
9ED
330
295
100
AcDbEntity
  8
0
100
AcDbVertex
100
AcDb2dVertex
 10
1.28838297961828
 20
5.076531270016412
 30
0.0
  0
VERTEX
  5
9EE
330
295
100
AcDbEntity
  8
0
100
AcDbVertex
100
AcDb2dVertex
 10
1.268696955996232
 20
5.068656860567593
 30
0.0
  0
VERTEX
  5
9EF
330
295
100
AcDbEntity
  8
0
100
AcDbVertex
100
AcDb2dVertex
 10
1.258197743397807
 20
5.050283238520349
 30
0.0
  0
VERTEX
  5
9F0
330
295
100
AcDbEntity
  8
0
100
AcDbVertex
100
AcDb2dVertex
 10
1.258197743397807
 20
5.030597214898302
 30
0.0
  0
VERTEX
  5
9F1
330
295
100
AcDbEntity
  8
0
100
AcDbVertex
100
AcDb2dVertex
 10
1.268696955996232
 20
5.012223592851058
 30
0.0
  0
VERTEX
  5
9F2
330
295
100
AcDbEntity
  8
0
100
AcDbVertex
100
AcDb2dVertex
 10
1.28838297961828
 20
5.00434918340224
 30
0.0
  0
VERTEX
  5
9F3
330
295
100
AcDbEntity
  8
0
100
AcDbVertex
100
AcDb2dVertex
 10
1.308069003240327
 20
5.006973986551844
 30
0.0
  0
VERTEX
  5
9F4
330
295
100
AcDbEntity
  8
0
100
AcDbVertex
100
AcDb2dVertex
 10
1.323817822137965
 20
5.020098002299877
 30
0.0
  0
VERTEX
  5
9F5
330
295
100
AcDbEntity
  8
0
100
AcDbVertex
100
AcDb2dVertex
 10
1.329067428437177
 20
5.041096427496728
 30
0.0
  0
SEQEND
  5
9F6
330
295
100
AcDbEntity
  8
0
  0
POLYLINE
  5
2A3
330
1E
100
AcDbEntity
  8
0
100
AcDb2dPolyline
 66
     1
 10
0.0
 20
0.0
 30
0.0
  0
VERTEX
  5
9F7
330
2A3
100
AcDbEntity
  8
0
100
AcDbVertex
100
AcDb2dVertex
 10
1.329067428437177
 20
5.041096427496728
 30
0.0
  0
VERTEX
  5
9F8
330
2A3
100
AcDbEntity
  8
0
100
AcDbVertex
100
AcDb2dVertex
 10
1.323817822137965
 20
5.059470049543971
 30
0.0
  0
VERTEX
  5
9F9
330
2A3
100
AcDbEntity
  8
0
100
AcDbVertex
100
AcDb2dVertex
 10
1.308069003240327
 20
5.073906466866806
 30
0.0
  0
VERTEX
  5
9FA
330
2A3
100
AcDbEntity
  8
0
100
AcDbVertex
100
AcDb2dVertex
 10
1.28838297961828
 20
5.076531270016412
 30
0.0
  0
VERTEX
  5
9FB
330
2A3
100
AcDbEntity
  8
0
100
AcDbVertex
100
AcDb2dVertex
 10
1.270009357571035
 20
5.06734445899279
 30
0.0
  0
VERTEX
  5
9FC
330
2A3
100
AcDbEntity
  8
0
100
AcDbVertex
100
AcDb2dVertex
 10
1.258197743397807
 20
5.050283238520349
 30
0.0
  0
VERTEX
  5
9FD
330
2A3
100
AcDbEntity
  8
0
100
AcDbVertex
100
AcDb2dVertex
 10
1.258197743397807
 20
5.030597214898302
 30
0.0
  0
VERTEX
  5
9FE
330
2A3
100
AcDbEntity
  8
0
100
AcDbVertex
100
AcDb2dVertex
 10
1.270009357571035
 20
5.013535994425862
 30
0.0
  0
VERTEX
  5
9FF
330
2A3
100
AcDbEntity
  8
0
100
AcDbVertex
100
AcDb2dVertex
 10
1.28838297961828
 20
5.00434918340224
 30
0.0
  0
VERTEX
  5
A00
330
2A3
100
AcDbEntity
  8
0
100
AcDbVertex
100
AcDb2dVertex
 10
1.308069003240327
 20
5.008286388126649
 30
0.0
  0
VERTEX
  5
A01
330
2A3
100
AcDbEntity
  8
0
100
AcDbVertex
100
AcDb2dVertex
 10
1.323817822137965
 20
5.021410403874679
 30
0.0
  0
VERTEX
  5
A02
330
2A3
100
AcDbEntity
  8
0
100
AcDbVertex
100
AcDb2dVertex
 10
1.329067428437177
 20
5.041096427496728
 30
0.0
  0
SEQEND
  5
A03
330
2A3
100
AcDbEntity
  8
0
  0
LINE
  5
2B1
330
1E
100
AcDbEntity
  8
0
100
AcDbLine
 10
2.249060932374185
 20
5.110653710961294
 30
0.0
 11
2.273996562295445
 21
5.110653710961294
 31
0.0
  0
LINE
  5
2B2
330
1E
100
AcDbEntity
  8
0
100
AcDbLine
 10
2.249060932374185
 20
5.161837372378617
 30
0.0
 11
2.249060932374185
 21
5.110653710961294
 31
0.0
  0
LINE
  5
2B3
330
1E
100
AcDbEntity
  8
0
100
AcDbLine
 10
0.9720942000907214
 20
5.110653710961294
 30
0.0
 11
0.9720942000907214
 21
5.161837372378617
 31
0.0
  0
LINE
  5
2B4
330
1E
100
AcDbEntity
  8
0
100
AcDbLine
 10
0.9720942000907214
 20
5.110653710961294
 30
0.0
 11
0.9471585701694618
 21
5.110653710961294
 31
0.0
  0
LINE
  5
2B5
330
1E
100
AcDbEntity
  8
0
100
AcDbLine
 10
1.956395381193082
 20
5.902031860567593
 30
0.0
 11
1.956395381193082
 21
5.90071945899279
 31
0.0
  0
LINE
  5
2B6
330
1E
100
AcDbEntity
  8
0
100
AcDbLine
 10
1.956395381193082
 20
5.902031860567593
 30
0.0
 11
1.931459751271823
 21
5.902031860567593
 31
0.0
  0
LINE
  5
2B7
330
1E
100
AcDbEntity
  8
0
100
AcDbLine
 10
1.931459751271823
 20
5.902031860567593
 30
0.0
 11
1.932772152846626
 21
5.90071945899279
 31
0.0
  0
LINE
  5
2B8
330
1E
100
AcDbEntity
  8
0
100
AcDbLine
 10
1.956395381193082
 20
6.041146427496728
 30
0.0
 11
1.931459751271823
 21
6.041146427496728
 31
0.0
  0
LINE
  5
2B9
330
1E
100
AcDbEntity
  8
0
100
AcDbLine
 10
1.956395381193082
 20
6.041146427496728
 30
0.0
 11
1.956395381193082
 21
6.042458829071531
 31
0.0
  0
LINE
  5
2BA
330
1E
100
AcDbEntity
  8
0
100
AcDbLine
 10
1.931459751271823
 20
6.041146427496728
 30
0.0
 11
1.932772152846626
 21
6.042458829071531
 31
0.0
  0
LINE
  5
2BB
330
1E
100
AcDbEntity
  8
0
100
AcDbLine
 10
1.931459751271823
 20
6.041146427496728
 30
0.0
 11
1.931459751271823
 21
6.093642490488852
 31
0.0
  0
LINE
  5
2BC
330
1E
100
AcDbEntity
  8
0
100
AcDbLine
 10
1.931459751271823
 20
6.093642490488852
 30
0.0
 11
1.932772152846626
 21
6.093642490488852
 31
0.0
  0
LINE
  5
2BD
330
1E
100
AcDbEntity
  8
0
100
AcDbLine
 10
1.289695381193083
 20
6.093642490488852
 30
0.0
 11
1.289695381193083
 21
6.041146427496728
 31
0.0
  0
LINE
  5
2BE
330
1E
100
AcDbEntity
  8
0
100
AcDbLine
 10
1.289695381193083
 20
6.093642490488852
 30
0.0
 11
1.28838297961828
 21
6.093642490488852
 31
0.0
  0
LINE
  5
2BF
330
1E
100
AcDbEntity
  8
0
100
AcDbLine
 10
1.289695381193083
 20
6.041146427496728
 30
0.0
 11
1.28838297961828
 21
6.042458829071531
 31
0.0
  0
LINE
  5
2C0
330
1E
100
AcDbEntity
  8
0
100
AcDbLine
 10
1.289695381193083
 20
6.041146427496728
 30
0.0
 11
1.264759751271824
 21
6.041146427496728
 31
0.0
  0
LINE
  5
2C1
330
1E
100
AcDbEntity
  8
0
100
AcDbLine
 10
1.264759751271824
 20
6.041146427496728
 30
0.0
 11
1.264759751271824
 21
6.042458829071531
 31
0.0
  0
LINE
  5
2C2
330
1E
100
AcDbEntity
  8
0
100
AcDbLine
 10
1.264759751271824
 20
5.902031860567593
 30
0.0
 11
1.289695381193083
 21
5.902031860567593
 31
0.0
  0
LINE
  5
2C3
330
1E
100
AcDbEntity
  8
0
100
AcDbLine
 10
1.264759751271824
 20
5.902031860567593
 30
0.0
 11
1.264759751271824
 21
5.90071945899279
 31
0.0
  0
LINE
  5
2C4
330
1E
100
AcDbEntity
  8
0
100
AcDbLine
 10
1.289695381193083
 20
5.902031860567593
 30
0.0
 11
1.28838297961828
 21
5.90071945899279
 31
0.0
  0
LINE
  5
2C5
330
1E
100
AcDbEntity
  8
0
100
AcDbLine
 10
1.289695381193083
 20
5.902031860567593
 30
0.0
 11
1.289695381193083
 21
5.849535797575468
 31
0.0
  0
LINE
  5
2C6
330
1E
100
AcDbEntity
  8
0
100
AcDbLine
 10
1.289695381193083
 20
5.849535797575468
 30
0.0
 11
1.28838297961828
 21
5.849535797575468
 31
0.0
  0
LINE
  5
2C7
330
1E
100
AcDbEntity
  8
0
100
AcDbLine
 10
1.931459751271823
 20
5.902031860567593
 30
0.0
 11
1.931459751271823
 21
5.849535797575468
 31
0.0
  0
LINE
  5
2C8
330
1E
100
AcDbEntity
  8
0
100
AcDbLine
 10
1.931459751271823
 20
5.849535797575468
 30
0.0
 11
1.932772152846626
 21
5.849535797575468
 31
0.0
  0
LINE
  5
2C9
330
1E
100
AcDbEntity
  8
0
100
AcDbLine
 10
2.249060932374185
 20
4.970226742457358
 30
0.0
 11
2.273996562295445
 21
4.970226742457358
 31
0.0
  0
LINE
  5
2CA
330
1E
100
AcDbEntity
  8
0
100
AcDbLine
 10
2.250373333948989
 20
4.968914340882553
 30
0.0
 11
2.249060932374185
 21
4.970226742457358
 31
0.0
  0
LINE
  5
2CB
330
1E
100
AcDbEntity
  8
0
100
AcDbLine
 10
2.273996562295445
 20
4.968914340882553
 30
0.0
 11
2.273996562295445
 21
4.970226742457358
 31
0.0
  0
LINE
  5
2CC
330
1E
100
AcDbEntity
  8
0
100
AcDbLine
 10
2.273996562295445
 20
5.110653710961294
 30
0.0
 11
2.273996562295445
 21
5.111966112536098
 31
0.0
  0
LINE
  5
2CD
330
1E
100
AcDbEntity
  8
0
100
AcDbLine
 10
2.272684160720642
 20
5.108028907811688
 30
0.0
 11
2.273996562295445
 21
5.110653710961294
 31
0.0
  0
LINE
  5
2CE
330
1E
100
AcDbEntity
  8
0
100
AcDbLine
 10
2.272684160720642
 20
4.972851545606963
 30
0.0
 11
2.272684160720642
 21
5.108028907811688
 31
0.0
  0
LINE
  5
2CF
330
1E
100
AcDbEntity
  8
0
100
AcDbLine
 10
2.273996562295445
 20
4.970226742457358
 30
0.0
 11
2.272684160720642
 21
4.972851545606963
 31
0.0
  0
LINE
  5
2D0
330
1E
100
AcDbEntity
  8
0
100
AcDbLine
 10
2.249060932374185
 20
5.110653710961294
 30
0.0
 11
2.250373333948989
 21
5.111966112536098
 31
0.0
  0
LINE
  5
2D1
330
1E
100
AcDbEntity
  8
0
100
AcDbLine
 10
2.250373333948989
 20
5.163149773953421
 30
0.0
 11
2.249060932374185
 21
5.161837372378617
 31
0.0
  0
LINE
  5
2D2
330
1E
100
AcDbEntity
  8
0
100
AcDbLine
 10
0.9747190032403278
 20
5.161837372378617
 30
0.0
 11
2.246436129224579
 21
5.161837372378617
 31
0.0
  0
LINE
  5
2D3
330
1E
100
AcDbEntity
  8
0
100
AcDbLine
 10
2.249060932374185
 20
5.161837372378617
 30
0.0
 11
2.246436129224579
 21
5.161837372378617
 31
0.0
  0
LINE
  5
2D4
330
1E
100
AcDbEntity
  8
0
100
AcDbLine
 10
0.9707817985159184
 20
5.163149773953421
 30
0.0
 11
0.9720942000907214
 21
5.161837372378617
 31
0.0
  0
LINE
  5
2D5
330
1E
100
AcDbEntity
  8
0
100
AcDbLine
 10
0.9720942000907214
 20
5.161837372378617
 30
0.0
 11
0.9747190032403278
 21
5.161837372378617
 31
0.0
  0
LINE
  5
2D6
330
1E
100
AcDbEntity
  8
0
100
AcDbLine
 10
0.9707817985159184
 20
5.111966112536098
 30
0.0
 11
0.9720942000907214
 21
5.110653710961294
 31
0.0
  0
LINE
  5
2D7
330
1E
100
AcDbEntity
  8
0
100
AcDbLine
 10
0.9471585701694618
 20
5.111966112536098
 30
0.0
 11
0.9471585701694618
 21
5.110653710961294
 31
0.0
  0
LINE
  5
2D8
330
1E
100
AcDbEntity
  8
0
100
AcDbLine
 10
0.9471585701694618
 20
4.968914340882553
 30
0.0
 11
0.9471585701694618
 21
4.970226742457358
 31
0.0
  0
LINE
  5
2D9
330
1E
100
AcDbEntity
  8
0
100
AcDbLine
 10
0.9471585701694618
 20
4.970226742457358
 30
0.0
 11
0.9484709717442648
 21
4.972851545606963
 31
0.0
  0
LINE
  5
2DA
330
1E
100
AcDbEntity
  8
0
100
AcDbLine
 10
0.9484709717442648
 20
5.108028907811688
 30
0.0
 11
0.9484709717442648
 21
4.972851545606963
 31
0.0
  0
LINE
  5
2DB
330
1E
100
AcDbEntity
  8
0
100
AcDbLine
 10
0.9471585701694618
 20
5.110653710961294
 30
0.0
 11
0.9484709717442648
 21
5.108028907811688
 31
0.0
  0
LINE
  5
2DC
330
1E
100
AcDbEntity
  8
0
100
AcDbLine
 10
0.9720942000907214
 20
4.970226742457358
 30
0.0
 11
0.9707817985159184
 21
4.968914340882553
 31
0.0
  0
LINE
  5
2DD
330
1E
100
AcDbEntity
  8
0
100
AcDbLine
 10
0.9720942000907214
 20
4.970226742457358
 30
0.0
 11
0.9471585701694618
 21
4.970226742457358
 31
0.0
  0
LINE
  5
2DE
330
1E
100
AcDbEntity
  8
0
100
AcDbLine
 10
0.9707817985159184
 20
4.917730679465231
 30
0.0
 11
0.9720942000907214
 21
4.919043081040034
 31
0.0
  0
LINE
  5
2DF
330
1E
100
AcDbEntity
  8
0
100
AcDbLine
 10
0.9720942000907214
 20
4.919043081040034
 30
0.0
 11
0.9720942000907214
 21
4.970226742457358
 31
0.0
  0
LINE
  5
2E0
330
1E
100
AcDbEntity
  8
0
100
AcDbLine
 10
2.249060932374185
 20
4.970226742457358
 30
0.0
 11
2.249060932374185
 21
4.919043081040034
 31
0.0
  0
LINE
  5
2E1
330
1E
100
AcDbEntity
  8
0
100
AcDbLine
 10
2.250373333948989
 20
4.917730679465231
 30
0.0
 11
2.249060932374185
 21
4.919043081040034
 31
0.0
  0
LINE
  5
2E2
330
1E
100
AcDbEntity
  8
0
100
AcDbLine
 10
1.266072152846626
 20
5.903344262142397
 30
0.0
 11
1.264759751271824
 21
5.902031860567593
 31
0.0
  0
LINE
  5
2E3
330
1E
100
AcDbEntity
  8
0
100
AcDbLine
 10
1.266072152846626
 20
6.039834025921924
 30
0.0
 11
1.266072152846626
 21
5.903344262142397
 31
0.0
  0
LINE
  5
2E4
330
1E
100
AcDbEntity
  8
0
100
AcDbLine
 10
1.266072152846626
 20
6.039834025921924
 30
0.0
 11
1.264759751271824
 21
6.041146427496728
 31
0.0
  0
LINE
  5
2E5
330
1E
100
AcDbEntity
  8
0
100
AcDbLine
 10
1.928834948122216
 20
5.850848199150271
 30
0.0
 11
1.931459751271823
 21
5.849535797575468
 31
0.0
  0
LINE
  5
2E6
330
1E
100
AcDbEntity
  8
0
100
AcDbLine
 10
1.292320184342689
 20
5.850848199150271
 30
0.0
 11
1.928834948122216
 21
5.850848199150271
 31
0.0
  0
LINE
  5
2E7
330
1E
100
AcDbEntity
  8
0
100
AcDbLine
 10
1.292320184342689
 20
5.850848199150271
 30
0.0
 11
1.289695381193083
 21
5.849535797575468
 31
0.0
  0
LINE
  5
2E8
330
1E
100
AcDbEntity
  8
0
100
AcDbLine
 10
1.955082979618279
 20
6.039834025921924
 30
0.0
 11
1.956395381193082
 21
6.041146427496728
 31
0.0
  0
LINE
  5
2E9
330
1E
100
AcDbEntity
  8
0
100
AcDbLine
 10
1.955082979618279
 20
5.903344262142397
 30
0.0
 11
1.955082979618279
 21
6.039834025921924
 31
0.0
  0
LINE
  5
2EA
330
1E
100
AcDbEntity
  8
0
100
AcDbLine
 10
1.955082979618279
 20
5.903344262142397
 30
0.0
 11
1.956395381193082
 21
5.902031860567593
 31
0.0
  0
LINE
  5
2EB
330
1E
100
AcDbEntity
  8
0
100
AcDbLine
 10
1.928834948122216
 20
6.09233008891405
 30
0.0
 11
1.292320184342689
 21
6.09233008891405
 31
0.0
  0
LINE
  5
2EC
330
1E
100
AcDbEntity
  8
0
100
AcDbLine
 10
1.928834948122216
 20
6.09233008891405
 30
0.0
 11
1.931459751271823
 21
6.093642490488852
 31
0.0
  0
LINE
  5
2ED
330
1E
100
AcDbEntity
  8
0
100
AcDbLine
 10
1.292320184342689
 20
6.09233008891405
 30
0.0
 11
1.289695381193083
 21
6.093642490488852
 31
0.0
  0
LINE
  5
2EE
330
1E
100
AcDbEntity
  8
0
100
AcDbLine
 10
2.249060932374185
 20
4.919043081040034
 30
0.0
 11
2.246436129224579
 21
4.919043081040034
 31
0.0
  0
LINE
  5
2EF
330
1E
100
AcDbEntity
  8
0
100
AcDbLine
 10
2.246436129224579
 20
4.919043081040034
 30
0.0
 11
0.9747190032403278
 21
4.919043081040034
 31
0.0
  0
LINE
  5
2F0
330
1E
100
AcDbEntity
  8
0
100
AcDbLine
 10
0.9720942000907214
 20
4.919043081040034
 30
0.0
 11
0.9747190032403278
 21
4.919043081040034
 31
0.0
  0
LINE
  5
2F1
330
1E
100
AcDbEntity
  8
0
100
AcDbLine
 10
0.9747190032403278
 20
4.972851545606963
 30
0.0
 11
0.9747190032403278
 21
4.919043081040034
 31
0.0
  0
LINE
  5
2F2
330
1E
100
AcDbEntity
  8
0
100
AcDbLine
 10
2.246436129224579
 20
4.919043081040034
 30
0.0
 11
2.246436129224579
 21
4.972851545606963
 31
0.0
  0
LINE
  5
2F3
330
1E
100
AcDbEntity
  8
0
100
AcDbLine
 10
2.272684160720642
 20
4.972851545606963
 30
0.0
 11
2.246436129224579
 21
4.972851545606963
 31
0.0
  0
LINE
  5
2F4
330
1E
100
AcDbEntity
  8
0
100
AcDbLine
 10
2.272684160720642
 20
5.108028907811688
 30
0.0
 11
2.246436129224579
 21
5.108028907811688
 31
0.0
  0
LINE
  5
2F5
330
1E
100
AcDbEntity
  8
0
100
AcDbLine
 10
2.246436129224579
 20
5.108028907811688
 30
0.0
 11
2.246436129224579
 21
5.161837372378617
 31
0.0
  0
LINE
  5
2F6
330
1E
100
AcDbEntity
  8
0
100
AcDbLine
 10
0.9747190032403278
 20
5.161837372378617
 30
0.0
 11
0.9747190032403278
 21
5.108028907811688
 31
0.0
  0
LINE
  5
2F7
330
1E
100
AcDbEntity
  8
0
100
AcDbLine
 10
0.9747190032403278
 20
5.108028907811688
 30
0.0
 11
0.9484709717442648
 21
5.108028907811688
 31
0.0
  0
LINE
  5
2F8
330
1E
100
AcDbEntity
  8
0
100
AcDbLine
 10
0.9747190032403278
 20
4.972851545606963
 30
0.0
 11
0.9484709717442648
 21
4.972851545606963
 31
0.0
  0
LINE
  5
2F9
330
1E
100
AcDbEntity
  8
0
100
AcDbLine
 10
1.292320184342689
 20
6.09233008891405
 30
0.0
 11
1.292320184342689
 21
6.039834025921924
 31
0.0
  0
LINE
  5
2FA
330
1E
100
AcDbEntity
  8
0
100
AcDbLine
 10
1.292320184342689
 20
6.039834025921924
 30
0.0
 11
1.266072152846626
 21
6.039834025921924
 31
0.0
  0
LINE
  5
2FB
330
1E
100
AcDbEntity
  8
0
100
AcDbLine
 10
1.266072152846626
 20
5.903344262142397
 30
0.0
 11
1.292320184342689
 21
5.903344262142397
 31
0.0
  0
LINE
  5
2FC
330
1E
100
AcDbEntity
  8
0
100
AcDbLine
 10
1.292320184342689
 20
5.903344262142397
 30
0.0
 11
1.292320184342689
 21
5.850848199150271
 31
0.0
  0
LINE
  5
2FD
330
1E
100
AcDbEntity
  8
0
100
AcDbLine
 10
1.928834948122216
 20
5.850848199150271
 30
0.0
 11
1.928834948122216
 21
5.903344262142397
 31
0.0
  0
LINE
  5
2FE
330
1E
100
AcDbEntity
  8
0
100
AcDbLine
 10
1.928834948122216
 20
5.903344262142397
 30
0.0
 11
1.955082979618279
 21
5.903344262142397
 31
0.0
  0
LINE
  5
2FF
330
1E
100
AcDbEntity
  8
0
100
AcDbLine
 10
1.955082979618279
 20
6.039834025921924
 30
0.0
 11
1.928834948122216
 21
6.039834025921924
 31
0.0
  0
LINE
  5
300
330
1E
100
AcDbEntity
  8
0
100
AcDbLine
 10
1.928834948122216
 20
6.039834025921924
 30
0.0
 11
1.928834948122216
 21
6.09233008891405
 31
0.0
  0
POLYLINE
  5
301
330
1E
100
AcDbEntity
  8
0
100
AcDb2dPolyline
 66
     1
 10
0.0
 20
0.0
 30
0.0
  0
VERTEX
  5
A04
330
301
100
AcDbEntity
  8
0
100
AcDbVertex
100
AcDb2dVertex
 10
2.342241444185209
 20
7.46772693930775
 30
0.0
  0
VERTEX
  5
A05
330
301
100
AcDbEntity
  8
0
100
AcDbVertex
100
AcDb2dVertex
 10
2.386863097728516
 20
7.46772693930775
 30
0.0
  0
VERTEX
  5
A06
330
301
100
AcDbEntity
  8
0
100
AcDbVertex
100
AcDb2dVertex
 10
2.428859948122216
 20
7.46772693930775
 30
0.0
  0
VERTEX
  5
A07
330
301
100
AcDbEntity
  8
0
100
AcDbVertex
100
AcDb2dVertex
 10
2.465607192216705
 20
7.46772693930775
 30
0.0
  0
VERTEX
  5
A08
330
301
100
AcDbEntity
  8
0
100
AcDbVertex
100
AcDb2dVertex
 10
2.494480026862373
 20
7.46772693930775
 30
0.0
  0
VERTEX
  5
A09
330
301
100
AcDbEntity
  8
0
100
AcDbVertex
100
AcDb2dVertex
 10
2.512853648909619
 20
7.46772693930775
 30
0.0
  0
VERTEX
  5
A0A
330
301
100
AcDbEntity
  8
0
100
AcDbVertex
100
AcDb2dVertex
 10
2.52204045993324
 20
7.46772693930775
 30
0.0
  0
SEQEND
  5
A0B
330
301
100
AcDbEntity
  8
0
  0
POLYLINE
  5
30A
330
1E
100
AcDbEntity
  8
0
100
AcDb2dPolyline
 66
     1
 10
0.0
 20
0.0
 30
0.0
  0
VERTEX
  5
A0C
330
30A
100
AcDbEntity
  8
0
100
AcDbVertex
100
AcDb2dVertex
 10
2.258247743397808
 20
7.553033041669956
 30
0.0
  0
VERTEX
  5
A0D
330
30A
100
AcDbEntity
  8
0
100
AcDbVertex
100
AcDb2dVertex
 10
2.258247743397808
 20
7.597654695213264
 30
0.0
  0
VERTEX
  5
A0E
330
30A
100
AcDbEntity
  8
0
100
AcDbVertex
100
AcDb2dVertex
 10
2.258247743397808
 20
7.639651545606962
 30
0.0
  0
VERTEX
  5
A0F
330
30A
100
AcDbEntity
  8
0
100
AcDbVertex
100
AcDb2dVertex
 10
2.258247743397808
 20
7.67508638812665
 30
0.0
  0
VERTEX
  5
A10
330
30A
100
AcDbEntity
  8
0
100
AcDbVertex
100
AcDb2dVertex
 10
2.258247743397808
 20
7.703959222772317
 30
0.0
  0
VERTEX
  5
A11
330
30A
100
AcDbEntity
  8
0
100
AcDbVertex
100
AcDb2dVertex
 10
2.258247743397808
 20
7.723645246394365
 30
0.0
  0
VERTEX
  5
A12
330
30A
100
AcDbEntity
  8
0
100
AcDbVertex
100
AcDb2dVertex
 10
2.258247743397808
 20
7.732832057417987
 30
0.0
  0
SEQEND
  5
A13
330
30A
100
AcDbEntity
  8
0
  0
POLYLINE
  5
313
330
1E
100
AcDbEntity
  8
0
100
AcDb2dPolyline
 66
     1
 10
0.0
 20
0.0
 30
0.0
  0
VERTEX
  5
A14
330
313
100
AcDbEntity
  8
0
100
AcDbVertex
100
AcDb2dVertex
 10
0.9629073890670996
 20
7.553033041669956
 30
0.0
  0
VERTEX
  5
A15
330
313
100
AcDbEntity
  8
0
100
AcDbVertex
100
AcDb2dVertex
 10
0.9629073890670996
 20
7.597654695213264
 30
0.0
  0
VERTEX
  5
A16
330
313
100
AcDbEntity
  8
0
100
AcDbVertex
100
AcDb2dVertex
 10
0.9629073890670996
 20
7.639651545606962
 30
0.0
  0
VERTEX
  5
A17
330
313
100
AcDbEntity
  8
0
100
AcDbVertex
100
AcDb2dVertex
 10
0.9629073890670996
 20
7.67508638812665
 30
0.0
  0
VERTEX
  5
A18
330
313
100
AcDbEntity
  8
0
100
AcDbVertex
100
AcDb2dVertex
 10
0.9629073890670996
 20
7.703959222772317
 30
0.0
  0
VERTEX
  5
A19
330
313
100
AcDbEntity
  8
0
100
AcDbVertex
100
AcDb2dVertex
 10
0.9629073890670996
 20
7.723645246394365
 30
0.0
  0
VERTEX
  5
A1A
330
313
100
AcDbEntity
  8
0
100
AcDbVertex
100
AcDb2dVertex
 10
0.9629073890670996
 20
7.732832057417987
 30
0.0
  0
SEQEND
  5
A1B
330
313
100
AcDbEntity
  8
0
  0
POLYLINE
  5
31C
330
1E
100
AcDbEntity
  8
0
100
AcDb2dPolyline
 66
     1
 10
0.0
 20
0.0
 30
0.0
  0
VERTEX
  5
A1C
330
31C
100
AcDbEntity
  8
0
100
AcDbVertex
100
AcDb2dVertex
 10
0.8789136882796981
 20
7.46772693930775
 30
0.0
  0
VERTEX
  5
A1D
330
31C
100
AcDbEntity
  8
0
100
AcDbVertex
100
AcDb2dVertex
 10
0.8342920347363909
 20
7.46772693930775
 30
0.0
  0
VERTEX
  5
A1E
330
31C
100
AcDbEntity
  8
0
100
AcDbVertex
100
AcDb2dVertex
 10
0.7922951843426902
 20
7.46772693930775
 30
0.0
  0
VERTEX
  5
A1F
330
31C
100
AcDbEntity
  8
0
100
AcDbVertex
100
AcDb2dVertex
 10
0.7555479402482021
 20
7.46772693930775
 30
0.0
  0
VERTEX
  5
A20
330
31C
100
AcDbEntity
  8
0
100
AcDbVertex
100
AcDb2dVertex
 10
0.7266751056025327
 20
7.46772693930775
 30
0.0
  0
VERTEX
  5
A21
330
31C
100
AcDbEntity
  8
0
100
AcDbVertex
100
AcDb2dVertex
 10
0.7069890819804856
 20
7.46772693930775
 30
0.0
  0
VERTEX
  5
A22
330
31C
100
AcDbEntity
  8
0
100
AcDbVertex
100
AcDb2dVertex
 10
0.6991146725316666
 20
7.46772693930775
 30
0.0
  0
SEQEND
  5
A23
330
31C
100
AcDbEntity
  8
0
  0
LINE
  5
325
330
1E
100
AcDbEntity
  8
0
100
AcDbLine
 10
0.9576577827678871
 20
2.867759419622712
 30
0.0
 11
0.9576577827678871
 21
2.863822214898302
 31
0.0
  0
LINE
  5
326
330
1E
100
AcDbEntity
  8
0
100
AcDbLine
 10
2.263497349697019
 20
2.863822214898302
 30
0.0
 11
2.263497349697019
 21
2.867759419622712
 31
0.0
  0
LINE
  5
327
330
1E
100
AcDbEntity
  8
0
100
AcDbLine
 10
2.342241444185209
 20
2.573781466866805
 30
0.0
 11
2.346178648909619
 21
2.573781466866805
 31
0.0
  0
LINE
  5
328
330
1E
100
AcDbEntity
  8
0
100
AcDbLine
 10
0.8789136882796977
 20
2.573781466866805
 30
0.0
 11
2.342241444185209
 21
2.573781466866805
 31
0.0
  0
LINE
  5
329
330
1E
100
AcDbEntity
  8
0
100
AcDbLine
 10
0.8789136882796977
 20
2.573781466866805
 30
0.0
 11
0.8749764835552888
 21
2.573781466866805
 31
0.0
  0
LINE
  5
32A
330
1E
100
AcDbEntity
  8
0
100
AcDbLine
 10
2.342241444185209
 20
2.573781466866805
 30
0.0
 11
2.336991837885996
 21
2.863822214898302
 31
0.0
  0
LINE
  5
32B
330
1E
100
AcDbEntity
  8
0
100
AcDbLine
 10
0.8841632945789106
 20
2.863822214898302
 30
0.0
 11
2.336991837885996
 21
2.863822214898302
 31
0.0
  0
LINE
  5
32C
330
1E
100
AcDbEntity
  8
0
100
AcDbLine
 10
0.8789136882796977
 20
2.573781466866805
 30
0.0
 11
0.8841632945789106
 21
2.863822214898302
 31
0.0
  0
POLYLINE
  5
32D
330
1E
100
AcDbEntity
  8
0
100
AcDb2dPolyline
 66
     1
 10
0.0
 20
0.0
 30
0.0
  0
VERTEX
  5
A24
330
32D
100
AcDbEntity
  8
0
100
AcDbVertex
100
AcDb2dVertex
 10
1.00884144418521
 20
3.214233435370744
 30
0.0
  0
VERTEX
  5
A25
330
32D
100
AcDbEntity
  8
0
100
AcDbVertex
100
AcDb2dVertex
 10
1.007529042610405
 20
3.076431270016413
 30
0.0
  0
VERTEX
  5
A26
330
32D
100
AcDbEntity
  8
0
100
AcDbVertex
100
AcDb2dVertex
 10
1.006216641035603
 20
2.863822214898302
 30
0.0
  0
SEQEND
  5
A27
330
32D
100
AcDbEntity
  8
0
  0
POLYLINE
  5
332
330
1E
100
AcDbEntity
  8
0
100
AcDb2dPolyline
 66
     1
 10
0.0
 20
0.0
 30
0.0
  0
VERTEX
  5
A28
330
332
100
AcDbEntity
  8
0
100
AcDbVertex
100
AcDb2dVertex
 10
0.9865306174135559
 20
3.214233435370744
 30
0.0
  0
VERTEX
  5
A29
330
332
100
AcDbEntity
  8
0
100
AcDbVertex
100
AcDb2dVertex
 10
0.9970298300119814
 20
3.214233435370744
 30
0.0
  0
VERTEX
  5
A2A
330
332
100
AcDbEntity
  8
0
100
AcDbVertex
100
AcDb2dVertex
 10
1.0049042394608
 20
3.214233435370744
 30
0.0
  0
VERTEX
  5
A2B
330
332
100
AcDbEntity
  8
0
100
AcDbVertex
100
AcDb2dVertex
 10
1.00884144418521
 20
3.214233435370744
 30
0.0
  0
SEQEND
  5
A2C
330
332
100
AcDbEntity
  8
0
  0
POLYLINE
  5
338
330
1E
100
AcDbEntity
  8
0
100
AcDb2dPolyline
 66
     1
 10
0.0
 20
0.0
 30
0.0
  0
VERTEX
  5
A2D
330
338
100
AcDbEntity
  8
0
100
AcDbVertex
100
AcDb2dVertex
 10
0.9852182158387527
 20
2.863822214898302
 30
0.0
  0
VERTEX
  5
A2E
330
338
100
AcDbEntity
  8
0
100
AcDbVertex
100
AcDb2dVertex
 10
0.9852182158387527
 20
3.047558435370743
 30
0.0
  0
VERTEX
  5
A2F
330
338
100
AcDbEntity
  8
0
100
AcDbVertex
100
AcDb2dVertex
 10
0.9865306174135559
 20
3.214233435370744
 30
0.0
  0
SEQEND
  5
A30
330
338
100
AcDbEntity
  8
0
  0
POLYLINE
  5
33D
330
1E
100
AcDbEntity
  8
0
100
AcDb2dPolyline
 66
     1
 10
0.0
 20
0.0
 30
0.0
  0
VERTEX
  5
A31
330
33D
100
AcDbEntity
  8
0
100
AcDbVertex
100
AcDb2dVertex
 10
0.9865306174135559
 20
3.214233435370744
 30
0.0
  0
VERTEX
  5
A32
330
33D
100
AcDbEntity
  8
0
100
AcDbVertex
100
AcDb2dVertex
 10
0.9786562079647376
 20
3.214233435370744
 30
0.0
  0
VERTEX
  5
A33
330
33D
100
AcDbEntity
  8
0
100
AcDbVertex
100
AcDb2dVertex
 10
0.9734066016655248
 20
3.214233435370744
 30
0.0
  0
SEQEND
  5
A34
330
33D
100
AcDbEntity
  8
0
  0
LINE
  5
342
330
1E
100
AcDbEntity
  8
0
100
AcDbLine
 10
1.141394003240327
 20
3.214233435370744
 30
0.0
 11
1.145331207964737
 21
2.943878710961294
 31
0.0
  0
LINE
  5
343
330
1E
100
AcDbEntity
  8
0
100
AcDbLine
 10
1.094147546547413
 20
3.214233435370744
 30
0.0
 11
1.092835144972611
 21
2.943878710961294
 31
0.0
  0
POLYLINE
  5
344
330
1E
100
AcDbEntity
  8
0
100
AcDb2dPolyline
 66
     1
 10
0.0
 20
0.0
 30
0.0
  0
VERTEX
  5
A35
330
344
100
AcDbEntity
  8
0
100
AcDbVertex
100
AcDb2dVertex
 10
1.00884144418521
 20
3.214233435370744
 30
0.0
  0
VERTEX
  5
A36
330
344
100
AcDbEntity
  8
0
100
AcDbVertex
100
AcDb2dVertex
 10
1.058712704027729
 20
3.214233435370744
 30
0.0
  0
VERTEX
  5
A37
330
344
100
AcDbEntity
  8
0
100
AcDbVertex
100
AcDb2dVertex
 10
1.094147546547413
 20
3.214233435370744
 30
0.0
  0
SEQEND
  5
A38
330
344
100
AcDbEntity
  8
0
  0
LINE
  5
349
330
1E
100
AcDbEntity
  8
0
100
AcDbLine
 10
2.342241444185209
 20
2.744393671591215
 30
0.0
 11
2.338304239460799
 21
2.744393671591215
 31
0.0
  0
LINE
  5
34A
330
1E
100
AcDbEntity
  8
0
100
AcDbLine
 10
2.235936916626154
 20
2.867759419622712
 30
0.0
 11
2.235936916626154
 21
2.863822214898302
 31
0.0
  0
LINE
  5
34B
330
1E
100
AcDbEntity
  8
0
100
AcDbLine
 10
2.214938491429303
 20
2.863822214898302
 30
0.0
 11
2.214938491429303
 21
2.867759419622712
 31
0.0
  0
LINE
  5
34C
330
1E
100
AcDbEntity
  8
0
100
AcDbLine
 10
1.011466247334815
 20
2.863822214898302
 30
0.0
 11
1.014091050484422
 21
2.943878710961294
 31
0.0
  0
LINE
  5
34D
330
1E
100
AcDbEntity
  8
0
100
AcDbLine
 10
1.014091050484422
 20
2.943878710961294
 30
0.0
 11
1.193890066232452
 21
2.943878710961294
 31
0.0
  0
LINE
  5
34E
330
1E
100
AcDbEntity
  8
0
100
AcDbLine
 10
1.574486522925367
 20
2.863822214898302
 30
0.0
 11
1.571861719775759
 21
2.943878710961294
 31
0.0
  0
LINE
  5
34F
330
1E
100
AcDbEntity
  8
0
100
AcDbLine
 10
1.392062704027729
 20
2.943878710961294
 30
0.0
 11
1.571861719775759
 21
2.943878710961294
 31
0.0
  0
LINE
  5
350
330
1E
100
AcDbEntity
  8
0
100
AcDbLine
 10
1.193890066232452
 20
2.943878710961294
 30
0.0
 11
1.392062704027729
 21
2.943878710961294
 31
0.0
  0
LINE
  5
351
330
1E
100
AcDbEntity
  8
0
100
AcDbLine
 10
1.192577664657649
 20
2.892695049543971
 30
0.0
 11
1.393375105602532
 21
2.892695049543971
 31
0.0
  0
LINE
  5
352
330
1E
100
AcDbEntity
  8
0
100
AcDbLine
 10
1.191265263082846
 20
2.863822214898302
 30
0.0
 11
1.192577664657649
 21
2.892695049543971
 31
0.0
  0
LINE
  5
353
330
1E
100
AcDbEntity
  8
0
100
AcDbLine
 10
1.393375105602532
 20
2.892695049543971
 30
0.0
 11
1.394687507177335
 21
2.863822214898302
 31
0.0
  0
LINE
  5
354
330
1E
100
AcDbEntity
  8
0
100
AcDbLine
 10
1.192577664657649
 20
2.916318277890428
 30
0.0
 11
1.393375105602532
 21
2.916318277890428
 31
0.0
  0
LINE
  5
355
330
1E
100
AcDbEntity
  8
0
100
AcDbLine
 10
1.192577664657649
 20
2.892695049543971
 30
0.0
 11
1.192577664657649
 21
2.916318277890428
 31
0.0
  0
LINE
  5
356
330
1E
100
AcDbEntity
  8
0
100
AcDbLine
 10
1.393375105602532
 20
2.916318277890428
 30
0.0
 11
1.393375105602532
 21
2.892695049543971
 31
0.0
  0
POLYLINE
  5
357
330
1E
100
AcDbEntity
  8
0
100
AcDb2dPolyline
 66
     1
 10
0.0
 20
0.0
 30
0.0
  0
VERTEX
  5
A39
330
357
100
AcDbEntity
  8
0
100
AcDbVertex
100
AcDb2dVertex
 10
1.393375105602532
 20
2.916318277890428
 30
0.0
  0
VERTEX
  5
A3A
330
357
100
AcDbEntity
  8
0
100
AcDbVertex
100
AcDb2dVertex
 10
1.392062704027729
 20
2.930754695213263
 30
0.0
  0
VERTEX
  5
A3B
330
357
100
AcDbEntity
  8
0
100
AcDbVertex
100
AcDb2dVertex
 10
1.392062704027729
 20
2.939941506236886
 30
0.0
  0
VERTEX
  5
A3C
330
357
100
AcDbEntity
  8
0
100
AcDbVertex
100
AcDb2dVertex
 10
1.392062704027729
 20
2.943878710961294
 30
0.0
  0
SEQEND
  5
A3D
330
357
100
AcDbEntity
  8
0
  0
LINE
  5
35D
330
1E
100
AcDbEntity
  8
0
100
AcDbLine
 10
1.193890066232452
 20
2.943878710961294
 30
0.0
 11
1.392062704027729
 21
2.943878710961294
 31
0.0
  0
POLYLINE
  5
35E
330
1E
100
AcDbEntity
  8
0
100
AcDb2dPolyline
 66
     1
 10
0.0
 20
0.0
 30
0.0
  0
VERTEX
  5
A3E
330
35E
100
AcDbEntity
  8
0
100
AcDbVertex
100
AcDb2dVertex
 10
1.193890066232454
 20
2.943878710961294
 30
0.0
  0
VERTEX
  5
A3F
330
35E
100
AcDbEntity
  8
0
100
AcDbVertex
100
AcDb2dVertex
 10
1.193890066232454
 20
2.939941506236886
 30
0.0
  0
VERTEX
  5
A40
330
35E
100
AcDbEntity
  8
0
100
AcDbVertex
100
AcDb2dVertex
 10
1.193890066232454
 20
2.930754695213263
 30
0.0
  0
VERTEX
  5
A41
330
35E
100
AcDbEntity
  8
0
100
AcDbVertex
100
AcDb2dVertex
 10
1.192577664657649
 20
2.916318277890428
 30
0.0
  0
SEQEND
  5
A42
330
35E
100
AcDbEntity
  8
0
  0
LINE
  5
364
330
1E
100
AcDbEntity
  8
0
100
AcDbLine
 10
1.193890066232452
 20
2.943878710961294
 30
0.0
 11
1.193890066232452
 21
2.943878710961294
 31
0.0
  0
LINE
  5
365
330
1E
100
AcDbEntity
  8
0
100
AcDbLine
 10
1.392062704027729
 20
2.943878710961294
 30
0.0
 11
1.392062704027729
 21
2.943878710961294
 31
0.0
  0
LINE
  5
366
330
1E
100
AcDbEntity
  8
0
100
AcDbLine
 10
0.8802260898545013
 20
2.827074970803815
 30
0.0
 11
0.8841632945789106
 21
2.827074970803815
 31
0.0
  0
LINE
  5
367
330
1E
100
AcDbEntity
  8
0
100
AcDbLine
 10
2.336991837885996
 20
2.827074970803815
 30
0.0
 11
2.340929042610405
 21
2.827074970803815
 31
0.0
  0
LINE
  5
368
330
1E
100
AcDbEntity
  8
0
100
AcDbLine
 10
1.616483373319066
 20
2.867759419622712
 30
0.0
 11
1.574486522925367
 21
2.867759419622712
 31
0.0
  0
LINE
  5
369
330
1E
100
AcDbEntity
  8
0
100
AcDbLine
 10
1.615170971744265
 20
2.937316703087278
 30
0.0
 11
1.571861719775759
 21
2.937316703087278
 31
0.0
  0
LINE
  5
36A
330
1E
100
AcDbEntity
  8
0
100
AcDbLine
 10
1.141394003240327
 20
3.214233435370744
 30
0.0
 11
1.094147546547413
 21
3.214233435370744
 31
0.0
  0
LINE
  5
36B
330
1E
100
AcDbEntity
  8
0
100
AcDbLine
 10
1.645356207964736
 20
2.863822214898302
 30
0.0
 11
1.64666860953954
 21
2.867759419622712
 31
0.0
  0
LINE
  5
36C
330
1E
100
AcDbEntity
  8
0
100
AcDbLine
 10
2.20968888513009
 20
2.863822214898302
 30
0.0
 11
2.20968888513009
 21
2.867759419622712
 31
0.0
  0
LINE
  5
36D
330
1E
100
AcDbEntity
  8
0
100
AcDbLine
 10
1.826467625287571
 20
2.867759419622712
 30
0.0
 11
1.826467625287571
 21
2.863822214898302
 31
0.0
  0
LINE
  5
36E
330
1E
100
AcDbEntity
  8
0
100
AcDbLine
 10
2.029889869382059
 20
2.863822214898302
 30
0.0
 11
2.029889869382059
 21
2.867759419622712
 31
0.0
  0
LINE
  5
36F
330
1E
100
AcDbEntity
  8
0
100
AcDbLine
 10
2.585035735523792
 20
2.573781466866805
 30
0.0
 11
2.52204045993324
 21
3.466214537732947
 31
0.0
  0
LINE
  5
370
330
1E
100
AcDbEntity
  8
0
100
AcDbLine
 10
2.346178648909619
 20
2.573781466866805
 30
0.0
 11
2.585035735523792
 21
2.573781466866805
 31
0.0
  0
POLYLINE
  5
371
330
1E
100
AcDbEntity
  8
0
100
AcDb2dPolyline
 66
     1
 10
0.0
 20
0.0
 30
0.0
  0
VERTEX
  5
A43
330
371
100
AcDbEntity
  8
0
100
AcDbVertex
100
AcDb2dVertex
 10
1.343503845760012
 20
3.029184813323498
 30
0.0
  0
VERTEX
  5
A44
330
371
100
AcDbEntity
  8
0
100
AcDbVertex
100
AcDb2dVertex
 10
1.343503845760012
 20
3.012123592851058
 30
0.0
  0
VERTEX
  5
A45
330
371
100
AcDbEntity
  8
0
100
AcDbVertex
100
AcDb2dVertex
 10
1.343503845760012
 20
2.998999577103028
 30
0.0
  0
SEQEND
  5
A46
330
371
100
AcDbEntity
  8
0
  0
POLYLINE
  5
376
330
1E
100
AcDbEntity
  8
0
100
AcDb2dPolyline
 66
     1
 10
0.0
 20
0.0
 30
0.0
  0
VERTEX
  5
A47
330
376
100
AcDbEntity
  8
0
100
AcDbVertex
100
AcDb2dVertex
 10
1.23851171977576
 20
2.943878710961294
 30
0.0
  0
VERTEX
  5
A48
330
376
100
AcDbEntity
  8
0
100
AcDbVertex
100
AcDb2dVertex
 10
1.246386129224579
 20
2.970126742457357
 30
0.0
  0
VERTEX
  5
A49
330
376
100
AcDbEntity
  8
0
100
AcDbVertex
100
AcDb2dVertex
 10
1.275258963870249
 20
3.005561584977042
 30
0.0
  0
VERTEX
  5
A4A
330
376
100
AcDbEntity
  8
0
100
AcDbVertex
100
AcDb2dVertex
 10
1.308069003240327
 20
3.022622805449484
 30
0.0
  0
VERTEX
  5
A4B
330
376
100
AcDbEntity
  8
0
100
AcDbVertex
100
AcDb2dVertex
 10
1.343503845760012
 20
3.029184813323498
 30
0.0
  0
SEQEND
  5
A4C
330
376
100
AcDbEntity
  8
0
  0
POLYLINE
  5
37D
330
1E
100
AcDbEntity
  8
0
100
AcDb2dPolyline
 66
     1
 10
0.0
 20
0.0
 30
0.0
  0
VERTEX
  5
A4D
330
37D
100
AcDbEntity
  8
0
100
AcDbVertex
100
AcDb2dVertex
 10
1.343503845760012
 20
2.998999577103028
 30
0.0
  0
VERTEX
  5
A4E
330
37D
100
AcDbEntity
  8
0
100
AcDbVertex
100
AcDb2dVertex
 10
1.326442625287571
 20
2.997687175528223
 30
0.0
  0
VERTEX
  5
A4F
330
37D
100
AcDbEntity
  8
0
100
AcDbVertex
100
AcDb2dVertex
 10
1.314631011114342
 20
2.993749970803815
 30
0.0
  0
VERTEX
  5
A50
330
37D
100
AcDbEntity
  8
0
100
AcDbVertex
100
AcDb2dVertex
 10
1.302819396941115
 20
2.988500364504601
 30
0.0
  0
VERTEX
  5
A51
330
37D
100
AcDbEntity
  8
0
100
AcDbVertex
100
AcDb2dVertex
 10
1.28444577489387
 20
2.975376348756569
 30
0.0
  0
VERTEX
  5
A52
330
37D
100
AcDbEntity
  8
0
100
AcDbVertex
100
AcDb2dVertex
 10
1.267384554421429
 20
2.943878710961294
 30
0.0
  0
SEQEND
  5
A53
330
37D
100
AcDbEntity
  8
0
  0
POLYLINE
  5
385
330
1E
100
AcDbEntity
  8
0
100
AcDb2dPolyline
 66
     1
 10
0.0
 20
0.0
 30
0.0
  0
VERTEX
  5
A54
330
385
100
AcDbEntity
  8
0
100
AcDbVertex
100
AcDb2dVertex
 10
1.609921365445051
 20
2.998999577103028
 30
0.0
  0
VERTEX
  5
A55
330
385
100
AcDbEntity
  8
0
100
AcDbVertex
100
AcDb2dVertex
 10
1.609921365445051
 20
3.016060797575468
 30
0.0
  0
VERTEX
  5
A56
330
385
100
AcDbEntity
  8
0
100
AcDbVertex
100
AcDb2dVertex
 10
1.609921365445051
 20
3.029184813323498
 30
0.0
  0
SEQEND
  5
A57
330
385
100
AcDbEntity
  8
0
  0
POLYLINE
  5
38A
330
1E
100
AcDbEntity
  8
0
100
AcDb2dPolyline
 66
     1
 10
0.0
 20
0.0
 30
0.0
  0
VERTEX
  5
A58
330
38A
100
AcDbEntity
  8
0
100
AcDbVertex
100
AcDb2dVertex
 10
1.609921365445051
 20
3.029184813323498
 30
0.0
  0
VERTEX
  5
A59
330
38A
100
AcDbEntity
  8
0
100
AcDbVertex
100
AcDb2dVertex
 10
1.461619987492295
 20
3.029184813323498
 30
0.0
  0
VERTEX
  5
A5A
330
38A
100
AcDbEntity
  8
0
100
AcDbVertex
100
AcDb2dVertex
 10
1.343503845760012
 20
3.029184813323498
 30
0.0
  0
SEQEND
  5
A5B
330
38A
100
AcDbEntity
  8
0
  0
POLYLINE
  5
38F
330
1E
100
AcDbEntity
  8
0
100
AcDb2dPolyline
 66
     1
 10
0.0
 20
0.0
 30
0.0
  0
VERTEX
  5
A5C
330
38F
100
AcDbEntity
  8
0
100
AcDbVertex
100
AcDb2dVertex
 10
1.609921365445051
 20
2.998999577103028
 30
0.0
  0
VERTEX
  5
A5D
330
38F
100
AcDbEntity
  8
0
100
AcDbVertex
100
AcDb2dVertex
 10
1.508866444185208
 20
2.998999577103028
 30
0.0
  0
VERTEX
  5
A5E
330
38F
100
AcDbEntity
  8
0
100
AcDbVertex
100
AcDb2dVertex
 10
1.406499121350563
 20
2.998999577103028
 30
0.0
  0
VERTEX
  5
A5F
330
38F
100
AcDbEntity
  8
0
100
AcDbVertex
100
AcDb2dVertex
 10
1.343503845760012
 20
2.998999577103028
 30
0.0
  0
SEQEND
  5
A60
330
38F
100
AcDbEntity
  8
0
  0
LINE
  5
395
330
1E
100
AcDbEntity
  8
0
100
AcDbLine
 10
1.609921365445051
 20
3.029184813323498
 30
0.0
 11
1.61385857016946
 21
3.029184813323498
 31
0.0
  0
LINE
  5
396
330
1E
100
AcDbEntity
  8
0
100
AcDbLine
 10
1.615170971744265
 20
2.998999577103028
 30
0.0
 11
1.609921365445051
 21
2.998999577103028
 31
0.0
  0
POLYLINE
  5
397
330
1E
100
AcDbEntity
  8
0
100
AcDb2dPolyline
 66
     1
 10
0.0
 20
0.0
 30
0.0
  0
VERTEX
  5
A61
330
397
100
AcDbEntity
  8
0
100
AcDbVertex
100
AcDb2dVertex
 10
1.297569790641903
 20
3.140738947181767
 30
0.0
  0
VERTEX
  5
A62
330
397
100
AcDbEntity
  8
0
100
AcDbVertex
100
AcDb2dVertex
 10
1.297569790641903
 20
3.156487766079405
 30
0.0
  0
VERTEX
  5
A63
330
397
100
AcDbEntity
  8
0
100
AcDbVertex
100
AcDb2dVertex
 10
1.297569790641903
 20
3.169611781827437
 30
0.0
  0
SEQEND
  5
A64
330
397
100
AcDbEntity
  8
0
  0
POLYLINE
  5
39C
330
1E
100
AcDbEntity
  8
0
100
AcDb2dPolyline
 66
     1
 10
0.0
 20
0.0
 30
0.0
  0
VERTEX
  5
A65
330
39C
100
AcDbEntity
  8
0
100
AcDbVertex
100
AcDb2dVertex
 10
1.297569790641903
 20
3.169611781827437
 30
0.0
  0
VERTEX
  5
A66
330
39C
100
AcDbEntity
  8
0
100
AcDbVertex
100
AcDb2dVertex
 10
1.247698530799383
 20
3.161737372378618
 30
0.0
  0
VERTEX
  5
A67
330
39C
100
AcDbEntity
  8
0
100
AcDbVertex
100
AcDb2dVertex
 10
1.200452074106469
 20
3.140738947181767
 30
0.0
  0
VERTEX
  5
A68
330
39C
100
AcDbEntity
  8
0
100
AcDbVertex
100
AcDb2dVertex
 10
1.145331207964737
 20
3.080368474740821
 30
0.0
  0
SEQEND
  5
A69
330
39C
100
AcDbEntity
  8
0
  0
LINE
  5
3A2
330
1E
100
AcDbEntity
  8
0
100
AcDbLine
 10
1.144018806389934
 20
3.010811191276254
 30
0.0
 11
1.147956011114342
 21
3.012123592851058
 31
0.0
  0
POLYLINE
  5
3A3
330
1E
100
AcDbEntity
  8
0
100
AcDb2dPolyline
 66
     1
 10
0.0
 20
0.0
 30
0.0
  0
VERTEX
  5
A6A
330
3A3
100
AcDbEntity
  8
0
100
AcDbVertex
100
AcDb2dVertex
 10
1.297569790641903
 20
3.140738947181767
 30
0.0
  0
VERTEX
  5
A6B
330
3A3
100
AcDbEntity
  8
0
100
AcDbVertex
100
AcDb2dVertex
 10
1.285758176468674
 20
3.140738947181767
 30
0.0
  0
VERTEX
  5
A6C
330
3A3
100
AcDbEntity
  8
0
100
AcDbVertex
100
AcDb2dVertex
 10
1.237199318200957
 20
3.130239734583342
 30
0.0
  0
VERTEX
  5
A6D
330
3A3
100
AcDbEntity
  8
0
100
AcDbVertex
100
AcDb2dVertex
 10
1.196514869382059
 20
3.106616506236886
 30
0.0
  0
VERTEX
  5
A6E
330
3A3
100
AcDbEntity
  8
0
100
AcDbVertex
100
AcDb2dVertex
 10
1.16764203473639
 20
3.072494065292003
 30
0.0
  0
VERTEX
  5
A6F
330
3A3
100
AcDbEntity
  8
0
100
AcDbVertex
100
AcDb2dVertex
 10
1.150580814263948
 20
3.030497214898303
 30
0.0
  0
VERTEX
  5
A70
330
3A3
100
AcDbEntity
  8
0
100
AcDbVertex
100
AcDb2dVertex
 10
1.147956011114342
 20
3.012123592851058
 30
0.0
  0
SEQEND
  5
A71
330
3A3
100
AcDbEntity
  8
0
  0
POLYLINE
  5
3AC
330
1E
100
AcDbEntity
  8
0
100
AcDb2dPolyline
 66
     1
 10
0.0
 20
0.0
 30
0.0
  0
VERTEX
  5
A72
330
3AC
100
AcDbEntity
  8
0
100
AcDbVertex
100
AcDb2dVertex
 10
1.297569790641903
 20
3.140738947181767
 30
0.0
  0
VERTEX
  5
A73
330
3AC
100
AcDbEntity
  8
0
100
AcDbVertex
100
AcDb2dVertex
 10
1.357940263082846
 20
3.140738947181767
 30
0.0
  0
VERTEX
  5
A74
330
3AC
100
AcDbEntity
  8
0
100
AcDbVertex
100
AcDb2dVertex
 10
1.483930814263949
 20
3.140738947181767
 30
0.0
  0
VERTEX
  5
A75
330
3AC
100
AcDbEntity
  8
0
100
AcDbVertex
100
AcDb2dVertex
 10
1.609921365445051
 20
3.140738947181767
 30
0.0
  0
SEQEND
  5
A76
330
3AC
100
AcDbEntity
  8
0
  0
POLYLINE
  5
3B2
330
1E
100
AcDbEntity
  8
0
100
AcDb2dPolyline
 66
     1
 10
0.0
 20
0.0
 30
0.0
  0
VERTEX
  5
A77
330
3B2
100
AcDbEntity
  8
0
100
AcDbVertex
100
AcDb2dVertex
 10
1.609921365445051
 20
3.169611781827437
 30
0.0
  0
VERTEX
  5
A78
330
3B2
100
AcDbEntity
  8
0
100
AcDbVertex
100
AcDb2dVertex
 10
1.609921365445051
 20
3.153862962929799
 30
0.0
  0
VERTEX
  5
A79
330
3B2
100
AcDbEntity
  8
0
100
AcDbVertex
100
AcDb2dVertex
 10
1.609921365445051
 20
3.140738947181767
 30
0.0
  0
SEQEND
  5
A7A
330
3B2
100
AcDbEntity
  8
0
  0
POLYLINE
  5
3B7
330
1E
100
AcDbEntity
  8
0
100
AcDb2dPolyline
 66
     1
 10
0.0
 20
0.0
 30
0.0
  0
VERTEX
  5
A7B
330
3B7
100
AcDbEntity
  8
0
100
AcDbVertex
100
AcDb2dVertex
 10
1.297569790641903
 20
3.169611781827437
 30
0.0
  0
VERTEX
  5
A7C
330
3B7
100
AcDbEntity
  8
0
100
AcDbVertex
100
AcDb2dVertex
 10
1.472119200090721
 20
3.169611781827437
 30
0.0
  0
VERTEX
  5
A7D
330
3B7
100
AcDbEntity
  8
0
100
AcDbVertex
100
AcDb2dVertex
 10
1.609921365445051
 20
3.169611781827437
 30
0.0
  0
SEQEND
  5
A7E
330
3B7
100
AcDbEntity
  8
0
  0
LINE
  5
3BC
330
1E
100
AcDbEntity
  8
0
100
AcDbLine
 10
1.609921365445051
 20
3.140738947181767
 30
0.0
 11
1.61385857016946
 21
3.140738947181767
 31
0.0
  0
LINE
  5
3BD
330
1E
100
AcDbEntity
  8
0
100
AcDbLine
 10
1.61385857016946
 20
3.169611781827436
 30
0.0
 11
1.609921365445051
 21
3.169611781827436
 31
0.0
  0
LINE
  5
3BE
330
1E
100
AcDbEntity
  8
0
100
AcDbLine
 10
1.61385857016946
 20
3.061994852693577
 30
0.0
 11
1.609921365445051
 21
3.061994852693577
 31
0.0
  0
POLYLINE
  5
3BF
330
1E
100
AcDbEntity
  8
0
100
AcDb2dPolyline
 66
     1
 10
0.0
 20
0.0
 30
0.0
  0
VERTEX
  5
A7F
330
3BF
100
AcDbEntity
  8
0
100
AcDbVertex
100
AcDb2dVertex
 10
1.609921365445051
 20
3.061994852693578
 30
0.0
  0
VERTEX
  5
A80
330
3BF
100
AcDbEntity
  8
0
100
AcDbVertex
100
AcDb2dVertex
 10
1.609921365445051
 20
3.043621230646333
 30
0.0
  0
VERTEX
  5
A81
330
3BF
100
AcDbEntity
  8
0
100
AcDbVertex
100
AcDb2dVertex
 10
1.609921365445051
 20
3.029184813323498
 30
0.0
  0
SEQEND
  5
A82
330
3BF
100
AcDbEntity
  8
0
  0
POLYLINE
  5
3C4
330
1E
100
AcDbEntity
  8
0
100
AcDb2dPolyline
 66
     1
 10
0.0
 20
0.0
 30
0.0
  0
VERTEX
  5
A83
330
3C4
100
AcDbEntity
  8
0
100
AcDbVertex
100
AcDb2dVertex
 10
1.609921365445051
 20
3.061994852693578
 30
0.0
  0
VERTEX
  5
A84
330
3C4
100
AcDbEntity
  8
0
100
AcDbVertex
100
AcDb2dVertex
 10
1.541676483555288
 20
3.061994852693578
 30
0.0
  0
VERTEX
  5
A85
330
3C4
100
AcDbEntity
  8
0
100
AcDbVertex
100
AcDb2dVertex
 10
1.473431601665524
 20
3.061994852693578
 30
0.0
  0
VERTEX
  5
A86
330
3C4
100
AcDbEntity
  8
0
100
AcDbVertex
100
AcDb2dVertex
 10
1.343503845760012
 20
3.061994852693578
 30
0.0
  0
SEQEND
  5
A87
330
3C4
100
AcDbEntity
  8
0
  0
POLYLINE
  5
3CA
330
1E
100
AcDbEntity
  8
0
100
AcDb2dPolyline
 66
     1
 10
0.0
 20
0.0
 30
0.0
  0
VERTEX
  5
A88
330
3CA
100
AcDbEntity
  8
0
100
AcDbVertex
100
AcDb2dVertex
 10
1.343503845760012
 20
3.029184813323498
 30
0.0
  0
VERTEX
  5
A89
330
3CA
100
AcDbEntity
  8
0
100
AcDbVertex
100
AcDb2dVertex
 10
1.343503845760012
 20
3.047558435370743
 30
0.0
  0
VERTEX
  5
A8A
330
3CA
100
AcDbEntity
  8
0
100
AcDbVertex
100
AcDb2dVertex
 10
1.343503845760012
 20
3.061994852693578
 30
0.0
  0
SEQEND
  5
A8B
330
3CA
100
AcDbEntity
  8
0
  0
POLYLINE
  5
3CF
330
1E
100
AcDbEntity
  8
0
100
AcDb2dPolyline
 66
     1
 10
0.0
 20
0.0
 30
0.0
  0
VERTEX
  5
A8C
330
3CF
100
AcDbEntity
  8
0
100
AcDbVertex
100
AcDb2dVertex
 10
1.204389278830878
 20
2.943878710961294
 30
0.0
  0
VERTEX
  5
A8D
330
3CF
100
AcDbEntity
  8
0
100
AcDbVertex
100
AcDb2dVertex
 10
1.2135760898545
 20
2.980625955055783
 30
0.0
  0
VERTEX
  5
A8E
330
3CF
100
AcDbEntity
  8
0
100
AcDbVertex
100
AcDb2dVertex
 10
1.239824121350563
 20
3.019998002299876
 30
0.0
  0
VERTEX
  5
A8F
330
3CF
100
AcDbEntity
  8
0
100
AcDbVertex
100
AcDb2dVertex
 10
1.279196168594658
 20
3.047558435370743
 30
0.0
  0
VERTEX
  5
A90
330
3CF
100
AcDbEntity
  8
0
100
AcDbVertex
100
AcDb2dVertex
 10
1.326442625287571
 20
3.061994852693578
 30
0.0
  0
VERTEX
  5
A91
330
3CF
100
AcDbEntity
  8
0
100
AcDbVertex
100
AcDb2dVertex
 10
1.343503845760012
 20
3.061994852693578
 30
0.0
  0
SEQEND
  5
A92
330
3CF
100
AcDbEntity
  8
0
  0
POLYLINE
  5
3D7
330
1E
100
AcDbEntity
  8
0
100
AcDb2dPolyline
 66
     1
 10
0.0
 20
0.0
 30
0.0
  0
VERTEX
  5
A93
330
3D7
100
AcDbEntity
  8
0
100
AcDbVertex
100
AcDb2dVertex
 10
1.609921365445051
 20
3.169611781827437
 30
0.0
  0
VERTEX
  5
A94
330
3D7
100
AcDbEntity
  8
0
100
AcDbVertex
100
AcDb2dVertex
 10
1.609921365445051
 20
3.186673002299877
 30
0.0
  0
VERTEX
  5
A95
330
3D7
100
AcDbEntity
  8
0
100
AcDbVertex
100
AcDb2dVertex
 10
1.609921365445051
 20
3.19979701804791
 30
0.0
  0
SEQEND
  5
A96
330
3D7
100
AcDbEntity
  8
0
  0
LINE
  5
3DC
330
1E
100
AcDbEntity
  8
0
100
AcDbLine
 10
1.609921365445051
 20
3.199797018047908
 30
0.0
 11
1.612546168594658
 21
3.199797018047908
 31
0.0
  0
POLYLINE
  5
3DD
330
1E
100
AcDbEntity
  8
0
100
AcDb2dPolyline
 66
     1
 10
0.0
 20
0.0
 30
0.0
  0
VERTEX
  5
A97
330
3DD
100
AcDbEntity
  8
0
100
AcDbVertex
100
AcDb2dVertex
 10
1.297569790641903
 20
3.19979701804791
 30
0.0
  0
VERTEX
  5
A98
330
3DD
100
AcDbEntity
  8
0
100
AcDbVertex
100
AcDb2dVertex
 10
1.297569790641903
 20
3.182735797575468
 30
0.0
  0
VERTEX
  5
A99
330
3DD
100
AcDbEntity
  8
0
100
AcDbVertex
100
AcDb2dVertex
 10
1.297569790641903
 20
3.169611781827437
 30
0.0
  0
SEQEND
  5
A9A
330
3DD
100
AcDbEntity
  8
0
  0
POLYLINE
  5
3E2
330
1E
100
AcDbEntity
  8
0
100
AcDb2dPolyline
 66
     1
 10
0.0
 20
0.0
 30
0.0
  0
VERTEX
  5
A9B
330
3E2
100
AcDbEntity
  8
0
100
AcDbVertex
100
AcDb2dVertex
 10
1.297569790641903
 20
3.19979701804791
 30
0.0
  0
VERTEX
  5
A9C
330
3E2
100
AcDbEntity
  8
0
100
AcDbVertex
100
AcDb2dVertex
 10
1.420935538673399
 20
3.19979701804791
 30
0.0
  0
VERTEX
  5
A9D
330
3E2
100
AcDbEntity
  8
0
100
AcDbVertex
100
AcDb2dVertex
 10
1.545613688279696
 20
3.19979701804791
 30
0.0
  0
VERTEX
  5
A9E
330
3E2
100
AcDbEntity
  8
0
100
AcDbVertex
100
AcDb2dVertex
 10
1.609921365445051
 20
3.19979701804791
 30
0.0
  0
SEQEND
  5
A9F
330
3E2
100
AcDbEntity
  8
0
  0
POLYLINE
  5
3E8
330
1E
100
AcDbEntity
  8
0
100
AcDb2dPolyline
 66
     1
 10
0.0
 20
0.0
 30
0.0
  0
VERTEX
  5
AA0
330
3E8
100
AcDbEntity
  8
0
100
AcDbVertex
100
AcDb2dVertex
 10
1.297569790641903
 20
3.19979701804791
 30
0.0
  0
VERTEX
  5
AA1
330
3E8
100
AcDbEntity
  8
0
100
AcDbVertex
100
AcDb2dVertex
 10
1.271321759145839
 20
3.198484616473106
 30
0.0
  0
VERTEX
  5
AA2
330
3E8
100
AcDbEntity
  8
0
100
AcDbVertex
100
AcDb2dVertex
 10
1.235886916626154
 20
3.191922608599091
 30
0.0
  0
VERTEX
  5
AA3
330
3E8
100
AcDbEntity
  8
0
100
AcDbVertex
100
AcDb2dVertex
 10
1.201764475681271
 20
3.178798592851058
 30
0.0
  0
VERTEX
  5
AA4
330
3E8
100
AcDbEntity
  8
0
100
AcDbVertex
100
AcDb2dVertex
 10
1.1715792394608
 20
3.160424970803815
 30
0.0
  0
VERTEX
  5
AA5
330
3E8
100
AcDbEntity
  8
0
100
AcDbVertex
100
AcDb2dVertex
 10
1.142706404815129
 20
3.135489340882553
 30
0.0
  0
SEQEND
  5
AA6
330
3E8
100
AcDbEntity
  8
0
  0
LINE
  5
3F0
330
1E
100
AcDbEntity
  8
0
100
AcDbLine
 10
1.147956011114342
 20
3.012123592851058
 30
0.0
 11
1.144018806389934
 21
2.95044071883531
 31
0.0
  0
LINE
  5
3F1
330
1E
100
AcDbEntity
  8
0
100
AcDbLine
 10
0.9222229402482019
 20
2.867759419622712
 30
0.0
 11
0.9209105386733991
 21
2.863822214898302
 31
0.0
  0
LINE
  5
3F2
330
1E
100
AcDbEntity
  8
0
100
AcDbLine
 10
2.298932192216704
 20
2.863822214898302
 30
0.0
 11
2.298932192216704
 21
2.867759419622712
 31
0.0
  0
LINE
  5
3F3
330
1E
100
AcDbEntity
  8
0
100
AcDbLine
 10
1.611233767019855
 20
3.462277333008538
 30
0.0
 11
0.9747190032403278
 21
3.462277333008538
 31
0.0
  0
LINE
  5
3F4
330
1E
100
AcDbEntity
  8
0
100
AcDbLine
 10
0.6361193969411155
 20
2.573781466866805
 30
0.0
 11
0.8749764835552888
 21
2.573781466866805
 31
0.0
  0
LINE
  5
3F5
330
1E
100
AcDbEntity
  8
0
100
AcDbLine
 10
0.6361193969411155
 20
2.573781466866805
 30
0.0
 11
0.6991146725316666
 21
3.466214537732947
 31
0.0
  0
LINE
  5
3F6
330
1E
100
AcDbEntity
  8
0
100
AcDbLine
 10
0.8749764835552888
 20
2.573781466866805
 30
0.0
 11
0.8802260898545013
 21
2.867759419622712
 31
0.0
  0
LINE
  5
3F7
330
1E
100
AcDbEntity
  8
0
100
AcDbLine
 10
0.9694693969411151
 20
2.867759419622712
 30
0.0
 11
0.8802260898545013
 21
2.867759419622712
 31
0.0
  0
LINE
  5
3F8
330
1E
100
AcDbEntity
  8
0
100
AcDbLine
 10
0.9694693969411151
 20
2.867759419622712
 30
0.0
 11
0.9760314048151311
 21
3.483275758205388
 31
0.0
  0
LINE
  5
3F9
330
1E
100
AcDbEntity
  8
0
100
AcDbLine
 10
2.250373333948989
 20
2.867759419622712
 30
0.0
 11
2.245123727649775
 21
3.483275758205388
 31
0.0
  0
LINE
  5
3FA
330
1E
100
AcDbEntity
  8
0
100
AcDbLine
 10
0.8789136882796977
 20
3.634201939307751
 30
0.0
 11
2.342241444185209
 21
3.634201939307751
 31
0.0
  0
POLYLINE
  5
3FB
330
1E
100
AcDbEntity
  8
0
100
AcDb2dPolyline
 66
     1
 10
0.0
 20
0.0
 30
0.0
  0
VERTEX
  5
AA7
330
3FB
100
AcDbEntity
  8
0
100
AcDbVertex
100
AcDb2dVertex
 10
0.8789136882796981
 20
3.634201939307751
 30
0.0
  0
VERTEX
  5
AA8
330
3FB
100
AcDbEntity
  8
0
100
AcDbVertex
100
AcDb2dVertex
 10
0.8342920347363909
 20
3.628952333008538
 30
0.0
  0
VERTEX
  5
AA9
330
3FB
100
AcDbEntity
  8
0
100
AcDbVertex
100
AcDb2dVertex
 10
0.7922951843426902
 20
3.611891112536098
 30
0.0
  0
VERTEX
  5
AAA
330
3FB
100
AcDbEntity
  8
0
100
AcDbVertex
100
AcDb2dVertex
 10
0.7555479402482021
 20
3.585643081040034
 30
0.0
  0
VERTEX
  5
AAB
330
3FB
100
AcDbEntity
  8
0
100
AcDbVertex
100
AcDb2dVertex
 10
0.7266751056025327
 20
3.551520640095153
 30
0.0
  0
VERTEX
  5
AAC
330
3FB
100
AcDbEntity
  8
0
100
AcDbVertex
100
AcDb2dVertex
 10
0.7069890819804856
 20
3.510836191276254
 30
0.0
  0
VERTEX
  5
AAD
330
3FB
100
AcDbEntity
  8
0
100
AcDbVertex
100
AcDb2dVertex
 10
0.6991146725316666
 20
3.466214537732947
 30
0.0
  0
SEQEND
  5
AAE
330
3FB
100
AcDbEntity
  8
0
  0
LINE
  5
404
330
1E
100
AcDbEntity
  8
0
100
AcDbLine
 10
0.9760314048151311
 20
3.483275758205388
 30
0.0
 11
2.245123727649775
 21
3.483275758205388
 31
0.0
  0
LINE
  5
405
330
1E
100
AcDbEntity
  8
0
100
AcDbLine
 10
2.340929042610405
 20
2.867759419622712
 30
0.0
 11
2.250373333948989
 21
2.867759419622712
 31
0.0
  0
LINE
  5
406
330
1E
100
AcDbEntity
  8
0
100
AcDbLine
 10
2.346178648909619
 20
2.573781466866805
 30
0.0
 11
2.340929042610405
 21
2.867759419622712
 31
0.0
  0
POLYLINE
  5
407
330
1E
100
AcDbEntity
  8
0
100
AcDb2dPolyline
 66
     1
 10
0.0
 20
0.0
 30
0.0
  0
VERTEX
  5
AAF
330
407
100
AcDbEntity
  8
0
100
AcDbVertex
100
AcDb2dVertex
 10
2.52204045993324
 20
3.466214537732947
 30
0.0
  0
VERTEX
  5
AB0
330
407
100
AcDbEntity
  8
0
100
AcDbVertex
100
AcDb2dVertex
 10
2.512853648909619
 20
3.510836191276254
 30
0.0
  0
VERTEX
  5
AB1
330
407
100
AcDbEntity
  8
0
100
AcDbVertex
100
AcDb2dVertex
 10
2.494480026862373
 20
3.551520640095153
 30
0.0
  0
VERTEX
  5
AB2
330
407
100
AcDbEntity
  8
0
100
AcDbVertex
100
AcDb2dVertex
 10
2.465607192216705
 20
3.585643081040034
 30
0.0
  0
VERTEX
  5
AB3
330
407
100
AcDbEntity
  8
0
100
AcDbVertex
100
AcDb2dVertex
 10
2.428859948122216
 20
3.611891112536098
 30
0.0
  0
VERTEX
  5
AB4
330
407
100
AcDbEntity
  8
0
100
AcDbVertex
100
AcDb2dVertex
 10
2.386863097728516
 20
3.628952333008538
 30
0.0
  0
VERTEX
  5
AB5
330
407
100
AcDbEntity
  8
0
100
AcDbVertex
100
AcDb2dVertex
 10
2.342241444185209
 20
3.634201939307751
 30
0.0
  0
SEQEND
  5
AB6
330
407
100
AcDbEntity
  8
0
  0
LINE
  5
410
330
1E
100
AcDbEntity
  8
0
100
AcDbLine
 10
1.609921365445051
 20
3.483275758205388
 30
0.0
 11
1.616483373319066
 21
2.867759419622712
 31
0.0
  0
LINE
  5
411
330
1E
100
AcDbEntity
  8
0
100
AcDbLine
 10
2.250373333948989
 20
2.867759419622712
 30
0.0
 11
1.616483373319066
 21
2.867759419622712
 31
0.0
  0
LINE
  5
445
330
1E
100
AcDbEntity
  8
0
100
AcDbLine
 10
5.066787113476547
 20
4.869171821197514
 30
0.0
 11
4.977543806389934
 21
4.877046230646334
 31
0.0
  0
LINE
  5
446
330
1E
100
AcDbEntity
  8
0
100
AcDbLine
 10
5.066787113476547
 20
4.869171821197514
 30
0.0
 11
5.066787113476547
 21
5.119840521984916
 31
0.0
  0
LINE
  5
447
330
1E
100
AcDbEntity
  8
0
100
AcDbLine
 10
5.066787113476547
 20
5.119840521984916
 30
0.0
 11
4.977543806389934
 21
5.111966112536098
 31
0.0
  0
LINE
  5
448
330
1E
100
AcDbEntity
  8
0
100
AcDbLine
 10
4.977543806389934
 20
4.877046230646334
 30
0.0
 11
4.977543806389934
 21
5.111966112536098
 31
0.0
  0
LINE
  5
449
330
1E
100
AcDbEntity
  8
0
100
AcDbLine
 10
5.066787113476547
 20
5.119840521984916
 30
0.0
 11
5.066787113476547
 21
5.127714931433736
 31
0.0
  0
LINE
  5
44A
330
1E
100
AcDbEntity
  8
0
100
AcDbLine
 10
5.066787113476547
 20
4.865234616473106
 30
0.0
 11
5.066787113476547
 21
4.869171821197514
 31
0.0
  0
POLYLINE
  5
44B
330
1E
100
AcDbEntity
  8
0
100
AcDb2dPolyline
 66
     1
 10
0.0
 20
0.0
 30
0.0
  0
VERTEX
  5
AB7
330
44B
100
AcDbEntity
  8
0
100
AcDbVertex
100
AcDb2dVertex
 10
5.066787113476547
 20
7.794514931433734
 30
0.0
  0
VERTEX
  5
AB8
330
44B
100
AcDbEntity
  8
0
100
AcDbVertex
100
AcDb2dVertex
 10
5.066787113476547
 20
7.789265325134523
 30
0.0
  0
VERTEX
  5
AB9
330
44B
100
AcDbEntity
  8
0
100
AcDbVertex
100
AcDb2dVertex
 10
5.066787113476547
 20
7.774828907811688
 30
0.0
  0
VERTEX
  5
ABA
330
44B
100
AcDbEntity
  8
0
100
AcDbVertex
100
AcDb2dVertex
 10
5.066787113476547
 20
7.749893277890428
 30
0.0
  0
VERTEX
  5
ABB
330
44B
100
AcDbEntity
  8
0
100
AcDbVertex
100
AcDb2dVertex
 10
5.066787113476547
 20
7.717083238520348
 30
0.0
  0
VERTEX
  5
ABC
330
44B
100
AcDbEntity
  8
0
100
AcDbVertex
100
AcDb2dVertex
 10
5.066787113476547
 20
7.677711191276253
 30
0.0
  0
VERTEX
  5
ABD
330
44B
100
AcDbEntity
  8
0
100
AcDbVertex
100
AcDb2dVertex
 10
5.066787113476547
 20
7.631777136158143
 30
0.0
  0
VERTEX
  5
ABE
330
44B
100
AcDbEntity
  8
0
100
AcDbVertex
100
AcDb2dVertex
 10
5.066787113476547
 20
7.581905876315626
 30
0.0
  0
VERTEX
  5
ABF
330
44B
100
AcDbEntity
  8
0
100
AcDbVertex
100
AcDb2dVertex
 10
5.066787113476547
 20
7.530722214898302
 30
0.0
  0
SEQEND
  5
AC0
330
44B
100
AcDbEntity
  8
0
  0
LINE
  5
456
330
1E
100
AcDbEntity
  8
0
100
AcDbLine
 10
5.066787113476547
 20
5.127714931433736
 30
0.0
 11
5.066787113476547
 21
7.530722214898302
 31
0.0
  0
LINE
  5
457
330
1E
100
AcDbEntity
  8
0
100
AcDbLine
 10
5.066787113476547
 20
7.530722214898302
 30
0.0
 11
4.174354042610404
 21
7.467726939307753
 31
0.0
  0
LINE
  5
458
330
1E
100
AcDbEntity
  8
0
100
AcDbLine
 10
4.174354042610404
 20
7.467726939307753
 30
0.0
 11
4.174354042610404
 21
4.207721427496728
 31
0.0
  0
LINE
  5
459
330
1E
100
AcDbEntity
  8
0
100
AcDbLine
 10
5.066787113476547
 20
4.144726151906175
 30
0.0
 11
4.174354042610404
 21
4.207721427496728
 31
0.0
  0
LINE
  5
45A
330
1E
100
AcDbEntity
  8
0
100
AcDbLine
 10
5.066787113476547
 20
4.144726151906175
 30
0.0
 11
5.066787113476547
 21
4.865234616473106
 31
0.0
  0
LINE
  5
45B
330
1E
100
AcDbEntity
  8
0
100
AcDbLine
 10
4.935546955996231
 20
4.875733829071529
 30
0.0
 11
5.066787113476547
 21
4.865234616473106
 31
0.0
  0
LINE
  5
45C
330
1E
100
AcDbEntity
  8
0
100
AcDbLine
 10
4.935546955996231
 20
5.117215718835311
 30
0.0
 11
4.935546955996231
 21
4.875733829071529
 31
0.0
  0
LINE
  5
45D
330
1E
100
AcDbEntity
  8
0
100
AcDbLine
 10
5.066787113476547
 20
5.127714931433736
 30
0.0
 11
4.935546955996231
 21
5.117215718835311
 31
0.0
  0
LINE
  5
45E
330
1E
100
AcDbEntity
  8
0
100
AcDbLine
 10
4.174354042610404
 20
7.732832057417987
 30
0.0
 11
5.066787113476547
 21
7.794514931433735
 31
0.0
  0
POLYLINE
  5
45F
330
1E
100
AcDbEntity
  8
0
100
AcDb2dPolyline
 66
     1
 10
0.0
 20
0.0
 30
0.0
  0
VERTEX
  5
AC1
330
45F
100
AcDbEntity
  8
0
100
AcDbVertex
100
AcDb2dVertex
 10
4.174354042610404
 20
7.732832057417987
 30
0.0
  0
VERTEX
  5
AC2
330
45F
100
AcDbEntity
  8
0
100
AcDbVertex
100
AcDb2dVertex
 10
4.171729239460799
 20
7.727582451118775
 30
0.0
  0
VERTEX
  5
AC3
330
45F
100
AcDbEntity
  8
0
100
AcDbVertex
100
AcDb2dVertex
 10
4.170416837885996
 20
7.711833632221137
 30
0.0
  0
VERTEX
  5
AC4
330
45F
100
AcDbEntity
  8
0
100
AcDbVertex
100
AcDb2dVertex
 10
4.169104436311193
 20
7.68821040387468
 30
0.0
  0
VERTEX
  5
AC5
330
45F
100
AcDbEntity
  8
0
100
AcDbVertex
100
AcDb2dVertex
 10
4.169104436311193
 20
7.655400364504601
 30
0.0
  0
VERTEX
  5
AC6
330
45F
100
AcDbEntity
  8
0
100
AcDbVertex
100
AcDb2dVertex
 10
4.169104436311193
 20
7.614715915685703
 30
0.0
  0
VERTEX
  5
AC7
330
45F
100
AcDbEntity
  8
0
100
AcDbVertex
100
AcDb2dVertex
 10
4.170416837885996
 20
7.568781860567593
 30
0.0
  0
VERTEX
  5
AC8
330
45F
100
AcDbEntity
  8
0
100
AcDbVertex
100
AcDb2dVertex
 10
4.171729239460799
 20
7.520223002299877
 30
0.0
  0
VERTEX
  5
AC9
330
45F
100
AcDbEntity
  8
0
100
AcDbVertex
100
AcDb2dVertex
 10
4.174354042610404
 20
7.46772693930775
 30
0.0
  0
SEQEND
  5
ACA
330
45F
100
AcDbEntity
  8
0
  0
POLYLINE
  5
46A
330
1E
100
AcDbEntity
  8
0
100
AcDb2dPolyline
 66
     1
 10
0.0
 20
0.0
 30
0.0
  0
VERTEX
  5
ACB
330
46A
100
AcDbEntity
  8
0
100
AcDbVertex
100
AcDb2dVertex
 10
4.174354042610404
 20
4.207721427496728
 30
0.0
  0
VERTEX
  5
ACC
330
46A
100
AcDbEntity
  8
0
100
AcDbVertex
100
AcDb2dVertex
 10
4.129732389067098
 20
4.210346230646333
 30
0.0
  0
VERTEX
  5
ACD
330
46A
100
AcDbEntity
  8
0
100
AcDbVertex
100
AcDb2dVertex
 10
4.090360341823004
 20
4.212971033795939
 30
0.0
  0
VERTEX
  5
ACE
330
46A
100
AcDbEntity
  8
0
100
AcDbVertex
100
AcDb2dVertex
 10
4.054925499303318
 20
4.215595836945547
 30
0.0
  0
VERTEX
  5
ACF
330
46A
100
AcDbEntity
  8
0
100
AcDbVertex
100
AcDb2dVertex
 10
4.028677467807256
 20
4.216908238520351
 30
0.0
  0
VERTEX
  5
AD0
330
46A
100
AcDbEntity
  8
0
100
AcDbVertex
100
AcDb2dVertex
 10
4.012928648909618
 20
4.218220640095153
 30
0.0
  0
VERTEX
  5
AD1
330
46A
100
AcDbEntity
  8
0
100
AcDbVertex
100
AcDb2dVertex
 10
4.006366641035603
 20
4.218220640095153
 30
0.0
  0
SEQEND
  5
AD2
330
46A
100
AcDbEntity
  8
0
  0
LINE
  5
473
330
1E
100
AcDbEntity
  8
0
100
AcDbLine
 10
4.006366641035603
 20
4.218220640095153
 30
0.0
 11
4.006366641035603
 21
7.467726939307753
 31
0.0
  0
POLYLINE
  5
474
330
1E
100
AcDbEntity
  8
0
100
AcDb2dPolyline
 66
     1
 10
0.0
 20
0.0
 30
0.0
  0
VERTEX
  5
AD3
330
474
100
AcDbEntity
  8
0
100
AcDbVertex
100
AcDb2dVertex
 10
4.006366641035603
 20
7.46772693930775
 30
0.0
  0
VERTEX
  5
AD4
330
474
100
AcDbEntity
  8
0
100
AcDbVertex
100
AcDb2dVertex
 10
4.006366641035603
 20
7.500536978677829
 30
0.0
  0
VERTEX
  5
AD5
330
474
100
AcDbEntity
  8
0
100
AcDbVertex
100
AcDb2dVertex
 10
4.006366641035603
 20
7.528097411748695
 30
0.0
  0
VERTEX
  5
AD6
330
474
100
AcDbEntity
  8
0
100
AcDbVertex
100
AcDb2dVertex
 10
4.006366641035603
 20
7.54647103379594
 30
0.0
  0
VERTEX
  5
AD7
330
474
100
AcDbEntity
  8
0
100
AcDbVertex
100
AcDb2dVertex
 10
4.006366641035603
 20
7.553033041669956
 30
0.0
  0
SEQEND
  5
AD8
330
474
100
AcDbEntity
  8
0
  0
POLYLINE
  5
47B
330
1E
100
AcDbEntity
  8
0
100
AcDb2dPolyline
 66
     1
 10
0.0
 20
0.0
 30
0.0
  0
VERTEX
  5
AD9
330
47B
100
AcDbEntity
  8
0
100
AcDbVertex
100
AcDb2dVertex
 10
4.006366641035603
 20
7.46772693930775
 30
0.0
  0
VERTEX
  5
ADA
330
47B
100
AcDbEntity
  8
0
100
AcDbVertex
100
AcDb2dVertex
 10
4.012928648909618
 20
7.46772693930775
 30
0.0
  0
VERTEX
  5
ADB
330
47B
100
AcDbEntity
  8
0
100
AcDbVertex
100
AcDb2dVertex
 10
4.028677467807256
 20
7.46772693930775
 30
0.0
  0
VERTEX
  5
ADC
330
47B
100
AcDbEntity
  8
0
100
AcDbVertex
100
AcDb2dVertex
 10
4.054925499303318
 20
7.46772693930775
 30
0.0
  0
VERTEX
  5
ADD
330
47B
100
AcDbEntity
  8
0
100
AcDbVertex
100
AcDb2dVertex
 10
4.090360341823004
 20
7.46772693930775
 30
0.0
  0
VERTEX
  5
ADE
330
47B
100
AcDbEntity
  8
0
100
AcDbVertex
100
AcDb2dVertex
 10
4.129732389067098
 20
7.46772693930775
 30
0.0
  0
VERTEX
  5
ADF
330
47B
100
AcDbEntity
  8
0
100
AcDbVertex
100
AcDb2dVertex
 10
4.174354042610404
 20
7.46772693930775
 30
0.0
  0
SEQEND
  5
AE0
330
47B
100
AcDbEntity
  8
0
  0
POLYLINE
  5
484
330
1E
100
AcDbEntity
  8
0
100
AcDb2dPolyline
 66
     1
 10
0.0
 20
0.0
 30
0.0
  0
VERTEX
  5
AE1
330
484
100
AcDbEntity
  8
0
100
AcDbVertex
100
AcDb2dVertex
 10
4.006366641035603
 20
7.553033041669956
 30
0.0
  0
VERTEX
  5
AE2
330
484
100
AcDbEntity
  8
0
100
AcDbVertex
100
AcDb2dVertex
 10
4.012928648909618
 20
7.597654695213264
 30
0.0
  0
VERTEX
  5
AE3
330
484
100
AcDbEntity
  8
0
100
AcDbVertex
100
AcDb2dVertex
 10
4.028677467807256
 20
7.639651545606962
 30
0.0
  0
VERTEX
  5
AE4
330
484
100
AcDbEntity
  8
0
100
AcDbVertex
100
AcDb2dVertex
 10
4.054925499303318
 20
7.67508638812665
 30
0.0
  0
VERTEX
  5
AE5
330
484
100
AcDbEntity
  8
0
100
AcDbVertex
100
AcDb2dVertex
 10
4.090360341823004
 20
7.703959222772317
 30
0.0
  0
VERTEX
  5
AE6
330
484
100
AcDbEntity
  8
0
100
AcDbVertex
100
AcDb2dVertex
 10
4.129732389067098
 20
7.723645246394365
 30
0.0
  0
VERTEX
  5
AE7
330
484
100
AcDbEntity
  8
0
100
AcDbVertex
100
AcDb2dVertex
 10
4.174354042610404
 20
7.732832057417987
 30
0.0
  0
SEQEND
  5
AE8
330
484
100
AcDbEntity
  8
0
  0
ENDSEC
  0
SECTION
  2
OBJECTS
  0
DICTIONARY
  5
C
330
0
100
AcDbDictionary
  3
ACAD_GROUP
350
D
  3
ACAD_MLINESTYLE
350
16
  3
ACAD_PLOTSETTINGS
350
18
  3
ACAD_LAYOUT
350
19
1001
ACAD
1000
TREAT_AS_HARD
1070
     0
1000
TREAT_AS_HARD
1070
     0
  0
DICTIONARY
  5
812
330
1E
100
AcDbDictionary
  3
ACAD_LAYOUTSELFREF
350
98B
1001
ACAD
1000
TREAT_AS_HARD
1070
     0
  0
DICTIONARY
  5
810
330
1A
100
AcDbDictionary
  3
ACAD_LAYOUTSELFREF
350
98A
1001
ACAD
1000
TREAT_AS_HARD
1070
     0
  0
DICTIONARY
  5
D
102
{ACAD_REACTORS
330
C
102
}
330
C
100
AcDbDictionary
1001
ACAD
1000
TREAT_AS_HARD
1070
     0
1000
TREAT_AS_HARD
1070
     0
  0
DICTIONARY
  5
16
102
{ACAD_REACTORS
330
C
102
}
330
C
100
AcDbDictionary
  3
STANDARD
350
17
1001
ACAD
1000
TREAT_AS_HARD
1070
     0
1000
TREAT_AS_HARD
1070
     0
  0
DICTIONARY
  5
18
102
{ACAD_REACTORS
330
C
102
}
330
C
100
AcDbDictionary
1001
ACAD
1000
TREAT_AS_HARD
1070
     0
1000
TREAT_AS_HARD
1070
     0
  0
DICTIONARY
  5
19
102
{ACAD_REACTORS
330
C
102
}
330
C
100
AcDbDictionary
1001
ACAD
1000
TREAT_AS_HARD
1070
     0
1000
TREAT_AS_HARD
1070
     0
  0
XRECORD
  5
98B
102
{ACAD_REACTORS
330
812
102
}
330
812
100
AcDbXrecord
340
1E
  0
XRECORD
  5
98A
102
{ACAD_REACTORS
330
810
102
}
330
810
100
AcDbXrecord
340
1A
  0
MLINESTYLE
  5
17
102
{ACAD_REACTORS
330
16
102
}
330
16
100
AcDbMlineStyle
  2
STANDARD
 70
     0
  3

 62
   256
 51
90.0
 52
90.0
 71
     2
 49
0.5
 62
   256
  6
BYLAYER
 49
-0.5
 62
   256
  6
BYLAYER
  0
ENDSEC
  0
EOF
