  0
SECTION
  2
HEADER
  9
$ACADVER
  1
AC1018
  9
$ACADMAINTVER
 70
   104
  9
$DWGCODEPAGE
  3
ANSI_1252
  9
$LASTSAVEDBY
  1
MDJR
  9
$INSBASE
 10
0.0
 20
0.0
 30
0.0
  9
$EXTMIN
 10
0.0
 20
0.0
 30
0.0
  9
$EXTMAX
 10
7.202755905511811
 20
5.374015748031496
 30
0.0
  9
$LIMMIN
 10
0.0
 20
0.0
  9
$LIMMAX
 10
12.0
 20
9.0
  9
$ORTHOMODE
 70
     0
  9
$REGENMODE
 70
     1
  9
$FILLMODE
 70
     1
  9
$QTEXTMODE
 70
     0
  9
$MIRRTEXT
 70
     1
  9
$LTSCALE
 40
1.0
  9
$ATTMODE
 70
     1
  9
$TEXTSIZE
 40
0.2
  9
$TRACEWID
 40
0.05
  9
$TEXTSTYLE
  7
Standard
  9
$CLAYER
  8
0
  9
$CELTYPE
  6
ByLayer
  9
$CECOLOR
 62
   256
  9
$CELTSCALE
 40
1.0
  9
$DISPSILH
 70
     0
  9
$DIMSCALE
 40
1.0
  9
$DIMASZ
 40
0.18
  9
$DIMEXO
 40
0.0625
  9
$DIMDLI
 40
0.38
  9
$DIMRND
 40
0.0
  9
$DIMDLE
 40
0.0
  9
$DIMEXE
 40
0.18
  9
$DIMTP
 40
0.0
  9
$DIMTM
 40
0.0
  9
$DIMTXT
 40
0.18
  9
$DIMCEN
 40
0.09
  9
$DIMTSZ
 40
0.0
  9
$DIMTOL
 70
     0
  9
$DIMLIM
 70
     0
  9
$DIMTIH
 70
     1
  9
$DIMTOH
 70
     1
  9
$DIMSE1
 70
     0
  9
$DIMSE2
 70
     0
  9
$DIMTAD
 70
     0
  9
$DIMZIN
 70
     0
  9
$DIMBLK
  1

  9
$DIMASO
 70
     1
  9
$DIMSHO
 70
     1
  9
$DIMPOST
  1

  9
$DIMAPOST
  1

  9
$DIMALT
 70
     0
  9
$DIMALTD
 70
     2
  9
$DIMALTF
 40
25.4
  9
$DIMLFAC
 40
1.0
  9
$DIMTOFL
 70
     0
  9
$DIMTVP
 40
0.0
  9
$DIMTIX
 70
     0
  9
$DIMSOXD
 70
     0
  9
$DIMSAH
 70
     0
  9
$DIMBLK1
  1

  9
$DIMBLK2
  1

  9
$DIMSTYLE
  2
Standard
  9
$DIMCLRD
 70
     0
  9
$DIMCLRE
 70
     0
  9
$DIMCLRT
 70
     0
  9
$DIMTFAC
 40
1.0
  9
$DIMGAP
 40
0.09
  9
$DIMJUST
 70
     0
  9
$DIMSD1
 70
     0
  9
$DIMSD2
 70
     0
  9
$DIMTOLJ
 70
     1
  9
$DIMTZIN
 70
     0
  9
$DIMALTZ
 70
     0
  9
$DIMALTTZ
 70
     0
  9
$DIMUPT
 70
     0
  9
$DIMDEC
 70
     4
  9
$DIMTDEC
 70
     4
  9
$DIMALTU
 70
     2
  9
$DIMALTTD
 70
     2
  9
$DIMTXSTY
  7
Standard
  9
$DIMAUNIT
 70
     0
  9
$DIMADEC
 70
     0
  9
$DIMALTRND
 40
0.0
  9
$DIMAZIN
 70
     0
  9
$DIMDSEP
 70
    46
  9
$DIMATFIT
 70
     3
  9
$DIMFRAC
 70
     0
  9
$DIMLDRBLK
  1

  9
$DIMLUNIT
 70
     2
  9
$DIMLWD
 70
    -2
  9
$DIMLWE
 70
    -2
  9
$DIMTMOVE
 70
     0
  9
$LUNITS
 70
     2
  9
$LUPREC
 70
     4
  9
$SKETCHINC
 40
0.1
  9
$FILLETRAD
 40
0.5
  9
$AUNITS
 70
     0
  9
$AUPREC
 70
     0
  9
$MENU
  1
.
  9
$ELEVATION
 40
0.0
  9
$PELEVATION
 40
0.0
  9
$THICKNESS
 40
0.0
  9
$LIMCHECK
 70
     0
  9
$CHAMFERA
 40
0.5
  9
$CHAMFERB
 40
0.5
  9
$CHAMFERC
 40
1.0
  9
$CHAMFERD
 40
0.0
  9
$SKPOLY
 70
     0
  9
$TDCREATE
 40
2455023.613682199
  9
$TDUCREATE
 40
2455023.822015533
  9
$TDUPDATE
 40
2455023.617408195
  9
$TDUUPDATE
 40
2455023.825741528
  9
$TDINDWG
 40
0.0008895486
  9
$TDUSRTIMER
 40
0.0008895486
  9
$USRTIMER
 70
     1
  9
$ANGBASE
 50
0.0
  9
$ANGDIR
 70
     0
  9
$PDMODE
 70
     0
  9
$PDSIZE
 40
0.0
  9
$PLINEWID
 40
0.0
  9
$SPLFRAME
 70
     0
  9
$SPLINETYPE
 70
     6
  9
$SPLINESEGS
 70
     8
  9
$HANDSEED
  5
70A
  9
$SURFTAB1
 70
     6
  9
$SURFTAB2
 70
     6
  9
$SURFTYPE
 70
     6
  9
$SURFU
 70
     6
  9
$SURFV
 70
     6
  9
$UCSBASE
  2

  9
$UCSNAME
  2

  9
$UCSORG
 10
0.0
 20
0.0
 30
0.0
  9
$UCSXDIR
 10
1.0
 20
0.0
 30
0.0
  9
$UCSYDIR
 10
0.0
 20
1.0
 30
0.0
  9
$UCSORTHOREF
  2

  9
$UCSORTHOVIEW
 70
     0
  9
$UCSORGTOP
 10
0.0
 20
0.0
 30
0.0
  9
$UCSORGBOTTOM
 10
0.0
 20
0.0
 30
0.0
  9
$UCSORGLEFT
 10
0.0
 20
0.0
 30
0.0
  9
$UCSORGRIGHT
 10
0.0
 20
0.0
 30
0.0
  9
$UCSORGFRONT
 10
0.0
 20
0.0
 30
0.0
  9
$UCSORGBACK
 10
0.0
 20
0.0
 30
0.0
  9
$PUCSBASE
  2

  9
$PUCSNAME
  2

  9
$PUCSORG
 10
0.0
 20
0.0
 30
0.0
  9
$PUCSXDIR
 10
1.0
 20
0.0
 30
0.0
  9
$PUCSYDIR
 10
0.0
 20
1.0
 30
0.0
  9
$PUCSORTHOREF
  2

  9
$PUCSORTHOVIEW
 70
     0
  9
$PUCSORGTOP
 10
0.0
 20
0.0
 30
0.0
  9
$PUCSORGBOTTOM
 10
0.0
 20
0.0
 30
0.0
  9
$PUCSORGLEFT
 10
0.0
 20
0.0
 30
0.0
  9
$PUCSORGRIGHT
 10
0.0
 20
0.0
 30
0.0
  9
$PUCSORGFRONT
 10
0.0
 20
0.0
 30
0.0
  9
$PUCSORGBACK
 10
0.0
 20
0.0
 30
0.0
  9
$USERI1
 70
     0
  9
$USERI2
 70
     0
  9
$USERI3
 70
     0
  9
$USERI4
 70
     0
  9
$USERI5
 70
     0
  9
$USERR1
 40
0.0
  9
$USERR2
 40
0.0
  9
$USERR3
 40
0.0
  9
$USERR4
 40
0.0
  9
$USERR5
 40
0.0
  9
$WORLDVIEW
 70
     1
  9
$SHADEDGE
 70
     3
  9
$SHADEDIF
 70
    70
  9
$TILEMODE
 70
     1
  9
$MAXACTVP
 70
    64
  9
$PINSBASE
 10
0.0
 20
0.0
 30
0.0
  9
$PLIMCHECK
 70
     0
  9
$PEXTMIN
 10
1.000000000000000E+20
 20
1.000000000000000E+20
 30
1.000000000000000E+20
  9
$PEXTMAX
 10
-1.000000000000000E+20
 20
-1.000000000000000E+20
 30
-1.000000000000000E+20
  9
$PLIMMIN
 10
0.0
 20
0.0
  9
$PLIMMAX
 10
12.0
 20
9.0
  9
$UNITMODE
 70
     0
  9
$VISRETAIN
 70
     1
  9
$PLINEGEN
 70
     0
  9
$PSLTSCALE
 70
     1
  9
$TREEDEPTH
 70
  3020
  9
$CMLSTYLE
  2
Standard
  9
$CMLJUST
 70
     0
  9
$CMLSCALE
 40
1.0
  9
$PROXYGRAPHICS
 70
     1
  9
$MEASUREMENT
 70
     0
  9
$CELWEIGHT
370
    -1
  9
$ENDCAPS
280
     0
  9
$JOINSTYLE
280
     0
  9
$LWDISPLAY
290
     0
  9
$INSUNITS
 70
     1
  9
$HYPERLINKBASE
  1

  9
$STYLESHEET
  1

  9
$XEDIT
290
     1
  9
$CEPSNTYPE
380
     0
  9
$PSTYLEMODE
290
     1
  9
$FINGERPRINTGUID
  2
{B5468ABB-4AEC-4812-8ED8-C2F325F48228}
  9
$VERSIONGUID
  2
{04E83560-3BCD-4424-811D-96CA7FBAEF08}
  9
$EXTNAMES
290
     1
  9
$PSVPSCALE
 40
0.0
  9
$OLESTARTUP
290
     0
  9
$SORTENTS
280
   127
  9
$INDEXCTL
280
     0
  9
$HIDETEXT
280
     0
  9
$XCLIPFRAME
290
     0
  9
$HALOGAP
280
     0
  9
$OBSCOLOR
 70
   257
  9
$OBSLTYPE
280
     0
  9
$INTERSECTIONDISPLAY
280
     0
  9
$INTERSECTIONCOLOR
 70
   257
  9
$DIMASSOC
280
     1
  9
$PROJECTNAME
  1

  0
ENDSEC
  0
SECTION
  2
CLASSES
  0
CLASS
  1
ACDBDICTIONARYWDFLT
  2
AcDbDictionaryWithDefault
  3
ObjectDBX Classes
 90
        0
 91
        1
280
     0
281
     0
  0
CLASS
  1
VISUALSTYLE
  2
AcDbVisualStyle
  3
ObjectDBX Classes
 90
     4095
 91
       16
280
     0
281
     0
  0
CLASS
  1
MATERIAL
  2
AcDbMaterial
  3
ObjectDBX Classes
 90
     1024
 91
        3
280
     0
281
     0
  0
CLASS
  1
TABLESTYLE
  2
AcDbTableStyle
  3
ObjectDBX Classes
 90
     4095
 91
        1
280
     0
281
     0
  0
CLASS
  1
DICTIONARYVAR
  2
AcDbDictionaryVar
  3
ObjectDBX Classes
 90
        0
 91
        2
280
     0
281
     0
  0
ENDSEC
  0
SECTION
  2
TABLES
  0
TABLE
  2
VPORT
  5
8
330
0
100
AcDbSymbolTable
 70
     1
  0
VPORT
  5
29
330
8
100
AcDbSymbolTableRecord
100
AcDbViewportTableRecord
  2
*Active
 70
     0
 10
0.0
 20
0.0
 11
1.0
 21
1.0
 12
1.797977089810268
 22
0.0
 13
0.0
 23
0.0
 14
0.5
 24
0.5
 15
0.5
 25
0.5
 16
0.0
 26
0.0
 36
1.0
 17
3.601377952755905
 27
2.687007874015748
 37
0.0
 40
5.481496062992126
 41
1.99630996309963
 42
50.0
 43
0.0
 44
0.0
 50
0.0
 51
0.0
 71
     0
 72
   100
 73
     1
 74
     3
 75
     0
 76
     0
 77
     0
 78
     0
281
     0
 65
     1
110
0.0
120
0.0
130
0.0
111
1.0
121
0.0
131
0.0
112
0.0
122
1.0
132
0.0
 79
     0
146
0.0
  0
ENDTAB
  0
TABLE
  2
LTYPE
  5
5
330
0
100
AcDbSymbolTable
 70
    25
  0
LTYPE
  5
14
330
5
100
AcDbSymbolTableRecord
100
AcDbLinetypeTableRecord
  2
ByBlock
 70
     0
  3

 72
    65
 73
     0
 40
0.0
  0
LTYPE
  5
15
330
5
100
AcDbSymbolTableRecord
100
AcDbLinetypeTableRecord
  2
ByLayer
 70
     0
  3

 72
    65
 73
     0
 40
0.0
  0
LTYPE
  5
16
330
5
100
AcDbSymbolTableRecord
100
AcDbLinetypeTableRecord
  2
Continuous
 70
     0
  3
Solid line
 72
    65
 73
     0
 40
0.0
  0
LTYPE
  5
42
330
5
100
AcDbSymbolTableRecord
100
AcDbLinetypeTableRecord
  2
Dashed
 70
     0
  3
__ __ __ __ __ __ __ 
 72
    65
 73
     2
 40
0.75
 49
0.5
 74
     0
 49
-0.25
 74
     0
  0
LTYPE
  5
43
330
5
100
AcDbSymbolTableRecord
100
AcDbLinetypeTableRecord
  2
Dashed2
 70
     0
  3
_ _ _ _ _ _ _ _ _ _ 
 72
    65
 73
     2
 40
0.375
 49
0.25
 74
     0
 49
-0.125
 74
     0
  0
LTYPE
  5
44
330
5
100
AcDbSymbolTableRecord
100
AcDbLinetypeTableRecord
  2
DashedX2
 70
     0
  3
____  ____  ____  
 72
    65
 73
     2
 40
1.5
 49
1.0
 74
     0
 49
-0.5
 74
     0
  0
LTYPE
  5
45
330
5
100
AcDbSymbolTableRecord
100
AcDbLinetypeTableRecord
  2
Border
 70
     0
  3
__ __ . __ __ . __ __ . __ __ . __ __ . __ __ .
 72
    65
 73
     6
 40
1.75
 49
0.5
 74
     0
 49
-0.25
 74
     0
 49
0.5
 74
     0
 49
-0.25
 74
     0
 49
0.5
 74
     0
 49
-0.25
 74
     0
  0
LTYPE
  5
46
330
5
100
AcDbSymbolTableRecord
100
AcDbLinetypeTableRecord
  2
Border2
 70
     0
  3
__.__.__.__.__.__.__.__.
 72
    65
 73
     6
 40
0.875
 49
0.25
 74
     0
 49
-0.125
 74
     0
 49
0.25
 74
     0
 49
-0.125
 74
     0
 49
0.25
 74
     0
 49
-0.125
 74
     0
  0
LTYPE
  5
47
330
5
100
AcDbSymbolTableRecord
100
AcDbLinetypeTableRecord
  2
BORDERX2
 70
     0
  3
____  ____  .  
 72
    65
 73
     6
 40
3.5
 49
1.0
 74
     0
 49
-0.5
 74
     0
 49
1.0
 74
     0
 49
-0.5
 74
     0
 49
1.0
 74
     0
 49
-0.5
 74
     0
  0
LTYPE
  5
48
330
5
100
AcDbSymbolTableRecord
100
AcDbLinetypeTableRecord
  2
Center
 70
     0
  3
____ _ ____ _ ____ _ 
 72
    65
 73
     4
 40
2.0
 49
1.25
 74
     0
 49
-0.25
 74
     0
 49
0.25
 74
     0
 49
-0.25
 74
     0
  0
LTYPE
  5
49
330
5
100
AcDbSymbolTableRecord
100
AcDbLinetypeTableRecord
  2
Center2
 70
     0
  3
____ _ ____ _ ____ _ 
 72
    65
 73
     4
 40
1.125
 49
0.75
 74
     0
 49
-0.125
 74
     0
 49
0.125
 74
     0
 49
-0.125
 74
     0
  0
LTYPE
  5
4A
330
5
100
AcDbSymbolTableRecord
100
AcDbLinetypeTableRecord
  2
CenterX2
 70
     0
  3
________  __  
 72
    65
 73
     4
 40
4.0
 49
2.5
 74
     0
 49
-0.5
 74
     0
 49
0.5
 74
     0
 49
-0.5
 74
     0
  0
LTYPE
  5
4B
330
5
100
AcDbSymbolTableRecord
100
AcDbLinetypeTableRecord
  2
DashDot
 70
     0
  3
__ . __ . __ . __ . 
 72
    65
 73
     4
 40
1.0
 49
0.5
 74
     0
 49
-0.25
 74
     0
 49
0.0
 74
     0
 49
-0.25
 74
     0
  0
LTYPE
  5
4C
330
5
100
AcDbSymbolTableRecord
100
AcDbLinetypeTableRecord
  2
DashDot2
 70
     0
  3
_._._._._._._._._.
 72
    65
 73
     4
 40
0.5
 49
0.25
 74
     0
 49
-0.125
 74
     0
 49
0.0
 74
     0
 49
-0.125
 74
     0
  0
LTYPE
  5
4D
330
5
100
AcDbSymbolTableRecord
100
AcDbLinetypeTableRecord
  2
DashDotX2
 70
     0
  3
____  .  ____  .  
 72
    65
 73
     4
 40
2.0
 49
1.0
 74
     0
 49
-0.5
 74
     0
 49
0.0
 74
     0
 49
-0.5
 74
     0
  0
LTYPE
  5
4E
330
5
100
AcDbSymbolTableRecord
100
AcDbLinetypeTableRecord
  2
Divide
 70
     0
  3
____ . . ____ . . 
 72
    65
 73
     6
 40
1.25
 49
0.5
 74
     0
 49
-0.25
 74
     0
 49
0.0
 74
     0
 49
-0.25
 74
     0
 49
0.0
 74
     0
 49
-0.25
 74
     0
  0
LTYPE
  5
4F
330
5
100
AcDbSymbolTableRecord
100
AcDbLinetypeTableRecord
  2
Divide2
 70
     0
  3
__..__..__..__..__..
 72
    65
 73
     6
 40
0.625
 49
0.25
 74
     0
 49
-0.125
 74
     0
 49
0.0
 74
     0
 49
-0.125
 74
     0
 49
0.0
 74
     0
 49
-0.125
 74
     0
  0
LTYPE
  5
50
330
5
100
AcDbSymbolTableRecord
100
AcDbLinetypeTableRecord
  2
DivideX2
 70
     0
  3
________  .  .  
 72
    65
 73
     6
 40
2.5
 49
1.0
 74
     0
 49
-0.5
 74
     0
 49
0.0
 74
     0
 49
-0.5
 74
     0
 49
0.0
 74
     0
 49
-0.5
 74
     0
  0
LTYPE
  5
51
330
5
100
AcDbSymbolTableRecord
100
AcDbLinetypeTableRecord
  2
Dot
 70
     0
  3
. . . . . . . . . 
 72
    65
 73
     2
 40
0.25
 49
0.0
 74
     0
 49
-0.25
 74
     0
  0
LTYPE
  5
52
330
5
100
AcDbSymbolTableRecord
100
AcDbLinetypeTableRecord
  2
Dot2
 70
     0
  3
..................
 72
    65
 73
     2
 40
0.125
 49
0.0
 74
     0
 49
-0.125
 74
     0
  0
LTYPE
  5
53
330
5
100
AcDbSymbolTableRecord
100
AcDbLinetypeTableRecord
  2
DotX2
 70
     0
  3
.  .  .  .  .  .  
 72
    65
 73
     2
 40
0.5
 49
0.0
 74
     0
 49
-0.5
 74
     0
  0
LTYPE
  5
54
330
5
100
AcDbSymbolTableRecord
100
AcDbLinetypeTableRecord
  2
Hidden
 70
     0
  3
__ __ __ __ __ __ 
 72
    65
 73
     2
 40
0.375
 49
0.25
 74
     0
 49
-0.125
 74
     0
  0
LTYPE
  5
55
330
5
100
AcDbSymbolTableRecord
100
AcDbLinetypeTableRecord
  2
Hidden2
 70
     0
  3
_ _ _ _ _ _ _ _ _ 
 72
    65
 73
     2
 40
0.1875
 49
0.125
 74
     0
 49
-0.0625
 74
     0
  0
LTYPE
  5
56
330
5
100
AcDbSymbolTableRecord
100
AcDbLinetypeTableRecord
  2
HiddenX2
 70
     0
  3
____ ____ ____ ____ 
 72
    65
 73
     2
 40
0.75
 49
0.5
 74
     0
 49
-0.25
 74
     0
  0
LTYPE
  5
57
330
5
100
AcDbSymbolTableRecord
100
AcDbLinetypeTableRecord
  2
Phantom
 70
     0
  3
______  __  __  
 72
    65
 73
     6
 40
2.5
 49
1.25
 74
     0
 49
-0.25
 74
     0
 49
0.25
 74
     0
 49
-0.25
 74
     0
 49
0.25
 74
     0
 49
-0.25
 74
     0
  0
LTYPE
  5
58
330
5
100
AcDbSymbolTableRecord
100
AcDbLinetypeTableRecord
  2
Phantom2
 70
     0
  3
___ _ _ ___ _ _ 
 72
    65
 73
     6
 40
1.25
 49
0.625
 74
     0
 49
-0.125
 74
     0
 49
0.125
 74
     0
 49
-0.125
 74
     0
 49
0.125
 74
     0
 49
-0.125
 74
     0
  0
LTYPE
  5
59
330
5
100
AcDbSymbolTableRecord
100
AcDbLinetypeTableRecord
  2
PhantomX2
 70
     0
  3
___ _ _ ___ _ _ 
 72
    65
 73
     6
 40
5.0
 49
2.5
 74
     0
 49
-0.5
 74
     0
 49
0.5
 74
     0
 49
-0.5
 74
     0
 49
0.5
 74
     0
 49
-0.5
 74
     0
  0
ENDTAB
  0
TABLE
  2
LAYER
  5
2
330
0
100
AcDbSymbolTable
 70
     8
  0
LAYER
  5
10
330
2
100
AcDbSymbolTableRecord
100
AcDbLayerTableRecord
  2
0
 70
     0
 62
     7
  6
Continuous
370
    -3
390
F
  0
LAYER
  5
3B
330
2
100
AcDbSymbolTableRecord
100
AcDbLayerTableRecord
  2
1
 70
     0
 62
     7
  6
Continuous
370
    -3
390
F
  0
LAYER
  5
3C
330
2
100
AcDbSymbolTableRecord
100
AcDbLayerTableRecord
  2
2
 70
     0
 62
     7
  6
Continuous
370
    -3
390
F
  0
LAYER
  5
3D
330
2
100
AcDbSymbolTableRecord
100
AcDbLayerTableRecord
  2
3
 70
     0
 62
     7
  6
Continuous
370
    -3
390
F
  0
LAYER
  5
3E
330
2
100
AcDbSymbolTableRecord
100
AcDbLayerTableRecord
  2
4
 70
     0
 62
     7
  6
Continuous
370
    -3
390
F
  0
LAYER
  5
3F
330
2
100
AcDbSymbolTableRecord
100
AcDbLayerTableRecord
  2
5
 70
     0
 62
     7
  6
Continuous
370
    -3
390
F
  0
LAYER
  5
40
330
2
100
AcDbSymbolTableRecord
100
AcDbLayerTableRecord
  2
6
 70
     0
 62
     7
  6
Continuous
370
    -3
390
F
  0
LAYER
  5
41
330
2
100
AcDbSymbolTableRecord
100
AcDbLayerTableRecord
  2
7
 70
     0
 62
     7
  6
Continuous
370
    -3
390
F
  0
ENDTAB
  0
TABLE
  2
STYLE
  5
3
330
0
100
AcDbSymbolTable
 70
     1
  0
STYLE
  5
11
330
3
100
AcDbSymbolTableRecord
100
AcDbTextStyleTableRecord
  2
Standard
 70
     0
 40
0.0
 41
1.0
 50
0.0
 71
     0
 42
0.2
  3
txt
  4

  0
ENDTAB
  0
TABLE
  2
VIEW
  5
6
330
0
100
AcDbSymbolTable
 70
     0
  0
ENDTAB
  0
TABLE
  2
UCS
  5
7
330
0
100
AcDbSymbolTable
 70
     0
  0
ENDTAB
  0
TABLE
  2
APPID
  5
9
330
0
100
AcDbSymbolTable
 70
     1
  0
APPID
  5
12
330
9
100
AcDbSymbolTableRecord
100
AcDbRegAppTableRecord
  2
ACAD
 70
     0
  0
ENDTAB
  0
TABLE
  2
DIMSTYLE
  5
A
330
0
100
AcDbSymbolTable
 70
     1
100
AcDbDimStyleTable
 71
     0
  0
DIMSTYLE
105
27
330
A
100
AcDbSymbolTableRecord
100
AcDbDimStyleTableRecord
  2
Standard
 70
     0
340
11
  0
ENDTAB
  0
TABLE
  2
BLOCK_RECORD
  5
1
330
0
100
AcDbSymbolTable
 70
     1
  0
BLOCK_RECORD
  5
1F
330
1
100
AcDbSymbolTableRecord
100
AcDbBlockTableRecord
  2
*Model_Space
340
22
  0
BLOCK_RECORD
  5
1B
330
1
100
AcDbSymbolTableRecord
100
AcDbBlockTableRecord
  2
*Paper_Space
340
1E
  0
BLOCK_RECORD
  5
23
330
1
100
AcDbSymbolTableRecord
100
AcDbBlockTableRecord
  2
*Paper_Space0
340
26
  0
ENDTAB
  0
ENDSEC
  0
SECTION
  2
BLOCKS
  0
BLOCK
  5
20
330
1F
100
AcDbEntity
  8
0
100
AcDbBlockBegin
  2
*Model_Space
 70
     0
 10
0.0
 20
0.0
 30
0.0
  3
*Model_Space
  1

  0
ENDBLK
  5
21
330
1F
100
AcDbEntity
  8
0
100
AcDbBlockEnd
  0
BLOCK
  5
1C
330
1B
100
AcDbEntity
 67
     1
  8
0
100
AcDbBlockBegin
  2
*Paper_Space
 70
     0
 10
0.0
 20
0.0
 30
0.0
  3
*Paper_Space
  1

  0
ENDBLK
  5
1D
330
1B
100
AcDbEntity
 67
     1
  8
0
100
AcDbBlockEnd
  0
BLOCK
  5
24
330
23
100
AcDbEntity
 67
     1
  8
0
100
AcDbBlockBegin
  2
*Paper_Space0
 70
     0
 10
0.0
 20
0.0
 30
0.0
  3
*Paper_Space0
  1

  0
ENDBLK
  5
25
330
23
100
AcDbEntity
 67
     1
  8
0
100
AcDbBlockEnd
  0
ENDSEC
  0
SECTION
  2
ENTITIES
  0
POLYLINE
  5
5B
330
1F
100
AcDbEntity
  8
1
100
AcDb2dPolyline
 66
     1
 10
0.0
 20
0.0
 30
0.0
  0
VERTEX
  5
5C
330
5B
100
AcDbEntity
  8
1
100
AcDbVertex
100
AcDb2dVertex
 10
0.0
 20
0.0049212598425197
 30
0.0
  0
VERTEX
  5
5D
330
5B
100
AcDbEntity
  8
1
100
AcDbVertex
100
AcDb2dVertex
 10
0.0
 20
0.0
 30
0.0
  0
VERTEX
  5
5E
330
5B
100
AcDbEntity
  8
1
100
AcDbVertex
100
AcDb2dVertex
 10
0.0049212598425197
 20
0.0
 30
0.0
  0
SEQEND
  5
5F
330
5B
100
AcDbEntity
  8
1
  0
POLYLINE
  5
60
330
1F
100
AcDbEntity
  8
1
100
AcDb2dPolyline
 66
     1
 10
0.0
 20
0.0
 30
0.0
  0
VERTEX
  5
61
330
60
100
AcDbEntity
  8
1
100
AcDbVertex
100
AcDb2dVertex
 10
7.202755905511811
 20
5.369094488188975
 30
0.0
  0
VERTEX
  5
62
330
60
100
AcDbEntity
  8
1
100
AcDbVertex
100
AcDb2dVertex
 10
7.202755905511811
 20
5.374015748031496
 30
0.0
  0
VERTEX
  5
63
330
60
100
AcDbEntity
  8
1
100
AcDbVertex
100
AcDb2dVertex
 10
7.197834645669291
 20
5.374015748031496
 30
0.0
  0
SEQEND
  5
64
330
60
100
AcDbEntity
  8
1
  0
POLYLINE
  5
65
330
1F
100
AcDbEntity
  8
1
100
AcDb2dPolyline
 66
     1
 10
0.0
 20
0.0
 30
0.0
  0
VERTEX
  5
66
330
65
100
AcDbEntity
  8
1
100
AcDbVertex
100
AcDb2dVertex
 10
7.202755905511811
 20
5.369094488188975
 30
0.0
  0
VERTEX
  5
67
330
65
100
AcDbEntity
  8
1
100
AcDbVertex
100
AcDb2dVertex
 10
7.202755905511811
 20
5.374015748031496
 30
0.0
  0
VERTEX
  5
68
330
65
100
AcDbEntity
  8
1
100
AcDbVertex
100
AcDb2dVertex
 10
7.197834645669291
 20
5.374015748031496
 30
0.0
  0
SEQEND
  5
69
330
65
100
AcDbEntity
  8
1
  0
POLYLINE
  5
6A
330
1F
100
AcDbEntity
  8
1
100
AcDb2dPolyline
 66
     1
 10
0.0
 20
0.0
 30
0.0
  0
VERTEX
  5
6B
330
6A
100
AcDbEntity
  8
1
100
AcDbVertex
100
AcDb2dVertex
 10
5.981299212598425
 20
4.81496062992126
 30
0.0
  0
VERTEX
  5
6C
330
6A
100
AcDbEntity
  8
1
100
AcDbVertex
100
AcDb2dVertex
 10
5.924212598425197
 20
4.543307086614173
 30
0.0
  0
VERTEX
  5
6D
330
6A
100
AcDbEntity
  8
1
100
AcDbVertex
100
AcDb2dVertex
 10
5.874015748031496
 20
4.269685039370078
 30
0.0
  0
VERTEX
  5
6E
330
6A
100
AcDbEntity
  8
1
100
AcDbVertex
100
AcDb2dVertex
 10
5.831692913385826
 20
3.99507874015748
 30
0.0
  0
VERTEX
  5
6F
330
6A
100
AcDbEntity
  8
1
100
AcDbVertex
100
AcDb2dVertex
 10
5.797244094488188
 20
3.719488188976377
 30
0.0
  0
VERTEX
  5
70
330
6A
100
AcDbEntity
  8
1
100
AcDbVertex
100
AcDb2dVertex
 10
5.770669291338582
 20
3.442913385826771
 30
0.0
  0
VERTEX
  5
71
330
6A
100
AcDbEntity
  8
1
100
AcDbVertex
100
AcDb2dVertex
 10
5.750984251968503
 20
3.166338582677165
 30
0.0
  0
VERTEX
  5
72
330
6A
100
AcDbEntity
  8
1
100
AcDbVertex
100
AcDb2dVertex
 10
5.739173228346456
 20
2.888779527559055
 30
0.0
  0
VERTEX
  5
73
330
6A
100
AcDbEntity
  8
1
100
AcDbVertex
100
AcDb2dVertex
 10
5.73523622047244
 20
2.61023622047244
 30
0.0
  0
VERTEX
  5
74
330
6A
100
AcDbEntity
  8
1
100
AcDbVertex
100
AcDb2dVertex
 10
5.739173228346456
 20
2.33267716535433
 30
0.0
  0
VERTEX
  5
75
330
6A
100
AcDbEntity
  8
1
100
AcDbVertex
100
AcDb2dVertex
 10
5.750984251968503
 20
2.05511811023622
 30
0.0
  0
VERTEX
  5
76
330
6A
100
AcDbEntity
  8
1
100
AcDbVertex
100
AcDb2dVertex
 10
5.770669291338582
 20
1.778543307086614
 30
0.0
  0
VERTEX
  5
77
330
6A
100
AcDbEntity
  8
1
100
AcDbVertex
100
AcDb2dVertex
 10
5.797244094488188
 20
1.501968503937007
 30
0.0
  0
VERTEX
  5
78
330
6A
100
AcDbEntity
  8
1
100
AcDbVertex
100
AcDb2dVertex
 10
5.831692913385826
 20
1.226377952755905
 30
0.0
  0
VERTEX
  5
79
330
6A
100
AcDbEntity
  8
1
100
AcDbVertex
100
AcDb2dVertex
 10
5.874015748031496
 20
0.951771653543307
 30
0.0
  0
VERTEX
  5
7A
330
6A
100
AcDbEntity
  8
1
100
AcDbVertex
100
AcDb2dVertex
 10
5.924212598425197
 20
0.6781496062992126
 30
0.0
  0
VERTEX
  5
7B
330
6A
100
AcDbEntity
  8
1
100
AcDbVertex
100
AcDb2dVertex
 10
5.981299212598425
 20
0.4064960629921261
 30
0.0
  0
SEQEND
  5
7C
330
6A
100
AcDbEntity
  8
1
  0
POLYLINE
  5
7D
330
1F
100
AcDbEntity
  8
1
100
AcDb2dPolyline
 66
     1
 10
0.0
 20
0.0
 30
0.0
  0
VERTEX
  5
7E
330
7D
100
AcDbEntity
  8
1
100
AcDbVertex
100
AcDb2dVertex
 10
6.315944881889763
 20
4.86023622047244
 30
0.0
  0
VERTEX
  5
7F
330
7D
100
AcDbEntity
  8
1
100
AcDbVertex
100
AcDb2dVertex
 10
6.315944881889763
 20
4.856299212598425
 30
0.0
  0
VERTEX
  5
80
330
7D
100
AcDbEntity
  8
1
100
AcDbVertex
100
AcDb2dVertex
 10
6.315944881889763
 20
4.845472440944881
 30
0.0
  0
VERTEX
  5
81
330
7D
100
AcDbEntity
  8
1
100
AcDbVertex
100
AcDb2dVertex
 10
6.315944881889763
 20
4.829724409448818
 30
0.0
  0
SEQEND
  5
82
330
7D
100
AcDbEntity
  8
1
  0
LINE
  5
83
330
1F
100
AcDbEntity
  8
1
100
AcDbLine
 10
6.315944881889763
 20
4.829724409448818
 30
0.0
 11
6.315944881889763
 21
0.3917322834645669
 31
0.0
  0
POLYLINE
  5
84
330
1F
100
AcDbEntity
  8
1
100
AcDb2dPolyline
 66
     1
 10
0.0
 20
0.0
 30
0.0
  0
VERTEX
  5
85
330
84
100
AcDbEntity
  8
1
100
AcDbVertex
100
AcDb2dVertex
 10
6.315944881889763
 20
0.3602362204724409
 30
0.0
  0
VERTEX
  5
86
330
84
100
AcDbEntity
  8
1
100
AcDbVertex
100
AcDb2dVertex
 10
6.315944881889763
 20
0.3651574803149606
 30
0.0
  0
VERTEX
  5
87
330
84
100
AcDbEntity
  8
1
100
AcDbVertex
100
AcDb2dVertex
 10
6.315944881889763
 20
0.3759842519685039
 30
0.0
  0
VERTEX
  5
88
330
84
100
AcDbEntity
  8
1
100
AcDbVertex
100
AcDb2dVertex
 10
6.315944881889763
 20
0.3917322834645669
 30
0.0
  0
SEQEND
  5
89
330
84
100
AcDbEntity
  8
1
  0
POLYLINE
  5
8A
330
1F
100
AcDbEntity
  8
1
100
AcDb2dPolyline
 66
     1
 10
0.0
 20
0.0
 30
0.0
  0
VERTEX
  5
8B
330
8A
100
AcDbEntity
  8
1
100
AcDbVertex
100
AcDb2dVertex
 10
6.009842519685038
 20
4.839566929133858
 30
0.0
  0
VERTEX
  5
8C
330
8A
100
AcDbEntity
  8
1
100
AcDbVertex
100
AcDb2dVertex
 10
5.992125984251968
 20
4.831692913385826
 30
0.0
  0
VERTEX
  5
8D
330
8A
100
AcDbEntity
  8
1
100
AcDbVertex
100
AcDb2dVertex
 10
5.981299212598425
 20
4.81496062992126
 30
0.0
  0
SEQEND
  5
8E
330
8A
100
AcDbEntity
  8
1
  0
LINE
  5
8F
330
1F
100
AcDbEntity
  8
1
100
AcDbLine
 10
6.009842519685038
 20
4.839566929133858
 30
0.0
 11
6.315944881889763
 21
4.86023622047244
 31
0.0
  0
POLYLINE
  5
90
330
1F
100
AcDbEntity
  8
1
100
AcDb2dPolyline
 66
     1
 10
0.0
 20
0.0
 30
0.0
  0
VERTEX
  5
91
330
90
100
AcDbEntity
  8
1
100
AcDbVertex
100
AcDb2dVertex
 10
6.009842519685038
 20
0.4133858267716536
 30
0.0
  0
VERTEX
  5
92
330
90
100
AcDbEntity
  8
1
100
AcDbVertex
100
AcDb2dVertex
 10
5.989173228346456
 20
0.4084645669291339
 30
0.0
  0
VERTEX
  5
93
330
90
100
AcDbEntity
  8
1
100
AcDbVertex
100
AcDb2dVertex
 10
5.981299212598425
 20
0.4064960629921261
 30
0.0
  0
SEQEND
  5
94
330
90
100
AcDbEntity
  8
1
  0
POLYLINE
  5
95
330
1F
100
AcDbEntity
  8
1
100
AcDb2dPolyline
 66
     1
 10
0.0
 20
0.0
 30
0.0
  0
VERTEX
  5
96
330
95
100
AcDbEntity
  8
1
100
AcDbVertex
100
AcDb2dVertex
 10
6.009842519685038
 20
0.3818897637795275
 30
0.0
  0
VERTEX
  5
97
330
95
100
AcDbEntity
  8
1
100
AcDbVertex
100
AcDb2dVertex
 10
5.992125984251968
 20
0.389763779527559
 30
0.0
  0
VERTEX
  5
98
330
95
100
AcDbEntity
  8
1
100
AcDbVertex
100
AcDb2dVertex
 10
5.981299212598425
 20
0.4064960629921261
 30
0.0
  0
SEQEND
  5
99
330
95
100
AcDbEntity
  8
1
  0
POLYLINE
  5
9A
330
1F
100
AcDbEntity
  8
1
100
AcDb2dPolyline
 66
     1
 10
0.0
 20
0.0
 30
0.0
  0
VERTEX
  5
9B
330
9A
100
AcDbEntity
  8
1
100
AcDbVertex
100
AcDb2dVertex
 10
6.009842519685038
 20
0.4133858267716536
 30
0.0
  0
VERTEX
  5
9C
330
9A
100
AcDbEntity
  8
1
100
AcDbVertex
100
AcDb2dVertex
 10
6.008858267716535
 20
0.3976377952755905
 30
0.0
  0
VERTEX
  5
9D
330
9A
100
AcDbEntity
  8
1
100
AcDbVertex
100
AcDb2dVertex
 10
6.008858267716535
 20
0.3858267716535433
 30
0.0
  0
VERTEX
  5
9E
330
9A
100
AcDbEntity
  8
1
100
AcDbVertex
100
AcDb2dVertex
 10
6.009842519685038
 20
0.3818897637795275
 30
0.0
  0
SEQEND
  5
9F
330
9A
100
AcDbEntity
  8
1
  0
POLYLINE
  5
A0
330
1F
100
AcDbEntity
  8
1
100
AcDb2dPolyline
 66
     1
 10
0.0
 20
0.0
 30
0.0
  0
VERTEX
  5
A1
330
A0
100
AcDbEntity
  8
1
100
AcDbVertex
100
AcDb2dVertex
 10
6.009842519685038
 20
4.808070866141732
 30
0.0
  0
VERTEX
  5
A2
330
A0
100
AcDbEntity
  8
1
100
AcDbVertex
100
AcDb2dVertex
 10
5.989173228346456
 20
4.812992125984251
 30
0.0
  0
VERTEX
  5
A3
330
A0
100
AcDbEntity
  8
1
100
AcDbVertex
100
AcDb2dVertex
 10
5.981299212598425
 20
4.81496062992126
 30
0.0
  0
SEQEND
  5
A4
330
A0
100
AcDbEntity
  8
1
  0
POLYLINE
  5
A5
330
1F
100
AcDbEntity
  8
1
100
AcDb2dPolyline
 66
     1
 10
0.0
 20
0.0
 30
0.0
  0
VERTEX
  5
A6
330
A5
100
AcDbEntity
  8
1
100
AcDbVertex
100
AcDb2dVertex
 10
6.009842519685038
 20
0.4133858267716536
 30
0.0
  0
VERTEX
  5
A7
330
A5
100
AcDbEntity
  8
1
100
AcDbVertex
100
AcDb2dVertex
 10
5.952755905511811
 20
0.6840551181102362
 30
0.0
  0
VERTEX
  5
A8
330
A5
100
AcDbEntity
  8
1
100
AcDbVertex
100
AcDb2dVertex
 10
5.90255905511811
 20
0.9566929133858266
 30
0.0
  0
VERTEX
  5
A9
330
A5
100
AcDbEntity
  8
1
100
AcDbVertex
100
AcDb2dVertex
 10
5.86023622047244
 20
1.230314960629921
 30
0.0
  0
VERTEX
  5
AA
330
A5
100
AcDbEntity
  8
1
100
AcDbVertex
100
AcDb2dVertex
 10
5.825787401574802
 20
1.504921259842519
 30
0.0
  0
VERTEX
  5
AB
330
A5
100
AcDbEntity
  8
1
100
AcDbVertex
100
AcDb2dVertex
 10
5.799212598425197
 20
1.780511811023622
 30
0.0
  0
VERTEX
  5
AC
330
A5
100
AcDbEntity
  8
1
100
AcDbVertex
100
AcDb2dVertex
 10
5.779527559055117
 20
2.057086614173228
 30
0.0
  0
VERTEX
  5
AD
330
A5
100
AcDbEntity
  8
1
100
AcDbVertex
100
AcDb2dVertex
 10
5.768700787401574
 20
2.333661417322834
 30
0.0
  0
VERTEX
  5
AE
330
A5
100
AcDbEntity
  8
1
100
AcDbVertex
100
AcDb2dVertex
 10
5.764763779527559
 20
2.61023622047244
 30
0.0
  0
VERTEX
  5
AF
330
A5
100
AcDbEntity
  8
1
100
AcDbVertex
100
AcDb2dVertex
 10
5.768700787401574
 20
2.88779527559055
 30
0.0
  0
VERTEX
  5
B0
330
A5
100
AcDbEntity
  8
1
100
AcDbVertex
100
AcDb2dVertex
 10
5.779527559055117
 20
3.164370078740157
 30
0.0
  0
VERTEX
  5
B1
330
A5
100
AcDbEntity
  8
1
100
AcDbVertex
100
AcDb2dVertex
 10
5.799212598425197
 20
3.440944881889763
 30
0.0
  0
VERTEX
  5
B2
330
A5
100
AcDbEntity
  8
1
100
AcDbVertex
100
AcDb2dVertex
 10
5.825787401574802
 20
3.716535433070866
 30
0.0
  0
VERTEX
  5
B3
330
A5
100
AcDbEntity
  8
1
100
AcDbVertex
100
AcDb2dVertex
 10
5.86023622047244
 20
3.991141732283464
 30
0.0
  0
VERTEX
  5
B4
330
A5
100
AcDbEntity
  8
1
100
AcDbVertex
100
AcDb2dVertex
 10
5.90255905511811
 20
4.264763779527559
 30
0.0
  0
VERTEX
  5
B5
330
A5
100
AcDbEntity
  8
1
100
AcDbVertex
100
AcDb2dVertex
 10
5.952755905511811
 20
4.537401574803149
 30
0.0
  0
VERTEX
  5
B6
330
A5
100
AcDbEntity
  8
1
100
AcDbVertex
100
AcDb2dVertex
 10
6.009842519685038
 20
4.808070866141732
 30
0.0
  0
SEQEND
  5
B7
330
A5
100
AcDbEntity
  8
1
  0
POLYLINE
  5
B8
330
1F
100
AcDbEntity
  8
1
100
AcDb2dPolyline
 66
     1
 10
0.0
 20
0.0
 30
0.0
  0
VERTEX
  5
B9
330
B8
100
AcDbEntity
  8
1
100
AcDbVertex
100
AcDb2dVertex
 10
6.009842519685038
 20
4.808070866141732
 30
0.0
  0
VERTEX
  5
BA
330
B8
100
AcDbEntity
  8
1
100
AcDbVertex
100
AcDb2dVertex
 10
6.008858267716535
 20
4.823818897637795
 30
0.0
  0
VERTEX
  5
BB
330
B8
100
AcDbEntity
  8
1
100
AcDbVertex
100
AcDb2dVertex
 10
6.008858267716535
 20
4.834645669291338
 30
0.0
  0
VERTEX
  5
BC
330
B8
100
AcDbEntity
  8
1
100
AcDbVertex
100
AcDb2dVertex
 10
6.009842519685038
 20
4.839566929133858
 30
0.0
  0
SEQEND
  5
BD
330
B8
100
AcDbEntity
  8
1
  0
LINE
  5
BE
330
1F
100
AcDbEntity
  8
1
100
AcDbLine
 10
6.009842519685038
 20
0.3818897637795275
 30
0.0
 11
6.315944881889763
 21
0.3602362204724409
 31
0.0
  0
LINE
  5
BF
330
1F
100
AcDbEntity
  8
1
100
AcDbLine
 10
6.315944881889763
 20
0.3917322834645669
 30
0.0
 11
6.009842519685038
 21
0.4133858267716536
 31
0.0
  0
LINE
  5
C0
330
1F
100
AcDbEntity
  8
1
100
AcDbLine
 10
6.315944881889763
 20
4.829724409448818
 30
0.0
 11
6.009842519685038
 21
4.808070866141732
 31
0.0
  0
LINE
  5
C1
330
1F
100
AcDbEntity
  8
1
100
AcDbLine
 10
5.787401574803149
 20
1.591535433070866
 30
0.0
 11
5.412401574803149
 21
1.966535433070866
 31
0.0
  0
LINE
  5
C2
330
1F
100
AcDbEntity
  8
1
100
AcDbLine
 10
5.74015748031496
 20
2.303149606299212
 30
0.0
 11
5.478346456692912
 21
2.03248031496063
 31
0.0
  0
LINE
  5
C3
330
1F
100
AcDbEntity
  8
1
100
AcDbLine
 10
5.478346456692912
 20
2.03248031496063
 30
0.0
 11
5.773622047244094
 21
1.737204724409448
 31
0.0
  0
LINE
  5
C4
330
1F
100
AcDbEntity
  8
1
100
AcDbLine
 10
5.411417322834645
 20
2.097440944881889
 30
0.0
 11
5.737204724409449
 21
2.434055118110236
 31
0.0
  0
LINE
  5
C5
330
1F
100
AcDbEntity
  8
1
100
AcDbLine
 10
6.426181102362204
 20
1.780511811023622
 30
0.0
 11
6.315944881889763
 21
1.780511811023622
 31
0.0
  0
LINE
  5
C6
330
1F
100
AcDbEntity
  8
1
100
AcDbLine
 10
6.426181102362204
 20
1.780511811023622
 30
0.0
 11
6.426181102362204
 21
2.105314960629921
 31
0.0
  0
LINE
  5
C7
330
1F
100
AcDbEntity
  8
1
100
AcDbLine
 10
6.315944881889763
 20
2.105314960629921
 30
0.0
 11
6.426181102362204
 21
2.105314960629921
 31
0.0
  0
POLYLINE
  5
C8
330
1F
100
AcDbEntity
  8
1
100
AcDb2dPolyline
 66
     1
 10
0.0
 20
0.0
 30
0.0
  0
VERTEX
  5
C9
330
C8
100
AcDbEntity
  8
1
100
AcDbVertex
100
AcDb2dVertex
 10
5.478346456692912
 20
2.03248031496063
 30
0.0
  0
VERTEX
  5
CA
330
C8
100
AcDbEntity
  8
1
100
AcDbVertex
100
AcDb2dVertex
 10
5.45767716535433
 20
2.052165354330708
 30
0.0
  0
VERTEX
  5
CB
330
C8
100
AcDbEntity
  8
1
100
AcDbVertex
100
AcDb2dVertex
 10
5.438976377952755
 20
2.069881889763779
 30
0.0
  0
VERTEX
  5
CC
330
C8
100
AcDbEntity
  8
1
100
AcDbVertex
100
AcDb2dVertex
 10
5.424212598425197
 20
2.084645669291338
 30
0.0
  0
VERTEX
  5
CD
330
C8
100
AcDbEntity
  8
1
100
AcDbVertex
100
AcDb2dVertex
 10
5.414370078740157
 20
2.093503937007874
 30
0.0
  0
VERTEX
  5
CE
330
C8
100
AcDbEntity
  8
1
100
AcDbVertex
100
AcDb2dVertex
 10
5.411417322834645
 20
2.097440944881889
 30
0.0
  0
SEQEND
  5
CF
330
C8
100
AcDbEntity
  8
1
  0
POLYLINE
  5
D0
330
1F
100
AcDbEntity
  8
1
100
AcDb2dPolyline
 66
     1
 10
0.0
 20
0.0
 30
0.0
  0
VERTEX
  5
D1
330
D0
100
AcDbEntity
  8
1
100
AcDbVertex
100
AcDb2dVertex
 10
5.412401574803149
 20
1.966535433070866
 30
0.0
  0
VERTEX
  5
D2
330
D0
100
AcDbEntity
  8
1
100
AcDbVertex
100
AcDb2dVertex
 10
5.415354330708661
 20
1.969488188976377
 30
0.0
  0
VERTEX
  5
D3
330
D0
100
AcDbEntity
  8
1
100
AcDbVertex
100
AcDb2dVertex
 10
5.4251968503937
 20
1.979330708661417
 30
0.0
  0
VERTEX
  5
D4
330
D0
100
AcDbEntity
  8
1
100
AcDbVertex
100
AcDb2dVertex
 10
5.43996062992126
 20
1.994094488188976
 30
0.0
  0
VERTEX
  5
D5
330
D0
100
AcDbEntity
  8
1
100
AcDbVertex
100
AcDb2dVertex
 10
5.45767716535433
 20
2.011811023622047
 30
0.0
  0
VERTEX
  5
D6
330
D0
100
AcDbEntity
  8
1
100
AcDbVertex
100
AcDb2dVertex
 10
5.478346456692912
 20
2.03248031496063
 30
0.0
  0
SEQEND
  5
D7
330
D0
100
AcDbEntity
  8
1
  0
POLYLINE
  5
D8
330
1F
100
AcDbEntity
  8
1
100
AcDb2dPolyline
 66
     1
 10
0.0
 20
0.0
 30
0.0
  0
VERTEX
  5
D9
330
D8
100
AcDbEntity
  8
1
100
AcDbVertex
100
AcDb2dVertex
 10
5.412401574803149
 20
1.966535433070866
 30
0.0
  0
VERTEX
  5
DA
330
D8
100
AcDbEntity
  8
1
100
AcDbVertex
100
AcDb2dVertex
 10
5.395669291338582
 20
1.99015748031496
 30
0.0
  0
VERTEX
  5
DB
330
D8
100
AcDbEntity
  8
1
100
AcDbVertex
100
AcDb2dVertex
 10
5.386811023622047
 20
2.016732283464567
 30
0.0
  0
VERTEX
  5
DC
330
D8
100
AcDbEntity
  8
1
100
AcDbVertex
100
AcDb2dVertex
 10
5.385826771653543
 20
2.046259842519685
 30
0.0
  0
VERTEX
  5
DD
330
D8
100
AcDbEntity
  8
1
100
AcDbVertex
100
AcDb2dVertex
 10
5.394685039370078
 20
2.073818897637795
 30
0.0
  0
VERTEX
  5
DE
330
D8
100
AcDbEntity
  8
1
100
AcDbVertex
100
AcDb2dVertex
 10
5.411417322834645
 20
2.097440944881889
 30
0.0
  0
SEQEND
  5
DF
330
D8
100
AcDbEntity
  8
1
  0
LINE
  5
E0
330
1F
100
AcDbEntity
  8
1
100
AcDbLine
 10
5.742125984251968
 20
2.972440944881889
 30
0.0
 11
5.412401574803149
 21
3.301181102362204
 31
0.0
  0
LINE
  5
E1
330
1F
100
AcDbEntity
  8
1
100
AcDbLine
 10
5.794291338582676
 20
3.694881889763779
 30
0.0
 11
5.478346456692912
 21
3.367125984251968
 31
0.0
  0
LINE
  5
E2
330
1F
100
AcDbEntity
  8
1
100
AcDbLine
 10
5.478346456692912
 20
3.367125984251968
 30
0.0
 11
5.747047244094487
 21
3.098425196850393
 31
0.0
  0
LINE
  5
E3
330
1F
100
AcDbEntity
  8
1
100
AcDbLine
 10
5.411417322834645
 20
3.432086614173228
 30
0.0
 11
5.812007874015748
 21
3.847440944881889
 31
0.0
  0
LINE
  5
E4
330
1F
100
AcDbEntity
  8
1
100
AcDbLine
 10
6.426181102362204
 20
3.116141732283464
 30
0.0
 11
6.315944881889763
 21
3.116141732283464
 31
0.0
  0
LINE
  5
E5
330
1F
100
AcDbEntity
  8
1
100
AcDbLine
 10
6.426181102362204
 20
3.116141732283464
 30
0.0
 11
6.426181102362204
 21
3.440944881889763
 31
0.0
  0
LINE
  5
E6
330
1F
100
AcDbEntity
  8
1
100
AcDbLine
 10
6.315944881889763
 20
3.440944881889763
 30
0.0
 11
6.426181102362204
 21
3.440944881889763
 31
0.0
  0
POLYLINE
  5
E7
330
1F
100
AcDbEntity
  8
1
100
AcDb2dPolyline
 66
     1
 10
0.0
 20
0.0
 30
0.0
  0
VERTEX
  5
E8
330
E7
100
AcDbEntity
  8
1
100
AcDbVertex
100
AcDb2dVertex
 10
5.478346456692912
 20
3.367125984251968
 30
0.0
  0
VERTEX
  5
E9
330
E7
100
AcDbEntity
  8
1
100
AcDbVertex
100
AcDb2dVertex
 10
5.45767716535433
 20
3.38779527559055
 30
0.0
  0
VERTEX
  5
EA
330
E7
100
AcDbEntity
  8
1
100
AcDbVertex
100
AcDb2dVertex
 10
5.438976377952755
 20
3.405511811023622
 30
0.0
  0
VERTEX
  5
EB
330
E7
100
AcDbEntity
  8
1
100
AcDbVertex
100
AcDb2dVertex
 10
5.424212598425197
 20
3.419291338582677
 30
0.0
  0
VERTEX
  5
EC
330
E7
100
AcDbEntity
  8
1
100
AcDbVertex
100
AcDb2dVertex
 10
5.414370078740157
 20
3.429133858267716
 30
0.0
  0
VERTEX
  5
ED
330
E7
100
AcDbEntity
  8
1
100
AcDbVertex
100
AcDb2dVertex
 10
5.411417322834645
 20
3.432086614173228
 30
0.0
  0
SEQEND
  5
EE
330
E7
100
AcDbEntity
  8
1
  0
POLYLINE
  5
EF
330
1F
100
AcDbEntity
  8
1
100
AcDb2dPolyline
 66
     1
 10
0.0
 20
0.0
 30
0.0
  0
VERTEX
  5
F0
330
EF
100
AcDbEntity
  8
1
100
AcDbVertex
100
AcDb2dVertex
 10
5.412401574803149
 20
3.301181102362204
 30
0.0
  0
VERTEX
  5
F1
330
EF
100
AcDbEntity
  8
1
100
AcDbVertex
100
AcDb2dVertex
 10
5.415354330708661
 20
3.30511811023622
 30
0.0
  0
VERTEX
  5
F2
330
EF
100
AcDbEntity
  8
1
100
AcDbVertex
100
AcDb2dVertex
 10
5.4251968503937
 20
3.313976377952756
 30
0.0
  0
VERTEX
  5
F3
330
EF
100
AcDbEntity
  8
1
100
AcDbVertex
100
AcDb2dVertex
 10
5.43996062992126
 20
3.328740157480314
 30
0.0
  0
VERTEX
  5
F4
330
EF
100
AcDbEntity
  8
1
100
AcDbVertex
100
AcDb2dVertex
 10
5.45767716535433
 20
3.347440944881889
 30
0.0
  0
VERTEX
  5
F5
330
EF
100
AcDbEntity
  8
1
100
AcDbVertex
100
AcDb2dVertex
 10
5.478346456692912
 20
3.367125984251968
 30
0.0
  0
SEQEND
  5
F6
330
EF
100
AcDbEntity
  8
1
  0
POLYLINE
  5
F7
330
1F
100
AcDbEntity
  8
1
100
AcDb2dPolyline
 66
     1
 10
0.0
 20
0.0
 30
0.0
  0
VERTEX
  5
F8
330
F7
100
AcDbEntity
  8
1
100
AcDbVertex
100
AcDb2dVertex
 10
5.412401574803149
 20
3.301181102362204
 30
0.0
  0
VERTEX
  5
F9
330
F7
100
AcDbEntity
  8
1
100
AcDbVertex
100
AcDb2dVertex
 10
5.395669291338582
 20
3.324803149606299
 30
0.0
  0
VERTEX
  5
FA
330
F7
100
AcDbEntity
  8
1
100
AcDbVertex
100
AcDb2dVertex
 10
5.386811023622047
 20
3.352362204724409
 30
0.0
  0
VERTEX
  5
FB
330
F7
100
AcDbEntity
  8
1
100
AcDbVertex
100
AcDb2dVertex
 10
5.385826771653543
 20
3.380905511811023
 30
0.0
  0
VERTEX
  5
FC
330
F7
100
AcDbEntity
  8
1
100
AcDbVertex
100
AcDb2dVertex
 10
5.394685039370078
 20
3.408464566929133
 30
0.0
  0
VERTEX
  5
FD
330
F7
100
AcDbEntity
  8
1
100
AcDbVertex
100
AcDb2dVertex
 10
5.411417322834645
 20
3.432086614173228
 30
0.0
  0
SEQEND
  5
FE
330
F7
100
AcDbEntity
  8
1
  0
LINE
  5
FF
330
1F
100
AcDbEntity
  8
1
100
AcDbLine
 10
1.866141732283464
 20
2.814960629921259
 30
0.0
 11
1.690944881889763
 21
2.814960629921259
 31
0.0
  0
LINE
  5
100
330
1F
100
AcDbEntity
  8
1
100
AcDbLine
 10
2.500984251968503
 20
2.814960629921259
 30
0.0
 11
2.325787401574803
 21
2.814960629921259
 31
0.0
  0
LINE
  5
101
330
1F
100
AcDbEntity
  8
1
100
AcDbLine
 10
2.500984251968503
 20
1.479330708661417
 30
0.0
 11
2.325787401574803
 21
1.479330708661417
 31
0.0
  0
LINE
  5
102
330
1F
100
AcDbEntity
  8
1
100
AcDbLine
 10
1.866141732283464
 20
1.479330708661417
 30
0.0
 11
1.690944881889763
 21
1.479330708661417
 31
0.0
  0
LINE
  5
103
330
1F
100
AcDbEntity
  8
1
100
AcDbLine
 10
1.470472440944881
 20
3.949803149606299
 30
0.0
 11
2.722440944881889
 21
3.949803149606299
 31
0.0
  0
LINE
  5
104
330
1F
100
AcDbEntity
  8
1
100
AcDbLine
 10
1.470472440944881
 20
1.271653543307086
 30
0.0
 11
2.722440944881889
 21
1.271653543307086
 31
0.0
  0
POLYLINE
  5
105
330
1F
100
AcDbEntity
  8
1
100
AcDb2dPolyline
 66
     1
 10
0.0
 20
0.0
 30
0.0
  0
VERTEX
  5
106
330
105
100
AcDbEntity
  8
1
100
AcDbVertex
100
AcDb2dVertex
 10
0.7736220472440945
 20
4.81496062992126
 30
0.0
  0
VERTEX
  5
107
330
105
100
AcDbEntity
  8
1
100
AcDbVertex
100
AcDb2dVertex
 10
0.7775590551181102
 20
4.543307086614173
 30
0.0
  0
VERTEX
  5
108
330
105
100
AcDbEntity
  8
1
100
AcDbVertex
100
AcDb2dVertex
 10
0.781496062992126
 20
4.269685039370078
 30
0.0
  0
VERTEX
  5
109
330
105
100
AcDbEntity
  8
1
100
AcDbVertex
100
AcDb2dVertex
 10
0.7844488188976378
 20
3.99507874015748
 30
0.0
  0
VERTEX
  5
10A
330
105
100
AcDbEntity
  8
1
100
AcDbVertex
100
AcDb2dVertex
 10
0.7864173228346456
 20
3.719488188976377
 30
0.0
  0
VERTEX
  5
10B
330
105
100
AcDbEntity
  8
1
100
AcDbVertex
100
AcDb2dVertex
 10
0.7883858267716536
 20
3.442913385826771
 30
0.0
  0
VERTEX
  5
10C
330
105
100
AcDbEntity
  8
1
100
AcDbVertex
100
AcDb2dVertex
 10
0.7893700787401575
 20
3.166338582677165
 30
0.0
  0
VERTEX
  5
10D
330
105
100
AcDbEntity
  8
1
100
AcDbVertex
100
AcDb2dVertex
 10
0.7903543307086615
 20
2.888779527559055
 30
0.0
  0
VERTEX
  5
10E
330
105
100
AcDbEntity
  8
1
100
AcDbVertex
100
AcDb2dVertex
 10
0.7903543307086615
 20
2.61023622047244
 30
0.0
  0
VERTEX
  5
10F
330
105
100
AcDbEntity
  8
1
100
AcDbVertex
100
AcDb2dVertex
 10
0.7903543307086615
 20
2.33267716535433
 30
0.0
  0
VERTEX
  5
110
330
105
100
AcDbEntity
  8
1
100
AcDbVertex
100
AcDb2dVertex
 10
0.7893700787401575
 20
2.05511811023622
 30
0.0
  0
VERTEX
  5
111
330
105
100
AcDbEntity
  8
1
100
AcDbVertex
100
AcDb2dVertex
 10
0.7883858267716536
 20
1.778543307086614
 30
0.0
  0
VERTEX
  5
112
330
105
100
AcDbEntity
  8
1
100
AcDbVertex
100
AcDb2dVertex
 10
0.7864173228346456
 20
1.501968503937007
 30
0.0
  0
VERTEX
  5
113
330
105
100
AcDbEntity
  8
1
100
AcDbVertex
100
AcDb2dVertex
 10
0.7844488188976378
 20
1.226377952755905
 30
0.0
  0
VERTEX
  5
114
330
105
100
AcDbEntity
  8
1
100
AcDbVertex
100
AcDb2dVertex
 10
0.781496062992126
 20
0.951771653543307
 30
0.0
  0
VERTEX
  5
115
330
105
100
AcDbEntity
  8
1
100
AcDbVertex
100
AcDb2dVertex
 10
0.7775590551181102
 20
0.6781496062992126
 30
0.0
  0
VERTEX
  5
116
330
105
100
AcDbEntity
  8
1
100
AcDbVertex
100
AcDb2dVertex
 10
0.7736220472440945
 20
0.4064960629921261
 30
0.0
  0
SEQEND
  5
117
330
105
100
AcDbEntity
  8
1
  0
LINE
  5
118
330
1F
100
AcDbEntity
  8
1
100
AcDbLine
 10
0.7736220472440945
 20
0.4064960629921261
 30
0.0
 11
3.418307086614173
 21
0.4064960629921261
 31
0.0
  0
POLYLINE
  5
119
330
1F
100
AcDbEntity
  8
1
100
AcDb2dPolyline
 66
     1
 10
0.0
 20
0.0
 30
0.0
  0
VERTEX
  5
11A
330
119
100
AcDbEntity
  8
1
100
AcDbVertex
100
AcDb2dVertex
 10
3.418307086614173
 20
4.81496062992126
 30
0.0
  0
VERTEX
  5
11B
330
119
100
AcDbEntity
  8
1
100
AcDbVertex
100
AcDb2dVertex
 10
3.414370078740157
 20
4.543307086614173
 30
0.0
  0
VERTEX
  5
11C
330
119
100
AcDbEntity
  8
1
100
AcDbVertex
100
AcDb2dVertex
 10
3.411417322834645
 20
4.269685039370078
 30
0.0
  0
VERTEX
  5
11D
330
119
100
AcDbEntity
  8
1
100
AcDbVertex
100
AcDb2dVertex
 10
3.408464566929133
 20
3.99507874015748
 30
0.0
  0
VERTEX
  5
11E
330
119
100
AcDbEntity
  8
1
100
AcDbVertex
100
AcDb2dVertex
 10
3.405511811023622
 20
3.719488188976377
 30
0.0
  0
VERTEX
  5
11F
330
119
100
AcDbEntity
  8
1
100
AcDbVertex
100
AcDb2dVertex
 10
3.403543307086614
 20
3.442913385826771
 30
0.0
  0
VERTEX
  5
120
330
119
100
AcDbEntity
  8
1
100
AcDbVertex
100
AcDb2dVertex
 10
3.40255905511811
 20
3.166338582677165
 30
0.0
  0
VERTEX
  5
121
330
119
100
AcDbEntity
  8
1
100
AcDbVertex
100
AcDb2dVertex
 10
3.401574803149606
 20
2.888779527559055
 30
0.0
  0
VERTEX
  5
122
330
119
100
AcDbEntity
  8
1
100
AcDbVertex
100
AcDb2dVertex
 10
3.401574803149606
 20
2.61023622047244
 30
0.0
  0
VERTEX
  5
123
330
119
100
AcDbEntity
  8
1
100
AcDbVertex
100
AcDb2dVertex
 10
3.401574803149606
 20
2.33267716535433
 30
0.0
  0
VERTEX
  5
124
330
119
100
AcDbEntity
  8
1
100
AcDbVertex
100
AcDb2dVertex
 10
3.40255905511811
 20
2.05511811023622
 30
0.0
  0
VERTEX
  5
125
330
119
100
AcDbEntity
  8
1
100
AcDbVertex
100
AcDb2dVertex
 10
3.403543307086614
 20
1.778543307086614
 30
0.0
  0
VERTEX
  5
126
330
119
100
AcDbEntity
  8
1
100
AcDbVertex
100
AcDb2dVertex
 10
3.405511811023622
 20
1.501968503937007
 30
0.0
  0
VERTEX
  5
127
330
119
100
AcDbEntity
  8
1
100
AcDbVertex
100
AcDb2dVertex
 10
3.408464566929133
 20
1.226377952755905
 30
0.0
  0
VERTEX
  5
128
330
119
100
AcDbEntity
  8
1
100
AcDbVertex
100
AcDb2dVertex
 10
3.411417322834645
 20
0.951771653543307
 30
0.0
  0
VERTEX
  5
129
330
119
100
AcDbEntity
  8
1
100
AcDbVertex
100
AcDb2dVertex
 10
3.414370078740157
 20
0.6781496062992126
 30
0.0
  0
VERTEX
  5
12A
330
119
100
AcDbEntity
  8
1
100
AcDbVertex
100
AcDb2dVertex
 10
3.418307086614173
 20
0.4064960629921261
 30
0.0
  0
SEQEND
  5
12B
330
119
100
AcDbEntity
  8
1
  0
LINE
  5
12C
330
1F
100
AcDbEntity
  8
1
100
AcDbLine
 10
0.7736220472440945
 20
4.81496062992126
 30
0.0
 11
3.418307086614173
 21
4.81496062992126
 31
0.0
  0
LINE
  5
12D
330
1F
100
AcDbEntity
  8
1
100
AcDbLine
 10
3.001968503937007
 20
0.7637795275590551
 30
0.0
 11
1.189960629921259
 21
0.7637795275590551
 31
0.0
  0
LINE
  5
12E
330
1F
100
AcDbEntity
  8
1
100
AcDbLine
 10
1.096456692913385
 20
0.7637795275590551
 30
0.0
 11
1.189960629921259
 21
0.7637795275590551
 31
0.0
  0
POLYLINE
  5
12F
330
1F
100
AcDbEntity
  8
1
100
AcDb2dPolyline
 66
     1
 10
0.0
 20
0.0
 30
0.0
  0
VERTEX
  5
130
330
12F
100
AcDbEntity
  8
1
100
AcDbVertex
100
AcDb2dVertex
 10
1.096456692913385
 20
0.7637795275590551
 30
0.0
  0
VERTEX
  5
131
330
12F
100
AcDbEntity
  8
1
100
AcDbVertex
100
AcDb2dVertex
 10
1.091535433070866
 20
1.045275590551181
 30
0.0
  0
VERTEX
  5
132
330
12F
100
AcDbEntity
  8
1
100
AcDbVertex
100
AcDb2dVertex
 10
1.088582677165354
 20
1.328740157480315
 30
0.0
  0
VERTEX
  5
133
330
12F
100
AcDbEntity
  8
1
100
AcDbVertex
100
AcDb2dVertex
 10
1.085629921259842
 20
1.612204724409448
 30
0.0
  0
VERTEX
  5
134
330
12F
100
AcDbEntity
  8
1
100
AcDbVertex
100
AcDb2dVertex
 10
1.083661417322834
 20
1.896653543307086
 30
0.0
  0
VERTEX
  5
135
330
12F
100
AcDbEntity
  8
1
100
AcDbVertex
100
AcDb2dVertex
 10
1.081692913385826
 20
2.182086614173228
 30
0.0
  0
VERTEX
  5
136
330
12F
100
AcDbEntity
  8
1
100
AcDbVertex
100
AcDb2dVertex
 10
1.080708661417322
 20
2.467519685039369
 30
0.0
  0
VERTEX
  5
137
330
12F
100
AcDbEntity
  8
1
100
AcDbVertex
100
AcDb2dVertex
 10
1.080708661417322
 20
2.753937007874015
 30
0.0
  0
VERTEX
  5
138
330
12F
100
AcDbEntity
  8
1
100
AcDbVertex
100
AcDb2dVertex
 10
1.081692913385826
 20
3.039370078740157
 30
0.0
  0
VERTEX
  5
139
330
12F
100
AcDbEntity
  8
1
100
AcDbVertex
100
AcDb2dVertex
 10
1.083661417322834
 20
3.324803149606299
 30
0.0
  0
VERTEX
  5
13A
330
12F
100
AcDbEntity
  8
1
100
AcDbVertex
100
AcDb2dVertex
 10
1.085629921259842
 20
3.609251968503937
 30
0.0
  0
VERTEX
  5
13B
330
12F
100
AcDbEntity
  8
1
100
AcDbVertex
100
AcDb2dVertex
 10
1.088582677165354
 20
3.89271653543307
 30
0.0
  0
VERTEX
  5
13C
330
12F
100
AcDbEntity
  8
1
100
AcDbVertex
100
AcDb2dVertex
 10
1.091535433070866
 20
4.1751968503937
 30
0.0
  0
VERTEX
  5
13D
330
12F
100
AcDbEntity
  8
1
100
AcDbVertex
100
AcDb2dVertex
 10
1.096456692913385
 20
4.456692913385826
 30
0.0
  0
SEQEND
  5
13E
330
12F
100
AcDbEntity
  8
1
  0
LINE
  5
13F
330
1F
100
AcDbEntity
  8
1
100
AcDbLine
 10
1.096456692913385
 20
4.456692913385826
 30
0.0
 11
1.189960629921259
 21
4.456692913385826
 31
0.0
  0
LINE
  5
140
330
1F
100
AcDbEntity
  8
1
100
AcDbLine
 10
3.001968503937007
 20
4.456692913385826
 30
0.0
 11
1.189960629921259
 21
4.456692913385826
 31
0.0
  0
LINE
  5
141
330
1F
100
AcDbEntity
  8
1
100
AcDbLine
 10
3.096456692913385
 20
4.456692913385826
 30
0.0
 11
3.001968503937007
 21
4.456692913385826
 31
0.0
  0
POLYLINE
  5
142
330
1F
100
AcDbEntity
  8
1
100
AcDb2dPolyline
 66
     1
 10
0.0
 20
0.0
 30
0.0
  0
VERTEX
  5
143
330
142
100
AcDbEntity
  8
1
100
AcDbVertex
100
AcDb2dVertex
 10
3.096456692913385
 20
0.7637795275590551
 30
0.0
  0
VERTEX
  5
144
330
142
100
AcDbEntity
  8
1
100
AcDbVertex
100
AcDb2dVertex
 10
3.100393700787401
 20
1.045275590551181
 30
0.0
  0
VERTEX
  5
145
330
142
100
AcDbEntity
  8
1
100
AcDbVertex
100
AcDb2dVertex
 10
3.104330708661417
 20
1.328740157480315
 30
0.0
  0
VERTEX
  5
146
330
142
100
AcDbEntity
  8
1
100
AcDbVertex
100
AcDb2dVertex
 10
3.107283464566929
 20
1.612204724409448
 30
0.0
  0
VERTEX
  5
147
330
142
100
AcDbEntity
  8
1
100
AcDbVertex
100
AcDb2dVertex
 10
3.109251968503937
 20
1.896653543307086
 30
0.0
  0
VERTEX
  5
148
330
142
100
AcDbEntity
  8
1
100
AcDbVertex
100
AcDb2dVertex
 10
3.11023622047244
 20
2.182086614173228
 30
0.0
  0
VERTEX
  5
149
330
142
100
AcDbEntity
  8
1
100
AcDbVertex
100
AcDb2dVertex
 10
3.111220472440944
 20
2.467519685039369
 30
0.0
  0
VERTEX
  5
14A
330
142
100
AcDbEntity
  8
1
100
AcDbVertex
100
AcDb2dVertex
 10
3.111220472440944
 20
2.753937007874015
 30
0.0
  0
VERTEX
  5
14B
330
142
100
AcDbEntity
  8
1
100
AcDbVertex
100
AcDb2dVertex
 10
3.11023622047244
 20
3.039370078740157
 30
0.0
  0
VERTEX
  5
14C
330
142
100
AcDbEntity
  8
1
100
AcDbVertex
100
AcDb2dVertex
 10
3.109251968503937
 20
3.324803149606299
 30
0.0
  0
VERTEX
  5
14D
330
142
100
AcDbEntity
  8
1
100
AcDbVertex
100
AcDb2dVertex
 10
3.107283464566929
 20
3.609251968503937
 30
0.0
  0
VERTEX
  5
14E
330
142
100
AcDbEntity
  8
1
100
AcDbVertex
100
AcDb2dVertex
 10
3.104330708661417
 20
3.89271653543307
 30
0.0
  0
VERTEX
  5
14F
330
142
100
AcDbEntity
  8
1
100
AcDbVertex
100
AcDb2dVertex
 10
3.100393700787401
 20
4.1751968503937
 30
0.0
  0
VERTEX
  5
150
330
142
100
AcDbEntity
  8
1
100
AcDbVertex
100
AcDb2dVertex
 10
3.096456692913385
 20
4.456692913385826
 30
0.0
  0
SEQEND
  5
151
330
142
100
AcDbEntity
  8
1
  0
LINE
  5
152
330
1F
100
AcDbEntity
  8
1
100
AcDbLine
 10
3.096456692913385
 20
0.7637795275590551
 30
0.0
 11
3.001968503937007
 21
0.7637795275590551
 31
0.0
  0
LINE
  5
153
330
1F
100
AcDbEntity
  8
1
100
AcDbLine
 10
1.373031496062992
 20
3.947834645669291
 30
0.0
 11
1.444881889763779
 21
3.947834645669291
 31
0.0
  0
LINE
  5
154
330
1F
100
AcDbEntity
  8
1
100
AcDbLine
 10
1.373031496062992
 20
3.947834645669291
 30
0.0
 11
1.373031496062992
 21
3.945866141732283
 31
0.0
  0
LINE
  5
155
330
1F
100
AcDbEntity
  8
1
100
AcDbLine
 10
1.373031496062992
 20
1.273622047244094
 30
0.0
 11
1.373031496062992
 21
1.275590551181102
 31
0.0
  0
LINE
  5
156
330
1F
100
AcDbEntity
  8
1
100
AcDbLine
 10
1.373031496062992
 20
1.273622047244094
 30
0.0
 11
1.444881889763779
 21
1.273622047244094
 31
0.0
  0
LINE
  5
157
330
1F
100
AcDbEntity
  8
1
100
AcDbLine
 10
0.7519685039370079
 20
0.3602362204724409
 30
0.0
 11
3.439960629921259
 21
0.3602362204724409
 31
0.0
  0
POLYLINE
  5
158
330
1F
100
AcDbEntity
  8
1
100
AcDb2dPolyline
 66
     1
 10
0.0
 20
0.0
 30
0.0
  0
VERTEX
  5
159
330
158
100
AcDbEntity
  8
1
100
AcDbVertex
100
AcDb2dVertex
 10
0.7519685039370079
 20
0.3602362204724409
 30
0.0
  0
VERTEX
  5
15A
330
158
100
AcDbEntity
  8
1
100
AcDbVertex
100
AcDb2dVertex
 10
0.7362204724409449
 20
0.3651574803149606
 30
0.0
  0
VERTEX
  5
15B
330
158
100
AcDbEntity
  8
1
100
AcDbVertex
100
AcDb2dVertex
 10
0.7253937007874017
 20
0.3759842519685039
 30
0.0
  0
VERTEX
  5
15C
330
158
100
AcDbEntity
  8
1
100
AcDbVertex
100
AcDb2dVertex
 10
0.7214566929133858
 20
0.3917322834645669
 30
0.0
  0
SEQEND
  5
15D
330
158
100
AcDbEntity
  8
1
  0
LINE
  5
15E
330
1F
100
AcDbEntity
  8
1
100
AcDbLine
 10
0.7214566929133858
 20
4.829724409448818
 30
0.0
 11
0.7214566929133858
 21
0.3917322834645669
 31
0.0
  0
POLYLINE
  5
15F
330
1F
100
AcDbEntity
  8
1
100
AcDb2dPolyline
 66
     1
 10
0.0
 20
0.0
 30
0.0
  0
VERTEX
  5
160
330
15F
100
AcDbEntity
  8
1
100
AcDbVertex
100
AcDb2dVertex
 10
0.7519685039370079
 20
4.86023622047244
 30
0.0
  0
VERTEX
  5
161
330
15F
100
AcDbEntity
  8
1
100
AcDbVertex
100
AcDb2dVertex
 10
0.7362204724409449
 20
4.856299212598425
 30
0.0
  0
VERTEX
  5
162
330
15F
100
AcDbEntity
  8
1
100
AcDbVertex
100
AcDb2dVertex
 10
0.7253937007874017
 20
4.845472440944881
 30
0.0
  0
VERTEX
  5
163
330
15F
100
AcDbEntity
  8
1
100
AcDbVertex
100
AcDb2dVertex
 10
0.7214566929133858
 20
4.829724409448818
 30
0.0
  0
SEQEND
  5
164
330
15F
100
AcDbEntity
  8
1
  0
LINE
  5
165
330
1F
100
AcDbEntity
  8
1
100
AcDbLine
 10
0.7519685039370079
 20
4.86023622047244
 30
0.0
 11
3.439960629921259
 21
4.86023622047244
 31
0.0
  0
POLYLINE
  5
166
330
1F
100
AcDbEntity
  8
1
100
AcDb2dPolyline
 66
     1
 10
0.0
 20
0.0
 30
0.0
  0
VERTEX
  5
167
330
166
100
AcDbEntity
  8
1
100
AcDbVertex
100
AcDb2dVertex
 10
3.439960629921259
 20
4.86023622047244
 30
0.0
  0
VERTEX
  5
168
330
166
100
AcDbEntity
  8
1
100
AcDbVertex
100
AcDb2dVertex
 10
3.455708661417322
 20
4.856299212598425
 30
0.0
  0
VERTEX
  5
169
330
166
100
AcDbEntity
  8
1
100
AcDbVertex
100
AcDb2dVertex
 10
3.466535433070866
 20
4.845472440944881
 30
0.0
  0
VERTEX
  5
16A
330
166
100
AcDbEntity
  8
1
100
AcDbVertex
100
AcDb2dVertex
 10
3.471456692913385
 20
4.829724409448818
 30
0.0
  0
SEQEND
  5
16B
330
166
100
AcDbEntity
  8
1
  0
LINE
  5
16C
330
1F
100
AcDbEntity
  8
1
100
AcDbLine
 10
3.471456692913385
 20
4.829724409448818
 30
0.0
 11
3.471456692913385
 21
0.3917322834645669
 31
0.0
  0
POLYLINE
  5
16D
330
1F
100
AcDbEntity
  8
1
100
AcDb2dPolyline
 66
     1
 10
0.0
 20
0.0
 30
0.0
  0
VERTEX
  5
16E
330
16D
100
AcDbEntity
  8
1
100
AcDbVertex
100
AcDb2dVertex
 10
3.439960629921259
 20
0.3602362204724409
 30
0.0
  0
VERTEX
  5
16F
330
16D
100
AcDbEntity
  8
1
100
AcDbVertex
100
AcDb2dVertex
 10
3.455708661417322
 20
0.3651574803149606
 30
0.0
  0
VERTEX
  5
170
330
16D
100
AcDbEntity
  8
1
100
AcDbVertex
100
AcDb2dVertex
 10
3.466535433070866
 20
0.3759842519685039
 30
0.0
  0
VERTEX
  5
171
330
16D
100
AcDbEntity
  8
1
100
AcDbVertex
100
AcDb2dVertex
 10
3.471456692913385
 20
0.3917322834645669
 30
0.0
  0
SEQEND
  5
172
330
16D
100
AcDbEntity
  8
1
  0
LINE
  5
173
330
1F
100
AcDbEntity
  8
1
100
AcDbLine
 10
1.307086614173228
 20
1.26771653543307
 30
0.0
 11
2.885826771653542
 21
1.26771653543307
 31
0.0
  0
LINE
  5
174
330
1F
100
AcDbEntity
  8
1
100
AcDbLine
 10
1.307086614173228
 20
1.26771653543307
 30
0.0
 11
1.307086614173228
 21
1.629921259842519
 31
0.0
  0
POLYLINE
  5
175
330
1F
100
AcDbEntity
  8
1
100
AcDb2dPolyline
 66
     1
 10
0.0
 20
0.0
 30
0.0
  0
VERTEX
  5
176
330
175
100
AcDbEntity
  8
1
100
AcDbVertex
100
AcDb2dVertex
 10
1.307086614173228
 20
1.629921259842519
 30
0.0
  0
VERTEX
  5
177
330
175
100
AcDbEntity
  8
1
100
AcDbVertex
100
AcDb2dVertex
 10
1.304133858267716
 20
1.634842519685039
 30
0.0
  0
VERTEX
  5
178
330
175
100
AcDbEntity
  8
1
100
AcDbVertex
100
AcDb2dVertex
 10
1.298228346456692
 20
1.637795275590551
 30
0.0
  0
SEQEND
  5
179
330
175
100
AcDbEntity
  8
1
  0
LINE
  5
17A
330
1F
100
AcDbEntity
  8
1
100
AcDbLine
 10
1.298228346456692
 20
1.637795275590551
 30
0.0
 11
1.254921259842519
 21
1.637795275590551
 31
0.0
  0
POLYLINE
  5
17B
330
1F
100
AcDbEntity
  8
1
100
AcDb2dPolyline
 66
     1
 10
0.0
 20
0.0
 30
0.0
  0
VERTEX
  5
17C
330
17B
100
AcDbEntity
  8
1
100
AcDbVertex
100
AcDb2dVertex
 10
1.254921259842519
 20
1.637795275590551
 30
0.0
  0
VERTEX
  5
17D
330
17B
100
AcDbEntity
  8
1
100
AcDbVertex
100
AcDb2dVertex
 10
1.249015748031496
 20
1.639763779527559
 30
0.0
  0
VERTEX
  5
17E
330
17B
100
AcDbEntity
  8
1
100
AcDbVertex
100
AcDb2dVertex
 10
1.247047244094488
 20
1.645669291338582
 30
0.0
  0
SEQEND
  5
17F
330
17B
100
AcDbEntity
  8
1
  0
LINE
  5
180
330
1F
100
AcDbEntity
  8
1
100
AcDbLine
 10
1.247047244094488
 20
1.645669291338582
 30
0.0
 11
1.247047244094488
 21
1.784448818897637
 31
0.0
  0
POLYLINE
  5
181
330
1F
100
AcDbEntity
  8
1
100
AcDb2dPolyline
 66
     1
 10
0.0
 20
0.0
 30
0.0
  0
VERTEX
  5
182
330
181
100
AcDbEntity
  8
1
100
AcDbVertex
100
AcDb2dVertex
 10
1.247047244094488
 20
1.784448818897637
 30
0.0
  0
VERTEX
  5
183
330
181
100
AcDbEntity
  8
1
100
AcDbVertex
100
AcDb2dVertex
 10
1.249015748031496
 20
1.790354330708661
 30
0.0
  0
VERTEX
  5
184
330
181
100
AcDbEntity
  8
1
100
AcDbVertex
100
AcDb2dVertex
 10
1.254921259842519
 20
1.792322834645669
 30
0.0
  0
SEQEND
  5
185
330
181
100
AcDbEntity
  8
1
  0
LINE
  5
186
330
1F
100
AcDbEntity
  8
1
100
AcDbLine
 10
1.254921259842519
 20
1.792322834645669
 30
0.0
 11
1.298228346456692
 21
1.792322834645669
 31
0.0
  0
POLYLINE
  5
187
330
1F
100
AcDbEntity
  8
1
100
AcDb2dPolyline
 66
     1
 10
0.0
 20
0.0
 30
0.0
  0
VERTEX
  5
188
330
187
100
AcDbEntity
  8
1
100
AcDbVertex
100
AcDb2dVertex
 10
1.298228346456692
 20
1.792322834645669
 30
0.0
  0
VERTEX
  5
189
330
187
100
AcDbEntity
  8
1
100
AcDbVertex
100
AcDb2dVertex
 10
1.304133858267716
 20
1.795275590551181
 30
0.0
  0
VERTEX
  5
18A
330
187
100
AcDbEntity
  8
1
100
AcDbVertex
100
AcDb2dVertex
 10
1.307086614173228
 20
1.8001968503937
 30
0.0
  0
SEQEND
  5
18B
330
187
100
AcDbEntity
  8
1
  0
LINE
  5
18C
330
1F
100
AcDbEntity
  8
1
100
AcDbLine
 10
1.307086614173228
 20
1.8001968503937
 30
0.0
 11
1.307086614173228
 21
2.525590551181102
 31
0.0
  0
POLYLINE
  5
18D
330
1F
100
AcDbEntity
  8
1
100
AcDb2dPolyline
 66
     1
 10
0.0
 20
0.0
 30
0.0
  0
VERTEX
  5
18E
330
18D
100
AcDbEntity
  8
1
100
AcDbVertex
100
AcDb2dVertex
 10
1.307086614173228
 20
2.525590551181102
 30
0.0
  0
VERTEX
  5
18F
330
18D
100
AcDbEntity
  8
1
100
AcDbVertex
100
AcDb2dVertex
 10
1.304133858267716
 20
2.530511811023622
 30
0.0
  0
VERTEX
  5
190
330
18D
100
AcDbEntity
  8
1
100
AcDbVertex
100
AcDb2dVertex
 10
1.298228346456692
 20
2.533464566929133
 30
0.0
  0
SEQEND
  5
191
330
18D
100
AcDbEntity
  8
1
  0
LINE
  5
192
330
1F
100
AcDbEntity
  8
1
100
AcDbLine
 10
1.298228346456692
 20
2.533464566929133
 30
0.0
 11
1.254921259842519
 21
2.533464566929133
 31
0.0
  0
POLYLINE
  5
193
330
1F
100
AcDbEntity
  8
1
100
AcDb2dPolyline
 66
     1
 10
0.0
 20
0.0
 30
0.0
  0
VERTEX
  5
194
330
193
100
AcDbEntity
  8
1
100
AcDbVertex
100
AcDb2dVertex
 10
1.254921259842519
 20
2.533464566929133
 30
0.0
  0
VERTEX
  5
195
330
193
100
AcDbEntity
  8
1
100
AcDbVertex
100
AcDb2dVertex
 10
1.249015748031496
 20
2.535433070866141
 30
0.0
  0
VERTEX
  5
196
330
193
100
AcDbEntity
  8
1
100
AcDbVertex
100
AcDb2dVertex
 10
1.247047244094488
 20
2.541338582677165
 30
0.0
  0
SEQEND
  5
197
330
193
100
AcDbEntity
  8
1
  0
LINE
  5
198
330
1F
100
AcDbEntity
  8
1
100
AcDbLine
 10
1.247047244094488
 20
2.541338582677165
 30
0.0
 11
1.247047244094488
 21
2.68011811023622
 31
0.0
  0
POLYLINE
  5
199
330
1F
100
AcDbEntity
  8
1
100
AcDb2dPolyline
 66
     1
 10
0.0
 20
0.0
 30
0.0
  0
VERTEX
  5
19A
330
199
100
AcDbEntity
  8
1
100
AcDbVertex
100
AcDb2dVertex
 10
1.254921259842519
 20
2.687992125984251
 30
0.0
  0
VERTEX
  5
19B
330
199
100
AcDbEntity
  8
1
100
AcDbVertex
100
AcDb2dVertex
 10
1.249015748031496
 20
2.686023622047243
 30
0.0
  0
VERTEX
  5
19C
330
199
100
AcDbEntity
  8
1
100
AcDbVertex
100
AcDb2dVertex
 10
1.247047244094488
 20
2.68011811023622
 30
0.0
  0
SEQEND
  5
19D
330
199
100
AcDbEntity
  8
1
  0
LINE
  5
19E
330
1F
100
AcDbEntity
  8
1
100
AcDbLine
 10
1.298228346456692
 20
2.687992125984251
 30
0.0
 11
1.254921259842519
 21
2.687992125984251
 31
0.0
  0
POLYLINE
  5
19F
330
1F
100
AcDbEntity
  8
1
100
AcDb2dPolyline
 66
     1
 10
0.0
 20
0.0
 30
0.0
  0
VERTEX
  5
1A0
330
19F
100
AcDbEntity
  8
1
100
AcDbVertex
100
AcDb2dVertex
 10
1.307086614173228
 20
2.695866141732283
 30
0.0
  0
VERTEX
  5
1A1
330
19F
100
AcDbEntity
  8
1
100
AcDbVertex
100
AcDb2dVertex
 10
1.304133858267716
 20
2.690944881889763
 30
0.0
  0
VERTEX
  5
1A2
330
19F
100
AcDbEntity
  8
1
100
AcDbVertex
100
AcDb2dVertex
 10
1.298228346456692
 20
2.687992125984251
 30
0.0
  0
SEQEND
  5
1A3
330
19F
100
AcDbEntity
  8
1
  0
LINE
  5
1A4
330
1F
100
AcDbEntity
  8
1
100
AcDbLine
 10
1.307086614173228
 20
3.420275590551181
 30
0.0
 11
1.307086614173228
 21
2.695866141732283
 31
0.0
  0
POLYLINE
  5
1A5
330
1F
100
AcDbEntity
  8
1
100
AcDb2dPolyline
 66
     1
 10
0.0
 20
0.0
 30
0.0
  0
VERTEX
  5
1A6
330
1A5
100
AcDbEntity
  8
1
100
AcDbVertex
100
AcDb2dVertex
 10
1.298228346456692
 20
3.429133858267716
 30
0.0
  0
VERTEX
  5
1A7
330
1A5
100
AcDbEntity
  8
1
100
AcDbVertex
100
AcDb2dVertex
 10
1.304133858267716
 20
3.426181102362204
 30
0.0
  0
VERTEX
  5
1A8
330
1A5
100
AcDbEntity
  8
1
100
AcDbVertex
100
AcDb2dVertex
 10
1.307086614173228
 20
3.420275590551181
 30
0.0
  0
SEQEND
  5
1A9
330
1A5
100
AcDbEntity
  8
1
  0
LINE
  5
1AA
330
1F
100
AcDbEntity
  8
1
100
AcDbLine
 10
1.254921259842519
 20
3.429133858267716
 30
0.0
 11
1.298228346456692
 21
3.429133858267716
 31
0.0
  0
POLYLINE
  5
1AB
330
1F
100
AcDbEntity
  8
1
100
AcDb2dPolyline
 66
     1
 10
0.0
 20
0.0
 30
0.0
  0
VERTEX
  5
1AC
330
1AB
100
AcDbEntity
  8
1
100
AcDbVertex
100
AcDb2dVertex
 10
1.247047244094488
 20
3.437007874015748
 30
0.0
  0
VERTEX
  5
1AD
330
1AB
100
AcDbEntity
  8
1
100
AcDbVertex
100
AcDb2dVertex
 10
1.249015748031496
 20
3.431102362204724
 30
0.0
  0
VERTEX
  5
1AE
330
1AB
100
AcDbEntity
  8
1
100
AcDbVertex
100
AcDb2dVertex
 10
1.254921259842519
 20
3.429133858267716
 30
0.0
  0
SEQEND
  5
1AF
330
1AB
100
AcDbEntity
  8
1
  0
LINE
  5
1B0
330
1F
100
AcDbEntity
  8
1
100
AcDbLine
 10
1.247047244094488
 20
3.575787401574803
 30
0.0
 11
1.247047244094488
 21
3.437007874015748
 31
0.0
  0
POLYLINE
  5
1B1
330
1F
100
AcDbEntity
  8
1
100
AcDb2dPolyline
 66
     1
 10
0.0
 20
0.0
 30
0.0
  0
VERTEX
  5
1B2
330
1B1
100
AcDbEntity
  8
1
100
AcDbVertex
100
AcDb2dVertex
 10
1.254921259842519
 20
3.583661417322834
 30
0.0
  0
VERTEX
  5
1B3
330
1B1
100
AcDbEntity
  8
1
100
AcDbVertex
100
AcDb2dVertex
 10
1.249015748031496
 20
3.581692913385826
 30
0.0
  0
VERTEX
  5
1B4
330
1B1
100
AcDbEntity
  8
1
100
AcDbVertex
100
AcDb2dVertex
 10
1.247047244094488
 20
3.575787401574803
 30
0.0
  0
SEQEND
  5
1B5
330
1B1
100
AcDbEntity
  8
1
  0
LINE
  5
1B6
330
1F
100
AcDbEntity
  8
1
100
AcDbLine
 10
1.298228346456692
 20
3.583661417322834
 30
0.0
 11
1.254921259842519
 21
3.583661417322834
 31
0.0
  0
POLYLINE
  5
1B7
330
1F
100
AcDbEntity
  8
1
100
AcDb2dPolyline
 66
     1
 10
0.0
 20
0.0
 30
0.0
  0
VERTEX
  5
1B8
330
1B7
100
AcDbEntity
  8
1
100
AcDbVertex
100
AcDb2dVertex
 10
1.307086614173228
 20
3.591535433070866
 30
0.0
  0
VERTEX
  5
1B9
330
1B7
100
AcDbEntity
  8
1
100
AcDbVertex
100
AcDb2dVertex
 10
1.304133858267716
 20
3.585629921259842
 30
0.0
  0
VERTEX
  5
1BA
330
1B7
100
AcDbEntity
  8
1
100
AcDbVertex
100
AcDb2dVertex
 10
1.298228346456692
 20
3.583661417322834
 30
0.0
  0
SEQEND
  5
1BB
330
1B7
100
AcDbEntity
  8
1
  0
LINE
  5
1BC
330
1F
100
AcDbEntity
  8
1
100
AcDbLine
 10
1.307086614173228
 20
3.953740157480314
 30
0.0
 11
1.307086614173228
 21
3.591535433070866
 31
0.0
  0
LINE
  5
1BD
330
1F
100
AcDbEntity
  8
1
100
AcDbLine
 10
1.307086614173228
 20
3.953740157480314
 30
0.0
 11
2.885826771653542
 21
3.953740157480314
 31
0.0
  0
LINE
  5
1BE
330
1F
100
AcDbEntity
  8
1
100
AcDbLine
 10
2.885826771653542
 20
3.953740157480314
 30
0.0
 11
2.885826771653542
 21
3.363188976377952
 31
0.0
  0
POLYLINE
  5
1BF
330
1F
100
AcDbEntity
  8
1
100
AcDb2dPolyline
 66
     1
 10
0.0
 20
0.0
 30
0.0
  0
VERTEX
  5
1C0
330
1BF
100
AcDbEntity
  8
1
100
AcDbVertex
100
AcDb2dVertex
 10
2.893700787401574
 20
3.355314960629921
 30
0.0
  0
VERTEX
  5
1C1
330
1BF
100
AcDbEntity
  8
1
100
AcDbVertex
100
AcDb2dVertex
 10
2.88779527559055
 20
3.358267716535432
 30
0.0
  0
VERTEX
  5
1C2
330
1BF
100
AcDbEntity
  8
1
100
AcDbVertex
100
AcDb2dVertex
 10
2.885826771653542
 20
3.363188976377952
 30
0.0
  0
SEQEND
  5
1C3
330
1BF
100
AcDbEntity
  8
1
  0
LINE
  5
1C4
330
1F
100
AcDbEntity
  8
1
100
AcDbLine
 10
2.893700787401574
 20
3.355314960629921
 30
0.0
 11
2.937992125984251
 21
3.355314960629921
 31
0.0
  0
POLYLINE
  5
1C5
330
1F
100
AcDbEntity
  8
1
100
AcDb2dPolyline
 66
     1
 10
0.0
 20
0.0
 30
0.0
  0
VERTEX
  5
1C6
330
1C5
100
AcDbEntity
  8
1
100
AcDbVertex
100
AcDb2dVertex
 10
2.945866141732283
 20
3.347440944881889
 30
0.0
  0
VERTEX
  5
1C7
330
1C5
100
AcDbEntity
  8
1
100
AcDbVertex
100
AcDb2dVertex
 10
2.942913385826771
 20
3.353346456692913
 30
0.0
  0
VERTEX
  5
1C8
330
1C5
100
AcDbEntity
  8
1
100
AcDbVertex
100
AcDb2dVertex
 10
2.937992125984251
 20
3.355314960629921
 30
0.0
  0
SEQEND
  5
1C9
330
1C5
100
AcDbEntity
  8
1
  0
LINE
  5
1CA
330
1F
100
AcDbEntity
  8
1
100
AcDbLine
 10
2.945866141732283
 20
3.208661417322834
 30
0.0
 11
2.945866141732283
 21
3.347440944881889
 31
0.0
  0
POLYLINE
  5
1CB
330
1F
100
AcDbEntity
  8
1
100
AcDb2dPolyline
 66
     1
 10
0.0
 20
0.0
 30
0.0
  0
VERTEX
  5
1CC
330
1CB
100
AcDbEntity
  8
1
100
AcDbVertex
100
AcDb2dVertex
 10
2.937992125984251
 20
3.200787401574803
 30
0.0
  0
VERTEX
  5
1CD
330
1CB
100
AcDbEntity
  8
1
100
AcDbVertex
100
AcDb2dVertex
 10
2.942913385826771
 20
3.202755905511811
 30
0.0
  0
VERTEX
  5
1CE
330
1CB
100
AcDbEntity
  8
1
100
AcDbVertex
100
AcDb2dVertex
 10
2.945866141732283
 20
3.208661417322834
 30
0.0
  0
SEQEND
  5
1CF
330
1CB
100
AcDbEntity
  8
1
  0
LINE
  5
1D0
330
1F
100
AcDbEntity
  8
1
100
AcDbLine
 10
2.893700787401574
 20
3.200787401574803
 30
0.0
 11
2.937992125984251
 21
3.200787401574803
 31
0.0
  0
POLYLINE
  5
1D1
330
1F
100
AcDbEntity
  8
1
100
AcDb2dPolyline
 66
     1
 10
0.0
 20
0.0
 30
0.0
  0
VERTEX
  5
1D2
330
1D1
100
AcDbEntity
  8
1
100
AcDbVertex
100
AcDb2dVertex
 10
2.885826771653542
 20
3.192913385826771
 30
0.0
  0
VERTEX
  5
1D3
330
1D1
100
AcDbEntity
  8
1
100
AcDbVertex
100
AcDb2dVertex
 10
2.88779527559055
 20
3.198818897637795
 30
0.0
  0
VERTEX
  5
1D4
330
1D1
100
AcDbEntity
  8
1
100
AcDbVertex
100
AcDb2dVertex
 10
2.893700787401574
 20
3.200787401574803
 30
0.0
  0
SEQEND
  5
1D5
330
1D1
100
AcDbEntity
  8
1
  0
LINE
  5
1D6
330
1F
100
AcDbEntity
  8
1
100
AcDbLine
 10
2.885826771653542
 20
2.028543307086614
 30
0.0
 11
2.885826771653542
 21
3.192913385826771
 31
0.0
  0
POLYLINE
  5
1D7
330
1F
100
AcDbEntity
  8
1
100
AcDb2dPolyline
 66
     1
 10
0.0
 20
0.0
 30
0.0
  0
VERTEX
  5
1D8
330
1D7
100
AcDbEntity
  8
1
100
AcDbVertex
100
AcDb2dVertex
 10
2.885826771653542
 20
2.028543307086614
 30
0.0
  0
VERTEX
  5
1D9
330
1D7
100
AcDbEntity
  8
1
100
AcDbVertex
100
AcDb2dVertex
 10
2.88779527559055
 20
2.02263779527559
 30
0.0
  0
VERTEX
  5
1DA
330
1D7
100
AcDbEntity
  8
1
100
AcDbVertex
100
AcDb2dVertex
 10
2.893700787401574
 20
2.020669291338582
 30
0.0
  0
SEQEND
  5
1DB
330
1D7
100
AcDbEntity
  8
1
  0
LINE
  5
1DC
330
1F
100
AcDbEntity
  8
1
100
AcDbLine
 10
2.893700787401574
 20
2.020669291338582
 30
0.0
 11
2.937992125984251
 21
2.020669291338582
 31
0.0
  0
POLYLINE
  5
1DD
330
1F
100
AcDbEntity
  8
1
100
AcDb2dPolyline
 66
     1
 10
0.0
 20
0.0
 30
0.0
  0
VERTEX
  5
1DE
330
1DD
100
AcDbEntity
  8
1
100
AcDbVertex
100
AcDb2dVertex
 10
2.937992125984251
 20
2.020669291338582
 30
0.0
  0
VERTEX
  5
1DF
330
1DD
100
AcDbEntity
  8
1
100
AcDbVertex
100
AcDb2dVertex
 10
2.942913385826771
 20
2.018700787401574
 30
0.0
  0
VERTEX
  5
1E0
330
1DD
100
AcDbEntity
  8
1
100
AcDbVertex
100
AcDb2dVertex
 10
2.945866141732283
 20
2.01279527559055
 30
0.0
  0
SEQEND
  5
1E1
330
1DD
100
AcDbEntity
  8
1
  0
LINE
  5
1E2
330
1F
100
AcDbEntity
  8
1
100
AcDbLine
 10
2.945866141732283
 20
2.01279527559055
 30
0.0
 11
2.945866141732283
 21
1.874015748031496
 31
0.0
  0
POLYLINE
  5
1E3
330
1F
100
AcDbEntity
  8
1
100
AcDb2dPolyline
 66
     1
 10
0.0
 20
0.0
 30
0.0
  0
VERTEX
  5
1E4
330
1E3
100
AcDbEntity
  8
1
100
AcDbVertex
100
AcDb2dVertex
 10
2.945866141732283
 20
1.874015748031496
 30
0.0
  0
VERTEX
  5
1E5
330
1E3
100
AcDbEntity
  8
1
100
AcDbVertex
100
AcDb2dVertex
 10
2.942913385826771
 20
1.868110236220472
 30
0.0
  0
VERTEX
  5
1E6
330
1E3
100
AcDbEntity
  8
1
100
AcDbVertex
100
AcDb2dVertex
 10
2.937992125984251
 20
1.866141732283464
 30
0.0
  0
SEQEND
  5
1E7
330
1E3
100
AcDbEntity
  8
1
  0
LINE
  5
1E8
330
1F
100
AcDbEntity
  8
1
100
AcDbLine
 10
2.893700787401574
 20
1.866141732283464
 30
0.0
 11
2.937992125984251
 21
1.866141732283464
 31
0.0
  0
POLYLINE
  5
1E9
330
1F
100
AcDbEntity
  8
1
100
AcDb2dPolyline
 66
     1
 10
0.0
 20
0.0
 30
0.0
  0
VERTEX
  5
1EA
330
1E9
100
AcDbEntity
  8
1
100
AcDbVertex
100
AcDb2dVertex
 10
2.893700787401574
 20
1.866141732283464
 30
0.0
  0
VERTEX
  5
1EB
330
1E9
100
AcDbEntity
  8
1
100
AcDbVertex
100
AcDb2dVertex
 10
2.88779527559055
 20
1.863188976377952
 30
0.0
  0
VERTEX
  5
1EC
330
1E9
100
AcDbEntity
  8
1
100
AcDbVertex
100
AcDb2dVertex
 10
2.885826771653542
 20
1.857283464566929
 30
0.0
  0
SEQEND
  5
1ED
330
1E9
100
AcDbEntity
  8
1
  0
LINE
  5
1EE
330
1F
100
AcDbEntity
  8
1
100
AcDbLine
 10
2.885826771653542
 20
1.26771653543307
 30
0.0
 11
2.885826771653542
 21
1.857283464566929
 31
0.0
  0
LINE
  5
1EF
330
1F
100
AcDbEntity
  8
1
100
AcDbLine
 10
3.001968503937007
 20
4.045275590551181
 30
0.0
 11
1.189960629921259
 21
4.045275590551181
 31
0.0
  0
POLYLINE
  5
1F0
330
1F
100
AcDbEntity
  8
1
100
AcDb2dPolyline
 66
     1
 10
0.0
 20
0.0
 30
0.0
  0
VERTEX
  5
1F1
330
1F0
100
AcDbEntity
  8
1
100
AcDbVertex
100
AcDb2dVertex
 10
1.189960629921259
 20
4.045275590551181
 30
0.0
  0
VERTEX
  5
1F2
330
1F0
100
AcDbEntity
  8
1
100
AcDbVertex
100
AcDb2dVertex
 10
1.174212598425196
 20
4.049212598425197
 30
0.0
  0
VERTEX
  5
1F3
330
1F0
100
AcDbEntity
  8
1
100
AcDbVertex
100
AcDb2dVertex
 10
1.162401574803149
 20
4.061023622047244
 30
0.0
  0
VERTEX
  5
1F4
330
1F0
100
AcDbEntity
  8
1
100
AcDbVertex
100
AcDb2dVertex
 10
1.158464566929133
 20
4.076771653543307
 30
0.0
  0
SEQEND
  5
1F5
330
1F0
100
AcDbEntity
  8
1
  0
LINE
  5
1F6
330
1F
100
AcDbEntity
  8
1
100
AcDbLine
 10
1.158464566929133
 20
4.426181102362204
 30
0.0
 11
1.158464566929133
 21
4.076771653543307
 31
0.0
  0
POLYLINE
  5
1F7
330
1F
100
AcDbEntity
  8
1
100
AcDb2dPolyline
 66
     1
 10
0.0
 20
0.0
 30
0.0
  0
VERTEX
  5
1F8
330
1F7
100
AcDbEntity
  8
1
100
AcDbVertex
100
AcDb2dVertex
 10
1.158464566929133
 20
4.426181102362204
 30
0.0
  0
VERTEX
  5
1F9
330
1F7
100
AcDbEntity
  8
1
100
AcDbVertex
100
AcDb2dVertex
 10
1.162401574803149
 20
4.441929133858267
 30
0.0
  0
VERTEX
  5
1FA
330
1F7
100
AcDbEntity
  8
1
100
AcDbVertex
100
AcDb2dVertex
 10
1.174212598425196
 20
4.452755905511811
 30
0.0
  0
VERTEX
  5
1FB
330
1F7
100
AcDbEntity
  8
1
100
AcDbVertex
100
AcDb2dVertex
 10
1.189960629921259
 20
4.456692913385826
 30
0.0
  0
SEQEND
  5
1FC
330
1F7
100
AcDbEntity
  8
1
  0
LINE
  5
1FD
330
1F
100
AcDbEntity
  8
1
100
AcDbLine
 10
1.096456692913385
 20
4.456692913385826
 30
0.0
 11
1.096456692913385
 21
0.7637795275590551
 31
0.0
  0
POLYLINE
  5
1FE
330
1F
100
AcDbEntity
  8
1
100
AcDb2dPolyline
 66
     1
 10
0.0
 20
0.0
 30
0.0
  0
VERTEX
  5
1FF
330
1FE
100
AcDbEntity
  8
1
100
AcDbVertex
100
AcDb2dVertex
 10
1.158464566929133
 20
0.7952755905511811
 30
0.0
  0
VERTEX
  5
200
330
1FE
100
AcDbEntity
  8
1
100
AcDbVertex
100
AcDb2dVertex
 10
1.162401574803149
 20
0.7795275590551181
 30
0.0
  0
VERTEX
  5
201
330
1FE
100
AcDbEntity
  8
1
100
AcDbVertex
100
AcDb2dVertex
 10
1.174212598425196
 20
0.7687007874015749
 30
0.0
  0
VERTEX
  5
202
330
1FE
100
AcDbEntity
  8
1
100
AcDbVertex
100
AcDb2dVertex
 10
1.189960629921259
 20
0.7637795275590551
 30
0.0
  0
SEQEND
  5
203
330
1FE
100
AcDbEntity
  8
1
  0
LINE
  5
204
330
1F
100
AcDbEntity
  8
1
100
AcDbLine
 10
1.158464566929133
 20
0.7952755905511811
 30
0.0
 11
1.158464566929133
 21
1.144685039370078
 31
0.0
  0
POLYLINE
  5
205
330
1F
100
AcDbEntity
  8
1
100
AcDb2dPolyline
 66
     1
 10
0.0
 20
0.0
 30
0.0
  0
VERTEX
  5
206
330
205
100
AcDbEntity
  8
1
100
AcDbVertex
100
AcDb2dVertex
 10
1.189960629921259
 20
1.176181102362204
 30
0.0
  0
VERTEX
  5
207
330
205
100
AcDbEntity
  8
1
100
AcDbVertex
100
AcDb2dVertex
 10
1.174212598425196
 20
1.172244094488188
 30
0.0
  0
VERTEX
  5
208
330
205
100
AcDbEntity
  8
1
100
AcDbVertex
100
AcDb2dVertex
 10
1.162401574803149
 20
1.160433070866141
 30
0.0
  0
VERTEX
  5
209
330
205
100
AcDbEntity
  8
1
100
AcDbVertex
100
AcDb2dVertex
 10
1.158464566929133
 20
1.144685039370078
 30
0.0
  0
SEQEND
  5
20A
330
205
100
AcDbEntity
  8
1
  0
LINE
  5
20B
330
1F
100
AcDbEntity
  8
1
100
AcDbLine
 10
3.001968503937007
 20
1.176181102362204
 30
0.0
 11
1.189960629921259
 21
1.176181102362204
 31
0.0
  0
POLYLINE
  5
20C
330
1F
100
AcDbEntity
  8
1
100
AcDb2dPolyline
 66
     1
 10
0.0
 20
0.0
 30
0.0
  0
VERTEX
  5
20D
330
20C
100
AcDbEntity
  8
1
100
AcDbVertex
100
AcDb2dVertex
 10
3.001968503937007
 20
1.176181102362204
 30
0.0
  0
VERTEX
  5
20E
330
20C
100
AcDbEntity
  8
1
100
AcDbVertex
100
AcDb2dVertex
 10
3.01771653543307
 20
1.172244094488188
 30
0.0
  0
VERTEX
  5
20F
330
20C
100
AcDbEntity
  8
1
100
AcDbVertex
100
AcDb2dVertex
 10
3.029527559055118
 20
1.160433070866141
 30
0.0
  0
VERTEX
  5
210
330
20C
100
AcDbEntity
  8
1
100
AcDbVertex
100
AcDb2dVertex
 10
3.033464566929133
 20
1.144685039370078
 30
0.0
  0
SEQEND
  5
211
330
20C
100
AcDbEntity
  8
1
  0
LINE
  5
212
330
1F
100
AcDbEntity
  8
1
100
AcDbLine
 10
3.033464566929133
 20
0.7952755905511811
 30
0.0
 11
3.033464566929133
 21
1.144685039370078
 31
0.0
  0
POLYLINE
  5
213
330
1F
100
AcDbEntity
  8
1
100
AcDb2dPolyline
 66
     1
 10
0.0
 20
0.0
 30
0.0
  0
VERTEX
  5
214
330
213
100
AcDbEntity
  8
1
100
AcDbVertex
100
AcDb2dVertex
 10
3.033464566929133
 20
0.7952755905511811
 30
0.0
  0
VERTEX
  5
215
330
213
100
AcDbEntity
  8
1
100
AcDbVertex
100
AcDb2dVertex
 10
3.029527559055118
 20
0.7795275590551181
 30
0.0
  0
VERTEX
  5
216
330
213
100
AcDbEntity
  8
1
100
AcDbVertex
100
AcDb2dVertex
 10
3.01771653543307
 20
0.7687007874015749
 30
0.0
  0
VERTEX
  5
217
330
213
100
AcDbEntity
  8
1
100
AcDbVertex
100
AcDb2dVertex
 10
3.001968503937007
 20
0.7637795275590551
 30
0.0
  0
SEQEND
  5
218
330
213
100
AcDbEntity
  8
1
  0
LINE
  5
219
330
1F
100
AcDbEntity
  8
1
100
AcDbLine
 10
3.096456692913385
 20
4.456692913385826
 30
0.0
 11
3.096456692913385
 21
0.7637795275590551
 31
0.0
  0
POLYLINE
  5
21A
330
1F
100
AcDbEntity
  8
1
100
AcDb2dPolyline
 66
     1
 10
0.0
 20
0.0
 30
0.0
  0
VERTEX
  5
21B
330
21A
100
AcDbEntity
  8
1
100
AcDbVertex
100
AcDb2dVertex
 10
3.033464566929133
 20
4.426181102362204
 30
0.0
  0
VERTEX
  5
21C
330
21A
100
AcDbEntity
  8
1
100
AcDbVertex
100
AcDb2dVertex
 10
3.029527559055118
 20
4.441929133858267
 30
0.0
  0
VERTEX
  5
21D
330
21A
100
AcDbEntity
  8
1
100
AcDbVertex
100
AcDb2dVertex
 10
3.01771653543307
 20
4.452755905511811
 30
0.0
  0
VERTEX
  5
21E
330
21A
100
AcDbEntity
  8
1
100
AcDbVertex
100
AcDb2dVertex
 10
3.001968503937007
 20
4.456692913385826
 30
0.0
  0
SEQEND
  5
21F
330
21A
100
AcDbEntity
  8
1
  0
LINE
  5
220
330
1F
100
AcDbEntity
  8
1
100
AcDbLine
 10
3.033464566929133
 20
4.426181102362204
 30
0.0
 11
3.033464566929133
 21
4.076771653543307
 31
0.0
  0
POLYLINE
  5
221
330
1F
100
AcDbEntity
  8
1
100
AcDb2dPolyline
 66
     1
 10
0.0
 20
0.0
 30
0.0
  0
VERTEX
  5
222
330
221
100
AcDbEntity
  8
1
100
AcDbVertex
100
AcDb2dVertex
 10
3.001968503937007
 20
4.045275590551181
 30
0.0
  0
VERTEX
  5
223
330
221
100
AcDbEntity
  8
1
100
AcDbVertex
100
AcDb2dVertex
 10
3.01771653543307
 20
4.049212598425197
 30
0.0
  0
VERTEX
  5
224
330
221
100
AcDbEntity
  8
1
100
AcDbVertex
100
AcDb2dVertex
 10
3.029527559055118
 20
4.061023622047244
 30
0.0
  0
VERTEX
  5
225
330
221
100
AcDbEntity
  8
1
100
AcDbVertex
100
AcDb2dVertex
 10
3.033464566929133
 20
4.076771653543307
 30
0.0
  0
SEQEND
  5
226
330
221
100
AcDbEntity
  8
1
  0
LINE
  5
227
330
1F
100
AcDbEntity
  8
1
100
AcDbLine
 10
3.418307086614173
 20
4.839566929133858
 30
0.0
 11
0.7736220472440945
 21
4.839566929133858
 31
0.0
  0
POLYLINE
  5
228
330
1F
100
AcDbEntity
  8
1
100
AcDb2dPolyline
 66
     1
 10
0.0
 20
0.0
 30
0.0
  0
VERTEX
  5
229
330
228
100
AcDbEntity
  8
1
100
AcDbVertex
100
AcDb2dVertex
 10
0.7736220472440945
 20
4.839566929133858
 30
0.0
  0
VERTEX
  5
22A
330
228
100
AcDbEntity
  8
1
100
AcDbVertex
100
AcDb2dVertex
 10
0.7736220472440945
 20
4.831692913385826
 30
0.0
  0
VERTEX
  5
22B
330
228
100
AcDbEntity
  8
1
100
AcDbVertex
100
AcDb2dVertex
 10
0.7736220472440945
 20
4.81496062992126
 30
0.0
  0
SEQEND
  5
22C
330
228
100
AcDbEntity
  8
1
  0
POLYLINE
  5
22D
330
1F
100
AcDbEntity
  8
1
100
AcDb2dPolyline
 66
     1
 10
0.0
 20
0.0
 30
0.0
  0
VERTEX
  5
22E
330
22D
100
AcDbEntity
  8
1
100
AcDbVertex
100
AcDb2dVertex
 10
3.418307086614173
 20
4.839566929133858
 30
0.0
  0
VERTEX
  5
22F
330
22D
100
AcDbEntity
  8
1
100
AcDbVertex
100
AcDb2dVertex
 10
3.418307086614173
 20
4.831692913385826
 30
0.0
  0
VERTEX
  5
230
330
22D
100
AcDbEntity
  8
1
100
AcDbVertex
100
AcDb2dVertex
 10
3.418307086614173
 20
4.81496062992126
 30
0.0
  0
SEQEND
  5
231
330
22D
100
AcDbEntity
  8
1
  0
LINE
  5
232
330
1F
100
AcDbEntity
  8
1
100
AcDbLine
 10
0.7736220472440945
 20
4.839566929133858
 30
0.0
 11
0.7519685039370079
 21
4.86023622047244
 31
0.0
  0
LINE
  5
233
330
1F
100
AcDbEntity
  8
1
100
AcDbLine
 10
3.418307086614173
 20
4.839566929133858
 30
0.0
 11
3.439960629921259
 21
4.86023622047244
 31
0.0
  0
LINE
  5
234
330
1F
100
AcDbEntity
  8
1
100
AcDbLine
 10
1.223425196850393
 20
4.045275590551181
 30
0.0
 11
1.223425196850393
 21
4.456692913385826
 31
0.0
  0
LINE
  5
235
330
1F
100
AcDbEntity
  8
1
100
AcDbLine
 10
2.968503937007874
 20
4.045275590551181
 30
0.0
 11
2.968503937007874
 21
4.456692913385826
 31
0.0
  0
LINE
  5
236
330
1F
100
AcDbEntity
  8
1
100
AcDbLine
 10
2.158464566929133
 20
4.097440944881889
 30
0.0
 11
2.033464566929133
 21
4.097440944881889
 31
0.0
  0
POLYLINE
  5
237
330
1F
100
AcDbEntity
  8
1
100
AcDb2dPolyline
 66
     1
 10
0.0
 20
0.0
 30
0.0
  0
VERTEX
  5
238
330
237
100
AcDbEntity
  8
1
100
AcDbVertex
100
AcDb2dVertex
 10
2.033464566929133
 20
4.097440944881889
 30
0.0
  0
VERTEX
  5
239
330
237
100
AcDbEntity
  8
1
100
AcDbVertex
100
AcDb2dVertex
 10
1.997047244094488
 20
4.102362204724409
 30
0.0
  0
VERTEX
  5
23A
330
237
100
AcDbEntity
  8
1
100
AcDbVertex
100
AcDb2dVertex
 10
1.96259842519685
 20
4.11515748031496
 30
0.0
  0
VERTEX
  5
23B
330
237
100
AcDbEntity
  8
1
100
AcDbVertex
100
AcDb2dVertex
 10
1.932086614173228
 20
4.136811023622047
 30
0.0
  0
VERTEX
  5
23C
330
237
100
AcDbEntity
  8
1
100
AcDbVertex
100
AcDb2dVertex
 10
1.907480314960629
 20
4.164370078740157
 30
0.0
  0
VERTEX
  5
23D
330
237
100
AcDbEntity
  8
1
100
AcDbVertex
100
AcDb2dVertex
 10
1.889763779527559
 20
4.196850393700787
 30
0.0
  0
VERTEX
  5
23E
330
237
100
AcDbEntity
  8
1
100
AcDbVertex
100
AcDb2dVertex
 10
1.880905511811023
 20
4.232283464566928
 30
0.0
  0
VERTEX
  5
23F
330
237
100
AcDbEntity
  8
1
100
AcDbVertex
100
AcDb2dVertex
 10
1.880905511811023
 20
4.269685039370078
 30
0.0
  0
VERTEX
  5
240
330
237
100
AcDbEntity
  8
1
100
AcDbVertex
100
AcDb2dVertex
 10
1.889763779527559
 20
4.30511811023622
 30
0.0
  0
VERTEX
  5
241
330
237
100
AcDbEntity
  8
1
100
AcDbVertex
100
AcDb2dVertex
 10
1.907480314960629
 20
4.338582677165354
 30
0.0
  0
VERTEX
  5
242
330
237
100
AcDbEntity
  8
1
100
AcDbVertex
100
AcDb2dVertex
 10
1.932086614173228
 20
4.366141732283464
 30
0.0
  0
VERTEX
  5
243
330
237
100
AcDbEntity
  8
1
100
AcDbVertex
100
AcDb2dVertex
 10
1.96259842519685
 20
4.386811023622047
 30
0.0
  0
VERTEX
  5
244
330
237
100
AcDbEntity
  8
1
100
AcDbVertex
100
AcDb2dVertex
 10
1.997047244094488
 20
4.400590551181101
 30
0.0
  0
VERTEX
  5
245
330
237
100
AcDbEntity
  8
1
100
AcDbVertex
100
AcDb2dVertex
 10
2.033464566929133
 20
4.404527559055117
 30
0.0
  0
SEQEND
  5
246
330
237
100
AcDbEntity
  8
1
  0
LINE
  5
247
330
1F
100
AcDbEntity
  8
1
100
AcDbLine
 10
2.033464566929133
 20
4.404527559055117
 30
0.0
 11
2.158464566929133
 21
4.404527559055117
 31
0.0
  0
POLYLINE
  5
248
330
1F
100
AcDbEntity
  8
1
100
AcDb2dPolyline
 66
     1
 10
0.0
 20
0.0
 30
0.0
  0
VERTEX
  5
249
330
248
100
AcDbEntity
  8
1
100
AcDbVertex
100
AcDb2dVertex
 10
2.158464566929133
 20
4.097440944881889
 30
0.0
  0
VERTEX
  5
24A
330
248
100
AcDbEntity
  8
1
100
AcDbVertex
100
AcDb2dVertex
 10
2.194881889763779
 20
4.102362204724409
 30
0.0
  0
VERTEX
  5
24B
330
248
100
AcDbEntity
  8
1
100
AcDbVertex
100
AcDb2dVertex
 10
2.230314960629921
 20
4.11515748031496
 30
0.0
  0
VERTEX
  5
24C
330
248
100
AcDbEntity
  8
1
100
AcDbVertex
100
AcDb2dVertex
 10
2.260826771653543
 20
4.136811023622047
 30
0.0
  0
VERTEX
  5
24D
330
248
100
AcDbEntity
  8
1
100
AcDbVertex
100
AcDb2dVertex
 10
2.284448818897637
 20
4.164370078740157
 30
0.0
  0
VERTEX
  5
24E
330
248
100
AcDbEntity
  8
1
100
AcDbVertex
100
AcDb2dVertex
 10
2.302165354330708
 20
4.196850393700787
 30
0.0
  0
VERTEX
  5
24F
330
248
100
AcDbEntity
  8
1
100
AcDbVertex
100
AcDb2dVertex
 10
2.311023622047243
 20
4.232283464566928
 30
0.0
  0
VERTEX
  5
250
330
248
100
AcDbEntity
  8
1
100
AcDbVertex
100
AcDb2dVertex
 10
2.311023622047243
 20
4.269685039370078
 30
0.0
  0
VERTEX
  5
251
330
248
100
AcDbEntity
  8
1
100
AcDbVertex
100
AcDb2dVertex
 10
2.302165354330708
 20
4.30511811023622
 30
0.0
  0
VERTEX
  5
252
330
248
100
AcDbEntity
  8
1
100
AcDbVertex
100
AcDb2dVertex
 10
2.284448818897637
 20
4.338582677165354
 30
0.0
  0
VERTEX
  5
253
330
248
100
AcDbEntity
  8
1
100
AcDbVertex
100
AcDb2dVertex
 10
2.260826771653543
 20
4.366141732283464
 30
0.0
  0
VERTEX
  5
254
330
248
100
AcDbEntity
  8
1
100
AcDbVertex
100
AcDb2dVertex
 10
2.230314960629921
 20
4.386811023622047
 30
0.0
  0
VERTEX
  5
255
330
248
100
AcDbEntity
  8
1
100
AcDbVertex
100
AcDb2dVertex
 10
2.194881889763779
 20
4.400590551181101
 30
0.0
  0
VERTEX
  5
256
330
248
100
AcDbEntity
  8
1
100
AcDbVertex
100
AcDb2dVertex
 10
2.158464566929133
 20
4.404527559055117
 30
0.0
  0
SEQEND
  5
257
330
248
100
AcDbEntity
  8
1
  0
POLYLINE
  5
258
330
1F
100
AcDbEntity
  8
1
100
AcDb2dPolyline
 66
     1
 10
0.0
 20
0.0
 30
0.0
  0
VERTEX
  5
259
330
258
100
AcDbEntity
  8
1
100
AcDbVertex
100
AcDb2dVertex
 10
1.449803149606299
 20
3.949803149606299
 30
0.0
  0
VERTEX
  5
25A
330
258
100
AcDbEntity
  8
1
100
AcDbVertex
100
AcDb2dVertex
 10
1.456692913385826
 20
3.949803149606299
 30
0.0
  0
VERTEX
  5
25B
330
258
100
AcDbEntity
  8
1
100
AcDbVertex
100
AcDb2dVertex
 10
1.470472440944881
 20
3.949803149606299
 30
0.0
  0
SEQEND
  5
25C
330
258
100
AcDbEntity
  8
1
  0
POLYLINE
  5
25D
330
1F
100
AcDbEntity
  8
1
100
AcDb2dPolyline
 66
     1
 10
0.0
 20
0.0
 30
0.0
  0
VERTEX
  5
25E
330
25D
100
AcDbEntity
  8
1
100
AcDbVertex
100
AcDb2dVertex
 10
2.722440944881889
 20
3.949803149606299
 30
0.0
  0
VERTEX
  5
25F
330
25D
100
AcDbEntity
  8
1
100
AcDbVertex
100
AcDb2dVertex
 10
2.736220472440944
 20
3.949803149606299
 30
0.0
  0
VERTEX
  5
260
330
25D
100
AcDbEntity
  8
1
100
AcDbVertex
100
AcDb2dVertex
 10
2.742125984251968
 20
3.949803149606299
 30
0.0
  0
SEQEND
  5
261
330
25D
100
AcDbEntity
  8
1
  0
LINE
  5
262
330
1F
100
AcDbEntity
  8
1
100
AcDbLine
 10
2.742125984251968
 20
3.949803149606299
 30
0.0
 11
2.748031496062992
 21
3.947834645669291
 31
0.0
  0
LINE
  5
263
330
1F
100
AcDbEntity
  8
1
100
AcDbLine
 10
2.748031496062992
 20
3.947834645669291
 30
0.0
 11
2.818897637795275
 21
3.947834645669291
 31
0.0
  0
LINE
  5
264
330
1F
100
AcDbEntity
  8
1
100
AcDbLine
 10
2.818897637795275
 20
3.947834645669291
 30
0.0
 11
2.822834645669291
 21
3.950787401574803
 31
0.0
  0
LINE
  5
265
330
1F
100
AcDbEntity
  8
1
100
AcDbLine
 10
2.881889763779527
 20
3.950787401574803
 30
0.0
 11
2.822834645669291
 21
3.950787401574803
 31
0.0
  0
LINE
  5
266
330
1F
100
AcDbEntity
  8
1
100
AcDbLine
 10
2.885826771653542
 20
3.953740157480314
 30
0.0
 11
2.881889763779527
 21
3.950787401574803
 31
0.0
  0
LINE
  5
267
330
1F
100
AcDbEntity
  8
1
100
AcDbLine
 10
1.307086614173228
 20
3.953740157480314
 30
0.0
 11
1.31003937007874
 21
3.950787401574803
 31
0.0
  0
LINE
  5
268
330
1F
100
AcDbEntity
  8
1
100
AcDbLine
 10
1.31003937007874
 20
3.950787401574803
 30
0.0
 11
1.37007874015748
 21
3.950787401574803
 31
0.0
  0
LINE
  5
269
330
1F
100
AcDbEntity
  8
1
100
AcDbLine
 10
1.373031496062992
 20
3.947834645669291
 30
0.0
 11
1.37007874015748
 21
3.950787401574803
 31
0.0
  0
LINE
  5
26A
330
1F
100
AcDbEntity
  8
1
100
AcDbLine
 10
1.444881889763779
 20
3.947834645669291
 30
0.0
 11
1.449803149606299
 21
3.949803149606299
 31
0.0
  0
LINE
  5
26B
330
1F
100
AcDbEntity
  8
1
100
AcDbLine
 10
2.748031496062992
 20
1.273622047244094
 30
0.0
 11
2.818897637795275
 21
1.273622047244094
 31
0.0
  0
LINE
  5
26C
330
1F
100
AcDbEntity
  8
1
100
AcDbLine
 10
2.818897637795275
 20
1.273622047244094
 30
0.0
 11
2.818897637795275
 21
1.275590551181102
 31
0.0
  0
LINE
  5
26D
330
1F
100
AcDbEntity
  8
1
100
AcDbLine
 10
2.818897637795275
 20
3.947834645669291
 30
0.0
 11
2.818897637795275
 21
3.945866141732283
 31
0.0
  0
POLYLINE
  5
26E
330
1F
100
AcDbEntity
  8
1
100
AcDb2dPolyline
 66
     1
 10
0.0
 20
0.0
 30
0.0
  0
VERTEX
  5
26F
330
26E
100
AcDbEntity
  8
1
100
AcDbVertex
100
AcDb2dVertex
 10
2.033464566929133
 20
4.165354330708661
 30
0.0
  0
VERTEX
  5
270
330
26E
100
AcDbEntity
  8
1
100
AcDbVertex
100
AcDb2dVertex
 10
2.006889763779527
 20
4.170275590551181
 30
0.0
  0
VERTEX
  5
271
330
26E
100
AcDbEntity
  8
1
100
AcDbVertex
100
AcDb2dVertex
 10
1.983267716535433
 20
4.182086614173228
 30
0.0
  0
VERTEX
  5
272
330
26E
100
AcDbEntity
  8
1
100
AcDbVertex
100
AcDb2dVertex
 10
1.964566929133858
 20
4.200787401574802
 30
0.0
  0
VERTEX
  5
273
330
26E
100
AcDbEntity
  8
1
100
AcDbVertex
100
AcDb2dVertex
 10
1.952755905511811
 20
4.224409448818897
 30
0.0
  0
VERTEX
  5
274
330
26E
100
AcDbEntity
  8
1
100
AcDbVertex
100
AcDb2dVertex
 10
1.947834645669291
 20
4.250984251968503
 30
0.0
  0
VERTEX
  5
275
330
26E
100
AcDbEntity
  8
1
100
AcDbVertex
100
AcDb2dVertex
 10
1.952755905511811
 20
4.27755905511811
 30
0.0
  0
VERTEX
  5
276
330
26E
100
AcDbEntity
  8
1
100
AcDbVertex
100
AcDb2dVertex
 10
1.964566929133858
 20
4.301181102362204
 30
0.0
  0
VERTEX
  5
277
330
26E
100
AcDbEntity
  8
1
100
AcDbVertex
100
AcDb2dVertex
 10
1.983267716535433
 20
4.319881889763779
 30
0.0
  0
VERTEX
  5
278
330
26E
100
AcDbEntity
  8
1
100
AcDbVertex
100
AcDb2dVertex
 10
2.006889763779527
 20
4.33267716535433
 30
0.0
  0
VERTEX
  5
279
330
26E
100
AcDbEntity
  8
1
100
AcDbVertex
100
AcDb2dVertex
 10
2.033464566929133
 20
4.336614173228346
 30
0.0
  0
SEQEND
  5
27A
330
26E
100
AcDbEntity
  8
1
  0
POLYLINE
  5
27B
330
1F
100
AcDbEntity
  8
1
100
AcDb2dPolyline
 66
     1
 10
0.0
 20
0.0
 30
0.0
  0
VERTEX
  5
27C
330
27B
100
AcDbEntity
  8
1
100
AcDbVertex
100
AcDb2dVertex
 10
2.033464566929133
 20
4.173228346456692
 30
0.0
  0
VERTEX
  5
27D
330
27B
100
AcDbEntity
  8
1
100
AcDbVertex
100
AcDb2dVertex
 10
2.033464566929133
 20
4.171259842519685
 30
0.0
  0
VERTEX
  5
27E
330
27B
100
AcDbEntity
  8
1
100
AcDbVertex
100
AcDb2dVertex
 10
2.033464566929133
 20
4.165354330708661
 30
0.0
  0
SEQEND
  5
27F
330
27B
100
AcDbEntity
  8
1
  0
POLYLINE
  5
280
330
1F
100
AcDbEntity
  8
1
100
AcDb2dPolyline
 66
     1
 10
0.0
 20
0.0
 30
0.0
  0
VERTEX
  5
281
330
280
100
AcDbEntity
  8
1
100
AcDbVertex
100
AcDb2dVertex
 10
2.033464566929133
 20
4.173228346456692
 30
0.0
  0
VERTEX
  5
282
330
280
100
AcDbEntity
  8
1
100
AcDbVertex
100
AcDb2dVertex
 10
2.006889763779527
 20
4.178149606299212
 30
0.0
  0
VERTEX
  5
283
330
280
100
AcDbEntity
  8
1
100
AcDbVertex
100
AcDb2dVertex
 10
1.984251968503937
 20
4.191929133858267
 30
0.0
  0
VERTEX
  5
284
330
280
100
AcDbEntity
  8
1
100
AcDbVertex
100
AcDb2dVertex
 10
1.966535433070866
 20
4.21259842519685
 30
0.0
  0
VERTEX
  5
285
330
280
100
AcDbEntity
  8
1
100
AcDbVertex
100
AcDb2dVertex
 10
1.95767716535433
 20
4.238188976377952
 30
0.0
  0
VERTEX
  5
286
330
280
100
AcDbEntity
  8
1
100
AcDbVertex
100
AcDb2dVertex
 10
1.95767716535433
 20
4.264763779527559
 30
0.0
  0
VERTEX
  5
287
330
280
100
AcDbEntity
  8
1
100
AcDbVertex
100
AcDb2dVertex
 10
1.966535433070866
 20
4.290354330708661
 30
0.0
  0
VERTEX
  5
288
330
280
100
AcDbEntity
  8
1
100
AcDbVertex
100
AcDb2dVertex
 10
1.984251968503937
 20
4.310039370078739
 30
0.0
  0
VERTEX
  5
289
330
280
100
AcDbEntity
  8
1
100
AcDbVertex
100
AcDb2dVertex
 10
2.006889763779527
 20
4.323818897637795
 30
0.0
  0
VERTEX
  5
28A
330
280
100
AcDbEntity
  8
1
100
AcDbVertex
100
AcDb2dVertex
 10
2.033464566929133
 20
4.328740157480314
 30
0.0
  0
SEQEND
  5
28B
330
280
100
AcDbEntity
  8
1
  0
POLYLINE
  5
28C
330
1F
100
AcDbEntity
  8
1
100
AcDb2dPolyline
 66
     1
 10
0.0
 20
0.0
 30
0.0
  0
VERTEX
  5
28D
330
28C
100
AcDbEntity
  8
1
100
AcDbVertex
100
AcDb2dVertex
 10
2.033464566929133
 20
4.328740157480314
 30
0.0
  0
VERTEX
  5
28E
330
28C
100
AcDbEntity
  8
1
100
AcDbVertex
100
AcDb2dVertex
 10
2.033464566929133
 20
4.330708661417323
 30
0.0
  0
VERTEX
  5
28F
330
28C
100
AcDbEntity
  8
1
100
AcDbVertex
100
AcDb2dVertex
 10
2.033464566929133
 20
4.336614173228346
 30
0.0
  0
SEQEND
  5
290
330
28C
100
AcDbEntity
  8
1
  0
LINE
  5
291
330
1F
100
AcDbEntity
  8
1
100
AcDbLine
 10
2.158464566929133
 20
4.173228346456692
 30
0.0
 11
2.033464566929133
 21
4.173228346456692
 31
0.0
  0
LINE
  5
292
330
1F
100
AcDbEntity
  8
1
100
AcDbLine
 10
2.158464566929133
 20
4.165354330708661
 30
0.0
 11
2.033464566929133
 21
4.165354330708661
 31
0.0
  0
POLYLINE
  5
293
330
1F
100
AcDbEntity
  8
1
100
AcDb2dPolyline
 66
     1
 10
0.0
 20
0.0
 30
0.0
  0
VERTEX
  5
294
330
293
100
AcDbEntity
  8
1
100
AcDbVertex
100
AcDb2dVertex
 10
2.158464566929133
 20
4.173228346456692
 30
0.0
  0
VERTEX
  5
295
330
293
100
AcDbEntity
  8
1
100
AcDbVertex
100
AcDb2dVertex
 10
2.158464566929133
 20
4.171259842519685
 30
0.0
  0
VERTEX
  5
296
330
293
100
AcDbEntity
  8
1
100
AcDbVertex
100
AcDb2dVertex
 10
2.158464566929133
 20
4.165354330708661
 30
0.0
  0
SEQEND
  5
297
330
293
100
AcDbEntity
  8
1
  0
POLYLINE
  5
298
330
1F
100
AcDbEntity
  8
1
100
AcDb2dPolyline
 66
     1
 10
0.0
 20
0.0
 30
0.0
  0
VERTEX
  5
299
330
298
100
AcDbEntity
  8
1
100
AcDbVertex
100
AcDb2dVertex
 10
2.158464566929133
 20
4.165354330708661
 30
0.0
  0
VERTEX
  5
29A
330
298
100
AcDbEntity
  8
1
100
AcDbVertex
100
AcDb2dVertex
 10
2.18503937007874
 20
4.170275590551181
 30
0.0
  0
VERTEX
  5
29B
330
298
100
AcDbEntity
  8
1
100
AcDbVertex
100
AcDb2dVertex
 10
2.208661417322834
 20
4.182086614173228
 30
0.0
  0
VERTEX
  5
29C
330
298
100
AcDbEntity
  8
1
100
AcDbVertex
100
AcDb2dVertex
 10
2.227362204724409
 20
4.200787401574802
 30
0.0
  0
VERTEX
  5
29D
330
298
100
AcDbEntity
  8
1
100
AcDbVertex
100
AcDb2dVertex
 10
2.24015748031496
 20
4.224409448818897
 30
0.0
  0
VERTEX
  5
29E
330
298
100
AcDbEntity
  8
1
100
AcDbVertex
100
AcDb2dVertex
 10
2.244094488188976
 20
4.250984251968503
 30
0.0
  0
VERTEX
  5
29F
330
298
100
AcDbEntity
  8
1
100
AcDbVertex
100
AcDb2dVertex
 10
2.24015748031496
 20
4.27755905511811
 30
0.0
  0
VERTEX
  5
2A0
330
298
100
AcDbEntity
  8
1
100
AcDbVertex
100
AcDb2dVertex
 10
2.227362204724409
 20
4.301181102362204
 30
0.0
  0
VERTEX
  5
2A1
330
298
100
AcDbEntity
  8
1
100
AcDbVertex
100
AcDb2dVertex
 10
2.208661417322834
 20
4.319881889763779
 30
0.0
  0
VERTEX
  5
2A2
330
298
100
AcDbEntity
  8
1
100
AcDbVertex
100
AcDb2dVertex
 10
2.18503937007874
 20
4.33267716535433
 30
0.0
  0
VERTEX
  5
2A3
330
298
100
AcDbEntity
  8
1
100
AcDbVertex
100
AcDb2dVertex
 10
2.158464566929133
 20
4.336614173228346
 30
0.0
  0
SEQEND
  5
2A4
330
298
100
AcDbEntity
  8
1
  0
POLYLINE
  5
2A5
330
1F
100
AcDbEntity
  8
1
100
AcDb2dPolyline
 66
     1
 10
0.0
 20
0.0
 30
0.0
  0
VERTEX
  5
2A6
330
2A5
100
AcDbEntity
  8
1
100
AcDbVertex
100
AcDb2dVertex
 10
2.158464566929133
 20
4.328740157480314
 30
0.0
  0
VERTEX
  5
2A7
330
2A5
100
AcDbEntity
  8
1
100
AcDbVertex
100
AcDb2dVertex
 10
2.158464566929133
 20
4.330708661417323
 30
0.0
  0
VERTEX
  5
2A8
330
2A5
100
AcDbEntity
  8
1
100
AcDbVertex
100
AcDb2dVertex
 10
2.158464566929133
 20
4.336614173228346
 30
0.0
  0
SEQEND
  5
2A9
330
2A5
100
AcDbEntity
  8
1
  0
POLYLINE
  5
2AA
330
1F
100
AcDbEntity
  8
1
100
AcDb2dPolyline
 66
     1
 10
0.0
 20
0.0
 30
0.0
  0
VERTEX
  5
2AB
330
2AA
100
AcDbEntity
  8
1
100
AcDbVertex
100
AcDb2dVertex
 10
2.158464566929133
 20
4.173228346456692
 30
0.0
  0
VERTEX
  5
2AC
330
2AA
100
AcDbEntity
  8
1
100
AcDbVertex
100
AcDb2dVertex
 10
2.18503937007874
 20
4.178149606299212
 30
0.0
  0
VERTEX
  5
2AD
330
2AA
100
AcDbEntity
  8
1
100
AcDbVertex
100
AcDb2dVertex
 10
2.208661417322834
 20
4.191929133858267
 30
0.0
  0
VERTEX
  5
2AE
330
2AA
100
AcDbEntity
  8
1
100
AcDbVertex
100
AcDb2dVertex
 10
2.225393700787401
 20
4.21259842519685
 30
0.0
  0
VERTEX
  5
2AF
330
2AA
100
AcDbEntity
  8
1
100
AcDbVertex
100
AcDb2dVertex
 10
2.23523622047244
 20
4.238188976377952
 30
0.0
  0
VERTEX
  5
2B0
330
2AA
100
AcDbEntity
  8
1
100
AcDbVertex
100
AcDb2dVertex
 10
2.23523622047244
 20
4.264763779527559
 30
0.0
  0
VERTEX
  5
2B1
330
2AA
100
AcDbEntity
  8
1
100
AcDbVertex
100
AcDb2dVertex
 10
2.225393700787401
 20
4.290354330708661
 30
0.0
  0
VERTEX
  5
2B2
330
2AA
100
AcDbEntity
  8
1
100
AcDbVertex
100
AcDb2dVertex
 10
2.208661417322834
 20
4.310039370078739
 30
0.0
  0
VERTEX
  5
2B3
330
2AA
100
AcDbEntity
  8
1
100
AcDbVertex
100
AcDb2dVertex
 10
2.18503937007874
 20
4.323818897637795
 30
0.0
  0
VERTEX
  5
2B4
330
2AA
100
AcDbEntity
  8
1
100
AcDbVertex
100
AcDb2dVertex
 10
2.158464566929133
 20
4.328740157480314
 30
0.0
  0
SEQEND
  5
2B5
330
2AA
100
AcDbEntity
  8
1
  0
LINE
  5
2B6
330
1F
100
AcDbEntity
  8
1
100
AcDbLine
 10
2.033464566929133
 20
4.336614173228346
 30
0.0
 11
2.158464566929133
 21
4.336614173228346
 31
0.0
  0
LINE
  5
2B7
330
1F
100
AcDbEntity
  8
1
100
AcDbLine
 10
2.033464566929133
 20
4.328740157480314
 30
0.0
 11
2.158464566929133
 21
4.328740157480314
 31
0.0
  0
POLYLINE
  5
2B8
330
1F
100
AcDbEntity
  8
1
100
AcDb2dPolyline
 66
     1
 10
0.0
 20
0.0
 30
0.0
  0
VERTEX
  5
2B9
330
2B8
100
AcDbEntity
  8
1
100
AcDbVertex
100
AcDb2dVertex
 10
2.158464566929133
 20
4.119094488188975
 30
0.0
  0
VERTEX
  5
2BA
330
2B8
100
AcDbEntity
  8
1
100
AcDbVertex
100
AcDb2dVertex
 10
2.192913385826771
 20
4.123031496062991
 30
0.0
  0
VERTEX
  5
2BB
330
2B8
100
AcDbEntity
  8
1
100
AcDbVertex
100
AcDb2dVertex
 10
2.224409448818897
 20
4.136811023622047
 30
0.0
  0
VERTEX
  5
2BC
330
2B8
100
AcDbEntity
  8
1
100
AcDbVertex
100
AcDb2dVertex
 10
2.251968503937007
 20
4.157480314960629
 30
0.0
  0
VERTEX
  5
2BD
330
2B8
100
AcDbEntity
  8
1
100
AcDbVertex
100
AcDb2dVertex
 10
2.273622047244094
 20
4.185039370078739
 30
0.0
  0
VERTEX
  5
2BE
330
2B8
100
AcDbEntity
  8
1
100
AcDbVertex
100
AcDb2dVertex
 10
2.286417322834645
 20
4.216535433070865
 30
0.0
  0
VERTEX
  5
2BF
330
2B8
100
AcDbEntity
  8
1
100
AcDbVertex
100
AcDb2dVertex
 10
2.291338582677165
 20
4.250984251968503
 30
0.0
  0
VERTEX
  5
2C0
330
2B8
100
AcDbEntity
  8
1
100
AcDbVertex
100
AcDb2dVertex
 10
2.286417322834645
 20
4.285433070866141
 30
0.0
  0
VERTEX
  5
2C1
330
2B8
100
AcDbEntity
  8
1
100
AcDbVertex
100
AcDb2dVertex
 10
2.273622047244094
 20
4.317913385826771
 30
0.0
  0
VERTEX
  5
2C2
330
2B8
100
AcDbEntity
  8
1
100
AcDbVertex
100
AcDb2dVertex
 10
2.251968503937007
 20
4.344488188976377
 30
0.0
  0
VERTEX
  5
2C3
330
2B8
100
AcDbEntity
  8
1
100
AcDbVertex
100
AcDb2dVertex
 10
2.224409448818897
 20
4.366141732283464
 30
0.0
  0
VERTEX
  5
2C4
330
2B8
100
AcDbEntity
  8
1
100
AcDbVertex
100
AcDb2dVertex
 10
2.192913385826771
 20
4.378937007874015
 30
0.0
  0
VERTEX
  5
2C5
330
2B8
100
AcDbEntity
  8
1
100
AcDbVertex
100
AcDb2dVertex
 10
2.158464566929133
 20
4.383858267716535
 30
0.0
  0
SEQEND
  5
2C6
330
2B8
100
AcDbEntity
  8
1
  0
LINE
  5
2C7
330
1F
100
AcDbEntity
  8
1
100
AcDbLine
 10
2.033464566929133
 20
4.383858267716535
 30
0.0
 11
2.158464566929133
 21
4.383858267716535
 31
0.0
  0
POLYLINE
  5
2C8
330
1F
100
AcDbEntity
  8
1
100
AcDb2dPolyline
 66
     1
 10
0.0
 20
0.0
 30
0.0
  0
VERTEX
  5
2C9
330
2C8
100
AcDbEntity
  8
1
100
AcDbVertex
100
AcDb2dVertex
 10
2.033464566929133
 20
4.119094488188975
 30
0.0
  0
VERTEX
  5
2CA
330
2C8
100
AcDbEntity
  8
1
100
AcDbVertex
100
AcDb2dVertex
 10
1.999015748031496
 20
4.123031496062991
 30
0.0
  0
VERTEX
  5
2CB
330
2C8
100
AcDbEntity
  8
1
100
AcDbVertex
100
AcDb2dVertex
 10
1.96751968503937
 20
4.136811023622047
 30
0.0
  0
VERTEX
  5
2CC
330
2C8
100
AcDbEntity
  8
1
100
AcDbVertex
100
AcDb2dVertex
 10
1.939960629921259
 20
4.157480314960629
 30
0.0
  0
VERTEX
  5
2CD
330
2C8
100
AcDbEntity
  8
1
100
AcDbVertex
100
AcDb2dVertex
 10
1.919291338582677
 20
4.185039370078739
 30
0.0
  0
VERTEX
  5
2CE
330
2C8
100
AcDbEntity
  8
1
100
AcDbVertex
100
AcDb2dVertex
 10
1.905511811023622
 20
4.216535433070865
 30
0.0
  0
VERTEX
  5
2CF
330
2C8
100
AcDbEntity
  8
1
100
AcDbVertex
100
AcDb2dVertex
 10
1.900590551181102
 20
4.250984251968503
 30
0.0
  0
VERTEX
  5
2D0
330
2C8
100
AcDbEntity
  8
1
100
AcDbVertex
100
AcDb2dVertex
 10
1.905511811023622
 20
4.285433070866141
 30
0.0
  0
VERTEX
  5
2D1
330
2C8
100
AcDbEntity
  8
1
100
AcDbVertex
100
AcDb2dVertex
 10
1.919291338582677
 20
4.317913385826771
 30
0.0
  0
VERTEX
  5
2D2
330
2C8
100
AcDbEntity
  8
1
100
AcDbVertex
100
AcDb2dVertex
 10
1.939960629921259
 20
4.344488188976377
 30
0.0
  0
VERTEX
  5
2D3
330
2C8
100
AcDbEntity
  8
1
100
AcDbVertex
100
AcDb2dVertex
 10
1.96751968503937
 20
4.366141732283464
 30
0.0
  0
VERTEX
  5
2D4
330
2C8
100
AcDbEntity
  8
1
100
AcDbVertex
100
AcDb2dVertex
 10
1.999015748031496
 20
4.378937007874015
 30
0.0
  0
VERTEX
  5
2D5
330
2C8
100
AcDbEntity
  8
1
100
AcDbVertex
100
AcDb2dVertex
 10
2.033464566929133
 20
4.383858267716535
 30
0.0
  0
SEQEND
  5
2D6
330
2C8
100
AcDbEntity
  8
1
  0
LINE
  5
2D7
330
1F
100
AcDbEntity
  8
1
100
AcDbLine
 10
2.158464566929133
 20
4.119094488188975
 30
0.0
 11
2.033464566929133
 21
4.119094488188975
 31
0.0
  0
LINE
  5
2D8
330
1F
100
AcDbEntity
  8
1
100
AcDbLine
 10
2.033464566929133
 20
4.174212598425197
 30
0.0
 11
2.033464566929133
 21
4.173228346456692
 31
0.0
  0
POLYLINE
  5
2D9
330
1F
100
AcDbEntity
  8
1
100
AcDb2dPolyline
 66
     1
 10
0.0
 20
0.0
 30
0.0
  0
VERTEX
  5
2DA
330
2D9
100
AcDbEntity
  8
1
100
AcDbVertex
100
AcDb2dVertex
 10
2.033464566929133
 20
4.174212598425197
 30
0.0
  0
VERTEX
  5
2DB
330
2D9
100
AcDbEntity
  8
1
100
AcDbVertex
100
AcDb2dVertex
 10
2.006889763779527
 20
4.179133858267716
 30
0.0
  0
VERTEX
  5
2DC
330
2D9
100
AcDbEntity
  8
1
100
AcDbVertex
100
AcDb2dVertex
 10
1.984251968503937
 20
4.191929133858267
 30
0.0
  0
VERTEX
  5
2DD
330
2D9
100
AcDbEntity
  8
1
100
AcDbVertex
100
AcDb2dVertex
 10
1.966535433070866
 20
4.21259842519685
 30
0.0
  0
VERTEX
  5
2DE
330
2D9
100
AcDbEntity
  8
1
100
AcDbVertex
100
AcDb2dVertex
 10
1.95767716535433
 20
4.238188976377952
 30
0.0
  0
VERTEX
  5
2DF
330
2D9
100
AcDbEntity
  8
1
100
AcDbVertex
100
AcDb2dVertex
 10
1.95767716535433
 20
4.264763779527559
 30
0.0
  0
VERTEX
  5
2E0
330
2D9
100
AcDbEntity
  8
1
100
AcDbVertex
100
AcDb2dVertex
 10
1.966535433070866
 20
4.289370078740157
 30
0.0
  0
VERTEX
  5
2E1
330
2D9
100
AcDbEntity
  8
1
100
AcDbVertex
100
AcDb2dVertex
 10
1.984251968503937
 20
4.310039370078739
 30
0.0
  0
VERTEX
  5
2E2
330
2D9
100
AcDbEntity
  8
1
100
AcDbVertex
100
AcDb2dVertex
 10
2.006889763779527
 20
4.323818897637795
 30
0.0
  0
VERTEX
  5
2E3
330
2D9
100
AcDbEntity
  8
1
100
AcDbVertex
100
AcDb2dVertex
 10
2.033464566929133
 20
4.327755905511811
 30
0.0
  0
SEQEND
  5
2E4
330
2D9
100
AcDbEntity
  8
1
  0
LINE
  5
2E5
330
1F
100
AcDbEntity
  8
1
100
AcDbLine
 10
2.033464566929133
 20
4.327755905511811
 30
0.0
 11
2.033464566929133
 21
4.328740157480314
 31
0.0
  0
LINE
  5
2E6
330
1F
100
AcDbEntity
  8
1
100
AcDbLine
 10
2.158464566929133
 20
4.174212598425197
 30
0.0
 11
2.158464566929133
 21
4.173228346456692
 31
0.0
  0
LINE
  5
2E7
330
1F
100
AcDbEntity
  8
1
100
AcDbLine
 10
2.158464566929133
 20
4.174212598425197
 30
0.0
 11
2.145669291338582
 21
4.174212598425197
 31
0.0
  0
LINE
  5
2E8
330
1F
100
AcDbEntity
  8
1
100
AcDbLine
 10
2.145669291338582
 20
4.174212598425197
 30
0.0
 11
2.046259842519685
 21
4.174212598425197
 31
0.0
  0
LINE
  5
2E9
330
1F
100
AcDbEntity
  8
1
100
AcDbLine
 10
2.033464566929133
 20
4.174212598425197
 30
0.0
 11
2.046259842519685
 21
4.174212598425197
 31
0.0
  0
LINE
  5
2EA
330
1F
100
AcDbEntity
  8
1
100
AcDbLine
 10
2.158464566929133
 20
4.327755905511811
 30
0.0
 11
2.158464566929133
 21
4.328740157480314
 31
0.0
  0
POLYLINE
  5
2EB
330
1F
100
AcDbEntity
  8
1
100
AcDb2dPolyline
 66
     1
 10
0.0
 20
0.0
 30
0.0
  0
VERTEX
  5
2EC
330
2EB
100
AcDbEntity
  8
1
100
AcDbVertex
100
AcDb2dVertex
 10
2.158464566929133
 20
4.174212598425197
 30
0.0
  0
VERTEX
  5
2ED
330
2EB
100
AcDbEntity
  8
1
100
AcDbVertex
100
AcDb2dVertex
 10
2.18503937007874
 20
4.179133858267716
 30
0.0
  0
VERTEX
  5
2EE
330
2EB
100
AcDbEntity
  8
1
100
AcDbVertex
100
AcDb2dVertex
 10
2.20767716535433
 20
4.191929133858267
 30
0.0
  0
VERTEX
  5
2EF
330
2EB
100
AcDbEntity
  8
1
100
AcDbVertex
100
AcDb2dVertex
 10
2.225393700787401
 20
4.21259842519685
 30
0.0
  0
VERTEX
  5
2F0
330
2EB
100
AcDbEntity
  8
1
100
AcDbVertex
100
AcDb2dVertex
 10
2.234251968503937
 20
4.238188976377952
 30
0.0
  0
VERTEX
  5
2F1
330
2EB
100
AcDbEntity
  8
1
100
AcDbVertex
100
AcDb2dVertex
 10
2.234251968503937
 20
4.264763779527559
 30
0.0
  0
VERTEX
  5
2F2
330
2EB
100
AcDbEntity
  8
1
100
AcDbVertex
100
AcDb2dVertex
 10
2.225393700787401
 20
4.289370078740157
 30
0.0
  0
VERTEX
  5
2F3
330
2EB
100
AcDbEntity
  8
1
100
AcDbVertex
100
AcDb2dVertex
 10
2.20767716535433
 20
4.310039370078739
 30
0.0
  0
VERTEX
  5
2F4
330
2EB
100
AcDbEntity
  8
1
100
AcDbVertex
100
AcDb2dVertex
 10
2.18503937007874
 20
4.323818897637795
 30
0.0
  0
VERTEX
  5
2F5
330
2EB
100
AcDbEntity
  8
1
100
AcDbVertex
100
AcDb2dVertex
 10
2.158464566929133
 20
4.327755905511811
 30
0.0
  0
SEQEND
  5
2F6
330
2EB
100
AcDbEntity
  8
1
  0
LINE
  5
2F7
330
1F
100
AcDbEntity
  8
1
100
AcDbLine
 10
2.046259842519685
 20
4.327755905511811
 30
0.0
 11
2.033464566929133
 21
4.327755905511811
 31
0.0
  0
LINE
  5
2F8
330
1F
100
AcDbEntity
  8
1
100
AcDbLine
 10
2.145669291338582
 20
4.327755905511811
 30
0.0
 11
2.046259842519685
 21
4.327755905511811
 31
0.0
  0
LINE
  5
2F9
330
1F
100
AcDbEntity
  8
1
100
AcDbLine
 10
2.145669291338582
 20
4.327755905511811
 30
0.0
 11
2.158464566929133
 21
4.327755905511811
 31
0.0
  0
POLYLINE
  5
2FA
330
1F
100
AcDbEntity
  8
1
100
AcDb2dPolyline
 66
     1
 10
0.0
 20
0.0
 30
0.0
  0
VERTEX
  5
2FB
330
2FA
100
AcDbEntity
  8
1
100
AcDbVertex
100
AcDb2dVertex
 10
2.033464566929133
 20
4.103346456692912
 30
0.0
  0
VERTEX
  5
2FC
330
2FA
100
AcDbEntity
  8
1
100
AcDbVertex
100
AcDb2dVertex
 10
1.998031496062992
 20
4.107283464566928
 30
0.0
  0
VERTEX
  5
2FD
330
2FA
100
AcDbEntity
  8
1
100
AcDbVertex
100
AcDb2dVertex
 10
1.964566929133858
 20
4.12007874015748
 30
0.0
  0
VERTEX
  5
2FE
330
2FA
100
AcDbEntity
  8
1
100
AcDbVertex
100
AcDb2dVertex
 10
1.93503937007874
 20
4.140748031496062
 30
0.0
  0
VERTEX
  5
2FF
330
2FA
100
AcDbEntity
  8
1
100
AcDbVertex
100
AcDb2dVertex
 10
1.911417322834645
 20
4.167322834645669
 30
0.0
  0
VERTEX
  5
300
330
2FA
100
AcDbEntity
  8
1
100
AcDbVertex
100
AcDb2dVertex
 10
1.894685039370078
 20
4.198818897637795
 30
0.0
  0
VERTEX
  5
301
330
2FA
100
AcDbEntity
  8
1
100
AcDbVertex
100
AcDb2dVertex
 10
1.886811023622047
 20
4.233267716535433
 30
0.0
  0
VERTEX
  5
302
330
2FA
100
AcDbEntity
  8
1
100
AcDbVertex
100
AcDb2dVertex
 10
1.886811023622047
 20
4.268700787401574
 30
0.0
  0
VERTEX
  5
303
330
2FA
100
AcDbEntity
  8
1
100
AcDbVertex
100
AcDb2dVertex
 10
1.894685039370078
 20
4.304133858267716
 30
0.0
  0
VERTEX
  5
304
330
2FA
100
AcDbEntity
  8
1
100
AcDbVertex
100
AcDb2dVertex
 10
1.911417322834645
 20
4.335629921259842
 30
0.0
  0
VERTEX
  5
305
330
2FA
100
AcDbEntity
  8
1
100
AcDbVertex
100
AcDb2dVertex
 10
1.93503937007874
 20
4.362204724409449
 30
0.0
  0
VERTEX
  5
306
330
2FA
100
AcDbEntity
  8
1
100
AcDbVertex
100
AcDb2dVertex
 10
1.964566929133858
 20
4.381889763779527
 30
0.0
  0
VERTEX
  5
307
330
2FA
100
AcDbEntity
  8
1
100
AcDbVertex
100
AcDb2dVertex
 10
1.998031496062992
 20
4.394685039370078
 30
0.0
  0
VERTEX
  5
308
330
2FA
100
AcDbEntity
  8
1
100
AcDbVertex
100
AcDb2dVertex
 10
2.033464566929133
 20
4.399606299212598
 30
0.0
  0
SEQEND
  5
309
330
2FA
100
AcDbEntity
  8
1
  0
POLYLINE
  5
30A
330
1F
100
AcDbEntity
  8
1
100
AcDb2dPolyline
 66
     1
 10
0.0
 20
0.0
 30
0.0
  0
VERTEX
  5
30B
330
30A
100
AcDbEntity
  8
1
100
AcDbVertex
100
AcDb2dVertex
 10
2.033464566929133
 20
4.103346456692912
 30
0.0
  0
VERTEX
  5
30C
330
30A
100
AcDbEntity
  8
1
100
AcDbVertex
100
AcDb2dVertex
 10
2.033464566929133
 20
4.107283464566928
 30
0.0
  0
VERTEX
  5
30D
330
30A
100
AcDbEntity
  8
1
100
AcDbVertex
100
AcDb2dVertex
 10
2.033464566929133
 20
4.119094488188975
 30
0.0
  0
SEQEND
  5
30E
330
30A
100
AcDbEntity
  8
1
  0
POLYLINE
  5
30F
330
1F
100
AcDbEntity
  8
1
100
AcDb2dPolyline
 66
     1
 10
0.0
 20
0.0
 30
0.0
  0
VERTEX
  5
310
330
30F
100
AcDbEntity
  8
1
100
AcDbVertex
100
AcDb2dVertex
 10
2.033464566929133
 20
4.399606299212598
 30
0.0
  0
VERTEX
  5
311
330
30F
100
AcDbEntity
  8
1
100
AcDbVertex
100
AcDb2dVertex
 10
2.033464566929133
 20
4.394685039370078
 30
0.0
  0
VERTEX
  5
312
330
30F
100
AcDbEntity
  8
1
100
AcDbVertex
100
AcDb2dVertex
 10
2.033464566929133
 20
4.383858267716535
 30
0.0
  0
SEQEND
  5
313
330
30F
100
AcDbEntity
  8
1
  0
LINE
  5
314
330
1F
100
AcDbEntity
  8
1
100
AcDbLine
 10
2.033464566929133
 20
4.399606299212598
 30
0.0
 11
2.158464566929133
 21
4.399606299212598
 31
0.0
  0
POLYLINE
  5
315
330
1F
100
AcDbEntity
  8
1
100
AcDb2dPolyline
 66
     1
 10
0.0
 20
0.0
 30
0.0
  0
VERTEX
  5
316
330
315
100
AcDbEntity
  8
1
100
AcDbVertex
100
AcDb2dVertex
 10
2.158464566929133
 20
4.399606299212598
 30
0.0
  0
VERTEX
  5
317
330
315
100
AcDbEntity
  8
1
100
AcDbVertex
100
AcDb2dVertex
 10
2.158464566929133
 20
4.394685039370078
 30
0.0
  0
VERTEX
  5
318
330
315
100
AcDbEntity
  8
1
100
AcDbVertex
100
AcDb2dVertex
 10
2.158464566929133
 20
4.383858267716535
 30
0.0
  0
SEQEND
  5
319
330
315
100
AcDbEntity
  8
1
  0
POLYLINE
  5
31A
330
1F
100
AcDbEntity
  8
1
100
AcDb2dPolyline
 66
     1
 10
0.0
 20
0.0
 30
0.0
  0
VERTEX
  5
31B
330
31A
100
AcDbEntity
  8
1
100
AcDbVertex
100
AcDb2dVertex
 10
2.158464566929133
 20
4.103346456692912
 30
0.0
  0
VERTEX
  5
31C
330
31A
100
AcDbEntity
  8
1
100
AcDbVertex
100
AcDb2dVertex
 10
2.193897637795275
 20
4.107283464566928
 30
0.0
  0
VERTEX
  5
31D
330
31A
100
AcDbEntity
  8
1
100
AcDbVertex
100
AcDb2dVertex
 10
2.227362204724409
 20
4.12007874015748
 30
0.0
  0
VERTEX
  5
31E
330
31A
100
AcDbEntity
  8
1
100
AcDbVertex
100
AcDb2dVertex
 10
2.256889763779527
 20
4.140748031496062
 30
0.0
  0
VERTEX
  5
31F
330
31A
100
AcDbEntity
  8
1
100
AcDbVertex
100
AcDb2dVertex
 10
2.280511811023622
 20
4.167322834645669
 30
0.0
  0
VERTEX
  5
320
330
31A
100
AcDbEntity
  8
1
100
AcDbVertex
100
AcDb2dVertex
 10
2.297244094488188
 20
4.198818897637795
 30
0.0
  0
VERTEX
  5
321
330
31A
100
AcDbEntity
  8
1
100
AcDbVertex
100
AcDb2dVertex
 10
2.306102362204724
 20
4.233267716535433
 30
0.0
  0
VERTEX
  5
322
330
31A
100
AcDbEntity
  8
1
100
AcDbVertex
100
AcDb2dVertex
 10
2.306102362204724
 20
4.268700787401574
 30
0.0
  0
VERTEX
  5
323
330
31A
100
AcDbEntity
  8
1
100
AcDbVertex
100
AcDb2dVertex
 10
2.297244094488188
 20
4.304133858267716
 30
0.0
  0
VERTEX
  5
324
330
31A
100
AcDbEntity
  8
1
100
AcDbVertex
100
AcDb2dVertex
 10
2.280511811023622
 20
4.335629921259842
 30
0.0
  0
VERTEX
  5
325
330
31A
100
AcDbEntity
  8
1
100
AcDbVertex
100
AcDb2dVertex
 10
2.256889763779527
 20
4.362204724409449
 30
0.0
  0
VERTEX
  5
326
330
31A
100
AcDbEntity
  8
1
100
AcDbVertex
100
AcDb2dVertex
 10
2.227362204724409
 20
4.381889763779527
 30
0.0
  0
VERTEX
  5
327
330
31A
100
AcDbEntity
  8
1
100
AcDbVertex
100
AcDb2dVertex
 10
2.193897637795275
 20
4.394685039370078
 30
0.0
  0
VERTEX
  5
328
330
31A
100
AcDbEntity
  8
1
100
AcDbVertex
100
AcDb2dVertex
 10
2.158464566929133
 20
4.399606299212598
 30
0.0
  0
SEQEND
  5
329
330
31A
100
AcDbEntity
  8
1
  0
POLYLINE
  5
32A
330
1F
100
AcDbEntity
  8
1
100
AcDb2dPolyline
 66
     1
 10
0.0
 20
0.0
 30
0.0
  0
VERTEX
  5
32B
330
32A
100
AcDbEntity
  8
1
100
AcDbVertex
100
AcDb2dVertex
 10
2.158464566929133
 20
4.103346456692912
 30
0.0
  0
VERTEX
  5
32C
330
32A
100
AcDbEntity
  8
1
100
AcDbVertex
100
AcDb2dVertex
 10
2.158464566929133
 20
4.107283464566928
 30
0.0
  0
VERTEX
  5
32D
330
32A
100
AcDbEntity
  8
1
100
AcDbVertex
100
AcDb2dVertex
 10
2.158464566929133
 20
4.119094488188975
 30
0.0
  0
SEQEND
  5
32E
330
32A
100
AcDbEntity
  8
1
  0
LINE
  5
32F
330
1F
100
AcDbEntity
  8
1
100
AcDbLine
 10
2.158464566929133
 20
4.103346456692912
 30
0.0
 11
2.033464566929133
 21
4.103346456692912
 31
0.0
  0
LINE
  5
330
330
1F
100
AcDbEntity
  8
1
100
AcDbLine
 10
2.033464566929133
 20
4.097440944881889
 30
0.0
 11
2.033464566929133
 21
4.103346456692912
 31
0.0
  0
LINE
  5
331
330
1F
100
AcDbEntity
  8
1
100
AcDbLine
 10
2.033464566929133
 20
4.404527559055117
 30
0.0
 11
2.033464566929133
 21
4.399606299212598
 31
0.0
  0
LINE
  5
332
330
1F
100
AcDbEntity
  8
1
100
AcDbLine
 10
2.158464566929133
 20
4.404527559055117
 30
0.0
 11
2.158464566929133
 21
4.399606299212598
 31
0.0
  0
LINE
  5
333
330
1F
100
AcDbEntity
  8
1
100
AcDbLine
 10
2.158464566929133
 20
4.097440944881889
 30
0.0
 11
2.158464566929133
 21
4.103346456692912
 31
0.0
  0
LINE
  5
334
330
1F
100
AcDbEntity
  8
1
100
AcDbLine
 10
2.046259842519685
 20
4.201771653543307
 30
0.0
 11
2.145669291338582
 21
4.201771653543307
 31
0.0
  0
LINE
  5
335
330
1F
100
AcDbEntity
  8
1
100
AcDbLine
 10
2.145669291338582
 20
4.201771653543307
 30
0.0
 11
2.145669291338582
 21
4.174212598425197
 31
0.0
  0
LINE
  5
336
330
1F
100
AcDbEntity
  8
1
100
AcDbLine
 10
2.046259842519685
 20
4.201771653543307
 30
0.0
 11
2.046259842519685
 21
4.174212598425197
 31
0.0
  0
LINE
  5
337
330
1F
100
AcDbEntity
  8
1
100
AcDbLine
 10
2.145669291338582
 20
4.3001968503937
 30
0.0
 11
2.046259842519685
 21
4.3001968503937
 31
0.0
  0
LINE
  5
338
330
1F
100
AcDbEntity
  8
1
100
AcDbLine
 10
2.145669291338582
 20
4.3001968503937
 30
0.0
 11
2.145669291338582
 21
4.327755905511811
 31
0.0
  0
LINE
  5
339
330
1F
100
AcDbEntity
  8
1
100
AcDbLine
 10
2.046259842519685
 20
4.3001968503937
 30
0.0
 11
2.046259842519685
 21
4.327755905511811
 31
0.0
  0
LINE
  5
33A
330
1F
100
AcDbEntity
  8
1
100
AcDbLine
 10
2.934055118110236
 20
3.352362204724409
 30
0.0
 11
2.890748031496062
 21
3.352362204724409
 31
0.0
  0
POLYLINE
  5
33B
330
1F
100
AcDbEntity
  8
1
100
AcDb2dPolyline
 66
     1
 10
0.0
 20
0.0
 30
0.0
  0
VERTEX
  5
33C
330
33B
100
AcDbEntity
  8
1
100
AcDbVertex
100
AcDb2dVertex
 10
2.881889763779527
 20
3.36023622047244
 30
0.0
  0
VERTEX
  5
33D
330
33B
100
AcDbEntity
  8
1
100
AcDbVertex
100
AcDb2dVertex
 10
2.884842519685039
 20
3.354330708661417
 30
0.0
  0
VERTEX
  5
33E
330
33B
100
AcDbEntity
  8
1
100
AcDbVertex
100
AcDb2dVertex
 10
2.890748031496062
 20
3.352362204724409
 30
0.0
  0
SEQEND
  5
33F
330
33B
100
AcDbEntity
  8
1
  0
LINE
  5
340
330
1F
100
AcDbEntity
  8
1
100
AcDbLine
 10
2.881889763779527
 20
3.195866141732283
 30
0.0
 11
2.881889763779527
 21
3.36023622047244
 31
0.0
  0
POLYLINE
  5
341
330
1F
100
AcDbEntity
  8
1
100
AcDb2dPolyline
 66
     1
 10
0.0
 20
0.0
 30
0.0
  0
VERTEX
  5
342
330
341
100
AcDbEntity
  8
1
100
AcDbVertex
100
AcDb2dVertex
 10
2.890748031496062
 20
3.203740157480314
 30
0.0
  0
VERTEX
  5
343
330
341
100
AcDbEntity
  8
1
100
AcDbVertex
100
AcDb2dVertex
 10
2.884842519685039
 20
3.201771653543306
 30
0.0
  0
VERTEX
  5
344
330
341
100
AcDbEntity
  8
1
100
AcDbVertex
100
AcDb2dVertex
 10
2.881889763779527
 20
3.195866141732283
 30
0.0
  0
SEQEND
  5
345
330
341
100
AcDbEntity
  8
1
  0
LINE
  5
346
330
1F
100
AcDbEntity
  8
1
100
AcDbLine
 10
2.934055118110236
 20
3.203740157480314
 30
0.0
 11
2.890748031496062
 21
3.203740157480314
 31
0.0
  0
POLYLINE
  5
347
330
1F
100
AcDbEntity
  8
1
100
AcDb2dPolyline
 66
     1
 10
0.0
 20
0.0
 30
0.0
  0
VERTEX
  5
348
330
347
100
AcDbEntity
  8
1
100
AcDbVertex
100
AcDb2dVertex
 10
2.941929133858267
 20
3.211614173228346
 30
0.0
  0
VERTEX
  5
349
330
347
100
AcDbEntity
  8
1
100
AcDbVertex
100
AcDb2dVertex
 10
2.939960629921259
 20
3.206692913385826
 30
0.0
  0
VERTEX
  5
34A
330
347
100
AcDbEntity
  8
1
100
AcDbVertex
100
AcDb2dVertex
 10
2.934055118110236
 20
3.203740157480314
 30
0.0
  0
SEQEND
  5
34B
330
347
100
AcDbEntity
  8
1
  0
LINE
  5
34C
330
1F
100
AcDbEntity
  8
1
100
AcDbLine
 10
2.941929133858267
 20
3.344488188976377
 30
0.0
 11
2.941929133858267
 21
3.211614173228346
 31
0.0
  0
POLYLINE
  5
34D
330
1F
100
AcDbEntity
  8
1
100
AcDb2dPolyline
 66
     1
 10
0.0
 20
0.0
 30
0.0
  0
VERTEX
  5
34E
330
34D
100
AcDbEntity
  8
1
100
AcDbVertex
100
AcDb2dVertex
 10
2.934055118110236
 20
3.352362204724409
 30
0.0
  0
VERTEX
  5
34F
330
34D
100
AcDbEntity
  8
1
100
AcDbVertex
100
AcDb2dVertex
 10
2.939960629921259
 20
3.350393700787401
 30
0.0
  0
VERTEX
  5
350
330
34D
100
AcDbEntity
  8
1
100
AcDbVertex
100
AcDb2dVertex
 10
2.941929133858267
 20
3.344488188976377
 30
0.0
  0
SEQEND
  5
351
330
34D
100
AcDbEntity
  8
1
  0
LINE
  5
352
330
1F
100
AcDbEntity
  8
1
100
AcDbLine
 10
2.876968503937007
 20
2.780511811023622
 30
0.0
 11
2.881889763779527
 21
2.780511811023622
 31
0.0
  0
LINE
  5
353
330
1F
100
AcDbEntity
  8
1
100
AcDbLine
 10
2.881889763779527
 20
3.108267716535432
 30
0.0
 11
2.881889763779527
 21
2.780511811023622
 31
0.0
  0
LINE
  5
354
330
1F
100
AcDbEntity
  8
1
100
AcDbLine
 10
2.881889763779527
 20
3.108267716535432
 30
0.0
 11
2.876968503937007
 21
3.108267716535432
 31
0.0
  0
LINE
  5
355
330
1F
100
AcDbEntity
  8
1
100
AcDbLine
 10
2.881889763779527
 20
2.113188976377952
 30
0.0
 11
2.876968503937007
 21
2.113188976377952
 31
0.0
  0
LINE
  5
356
330
1F
100
AcDbEntity
  8
1
100
AcDbLine
 10
2.881889763779527
 20
2.113188976377952
 30
0.0
 11
2.881889763779527
 21
2.440944881889763
 31
0.0
  0
LINE
  5
357
330
1F
100
AcDbEntity
  8
1
100
AcDbLine
 10
2.876968503937007
 20
2.440944881889763
 30
0.0
 11
2.881889763779527
 21
2.440944881889763
 31
0.0
  0
LINE
  5
358
330
1F
100
AcDbEntity
  8
1
100
AcDbLine
 10
2.934055118110236
 20
1.869094488188976
 30
0.0
 11
2.890748031496062
 21
1.869094488188976
 31
0.0
  0
POLYLINE
  5
359
330
1F
100
AcDbEntity
  8
1
100
AcDb2dPolyline
 66
     1
 10
0.0
 20
0.0
 30
0.0
  0
VERTEX
  5
35A
330
359
100
AcDbEntity
  8
1
100
AcDbVertex
100
AcDb2dVertex
 10
2.934055118110236
 20
1.869094488188976
 30
0.0
  0
VERTEX
  5
35B
330
359
100
AcDbEntity
  8
1
100
AcDbVertex
100
AcDb2dVertex
 10
2.939960629921259
 20
1.871062992125984
 30
0.0
  0
VERTEX
  5
35C
330
359
100
AcDbEntity
  8
1
100
AcDbVertex
100
AcDb2dVertex
 10
2.941929133858267
 20
1.876968503937007
 30
0.0
  0
SEQEND
  5
35D
330
359
100
AcDbEntity
  8
1
  0
LINE
  5
35E
330
1F
100
AcDbEntity
  8
1
100
AcDbLine
 10
2.941929133858267
 20
1.876968503937007
 30
0.0
 11
2.941929133858267
 21
2.009842519685039
 31
0.0
  0
POLYLINE
  5
35F
330
1F
100
AcDbEntity
  8
1
100
AcDb2dPolyline
 66
     1
 10
0.0
 20
0.0
 30
0.0
  0
VERTEX
  5
360
330
35F
100
AcDbEntity
  8
1
100
AcDbVertex
100
AcDb2dVertex
 10
2.941929133858267
 20
2.009842519685039
 30
0.0
  0
VERTEX
  5
361
330
35F
100
AcDbEntity
  8
1
100
AcDbVertex
100
AcDb2dVertex
 10
2.939960629921259
 20
2.014763779527558
 30
0.0
  0
VERTEX
  5
362
330
35F
100
AcDbEntity
  8
1
100
AcDbVertex
100
AcDb2dVertex
 10
2.934055118110236
 20
2.01771653543307
 30
0.0
  0
SEQEND
  5
363
330
35F
100
AcDbEntity
  8
1
  0
LINE
  5
364
330
1F
100
AcDbEntity
  8
1
100
AcDbLine
 10
2.934055118110236
 20
2.01771653543307
 30
0.0
 11
2.890748031496062
 21
2.01771653543307
 31
0.0
  0
POLYLINE
  5
365
330
1F
100
AcDbEntity
  8
1
100
AcDb2dPolyline
 66
     1
 10
0.0
 20
0.0
 30
0.0
  0
VERTEX
  5
366
330
365
100
AcDbEntity
  8
1
100
AcDbVertex
100
AcDb2dVertex
 10
2.890748031496062
 20
2.01771653543307
 30
0.0
  0
VERTEX
  5
367
330
365
100
AcDbEntity
  8
1
100
AcDbVertex
100
AcDb2dVertex
 10
2.884842519685039
 20
2.019685039370078
 30
0.0
  0
VERTEX
  5
368
330
365
100
AcDbEntity
  8
1
100
AcDbVertex
100
AcDb2dVertex
 10
2.881889763779527
 20
2.025590551181102
 30
0.0
  0
SEQEND
  5
369
330
365
100
AcDbEntity
  8
1
  0
LINE
  5
36A
330
1F
100
AcDbEntity
  8
1
100
AcDbLine
 10
2.881889763779527
 20
2.025590551181102
 30
0.0
 11
2.881889763779527
 21
1.861220472440944
 31
0.0
  0
POLYLINE
  5
36B
330
1F
100
AcDbEntity
  8
1
100
AcDb2dPolyline
 66
     1
 10
0.0
 20
0.0
 30
0.0
  0
VERTEX
  5
36C
330
36B
100
AcDbEntity
  8
1
100
AcDbVertex
100
AcDb2dVertex
 10
2.881889763779527
 20
1.861220472440944
 30
0.0
  0
VERTEX
  5
36D
330
36B
100
AcDbEntity
  8
1
100
AcDbVertex
100
AcDb2dVertex
 10
2.884842519685039
 20
1.866141732283464
 30
0.0
  0
VERTEX
  5
36E
330
36B
100
AcDbEntity
  8
1
100
AcDbVertex
100
AcDb2dVertex
 10
2.890748031496062
 20
1.869094488188976
 30
0.0
  0
SEQEND
  5
36F
330
36B
100
AcDbEntity
  8
1
  0
LINE
  5
370
330
1F
100
AcDbEntity
  8
1
100
AcDbLine
 10
2.881889763779527
 20
1.270669291338582
 30
0.0
 11
2.822834645669291
 21
1.270669291338582
 31
0.0
  0
LINE
  5
371
330
1F
100
AcDbEntity
  8
1
100
AcDbLine
 10
2.881889763779527
 20
1.270669291338582
 30
0.0
 11
2.881889763779527
 21
1.545275590551181
 31
0.0
  0
LINE
  5
372
330
1F
100
AcDbEntity
  8
1
100
AcDbLine
 10
2.876968503937007
 20
1.545275590551181
 30
0.0
 11
2.881889763779527
 21
1.545275590551181
 31
0.0
  0
LINE
  5
373
330
1F
100
AcDbEntity
  8
1
100
AcDbLine
 10
2.822834645669291
 20
1.275590551181102
 30
0.0
 11
2.822834645669291
 21
1.270669291338582
 31
0.0
  0
LINE
  5
374
330
1F
100
AcDbEntity
  8
1
100
AcDbLine
 10
2.968503937007874
 20
1.176181102362204
 30
0.0
 11
2.968503937007874
 21
0.7637795275590551
 31
0.0
  0
POLYLINE
  5
375
330
1F
100
AcDbEntity
  8
1
100
AcDb2dPolyline
 66
     1
 10
0.0
 20
0.0
 30
0.0
  0
VERTEX
  5
376
330
375
100
AcDbEntity
  8
1
100
AcDbVertex
100
AcDb2dVertex
 10
3.449803149606299
 20
0.4133858267716536
 30
0.0
  0
VERTEX
  5
377
330
375
100
AcDbEntity
  8
1
100
AcDbVertex
100
AcDb2dVertex
 10
3.439960629921259
 20
0.4084645669291339
 30
0.0
  0
VERTEX
  5
378
330
375
100
AcDbEntity
  8
1
100
AcDbVertex
100
AcDb2dVertex
 10
3.418307086614173
 20
0.4064960629921261
 30
0.0
  0
SEQEND
  5
379
330
375
100
AcDbEntity
  8
1
  0
POLYLINE
  5
37A
330
1F
100
AcDbEntity
  8
1
100
AcDb2dPolyline
 66
     1
 10
0.0
 20
0.0
 30
0.0
  0
VERTEX
  5
37B
330
37A
100
AcDbEntity
  8
1
100
AcDbVertex
100
AcDb2dVertex
 10
3.418307086614173
 20
0.3818897637795275
 30
0.0
  0
VERTEX
  5
37C
330
37A
100
AcDbEntity
  8
1
100
AcDbVertex
100
AcDb2dVertex
 10
3.418307086614173
 20
0.389763779527559
 30
0.0
  0
VERTEX
  5
37D
330
37A
100
AcDbEntity
  8
1
100
AcDbVertex
100
AcDb2dVertex
 10
3.418307086614173
 20
0.4064960629921261
 30
0.0
  0
SEQEND
  5
37E
330
37A
100
AcDbEntity
  8
1
  0
POLYLINE
  5
37F
330
1F
100
AcDbEntity
  8
1
100
AcDb2dPolyline
 66
     1
 10
0.0
 20
0.0
 30
0.0
  0
VERTEX
  5
380
330
37F
100
AcDbEntity
  8
1
100
AcDbVertex
100
AcDb2dVertex
 10
3.449803149606299
 20
0.4133858267716536
 30
0.0
  0
VERTEX
  5
381
330
37F
100
AcDbEntity
  8
1
100
AcDbVertex
100
AcDb2dVertex
 10
3.445866141732283
 20
0.3976377952755905
 30
0.0
  0
VERTEX
  5
382
330
37F
100
AcDbEntity
  8
1
100
AcDbVertex
100
AcDb2dVertex
 10
3.434055118110236
 20
0.3858267716535433
 30
0.0
  0
VERTEX
  5
383
330
37F
100
AcDbEntity
  8
1
100
AcDbVertex
100
AcDb2dVertex
 10
3.418307086614173
 20
0.3818897637795275
 30
0.0
  0
SEQEND
  5
384
330
37F
100
AcDbEntity
  8
1
  0
LINE
  5
385
330
1F
100
AcDbEntity
  8
1
100
AcDbLine
 10
2.885826771653542
 20
1.857283464566929
 30
0.0
 11
2.881889763779527
 21
1.861220472440944
 31
0.0
  0
LINE
  5
386
330
1F
100
AcDbEntity
  8
1
100
AcDbLine
 10
2.881889763779527
 20
1.861220472440944
 30
0.0
 11
2.881889763779527
 21
1.8001968503937
 31
0.0
  0
LINE
  5
387
330
1F
100
AcDbEntity
  8
1
100
AcDbLine
 10
2.881889763779527
 20
1.8001968503937
 30
0.0
 11
2.881889763779527
 21
1.632874015748031
 31
0.0
  0
LINE
  5
388
330
1F
100
AcDbEntity
  8
1
100
AcDbLine
 10
2.881889763779527
 20
1.632874015748031
 30
0.0
 11
2.881889763779527
 21
1.545275590551181
 31
0.0
  0
LINE
  5
389
330
1F
100
AcDbEntity
  8
1
100
AcDbLine
 10
2.885826771653542
 20
1.26771653543307
 30
0.0
 11
2.881889763779527
 21
1.270669291338582
 31
0.0
  0
LINE
  5
38A
330
1F
100
AcDbEntity
  8
1
100
AcDbLine
 10
2.890748031496062
 20
1.869094488188976
 30
0.0
 11
2.893700787401574
 21
1.866141732283464
 31
0.0
  0
LINE
  5
38B
330
1F
100
AcDbEntity
  8
1
100
AcDbLine
 10
2.937992125984251
 20
1.866141732283464
 30
0.0
 11
2.934055118110236
 21
1.869094488188976
 31
0.0
  0
LINE
  5
38C
330
1F
100
AcDbEntity
  8
1
100
AcDbLine
 10
2.941929133858267
 20
1.876968503937007
 30
0.0
 11
2.945866141732283
 21
1.874015748031496
 31
0.0
  0
LINE
  5
38D
330
1F
100
AcDbEntity
  8
1
100
AcDbLine
 10
2.945866141732283
 20
2.01279527559055
 30
0.0
 11
2.941929133858267
 21
2.009842519685039
 31
0.0
  0
LINE
  5
38E
330
1F
100
AcDbEntity
  8
1
100
AcDbLine
 10
2.934055118110236
 20
2.01771653543307
 30
0.0
 11
2.937992125984251
 21
2.020669291338582
 31
0.0
  0
LINE
  5
38F
330
1F
100
AcDbEntity
  8
1
100
AcDbLine
 10
2.893700787401574
 20
2.020669291338582
 30
0.0
 11
2.890748031496062
 21
2.01771653543307
 31
0.0
  0
LINE
  5
390
330
1F
100
AcDbEntity
  8
1
100
AcDbLine
 10
2.881889763779527
 20
2.025590551181102
 30
0.0
 11
2.885826771653542
 21
2.028543307086614
 31
0.0
  0
LINE
  5
391
330
1F
100
AcDbEntity
  8
1
100
AcDbLine
 10
2.881889763779527
 20
3.195866141732283
 30
0.0
 11
2.885826771653542
 21
3.192913385826771
 31
0.0
  0
LINE
  5
392
330
1F
100
AcDbEntity
  8
1
100
AcDbLine
 10
2.881889763779527
 20
3.108267716535432
 30
0.0
 11
2.881889763779527
 21
3.195866141732283
 31
0.0
  0
LINE
  5
393
330
1F
100
AcDbEntity
  8
1
100
AcDbLine
 10
2.881889763779527
 20
2.780511811023622
 30
0.0
 11
2.881889763779527
 21
2.440944881889763
 31
0.0
  0
LINE
  5
394
330
1F
100
AcDbEntity
  8
1
100
AcDbLine
 10
2.881889763779527
 20
2.113188976377952
 30
0.0
 11
2.881889763779527
 21
2.025590551181102
 31
0.0
  0
LINE
  5
395
330
1F
100
AcDbEntity
  8
1
100
AcDbLine
 10
2.893700787401574
 20
3.200787401574803
 30
0.0
 11
2.890748031496062
 21
3.203740157480314
 31
0.0
  0
LINE
  5
396
330
1F
100
AcDbEntity
  8
1
100
AcDbLine
 10
2.934055118110236
 20
3.203740157480314
 30
0.0
 11
2.937992125984251
 21
3.200787401574803
 31
0.0
  0
LINE
  5
397
330
1F
100
AcDbEntity
  8
1
100
AcDbLine
 10
2.945866141732283
 20
3.208661417322834
 30
0.0
 11
2.941929133858267
 21
3.211614173228346
 31
0.0
  0
LINE
  5
398
330
1F
100
AcDbEntity
  8
1
100
AcDbLine
 10
2.941929133858267
 20
3.344488188976377
 30
0.0
 11
2.945866141732283
 21
3.347440944881889
 31
0.0
  0
LINE
  5
399
330
1F
100
AcDbEntity
  8
1
100
AcDbLine
 10
2.937992125984251
 20
3.355314960629921
 30
0.0
 11
2.934055118110236
 21
3.352362204724409
 31
0.0
  0
LINE
  5
39A
330
1F
100
AcDbEntity
  8
1
100
AcDbLine
 10
2.890748031496062
 20
3.352362204724409
 30
0.0
 11
2.893700787401574
 21
3.355314960629921
 31
0.0
  0
LINE
  5
39B
330
1F
100
AcDbEntity
  8
1
100
AcDbLine
 10
2.885826771653542
 20
3.363188976377952
 30
0.0
 11
2.881889763779527
 21
3.36023622047244
 31
0.0
  0
POLYLINE
  5
39C
330
1F
100
AcDbEntity
  8
1
100
AcDb2dPolyline
 66
     1
 10
0.0
 20
0.0
 30
0.0
  0
VERTEX
  5
39D
330
39C
100
AcDbEntity
  8
1
100
AcDbVertex
100
AcDb2dVertex
 10
3.449803149606299
 20
4.808070866141732
 30
0.0
  0
VERTEX
  5
39E
330
39C
100
AcDbEntity
  8
1
100
AcDbVertex
100
AcDb2dVertex
 10
3.439960629921259
 20
4.812992125984251
 30
0.0
  0
VERTEX
  5
39F
330
39C
100
AcDbEntity
  8
1
100
AcDbVertex
100
AcDb2dVertex
 10
3.418307086614173
 20
4.81496062992126
 30
0.0
  0
SEQEND
  5
3A0
330
39C
100
AcDbEntity
  8
1
  0
POLYLINE
  5
3A1
330
1F
100
AcDbEntity
  8
1
100
AcDb2dPolyline
 66
     1
 10
0.0
 20
0.0
 30
0.0
  0
VERTEX
  5
3A2
330
3A1
100
AcDbEntity
  8
1
100
AcDbVertex
100
AcDb2dVertex
 10
3.449803149606299
 20
0.4133858267716536
 30
0.0
  0
VERTEX
  5
3A3
330
3A1
100
AcDbEntity
  8
1
100
AcDbVertex
100
AcDb2dVertex
 10
3.445866141732283
 20
0.6840551181102362
 30
0.0
  0
VERTEX
  5
3A4
330
3A1
100
AcDbEntity
  8
1
100
AcDbVertex
100
AcDb2dVertex
 10
3.441929133858267
 20
0.9566929133858266
 30
0.0
  0
VERTEX
  5
3A5
330
3A1
100
AcDbEntity
  8
1
100
AcDbVertex
100
AcDb2dVertex
 10
3.438976377952756
 20
1.230314960629921
 30
0.0
  0
VERTEX
  5
3A6
330
3A1
100
AcDbEntity
  8
1
100
AcDbVertex
100
AcDb2dVertex
 10
3.437007874015748
 20
1.504921259842519
 30
0.0
  0
VERTEX
  5
3A7
330
3A1
100
AcDbEntity
  8
1
100
AcDbVertex
100
AcDb2dVertex
 10
3.43503937007874
 20
1.780511811023622
 30
0.0
  0
VERTEX
  5
3A8
330
3A1
100
AcDbEntity
  8
1
100
AcDbVertex
100
AcDb2dVertex
 10
3.434055118110236
 20
2.057086614173228
 30
0.0
  0
VERTEX
  5
3A9
330
3A1
100
AcDbEntity
  8
1
100
AcDbVertex
100
AcDb2dVertex
 10
3.433070866141732
 20
2.333661417322834
 30
0.0
  0
VERTEX
  5
3AA
330
3A1
100
AcDbEntity
  8
1
100
AcDbVertex
100
AcDb2dVertex
 10
3.433070866141732
 20
2.61023622047244
 30
0.0
  0
VERTEX
  5
3AB
330
3A1
100
AcDbEntity
  8
1
100
AcDbVertex
100
AcDb2dVertex
 10
3.433070866141732
 20
2.88779527559055
 30
0.0
  0
VERTEX
  5
3AC
330
3A1
100
AcDbEntity
  8
1
100
AcDbVertex
100
AcDb2dVertex
 10
3.434055118110236
 20
3.164370078740157
 30
0.0
  0
VERTEX
  5
3AD
330
3A1
100
AcDbEntity
  8
1
100
AcDbVertex
100
AcDb2dVertex
 10
3.43503937007874
 20
3.440944881889763
 30
0.0
  0
VERTEX
  5
3AE
330
3A1
100
AcDbEntity
  8
1
100
AcDbVertex
100
AcDb2dVertex
 10
3.437007874015748
 20
3.716535433070866
 30
0.0
  0
VERTEX
  5
3AF
330
3A1
100
AcDbEntity
  8
1
100
AcDbVertex
100
AcDb2dVertex
 10
3.438976377952756
 20
3.991141732283464
 30
0.0
  0
VERTEX
  5
3B0
330
3A1
100
AcDbEntity
  8
1
100
AcDbVertex
100
AcDb2dVertex
 10
3.441929133858267
 20
4.264763779527559
 30
0.0
  0
VERTEX
  5
3B1
330
3A1
100
AcDbEntity
  8
1
100
AcDbVertex
100
AcDb2dVertex
 10
3.445866141732283
 20
4.537401574803149
 30
0.0
  0
VERTEX
  5
3B2
330
3A1
100
AcDbEntity
  8
1
100
AcDbVertex
100
AcDb2dVertex
 10
3.449803149606299
 20
4.808070866141732
 30
0.0
  0
SEQEND
  5
3B3
330
3A1
100
AcDbEntity
  8
1
  0
POLYLINE
  5
3B4
330
1F
100
AcDbEntity
  8
1
100
AcDb2dPolyline
 66
     1
 10
0.0
 20
0.0
 30
0.0
  0
VERTEX
  5
3B5
330
3B4
100
AcDbEntity
  8
1
100
AcDbVertex
100
AcDb2dVertex
 10
3.449803149606299
 20
4.808070866141732
 30
0.0
  0
VERTEX
  5
3B6
330
3B4
100
AcDbEntity
  8
1
100
AcDbVertex
100
AcDb2dVertex
 10
3.445866141732283
 20
4.823818897637795
 30
0.0
  0
VERTEX
  5
3B7
330
3B4
100
AcDbEntity
  8
1
100
AcDbVertex
100
AcDb2dVertex
 10
3.434055118110236
 20
4.834645669291338
 30
0.0
  0
VERTEX
  5
3B8
330
3B4
100
AcDbEntity
  8
1
100
AcDbVertex
100
AcDb2dVertex
 10
3.418307086614173
 20
4.839566929133858
 30
0.0
  0
SEQEND
  5
3B9
330
3B4
100
AcDbEntity
  8
1
  0
LINE
  5
3BA
330
1F
100
AcDbEntity
  8
1
100
AcDbLine
 10
2.881889763779527
 20
3.950787401574803
 30
0.0
 11
2.881889763779527
 21
3.676181102362204
 31
0.0
  0
LINE
  5
3BB
330
1F
100
AcDbEntity
  8
1
100
AcDbLine
 10
2.881889763779527
 20
3.588582677165354
 30
0.0
 11
2.881889763779527
 21
3.676181102362204
 31
0.0
  0
LINE
  5
3BC
330
1F
100
AcDbEntity
  8
1
100
AcDbLine
 10
2.881889763779527
 20
3.420275590551181
 30
0.0
 11
2.881889763779527
 21
3.588582677165354
 31
0.0
  0
LINE
  5
3BD
330
1F
100
AcDbEntity
  8
1
100
AcDbLine
 10
2.881889763779527
 20
3.36023622047244
 30
0.0
 11
2.881889763779527
 21
3.420275590551181
 31
0.0
  0
LINE
  5
3BE
330
1F
100
AcDbEntity
  8
1
100
AcDbLine
 10
2.822834645669291
 20
3.945866141732283
 30
0.0
 11
2.822834645669291
 21
3.950787401574803
 31
0.0
  0
LINE
  5
3BF
330
1F
100
AcDbEntity
  8
1
100
AcDbLine
 10
2.876968503937007
 20
3.676181102362204
 30
0.0
 11
2.881889763779527
 21
3.676181102362204
 31
0.0
  0
LINE
  5
3C0
330
1F
100
AcDbEntity
  8
1
100
AcDbLine
 10
2.881889763779527
 20
3.676181102362204
 30
0.0
 11
2.876968503937007
 21
3.674212598425196
 31
0.0
  0
LINE
  5
3C1
330
1F
100
AcDbEntity
  8
1
100
AcDbLine
 10
2.876968503937007
 20
3.11023622047244
 30
0.0
 11
2.881889763779527
 21
3.108267716535432
 31
0.0
  0
LINE
  5
3C2
330
1F
100
AcDbEntity
  8
1
100
AcDbLine
 10
2.876968503937007
 20
2.778543307086614
 30
0.0
 11
2.881889763779527
 21
2.780511811023622
 31
0.0
  0
LINE
  5
3C3
330
1F
100
AcDbEntity
  8
1
100
AcDbLine
 10
2.876968503937007
 20
2.441929133858267
 30
0.0
 11
2.881889763779527
 21
2.440944881889763
 31
0.0
  0
LINE
  5
3C4
330
1F
100
AcDbEntity
  8
1
100
AcDbLine
 10
2.876968503937007
 20
2.111220472440944
 30
0.0
 11
2.881889763779527
 21
2.113188976377952
 31
0.0
  0
LINE
  5
3C5
330
1F
100
AcDbEntity
  8
1
100
AcDbLine
 10
2.881889763779527
 20
1.545275590551181
 30
0.0
 11
2.876968503937007
 21
1.547244094488188
 31
0.0
  0
LINE
  5
3C6
330
1F
100
AcDbEntity
  8
1
100
AcDbLine
 10
2.818897637795275
 20
1.273622047244094
 30
0.0
 11
2.822834645669291
 21
1.270669291338582
 31
0.0
  0
LINE
  5
3C7
330
1F
100
AcDbEntity
  8
1
100
AcDbLine
 10
3.418307086614173
 20
0.3818897637795275
 30
0.0
 11
3.439960629921259
 21
0.3602362204724409
 31
0.0
  0
LINE
  5
3C8
330
1F
100
AcDbEntity
  8
1
100
AcDbLine
 10
3.471456692913385
 20
0.3917322834645669
 30
0.0
 11
3.449803149606299
 21
0.4133858267716536
 31
0.0
  0
LINE
  5
3C9
330
1F
100
AcDbEntity
  8
1
100
AcDbLine
 10
3.471456692913385
 20
4.829724409448818
 30
0.0
 11
3.449803149606299
 21
4.808070866141732
 31
0.0
  0
POLYLINE
  5
3CA
330
1F
100
AcDbEntity
  8
1
100
AcDb2dPolyline
 66
     1
 10
0.0
 20
0.0
 30
0.0
  0
VERTEX
  5
3CB
330
3CA
100
AcDbEntity
  8
1
100
AcDbVertex
100
AcDb2dVertex
 10
0.7736220472440945
 20
0.3818897637795275
 30
0.0
  0
VERTEX
  5
3CC
330
3CA
100
AcDbEntity
  8
1
100
AcDbVertex
100
AcDb2dVertex
 10
0.7736220472440945
 20
0.389763779527559
 30
0.0
  0
VERTEX
  5
3CD
330
3CA
100
AcDbEntity
  8
1
100
AcDbVertex
100
AcDb2dVertex
 10
0.7736220472440945
 20
0.4064960629921261
 30
0.0
  0
SEQEND
  5
3CE
330
3CA
100
AcDbEntity
  8
1
  0
LINE
  5
3CF
330
1F
100
AcDbEntity
  8
1
100
AcDbLine
 10
3.418307086614173
 20
0.3818897637795275
 30
0.0
 11
0.7736220472440945
 21
0.3818897637795275
 31
0.0
  0
LINE
  5
3D0
330
1F
100
AcDbEntity
  8
1
100
AcDbLine
 10
0.7736220472440945
 20
0.3818897637795275
 30
0.0
 11
0.7519685039370079
 21
0.3602362204724409
 31
0.0
  0
POLYLINE
  5
3D1
330
1F
100
AcDbEntity
  8
1
100
AcDb2dPolyline
 66
     1
 10
0.0
 20
0.0
 30
0.0
  0
VERTEX
  5
3D2
330
3D1
100
AcDbEntity
  8
1
100
AcDbVertex
100
AcDb2dVertex
 10
1.449803149606299
 20
1.271653543307086
 30
0.0
  0
VERTEX
  5
3D3
330
3D1
100
AcDbEntity
  8
1
100
AcDbVertex
100
AcDb2dVertex
 10
1.456692913385826
 20
1.271653543307086
 30
0.0
  0
VERTEX
  5
3D4
330
3D1
100
AcDbEntity
  8
1
100
AcDbVertex
100
AcDb2dVertex
 10
1.470472440944881
 20
1.271653543307086
 30
0.0
  0
SEQEND
  5
3D5
330
3D1
100
AcDbEntity
  8
1
  0
LINE
  5
3D6
330
1F
100
AcDbEntity
  8
1
100
AcDbLine
 10
1.444881889763779
 20
1.273622047244094
 30
0.0
 11
1.449803149606299
 21
1.271653543307086
 31
0.0
  0
LINE
  5
3D7
330
1F
100
AcDbEntity
  8
1
100
AcDbLine
 10
1.373031496062992
 20
1.273622047244094
 30
0.0
 11
1.37007874015748
 21
1.270669291338582
 31
0.0
  0
LINE
  5
3D8
330
1F
100
AcDbEntity
  8
1
100
AcDbLine
 10
1.31003937007874
 20
1.270669291338582
 30
0.0
 11
1.37007874015748
 21
1.270669291338582
 31
0.0
  0
LINE
  5
3D9
330
1F
100
AcDbEntity
  8
1
100
AcDbLine
 10
1.307086614173228
 20
1.26771653543307
 30
0.0
 11
1.31003937007874
 21
1.270669291338582
 31
0.0
  0
LINE
  5
3DA
330
1F
100
AcDbEntity
  8
1
100
AcDbLine
 10
2.742125984251968
 20
1.271653543307086
 30
0.0
 11
2.748031496062992
 21
1.273622047244094
 31
0.0
  0
POLYLINE
  5
3DB
330
1F
100
AcDbEntity
  8
1
100
AcDb2dPolyline
 66
     1
 10
0.0
 20
0.0
 30
0.0
  0
VERTEX
  5
3DC
330
3DB
100
AcDbEntity
  8
1
100
AcDbVertex
100
AcDb2dVertex
 10
2.722440944881889
 20
1.271653543307086
 30
0.0
  0
VERTEX
  5
3DD
330
3DB
100
AcDbEntity
  8
1
100
AcDbVertex
100
AcDb2dVertex
 10
2.736220472440944
 20
1.271653543307086
 30
0.0
  0
VERTEX
  5
3DE
330
3DB
100
AcDbEntity
  8
1
100
AcDbVertex
100
AcDb2dVertex
 10
2.742125984251968
 20
1.271653543307086
 30
0.0
  0
SEQEND
  5
3DF
330
3DB
100
AcDbEntity
  8
1
  0
LINE
  5
3E0
330
1F
100
AcDbEntity
  8
1
100
AcDbLine
 10
1.223425196850393
 20
1.176181102362204
 30
0.0
 11
1.223425196850393
 21
0.7637795275590551
 31
0.0
  0
LINE
  5
3E1
330
1F
100
AcDbEntity
  8
1
100
AcDbLine
 10
2.158464566929133
 20
1.124015748031496
 30
0.0
 11
2.033464566929133
 21
1.124015748031496
 31
0.0
  0
POLYLINE
  5
3E2
330
1F
100
AcDbEntity
  8
1
100
AcDb2dPolyline
 66
     1
 10
0.0
 20
0.0
 30
0.0
  0
VERTEX
  5
3E3
330
3E2
100
AcDbEntity
  8
1
100
AcDbVertex
100
AcDb2dVertex
 10
2.158464566929133
 20
1.124015748031496
 30
0.0
  0
VERTEX
  5
3E4
330
3E2
100
AcDbEntity
  8
1
100
AcDbVertex
100
AcDb2dVertex
 10
2.194881889763779
 20
1.119094488188976
 30
0.0
  0
VERTEX
  5
3E5
330
3E2
100
AcDbEntity
  8
1
100
AcDbVertex
100
AcDb2dVertex
 10
2.230314960629921
 20
1.106299212598425
 30
0.0
  0
VERTEX
  5
3E6
330
3E2
100
AcDbEntity
  8
1
100
AcDbVertex
100
AcDb2dVertex
 10
2.260826771653543
 20
1.084645669291338
 30
0.0
  0
VERTEX
  5
3E7
330
3E2
100
AcDbEntity
  8
1
100
AcDbVertex
100
AcDb2dVertex
 10
2.284448818897637
 20
1.057086614173228
 30
0.0
  0
VERTEX
  5
3E8
330
3E2
100
AcDbEntity
  8
1
100
AcDbVertex
100
AcDb2dVertex
 10
2.302165354330708
 20
1.024606299212598
 30
0.0
  0
VERTEX
  5
3E9
330
3E2
100
AcDbEntity
  8
1
100
AcDbVertex
100
AcDb2dVertex
 10
2.311023622047243
 20
0.9881889763779527
 30
0.0
  0
VERTEX
  5
3EA
330
3E2
100
AcDbEntity
  8
1
100
AcDbVertex
100
AcDb2dVertex
 10
2.311023622047243
 20
0.951771653543307
 30
0.0
  0
VERTEX
  5
3EB
330
3E2
100
AcDbEntity
  8
1
100
AcDbVertex
100
AcDb2dVertex
 10
2.302165354330708
 20
0.9153543307086614
 30
0.0
  0
VERTEX
  5
3EC
330
3E2
100
AcDbEntity
  8
1
100
AcDbVertex
100
AcDb2dVertex
 10
2.284448818897637
 20
0.8828740157480314
 30
0.0
  0
VERTEX
  5
3ED
330
3E2
100
AcDbEntity
  8
1
100
AcDbVertex
100
AcDb2dVertex
 10
2.260826771653543
 20
0.8553149606299212
 30
0.0
  0
VERTEX
  5
3EE
330
3E2
100
AcDbEntity
  8
1
100
AcDbVertex
100
AcDb2dVertex
 10
2.230314960629921
 20
0.8346456692913385
 30
0.0
  0
VERTEX
  5
3EF
330
3E2
100
AcDbEntity
  8
1
100
AcDbVertex
100
AcDb2dVertex
 10
2.194881889763779
 20
0.8208661417322835
 30
0.0
  0
VERTEX
  5
3F0
330
3E2
100
AcDbEntity
  8
1
100
AcDbVertex
100
AcDb2dVertex
 10
2.158464566929133
 20
0.8169291338582677
 30
0.0
  0
SEQEND
  5
3F1
330
3E2
100
AcDbEntity
  8
1
  0
LINE
  5
3F2
330
1F
100
AcDbEntity
  8
1
100
AcDbLine
 10
2.033464566929133
 20
0.8169291338582677
 30
0.0
 11
2.158464566929133
 21
0.8169291338582677
 31
0.0
  0
POLYLINE
  5
3F3
330
1F
100
AcDbEntity
  8
1
100
AcDb2dPolyline
 66
     1
 10
0.0
 20
0.0
 30
0.0
  0
VERTEX
  5
3F4
330
3F3
100
AcDbEntity
  8
1
100
AcDbVertex
100
AcDb2dVertex
 10
2.033464566929133
 20
1.124015748031496
 30
0.0
  0
VERTEX
  5
3F5
330
3F3
100
AcDbEntity
  8
1
100
AcDbVertex
100
AcDb2dVertex
 10
1.997047244094488
 20
1.119094488188976
 30
0.0
  0
VERTEX
  5
3F6
330
3F3
100
AcDbEntity
  8
1
100
AcDbVertex
100
AcDb2dVertex
 10
1.96259842519685
 20
1.106299212598425
 30
0.0
  0
VERTEX
  5
3F7
330
3F3
100
AcDbEntity
  8
1
100
AcDbVertex
100
AcDb2dVertex
 10
1.932086614173228
 20
1.084645669291338
 30
0.0
  0
VERTEX
  5
3F8
330
3F3
100
AcDbEntity
  8
1
100
AcDbVertex
100
AcDb2dVertex
 10
1.907480314960629
 20
1.057086614173228
 30
0.0
  0
VERTEX
  5
3F9
330
3F3
100
AcDbEntity
  8
1
100
AcDbVertex
100
AcDb2dVertex
 10
1.889763779527559
 20
1.024606299212598
 30
0.0
  0
VERTEX
  5
3FA
330
3F3
100
AcDbEntity
  8
1
100
AcDbVertex
100
AcDb2dVertex
 10
1.880905511811023
 20
0.9881889763779527
 30
0.0
  0
VERTEX
  5
3FB
330
3F3
100
AcDbEntity
  8
1
100
AcDbVertex
100
AcDb2dVertex
 10
1.880905511811023
 20
0.951771653543307
 30
0.0
  0
VERTEX
  5
3FC
330
3F3
100
AcDbEntity
  8
1
100
AcDbVertex
100
AcDb2dVertex
 10
1.889763779527559
 20
0.9153543307086614
 30
0.0
  0
VERTEX
  5
3FD
330
3F3
100
AcDbEntity
  8
1
100
AcDbVertex
100
AcDb2dVertex
 10
1.907480314960629
 20
0.8828740157480314
 30
0.0
  0
VERTEX
  5
3FE
330
3F3
100
AcDbEntity
  8
1
100
AcDbVertex
100
AcDb2dVertex
 10
1.932086614173228
 20
0.8553149606299212
 30
0.0
  0
VERTEX
  5
3FF
330
3F3
100
AcDbEntity
  8
1
100
AcDbVertex
100
AcDb2dVertex
 10
1.96259842519685
 20
0.8346456692913385
 30
0.0
  0
VERTEX
  5
400
330
3F3
100
AcDbEntity
  8
1
100
AcDbVertex
100
AcDb2dVertex
 10
1.997047244094488
 20
0.8208661417322835
 30
0.0
  0
VERTEX
  5
401
330
3F3
100
AcDbEntity
  8
1
100
AcDbVertex
100
AcDb2dVertex
 10
2.033464566929133
 20
0.8169291338582677
 30
0.0
  0
SEQEND
  5
402
330
3F3
100
AcDbEntity
  8
1
  0
LINE
  5
403
330
1F
100
AcDbEntity
  8
1
100
AcDbLine
 10
1.31003937007874
 20
1.797244094488188
 30
0.0
 11
1.31003937007874
 21
1.632874015748031
 31
0.0
  0
POLYLINE
  5
404
330
1F
100
AcDbEntity
  8
1
100
AcDb2dPolyline
 66
     1
 10
0.0
 20
0.0
 30
0.0
  0
VERTEX
  5
405
330
404
100
AcDbEntity
  8
1
100
AcDbVertex
100
AcDb2dVertex
 10
1.31003937007874
 20
1.797244094488188
 30
0.0
  0
VERTEX
  5
406
330
404
100
AcDbEntity
  8
1
100
AcDbVertex
100
AcDb2dVertex
 10
1.307086614173228
 20
1.791338582677165
 30
0.0
  0
VERTEX
  5
407
330
404
100
AcDbEntity
  8
1
100
AcDbVertex
100
AcDb2dVertex
 10
1.302165354330708
 20
1.789370078740157
 30
0.0
  0
SEQEND
  5
408
330
404
100
AcDbEntity
  8
1
  0
LINE
  5
409
330
1F
100
AcDbEntity
  8
1
100
AcDbLine
 10
1.302165354330708
 20
1.789370078740157
 30
0.0
 11
1.257874015748031
 21
1.789370078740157
 31
0.0
  0
POLYLINE
  5
40A
330
1F
100
AcDbEntity
  8
1
100
AcDb2dPolyline
 66
     1
 10
0.0
 20
0.0
 30
0.0
  0
VERTEX
  5
40B
330
40A
100
AcDbEntity
  8
1
100
AcDbVertex
100
AcDb2dVertex
 10
1.257874015748031
 20
1.789370078740157
 30
0.0
  0
VERTEX
  5
40C
330
40A
100
AcDbEntity
  8
1
100
AcDbVertex
100
AcDb2dVertex
 10
1.251968503937007
 20
1.787401574803149
 30
0.0
  0
VERTEX
  5
40D
330
40A
100
AcDbEntity
  8
1
100
AcDbVertex
100
AcDb2dVertex
 10
1.25
 20
1.781496062992125
 30
0.0
  0
SEQEND
  5
40E
330
40A
100
AcDbEntity
  8
1
  0
LINE
  5
40F
330
1F
100
AcDbEntity
  8
1
100
AcDbLine
 10
1.25
 20
1.781496062992125
 30
0.0
 11
1.25
 21
1.648622047244094
 31
0.0
  0
POLYLINE
  5
410
330
1F
100
AcDbEntity
  8
1
100
AcDb2dPolyline
 66
     1
 10
0.0
 20
0.0
 30
0.0
  0
VERTEX
  5
411
330
410
100
AcDbEntity
  8
1
100
AcDbVertex
100
AcDb2dVertex
 10
1.25
 20
1.648622047244094
 30
0.0
  0
VERTEX
  5
412
330
410
100
AcDbEntity
  8
1
100
AcDbVertex
100
AcDb2dVertex
 10
1.251968503937007
 20
1.643700787401574
 30
0.0
  0
VERTEX
  5
413
330
410
100
AcDbEntity
  8
1
100
AcDbVertex
100
AcDb2dVertex
 10
1.257874015748031
 20
1.640748031496062
 30
0.0
  0
SEQEND
  5
414
330
410
100
AcDbEntity
  8
1
  0
LINE
  5
415
330
1F
100
AcDbEntity
  8
1
100
AcDbLine
 10
1.257874015748031
 20
1.640748031496062
 30
0.0
 11
1.302165354330708
 21
1.640748031496062
 31
0.0
  0
POLYLINE
  5
416
330
1F
100
AcDbEntity
  8
1
100
AcDb2dPolyline
 66
     1
 10
0.0
 20
0.0
 30
0.0
  0
VERTEX
  5
417
330
416
100
AcDbEntity
  8
1
100
AcDbVertex
100
AcDb2dVertex
 10
1.302165354330708
 20
1.640748031496062
 30
0.0
  0
VERTEX
  5
418
330
416
100
AcDbEntity
  8
1
100
AcDbVertex
100
AcDb2dVertex
 10
1.307086614173228
 20
1.638779527559055
 30
0.0
  0
VERTEX
  5
419
330
416
100
AcDbEntity
  8
1
100
AcDbVertex
100
AcDb2dVertex
 10
1.31003937007874
 20
1.632874015748031
 30
0.0
  0
SEQEND
  5
41A
330
416
100
AcDbEntity
  8
1
  0
LINE
  5
41B
330
1F
100
AcDbEntity
  8
1
100
AcDbLine
 10
1.31003937007874
 20
2.113188976377952
 30
0.0
 11
1.31003937007874
 21
2.440944881889763
 31
0.0
  0
LINE
  5
41C
330
1F
100
AcDbEntity
  8
1
100
AcDbLine
 10
1.31003937007874
 20
2.113188976377952
 30
0.0
 11
1.314960629921259
 21
2.113188976377952
 31
0.0
  0
LINE
  5
41D
330
1F
100
AcDbEntity
  8
1
100
AcDbLine
 10
1.314960629921259
 20
2.440944881889763
 30
0.0
 11
1.31003937007874
 21
2.440944881889763
 31
0.0
  0
LINE
  5
41E
330
1F
100
AcDbEntity
  8
1
100
AcDbLine
 10
1.31003937007874
 20
2.692913385826771
 30
0.0
 11
1.31003937007874
 21
2.528543307086614
 31
0.0
  0
POLYLINE
  5
41F
330
1F
100
AcDbEntity
  8
1
100
AcDb2dPolyline
 66
     1
 10
0.0
 20
0.0
 30
0.0
  0
VERTEX
  5
420
330
41F
100
AcDbEntity
  8
1
100
AcDbVertex
100
AcDb2dVertex
 10
1.302165354330708
 20
2.68503937007874
 30
0.0
  0
VERTEX
  5
421
330
41F
100
AcDbEntity
  8
1
100
AcDbVertex
100
AcDb2dVertex
 10
1.307086614173228
 20
2.687007874015748
 30
0.0
  0
VERTEX
  5
422
330
41F
100
AcDbEntity
  8
1
100
AcDbVertex
100
AcDb2dVertex
 10
1.31003937007874
 20
2.692913385826771
 30
0.0
  0
SEQEND
  5
423
330
41F
100
AcDbEntity
  8
1
  0
LINE
  5
424
330
1F
100
AcDbEntity
  8
1
100
AcDbLine
 10
1.257874015748031
 20
2.68503937007874
 30
0.0
 11
1.302165354330708
 21
2.68503937007874
 31
0.0
  0
POLYLINE
  5
425
330
1F
100
AcDbEntity
  8
1
100
AcDb2dPolyline
 66
     1
 10
0.0
 20
0.0
 30
0.0
  0
VERTEX
  5
426
330
425
100
AcDbEntity
  8
1
100
AcDbVertex
100
AcDb2dVertex
 10
1.25
 20
2.677165354330708
 30
0.0
  0
VERTEX
  5
427
330
425
100
AcDbEntity
  8
1
100
AcDbVertex
100
AcDb2dVertex
 10
1.251968503937007
 20
2.682086614173228
 30
0.0
  0
VERTEX
  5
428
330
425
100
AcDbEntity
  8
1
100
AcDbVertex
100
AcDb2dVertex
 10
1.257874015748031
 20
2.68503937007874
 30
0.0
  0
SEQEND
  5
429
330
425
100
AcDbEntity
  8
1
  0
LINE
  5
42A
330
1F
100
AcDbEntity
  8
1
100
AcDbLine
 10
1.25
 20
2.677165354330708
 30
0.0
 11
1.25
 21
2.544291338582677
 31
0.0
  0
POLYLINE
  5
42B
330
1F
100
AcDbEntity
  8
1
100
AcDb2dPolyline
 66
     1
 10
0.0
 20
0.0
 30
0.0
  0
VERTEX
  5
42C
330
42B
100
AcDbEntity
  8
1
100
AcDbVertex
100
AcDb2dVertex
 10
1.25
 20
2.544291338582677
 30
0.0
  0
VERTEX
  5
42D
330
42B
100
AcDbEntity
  8
1
100
AcDbVertex
100
AcDb2dVertex
 10
1.251968503937007
 20
2.538385826771653
 30
0.0
  0
VERTEX
  5
42E
330
42B
100
AcDbEntity
  8
1
100
AcDbVertex
100
AcDb2dVertex
 10
1.257874015748031
 20
2.536417322834645
 30
0.0
  0
SEQEND
  5
42F
330
42B
100
AcDbEntity
  8
1
  0
LINE
  5
430
330
1F
100
AcDbEntity
  8
1
100
AcDbLine
 10
1.257874015748031
 20
2.536417322834645
 30
0.0
 11
1.302165354330708
 21
2.536417322834645
 31
0.0
  0
POLYLINE
  5
431
330
1F
100
AcDbEntity
  8
1
100
AcDb2dPolyline
 66
     1
 10
0.0
 20
0.0
 30
0.0
  0
VERTEX
  5
432
330
431
100
AcDbEntity
  8
1
100
AcDbVertex
100
AcDb2dVertex
 10
1.302165354330708
 20
2.536417322834645
 30
0.0
  0
VERTEX
  5
433
330
431
100
AcDbEntity
  8
1
100
AcDbVertex
100
AcDb2dVertex
 10
1.307086614173228
 20
2.534448818897637
 30
0.0
  0
VERTEX
  5
434
330
431
100
AcDbEntity
  8
1
100
AcDbVertex
100
AcDb2dVertex
 10
1.31003937007874
 20
2.528543307086614
 30
0.0
  0
SEQEND
  5
435
330
431
100
AcDbEntity
  8
1
  0
LINE
  5
436
330
1F
100
AcDbEntity
  8
1
100
AcDbLine
 10
1.31003937007874
 20
3.108267716535432
 30
0.0
 11
1.31003937007874
 21
2.780511811023622
 31
0.0
  0
LINE
  5
437
330
1F
100
AcDbEntity
  8
1
100
AcDbLine
 10
1.314960629921259
 20
2.780511811023622
 30
0.0
 11
1.31003937007874
 21
2.780511811023622
 31
0.0
  0
LINE
  5
438
330
1F
100
AcDbEntity
  8
1
100
AcDbLine
 10
1.31003937007874
 20
3.108267716535432
 30
0.0
 11
1.314960629921259
 21
3.108267716535432
 31
0.0
  0
LINE
  5
439
330
1F
100
AcDbEntity
  8
1
100
AcDbLine
 10
1.31003937007874
 20
3.424212598425196
 30
0.0
 11
1.31003937007874
 21
3.588582677165354
 31
0.0
  0
POLYLINE
  5
43A
330
1F
100
AcDbEntity
  8
1
100
AcDb2dPolyline
 66
     1
 10
0.0
 20
0.0
 30
0.0
  0
VERTEX
  5
43B
330
43A
100
AcDbEntity
  8
1
100
AcDbVertex
100
AcDb2dVertex
 10
1.302165354330708
 20
3.580708661417322
 30
0.0
  0
VERTEX
  5
43C
330
43A
100
AcDbEntity
  8
1
100
AcDbVertex
100
AcDb2dVertex
 10
1.307086614173228
 20
3.58267716535433
 30
0.0
  0
VERTEX
  5
43D
330
43A
100
AcDbEntity
  8
1
100
AcDbVertex
100
AcDb2dVertex
 10
1.31003937007874
 20
3.588582677165354
 30
0.0
  0
SEQEND
  5
43E
330
43A
100
AcDbEntity
  8
1
  0
LINE
  5
43F
330
1F
100
AcDbEntity
  8
1
100
AcDbLine
 10
1.257874015748031
 20
3.580708661417322
 30
0.0
 11
1.302165354330708
 21
3.580708661417322
 31
0.0
  0
POLYLINE
  5
440
330
1F
100
AcDbEntity
  8
1
100
AcDb2dPolyline
 66
     1
 10
0.0
 20
0.0
 30
0.0
  0
VERTEX
  5
441
330
440
100
AcDbEntity
  8
1
100
AcDbVertex
100
AcDb2dVertex
 10
1.25
 20
3.572834645669291
 30
0.0
  0
VERTEX
  5
442
330
440
100
AcDbEntity
  8
1
100
AcDbVertex
100
AcDb2dVertex
 10
1.251968503937007
 20
3.577755905511811
 30
0.0
  0
VERTEX
  5
443
330
440
100
AcDbEntity
  8
1
100
AcDbVertex
100
AcDb2dVertex
 10
1.257874015748031
 20
3.580708661417322
 30
0.0
  0
SEQEND
  5
444
330
440
100
AcDbEntity
  8
1
  0
LINE
  5
445
330
1F
100
AcDbEntity
  8
1
100
AcDbLine
 10
1.25
 20
3.439960629921259
 30
0.0
 11
1.25
 21
3.572834645669291
 31
0.0
  0
POLYLINE
  5
446
330
1F
100
AcDbEntity
  8
1
100
AcDb2dPolyline
 66
     1
 10
0.0
 20
0.0
 30
0.0
  0
VERTEX
  5
447
330
446
100
AcDbEntity
  8
1
100
AcDbVertex
100
AcDb2dVertex
 10
1.257874015748031
 20
3.432086614173228
 30
0.0
  0
VERTEX
  5
448
330
446
100
AcDbEntity
  8
1
100
AcDbVertex
100
AcDb2dVertex
 10
1.251968503937007
 20
3.434055118110236
 30
0.0
  0
VERTEX
  5
449
330
446
100
AcDbEntity
  8
1
100
AcDbVertex
100
AcDb2dVertex
 10
1.25
 20
3.439960629921259
 30
0.0
  0
SEQEND
  5
44A
330
446
100
AcDbEntity
  8
1
  0
LINE
  5
44B
330
1F
100
AcDbEntity
  8
1
100
AcDbLine
 10
1.302165354330708
 20
3.432086614173228
 30
0.0
 11
1.257874015748031
 21
3.432086614173228
 31
0.0
  0
POLYLINE
  5
44C
330
1F
100
AcDbEntity
  8
1
100
AcDb2dPolyline
 66
     1
 10
0.0
 20
0.0
 30
0.0
  0
VERTEX
  5
44D
330
44C
100
AcDbEntity
  8
1
100
AcDbVertex
100
AcDb2dVertex
 10
1.31003937007874
 20
3.424212598425196
 30
0.0
  0
VERTEX
  5
44E
330
44C
100
AcDbEntity
  8
1
100
AcDbVertex
100
AcDb2dVertex
 10
1.307086614173228
 20
3.43011811023622
 30
0.0
  0
VERTEX
  5
44F
330
44C
100
AcDbEntity
  8
1
100
AcDbVertex
100
AcDb2dVertex
 10
1.302165354330708
 20
3.432086614173228
 30
0.0
  0
SEQEND
  5
450
330
44C
100
AcDbEntity
  8
1
  0
LINE
  5
451
330
1F
100
AcDbEntity
  8
1
100
AcDbLine
 10
1.31003937007874
 20
1.270669291338582
 30
0.0
 11
1.31003937007874
 21
1.545275590551181
 31
0.0
  0
LINE
  5
452
330
1F
100
AcDbEntity
  8
1
100
AcDbLine
 10
1.37007874015748
 20
1.275590551181102
 30
0.0
 11
1.37007874015748
 21
1.270669291338582
 31
0.0
  0
LINE
  5
453
330
1F
100
AcDbEntity
  8
1
100
AcDbLine
 10
1.314960629921259
 20
1.545275590551181
 30
0.0
 11
1.31003937007874
 21
1.545275590551181
 31
0.0
  0
POLYLINE
  5
454
330
1F
100
AcDbEntity
  8
1
100
AcDb2dPolyline
 66
     1
 10
0.0
 20
0.0
 30
0.0
  0
VERTEX
  5
455
330
454
100
AcDbEntity
  8
1
100
AcDbVertex
100
AcDb2dVertex
 10
0.7421259842519686
 20
0.4133858267716536
 30
0.0
  0
VERTEX
  5
456
330
454
100
AcDbEntity
  8
1
100
AcDbVertex
100
AcDb2dVertex
 10
0.7519685039370079
 20
0.4084645669291339
 30
0.0
  0
VERTEX
  5
457
330
454
100
AcDbEntity
  8
1
100
AcDbVertex
100
AcDb2dVertex
 10
0.7736220472440945
 20
0.4064960629921261
 30
0.0
  0
SEQEND
  5
458
330
454
100
AcDbEntity
  8
1
  0
POLYLINE
  5
459
330
1F
100
AcDbEntity
  8
1
100
AcDb2dPolyline
 66
     1
 10
0.0
 20
0.0
 30
0.0
  0
VERTEX
  5
45A
330
459
100
AcDbEntity
  8
1
100
AcDbVertex
100
AcDb2dVertex
 10
0.7421259842519686
 20
0.4133858267716536
 30
0.0
  0
VERTEX
  5
45B
330
459
100
AcDbEntity
  8
1
100
AcDbVertex
100
AcDb2dVertex
 10
0.7470472440944882
 20
0.3976377952755905
 30
0.0
  0
VERTEX
  5
45C
330
459
100
AcDbEntity
  8
1
100
AcDbVertex
100
AcDb2dVertex
 10
0.7578740157480315
 20
0.3858267716535433
 30
0.0
  0
VERTEX
  5
45D
330
459
100
AcDbEntity
  8
1
100
AcDbVertex
100
AcDb2dVertex
 10
0.7736220472440945
 20
0.3818897637795275
 30
0.0
  0
SEQEND
  5
45E
330
459
100
AcDbEntity
  8
1
  0
LINE
  5
45F
330
1F
100
AcDbEntity
  8
1
100
AcDbLine
 10
1.298228346456692
 20
3.583661417322834
 30
0.0
 11
1.302165354330708
 21
3.580708661417322
 31
0.0
  0
LINE
  5
460
330
1F
100
AcDbEntity
  8
1
100
AcDbLine
 10
1.31003937007874
 20
3.588582677165354
 30
0.0
 11
1.307086614173228
 21
3.591535433070866
 31
0.0
  0
LINE
  5
461
330
1F
100
AcDbEntity
  8
1
100
AcDbLine
 10
1.257874015748031
 20
3.580708661417322
 30
0.0
 11
1.254921259842519
 21
3.583661417322834
 31
0.0
  0
LINE
  5
462
330
1F
100
AcDbEntity
  8
1
100
AcDbLine
 10
1.247047244094488
 20
3.575787401574803
 30
0.0
 11
1.25
 21
3.572834645669291
 31
0.0
  0
LINE
  5
463
330
1F
100
AcDbEntity
  8
1
100
AcDbLine
 10
1.25
 20
3.439960629921259
 30
0.0
 11
1.247047244094488
 21
3.437007874015748
 31
0.0
  0
LINE
  5
464
330
1F
100
AcDbEntity
  8
1
100
AcDbLine
 10
1.254921259842519
 20
3.429133858267716
 30
0.0
 11
1.257874015748031
 21
3.432086614173228
 31
0.0
  0
LINE
  5
465
330
1F
100
AcDbEntity
  8
1
100
AcDbLine
 10
1.302165354330708
 20
3.432086614173228
 30
0.0
 11
1.298228346456692
 21
3.429133858267716
 31
0.0
  0
LINE
  5
466
330
1F
100
AcDbEntity
  8
1
100
AcDbLine
 10
1.307086614173228
 20
3.420275590551181
 30
0.0
 11
1.31003937007874
 21
3.424212598425196
 31
0.0
  0
LINE
  5
467
330
1F
100
AcDbEntity
  8
1
100
AcDbLine
 10
1.31003937007874
 20
3.108267716535432
 30
0.0
 11
1.31003937007874
 21
3.424212598425196
 31
0.0
  0
LINE
  5
468
330
1F
100
AcDbEntity
  8
1
100
AcDbLine
 10
1.31003937007874
 20
2.692913385826771
 30
0.0
 11
1.307086614173228
 21
2.695866141732283
 31
0.0
  0
LINE
  5
469
330
1F
100
AcDbEntity
  8
1
100
AcDbLine
 10
1.31003937007874
 20
2.780511811023622
 30
0.0
 11
1.31003937007874
 21
2.692913385826771
 31
0.0
  0
LINE
  5
46A
330
1F
100
AcDbEntity
  8
1
100
AcDbLine
 10
1.298228346456692
 20
2.687992125984251
 30
0.0
 11
1.302165354330708
 21
2.68503937007874
 31
0.0
  0
LINE
  5
46B
330
1F
100
AcDbEntity
  8
1
100
AcDbLine
 10
1.257874015748031
 20
2.68503937007874
 30
0.0
 11
1.254921259842519
 21
2.687992125984251
 31
0.0
  0
LINE
  5
46C
330
1F
100
AcDbEntity
  8
1
100
AcDbLine
 10
1.247047244094488
 20
2.68011811023622
 30
0.0
 11
1.25
 21
2.677165354330708
 31
0.0
  0
LINE
  5
46D
330
1F
100
AcDbEntity
  8
1
100
AcDbLine
 10
1.247047244094488
 20
2.541338582677165
 30
0.0
 11
1.25
 21
2.544291338582677
 31
0.0
  0
LINE
  5
46E
330
1F
100
AcDbEntity
  8
1
100
AcDbLine
 10
1.257874015748031
 20
2.536417322834645
 30
0.0
 11
1.254921259842519
 21
2.533464566929133
 31
0.0
  0
LINE
  5
46F
330
1F
100
AcDbEntity
  8
1
100
AcDbLine
 10
1.298228346456692
 20
2.533464566929133
 30
0.0
 11
1.302165354330708
 21
2.536417322834645
 31
0.0
  0
LINE
  5
470
330
1F
100
AcDbEntity
  8
1
100
AcDbLine
 10
1.31003937007874
 20
2.528543307086614
 30
0.0
 11
1.307086614173228
 21
2.525590551181102
 31
0.0
  0
LINE
  5
471
330
1F
100
AcDbEntity
  8
1
100
AcDbLine
 10
1.31003937007874
 20
2.113188976377952
 30
0.0
 11
1.31003937007874
 21
1.797244094488188
 31
0.0
  0
LINE
  5
472
330
1F
100
AcDbEntity
  8
1
100
AcDbLine
 10
1.31003937007874
 20
2.440944881889763
 30
0.0
 11
1.31003937007874
 21
2.528543307086614
 31
0.0
  0
LINE
  5
473
330
1F
100
AcDbEntity
  8
1
100
AcDbLine
 10
1.307086614173228
 20
1.8001968503937
 30
0.0
 11
1.31003937007874
 21
1.797244094488188
 31
0.0
  0
LINE
  5
474
330
1F
100
AcDbEntity
  8
1
100
AcDbLine
 10
1.302165354330708
 20
1.789370078740157
 30
0.0
 11
1.298228346456692
 21
1.792322834645669
 31
0.0
  0
LINE
  5
475
330
1F
100
AcDbEntity
  8
1
100
AcDbLine
 10
1.254921259842519
 20
1.792322834645669
 30
0.0
 11
1.257874015748031
 21
1.789370078740157
 31
0.0
  0
LINE
  5
476
330
1F
100
AcDbEntity
  8
1
100
AcDbLine
 10
1.25
 20
1.781496062992125
 30
0.0
 11
1.247047244094488
 21
1.784448818897637
 31
0.0
  0
LINE
  5
477
330
1F
100
AcDbEntity
  8
1
100
AcDbLine
 10
1.247047244094488
 20
1.645669291338582
 30
0.0
 11
1.25
 21
1.648622047244094
 31
0.0
  0
LINE
  5
478
330
1F
100
AcDbEntity
  8
1
100
AcDbLine
 10
1.257874015748031
 20
1.640748031496062
 30
0.0
 11
1.254921259842519
 21
1.637795275590551
 31
0.0
  0
LINE
  5
479
330
1F
100
AcDbEntity
  8
1
100
AcDbLine
 10
1.298228346456692
 20
1.637795275590551
 30
0.0
 11
1.302165354330708
 21
1.640748031496062
 31
0.0
  0
LINE
  5
47A
330
1F
100
AcDbEntity
  8
1
100
AcDbLine
 10
1.31003937007874
 20
1.632874015748031
 30
0.0
 11
1.307086614173228
 21
1.629921259842519
 31
0.0
  0
LINE
  5
47B
330
1F
100
AcDbEntity
  8
1
100
AcDbLine
 10
1.31003937007874
 20
1.632874015748031
 30
0.0
 11
1.31003937007874
 21
1.545275590551181
 31
0.0
  0
POLYLINE
  5
47C
330
1F
100
AcDbEntity
  8
1
100
AcDb2dPolyline
 66
     1
 10
0.0
 20
0.0
 30
0.0
  0
VERTEX
  5
47D
330
47C
100
AcDbEntity
  8
1
100
AcDbVertex
100
AcDb2dVertex
 10
0.7421259842519686
 20
4.808070866141732
 30
0.0
  0
VERTEX
  5
47E
330
47C
100
AcDbEntity
  8
1
100
AcDbVertex
100
AcDb2dVertex
 10
0.7519685039370079
 20
4.812992125984251
 30
0.0
  0
VERTEX
  5
47F
330
47C
100
AcDbEntity
  8
1
100
AcDbVertex
100
AcDb2dVertex
 10
0.7736220472440945
 20
4.81496062992126
 30
0.0
  0
SEQEND
  5
480
330
47C
100
AcDbEntity
  8
1
  0
POLYLINE
  5
481
330
1F
100
AcDbEntity
  8
1
100
AcDb2dPolyline
 66
     1
 10
0.0
 20
0.0
 30
0.0
  0
VERTEX
  5
482
330
481
100
AcDbEntity
  8
1
100
AcDbVertex
100
AcDb2dVertex
 10
0.7421259842519686
 20
0.4133858267716536
 30
0.0
  0
VERTEX
  5
483
330
481
100
AcDbEntity
  8
1
100
AcDbVertex
100
AcDb2dVertex
 10
0.7460629921259843
 20
0.6840551181102362
 30
0.0
  0
VERTEX
  5
484
330
481
100
AcDbEntity
  8
1
100
AcDbVertex
100
AcDb2dVertex
 10
0.75
 20
0.9566929133858266
 30
0.0
  0
VERTEX
  5
485
330
481
100
AcDbEntity
  8
1
100
AcDbVertex
100
AcDb2dVertex
 10
0.7529527559055119
 20
1.230314960629921
 30
0.0
  0
VERTEX
  5
486
330
481
100
AcDbEntity
  8
1
100
AcDbVertex
100
AcDb2dVertex
 10
0.7549212598425197
 20
1.504921259842519
 30
0.0
  0
VERTEX
  5
487
330
481
100
AcDbEntity
  8
1
100
AcDbVertex
100
AcDb2dVertex
 10
0.7568897637795276
 20
1.780511811023622
 30
0.0
  0
VERTEX
  5
488
330
481
100
AcDbEntity
  8
1
100
AcDbVertex
100
AcDb2dVertex
 10
0.7588582677165354
 20
2.057086614173228
 30
0.0
  0
VERTEX
  5
489
330
481
100
AcDbEntity
  8
1
100
AcDbVertex
100
AcDb2dVertex
 10
0.7598425196850394
 20
2.333661417322834
 30
0.0
  0
VERTEX
  5
48A
330
481
100
AcDbEntity
  8
1
100
AcDbVertex
100
AcDb2dVertex
 10
0.7598425196850394
 20
2.61023622047244
 30
0.0
  0
VERTEX
  5
48B
330
481
100
AcDbEntity
  8
1
100
AcDbVertex
100
AcDb2dVertex
 10
0.7598425196850394
 20
2.88779527559055
 30
0.0
  0
VERTEX
  5
48C
330
481
100
AcDbEntity
  8
1
100
AcDbVertex
100
AcDb2dVertex
 10
0.7588582677165354
 20
3.164370078740157
 30
0.0
  0
VERTEX
  5
48D
330
481
100
AcDbEntity
  8
1
100
AcDbVertex
100
AcDb2dVertex
 10
0.7568897637795276
 20
3.440944881889763
 30
0.0
  0
VERTEX
  5
48E
330
481
100
AcDbEntity
  8
1
100
AcDbVertex
100
AcDb2dVertex
 10
0.7549212598425197
 20
3.716535433070866
 30
0.0
  0
VERTEX
  5
48F
330
481
100
AcDbEntity
  8
1
100
AcDbVertex
100
AcDb2dVertex
 10
0.7529527559055119
 20
3.991141732283464
 30
0.0
  0
VERTEX
  5
490
330
481
100
AcDbEntity
  8
1
100
AcDbVertex
100
AcDb2dVertex
 10
0.75
 20
4.264763779527559
 30
0.0
  0
VERTEX
  5
491
330
481
100
AcDbEntity
  8
1
100
AcDbVertex
100
AcDb2dVertex
 10
0.7460629921259843
 20
4.537401574803149
 30
0.0
  0
VERTEX
  5
492
330
481
100
AcDbEntity
  8
1
100
AcDbVertex
100
AcDb2dVertex
 10
0.7421259842519686
 20
4.808070866141732
 30
0.0
  0
SEQEND
  5
493
330
481
100
AcDbEntity
  8
1
  0
POLYLINE
  5
494
330
1F
100
AcDbEntity
  8
1
100
AcDb2dPolyline
 66
     1
 10
0.0
 20
0.0
 30
0.0
  0
VERTEX
  5
495
330
494
100
AcDbEntity
  8
1
100
AcDbVertex
100
AcDb2dVertex
 10
0.7421259842519686
 20
4.808070866141732
 30
0.0
  0
VERTEX
  5
496
330
494
100
AcDbEntity
  8
1
100
AcDbVertex
100
AcDb2dVertex
 10
0.7470472440944882
 20
4.823818897637795
 30
0.0
  0
VERTEX
  5
497
330
494
100
AcDbEntity
  8
1
100
AcDbVertex
100
AcDb2dVertex
 10
0.7578740157480315
 20
4.834645669291338
 30
0.0
  0
VERTEX
  5
498
330
494
100
AcDbEntity
  8
1
100
AcDbVertex
100
AcDb2dVertex
 10
0.7736220472440945
 20
4.839566929133858
 30
0.0
  0
SEQEND
  5
499
330
494
100
AcDbEntity
  8
1
  0
LINE
  5
49A
330
1F
100
AcDbEntity
  8
1
100
AcDbLine
 10
1.31003937007874
 20
3.950787401574803
 30
0.0
 11
1.31003937007874
 21
3.676181102362204
 31
0.0
  0
LINE
  5
49B
330
1F
100
AcDbEntity
  8
1
100
AcDbLine
 10
1.314960629921259
 20
3.676181102362204
 30
0.0
 11
1.31003937007874
 21
3.676181102362204
 31
0.0
  0
LINE
  5
49C
330
1F
100
AcDbEntity
  8
1
100
AcDbLine
 10
1.37007874015748
 20
3.945866141732283
 30
0.0
 11
1.37007874015748
 21
3.950787401574803
 31
0.0
  0
LINE
  5
49D
330
1F
100
AcDbEntity
  8
1
100
AcDbLine
 10
1.31003937007874
 20
3.588582677165354
 30
0.0
 11
1.31003937007874
 21
3.676181102362204
 31
0.0
  0
LINE
  5
49E
330
1F
100
AcDbEntity
  8
1
100
AcDbLine
 10
1.31003937007874
 20
1.545275590551181
 30
0.0
 11
1.314960629921259
 21
1.547244094488188
 31
0.0
  0
LINE
  5
49F
330
1F
100
AcDbEntity
  8
1
100
AcDbLine
 10
1.314960629921259
 20
2.111220472440944
 30
0.0
 11
1.31003937007874
 21
2.113188976377952
 31
0.0
  0
LINE
  5
4A0
330
1F
100
AcDbEntity
  8
1
100
AcDbLine
 10
1.314960629921259
 20
2.441929133858267
 30
0.0
 11
1.31003937007874
 21
2.440944881889763
 31
0.0
  0
LINE
  5
4A1
330
1F
100
AcDbEntity
  8
1
100
AcDbLine
 10
1.314960629921259
 20
2.778543307086614
 30
0.0
 11
1.31003937007874
 21
2.780511811023622
 31
0.0
  0
LINE
  5
4A2
330
1F
100
AcDbEntity
  8
1
100
AcDbLine
 10
1.314960629921259
 20
3.11023622047244
 30
0.0
 11
1.31003937007874
 21
3.108267716535432
 31
0.0
  0
LINE
  5
4A3
330
1F
100
AcDbEntity
  8
1
100
AcDbLine
 10
1.31003937007874
 20
3.676181102362204
 30
0.0
 11
1.314960629921259
 21
3.674212598425196
 31
0.0
  0
LINE
  5
4A4
330
1F
100
AcDbEntity
  8
1
100
AcDbLine
 10
0.7214566929133858
 20
4.829724409448818
 30
0.0
 11
0.7421259842519686
 21
4.808070866141732
 31
0.0
  0
LINE
  5
4A5
330
1F
100
AcDbEntity
  8
1
100
AcDbLine
 10
0.7214566929133858
 20
0.3917322834645669
 30
0.0
 11
0.7421259842519686
 21
0.4133858267716536
 31
0.0
  0
POLYLINE
  5
4A6
330
1F
100
AcDbEntity
  8
1
100
AcDb2dPolyline
 66
     1
 10
0.0
 20
0.0
 30
0.0
  0
VERTEX
  5
4A7
330
4A6
100
AcDbEntity
  8
1
100
AcDbVertex
100
AcDb2dVertex
 10
2.033464566929133
 20
1.056102362204724
 30
0.0
  0
VERTEX
  5
4A8
330
4A6
100
AcDbEntity
  8
1
100
AcDbVertex
100
AcDb2dVertex
 10
2.006889763779527
 20
1.051181102362204
 30
0.0
  0
VERTEX
  5
4A9
330
4A6
100
AcDbEntity
  8
1
100
AcDbVertex
100
AcDb2dVertex
 10
1.983267716535433
 20
1.039370078740157
 30
0.0
  0
VERTEX
  5
4AA
330
4A6
100
AcDbEntity
  8
1
100
AcDbVertex
100
AcDb2dVertex
 10
1.964566929133858
 20
1.020669291338582
 30
0.0
  0
VERTEX
  5
4AB
330
4A6
100
AcDbEntity
  8
1
100
AcDbVertex
100
AcDb2dVertex
 10
1.952755905511811
 20
0.9970472440944881
 30
0.0
  0
VERTEX
  5
4AC
330
4A6
100
AcDbEntity
  8
1
100
AcDbVertex
100
AcDb2dVertex
 10
1.947834645669291
 20
0.9704724409448818
 30
0.0
  0
VERTEX
  5
4AD
330
4A6
100
AcDbEntity
  8
1
100
AcDbVertex
100
AcDb2dVertex
 10
1.952755905511811
 20
0.9438976377952755
 30
0.0
  0
VERTEX
  5
4AE
330
4A6
100
AcDbEntity
  8
1
100
AcDbVertex
100
AcDb2dVertex
 10
1.964566929133858
 20
0.9202755905511811
 30
0.0
  0
VERTEX
  5
4AF
330
4A6
100
AcDbEntity
  8
1
100
AcDbVertex
100
AcDb2dVertex
 10
1.983267716535433
 20
0.9005905511811022
 30
0.0
  0
VERTEX
  5
4B0
330
4A6
100
AcDbEntity
  8
1
100
AcDbVertex
100
AcDb2dVertex
 10
2.006889763779527
 20
0.8887795275590551
 30
0.0
  0
VERTEX
  5
4B1
330
4A6
100
AcDbEntity
  8
1
100
AcDbVertex
100
AcDb2dVertex
 10
2.033464566929133
 20
0.8848425196850392
 30
0.0
  0
SEQEND
  5
4B2
330
4A6
100
AcDbEntity
  8
1
  0
POLYLINE
  5
4B3
330
1F
100
AcDbEntity
  8
1
100
AcDb2dPolyline
 66
     1
 10
0.0
 20
0.0
 30
0.0
  0
VERTEX
  5
4B4
330
4B3
100
AcDbEntity
  8
1
100
AcDbVertex
100
AcDb2dVertex
 10
2.033464566929133
 20
0.8927165354330707
 30
0.0
  0
VERTEX
  5
4B5
330
4B3
100
AcDbEntity
  8
1
100
AcDbVertex
100
AcDb2dVertex
 10
2.033464566929133
 20
0.8907480314960629
 30
0.0
  0
VERTEX
  5
4B6
330
4B3
100
AcDbEntity
  8
1
100
AcDbVertex
100
AcDb2dVertex
 10
2.033464566929133
 20
0.8848425196850392
 30
0.0
  0
SEQEND
  5
4B7
330
4B3
100
AcDbEntity
  8
1
  0
POLYLINE
  5
4B8
330
1F
100
AcDbEntity
  8
1
100
AcDb2dPolyline
 66
     1
 10
0.0
 20
0.0
 30
0.0
  0
VERTEX
  5
4B9
330
4B8
100
AcDbEntity
  8
1
100
AcDbVertex
100
AcDb2dVertex
 10
2.033464566929133
 20
1.047244094488188
 30
0.0
  0
VERTEX
  5
4BA
330
4B8
100
AcDbEntity
  8
1
100
AcDbVertex
100
AcDb2dVertex
 10
2.006889763779527
 20
1.043307086614173
 30
0.0
  0
VERTEX
  5
4BB
330
4B8
100
AcDbEntity
  8
1
100
AcDbVertex
100
AcDb2dVertex
 10
1.984251968503937
 20
1.029527559055118
 30
0.0
  0
VERTEX
  5
4BC
330
4B8
100
AcDbEntity
  8
1
100
AcDbVertex
100
AcDb2dVertex
 10
1.966535433070866
 20
1.008858267716535
 30
0.0
  0
VERTEX
  5
4BD
330
4B8
100
AcDbEntity
  8
1
100
AcDbVertex
100
AcDb2dVertex
 10
1.95767716535433
 20
0.9832677165354331
 30
0.0
  0
VERTEX
  5
4BE
330
4B8
100
AcDbEntity
  8
1
100
AcDbVertex
100
AcDb2dVertex
 10
1.95767716535433
 20
0.9566929133858266
 30
0.0
  0
VERTEX
  5
4BF
330
4B8
100
AcDbEntity
  8
1
100
AcDbVertex
100
AcDb2dVertex
 10
1.966535433070866
 20
0.9311023622047244
 30
0.0
  0
VERTEX
  5
4C0
330
4B8
100
AcDbEntity
  8
1
100
AcDbVertex
100
AcDb2dVertex
 10
1.984251968503937
 20
0.9104330708661416
 30
0.0
  0
VERTEX
  5
4C1
330
4B8
100
AcDbEntity
  8
1
100
AcDbVertex
100
AcDb2dVertex
 10
2.006889763779527
 20
0.8976377952755905
 30
0.0
  0
VERTEX
  5
4C2
330
4B8
100
AcDbEntity
  8
1
100
AcDbVertex
100
AcDb2dVertex
 10
2.033464566929133
 20
0.8927165354330707
 30
0.0
  0
SEQEND
  5
4C3
330
4B8
100
AcDbEntity
  8
1
  0
POLYLINE
  5
4C4
330
1F
100
AcDbEntity
  8
1
100
AcDb2dPolyline
 66
     1
 10
0.0
 20
0.0
 30
0.0
  0
VERTEX
  5
4C5
330
4C4
100
AcDbEntity
  8
1
100
AcDbVertex
100
AcDb2dVertex
 10
2.033464566929133
 20
1.047244094488188
 30
0.0
  0
VERTEX
  5
4C6
330
4C4
100
AcDbEntity
  8
1
100
AcDbVertex
100
AcDb2dVertex
 10
2.033464566929133
 20
1.0501968503937
 30
0.0
  0
VERTEX
  5
4C7
330
4C4
100
AcDbEntity
  8
1
100
AcDbVertex
100
AcDb2dVertex
 10
2.033464566929133
 20
1.056102362204724
 30
0.0
  0
SEQEND
  5
4C8
330
4C4
100
AcDbEntity
  8
1
  0
LINE
  5
4C9
330
1F
100
AcDbEntity
  8
1
100
AcDbLine
 10
2.158464566929133
 20
1.047244094488188
 30
0.0
 11
2.033464566929133
 21
1.047244094488188
 31
0.0
  0
POLYLINE
  5
4CA
330
1F
100
AcDbEntity
  8
1
100
AcDb2dPolyline
 66
     1
 10
0.0
 20
0.0
 30
0.0
  0
VERTEX
  5
4CB
330
4CA
100
AcDbEntity
  8
1
100
AcDbVertex
100
AcDb2dVertex
 10
2.158464566929133
 20
1.047244094488188
 30
0.0
  0
VERTEX
  5
4CC
330
4CA
100
AcDbEntity
  8
1
100
AcDbVertex
100
AcDb2dVertex
 10
2.158464566929133
 20
1.0501968503937
 30
0.0
  0
VERTEX
  5
4CD
330
4CA
100
AcDbEntity
  8
1
100
AcDbVertex
100
AcDb2dVertex
 10
2.158464566929133
 20
1.056102362204724
 30
0.0
  0
SEQEND
  5
4CE
330
4CA
100
AcDbEntity
  8
1
  0
LINE
  5
4CF
330
1F
100
AcDbEntity
  8
1
100
AcDbLine
 10
2.158464566929133
 20
1.056102362204724
 30
0.0
 11
2.033464566929133
 21
1.056102362204724
 31
0.0
  0
POLYLINE
  5
4D0
330
1F
100
AcDbEntity
  8
1
100
AcDb2dPolyline
 66
     1
 10
0.0
 20
0.0
 30
0.0
  0
VERTEX
  5
4D1
330
4D0
100
AcDbEntity
  8
1
100
AcDbVertex
100
AcDb2dVertex
 10
2.158464566929133
 20
1.056102362204724
 30
0.0
  0
VERTEX
  5
4D2
330
4D0
100
AcDbEntity
  8
1
100
AcDbVertex
100
AcDb2dVertex
 10
2.18503937007874
 20
1.051181102362204
 30
0.0
  0
VERTEX
  5
4D3
330
4D0
100
AcDbEntity
  8
1
100
AcDbVertex
100
AcDb2dVertex
 10
2.208661417322834
 20
1.039370078740157
 30
0.0
  0
VERTEX
  5
4D4
330
4D0
100
AcDbEntity
  8
1
100
AcDbVertex
100
AcDb2dVertex
 10
2.227362204724409
 20
1.020669291338582
 30
0.0
  0
VERTEX
  5
4D5
330
4D0
100
AcDbEntity
  8
1
100
AcDbVertex
100
AcDb2dVertex
 10
2.24015748031496
 20
0.9970472440944881
 30
0.0
  0
VERTEX
  5
4D6
330
4D0
100
AcDbEntity
  8
1
100
AcDbVertex
100
AcDb2dVertex
 10
2.244094488188976
 20
0.9704724409448818
 30
0.0
  0
VERTEX
  5
4D7
330
4D0
100
AcDbEntity
  8
1
100
AcDbVertex
100
AcDb2dVertex
 10
2.24015748031496
 20
0.9438976377952755
 30
0.0
  0
VERTEX
  5
4D8
330
4D0
100
AcDbEntity
  8
1
100
AcDbVertex
100
AcDb2dVertex
 10
2.227362204724409
 20
0.9202755905511811
 30
0.0
  0
VERTEX
  5
4D9
330
4D0
100
AcDbEntity
  8
1
100
AcDbVertex
100
AcDb2dVertex
 10
2.208661417322834
 20
0.9005905511811022
 30
0.0
  0
VERTEX
  5
4DA
330
4D0
100
AcDbEntity
  8
1
100
AcDbVertex
100
AcDb2dVertex
 10
2.18503937007874
 20
0.8887795275590551
 30
0.0
  0
VERTEX
  5
4DB
330
4D0
100
AcDbEntity
  8
1
100
AcDbVertex
100
AcDb2dVertex
 10
2.158464566929133
 20
0.8848425196850392
 30
0.0
  0
SEQEND
  5
4DC
330
4D0
100
AcDbEntity
  8
1
  0
POLYLINE
  5
4DD
330
1F
100
AcDbEntity
  8
1
100
AcDb2dPolyline
 66
     1
 10
0.0
 20
0.0
 30
0.0
  0
VERTEX
  5
4DE
330
4DD
100
AcDbEntity
  8
1
100
AcDbVertex
100
AcDb2dVertex
 10
2.158464566929133
 20
1.047244094488188
 30
0.0
  0
VERTEX
  5
4DF
330
4DD
100
AcDbEntity
  8
1
100
AcDbVertex
100
AcDb2dVertex
 10
2.18503937007874
 20
1.043307086614173
 30
0.0
  0
VERTEX
  5
4E0
330
4DD
100
AcDbEntity
  8
1
100
AcDbVertex
100
AcDb2dVertex
 10
2.208661417322834
 20
1.029527559055118
 30
0.0
  0
VERTEX
  5
4E1
330
4DD
100
AcDbEntity
  8
1
100
AcDbVertex
100
AcDb2dVertex
 10
2.225393700787401
 20
1.008858267716535
 30
0.0
  0
VERTEX
  5
4E2
330
4DD
100
AcDbEntity
  8
1
100
AcDbVertex
100
AcDb2dVertex
 10
2.23523622047244
 20
0.9832677165354331
 30
0.0
  0
VERTEX
  5
4E3
330
4DD
100
AcDbEntity
  8
1
100
AcDbVertex
100
AcDb2dVertex
 10
2.23523622047244
 20
0.9566929133858266
 30
0.0
  0
VERTEX
  5
4E4
330
4DD
100
AcDbEntity
  8
1
100
AcDbVertex
100
AcDb2dVertex
 10
2.225393700787401
 20
0.9311023622047244
 30
0.0
  0
VERTEX
  5
4E5
330
4DD
100
AcDbEntity
  8
1
100
AcDbVertex
100
AcDb2dVertex
 10
2.208661417322834
 20
0.9104330708661416
 30
0.0
  0
VERTEX
  5
4E6
330
4DD
100
AcDbEntity
  8
1
100
AcDbVertex
100
AcDb2dVertex
 10
2.18503937007874
 20
0.8976377952755905
 30
0.0
  0
VERTEX
  5
4E7
330
4DD
100
AcDbEntity
  8
1
100
AcDbVertex
100
AcDb2dVertex
 10
2.158464566929133
 20
0.8927165354330707
 30
0.0
  0
SEQEND
  5
4E8
330
4DD
100
AcDbEntity
  8
1
  0
POLYLINE
  5
4E9
330
1F
100
AcDbEntity
  8
1
100
AcDb2dPolyline
 66
     1
 10
0.0
 20
0.0
 30
0.0
  0
VERTEX
  5
4EA
330
4E9
100
AcDbEntity
  8
1
100
AcDbVertex
100
AcDb2dVertex
 10
2.158464566929133
 20
0.8927165354330707
 30
0.0
  0
VERTEX
  5
4EB
330
4E9
100
AcDbEntity
  8
1
100
AcDbVertex
100
AcDb2dVertex
 10
2.158464566929133
 20
0.8907480314960629
 30
0.0
  0
VERTEX
  5
4EC
330
4E9
100
AcDbEntity
  8
1
100
AcDbVertex
100
AcDb2dVertex
 10
2.158464566929133
 20
0.8848425196850392
 30
0.0
  0
SEQEND
  5
4ED
330
4E9
100
AcDbEntity
  8
1
  0
LINE
  5
4EE
330
1F
100
AcDbEntity
  8
1
100
AcDbLine
 10
2.033464566929133
 20
0.8848425196850392
 30
0.0
 11
2.158464566929133
 21
0.8848425196850392
 31
0.0
  0
LINE
  5
4EF
330
1F
100
AcDbEntity
  8
1
100
AcDbLine
 10
2.033464566929133
 20
0.8927165354330707
 30
0.0
 11
2.158464566929133
 21
0.8927165354330707
 31
0.0
  0
POLYLINE
  5
4F0
330
1F
100
AcDbEntity
  8
1
100
AcDb2dPolyline
 66
     1
 10
0.0
 20
0.0
 30
0.0
  0
VERTEX
  5
4F1
330
4F0
100
AcDbEntity
  8
1
100
AcDbVertex
100
AcDb2dVertex
 10
2.158464566929133
 20
1.102362204724409
 30
0.0
  0
VERTEX
  5
4F2
330
4F0
100
AcDbEntity
  8
1
100
AcDbVertex
100
AcDb2dVertex
 10
2.192913385826771
 20
1.098425196850393
 30
0.0
  0
VERTEX
  5
4F3
330
4F0
100
AcDbEntity
  8
1
100
AcDbVertex
100
AcDb2dVertex
 10
2.224409448818897
 20
1.084645669291338
 30
0.0
  0
VERTEX
  5
4F4
330
4F0
100
AcDbEntity
  8
1
100
AcDbVertex
100
AcDb2dVertex
 10
2.251968503937007
 20
1.063976377952755
 30
0.0
  0
VERTEX
  5
4F5
330
4F0
100
AcDbEntity
  8
1
100
AcDbVertex
100
AcDb2dVertex
 10
2.273622047244094
 20
1.036417322834645
 30
0.0
  0
VERTEX
  5
4F6
330
4F0
100
AcDbEntity
  8
1
100
AcDbVertex
100
AcDb2dVertex
 10
2.286417322834645
 20
1.004921259842519
 30
0.0
  0
VERTEX
  5
4F7
330
4F0
100
AcDbEntity
  8
1
100
AcDbVertex
100
AcDb2dVertex
 10
2.291338582677165
 20
0.9704724409448818
 30
0.0
  0
VERTEX
  5
4F8
330
4F0
100
AcDbEntity
  8
1
100
AcDbVertex
100
AcDb2dVertex
 10
2.286417322834645
 20
0.936023622047244
 30
0.0
  0
VERTEX
  5
4F9
330
4F0
100
AcDbEntity
  8
1
100
AcDbVertex
100
AcDb2dVertex
 10
2.273622047244094
 20
0.903543307086614
 30
0.0
  0
VERTEX
  5
4FA
330
4F0
100
AcDbEntity
  8
1
100
AcDbVertex
100
AcDb2dVertex
 10
2.251968503937007
 20
0.8759842519685038
 30
0.0
  0
VERTEX
  5
4FB
330
4F0
100
AcDbEntity
  8
1
100
AcDbVertex
100
AcDb2dVertex
 10
2.224409448818897
 20
0.8553149606299212
 30
0.0
  0
VERTEX
  5
4FC
330
4F0
100
AcDbEntity
  8
1
100
AcDbVertex
100
AcDb2dVertex
 10
2.192913385826771
 20
0.84251968503937
 30
0.0
  0
VERTEX
  5
4FD
330
4F0
100
AcDbEntity
  8
1
100
AcDbVertex
100
AcDb2dVertex
 10
2.158464566929133
 20
0.8375984251968503
 30
0.0
  0
SEQEND
  5
4FE
330
4F0
100
AcDbEntity
  8
1
  0
LINE
  5
4FF
330
1F
100
AcDbEntity
  8
1
100
AcDbLine
 10
2.158464566929133
 20
1.102362204724409
 30
0.0
 11
2.033464566929133
 21
1.102362204724409
 31
0.0
  0
POLYLINE
  5
500
330
1F
100
AcDbEntity
  8
1
100
AcDb2dPolyline
 66
     1
 10
0.0
 20
0.0
 30
0.0
  0
VERTEX
  5
501
330
500
100
AcDbEntity
  8
1
100
AcDbVertex
100
AcDb2dVertex
 10
2.033464566929133
 20
1.102362204724409
 30
0.0
  0
VERTEX
  5
502
330
500
100
AcDbEntity
  8
1
100
AcDbVertex
100
AcDb2dVertex
 10
1.999015748031496
 20
1.098425196850393
 30
0.0
  0
VERTEX
  5
503
330
500
100
AcDbEntity
  8
1
100
AcDbVertex
100
AcDb2dVertex
 10
1.96751968503937
 20
1.084645669291338
 30
0.0
  0
VERTEX
  5
504
330
500
100
AcDbEntity
  8
1
100
AcDbVertex
100
AcDb2dVertex
 10
1.939960629921259
 20
1.063976377952755
 30
0.0
  0
VERTEX
  5
505
330
500
100
AcDbEntity
  8
1
100
AcDbVertex
100
AcDb2dVertex
 10
1.919291338582677
 20
1.036417322834645
 30
0.0
  0
VERTEX
  5
506
330
500
100
AcDbEntity
  8
1
100
AcDbVertex
100
AcDb2dVertex
 10
1.905511811023622
 20
1.004921259842519
 30
0.0
  0
VERTEX
  5
507
330
500
100
AcDbEntity
  8
1
100
AcDbVertex
100
AcDb2dVertex
 10
1.900590551181102
 20
0.9704724409448818
 30
0.0
  0
VERTEX
  5
508
330
500
100
AcDbEntity
  8
1
100
AcDbVertex
100
AcDb2dVertex
 10
1.905511811023622
 20
0.936023622047244
 30
0.0
  0
VERTEX
  5
509
330
500
100
AcDbEntity
  8
1
100
AcDbVertex
100
AcDb2dVertex
 10
1.919291338582677
 20
0.903543307086614
 30
0.0
  0
VERTEX
  5
50A
330
500
100
AcDbEntity
  8
1
100
AcDbVertex
100
AcDb2dVertex
 10
1.939960629921259
 20
0.8759842519685038
 30
0.0
  0
VERTEX
  5
50B
330
500
100
AcDbEntity
  8
1
100
AcDbVertex
100
AcDb2dVertex
 10
1.96751968503937
 20
0.8553149606299212
 30
0.0
  0
VERTEX
  5
50C
330
500
100
AcDbEntity
  8
1
100
AcDbVertex
100
AcDb2dVertex
 10
1.999015748031496
 20
0.84251968503937
 30
0.0
  0
VERTEX
  5
50D
330
500
100
AcDbEntity
  8
1
100
AcDbVertex
100
AcDb2dVertex
 10
2.033464566929133
 20
0.8375984251968503
 30
0.0
  0
SEQEND
  5
50E
330
500
100
AcDbEntity
  8
1
  0
LINE
  5
50F
330
1F
100
AcDbEntity
  8
1
100
AcDbLine
 10
2.033464566929133
 20
0.8375984251968503
 30
0.0
 11
2.158464566929133
 21
0.8375984251968503
 31
0.0
  0
POLYLINE
  5
510
330
1F
100
AcDbEntity
  8
1
100
AcDb2dPolyline
 66
     1
 10
0.0
 20
0.0
 30
0.0
  0
VERTEX
  5
511
330
510
100
AcDbEntity
  8
1
100
AcDbVertex
100
AcDb2dVertex
 10
2.033464566929133
 20
1.047244094488188
 30
0.0
  0
VERTEX
  5
512
330
510
100
AcDbEntity
  8
1
100
AcDbVertex
100
AcDb2dVertex
 10
2.006889763779527
 20
1.042322834645669
 30
0.0
  0
VERTEX
  5
513
330
510
100
AcDbEntity
  8
1
100
AcDbVertex
100
AcDb2dVertex
 10
1.984251968503937
 20
1.029527559055118
 30
0.0
  0
VERTEX
  5
514
330
510
100
AcDbEntity
  8
1
100
AcDbVertex
100
AcDb2dVertex
 10
1.966535433070866
 20
1.008858267716535
 30
0.0
  0
VERTEX
  5
515
330
510
100
AcDbEntity
  8
1
100
AcDbVertex
100
AcDb2dVertex
 10
1.95767716535433
 20
0.9832677165354331
 30
0.0
  0
VERTEX
  5
516
330
510
100
AcDbEntity
  8
1
100
AcDbVertex
100
AcDb2dVertex
 10
1.95767716535433
 20
0.9566929133858266
 30
0.0
  0
VERTEX
  5
517
330
510
100
AcDbEntity
  8
1
100
AcDbVertex
100
AcDb2dVertex
 10
1.966535433070866
 20
0.9320866141732283
 30
0.0
  0
VERTEX
  5
518
330
510
100
AcDbEntity
  8
1
100
AcDbVertex
100
AcDb2dVertex
 10
1.984251968503937
 20
0.9114173228346455
 30
0.0
  0
VERTEX
  5
519
330
510
100
AcDbEntity
  8
1
100
AcDbVertex
100
AcDb2dVertex
 10
2.006889763779527
 20
0.8976377952755905
 30
0.0
  0
VERTEX
  5
51A
330
510
100
AcDbEntity
  8
1
100
AcDbVertex
100
AcDb2dVertex
 10
2.033464566929133
 20
0.8927165354330707
 30
0.0
  0
SEQEND
  5
51B
330
510
100
AcDbEntity
  8
1
  0
LINE
  5
51C
330
1F
100
AcDbEntity
  8
1
100
AcDbLine
 10
2.033464566929133
 20
1.047244094488188
 30
0.0
 11
2.046259842519685
 21
1.047244094488188
 31
0.0
  0
LINE
  5
51D
330
1F
100
AcDbEntity
  8
1
100
AcDbLine
 10
2.145669291338582
 20
1.047244094488188
 30
0.0
 11
2.046259842519685
 21
1.047244094488188
 31
0.0
  0
LINE
  5
51E
330
1F
100
AcDbEntity
  8
1
100
AcDbLine
 10
2.158464566929133
 20
1.047244094488188
 30
0.0
 11
2.145669291338582
 21
1.047244094488188
 31
0.0
  0
POLYLINE
  5
51F
330
1F
100
AcDbEntity
  8
1
100
AcDb2dPolyline
 66
     1
 10
0.0
 20
0.0
 30
0.0
  0
VERTEX
  5
520
330
51F
100
AcDbEntity
  8
1
100
AcDbVertex
100
AcDb2dVertex
 10
2.158464566929133
 20
1.047244094488188
 30
0.0
  0
VERTEX
  5
521
330
51F
100
AcDbEntity
  8
1
100
AcDbVertex
100
AcDb2dVertex
 10
2.18503937007874
 20
1.042322834645669
 30
0.0
  0
VERTEX
  5
522
330
51F
100
AcDbEntity
  8
1
100
AcDbVertex
100
AcDb2dVertex
 10
2.20767716535433
 20
1.029527559055118
 30
0.0
  0
VERTEX
  5
523
330
51F
100
AcDbEntity
  8
1
100
AcDbVertex
100
AcDb2dVertex
 10
2.225393700787401
 20
1.008858267716535
 30
0.0
  0
VERTEX
  5
524
330
51F
100
AcDbEntity
  8
1
100
AcDbVertex
100
AcDb2dVertex
 10
2.234251968503937
 20
0.9832677165354331
 30
0.0
  0
VERTEX
  5
525
330
51F
100
AcDbEntity
  8
1
100
AcDbVertex
100
AcDb2dVertex
 10
2.234251968503937
 20
0.9566929133858266
 30
0.0
  0
VERTEX
  5
526
330
51F
100
AcDbEntity
  8
1
100
AcDbVertex
100
AcDb2dVertex
 10
2.225393700787401
 20
0.9320866141732283
 30
0.0
  0
VERTEX
  5
527
330
51F
100
AcDbEntity
  8
1
100
AcDbVertex
100
AcDb2dVertex
 10
2.20767716535433
 20
0.9114173228346455
 30
0.0
  0
VERTEX
  5
528
330
51F
100
AcDbEntity
  8
1
100
AcDbVertex
100
AcDb2dVertex
 10
2.18503937007874
 20
0.8976377952755905
 30
0.0
  0
VERTEX
  5
529
330
51F
100
AcDbEntity
  8
1
100
AcDbVertex
100
AcDb2dVertex
 10
2.158464566929133
 20
0.8927165354330707
 30
0.0
  0
SEQEND
  5
52A
330
51F
100
AcDbEntity
  8
1
  0
LINE
  5
52B
330
1F
100
AcDbEntity
  8
1
100
AcDbLine
 10
2.145669291338582
 20
0.8927165354330707
 30
0.0
 11
2.158464566929133
 21
0.8927165354330707
 31
0.0
  0
LINE
  5
52C
330
1F
100
AcDbEntity
  8
1
100
AcDbLine
 10
2.145669291338582
 20
0.8927165354330707
 30
0.0
 11
2.046259842519685
 21
0.8927165354330707
 31
0.0
  0
LINE
  5
52D
330
1F
100
AcDbEntity
  8
1
100
AcDbLine
 10
2.046259842519685
 20
0.8927165354330707
 30
0.0
 11
2.033464566929133
 21
0.8927165354330707
 31
0.0
  0
POLYLINE
  5
52E
330
1F
100
AcDbEntity
  8
1
100
AcDb2dPolyline
 66
     1
 10
0.0
 20
0.0
 30
0.0
  0
VERTEX
  5
52F
330
52E
100
AcDbEntity
  8
1
100
AcDbVertex
100
AcDb2dVertex
 10
2.033464566929133
 20
1.118110236220472
 30
0.0
  0
VERTEX
  5
530
330
52E
100
AcDbEntity
  8
1
100
AcDbVertex
100
AcDb2dVertex
 10
1.998031496062992
 20
1.114173228346456
 30
0.0
  0
VERTEX
  5
531
330
52E
100
AcDbEntity
  8
1
100
AcDbVertex
100
AcDb2dVertex
 10
1.964566929133858
 20
1.101377952755905
 30
0.0
  0
VERTEX
  5
532
330
52E
100
AcDbEntity
  8
1
100
AcDbVertex
100
AcDb2dVertex
 10
1.93503937007874
 20
1.080708661417322
 30
0.0
  0
VERTEX
  5
533
330
52E
100
AcDbEntity
  8
1
100
AcDbVertex
100
AcDb2dVertex
 10
1.911417322834645
 20
1.054133858267716
 30
0.0
  0
VERTEX
  5
534
330
52E
100
AcDbEntity
  8
1
100
AcDbVertex
100
AcDb2dVertex
 10
1.894685039370078
 20
1.02263779527559
 30
0.0
  0
VERTEX
  5
535
330
52E
100
AcDbEntity
  8
1
100
AcDbVertex
100
AcDb2dVertex
 10
1.886811023622047
 20
0.9881889763779527
 30
0.0
  0
VERTEX
  5
536
330
52E
100
AcDbEntity
  8
1
100
AcDbVertex
100
AcDb2dVertex
 10
1.886811023622047
 20
0.9527559055118109
 30
0.0
  0
VERTEX
  5
537
330
52E
100
AcDbEntity
  8
1
100
AcDbVertex
100
AcDb2dVertex
 10
1.894685039370078
 20
0.9173228346456692
 30
0.0
  0
VERTEX
  5
538
330
52E
100
AcDbEntity
  8
1
100
AcDbVertex
100
AcDb2dVertex
 10
1.911417322834645
 20
0.8858267716535433
 30
0.0
  0
VERTEX
  5
539
330
52E
100
AcDbEntity
  8
1
100
AcDbVertex
100
AcDb2dVertex
 10
1.93503937007874
 20
0.859251968503937
 30
0.0
  0
VERTEX
  5
53A
330
52E
100
AcDbEntity
  8
1
100
AcDbVertex
100
AcDb2dVertex
 10
1.964566929133858
 20
0.8385826771653542
 30
0.0
  0
VERTEX
  5
53B
330
52E
100
AcDbEntity
  8
1
100
AcDbVertex
100
AcDb2dVertex
 10
1.998031496062992
 20
0.826771653543307
 30
0.0
  0
VERTEX
  5
53C
330
52E
100
AcDbEntity
  8
1
100
AcDbVertex
100
AcDb2dVertex
 10
2.033464566929133
 20
0.8218503937007874
 30
0.0
  0
SEQEND
  5
53D
330
52E
100
AcDbEntity
  8
1
  0
POLYLINE
  5
53E
330
1F
100
AcDbEntity
  8
1
100
AcDb2dPolyline
 66
     1
 10
0.0
 20
0.0
 30
0.0
  0
VERTEX
  5
53F
330
53E
100
AcDbEntity
  8
1
100
AcDbVertex
100
AcDb2dVertex
 10
2.033464566929133
 20
0.8218503937007874
 30
0.0
  0
VERTEX
  5
540
330
53E
100
AcDbEntity
  8
1
100
AcDbVertex
100
AcDb2dVertex
 10
2.033464566929133
 20
0.826771653543307
 30
0.0
  0
VERTEX
  5
541
330
53E
100
AcDbEntity
  8
1
100
AcDbVertex
100
AcDb2dVertex
 10
2.033464566929133
 20
0.8375984251968503
 30
0.0
  0
SEQEND
  5
542
330
53E
100
AcDbEntity
  8
1
  0
POLYLINE
  5
543
330
1F
100
AcDbEntity
  8
1
100
AcDb2dPolyline
 66
     1
 10
0.0
 20
0.0
 30
0.0
  0
VERTEX
  5
544
330
543
100
AcDbEntity
  8
1
100
AcDbVertex
100
AcDb2dVertex
 10
2.033464566929133
 20
1.118110236220472
 30
0.0
  0
VERTEX
  5
545
330
543
100
AcDbEntity
  8
1
100
AcDbVertex
100
AcDb2dVertex
 10
2.033464566929133
 20
1.113188976377952
 30
0.0
  0
VERTEX
  5
546
330
543
100
AcDbEntity
  8
1
100
AcDbVertex
100
AcDb2dVertex
 10
2.033464566929133
 20
1.102362204724409
 30
0.0
  0
SEQEND
  5
547
330
543
100
AcDbEntity
  8
1
  0
LINE
  5
548
330
1F
100
AcDbEntity
  8
1
100
AcDbLine
 10
2.033464566929133
 20
0.8218503937007874
 30
0.0
 11
2.158464566929133
 21
0.8218503937007874
 31
0.0
  0
POLYLINE
  5
549
330
1F
100
AcDbEntity
  8
1
100
AcDb2dPolyline
 66
     1
 10
0.0
 20
0.0
 30
0.0
  0
VERTEX
  5
54A
330
549
100
AcDbEntity
  8
1
100
AcDbVertex
100
AcDb2dVertex
 10
2.158464566929133
 20
0.8218503937007874
 30
0.0
  0
VERTEX
  5
54B
330
549
100
AcDbEntity
  8
1
100
AcDbVertex
100
AcDb2dVertex
 10
2.158464566929133
 20
0.826771653543307
 30
0.0
  0
VERTEX
  5
54C
330
549
100
AcDbEntity
  8
1
100
AcDbVertex
100
AcDb2dVertex
 10
2.158464566929133
 20
0.8375984251968503
 30
0.0
  0
SEQEND
  5
54D
330
549
100
AcDbEntity
  8
1
  0
POLYLINE
  5
54E
330
1F
100
AcDbEntity
  8
1
100
AcDb2dPolyline
 66
     1
 10
0.0
 20
0.0
 30
0.0
  0
VERTEX
  5
54F
330
54E
100
AcDbEntity
  8
1
100
AcDbVertex
100
AcDb2dVertex
 10
2.158464566929133
 20
1.118110236220472
 30
0.0
  0
VERTEX
  5
550
330
54E
100
AcDbEntity
  8
1
100
AcDbVertex
100
AcDb2dVertex
 10
2.193897637795275
 20
1.114173228346456
 30
0.0
  0
VERTEX
  5
551
330
54E
100
AcDbEntity
  8
1
100
AcDbVertex
100
AcDb2dVertex
 10
2.227362204724409
 20
1.101377952755905
 30
0.0
  0
VERTEX
  5
552
330
54E
100
AcDbEntity
  8
1
100
AcDbVertex
100
AcDb2dVertex
 10
2.256889763779527
 20
1.080708661417322
 30
0.0
  0
VERTEX
  5
553
330
54E
100
AcDbEntity
  8
1
100
AcDbVertex
100
AcDb2dVertex
 10
2.280511811023622
 20
1.054133858267716
 30
0.0
  0
VERTEX
  5
554
330
54E
100
AcDbEntity
  8
1
100
AcDbVertex
100
AcDb2dVertex
 10
2.297244094488188
 20
1.02263779527559
 30
0.0
  0
VERTEX
  5
555
330
54E
100
AcDbEntity
  8
1
100
AcDbVertex
100
AcDb2dVertex
 10
2.306102362204724
 20
0.9881889763779527
 30
0.0
  0
VERTEX
  5
556
330
54E
100
AcDbEntity
  8
1
100
AcDbVertex
100
AcDb2dVertex
 10
2.306102362204724
 20
0.9527559055118109
 30
0.0
  0
VERTEX
  5
557
330
54E
100
AcDbEntity
  8
1
100
AcDbVertex
100
AcDb2dVertex
 10
2.297244094488188
 20
0.9173228346456692
 30
0.0
  0
VERTEX
  5
558
330
54E
100
AcDbEntity
  8
1
100
AcDbVertex
100
AcDb2dVertex
 10
2.280511811023622
 20
0.8858267716535433
 30
0.0
  0
VERTEX
  5
559
330
54E
100
AcDbEntity
  8
1
100
AcDbVertex
100
AcDb2dVertex
 10
2.256889763779527
 20
0.859251968503937
 30
0.0
  0
VERTEX
  5
55A
330
54E
100
AcDbEntity
  8
1
100
AcDbVertex
100
AcDb2dVertex
 10
2.227362204724409
 20
0.8385826771653542
 30
0.0
  0
VERTEX
  5
55B
330
54E
100
AcDbEntity
  8
1
100
AcDbVertex
100
AcDb2dVertex
 10
2.193897637795275
 20
0.826771653543307
 30
0.0
  0
VERTEX
  5
55C
330
54E
100
AcDbEntity
  8
1
100
AcDbVertex
100
AcDb2dVertex
 10
2.158464566929133
 20
0.8218503937007874
 30
0.0
  0
SEQEND
  5
55D
330
54E
100
AcDbEntity
  8
1
  0
POLYLINE
  5
55E
330
1F
100
AcDbEntity
  8
1
100
AcDb2dPolyline
 66
     1
 10
0.0
 20
0.0
 30
0.0
  0
VERTEX
  5
55F
330
55E
100
AcDbEntity
  8
1
100
AcDbVertex
100
AcDb2dVertex
 10
2.158464566929133
 20
1.118110236220472
 30
0.0
  0
VERTEX
  5
560
330
55E
100
AcDbEntity
  8
1
100
AcDbVertex
100
AcDb2dVertex
 10
2.158464566929133
 20
1.113188976377952
 30
0.0
  0
VERTEX
  5
561
330
55E
100
AcDbEntity
  8
1
100
AcDbVertex
100
AcDb2dVertex
 10
2.158464566929133
 20
1.102362204724409
 30
0.0
  0
SEQEND
  5
562
330
55E
100
AcDbEntity
  8
1
  0
LINE
  5
563
330
1F
100
AcDbEntity
  8
1
100
AcDbLine
 10
2.158464566929133
 20
1.118110236220472
 30
0.0
 11
2.033464566929133
 21
1.118110236220472
 31
0.0
  0
LINE
  5
564
330
1F
100
AcDbEntity
  8
1
100
AcDbLine
 10
2.033464566929133
 20
1.124015748031496
 30
0.0
 11
2.033464566929133
 21
1.118110236220472
 31
0.0
  0
LINE
  5
565
330
1F
100
AcDbEntity
  8
1
100
AcDbLine
 10
2.033464566929133
 20
0.8169291338582677
 30
0.0
 11
2.033464566929133
 21
0.8218503937007874
 31
0.0
  0
LINE
  5
566
330
1F
100
AcDbEntity
  8
1
100
AcDbLine
 10
2.158464566929133
 20
0.8169291338582677
 30
0.0
 11
2.158464566929133
 21
0.8218503937007874
 31
0.0
  0
LINE
  5
567
330
1F
100
AcDbEntity
  8
1
100
AcDbLine
 10
2.158464566929133
 20
1.124015748031496
 30
0.0
 11
2.158464566929133
 21
1.118110236220472
 31
0.0
  0
LINE
  5
568
330
1F
100
AcDbEntity
  8
1
100
AcDbLine
 10
2.046259842519685
 20
1.018700787401574
 30
0.0
 11
2.145669291338582
 21
1.018700787401574
 31
0.0
  0
LINE
  5
569
330
1F
100
AcDbEntity
  8
1
100
AcDbLine
 10
2.145669291338582
 20
1.018700787401574
 30
0.0
 11
2.145669291338582
 21
1.047244094488188
 31
0.0
  0
LINE
  5
56A
330
1F
100
AcDbEntity
  8
1
100
AcDbLine
 10
2.046259842519685
 20
1.018700787401574
 30
0.0
 11
2.046259842519685
 21
1.047244094488188
 31
0.0
  0
LINE
  5
56B
330
1F
100
AcDbEntity
  8
1
100
AcDbLine
 10
2.145669291338582
 20
0.921259842519685
 30
0.0
 11
2.046259842519685
 21
0.921259842519685
 31
0.0
  0
LINE
  5
56C
330
1F
100
AcDbEntity
  8
1
100
AcDbLine
 10
2.145669291338582
 20
0.921259842519685
 30
0.0
 11
2.145669291338582
 21
0.8927165354330707
 31
0.0
  0
LINE
  5
56D
330
1F
100
AcDbEntity
  8
1
100
AcDbLine
 10
2.046259842519685
 20
0.921259842519685
 30
0.0
 11
2.046259842519685
 21
0.8927165354330707
 31
0.0
  0
LINE
  5
56E
330
1F
100
AcDbEntity
  8
1
100
AcDbLine
 10
2.784448818897637
 20
1.471456692913385
 30
0.0
 11
2.726377952755905
 21
1.471456692913385
 31
0.0
  0
LINE
  5
56F
330
1F
100
AcDbEntity
  8
1
100
AcDbLine
 10
2.784448818897637
 20
1.471456692913385
 30
0.0
 11
2.784448818897637
 21
1.966535433070866
 31
0.0
  0
LINE
  5
570
330
1F
100
AcDbEntity
  8
1
100
AcDbLine
 10
2.784448818897637
 20
1.966535433070866
 30
0.0
 11
1.407480314960629
 21
1.966535433070866
 31
0.0
  0
LINE
  5
571
330
1F
100
AcDbEntity
  8
1
100
AcDbLine
 10
1.407480314960629
 20
1.966535433070866
 30
0.0
 11
1.407480314960629
 21
1.471456692913385
 31
0.0
  0
LINE
  5
572
330
1F
100
AcDbEntity
  8
1
100
AcDbLine
 10
1.466535433070866
 20
1.471456692913385
 30
0.0
 11
1.407480314960629
 21
1.471456692913385
 31
0.0
  0
LINE
  5
573
330
1F
100
AcDbEntity
  8
1
100
AcDbLine
 10
1.466535433070866
 20
1.471456692913385
 30
0.0
 11
1.466535433070866
 21
1.84251968503937
 31
0.0
  0
LINE
  5
574
330
1F
100
AcDbEntity
  8
1
100
AcDbLine
 10
1.466535433070866
 20
1.84251968503937
 30
0.0
 11
1.533464566929133
 21
1.84251968503937
 31
0.0
  0
LINE
  5
575
330
1F
100
AcDbEntity
  8
1
100
AcDbLine
 10
1.533464566929133
 20
1.84251968503937
 30
0.0
 11
1.533464566929133
 21
1.889763779527559
 31
0.0
  0
LINE
  5
576
330
1F
100
AcDbEntity
  8
1
100
AcDbLine
 10
1.581692913385826
 20
1.889763779527559
 30
0.0
 11
1.533464566929133
 21
1.889763779527559
 31
0.0
  0
LINE
  5
577
330
1F
100
AcDbEntity
  8
1
100
AcDbLine
 10
1.581692913385826
 20
1.888779527559055
 30
0.0
 11
1.581692913385826
 21
1.889763779527559
 31
0.0
  0
LINE
  5
578
330
1F
100
AcDbEntity
  8
1
100
AcDbLine
 10
1.581692913385826
 20
1.888779527559055
 30
0.0
 11
1.621062992125984
 21
1.888779527559055
 31
0.0
  0
LINE
  5
579
330
1F
100
AcDbEntity
  8
1
100
AcDbLine
 10
1.621062992125984
 20
1.889763779527559
 30
0.0
 11
1.621062992125984
 21
1.888779527559055
 31
0.0
  0
LINE
  5
57A
330
1F
100
AcDbEntity
  8
1
100
AcDbLine
 10
1.936023622047244
 20
1.889763779527559
 30
0.0
 11
1.621062992125984
 21
1.889763779527559
 31
0.0
  0
LINE
  5
57B
330
1F
100
AcDbEntity
  8
1
100
AcDbLine
 10
1.936023622047244
 20
1.888779527559055
 30
0.0
 11
1.936023622047244
 21
1.889763779527559
 31
0.0
  0
LINE
  5
57C
330
1F
100
AcDbEntity
  8
1
100
AcDbLine
 10
1.936023622047244
 20
1.888779527559055
 30
0.0
 11
1.975393700787401
 21
1.888779527559055
 31
0.0
  0
LINE
  5
57D
330
1F
100
AcDbEntity
  8
1
100
AcDbLine
 10
1.975393700787401
 20
1.889763779527559
 30
0.0
 11
1.975393700787401
 21
1.888779527559055
 31
0.0
  0
LINE
  5
57E
330
1F
100
AcDbEntity
  8
1
100
AcDbLine
 10
2.023622047244094
 20
1.889763779527559
 30
0.0
 11
1.975393700787401
 21
1.889763779527559
 31
0.0
  0
LINE
  5
57F
330
1F
100
AcDbEntity
  8
1
100
AcDbLine
 10
2.023622047244094
 20
1.889763779527559
 30
0.0
 11
2.023622047244094
 21
1.84251968503937
 31
0.0
  0
LINE
  5
580
330
1F
100
AcDbEntity
  8
1
100
AcDbLine
 10
2.023622047244094
 20
1.84251968503937
 30
0.0
 11
2.168307086614173
 21
1.84251968503937
 31
0.0
  0
LINE
  5
581
330
1F
100
AcDbEntity
  8
1
100
AcDbLine
 10
2.168307086614173
 20
1.84251968503937
 30
0.0
 11
2.168307086614173
 21
1.889763779527559
 31
0.0
  0
LINE
  5
582
330
1F
100
AcDbEntity
  8
1
100
AcDbLine
 10
2.216535433070866
 20
1.889763779527559
 30
0.0
 11
2.168307086614173
 21
1.889763779527559
 31
0.0
  0
LINE
  5
583
330
1F
100
AcDbEntity
  8
1
100
AcDbLine
 10
2.216535433070866
 20
1.888779527559055
 30
0.0
 11
2.216535433070866
 21
1.889763779527559
 31
0.0
  0
LINE
  5
584
330
1F
100
AcDbEntity
  8
1
100
AcDbLine
 10
2.216535433070866
 20
1.888779527559055
 30
0.0
 11
2.255905511811023
 21
1.888779527559055
 31
0.0
  0
LINE
  5
585
330
1F
100
AcDbEntity
  8
1
100
AcDbLine
 10
2.255905511811023
 20
1.889763779527559
 30
0.0
 11
2.255905511811023
 21
1.888779527559055
 31
0.0
  0
LINE
  5
586
330
1F
100
AcDbEntity
  8
1
100
AcDbLine
 10
2.570866141732283
 20
1.889763779527559
 30
0.0
 11
2.255905511811023
 21
1.889763779527559
 31
0.0
  0
LINE
  5
587
330
1F
100
AcDbEntity
  8
1
100
AcDbLine
 10
2.570866141732283
 20
1.888779527559055
 30
0.0
 11
2.570866141732283
 21
1.889763779527559
 31
0.0
  0
LINE
  5
588
330
1F
100
AcDbEntity
  8
1
100
AcDbLine
 10
2.570866141732283
 20
1.888779527559055
 30
0.0
 11
2.61023622047244
 21
1.888779527559055
 31
0.0
  0
LINE
  5
589
330
1F
100
AcDbEntity
  8
1
100
AcDbLine
 10
2.61023622047244
 20
1.889763779527559
 30
0.0
 11
2.61023622047244
 21
1.888779527559055
 31
0.0
  0
LINE
  5
58A
330
1F
100
AcDbEntity
  8
1
100
AcDbLine
 10
2.658464566929133
 20
1.889763779527559
 30
0.0
 11
2.61023622047244
 21
1.889763779527559
 31
0.0
  0
LINE
  5
58B
330
1F
100
AcDbEntity
  8
1
100
AcDbLine
 10
2.658464566929133
 20
1.889763779527559
 30
0.0
 11
2.658464566929133
 21
1.84251968503937
 31
0.0
  0
LINE
  5
58C
330
1F
100
AcDbEntity
  8
1
100
AcDbLine
 10
2.658464566929133
 20
1.84251968503937
 30
0.0
 11
2.726377952755905
 21
1.84251968503937
 31
0.0
  0
LINE
  5
58D
330
1F
100
AcDbEntity
  8
1
100
AcDbLine
 10
2.726377952755905
 20
1.84251968503937
 30
0.0
 11
2.726377952755905
 21
1.471456692913385
 31
0.0
  0
LINE
  5
58E
330
1F
100
AcDbEntity
  8
1
100
AcDbLine
 10
2.876968503937007
 20
1.275590551181102
 30
0.0
 11
2.876968503937007
 21
1.603346456692913
 31
0.0
  0
POLYLINE
  5
58F
330
1F
100
AcDbEntity
  8
1
100
AcDb2dPolyline
 66
     1
 10
0.0
 20
0.0
 30
0.0
  0
VERTEX
  5
590
330
58F
100
AcDbEntity
  8
1
100
AcDbVertex
100
AcDb2dVertex
 10
2.876968503937007
 20
1.603346456692913
 30
0.0
  0
VERTEX
  5
591
330
58F
100
AcDbEntity
  8
1
100
AcDbVertex
100
AcDb2dVertex
 10
2.874015748031495
 20
1.568897637795275
 30
0.0
  0
VERTEX
  5
592
330
58F
100
AcDbEntity
  8
1
100
AcDbVertex
100
AcDb2dVertex
 10
2.86515748031496
 20
1.537401574803149
 30
0.0
  0
VERTEX
  5
593
330
58F
100
AcDbEntity
  8
1
100
AcDbVertex
100
AcDb2dVertex
 10
2.850393700787401
 20
1.509842519685039
 30
0.0
  0
VERTEX
  5
594
330
58F
100
AcDbEntity
  8
1
100
AcDbVertex
100
AcDb2dVertex
 10
2.830708661417322
 20
1.489173228346456
 30
0.0
  0
VERTEX
  5
595
330
58F
100
AcDbEntity
  8
1
100
AcDbVertex
100
AcDb2dVertex
 10
2.808070866141732
 20
1.476377952755905
 30
0.0
  0
VERTEX
  5
596
330
58F
100
AcDbEntity
  8
1
100
AcDbVertex
100
AcDb2dVertex
 10
2.784448818897637
 20
1.471456692913385
 30
0.0
  0
SEQEND
  5
597
330
58F
100
AcDbEntity
  8
1
  0
LINE
  5
598
330
1F
100
AcDbEntity
  8
1
100
AcDbLine
 10
2.726377952755905
 20
1.471456692913385
 30
0.0
 11
2.726377952755905
 21
1.46751968503937
 31
0.0
  0
LINE
  5
599
330
1F
100
AcDbEntity
  8
1
100
AcDbLine
 10
2.726377952755905
 20
1.46751968503937
 30
0.0
 11
1.466535433070866
 21
1.46751968503937
 31
0.0
  0
LINE
  5
59A
330
1F
100
AcDbEntity
  8
1
100
AcDbLine
 10
1.466535433070866
 20
1.46751968503937
 30
0.0
 11
1.466535433070866
 21
1.471456692913385
 31
0.0
  0
POLYLINE
  5
59B
330
1F
100
AcDbEntity
  8
1
100
AcDb2dPolyline
 66
     1
 10
0.0
 20
0.0
 30
0.0
  0
VERTEX
  5
59C
330
59B
100
AcDbEntity
  8
1
100
AcDbVertex
100
AcDb2dVertex
 10
1.407480314960629
 20
1.471456692913385
 30
0.0
  0
VERTEX
  5
59D
330
59B
100
AcDbEntity
  8
1
100
AcDbVertex
100
AcDb2dVertex
 10
1.383858267716535
 20
1.476377952755905
 30
0.0
  0
VERTEX
  5
59E
330
59B
100
AcDbEntity
  8
1
100
AcDbVertex
100
AcDb2dVertex
 10
1.361220472440944
 20
1.489173228346456
 30
0.0
  0
VERTEX
  5
59F
330
59B
100
AcDbEntity
  8
1
100
AcDbVertex
100
AcDb2dVertex
 10
1.34251968503937
 20
1.509842519685039
 30
0.0
  0
VERTEX
  5
5A0
330
59B
100
AcDbEntity
  8
1
100
AcDbVertex
100
AcDb2dVertex
 10
1.327755905511811
 20
1.537401574803149
 30
0.0
  0
VERTEX
  5
5A1
330
59B
100
AcDbEntity
  8
1
100
AcDbVertex
100
AcDb2dVertex
 10
1.317913385826771
 20
1.568897637795275
 30
0.0
  0
VERTEX
  5
5A2
330
59B
100
AcDbEntity
  8
1
100
AcDbVertex
100
AcDb2dVertex
 10
1.314960629921259
 20
1.603346456692913
 30
0.0
  0
SEQEND
  5
5A3
330
59B
100
AcDbEntity
  8
1
  0
LINE
  5
5A4
330
1F
100
AcDbEntity
  8
1
100
AcDbLine
 10
1.314960629921259
 20
1.603346456692913
 30
0.0
 11
1.314960629921259
 21
1.275590551181102
 31
0.0
  0
LINE
  5
5A5
330
1F
100
AcDbEntity
  8
1
100
AcDbLine
 10
1.664370078740157
 20
1.275590551181102
 30
0.0
 11
1.314960629921259
 21
1.275590551181102
 31
0.0
  0
LINE
  5
5A6
330
1F
100
AcDbEntity
  8
1
100
AcDbLine
 10
1.664370078740157
 20
1.275590551181102
 30
0.0
 11
1.670275590551181
 21
1.362204724409448
 31
0.0
  0
LINE
  5
5A7
330
1F
100
AcDbEntity
  8
1
100
AcDbLine
 10
1.670275590551181
 20
1.362204724409448
 30
0.0
 11
1.887795275590551
 21
1.362204724409448
 31
0.0
  0
LINE
  5
5A8
330
1F
100
AcDbEntity
  8
1
100
AcDbLine
 10
1.89271653543307
 20
1.275590551181102
 30
0.0
 11
1.887795275590551
 21
1.362204724409448
 31
0.0
  0
LINE
  5
5A9
330
1F
100
AcDbEntity
  8
1
100
AcDbLine
 10
1.89271653543307
 20
1.275590551181102
 30
0.0
 11
2.299212598425196
 21
1.275590551181102
 31
0.0
  0
LINE
  5
5AA
330
1F
100
AcDbEntity
  8
1
100
AcDbLine
 10
2.299212598425196
 20
1.275590551181102
 30
0.0
 11
2.30511811023622
 21
1.362204724409448
 31
0.0
  0
LINE
  5
5AB
330
1F
100
AcDbEntity
  8
1
100
AcDbLine
 10
2.52263779527559
 20
1.362204724409448
 30
0.0
 11
2.30511811023622
 21
1.362204724409448
 31
0.0
  0
LINE
  5
5AC
330
1F
100
AcDbEntity
  8
1
100
AcDbLine
 10
2.52755905511811
 20
1.275590551181102
 30
0.0
 11
2.52263779527559
 21
1.362204724409448
 31
0.0
  0
LINE
  5
5AD
330
1F
100
AcDbEntity
  8
1
100
AcDbLine
 10
2.876968503937007
 20
1.275590551181102
 30
0.0
 11
2.52755905511811
 21
1.275590551181102
 31
0.0
  0
POLYLINE
  5
5AE
330
1F
100
AcDbEntity
  8
1
100
AcDb2dPolyline
 66
     1
 10
0.0
 20
0.0
 30
0.0
  0
VERTEX
  5
5AF
330
5AE
100
AcDbEntity
  8
1
100
AcDbVertex
100
AcDb2dVertex
 10
2.519685039370078
 20
1.348425196850393
 30
0.0
  0
VERTEX
  5
5B0
330
5AE
100
AcDbEntity
  8
1
100
AcDbVertex
100
AcDb2dVertex
 10
2.519685039370078
 20
1.343503937007874
 30
0.0
  0
VERTEX
  5
5B1
330
5AE
100
AcDbEntity
  8
1
100
AcDbVertex
100
AcDb2dVertex
 10
2.519685039370078
 20
1.344488188976378
 30
0.0
  0
SEQEND
  5
5B2
330
5AE
100
AcDbEntity
  8
1
  0
LINE
  5
5B3
330
1F
100
AcDbEntity
  8
1
100
AcDbLine
 10
2.519685039370078
 20
1.348425196850393
 30
0.0
 11
2.518700787401574
 21
1.362204724409448
 31
0.0
  0
LINE
  5
5B4
330
1F
100
AcDbEntity
  8
1
100
AcDbLine
 10
1.672244094488188
 20
1.348425196850393
 30
0.0
 11
1.673228346456692
 21
1.362204724409448
 31
0.0
  0
POLYLINE
  5
5B5
330
1F
100
AcDbEntity
  8
1
100
AcDb2dPolyline
 66
     1
 10
0.0
 20
0.0
 30
0.0
  0
VERTEX
  5
5B6
330
5B5
100
AcDbEntity
  8
1
100
AcDbVertex
100
AcDb2dVertex
 10
1.672244094488188
 20
1.348425196850393
 30
0.0
  0
VERTEX
  5
5B7
330
5B5
100
AcDbEntity
  8
1
100
AcDbVertex
100
AcDb2dVertex
 10
1.672244094488188
 20
1.343503937007874
 30
0.0
  0
VERTEX
  5
5B8
330
5B5
100
AcDbEntity
  8
1
100
AcDbVertex
100
AcDb2dVertex
 10
1.672244094488188
 20
1.344488188976378
 30
0.0
  0
SEQEND
  5
5B9
330
5B5
100
AcDbEntity
  8
1
  0
POLYLINE
  5
5BA
330
1F
100
AcDbEntity
  8
1
100
AcDb2dPolyline
 66
     1
 10
0.0
 20
0.0
 30
0.0
  0
VERTEX
  5
5BB
330
5BA
100
AcDbEntity
  8
1
100
AcDbVertex
100
AcDb2dVertex
 10
2.307086614173228
 20
1.348425196850393
 30
0.0
  0
VERTEX
  5
5BC
330
5BA
100
AcDbEntity
  8
1
100
AcDbVertex
100
AcDb2dVertex
 10
2.307086614173228
 20
1.343503937007874
 30
0.0
  0
VERTEX
  5
5BD
330
5BA
100
AcDbEntity
  8
1
100
AcDbVertex
100
AcDb2dVertex
 10
2.308070866141732
 20
1.344488188976378
 30
0.0
  0
SEQEND
  5
5BE
330
5BA
100
AcDbEntity
  8
1
  0
LINE
  5
5BF
330
1F
100
AcDbEntity
  8
1
100
AcDbLine
 10
2.308070866141732
 20
1.344488188976378
 30
0.0
 11
2.307086614173228
 21
1.344488188976378
 31
0.0
  0
POLYLINE
  5
5C0
330
1F
100
AcDbEntity
  8
1
100
AcDb2dPolyline
 66
     1
 10
0.0
 20
0.0
 30
0.0
  0
VERTEX
  5
5C1
330
5C0
100
AcDbEntity
  8
1
100
AcDbVertex
100
AcDb2dVertex
 10
1.884842519685039
 20
1.348425196850393
 30
0.0
  0
VERTEX
  5
5C2
330
5C0
100
AcDbEntity
  8
1
100
AcDbVertex
100
AcDb2dVertex
 10
1.884842519685039
 20
1.343503937007874
 30
0.0
  0
VERTEX
  5
5C3
330
5C0
100
AcDbEntity
  8
1
100
AcDbVertex
100
AcDb2dVertex
 10
1.884842519685039
 20
1.344488188976378
 30
0.0
  0
SEQEND
  5
5C4
330
5C0
100
AcDbEntity
  8
1
  0
LINE
  5
5C5
330
1F
100
AcDbEntity
  8
1
100
AcDbLine
 10
1.884842519685039
 20
1.348425196850393
 30
0.0
 11
1.883858267716535
 21
1.362204724409448
 31
0.0
  0
LINE
  5
5C6
330
1F
100
AcDbEntity
  8
1
100
AcDbLine
 10
2.307086614173228
 20
1.348425196850393
 30
0.0
 11
2.308070866141732
 21
1.362204724409448
 31
0.0
  0
LINE
  5
5C7
330
1F
100
AcDbEntity
  8
1
100
AcDbLine
 10
2.51771653543307
 20
1.362204724409448
 30
0.0
 11
2.519685039370078
 21
1.344488188976378
 31
0.0
  0
LINE
  5
5C8
330
1F
100
AcDbEntity
  8
1
100
AcDbLine
 10
2.515748031496062
 20
1.362204724409448
 30
0.0
 11
2.526574803149606
 21
1.275590551181102
 31
0.0
  0
LINE
  5
5C9
330
1F
100
AcDbEntity
  8
1
100
AcDbLine
 10
2.52755905511811
 20
1.275590551181102
 30
0.0
 11
2.526574803149606
 21
1.275590551181102
 31
0.0
  0
LINE
  5
5CA
330
1F
100
AcDbEntity
  8
1
100
AcDbLine
 10
2.311023622047243
 20
1.362204724409448
 30
0.0
 11
2.3001968503937
 21
1.275590551181102
 31
0.0
  0
LINE
  5
5CB
330
1F
100
AcDbEntity
  8
1
100
AcDbLine
 10
2.526574803149606
 20
1.275590551181102
 30
0.0
 11
2.3001968503937
 21
1.275590551181102
 31
0.0
  0
LINE
  5
5CC
330
1F
100
AcDbEntity
  8
1
100
AcDbLine
 10
2.31003937007874
 20
1.362204724409448
 30
0.0
 11
2.308070866141732
 21
1.344488188976378
 31
0.0
  0
LINE
  5
5CD
330
1F
100
AcDbEntity
  8
1
100
AcDbLine
 10
2.299212598425196
 20
1.275590551181102
 30
0.0
 11
2.3001968503937
 21
1.275590551181102
 31
0.0
  0
LINE
  5
5CE
330
1F
100
AcDbEntity
  8
1
100
AcDbLine
 10
1.881889763779527
 20
1.362204724409448
 30
0.0
 11
1.884842519685039
 21
1.344488188976378
 31
0.0
  0
LINE
  5
5CF
330
1F
100
AcDbEntity
  8
1
100
AcDbLine
 10
1.880905511811023
 20
1.362204724409448
 30
0.0
 11
1.891732283464566
 21
1.275590551181102
 31
0.0
  0
LINE
  5
5D0
330
1F
100
AcDbEntity
  8
1
100
AcDbLine
 10
1.676181102362204
 20
1.362204724409448
 30
0.0
 11
1.665354330708661
 21
1.275590551181102
 31
0.0
  0
LINE
  5
5D1
330
1F
100
AcDbEntity
  8
1
100
AcDbLine
 10
1.665354330708661
 20
1.275590551181102
 30
0.0
 11
1.891732283464566
 21
1.275590551181102
 31
0.0
  0
LINE
  5
5D2
330
1F
100
AcDbEntity
  8
1
100
AcDbLine
 10
1.6751968503937
 20
1.362204724409448
 30
0.0
 11
1.672244094488188
 21
1.344488188976378
 31
0.0
  0
LINE
  5
5D3
330
1F
100
AcDbEntity
  8
1
100
AcDbLine
 10
1.664370078740157
 20
1.275590551181102
 30
0.0
 11
1.665354330708661
 21
1.275590551181102
 31
0.0
  0
LINE
  5
5D4
330
1F
100
AcDbEntity
  8
1
100
AcDbLine
 10
1.891732283464566
 20
1.275590551181102
 30
0.0
 11
1.89271653543307
 21
1.275590551181102
 31
0.0
  0
LINE
  5
5D5
330
1F
100
AcDbEntity
  8
1
100
AcDbLine
 10
2.876968503937007
 20
2.61023622047244
 30
0.0
 11
2.876968503937007
 21
2.03248031496063
 31
0.0
  0
LINE
  5
5D6
330
1F
100
AcDbEntity
  8
1
100
AcDbLine
 10
2.876968503937007
 20
2.03248031496063
 30
0.0
 11
2.876968503937007
 21
1.603346456692913
 31
0.0
  0
LINE
  5
5D7
330
1F
100
AcDbEntity
  8
1
100
AcDbLine
 10
1.314960629921259
 20
1.603346456692913
 30
0.0
 11
1.314960629921259
 21
2.03248031496063
 31
0.0
  0
LINE
  5
5D8
330
1F
100
AcDbEntity
  8
1
100
AcDbLine
 10
1.314960629921259
 20
2.03248031496063
 30
0.0
 11
1.314960629921259
 21
2.61023622047244
 31
0.0
  0
LINE
  5
5D9
330
1F
100
AcDbEntity
  8
1
100
AcDbLine
 10
1.866141732283464
 20
1.479330708661417
 30
0.0
 11
1.866141732283464
 21
1.477362204724409
 31
0.0
  0
LINE
  5
5DA
330
1F
100
AcDbEntity
  8
1
100
AcDbLine
 10
1.866141732283464
 20
1.46751968503937
 30
0.0
 11
1.866141732283464
 21
1.477362204724409
 31
0.0
  0
LINE
  5
5DB
330
1F
100
AcDbEntity
  8
1
100
AcDbLine
 10
1.690944881889763
 20
1.479330708661417
 30
0.0
 11
1.690944881889763
 21
1.477362204724409
 31
0.0
  0
LINE
  5
5DC
330
1F
100
AcDbEntity
  8
1
100
AcDbLine
 10
1.866141732283464
 20
1.477362204724409
 30
0.0
 11
1.690944881889763
 21
1.477362204724409
 31
0.0
  0
LINE
  5
5DD
330
1F
100
AcDbEntity
  8
1
100
AcDbLine
 10
1.690944881889763
 20
1.46751968503937
 30
0.0
 11
1.690944881889763
 21
1.477362204724409
 31
0.0
  0
LINE
  5
5DE
330
1F
100
AcDbEntity
  8
1
100
AcDbLine
 10
2.325787401574803
 20
1.46751968503937
 30
0.0
 11
2.325787401574803
 21
1.477362204724409
 31
0.0
  0
LINE
  5
5DF
330
1F
100
AcDbEntity
  8
1
100
AcDbLine
 10
2.325787401574803
 20
1.479330708661417
 30
0.0
 11
2.325787401574803
 21
1.477362204724409
 31
0.0
  0
LINE
  5
5E0
330
1F
100
AcDbEntity
  8
1
100
AcDbLine
 10
2.325787401574803
 20
1.477362204724409
 30
0.0
 11
2.500984251968503
 21
1.477362204724409
 31
0.0
  0
LINE
  5
5E1
330
1F
100
AcDbEntity
  8
1
100
AcDbLine
 10
2.500984251968503
 20
1.479330708661417
 30
0.0
 11
2.500984251968503
 21
1.477362204724409
 31
0.0
  0
LINE
  5
5E2
330
1F
100
AcDbEntity
  8
1
100
AcDbLine
 10
2.500984251968503
 20
1.46751968503937
 30
0.0
 11
2.500984251968503
 21
1.477362204724409
 31
0.0
  0
LINE
  5
5E3
330
1F
100
AcDbEntity
  8
1
100
AcDbLine
 10
2.784448818897637
 20
2.61023622047244
 30
0.0
 11
1.407480314960629
 21
2.61023622047244
 31
0.0
  0
LINE
  5
5E4
330
1F
100
AcDbEntity
  8
1
100
AcDbLine
 10
1.407480314960629
 20
2.61023622047244
 30
0.0
 11
1.407480314960629
 21
2.097440944881889
 31
0.0
  0
LINE
  5
5E5
330
1F
100
AcDbEntity
  8
1
100
AcDbLine
 10
1.407480314960629
 20
2.097440944881889
 30
0.0
 11
2.784448818897637
 21
2.097440944881889
 31
0.0
  0
LINE
  5
5E6
330
1F
100
AcDbEntity
  8
1
100
AcDbLine
 10
2.784448818897637
 20
2.097440944881889
 30
0.0
 11
2.784448818897637
 21
2.61023622047244
 31
0.0
  0
POLYLINE
  5
5E7
330
1F
100
AcDbEntity
  8
1
100
AcDb2dPolyline
 66
     1
 10
0.0
 20
0.0
 30
0.0
  0
VERTEX
  5
5E8
330
5E7
100
AcDbEntity
  8
1
100
AcDbVertex
100
AcDb2dVertex
 10
2.876968503937007
 20
2.03248031496063
 30
0.0
  0
VERTEX
  5
5E9
330
5E7
100
AcDbEntity
  8
1
100
AcDbVertex
100
AcDb2dVertex
 10
2.873031496062992
 20
2.052165354330708
 30
0.0
  0
VERTEX
  5
5EA
330
5E7
100
AcDbEntity
  8
1
100
AcDbVertex
100
AcDb2dVertex
 10
2.859251968503937
 20
2.069881889763779
 30
0.0
  0
VERTEX
  5
5EB
330
5E7
100
AcDbEntity
  8
1
100
AcDbVertex
100
AcDb2dVertex
 10
2.838582677165354
 20
2.084645669291338
 30
0.0
  0
VERTEX
  5
5EC
330
5E7
100
AcDbEntity
  8
1
100
AcDbVertex
100
AcDb2dVertex
 10
2.812992125984251
 20
2.093503937007874
 30
0.0
  0
VERTEX
  5
5ED
330
5E7
100
AcDbEntity
  8
1
100
AcDbVertex
100
AcDb2dVertex
 10
2.784448818897637
 20
2.097440944881889
 30
0.0
  0
SEQEND
  5
5EE
330
5E7
100
AcDbEntity
  8
1
  0
POLYLINE
  5
5EF
330
1F
100
AcDbEntity
  8
1
100
AcDb2dPolyline
 66
     1
 10
0.0
 20
0.0
 30
0.0
  0
VERTEX
  5
5F0
330
5EF
100
AcDbEntity
  8
1
100
AcDbVertex
100
AcDb2dVertex
 10
2.784448818897637
 20
1.966535433070866
 30
0.0
  0
VERTEX
  5
5F1
330
5EF
100
AcDbEntity
  8
1
100
AcDbVertex
100
AcDb2dVertex
 10
2.812992125984251
 20
1.969488188976377
 30
0.0
  0
VERTEX
  5
5F2
330
5EF
100
AcDbEntity
  8
1
100
AcDbVertex
100
AcDb2dVertex
 10
2.838582677165354
 20
1.979330708661417
 30
0.0
  0
VERTEX
  5
5F3
330
5EF
100
AcDbEntity
  8
1
100
AcDbVertex
100
AcDb2dVertex
 10
2.859251968503937
 20
1.994094488188976
 30
0.0
  0
VERTEX
  5
5F4
330
5EF
100
AcDbEntity
  8
1
100
AcDbVertex
100
AcDb2dVertex
 10
2.873031496062992
 20
2.011811023622047
 30
0.0
  0
VERTEX
  5
5F5
330
5EF
100
AcDbEntity
  8
1
100
AcDbVertex
100
AcDb2dVertex
 10
2.876968503937007
 20
2.03248031496063
 30
0.0
  0
SEQEND
  5
5F6
330
5EF
100
AcDbEntity
  8
1
  0
POLYLINE
  5
5F7
330
1F
100
AcDbEntity
  8
1
100
AcDb2dPolyline
 66
     1
 10
0.0
 20
0.0
 30
0.0
  0
VERTEX
  5
5F8
330
5F7
100
AcDbEntity
  8
1
100
AcDbVertex
100
AcDb2dVertex
 10
2.784448818897637
 20
1.966535433070866
 30
0.0
  0
VERTEX
  5
5F9
330
5F7
100
AcDbEntity
  8
1
100
AcDbVertex
100
AcDb2dVertex
 10
2.784448818897637
 20
1.99015748031496
 30
0.0
  0
VERTEX
  5
5FA
330
5F7
100
AcDbEntity
  8
1
100
AcDbVertex
100
AcDb2dVertex
 10
2.784448818897637
 20
2.016732283464567
 30
0.0
  0
VERTEX
  5
5FB
330
5F7
100
AcDbEntity
  8
1
100
AcDbVertex
100
AcDb2dVertex
 10
2.784448818897637
 20
2.046259842519685
 30
0.0
  0
VERTEX
  5
5FC
330
5F7
100
AcDbEntity
  8
1
100
AcDbVertex
100
AcDb2dVertex
 10
2.784448818897637
 20
2.073818897637795
 30
0.0
  0
VERTEX
  5
5FD
330
5F7
100
AcDbEntity
  8
1
100
AcDbVertex
100
AcDb2dVertex
 10
2.784448818897637
 20
2.097440944881889
 30
0.0
  0
SEQEND
  5
5FE
330
5F7
100
AcDbEntity
  8
1
  0
POLYLINE
  5
5FF
330
1F
100
AcDbEntity
  8
1
100
AcDb2dPolyline
 66
     1
 10
0.0
 20
0.0
 30
0.0
  0
VERTEX
  5
600
330
5FF
100
AcDbEntity
  8
1
100
AcDbVertex
100
AcDb2dVertex
 10
1.407480314960629
 20
1.966535433070866
 30
0.0
  0
VERTEX
  5
601
330
5FF
100
AcDbEntity
  8
1
100
AcDbVertex
100
AcDb2dVertex
 10
1.407480314960629
 20
1.99015748031496
 30
0.0
  0
VERTEX
  5
602
330
5FF
100
AcDbEntity
  8
1
100
AcDbVertex
100
AcDb2dVertex
 10
1.407480314960629
 20
2.016732283464567
 30
0.0
  0
VERTEX
  5
603
330
5FF
100
AcDbEntity
  8
1
100
AcDbVertex
100
AcDb2dVertex
 10
1.407480314960629
 20
2.046259842519685
 30
0.0
  0
VERTEX
  5
604
330
5FF
100
AcDbEntity
  8
1
100
AcDbVertex
100
AcDb2dVertex
 10
1.407480314960629
 20
2.073818897637795
 30
0.0
  0
VERTEX
  5
605
330
5FF
100
AcDbEntity
  8
1
100
AcDbVertex
100
AcDb2dVertex
 10
1.407480314960629
 20
2.097440944881889
 30
0.0
  0
SEQEND
  5
606
330
5FF
100
AcDbEntity
  8
1
  0
POLYLINE
  5
607
330
1F
100
AcDbEntity
  8
1
100
AcDb2dPolyline
 66
     1
 10
0.0
 20
0.0
 30
0.0
  0
VERTEX
  5
608
330
607
100
AcDbEntity
  8
1
100
AcDbVertex
100
AcDb2dVertex
 10
1.314960629921259
 20
2.03248031496063
 30
0.0
  0
VERTEX
  5
609
330
607
100
AcDbEntity
  8
1
100
AcDbVertex
100
AcDb2dVertex
 10
1.319881889763779
 20
2.011811023622047
 30
0.0
  0
VERTEX
  5
60A
330
607
100
AcDbEntity
  8
1
100
AcDbVertex
100
AcDb2dVertex
 10
1.33267716535433
 20
1.994094488188976
 30
0.0
  0
VERTEX
  5
60B
330
607
100
AcDbEntity
  8
1
100
AcDbVertex
100
AcDb2dVertex
 10
1.353346456692913
 20
1.979330708661417
 30
0.0
  0
VERTEX
  5
60C
330
607
100
AcDbEntity
  8
1
100
AcDbVertex
100
AcDb2dVertex
 10
1.378937007874015
 20
1.969488188976377
 30
0.0
  0
VERTEX
  5
60D
330
607
100
AcDbEntity
  8
1
100
AcDbVertex
100
AcDb2dVertex
 10
1.407480314960629
 20
1.966535433070866
 30
0.0
  0
SEQEND
  5
60E
330
607
100
AcDbEntity
  8
1
  0
POLYLINE
  5
60F
330
1F
100
AcDbEntity
  8
1
100
AcDb2dPolyline
 66
     1
 10
0.0
 20
0.0
 30
0.0
  0
VERTEX
  5
610
330
60F
100
AcDbEntity
  8
1
100
AcDbVertex
100
AcDb2dVertex
 10
1.314960629921259
 20
2.03248031496063
 30
0.0
  0
VERTEX
  5
611
330
60F
100
AcDbEntity
  8
1
100
AcDbVertex
100
AcDb2dVertex
 10
1.319881889763779
 20
2.052165354330708
 30
0.0
  0
VERTEX
  5
612
330
60F
100
AcDbEntity
  8
1
100
AcDbVertex
100
AcDb2dVertex
 10
1.33267716535433
 20
2.069881889763779
 30
0.0
  0
VERTEX
  5
613
330
60F
100
AcDbEntity
  8
1
100
AcDbVertex
100
AcDb2dVertex
 10
1.353346456692913
 20
2.084645669291338
 30
0.0
  0
VERTEX
  5
614
330
60F
100
AcDbEntity
  8
1
100
AcDbVertex
100
AcDb2dVertex
 10
1.378937007874015
 20
2.093503937007874
 30
0.0
  0
VERTEX
  5
615
330
60F
100
AcDbEntity
  8
1
100
AcDbVertex
100
AcDb2dVertex
 10
1.407480314960629
 20
2.097440944881889
 30
0.0
  0
SEQEND
  5
616
330
60F
100
AcDbEntity
  8
1
  0
LINE
  5
617
330
1F
100
AcDbEntity
  8
1
100
AcDbLine
 10
2.784448818897637
 20
2.807086614173228
 30
0.0
 11
2.726377952755905
 21
2.807086614173228
 31
0.0
  0
LINE
  5
618
330
1F
100
AcDbEntity
  8
1
100
AcDbLine
 10
2.784448818897637
 20
2.807086614173228
 30
0.0
 11
2.784448818897637
 21
3.301181102362204
 31
0.0
  0
LINE
  5
619
330
1F
100
AcDbEntity
  8
1
100
AcDbLine
 10
2.784448818897637
 20
3.301181102362204
 30
0.0
 11
1.407480314960629
 21
3.301181102362204
 31
0.0
  0
LINE
  5
61A
330
1F
100
AcDbEntity
  8
1
100
AcDbLine
 10
1.407480314960629
 20
3.301181102362204
 30
0.0
 11
1.407480314960629
 21
2.807086614173228
 31
0.0
  0
LINE
  5
61B
330
1F
100
AcDbEntity
  8
1
100
AcDbLine
 10
1.466535433070866
 20
2.807086614173228
 30
0.0
 11
1.407480314960629
 21
2.807086614173228
 31
0.0
  0
LINE
  5
61C
330
1F
100
AcDbEntity
  8
1
100
AcDbLine
 10
1.466535433070866
 20
2.807086614173228
 30
0.0
 11
1.466535433070866
 21
3.178149606299212
 31
0.0
  0
LINE
  5
61D
330
1F
100
AcDbEntity
  8
1
100
AcDbLine
 10
1.466535433070866
 20
3.178149606299212
 30
0.0
 11
1.533464566929133
 21
3.178149606299212
 31
0.0
  0
LINE
  5
61E
330
1F
100
AcDbEntity
  8
1
100
AcDbLine
 10
1.533464566929133
 20
3.178149606299212
 30
0.0
 11
1.533464566929133
 21
3.224409448818897
 31
0.0
  0
LINE
  5
61F
330
1F
100
AcDbEntity
  8
1
100
AcDbLine
 10
1.581692913385826
 20
3.224409448818897
 30
0.0
 11
1.533464566929133
 21
3.224409448818897
 31
0.0
  0
LINE
  5
620
330
1F
100
AcDbEntity
  8
1
100
AcDbLine
 10
1.581692913385826
 20
3.223425196850393
 30
0.0
 11
1.581692913385826
 21
3.224409448818897
 31
0.0
  0
LINE
  5
621
330
1F
100
AcDbEntity
  8
1
100
AcDbLine
 10
1.581692913385826
 20
3.223425196850393
 30
0.0
 11
1.621062992125984
 21
3.223425196850393
 31
0.0
  0
LINE
  5
622
330
1F
100
AcDbEntity
  8
1
100
AcDbLine
 10
1.621062992125984
 20
3.224409448818897
 30
0.0
 11
1.621062992125984
 21
3.223425196850393
 31
0.0
  0
LINE
  5
623
330
1F
100
AcDbEntity
  8
1
100
AcDbLine
 10
1.936023622047244
 20
3.224409448818897
 30
0.0
 11
1.621062992125984
 21
3.224409448818897
 31
0.0
  0
LINE
  5
624
330
1F
100
AcDbEntity
  8
1
100
AcDbLine
 10
1.936023622047244
 20
3.223425196850393
 30
0.0
 11
1.936023622047244
 21
3.224409448818897
 31
0.0
  0
LINE
  5
625
330
1F
100
AcDbEntity
  8
1
100
AcDbLine
 10
1.936023622047244
 20
3.223425196850393
 30
0.0
 11
1.975393700787401
 21
3.223425196850393
 31
0.0
  0
LINE
  5
626
330
1F
100
AcDbEntity
  8
1
100
AcDbLine
 10
1.975393700787401
 20
3.224409448818897
 30
0.0
 11
1.975393700787401
 21
3.223425196850393
 31
0.0
  0
LINE
  5
627
330
1F
100
AcDbEntity
  8
1
100
AcDbLine
 10
2.023622047244094
 20
3.224409448818897
 30
0.0
 11
1.975393700787401
 21
3.224409448818897
 31
0.0
  0
LINE
  5
628
330
1F
100
AcDbEntity
  8
1
100
AcDbLine
 10
2.023622047244094
 20
3.224409448818897
 30
0.0
 11
2.023622047244094
 21
3.178149606299212
 31
0.0
  0
LINE
  5
629
330
1F
100
AcDbEntity
  8
1
100
AcDbLine
 10
2.023622047244094
 20
3.178149606299212
 30
0.0
 11
2.168307086614173
 21
3.178149606299212
 31
0.0
  0
LINE
  5
62A
330
1F
100
AcDbEntity
  8
1
100
AcDbLine
 10
2.168307086614173
 20
3.178149606299212
 30
0.0
 11
2.168307086614173
 21
3.224409448818897
 31
0.0
  0
LINE
  5
62B
330
1F
100
AcDbEntity
  8
1
100
AcDbLine
 10
2.216535433070866
 20
3.224409448818897
 30
0.0
 11
2.168307086614173
 21
3.224409448818897
 31
0.0
  0
LINE
  5
62C
330
1F
100
AcDbEntity
  8
1
100
AcDbLine
 10
2.216535433070866
 20
3.223425196850393
 30
0.0
 11
2.216535433070866
 21
3.224409448818897
 31
0.0
  0
LINE
  5
62D
330
1F
100
AcDbEntity
  8
1
100
AcDbLine
 10
2.216535433070866
 20
3.223425196850393
 30
0.0
 11
2.255905511811023
 21
3.223425196850393
 31
0.0
  0
LINE
  5
62E
330
1F
100
AcDbEntity
  8
1
100
AcDbLine
 10
2.255905511811023
 20
3.224409448818897
 30
0.0
 11
2.255905511811023
 21
3.223425196850393
 31
0.0
  0
LINE
  5
62F
330
1F
100
AcDbEntity
  8
1
100
AcDbLine
 10
2.570866141732283
 20
3.224409448818897
 30
0.0
 11
2.255905511811023
 21
3.224409448818897
 31
0.0
  0
LINE
  5
630
330
1F
100
AcDbEntity
  8
1
100
AcDbLine
 10
2.570866141732283
 20
3.223425196850393
 30
0.0
 11
2.570866141732283
 21
3.224409448818897
 31
0.0
  0
LINE
  5
631
330
1F
100
AcDbEntity
  8
1
100
AcDbLine
 10
2.570866141732283
 20
3.223425196850393
 30
0.0
 11
2.61023622047244
 21
3.223425196850393
 31
0.0
  0
LINE
  5
632
330
1F
100
AcDbEntity
  8
1
100
AcDbLine
 10
2.61023622047244
 20
3.224409448818897
 30
0.0
 11
2.61023622047244
 21
3.223425196850393
 31
0.0
  0
LINE
  5
633
330
1F
100
AcDbEntity
  8
1
100
AcDbLine
 10
2.658464566929133
 20
3.224409448818897
 30
0.0
 11
2.61023622047244
 21
3.224409448818897
 31
0.0
  0
LINE
  5
634
330
1F
100
AcDbEntity
  8
1
100
AcDbLine
 10
2.658464566929133
 20
3.224409448818897
 30
0.0
 11
2.658464566929133
 21
3.178149606299212
 31
0.0
  0
LINE
  5
635
330
1F
100
AcDbEntity
  8
1
100
AcDbLine
 10
2.658464566929133
 20
3.178149606299212
 30
0.0
 11
2.726377952755905
 21
3.178149606299212
 31
0.0
  0
LINE
  5
636
330
1F
100
AcDbEntity
  8
1
100
AcDbLine
 10
2.726377952755905
 20
3.178149606299212
 30
0.0
 11
2.726377952755905
 21
2.807086614173228
 31
0.0
  0
LINE
  5
637
330
1F
100
AcDbEntity
  8
1
100
AcDbLine
 10
2.876968503937007
 20
2.61023622047244
 30
0.0
 11
2.876968503937007
 21
2.937992125984251
 31
0.0
  0
POLYLINE
  5
638
330
1F
100
AcDbEntity
  8
1
100
AcDb2dPolyline
 66
     1
 10
0.0
 20
0.0
 30
0.0
  0
VERTEX
  5
639
330
638
100
AcDbEntity
  8
1
100
AcDbVertex
100
AcDb2dVertex
 10
2.876968503937007
 20
2.937992125984251
 30
0.0
  0
VERTEX
  5
63A
330
638
100
AcDbEntity
  8
1
100
AcDbVertex
100
AcDb2dVertex
 10
2.874015748031495
 20
2.904527559055118
 30
0.0
  0
VERTEX
  5
63B
330
638
100
AcDbEntity
  8
1
100
AcDbVertex
100
AcDb2dVertex
 10
2.86515748031496
 20
2.872047244094487
 30
0.0
  0
VERTEX
  5
63C
330
638
100
AcDbEntity
  8
1
100
AcDbVertex
100
AcDb2dVertex
 10
2.850393700787401
 20
2.845472440944881
 30
0.0
  0
VERTEX
  5
63D
330
638
100
AcDbEntity
  8
1
100
AcDbVertex
100
AcDb2dVertex
 10
2.830708661417322
 20
2.823818897637795
 30
0.0
  0
VERTEX
  5
63E
330
638
100
AcDbEntity
  8
1
100
AcDbVertex
100
AcDb2dVertex
 10
2.808070866141732
 20
2.811023622047244
 30
0.0
  0
VERTEX
  5
63F
330
638
100
AcDbEntity
  8
1
100
AcDbVertex
100
AcDb2dVertex
 10
2.784448818897637
 20
2.807086614173228
 30
0.0
  0
SEQEND
  5
640
330
638
100
AcDbEntity
  8
1
  0
LINE
  5
641
330
1F
100
AcDbEntity
  8
1
100
AcDbLine
 10
2.726377952755905
 20
2.807086614173228
 30
0.0
 11
2.726377952755905
 21
2.803149606299212
 31
0.0
  0
LINE
  5
642
330
1F
100
AcDbEntity
  8
1
100
AcDbLine
 10
2.726377952755905
 20
2.803149606299212
 30
0.0
 11
1.466535433070866
 21
2.803149606299212
 31
0.0
  0
LINE
  5
643
330
1F
100
AcDbEntity
  8
1
100
AcDbLine
 10
1.466535433070866
 20
2.803149606299212
 30
0.0
 11
1.466535433070866
 21
2.807086614173228
 31
0.0
  0
POLYLINE
  5
644
330
1F
100
AcDbEntity
  8
1
100
AcDb2dPolyline
 66
     1
 10
0.0
 20
0.0
 30
0.0
  0
VERTEX
  5
645
330
644
100
AcDbEntity
  8
1
100
AcDbVertex
100
AcDb2dVertex
 10
1.407480314960629
 20
2.807086614173228
 30
0.0
  0
VERTEX
  5
646
330
644
100
AcDbEntity
  8
1
100
AcDbVertex
100
AcDb2dVertex
 10
1.383858267716535
 20
2.811023622047244
 30
0.0
  0
VERTEX
  5
647
330
644
100
AcDbEntity
  8
1
100
AcDbVertex
100
AcDb2dVertex
 10
1.361220472440944
 20
2.823818897637795
 30
0.0
  0
VERTEX
  5
648
330
644
100
AcDbEntity
  8
1
100
AcDbVertex
100
AcDb2dVertex
 10
1.34251968503937
 20
2.845472440944881
 30
0.0
  0
VERTEX
  5
649
330
644
100
AcDbEntity
  8
1
100
AcDbVertex
100
AcDb2dVertex
 10
1.327755905511811
 20
2.872047244094487
 30
0.0
  0
VERTEX
  5
64A
330
644
100
AcDbEntity
  8
1
100
AcDbVertex
100
AcDb2dVertex
 10
1.317913385826771
 20
2.904527559055118
 30
0.0
  0
VERTEX
  5
64B
330
644
100
AcDbEntity
  8
1
100
AcDbVertex
100
AcDb2dVertex
 10
1.314960629921259
 20
2.937992125984251
 30
0.0
  0
SEQEND
  5
64C
330
644
100
AcDbEntity
  8
1
  0
LINE
  5
64D
330
1F
100
AcDbEntity
  8
1
100
AcDbLine
 10
1.314960629921259
 20
2.937992125984251
 30
0.0
 11
1.314960629921259
 21
2.61023622047244
 31
0.0
  0
LINE
  5
64E
330
1F
100
AcDbEntity
  8
1
100
AcDbLine
 10
1.664370078740157
 20
2.61023622047244
 30
0.0
 11
1.670275590551181
 21
2.697834645669291
 31
0.0
  0
LINE
  5
64F
330
1F
100
AcDbEntity
  8
1
100
AcDbLine
 10
1.670275590551181
 20
2.697834645669291
 30
0.0
 11
1.887795275590551
 21
2.697834645669291
 31
0.0
  0
LINE
  5
650
330
1F
100
AcDbEntity
  8
1
100
AcDbLine
 10
1.89271653543307
 20
2.61023622047244
 30
0.0
 11
1.887795275590551
 21
2.697834645669291
 31
0.0
  0
LINE
  5
651
330
1F
100
AcDbEntity
  8
1
100
AcDbLine
 10
2.299212598425196
 20
2.61023622047244
 30
0.0
 11
2.30511811023622
 21
2.697834645669291
 31
0.0
  0
LINE
  5
652
330
1F
100
AcDbEntity
  8
1
100
AcDbLine
 10
2.52263779527559
 20
2.697834645669291
 30
0.0
 11
2.30511811023622
 21
2.697834645669291
 31
0.0
  0
LINE
  5
653
330
1F
100
AcDbEntity
  8
1
100
AcDbLine
 10
2.52755905511811
 20
2.61023622047244
 30
0.0
 11
2.52263779527559
 21
2.697834645669291
 31
0.0
  0
POLYLINE
  5
654
330
1F
100
AcDbEntity
  8
1
100
AcDb2dPolyline
 66
     1
 10
0.0
 20
0.0
 30
0.0
  0
VERTEX
  5
655
330
654
100
AcDbEntity
  8
1
100
AcDbVertex
100
AcDb2dVertex
 10
2.519685039370078
 20
2.683070866141732
 30
0.0
  0
VERTEX
  5
656
330
654
100
AcDbEntity
  8
1
100
AcDbVertex
100
AcDb2dVertex
 10
2.519685039370078
 20
2.678149606299212
 30
0.0
  0
VERTEX
  5
657
330
654
100
AcDbEntity
  8
1
100
AcDbVertex
100
AcDb2dVertex
 10
2.519685039370078
 20
2.679133858267716
 30
0.0
  0
SEQEND
  5
658
330
654
100
AcDbEntity
  8
1
  0
LINE
  5
659
330
1F
100
AcDbEntity
  8
1
100
AcDbLine
 10
2.519685039370078
 20
2.683070866141732
 30
0.0
 11
2.518700787401574
 21
2.697834645669291
 31
0.0
  0
LINE
  5
65A
330
1F
100
AcDbEntity
  8
1
100
AcDbLine
 10
1.672244094488188
 20
2.683070866141732
 30
0.0
 11
1.673228346456692
 21
2.697834645669291
 31
0.0
  0
POLYLINE
  5
65B
330
1F
100
AcDbEntity
  8
1
100
AcDb2dPolyline
 66
     1
 10
0.0
 20
0.0
 30
0.0
  0
VERTEX
  5
65C
330
65B
100
AcDbEntity
  8
1
100
AcDbVertex
100
AcDb2dVertex
 10
1.672244094488188
 20
2.683070866141732
 30
0.0
  0
VERTEX
  5
65D
330
65B
100
AcDbEntity
  8
1
100
AcDbVertex
100
AcDb2dVertex
 10
1.672244094488188
 20
2.678149606299212
 30
0.0
  0
VERTEX
  5
65E
330
65B
100
AcDbEntity
  8
1
100
AcDbVertex
100
AcDb2dVertex
 10
1.672244094488188
 20
2.679133858267716
 30
0.0
  0
SEQEND
  5
65F
330
65B
100
AcDbEntity
  8
1
  0
POLYLINE
  5
660
330
1F
100
AcDbEntity
  8
1
100
AcDb2dPolyline
 66
     1
 10
0.0
 20
0.0
 30
0.0
  0
VERTEX
  5
661
330
660
100
AcDbEntity
  8
1
100
AcDbVertex
100
AcDb2dVertex
 10
2.307086614173228
 20
2.683070866141732
 30
0.0
  0
VERTEX
  5
662
330
660
100
AcDbEntity
  8
1
100
AcDbVertex
100
AcDb2dVertex
 10
2.307086614173228
 20
2.678149606299212
 30
0.0
  0
VERTEX
  5
663
330
660
100
AcDbEntity
  8
1
100
AcDbVertex
100
AcDb2dVertex
 10
2.308070866141732
 20
2.679133858267716
 30
0.0
  0
SEQEND
  5
664
330
660
100
AcDbEntity
  8
1
  0
LINE
  5
665
330
1F
100
AcDbEntity
  8
1
100
AcDbLine
 10
2.308070866141732
 20
2.679133858267716
 30
0.0
 11
2.307086614173228
 21
2.679133858267716
 31
0.0
  0
POLYLINE
  5
666
330
1F
100
AcDbEntity
  8
1
100
AcDb2dPolyline
 66
     1
 10
0.0
 20
0.0
 30
0.0
  0
VERTEX
  5
667
330
666
100
AcDbEntity
  8
1
100
AcDbVertex
100
AcDb2dVertex
 10
1.884842519685039
 20
2.683070866141732
 30
0.0
  0
VERTEX
  5
668
330
666
100
AcDbEntity
  8
1
100
AcDbVertex
100
AcDb2dVertex
 10
1.884842519685039
 20
2.678149606299212
 30
0.0
  0
VERTEX
  5
669
330
666
100
AcDbEntity
  8
1
100
AcDbVertex
100
AcDb2dVertex
 10
1.884842519685039
 20
2.679133858267716
 30
0.0
  0
SEQEND
  5
66A
330
666
100
AcDbEntity
  8
1
  0
LINE
  5
66B
330
1F
100
AcDbEntity
  8
1
100
AcDbLine
 10
1.884842519685039
 20
2.683070866141732
 30
0.0
 11
1.883858267716535
 21
2.697834645669291
 31
0.0
  0
LINE
  5
66C
330
1F
100
AcDbEntity
  8
1
100
AcDbLine
 10
2.307086614173228
 20
2.683070866141732
 30
0.0
 11
2.308070866141732
 21
2.697834645669291
 31
0.0
  0
LINE
  5
66D
330
1F
100
AcDbEntity
  8
1
100
AcDbLine
 10
2.51771653543307
 20
2.697834645669291
 30
0.0
 11
2.519685039370078
 21
2.679133858267716
 31
0.0
  0
LINE
  5
66E
330
1F
100
AcDbEntity
  8
1
100
AcDbLine
 10
2.515748031496062
 20
2.697834645669291
 30
0.0
 11
2.526574803149606
 21
2.61023622047244
 31
0.0
  0
LINE
  5
66F
330
1F
100
AcDbEntity
  8
1
100
AcDbLine
 10
2.311023622047243
 20
2.697834645669291
 30
0.0
 11
2.3001968503937
 21
2.61023622047244
 31
0.0
  0
LINE
  5
670
330
1F
100
AcDbEntity
  8
1
100
AcDbLine
 10
2.31003937007874
 20
2.697834645669291
 30
0.0
 11
2.308070866141732
 21
2.679133858267716
 31
0.0
  0
LINE
  5
671
330
1F
100
AcDbEntity
  8
1
100
AcDbLine
 10
1.881889763779527
 20
2.697834645669291
 30
0.0
 11
1.884842519685039
 21
2.679133858267716
 31
0.0
  0
LINE
  5
672
330
1F
100
AcDbEntity
  8
1
100
AcDbLine
 10
1.880905511811023
 20
2.697834645669291
 30
0.0
 11
1.891732283464566
 21
2.61023622047244
 31
0.0
  0
LINE
  5
673
330
1F
100
AcDbEntity
  8
1
100
AcDbLine
 10
1.676181102362204
 20
2.697834645669291
 30
0.0
 11
1.665354330708661
 21
2.61023622047244
 31
0.0
  0
LINE
  5
674
330
1F
100
AcDbEntity
  8
1
100
AcDbLine
 10
1.6751968503937
 20
2.697834645669291
 30
0.0
 11
1.672244094488188
 21
2.679133858267716
 31
0.0
  0
LINE
  5
675
330
1F
100
AcDbEntity
  8
1
100
AcDbLine
 10
2.876968503937007
 20
3.945866141732283
 30
0.0
 11
2.876968503937007
 21
3.367125984251968
 31
0.0
  0
LINE
  5
676
330
1F
100
AcDbEntity
  8
1
100
AcDbLine
 10
2.876968503937007
 20
3.367125984251968
 30
0.0
 11
2.876968503937007
 21
2.937992125984251
 31
0.0
  0
LINE
  5
677
330
1F
100
AcDbEntity
  8
1
100
AcDbLine
 10
1.314960629921259
 20
2.937992125984251
 30
0.0
 11
1.314960629921259
 21
3.367125984251968
 31
0.0
  0
LINE
  5
678
330
1F
100
AcDbEntity
  8
1
100
AcDbLine
 10
1.314960629921259
 20
3.367125984251968
 30
0.0
 11
1.314960629921259
 21
3.945866141732283
 31
0.0
  0
POLYLINE
  5
679
330
1F
100
AcDbEntity
  8
1
100
AcDb2dPolyline
 66
     1
 10
0.0
 20
0.0
 30
0.0
  0
VERTEX
  5
67A
330
679
100
AcDbEntity
  8
1
100
AcDbVertex
100
AcDb2dVertex
 10
1.866141732283464
 20
2.814960629921259
 30
0.0
  0
VERTEX
  5
67B
330
679
100
AcDbEntity
  8
1
100
AcDbVertex
100
AcDb2dVertex
 10
1.866141732283464
 20
2.813976377952755
 30
0.0
  0
VERTEX
  5
67C
330
679
100
AcDbEntity
  8
1
100
AcDbVertex
100
AcDb2dVertex
 10
1.866141732283464
 20
2.812007874015748
 30
0.0
  0
SEQEND
  5
67D
330
679
100
AcDbEntity
  8
1
  0
LINE
  5
67E
330
1F
100
AcDbEntity
  8
1
100
AcDbLine
 10
1.866141732283464
 20
2.803149606299212
 30
0.0
 11
1.866141732283464
 21
2.812007874015748
 31
0.0
  0
POLYLINE
  5
67F
330
1F
100
AcDbEntity
  8
1
100
AcDb2dPolyline
 66
     1
 10
0.0
 20
0.0
 30
0.0
  0
VERTEX
  5
680
330
67F
100
AcDbEntity
  8
1
100
AcDbVertex
100
AcDb2dVertex
 10
1.690944881889763
 20
2.814960629921259
 30
0.0
  0
VERTEX
  5
681
330
67F
100
AcDbEntity
  8
1
100
AcDbVertex
100
AcDb2dVertex
 10
1.690944881889763
 20
2.813976377952755
 30
0.0
  0
VERTEX
  5
682
330
67F
100
AcDbEntity
  8
1
100
AcDbVertex
100
AcDb2dVertex
 10
1.690944881889763
 20
2.812007874015748
 30
0.0
  0
SEQEND
  5
683
330
67F
100
AcDbEntity
  8
1
  0
LINE
  5
684
330
1F
100
AcDbEntity
  8
1
100
AcDbLine
 10
1.866141732283464
 20
2.812007874015748
 30
0.0
 11
1.690944881889763
 21
2.812007874015748
 31
0.0
  0
LINE
  5
685
330
1F
100
AcDbEntity
  8
1
100
AcDbLine
 10
1.690944881889763
 20
2.803149606299212
 30
0.0
 11
1.690944881889763
 21
2.812007874015748
 31
0.0
  0
LINE
  5
686
330
1F
100
AcDbEntity
  8
1
100
AcDbLine
 10
2.325787401574803
 20
2.803149606299212
 30
0.0
 11
2.325787401574803
 21
2.812007874015748
 31
0.0
  0
POLYLINE
  5
687
330
1F
100
AcDbEntity
  8
1
100
AcDb2dPolyline
 66
     1
 10
0.0
 20
0.0
 30
0.0
  0
VERTEX
  5
688
330
687
100
AcDbEntity
  8
1
100
AcDbVertex
100
AcDb2dVertex
 10
2.325787401574803
 20
2.814960629921259
 30
0.0
  0
VERTEX
  5
689
330
687
100
AcDbEntity
  8
1
100
AcDbVertex
100
AcDb2dVertex
 10
2.325787401574803
 20
2.813976377952755
 30
0.0
  0
VERTEX
  5
68A
330
687
100
AcDbEntity
  8
1
100
AcDbVertex
100
AcDb2dVertex
 10
2.325787401574803
 20
2.812007874015748
 30
0.0
  0
SEQEND
  5
68B
330
687
100
AcDbEntity
  8
1
  0
LINE
  5
68C
330
1F
100
AcDbEntity
  8
1
100
AcDbLine
 10
2.325787401574803
 20
2.812007874015748
 30
0.0
 11
2.500984251968503
 21
2.812007874015748
 31
0.0
  0
POLYLINE
  5
68D
330
1F
100
AcDbEntity
  8
1
100
AcDb2dPolyline
 66
     1
 10
0.0
 20
0.0
 30
0.0
  0
VERTEX
  5
68E
330
68D
100
AcDbEntity
  8
1
100
AcDbVertex
100
AcDb2dVertex
 10
2.500984251968503
 20
2.814960629921259
 30
0.0
  0
VERTEX
  5
68F
330
68D
100
AcDbEntity
  8
1
100
AcDbVertex
100
AcDb2dVertex
 10
2.500984251968503
 20
2.813976377952755
 30
0.0
  0
VERTEX
  5
690
330
68D
100
AcDbEntity
  8
1
100
AcDbVertex
100
AcDb2dVertex
 10
2.500984251968503
 20
2.812007874015748
 30
0.0
  0
SEQEND
  5
691
330
68D
100
AcDbEntity
  8
1
  0
LINE
  5
692
330
1F
100
AcDbEntity
  8
1
100
AcDbLine
 10
2.500984251968503
 20
2.803149606299212
 30
0.0
 11
2.500984251968503
 21
2.812007874015748
 31
0.0
  0
LINE
  5
693
330
1F
100
AcDbEntity
  8
1
100
AcDbLine
 10
2.784448818897637
 20
3.945866141732283
 30
0.0
 11
1.407480314960629
 21
3.945866141732283
 31
0.0
  0
LINE
  5
694
330
1F
100
AcDbEntity
  8
1
100
AcDbLine
 10
1.407480314960629
 20
3.945866141732283
 30
0.0
 11
1.407480314960629
 21
3.432086614173228
 31
0.0
  0
LINE
  5
695
330
1F
100
AcDbEntity
  8
1
100
AcDbLine
 10
1.407480314960629
 20
3.432086614173228
 30
0.0
 11
2.784448818897637
 21
3.432086614173228
 31
0.0
  0
LINE
  5
696
330
1F
100
AcDbEntity
  8
1
100
AcDbLine
 10
2.784448818897637
 20
3.432086614173228
 30
0.0
 11
2.784448818897637
 21
3.945866141732283
 31
0.0
  0
POLYLINE
  5
697
330
1F
100
AcDbEntity
  8
1
100
AcDb2dPolyline
 66
     1
 10
0.0
 20
0.0
 30
0.0
  0
VERTEX
  5
698
330
697
100
AcDbEntity
  8
1
100
AcDbVertex
100
AcDb2dVertex
 10
1.314960629921259
 20
3.945866141732283
 30
0.0
  0
VERTEX
  5
699
330
697
100
AcDbEntity
  8
1
100
AcDbVertex
100
AcDb2dVertex
 10
1.317913385826771
 20
3.945866141732283
 30
0.0
  0
VERTEX
  5
69A
330
697
100
AcDbEntity
  8
1
100
AcDbVertex
100
AcDb2dVertex
 10
1.327755905511811
 20
3.945866141732283
 30
0.0
  0
VERTEX
  5
69B
330
697
100
AcDbEntity
  8
1
100
AcDbVertex
100
AcDb2dVertex
 10
1.34251968503937
 20
3.945866141732283
 30
0.0
  0
VERTEX
  5
69C
330
697
100
AcDbEntity
  8
1
100
AcDbVertex
100
AcDb2dVertex
 10
1.361220472440944
 20
3.945866141732283
 30
0.0
  0
VERTEX
  5
69D
330
697
100
AcDbEntity
  8
1
100
AcDbVertex
100
AcDb2dVertex
 10
1.383858267716535
 20
3.945866141732283
 30
0.0
  0
VERTEX
  5
69E
330
697
100
AcDbEntity
  8
1
100
AcDbVertex
100
AcDb2dVertex
 10
1.407480314960629
 20
3.945866141732283
 30
0.0
  0
SEQEND
  5
69F
330
697
100
AcDbEntity
  8
1
  0
POLYLINE
  5
6A0
330
1F
100
AcDbEntity
  8
1
100
AcDb2dPolyline
 66
     1
 10
0.0
 20
0.0
 30
0.0
  0
VERTEX
  5
6A1
330
6A0
100
AcDbEntity
  8
1
100
AcDbVertex
100
AcDb2dVertex
 10
2.784448818897637
 20
3.945866141732283
 30
0.0
  0
VERTEX
  5
6A2
330
6A0
100
AcDbEntity
  8
1
100
AcDbVertex
100
AcDb2dVertex
 10
2.808070866141732
 20
3.945866141732283
 30
0.0
  0
VERTEX
  5
6A3
330
6A0
100
AcDbEntity
  8
1
100
AcDbVertex
100
AcDb2dVertex
 10
2.830708661417322
 20
3.945866141732283
 30
0.0
  0
VERTEX
  5
6A4
330
6A0
100
AcDbEntity
  8
1
100
AcDbVertex
100
AcDb2dVertex
 10
2.850393700787401
 20
3.945866141732283
 30
0.0
  0
VERTEX
  5
6A5
330
6A0
100
AcDbEntity
  8
1
100
AcDbVertex
100
AcDb2dVertex
 10
2.86515748031496
 20
3.945866141732283
 30
0.0
  0
VERTEX
  5
6A6
330
6A0
100
AcDbEntity
  8
1
100
AcDbVertex
100
AcDb2dVertex
 10
2.874015748031495
 20
3.945866141732283
 30
0.0
  0
VERTEX
  5
6A7
330
6A0
100
AcDbEntity
  8
1
100
AcDbVertex
100
AcDb2dVertex
 10
2.876968503937007
 20
3.945866141732283
 30
0.0
  0
SEQEND
  5
6A8
330
6A0
100
AcDbEntity
  8
1
  0
POLYLINE
  5
6A9
330
1F
100
AcDbEntity
  8
1
100
AcDb2dPolyline
 66
     1
 10
0.0
 20
0.0
 30
0.0
  0
VERTEX
  5
6AA
330
6A9
100
AcDbEntity
  8
1
100
AcDbVertex
100
AcDb2dVertex
 10
2.876968503937007
 20
3.367125984251968
 30
0.0
  0
VERTEX
  5
6AB
330
6A9
100
AcDbEntity
  8
1
100
AcDbVertex
100
AcDb2dVertex
 10
2.873031496062992
 20
3.38779527559055
 30
0.0
  0
VERTEX
  5
6AC
330
6A9
100
AcDbEntity
  8
1
100
AcDbVertex
100
AcDb2dVertex
 10
2.859251968503937
 20
3.405511811023622
 30
0.0
  0
VERTEX
  5
6AD
330
6A9
100
AcDbEntity
  8
1
100
AcDbVertex
100
AcDb2dVertex
 10
2.838582677165354
 20
3.419291338582677
 30
0.0
  0
VERTEX
  5
6AE
330
6A9
100
AcDbEntity
  8
1
100
AcDbVertex
100
AcDb2dVertex
 10
2.812992125984251
 20
3.429133858267716
 30
0.0
  0
VERTEX
  5
6AF
330
6A9
100
AcDbEntity
  8
1
100
AcDbVertex
100
AcDb2dVertex
 10
2.784448818897637
 20
3.432086614173228
 30
0.0
  0
SEQEND
  5
6B0
330
6A9
100
AcDbEntity
  8
1
  0
POLYLINE
  5
6B1
330
1F
100
AcDbEntity
  8
1
100
AcDb2dPolyline
 66
     1
 10
0.0
 20
0.0
 30
0.0
  0
VERTEX
  5
6B2
330
6B1
100
AcDbEntity
  8
1
100
AcDbVertex
100
AcDb2dVertex
 10
2.784448818897637
 20
3.301181102362204
 30
0.0
  0
VERTEX
  5
6B3
330
6B1
100
AcDbEntity
  8
1
100
AcDbVertex
100
AcDb2dVertex
 10
2.812992125984251
 20
3.30511811023622
 30
0.0
  0
VERTEX
  5
6B4
330
6B1
100
AcDbEntity
  8
1
100
AcDbVertex
100
AcDb2dVertex
 10
2.838582677165354
 20
3.313976377952756
 30
0.0
  0
VERTEX
  5
6B5
330
6B1
100
AcDbEntity
  8
1
100
AcDbVertex
100
AcDb2dVertex
 10
2.859251968503937
 20
3.328740157480314
 30
0.0
  0
VERTEX
  5
6B6
330
6B1
100
AcDbEntity
  8
1
100
AcDbVertex
100
AcDb2dVertex
 10
2.873031496062992
 20
3.347440944881889
 30
0.0
  0
VERTEX
  5
6B7
330
6B1
100
AcDbEntity
  8
1
100
AcDbVertex
100
AcDb2dVertex
 10
2.876968503937007
 20
3.367125984251968
 30
0.0
  0
SEQEND
  5
6B8
330
6B1
100
AcDbEntity
  8
1
  0
POLYLINE
  5
6B9
330
1F
100
AcDbEntity
  8
1
100
AcDb2dPolyline
 66
     1
 10
0.0
 20
0.0
 30
0.0
  0
VERTEX
  5
6BA
330
6B9
100
AcDbEntity
  8
1
100
AcDbVertex
100
AcDb2dVertex
 10
2.784448818897637
 20
3.301181102362204
 30
0.0
  0
VERTEX
  5
6BB
330
6B9
100
AcDbEntity
  8
1
100
AcDbVertex
100
AcDb2dVertex
 10
2.784448818897637
 20
3.324803149606299
 30
0.0
  0
VERTEX
  5
6BC
330
6B9
100
AcDbEntity
  8
1
100
AcDbVertex
100
AcDb2dVertex
 10
2.784448818897637
 20
3.352362204724409
 30
0.0
  0
VERTEX
  5
6BD
330
6B9
100
AcDbEntity
  8
1
100
AcDbVertex
100
AcDb2dVertex
 10
2.784448818897637
 20
3.380905511811023
 30
0.0
  0
VERTEX
  5
6BE
330
6B9
100
AcDbEntity
  8
1
100
AcDbVertex
100
AcDb2dVertex
 10
2.784448818897637
 20
3.408464566929133
 30
0.0
  0
VERTEX
  5
6BF
330
6B9
100
AcDbEntity
  8
1
100
AcDbVertex
100
AcDb2dVertex
 10
2.784448818897637
 20
3.432086614173228
 30
0.0
  0
SEQEND
  5
6C0
330
6B9
100
AcDbEntity
  8
1
  0
POLYLINE
  5
6C1
330
1F
100
AcDbEntity
  8
1
100
AcDb2dPolyline
 66
     1
 10
0.0
 20
0.0
 30
0.0
  0
VERTEX
  5
6C2
330
6C1
100
AcDbEntity
  8
1
100
AcDbVertex
100
AcDb2dVertex
 10
1.407480314960629
 20
3.301181102362204
 30
0.0
  0
VERTEX
  5
6C3
330
6C1
100
AcDbEntity
  8
1
100
AcDbVertex
100
AcDb2dVertex
 10
1.407480314960629
 20
3.324803149606299
 30
0.0
  0
VERTEX
  5
6C4
330
6C1
100
AcDbEntity
  8
1
100
AcDbVertex
100
AcDb2dVertex
 10
1.407480314960629
 20
3.352362204724409
 30
0.0
  0
VERTEX
  5
6C5
330
6C1
100
AcDbEntity
  8
1
100
AcDbVertex
100
AcDb2dVertex
 10
1.407480314960629
 20
3.380905511811023
 30
0.0
  0
VERTEX
  5
6C6
330
6C1
100
AcDbEntity
  8
1
100
AcDbVertex
100
AcDb2dVertex
 10
1.407480314960629
 20
3.408464566929133
 30
0.0
  0
VERTEX
  5
6C7
330
6C1
100
AcDbEntity
  8
1
100
AcDbVertex
100
AcDb2dVertex
 10
1.407480314960629
 20
3.432086614173228
 30
0.0
  0
SEQEND
  5
6C8
330
6C1
100
AcDbEntity
  8
1
  0
POLYLINE
  5
6C9
330
1F
100
AcDbEntity
  8
1
100
AcDb2dPolyline
 66
     1
 10
0.0
 20
0.0
 30
0.0
  0
VERTEX
  5
6CA
330
6C9
100
AcDbEntity
  8
1
100
AcDbVertex
100
AcDb2dVertex
 10
1.314960629921259
 20
3.367125984251968
 30
0.0
  0
VERTEX
  5
6CB
330
6C9
100
AcDbEntity
  8
1
100
AcDbVertex
100
AcDb2dVertex
 10
1.319881889763779
 20
3.347440944881889
 30
0.0
  0
VERTEX
  5
6CC
330
6C9
100
AcDbEntity
  8
1
100
AcDbVertex
100
AcDb2dVertex
 10
1.33267716535433
 20
3.328740157480314
 30
0.0
  0
VERTEX
  5
6CD
330
6C9
100
AcDbEntity
  8
1
100
AcDbVertex
100
AcDb2dVertex
 10
1.353346456692913
 20
3.313976377952756
 30
0.0
  0
VERTEX
  5
6CE
330
6C9
100
AcDbEntity
  8
1
100
AcDbVertex
100
AcDb2dVertex
 10
1.378937007874015
 20
3.30511811023622
 30
0.0
  0
VERTEX
  5
6CF
330
6C9
100
AcDbEntity
  8
1
100
AcDbVertex
100
AcDb2dVertex
 10
1.407480314960629
 20
3.301181102362204
 30
0.0
  0
SEQEND
  5
6D0
330
6C9
100
AcDbEntity
  8
1
  0
POLYLINE
  5
6D1
330
1F
100
AcDbEntity
  8
1
100
AcDb2dPolyline
 66
     1
 10
0.0
 20
0.0
 30
0.0
  0
VERTEX
  5
6D2
330
6D1
100
AcDbEntity
  8
1
100
AcDbVertex
100
AcDb2dVertex
 10
1.314960629921259
 20
3.367125984251968
 30
0.0
  0
VERTEX
  5
6D3
330
6D1
100
AcDbEntity
  8
1
100
AcDbVertex
100
AcDb2dVertex
 10
1.319881889763779
 20
3.38779527559055
 30
0.0
  0
VERTEX
  5
6D4
330
6D1
100
AcDbEntity
  8
1
100
AcDbVertex
100
AcDb2dVertex
 10
1.33267716535433
 20
3.405511811023622
 30
0.0
  0
VERTEX
  5
6D5
330
6D1
100
AcDbEntity
  8
1
100
AcDbVertex
100
AcDb2dVertex
 10
1.353346456692913
 20
3.419291338582677
 30
0.0
  0
VERTEX
  5
6D6
330
6D1
100
AcDbEntity
  8
1
100
AcDbVertex
100
AcDb2dVertex
 10
1.378937007874015
 20
3.429133858267716
 30
0.0
  0
VERTEX
  5
6D7
330
6D1
100
AcDbEntity
  8
1
100
AcDbVertex
100
AcDb2dVertex
 10
1.407480314960629
 20
3.432086614173228
 30
0.0
  0
SEQEND
  5
6D8
330
6D1
100
AcDbEntity
  8
1
  0
ENDSEC
  0
SECTION
  2
OBJECTS
  0
DICTIONARY
  5
C
330
0
100
AcDbDictionary
281
     1
  3
ACAD_COLOR
350
6E0
  3
ACAD_GROUP
350
D
  3
ACAD_IMAGE_DICT
350
5A
  3
ACAD_LAYOUT
350
1A
  3
ACAD_MATERIAL
350
6DC
  3
ACAD_MLEADERSTYLE
350
6DA
  3
ACAD_MLINESTYLE
350
17
  3
ACAD_PLOTSETTINGS
350
19
  3
ACAD_PLOTSTYLENAME
350
E
  3
ACAD_TABLESTYLE
350
6D9
  3
ACAD_VISUALSTYLE
350
2A
  3
AcDbVariableDictionary
350
700
  0
DICTIONARY
  5
6E0
102
{ACAD_REACTORS
330
C
102
}
330
C
100
AcDbDictionary
281
     1
  0
DICTIONARY
  5
D
102
{ACAD_REACTORS
330
C
102
}
330
C
100
AcDbDictionary
281
     1
  0
DICTIONARY
  5
5A
102
{ACAD_REACTORS
330
C
102
}
330
C
100
AcDbDictionary
281
     1
  0
DICTIONARY
  5
1A
102
{ACAD_REACTORS
330
C
102
}
330
C
100
AcDbDictionary
281
     1
  3
Layout1
350
1E
  3
Layout2
350
26
  3
Model
350
22
  0
DICTIONARY
  5
6DC
102
{ACAD_REACTORS
330
C
102
}
330
C
100
AcDbDictionary
281
     1
  3
ByBlock
350
6DE
  3
ByLayer
350
6DD
  3
Global
350
6DF
  0
DICTIONARY
  5
6DA
102
{ACAD_REACTORS
330
C
102
}
330
C
100
AcDbDictionary
281
     1
  0
DICTIONARY
  5
17
102
{ACAD_REACTORS
330
C
102
}
330
C
100
AcDbDictionary
281
     1
  3
Standard
350
18
  0
DICTIONARY
  5
19
102
{ACAD_REACTORS
330
C
102
}
330
C
100
AcDbDictionary
281
     1
  0
ACDBDICTIONARYWDFLT
  5
E
102
{ACAD_REACTORS
330
C
102
}
330
C
100
AcDbDictionary
281
     1
  3
Normal
350
F
100
AcDbDictionaryWithDefault
340
F
  0
DICTIONARY
  5
6D9
102
{ACAD_REACTORS
330
C
102
}
330
C
100
AcDbDictionary
281
     1
  3
Standard
350
6E1
  0
DICTIONARY
  5
2A
102
{ACAD_REACTORS
330
C
102
}
330
C
100
AcDbDictionary
281
     1
  3
2dWireframe
350
2F
  3
3D Hidden
350
31
  3
3dWireframe
350
30
  3
Basic
350
32
  3
Brighten
350
36
  3
ColorChange
350
3A
  3
Conceptual
350
34
  3
Dim
350
35
  3
Facepattern
350
39
  3
Flat
350
2B
  3
FlatWithEdges
350
2C
  3
Gouraud
350
2D
  3
GouraudWithEdges
350
2E
  3
Linepattern
350
38
  3
Realistic
350
33
  3
Thicken
350
37
  0
DICTIONARY
  5
700
102
{ACAD_REACTORS
330
C
102
}
330
C
100
AcDbDictionary
281
     1
  3
CTABLESTYLE
350
701
  0
LAYOUT
  5
1E
102
{ACAD_REACTORS
330
1A
102
}
330
1A
100
AcDbPlotSettings
  1

  2
none_device
  4

  6

 40
0.0
 41
0.0
 42
0.0
 43
0.0
 44
0.0
 45
0.0
 46
0.0
 47
0.0
 48
0.0
 49
0.0
140
0.0
141
0.0
142
1.0
143
1.0
 70
   688
 72
     0
 73
     0
 74
     5
  7

 75
    16
147
1.0
 76
     0
 77
     2
 78
   300
148
0.0
149
0.0
100
AcDbLayout
  1
Layout1
 70
     1
 71
     1
 10
0.0
 20
0.0
 11
12.0
 21
9.0
 12
0.0
 22
0.0
 32
0.0
 14
1.000000000000000E+20
 24
1.000000000000000E+20
 34
1.000000000000000E+20
 15
-1.000000000000000E+20
 25
-1.000000000000000E+20
 35
-1.000000000000000E+20
146
0.0
 13
0.0
 23
0.0
 33
0.0
 16
1.0
 26
0.0
 36
0.0
 17
0.0
 27
1.0
 37
0.0
 76
     0
330
1B
  0
LAYOUT
  5
26
102
{ACAD_REACTORS
330
1A
102
}
330
1A
100
AcDbPlotSettings
  1

  2
none_device
  4

  6

 40
0.0
 41
0.0
 42
0.0
 43
0.0
 44
0.0
 45
0.0
 46
0.0
 47
0.0
 48
0.0
 49
0.0
140
0.0
141
0.0
142
1.0
143
1.0
 70
   688
 72
     0
 73
     0
 74
     5
  7

 75
    16
147
1.0
 76
     0
 77
     2
 78
   300
148
0.0
149
0.0
100
AcDbLayout
  1
Layout2
 70
     1
 71
     2
 10
0.0
 20
0.0
 11
0.0
 21
0.0
 12
0.0
 22
0.0
 32
0.0
 14
0.0
 24
0.0
 34
0.0
 15
0.0
 25
0.0
 35
0.0
146
0.0
 13
0.0
 23
0.0
 33
0.0
 16
1.0
 26
0.0
 36
0.0
 17
0.0
 27
1.0
 37
0.0
 76
     0
330
23
  0
LAYOUT
  5
22
102
{ACAD_REACTORS
330
1A
102
}
330
1A
100
AcDbPlotSettings
  1

  2
none_device
  4

  6

 40
0.0
 41
0.0
 42
0.0
 43
0.0
 44
0.0
 45
0.0
 46
0.0
 47
0.0
 48
0.0
 49
0.0
140
0.0
141
0.0
142
1.0
143
1.0
 70
  1712
 72
     0
 73
     0
 74
     0
  7

 75
     0
147
1.0
 76
     0
 77
     2
 78
   300
148
0.0
149
0.0
100
AcDbLayout
  1
Model
 70
     1
 71
     0
 10
0.0
 20
0.0
 11
12.0
 21
9.0
 12
0.0
 22
0.0
 32
0.0
 14
1.000000000000000E+20
 24
1.000000000000000E+20
 34
1.000000000000000E+20
 15
-1.000000000000000E+20
 25
-1.000000000000000E+20
 35
-1.000000000000000E+20
146
0.0
 13
0.0
 23
0.0
 33
0.0
 16
1.0
 26
0.0
 36
0.0
 17
0.0
 27
1.0
 37
0.0
 76
     0
330
1F
331
29
  0
MATERIAL
  5
6DE
102
{ACAD_XDICTIONARY
360
704
102
}
102
{ACAD_REACTORS
330
6DC
102
}
330
6DC
100
AcDbMaterial
  1
ByBlock
  0
MATERIAL
  5
6DD
102
{ACAD_XDICTIONARY
360
702
102
}
102
{ACAD_REACTORS
330
6DC
102
}
330
6DC
100
AcDbMaterial
  1
ByLayer
  0
MATERIAL
  5
6DF
102
{ACAD_XDICTIONARY
360
706
102
}
102
{ACAD_REACTORS
330
6DC
102
}
330
6DC
100
AcDbMaterial
  1
Global
  0
MLINESTYLE
  5
18
102
{ACAD_REACTORS
330
17
102
}
330
17
100
AcDbMlineStyle
  2
STANDARD
 70
     0
  3

 62
   256
 51
90.0
 52
90.0
 71
     2
 49
0.5
 62
   256
  6
BYLAYER
 49
-0.5
 62
   256
  6
BYLAYER
  0
ACDBPLACEHOLDER
  5
F
102
{ACAD_REACTORS
330
E
102
}
330
E
  0
TABLESTYLE
  5
6E1
102
{ACAD_XDICTIONARY
360
708
102
}
102
{ACAD_REACTORS
330
6D9
102
}
330
6D9
100
AcDbTableStyle
  3
Standard
 70
     0
 71
     0
 40
0.06
 41
0.06
280
     0
281
     0
  7
Standard
140
0.18
170
     2
 62
     0
 63
     7
283
     0
274
    -2
284
     1
 64
     0
275
    -2
285
     1
 65
     0
276
    -2
286
     1
 66
     0
277
    -2
287
     1
 67
     0
278
    -2
288
     1
 68
     0
279
    -2
289
     1
 69
     0
  7
Standard
140
0.25
170
     5
 62
     0
 63
     7
283
     0
274
    -2
284
     1
 64
     0
275
    -2
285
     1
 65
     0
276
    -2
286
     1
 66
     0
277
    -2
287
     1
 67
     0
278
    -2
288
     1
 68
     0
279
    -2
289
     1
 69
     0
  7
Standard
140
0.18
170
     5
 62
     0
 63
     7
283
     0
274
    -2
284
     1
 64
     0
275
    -2
285
     1
 65
     0
276
    -2
286
     1
 66
     0
277
    -2
287
     1
 67
     0
278
    -2
288
     1
 68
     0
279
    -2
289
     1
 69
     0
  0
VISUALSTYLE
  5
2F
102
{ACAD_REACTORS
330
2A
102
}
330
2A
100
AcDbVisualStyle
  2
2dWireframe
 70
     4
 71
     0
 72
     2
 73
     0
 90
        0
 40
-0.6
 41
-30.0
 62
     5
 63
     7
 74
     1
 91
        4
 64
     7
 65
   257
 75
     1
175
     1
 42
1.0
 92
        0
 66
   257
 43
1.0
 76
     1
 77
     6
 78
     2
 67
     7
 79
     5
170
     0
171
     0
290
     0
174
     0
 93
        1
 44
0.0
173
     0
291
     0
 45
0.0
1001
ACAD
1000
AcDbSavedByObjectVersion
1070
     0
  0
VISUALSTYLE
  5
31
102
{ACAD_REACTORS
330
2A
102
}
330
2A
100
AcDbVisualStyle
  2
3D Hidden
 70
     6
 71
     1
 72
     2
 73
     2
 90
        0
 40
-0.6
 41
-30.0
 62
     5
 63
     7
 74
     2
 91
        2
 64
     7
 65
   257
 75
     2
175
     1
 42
40.0
 92
        0
 66
   257
 43
1.0
 76
     1
 77
     6
 78
     2
 67
     7
 79
     3
170
     0
171
     0
290
     0
174
     0
 93
        1
 44
0.0
173
     0
291
     0
 45
0.0
1001
ACAD
1000
AcDbSavedByObjectVersion
1070
     0
  0
VISUALSTYLE
  5
30
102
{ACAD_REACTORS
330
2A
102
}
330
2A
100
AcDbVisualStyle
  2
3dWireframe
 70
     5
 71
     0
 72
     2
 73
     0
 90
        0
 40
-0.6
 41
-30.0
 62
     5
 63
     7
 74
     1
 91
        4
 64
     7
 65
   257
 75
     1
175
     1
 42
1.0
 92
        0
 66
   257
 43
1.0
 76
     1
 77
     6
 78
     2
 67
     7
 79
     5
170
     0
171
     0
290
     0
174
     0
 93
        1
 44
0.0
173
     0
291
     0
 45
0.0
1001
ACAD
1000
AcDbSavedByObjectVersion
1070
     0
  0
VISUALSTYLE
  5
32
102
{ACAD_REACTORS
330
2A
102
}
330
2A
100
AcDbVisualStyle
  2
Basic
 70
     7
 71
     1
 72
     0
 73
     1
 90
        0
 40
-0.6
 41
-30.0
 62
     5
 63
     7
 74
     0
 91
        4
 64
     7
 65
   257
 75
     1
175
     1
 42
1.0
 92
        8
 66
     7
 43
1.0
 76
     1
 77
     6
 78
     2
 67
     7
 79
     5
170
     0
171
     0
290
     0
174
     0
 93
        1
 44
0.0
173
     0
291
     1
 45
0.0
1001
ACAD
1000
AcDbSavedByObjectVersion
1070
     0
  0
VISUALSTYLE
  5
36
102
{ACAD_REACTORS
330
2A
102
}
330
2A
100
AcDbVisualStyle
  2
Brighten
 70
    12
 71
     2
 72
     2
 73
     0
 90
        0
 40
-0.6
 41
-30.0
 62
     5
 63
     7
 74
     1
 91
        4
 64
     7
 65
   257
 75
     1
175
     1
 42
1.0
 92
        8
 66
     7
 43
1.0
 76
     1
 77
     6
 78
     2
 67
     7
 79
     5
170
     0
171
     0
290
     0
174
     0
 93
        1
 44
50.0
173
     0
291
     1
 45
0.0
1001
ACAD
1000
AcDbSavedByObjectVersion
1070
     0
  0
VISUALSTYLE
  5
3A
102
{ACAD_REACTORS
330
2A
102
}
330
2A
100
AcDbVisualStyle
  2
ColorChange
 70
    16
 71
     2
 72
     2
 73
     3
 90
        0
 40
-0.6
 41
-30.0
 62
     5
 63
     8
 74
     1
 91
        4
 64
     7
 65
   257
 75
     1
175
     1
 42
1.0
 92
        8
 66
     8
 43
1.0
 76
     1
 77
     6
 78
     2
 67
     7
 79
     5
170
     0
171
     0
290
     0
174
     0
 93
        1
 44
0.0
173
     0
291
     1
 45
0.0
1001
ACAD
1000
AcDbSavedByObjectVersion
1070
     0
  0
VISUALSTYLE
  5
34
102
{ACAD_REACTORS
330
2A
102
}
330
2A
100
AcDbVisualStyle
  2
Conceptual
 70
     9
 71
     3
 72
     2
 73
     0
 90
        0
 40
-0.6
 41
-30.0
 62
     5
 63
     7
 74
     2
 91
        2
 64
     7
 65
   257
 75
     1
175
     1
 42
40.0
 92
        8
 66
     7
 43
1.0
 76
     1
 77
     6
 78
     2
 67
     7
 79
     3
170
     0
171
     0
290
     0
174
     0
 93
        1
 44
0.0
173
     0
291
     0
 45
0.0
1001
ACAD
1000
AcDbSavedByObjectVersion
1070
     0
  0
VISUALSTYLE
  5
35
102
{ACAD_REACTORS
330
2A
102
}
330
2A
100
AcDbVisualStyle
  2
Dim
 70
    11
 71
     2
 72
     2
 73
     0
 90
        0
 40
-0.6
 41
-30.0
 62
     5
 63
     7
 74
     1
 91
        4
 64
     7
 65
   257
 75
     1
175
     1
 42
1.0
 92
        8
 66
     7
 43
1.0
 76
     1
 77
     6
 78
     2
 67
     7
 79
     5
170
     0
171
     0
290
     0
174
     0
 93
        1
 44
-50.0
173
     0
291
     1
 45
0.0
1001
ACAD
1000
AcDbSavedByObjectVersion
1070
     0
  0
VISUALSTYLE
  5
39
102
{ACAD_REACTORS
330
2A
102
}
330
2A
100
AcDbVisualStyle
  2
Facepattern
 70
    15
 71
     2
 72
     2
 73
     0
 90
        0
 40
-0.6
 41
-30.0
 62
     5
 63
     7
 74
     1
 91
        4
 64
     7
 65
   257
 75
     1
175
     1
 42
1.0
 92
        8
 66
     7
 43
1.0
 76
     1
 77
     6
 78
     2
 67
     7
 79
     5
170
     0
171
     0
290
     0
174
     0
 93
        1
 44
0.0
173
     0
291
     1
 45
0.0
1001
ACAD
1000
AcDbSavedByObjectVersion
1070
     0
  0
VISUALSTYLE
  5
2B
102
{ACAD_REACTORS
330
2A
102
}
330
2A
100
AcDbVisualStyle
  2
Flat
 70
     0
 71
     2
 72
     1
 73
     1
 90
        2
 40
-0.6
 41
30.0
 62
     5
 63
     7
 74
     0
 91
        4
 64
     7
 65
   257
 75
     1
175
     1
 42
1.0
 92
        8
 66
     7
 43
1.0
 76
     1
 77
     6
 78
     2
 67
     7
 79
     5
170
     0
171
     0
290
     0
174
     0
 93
       13
 44
0.0
173
     0
291
     1
 45
0.0
1001
ACAD
1000
AcDbSavedByObjectVersion
1070
     0
  0
VISUALSTYLE
  5
2C
102
{ACAD_REACTORS
330
2A
102
}
330
2A
100
AcDbVisualStyle
  2
FlatWithEdges
 70
     1
 71
     2
 72
     1
 73
     1
 90
        2
 40
-0.6
 41
30.0
 62
     5
 63
     7
 74
     1
 91
        4
 64
     7
 65
   257
 75
     1
175
     1
 42
1.0
 92
        0
 66
   257
 43
1.0
 76
     1
 77
     6
 78
     2
 67
     7
 79
     5
170
     0
171
     0
290
     0
174
     0
 93
       13
 44
0.0
173
     0
291
     1
 45
0.0
1001
ACAD
1000
AcDbSavedByObjectVersion
1070
     0
  0
VISUALSTYLE
  5
2D
102
{ACAD_REACTORS
330
2A
102
}
330
2A
100
AcDbVisualStyle
  2
Gouraud
 70
     2
 71
     2
 72
     2
 73
     1
 90
        2
 40
-0.6
 41
30.0
 62
     5
 63
     7
 74
     0
 91
        4
 64
     7
 65
   257
 75
     1
175
     1
 42
1.0
 92
        0
 66
     7
 43
1.0
 76
     1
 77
     6
 78
     2
 67
     7
 79
     5
170
     0
171
     0
290
     0
174
     0
 93
       13
 44
0.0
173
     0
291
     1
 45
0.0
1001
ACAD
1000
AcDbSavedByObjectVersion
1070
     0
  0
VISUALSTYLE
  5
2E
102
{ACAD_REACTORS
330
2A
102
}
330
2A
100
AcDbVisualStyle
  2
GouraudWithEdges
 70
     3
 71
     2
 72
     2
 73
     1
 90
        2
 40
-0.6
 41
30.0
 62
     5
 63
     7
 74
     1
 91
        4
 64
     7
 65
   257
 75
     1
175
     1
 42
1.0
 92
        0
 66
   257
 43
1.0
 76
     1
 77
     6
 78
     2
 67
     7
 79
     5
170
     0
171
     0
290
     0
174
     0
 93
       13
 44
0.0
173
     0
291
     1
 45
0.0
1001
ACAD
1000
AcDbSavedByObjectVersion
1070
     0
  0
VISUALSTYLE
  5
38
102
{ACAD_REACTORS
330
2A
102
}
330
2A
100
AcDbVisualStyle
  2
Linepattern
 70
    14
 71
     2
 72
     2
 73
     0
 90
        0
 40
-0.6
 41
-30.0
 62
     5
 63
     7
 74
     1
 91
        4
 64
     7
 65
   257
 75
     7
175
     7
 42
1.0
 92
        8
 66
     7
 43
1.0
 76
     1
 77
     6
 78
     2
 67
     7
 79
     5
170
     0
171
     0
290
     0
174
     0
 93
        1
 44
0.0
173
     0
291
     1
 45
0.0
1001
ACAD
1000
AcDbSavedByObjectVersion
1070
     0
  0
VISUALSTYLE
  5
33
102
{ACAD_REACTORS
330
2A
102
}
330
2A
100
AcDbVisualStyle
  2
Realistic
 70
     8
 71
     2
 72
     2
 73
     0
 90
        0
 40
-0.6
 41
-30.0
 62
     5
 63
     7
 74
     1
 91
        0
 64
     7
 65
   257
 75
     1
175
     1
 42
1.0
 92
        8
 66
     8
 43
1.0
 76
     1
 77
     6
 78
     2
 67
     7
 79
     5
170
     0
171
     0
290
     0
174
     0
 93
       13
 44
0.0
173
     0
291
     0
 45
0.0
1001
ACAD
1000
AcDbSavedByObjectVersion
1070
     0
  0
VISUALSTYLE
  5
37
102
{ACAD_REACTORS
330
2A
102
}
330
2A
100
AcDbVisualStyle
  2
Thicken
 70
    13
 71
     2
 72
     2
 73
     0
 90
        0
 40
-0.6
 41
-30.0
 62
     5
 63
     7
 74
     1
 91
        4
 64
     7
 65
   257
 75
     1
175
     1
 42
1.0
 92
       12
 66
     7
 43
1.0
 76
     1
 77
     6
 78
     2
 67
     7
 79
     5
170
     0
171
     0
290
     0
174
     0
 93
        1
 44
0.0
173
     0
291
     1
 45
0.0
1001
ACAD
1000
AcDbSavedByObjectVersion
1070
     0
  0
DICTIONARYVAR
  5
701
102
{ACAD_REACTORS
330
700
102
}
330
700
100
DictionaryVariables
280
     0
  1
STANDARD
  0
DICTIONARY
  5
704
330
6DE
100
AcDbDictionary
280
     1
281
     1
  3
ACAD_XREC_ROUNDTRIP
360
705
  0
DICTIONARY
  5
702
330
6DD
100
AcDbDictionary
280
     1
281
     1
  3
ACAD_XREC_ROUNDTRIP
360
703
  0
DICTIONARY
  5
706
330
6DF
100
AcDbDictionary
280
     1
281
     1
  3
ACAD_XREC_ROUNDTRIP
360
707
  0
DICTIONARY
  5
708
330
6E1
100
AcDbDictionary
280
     1
281
     1
  3
ACAD_XREC_ROUNDTRIP
360
709
  0
XRECORD
  5
705
102
{ACAD_REACTORS
330
704
102
}
330
704
100
AcDbXrecord
280
     1
102
MATERIAL
148
0.0
149
0.0
149
0.0
 93
        0
 94
       63
282
     0
 72
     1
 77
     1
171
     1
175
     1
179
     1
273
     0
  0
XRECORD
  5
703
102
{ACAD_REACTORS
330
702
102
}
330
702
100
AcDbXrecord
280
     1
102
MATERIAL
148
0.0
149
0.0
149
0.0
 93
        0
 94
       63
282
     0
 72
     1
 77
     1
171
     1
175
     1
179
     1
273
     0
  0
XRECORD
  5
707
102
{ACAD_REACTORS
330
706
102
}
330
706
100
AcDbXrecord
280
     1
102
MATERIAL
148
0.0
149
0.0
149
0.0
 93
        0
 94
       63
282
     0
 72
     1
 77
     1
171
     1
175
     1
179
     1
273
     0
  0
XRECORD
  5
709
102
{ACAD_REACTORS
330
708
102
}
330
708
100
AcDbXrecord
280
     1
102
ACAD_ROUNDTRIP_PRE2007_TABLESTYLE
 90
      512
 91
        0
  1

 92
      512
 93
        0
  2

 94
      512
 95
        0
  3

  0
ENDSEC
  0
EOF
