  0
SECTION
  2
HEADER
  9
$ACADVER
  1
AC1021
  9
$ACADMAINTVER
 70
     1
  9
$DWGCODEPAGE
  3
ANSI_1252
  9
$LASTSAVEDBY
  1
JSP
  9
$INSBASE
 10
0.0
 20
0.0
 30
0.0
  9
$EXTMIN
 10
1.590820342291635
 20
4.44575503101311
 30
-0.0015258207003583
  9
$EXTMAX
 10
4.684387226454433
 20
6.312057512942768
 30
0.0000000349246037
  9
$LIMMIN
 10
0.0
 20
0.0
  9
$LIMMAX
 10
12.0
 20
9.0
  9
$ORTHOMODE
 70
     0
  9
$REGENMODE
 70
     1
  9
$FILLMODE
 70
     1
  9
$QTEXTMODE
 70
     0
  9
$MIRRTEXT
 70
     1
  9
$LTSCALE
 40
1.0
  9
$ATTMODE
 70
     1
  9
$TEXTSIZE
 40
0.2
  9
$TRACEWID
 40
0.05
  9
$TEXTSTYLE
  7
Standard
  9
$CLAYER
  8
0
  9
$CELTYPE
  6
ByLayer
  9
$CECOLOR
 62
   256
  9
$CELTSCALE
 40
1.0
  9
$DISPSILH
 70
     0
  9
$DIMSCALE
 40
1.0
  9
$DIMASZ
 40
0.18
  9
$DIMEXO
 40
0.0625
  9
$DIMDLI
 40
0.38
  9
$DIMRND
 40
0.0
  9
$DIMDLE
 40
0.0
  9
$DIMEXE
 40
0.18
  9
$DIMTP
 40
0.0
  9
$DIMTM
 40
0.0
  9
$DIMTXT
 40
0.18
  9
$DIMCEN
 40
0.09
  9
$DIMTSZ
 40
0.0
  9
$DIMTOL
 70
     0
  9
$DIMLIM
 70
     0
  9
$DIMTIH
 70
     1
  9
$DIMTOH
 70
     1
  9
$DIMSE1
 70
     0
  9
$DIMSE2
 70
     0
  9
$DIMTAD
 70
     0
  9
$DIMZIN
 70
     0
  9
$DIMBLK
  1

  9
$DIMASO
 70
     1
  9
$DIMSHO
 70
     1
  9
$DIMPOST
  1

  9
$DIMAPOST
  1

  9
$DIMALT
 70
     0
  9
$DIMALTD
 70
     2
  9
$DIMALTF
 40
25.4
  9
$DIMLFAC
 40
1.0
  9
$DIMTOFL
 70
     0
  9
$DIMTVP
 40
0.0
  9
$DIMTIX
 70
     0
  9
$DIMSOXD
 70
     0
  9
$DIMSAH
 70
     0
  9
$DIMBLK1
  1

  9
$DIMBLK2
  1

  9
$DIMSTYLE
  2
Standard
  9
$DIMCLRD
 70
     0
  9
$DIMCLRE
 70
     0
  9
$DIMCLRT
 70
     0
  9
$DIMTFAC
 40
1.0
  9
$DIMGAP
 40
0.09
  9
$DIMJUST
 70
     0
  9
$DIMSD1
 70
     0
  9
$DIMSD2
 70
     0
  9
$DIMTOLJ
 70
     1
  9
$DIMTZIN
 70
     0
  9
$DIMALTZ
 70
     0
  9
$DIMALTTZ
 70
     0
  9
$DIMUPT
 70
     0
  9
$DIMDEC
 70
     4
  9
$DIMTDEC
 70
     4
  9
$DIMALTU
 70
     2
  9
$DIMALTTD
 70
     2
  9
$DIMTXSTY
  7
Standard
  9
$DIMAUNIT
 70
     0
  9
$DIMADEC
 70
     0
  9
$DIMALTRND
 40
0.0
  9
$DIMAZIN
 70
     0
  9
$DIMDSEP
 70
    46
  9
$DIMATFIT
 70
     3
  9
$DIMFRAC
 70
     0
  9
$DIMLDRBLK
  1

  9
$DIMLUNIT
 70
     2
  9
$DIMLWD
 70
    -2
  9
$DIMLWE
 70
    -2
  9
$DIMTMOVE
 70
     0
  9
$DIMFXL
 40
1.0
  9
$DIMFXLON
 70
     0
  9
$DIMJOGANG
 40
0.7853981633974483
  9
$DIMTFILL
 70
     0
  9
$DIMTFILLCLR
 70
     0
  9
$DIMARCSYM
 70
     0
  9
$DIMLTYPE
  6

  9
$DIMLTEX1
  6

  9
$DIMLTEX2
  6

  9
$LUNITS
 70
     2
  9
$LUPREC
 70
     4
  9
$SKETCHINC
 40
0.1
  9
$FILLETRAD
 40
0.5
  9
$AUNITS
 70
     0
  9
$AUPREC
 70
     0
  9
$MENU
  1
.
  9
$ELEVATION
 40
0.0
  9
$PELEVATION
 40
0.0
  9
$THICKNESS
 40
0.0
  9
$LIMCHECK
 70
     0
  9
$CHAMFERA
 40
0.5
  9
$CHAMFERB
 40
0.5
  9
$CHAMFERC
 40
1.0
  9
$CHAMFERD
 40
0.0
  9
$SKPOLY
 70
     0
  9
$TDCREATE
 40
2455679.434111910
  9
$TDUCREATE
 40
2455679.642445243
  9
$TDUPDATE
 40
2455679.436799109
  9
$TDUUPDATE
 40
2455679.645132442
  9
$TDINDWG
 40
0.0016677199
  9
$TDUSRTIMER
 40
0.0016677199
  9
$USRTIMER
 70
     1
  9
$ANGBASE
 50
0.0
  9
$ANGDIR
 70
     0
  9
$PDMODE
 70
     0
  9
$PDSIZE
 40
0.0
  9
$PLINEWID
 40
0.0
  9
$SPLFRAME
 70
     0
  9
$SPLINETYPE
 70
     6
  9
$SPLINESEGS
 70
     8
  9
$HANDSEED
  5
2939
  9
$SURFTAB1
 70
     6
  9
$SURFTAB2
 70
     6
  9
$SURFTYPE
 70
     6
  9
$SURFU
 70
     6
  9
$SURFV
 70
     6
  9
$UCSBASE
  2

  9
$UCSNAME
  2

  9
$UCSORG
 10
0.0
 20
0.0
 30
0.0
  9
$UCSXDIR
 10
1.0
 20
0.0
 30
0.0
  9
$UCSYDIR
 10
0.0
 20
1.0
 30
0.0
  9
$UCSORTHOREF
  2

  9
$UCSORTHOVIEW
 70
     0
  9
$UCSORGTOP
 10
0.0
 20
0.0
 30
0.0
  9
$UCSORGBOTTOM
 10
0.0
 20
0.0
 30
0.0
  9
$UCSORGLEFT
 10
0.0
 20
0.0
 30
0.0
  9
$UCSORGRIGHT
 10
0.0
 20
0.0
 30
0.0
  9
$UCSORGFRONT
 10
0.0
 20
0.0
 30
0.0
  9
$UCSORGBACK
 10
0.0
 20
0.0
 30
0.0
  9
$PUCSBASE
  2

  9
$PUCSNAME
  2

  9
$PUCSORG
 10
0.0
 20
0.0
 30
0.0
  9
$PUCSXDIR
 10
1.0
 20
0.0
 30
0.0
  9
$PUCSYDIR
 10
0.0
 20
1.0
 30
0.0
  9
$PUCSORTHOREF
  2

  9
$PUCSORTHOVIEW
 70
     0
  9
$PUCSORGTOP
 10
0.0
 20
0.0
 30
0.0
  9
$PUCSORGBOTTOM
 10
0.0
 20
0.0
 30
0.0
  9
$PUCSORGLEFT
 10
0.0
 20
0.0
 30
0.0
  9
$PUCSORGRIGHT
 10
0.0
 20
0.0
 30
0.0
  9
$PUCSORGFRONT
 10
0.0
 20
0.0
 30
0.0
  9
$PUCSORGBACK
 10
0.0
 20
0.0
 30
0.0
  9
$USERI1
 70
     0
  9
$USERI2
 70
     0
  9
$USERI3
 70
     0
  9
$USERI4
 70
     0
  9
$USERI5
 70
     0
  9
$USERR1
 40
0.0
  9
$USERR2
 40
0.0
  9
$USERR3
 40
0.0
  9
$USERR4
 40
0.0
  9
$USERR5
 40
0.0
  9
$WORLDVIEW
 70
     1
  9
$SHADEDGE
 70
     3
  9
$SHADEDIF
 70
    70
  9
$TILEMODE
 70
     1
  9
$MAXACTVP
 70
    64
  9
$PINSBASE
 10
0.0
 20
0.0
 30
0.0
  9
$PLIMCHECK
 70
     0
  9
$PEXTMIN
 10
1.000000000000000E+20
 20
1.000000000000000E+20
 30
1.000000000000000E+20
  9
$PEXTMAX
 10
-1.000000000000000E+20
 20
-1.000000000000000E+20
 30
-1.000000000000000E+20
  9
$PLIMMIN
 10
0.0
 20
0.0
  9
$PLIMMAX
 10
12.0
 20
9.0
  9
$UNITMODE
 70
     0
  9
$VISRETAIN
 70
     1
  9
$PLINEGEN
 70
     0
  9
$PSLTSCALE
 70
     1
  9
$TREEDEPTH
 70
  3020
  9
$CMLSTYLE
  2
Standard
  9
$CMLJUST
 70
     0
  9
$CMLSCALE
 40
1.0
  9
$PROXYGRAPHICS
 70
     1
  9
$MEASUREMENT
 70
     0
  9
$CELWEIGHT
370
    -1
  9
$ENDCAPS
280
     0
  9
$JOINSTYLE
280
     0
  9
$LWDISPLAY
290
     0
  9
$INSUNITS
 70
     1
  9
$HYPERLINKBASE
  1

  9
$STYLESHEET
  1

  9
$XEDIT
290
     1
  9
$CEPSNTYPE
380
     0
  9
$PSTYLEMODE
290
     1
  9
$FINGERPRINTGUID
  2
{AF73A562-830B-498F-A100-EF7B767FA567}
  9
$VERSIONGUID
  2
{7A004770-FBEA-4BF2-8192-E78A40E37992}
  9
$EXTNAMES
290
     1
  9
$PSVPSCALE
 40
0.0
  9
$OLESTARTUP
290
     0
  9
$SORTENTS
280
   127
  9
$INDEXCTL
280
     0
  9
$HIDETEXT
280
     0
  9
$XCLIPFRAME
290
     0
  9
$HALOGAP
280
     0
  9
$OBSCOLOR
 70
   257
  9
$OBSLTYPE
280
     0
  9
$INTERSECTIONDISPLAY
280
     0
  9
$INTERSECTIONCOLOR
 70
   257
  9
$DIMASSOC
280
     1
  9
$PROJECTNAME
  1

  9
$CAMERADISPLAY
290
     0
  9
$LENSLENGTH
 40
50.0
  9
$CAMERAHEIGHT
 40
0.0
  9
$STEPSPERSEC
 40
2.0
  9
$STEPSIZE
 40
6.0
  9
$3DDWFPREC
 40
2.0
  9
$PSOLWIDTH
 40
0.25
  9
$PSOLHEIGHT
 40
4.0
  9
$LOFTANG1
 40
1.570796326794896
  9
$LOFTANG2
 40
1.570796326794896
  9
$LOFTMAG1
 40
0.0
  9
$LOFTMAG2
 40
0.0
  9
$LOFTPARAM
 70
     7
  9
$LOFTNORMALS
280
     1
  9
$LATITUDE
 40
37.795
  9
$LONGITUDE
 40
-122.394
  9
$NORTHDIRECTION
 40
0.0
  9
$TIMEZONE
 70
 -8000
  9
$LIGHTGLYPHDISPLAY
280
     1
  9
$TILEMODELIGHTSYNCH
280
     1
  9
$CMATERIAL
347
2930
  9
$SOLIDHIST
280
     1
  9
$SHOWHIST
280
     1
  9
$DWFFRAME
280
     2
  9
$DGNFRAME
280
     0
  9
$REALWORLDSCALE
290
     1
  9
$INTERFERECOLOR
 62
     1
  9
$INTERFEREOBJVS
345
33
  9
$INTERFEREVPVS
346
30
  9
$CSHADOW
280
     0
  9
$SHADOWPLANELOCATION
 40
0.0
  0
ENDSEC
  0
SECTION
  2
CLASSES
  0
CLASS
  1
ACDBDICTIONARYWDFLT
  2
AcDbDictionaryWithDefault
  3
ObjectDBX Classes
 90
        0
 91
        1
280
     0
281
     0
  0
CLASS
  1
VISUALSTYLE
  2
AcDbVisualStyle
  3
ObjectDBX Classes
 90
     4095
 91
       16
280
     0
281
     0
  0
CLASS
  1
MATERIAL
  2
AcDbMaterial
  3
ObjectDBX Classes
 90
     1024
 91
        3
280
     0
281
     0
  0
CLASS
  1
TABLESTYLE
  2
AcDbTableStyle
  3
ObjectDBX Classes
 90
     4095
 91
        1
280
     0
281
     0
  0
CLASS
  1
DICTIONARYVAR
  2
AcDbDictionaryVar
  3
ObjectDBX Classes
 90
        0
 91
        1
280
     0
281
     0
  0
ENDSEC
  0
SECTION
  2
TABLES
  0
TABLE
  2
VPORT
  5
8
330
0
100
AcDbSymbolTable
 70
     1
  0
VPORT
  5
29
330
8
100
AcDbSymbolTableRecord
100
AcDbViewportTableRecord
  2
*Active
 70
     0
 10
0.0
 20
0.0
 11
1.0
 21
1.0
 12
-2.362396215626965
 22
1.128906271977939
 13
0.0
 23
0.0
 14
0.5
 24
0.5
 15
0.5
 25
0.5
 16
0.0
 26
0.0
 36
1.0
 17
5.5
 27
4.25
 37
0.0
 40
1.879649102777784
 41
1.984486873508353
 42
50.0
 43
0.0
 44
0.0
 50
0.0
 51
0.0
 71
     0
 72
   100
 73
     1
 74
     3
 75
     0
 76
     0
 77
     0
 78
     0
281
     0
 65
     1
110
0.0
120
0.0
130
0.0
111
1.0
121
0.0
131
0.0
112
0.0
122
1.0
132
0.0
 79
     0
146
0.0
348
2F
 60
     3
 61
     5
292
     1
282
     1
141
0.0
142
0.0
 63
   250
421
  3355443
  0
ENDTAB
  0
TABLE
  2
LTYPE
  5
5
330
0
100
AcDbSymbolTable
 70
    25
  0
LTYPE
  5
14
330
5
100
AcDbSymbolTableRecord
100
AcDbLinetypeTableRecord
  2
ByBlock
 70
     0
  3

 72
    65
 73
     0
 40
0.0
  0
LTYPE
  5
15
330
5
100
AcDbSymbolTableRecord
100
AcDbLinetypeTableRecord
  2
ByLayer
 70
     0
  3

 72
    65
 73
     0
 40
0.0
  0
LTYPE
  5
16
330
5
100
AcDbSymbolTableRecord
100
AcDbLinetypeTableRecord
  2
Continuous
 70
     0
  3
Solid line
 72
    65
 73
     0
 40
0.0
  0
LTYPE
  5
42
330
5
100
AcDbSymbolTableRecord
100
AcDbLinetypeTableRecord
  2
Dashed
 70
     0
  3
__ __ __ __ __ __ __ 
 72
    65
 73
     2
 40
0.75
 49
0.5
 74
     0
 49
-0.25
 74
     0
  0
LTYPE
  5
43
330
5
100
AcDbSymbolTableRecord
100
AcDbLinetypeTableRecord
  2
Dashed2
 70
     0
  3
_ _ _ _ _ _ _ _ _ _ 
 72
    65
 73
     2
 40
0.375
 49
0.25
 74
     0
 49
-0.125
 74
     0
  0
LTYPE
  5
44
330
5
100
AcDbSymbolTableRecord
100
AcDbLinetypeTableRecord
  2
DashedX2
 70
     0
  3
____  ____  ____  
 72
    65
 73
     2
 40
1.5
 49
1.0
 74
     0
 49
-0.5
 74
     0
  0
LTYPE
  5
45
330
5
100
AcDbSymbolTableRecord
100
AcDbLinetypeTableRecord
  2
Border
 70
     0
  3
__ __ . __ __ . __ __ . __ __ . __ __ . __ __ .
 72
    65
 73
     6
 40
1.75
 49
0.5
 74
     0
 49
-0.25
 74
     0
 49
0.5
 74
     0
 49
-0.25
 74
     0
 49
0.5
 74
     0
 49
-0.25
 74
     0
  0
LTYPE
  5
46
330
5
100
AcDbSymbolTableRecord
100
AcDbLinetypeTableRecord
  2
Border2
 70
     0
  3
__.__.__.__.__.__.__.__.
 72
    65
 73
     6
 40
0.875
 49
0.25
 74
     0
 49
-0.125
 74
     0
 49
0.25
 74
     0
 49
-0.125
 74
     0
 49
0.25
 74
     0
 49
-0.125
 74
     0
  0
LTYPE
  5
47
330
5
100
AcDbSymbolTableRecord
100
AcDbLinetypeTableRecord
  2
BORDERX2
 70
     0
  3
____  ____  .  
 72
    65
 73
     6
 40
3.5
 49
1.0
 74
     0
 49
-0.5
 74
     0
 49
1.0
 74
     0
 49
-0.5
 74
     0
 49
1.0
 74
     0
 49
-0.5
 74
     0
  0
LTYPE
  5
48
330
5
100
AcDbSymbolTableRecord
100
AcDbLinetypeTableRecord
  2
Center
 70
     0
  3
____ _ ____ _ ____ _ 
 72
    65
 73
     4
 40
2.0
 49
1.25
 74
     0
 49
-0.25
 74
     0
 49
0.25
 74
     0
 49
-0.25
 74
     0
  0
LTYPE
  5
49
330
5
100
AcDbSymbolTableRecord
100
AcDbLinetypeTableRecord
  2
Center2
 70
     0
  3
____ _ ____ _ ____ _ 
 72
    65
 73
     4
 40
1.125
 49
0.75
 74
     0
 49
-0.125
 74
     0
 49
0.125
 74
     0
 49
-0.125
 74
     0
  0
LTYPE
  5
4A
330
5
100
AcDbSymbolTableRecord
100
AcDbLinetypeTableRecord
  2
CenterX2
 70
     0
  3
________  __  
 72
    65
 73
     4
 40
4.0
 49
2.5
 74
     0
 49
-0.5
 74
     0
 49
0.5
 74
     0
 49
-0.5
 74
     0
  0
LTYPE
  5
4B
330
5
100
AcDbSymbolTableRecord
100
AcDbLinetypeTableRecord
  2
DashDot
 70
     0
  3
__ . __ . __ . __ . 
 72
    65
 73
     4
 40
1.0
 49
0.5
 74
     0
 49
-0.25
 74
     0
 49
0.0
 74
     0
 49
-0.25
 74
     0
  0
LTYPE
  5
4C
330
5
100
AcDbSymbolTableRecord
100
AcDbLinetypeTableRecord
  2
DashDot2
 70
     0
  3
_._._._._._._._._.
 72
    65
 73
     4
 40
0.5
 49
0.25
 74
     0
 49
-0.125
 74
     0
 49
0.0
 74
     0
 49
-0.125
 74
     0
  0
LTYPE
  5
4D
330
5
100
AcDbSymbolTableRecord
100
AcDbLinetypeTableRecord
  2
DashDotX2
 70
     0
  3
____  .  ____  .  
 72
    65
 73
     4
 40
2.0
 49
1.0
 74
     0
 49
-0.5
 74
     0
 49
0.0
 74
     0
 49
-0.5
 74
     0
  0
LTYPE
  5
4E
330
5
100
AcDbSymbolTableRecord
100
AcDbLinetypeTableRecord
  2
Divide
 70
     0
  3
____ . . ____ . . 
 72
    65
 73
     6
 40
1.25
 49
0.5
 74
     0
 49
-0.25
 74
     0
 49
0.0
 74
     0
 49
-0.25
 74
     0
 49
0.0
 74
     0
 49
-0.25
 74
     0
  0
LTYPE
  5
4F
330
5
100
AcDbSymbolTableRecord
100
AcDbLinetypeTableRecord
  2
Divide2
 70
     0
  3
__..__..__..__..__..
 72
    65
 73
     6
 40
0.625
 49
0.25
 74
     0
 49
-0.125
 74
     0
 49
0.0
 74
     0
 49
-0.125
 74
     0
 49
0.0
 74
     0
 49
-0.125
 74
     0
  0
LTYPE
  5
50
330
5
100
AcDbSymbolTableRecord
100
AcDbLinetypeTableRecord
  2
DivideX2
 70
     0
  3
________  .  .  
 72
    65
 73
     6
 40
2.5
 49
1.0
 74
     0
 49
-0.5
 74
     0
 49
0.0
 74
     0
 49
-0.5
 74
     0
 49
0.0
 74
     0
 49
-0.5
 74
     0
  0
LTYPE
  5
51
330
5
100
AcDbSymbolTableRecord
100
AcDbLinetypeTableRecord
  2
Dot
 70
     0
  3
. . . . . . . . . 
 72
    65
 73
     2
 40
0.25
 49
0.0
 74
     0
 49
-0.25
 74
     0
  0
LTYPE
  5
52
330
5
100
AcDbSymbolTableRecord
100
AcDbLinetypeTableRecord
  2
Dot2
 70
     0
  3
..................
 72
    65
 73
     2
 40
0.125
 49
0.0
 74
     0
 49
-0.125
 74
     0
  0
LTYPE
  5
53
330
5
100
AcDbSymbolTableRecord
100
AcDbLinetypeTableRecord
  2
DotX2
 70
     0
  3
.  .  .  .  .  .  
 72
    65
 73
     2
 40
0.5
 49
0.0
 74
     0
 49
-0.5
 74
     0
  0
LTYPE
  5
54
330
5
100
AcDbSymbolTableRecord
100
AcDbLinetypeTableRecord
  2
Hidden
 70
     0
  3
__ __ __ __ __ __ 
 72
    65
 73
     2
 40
0.375
 49
0.25
 74
     0
 49
-0.125
 74
     0
  0
LTYPE
  5
55
330
5
100
AcDbSymbolTableRecord
100
AcDbLinetypeTableRecord
  2
Hidden2
 70
     0
  3
_ _ _ _ _ _ _ _ _ 
 72
    65
 73
     2
 40
0.1875
 49
0.125
 74
     0
 49
-0.0625
 74
     0
  0
LTYPE
  5
56
330
5
100
AcDbSymbolTableRecord
100
AcDbLinetypeTableRecord
  2
HiddenX2
 70
     0
  3
____ ____ ____ ____ 
 72
    65
 73
     2
 40
0.75
 49
0.5
 74
     0
 49
-0.25
 74
     0
  0
LTYPE
  5
57
330
5
100
AcDbSymbolTableRecord
100
AcDbLinetypeTableRecord
  2
Phantom
 70
     0
  3
______  __  __  
 72
    65
 73
     6
 40
2.5
 49
1.25
 74
     0
 49
-0.25
 74
     0
 49
0.25
 74
     0
 49
-0.25
 74
     0
 49
0.25
 74
     0
 49
-0.25
 74
     0
  0
LTYPE
  5
58
330
5
100
AcDbSymbolTableRecord
100
AcDbLinetypeTableRecord
  2
Phantom2
 70
     0
  3
___ _ _ ___ _ _ 
 72
    65
 73
     6
 40
1.25
 49
0.625
 74
     0
 49
-0.125
 74
     0
 49
0.125
 74
     0
 49
-0.125
 74
     0
 49
0.125
 74
     0
 49
-0.125
 74
     0
  0
LTYPE
  5
59
330
5
100
AcDbSymbolTableRecord
100
AcDbLinetypeTableRecord
  2
PhantomX2
 70
     0
  3
___ _ _ ___ _ _ 
 72
    65
 73
     6
 40
5.0
 49
2.5
 74
     0
 49
-0.5
 74
     0
 49
0.5
 74
     0
 49
-0.5
 74
     0
 49
0.5
 74
     0
 49
-0.5
 74
     0
  0
ENDTAB
  0
TABLE
  2
LAYER
  5
2
330
0
100
AcDbSymbolTable
 70
     8
  0
LAYER
  5
10
330
2
100
AcDbSymbolTableRecord
100
AcDbLayerTableRecord
  2
0
 70
     0
 62
     7
  6
Continuous
370
    -3
390
F
347
2932
  0
LAYER
  5
3B
330
2
100
AcDbSymbolTableRecord
100
AcDbLayerTableRecord
  2
1
 70
     0
 62
     7
  6
Continuous
370
    -3
390
F
347
2932
  0
LAYER
  5
3C
330
2
100
AcDbSymbolTableRecord
100
AcDbLayerTableRecord
  2
2
 70
     0
 62
     7
  6
Continuous
370
    -3
390
F
347
2932
  0
LAYER
  5
3D
330
2
100
AcDbSymbolTableRecord
100
AcDbLayerTableRecord
  2
3
 70
     0
 62
     7
  6
Continuous
370
    -3
390
F
347
2932
  0
LAYER
  5
3E
330
2
100
AcDbSymbolTableRecord
100
AcDbLayerTableRecord
  2
4
 70
     0
 62
     7
  6
Continuous
370
    -3
390
F
347
2932
  0
LAYER
  5
3F
330
2
100
AcDbSymbolTableRecord
100
AcDbLayerTableRecord
  2
5
 70
     0
 62
     7
  6
Continuous
370
    -3
390
F
347
2932
  0
LAYER
  5
40
330
2
100
AcDbSymbolTableRecord
100
AcDbLayerTableRecord
  2
6
 70
     0
 62
     7
  6
Continuous
370
    -3
390
F
347
2932
  0
LAYER
  5
41
330
2
100
AcDbSymbolTableRecord
100
AcDbLayerTableRecord
  2
7
 70
     0
 62
     7
  6
Continuous
370
    -3
390
F
347
2932
  0
ENDTAB
  0
TABLE
  2
STYLE
  5
3
330
0
100
AcDbSymbolTable
 70
     1
  0
STYLE
  5
11
330
3
100
AcDbSymbolTableRecord
100
AcDbTextStyleTableRecord
  2
Standard
 70
     0
 40
0.0
 41
1.0
 50
0.0
 71
     0
 42
0.2
  3
txt
  4

  0
ENDTAB
  0
TABLE
  2
VIEW
  5
6
330
0
100
AcDbSymbolTable
 70
     0
  0
ENDTAB
  0
TABLE
  2
UCS
  5
7
330
0
100
AcDbSymbolTable
 70
     0
  0
ENDTAB
  0
TABLE
  2
APPID
  5
9
330
0
100
AcDbSymbolTable
 70
     1
  0
APPID
  5
12
330
9
100
AcDbSymbolTableRecord
100
AcDbRegAppTableRecord
  2
ACAD
 70
     0
  0
ENDTAB
  0
TABLE
  2
DIMSTYLE
  5
A
330
0
100
AcDbSymbolTable
 70
     1
100
AcDbDimStyleTable
 71
     1
340
27
  0
DIMSTYLE
105
27
330
A
100
AcDbSymbolTableRecord
100
AcDbDimStyleTableRecord
  2
Standard
 70
     0
340
11
  0
ENDTAB
  0
TABLE
  2
BLOCK_RECORD
  5
1
330
0
100
AcDbSymbolTable
 70
     1
  0
BLOCK_RECORD
  5
1F
330
1
100
AcDbSymbolTableRecord
100
AcDbBlockTableRecord
  2
*Model_Space
340
22
 70
     0
280
     1
281
     0
  0
BLOCK_RECORD
  5
1B
330
1
100
AcDbSymbolTableRecord
100
AcDbBlockTableRecord
  2
*Paper_Space
340
1E
 70
     0
280
     1
281
     0
  0
BLOCK_RECORD
  5
23
330
1
100
AcDbSymbolTableRecord
100
AcDbBlockTableRecord
  2
*Paper_Space0
340
26
 70
     0
280
     1
281
     0
  0
ENDTAB
  0
ENDSEC
  0
SECTION
  2
BLOCKS
  0
BLOCK
  5
20
330
1F
100
AcDbEntity
  8
0
100
AcDbBlockBegin
  2
*Model_Space
 70
     0
 10
0.0
 20
0.0
 30
0.0
  3
*Model_Space
  1

  0
ENDBLK
  5
21
330
1F
100
AcDbEntity
  8
0
100
AcDbBlockEnd
  0
BLOCK
  5
1C
330
1B
100
AcDbEntity
 67
     1
  8
0
100
AcDbBlockBegin
  2
*Paper_Space
 70
     0
 10
0.0
 20
0.0
 30
0.0
  3
*Paper_Space
  1

  0
ENDBLK
  5
1D
330
1B
100
AcDbEntity
 67
     1
  8
0
100
AcDbBlockEnd
  0
BLOCK
  5
24
330
23
100
AcDbEntity
 67
     1
  8
0
100
AcDbBlockBegin
  2
*Paper_Space0
 70
     0
 10
0.0
 20
0.0
 30
0.0
  3
*Paper_Space0
  1

  0
ENDBLK
  5
25
330
23
100
AcDbEntity
 67
     1
  8
0
100
AcDbBlockEnd
  0
ENDSEC
  0
SECTION
  2
ENTITIES
  0
LINE
  5
229F
330
1F
100
AcDbEntity
  8
1
100
AcDbLine
 10
1.732283464566929
 20
5.701771653543307
 30
0.0
 11
2.312007874015748
 21
5.701771653543307
 31
0.0
  0
LINE
  5
22A0
330
1F
100
AcDbEntity
  8
1
100
AcDbLine
 10
2.452755905511811
 20
5.827755905511811
 30
0.0
 11
2.448818897637795
 21
5.823818897637795
 31
0.0
  0
LINE
  5
22A1
330
1F
100
AcDbEntity
  8
1
100
AcDbLine
 10
2.452755905511811
 20
5.827755905511811
 30
0.0
 11
2.452755905511811
 21
5.831692913385826
 31
0.0
  0
LINE
  5
22A2
330
1F
100
AcDbEntity
  8
1
100
AcDbLine
 10
2.452755905511811
 20
5.831692913385826
 30
0.0
 11
2.452755905511811
 21
6.233267716535433
 31
0.0
  0
LINE
  5
22A3
330
1F
100
AcDbEntity
  8
1
100
AcDbLine
 10
2.452755905511811
 20
6.233267716535433
 30
0.0
 11
2.446850393700787
 21
6.227362204724409
 31
0.0
  0
LINE
  5
22A4
330
1F
100
AcDbEntity
  8
1
100
AcDbLine
 10
2.446850393700787
 20
6.227362204724409
 30
0.0
 11
2.446850393700787
 21
6.166338582677164
 31
0.0
  0
POLYLINE
  5
22A5
330
1F
100
AcDbEntity
  8
1
100
AcDb2dPolyline
 66
     1
 10
0.0
 20
0.0
 30
0.0
  0
VERTEX
  5
22A6
330
22A5
100
AcDbEntity
  8
1
100
AcDbVertex
100
AcDb2dVertex
 10
2.446850393700787
 20
6.166338582677164
 30
0.0
  0
VERTEX
  5
22A7
330
22A5
100
AcDbEntity
  8
1
100
AcDbVertex
100
AcDb2dVertex
 10
2.446850393700787
 20
6.124015748031496
 30
0.0
  0
VERTEX
  5
22A8
330
22A5
100
AcDbEntity
  8
1
100
AcDbVertex
100
AcDb2dVertex
 10
2.446850393700787
 20
6.080708661417323
 30
0.0
  0
SEQEND
  5
22A9
330
22A5
100
AcDbEntity
  8
1
  0
LINE
  5
22AA
330
1F
100
AcDbEntity
  8
1
100
AcDbLine
 10
2.446850393700787
 20
6.080708661417323
 30
0.0
 11
2.446850393700787
 21
4.678149606299212
 31
0.0
  0
POLYLINE
  5
22AB
330
1F
100
AcDbEntity
  8
1
100
AcDb2dPolyline
 66
     1
 10
0.0
 20
0.0
 30
0.0
  0
VERTEX
  5
22AC
330
22AB
100
AcDbEntity
  8
1
100
AcDbVertex
100
AcDb2dVertex
 10
2.446850393700787
 20
4.678149606299212
 30
0.0
  0
VERTEX
  5
22AD
330
22AB
100
AcDbEntity
  8
1
100
AcDbVertex
100
AcDb2dVertex
 10
2.446850393700787
 20
4.633858267716535
 30
0.0
  0
VERTEX
  5
22AE
330
22AB
100
AcDbEntity
  8
1
100
AcDbVertex
100
AcDb2dVertex
 10
2.446850393700787
 20
4.591535433070865
 30
0.0
  0
SEQEND
  5
22AF
330
22AB
100
AcDbEntity
  8
1
  0
LINE
  5
22B0
330
1F
100
AcDbEntity
  8
1
100
AcDbLine
 10
2.446850393700787
 20
4.591535433070865
 30
0.0
 11
2.446850393700787
 21
4.530511811023622
 31
0.0
  0
LINE
  5
22B1
330
1F
100
AcDbEntity
  8
1
100
AcDbLine
 10
2.446850393700787
 20
4.530511811023622
 30
0.0
 11
2.452755905511811
 21
4.524606299212598
 31
0.0
  0
LINE
  5
22B2
330
1F
100
AcDbEntity
  8
1
100
AcDbLine
 10
2.452755905511811
 20
4.524606299212598
 30
0.0
 11
2.452755905511811
 21
5.02755905511811
 31
0.0
  0
LINE
  5
22B3
330
1F
100
AcDbEntity
  8
1
100
AcDbLine
 10
2.448818897637795
 20
5.031496062992125
 30
0.0
 11
2.452755905511811
 21
5.02755905511811
 31
0.0
  0
POLYLINE
  5
22B4
330
1F
100
AcDbEntity
  8
1
100
AcDb2dPolyline
 66
     1
 10
0.0
 20
0.0
 30
0.0
  0
VERTEX
  5
22B5
330
22B4
100
AcDbEntity
  8
1
100
AcDbVertex
100
AcDb2dVertex
 10
2.448818897637795
 20
5.031496062992125
 30
0.0
  0
VERTEX
  5
22B6
330
22B4
100
AcDbEntity
  8
1
100
AcDbVertex
100
AcDb2dVertex
 10
2.448818897637795
 20
5.033464566929133
 30
0.0
  0
VERTEX
  5
22B7
330
22B4
100
AcDbEntity
  8
1
100
AcDbVertex
100
AcDb2dVertex
 10
2.448818897637795
 20
5.039370078740157
 30
0.0
  0
SEQEND
  5
22B8
330
22B4
100
AcDbEntity
  8
1
  0
LINE
  5
22B9
330
1F
100
AcDbEntity
  8
1
100
AcDbLine
 10
2.448818897637795
 20
5.039370078740157
 30
0.0
 11
2.448818897637795
 21
5.815944881889763
 31
0.0
  0
POLYLINE
  5
22BA
330
1F
100
AcDbEntity
  8
1
100
AcDb2dPolyline
 66
     1
 10
0.0
 20
0.0
 30
0.0
  0
VERTEX
  5
22BB
330
22BA
100
AcDbEntity
  8
1
100
AcDbVertex
100
AcDb2dVertex
 10
2.448818897637795
 20
5.815944881889763
 30
0.0
  0
VERTEX
  5
22BC
330
22BA
100
AcDbEntity
  8
1
100
AcDbVertex
100
AcDb2dVertex
 10
2.448818897637795
 20
5.821850393700787
 30
0.0
  0
VERTEX
  5
22BD
330
22BA
100
AcDbEntity
  8
1
100
AcDbVertex
100
AcDb2dVertex
 10
2.448818897637795
 20
5.823818897637795
 30
0.0
  0
SEQEND
  5
22BE
330
22BA
100
AcDbEntity
  8
1
  0
LINE
  5
22BF
330
1F
100
AcDbEntity
  8
1
100
AcDbLine
 10
1.591535433070866
 20
6.233267716535433
 30
0.0
 11
1.591535433070866
 21
5.831692913385826
 31
0.0
  0
LINE
  5
22C0
330
1F
100
AcDbEntity
  8
1
100
AcDbLine
 10
1.591535433070866
 20
5.831692913385826
 30
0.0
 11
1.591535433070866
 21
5.827755905511811
 31
0.0
  0
LINE
  5
22C1
330
1F
100
AcDbEntity
  8
1
100
AcDbLine
 10
1.591535433070866
 20
5.827755905511811
 30
0.0
 11
1.594488188976377
 21
5.823818897637795
 31
0.0
  0
POLYLINE
  5
22C2
330
1F
100
AcDbEntity
  8
1
100
AcDb2dPolyline
 66
     1
 10
0.0
 20
0.0
 30
0.0
  0
VERTEX
  5
22C3
330
22C2
100
AcDbEntity
  8
1
100
AcDbVertex
100
AcDb2dVertex
 10
1.594488188976377
 20
5.823818897637795
 30
0.0
  0
VERTEX
  5
22C4
330
22C2
100
AcDbEntity
  8
1
100
AcDbVertex
100
AcDb2dVertex
 10
1.594488188976377
 20
5.821850393700787
 30
0.0
  0
VERTEX
  5
22C5
330
22C2
100
AcDbEntity
  8
1
100
AcDbVertex
100
AcDb2dVertex
 10
1.594488188976377
 20
5.815944881889763
 30
0.0
  0
SEQEND
  5
22C6
330
22C2
100
AcDbEntity
  8
1
  0
LINE
  5
22C7
330
1F
100
AcDbEntity
  8
1
100
AcDbLine
 10
1.594488188976377
 20
5.815944881889763
 30
0.0
 11
1.594488188976377
 21
5.039370078740157
 31
0.0
  0
POLYLINE
  5
22C8
330
1F
100
AcDbEntity
  8
1
100
AcDb2dPolyline
 66
     1
 10
0.0
 20
0.0
 30
0.0
  0
VERTEX
  5
22C9
330
22C8
100
AcDbEntity
  8
1
100
AcDbVertex
100
AcDb2dVertex
 10
1.594488188976377
 20
5.039370078740157
 30
0.0
  0
VERTEX
  5
22CA
330
22C8
100
AcDbEntity
  8
1
100
AcDbVertex
100
AcDb2dVertex
 10
1.594488188976377
 20
5.033464566929133
 30
0.0
  0
VERTEX
  5
22CB
330
22C8
100
AcDbEntity
  8
1
100
AcDbVertex
100
AcDb2dVertex
 10
1.594488188976377
 20
5.031496062992125
 30
0.0
  0
SEQEND
  5
22CC
330
22C8
100
AcDbEntity
  8
1
  0
LINE
  5
22CD
330
1F
100
AcDbEntity
  8
1
100
AcDbLine
 10
1.594488188976377
 20
5.031496062992125
 30
0.0
 11
1.591535433070866
 21
5.02755905511811
 31
0.0
  0
LINE
  5
22CE
330
1F
100
AcDbEntity
  8
1
100
AcDbLine
 10
1.591535433070866
 20
5.02755905511811
 30
0.0
 11
1.591535433070866
 21
4.524606299212598
 31
0.0
  0
LINE
  5
22CF
330
1F
100
AcDbEntity
  8
1
100
AcDbLine
 10
1.591535433070866
 20
4.524606299212598
 30
0.0
 11
1.597440944881889
 21
4.530511811023622
 31
0.0
  0
LINE
  5
22D0
330
1F
100
AcDbEntity
  8
1
100
AcDbLine
 10
1.597440944881889
 20
4.530511811023622
 30
0.0
 11
1.597440944881889
 21
4.591535433070865
 31
0.0
  0
POLYLINE
  5
22D1
330
1F
100
AcDbEntity
  8
1
100
AcDb2dPolyline
 66
     1
 10
0.0
 20
0.0
 30
0.0
  0
VERTEX
  5
22D2
330
22D1
100
AcDbEntity
  8
1
100
AcDbVertex
100
AcDb2dVertex
 10
1.597440944881889
 20
4.591535433070865
 30
0.0
  0
VERTEX
  5
22D3
330
22D1
100
AcDbEntity
  8
1
100
AcDbVertex
100
AcDb2dVertex
 10
1.597440944881889
 20
4.633858267716535
 30
0.0
  0
VERTEX
  5
22D4
330
22D1
100
AcDbEntity
  8
1
100
AcDbVertex
100
AcDb2dVertex
 10
1.597440944881889
 20
4.678149606299212
 30
0.0
  0
SEQEND
  5
22D5
330
22D1
100
AcDbEntity
  8
1
  0
LINE
  5
22D6
330
1F
100
AcDbEntity
  8
1
100
AcDbLine
 10
1.597440944881889
 20
4.678149606299212
 30
0.0
 11
1.597440944881889
 21
6.080708661417323
 31
0.0
  0
POLYLINE
  5
22D7
330
1F
100
AcDbEntity
  8
1
100
AcDb2dPolyline
 66
     1
 10
0.0
 20
0.0
 30
0.0
  0
VERTEX
  5
22D8
330
22D7
100
AcDbEntity
  8
1
100
AcDbVertex
100
AcDb2dVertex
 10
1.597440944881889
 20
6.080708661417323
 30
0.0
  0
VERTEX
  5
22D9
330
22D7
100
AcDbEntity
  8
1
100
AcDbVertex
100
AcDb2dVertex
 10
1.597440944881889
 20
6.124015748031496
 30
0.0
  0
VERTEX
  5
22DA
330
22D7
100
AcDbEntity
  8
1
100
AcDbVertex
100
AcDb2dVertex
 10
1.597440944881889
 20
6.166338582677164
 30
0.0
  0
SEQEND
  5
22DB
330
22D7
100
AcDbEntity
  8
1
  0
LINE
  5
22DC
330
1F
100
AcDbEntity
  8
1
100
AcDbLine
 10
1.597440944881889
 20
6.166338582677164
 30
0.0
 11
1.597440944881889
 21
6.227362204724409
 31
0.0
  0
LINE
  5
22DD
330
1F
100
AcDbEntity
  8
1
100
AcDbLine
 10
1.597440944881889
 20
6.227362204724409
 30
0.0
 11
1.591535433070866
 21
6.233267716535433
 31
0.0
  0
LINE
  5
22DE
330
1F
100
AcDbEntity
  8
1
100
AcDbLine
 10
1.784448818897637
 20
4.516732283464566
 30
0.0
 11
1.599409448818897
 21
4.516732283464566
 31
0.0
  0
LINE
  5
22DF
330
1F
100
AcDbEntity
  8
1
100
AcDbLine
 10
1.943897637795275
 20
4.516732283464566
 30
0.0
 11
1.910433070866141
 21
4.516732283464566
 31
0.0
  0
LINE
  5
22E0
330
1F
100
AcDbEntity
  8
1
100
AcDbLine
 10
2.133858267716535
 20
4.516732283464566
 30
0.0
 11
2.100393700787401
 21
4.516732283464566
 31
0.0
  0
LINE
  5
22E1
330
1F
100
AcDbEntity
  8
1
100
AcDbLine
 10
2.444881889763779
 20
4.516732283464566
 30
0.0
 11
2.259842519685039
 21
4.516732283464566
 31
0.0
  0
LINE
  5
22E2
330
1F
100
AcDbEntity
  8
1
100
AcDbLine
 10
1.605314960629921
 20
6.23523622047244
 30
0.0
 11
2.438976377952756
 21
6.23523622047244
 31
0.0
  0
LINE
  5
22E3
330
1F
100
AcDbEntity
  8
1
100
AcDbLine
 10
2.438976377952756
 20
6.23523622047244
 30
0.0
 11
2.444881889763779
 21
6.241141732283464
 31
0.0
  0
LINE
  5
22E4
330
1F
100
AcDbEntity
  8
1
100
AcDbLine
 10
2.444881889763779
 20
6.241141732283464
 30
0.0
 11
2.259842519685039
 21
6.241141732283464
 31
0.0
  0
LINE
  5
22E5
330
1F
100
AcDbEntity
  8
1
100
AcDbLine
 10
2.259842519685039
 20
6.241141732283464
 30
0.0
 11
2.133858267716535
 21
6.241141732283464
 31
0.0
  0
LINE
  5
22E6
330
1F
100
AcDbEntity
  8
1
100
AcDbLine
 10
2.133858267716535
 20
6.241141732283464
 30
0.0
 11
2.100393700787401
 21
6.241141732283464
 31
0.0
  0
LINE
  5
22E7
330
1F
100
AcDbEntity
  8
1
100
AcDbLine
 10
2.095472440944881
 20
6.24507874015748
 30
0.0
 11
2.100393700787401
 21
6.241141732283464
 31
0.0
  0
LINE
  5
22E8
330
1F
100
AcDbEntity
  8
1
100
AcDbLine
 10
2.095472440944881
 20
6.24507874015748
 30
0.0
 11
1.947834645669291
 21
6.24507874015748
 31
0.0
  0
LINE
  5
22E9
330
1F
100
AcDbEntity
  8
1
100
AcDbLine
 10
1.947834645669291
 20
6.24507874015748
 30
0.0
 11
1.943897637795275
 21
6.241141732283464
 31
0.0
  0
LINE
  5
22EA
330
1F
100
AcDbEntity
  8
1
100
AcDbLine
 10
1.943897637795275
 20
6.241141732283464
 30
0.0
 11
1.910433070866141
 21
6.241141732283464
 31
0.0
  0
LINE
  5
22EB
330
1F
100
AcDbEntity
  8
1
100
AcDbLine
 10
1.784448818897637
 20
6.241141732283464
 30
0.0
 11
1.910433070866141
 21
6.241141732283464
 31
0.0
  0
LINE
  5
22EC
330
1F
100
AcDbEntity
  8
1
100
AcDbLine
 10
1.784448818897637
 20
6.241141732283464
 30
0.0
 11
1.599409448818897
 21
6.241141732283464
 31
0.0
  0
LINE
  5
22ED
330
1F
100
AcDbEntity
  8
1
100
AcDbLine
 10
1.599409448818897
 20
6.241141732283464
 30
0.0
 11
1.605314960629921
 21
6.23523622047244
 31
0.0
  0
LINE
  5
22EE
330
1F
100
AcDbEntity
  8
1
100
AcDbLine
 10
2.319881889763779
 20
5.709645669291338
 30
0.0
 11
2.319881889763779
 21
5.048228346456692
 31
0.0
  0
LINE
  5
22EF
330
1F
100
AcDbEntity
  8
1
100
AcDbLine
 10
2.319881889763779
 20
5.048228346456692
 30
0.0
 11
1.724409448818897
 21
5.048228346456692
 31
0.0
  0
LINE
  5
22F0
330
1F
100
AcDbEntity
  8
1
100
AcDbLine
 10
1.724409448818897
 20
5.048228346456692
 30
0.0
 11
1.724409448818897
 21
5.709645669291338
 31
0.0
  0
LINE
  5
22F1
330
1F
100
AcDbEntity
  8
1
100
AcDbLine
 10
1.724409448818897
 20
5.709645669291338
 30
0.0
 11
2.319881889763779
 21
5.709645669291338
 31
0.0
  0
LINE
  5
22F2
330
1F
100
AcDbEntity
  8
1
100
AcDbLine
 10
1.605314960629921
 20
4.678149606299212
 30
0.0
 11
2.438976377952756
 21
4.678149606299212
 31
0.0
  0
LINE
  5
22F3
330
1F
100
AcDbEntity
  8
1
100
AcDbLine
 10
2.438976377952756
 20
4.678149606299212
 30
0.0
 11
2.438976377952756
 21
6.080708661417323
 31
0.0
  0
LINE
  5
22F4
330
1F
100
AcDbEntity
  8
1
100
AcDbLine
 10
2.438976377952756
 20
6.080708661417323
 30
0.0
 11
1.605314960629921
 21
6.080708661417323
 31
0.0
  0
LINE
  5
22F5
330
1F
100
AcDbEntity
  8
1
100
AcDbLine
 10
1.605314960629921
 20
6.080708661417323
 30
0.0
 11
1.605314960629921
 21
4.678149606299212
 31
0.0
  0
LINE
  5
22F6
330
1F
100
AcDbEntity
  8
1
100
AcDbLine
 10
2.444881889763779
 20
4.516732283464566
 30
0.0
 11
2.438976377952756
 21
4.52263779527559
 31
0.0
  0
LINE
  5
22F7
330
1F
100
AcDbEntity
  8
1
100
AcDbLine
 10
2.438976377952756
 20
4.52263779527559
 30
0.0
 11
1.605314960629921
 21
4.52263779527559
 31
0.0
  0
LINE
  5
22F8
330
1F
100
AcDbEntity
  8
1
100
AcDbLine
 10
1.605314960629921
 20
4.52263779527559
 30
0.0
 11
1.599409448818897
 21
4.516732283464566
 31
0.0
  0
LINE
  5
22F9
330
1F
100
AcDbEntity
  8
1
100
AcDbLine
 10
1.784448818897637
 20
4.516732283464566
 30
0.0
 11
1.910433070866141
 21
4.516732283464566
 31
0.0
  0
LINE
  5
22FA
330
1F
100
AcDbEntity
  8
1
100
AcDbLine
 10
1.947834645669291
 20
4.51279527559055
 30
0.0
 11
1.943897637795275
 21
4.516732283464566
 31
0.0
  0
LINE
  5
22FB
330
1F
100
AcDbEntity
  8
1
100
AcDbLine
 10
2.095472440944881
 20
4.51279527559055
 30
0.0
 11
1.947834645669291
 21
4.51279527559055
 31
0.0
  0
LINE
  5
22FC
330
1F
100
AcDbEntity
  8
1
100
AcDbLine
 10
2.095472440944881
 20
4.51279527559055
 30
0.0
 11
2.100393700787401
 21
4.516732283464566
 31
0.0
  0
LINE
  5
22FD
330
1F
100
AcDbEntity
  8
1
100
AcDbLine
 10
2.259842519685039
 20
4.516732283464566
 30
0.0
 11
2.133858267716535
 21
4.516732283464566
 31
0.0
  0
LINE
  5
22FE
330
1F
100
AcDbEntity
  8
1
100
AcDbLine
 10
2.251968503937007
 20
4.453740157480314
 30
0.0
 11
2.251968503937007
 21
4.508858267716535
 31
0.0
  0
LINE
  5
22FF
330
1F
100
AcDbEntity
  8
1
100
AcDbLine
 10
2.149606299212598
 20
4.445866141732283
 30
0.0
 11
2.244094488188976
 21
4.445866141732283
 31
0.0
  0
LINE
  5
2300
330
1F
100
AcDbEntity
  8
1
100
AcDbLine
 10
1.792322834645669
 20
4.453740157480314
 30
0.0
 11
1.792322834645669
 21
4.508858267716535
 31
0.0
  0
LINE
  5
2301
330
1F
100
AcDbEntity
  8
1
100
AcDbLine
 10
1.894685039370078
 20
4.445866141732283
 30
0.0
 11
1.8001968503937
 21
4.445866141732283
 31
0.0
  0
LINE
  5
2302
330
1F
100
AcDbEntity
  8
1
100
AcDbLine
 10
2.08759842519685
 20
4.450787401574802
 30
0.0
 11
1.955708661417322
 21
4.450787401574802
 31
0.0
  0
POLYLINE
  5
2303
330
1F
100
AcDbEntity
  8
1
100
AcDb2dPolyline
 66
     1
 10
0.0
 20
0.0
 30
0.0
  0
VERTEX
  5
2304
330
2303
100
AcDbEntity
  8
1
100
AcDbVertex
100
AcDb2dVertex
 10
2.08759842519685
 20
4.450787401574802
 30
0.0
  0
VERTEX
  5
2305
330
2303
100
AcDbEntity
  8
1
100
AcDbVertex
100
AcDb2dVertex
 10
2.093503937007874
 20
4.452755905511811
 30
0.0
  0
VERTEX
  5
2306
330
2303
100
AcDbEntity
  8
1
100
AcDbVertex
100
AcDb2dVertex
 10
2.095472440944881
 20
4.458661417322834
 30
0.0
  0
SEQEND
  5
2307
330
2303
100
AcDbEntity
  8
1
  0
LINE
  5
2308
330
1F
100
AcDbEntity
  8
1
100
AcDbLine
 10
2.095472440944881
 20
4.458661417322834
 30
0.0
 11
2.095472440944881
 21
4.51279527559055
 31
0.0
  0
LINE
  5
2309
330
1F
100
AcDbEntity
  8
1
100
AcDbLine
 10
1.947834645669291
 20
4.458661417322834
 30
0.0
 11
1.947834645669291
 21
4.51279527559055
 31
0.0
  0
POLYLINE
  5
230A
330
1F
100
AcDbEntity
  8
1
100
AcDb2dPolyline
 66
     1
 10
0.0
 20
0.0
 30
0.0
  0
VERTEX
  5
230B
330
230A
100
AcDbEntity
  8
1
100
AcDbVertex
100
AcDb2dVertex
 10
1.947834645669291
 20
4.458661417322834
 30
0.0
  0
VERTEX
  5
230C
330
230A
100
AcDbEntity
  8
1
100
AcDbVertex
100
AcDb2dVertex
 10
1.950787401574802
 20
4.452755905511811
 30
0.0
  0
VERTEX
  5
230D
330
230A
100
AcDbEntity
  8
1
100
AcDbVertex
100
AcDb2dVertex
 10
1.955708661417322
 20
4.450787401574802
 30
0.0
  0
SEQEND
  5
230E
330
230A
100
AcDbEntity
  8
1
  0
LINE
  5
230F
330
1F
100
AcDbEntity
  8
1
100
AcDbLine
 10
1.605314960629921
 20
4.528543307086613
 30
0.0
 11
2.438976377952756
 21
4.528543307086613
 31
0.0
  0
LINE
  5
2310
330
1F
100
AcDbEntity
  8
1
100
AcDbLine
 10
2.438976377952756
 20
4.528543307086613
 30
0.0
 11
2.438976377952756
 21
4.589566929133858
 31
0.0
  0
LINE
  5
2311
330
1F
100
AcDbEntity
  8
1
100
AcDbLine
 10
2.438976377952756
 20
4.589566929133858
 30
0.0
 11
1.605314960629921
 21
4.589566929133858
 31
0.0
  0
LINE
  5
2312
330
1F
100
AcDbEntity
  8
1
100
AcDbLine
 10
1.605314960629921
 20
4.589566929133858
 30
0.0
 11
1.605314960629921
 21
4.528543307086613
 31
0.0
  0
POLYLINE
  5
2313
330
1F
100
AcDbEntity
  8
1
100
AcDb2dPolyline
 66
     1
 10
0.0
 20
0.0
 30
0.0
  0
VERTEX
  5
2314
330
2313
100
AcDbEntity
  8
1
100
AcDbVertex
100
AcDb2dVertex
 10
2.438976377952756
 20
4.589566929133858
 30
0.0
  0
VERTEX
  5
2315
330
2313
100
AcDbEntity
  8
1
100
AcDbVertex
100
AcDb2dVertex
 10
2.438976377952756
 20
4.633858267716535
 30
0.0
  0
VERTEX
  5
2316
330
2313
100
AcDbEntity
  8
1
100
AcDbVertex
100
AcDb2dVertex
 10
2.438976377952756
 20
4.678149606299212
 30
0.0
  0
SEQEND
  5
2317
330
2313
100
AcDbEntity
  8
1
  0
POLYLINE
  5
2318
330
1F
100
AcDbEntity
  8
1
100
AcDb2dPolyline
 66
     1
 10
0.0
 20
0.0
 30
0.0
  0
VERTEX
  5
2319
330
2318
100
AcDbEntity
  8
1
100
AcDbVertex
100
AcDb2dVertex
 10
1.605314960629921
 20
4.678149606299212
 30
0.0
  0
VERTEX
  5
231A
330
2318
100
AcDbEntity
  8
1
100
AcDbVertex
100
AcDb2dVertex
 10
1.605314960629921
 20
4.633858267716535
 30
0.0
  0
VERTEX
  5
231B
330
2318
100
AcDbEntity
  8
1
100
AcDbVertex
100
AcDb2dVertex
 10
1.605314960629921
 20
4.589566929133858
 30
0.0
  0
SEQEND
  5
231C
330
2318
100
AcDbEntity
  8
1
  0
LINE
  5
231D
330
1F
100
AcDbEntity
  8
1
100
AcDbLine
 10
1.90255905511811
 20
4.508858267716535
 30
0.0
 11
1.90255905511811
 21
4.453740157480314
 31
0.0
  0
POLYLINE
  5
231E
330
1F
100
AcDbEntity
  8
1
100
AcDb2dPolyline
 66
     1
 10
0.0
 20
0.0
 30
0.0
  0
VERTEX
  5
231F
330
231E
100
AcDbEntity
  8
1
100
AcDbVertex
100
AcDb2dVertex
 10
1.90255905511811
 20
4.508858267716535
 30
0.0
  0
VERTEX
  5
2320
330
231E
100
AcDbEntity
  8
1
100
AcDbVertex
100
AcDb2dVertex
 10
1.904527559055118
 20
4.514763779527559
 30
0.0
  0
VERTEX
  5
2321
330
231E
100
AcDbEntity
  8
1
100
AcDbVertex
100
AcDb2dVertex
 10
1.910433070866141
 20
4.516732283464566
 30
0.0
  0
SEQEND
  5
2322
330
231E
100
AcDbEntity
  8
1
  0
POLYLINE
  5
2323
330
1F
100
AcDbEntity
  8
1
100
AcDb2dPolyline
 66
     1
 10
0.0
 20
0.0
 30
0.0
  0
VERTEX
  5
2324
330
2323
100
AcDbEntity
  8
1
100
AcDbVertex
100
AcDb2dVertex
 10
1.784448818897637
 20
4.516732283464566
 30
0.0
  0
VERTEX
  5
2325
330
2323
100
AcDbEntity
  8
1
100
AcDbVertex
100
AcDb2dVertex
 10
1.789370078740157
 20
4.514763779527559
 30
0.0
  0
VERTEX
  5
2326
330
2323
100
AcDbEntity
  8
1
100
AcDbVertex
100
AcDb2dVertex
 10
1.792322834645669
 20
4.508858267716535
 30
0.0
  0
SEQEND
  5
2327
330
2323
100
AcDbEntity
  8
1
  0
POLYLINE
  5
2328
330
1F
100
AcDbEntity
  8
1
100
AcDb2dPolyline
 66
     1
 10
0.0
 20
0.0
 30
0.0
  0
VERTEX
  5
2329
330
2328
100
AcDbEntity
  8
1
100
AcDbVertex
100
AcDb2dVertex
 10
1.792322834645669
 20
4.453740157480314
 30
0.0
  0
VERTEX
  5
232A
330
2328
100
AcDbEntity
  8
1
100
AcDbVertex
100
AcDb2dVertex
 10
1.794291338582677
 20
4.448818897637795
 30
0.0
  0
VERTEX
  5
232B
330
2328
100
AcDbEntity
  8
1
100
AcDbVertex
100
AcDb2dVertex
 10
1.8001968503937
 20
4.445866141732283
 30
0.0
  0
SEQEND
  5
232C
330
2328
100
AcDbEntity
  8
1
  0
POLYLINE
  5
232D
330
1F
100
AcDbEntity
  8
1
100
AcDb2dPolyline
 66
     1
 10
0.0
 20
0.0
 30
0.0
  0
VERTEX
  5
232E
330
232D
100
AcDbEntity
  8
1
100
AcDbVertex
100
AcDb2dVertex
 10
1.894685039370078
 20
4.445866141732283
 30
0.0
  0
VERTEX
  5
232F
330
232D
100
AcDbEntity
  8
1
100
AcDbVertex
100
AcDb2dVertex
 10
1.900590551181102
 20
4.448818897637795
 30
0.0
  0
VERTEX
  5
2330
330
232D
100
AcDbEntity
  8
1
100
AcDbVertex
100
AcDb2dVertex
 10
1.90255905511811
 20
4.453740157480314
 30
0.0
  0
SEQEND
  5
2331
330
232D
100
AcDbEntity
  8
1
  0
LINE
  5
2332
330
1F
100
AcDbEntity
  8
1
100
AcDbLine
 10
2.141732283464566
 20
4.508858267716535
 30
0.0
 11
2.141732283464566
 21
4.453740157480314
 31
0.0
  0
POLYLINE
  5
2333
330
1F
100
AcDbEntity
  8
1
100
AcDb2dPolyline
 66
     1
 10
0.0
 20
0.0
 30
0.0
  0
VERTEX
  5
2334
330
2333
100
AcDbEntity
  8
1
100
AcDbVertex
100
AcDb2dVertex
 10
2.251968503937007
 20
4.508858267716535
 30
0.0
  0
VERTEX
  5
2335
330
2333
100
AcDbEntity
  8
1
100
AcDbVertex
100
AcDb2dVertex
 10
2.253937007874015
 20
4.514763779527559
 30
0.0
  0
VERTEX
  5
2336
330
2333
100
AcDbEntity
  8
1
100
AcDbVertex
100
AcDb2dVertex
 10
2.259842519685039
 20
4.516732283464566
 30
0.0
  0
SEQEND
  5
2337
330
2333
100
AcDbEntity
  8
1
  0
POLYLINE
  5
2338
330
1F
100
AcDbEntity
  8
1
100
AcDb2dPolyline
 66
     1
 10
0.0
 20
0.0
 30
0.0
  0
VERTEX
  5
2339
330
2338
100
AcDbEntity
  8
1
100
AcDbVertex
100
AcDb2dVertex
 10
2.133858267716535
 20
4.516732283464566
 30
0.0
  0
VERTEX
  5
233A
330
2338
100
AcDbEntity
  8
1
100
AcDbVertex
100
AcDb2dVertex
 10
2.138779527559055
 20
4.514763779527559
 30
0.0
  0
VERTEX
  5
233B
330
2338
100
AcDbEntity
  8
1
100
AcDbVertex
100
AcDb2dVertex
 10
2.141732283464566
 20
4.508858267716535
 30
0.0
  0
SEQEND
  5
233C
330
2338
100
AcDbEntity
  8
1
  0
POLYLINE
  5
233D
330
1F
100
AcDbEntity
  8
1
100
AcDb2dPolyline
 66
     1
 10
0.0
 20
0.0
 30
0.0
  0
VERTEX
  5
233E
330
233D
100
AcDbEntity
  8
1
100
AcDbVertex
100
AcDb2dVertex
 10
2.141732283464566
 20
4.453740157480314
 30
0.0
  0
VERTEX
  5
233F
330
233D
100
AcDbEntity
  8
1
100
AcDbVertex
100
AcDb2dVertex
 10
2.143700787401574
 20
4.448818897637795
 30
0.0
  0
VERTEX
  5
2340
330
233D
100
AcDbEntity
  8
1
100
AcDbVertex
100
AcDb2dVertex
 10
2.149606299212598
 20
4.445866141732283
 30
0.0
  0
SEQEND
  5
2341
330
233D
100
AcDbEntity
  8
1
  0
POLYLINE
  5
2342
330
1F
100
AcDbEntity
  8
1
100
AcDb2dPolyline
 66
     1
 10
0.0
 20
0.0
 30
0.0
  0
VERTEX
  5
2343
330
2342
100
AcDbEntity
  8
1
100
AcDbVertex
100
AcDb2dVertex
 10
2.244094488188976
 20
4.445866141732283
 30
0.0
  0
VERTEX
  5
2344
330
2342
100
AcDbEntity
  8
1
100
AcDbVertex
100
AcDb2dVertex
 10
2.25
 20
4.448818897637795
 30
0.0
  0
VERTEX
  5
2345
330
2342
100
AcDbEntity
  8
1
100
AcDbVertex
100
AcDb2dVertex
 10
2.251968503937007
 20
4.453740157480314
 30
0.0
  0
SEQEND
  5
2346
330
2342
100
AcDbEntity
  8
1
  0
LINE
  5
2347
330
1F
100
AcDbEntity
  8
1
100
AcDbLine
 10
2.251968503937007
 20
6.304133858267716
 30
0.0
 11
2.251968503937007
 21
6.249015748031496
 31
0.0
  0
LINE
  5
2348
330
1F
100
AcDbEntity
  8
1
100
AcDbLine
 10
2.149606299212598
 20
6.312007874015748
 30
0.0
 11
2.244094488188976
 21
6.312007874015748
 31
0.0
  0
LINE
  5
2349
330
1F
100
AcDbEntity
  8
1
100
AcDbLine
 10
1.792322834645669
 20
6.304133858267716
 30
0.0
 11
1.792322834645669
 21
6.249015748031496
 31
0.0
  0
LINE
  5
234A
330
1F
100
AcDbEntity
  8
1
100
AcDbLine
 10
1.894685039370078
 20
6.312007874015748
 30
0.0
 11
1.8001968503937
 21
6.312007874015748
 31
0.0
  0
LINE
  5
234B
330
1F
100
AcDbEntity
  8
1
100
AcDbLine
 10
2.095472440944881
 20
6.299212598425196
 30
0.0
 11
2.095472440944881
 21
6.24507874015748
 31
0.0
  0
POLYLINE
  5
234C
330
1F
100
AcDbEntity
  8
1
100
AcDb2dPolyline
 66
     1
 10
0.0
 20
0.0
 30
0.0
  0
VERTEX
  5
234D
330
234C
100
AcDbEntity
  8
1
100
AcDbVertex
100
AcDb2dVertex
 10
2.095472440944881
 20
6.299212598425196
 30
0.0
  0
VERTEX
  5
234E
330
234C
100
AcDbEntity
  8
1
100
AcDbVertex
100
AcDb2dVertex
 10
2.093503937007874
 20
6.30511811023622
 30
0.0
  0
VERTEX
  5
234F
330
234C
100
AcDbEntity
  8
1
100
AcDbVertex
100
AcDb2dVertex
 10
2.08759842519685
 20
6.307086614173228
 30
0.0
  0
SEQEND
  5
2350
330
234C
100
AcDbEntity
  8
1
  0
LINE
  5
2351
330
1F
100
AcDbEntity
  8
1
100
AcDbLine
 10
2.08759842519685
 20
6.307086614173228
 30
0.0
 11
1.955708661417322
 21
6.307086614173228
 31
0.0
  0
POLYLINE
  5
2352
330
1F
100
AcDbEntity
  8
1
100
AcDb2dPolyline
 66
     1
 10
0.0
 20
0.0
 30
0.0
  0
VERTEX
  5
2353
330
2352
100
AcDbEntity
  8
1
100
AcDbVertex
100
AcDb2dVertex
 10
1.955708661417322
 20
6.307086614173228
 30
0.0
  0
VERTEX
  5
2354
330
2352
100
AcDbEntity
  8
1
100
AcDbVertex
100
AcDb2dVertex
 10
1.950787401574802
 20
6.30511811023622
 30
0.0
  0
VERTEX
  5
2355
330
2352
100
AcDbEntity
  8
1
100
AcDbVertex
100
AcDb2dVertex
 10
1.947834645669291
 20
6.299212598425196
 30
0.0
  0
SEQEND
  5
2356
330
2352
100
AcDbEntity
  8
1
  0
LINE
  5
2357
330
1F
100
AcDbEntity
  8
1
100
AcDbLine
 10
1.947834645669291
 20
6.299212598425196
 30
0.0
 11
1.947834645669291
 21
6.24507874015748
 31
0.0
  0
LINE
  5
2358
330
1F
100
AcDbEntity
  8
1
100
AcDbLine
 10
1.605314960629921
 20
6.168307086614173
 30
0.0
 11
2.438976377952756
 21
6.168307086614173
 31
0.0
  0
LINE
  5
2359
330
1F
100
AcDbEntity
  8
1
100
AcDbLine
 10
2.438976377952756
 20
6.168307086614173
 30
0.0
 11
2.438976377952756
 21
6.230314960629921
 31
0.0
  0
LINE
  5
235A
330
1F
100
AcDbEntity
  8
1
100
AcDbLine
 10
2.438976377952756
 20
6.230314960629921
 30
0.0
 11
1.605314960629921
 21
6.230314960629921
 31
0.0
  0
LINE
  5
235B
330
1F
100
AcDbEntity
  8
1
100
AcDbLine
 10
1.605314960629921
 20
6.230314960629921
 30
0.0
 11
1.605314960629921
 21
6.168307086614173
 31
0.0
  0
POLYLINE
  5
235C
330
1F
100
AcDbEntity
  8
1
100
AcDb2dPolyline
 66
     1
 10
0.0
 20
0.0
 30
0.0
  0
VERTEX
  5
235D
330
235C
100
AcDbEntity
  8
1
100
AcDbVertex
100
AcDb2dVertex
 10
2.438976377952756
 20
6.080708661417323
 30
0.0
  0
VERTEX
  5
235E
330
235C
100
AcDbEntity
  8
1
100
AcDbVertex
100
AcDb2dVertex
 10
2.438976377952756
 20
6.125
 30
0.0
  0
VERTEX
  5
235F
330
235C
100
AcDbEntity
  8
1
100
AcDbVertex
100
AcDb2dVertex
 10
2.438976377952756
 20
6.168307086614173
 30
0.0
  0
SEQEND
  5
2360
330
235C
100
AcDbEntity
  8
1
  0
POLYLINE
  5
2361
330
1F
100
AcDbEntity
  8
1
100
AcDb2dPolyline
 66
     1
 10
0.0
 20
0.0
 30
0.0
  0
VERTEX
  5
2362
330
2361
100
AcDbEntity
  8
1
100
AcDbVertex
100
AcDb2dVertex
 10
1.605314960629921
 20
6.168307086614173
 30
0.0
  0
VERTEX
  5
2363
330
2361
100
AcDbEntity
  8
1
100
AcDbVertex
100
AcDb2dVertex
 10
1.605314960629921
 20
6.125
 30
0.0
  0
VERTEX
  5
2364
330
2361
100
AcDbEntity
  8
1
100
AcDbVertex
100
AcDb2dVertex
 10
1.605314960629921
 20
6.080708661417323
 30
0.0
  0
SEQEND
  5
2365
330
2361
100
AcDbEntity
  8
1
  0
LINE
  5
2366
330
1F
100
AcDbEntity
  8
1
100
AcDbLine
 10
1.90255905511811
 20
6.249015748031496
 30
0.0
 11
1.90255905511811
 21
6.304133858267716
 31
0.0
  0
POLYLINE
  5
2367
330
1F
100
AcDbEntity
  8
1
100
AcDb2dPolyline
 66
     1
 10
0.0
 20
0.0
 30
0.0
  0
VERTEX
  5
2368
330
2367
100
AcDbEntity
  8
1
100
AcDbVertex
100
AcDb2dVertex
 10
1.792322834645669
 20
6.249015748031496
 30
0.0
  0
VERTEX
  5
2369
330
2367
100
AcDbEntity
  8
1
100
AcDbVertex
100
AcDb2dVertex
 10
1.789370078740157
 20
6.243110236220472
 30
0.0
  0
VERTEX
  5
236A
330
2367
100
AcDbEntity
  8
1
100
AcDbVertex
100
AcDb2dVertex
 10
1.784448818897637
 20
6.241141732283464
 30
0.0
  0
SEQEND
  5
236B
330
2367
100
AcDbEntity
  8
1
  0
POLYLINE
  5
236C
330
1F
100
AcDbEntity
  8
1
100
AcDb2dPolyline
 66
     1
 10
0.0
 20
0.0
 30
0.0
  0
VERTEX
  5
236D
330
236C
100
AcDbEntity
  8
1
100
AcDbVertex
100
AcDb2dVertex
 10
1.910433070866141
 20
6.241141732283464
 30
0.0
  0
VERTEX
  5
236E
330
236C
100
AcDbEntity
  8
1
100
AcDbVertex
100
AcDb2dVertex
 10
1.904527559055118
 20
6.243110236220472
 30
0.0
  0
VERTEX
  5
236F
330
236C
100
AcDbEntity
  8
1
100
AcDbVertex
100
AcDb2dVertex
 10
1.90255905511811
 20
6.249015748031496
 30
0.0
  0
SEQEND
  5
2370
330
236C
100
AcDbEntity
  8
1
  0
POLYLINE
  5
2371
330
1F
100
AcDbEntity
  8
1
100
AcDb2dPolyline
 66
     1
 10
0.0
 20
0.0
 30
0.0
  0
VERTEX
  5
2372
330
2371
100
AcDbEntity
  8
1
100
AcDbVertex
100
AcDb2dVertex
 10
1.90255905511811
 20
6.304133858267716
 30
0.0
  0
VERTEX
  5
2373
330
2371
100
AcDbEntity
  8
1
100
AcDbVertex
100
AcDb2dVertex
 10
1.900590551181102
 20
6.310039370078739
 30
0.0
  0
VERTEX
  5
2374
330
2371
100
AcDbEntity
  8
1
100
AcDbVertex
100
AcDb2dVertex
 10
1.894685039370078
 20
6.312007874015748
 30
0.0
  0
SEQEND
  5
2375
330
2371
100
AcDbEntity
  8
1
  0
POLYLINE
  5
2376
330
1F
100
AcDbEntity
  8
1
100
AcDb2dPolyline
 66
     1
 10
0.0
 20
0.0
 30
0.0
  0
VERTEX
  5
2377
330
2376
100
AcDbEntity
  8
1
100
AcDbVertex
100
AcDb2dVertex
 10
1.8001968503937
 20
6.312007874015748
 30
0.0
  0
VERTEX
  5
2378
330
2376
100
AcDbEntity
  8
1
100
AcDbVertex
100
AcDb2dVertex
 10
1.794291338582677
 20
6.310039370078739
 30
0.0
  0
VERTEX
  5
2379
330
2376
100
AcDbEntity
  8
1
100
AcDbVertex
100
AcDb2dVertex
 10
1.792322834645669
 20
6.304133858267716
 30
0.0
  0
SEQEND
  5
237A
330
2376
100
AcDbEntity
  8
1
  0
LINE
  5
237B
330
1F
100
AcDbEntity
  8
1
100
AcDbLine
 10
2.141732283464566
 20
6.249015748031496
 30
0.0
 11
2.141732283464566
 21
6.304133858267716
 31
0.0
  0
POLYLINE
  5
237C
330
1F
100
AcDbEntity
  8
1
100
AcDb2dPolyline
 66
     1
 10
0.0
 20
0.0
 30
0.0
  0
VERTEX
  5
237D
330
237C
100
AcDbEntity
  8
1
100
AcDbVertex
100
AcDb2dVertex
 10
2.141732283464566
 20
6.249015748031496
 30
0.0
  0
VERTEX
  5
237E
330
237C
100
AcDbEntity
  8
1
100
AcDbVertex
100
AcDb2dVertex
 10
2.138779527559055
 20
6.243110236220472
 30
0.0
  0
VERTEX
  5
237F
330
237C
100
AcDbEntity
  8
1
100
AcDbVertex
100
AcDb2dVertex
 10
2.133858267716535
 20
6.241141732283464
 30
0.0
  0
SEQEND
  5
2380
330
237C
100
AcDbEntity
  8
1
  0
POLYLINE
  5
2381
330
1F
100
AcDbEntity
  8
1
100
AcDb2dPolyline
 66
     1
 10
0.0
 20
0.0
 30
0.0
  0
VERTEX
  5
2382
330
2381
100
AcDbEntity
  8
1
100
AcDbVertex
100
AcDb2dVertex
 10
2.259842519685039
 20
6.241141732283464
 30
0.0
  0
VERTEX
  5
2383
330
2381
100
AcDbEntity
  8
1
100
AcDbVertex
100
AcDb2dVertex
 10
2.253937007874015
 20
6.243110236220472
 30
0.0
  0
VERTEX
  5
2384
330
2381
100
AcDbEntity
  8
1
100
AcDbVertex
100
AcDb2dVertex
 10
2.251968503937007
 20
6.249015748031496
 30
0.0
  0
SEQEND
  5
2385
330
2381
100
AcDbEntity
  8
1
  0
POLYLINE
  5
2386
330
1F
100
AcDbEntity
  8
1
100
AcDb2dPolyline
 66
     1
 10
0.0
 20
0.0
 30
0.0
  0
VERTEX
  5
2387
330
2386
100
AcDbEntity
  8
1
100
AcDbVertex
100
AcDb2dVertex
 10
2.251968503937007
 20
6.304133858267716
 30
0.0
  0
VERTEX
  5
2388
330
2386
100
AcDbEntity
  8
1
100
AcDbVertex
100
AcDb2dVertex
 10
2.25
 20
6.310039370078739
 30
0.0
  0
VERTEX
  5
2389
330
2386
100
AcDbEntity
  8
1
100
AcDbVertex
100
AcDb2dVertex
 10
2.244094488188976
 20
6.312007874015748
 30
0.0
  0
SEQEND
  5
238A
330
2386
100
AcDbEntity
  8
1
  0
POLYLINE
  5
238B
330
1F
100
AcDbEntity
  8
1
100
AcDb2dPolyline
 66
     1
 10
0.0
 20
0.0
 30
0.0
  0
VERTEX
  5
238C
330
238B
100
AcDbEntity
  8
1
100
AcDbVertex
100
AcDb2dVertex
 10
2.149606299212598
 20
6.312007874015748
 30
0.0
  0
VERTEX
  5
238D
330
238B
100
AcDbEntity
  8
1
100
AcDbVertex
100
AcDb2dVertex
 10
2.143700787401574
 20
6.310039370078739
 30
0.0
  0
VERTEX
  5
238E
330
238B
100
AcDbEntity
  8
1
100
AcDbVertex
100
AcDb2dVertex
 10
2.141732283464566
 20
6.304133858267716
 30
0.0
  0
SEQEND
  5
238F
330
238B
100
AcDbEntity
  8
1
  0
LINE
  5
2390
330
1F
100
AcDbEntity
  8
1
100
AcDbLine
 10
1.732283464566929
 20
5.056102362204724
 30
0.0
 11
2.312007874015748
 21
5.056102362204724
 31
0.0
  0
LINE
  5
2391
330
1F
100
AcDbEntity
  8
1
100
AcDbLine
 10
1.732283464566929
 20
5.701771653543307
 30
0.0
 11
1.732283464566929
 21
5.056102362204724
 31
0.0
  0
LINE
  5
2392
330
1F
100
AcDbEntity
  8
1
100
AcDbLine
 10
2.312007874015748
 20
5.056102362204724
 30
0.0
 11
2.312007874015748
 21
5.701771653543307
 31
0.0
  0
POLYLINE
  5
2393
330
1F
100
AcDbEntity
  8
1
100
AcDb2dPolyline
 66
     1
 10
0.0
 20
0.0
 30
0.0
  0
VERTEX
  5
2394
330
2393
100
AcDbEntity
  8
1
100
AcDbVertex
100
AcDb2dVertex
 10
2.452755905511811
 20
6.233267716535433
 30
0.0
  0
VERTEX
  5
2395
330
2393
100
AcDbEntity
  8
1
100
AcDbVertex
100
AcDb2dVertex
 10
2.450787401574803
 20
6.239173228346456
 30
0.0
  0
VERTEX
  5
2396
330
2393
100
AcDbEntity
  8
1
100
AcDbVertex
100
AcDb2dVertex
 10
2.444881889763779
 20
6.241141732283464
 30
0.0
  0
SEQEND
  5
2397
330
2393
100
AcDbEntity
  8
1
  0
POLYLINE
  5
2398
330
1F
100
AcDbEntity
  8
1
100
AcDb2dPolyline
 66
     1
 10
0.0
 20
0.0
 30
0.0
  0
VERTEX
  5
2399
330
2398
100
AcDbEntity
  8
1
100
AcDbVertex
100
AcDb2dVertex
 10
2.446850393700787
 20
6.227362204724409
 30
0.0
  0
VERTEX
  5
239A
330
2398
100
AcDbEntity
  8
1
100
AcDbVertex
100
AcDb2dVertex
 10
2.444881889763779
 20
6.233267716535433
 30
0.0
  0
VERTEX
  5
239B
330
2398
100
AcDbEntity
  8
1
100
AcDbVertex
100
AcDb2dVertex
 10
2.438976377952756
 20
6.23523622047244
 30
0.0
  0
SEQEND
  5
239C
330
2398
100
AcDbEntity
  8
1
  0
POLYLINE
  5
239D
330
1F
100
AcDbEntity
  8
1
100
AcDb2dPolyline
 66
     1
 10
0.0
 20
0.0
 30
0.0
  0
VERTEX
  5
239E
330
239D
100
AcDbEntity
  8
1
100
AcDbVertex
100
AcDb2dVertex
 10
1.599409448818897
 20
6.241141732283464
 30
0.0
  0
VERTEX
  5
239F
330
239D
100
AcDbEntity
  8
1
100
AcDbVertex
100
AcDb2dVertex
 10
1.593503937007874
 20
6.239173228346456
 30
0.0
  0
VERTEX
  5
23A0
330
239D
100
AcDbEntity
  8
1
100
AcDbVertex
100
AcDb2dVertex
 10
1.591535433070866
 20
6.233267716535433
 30
0.0
  0
SEQEND
  5
23A1
330
239D
100
AcDbEntity
  8
1
  0
POLYLINE
  5
23A2
330
1F
100
AcDbEntity
  8
1
100
AcDb2dPolyline
 66
     1
 10
0.0
 20
0.0
 30
0.0
  0
VERTEX
  5
23A3
330
23A2
100
AcDbEntity
  8
1
100
AcDbVertex
100
AcDb2dVertex
 10
2.446850393700787
 20
6.227362204724409
 30
0.0
  0
VERTEX
  5
23A4
330
23A2
100
AcDbEntity
  8
1
100
AcDbVertex
100
AcDb2dVertex
 10
2.444881889763779
 20
6.229330708661417
 30
0.0
  0
VERTEX
  5
23A5
330
23A2
100
AcDbEntity
  8
1
100
AcDbVertex
100
AcDb2dVertex
 10
2.438976377952756
 20
6.230314960629921
 30
0.0
  0
SEQEND
  5
23A6
330
23A2
100
AcDbEntity
  8
1
  0
POLYLINE
  5
23A7
330
1F
100
AcDbEntity
  8
1
100
AcDb2dPolyline
 66
     1
 10
0.0
 20
0.0
 30
0.0
  0
VERTEX
  5
23A8
330
23A7
100
AcDbEntity
  8
1
100
AcDbVertex
100
AcDb2dVertex
 10
2.438976377952756
 20
6.230314960629921
 30
0.0
  0
VERTEX
  5
23A9
330
23A7
100
AcDbEntity
  8
1
100
AcDbVertex
100
AcDb2dVertex
 10
2.438976377952756
 20
6.233267716535433
 30
0.0
  0
VERTEX
  5
23AA
330
23A7
100
AcDbEntity
  8
1
100
AcDbVertex
100
AcDb2dVertex
 10
2.438976377952756
 20
6.23523622047244
 30
0.0
  0
SEQEND
  5
23AB
330
23A7
100
AcDbEntity
  8
1
  0
POLYLINE
  5
23AC
330
1F
100
AcDbEntity
  8
1
100
AcDb2dPolyline
 66
     1
 10
0.0
 20
0.0
 30
0.0
  0
VERTEX
  5
23AD
330
23AC
100
AcDbEntity
  8
1
100
AcDbVertex
100
AcDb2dVertex
 10
1.605314960629921
 20
6.23523622047244
 30
0.0
  0
VERTEX
  5
23AE
330
23AC
100
AcDbEntity
  8
1
100
AcDbVertex
100
AcDb2dVertex
 10
1.599409448818897
 20
6.233267716535433
 30
0.0
  0
VERTEX
  5
23AF
330
23AC
100
AcDbEntity
  8
1
100
AcDbVertex
100
AcDb2dVertex
 10
1.597440944881889
 20
6.227362204724409
 30
0.0
  0
SEQEND
  5
23B0
330
23AC
100
AcDbEntity
  8
1
  0
POLYLINE
  5
23B1
330
1F
100
AcDbEntity
  8
1
100
AcDb2dPolyline
 66
     1
 10
0.0
 20
0.0
 30
0.0
  0
VERTEX
  5
23B2
330
23B1
100
AcDbEntity
  8
1
100
AcDbVertex
100
AcDb2dVertex
 10
1.605314960629921
 20
6.230314960629921
 30
0.0
  0
VERTEX
  5
23B3
330
23B1
100
AcDbEntity
  8
1
100
AcDbVertex
100
AcDb2dVertex
 10
1.605314960629921
 20
6.233267716535433
 30
0.0
  0
VERTEX
  5
23B4
330
23B1
100
AcDbEntity
  8
1
100
AcDbVertex
100
AcDb2dVertex
 10
1.605314960629921
 20
6.23523622047244
 30
0.0
  0
SEQEND
  5
23B5
330
23B1
100
AcDbEntity
  8
1
  0
POLYLINE
  5
23B6
330
1F
100
AcDbEntity
  8
1
100
AcDb2dPolyline
 66
     1
 10
0.0
 20
0.0
 30
0.0
  0
VERTEX
  5
23B7
330
23B6
100
AcDbEntity
  8
1
100
AcDbVertex
100
AcDb2dVertex
 10
2.446850393700787
 20
6.166338582677164
 30
0.0
  0
VERTEX
  5
23B8
330
23B6
100
AcDbEntity
  8
1
100
AcDbVertex
100
AcDb2dVertex
 10
2.443897637795275
 20
6.168307086614173
 30
0.0
  0
VERTEX
  5
23B9
330
23B6
100
AcDbEntity
  8
1
100
AcDbVertex
100
AcDb2dVertex
 10
2.438976377952756
 20
6.168307086614173
 30
0.0
  0
SEQEND
  5
23BA
330
23B6
100
AcDbEntity
  8
1
  0
POLYLINE
  5
23BB
330
1F
100
AcDbEntity
  8
1
100
AcDb2dPolyline
 66
     1
 10
0.0
 20
0.0
 30
0.0
  0
VERTEX
  5
23BC
330
23BB
100
AcDbEntity
  8
1
100
AcDbVertex
100
AcDb2dVertex
 10
1.605314960629921
 20
6.230314960629921
 30
0.0
  0
VERTEX
  5
23BD
330
23BB
100
AcDbEntity
  8
1
100
AcDbVertex
100
AcDb2dVertex
 10
1.599409448818897
 20
6.229330708661417
 30
0.0
  0
VERTEX
  5
23BE
330
23BB
100
AcDbEntity
  8
1
100
AcDbVertex
100
AcDb2dVertex
 10
1.597440944881889
 20
6.227362204724409
 30
0.0
  0
SEQEND
  5
23BF
330
23BB
100
AcDbEntity
  8
1
  0
POLYLINE
  5
23C0
330
1F
100
AcDbEntity
  8
1
100
AcDb2dPolyline
 66
     1
 10
0.0
 20
0.0
 30
0.0
  0
VERTEX
  5
23C1
330
23C0
100
AcDbEntity
  8
1
100
AcDbVertex
100
AcDb2dVertex
 10
2.446850393700787
 20
6.080708661417323
 30
0.0
  0
VERTEX
  5
23C2
330
23C0
100
AcDbEntity
  8
1
100
AcDbVertex
100
AcDb2dVertex
 10
2.443897637795275
 20
6.080708661417323
 30
0.0
  0
VERTEX
  5
23C3
330
23C0
100
AcDbEntity
  8
1
100
AcDbVertex
100
AcDb2dVertex
 10
2.438976377952756
 20
6.080708661417323
 30
0.0
  0
SEQEND
  5
23C4
330
23C0
100
AcDbEntity
  8
1
  0
POLYLINE
  5
23C5
330
1F
100
AcDbEntity
  8
1
100
AcDb2dPolyline
 66
     1
 10
0.0
 20
0.0
 30
0.0
  0
VERTEX
  5
23C6
330
23C5
100
AcDbEntity
  8
1
100
AcDbVertex
100
AcDb2dVertex
 10
1.605314960629921
 20
6.168307086614173
 30
0.0
  0
VERTEX
  5
23C7
330
23C5
100
AcDbEntity
  8
1
100
AcDbVertex
100
AcDb2dVertex
 10
1.599409448818897
 20
6.168307086614173
 30
0.0
  0
VERTEX
  5
23C8
330
23C5
100
AcDbEntity
  8
1
100
AcDbVertex
100
AcDb2dVertex
 10
1.597440944881889
 20
6.166338582677164
 30
0.0
  0
SEQEND
  5
23C9
330
23C5
100
AcDbEntity
  8
1
  0
POLYLINE
  5
23CA
330
1F
100
AcDbEntity
  8
1
100
AcDb2dPolyline
 66
     1
 10
0.0
 20
0.0
 30
0.0
  0
VERTEX
  5
23CB
330
23CA
100
AcDbEntity
  8
1
100
AcDbVertex
100
AcDb2dVertex
 10
2.446850393700787
 20
4.678149606299212
 30
0.0
  0
VERTEX
  5
23CC
330
23CA
100
AcDbEntity
  8
1
100
AcDbVertex
100
AcDb2dVertex
 10
2.443897637795275
 20
4.678149606299212
 30
0.0
  0
VERTEX
  5
23CD
330
23CA
100
AcDbEntity
  8
1
100
AcDbVertex
100
AcDb2dVertex
 10
2.438976377952756
 20
4.678149606299212
 30
0.0
  0
SEQEND
  5
23CE
330
23CA
100
AcDbEntity
  8
1
  0
POLYLINE
  5
23CF
330
1F
100
AcDbEntity
  8
1
100
AcDb2dPolyline
 66
     1
 10
0.0
 20
0.0
 30
0.0
  0
VERTEX
  5
23D0
330
23CF
100
AcDbEntity
  8
1
100
AcDbVertex
100
AcDb2dVertex
 10
1.605314960629921
 20
6.080708661417323
 30
0.0
  0
VERTEX
  5
23D1
330
23CF
100
AcDbEntity
  8
1
100
AcDbVertex
100
AcDb2dVertex
 10
1.599409448818897
 20
6.080708661417323
 30
0.0
  0
VERTEX
  5
23D2
330
23CF
100
AcDbEntity
  8
1
100
AcDbVertex
100
AcDb2dVertex
 10
1.597440944881889
 20
6.080708661417323
 30
0.0
  0
SEQEND
  5
23D3
330
23CF
100
AcDbEntity
  8
1
  0
POLYLINE
  5
23D4
330
1F
100
AcDbEntity
  8
1
100
AcDb2dPolyline
 66
     1
 10
0.0
 20
0.0
 30
0.0
  0
VERTEX
  5
23D5
330
23D4
100
AcDbEntity
  8
1
100
AcDbVertex
100
AcDb2dVertex
 10
2.446850393700787
 20
4.591535433070865
 30
0.0
  0
VERTEX
  5
23D6
330
23D4
100
AcDbEntity
  8
1
100
AcDbVertex
100
AcDb2dVertex
 10
2.443897637795275
 20
4.590551181102362
 30
0.0
  0
VERTEX
  5
23D7
330
23D4
100
AcDbEntity
  8
1
100
AcDbVertex
100
AcDb2dVertex
 10
2.438976377952756
 20
4.589566929133858
 30
0.0
  0
SEQEND
  5
23D8
330
23D4
100
AcDbEntity
  8
1
  0
POLYLINE
  5
23D9
330
1F
100
AcDbEntity
  8
1
100
AcDb2dPolyline
 66
     1
 10
0.0
 20
0.0
 30
0.0
  0
VERTEX
  5
23DA
330
23D9
100
AcDbEntity
  8
1
100
AcDbVertex
100
AcDb2dVertex
 10
2.444881889763779
 20
4.516732283464566
 30
0.0
  0
VERTEX
  5
23DB
330
23D9
100
AcDbEntity
  8
1
100
AcDbVertex
100
AcDb2dVertex
 10
2.450787401574803
 20
4.519685039370078
 30
0.0
  0
VERTEX
  5
23DC
330
23D9
100
AcDbEntity
  8
1
100
AcDbVertex
100
AcDb2dVertex
 10
2.452755905511811
 20
4.524606299212598
 30
0.0
  0
SEQEND
  5
23DD
330
23D9
100
AcDbEntity
  8
1
  0
POLYLINE
  5
23DE
330
1F
100
AcDbEntity
  8
1
100
AcDb2dPolyline
 66
     1
 10
0.0
 20
0.0
 30
0.0
  0
VERTEX
  5
23DF
330
23DE
100
AcDbEntity
  8
1
100
AcDbVertex
100
AcDb2dVertex
 10
1.605314960629921
 20
4.678149606299212
 30
0.0
  0
VERTEX
  5
23E0
330
23DE
100
AcDbEntity
  8
1
100
AcDbVertex
100
AcDb2dVertex
 10
1.599409448818897
 20
4.678149606299212
 30
0.0
  0
VERTEX
  5
23E1
330
23DE
100
AcDbEntity
  8
1
100
AcDbVertex
100
AcDb2dVertex
 10
1.597440944881889
 20
4.678149606299212
 30
0.0
  0
SEQEND
  5
23E2
330
23DE
100
AcDbEntity
  8
1
  0
POLYLINE
  5
23E3
330
1F
100
AcDbEntity
  8
1
100
AcDb2dPolyline
 66
     1
 10
0.0
 20
0.0
 30
0.0
  0
VERTEX
  5
23E4
330
23E3
100
AcDbEntity
  8
1
100
AcDbVertex
100
AcDb2dVertex
 10
2.446850393700787
 20
4.530511811023622
 30
0.0
  0
VERTEX
  5
23E5
330
23E3
100
AcDbEntity
  8
1
100
AcDbVertex
100
AcDb2dVertex
 10
2.444881889763779
 20
4.529527559055117
 30
0.0
  0
VERTEX
  5
23E6
330
23E3
100
AcDbEntity
  8
1
100
AcDbVertex
100
AcDb2dVertex
 10
2.438976377952756
 20
4.528543307086613
 30
0.0
  0
SEQEND
  5
23E7
330
23E3
100
AcDbEntity
  8
1
  0
POLYLINE
  5
23E8
330
1F
100
AcDbEntity
  8
1
100
AcDb2dPolyline
 66
     1
 10
0.0
 20
0.0
 30
0.0
  0
VERTEX
  5
23E9
330
23E8
100
AcDbEntity
  8
1
100
AcDbVertex
100
AcDb2dVertex
 10
2.438976377952756
 20
4.52263779527559
 30
0.0
  0
VERTEX
  5
23EA
330
23E8
100
AcDbEntity
  8
1
100
AcDbVertex
100
AcDb2dVertex
 10
2.444881889763779
 20
4.525590551181101
 30
0.0
  0
VERTEX
  5
23EB
330
23E8
100
AcDbEntity
  8
1
100
AcDbVertex
100
AcDb2dVertex
 10
2.446850393700787
 20
4.530511811023622
 30
0.0
  0
SEQEND
  5
23EC
330
23E8
100
AcDbEntity
  8
1
  0
POLYLINE
  5
23ED
330
1F
100
AcDbEntity
  8
1
100
AcDb2dPolyline
 66
     1
 10
0.0
 20
0.0
 30
0.0
  0
VERTEX
  5
23EE
330
23ED
100
AcDbEntity
  8
1
100
AcDbVertex
100
AcDb2dVertex
 10
1.605314960629921
 20
4.589566929133858
 30
0.0
  0
VERTEX
  5
23EF
330
23ED
100
AcDbEntity
  8
1
100
AcDbVertex
100
AcDb2dVertex
 10
1.599409448818897
 20
4.590551181102362
 30
0.0
  0
VERTEX
  5
23F0
330
23ED
100
AcDbEntity
  8
1
100
AcDbVertex
100
AcDb2dVertex
 10
1.597440944881889
 20
4.591535433070865
 30
0.0
  0
SEQEND
  5
23F1
330
23ED
100
AcDbEntity
  8
1
  0
POLYLINE
  5
23F2
330
1F
100
AcDbEntity
  8
1
100
AcDb2dPolyline
 66
     1
 10
0.0
 20
0.0
 30
0.0
  0
VERTEX
  5
23F3
330
23F2
100
AcDbEntity
  8
1
100
AcDbVertex
100
AcDb2dVertex
 10
2.438976377952756
 20
4.52263779527559
 30
0.0
  0
VERTEX
  5
23F4
330
23F2
100
AcDbEntity
  8
1
100
AcDbVertex
100
AcDb2dVertex
 10
2.438976377952756
 20
4.524606299212598
 30
0.0
  0
VERTEX
  5
23F5
330
23F2
100
AcDbEntity
  8
1
100
AcDbVertex
100
AcDb2dVertex
 10
2.438976377952756
 20
4.528543307086613
 30
0.0
  0
SEQEND
  5
23F6
330
23F2
100
AcDbEntity
  8
1
  0
POLYLINE
  5
23F7
330
1F
100
AcDbEntity
  8
1
100
AcDb2dPolyline
 66
     1
 10
0.0
 20
0.0
 30
0.0
  0
VERTEX
  5
23F8
330
23F7
100
AcDbEntity
  8
1
100
AcDbVertex
100
AcDb2dVertex
 10
1.605314960629921
 20
4.528543307086613
 30
0.0
  0
VERTEX
  5
23F9
330
23F7
100
AcDbEntity
  8
1
100
AcDbVertex
100
AcDb2dVertex
 10
1.599409448818897
 20
4.529527559055117
 30
0.0
  0
VERTEX
  5
23FA
330
23F7
100
AcDbEntity
  8
1
100
AcDbVertex
100
AcDb2dVertex
 10
1.597440944881889
 20
4.530511811023622
 30
0.0
  0
SEQEND
  5
23FB
330
23F7
100
AcDbEntity
  8
1
  0
POLYLINE
  5
23FC
330
1F
100
AcDbEntity
  8
1
100
AcDb2dPolyline
 66
     1
 10
0.0
 20
0.0
 30
0.0
  0
VERTEX
  5
23FD
330
23FC
100
AcDbEntity
  8
1
100
AcDbVertex
100
AcDb2dVertex
 10
1.605314960629921
 20
4.52263779527559
 30
0.0
  0
VERTEX
  5
23FE
330
23FC
100
AcDbEntity
  8
1
100
AcDbVertex
100
AcDb2dVertex
 10
1.605314960629921
 20
4.524606299212598
 30
0.0
  0
VERTEX
  5
23FF
330
23FC
100
AcDbEntity
  8
1
100
AcDbVertex
100
AcDb2dVertex
 10
1.605314960629921
 20
4.528543307086613
 30
0.0
  0
SEQEND
  5
2400
330
23FC
100
AcDbEntity
  8
1
  0
POLYLINE
  5
2401
330
1F
100
AcDbEntity
  8
1
100
AcDb2dPolyline
 66
     1
 10
0.0
 20
0.0
 30
0.0
  0
VERTEX
  5
2402
330
2401
100
AcDbEntity
  8
1
100
AcDbVertex
100
AcDb2dVertex
 10
1.605314960629921
 20
4.52263779527559
 30
0.0
  0
VERTEX
  5
2403
330
2401
100
AcDbEntity
  8
1
100
AcDbVertex
100
AcDb2dVertex
 10
1.599409448818897
 20
4.525590551181101
 30
0.0
  0
VERTEX
  5
2404
330
2401
100
AcDbEntity
  8
1
100
AcDbVertex
100
AcDb2dVertex
 10
1.597440944881889
 20
4.530511811023622
 30
0.0
  0
SEQEND
  5
2405
330
2401
100
AcDbEntity
  8
1
  0
POLYLINE
  5
2406
330
1F
100
AcDbEntity
  8
1
100
AcDb2dPolyline
 66
     1
 10
0.0
 20
0.0
 30
0.0
  0
VERTEX
  5
2407
330
2406
100
AcDbEntity
  8
1
100
AcDbVertex
100
AcDb2dVertex
 10
1.599409448818897
 20
4.516732283464566
 30
0.0
  0
VERTEX
  5
2408
330
2406
100
AcDbEntity
  8
1
100
AcDbVertex
100
AcDb2dVertex
 10
1.593503937007874
 20
4.519685039370078
 30
0.0
  0
VERTEX
  5
2409
330
2406
100
AcDbEntity
  8
1
100
AcDbVertex
100
AcDb2dVertex
 10
1.591535433070866
 20
4.524606299212598
 30
0.0
  0
SEQEND
  5
240A
330
2406
100
AcDbEntity
  8
1
  0
POLYLINE
  5
240B
330
1F
100
AcDbEntity
  8
1
100
AcDb2dPolyline
 66
     1
 10
0.0
 20
0.0
 30
0.0
  0
VERTEX
  5
240C
330
240B
100
AcDbEntity
  8
1
100
AcDbVertex
100
AcDb2dVertex
 10
2.319881889763779
 20
5.709645669291338
 30
0.0
  0
VERTEX
  5
240D
330
240B
100
AcDbEntity
  8
1
100
AcDbVertex
100
AcDb2dVertex
 10
2.313976377952756
 20
5.703740157480314
 30
0.0
  0
VERTEX
  5
240E
330
240B
100
AcDbEntity
  8
1
100
AcDbVertex
100
AcDb2dVertex
 10
2.312007874015748
 20
5.701771653543307
 30
0.0
  0
SEQEND
  5
240F
330
240B
100
AcDbEntity
  8
1
  0
POLYLINE
  5
2410
330
1F
100
AcDbEntity
  8
1
100
AcDb2dPolyline
 66
     1
 10
0.0
 20
0.0
 30
0.0
  0
VERTEX
  5
2411
330
2410
100
AcDbEntity
  8
1
100
AcDbVertex
100
AcDb2dVertex
 10
1.732283464566929
 20
5.701771653543307
 30
0.0
  0
VERTEX
  5
2412
330
2410
100
AcDbEntity
  8
1
100
AcDbVertex
100
AcDb2dVertex
 10
1.729330708661417
 20
5.703740157480314
 30
0.0
  0
VERTEX
  5
2413
330
2410
100
AcDbEntity
  8
1
100
AcDbVertex
100
AcDb2dVertex
 10
1.724409448818897
 20
5.709645669291338
 30
0.0
  0
SEQEND
  5
2414
330
2410
100
AcDbEntity
  8
1
  0
POLYLINE
  5
2415
330
1F
100
AcDbEntity
  8
1
100
AcDb2dPolyline
 66
     1
 10
0.0
 20
0.0
 30
0.0
  0
VERTEX
  5
2416
330
2415
100
AcDbEntity
  8
1
100
AcDbVertex
100
AcDb2dVertex
 10
2.319881889763779
 20
5.048228346456692
 30
0.0
  0
VERTEX
  5
2417
330
2415
100
AcDbEntity
  8
1
100
AcDbVertex
100
AcDb2dVertex
 10
2.313976377952756
 20
5.054133858267716
 30
0.0
  0
VERTEX
  5
2418
330
2415
100
AcDbEntity
  8
1
100
AcDbVertex
100
AcDb2dVertex
 10
2.312007874015748
 20
5.056102362204724
 30
0.0
  0
SEQEND
  5
2419
330
2415
100
AcDbEntity
  8
1
  0
POLYLINE
  5
241A
330
1F
100
AcDbEntity
  8
1
100
AcDb2dPolyline
 66
     1
 10
0.0
 20
0.0
 30
0.0
  0
VERTEX
  5
241B
330
241A
100
AcDbEntity
  8
1
100
AcDbVertex
100
AcDb2dVertex
 10
1.732283464566929
 20
5.056102362204724
 30
0.0
  0
VERTEX
  5
241C
330
241A
100
AcDbEntity
  8
1
100
AcDbVertex
100
AcDb2dVertex
 10
1.729330708661417
 20
5.054133858267716
 30
0.0
  0
VERTEX
  5
241D
330
241A
100
AcDbEntity
  8
1
100
AcDbVertex
100
AcDb2dVertex
 10
1.724409448818897
 20
5.048228346456692
 30
0.0
  0
SEQEND
  5
241E
330
241A
100
AcDbEntity
  8
1
  0
POLYLINE
  5
241F
330
1F
100
AcDbEntity
  8
1
100
AcDb2dPolyline
 66
     1
 10
0.0
 20
0.0
 30
0.0
  0
VERTEX
  5
2420
330
241F
100
AcDbEntity
  8
1
100
AcDbVertex
100
AcDb2dVertex
 10
4.335629921259842
 20
4.951771653543307
 30
0.0
  0
VERTEX
  5
2421
330
241F
100
AcDbEntity
  8
1
100
AcDbVertex
100
AcDb2dVertex
 10
4.33267716535433
 20
4.953740157480314
 30
0.0
  0
VERTEX
  5
2422
330
241F
100
AcDbEntity
  8
1
100
AcDbVertex
100
AcDb2dVertex
 10
4.330708661417323
 20
4.955708661417323
 30
0.0
  0
SEQEND
  5
2423
330
241F
100
AcDbEntity
  8
1
  0
LINE
  5
2424
330
1F
100
AcDbEntity
  8
1
100
AcDbLine
 10
4.301181102362204
 20
5.827755905511811
 30
0.0
 11
4.098425196850393
 21
5.823818897637795
 31
0.0
  0
LINE
  5
2425
330
1F
100
AcDbEntity
  8
1
100
AcDbLine
 10
4.301181102362204
 20
5.827755905511811
 30
0.0
 11
4.304133858267716
 21
5.831692913385826
 31
0.0
  0
LINE
  5
2426
330
1F
100
AcDbEntity
  8
1
100
AcDbLine
 10
4.304133858267716
 20
5.831692913385826
 30
0.0
 11
4.304133858267716
 21
6.233267716535433
 31
0.0
  0
LINE
  5
2427
330
1F
100
AcDbEntity
  8
1
100
AcDbLine
 10
4.304133858267716
 20
6.233267716535433
 30
0.0
 11
3.96751968503937
 21
6.227362204724409
 31
0.0
  0
LINE
  5
2428
330
1F
100
AcDbEntity
  8
1
100
AcDbLine
 10
3.96751968503937
 20
6.227362204724409
 30
0.0
 11
3.949803149606299
 21
6.166338582677164
 31
0.0
  0
POLYLINE
  5
2429
330
1F
100
AcDbEntity
  8
1
100
AcDb2dPolyline
 66
     1
 10
0.0
 20
0.0
 30
0.0
  0
VERTEX
  5
242A
330
2429
100
AcDbEntity
  8
1
100
AcDbVertex
100
AcDb2dVertex
 10
3.949803149606299
 20
6.166338582677164
 30
0.0
  0
VERTEX
  5
242B
330
2429
100
AcDbEntity
  8
1
100
AcDbVertex
100
AcDb2dVertex
 10
3.941929133858267
 20
6.124015748031496
 30
0.0
  0
VERTEX
  5
242C
330
2429
100
AcDbEntity
  8
1
100
AcDbVertex
100
AcDb2dVertex
 10
3.939960629921259
 20
6.080708661417323
 30
0.0
  0
SEQEND
  5
242D
330
2429
100
AcDbEntity
  8
1
  0
LINE
  5
242E
330
1F
100
AcDbEntity
  8
1
100
AcDbLine
 10
3.939960629921259
 20
6.080708661417323
 30
0.0
 11
3.939960629921259
 21
4.678149606299212
 31
0.0
  0
POLYLINE
  5
242F
330
1F
100
AcDbEntity
  8
1
100
AcDb2dPolyline
 66
     1
 10
0.0
 20
0.0
 30
0.0
  0
VERTEX
  5
2430
330
242F
100
AcDbEntity
  8
1
100
AcDbVertex
100
AcDb2dVertex
 10
3.939960629921259
 20
4.678149606299212
 30
0.0
  0
VERTEX
  5
2431
330
242F
100
AcDbEntity
  8
1
100
AcDbVertex
100
AcDb2dVertex
 10
3.941929133858267
 20
4.633858267716535
 30
0.0
  0
VERTEX
  5
2432
330
242F
100
AcDbEntity
  8
1
100
AcDbVertex
100
AcDb2dVertex
 10
3.949803149606299
 20
4.591535433070865
 30
0.0
  0
SEQEND
  5
2433
330
242F
100
AcDbEntity
  8
1
  0
LINE
  5
2434
330
1F
100
AcDbEntity
  8
1
100
AcDbLine
 10
3.949803149606299
 20
4.591535433070865
 30
0.0
 11
3.96751968503937
 21
4.530511811023622
 31
0.0
  0
LINE
  5
2435
330
1F
100
AcDbEntity
  8
1
100
AcDbLine
 10
3.96751968503937
 20
4.530511811023622
 30
0.0
 11
4.304133858267716
 21
4.524606299212598
 31
0.0
  0
LINE
  5
2436
330
1F
100
AcDbEntity
  8
1
100
AcDbLine
 10
4.304133858267716
 20
4.524606299212598
 30
0.0
 11
4.304133858267716
 21
5.02755905511811
 31
0.0
  0
LINE
  5
2437
330
1F
100
AcDbEntity
  8
1
100
AcDbLine
 10
4.098425196850393
 20
5.031496062992125
 30
0.0
 11
4.304133858267716
 21
5.02755905511811
 31
0.0
  0
POLYLINE
  5
2438
330
1F
100
AcDbEntity
  8
1
100
AcDb2dPolyline
 66
     1
 10
0.0
 20
0.0
 30
0.0
  0
VERTEX
  5
2439
330
2438
100
AcDbEntity
  8
1
100
AcDbVertex
100
AcDb2dVertex
 10
4.098425196850393
 20
5.031496062992125
 30
0.0
  0
VERTEX
  5
243A
330
2438
100
AcDbEntity
  8
1
100
AcDbVertex
100
AcDb2dVertex
 10
4.09251968503937
 20
5.033464566929133
 30
0.0
  0
VERTEX
  5
243B
330
2438
100
AcDbEntity
  8
1
100
AcDbVertex
100
AcDb2dVertex
 10
4.090551181102362
 20
5.039370078740157
 30
0.0
  0
SEQEND
  5
243C
330
2438
100
AcDbEntity
  8
1
  0
LINE
  5
243D
330
1F
100
AcDbEntity
  8
1
100
AcDbLine
 10
4.090551181102362
 20
5.039370078740157
 30
0.0
 11
4.090551181102362
 21
5.815944881889763
 31
0.0
  0
POLYLINE
  5
243E
330
1F
100
AcDbEntity
  8
1
100
AcDb2dPolyline
 66
     1
 10
0.0
 20
0.0
 30
0.0
  0
VERTEX
  5
243F
330
243E
100
AcDbEntity
  8
1
100
AcDbVertex
100
AcDb2dVertex
 10
4.090551181102362
 20
5.815944881889763
 30
0.0
  0
VERTEX
  5
2440
330
243E
100
AcDbEntity
  8
1
100
AcDbVertex
100
AcDb2dVertex
 10
4.09251968503937
 20
5.821850393700787
 30
0.0
  0
VERTEX
  5
2441
330
243E
100
AcDbEntity
  8
1
100
AcDbVertex
100
AcDb2dVertex
 10
4.098425196850393
 20
5.823818897637795
 30
0.0
  0
SEQEND
  5
2442
330
243E
100
AcDbEntity
  8
1
  0
POLYLINE
  5
2443
330
1F
100
AcDbEntity
  8
1
100
AcDb2dPolyline
 66
     1
 10
0.0
 20
0.0
 30
0.0
  0
VERTEX
  5
2444
330
2443
100
AcDbEntity
  8
1
100
AcDbVertex
100
AcDb2dVertex
 10
4.336614173228346
 20
4.93996062992126
 30
0.0
  0
VERTEX
  5
2445
330
2443
100
AcDbEntity
  8
1
100
AcDbVertex
100
AcDb2dVertex
 10
4.318897637795275
 20
4.958661417322834
 30
0.0
  0
VERTEX
  5
2446
330
2443
100
AcDbEntity
  8
1
100
AcDbVertex
100
AcDb2dVertex
 10
4.308070866141732
 20
4.982283464566928
 30
0.0
  0
VERTEX
  5
2447
330
2443
100
AcDbEntity
  8
1
100
AcDbVertex
100
AcDb2dVertex
 10
4.304133858267716
 20
5.007874015748031
 30
0.0
  0
SEQEND
  5
2448
330
2443
100
AcDbEntity
  8
1
  0
LINE
  5
2449
330
1F
100
AcDbEntity
  8
1
100
AcDbLine
 10
4.304133858267716
 20
5.007874015748031
 30
0.0
 11
4.304133858267716
 21
5.02755905511811
 31
0.0
  0
LINE
  5
244A
330
1F
100
AcDbEntity
  8
1
100
AcDbLine
 10
4.304133858267716
 20
4.524606299212598
 30
0.0
 11
4.676181102362204
 21
4.531496062992125
 31
0.0
  0
LINE
  5
244B
330
1F
100
AcDbEntity
  8
1
100
AcDbLine
 10
4.676181102362204
 20
4.531496062992125
 30
0.0
 11
4.676181102362204
 21
4.635826771653543
 31
0.0
  0
POLYLINE
  5
244C
330
1F
100
AcDbEntity
  8
1
100
AcDb2dPolyline
 66
     1
 10
0.0
 20
0.0
 30
0.0
  0
VERTEX
  5
244D
330
244C
100
AcDbEntity
  8
1
100
AcDbVertex
100
AcDb2dVertex
 10
4.676181102362204
 20
4.635826771653543
 30
0.0
  0
VERTEX
  5
244E
330
244C
100
AcDbEntity
  8
1
100
AcDbVertex
100
AcDb2dVertex
 10
4.673228346456692
 20
4.656496062992125
 30
0.0
  0
VERTEX
  5
244F
330
244C
100
AcDbEntity
  8
1
100
AcDbVertex
100
AcDb2dVertex
 10
4.663385826771653
 20
4.6751968503937
 30
0.0
  0
VERTEX
  5
2450
330
244C
100
AcDbEntity
  8
1
100
AcDbVertex
100
AcDb2dVertex
 10
4.649606299212598
 20
4.690944881889763
 30
0.0
  0
SEQEND
  5
2451
330
244C
100
AcDbEntity
  8
1
  0
LINE
  5
2452
330
1F
100
AcDbEntity
  8
1
100
AcDbLine
 10
4.649606299212598
 20
4.690944881889763
 30
0.0
 11
4.336614173228346
 21
4.93996062992126
 31
0.0
  0
LINE
  5
2453
330
1F
100
AcDbEntity
  8
1
100
AcDbLine
 10
4.676181102362204
 20
4.523622047244094
 30
0.0
 11
4.304133858267716
 21
4.516732283464566
 31
0.0
  0
LINE
  5
2454
330
1F
100
AcDbEntity
  8
1
100
AcDbLine
 10
3.96751968503937
 20
6.23523622047244
 30
0.0
 11
4.304133858267716
 21
6.241141732283464
 31
0.0
  0
LINE
  5
2455
330
1F
100
AcDbEntity
  8
1
100
AcDbLine
 10
4.304133858267716
 20
6.241141732283464
 30
0.0
 11
4.676181102362204
 21
6.234251968503937
 31
0.0
  0
LINE
  5
2456
330
1F
100
AcDbEntity
  8
1
100
AcDbLine
 10
3.932086614173228
 20
4.678149606299212
 30
0.0
 11
3.932086614173228
 21
6.080708661417323
 31
0.0
  0
LINE
  5
2457
330
1F
100
AcDbEntity
  8
1
100
AcDbLine
 10
4.684055118110236
 20
4.635826771653543
 30
0.0
 11
4.684055118110236
 21
4.531496062992125
 31
0.0
  0
POLYLINE
  5
2458
330
1F
100
AcDbEntity
  8
1
100
AcDb2dPolyline
 66
     1
 10
0.0
 20
0.0
 30
0.0
  0
VERTEX
  5
2459
330
2458
100
AcDbEntity
  8
1
100
AcDbVertex
100
AcDb2dVertex
 10
4.684055118110236
 20
4.531496062992125
 30
0.0
  0
VERTEX
  5
245A
330
2458
100
AcDbEntity
  8
1
100
AcDbVertex
100
AcDb2dVertex
 10
4.684055118110236
 20
4.526574803149606
 30
0.0
  0
VERTEX
  5
245B
330
2458
100
AcDbEntity
  8
1
100
AcDbVertex
100
AcDb2dVertex
 10
4.684055118110236
 20
4.515748031496062
 30
0.0
  0
SEQEND
  5
245C
330
2458
100
AcDbEntity
  8
1
  0
LINE
  5
245D
330
1F
100
AcDbEntity
  8
1
100
AcDbLine
 10
4.684055118110236
 20
4.515748031496062
 30
0.0
 11
4.684055118110236
 21
4.460629921259842
 31
0.0
  0
POLYLINE
  5
245E
330
1F
100
AcDbEntity
  8
1
100
AcDb2dPolyline
 66
     1
 10
0.0
 20
0.0
 30
0.0
  0
VERTEX
  5
245F
330
245E
100
AcDbEntity
  8
1
100
AcDbVertex
100
AcDb2dVertex
 10
4.644685039370078
 20
6.061023622047244
 30
0.0
  0
VERTEX
  5
2460
330
245E
100
AcDbEntity
  8
1
100
AcDbVertex
100
AcDb2dVertex
 10
4.661417322834645
 20
6.076771653543307
 30
0.0
  0
VERTEX
  5
2461
330
245E
100
AcDbEntity
  8
1
100
AcDbVertex
100
AcDb2dVertex
 10
4.672244094488188
 20
6.097440944881889
 30
0.0
  0
VERTEX
  5
2462
330
245E
100
AcDbEntity
  8
1
100
AcDbVertex
100
AcDb2dVertex
 10
4.676181102362204
 20
6.12007874015748
 30
0.0
  0
SEQEND
  5
2463
330
245E
100
AcDbEntity
  8
1
  0
LINE
  5
2464
330
1F
100
AcDbEntity
  8
1
100
AcDbLine
 10
4.676181102362204
 20
6.12007874015748
 30
0.0
 11
4.676181102362204
 21
6.226377952755905
 31
0.0
  0
LINE
  5
2465
330
1F
100
AcDbEntity
  8
1
100
AcDbLine
 10
4.676181102362204
 20
6.226377952755905
 30
0.0
 11
4.304133858267716
 21
6.233267716535433
 31
0.0
  0
LINE
  5
2466
330
1F
100
AcDbEntity
  8
1
100
AcDbLine
 10
4.304133858267716
 20
5.831692913385826
 30
0.0
 11
4.644685039370078
 21
6.061023622047244
 31
0.0
  0
LINE
  5
2467
330
1F
100
AcDbEntity
  8
1
100
AcDbLine
 10
4.304133858267716
 20
4.516732283464566
 30
0.0
 11
3.96751968503937
 21
4.52263779527559
 31
0.0
  0
LINE
  5
2468
330
1F
100
AcDbEntity
  8
1
100
AcDbLine
 10
4.676181102362204
 20
4.460629921259842
 30
0.0
 11
4.676181102362204
 21
4.515748031496062
 31
0.0
  0
LINE
  5
2469
330
1F
100
AcDbEntity
  8
1
100
AcDbLine
 10
4.676181102362204
 20
4.515748031496062
 30
0.0
 11
4.304133858267716
 21
4.508858267716535
 31
0.0
  0
LINE
  5
246A
330
1F
100
AcDbEntity
  8
1
100
AcDbLine
 10
4.304133858267716
 20
4.453740157480314
 30
0.0
 11
4.304133858267716
 21
4.508858267716535
 31
0.0
  0
LINE
  5
246B
330
1F
100
AcDbEntity
  8
1
100
AcDbLine
 10
4.304133858267716
 20
4.453740157480314
 30
0.0
 11
4.676181102362204
 21
4.460629921259842
 31
0.0
  0
LINE
  5
246C
330
1F
100
AcDbEntity
  8
1
100
AcDbLine
 10
4.676181102362204
 20
4.452755905511811
 30
0.0
 11
4.304133858267716
 21
4.445866141732283
 31
0.0
  0
LINE
  5
246D
330
1F
100
AcDbEntity
  8
1
100
AcDbLine
 10
3.960629921259842
 20
4.528543307086613
 30
0.0
 11
3.941929133858267
 21
4.589566929133858
 31
0.0
  0
POLYLINE
  5
246E
330
1F
100
AcDbEntity
  8
1
100
AcDb2dPolyline
 66
     1
 10
0.0
 20
0.0
 30
0.0
  0
VERTEX
  5
246F
330
246E
100
AcDbEntity
  8
1
100
AcDbVertex
100
AcDb2dVertex
 10
3.941929133858267
 20
4.589566929133858
 30
0.0
  0
VERTEX
  5
2470
330
246E
100
AcDbEntity
  8
1
100
AcDbVertex
100
AcDb2dVertex
 10
3.934055118110236
 20
4.633858267716535
 30
0.0
  0
VERTEX
  5
2471
330
246E
100
AcDbEntity
  8
1
100
AcDbVertex
100
AcDb2dVertex
 10
3.932086614173228
 20
4.678149606299212
 30
0.0
  0
SEQEND
  5
2472
330
246E
100
AcDbEntity
  8
1
  0
POLYLINE
  5
2473
330
1F
100
AcDbEntity
  8
1
100
AcDb2dPolyline
 66
     1
 10
0.0
 20
0.0
 30
0.0
  0
VERTEX
  5
2474
330
2473
100
AcDbEntity
  8
1
100
AcDbVertex
100
AcDb2dVertex
 10
4.304133858267716
 20
4.508858267716535
 30
0.0
  0
VERTEX
  5
2475
330
2473
100
AcDbEntity
  8
1
100
AcDbVertex
100
AcDb2dVertex
 10
4.304133858267716
 20
4.514763779527559
 30
0.0
  0
VERTEX
  5
2476
330
2473
100
AcDbEntity
  8
1
100
AcDbVertex
100
AcDb2dVertex
 10
4.304133858267716
 20
4.516732283464566
 30
0.0
  0
SEQEND
  5
2477
330
2473
100
AcDbEntity
  8
1
  0
POLYLINE
  5
2478
330
1F
100
AcDbEntity
  8
1
100
AcDb2dPolyline
 66
     1
 10
0.0
 20
0.0
 30
0.0
  0
VERTEX
  5
2479
330
2478
100
AcDbEntity
  8
1
100
AcDbVertex
100
AcDb2dVertex
 10
4.304133858267716
 20
4.445866141732283
 30
0.0
  0
VERTEX
  5
247A
330
2478
100
AcDbEntity
  8
1
100
AcDbVertex
100
AcDb2dVertex
 10
4.304133858267716
 20
4.448818897637795
 30
0.0
  0
VERTEX
  5
247B
330
2478
100
AcDbEntity
  8
1
100
AcDbVertex
100
AcDb2dVertex
 10
4.304133858267716
 20
4.453740157480314
 30
0.0
  0
SEQEND
  5
247C
330
2478
100
AcDbEntity
  8
1
  0
POLYLINE
  5
247D
330
1F
100
AcDbEntity
  8
1
100
AcDb2dPolyline
 66
     1
 10
0.0
 20
0.0
 30
0.0
  0
VERTEX
  5
247E
330
247D
100
AcDbEntity
  8
1
100
AcDbVertex
100
AcDb2dVertex
 10
4.684055118110236
 20
4.515748031496062
 30
0.0
  0
VERTEX
  5
247F
330
247D
100
AcDbEntity
  8
1
100
AcDbVertex
100
AcDb2dVertex
 10
4.682086614173228
 20
4.515748031496062
 30
0.0
  0
VERTEX
  5
2480
330
247D
100
AcDbEntity
  8
1
100
AcDbVertex
100
AcDb2dVertex
 10
4.676181102362204
 20
4.515748031496062
 30
0.0
  0
SEQEND
  5
2481
330
247D
100
AcDbEntity
  8
1
  0
POLYLINE
  5
2482
330
1F
100
AcDbEntity
  8
1
100
AcDb2dPolyline
 66
     1
 10
0.0
 20
0.0
 30
0.0
  0
VERTEX
  5
2483
330
2482
100
AcDbEntity
  8
1
100
AcDbVertex
100
AcDb2dVertex
 10
4.676181102362204
 20
4.460629921259842
 30
0.0
  0
VERTEX
  5
2484
330
2482
100
AcDbEntity
  8
1
100
AcDbVertex
100
AcDb2dVertex
 10
4.682086614173228
 20
4.460629921259842
 30
0.0
  0
VERTEX
  5
2485
330
2482
100
AcDbEntity
  8
1
100
AcDbVertex
100
AcDb2dVertex
 10
4.684055118110236
 20
4.460629921259842
 30
0.0
  0
SEQEND
  5
2486
330
2482
100
AcDbEntity
  8
1
  0
POLYLINE
  5
2487
330
1F
100
AcDbEntity
  8
1
100
AcDb2dPolyline
 66
     1
 10
0.0
 20
0.0
 30
0.0
  0
VERTEX
  5
2488
330
2487
100
AcDbEntity
  8
1
100
AcDbVertex
100
AcDb2dVertex
 10
4.684055118110236
 20
4.460629921259842
 30
0.0
  0
VERTEX
  5
2489
330
2487
100
AcDbEntity
  8
1
100
AcDbVertex
100
AcDb2dVertex
 10
4.682086614173228
 20
4.454724409448818
 30
0.0
  0
VERTEX
  5
248A
330
2487
100
AcDbEntity
  8
1
100
AcDbVertex
100
AcDb2dVertex
 10
4.676181102362204
 20
4.452755905511811
 30
0.0
  0
SEQEND
  5
248B
330
2487
100
AcDbEntity
  8
1
  0
POLYLINE
  5
248C
330
1F
100
AcDbEntity
  8
1
100
AcDb2dPolyline
 66
     1
 10
0.0
 20
0.0
 30
0.0
  0
VERTEX
  5
248D
330
248C
100
AcDbEntity
  8
1
100
AcDbVertex
100
AcDb2dVertex
 10
4.676181102362204
 20
4.523622047244094
 30
0.0
  0
VERTEX
  5
248E
330
248C
100
AcDbEntity
  8
1
100
AcDbVertex
100
AcDb2dVertex
 10
4.676181102362204
 20
4.521653543307086
 30
0.0
  0
VERTEX
  5
248F
330
248C
100
AcDbEntity
  8
1
100
AcDbVertex
100
AcDb2dVertex
 10
4.676181102362204
 20
4.515748031496062
 30
0.0
  0
SEQEND
  5
2490
330
248C
100
AcDbEntity
  8
1
  0
POLYLINE
  5
2491
330
1F
100
AcDbEntity
  8
1
100
AcDb2dPolyline
 66
     1
 10
0.0
 20
0.0
 30
0.0
  0
VERTEX
  5
2492
330
2491
100
AcDbEntity
  8
1
100
AcDbVertex
100
AcDb2dVertex
 10
4.676181102362204
 20
4.460629921259842
 30
0.0
  0
VERTEX
  5
2493
330
2491
100
AcDbEntity
  8
1
100
AcDbVertex
100
AcDb2dVertex
 10
4.676181102362204
 20
4.454724409448818
 30
0.0
  0
VERTEX
  5
2494
330
2491
100
AcDbEntity
  8
1
100
AcDbVertex
100
AcDb2dVertex
 10
4.676181102362204
 20
4.452755905511811
 30
0.0
  0
SEQEND
  5
2495
330
2491
100
AcDbEntity
  8
1
  0
LINE
  5
2496
330
1F
100
AcDbEntity
  8
1
100
AcDbLine
 10
4.304133858267716
 20
6.304133858267716
 30
0.0
 11
4.304133858267716
 21
6.249015748031496
 31
0.0
  0
LINE
  5
2497
330
1F
100
AcDbEntity
  8
1
100
AcDbLine
 10
4.304133858267716
 20
6.249015748031496
 30
0.0
 11
4.676181102362204
 21
6.242125984251968
 31
0.0
  0
LINE
  5
2498
330
1F
100
AcDbEntity
  8
1
100
AcDbLine
 10
4.676181102362204
 20
6.242125984251968
 30
0.0
 11
4.676181102362204
 21
6.297244094488188
 31
0.0
  0
LINE
  5
2499
330
1F
100
AcDbEntity
  8
1
100
AcDbLine
 10
4.676181102362204
 20
6.297244094488188
 30
0.0
 11
4.304133858267716
 21
6.304133858267716
 31
0.0
  0
LINE
  5
249A
330
1F
100
AcDbEntity
  8
1
100
AcDbLine
 10
4.304133858267716
 20
6.312007874015748
 30
0.0
 11
4.676181102362204
 21
6.30511811023622
 31
0.0
  0
LINE
  5
249B
330
1F
100
AcDbEntity
  8
1
100
AcDbLine
 10
3.941929133858267
 20
6.168307086614173
 30
0.0
 11
3.960629921259842
 21
6.230314960629921
 31
0.0
  0
POLYLINE
  5
249C
330
1F
100
AcDbEntity
  8
1
100
AcDb2dPolyline
 66
     1
 10
0.0
 20
0.0
 30
0.0
  0
VERTEX
  5
249D
330
249C
100
AcDbEntity
  8
1
100
AcDbVertex
100
AcDb2dVertex
 10
3.932086614173228
 20
6.080708661417323
 30
0.0
  0
VERTEX
  5
249E
330
249C
100
AcDbEntity
  8
1
100
AcDbVertex
100
AcDb2dVertex
 10
3.934055118110236
 20
6.125
 30
0.0
  0
VERTEX
  5
249F
330
249C
100
AcDbEntity
  8
1
100
AcDbVertex
100
AcDb2dVertex
 10
3.941929133858267
 20
6.168307086614173
 30
0.0
  0
SEQEND
  5
24A0
330
249C
100
AcDbEntity
  8
1
  0
POLYLINE
  5
24A1
330
1F
100
AcDbEntity
  8
1
100
AcDb2dPolyline
 66
     1
 10
0.0
 20
0.0
 30
0.0
  0
VERTEX
  5
24A2
330
24A1
100
AcDbEntity
  8
1
100
AcDbVertex
100
AcDb2dVertex
 10
4.304133858267716
 20
6.241141732283464
 30
0.0
  0
VERTEX
  5
24A3
330
24A1
100
AcDbEntity
  8
1
100
AcDbVertex
100
AcDb2dVertex
 10
4.304133858267716
 20
6.243110236220472
 30
0.0
  0
VERTEX
  5
24A4
330
24A1
100
AcDbEntity
  8
1
100
AcDbVertex
100
AcDb2dVertex
 10
4.304133858267716
 20
6.249015748031496
 30
0.0
  0
SEQEND
  5
24A5
330
24A1
100
AcDbEntity
  8
1
  0
POLYLINE
  5
24A6
330
1F
100
AcDbEntity
  8
1
100
AcDb2dPolyline
 66
     1
 10
0.0
 20
0.0
 30
0.0
  0
VERTEX
  5
24A7
330
24A6
100
AcDbEntity
  8
1
100
AcDbVertex
100
AcDb2dVertex
 10
4.304133858267716
 20
6.304133858267716
 30
0.0
  0
VERTEX
  5
24A8
330
24A6
100
AcDbEntity
  8
1
100
AcDbVertex
100
AcDb2dVertex
 10
4.304133858267716
 20
6.310039370078739
 30
0.0
  0
VERTEX
  5
24A9
330
24A6
100
AcDbEntity
  8
1
100
AcDbVertex
100
AcDb2dVertex
 10
4.304133858267716
 20
6.312007874015748
 30
0.0
  0
SEQEND
  5
24AA
330
24A6
100
AcDbEntity
  8
1
  0
POLYLINE
  5
24AB
330
1F
100
AcDbEntity
  8
1
100
AcDb2dPolyline
 66
     1
 10
0.0
 20
0.0
 30
0.0
  0
VERTEX
  5
24AC
330
24AB
100
AcDbEntity
  8
1
100
AcDbVertex
100
AcDb2dVertex
 10
4.676181102362204
 20
6.30511811023622
 30
0.0
  0
VERTEX
  5
24AD
330
24AB
100
AcDbEntity
  8
1
100
AcDbVertex
100
AcDb2dVertex
 10
4.682086614173228
 20
6.303149606299212
 30
0.0
  0
VERTEX
  5
24AE
330
24AB
100
AcDbEntity
  8
1
100
AcDbVertex
100
AcDb2dVertex
 10
4.684055118110236
 20
6.297244094488188
 30
0.0
  0
SEQEND
  5
24AF
330
24AB
100
AcDbEntity
  8
1
  0
POLYLINE
  5
24B0
330
1F
100
AcDbEntity
  8
1
100
AcDb2dPolyline
 66
     1
 10
0.0
 20
0.0
 30
0.0
  0
VERTEX
  5
24B1
330
24B0
100
AcDbEntity
  8
1
100
AcDbVertex
100
AcDb2dVertex
 10
4.676181102362204
 20
6.242125984251968
 30
0.0
  0
VERTEX
  5
24B2
330
24B0
100
AcDbEntity
  8
1
100
AcDbVertex
100
AcDb2dVertex
 10
4.682086614173228
 20
6.242125984251968
 30
0.0
  0
VERTEX
  5
24B3
330
24B0
100
AcDbEntity
  8
1
100
AcDbVertex
100
AcDb2dVertex
 10
4.684055118110236
 20
6.242125984251968
 30
0.0
  0
SEQEND
  5
24B4
330
24B0
100
AcDbEntity
  8
1
  0
LINE
  5
24B5
330
1F
100
AcDbEntity
  8
1
100
AcDbLine
 10
4.684055118110236
 20
6.297244094488188
 30
0.0
 11
4.684055118110236
 21
6.242125984251968
 31
0.0
  0
POLYLINE
  5
24B6
330
1F
100
AcDbEntity
  8
1
100
AcDb2dPolyline
 66
     1
 10
0.0
 20
0.0
 30
0.0
  0
VERTEX
  5
24B7
330
24B6
100
AcDbEntity
  8
1
100
AcDbVertex
100
AcDb2dVertex
 10
4.684055118110236
 20
6.297244094488188
 30
0.0
  0
VERTEX
  5
24B8
330
24B6
100
AcDbEntity
  8
1
100
AcDbVertex
100
AcDb2dVertex
 10
4.682086614173228
 20
6.297244094488188
 30
0.0
  0
VERTEX
  5
24B9
330
24B6
100
AcDbEntity
  8
1
100
AcDbVertex
100
AcDb2dVertex
 10
4.676181102362204
 20
6.297244094488188
 30
0.0
  0
SEQEND
  5
24BA
330
24B6
100
AcDbEntity
  8
1
  0
POLYLINE
  5
24BB
330
1F
100
AcDbEntity
  8
1
100
AcDb2dPolyline
 66
     1
 10
0.0
 20
0.0
 30
0.0
  0
VERTEX
  5
24BC
330
24BB
100
AcDbEntity
  8
1
100
AcDbVertex
100
AcDb2dVertex
 10
4.676181102362204
 20
6.242125984251968
 30
0.0
  0
VERTEX
  5
24BD
330
24BB
100
AcDbEntity
  8
1
100
AcDbVertex
100
AcDb2dVertex
 10
4.676181102362204
 20
6.237204724409449
 30
0.0
  0
VERTEX
  5
24BE
330
24BB
100
AcDbEntity
  8
1
100
AcDbVertex
100
AcDb2dVertex
 10
4.676181102362204
 20
6.234251968503937
 30
0.0
  0
SEQEND
  5
24BF
330
24BB
100
AcDbEntity
  8
1
  0
POLYLINE
  5
24C0
330
1F
100
AcDbEntity
  8
1
100
AcDb2dPolyline
 66
     1
 10
0.0
 20
0.0
 30
0.0
  0
VERTEX
  5
24C1
330
24C0
100
AcDbEntity
  8
1
100
AcDbVertex
100
AcDb2dVertex
 10
4.676181102362204
 20
6.30511811023622
 30
0.0
  0
VERTEX
  5
24C2
330
24C0
100
AcDbEntity
  8
1
100
AcDbVertex
100
AcDb2dVertex
 10
4.676181102362204
 20
6.303149606299212
 30
0.0
  0
VERTEX
  5
24C3
330
24C0
100
AcDbEntity
  8
1
100
AcDbVertex
100
AcDb2dVertex
 10
4.676181102362204
 20
6.297244094488188
 30
0.0
  0
SEQEND
  5
24C4
330
24C0
100
AcDbEntity
  8
1
  0
POLYLINE
  5
24C5
330
1F
100
AcDbEntity
  8
1
100
AcDb2dPolyline
 66
     1
 10
0.0
 20
0.0
 30
0.0
  0
VERTEX
  5
24C6
330
24C5
100
AcDbEntity
  8
1
100
AcDbVertex
100
AcDb2dVertex
 10
4.684055118110236
 20
6.242125984251968
 30
0.0
  0
VERTEX
  5
24C7
330
24C5
100
AcDbEntity
  8
1
100
AcDbVertex
100
AcDb2dVertex
 10
4.684055118110236
 20
6.231299212598425
 30
0.0
  0
VERTEX
  5
24C8
330
24C5
100
AcDbEntity
  8
1
100
AcDbVertex
100
AcDb2dVertex
 10
4.684055118110236
 20
6.226377952755905
 30
0.0
  0
SEQEND
  5
24C9
330
24C5
100
AcDbEntity
  8
1
  0
LINE
  5
24CA
330
1F
100
AcDbEntity
  8
1
100
AcDbLine
 10
4.684055118110236
 20
6.226377952755905
 30
0.0
 11
4.684055118110236
 21
6.12007874015748
 31
0.0
  0
LINE
  5
24CB
330
1F
100
AcDbEntity
  8
1
100
AcDbLine
 10
4.649606299212598
 20
6.05511811023622
 30
0.0
 11
4.312992125984251
 21
5.827755905511811
 31
0.0
  0
LINE
  5
24CC
330
1F
100
AcDbEntity
  8
1
100
AcDbLine
 10
4.312992125984251
 20
5.827755905511811
 30
0.0
 11
4.312007874015748
 21
5.827755905511811
 31
0.0
  0
LINE
  5
24CD
330
1F
100
AcDbEntity
  8
1
100
AcDbLine
 10
4.312007874015748
 20
5.827755905511811
 30
0.0
 11
4.312007874015748
 21
5.819881889763779
 31
0.0
  0
LINE
  5
24CE
330
1F
100
AcDbEntity
  8
1
100
AcDbLine
 10
4.312007874015748
 20
5.035433070866141
 30
0.0
 11
4.312007874015748
 21
5.819881889763779
 31
0.0
  0
POLYLINE
  5
24CF
330
1F
100
AcDbEntity
  8
1
100
AcDb2dPolyline
 66
     1
 10
0.0
 20
0.0
 30
0.0
  0
VERTEX
  5
24D0
330
24CF
100
AcDbEntity
  8
1
100
AcDbVertex
100
AcDb2dVertex
 10
4.312007874015748
 20
5.035433070866141
 30
0.0
  0
VERTEX
  5
24D1
330
24CF
100
AcDbEntity
  8
1
100
AcDbVertex
100
AcDb2dVertex
 10
4.312007874015748
 20
5.029527559055117
 30
0.0
  0
VERTEX
  5
24D2
330
24CF
100
AcDbEntity
  8
1
100
AcDbVertex
100
AcDb2dVertex
 10
4.312007874015748
 20
5.02755905511811
 30
0.0
  0
SEQEND
  5
24D3
330
24CF
100
AcDbEntity
  8
1
  0
LINE
  5
24D4
330
1F
100
AcDbEntity
  8
1
100
AcDbLine
 10
4.312007874015748
 20
5.02755905511811
 30
0.0
 11
4.312007874015748
 21
5.007874015748031
 31
0.0
  0
LINE
  5
24D5
330
1F
100
AcDbEntity
  8
1
100
AcDbLine
 10
4.341535433070865
 20
4.945866141732283
 30
0.0
 11
4.654527559055117
 21
4.696850393700787
 31
0.0
  0
POLYLINE
  5
24D6
330
1F
100
AcDbEntity
  8
1
100
AcDb2dPolyline
 66
     1
 10
0.0
 20
0.0
 30
0.0
  0
VERTEX
  5
24D7
330
24D6
100
AcDbEntity
  8
1
100
AcDbVertex
100
AcDb2dVertex
 10
4.654527559055117
 20
4.696850393700787
 30
0.0
  0
VERTEX
  5
24D8
330
24D6
100
AcDbEntity
  8
1
100
AcDbVertex
100
AcDb2dVertex
 10
4.670275590551181
 20
4.68011811023622
 30
0.0
  0
VERTEX
  5
24D9
330
24D6
100
AcDbEntity
  8
1
100
AcDbVertex
100
AcDb2dVertex
 10
4.68011811023622
 20
4.658464566929133
 30
0.0
  0
VERTEX
  5
24DA
330
24D6
100
AcDbEntity
  8
1
100
AcDbVertex
100
AcDb2dVertex
 10
4.684055118110236
 20
4.635826771653543
 30
0.0
  0
SEQEND
  5
24DB
330
24D6
100
AcDbEntity
  8
1
  0
POLYLINE
  5
24DC
330
1F
100
AcDbEntity
  8
1
100
AcDb2dPolyline
 66
     1
 10
0.0
 20
0.0
 30
0.0
  0
VERTEX
  5
24DD
330
24DC
100
AcDbEntity
  8
1
100
AcDbVertex
100
AcDb2dVertex
 10
4.323818897637795
 20
5.0501968503937
 30
0.0
  0
VERTEX
  5
24DE
330
24DC
100
AcDbEntity
  8
1
100
AcDbVertex
100
AcDb2dVertex
 10
4.344488188976377
 20
5.045275590551181
 30
0.0
  0
VERTEX
  5
24DF
330
24DC
100
AcDbEntity
  8
1
100
AcDbVertex
100
AcDb2dVertex
 10
4.363188976377952
 20
5.034448818897637
 30
0.0
  0
VERTEX
  5
24E0
330
24DC
100
AcDbEntity
  8
1
100
AcDbVertex
100
AcDb2dVertex
 10
4.375984251968503
 20
5.01771653543307
 30
0.0
  0
VERTEX
  5
24E1
330
24DC
100
AcDbEntity
  8
1
100
AcDbVertex
100
AcDb2dVertex
 10
4.381889763779527
 20
4.998031496062991
 30
0.0
  0
SEQEND
  5
24E2
330
24DC
100
AcDbEntity
  8
1
  0
LINE
  5
24E3
330
1F
100
AcDbEntity
  8
1
100
AcDbLine
 10
4.312007874015748
 20
5.0501968503937
 30
0.0
 11
4.319881889763779
 21
5.0501968503937
 31
0.0
  0
LINE
  5
24E4
330
1F
100
AcDbEntity
  8
1
100
AcDbLine
 10
4.319881889763779
 20
5.0501968503937
 30
0.0
 11
4.323818897637795
 21
5.0501968503937
 31
0.0
  0
POLYLINE
  5
24E5
330
1F
100
AcDbEntity
  8
1
100
AcDb2dPolyline
 66
     1
 10
0.0
 20
0.0
 30
0.0
  0
VERTEX
  5
24E6
330
24E5
100
AcDbEntity
  8
1
100
AcDbVertex
100
AcDb2dVertex
 10
4.375
 20
4.997047244094487
 30
0.0
  0
VERTEX
  5
24E7
330
24E5
100
AcDbEntity
  8
1
100
AcDbVertex
100
AcDb2dVertex
 10
4.369094488188975
 20
5.014763779527559
 30
0.0
  0
VERTEX
  5
24E8
330
24E5
100
AcDbEntity
  8
1
100
AcDbVertex
100
AcDb2dVertex
 10
4.358267716535433
 20
5.028543307086613
 30
0.0
  0
VERTEX
  5
24E9
330
24E5
100
AcDbEntity
  8
1
100
AcDbVertex
100
AcDb2dVertex
 10
4.34251968503937
 20
5.038385826771653
 30
0.0
  0
VERTEX
  5
24EA
330
24E5
100
AcDbEntity
  8
1
100
AcDbVertex
100
AcDb2dVertex
 10
4.323818897637795
 20
5.042322834645669
 30
0.0
  0
SEQEND
  5
24EB
330
24E5
100
AcDbEntity
  8
1
  0
LINE
  5
24EC
330
1F
100
AcDbEntity
  8
1
100
AcDbLine
 10
4.323818897637795
 20
5.042322834645669
 30
0.0
 11
4.319881889763779
 21
5.042322834645669
 31
0.0
  0
LINE
  5
24ED
330
1F
100
AcDbEntity
  8
1
100
AcDbLine
 10
4.319881889763779
 20
5.042322834645669
 30
0.0
 11
4.319881889763779
 21
5.007874015748031
 31
0.0
  0
POLYLINE
  5
24EE
330
1F
100
AcDbEntity
  8
1
100
AcDb2dPolyline
 66
     1
 10
0.0
 20
0.0
 30
0.0
  0
VERTEX
  5
24EF
330
24EE
100
AcDbEntity
  8
1
100
AcDbVertex
100
AcDb2dVertex
 10
4.319881889763779
 20
5.007874015748031
 30
0.0
  0
VERTEX
  5
24F0
330
24EE
100
AcDbEntity
  8
1
100
AcDbVertex
100
AcDb2dVertex
 10
4.322834645669291
 20
4.986220472440944
 30
0.0
  0
VERTEX
  5
24F1
330
24EE
100
AcDbEntity
  8
1
100
AcDbVertex
100
AcDb2dVertex
 10
4.33267716535433
 20
4.966535433070865
 30
0.0
  0
SEQEND
  5
24F2
330
24EE
100
AcDbEntity
  8
1
  0
LINE
  5
24F3
330
1F
100
AcDbEntity
  8
1
100
AcDbLine
 10
4.33267716535433
 20
4.966535433070865
 30
0.0
 11
4.373031496062991
 21
4.993110236220472
 31
0.0
  0
LINE
  5
24F4
330
1F
100
AcDbEntity
  8
1
100
AcDbLine
 10
4.373031496062991
 20
4.993110236220472
 30
0.0
 11
4.375
 21
4.997047244094487
 31
0.0
  0
POLYLINE
  5
24F5
330
1F
100
AcDbEntity
  8
1
100
AcDb2dPolyline
 66
     1
 10
0.0
 20
0.0
 30
0.0
  0
VERTEX
  5
24F6
330
24F5
100
AcDbEntity
  8
1
100
AcDbVertex
100
AcDb2dVertex
 10
4.312007874015748
 20
5.007874015748031
 30
0.0
  0
VERTEX
  5
24F7
330
24F5
100
AcDbEntity
  8
1
100
AcDbVertex
100
AcDb2dVertex
 10
4.31496062992126
 20
4.984251968503937
 30
0.0
  0
VERTEX
  5
24F8
330
24F5
100
AcDbEntity
  8
1
100
AcDbVertex
100
AcDb2dVertex
 10
4.325787401574802
 20
4.963582677165354
 30
0.0
  0
VERTEX
  5
24F9
330
24F5
100
AcDbEntity
  8
1
100
AcDbVertex
100
AcDb2dVertex
 10
4.341535433070865
 20
4.945866141732283
 30
0.0
  0
SEQEND
  5
24FA
330
24F5
100
AcDbEntity
  8
1
  0
LINE
  5
24FB
330
1F
100
AcDbEntity
  8
1
100
AcDbLine
 10
4.312007874015748
 20
5.819881889763779
 30
0.0
 11
4.098425196850393
 21
5.815944881889763
 31
0.0
  0
LINE
  5
24FC
330
1F
100
AcDbEntity
  8
1
100
AcDbLine
 10
4.098425196850393
 20
5.815944881889763
 30
0.0
 11
4.098425196850393
 21
5.039370078740157
 31
0.0
  0
LINE
  5
24FD
330
1F
100
AcDbEntity
  8
1
100
AcDbLine
 10
4.098425196850393
 20
5.039370078740157
 30
0.0
 11
4.312007874015748
 21
5.035433070866141
 31
0.0
  0
POLYLINE
  5
24FE
330
1F
100
AcDbEntity
  8
1
100
AcDb2dPolyline
 66
     1
 10
0.0
 20
0.0
 30
0.0
  0
VERTEX
  5
24FF
330
24FE
100
AcDbEntity
  8
1
100
AcDbVertex
100
AcDb2dVertex
 10
4.312992125984251
 20
5.827755905511811
 30
0.0
  0
VERTEX
  5
2500
330
24FE
100
AcDbEntity
  8
1
100
AcDbVertex
100
AcDb2dVertex
 10
4.309055118110236
 20
5.827755905511811
 30
0.0
  0
VERTEX
  5
2501
330
24FE
100
AcDbEntity
  8
1
100
AcDbVertex
100
AcDb2dVertex
 10
4.301181102362204
 20
5.827755905511811
 30
0.0
  0
SEQEND
  5
2502
330
24FE
100
AcDbEntity
  8
1
  0
POLYLINE
  5
2503
330
1F
100
AcDbEntity
  8
1
100
AcDb2dPolyline
 66
     1
 10
0.0
 20
0.0
 30
0.0
  0
VERTEX
  5
2504
330
2503
100
AcDbEntity
  8
1
100
AcDbVertex
100
AcDb2dVertex
 10
4.304133858267716
 20
5.02755905511811
 30
0.0
  0
VERTEX
  5
2505
330
2503
100
AcDbEntity
  8
1
100
AcDbVertex
100
AcDb2dVertex
 10
4.310039370078739
 20
5.02755905511811
 30
0.0
  0
VERTEX
  5
2506
330
2503
100
AcDbEntity
  8
1
100
AcDbVertex
100
AcDb2dVertex
 10
4.312007874015748
 20
5.02755905511811
 30
0.0
  0
SEQEND
  5
2507
330
2503
100
AcDbEntity
  8
1
  0
POLYLINE
  5
2508
330
1F
100
AcDbEntity
  8
1
100
AcDb2dPolyline
 66
     1
 10
0.0
 20
0.0
 30
0.0
  0
VERTEX
  5
2509
330
2508
100
AcDbEntity
  8
1
100
AcDbVertex
100
AcDb2dVertex
 10
4.676181102362204
 20
6.234251968503937
 30
0.0
  0
VERTEX
  5
250A
330
2508
100
AcDbEntity
  8
1
100
AcDbVertex
100
AcDb2dVertex
 10
4.682086614173228
 20
6.232283464566928
 30
0.0
  0
VERTEX
  5
250B
330
2508
100
AcDbEntity
  8
1
100
AcDbVertex
100
AcDb2dVertex
 10
4.684055118110236
 20
6.226377952755905
 30
0.0
  0
SEQEND
  5
250C
330
2508
100
AcDbEntity
  8
1
  0
POLYLINE
  5
250D
330
1F
100
AcDbEntity
  8
1
100
AcDb2dPolyline
 66
     1
 10
0.0
 20
0.0
 30
0.0
  0
VERTEX
  5
250E
330
250D
100
AcDbEntity
  8
1
100
AcDbVertex
100
AcDb2dVertex
 10
4.676181102362204
 20
6.226377952755905
 30
0.0
  0
VERTEX
  5
250F
330
250D
100
AcDbEntity
  8
1
100
AcDbVertex
100
AcDb2dVertex
 10
4.676181102362204
 20
6.232283464566928
 30
0.0
  0
VERTEX
  5
2510
330
250D
100
AcDbEntity
  8
1
100
AcDbVertex
100
AcDb2dVertex
 10
4.676181102362204
 20
6.234251968503937
 30
0.0
  0
SEQEND
  5
2511
330
250D
100
AcDbEntity
  8
1
  0
POLYLINE
  5
2512
330
1F
100
AcDbEntity
  8
1
100
AcDb2dPolyline
 66
     1
 10
0.0
 20
0.0
 30
0.0
  0
VERTEX
  5
2513
330
2512
100
AcDbEntity
  8
1
100
AcDbVertex
100
AcDb2dVertex
 10
4.304133858267716
 20
6.233267716535433
 30
0.0
  0
VERTEX
  5
2514
330
2512
100
AcDbEntity
  8
1
100
AcDbVertex
100
AcDb2dVertex
 10
4.304133858267716
 20
6.239173228346456
 30
0.0
  0
VERTEX
  5
2515
330
2512
100
AcDbEntity
  8
1
100
AcDbVertex
100
AcDb2dVertex
 10
4.304133858267716
 20
6.241141732283464
 30
0.0
  0
SEQEND
  5
2516
330
2512
100
AcDbEntity
  8
1
  0
POLYLINE
  5
2517
330
1F
100
AcDbEntity
  8
1
100
AcDb2dPolyline
 66
     1
 10
0.0
 20
0.0
 30
0.0
  0
VERTEX
  5
2518
330
2517
100
AcDbEntity
  8
1
100
AcDbVertex
100
AcDb2dVertex
 10
4.312007874015748
 20
5.007874015748031
 30
0.0
  0
VERTEX
  5
2519
330
2517
100
AcDbEntity
  8
1
100
AcDbVertex
100
AcDb2dVertex
 10
4.310039370078739
 20
5.007874015748031
 30
0.0
  0
VERTEX
  5
251A
330
2517
100
AcDbEntity
  8
1
100
AcDbVertex
100
AcDb2dVertex
 10
4.304133858267716
 20
5.007874015748031
 30
0.0
  0
SEQEND
  5
251B
330
2517
100
AcDbEntity
  8
1
  0
POLYLINE
  5
251C
330
1F
100
AcDbEntity
  8
1
100
AcDb2dPolyline
 66
     1
 10
0.0
 20
0.0
 30
0.0
  0
VERTEX
  5
251D
330
251C
100
AcDbEntity
  8
1
100
AcDbVertex
100
AcDb2dVertex
 10
3.96751968503937
 20
6.227362204724409
 30
0.0
  0
VERTEX
  5
251E
330
251C
100
AcDbEntity
  8
1
100
AcDbVertex
100
AcDb2dVertex
 10
3.96751968503937
 20
6.233267716535433
 30
0.0
  0
VERTEX
  5
251F
330
251C
100
AcDbEntity
  8
1
100
AcDbVertex
100
AcDb2dVertex
 10
3.96751968503937
 20
6.23523622047244
 30
0.0
  0
SEQEND
  5
2520
330
251C
100
AcDbEntity
  8
1
  0
POLYLINE
  5
2521
330
1F
100
AcDbEntity
  8
1
100
AcDb2dPolyline
 66
     1
 10
0.0
 20
0.0
 30
0.0
  0
VERTEX
  5
2522
330
2521
100
AcDbEntity
  8
1
100
AcDbVertex
100
AcDb2dVertex
 10
4.341535433070865
 20
4.945866141732283
 30
0.0
  0
VERTEX
  5
2523
330
2521
100
AcDbEntity
  8
1
100
AcDbVertex
100
AcDb2dVertex
 10
4.340551181102362
 20
4.943897637795275
 30
0.0
  0
VERTEX
  5
2524
330
2521
100
AcDbEntity
  8
1
100
AcDbVertex
100
AcDb2dVertex
 10
4.336614173228346
 20
4.93996062992126
 30
0.0
  0
SEQEND
  5
2525
330
2521
100
AcDbEntity
  8
1
  0
POLYLINE
  5
2526
330
1F
100
AcDbEntity
  8
1
100
AcDb2dPolyline
 66
     1
 10
0.0
 20
0.0
 30
0.0
  0
VERTEX
  5
2527
330
2526
100
AcDbEntity
  8
1
100
AcDbVertex
100
AcDb2dVertex
 10
3.96751968503937
 20
6.227362204724409
 30
0.0
  0
VERTEX
  5
2528
330
2526
100
AcDbEntity
  8
1
100
AcDbVertex
100
AcDb2dVertex
 10
3.96259842519685
 20
6.229330708661417
 30
0.0
  0
VERTEX
  5
2529
330
2526
100
AcDbEntity
  8
1
100
AcDbVertex
100
AcDb2dVertex
 10
3.960629921259842
 20
6.230314960629921
 30
0.0
  0
SEQEND
  5
252A
330
2526
100
AcDbEntity
  8
1
  0
POLYLINE
  5
252B
330
1F
100
AcDbEntity
  8
1
100
AcDb2dPolyline
 66
     1
 10
0.0
 20
0.0
 30
0.0
  0
VERTEX
  5
252C
330
252B
100
AcDbEntity
  8
1
100
AcDbVertex
100
AcDb2dVertex
 10
3.960629921259842
 20
6.230314960629921
 30
0.0
  0
VERTEX
  5
252D
330
252B
100
AcDbEntity
  8
1
100
AcDbVertex
100
AcDb2dVertex
 10
3.963582677165354
 20
6.233267716535433
 30
0.0
  0
VERTEX
  5
252E
330
252B
100
AcDbEntity
  8
1
100
AcDbVertex
100
AcDb2dVertex
 10
3.96751968503937
 20
6.23523622047244
 30
0.0
  0
SEQEND
  5
252F
330
252B
100
AcDbEntity
  8
1
  0
POLYLINE
  5
2530
330
1F
100
AcDbEntity
  8
1
100
AcDb2dPolyline
 66
     1
 10
0.0
 20
0.0
 30
0.0
  0
VERTEX
  5
2531
330
2530
100
AcDbEntity
  8
1
100
AcDbVertex
100
AcDb2dVertex
 10
4.654527559055117
 20
4.696850393700787
 30
0.0
  0
VERTEX
  5
2532
330
2530
100
AcDbEntity
  8
1
100
AcDbVertex
100
AcDb2dVertex
 10
4.65255905511811
 20
4.694881889763779
 30
0.0
  0
VERTEX
  5
2533
330
2530
100
AcDbEntity
  8
1
100
AcDbVertex
100
AcDb2dVertex
 10
4.649606299212598
 20
4.690944881889763
 30
0.0
  0
SEQEND
  5
2534
330
2530
100
AcDbEntity
  8
1
  0
POLYLINE
  5
2535
330
1F
100
AcDbEntity
  8
1
100
AcDb2dPolyline
 66
     1
 10
0.0
 20
0.0
 30
0.0
  0
VERTEX
  5
2536
330
2535
100
AcDbEntity
  8
1
100
AcDbVertex
100
AcDb2dVertex
 10
3.949803149606299
 20
6.166338582677164
 30
0.0
  0
VERTEX
  5
2537
330
2535
100
AcDbEntity
  8
1
100
AcDbVertex
100
AcDb2dVertex
 10
3.944881889763779
 20
6.168307086614173
 30
0.0
  0
VERTEX
  5
2538
330
2535
100
AcDbEntity
  8
1
100
AcDbVertex
100
AcDb2dVertex
 10
3.941929133858267
 20
6.168307086614173
 30
0.0
  0
SEQEND
  5
2539
330
2535
100
AcDbEntity
  8
1
  0
POLYLINE
  5
253A
330
1F
100
AcDbEntity
  8
1
100
AcDb2dPolyline
 66
     1
 10
0.0
 20
0.0
 30
0.0
  0
VERTEX
  5
253B
330
253A
100
AcDbEntity
  8
1
100
AcDbVertex
100
AcDb2dVertex
 10
4.684055118110236
 20
4.635826771653543
 30
0.0
  0
VERTEX
  5
253C
330
253A
100
AcDbEntity
  8
1
100
AcDbVertex
100
AcDb2dVertex
 10
4.682086614173228
 20
4.635826771653543
 30
0.0
  0
VERTEX
  5
253D
330
253A
100
AcDbEntity
  8
1
100
AcDbVertex
100
AcDb2dVertex
 10
4.676181102362204
 20
4.635826771653543
 30
0.0
  0
SEQEND
  5
253E
330
253A
100
AcDbEntity
  8
1
  0
POLYLINE
  5
253F
330
1F
100
AcDbEntity
  8
1
100
AcDb2dPolyline
 66
     1
 10
0.0
 20
0.0
 30
0.0
  0
VERTEX
  5
2540
330
253F
100
AcDbEntity
  8
1
100
AcDbVertex
100
AcDb2dVertex
 10
3.939960629921259
 20
6.080708661417323
 30
0.0
  0
VERTEX
  5
2541
330
253F
100
AcDbEntity
  8
1
100
AcDbVertex
100
AcDb2dVertex
 10
3.934055118110236
 20
6.080708661417323
 30
0.0
  0
VERTEX
  5
2542
330
253F
100
AcDbEntity
  8
1
100
AcDbVertex
100
AcDb2dVertex
 10
3.932086614173228
 20
6.080708661417323
 30
0.0
  0
SEQEND
  5
2543
330
253F
100
AcDbEntity
  8
1
  0
POLYLINE
  5
2544
330
1F
100
AcDbEntity
  8
1
100
AcDb2dPolyline
 66
     1
 10
0.0
 20
0.0
 30
0.0
  0
VERTEX
  5
2545
330
2544
100
AcDbEntity
  8
1
100
AcDbVertex
100
AcDb2dVertex
 10
4.684055118110236
 20
4.531496062992125
 30
0.0
  0
VERTEX
  5
2546
330
2544
100
AcDbEntity
  8
1
100
AcDbVertex
100
AcDb2dVertex
 10
4.682086614173228
 20
4.531496062992125
 30
0.0
  0
VERTEX
  5
2547
330
2544
100
AcDbEntity
  8
1
100
AcDbVertex
100
AcDb2dVertex
 10
4.676181102362204
 20
4.531496062992125
 30
0.0
  0
SEQEND
  5
2548
330
2544
100
AcDbEntity
  8
1
  0
POLYLINE
  5
2549
330
1F
100
AcDbEntity
  8
1
100
AcDb2dPolyline
 66
     1
 10
0.0
 20
0.0
 30
0.0
  0
VERTEX
  5
254A
330
2549
100
AcDbEntity
  8
1
100
AcDbVertex
100
AcDb2dVertex
 10
4.676181102362204
 20
4.523622047244094
 30
0.0
  0
VERTEX
  5
254B
330
2549
100
AcDbEntity
  8
1
100
AcDbVertex
100
AcDb2dVertex
 10
4.682086614173228
 20
4.525590551181101
 30
0.0
  0
VERTEX
  5
254C
330
2549
100
AcDbEntity
  8
1
100
AcDbVertex
100
AcDb2dVertex
 10
4.684055118110236
 20
4.531496062992125
 30
0.0
  0
SEQEND
  5
254D
330
2549
100
AcDbEntity
  8
1
  0
POLYLINE
  5
254E
330
1F
100
AcDbEntity
  8
1
100
AcDb2dPolyline
 66
     1
 10
0.0
 20
0.0
 30
0.0
  0
VERTEX
  5
254F
330
254E
100
AcDbEntity
  8
1
100
AcDbVertex
100
AcDb2dVertex
 10
3.939960629921259
 20
4.678149606299212
 30
0.0
  0
VERTEX
  5
2550
330
254E
100
AcDbEntity
  8
1
100
AcDbVertex
100
AcDb2dVertex
 10
3.934055118110236
 20
4.678149606299212
 30
0.0
  0
VERTEX
  5
2551
330
254E
100
AcDbEntity
  8
1
100
AcDbVertex
100
AcDb2dVertex
 10
3.932086614173228
 20
4.678149606299212
 30
0.0
  0
SEQEND
  5
2552
330
254E
100
AcDbEntity
  8
1
  0
POLYLINE
  5
2553
330
1F
100
AcDbEntity
  8
1
100
AcDb2dPolyline
 66
     1
 10
0.0
 20
0.0
 30
0.0
  0
VERTEX
  5
2554
330
2553
100
AcDbEntity
  8
1
100
AcDbVertex
100
AcDb2dVertex
 10
4.676181102362204
 20
4.523622047244094
 30
0.0
  0
VERTEX
  5
2555
330
2553
100
AcDbEntity
  8
1
100
AcDbVertex
100
AcDb2dVertex
 10
4.676181102362204
 20
4.525590551181101
 30
0.0
  0
VERTEX
  5
2556
330
2553
100
AcDbEntity
  8
1
100
AcDbVertex
100
AcDb2dVertex
 10
4.676181102362204
 20
4.531496062992125
 30
0.0
  0
SEQEND
  5
2557
330
2553
100
AcDbEntity
  8
1
  0
POLYLINE
  5
2558
330
1F
100
AcDbEntity
  8
1
100
AcDb2dPolyline
 66
     1
 10
0.0
 20
0.0
 30
0.0
  0
VERTEX
  5
2559
330
2558
100
AcDbEntity
  8
1
100
AcDbVertex
100
AcDb2dVertex
 10
3.949803149606299
 20
4.591535433070865
 30
0.0
  0
VERTEX
  5
255A
330
2558
100
AcDbEntity
  8
1
100
AcDbVertex
100
AcDb2dVertex
 10
3.944881889763779
 20
4.590551181102362
 30
0.0
  0
VERTEX
  5
255B
330
2558
100
AcDbEntity
  8
1
100
AcDbVertex
100
AcDb2dVertex
 10
3.941929133858267
 20
4.589566929133858
 30
0.0
  0
SEQEND
  5
255C
330
2558
100
AcDbEntity
  8
1
  0
POLYLINE
  5
255D
330
1F
100
AcDbEntity
  8
1
100
AcDb2dPolyline
 66
     1
 10
0.0
 20
0.0
 30
0.0
  0
VERTEX
  5
255E
330
255D
100
AcDbEntity
  8
1
100
AcDbVertex
100
AcDb2dVertex
 10
4.304133858267716
 20
4.516732283464566
 30
0.0
  0
VERTEX
  5
255F
330
255D
100
AcDbEntity
  8
1
100
AcDbVertex
100
AcDb2dVertex
 10
4.304133858267716
 20
4.519685039370078
 30
0.0
  0
VERTEX
  5
2560
330
255D
100
AcDbEntity
  8
1
100
AcDbVertex
100
AcDb2dVertex
 10
4.304133858267716
 20
4.524606299212598
 30
0.0
  0
SEQEND
  5
2561
330
255D
100
AcDbEntity
  8
1
  0
POLYLINE
  5
2562
330
1F
100
AcDbEntity
  8
1
100
AcDb2dPolyline
 66
     1
 10
0.0
 20
0.0
 30
0.0
  0
VERTEX
  5
2563
330
2562
100
AcDbEntity
  8
1
100
AcDbVertex
100
AcDb2dVertex
 10
3.96751968503937
 20
4.530511811023622
 30
0.0
  0
VERTEX
  5
2564
330
2562
100
AcDbEntity
  8
1
100
AcDbVertex
100
AcDb2dVertex
 10
3.96259842519685
 20
4.529527559055117
 30
0.0
  0
VERTEX
  5
2565
330
2562
100
AcDbEntity
  8
1
100
AcDbVertex
100
AcDb2dVertex
 10
3.960629921259842
 20
4.528543307086613
 30
0.0
  0
SEQEND
  5
2566
330
2562
100
AcDbEntity
  8
1
  0
POLYLINE
  5
2567
330
1F
100
AcDbEntity
  8
1
100
AcDb2dPolyline
 66
     1
 10
0.0
 20
0.0
 30
0.0
  0
VERTEX
  5
2568
330
2567
100
AcDbEntity
  8
1
100
AcDbVertex
100
AcDb2dVertex
 10
3.96751968503937
 20
4.52263779527559
 30
0.0
  0
VERTEX
  5
2569
330
2567
100
AcDbEntity
  8
1
100
AcDbVertex
100
AcDb2dVertex
 10
3.96751968503937
 20
4.525590551181101
 30
0.0
  0
VERTEX
  5
256A
330
2567
100
AcDbEntity
  8
1
100
AcDbVertex
100
AcDb2dVertex
 10
3.96751968503937
 20
4.530511811023622
 30
0.0
  0
SEQEND
  5
256B
330
2567
100
AcDbEntity
  8
1
  0
POLYLINE
  5
256C
330
1F
100
AcDbEntity
  8
1
100
AcDb2dPolyline
 66
     1
 10
0.0
 20
0.0
 30
0.0
  0
VERTEX
  5
256D
330
256C
100
AcDbEntity
  8
1
100
AcDbVertex
100
AcDb2dVertex
 10
3.96751968503937
 20
4.52263779527559
 30
0.0
  0
VERTEX
  5
256E
330
256C
100
AcDbEntity
  8
1
100
AcDbVertex
100
AcDb2dVertex
 10
3.963582677165354
 20
4.524606299212598
 30
0.0
  0
VERTEX
  5
256F
330
256C
100
AcDbEntity
  8
1
100
AcDbVertex
100
AcDb2dVertex
 10
3.960629921259842
 20
4.528543307086613
 30
0.0
  0
SEQEND
  5
2570
330
256C
100
AcDbEntity
  8
1
  0
POLYLINE
  5
2571
330
1F
100
AcDbEntity
  8
1
100
AcDb2dPolyline
 66
     1
 10
0.0
 20
0.0
 30
0.0
  0
VERTEX
  5
2572
330
2571
100
AcDbEntity
  8
1
100
AcDbVertex
100
AcDb2dVertex
 10
4.684055118110236
 20
6.12007874015748
 30
0.0
  0
VERTEX
  5
2573
330
2571
100
AcDbEntity
  8
1
100
AcDbVertex
100
AcDb2dVertex
 10
4.68011811023622
 20
6.095472440944881
 30
0.0
  0
VERTEX
  5
2574
330
2571
100
AcDbEntity
  8
1
100
AcDbVertex
100
AcDb2dVertex
 10
4.667322834645669
 20
6.072834645669291
 30
0.0
  0
VERTEX
  5
2575
330
2571
100
AcDbEntity
  8
1
100
AcDbVertex
100
AcDb2dVertex
 10
4.649606299212598
 20
6.05511811023622
 30
0.0
  0
SEQEND
  5
2576
330
2571
100
AcDbEntity
  8
1
  0
POLYLINE
  5
2577
330
1F
100
AcDbEntity
  8
1
100
AcDb2dPolyline
 66
     1
 10
0.0
 20
0.0
 30
0.0
  0
VERTEX
  5
2578
330
2577
100
AcDbEntity
  8
1
100
AcDbVertex
100
AcDb2dVertex
 10
4.644685039370078
 20
6.061023622047244
 30
0.0
  0
VERTEX
  5
2579
330
2577
100
AcDbEntity
  8
1
100
AcDbVertex
100
AcDb2dVertex
 10
4.64763779527559
 20
6.057086614173228
 30
0.0
  0
VERTEX
  5
257A
330
2577
100
AcDbEntity
  8
1
100
AcDbVertex
100
AcDb2dVertex
 10
4.649606299212598
 20
6.05511811023622
 30
0.0
  0
SEQEND
  5
257B
330
2577
100
AcDbEntity
  8
1
  0
POLYLINE
  5
257C
330
1F
100
AcDbEntity
  8
1
100
AcDb2dPolyline
 66
     1
 10
0.0
 20
0.0
 30
0.0
  0
VERTEX
  5
257D
330
257C
100
AcDbEntity
  8
1
100
AcDbVertex
100
AcDb2dVertex
 10
4.676181102362204
 20
6.12007874015748
 30
0.0
  0
VERTEX
  5
257E
330
257C
100
AcDbEntity
  8
1
100
AcDbVertex
100
AcDb2dVertex
 10
4.682086614173228
 20
6.12007874015748
 30
0.0
  0
VERTEX
  5
257F
330
257C
100
AcDbEntity
  8
1
100
AcDbVertex
100
AcDb2dVertex
 10
4.684055118110236
 20
6.12007874015748
 30
0.0
  0
SEQEND
  5
2580
330
257C
100
AcDbEntity
  8
1
  0
POLYLINE
  5
2581
330
1F
100
AcDbEntity
  8
1
100
AcDb2dPolyline
 66
     1
 10
0.0
 20
0.0
 30
0.0
  0
VERTEX
  5
2582
330
2581
100
AcDbEntity
  8
1
100
AcDbVertex
100
AcDb2dVertex
 10
4.676181102362204
 20
6.226377952755905
 30
0.0
  0
VERTEX
  5
2583
330
2581
100
AcDbEntity
  8
1
100
AcDbVertex
100
AcDb2dVertex
 10
4.682086614173228
 20
6.226377952755905
 30
0.0
  0
VERTEX
  5
2584
330
2581
100
AcDbEntity
  8
1
100
AcDbVertex
100
AcDb2dVertex
 10
4.684055118110236
 20
6.226377952755905
 30
0.0
  0
SEQEND
  5
2585
330
2581
100
AcDbEntity
  8
1
  0
POLYLINE
  5
2586
330
1F
100
AcDbEntity
  8
1
100
AcDb2dPolyline
 66
     1
 10
0.0
 20
0.0
 30
0.0
  0
VERTEX
  5
2587
330
2586
100
AcDbEntity
  8
1
100
AcDbVertex
100
AcDb2dVertex
 10
4.098425196850393
 20
5.039370078740157
 30
0.0
  0
VERTEX
  5
2588
330
2586
100
AcDbEntity
  8
1
100
AcDbVertex
100
AcDb2dVertex
 10
4.098425196850393
 20
5.033464566929133
 30
0.0
  0
VERTEX
  5
2589
330
2586
100
AcDbEntity
  8
1
100
AcDbVertex
100
AcDb2dVertex
 10
4.098425196850393
 20
5.031496062992125
 30
0.0
  0
SEQEND
  5
258A
330
2586
100
AcDbEntity
  8
1
  0
POLYLINE
  5
258B
330
1F
100
AcDbEntity
  8
1
100
AcDb2dPolyline
 66
     1
 10
0.0
 20
0.0
 30
0.0
  0
VERTEX
  5
258C
330
258B
100
AcDbEntity
  8
1
100
AcDbVertex
100
AcDb2dVertex
 10
4.098425196850393
 20
5.823818897637795
 30
0.0
  0
VERTEX
  5
258D
330
258B
100
AcDbEntity
  8
1
100
AcDbVertex
100
AcDb2dVertex
 10
4.098425196850393
 20
5.821850393700787
 30
0.0
  0
VERTEX
  5
258E
330
258B
100
AcDbEntity
  8
1
100
AcDbVertex
100
AcDb2dVertex
 10
4.098425196850393
 20
5.815944881889763
 30
0.0
  0
SEQEND
  5
258F
330
258B
100
AcDbEntity
  8
1
  0
LINE
  5
2590
330
1F
100
AcDbEntity
  8
1
100
AcDbLine
 10
4.376968503937007
 20
4.986220472440944
 30
0.0
 11
4.336614173228346
 21
4.959645669291338
 31
0.0
  0
POLYLINE
  5
2591
330
1F
100
AcDbEntity
  8
1
100
AcDb2dPolyline
 66
     1
 10
0.0
 20
0.0
 30
0.0
  0
VERTEX
  5
2592
330
2591
100
AcDbEntity
  8
1
100
AcDbVertex
100
AcDb2dVertex
 10
4.330708661417323
 20
4.955708661417323
 30
0.0
  0
VERTEX
  5
2593
330
2591
100
AcDbEntity
  8
1
100
AcDbVertex
100
AcDb2dVertex
 10
4.33267716535433
 20
4.956692913385826
 30
0.0
  0
VERTEX
  5
2594
330
2591
100
AcDbEntity
  8
1
100
AcDbVertex
100
AcDb2dVertex
 10
4.336614173228346
 20
4.959645669291338
 30
0.0
  0
SEQEND
  5
2595
330
2591
100
AcDbEntity
  8
1
  0
LINE
  5
2596
330
1F
100
AcDbEntity
  8
1
100
AcDbLine
 10
4.381889763779527
 20
4.998031496062991
 30
0.0
 11
4.376968503937007
 21
4.986220472440944
 31
0.0
  0
POLYLINE
  5
2597
330
1F
100
AcDbEntity
  8
1
100
AcDb2dPolyline
 66
     1
 10
0.0
 20
0.0
 30
0.0
  0
VERTEX
  5
2598
330
2597
100
AcDbEntity
  8
1
100
AcDbVertex
100
AcDb2dVertex
 10
4.336614173228346
 20
4.959645669291338
 30
0.0
  0
VERTEX
  5
2599
330
2597
100
AcDbEntity
  8
1
100
AcDbVertex
100
AcDb2dVertex
 10
4.335629921259842
 20
4.961614173228346
 30
0.0
  0
VERTEX
  5
259A
330
2597
100
AcDbEntity
  8
1
100
AcDbVertex
100
AcDb2dVertex
 10
4.33267716535433
 20
4.966535433070865
 30
0.0
  0
SEQEND
  5
259B
330
2597
100
AcDbEntity
  8
1
  0
POLYLINE
  5
259C
330
1F
100
AcDbEntity
  8
1
100
AcDb2dPolyline
 66
     1
 10
0.0
 20
0.0
 30
0.0
  0
VERTEX
  5
259D
330
259C
100
AcDbEntity
  8
1
100
AcDbVertex
100
AcDb2dVertex
 10
4.373031496062991
 20
4.993110236220472
 30
0.0
  0
VERTEX
  5
259E
330
259C
100
AcDbEntity
  8
1
100
AcDbVertex
100
AcDb2dVertex
 10
4.375984251968503
 20
4.988188976377952
 30
0.0
  0
VERTEX
  5
259F
330
259C
100
AcDbEntity
  8
1
100
AcDbVertex
100
AcDb2dVertex
 10
4.376968503937007
 20
4.986220472440944
 30
0.0
  0
SEQEND
  5
25A0
330
259C
100
AcDbEntity
  8
1
  0
POLYLINE
  5
25A1
330
1F
100
AcDbEntity
  8
1
100
AcDb2dPolyline
 66
     1
 10
0.0
 20
0.0
 30
0.0
  0
VERTEX
  5
25A2
330
25A1
100
AcDbEntity
  8
1
100
AcDbVertex
100
AcDb2dVertex
 10
4.325787401574802
 20
4.96259842519685
 30
0.0
  0
VERTEX
  5
25A3
330
25A1
100
AcDbEntity
  8
1
100
AcDbVertex
100
AcDb2dVertex
 10
4.326771653543307
 20
4.96259842519685
 30
0.0
  0
VERTEX
  5
25A4
330
25A1
100
AcDbEntity
  8
1
100
AcDbVertex
100
AcDb2dVertex
 10
4.328740157480314
 20
4.963582677165354
 30
0.0
  0
VERTEX
  5
25A5
330
25A1
100
AcDbEntity
  8
1
100
AcDbVertex
100
AcDb2dVertex
 10
4.330708661417323
 20
4.965551181102362
 30
0.0
  0
VERTEX
  5
25A6
330
25A1
100
AcDbEntity
  8
1
100
AcDbVertex
100
AcDb2dVertex
 10
4.33267716535433
 20
4.966535433070865
 30
0.0
  0
SEQEND
  5
25A7
330
25A1
100
AcDbEntity
  8
1
  0
POLYLINE
  5
25A8
330
1F
100
AcDbEntity
  8
1
100
AcDb2dPolyline
 66
     1
 10
0.0
 20
0.0
 30
0.0
  0
VERTEX
  5
25A9
330
25A8
100
AcDbEntity
  8
1
100
AcDbVertex
100
AcDb2dVertex
 10
4.375
 20
4.997047244094487
 30
0.0
  0
VERTEX
  5
25AA
330
25A8
100
AcDbEntity
  8
1
100
AcDbVertex
100
AcDb2dVertex
 10
4.379921259842519
 20
4.998031496062991
 30
0.0
  0
VERTEX
  5
25AB
330
25A8
100
AcDbEntity
  8
1
100
AcDbVertex
100
AcDb2dVertex
 10
4.381889763779527
 20
4.998031496062991
 30
0.0
  0
SEQEND
  5
25AC
330
25A8
100
AcDbEntity
  8
1
  0
POLYLINE
  5
25AD
330
1F
100
AcDbEntity
  8
1
100
AcDb2dPolyline
 66
     1
 10
0.0
 20
0.0
 30
0.0
  0
VERTEX
  5
25AE
330
25AD
100
AcDbEntity
  8
1
100
AcDbVertex
100
AcDb2dVertex
 10
4.312007874015748
 20
5.007874015748031
 30
0.0
  0
VERTEX
  5
25AF
330
25AD
100
AcDbEntity
  8
1
100
AcDbVertex
100
AcDb2dVertex
 10
4.313976377952755
 20
5.007874015748031
 30
0.0
  0
VERTEX
  5
25B0
330
25AD
100
AcDbEntity
  8
1
100
AcDbVertex
100
AcDb2dVertex
 10
4.319881889763779
 20
5.007874015748031
 30
0.0
  0
SEQEND
  5
25B1
330
25AD
100
AcDbEntity
  8
1
  0
POLYLINE
  5
25B2
330
1F
100
AcDbEntity
  8
1
100
AcDb2dPolyline
 66
     1
 10
0.0
 20
0.0
 30
0.0
  0
VERTEX
  5
25B3
330
25B2
100
AcDbEntity
  8
1
100
AcDbVertex
100
AcDb2dVertex
 10
4.323818897637795
 20
5.042322834645669
 30
0.0
  0
VERTEX
  5
25B4
330
25B2
100
AcDbEntity
  8
1
100
AcDbVertex
100
AcDb2dVertex
 10
4.323818897637795
 20
5.047244094488188
 30
0.0
  0
VERTEX
  5
25B5
330
25B2
100
AcDbEntity
  8
1
100
AcDbVertex
100
AcDb2dVertex
 10
4.323818897637795
 20
5.0501968503937
 30
0.0
  0
SEQEND
  5
25B6
330
25B2
100
AcDbEntity
  8
1
  0
POLYLINE
  5
25B7
330
1F
100
AcDbEntity
  8
1
100
AcDb2dPolyline
 66
     1
 10
0.0
 20
0.0
 30
0.0
  0
VERTEX
  5
25B8
330
25B7
100
AcDbEntity
  8
1
100
AcDbVertex
100
AcDb2dVertex
 10
4.312007874015748
 20
5.042322834645669
 30
0.0
  0
VERTEX
  5
25B9
330
25B7
100
AcDbEntity
  8
1
100
AcDbVertex
100
AcDb2dVertex
 10
4.313976377952755
 20
5.042322834645669
 30
0.0
  0
VERTEX
  5
25BA
330
25B7
100
AcDbEntity
  8
1
100
AcDbVertex
100
AcDb2dVertex
 10
4.319881889763779
 20
5.042322834645669
 30
0.0
  0
SEQEND
  5
25BB
330
25B7
100
AcDbEntity
  8
1
  0
POLYLINE
  5
25BC
330
1F
100
AcDbEntity
  8
1
100
AcDb2dPolyline
 66
     1
 10
0.0
 20
0.0
 30
0.0
  0
VERTEX
  5
25BD
330
25BC
100
AcDbEntity
  8
1
100
AcDbVertex
100
AcDb2dVertex
 10
4.319881889763779
 20
5.042322834645669
 30
0.0
  0
VERTEX
  5
25BE
330
25BC
100
AcDbEntity
  8
1
100
AcDbVertex
100
AcDb2dVertex
 10
4.319881889763779
 20
5.047244094488188
 30
0.0
  0
VERTEX
  5
25BF
330
25BC
100
AcDbEntity
  8
1
100
AcDbVertex
100
AcDb2dVertex
 10
4.319881889763779
 20
5.0501968503937
 30
0.0
  0
SEQEND
  5
25C0
330
25BC
100
AcDbEntity
  8
1
  0
POLYLINE
  5
25C1
330
1F
100
AcDbEntity
  8
1
100
AcDb2dPolyline
 66
     1
 10
0.0
 20
0.0
 30
0.0
  0
VERTEX
  5
25C2
330
25C1
100
AcDbEntity
  8
1
100
AcDbVertex
100
AcDb2dVertex
 10
4.098425196850393
 20
5.815944881889763
 30
0.0
  0
VERTEX
  5
25C3
330
25C1
100
AcDbEntity
  8
1
100
AcDbVertex
100
AcDb2dVertex
 10
4.09251968503937
 20
5.815944881889763
 30
0.0
  0
VERTEX
  5
25C4
330
25C1
100
AcDbEntity
  8
1
100
AcDbVertex
100
AcDb2dVertex
 10
4.090551181102362
 20
5.815944881889763
 30
0.0
  0
SEQEND
  5
25C5
330
25C1
100
AcDbEntity
  8
1
  0
POLYLINE
  5
25C6
330
1F
100
AcDbEntity
  8
1
100
AcDb2dPolyline
 66
     1
 10
0.0
 20
0.0
 30
0.0
  0
VERTEX
  5
25C7
330
25C6
100
AcDbEntity
  8
1
100
AcDbVertex
100
AcDb2dVertex
 10
4.098425196850393
 20
5.039370078740157
 30
0.0
  0
VERTEX
  5
25C8
330
25C6
100
AcDbEntity
  8
1
100
AcDbVertex
100
AcDb2dVertex
 10
4.09251968503937
 20
5.039370078740157
 30
0.0
  0
VERTEX
  5
25C9
330
25C6
100
AcDbEntity
  8
1
100
AcDbVertex
100
AcDb2dVertex
 10
4.090551181102362
 20
5.039370078740157
 30
0.0
  0
SEQEND
  5
25CA
330
25C6
100
AcDbEntity
  8
1
  0
ENDSEC
  0
SECTION
  2
OBJECTS
  0
DICTIONARY
  5
C
330
0
100
AcDbDictionary
281
     1
  3
ACAD_COLOR
350
2933
  3
ACAD_GROUP
350
D
  3
ACAD_IMAGE_DICT
350
5A
  3
ACAD_LAYOUT
350
1A
  3
ACAD_MATERIAL
350
292F
  3
ACAD_MLEADERSTYLE
350
292D
  3
ACAD_MLINESTYLE
350
17
  3
ACAD_PLOTSETTINGS
350
19
  3
ACAD_PLOTSTYLENAME
350
E
  3
ACAD_TABLESTYLE
350
292C
  3
ACAD_VISUALSTYLE
350
2A
  3
AcDbVariableDictionary
350
2937
  0
DICTIONARY
  5
2933
102
{ACAD_REACTORS
330
C
102
}
330
C
100
AcDbDictionary
281
     1
  0
DICTIONARY
  5
D
102
{ACAD_REACTORS
330
C
102
}
330
C
100
AcDbDictionary
281
     1
  0
DICTIONARY
  5
5A
102
{ACAD_REACTORS
330
C
102
}
330
C
100
AcDbDictionary
281
     1
  0
DICTIONARY
  5
1A
102
{ACAD_REACTORS
330
C
102
}
330
C
100
AcDbDictionary
281
     1
  3
Layout1
350
1E
  3
Layout2
350
26
  3
Model
350
22
  0
DICTIONARY
  5
292F
102
{ACAD_REACTORS
330
C
102
}
330
C
100
AcDbDictionary
281
     1
  3
ByBlock
350
2931
  3
ByLayer
350
2930
  3
Global
350
2932
  0
DICTIONARY
  5
292D
102
{ACAD_REACTORS
330
C
102
}
330
C
100
AcDbDictionary
281
     1
  0
DICTIONARY
  5
17
102
{ACAD_REACTORS
330
C
102
}
330
C
100
AcDbDictionary
281
     1
  3
Standard
350
18
  0
DICTIONARY
  5
19
102
{ACAD_REACTORS
330
C
102
}
330
C
100
AcDbDictionary
281
     1
  0
ACDBDICTIONARYWDFLT
  5
E
102
{ACAD_REACTORS
330
C
102
}
330
C
100
AcDbDictionary
281
     1
  3
Normal
350
F
100
AcDbDictionaryWithDefault
340
F
  0
DICTIONARY
  5
292C
102
{ACAD_REACTORS
330
C
102
}
330
C
100
AcDbDictionary
281
     1
  3
Standard
350
2934
  0
DICTIONARY
  5
2A
102
{ACAD_REACTORS
330
C
102
}
330
C
100
AcDbDictionary
281
     1
  3
2dWireframe
350
2F
  3
3D Hidden
350
31
  3
3dWireframe
350
30
  3
Basic
350
32
  3
Brighten
350
36
  3
ColorChange
350
3A
  3
Conceptual
350
34
  3
Dim
350
35
  3
Facepattern
350
39
  3
Flat
350
2B
  3
FlatWithEdges
350
2C
  3
Gouraud
350
2D
  3
GouraudWithEdges
350
2E
  3
Linepattern
350
38
  3
Realistic
350
33
  3
Thicken
350
37
  0
DICTIONARY
  5
2937
102
{ACAD_REACTORS
330
C
102
}
330
C
100
AcDbDictionary
281
     1
  3
CTABLESTYLE
350
2938
  0
LAYOUT
  5
1E
102
{ACAD_REACTORS
330
1A
102
}
330
1A
100
AcDbPlotSettings
  1

  2
none_device
  4

  6

 40
0.0
 41
0.0
 42
0.0
 43
0.0
 44
0.0
 45
0.0
 46
0.0
 47
0.0
 48
0.0
 49
0.0
140
0.0
141
0.0
142
1.0
143
1.0
 70
   688
 72
     0
 73
     0
 74
     5
  7

 75
    16
147
1.0
 76
     0
 77
     2
 78
   300
148
0.0
149
0.0
100
AcDbLayout
  1
Layout1
 70
     1
 71
     1
 10
0.0
 20
0.0
 11
12.0
 21
9.0
 12
0.0
 22
0.0
 32
0.0
 14
1.000000000000000E+20
 24
1.000000000000000E+20
 34
1.000000000000000E+20
 15
-1.000000000000000E+20
 25
-1.000000000000000E+20
 35
-1.000000000000000E+20
146
0.0
 13
0.0
 23
0.0
 33
0.0
 16
1.0
 26
0.0
 36
0.0
 17
0.0
 27
1.0
 37
0.0
 76
     0
330
1B
  0
LAYOUT
  5
26
102
{ACAD_REACTORS
330
1A
102
}
330
1A
100
AcDbPlotSettings
  1

  2
none_device
  4

  6

 40
0.0
 41
0.0
 42
0.0
 43
0.0
 44
0.0
 45
0.0
 46
0.0
 47
0.0
 48
0.0
 49
0.0
140
0.0
141
0.0
142
1.0
143
1.0
 70
   688
 72
     0
 73
     0
 74
     5
  7

 75
    16
147
1.0
 76
     0
 77
     2
 78
   300
148
0.0
149
0.0
100
AcDbLayout
  1
Layout2
 70
     1
 71
     2
 10
0.0
 20
0.0
 11
0.0
 21
0.0
 12
0.0
 22
0.0
 32
0.0
 14
0.0
 24
0.0
 34
0.0
 15
0.0
 25
0.0
 35
0.0
146
0.0
 13
0.0
 23
0.0
 33
0.0
 16
1.0
 26
0.0
 36
0.0
 17
0.0
 27
1.0
 37
0.0
 76
     0
330
23
  0
LAYOUT
  5
22
102
{ACAD_REACTORS
330
1A
102
}
330
1A
100
AcDbPlotSettings
  1

  2
none_device
  4

  6

 40
0.0
 41
0.0
 42
0.0
 43
0.0
 44
0.0
 45
0.0
 46
0.0
 47
0.0
 48
0.0
 49
0.0
140
0.0
141
0.0
142
1.0
143
1.0
 70
  1712
 72
     0
 73
     0
 74
     0
  7

 75
     0
147
1.0
 76
     0
 77
     2
 78
   300
148
0.0
149
0.0
100
AcDbLayout
  1
Model
 70
     1
 71
     0
 10
0.0
 20
0.0
 11
12.0
 21
9.0
 12
0.0
 22
0.0
 32
0.0
 14
1.000000000000000E+20
 24
1.000000000000000E+20
 34
1.000000000000000E+20
 15
-1.000000000000000E+20
 25
-1.000000000000000E+20
 35
-1.000000000000000E+20
146
0.0
 13
0.0
 23
0.0
 33
0.0
 16
1.0
 26
0.0
 36
0.0
 17
0.0
 27
1.0
 37
0.0
 76
     0
330
1F
331
29
  0
MATERIAL
  5
2931
102
{ACAD_REACTORS
330
292F
102
}
330
292F
100
AcDbMaterial
  1
ByBlock
  0
MATERIAL
  5
2930
102
{ACAD_REACTORS
330
292F
102
}
330
292F
100
AcDbMaterial
  1
ByLayer
  0
MATERIAL
  5
2932
102
{ACAD_REACTORS
330
292F
102
}
330
292F
100
AcDbMaterial
  1
Global
  0
MLINESTYLE
  5
18
102
{ACAD_REACTORS
330
17
102
}
330
17
100
AcDbMlineStyle
  2
STANDARD
 70
     0
  3

 62
   256
 51
90.0
 52
90.0
 71
     2
 49
0.5
 62
   256
  6
BYLAYER
 49
-0.5
 62
   256
  6
BYLAYER
  0
ACDBPLACEHOLDER
  5
F
102
{ACAD_REACTORS
330
E
102
}
330
E
  0
TABLESTYLE
  5
2934
102
{ACAD_REACTORS
330
292C
102
}
330
292C
100
AcDbTableStyle
  3
Standard
 70
     0
 71
     0
 40
0.06
 41
0.06
280
     0
281
     0
  7
Standard
140
0.18
170
     2
 62
     0
 63
     7
283
     0
 90
      512
 91
        0
  1

274
    -2
284
     1
 64
     0
275
    -2
285
     1
 65
     0
276
    -2
286
     1
 66
     0
277
    -2
287
     1
 67
     0
278
    -2
288
     1
 68
     0
279
    -2
289
     1
 69
     0
  7
Standard
140
0.25
170
     5
 62
     0
 63
     7
283
     0
 90
      512
 91
        0
  1

274
    -2
284
     1
 64
     0
275
    -2
285
     1
 65
     0
276
    -2
286
     1
 66
     0
277
    -2
287
     1
 67
     0
278
    -2
288
     1
 68
     0
279
    -2
289
     1
 69
     0
  7
Standard
140
0.18
170
     5
 62
     0
 63
     7
283
     0
 90
      512
 91
        0
  1

274
    -2
284
     1
 64
     0
275
    -2
285
     1
 65
     0
276
    -2
286
     1
 66
     0
277
    -2
287
     1
 67
     0
278
    -2
288
     1
 68
     0
279
    -2
289
     1
 69
     0
  0
VISUALSTYLE
  5
2F
102
{ACAD_REACTORS
330
2A
102
}
330
2A
100
AcDbVisualStyle
  2
2dWireframe
 70
     4
 71
     0
 72
     2
 73
     0
 90
        0
 40
-0.6
 41
-30.0
 62
     5
 63
     7
 74
     1
 91
        4
 64
     7
 65
   257
 75
     1
175
     1
 42
1.0
 92
        0
 66
   257
 43
1.0
 76
     1
 77
     6
 78
     2
 67
     7
 79
     5
170
     0
171
     0
290
     0
174
     0
 93
        1
 44
0.0
173
     0
291
     0
 45
0.0
  0
VISUALSTYLE
  5
31
102
{ACAD_REACTORS
330
2A
102
}
330
2A
100
AcDbVisualStyle
  2
3D Hidden
 70
     6
 71
     1
 72
     2
 73
     2
 90
        0
 40
-0.6
 41
-30.0
 62
     5
 63
     7
 74
     2
 91
        2
 64
     7
 65
   257
 75
     2
175
     1
 42
40.0
 92
        0
 66
   257
 43
1.0
 76
     1
 77
     6
 78
     2
 67
     7
 79
     3
170
     0
171
     0
290
     0
174
     0
 93
        1
 44
0.0
173
     0
291
     0
 45
0.0
  0
VISUALSTYLE
  5
30
102
{ACAD_REACTORS
330
2A
102
}
330
2A
100
AcDbVisualStyle
  2
3dWireframe
 70
     5
 71
     0
 72
     2
 73
     0
 90
        0
 40
-0.6
 41
-30.0
 62
     5
 63
     7
 74
     1
 91
        4
 64
     7
 65
   257
 75
     1
175
     1
 42
1.0
 92
        0
 66
   257
 43
1.0
 76
     1
 77
     6
 78
     2
 67
     7
 79
     5
170
     0
171
     0
290
     0
174
     0
 93
        1
 44
0.0
173
     0
291
     0
 45
0.0
  0
VISUALSTYLE
  5
32
102
{ACAD_REACTORS
330
2A
102
}
330
2A
100
AcDbVisualStyle
  2
Basic
 70
     7
 71
     1
 72
     0
 73
     1
 90
        0
 40
-0.6
 41
-30.0
 62
     5
 63
     7
 74
     0
 91
        4
 64
     7
 65
   257
 75
     1
175
     1
 42
1.0
 92
        8
 66
     7
 43
1.0
 76
     1
 77
     6
 78
     2
 67
     7
 79
     5
170
     0
171
     0
290
     0
174
     0
 93
        1
 44
0.0
173
     0
291
     1
 45
0.0
  0
VISUALSTYLE
  5
36
102
{ACAD_REACTORS
330
2A
102
}
330
2A
100
AcDbVisualStyle
  2
Brighten
 70
    12
 71
     2
 72
     2
 73
     0
 90
        0
 40
-0.6
 41
-30.0
 62
     5
 63
     7
 74
     1
 91
        4
 64
     7
 65
   257
 75
     1
175
     1
 42
1.0
 92
        8
 66
     7
 43
1.0
 76
     1
 77
     6
 78
     2
 67
     7
 79
     5
170
     0
171
     0
290
     0
174
     0
 93
        1
 44
50.0
173
     0
291
     1
 45
0.0
  0
VISUALSTYLE
  5
3A
102
{ACAD_REACTORS
330
2A
102
}
330
2A
100
AcDbVisualStyle
  2
ColorChange
 70
    16
 71
     2
 72
     2
 73
     3
 90
        0
 40
-0.6
 41
-30.0
 62
     5
 63
     8
 74
     1
 91
        4
 64
     7
 65
   257
 75
     1
175
     1
 42
1.0
 92
        8
 66
     8
 43
1.0
 76
     1
 77
     6
 78
     2
 67
     7
 79
     5
170
     0
171
     0
290
     0
174
     0
 93
        1
 44
0.0
173
     0
291
     1
 45
0.0
  0
VISUALSTYLE
  5
34
102
{ACAD_REACTORS
330
2A
102
}
330
2A
100
AcDbVisualStyle
  2
Conceptual
 70
     9
 71
     3
 72
     2
 73
     0
 90
        0
 40
-0.6
 41
-30.0
 62
     5
 63
     7
 74
     2
 91
        2
 64
     7
 65
   257
 75
     1
175
     1
 42
40.0
 92
        8
 66
     7
 43
1.0
 76
     1
 77
     6
 78
     2
 67
     7
 79
     3
170
     0
171
     0
290
     0
174
     0
 93
        1
 44
0.0
173
     0
291
     0
 45
0.0
  0
VISUALSTYLE
  5
35
102
{ACAD_REACTORS
330
2A
102
}
330
2A
100
AcDbVisualStyle
  2
Dim
 70
    11
 71
     2
 72
     2
 73
     0
 90
        0
 40
-0.6
 41
-30.0
 62
     5
 63
     7
 74
     1
 91
        4
 64
     7
 65
   257
 75
     1
175
     1
 42
1.0
 92
        8
 66
     7
 43
1.0
 76
     1
 77
     6
 78
     2
 67
     7
 79
     5
170
     0
171
     0
290
     0
174
     0
 93
        1
 44
-50.0
173
     0
291
     1
 45
0.0
  0
VISUALSTYLE
  5
39
102
{ACAD_REACTORS
330
2A
102
}
330
2A
100
AcDbVisualStyle
  2
Facepattern
 70
    15
 71
     2
 72
     2
 73
     0
 90
        0
 40
-0.6
 41
-30.0
 62
     5
 63
     7
 74
     1
 91
        4
 64
     7
 65
   257
 75
     1
175
     1
 42
1.0
 92
        8
 66
     7
 43
1.0
 76
     1
 77
     6
 78
     2
 67
     7
 79
     5
170
     0
171
     0
290
     0
174
     0
 93
        1
 44
0.0
173
     0
291
     1
 45
0.0
  0
VISUALSTYLE
  5
2B
102
{ACAD_REACTORS
330
2A
102
}
330
2A
100
AcDbVisualStyle
  2
Flat
 70
     0
 71
     2
 72
     1
 73
     1
 90
        2
 40
-0.6
 41
30.0
 62
     5
 63
     7
 74
     0
 91
        4
 64
     7
 65
   257
 75
     1
175
     1
 42
1.0
 92
        8
 66
     7
 43
1.0
 76
     1
 77
     6
 78
     2
 67
     7
 79
     5
170
     0
171
     0
290
     0
174
     0
 93
       13
 44
0.0
173
     0
291
     1
 45
0.0
  0
VISUALSTYLE
  5
2C
102
{ACAD_REACTORS
330
2A
102
}
330
2A
100
AcDbVisualStyle
  2
FlatWithEdges
 70
     1
 71
     2
 72
     1
 73
     1
 90
        2
 40
-0.6
 41
30.0
 62
     5
 63
     7
 74
     1
 91
        4
 64
     7
 65
   257
 75
     1
175
     1
 42
1.0
 92
        0
 66
   257
 43
1.0
 76
     1
 77
     6
 78
     2
 67
     7
 79
     5
170
     0
171
     0
290
     0
174
     0
 93
       13
 44
0.0
173
     0
291
     1
 45
0.0
  0
VISUALSTYLE
  5
2D
102
{ACAD_REACTORS
330
2A
102
}
330
2A
100
AcDbVisualStyle
  2
Gouraud
 70
     2
 71
     2
 72
     2
 73
     1
 90
        2
 40
-0.6
 41
30.0
 62
     5
 63
     7
 74
     0
 91
        4
 64
     7
 65
   257
 75
     1
175
     1
 42
1.0
 92
        0
 66
     7
 43
1.0
 76
     1
 77
     6
 78
     2
 67
     7
 79
     5
170
     0
171
     0
290
     0
174
     0
 93
       13
 44
0.0
173
     0
291
     1
 45
0.0
  0
VISUALSTYLE
  5
2E
102
{ACAD_REACTORS
330
2A
102
}
330
2A
100
AcDbVisualStyle
  2
GouraudWithEdges
 70
     3
 71
     2
 72
     2
 73
     1
 90
        2
 40
-0.6
 41
30.0
 62
     5
 63
     7
 74
     1
 91
        4
 64
     7
 65
   257
 75
     1
175
     1
 42
1.0
 92
        0
 66
   257
 43
1.0
 76
     1
 77
     6
 78
     2
 67
     7
 79
     5
170
     0
171
     0
290
     0
174
     0
 93
       13
 44
0.0
173
     0
291
     1
 45
0.0
  0
VISUALSTYLE
  5
38
102
{ACAD_REACTORS
330
2A
102
}
330
2A
100
AcDbVisualStyle
  2
Linepattern
 70
    14
 71
     2
 72
     2
 73
     0
 90
        0
 40
-0.6
 41
-30.0
 62
     5
 63
     7
 74
     1
 91
        4
 64
     7
 65
   257
 75
     7
175
     7
 42
1.0
 92
        8
 66
     7
 43
1.0
 76
     1
 77
     6
 78
     2
 67
     7
 79
     5
170
     0
171
     0
290
     0
174
     0
 93
        1
 44
0.0
173
     0
291
     1
 45
0.0
  0
VISUALSTYLE
  5
33
102
{ACAD_REACTORS
330
2A
102
}
330
2A
100
AcDbVisualStyle
  2
Realistic
 70
     8
 71
     2
 72
     2
 73
     0
 90
        0
 40
-0.6
 41
-30.0
 62
     5
 63
     7
 74
     1
 91
        0
 64
     7
 65
   257
 75
     1
175
     1
 42
1.0
 92
        8
 66
     8
 43
1.0
 76
     1
 77
     6
 78
     2
 67
     7
 79
     5
170
     0
171
     0
290
     0
174
     0
 93
       13
 44
0.0
173
     0
291
     0
 45
0.0
  0
VISUALSTYLE
  5
37
102
{ACAD_REACTORS
330
2A
102
}
330
2A
100
AcDbVisualStyle
  2
Thicken
 70
    13
 71
     2
 72
     2
 73
     0
 90
        0
 40
-0.6
 41
-30.0
 62
     5
 63
     7
 74
     1
 91
        4
 64
     7
 65
   257
 75
     1
175
     1
 42
1.0
 92
       12
 66
     7
 43
1.0
 76
     1
 77
     6
 78
     2
 67
     7
 79
     5
170
     0
171
     0
290
     0
174
     0
 93
        1
 44
0.0
173
     0
291
     1
 45
0.0
  0
DICTIONARYVAR
  5
2938
102
{ACAD_REACTORS
330
2937
102
}
330
2937
100
DictionaryVariables
280
     0
  1
STANDARD
  0
ENDSEC
  0
EOF
