  0
SECTION
  2
HEADER
  9
$ACADVER
  1
AC1012
  9
$DWGCODEPAGE
  3
ANSI_1252
  9
$INSBASE
 10
0.0
 20
0.0
 30
0.0
  9
$EXTMIN
 10
-0.1972045621336491
 20
1.0063476783763
 30
-0.0015258207003583
  9
$EXTMAX
 10
7.077575705802971
 20
3.656799331140703
 30
0.0000000349246037
  9
$LIMMIN
 10
0.0
 20
0.0
  9
$LIMMAX
 10
12.0
 20
9.0
  9
$ORTHOMODE
 70
     0
  9
$REGENMODE
 70
     1
  9
$FILLMODE
 70
     1
  9
$QTEXTMODE
 70
     0
  9
$MIRRTEXT
 70
     1
  9
$DRAGMODE
 70
     2
  9
$LTSCALE
 40
1.0
  9
$OSMODE
 70
    33
  9
$ATTMODE
 70
     1
  9
$TEXTSIZE
 40
0.2
  9
$TRACEWID
 40
0.05
  9
$TEXTSTYLE
  7
STANDARD
  9
$CLAYER
  8
0
  9
$CELTYPE
  6
BYLAYER
  9
$CECOLOR
 62
   256
  9
$CELTSCALE
 40
1.0
  9
$DELOBJ
 70
     1
  9
$DISPSILH
 70
     0
  9
$DIMSCALE
 40
1.0
  9
$DIMASZ
 40
0.18
  9
$DIMEXO
 40
0.0625
  9
$DIMDLI
 40
0.38
  9
$DIMRND
 40
0.0
  9
$DIMDLE
 40
0.0
  9
$DIMEXE
 40
0.18
  9
$DIMTP
 40
0.0
  9
$DIMTM
 40
0.0
  9
$DIMTXT
 40
0.18
  9
$DIMCEN
 40
0.09
  9
$DIMTSZ
 40
0.0
  9
$DIMTOL
 70
     0
  9
$DIMLIM
 70
     0
  9
$DIMTIH
 70
     1
  9
$DIMTOH
 70
     1
  9
$DIMSE1
 70
     0
  9
$DIMSE2
 70
     0
  9
$DIMTAD
 70
     0
  9
$DIMZIN
 70
     0
  9
$DIMBLK
  1

  9
$DIMASO
 70
     1
  9
$DIMSHO
 70
     1
  9
$DIMPOST
  1

  9
$DIMAPOST
  1

  9
$DIMALT
 70
     0
  9
$DIMALTD
 70
     2
  9
$DIMALTF
 40
25.4
  9
$DIMLFAC
 40
1.0
  9
$DIMTOFL
 70
     0
  9
$DIMTVP
 40
0.0
  9
$DIMTIX
 70
     0
  9
$DIMSOXD
 70
     0
  9
$DIMSAH
 70
     0
  9
$DIMBLK1
  1

  9
$DIMBLK2
  1

  9
$DIMSTYLE
  2
STANDARD
  9
$DIMCLRD
 70
     0
  9
$DIMCLRE
 70
     0
  9
$DIMCLRT
 70
     0
  9
$DIMTFAC
 40
1.0
  9
$DIMGAP
 40
0.09
  9
$DIMJUST
 70
     0
  9
$DIMSD1
 70
     0
  9
$DIMSD2
 70
     0
  9
$DIMTOLJ
 70
     1
  9
$DIMTZIN
 70
     0
  9
$DIMALTZ
 70
     0
  9
$DIMALTTZ
 70
     0
  9
$DIMFIT
 70
     5
  9
$DIMUPT
 70
     0
  9
$DIMUNIT
 70
     2
  9
$DIMDEC
 70
     4
  9
$DIMTDEC
 70
     4
  9
$DIMALTU
 70
     2
  9
$DIMALTTD
 70
     2
  9
$DIMTXSTY
  7
STANDARD
  9
$DIMAUNIT
 70
     0
  9
$LUNITS
 70
     2
  9
$LUPREC
 70
     4
  9
$SKETCHINC
 40
0.1
  9
$FILLETRAD
 40
0.0
  9
$AUNITS
 70
     0
  9
$AUPREC
 70
     0
  9
$MENU
  1
acad
  9
$ELEVATION
 40
0.0
  9
$PELEVATION
 40
0.0
  9
$THICKNESS
 40
0.0
  9
$LIMCHECK
 70
     0
  9
$BLIPMODE
 70
     0
  9
$CHAMFERA
 40
0.0
  9
$CHAMFERB
 40
0.0
  9
$CHAMFERC
 40
0.0
  9
$CHAMFERD
 40
0.0
  9
$SKPOLY
 70
     0
  9
$TDCREATE
 40
2452601.433622685
  9
$TDUPDATE
 40
2452601.435276840
  9
$TDINDWG
 40
0.0012207060
  9
$TDUSRTIMER
 40
0.0012207060
  9
$USRTIMER
 70
     1
  9
$ANGBASE
 50
0.0
  9
$ANGDIR
 70
     0
  9
$PDMODE
 70
     0
  9
$PDSIZE
 40
0.0
  9
$PLINEWID
 40
0.0
  9
$COORDS
 70
     2
  9
$SPLFRAME
 70
     0
  9
$SPLINETYPE
 70
     6
  9
$SPLINESEGS
 70
     8
  9
$ATTDIA
 70
     0
  9
$ATTREQ
 70
     1
  9
$HANDLING
 70
  4097
  9
$HANDSEED
  5
52DB
  9
$SURFTAB1
 70
     6
  9
$SURFTAB2
 70
     6
  9
$SURFTYPE
 70
     6
  9
$SURFU
 70
     6
  9
$SURFV
 70
     6
  9
$UCSNAME
  2

  9
$UCSORG
 10
0.0
 20
0.0
 30
0.0
  9
$UCSXDIR
 10
1.0
 20
0.0
 30
0.0
  9
$UCSYDIR
 10
0.0
 20
1.0
 30
0.0
  9
$PUCSNAME
  2

  9
$PUCSORG
 10
0.0
 20
0.0
 30
0.0
  9
$PUCSXDIR
 10
1.0
 20
0.0
 30
0.0
  9
$PUCSYDIR
 10
0.0
 20
1.0
 30
0.0
  9
$USERI1
 70
     0
  9
$USERI2
 70
     0
  9
$USERI3
 70
     0
  9
$USERI4
 70
     0
  9
$USERI5
 70
     0
  9
$USERR1
 40
0.0
  9
$USERR2
 40
0.0
  9
$USERR3
 40
0.0
  9
$USERR4
 40
0.0
  9
$USERR5
 40
0.0
  9
$WORLDVIEW
 70
     1
  9
$SHADEDGE
 70
     3
  9
$SHADEDIF
 70
    70
  9
$TILEMODE
 70
     1
  9
$MAXACTVP
 70
    16
  9
$PINSBASE
 10
0.0
 20
0.0
 30
0.0
  9
$PLIMCHECK
 70
     0
  9
$PEXTMIN
 10
1.000000000000000E+20
 20
1.000000000000000E+20
 30
1.000000000000000E+20
  9
$PEXTMAX
 10
-1.000000000000000E+20
 20
-1.000000000000000E+20
 30
-1.000000000000000E+20
  9
$PLIMMIN
 10
0.0
 20
0.0
  9
$PLIMMAX
 10
12.0
 20
9.0
  9
$UNITMODE
 70
     0
  9
$VISRETAIN
 70
     0
  9
$PLINEGEN
 70
     0
  9
$PSLTSCALE
 70
     1
  9
$TREEDEPTH
 70
  3020
  9
$PICKSTYLE
 70
     1
  9
$CMLSTYLE
  2
STANDARD
  9
$CMLJUST
 70
     0
  9
$CMLSCALE
 40
1.0
  9
$SAVEIMAGES
 70
     1
  0
ENDSEC
  0
SECTION
  2
CLASSES
  0
CLASS
  1
ACDBDICTIONARYWDFLT
  2
AcDbDictionaryWithDefault
  3
AutoCAD 2000
 90
    32768
280
     0
281
     0
  0
CLASS
  1
ACDBPLACEHOLDER
  2
AcDbPlaceHolder
  3
AutoCAD 2000
 90
    32768
280
     0
281
     0
  0
CLASS
  1
LAYOUT
  2
AcDbLayout
  3
AutoCAD 2000
 90
    32768
280
     0
281
     0
  0
CLASS
  1
LONG_TRANSACTION
  2
AcDbLongTransaction
  3
AutoCAD 2000
 90
    32768
280
     0
281
     0
  0
CLASS
  1
LWPOLYLINE
  2
AcDbPolyline
  3
AutoCAD 2000
 90
    32768
280
     0
281
     1
  0
CLASS
  1
HATCH
  2
AcDbHatch
  3
AutoCAD 2000
 90
    32768
280
     0
281
     1
  0
CLASS
  1
XRECORD
  2
AcDbXrecord
  3
AutoCAD 2000
 90
    32768
280
     0
281
     0
  0
ENDSEC
  0
SECTION
  2
TABLES
  0
TABLE
  2
VPORT
  5
8
330
0
100
AcDbSymbolTable
 70
     3
  0
VPORT
  5
52D6
330
8
100
AcDbSymbolTableRecord
100
AcDbViewportTableRecord
  2
*ACTIVE
 70
     0
 10
0.0
 20
0.0
 11
1.0
 21
1.0
 12
3.44018557183466
 22
2.331573504758502
 13
0.0
 23
0.0
 14
1.0
 24
1.0
 15
0.0
 25
0.0
 16
0.0
 26
0.0
 36
1.0
 17
0.0
 27
0.0
 37
0.0
 40
4.486670597261794
 41
1.62928759894459
 42
50.0
 43
0.0
 44
0.0
 50
0.0
 51
0.0
 71
     0
 72
   100
 73
     1
 74
     1
 75
     0
 76
     0
 77
     0
 78
     0
  0
ENDTAB
  0
TABLE
  2
LTYPE
  5
5
330
0
100
AcDbSymbolTable
 70
    25
  0
LTYPE
  5
13
330
5
100
AcDbSymbolTableRecord
100
AcDbLinetypeTableRecord
  2
BYBLOCK
 70
     0
  3

 72
    65
 73
     0
 40
0.0
  0
LTYPE
  5
14
330
5
100
AcDbSymbolTableRecord
100
AcDbLinetypeTableRecord
  2
BYLAYER
 70
     0
  3

 72
    65
 73
     0
 40
0.0
  0
LTYPE
  5
15
330
5
100
AcDbSymbolTableRecord
100
AcDbLinetypeTableRecord
  2
CONTINUOUS
 70
     0
  3
Solid line
 72
    65
 73
     0
 40
0.0
  0
LTYPE
  5
22
330
5
100
AcDbSymbolTableRecord
100
AcDbLinetypeTableRecord
  2
BORDER
 70
     0
  3
__ __ . __ __ . __ __ . __ __ . __ __ . __ __ .
 72
    65
 73
     6
 40
1.75
 49
0.5
 74
     0
 49
-0.25
 74
     0
 49
0.5
 74
     0
 49
-0.25
 74
     0
 49
0.5
 74
     0
 49
-0.25
 74
     0
  0
LTYPE
  5
23
330
5
100
AcDbSymbolTableRecord
100
AcDbLinetypeTableRecord
  2
BORDER2
 70
     0
  3
__.__.__.__.__.__.__.__.__.__.__.__.__.__.__.__
 72
    65
 73
     6
 40
0.875
 49
0.25
 74
     0
 49
-0.125
 74
     0
 49
0.25
 74
     0
 49
-0.125
 74
     0
 49
0.25
 74
     0
 49
-0.125
 74
     0
  0
LTYPE
  5
24
330
5
100
AcDbSymbolTableRecord
100
AcDbLinetypeTableRecord
  2
BORDERX2
 70
     0
  3
____  ____  .  ____  ____  .  
 72
    65
 73
     6
 40
3.5
 49
1.0
 74
     0
 49
-0.5
 74
     0
 49
1.0
 74
     0
 49
-0.5
 74
     0
 49
1.0
 74
     0
 49
-0.5
 74
     0
  0
LTYPE
  5
25
330
5
100
AcDbSymbolTableRecord
100
AcDbLinetypeTableRecord
  2
CENTER
 70
     0
  3
____ _ ____ _ ____ _ ____ _ ____ _ ____ _ ____
 72
    65
 73
     4
 40
2.0
 49
1.25
 74
     0
 49
-0.25
 74
     0
 49
0.25
 74
     0
 49
-0.25
 74
     0
  0
LTYPE
  5
26
330
5
100
AcDbSymbolTableRecord
100
AcDbLinetypeTableRecord
  2
CENTER2
 70
     0
  3
____ _ ____ _ ____ _ ____ _ ____ _ ____ _ ____
 72
    65
 73
     4
 40
1.125
 49
0.75
 74
     0
 49
-0.125
 74
     0
 49
0.125
 74
     0
 49
-0.125
 74
     0
  0
LTYPE
  5
27
330
5
100
AcDbSymbolTableRecord
100
AcDbLinetypeTableRecord
  2
CENTERX2
 70
     0
  3
________  __  ________  __  ________  __  
 72
    65
 73
     4
 40
4.0
 49
2.5
 74
     0
 49
-0.5
 74
     0
 49
0.5
 74
     0
 49
-0.5
 74
     0
  0
LTYPE
  5
28
330
5
100
AcDbSymbolTableRecord
100
AcDbLinetypeTableRecord
  2
DASHDOT
 70
     0
  3
__ . __ . __ . __ . __ . __ . __ . 
 72
    65
 73
     4
 40
1.0
 49
0.5
 74
     0
 49
-0.25
 74
     0
 49
0.0
 74
     0
 49
-0.25
 74
     0
  0
LTYPE
  5
29
330
5
100
AcDbSymbolTableRecord
100
AcDbLinetypeTableRecord
  2
DASHDOT2
 70
     0
  3
_._._._._._._._._._._._._._._._.
 72
    65
 73
     4
 40
0.5
 49
0.25
 74
     0
 49
-0.125
 74
     0
 49
0.0
 74
     0
 49
-0.125
 74
     0
  0
LTYPE
  5
2A
330
5
100
AcDbSymbolTableRecord
100
AcDbLinetypeTableRecord
  2
DASHDOTX2
 70
     0
  3
____  .  ____  .  ____  .  ____  .  
 72
    65
 73
     4
 40
2.0
 49
1.0
 74
     0
 49
-0.5
 74
     0
 49
0.0
 74
     0
 49
-0.5
 74
     0
  0
LTYPE
  5
2B
330
5
100
AcDbSymbolTableRecord
100
AcDbLinetypeTableRecord
  2
DASHED
 70
     0
  3
__ __ __ __ __ __ __ __ __ __ __ __ 
 72
    65
 73
     2
 40
0.75
 49
0.5
 74
     0
 49
-0.25
 74
     0
  0
LTYPE
  5
2C
330
5
100
AcDbSymbolTableRecord
100
AcDbLinetypeTableRecord
  2
DASHED2
 70
     0
  3
_ _ _ _ _ _ _ _ _ _ _ _ _ _ _ _ _ _ 
 72
    65
 73
     2
 40
0.375
 49
0.25
 74
     0
 49
-0.125
 74
     0
  0
LTYPE
  5
2D
330
5
100
AcDbSymbolTableRecord
100
AcDbLinetypeTableRecord
  2
DASHEDX2
 70
     0
  3
____  ____  ____  ____  ____  ____  
 72
    65
 73
     2
 40
1.5
 49
1.0
 74
     0
 49
-0.5
 74
     0
  0
LTYPE
  5
2E
330
5
100
AcDbSymbolTableRecord
100
AcDbLinetypeTableRecord
  2
DIVIDE
 70
     0
  3
____ . . ____ . . ____ . . ____ . . 
 72
    65
 73
     6
 40
1.25
 49
0.5
 74
     0
 49
-0.25
 74
     0
 49
0.0
 74
     0
 49
-0.25
 74
     0
 49
0.0
 74
     0
 49
-0.25
 74
     0
  0
LTYPE
  5
2F
330
5
100
AcDbSymbolTableRecord
100
AcDbLinetypeTableRecord
  2
DIVIDE2
 70
     0
  3
__..__..__..__..__..__..__..__..__..
 72
    65
 73
     6
 40
0.625
 49
0.25
 74
     0
 49
-0.125
 74
     0
 49
0.0
 74
     0
 49
-0.125
 74
     0
 49
0.0
 74
     0
 49
-0.125
 74
     0
  0
LTYPE
  5
30
330
5
100
AcDbSymbolTableRecord
100
AcDbLinetypeTableRecord
  2
DIVIDEX2
 70
     0
  3
________  .  .  ________  .  .  ________  .  . 
 72
    65
 73
     6
 40
2.5
 49
1.0
 74
     0
 49
-0.5
 74
     0
 49
0.0
 74
     0
 49
-0.5
 74
     0
 49
0.0
 74
     0
 49
-0.5
 74
     0
  0
LTYPE
  5
31
330
5
100
AcDbSymbolTableRecord
100
AcDbLinetypeTableRecord
  2
DOT
 70
     0
  3
. . . . . . . . . . . . . . . . . . 
 72
    65
 73
     2
 40
0.25
 49
0.0
 74
     0
 49
-0.25
 74
     0
  0
LTYPE
  5
32
330
5
100
AcDbSymbolTableRecord
100
AcDbLinetypeTableRecord
  2
DOT2
 70
     0
  3
....................................
 72
    65
 73
     2
 40
0.125
 49
0.0
 74
     0
 49
-0.125
 74
     0
  0
LTYPE
  5
33
330
5
100
AcDbSymbolTableRecord
100
AcDbLinetypeTableRecord
  2
DOTX2
 70
     0
  3
.  .  .  .  .  .  .  .  .  .  .  .  .  
 72
    65
 73
     2
 40
0.5
 49
0.0
 74
     0
 49
-0.5
 74
     0
  0
LTYPE
  5
34
330
5
100
AcDbSymbolTableRecord
100
AcDbLinetypeTableRecord
  2
HIDDEN
 70
     0
  3
__ __ __ __ __ __ __ __ __ __ __ __ 
 72
    65
 73
     2
 40
0.375
 49
0.25
 74
     0
 49
-0.125
 74
     0
  0
LTYPE
  5
35
330
5
100
AcDbSymbolTableRecord
100
AcDbLinetypeTableRecord
  2
HIDDEN2
 70
     0
  3
_ _ _ _ _ _ _ _ _ _ _ _ _ _ _ _ _ _ 
 72
    65
 73
     2
 40
0.1875
 49
0.125
 74
     0
 49
-0.0625
 74
     0
  0
LTYPE
  5
36
330
5
100
AcDbSymbolTableRecord
100
AcDbLinetypeTableRecord
  2
HIDDENX2
 70
     0
  3
____ ____ ____ ____ ____ ____ ____ 
 72
    65
 73
     2
 40
0.75
 49
0.5
 74
     0
 49
-0.25
 74
     0
  0
LTYPE
  5
37
330
5
100
AcDbSymbolTableRecord
100
AcDbLinetypeTableRecord
  2
PHANTOM
 70
     0
  3
______  __  __  ______  __  __  
 72
    65
 73
     6
 40
2.5
 49
1.25
 74
     0
 49
-0.25
 74
     0
 49
0.25
 74
     0
 49
-0.25
 74
     0
 49
0.25
 74
     0
 49
-0.25
 74
     0
  0
LTYPE
  5
38
330
5
100
AcDbSymbolTableRecord
100
AcDbLinetypeTableRecord
  2
PHANTOM2
 70
     0
  3
___ _ _ ___ _ _ ___ _ _ ___ _ _ 
 72
    65
 73
     6
 40
1.25
 49
0.625
 74
     0
 49
-0.125
 74
     0
 49
0.125
 74
     0
 49
-0.125
 74
     0
 49
0.125
 74
     0
 49
-0.125
 74
     0
  0
LTYPE
  5
39
330
5
100
AcDbSymbolTableRecord
100
AcDbLinetypeTableRecord
  2
PHANTOMX2
 70
     0
  3
___ _ _ ___ _ _ ___ _ _ ___ _ _ 
 72
    65
 73
     6
 40
5.0
 49
2.5
 74
     0
 49
-0.5
 74
     0
 49
0.5
 74
     0
 49
-0.5
 74
     0
 49
0.5
 74
     0
 49
-0.5
 74
     0
  0
ENDTAB
  0
TABLE
  2
LAYER
  5
2
330
0
100
AcDbSymbolTable
 70
   256
  0
LAYER
  5
10
330
2
100
AcDbSymbolTableRecord
100
AcDbLayerTableRecord
  2
0
 70
     0
 62
     7
  6
CONTINUOUS
  0
LAYER
  5
3A
330
2
100
AcDbSymbolTableRecord
100
AcDbLayerTableRecord
  2
1
 70
     0
 62
     1
  6
CONTINUOUS
  0
LAYER
  5
3B
330
2
100
AcDbSymbolTableRecord
100
AcDbLayerTableRecord
  2
2
 70
     0
 62
     2
  6
CONTINUOUS
  0
LAYER
  5
3C
330
2
100
AcDbSymbolTableRecord
100
AcDbLayerTableRecord
  2
3
 70
     0
 62
     3
  6
CONTINUOUS
  0
LAYER
  5
3D
330
2
100
AcDbSymbolTableRecord
100
AcDbLayerTableRecord
  2
4
 70
     0
 62
     4
  6
CONTINUOUS
  0
LAYER
  5
3E
330
2
100
AcDbSymbolTableRecord
100
AcDbLayerTableRecord
  2
5
 70
     0
 62
     5
  6
CONTINUOUS
  0
LAYER
  5
3F
330
2
100
AcDbSymbolTableRecord
100
AcDbLayerTableRecord
  2
6
 70
     0
 62
     6
  6
CONTINUOUS
  0
LAYER
  5
40
330
2
100
AcDbSymbolTableRecord
100
AcDbLayerTableRecord
  2
7
 70
     0
 62
     7
  6
CONTINUOUS
  0
LAYER
  5
41
330
2
100
AcDbSymbolTableRecord
100
AcDbLayerTableRecord
  2
8
 70
     0
 62
     8
  6
CONTINUOUS
  0
LAYER
  5
42
330
2
100
AcDbSymbolTableRecord
100
AcDbLayerTableRecord
  2
9
 70
     0
 62
     9
  6
CONTINUOUS
  0
LAYER
  5
43
330
2
100
AcDbSymbolTableRecord
100
AcDbLayerTableRecord
  2
10
 70
     0
 62
    10
  6
CONTINUOUS
  0
LAYER
  5
44
330
2
100
AcDbSymbolTableRecord
100
AcDbLayerTableRecord
  2
11
 70
     0
 62
    11
  6
CONTINUOUS
  0
LAYER
  5
45
330
2
100
AcDbSymbolTableRecord
100
AcDbLayerTableRecord
  2
12
 70
     0
 62
    12
  6
CONTINUOUS
  0
LAYER
  5
46
330
2
100
AcDbSymbolTableRecord
100
AcDbLayerTableRecord
  2
13
 70
     0
 62
    13
  6
CONTINUOUS
  0
LAYER
  5
47
330
2
100
AcDbSymbolTableRecord
100
AcDbLayerTableRecord
  2
14
 70
     0
 62
    14
  6
CONTINUOUS
  0
LAYER
  5
48
330
2
100
AcDbSymbolTableRecord
100
AcDbLayerTableRecord
  2
15
 70
     0
 62
    15
  6
CONTINUOUS
  0
LAYER
  5
49
330
2
100
AcDbSymbolTableRecord
100
AcDbLayerTableRecord
  2
16
 70
     0
 62
    16
  6
CONTINUOUS
  0
LAYER
  5
4A
330
2
100
AcDbSymbolTableRecord
100
AcDbLayerTableRecord
  2
17
 70
     0
 62
    17
  6
CONTINUOUS
  0
LAYER
  5
4B
330
2
100
AcDbSymbolTableRecord
100
AcDbLayerTableRecord
  2
18
 70
     0
 62
    18
  6
CONTINUOUS
  0
LAYER
  5
4C
330
2
100
AcDbSymbolTableRecord
100
AcDbLayerTableRecord
  2
19
 70
     0
 62
    19
  6
CONTINUOUS
  0
LAYER
  5
4D
330
2
100
AcDbSymbolTableRecord
100
AcDbLayerTableRecord
  2
20
 70
     0
 62
    20
  6
CONTINUOUS
  0
LAYER
  5
4E
330
2
100
AcDbSymbolTableRecord
100
AcDbLayerTableRecord
  2
21
 70
     0
 62
    21
  6
CONTINUOUS
  0
LAYER
  5
4F
330
2
100
AcDbSymbolTableRecord
100
AcDbLayerTableRecord
  2
22
 70
     0
 62
    22
  6
CONTINUOUS
  0
LAYER
  5
50
330
2
100
AcDbSymbolTableRecord
100
AcDbLayerTableRecord
  2
23
 70
     0
 62
    23
  6
CONTINUOUS
  0
LAYER
  5
51
330
2
100
AcDbSymbolTableRecord
100
AcDbLayerTableRecord
  2
24
 70
     0
 62
    24
  6
CONTINUOUS
  0
LAYER
  5
52
330
2
100
AcDbSymbolTableRecord
100
AcDbLayerTableRecord
  2
25
 70
     0
 62
    25
  6
CONTINUOUS
  0
LAYER
  5
53
330
2
100
AcDbSymbolTableRecord
100
AcDbLayerTableRecord
  2
26
 70
     0
 62
    26
  6
CONTINUOUS
  0
LAYER
  5
54
330
2
100
AcDbSymbolTableRecord
100
AcDbLayerTableRecord
  2
27
 70
     0
 62
    27
  6
CONTINUOUS
  0
LAYER
  5
55
330
2
100
AcDbSymbolTableRecord
100
AcDbLayerTableRecord
  2
28
 70
     0
 62
    28
  6
CONTINUOUS
  0
LAYER
  5
56
330
2
100
AcDbSymbolTableRecord
100
AcDbLayerTableRecord
  2
29
 70
     0
 62
    29
  6
CONTINUOUS
  0
LAYER
  5
57
330
2
100
AcDbSymbolTableRecord
100
AcDbLayerTableRecord
  2
30
 70
     0
 62
    30
  6
CONTINUOUS
  0
LAYER
  5
58
330
2
100
AcDbSymbolTableRecord
100
AcDbLayerTableRecord
  2
31
 70
     0
 62
    31
  6
CONTINUOUS
  0
LAYER
  5
59
330
2
100
AcDbSymbolTableRecord
100
AcDbLayerTableRecord
  2
32
 70
     0
 62
    32
  6
CONTINUOUS
  0
LAYER
  5
5A
330
2
100
AcDbSymbolTableRecord
100
AcDbLayerTableRecord
  2
33
 70
     0
 62
    33
  6
CONTINUOUS
  0
LAYER
  5
5B
330
2
100
AcDbSymbolTableRecord
100
AcDbLayerTableRecord
  2
34
 70
     0
 62
    34
  6
CONTINUOUS
  0
LAYER
  5
5C
330
2
100
AcDbSymbolTableRecord
100
AcDbLayerTableRecord
  2
35
 70
     0
 62
    35
  6
CONTINUOUS
  0
LAYER
  5
5D
330
2
100
AcDbSymbolTableRecord
100
AcDbLayerTableRecord
  2
36
 70
     0
 62
    36
  6
CONTINUOUS
  0
LAYER
  5
5E
330
2
100
AcDbSymbolTableRecord
100
AcDbLayerTableRecord
  2
37
 70
     0
 62
    37
  6
CONTINUOUS
  0
LAYER
  5
5F
330
2
100
AcDbSymbolTableRecord
100
AcDbLayerTableRecord
  2
38
 70
     0
 62
    38
  6
CONTINUOUS
  0
LAYER
  5
60
330
2
100
AcDbSymbolTableRecord
100
AcDbLayerTableRecord
  2
39
 70
     0
 62
    39
  6
CONTINUOUS
  0
LAYER
  5
61
330
2
100
AcDbSymbolTableRecord
100
AcDbLayerTableRecord
  2
40
 70
     0
 62
    40
  6
CONTINUOUS
  0
LAYER
  5
62
330
2
100
AcDbSymbolTableRecord
100
AcDbLayerTableRecord
  2
41
 70
     0
 62
    41
  6
CONTINUOUS
  0
LAYER
  5
63
330
2
100
AcDbSymbolTableRecord
100
AcDbLayerTableRecord
  2
42
 70
     0
 62
    42
  6
CONTINUOUS
  0
LAYER
  5
64
330
2
100
AcDbSymbolTableRecord
100
AcDbLayerTableRecord
  2
43
 70
     0
 62
    43
  6
CONTINUOUS
  0
LAYER
  5
65
330
2
100
AcDbSymbolTableRecord
100
AcDbLayerTableRecord
  2
44
 70
     0
 62
    44
  6
CONTINUOUS
  0
LAYER
  5
66
330
2
100
AcDbSymbolTableRecord
100
AcDbLayerTableRecord
  2
45
 70
     0
 62
    45
  6
CONTINUOUS
  0
LAYER
  5
67
330
2
100
AcDbSymbolTableRecord
100
AcDbLayerTableRecord
  2
46
 70
     0
 62
    46
  6
CONTINUOUS
  0
LAYER
  5
68
330
2
100
AcDbSymbolTableRecord
100
AcDbLayerTableRecord
  2
47
 70
     0
 62
    47
  6
CONTINUOUS
  0
LAYER
  5
69
330
2
100
AcDbSymbolTableRecord
100
AcDbLayerTableRecord
  2
48
 70
     0
 62
    48
  6
CONTINUOUS
  0
LAYER
  5
6A
330
2
100
AcDbSymbolTableRecord
100
AcDbLayerTableRecord
  2
49
 70
     0
 62
    49
  6
CONTINUOUS
  0
LAYER
  5
6B
330
2
100
AcDbSymbolTableRecord
100
AcDbLayerTableRecord
  2
50
 70
     0
 62
    50
  6
CONTINUOUS
  0
LAYER
  5
6C
330
2
100
AcDbSymbolTableRecord
100
AcDbLayerTableRecord
  2
51
 70
     0
 62
    51
  6
CONTINUOUS
  0
LAYER
  5
6D
330
2
100
AcDbSymbolTableRecord
100
AcDbLayerTableRecord
  2
52
 70
     0
 62
    52
  6
CONTINUOUS
  0
LAYER
  5
6E
330
2
100
AcDbSymbolTableRecord
100
AcDbLayerTableRecord
  2
53
 70
     0
 62
    53
  6
CONTINUOUS
  0
LAYER
  5
6F
330
2
100
AcDbSymbolTableRecord
100
AcDbLayerTableRecord
  2
54
 70
     0
 62
    54
  6
CONTINUOUS
  0
LAYER
  5
70
330
2
100
AcDbSymbolTableRecord
100
AcDbLayerTableRecord
  2
55
 70
     0
 62
    55
  6
CONTINUOUS
  0
LAYER
  5
71
330
2
100
AcDbSymbolTableRecord
100
AcDbLayerTableRecord
  2
56
 70
     0
 62
    56
  6
CONTINUOUS
  0
LAYER
  5
72
330
2
100
AcDbSymbolTableRecord
100
AcDbLayerTableRecord
  2
57
 70
     0
 62
    57
  6
CONTINUOUS
  0
LAYER
  5
73
330
2
100
AcDbSymbolTableRecord
100
AcDbLayerTableRecord
  2
58
 70
     0
 62
    58
  6
CONTINUOUS
  0
LAYER
  5
74
330
2
100
AcDbSymbolTableRecord
100
AcDbLayerTableRecord
  2
59
 70
     0
 62
    59
  6
CONTINUOUS
  0
LAYER
  5
75
330
2
100
AcDbSymbolTableRecord
100
AcDbLayerTableRecord
  2
60
 70
     0
 62
    60
  6
CONTINUOUS
  0
LAYER
  5
76
330
2
100
AcDbSymbolTableRecord
100
AcDbLayerTableRecord
  2
61
 70
     0
 62
    61
  6
CONTINUOUS
  0
LAYER
  5
77
330
2
100
AcDbSymbolTableRecord
100
AcDbLayerTableRecord
  2
62
 70
     0
 62
    62
  6
CONTINUOUS
  0
LAYER
  5
78
330
2
100
AcDbSymbolTableRecord
100
AcDbLayerTableRecord
  2
63
 70
     0
 62
    63
  6
CONTINUOUS
  0
LAYER
  5
79
330
2
100
AcDbSymbolTableRecord
100
AcDbLayerTableRecord
  2
64
 70
     0
 62
    64
  6
CONTINUOUS
  0
LAYER
  5
7A
330
2
100
AcDbSymbolTableRecord
100
AcDbLayerTableRecord
  2
65
 70
     0
 62
    65
  6
CONTINUOUS
  0
LAYER
  5
7B
330
2
100
AcDbSymbolTableRecord
100
AcDbLayerTableRecord
  2
66
 70
     0
 62
    66
  6
CONTINUOUS
  0
LAYER
  5
7C
330
2
100
AcDbSymbolTableRecord
100
AcDbLayerTableRecord
  2
67
 70
     0
 62
    67
  6
CONTINUOUS
  0
LAYER
  5
7D
330
2
100
AcDbSymbolTableRecord
100
AcDbLayerTableRecord
  2
68
 70
     0
 62
    68
  6
CONTINUOUS
  0
LAYER
  5
7E
330
2
100
AcDbSymbolTableRecord
100
AcDbLayerTableRecord
  2
69
 70
     0
 62
    69
  6
CONTINUOUS
  0
LAYER
  5
7F
330
2
100
AcDbSymbolTableRecord
100
AcDbLayerTableRecord
  2
70
 70
     0
 62
    70
  6
CONTINUOUS
  0
LAYER
  5
80
330
2
100
AcDbSymbolTableRecord
100
AcDbLayerTableRecord
  2
71
 70
     0
 62
    71
  6
CONTINUOUS
  0
LAYER
  5
81
330
2
100
AcDbSymbolTableRecord
100
AcDbLayerTableRecord
  2
72
 70
     0
 62
    72
  6
CONTINUOUS
  0
LAYER
  5
82
330
2
100
AcDbSymbolTableRecord
100
AcDbLayerTableRecord
  2
73
 70
     0
 62
    73
  6
CONTINUOUS
  0
LAYER
  5
83
330
2
100
AcDbSymbolTableRecord
100
AcDbLayerTableRecord
  2
74
 70
     0
 62
    74
  6
CONTINUOUS
  0
LAYER
  5
84
330
2
100
AcDbSymbolTableRecord
100
AcDbLayerTableRecord
  2
75
 70
     0
 62
    75
  6
CONTINUOUS
  0
LAYER
  5
85
330
2
100
AcDbSymbolTableRecord
100
AcDbLayerTableRecord
  2
76
 70
     0
 62
    76
  6
CONTINUOUS
  0
LAYER
  5
86
330
2
100
AcDbSymbolTableRecord
100
AcDbLayerTableRecord
  2
77
 70
     0
 62
    77
  6
CONTINUOUS
  0
LAYER
  5
87
330
2
100
AcDbSymbolTableRecord
100
AcDbLayerTableRecord
  2
78
 70
     0
 62
    78
  6
CONTINUOUS
  0
LAYER
  5
88
330
2
100
AcDbSymbolTableRecord
100
AcDbLayerTableRecord
  2
79
 70
     0
 62
    79
  6
CONTINUOUS
  0
LAYER
  5
89
330
2
100
AcDbSymbolTableRecord
100
AcDbLayerTableRecord
  2
80
 70
     0
 62
    80
  6
CONTINUOUS
  0
LAYER
  5
8A
330
2
100
AcDbSymbolTableRecord
100
AcDbLayerTableRecord
  2
81
 70
     0
 62
    81
  6
CONTINUOUS
  0
LAYER
  5
8B
330
2
100
AcDbSymbolTableRecord
100
AcDbLayerTableRecord
  2
82
 70
     0
 62
    82
  6
CONTINUOUS
  0
LAYER
  5
8C
330
2
100
AcDbSymbolTableRecord
100
AcDbLayerTableRecord
  2
83
 70
     0
 62
    83
  6
CONTINUOUS
  0
LAYER
  5
8D
330
2
100
AcDbSymbolTableRecord
100
AcDbLayerTableRecord
  2
84
 70
     0
 62
    84
  6
CONTINUOUS
  0
LAYER
  5
8E
330
2
100
AcDbSymbolTableRecord
100
AcDbLayerTableRecord
  2
85
 70
     0
 62
    85
  6
CONTINUOUS
  0
LAYER
  5
8F
330
2
100
AcDbSymbolTableRecord
100
AcDbLayerTableRecord
  2
86
 70
     0
 62
    86
  6
CONTINUOUS
  0
LAYER
  5
90
330
2
100
AcDbSymbolTableRecord
100
AcDbLayerTableRecord
  2
87
 70
     0
 62
    87
  6
CONTINUOUS
  0
LAYER
  5
91
330
2
100
AcDbSymbolTableRecord
100
AcDbLayerTableRecord
  2
88
 70
     0
 62
    88
  6
CONTINUOUS
  0
LAYER
  5
92
330
2
100
AcDbSymbolTableRecord
100
AcDbLayerTableRecord
  2
89
 70
     0
 62
    89
  6
CONTINUOUS
  0
LAYER
  5
93
330
2
100
AcDbSymbolTableRecord
100
AcDbLayerTableRecord
  2
90
 70
     0
 62
    90
  6
CONTINUOUS
  0
LAYER
  5
94
330
2
100
AcDbSymbolTableRecord
100
AcDbLayerTableRecord
  2
91
 70
     0
 62
    91
  6
CONTINUOUS
  0
LAYER
  5
95
330
2
100
AcDbSymbolTableRecord
100
AcDbLayerTableRecord
  2
92
 70
     0
 62
    92
  6
CONTINUOUS
  0
LAYER
  5
96
330
2
100
AcDbSymbolTableRecord
100
AcDbLayerTableRecord
  2
93
 70
     0
 62
    93
  6
CONTINUOUS
  0
LAYER
  5
97
330
2
100
AcDbSymbolTableRecord
100
AcDbLayerTableRecord
  2
94
 70
     0
 62
    94
  6
CONTINUOUS
  0
LAYER
  5
98
330
2
100
AcDbSymbolTableRecord
100
AcDbLayerTableRecord
  2
95
 70
     0
 62
    95
  6
CONTINUOUS
  0
LAYER
  5
99
330
2
100
AcDbSymbolTableRecord
100
AcDbLayerTableRecord
  2
96
 70
     0
 62
    96
  6
CONTINUOUS
  0
LAYER
  5
9A
330
2
100
AcDbSymbolTableRecord
100
AcDbLayerTableRecord
  2
97
 70
     0
 62
    97
  6
CONTINUOUS
  0
LAYER
  5
9B
330
2
100
AcDbSymbolTableRecord
100
AcDbLayerTableRecord
  2
98
 70
     0
 62
    98
  6
CONTINUOUS
  0
LAYER
  5
9C
330
2
100
AcDbSymbolTableRecord
100
AcDbLayerTableRecord
  2
99
 70
     0
 62
    99
  6
CONTINUOUS
  0
LAYER
  5
9D
330
2
100
AcDbSymbolTableRecord
100
AcDbLayerTableRecord
  2
100
 70
     0
 62
   100
  6
CONTINUOUS
  0
LAYER
  5
9E
330
2
100
AcDbSymbolTableRecord
100
AcDbLayerTableRecord
  2
101
 70
     0
 62
   101
  6
CONTINUOUS
  0
LAYER
  5
9F
330
2
100
AcDbSymbolTableRecord
100
AcDbLayerTableRecord
  2
102
 70
     0
 62
   102
  6
CONTINUOUS
  0
LAYER
  5
A0
330
2
100
AcDbSymbolTableRecord
100
AcDbLayerTableRecord
  2
103
 70
     0
 62
   103
  6
CONTINUOUS
  0
LAYER
  5
A1
330
2
100
AcDbSymbolTableRecord
100
AcDbLayerTableRecord
  2
104
 70
     0
 62
   104
  6
CONTINUOUS
  0
LAYER
  5
A2
330
2
100
AcDbSymbolTableRecord
100
AcDbLayerTableRecord
  2
105
 70
     0
 62
   105
  6
CONTINUOUS
  0
LAYER
  5
A3
330
2
100
AcDbSymbolTableRecord
100
AcDbLayerTableRecord
  2
106
 70
     0
 62
   106
  6
CONTINUOUS
  0
LAYER
  5
A4
330
2
100
AcDbSymbolTableRecord
100
AcDbLayerTableRecord
  2
107
 70
     0
 62
   107
  6
CONTINUOUS
  0
LAYER
  5
A5
330
2
100
AcDbSymbolTableRecord
100
AcDbLayerTableRecord
  2
108
 70
     0
 62
   108
  6
CONTINUOUS
  0
LAYER
  5
A6
330
2
100
AcDbSymbolTableRecord
100
AcDbLayerTableRecord
  2
109
 70
     0
 62
   109
  6
CONTINUOUS
  0
LAYER
  5
A7
330
2
100
AcDbSymbolTableRecord
100
AcDbLayerTableRecord
  2
110
 70
     0
 62
   110
  6
CONTINUOUS
  0
LAYER
  5
A8
330
2
100
AcDbSymbolTableRecord
100
AcDbLayerTableRecord
  2
111
 70
     0
 62
   111
  6
CONTINUOUS
  0
LAYER
  5
A9
330
2
100
AcDbSymbolTableRecord
100
AcDbLayerTableRecord
  2
112
 70
     0
 62
   112
  6
CONTINUOUS
  0
LAYER
  5
AA
330
2
100
AcDbSymbolTableRecord
100
AcDbLayerTableRecord
  2
113
 70
     0
 62
   113
  6
CONTINUOUS
  0
LAYER
  5
AB
330
2
100
AcDbSymbolTableRecord
100
AcDbLayerTableRecord
  2
114
 70
     0
 62
   114
  6
CONTINUOUS
  0
LAYER
  5
AC
330
2
100
AcDbSymbolTableRecord
100
AcDbLayerTableRecord
  2
115
 70
     0
 62
   115
  6
CONTINUOUS
  0
LAYER
  5
AD
330
2
100
AcDbSymbolTableRecord
100
AcDbLayerTableRecord
  2
116
 70
     0
 62
   116
  6
CONTINUOUS
  0
LAYER
  5
AE
330
2
100
AcDbSymbolTableRecord
100
AcDbLayerTableRecord
  2
117
 70
     0
 62
   117
  6
CONTINUOUS
  0
LAYER
  5
AF
330
2
100
AcDbSymbolTableRecord
100
AcDbLayerTableRecord
  2
118
 70
     0
 62
   118
  6
CONTINUOUS
  0
LAYER
  5
B0
330
2
100
AcDbSymbolTableRecord
100
AcDbLayerTableRecord
  2
119
 70
     0
 62
   119
  6
CONTINUOUS
  0
LAYER
  5
B1
330
2
100
AcDbSymbolTableRecord
100
AcDbLayerTableRecord
  2
120
 70
     0
 62
   120
  6
CONTINUOUS
  0
LAYER
  5
B2
330
2
100
AcDbSymbolTableRecord
100
AcDbLayerTableRecord
  2
121
 70
     0
 62
   121
  6
CONTINUOUS
  0
LAYER
  5
B3
330
2
100
AcDbSymbolTableRecord
100
AcDbLayerTableRecord
  2
122
 70
     0
 62
   122
  6
CONTINUOUS
  0
LAYER
  5
B4
330
2
100
AcDbSymbolTableRecord
100
AcDbLayerTableRecord
  2
123
 70
     0
 62
   123
  6
CONTINUOUS
  0
LAYER
  5
B5
330
2
100
AcDbSymbolTableRecord
100
AcDbLayerTableRecord
  2
124
 70
     0
 62
   124
  6
CONTINUOUS
  0
LAYER
  5
B6
330
2
100
AcDbSymbolTableRecord
100
AcDbLayerTableRecord
  2
125
 70
     0
 62
   125
  6
CONTINUOUS
  0
LAYER
  5
B7
330
2
100
AcDbSymbolTableRecord
100
AcDbLayerTableRecord
  2
126
 70
     0
 62
   126
  6
CONTINUOUS
  0
LAYER
  5
B8
330
2
100
AcDbSymbolTableRecord
100
AcDbLayerTableRecord
  2
127
 70
     0
 62
   127
  6
CONTINUOUS
  0
LAYER
  5
B9
330
2
100
AcDbSymbolTableRecord
100
AcDbLayerTableRecord
  2
128
 70
     0
 62
   128
  6
CONTINUOUS
  0
LAYER
  5
BA
330
2
100
AcDbSymbolTableRecord
100
AcDbLayerTableRecord
  2
129
 70
     0
 62
   129
  6
CONTINUOUS
  0
LAYER
  5
BB
330
2
100
AcDbSymbolTableRecord
100
AcDbLayerTableRecord
  2
130
 70
     0
 62
   130
  6
CONTINUOUS
  0
LAYER
  5
BC
330
2
100
AcDbSymbolTableRecord
100
AcDbLayerTableRecord
  2
131
 70
     0
 62
   131
  6
CONTINUOUS
  0
LAYER
  5
BD
330
2
100
AcDbSymbolTableRecord
100
AcDbLayerTableRecord
  2
132
 70
     0
 62
   132
  6
CONTINUOUS
  0
LAYER
  5
BE
330
2
100
AcDbSymbolTableRecord
100
AcDbLayerTableRecord
  2
133
 70
     0
 62
   133
  6
CONTINUOUS
  0
LAYER
  5
BF
330
2
100
AcDbSymbolTableRecord
100
AcDbLayerTableRecord
  2
134
 70
     0
 62
   134
  6
CONTINUOUS
  0
LAYER
  5
C0
330
2
100
AcDbSymbolTableRecord
100
AcDbLayerTableRecord
  2
135
 70
     0
 62
   135
  6
CONTINUOUS
  0
LAYER
  5
C1
330
2
100
AcDbSymbolTableRecord
100
AcDbLayerTableRecord
  2
136
 70
     0
 62
   136
  6
CONTINUOUS
  0
LAYER
  5
C2
330
2
100
AcDbSymbolTableRecord
100
AcDbLayerTableRecord
  2
137
 70
     0
 62
   137
  6
CONTINUOUS
  0
LAYER
  5
C3
330
2
100
AcDbSymbolTableRecord
100
AcDbLayerTableRecord
  2
138
 70
     0
 62
   138
  6
CONTINUOUS
  0
LAYER
  5
C4
330
2
100
AcDbSymbolTableRecord
100
AcDbLayerTableRecord
  2
139
 70
     0
 62
   139
  6
CONTINUOUS
  0
LAYER
  5
C5
330
2
100
AcDbSymbolTableRecord
100
AcDbLayerTableRecord
  2
140
 70
     0
 62
   140
  6
CONTINUOUS
  0
LAYER
  5
C6
330
2
100
AcDbSymbolTableRecord
100
AcDbLayerTableRecord
  2
141
 70
     0
 62
   141
  6
CONTINUOUS
  0
LAYER
  5
C7
330
2
100
AcDbSymbolTableRecord
100
AcDbLayerTableRecord
  2
142
 70
     0
 62
   142
  6
CONTINUOUS
  0
LAYER
  5
C8
330
2
100
AcDbSymbolTableRecord
100
AcDbLayerTableRecord
  2
143
 70
     0
 62
   143
  6
CONTINUOUS
  0
LAYER
  5
C9
330
2
100
AcDbSymbolTableRecord
100
AcDbLayerTableRecord
  2
144
 70
     0
 62
   144
  6
CONTINUOUS
  0
LAYER
  5
CA
330
2
100
AcDbSymbolTableRecord
100
AcDbLayerTableRecord
  2
145
 70
     0
 62
   145
  6
CONTINUOUS
  0
LAYER
  5
CB
330
2
100
AcDbSymbolTableRecord
100
AcDbLayerTableRecord
  2
146
 70
     0
 62
   146
  6
CONTINUOUS
  0
LAYER
  5
CC
330
2
100
AcDbSymbolTableRecord
100
AcDbLayerTableRecord
  2
147
 70
     0
 62
   147
  6
CONTINUOUS
  0
LAYER
  5
CD
330
2
100
AcDbSymbolTableRecord
100
AcDbLayerTableRecord
  2
148
 70
     0
 62
   148
  6
CONTINUOUS
  0
LAYER
  5
CE
330
2
100
AcDbSymbolTableRecord
100
AcDbLayerTableRecord
  2
149
 70
     0
 62
   149
  6
CONTINUOUS
  0
LAYER
  5
CF
330
2
100
AcDbSymbolTableRecord
100
AcDbLayerTableRecord
  2
150
 70
     0
 62
   150
  6
CONTINUOUS
  0
LAYER
  5
D0
330
2
100
AcDbSymbolTableRecord
100
AcDbLayerTableRecord
  2
151
 70
     0
 62
   151
  6
CONTINUOUS
  0
LAYER
  5
D1
330
2
100
AcDbSymbolTableRecord
100
AcDbLayerTableRecord
  2
152
 70
     0
 62
   152
  6
CONTINUOUS
  0
LAYER
  5
D2
330
2
100
AcDbSymbolTableRecord
100
AcDbLayerTableRecord
  2
153
 70
     0
 62
   153
  6
CONTINUOUS
  0
LAYER
  5
D3
330
2
100
AcDbSymbolTableRecord
100
AcDbLayerTableRecord
  2
154
 70
     0
 62
   154
  6
CONTINUOUS
  0
LAYER
  5
D4
330
2
100
AcDbSymbolTableRecord
100
AcDbLayerTableRecord
  2
155
 70
     0
 62
   155
  6
CONTINUOUS
  0
LAYER
  5
D5
330
2
100
AcDbSymbolTableRecord
100
AcDbLayerTableRecord
  2
156
 70
     0
 62
   156
  6
CONTINUOUS
  0
LAYER
  5
D6
330
2
100
AcDbSymbolTableRecord
100
AcDbLayerTableRecord
  2
157
 70
     0
 62
   157
  6
CONTINUOUS
  0
LAYER
  5
D7
330
2
100
AcDbSymbolTableRecord
100
AcDbLayerTableRecord
  2
158
 70
     0
 62
   158
  6
CONTINUOUS
  0
LAYER
  5
D8
330
2
100
AcDbSymbolTableRecord
100
AcDbLayerTableRecord
  2
159
 70
     0
 62
   159
  6
CONTINUOUS
  0
LAYER
  5
D9
330
2
100
AcDbSymbolTableRecord
100
AcDbLayerTableRecord
  2
160
 70
     0
 62
   160
  6
CONTINUOUS
  0
LAYER
  5
DA
330
2
100
AcDbSymbolTableRecord
100
AcDbLayerTableRecord
  2
161
 70
     0
 62
   161
  6
CONTINUOUS
  0
LAYER
  5
DB
330
2
100
AcDbSymbolTableRecord
100
AcDbLayerTableRecord
  2
162
 70
     0
 62
   162
  6
CONTINUOUS
  0
LAYER
  5
DC
330
2
100
AcDbSymbolTableRecord
100
AcDbLayerTableRecord
  2
163
 70
     0
 62
   163
  6
CONTINUOUS
  0
LAYER
  5
DD
330
2
100
AcDbSymbolTableRecord
100
AcDbLayerTableRecord
  2
164
 70
     0
 62
   164
  6
CONTINUOUS
  0
LAYER
  5
DE
330
2
100
AcDbSymbolTableRecord
100
AcDbLayerTableRecord
  2
165
 70
     0
 62
   165
  6
CONTINUOUS
  0
LAYER
  5
DF
330
2
100
AcDbSymbolTableRecord
100
AcDbLayerTableRecord
  2
166
 70
     0
 62
   166
  6
CONTINUOUS
  0
LAYER
  5
E0
330
2
100
AcDbSymbolTableRecord
100
AcDbLayerTableRecord
  2
167
 70
     0
 62
   167
  6
CONTINUOUS
  0
LAYER
  5
E1
330
2
100
AcDbSymbolTableRecord
100
AcDbLayerTableRecord
  2
168
 70
     0
 62
   168
  6
CONTINUOUS
  0
LAYER
  5
E2
330
2
100
AcDbSymbolTableRecord
100
AcDbLayerTableRecord
  2
169
 70
     0
 62
   169
  6
CONTINUOUS
  0
LAYER
  5
E3
330
2
100
AcDbSymbolTableRecord
100
AcDbLayerTableRecord
  2
170
 70
     0
 62
   170
  6
CONTINUOUS
  0
LAYER
  5
E4
330
2
100
AcDbSymbolTableRecord
100
AcDbLayerTableRecord
  2
171
 70
     0
 62
   171
  6
CONTINUOUS
  0
LAYER
  5
E5
330
2
100
AcDbSymbolTableRecord
100
AcDbLayerTableRecord
  2
172
 70
     0
 62
   172
  6
CONTINUOUS
  0
LAYER
  5
E6
330
2
100
AcDbSymbolTableRecord
100
AcDbLayerTableRecord
  2
173
 70
     0
 62
   173
  6
CONTINUOUS
  0
LAYER
  5
E7
330
2
100
AcDbSymbolTableRecord
100
AcDbLayerTableRecord
  2
174
 70
     0
 62
   174
  6
CONTINUOUS
  0
LAYER
  5
E8
330
2
100
AcDbSymbolTableRecord
100
AcDbLayerTableRecord
  2
175
 70
     0
 62
   175
  6
CONTINUOUS
  0
LAYER
  5
E9
330
2
100
AcDbSymbolTableRecord
100
AcDbLayerTableRecord
  2
176
 70
     0
 62
   176
  6
CONTINUOUS
  0
LAYER
  5
EA
330
2
100
AcDbSymbolTableRecord
100
AcDbLayerTableRecord
  2
177
 70
     0
 62
   177
  6
CONTINUOUS
  0
LAYER
  5
EB
330
2
100
AcDbSymbolTableRecord
100
AcDbLayerTableRecord
  2
178
 70
     0
 62
   178
  6
CONTINUOUS
  0
LAYER
  5
EC
330
2
100
AcDbSymbolTableRecord
100
AcDbLayerTableRecord
  2
179
 70
     0
 62
   179
  6
CONTINUOUS
  0
LAYER
  5
ED
330
2
100
AcDbSymbolTableRecord
100
AcDbLayerTableRecord
  2
180
 70
     0
 62
   180
  6
CONTINUOUS
  0
LAYER
  5
EE
330
2
100
AcDbSymbolTableRecord
100
AcDbLayerTableRecord
  2
181
 70
     0
 62
   181
  6
CONTINUOUS
  0
LAYER
  5
EF
330
2
100
AcDbSymbolTableRecord
100
AcDbLayerTableRecord
  2
182
 70
     0
 62
   182
  6
CONTINUOUS
  0
LAYER
  5
F0
330
2
100
AcDbSymbolTableRecord
100
AcDbLayerTableRecord
  2
183
 70
     0
 62
   183
  6
CONTINUOUS
  0
LAYER
  5
F1
330
2
100
AcDbSymbolTableRecord
100
AcDbLayerTableRecord
  2
184
 70
     0
 62
   184
  6
CONTINUOUS
  0
LAYER
  5
F2
330
2
100
AcDbSymbolTableRecord
100
AcDbLayerTableRecord
  2
185
 70
     0
 62
   185
  6
CONTINUOUS
  0
LAYER
  5
F3
330
2
100
AcDbSymbolTableRecord
100
AcDbLayerTableRecord
  2
186
 70
     0
 62
   186
  6
CONTINUOUS
  0
LAYER
  5
F4
330
2
100
AcDbSymbolTableRecord
100
AcDbLayerTableRecord
  2
187
 70
     0
 62
   187
  6
CONTINUOUS
  0
LAYER
  5
F5
330
2
100
AcDbSymbolTableRecord
100
AcDbLayerTableRecord
  2
188
 70
     0
 62
   188
  6
CONTINUOUS
  0
LAYER
  5
F6
330
2
100
AcDbSymbolTableRecord
100
AcDbLayerTableRecord
  2
189
 70
     0
 62
   189
  6
CONTINUOUS
  0
LAYER
  5
F7
330
2
100
AcDbSymbolTableRecord
100
AcDbLayerTableRecord
  2
190
 70
     0
 62
   190
  6
CONTINUOUS
  0
LAYER
  5
F8
330
2
100
AcDbSymbolTableRecord
100
AcDbLayerTableRecord
  2
191
 70
     0
 62
   191
  6
CONTINUOUS
  0
LAYER
  5
F9
330
2
100
AcDbSymbolTableRecord
100
AcDbLayerTableRecord
  2
192
 70
     0
 62
   192
  6
CONTINUOUS
  0
LAYER
  5
FA
330
2
100
AcDbSymbolTableRecord
100
AcDbLayerTableRecord
  2
193
 70
     0
 62
   193
  6
CONTINUOUS
  0
LAYER
  5
FB
330
2
100
AcDbSymbolTableRecord
100
AcDbLayerTableRecord
  2
194
 70
     0
 62
   194
  6
CONTINUOUS
  0
LAYER
  5
FC
330
2
100
AcDbSymbolTableRecord
100
AcDbLayerTableRecord
  2
195
 70
     0
 62
   195
  6
CONTINUOUS
  0
LAYER
  5
FD
330
2
100
AcDbSymbolTableRecord
100
AcDbLayerTableRecord
  2
196
 70
     0
 62
   196
  6
CONTINUOUS
  0
LAYER
  5
FE
330
2
100
AcDbSymbolTableRecord
100
AcDbLayerTableRecord
  2
197
 70
     0
 62
   197
  6
CONTINUOUS
  0
LAYER
  5
FF
330
2
100
AcDbSymbolTableRecord
100
AcDbLayerTableRecord
  2
198
 70
     0
 62
   198
  6
CONTINUOUS
  0
LAYER
  5
100
330
2
100
AcDbSymbolTableRecord
100
AcDbLayerTableRecord
  2
199
 70
     0
 62
   199
  6
CONTINUOUS
  0
LAYER
  5
101
330
2
100
AcDbSymbolTableRecord
100
AcDbLayerTableRecord
  2
200
 70
     0
 62
   200
  6
CONTINUOUS
  0
LAYER
  5
102
330
2
100
AcDbSymbolTableRecord
100
AcDbLayerTableRecord
  2
201
 70
     0
 62
   201
  6
CONTINUOUS
  0
LAYER
  5
103
330
2
100
AcDbSymbolTableRecord
100
AcDbLayerTableRecord
  2
202
 70
     0
 62
   202
  6
CONTINUOUS
  0
LAYER
  5
104
330
2
100
AcDbSymbolTableRecord
100
AcDbLayerTableRecord
  2
203
 70
     0
 62
   203
  6
CONTINUOUS
  0
LAYER
  5
105
330
2
100
AcDbSymbolTableRecord
100
AcDbLayerTableRecord
  2
204
 70
     0
 62
   204
  6
CONTINUOUS
  0
LAYER
  5
106
330
2
100
AcDbSymbolTableRecord
100
AcDbLayerTableRecord
  2
205
 70
     0
 62
   205
  6
CONTINUOUS
  0
LAYER
  5
107
330
2
100
AcDbSymbolTableRecord
100
AcDbLayerTableRecord
  2
206
 70
     0
 62
   206
  6
CONTINUOUS
  0
LAYER
  5
108
330
2
100
AcDbSymbolTableRecord
100
AcDbLayerTableRecord
  2
207
 70
     0
 62
   207
  6
CONTINUOUS
  0
LAYER
  5
109
330
2
100
AcDbSymbolTableRecord
100
AcDbLayerTableRecord
  2
208
 70
     0
 62
   208
  6
CONTINUOUS
  0
LAYER
  5
10A
330
2
100
AcDbSymbolTableRecord
100
AcDbLayerTableRecord
  2
209
 70
     0
 62
   209
  6
CONTINUOUS
  0
LAYER
  5
10B
330
2
100
AcDbSymbolTableRecord
100
AcDbLayerTableRecord
  2
210
 70
     0
 62
   210
  6
CONTINUOUS
  0
LAYER
  5
10C
330
2
100
AcDbSymbolTableRecord
100
AcDbLayerTableRecord
  2
211
 70
     0
 62
   211
  6
CONTINUOUS
  0
LAYER
  5
10D
330
2
100
AcDbSymbolTableRecord
100
AcDbLayerTableRecord
  2
212
 70
     0
 62
   212
  6
CONTINUOUS
  0
LAYER
  5
10E
330
2
100
AcDbSymbolTableRecord
100
AcDbLayerTableRecord
  2
213
 70
     0
 62
   213
  6
CONTINUOUS
  0
LAYER
  5
10F
330
2
100
AcDbSymbolTableRecord
100
AcDbLayerTableRecord
  2
214
 70
     0
 62
   214
  6
CONTINUOUS
  0
LAYER
  5
110
330
2
100
AcDbSymbolTableRecord
100
AcDbLayerTableRecord
  2
215
 70
     0
 62
   215
  6
CONTINUOUS
  0
LAYER
  5
111
330
2
100
AcDbSymbolTableRecord
100
AcDbLayerTableRecord
  2
216
 70
     0
 62
   216
  6
CONTINUOUS
  0
LAYER
  5
112
330
2
100
AcDbSymbolTableRecord
100
AcDbLayerTableRecord
  2
217
 70
     0
 62
   217
  6
CONTINUOUS
  0
LAYER
  5
113
330
2
100
AcDbSymbolTableRecord
100
AcDbLayerTableRecord
  2
218
 70
     0
 62
   218
  6
CONTINUOUS
  0
LAYER
  5
114
330
2
100
AcDbSymbolTableRecord
100
AcDbLayerTableRecord
  2
219
 70
     0
 62
   219
  6
CONTINUOUS
  0
LAYER
  5
115
330
2
100
AcDbSymbolTableRecord
100
AcDbLayerTableRecord
  2
220
 70
     0
 62
   220
  6
CONTINUOUS
  0
LAYER
  5
116
330
2
100
AcDbSymbolTableRecord
100
AcDbLayerTableRecord
  2
221
 70
     0
 62
   221
  6
CONTINUOUS
  0
LAYER
  5
117
330
2
100
AcDbSymbolTableRecord
100
AcDbLayerTableRecord
  2
222
 70
     0
 62
   222
  6
CONTINUOUS
  0
LAYER
  5
118
330
2
100
AcDbSymbolTableRecord
100
AcDbLayerTableRecord
  2
223
 70
     0
 62
   223
  6
CONTINUOUS
  0
LAYER
  5
119
330
2
100
AcDbSymbolTableRecord
100
AcDbLayerTableRecord
  2
224
 70
     0
 62
   224
  6
CONTINUOUS
  0
LAYER
  5
11A
330
2
100
AcDbSymbolTableRecord
100
AcDbLayerTableRecord
  2
225
 70
     0
 62
   225
  6
CONTINUOUS
  0
LAYER
  5
11B
330
2
100
AcDbSymbolTableRecord
100
AcDbLayerTableRecord
  2
226
 70
     0
 62
   226
  6
CONTINUOUS
  0
LAYER
  5
11C
330
2
100
AcDbSymbolTableRecord
100
AcDbLayerTableRecord
  2
227
 70
     0
 62
   227
  6
CONTINUOUS
  0
LAYER
  5
11D
330
2
100
AcDbSymbolTableRecord
100
AcDbLayerTableRecord
  2
228
 70
     0
 62
   228
  6
CONTINUOUS
  0
LAYER
  5
11E
330
2
100
AcDbSymbolTableRecord
100
AcDbLayerTableRecord
  2
229
 70
     0
 62
   229
  6
CONTINUOUS
  0
LAYER
  5
11F
330
2
100
AcDbSymbolTableRecord
100
AcDbLayerTableRecord
  2
230
 70
     0
 62
   230
  6
CONTINUOUS
  0
LAYER
  5
120
330
2
100
AcDbSymbolTableRecord
100
AcDbLayerTableRecord
  2
231
 70
     0
 62
   231
  6
CONTINUOUS
  0
LAYER
  5
121
330
2
100
AcDbSymbolTableRecord
100
AcDbLayerTableRecord
  2
232
 70
     0
 62
   232
  6
CONTINUOUS
  0
LAYER
  5
122
330
2
100
AcDbSymbolTableRecord
100
AcDbLayerTableRecord
  2
233
 70
     0
 62
   233
  6
CONTINUOUS
  0
LAYER
  5
123
330
2
100
AcDbSymbolTableRecord
100
AcDbLayerTableRecord
  2
234
 70
     0
 62
   234
  6
CONTINUOUS
  0
LAYER
  5
124
330
2
100
AcDbSymbolTableRecord
100
AcDbLayerTableRecord
  2
235
 70
     0
 62
   235
  6
CONTINUOUS
  0
LAYER
  5
125
330
2
100
AcDbSymbolTableRecord
100
AcDbLayerTableRecord
  2
236
 70
     0
 62
   236
  6
CONTINUOUS
  0
LAYER
  5
126
330
2
100
AcDbSymbolTableRecord
100
AcDbLayerTableRecord
  2
237
 70
     0
 62
   237
  6
CONTINUOUS
  0
LAYER
  5
127
330
2
100
AcDbSymbolTableRecord
100
AcDbLayerTableRecord
  2
238
 70
     0
 62
   238
  6
CONTINUOUS
  0
LAYER
  5
128
330
2
100
AcDbSymbolTableRecord
100
AcDbLayerTableRecord
  2
239
 70
     0
 62
   239
  6
CONTINUOUS
  0
LAYER
  5
129
330
2
100
AcDbSymbolTableRecord
100
AcDbLayerTableRecord
  2
240
 70
     0
 62
   240
  6
CONTINUOUS
  0
LAYER
  5
12A
330
2
100
AcDbSymbolTableRecord
100
AcDbLayerTableRecord
  2
241
 70
     0
 62
   241
  6
CONTINUOUS
  0
LAYER
  5
12B
330
2
100
AcDbSymbolTableRecord
100
AcDbLayerTableRecord
  2
242
 70
     0
 62
   242
  6
CONTINUOUS
  0
LAYER
  5
12C
330
2
100
AcDbSymbolTableRecord
100
AcDbLayerTableRecord
  2
243
 70
     0
 62
   243
  6
CONTINUOUS
  0
LAYER
  5
12D
330
2
100
AcDbSymbolTableRecord
100
AcDbLayerTableRecord
  2
244
 70
     0
 62
   244
  6
CONTINUOUS
  0
LAYER
  5
12E
330
2
100
AcDbSymbolTableRecord
100
AcDbLayerTableRecord
  2
245
 70
     0
 62
   245
  6
CONTINUOUS
  0
LAYER
  5
12F
330
2
100
AcDbSymbolTableRecord
100
AcDbLayerTableRecord
  2
246
 70
     0
 62
   246
  6
CONTINUOUS
  0
LAYER
  5
130
330
2
100
AcDbSymbolTableRecord
100
AcDbLayerTableRecord
  2
247
 70
     0
 62
   247
  6
CONTINUOUS
  0
LAYER
  5
131
330
2
100
AcDbSymbolTableRecord
100
AcDbLayerTableRecord
  2
248
 70
     0
 62
   248
  6
CONTINUOUS
  0
LAYER
  5
132
330
2
100
AcDbSymbolTableRecord
100
AcDbLayerTableRecord
  2
249
 70
     0
 62
   249
  6
CONTINUOUS
  0
LAYER
  5
133
330
2
100
AcDbSymbolTableRecord
100
AcDbLayerTableRecord
  2
250
 70
     0
 62
   250
  6
CONTINUOUS
  0
LAYER
  5
134
330
2
100
AcDbSymbolTableRecord
100
AcDbLayerTableRecord
  2
251
 70
     0
 62
   251
  6
CONTINUOUS
  0
LAYER
  5
135
330
2
100
AcDbSymbolTableRecord
100
AcDbLayerTableRecord
  2
252
 70
     0
 62
   252
  6
CONTINUOUS
  0
LAYER
  5
136
330
2
100
AcDbSymbolTableRecord
100
AcDbLayerTableRecord
  2
253
 70
     0
 62
   253
  6
CONTINUOUS
  0
LAYER
  5
137
330
2
100
AcDbSymbolTableRecord
100
AcDbLayerTableRecord
  2
254
 70
     0
 62
   254
  6
CONTINUOUS
  0
LAYER
  5
138
330
2
100
AcDbSymbolTableRecord
100
AcDbLayerTableRecord
  2
255
 70
     0
 62
   255
  6
CONTINUOUS
  0
ENDTAB
  0
TABLE
  2
STYLE
  5
3
330
0
100
AcDbSymbolTable
 70
     1
  0
STYLE
  5
11
330
3
100
AcDbSymbolTableRecord
100
AcDbTextStyleTableRecord
  2
STANDARD
 70
     0
 40
0.0
 41
1.0
 50
0.0
 71
     0
 42
0.2
  3
monotxt
  4

  0
ENDTAB
  0
TABLE
  2
VIEW
  5
6
330
0
100
AcDbSymbolTable
 70
     0
  0
ENDTAB
  0
TABLE
  2
UCS
  5
7
330
0
100
AcDbSymbolTable
 70
     0
  0
ENDTAB
  0
TABLE
  2
APPID
  5
9
330
0
100
AcDbSymbolTable
 70
     1
  0
APPID
  5
12
330
9
100
AcDbSymbolTableRecord
100
AcDbRegAppTableRecord
  2
ACAD
 70
     0
  0
ENDTAB
  0
TABLE
  2
DIMSTYLE
  5
A
330
0
100
AcDbSymbolTable
 70
     1
  0
DIMSTYLE
105
3773
330
A
100
AcDbSymbolTableRecord
100
AcDbDimStyleTableRecord
  2
STANDARD
 70
     0
  3

  4

  5

  6

  7

 40
1.0
 41
0.18
 42
0.0625
 43
0.38
 44
0.18
 45
0.0
 46
0.0
 47
0.0
 48
0.0
140
0.18
141
0.09
142
0.0
143
25.4
144
1.0
145
0.0
146
1.0
147
0.09
 71
     0
 72
     0
 73
     1
 74
     1
 75
     0
 76
     0
 77
     0
 78
     0
170
     0
171
     2
172
     0
173
     0
174
     0
175
     0
176
     0
177
     0
178
     0
270
     2
271
     4
272
     4
273
     2
274
     2
340
11
275
     0
280
     0
281
     0
282
     0
283
     1
284
     0
285
     0
286
     0
287
     3
288
     0
  0
ENDTAB
  0
TABLE
  2
BLOCK_RECORD
  5
1
330
0
100
AcDbSymbolTable
 70
     0
  0
BLOCK_RECORD
  5
1E
102
{ACAD_XDICTIONARY
360
52D9
102
}
330
1
100
AcDbSymbolTableRecord
100
AcDbBlockTableRecord
  2
*MODEL_SPACE
  0
BLOCK_RECORD
  5
1A
102
{ACAD_XDICTIONARY
360
52D7
102
}
330
1
100
AcDbSymbolTableRecord
100
AcDbBlockTableRecord
  2
*PAPER_SPACE
  0
ENDTAB
  0
ENDSEC
  0
SECTION
  2
BLOCKS
  0
BLOCK
  5
13B
330
1E
100
AcDbEntity
  8
0
100
AcDbBlockBegin
  2
*MODEL_SPACE
 70
     0
 10
0.0
 20
0.0
 30
0.0
  3
*MODEL_SPACE
  1

  0
ENDBLK
  5
13C
330
1E
100
AcDbEntity
  8
0
100
AcDbBlockEnd
  0
BLOCK
  5
139
330
1A
100
AcDbEntity
 67
     1
  8
0
100
AcDbBlockBegin
  2
*PAPER_SPACE
 70
     0
 10
0.0
 20
0.0
 30
0.0
  3
*PAPER_SPACE
  1

  0
ENDBLK
  5
13A
330
1A
100
AcDbEntity
 67
     1
  8
0
100
AcDbBlockEnd
  0
ENDSEC
  0
SECTION
  2
ENTITIES
  0
LINE
  5
1F11
330
1E
100
AcDbEntity
  8
3
100
AcDbLine
 10
6.309307756207108
 20
3.359387247875563
 30
0.0
 11
6.307339252270098
 21
3.357418743938554
 31
0.0
  0
LINE
  5
1F12
330
1E
100
AcDbEntity
  8
3
100
AcDbLine
 10
6.309307756207108
 20
3.359387247875563
 30
0.0
 11
6.307339252270098
 21
3.357418743938554
 31
0.0
  0
LINE
  5
1F13
330
1E
100
AcDbEntity
  8
3
100
AcDbLine
 10
6.307339252270098
 20
3.36135575181257
 30
0.0
 11
6.297496732585059
 21
3.345607720316507
 31
0.0
  0
LINE
  5
1F14
330
1E
100
AcDbEntity
  8
3
100
AcDbLine
 10
6.303402244396083
 20
3.365292759686585
 30
0.0
 11
6.285685708963013
 21
3.335765200631469
 31
0.0
  0
LINE
  5
1F15
330
1E
100
AcDbEntity
  8
3
100
AcDbLine
 10
6.299465236522067
 20
3.367261263623595
 30
0.0
 11
6.273874685340965
 21
3.325922680946428
 31
0.0
  0
LINE
  5
1F16
330
1E
100
AcDbEntity
  8
3
100
AcDbLine
 10
6.297496732585059
 20
3.369229767560602
 30
0.0
 11
6.264032165655926
 21
3.314111657324382
 31
0.0
  0
LINE
  5
1F17
330
1E
100
AcDbEntity
  8
3
100
AcDbLine
 10
6.293559724711045
 20
3.371198271497609
 30
0.0
 11
6.252221142033878
 21
3.304269137639343
 31
0.0
  0
LINE
  5
1F18
330
1E
100
AcDbEntity
  8
3
100
AcDbLine
 10
6.289622716837028
 20
3.373166775434617
 30
0.0
 11
6.240410118411832
 21
3.294426617954302
 31
0.0
  0
LINE
  5
1F19
330
1E
100
AcDbEntity
  8
3
100
AcDbLine
 10
6.285685708963013
 20
3.375135279371626
 30
0.0
 11
6.228599094789784
 21
3.282615594332256
 31
0.0
  0
LINE
  5
1F1A
330
1E
100
AcDbEntity
  8
3
100
AcDbLine
 10
6.283717205026004
 20
3.377103783308633
 30
0.0
 11
6.218756575104745
 21
3.272773074647217
 31
0.0
  0
LINE
  5
1F1B
330
1E
100
AcDbEntity
  8
3
100
AcDbLine
 10
6.279780197151989
 20
3.379072287245641
 30
0.0
 11
6.206945551482698
 21
3.260962051025169
 31
0.0
  0
LINE
  5
1F1C
330
1E
100
AcDbEntity
  8
3
100
AcDbLine
 10
6.275843189277972
 20
3.381040791182648
 30
0.0
 11
6.19513452786065
 21
3.25111953134013
 31
0.0
  0
LINE
  5
1F1D
330
1E
100
AcDbEntity
  8
3
100
AcDbLine
 10
6.271906181403958
 20
3.383009295119657
 30
0.0
 11
6.185292008175611
 21
3.241277011655091
 31
0.0
  0
LINE
  5
1F1E
330
1E
100
AcDbEntity
  8
3
100
AcDbLine
 10
6.26993767746695
 20
3.384977799056665
 30
0.0
 11
6.173480984553563
 21
3.229465988033043
 31
0.0
  0
LINE
  5
1F1F
330
1E
100
AcDbEntity
  8
3
100
AcDbLine
 10
6.266000669592934
 20
3.386946302993672
 30
0.0
 11
6.161669960931517
 21
3.219623468348004
 31
0.0
  0
LINE
  5
1F20
330
1E
100
AcDbEntity
  8
3
100
AcDbLine
 10
6.262063661718919
 20
3.38891480693068
 30
0.0
 11
6.149858937309469
 21
3.207812444725956
 31
0.0
  0
LINE
  5
1F21
330
1E
100
AcDbEntity
  8
3
100
AcDbLine
 10
6.260095157781909
 20
3.390883310867689
 30
0.0
 11
6.14001641762443
 21
3.197969925040917
 31
0.0
  0
LINE
  5
1F22
330
1E
100
AcDbEntity
  8
3
100
AcDbLine
 10
6.256158149907895
 20
3.394820318741704
 30
0.0
 11
6.128205394002383
 21
3.188127405355878
 31
0.0
  0
LINE
  5
1F23
330
1E
100
AcDbEntity
  8
3
100
AcDbLine
 10
6.197103031797658
 20
3.430253389607846
 30
0.0
 11
6.19513452786065
 21
3.42631638173383
 31
0.0
  0
LINE
  5
1F24
330
1E
100
AcDbEntity
  8
3
100
AcDbLine
 10
6.197103031797658
 20
3.430253389607846
 30
0.0
 11
6.19513452786065
 21
3.42631638173383
 31
0.0
  0
LINE
  5
1F25
330
1E
100
AcDbEntity
  8
3
100
AcDbLine
 10
6.201040039671674
 20
3.428284885670837
 30
0.0
 11
6.191197519986635
 21
3.412536854174774
 31
0.0
  0
LINE
  5
1F26
330
1E
100
AcDbEntity
  8
3
100
AcDbLine
 10
6.204977047545689
 20
3.42631638173383
 30
0.0
 11
6.187260512112619
 21
3.396788822678711
 31
0.0
  0
LINE
  5
1F27
330
1E
100
AcDbEntity
  8
3
100
AcDbLine
 10
6.208914055419706
 20
3.422379373859815
 30
0.0
 11
6.183323504238604
 21
3.383009295119657
 31
0.0
  0
LINE
  5
1F28
330
1E
100
AcDbEntity
  8
3
100
AcDbLine
 10
6.210882559356713
 20
3.420410869922806
 30
0.0
 11
6.17741799242758
 21
3.367261263623595
 31
0.0
  0
LINE
  5
1F29
330
1E
100
AcDbEntity
  8
3
100
AcDbLine
 10
6.21481956723073
 20
3.418442365985798
 30
0.0
 11
6.173480984553563
 21
3.351513232127532
 31
0.0
  0
LINE
  5
1F2A
330
1E
100
AcDbEntity
  8
3
100
AcDbLine
 10
6.218756575104745
 20
3.416473862048791
 30
0.0
 11
6.169543976679548
 21
3.337733704568476
 31
0.0
  0
LINE
  5
1F2B
330
1E
100
AcDbEntity
  8
3
100
AcDbLine
 10
6.222693582978761
 20
3.414505358111783
 30
0.0
 11
6.165606968805532
 21
3.321985673072413
 31
0.0
  0
LINE
  5
1F2C
330
1E
100
AcDbEntity
  8
3
100
AcDbLine
 10
6.224662086915769
 20
3.412536854174774
 30
0.0
 11
6.159701456994509
 21
3.308206145513358
 31
0.0
  0
LINE
  5
1F2D
330
1E
100
AcDbEntity
  8
3
100
AcDbLine
 10
6.228599094789784
 20
3.410568350237767
 30
0.0
 11
6.155764449120493
 21
3.292458114017295
 31
0.0
  0
LINE
  5
1F2E
330
1E
100
AcDbEntity
  8
3
100
AcDbLine
 10
6.2325361026638
 20
3.408599846300759
 30
0.0
 11
6.151827441246478
 21
3.278678586458239
 31
0.0
  0
LINE
  5
1F2F
330
1E
100
AcDbEntity
  8
3
100
AcDbLine
 10
6.234504606600808
 20
3.406631342363752
 30
0.0
 11
6.147890433372461
 21
3.262930554962176
 31
0.0
  0
LINE
  5
1F30
330
1E
100
AcDbEntity
  8
3
100
AcDbLine
 10
6.238441614474824
 20
3.404662838426743
 30
0.0
 11
6.141984921561437
 21
3.249151027403122
 31
0.0
  0
LINE
  5
1F31
330
1E
100
AcDbEntity
  8
3
100
AcDbLine
 10
6.242378622348839
 20
3.402694334489735
 30
0.0
 11
6.138047913687422
 21
3.233402995907059
 31
0.0
  0
LINE
  5
1F32
330
1E
100
AcDbEntity
  8
3
100
AcDbLine
 10
6.246315630222856
 20
3.400725830552728
 30
0.0
 11
6.134110905813406
 21
3.219623468348004
 31
0.0
  0
LINE
  5
1F33
330
1E
100
AcDbEntity
  8
3
100
AcDbLine
 10
6.248284134159863
 20
3.39875732661572
 30
0.0
 11
6.130173897939391
 21
3.203875436851941
 31
0.0
  0
LINE
  5
1F34
330
1E
100
AcDbEntity
  8
3
100
AcDbLine
 10
6.252221142033878
 20
3.396788822678711
 30
0.0
 11
6.124268386128367
 21
3.190095909292885
 31
0.0
  0
LINE
  5
22F1
330
1E
100
AcDbEntity
  8
7
100
AcDbLine
 10
-0.196597755603916
 20
2.320017169135406
 30
0.0
 11
-0.196597755603916
 21
2.390883310867689
 31
0.0
  0
LINE
  5
22F2
330
1E
100
AcDbEntity
  8
3
100
AcDbLine
 10
0.7443471262858479
 20
2.115292759686585
 30
0.0
 11
1.014032165655926
 21
2.121198271497609
 31
0.0
  0
LINE
  5
22F3
330
1E
100
AcDbEntity
  8
3
100
AcDbLine
 10
-0.196597755603916
 20
1.022773074647217
 30
0.0
 11
0.7443471262858479
 21
1.007025043151154
 31
0.0
  0
LINE
  5
22F4
330
1E
100
AcDbEntity
  8
3
100
AcDbLine
 10
0.7443471262858479
 20
3.656631342363752
 30
0.0
 11
-0.196597755603916
 21
3.640883310867689
 31
0.0
  0
LINE
  5
22F5
330
1E
100
AcDbEntity
  8
3
100
AcDbLine
 10
-0.196597755603916
 20
2.688127405355878
 30
0.0
 11
-0.196597755603916
 21
2.699938428977924
 31
0.0
  0
LINE
  5
22F6
330
1E
100
AcDbEntity
  8
3
100
AcDbLine
 10
-0.196597755603916
 20
2.129072287245641
 30
0.0
 11
-0.196597755603916
 21
2.158599846300759
 31
0.0
  0
LINE
  5
22F7
330
1E
100
AcDbEntity
  8
3
100
AcDbLine
 10
-0.196597755603916
 20
2.703875436851941
 30
0.0
 11
-0.196597755603916
 21
2.699938428977924
 31
0.0
  0
LINE
  5
22F8
330
1E
100
AcDbEntity
  8
3
100
AcDbLine
 10
-0.196597755603916
 20
2.142851814804696
 30
0.0
 11
-0.196597755603916
 21
2.172379373859815
 31
0.0
  0
LINE
  5
22F9
330
1E
100
AcDbEntity
  8
3
100
AcDbLine
 10
-0.196597755603916
 20
2.012930554962176
 30
0.0
 11
-0.196597755603916
 21
1.995214019529106
 31
0.0
  0
LINE
  5
22FA
330
1E
100
AcDbEntity
  8
3
100
AcDbLine
 10
-0.196597755603916
 20
2.654662838426743
 30
0.0
 11
-0.196597755603916
 21
2.674347877796822
 31
0.0
  0
LINE
  5
22FB
330
1E
100
AcDbEntity
  8
3
100
AcDbLine
 10
-0.196597755603916
 20
2.085765200631469
 30
0.0
 11
-0.196597755603916
 21
2.042458114017295
 31
0.0
  0
LINE
  5
22FC
330
1E
100
AcDbEntity
  8
3
100
AcDbLine
 10
-0.196597755603916
 20
2.034584098269263
 30
0.0
 11
-0.196597755603916
 21
2.054269137639343
 31
0.0
  0
LINE
  5
22FD
330
1E
100
AcDbEntity
  8
3
100
AcDbLine
 10
-0.196597755603916
 20
2.621198271497609
 30
0.0
 11
-0.196597755603916
 21
2.562143153387374
 31
0.0
  0
LINE
  5
22FE
330
1E
100
AcDbEntity
  8
3
100
AcDbLine
 10
-0.196597755603916
 20
2.085765200631469
 30
0.0
 11
-0.196597755603916
 21
2.101513232127532
 31
0.0
  0
LINE
  5
22FF
330
1E
100
AcDbEntity
  8
3
100
AcDbLine
 10
-0.196597755603916
 20
2.699938428977924
 30
0.0
 11
-0.196597755603916
 21
2.703875436851941
 31
0.0
  0
LINE
  5
2300
330
1E
100
AcDbEntity
  8
3
100
AcDbLine
 10
-0.196597755603916
 20
2.699938428977924
 30
0.0
 11
-0.196597755603916
 21
2.688127405355878
 31
0.0
  0
LINE
  5
2301
330
1E
100
AcDbEntity
  8
3
100
AcDbLine
 10
-0.196597755603916
 20
2.101513232127532
 30
0.0
 11
-0.196597755603916
 21
2.085765200631469
 31
0.0
  0
LINE
  5
2302
330
1E
100
AcDbEntity
  8
3
100
AcDbLine
 10
-0.196597755603916
 20
2.703875436851941
 30
0.0
 11
-0.196597755603916
 21
2.699938428977924
 31
0.0
  0
LINE
  5
2303
330
1E
100
AcDbEntity
  8
3
100
AcDbLine
 10
-0.196597755603916
 20
2.042458114017295
 30
0.0
 11
-0.196597755603916
 21
2.085765200631469
 31
0.0
  0
LINE
  5
233A
330
1E
100
AcDbEntity
  8
3
100
AcDbLine
 10
-0.196597755603916
 20
1.993245515592098
 30
0.0
 11
-0.196597755603916
 21
2.00111953134013
 31
0.0
  0
LINE
  5
233B
330
1E
100
AcDbEntity
  8
3
100
AcDbLine
 10
-0.196597755603916
 20
2.00111953134013
 30
0.0
 11
-0.196597755603916
 21
2.012930554962176
 31
0.0
  0
LINE
  5
2346
330
1E
100
AcDbEntity
  8
3
100
AcDbLine
 10
0.7443471262858479
 20
1.11135575181257
 30
0.0
 11
0.7443471262858479
 21
1.044426617954302
 31
0.0
  0
LINE
  5
2347
330
1E
100
AcDbEntity
  8
3
100
AcDbLine
 10
0.6715124806165563
 20
1.068048665198396
 30
0.0
 11
0.6715124806165563
 21
1.134977799056665
 31
0.0
  0
LINE
  5
2348
330
1E
100
AcDbEntity
  8
3
100
AcDbLine
 10
0.7443471262858479
 20
1.044426617954302
 30
0.0
 11
0.7404101184118322
 21
1.050332129765326
 31
0.0
  0
LINE
  5
2358
330
1E
100
AcDbEntity
  8
3
100
AcDbLine
 10
0.7463156302228553
 20
1.528678586458239
 30
0.0
 11
0.7443471262858479
 21
1.528678586458239
 31
0.0
  0
LINE
  5
2369
330
1E
100
AcDbEntity
  8
3
100
AcDbLine
 10
0.3663943703803358
 20
1.081828192757452
 30
0.0
 11
0.6715124806165563
 21
1.068048665198396
 31
0.0
  0
LINE
  5
236A
330
1E
100
AcDbEntity
  8
3
100
AcDbLine
 10
0.3663943703803358
 20
1.150725830552728
 30
0.0
 11
0.6715124806165563
 21
1.134977799056665
 31
0.0
  0
LINE
  5
236B
330
1E
100
AcDbEntity
  8
3
100
AcDbLine
 10
0.3663943703803358
 20
1.150725830552728
 30
0.0
 11
0.3663943703803358
 21
1.081828192757452
 31
0.0
  0
LINE
  5
239E
330
1E
100
AcDbEntity
  8
3
100
AcDbLine
 10
-0.196597755603916
 20
2.390883310867689
 30
0.0
 11
-0.196597755603916
 21
3.040489610080287
 31
0.0
  0
LINE
  5
239F
330
1E
100
AcDbEntity
  8
3
100
AcDbLine
 10
0.7443471262858479
 20
3.619229767560602
 30
0.0
 11
0.7443471262858479
 21
3.646788822678711
 31
0.0
  0
LINE
  5
23A0
330
1E
100
AcDbEntity
  8
3
100
AcDbLine
 10
0.7443471262858479
 20
3.646788822678711
 30
0.0
 11
0.7443471262858479
 21
3.656631342363752
 31
0.0
  0
LINE
  5
23B6
330
1E
100
AcDbEntity
  8
3
100
AcDbLine
 10
0.6715124806165563
 20
1.21371795653698
 30
0.0
 11
0.3663943703803358
 21
1.203875436851941
 31
0.0
  0
LINE
  5
23D8
330
1E
100
AcDbEntity
  8
3
100
AcDbLine
 10
0.3663943703803358
 20
3.459780948662965
 30
0.0
 11
0.6715124806165563
 21
3.449938428977924
 31
0.0
  0
LINE
  5
23F3
330
1E
100
AcDbEntity
  8
3
100
AcDbLine
 10
0.6715124806165563
 20
3.595607720316507
 30
0.0
 11
0.3663943703803358
 21
3.581828192757452
 31
0.0
  0
LINE
  5
23FD
330
1E
100
AcDbEntity
  8
3
100
AcDbLine
 10
0.8132447640811237
 20
1.562143153387374
 30
0.0
 11
0.7443471262858479
 21
1.566080161261389
 31
0.0
  0
LINE
  5
23FE
330
1E
100
AcDbEntity
  8
3
100
AcDbLine
 10
0.8270242916401784
 20
1.534584098269263
 30
0.0
 11
0.9667880711677376
 21
1.623166775434617
 31
0.0
  0
LINE
  5
2409
330
1E
100
AcDbEntity
  8
3
100
AcDbLine
 10
0.8132447640811237
 20
1.707812444725956
 30
0.0
 11
0.7443471262858479
 21
1.715686460473987
 31
0.0
  0
LINE
  5
240A
330
1E
100
AcDbEntity
  8
3
100
AcDbLine
 10
0.8132447640811237
 20
1.707812444725956
 30
0.0
 11
0.8132447640811237
 21
1.686158901418869
 31
0.0
  0
LINE
  5
2415
330
1E
100
AcDbEntity
  8
3
100
AcDbLine
 10
0.8270242916401784
 20
1.680253389607846
 30
0.0
 11
0.9667880711677376
 21
1.760962051025169
 31
0.0
  0
LINE
  5
2416
330
1E
100
AcDbEntity
  8
3
100
AcDbLine
 10
0.9667880711677376
 20
1.800332129765326
 30
0.0
 11
0.9667880711677376
 21
1.760962051025169
 31
0.0
  0
LINE
  5
242D
330
1E
100
AcDbEntity
  8
3
100
AcDbLine
 10
1.045528228648052
 20
2.390883310867689
 30
0.0
 11
1.045528228648052
 21
3.040489610080287
 31
0.0
  0
LINE
  5
242E
330
1E
100
AcDbEntity
  8
3
100
AcDbLine
 10
1.045528228648052
 20
2.38891480693068
 30
0.0
 11
1.045528228648052
 21
2.390883310867689
 31
0.0
  0
LINE
  5
242F
330
1E
100
AcDbEntity
  8
3
100
AcDbLine
 10
1.045528228648052
 20
2.320017169135406
 30
0.0
 11
1.045528228648052
 21
2.38891480693068
 31
0.0
  0
LINE
  5
2435
330
1E
100
AcDbEntity
  8
3
100
AcDbLine
 10
1.045528228648052
 20
2.390883310867689
 30
0.0
 11
0.9805675987267923
 21
2.390883310867689
 31
0.0
  0
LINE
  5
2436
330
1E
100
AcDbEntity
  8
3
100
AcDbLine
 10
1.045528228648052
 20
3.040489610080287
 30
0.0
 11
-0.196597755603916
 21
3.040489610080287
 31
0.0
  0
LINE
  5
2437
330
1E
100
AcDbEntity
  8
3
100
AcDbLine
 10
-0.196597755603916
 20
2.390883310867689
 30
0.0
 11
-0.1316371256826558
 21
2.390883310867689
 31
0.0
  0
LINE
  5
2438
330
1E
100
AcDbEntity
  8
3
100
AcDbLine
 10
-0.1316371256826558
 20
2.329859688820445
 30
0.0
 11
-0.1316371256826558
 21
2.390883310867689
 31
0.0
  0
LINE
  5
2439
330
1E
100
AcDbEntity
  8
3
100
AcDbLine
 10
0.3447408270732497
 20
2.329859688820445
 30
0.0
 11
-0.1316371256826558
 21
2.329859688820445
 31
0.0
  0
LINE
  5
243A
330
1E
100
AcDbEntity
  8
3
100
AcDbLine
 10
0.3447408270732497
 20
2.329859688820445
 30
0.0
 11
0.3447408270732497
 21
2.390883310867689
 31
0.0
  0
LINE
  5
243B
330
1E
100
AcDbEntity
  8
3
100
AcDbLine
 10
0.5041896459708868
 20
2.390883310867689
 30
0.0
 11
0.3447408270732497
 21
2.390883310867689
 31
0.0
  0
LINE
  5
243C
330
1E
100
AcDbEntity
  8
3
100
AcDbLine
 10
0.5041896459708868
 20
2.329859688820445
 30
0.0
 11
0.5041896459708868
 21
2.390883310867689
 31
0.0
  0
LINE
  5
243D
330
1E
100
AcDbEntity
  8
3
100
AcDbLine
 10
0.9805675987267923
 20
2.329859688820445
 30
0.0
 11
0.5041896459708868
 21
2.329859688820445
 31
0.0
  0
LINE
  5
243E
330
1E
100
AcDbEntity
  8
3
100
AcDbLine
 10
0.9805675987267923
 20
2.329859688820445
 30
0.0
 11
0.9805675987267923
 21
2.390883310867689
 31
0.0
  0
LINE
  5
243F
330
1E
100
AcDbEntity
  8
3
100
AcDbLine
 10
-0.1336056296196642
 20
2.320017169135406
 30
0.0
 11
-0.1336056296196642
 21
2.38891480693068
 31
0.0
  0
LINE
  5
2440
330
1E
100
AcDbEntity
  8
3
100
AcDbLine
 10
-0.1316371256826558
 20
2.329859688820445
 30
0.0
 11
-0.1336056296196642
 21
2.320017169135406
 31
0.0
  0
LINE
  5
2446
330
1E
100
AcDbEntity
  8
3
100
AcDbLine
 10
-0.196597755603916
 20
2.320017169135406
 30
0.0
 11
-0.1336056296196642
 21
2.320017169135406
 31
0.0
  0
LINE
  5
244E
330
1E
100
AcDbEntity
  8
3
100
AcDbLine
 10
0.3467093310102571
 20
2.320017169135406
 30
0.0
 11
0.3447408270732497
 21
2.329859688820445
 31
0.0
  0
LINE
  5
244F
330
1E
100
AcDbEntity
  8
3
100
AcDbLine
 10
0.7443471262858479
 20
1.916473862048791
 30
0.0
 11
0.7541896459708868
 21
1.914505358111783
 31
0.0
  0
LINE
  5
2450
330
1E
100
AcDbEntity
  8
3
100
AcDbLine
 10
0.7541896459708868
 20
1.849544728190522
 30
0.0
 11
0.7541896459708868
 21
1.914505358111783
 31
0.0
  0
LINE
  5
2469
330
1E
100
AcDbEntity
  8
3
100
AcDbLine
 10
0.9805675987267923
 20
2.320017169135406
 30
0.0
 11
0.9805675987267923
 21
2.329859688820445
 31
0.0
  0
LINE
  5
246F
330
1E
100
AcDbEntity
  8
3
100
AcDbLine
 10
0.3467093310102571
 20
2.38891480693068
 30
0.0
 11
0.5022211420338794
 21
2.38891480693068
 31
0.0
  0
LINE
  5
2470
330
1E
100
AcDbEntity
  8
3
100
AcDbLine
 10
0.3467093310102571
 20
2.320017169135406
 30
0.0
 11
0.3467093310102571
 21
2.38891480693068
 31
0.0
  0
LINE
  5
2471
330
1E
100
AcDbEntity
  8
3
100
AcDbLine
 10
0.3447408270732497
 20
2.390883310867689
 30
0.0
 11
0.3467093310102571
 21
2.38891480693068
 31
0.0
  0
LINE
  5
2472
330
1E
100
AcDbEntity
  8
3
100
AcDbLine
 10
0.5022211420338794
 20
2.38891480693068
 30
0.0
 11
0.5041896459708868
 21
2.390883310867689
 31
0.0
  0
LINE
  5
2473
330
1E
100
AcDbEntity
  8
3
100
AcDbLine
 10
0.9805675987267923
 20
2.390883310867689
 30
0.0
 11
0.9805675987267923
 21
2.38891480693068
 31
0.0
  0
LINE
  5
2474
330
1E
100
AcDbEntity
  8
3
100
AcDbLine
 10
0.8132447640811237
 20
3.101513232127532
 30
0.0
 11
0.7443471262858479
 21
3.097576224253515
 31
0.0
  0
LINE
  5
247E
330
1E
100
AcDbEntity
  8
3
100
AcDbLine
 10
0.8270242916401784
 20
3.129072287245641
 30
0.0
 11
0.9667880711677376
 21
3.03852110614328
 31
0.0
  0
LINE
  5
247F
330
1E
100
AcDbEntity
  8
3
100
AcDbLine
 10
0.3663943703803358
 20
3.581828192757452
 30
0.0
 11
0.3663943703803358
 21
3.512930554962176
 31
0.0
  0
LINE
  5
248D
330
1E
100
AcDbEntity
  8
3
100
AcDbLine
 10
0.7463156302228553
 20
3.134977799056665
 30
0.0
 11
0.7443471262858479
 21
3.134977799056665
 31
0.0
  0
LINE
  5
248E
330
1E
100
AcDbEntity
  8
3
100
AcDbLine
 10
0.6715124806165563
 20
3.528678586458239
 30
0.0
 11
0.6715124806165563
 21
3.595607720316507
 31
0.0
  0
LINE
  5
24A1
330
1E
100
AcDbEntity
  8
3
100
AcDbLine
 10
1.014032165655926
 20
1.758993547088161
 30
0.0
 11
1.014032165655926
 21
1.766867562836193
 31
0.0
  0
LINE
  5
253A
330
1E
100
AcDbEntity
  8
3
100
AcDbLine
 10
6.289622716837028
 20
2.469623468348004
 30
0.0
 11
6.334898307388209
 21
2.469623468348004
 31
0.0
  0
LINE
  5
2546
330
1E
100
AcDbEntity
  8
3
100
AcDbLine
 10
6.309307756207108
 20
2.418442365985798
 30
0.0
 11
6.301433740459076
 21
2.418442365985798
 31
0.0
  0
LINE
  5
254C
330
1E
100
AcDbEntity
  8
3
100
AcDbLine
 10
6.309307756207108
 20
2.245214019529106
 30
0.0
 11
6.301433740459076
 21
2.245214019529106
 31
0.0
  0
LINE
  5
256B
330
1E
100
AcDbEntity
  8
3
100
AcDbLine
 10
6.433323504238604
 20
2.475528980159028
 30
0.0
 11
6.334898307388209
 21
2.469623468348004
 31
0.0
  0
LINE
  5
256C
330
1E
100
AcDbEntity
  8
3
100
AcDbLine
 10
6.433323504238604
 20
2.186158901418869
 30
0.0
 11
6.334898307388209
 21
2.1940329171669
 31
0.0
  0
LINE
  5
2575
330
1E
100
AcDbEntity
  8
3
100
AcDbLine
 10
6.433323504238604
 20
2.186158901418869
 30
0.0
 11
6.435292008175611
 21
2.186158901418869
 31
0.0
  0
LINE
  5
257B
330
1E
100
AcDbEntity
  8
3
100
AcDbLine
 10
6.401827441246478
 20
2.477497484096035
 30
0.0
 11
6.42741799242758
 21
2.477497484096035
 31
0.0
  0
LINE
  5
257C
330
1E
100
AcDbEntity
  8
3
100
AcDbLine
 10
6.401827441246478
 20
2.186158901418869
 30
0.0
 11
6.42741799242758
 21
2.186158901418869
 31
0.0
  0
LINE
  5
257D
330
1E
100
AcDbEntity
  8
3
100
AcDbLine
 10
6.401827441246478
 20
2.186158901418869
 30
0.0
 11
6.391984921561437
 21
2.182221893544854
 31
0.0
  0
LINE
  5
257E
330
1E
100
AcDbEntity
  8
3
100
AcDbLine
 10
6.401827441246478
 20
2.477497484096035
 30
0.0
 11
6.391984921561437
 21
2.48143449197005
 31
0.0
  0
LINE
  5
257F
330
1E
100
AcDbEntity
  8
3
100
AcDbLine
 10
6.616394370380335
 20
1.174347877796822
 30
0.0
 11
6.689229016049626
 21
1.249151027403122
 31
0.0
  0
LINE
  5
2580
330
1E
100
AcDbEntity
  8
3
100
AcDbLine
 10
6.64001641762443
 20
1.262930554962176
 30
0.0
 11
6.689229016049626
 21
1.249151027403122
 31
0.0
  0
LINE
  5
2586
330
1E
100
AcDbEntity
  8
3
100
AcDbLine
 10
6.616394370380335
 20
1.174347877796822
 30
0.0
 11
6.56521326801813
 21
1.188127405355878
 31
0.0
  0
LINE
  5
2587
330
1E
100
AcDbEntity
  8
3
100
AcDbLine
 10
6.360488858569311
 20
1.235371499844067
 30
0.0
 11
6.478599094789784
 21
1.203875436851941
 31
0.0
  0
LINE
  5
258D
330
1E
100
AcDbEntity
  8
3
100
AcDbLine
 10
6.634110905813406
 20
1.347576224253515
 30
0.0
 11
6.537654212900021
 21
1.375135279371626
 31
0.0
  0
LINE
  5
25AA
330
1E
100
AcDbEntity
  8
3
100
AcDbLine
 10
6.557339252270098
 20
1.184190397481861
 30
0.0
 11
6.56521326801813
 21
1.188127405355878
 31
0.0
  0
LINE
  5
25AB
330
1E
100
AcDbEntity
  8
3
100
AcDbLine
 10
6.69513452786065
 20
1.325922680946428
 30
0.0
 11
6.697103031797658
 21
1.329859688820445
 31
0.0
  0
LINE
  5
25B1
330
1E
100
AcDbEntity
  8
3
100
AcDbLine
 10
6.478599094789784
 20
1.203875436851941
 30
0.0
 11
6.502221142033878
 21
1.197969925040917
 31
0.0
  0
LINE
  5
25C7
330
1E
100
AcDbEntity
  8
3
100
AcDbLine
 10
6.31521326801813
 20
2.479465988033043
 30
0.0
 11
6.386079409750415
 21
2.479465988033043
 31
0.0
  0
LINE
  5
25C8
330
1E
100
AcDbEntity
  8
3
100
AcDbLine
 10
6.267969173529941
 20
2.512930554962176
 30
0.0
 11
6.31521326801813
 21
2.479465988033043
 31
0.0
  0
LINE
  5
25D1
330
1E
100
AcDbEntity
  8
3
100
AcDbLine
 10
6.2325361026638
 20
2.514899058899185
 30
0.0
 11
6.246315630222856
 21
2.514899058899185
 31
0.0
  0
LINE
  5
25E2
330
1E
100
AcDbEntity
  8
3
100
AcDbLine
 10
6.246315630222856
 20
2.14875732661572
 30
0.0
 11
6.2325361026638
 21
2.14875732661572
 31
0.0
  0
LINE
  5
25EB
330
1E
100
AcDbEntity
  8
3
100
AcDbLine
 10
6.267969173529941
 20
2.14875732661572
 30
0.0
 11
6.31521326801813
 21
2.184190397481861
 31
0.0
  0
LINE
  5
25EC
330
1E
100
AcDbEntity
  8
3
100
AcDbLine
 10
6.386079409750415
 20
2.184190397481861
 30
0.0
 11
6.31521326801813
 21
2.184190397481861
 31
0.0
  0
LINE
  5
2602
330
1E
100
AcDbEntity
  8
3
100
AcDbLine
 10
6.614425866443328
 20
1.166473862048791
 30
0.0
 11
6.330961299514193
 21
1.243245515592098
 31
0.0
  0
LINE
  5
2603
330
1E
100
AcDbEntity
  8
3
100
AcDbLine
 10
6.614425866443328
 20
1.166473862048791
 30
0.0
 11
6.616394370380335
 21
1.174347877796822
 31
0.0
  0
LINE
  5
2604
330
1E
100
AcDbEntity
  8
3
100
AcDbLine
 10
6.330961299514193
 20
1.245214019529106
 30
0.0
 11
6.330961299514193
 21
1.243245515592098
 31
0.0
  0
LINE
  5
2605
330
1E
100
AcDbEntity
  8
3
100
AcDbLine
 10
6.614425866443328
 20
1.166473862048791
 30
0.0
 11
6.754189645970887
 21
1.318048665198396
 31
0.0
  0
LINE
  5
260C
330
1E
100
AcDbEntity
  8
3
100
AcDbLine
 10
6.502221142033878
 20
1.383009295119657
 30
0.0
 11
6.504189645970887
 21
1.384977799056665
 31
0.0
  0
LINE
  5
260D
330
1E
100
AcDbEntity
  8
3
100
AcDbLine
 10
6.972693582978761
 20
1.650725830552728
 30
0.0
 11
7.031748701088996
 21
1.792458114017295
 31
0.0
  0
LINE
  5
2613
330
1E
100
AcDbEntity
  8
3
100
AcDbLine
 10
6.842772323136241
 20
1.938127405355878
 30
0.0
 11
6.860488858569311
 21
1.938127405355878
 31
0.0
  0
LINE
  5
2619
330
1E
100
AcDbEntity
  8
3
100
AcDbLine
 10
6.712851063293721
 20
1.650725830552728
 30
0.0
 11
6.730567598726793
 21
1.650725830552728
 31
0.0
  0
LINE
  5
261A
330
1E
100
AcDbEntity
  8
3
100
AcDbLine
 10
6.972693582978761
 20
1.650725830552728
 30
0.0
 11
6.730567598726793
 21
1.650725830552728
 31
0.0
  0
LINE
  5
261B
330
1E
100
AcDbEntity
  8
3
100
AcDbLine
 10
6.264032165655926
 20
2.682221893544854
 30
0.0
 11
6.289622716837028
 21
2.674347877796822
 31
0.0
  0
LINE
  5
261C
330
1E
100
AcDbEntity
  8
3
100
AcDbLine
 10
6.342772323136241
 20
2.646788822678711
 30
0.0
 11
6.289622716837028
 21
2.674347877796822
 31
0.0
  0
LINE
  5
262D
330
1E
100
AcDbEntity
  8
3
100
AcDbLine
 10
6.334898307388209
 20
2.646788822678711
 30
0.0
 11
6.260095157781909
 21
2.646788822678711
 31
0.0
  0
LINE
  5
2633
330
1E
100
AcDbEntity
  8
3
100
AcDbLine
 10
6.197103031797658
 20
2.680253389607846
 30
0.0
 11
6.260095157781909
 21
2.646788822678711
 31
0.0
  0
LINE
  5
2639
330
1E
100
AcDbEntity
  8
3
100
AcDbLine
 10
6.244347126285846
 20
2.514899058899185
 30
0.0
 11
6.21481956723073
 21
2.599544728190522
 31
0.0
  0
LINE
  5
263A
330
1E
100
AcDbEntity
  8
3
100
AcDbLine
 10
6.21481956723073
 20
2.599544728190522
 30
0.0
 11
6.171512480616556
 21
2.680253389607846
 31
0.0
  0
LINE
  5
2642
330
1E
100
AcDbEntity
  8
3
100
AcDbLine
 10
6.1577329530575
 20
2.682221893544854
 30
0.0
 11
6.173480984553563
 21
2.682221893544854
 31
0.0
  0
LINE
  5
2652
330
1E
100
AcDbEntity
  8
3
100
AcDbLine
 10
6.149858937309469
 20
1.975528980159028
 30
0.0
 11
6.1577329530575
 21
1.98143449197005
 31
0.0
  0
LINE
  5
2658
330
1E
100
AcDbEntity
  8
3
100
AcDbLine
 10
6.149858937309469
 20
2.688127405355878
 30
0.0
 11
6.1577329530575
 21
2.682221893544854
 31
0.0
  0
LINE
  5
2659
330
1E
100
AcDbEntity
  8
3
100
AcDbLine
 10
6.173480984553563
 20
1.98143449197005
 30
0.0
 11
6.1577329530575
 21
1.98143449197005
 31
0.0
  0
LINE
  5
266B
330
1E
100
AcDbEntity
  8
3
100
AcDbLine
 10
6.197103031797658
 20
1.983402995907059
 30
0.0
 11
6.260095157781909
 21
2.016867562836193
 31
0.0
  0
LINE
  5
2671
330
1E
100
AcDbEntity
  8
3
100
AcDbLine
 10
6.334898307388209
 20
2.016867562836193
 30
0.0
 11
6.260095157781909
 21
2.016867562836193
 31
0.0
  0
LINE
  5
2683
330
1E
100
AcDbEntity
  8
3
100
AcDbLine
 10
6.342772323136241
 20
2.014899058899185
 30
0.0
 11
6.289622716837028
 21
1.989308507718082
 31
0.0
  0
LINE
  5
2684
330
1E
100
AcDbEntity
  8
3
100
AcDbLine
 10
6.264032165655926
 20
1.98143449197005
 30
0.0
 11
6.289622716837028
 21
1.989308507718082
 31
0.0
  0
LINE
  5
268F
330
1E
100
AcDbEntity
  8
3
100
AcDbLine
 10
6.746315630222856
 20
3.351513232127532
 30
0.0
 11
6.69513452786065
 21
3.337733704568476
 31
0.0
  0
LINE
  5
2699
330
1E
100
AcDbEntity
  8
3
100
AcDbLine
 10
6.64001641762443
 20
3.400725830552728
 30
0.0
 11
6.689229016049626
 21
3.414505358111783
 31
0.0
  0
LINE
  5
269F
330
1E
100
AcDbEntity
  8
3
100
AcDbLine
 10
6.165606968805532
 20
1.156631342363752
 30
0.0
 11
6.230567598726793
 21
1.182221893544854
 31
0.0
  0
LINE
  5
26BC
330
1E
100
AcDbEntity
  8
3
100
AcDbLine
 10
6.669543976679548
 20
1.577891184883437
 30
0.0
 11
6.689229016049626
 21
1.613324255749578
 31
0.0
  0
LINE
  5
26C7
330
1E
100
AcDbEntity
  8
3
100
AcDbLine
 10
6.836866811325217
 20
1.924347877796822
 30
0.0
 11
6.868362874317343
 21
2.032615594332256
 31
0.0
  0
LINE
  5
26CD
330
1E
100
AcDbEntity
  8
3
100
AcDbLine
 10
6.673480984553563
 20
1.575922680946428
 30
0.0
 11
6.669543976679548
 21
1.577891184883437
 31
0.0
  0
LINE
  5
26CE
330
1E
100
AcDbEntity
  8
3
100
AcDbLine
 10
6.673480984553563
 20
1.575922680946428
 30
0.0
 11
6.704977047545689
 21
1.609387247875563
 31
0.0
  0
LINE
  5
26CF
330
1E
100
AcDbEntity
  8
3
100
AcDbLine
 10
6.689229016049626
 20
1.613324255749578
 30
0.0
 11
6.704977047545689
 21
1.609387247875563
 31
0.0
  0
LINE
  5
26DA
330
1E
100
AcDbEntity
  8
3
100
AcDbLine
 10
6.868362874317343
 20
2.032615594332256
 30
0.0
 11
6.886079409750415
 21
2.032615594332256
 31
0.0
  0
LINE
  5
26DB
330
1E
100
AcDbEntity
  8
3
100
AcDbLine
 10
7.077024291640178
 20
2.723560476222019
 30
0.0
 11
6.860488858569311
 21
2.723560476222019
 31
0.0
  0
LINE
  5
26DC
330
1E
100
AcDbEntity
  8
3
100
AcDbLine
 10
6.972693582978761
 20
3.012930554962176
 30
0.0
 11
6.730567598726793
 21
3.012930554962176
 31
0.0
  0
LINE
  5
26DD
330
1E
100
AcDbEntity
  8
3
100
AcDbLine
 10
6.897890433372461
 20
2.508993547088161
 30
0.0
 11
6.836866811325217
 21
2.508993547088161
 31
0.0
  0
LINE
  5
26E9
330
1E
100
AcDbEntity
  8
3
100
AcDbLine
 10
6.823087283766161
 20
2.587733704568476
 30
0.0
 11
6.886079409750415
 21
2.587733704568476
 31
0.0
  0
LINE
  5
26EA
330
1E
100
AcDbEntity
  8
3
100
AcDbLine
 10
6.897890433372461
 20
2.154662838426743
 30
0.0
 11
6.836866811325217
 21
2.154662838426743
 31
0.0
  0
LINE
  5
26F9
330
1E
100
AcDbEntity
  8
3
100
AcDbLine
 10
6.886079409750415
 20
2.075922680946428
 30
0.0
 11
6.886079409750415
 21
2.032615594332256
 31
0.0
  0
LINE
  5
26FA
330
1E
100
AcDbEntity
  8
3
100
AcDbLine
 10
6.819150275892146
 20
2.064111657324382
 30
0.0
 11
6.819150275892146
 21
2.032615594332256
 31
0.0
  0
LINE
  5
271D
330
1E
100
AcDbEntity
  8
3
100
AcDbLine
 10
5.283717205026004
 20
1.11135575181257
 30
0.0
 11
5.283717205026004
 21
1.044426617954302
 31
0.0
  0
LINE
  5
271E
330
1E
100
AcDbEntity
  8
3
100
AcDbLine
 10
5.204977047545689
 20
1.068048665198396
 30
0.0
 11
5.204977047545689
 21
1.134977799056665
 31
0.0
  0
LINE
  5
272F
330
1E
100
AcDbEntity
  8
3
100
AcDbLine
 10
6.059307756207108
 20
2.692064413229893
 30
0.0
 11
6.254189645970887
 21
2.692064413229893
 31
0.0
  0
LINE
  5
274C
330
1E
100
AcDbEntity
  8
3
100
AcDbLine
 10
6.059307756207108
 20
1.969623468348004
 30
0.0
 11
6.254189645970887
 21
1.969623468348004
 31
0.0
  0
LINE
  5
274D
330
1E
100
AcDbEntity
  8
3
100
AcDbLine
 10
5.498284134159863
 20
1.528678586458239
 30
0.0
 11
5.547496732585059
 21
1.560174649450365
 31
0.0
  0
LINE
  5
2753
330
1E
100
AcDbEntity
  8
3
100
AcDbLine
 10
5.567181771955139
 20
1.577891184883437
 30
0.0
 11
5.547496732585059
 21
1.560174649450365
 31
0.0
  0
LINE
  5
2766
330
1E
100
AcDbEntity
  8
3
100
AcDbLine
 10
5.17741799242758
 20
1.081828192757452
 30
0.0
 11
5.204977047545689
 21
1.068048665198396
 31
0.0
  0
LINE
  5
2767
330
1E
100
AcDbEntity
  8
3
100
AcDbLine
 10
5.17741799242758
 20
1.150725830552728
 30
0.0
 11
5.204977047545689
 21
1.134977799056665
 31
0.0
  0
LINE
  5
2768
330
1E
100
AcDbEntity
  8
3
100
AcDbLine
 10
5.17741799242758
 20
1.150725830552728
 30
0.0
 11
5.17741799242758
 21
1.081828192757452
 31
0.0
  0
LINE
  5
2773
330
1E
100
AcDbEntity
  8
3
100
AcDbLine
 10
5.500252638096871
 20
1.534584098269263
 30
0.0
 11
5.539622716837028
 21
1.599544728190522
 31
0.0
  0
LINE
  5
2774
330
1E
100
AcDbEntity
  8
3
100
AcDbLine
 10
5.679386496364587
 20
1.75111953134013
 30
0.0
 11
5.580961299514193
 21
1.581828192757452
 31
0.0
  0
LINE
  5
2781
330
1E
100
AcDbEntity
  8
3
100
AcDbLine
 10
6.616394370380335
 20
3.487340003781074
 30
0.0
 11
6.689229016049626
 21
3.414505358111783
 31
0.0
  0
LINE
  5
2782
330
1E
100
AcDbEntity
  8
3
100
AcDbLine
 10
6.616394370380335
 20
3.487340003781074
 30
0.0
 11
6.56521326801813
 21
3.475528980159028
 31
0.0
  0
LINE
  5
2788
330
1E
100
AcDbEntity
  8
3
100
AcDbLine
 10
6.69513452786065
 20
3.337733704568476
 30
0.0
 11
6.697103031797658
 21
3.333796696694459
 31
0.0
  0
LINE
  5
2789
330
1E
100
AcDbEntity
  8
3
100
AcDbLine
 10
6.557339252270098
 20
3.479465988033043
 30
0.0
 11
6.56521326801813
 21
3.475528980159028
 31
0.0
  0
LINE
  5
279F
330
1E
100
AcDbEntity
  8
3
100
AcDbLine
 10
6.614425866443328
 20
3.495214019529106
 30
0.0
 11
6.616394370380335
 21
3.487340003781074
 31
0.0
  0
LINE
  5
27A0
330
1E
100
AcDbEntity
  8
3
100
AcDbLine
 10
6.746315630222856
 20
3.351513232127532
 30
0.0
 11
6.754189645970887
 21
3.345607720316507
 31
0.0
  0
LINE
  5
27A1
330
1E
100
AcDbEntity
  8
3
100
AcDbLine
 10
6.614425866443328
 20
3.495214019529106
 30
0.0
 11
6.754189645970887
 21
3.345607720316507
 31
0.0
  0
LINE
  5
27AB
330
1E
100
AcDbEntity
  8
3
100
AcDbLine
 10
6.506158149907895
 20
3.280647090395248
 30
0.0
 11
6.504189645970887
 21
3.278678586458239
 31
0.0
  0
LINE
  5
27AC
330
1E
100
AcDbEntity
  8
3
100
AcDbLine
 10
6.754189645970887
 20
3.345607720316507
 30
0.0
 11
6.506158149907895
 21
3.280647090395248
 31
0.0
  0
LINE
  5
27B7
330
1E
100
AcDbEntity
  8
3
100
AcDbLine
 10
6.673480984553563
 20
3.085765200631469
 30
0.0
 11
6.669543976679548
 21
3.085765200631469
 31
0.0
  0
LINE
  5
27B8
330
1E
100
AcDbEntity
  8
3
100
AcDbLine
 10
6.673480984553563
 20
3.085765200631469
 30
0.0
 11
6.704977047545689
 21
3.054269137639343
 31
0.0
  0
LINE
  5
27C3
330
1E
100
AcDbEntity
  8
3
100
AcDbLine
 10
6.712851063293721
 20
3.012930554962176
 30
0.0
 11
6.730567598726793
 21
3.012930554962176
 31
0.0
  0
LINE
  5
27D9
330
1E
100
AcDbEntity
  8
3
100
AcDbLine
 10
6.868362874317343
 20
2.631040791182648
 30
0.0
 11
6.886079409750415
 21
2.631040791182648
 31
0.0
  0
LINE
  5
27DA
330
1E
100
AcDbEntity
  8
3
100
AcDbLine
 10
6.819150275892146
 20
2.597576224253515
 30
0.0
 11
6.819150275892146
 21
2.631040791182648
 31
0.0
  0
LINE
  5
27DB
330
1E
100
AcDbEntity
  8
3
100
AcDbLine
 10
6.886079409750415
 20
2.587733704568476
 30
0.0
 11
6.886079409750415
 21
2.631040791182648
 31
0.0
  0
LINE
  5
27DC
330
1E
100
AcDbEntity
  8
3
100
AcDbLine
 10
6.868362874317343
 20
2.631040791182648
 30
0.0
 11
6.819150275892146
 21
2.631040791182648
 31
0.0
  0
LINE
  5
27DD
330
1E
100
AcDbEntity
  8
3
100
AcDbLine
 10
6.836866811325217
 20
2.739308507718082
 30
0.0
 11
6.868362874317343
 21
2.631040791182648
 31
0.0
  0
LINE
  5
27DE
330
1E
100
AcDbEntity
  8
3
100
AcDbLine
 10
6.789622716837028
 20
2.739308507718082
 30
0.0
 11
6.836866811325217
 21
2.739308507718082
 31
0.0
  0
LINE
  5
27DF
330
1E
100
AcDbEntity
  8
3
100
AcDbLine
 10
6.819150275892146
 20
2.631040791182648
 30
0.0
 11
6.789622716837028
 21
2.739308507718082
 31
0.0
  0
LINE
  5
27E0
330
1E
100
AcDbEntity
  8
3
100
AcDbLine
 10
5.098677834947265
 20
1.11135575181257
 30
0.0
 11
5.098677834947265
 21
1.182221893544854
 31
0.0
  0
LINE
  5
27EE
330
1E
100
AcDbEntity
  8
3
100
AcDbLine
 10
4.994347126285846
 20
1.233402995907059
 30
0.0
 11
4.994347126285846
 21
1.160568350237767
 31
0.0
  0
LINE
  5
2812
330
1E
100
AcDbEntity
  8
3
100
AcDbLine
 10
5.012063661718919
 20
2.030647090395248
 30
0.0
 11
5.014032165655926
 21
2.020804570710208
 31
0.0
  0
LINE
  5
2823
330
1E
100
AcDbEntity
  8
3
100
AcDbLine
 10
5.437260512112619
 20
1.690095909292885
 30
0.0
 11
5.431355000301595
 21
1.678284885670837
 31
0.0
  0
LINE
  5
2835
330
1E
100
AcDbEntity
  8
3
100
AcDbLine
 10
5.419543976679548
 20
1.660568350237767
 30
0.0
 11
5.366394370380335
 21
1.634977799056665
 31
0.0
  0
LINE
  5
283B
330
1E
100
AcDbEntity
  8
3
100
AcDbLine
 10
5.330961299514193
 20
1.57395417700942
 30
0.0
 11
5.366394370380335
 21
1.634977799056665
 31
0.0
  0
LINE
  5
283C
330
1E
100
AcDbEntity
  8
3
100
AcDbLine
 10
5.053402244396083
 20
2.11135575181257
 30
0.0
 11
4.954977047545689
 21
1.942064413229893
 31
0.0
  0
LINE
  5
2874
330
1E
100
AcDbEntity
  8
3
100
AcDbLine
 10
5.679386496364587
 20
2.912536854174774
 30
0.0
 11
5.580961299514193
 21
3.081828192757452
 31
0.0
  0
LINE
  5
287F
330
1E
100
AcDbEntity
  8
3
100
AcDbLine
 10
5.053402244396083
 20
2.552300633702333
 30
0.0
 11
4.954977047545689
 21
2.719623468348004
 31
0.0
  0
LINE
  5
2880
330
1E
100
AcDbEntity
  8
3
100
AcDbLine
 10
6.614425866443328
 20
3.495214019529106
 30
0.0
 11
6.330961299514193
 21
3.420410869922806
 31
0.0
  0
LINE
  5
2881
330
1E
100
AcDbEntity
  8
3
100
AcDbLine
 10
6.330961299514193
 20
3.418442365985798
 30
0.0
 11
6.330961299514193
 21
3.420410869922806
 31
0.0
  0
LINE
  5
2895
330
1E
100
AcDbEntity
  8
3
100
AcDbLine
 10
6.165606968805532
 20
3.507025043151154
 30
0.0
 11
6.165606968805532
 21
3.528678586458239
 31
0.0
  0
LINE
  5
289F
330
1E
100
AcDbEntity
  8
3
100
AcDbLine
 10
5.283717205026004
 20
3.619229767560602
 30
0.0
 11
5.283717205026004
 21
3.552300633702333
 31
0.0
  0
LINE
  5
28B3
330
1E
100
AcDbEntity
  8
3
100
AcDbLine
 10
6.165606968805532
 20
3.507025043151154
 30
0.0
 11
6.230567598726793
 21
3.48143449197005
 31
0.0
  0
LINE
  5
28D8
330
1E
100
AcDbEntity
  8
3
100
AcDbLine
 10
4.832929803451202
 20
3.333796696694459
 30
0.0
 11
4.809307756207108
 21
3.314111657324382
 31
0.0
  0
LINE
  5
28F5
330
1E
100
AcDbEntity
  8
3
100
AcDbLine
 10
4.888047913687422
 20
1.290489610080287
 30
0.0
 11
4.915606968805532
 21
1.278678586458239
 31
0.0
  0
LINE
  5
28F6
330
1E
100
AcDbEntity
  8
3
100
AcDbLine
 10
6.165606968805532
 20
3.528678586458239
 30
0.0
 11
6.230567598726793
 21
3.48143449197005
 31
0.0
  0
LINE
  5
28FF
330
1E
100
AcDbEntity
  8
3
100
AcDbLine
 10
4.888047913687422
 20
1.21371795653698
 30
0.0
 11
4.915606968805532
 21
1.203875436851941
 31
0.0
  0
LINE
  5
2912
330
1E
100
AcDbEntity
  8
3
100
AcDbLine
 10
4.683323504238604
 20
1.373166775434617
 30
0.0
 11
4.809307756207108
 21
1.266867562836193
 31
0.0
  0
LINE
  5
2913
330
1E
100
AcDbEntity
  8
3
100
AcDbLine
 10
4.273874685340965
 20
2.253088035277137
 30
0.0
 11
4.277811693214982
 21
2.280647090395248
 31
0.0
  0
LINE
  5
2919
330
1E
100
AcDbEntity
  8
3
100
AcDbLine
 10
4.809307756207108
 20
3.396788822678711
 30
0.0
 11
4.667575472742541
 21
3.276710082521232
 31
0.0
  0
LINE
  5
2927
330
1E
100
AcDbEntity
  8
3
100
AcDbLine
 10
4.915606968805532
 20
3.459780948662965
 30
0.0
 11
4.888047913687422
 21
3.449938428977924
 31
0.0
  0
LINE
  5
2940
330
1E
100
AcDbEntity
  8
3
100
AcDbLine
 10
5.204977047545689
 20
3.595607720316507
 30
0.0
 11
5.17741799242758
 21
3.581828192757452
 31
0.0
  0
LINE
  5
2949
330
1E
100
AcDbEntity
  8
3
100
AcDbLine
 10
5.321118779829154
 20
1.562143153387374
 30
0.0
 11
5.307339252270098
 21
1.540489610080287
 31
0.0
  0
LINE
  5
294A
330
1E
100
AcDbEntity
  8
3
100
AcDbLine
 10
5.321118779829154
 20
1.562143153387374
 30
0.0
 11
5.328992795577185
 21
1.568048665198396
 31
0.0
  0
LINE
  5
294B
330
1E
100
AcDbEntity
  8
3
100
AcDbLine
 10
5.437260512112619
 20
1.690095909292885
 30
0.0
 11
5.380173897939391
 21
1.666473862048791
 31
0.0
  0
LINE
  5
2951
330
1E
100
AcDbEntity
  8
3
100
AcDbLine
 10
5.303402244396083
 20
1.534584098269263
 30
0.0
 11
5.346709331010258
 21
1.623166775434617
 31
0.0
  0
LINE
  5
295B
330
1E
100
AcDbEntity
  8
3
100
AcDbLine
 10
5.069150275892146
 20
1.707812444725956
 30
0.0
 11
5.069150275892146
 21
1.717654964410996
 31
0.0
  0
LINE
  5
295C
330
1E
100
AcDbEntity
  8
3
100
AcDbLine
 10
5.069150275892146
 20
1.707812444725956
 30
0.0
 11
5.057339252270098
 21
1.686158901418869
 31
0.0
  0
LINE
  5
295D
330
1E
100
AcDbEntity
  8
3
100
AcDbLine
 10
5.053402244396083
 20
1.680253389607846
 30
0.0
 11
5.053402244396083
 21
1.678284885670837
 31
0.0
  0
LINE
  5
2964
330
1E
100
AcDbEntity
  8
3
100
AcDbLine
 10
5.053402244396083
 20
1.680253389607846
 30
0.0
 11
5.108520354632304
 21
1.760962051025169
 31
0.0
  0
LINE
  5
2965
330
1E
100
AcDbEntity
  8
3
100
AcDbLine
 10
5.132142401876398
 20
1.800332129765326
 30
0.0
 11
5.108520354632304
 21
1.760962051025169
 31
0.0
  0
LINE
  5
2975
330
1E
100
AcDbEntity
  8
3
100
AcDbLine
 10
5.073087283766161
 20
1.721591972285011
 30
0.0
 11
5.108520354632304
 21
1.782615594332256
 31
0.0
  0
LINE
  5
2989
330
1E
100
AcDbEntity
  8
3
100
AcDbLine
 10
5.321118779829154
 20
1.678284885670837
 30
0.0
 11
5.336866811325217
 21
1.672379373859815
 31
0.0
  0
LINE
  5
29A7
330
1E
100
AcDbEntity
  8
3
100
AcDbLine
 10
4.888047913687422
 20
1.290489610080287
 30
0.0
 11
4.888047913687422
 21
1.21371795653698
 31
0.0
  0
LINE
  5
29A8
330
1E
100
AcDbEntity
  8
3
100
AcDbLine
 10
4.809307756207108
 20
1.266867562836193
 30
0.0
 11
4.809307756207108
 21
1.347576224253515
 31
0.0
  0
LINE
  5
29C3
330
1E
100
AcDbEntity
  8
3
100
AcDbLine
 10
5.108520354632304
 20
2.879072287245641
 30
0.0
 11
5.073087283766161
 21
2.940095909292885
 31
0.0
  0
LINE
  5
29C4
330
1E
100
AcDbEntity
  8
3
100
AcDbLine
 10
4.954977047545689
 20
2.814111657324382
 30
0.0
 11
4.992378622348839
 21
2.747182523466113
 31
0.0
  0
LINE
  5
29CA
330
1E
100
AcDbEntity
  8
3
100
AcDbLine
 10
5.104583346758289
 20
2.821985673072413
 30
0.0
 11
5.108520354632304
 21
2.879072287245641
 31
0.0
  0
LINE
  5
29CB
330
1E
100
AcDbEntity
  8
3
100
AcDbLine
 10
4.994347126285846
 20
2.678284885670837
 30
0.0
 11
4.992378622348839
 21
2.747182523466113
 31
0.0
  0
LINE
  5
29D1
330
1E
100
AcDbEntity
  8
3
100
AcDbLine
 10
4.951040039671674
 20
2.820017169135406
 30
0.0
 11
4.954977047545689
 21
2.758993547088161
 31
0.0
  0
LINE
  5
29D2
330
1E
100
AcDbEntity
  8
3
100
AcDbLine
 10
4.960882559356713
 20
2.735371499844067
 30
0.0
 11
4.954977047545689
 21
2.758993547088161
 31
0.0
  0
LINE
  5
29E7
330
1E
100
AcDbEntity
  8
3
100
AcDbLine
 10
5.120331378254352
 20
2.790489610080287
 30
0.0
 11
5.114425866443328
 21
2.802300633702333
 31
0.0
  0
LINE
  5
29E8
330
1E
100
AcDbEntity
  8
3
100
AcDbLine
 10
5.014032165655926
 20
2.640883310867689
 30
0.0
 11
5.006158149907895
 21
2.656631342363752
 31
0.0
  0
LINE
  5
29EE
330
1E
100
AcDbEntity
  8
3
100
AcDbLine
 10
3.295528228648052
 20
2.920410869922806
 30
0.0
 11
3.295528228648052
 21
2.46371795653698
 31
0.0
  0
LINE
  5
29F4
330
1E
100
AcDbEntity
  8
3
100
AcDbLine
 10
3.730567598726793
 20
2.491277011655091
 30
0.0
 11
3.730567598726793
 21
2.355450240001546
 31
0.0
  0
LINE
  5
2A0A
330
1E
100
AcDbEntity
  8
3
100
AcDbLine
 10
4.888047913687422
 20
3.449938428977924
 30
0.0
 11
4.888047913687422
 21
3.373166775434617
 31
0.0
  0
LINE
  5
2A0B
330
1E
100
AcDbEntity
  8
3
100
AcDbLine
 10
4.809307756207108
 20
3.314111657324382
 30
0.0
 11
4.809307756207108
 21
3.396788822678711
 31
0.0
  0
LINE
  5
2A0C
330
1E
100
AcDbEntity
  8
3
100
AcDbLine
 10
3.201040039671674
 20
2.390883310867689
 30
0.0
 11
3.201040039671674
 21
3.040489610080287
 31
0.0
  0
LINE
  5
2A0D
330
1E
100
AcDbEntity
  8
3
100
AcDbLine
 10
3.299465236522067
 20
2.38891480693068
 30
0.0
 11
3.201040039671674
 21
2.390883310867689
 31
0.0
  0
LINE
  5
2A0E
330
1E
100
AcDbEntity
  8
3
100
AcDbLine
 10
3.299465236522067
 20
2.320017169135406
 30
0.0
 11
3.299465236522067
 21
2.38891480693068
 31
0.0
  0
LINE
  5
2A20
330
1E
100
AcDbEntity
  8
3
100
AcDbLine
 10
3.441197519986635
 20
2.92631638173383
 30
0.0
 11
3.441197519986635
 21
2.955843940788948
 31
0.0
  0
LINE
  5
2A27
330
1E
100
AcDbEntity
  8
3
100
AcDbLine
 10
3.516000669592934
 20
3.00111953134013
 30
0.0
 11
3.516000669592934
 21
2.884977799056665
 31
0.0
  0
LINE
  5
2A33
330
1E
100
AcDbEntity
  8
3
100
AcDbLine
 10
4.281748701088996
 20
2.253088035277137
 30
0.0
 11
4.273874685340965
 21
2.253088035277137
 31
0.0
  0
LINE
  5
2A3B
330
1E
100
AcDbEntity
  8
3
100
AcDbLine
 10
3.9825361026638
 20
2.957812444725956
 30
0.0
 11
4.399858937309469
 21
2.957812444725956
 31
0.0
  0
LINE
  5
2A3C
330
1E
100
AcDbEntity
  8
3
100
AcDbLine
 10
3.9825361026638
 20
2.957812444725956
 30
0.0
 11
3.9825361026638
 21
2.883009295119657
 31
0.0
  0
LINE
  5
2A3D
330
1E
100
AcDbEntity
  8
3
100
AcDbLine
 10
4.325055787703171
 20
2.883009295119657
 30
0.0
 11
3.9825361026638
 21
2.883009295119657
 31
0.0
  0
LINE
  5
2A4A
330
1E
100
AcDbEntity
  8
3
100
AcDbLine
 10
3.516000669592934
 20
2.884977799056665
 30
0.0
 11
3.9825361026638
 21
2.883009295119657
 31
0.0
  0
LINE
  5
2A57
330
1E
100
AcDbEntity
  8
3
100
AcDbLine
 10
3.293559724711045
 20
2.461749452599972
 30
0.0
 11
3.295528228648052
 21
2.46371795653698
 31
0.0
  0
LINE
  5
2A58
330
1E
100
AcDbEntity
  8
3
100
AcDbLine
 10
3.295528228648052
 20
2.920410869922806
 30
0.0
 11
3.289622716837028
 21
2.922379373859815
 31
0.0
  0
LINE
  5
2A59
330
1E
100
AcDbEntity
  8
3
100
AcDbLine
 10
3.332929803451202
 20
2.965686460473987
 30
0.0
 11
3.334898307388209
 21
2.959780948662965
 31
0.0
  0
LINE
  5
2A5A
330
1E
100
AcDbEntity
  8
3
100
AcDbLine
 10
3.42741799242758
 20
2.959780948662965
 30
0.0
 11
3.431355000301595
 21
2.965686460473987
 31
0.0
  0
LINE
  5
2A5B
330
1E
100
AcDbEntity
  8
3
100
AcDbLine
 10
3.441197519986635
 20
2.955843940788948
 30
0.0
 11
3.437260512112619
 21
2.949938428977924
 31
0.0
  0
LINE
  5
2A5C
330
1E
100
AcDbEntity
  8
3
100
AcDbLine
 10
3.437260512112619
 20
2.920410869922806
 30
0.0
 11
3.441197519986635
 21
2.92631638173383
 31
0.0
  0
LINE
  5
2A5D
330
1E
100
AcDbEntity
  8
3
100
AcDbLine
 10
3.4825361026638
 20
2.884977799056665
 30
0.0
 11
3.476630590852776
 21
2.881040791182648
 31
0.0
  0
LINE
  5
2A5E
330
1E
100
AcDbEntity
  8
3
100
AcDbLine
 10
4.281748701088996
 20
2.253088035277137
 30
0.0
 11
4.277811693214982
 21
2.280647090395248
 31
0.0
  0
LINE
  5
2A7C
330
1E
100
AcDbEntity
  8
3
100
AcDbLine
 10
5.630173897939391
 20
2.989308507718082
 30
0.0
 11
5.620331378254352
 21
2.991277011655091
 31
0.0
  0
LINE
  5
2A88
330
1E
100
AcDbEntity
  8
3
100
AcDbLine
 10
3.201040039671674
 20
2.329859688820445
 30
0.0
 11
3.201040039671674
 21
2.390883310867689
 31
0.0
  0
LINE
  5
2A89
330
1E
100
AcDbEntity
  8
3
100
AcDbLine
 10
5.006158149907895
 20
2.007025043151154
 30
0.0
 11
5.014032165655926
 21
2.020804570710208
 31
0.0
  0
LINE
  5
2A8F
330
1E
100
AcDbEntity
  8
3
100
AcDbLine
 10
5.006158149907895
 20
2.007025043151154
 30
0.0
 11
5.000252638096871
 21
1.999151027403122
 31
0.0
  0
LINE
  5
2A9B
330
1E
100
AcDbEntity
  8
3
100
AcDbLine
 10
4.994347126285846
 20
1.985371499844067
 30
0.0
 11
4.992378622348839
 21
1.914505358111783
 31
0.0
  0
LINE
  5
2AA1
330
1E
100
AcDbEntity
  8
3
100
AcDbLine
 10
4.954977047545689
 20
1.849544728190522
 30
0.0
 11
4.992378622348839
 21
1.914505358111783
 31
0.0
  0
LINE
  5
2AB2
330
1E
100
AcDbEntity
  8
3
100
AcDbLine
 10
4.951040039671674
 20
1.8436392163795
 30
0.0
 11
4.954977047545689
 21
1.902694334489735
 31
0.0
  0
LINE
  5
2AB3
330
1E
100
AcDbEntity
  8
3
100
AcDbLine
 10
4.960882559356713
 20
1.928284885670837
 30
0.0
 11
4.954977047545689
 21
1.902694334489735
 31
0.0
  0
LINE
  5
2AB9
330
1E
100
AcDbEntity
  8
3
100
AcDbLine
 10
3.299465236522067
 20
2.320017169135406
 30
0.0
 11
3.201040039671674
 21
2.329859688820445
 31
0.0
  0
LINE
  5
2AC0
330
1E
100
AcDbEntity
  8
3
100
AcDbLine
 10
3.681355000301595
 20
2.39875732661572
 30
0.0
 11
3.681355000301595
 21
2.402694334489735
 31
0.0
  0
LINE
  5
2AC1
330
1E
100
AcDbEntity
  8
3
100
AcDbLine
 10
3.350646338884272
 20
2.402694334489735
 30
0.0
 11
3.681355000301595
 21
2.402694334489735
 31
0.0
  0
LINE
  5
2AC2
330
1E
100
AcDbEntity
  8
3
100
AcDbLine
 10
3.350646338884272
 20
2.402694334489735
 30
0.0
 11
3.350646338884272
 21
2.39875732661572
 31
0.0
  0
LINE
  5
2AC3
330
1E
100
AcDbEntity
  8
3
100
AcDbLine
 10
3.350646338884272
 20
2.402694334489735
 30
0.0
 11
3.291591220774035
 21
2.461749452599972
 31
0.0
  0
LINE
  5
2AC4
330
1E
100
AcDbEntity
  8
3
100
AcDbLine
 10
3.354583346758289
 20
2.402694334489735
 30
0.0
 11
3.293559724711045
 21
2.461749452599972
 31
0.0
  0
LINE
  5
2AC5
330
1E
100
AcDbEntity
  8
3
100
AcDbLine
 10
3.354583346758289
 20
2.404662838426743
 30
0.0
 11
3.354583346758289
 21
2.402694334489735
 31
0.0
  0
LINE
  5
2AC6
330
1E
100
AcDbEntity
  8
3
100
AcDbLine
 10
3.681355000301595
 20
2.402694334489735
 30
0.0
 11
3.681355000301595
 21
2.404662838426743
 31
0.0
  0
LINE
  5
2AC7
330
1E
100
AcDbEntity
  8
3
100
AcDbLine
 10
5.069150275892146
 20
2.955843940788948
 30
0.0
 11
5.057339252270098
 21
2.977497484096035
 31
0.0
  0
LINE
  5
2AC8
330
1E
100
AcDbEntity
  8
3
100
AcDbLine
 10
5.069150275892146
 20
2.955843940788948
 30
0.0
 11
5.069150275892146
 21
2.946001421103909
 31
0.0
  0
LINE
  5
2ACF
330
1E
100
AcDbEntity
  8
3
100
AcDbLine
 10
5.053402244396083
 20
2.983402995907059
 30
0.0
 11
5.108520354632304
 21
2.902694334489735
 31
0.0
  0
LINE
  5
2AD8
330
1E
100
AcDbEntity
  8
3
100
AcDbLine
 10
5.321118779829154
 20
3.101513232127532
 30
0.0
 11
5.328992795577185
 21
3.095607720316507
 31
0.0
  0
LINE
  5
2AD9
330
1E
100
AcDbEntity
  8
3
100
AcDbLine
 10
5.321118779829154
 20
3.101513232127532
 30
0.0
 11
5.307339252270098
 21
3.123166775434617
 31
0.0
  0
LINE
  5
2ADA
330
1E
100
AcDbEntity
  8
3
100
AcDbLine
 10
5.305370748333091
 20
3.127103783308633
 30
0.0
 11
5.307339252270098
 21
3.123166775434617
 31
0.0
  0
LINE
  5
2ADB
330
1E
100
AcDbEntity
  8
3
100
AcDbLine
 10
5.303402244396083
 20
3.129072287245641
 30
0.0
 11
5.346709331010258
 21
3.03852110614328
 31
0.0
  0
LINE
  5
2ADC
330
1E
100
AcDbEntity
  8
3
100
AcDbLine
 10
5.368362874317343
 20
3.00111953134013
 30
0.0
 11
5.346709331010258
 21
3.03852110614328
 31
0.0
  0
LINE
  5
2AE2
330
1E
100
AcDbEntity
  8
3
100
AcDbLine
 10
5.431355000301595
 20
2.985371499844067
 30
0.0
 11
5.437260512112619
 21
2.973560476222019
 31
0.0
  0
LINE
  5
2AEB
330
1E
100
AcDbEntity
  8
3
100
AcDbLine
 10
5.419543976679548
 20
3.003088035277137
 30
0.0
 11
5.366394370380335
 21
3.028678586458239
 31
0.0
  0
LINE
  5
2AEC
330
1E
100
AcDbEntity
  8
3
100
AcDbLine
 10
5.330961299514193
 20
3.089702208505483
 30
0.0
 11
5.366394370380335
 21
3.028678586458239
 31
0.0
  0
LINE
  5
2B07
330
1E
100
AcDbEntity
  8
3
100
AcDbLine
 10
5.098677834947265
 20
3.479465988033043
 30
0.0
 11
5.098677834947265
 21
3.550332129765326
 31
0.0
  0
LINE
  5
2B08
330
1E
100
AcDbEntity
  8
3
100
AcDbLine
 10
5.17741799242758
 20
3.581828192757452
 30
0.0
 11
5.17741799242758
 21
3.512930554962176
 31
0.0
  0
LINE
  5
2B09
330
1E
100
AcDbEntity
  8
3
100
AcDbLine
 10
4.994347126285846
 20
3.503088035277137
 30
0.0
 11
4.994347126285846
 21
3.430253389607846
 31
0.0
  0
LINE
  5
2B1B
330
1E
100
AcDbEntity
  8
3
100
AcDbLine
 10
5.598677834947265
 20
3.026710082521232
 30
0.0
 11
5.539622716837028
 21
3.064111657324382
 31
0.0
  0
LINE
  5
2B21
330
1E
100
AcDbEntity
  8
3
100
AcDbLine
 10
5.500252638096871
 20
3.129072287245641
 30
0.0
 11
5.539622716837028
 21
3.064111657324382
 31
0.0
  0
LINE
  5
2B32
330
1E
100
AcDbEntity
  8
3
100
AcDbLine
 10
5.498284134159863
 20
3.134977799056665
 30
0.0
 11
5.547496732585059
 21
3.101513232127532
 31
0.0
  0
LINE
  5
2B33
330
1E
100
AcDbEntity
  8
3
100
AcDbLine
 10
5.61245736250632
 20
3.007025043151154
 30
0.0
 11
5.620331378254352
 21
2.991277011655091
 31
0.0
  0
LINE
  5
2B34
330
1E
100
AcDbEntity
  8
3
100
AcDbLine
 10
5.567181771955139
 20
3.083796696694459
 30
0.0
 11
5.547496732585059
 21
3.101513232127532
 31
0.0
  0
LINE
  5
2B35
330
1E
100
AcDbEntity
  8
3
100
AcDbLine
 10
5.204977047545689
 20
3.528678586458239
 30
0.0
 11
5.204977047545689
 21
3.595607720316507
 31
0.0
  0
LINE
  5
2B36
330
1E
100
AcDbEntity
  8
3
100
AcDbLine
 10
4.915606968805532
 20
3.383009295119657
 30
0.0
 11
4.915606968805532
 21
3.459780948662965
 31
0.0
  0
LINE
  5
2B37
330
1E
100
AcDbEntity
  8
3
100
AcDbLine
 10
5.317181771955139
 20
2.991277011655091
 30
0.0
 11
5.321118779829154
 21
2.985371499844067
 31
0.0
  0
LINE
  5
2B3D
330
1E
100
AcDbEntity
  8
3
100
AcDbLine
 10
5.165606968805532
 20
2.904662838426743
 30
0.0
 11
5.169543976679548
 21
2.896788822678711
 31
0.0
  0
LINE
  5
2B70
330
1E
100
AcDbEntity
  8
3
100
AcDbLine
 10
4.915606968805532
 20
1.203875436851941
 30
0.0
 11
4.915606968805532
 21
1.278678586458239
 31
0.0
  0
LINE
  5
2B7A
330
1E
100
AcDbEntity
  8
3
100
AcDbLine
 10
5.165606968805532
 20
1.758993547088161
 30
0.0
 11
5.169543976679548
 21
1.766867562836193
 31
0.0
  0
LINE
  5
2B88
330
1E
100
AcDbEntity
  8
3
100
AcDbLine
 10
5.053402244396083
 20
1.680253389607846
 30
0.0
 11
5.171512480616556
 21
1.597576224253515
 31
0.0
  0
LINE
  5
2B89
330
1E
100
AcDbEntity
  8
3
100
AcDbLine
 10
5.171512480616556
 20
1.597576224253515
 30
0.0
 11
5.303402244396083
 21
1.53655260220627
 31
0.0
  0
LINE
  5
2B8A
330
1E
100
AcDbEntity
  8
3
100
AcDbLine
 10
5.559307756207108
 20
1.331828192757452
 30
0.0
 11
5.56521326801813
 21
1.331828192757452
 31
0.0
  0
LINE
  5
2B90
330
1E
100
AcDbEntity
  8
3
100
AcDbLine
 10
6.480567598726793
 20
2.798363625828319
 30
0.0
 11
6.478599094789784
 21
2.804269137639343
 31
0.0
  0
LINE
  5
2B96
330
1E
100
AcDbEntity
  8
3
100
AcDbLine
 10
4.750252638096871
 20
2.863324255749578
 30
0.0
 11
4.748284134159863
 21
2.859387247875563
 31
0.0
  0
LINE
  5
2BA1
330
1E
100
AcDbEntity
  8
3
100
AcDbLine
 10
6.480567598726793
 20
1.863324255749578
 30
0.0
 11
6.478599094789784
 21
1.859387247875563
 31
0.0
  0
LINE
  5
2BA2
330
1E
100
AcDbEntity
  8
3
100
AcDbLine
 10
6.478599094789784
 20
2.804269137639343
 30
0.0
 11
6.460882559356713
 21
2.829859688820445
 31
0.0
  0
LINE
  5
2BA3
330
1E
100
AcDbEntity
  8
3
100
AcDbLine
 10
6.474662086915769
 20
2.796395121891311
 30
0.0
 11
6.460882559356713
 21
2.829859688820445
 31
0.0
  0
LINE
  5
2BA4
330
1E
100
AcDbEntity
  8
3
100
AcDbLine
 10
6.474662086915769
 20
2.796395121891311
 30
0.0
 11
6.480567598726793
 21
2.798363625828319
 31
0.0
  0
LINE
  5
2BA5
330
1E
100
AcDbEntity
  8
3
100
AcDbLine
 10
6.474662086915769
 20
1.867261263623595
 30
0.0
 11
6.460882559356713
 21
1.833796696694459
 31
0.0
  0
LINE
  5
2BA6
330
1E
100
AcDbEntity
  8
3
100
AcDbLine
 10
6.478599094789784
 20
1.859387247875563
 30
0.0
 11
6.460882559356713
 21
1.833796696694459
 31
0.0
  0
LINE
  5
2BA7
330
1E
100
AcDbEntity
  8
3
100
AcDbLine
 10
6.474662086915769
 20
1.867261263623595
 30
0.0
 11
6.480567598726793
 21
1.863324255749578
 31
0.0
  0
LINE
  5
2BA8
330
1E
100
AcDbEntity
  8
3
100
AcDbLine
 10
5.596709331010256
 20
1.333796696694459
 30
0.0
 11
5.628205394002383
 21
1.331828192757452
 31
0.0
  0
LINE
  5
2BAE
330
1E
100
AcDbEntity
  8
3
100
AcDbLine
 10
4.750252638096871
 20
1.800332129765326
 30
0.0
 11
4.748284134159863
 21
1.804269137639343
 31
0.0
  0
LINE
  5
2BAF
330
1E
100
AcDbEntity
  8
3
100
AcDbLine
 10
4.756158149907895
 20
1.802300633702333
 30
0.0
 11
4.734504606600808
 21
1.833796696694459
 31
0.0
  0
LINE
  5
2BB0
330
1E
100
AcDbEntity
  8
3
100
AcDbLine
 10
4.748284134159863
 20
1.804269137639343
 30
0.0
 11
4.734504606600808
 21
1.833796696694459
 31
0.0
  0
LINE
  5
2BB1
330
1E
100
AcDbEntity
  8
3
100
AcDbLine
 10
4.756158149907895
 20
1.802300633702333
 30
0.0
 11
4.750252638096871
 21
1.800332129765326
 31
0.0
  0
LINE
  5
2BB2
330
1E
100
AcDbEntity
  8
3
100
AcDbLine
 10
4.734504606600808
 20
2.829859688820445
 30
0.0
 11
4.71481956723073
 21
2.804269137639343
 31
0.0
  0
LINE
  5
2BB3
330
1E
100
AcDbEntity
  8
3
100
AcDbLine
 10
5.559307756207108
 20
3.32395417700942
 30
0.0
 11
5.596709331010256
 21
3.327891184883437
 31
0.0
  0
LINE
  5
2BB4
330
1E
100
AcDbEntity
  8
3
100
AcDbLine
 10
5.56521326801813
 20
3.331828192757452
 30
0.0
 11
5.596709331010256
 21
3.327891184883437
 31
0.0
  0
LINE
  5
2BB5
330
1E
100
AcDbEntity
  8
3
100
AcDbLine
 10
5.559307756207108
 20
3.331828192757452
 30
0.0
 11
5.56521326801813
 21
3.331828192757452
 31
0.0
  0
LINE
  5
2BB6
330
1E
100
AcDbEntity
  8
3
100
AcDbLine
 10
5.559307756207108
 20
3.32395417700942
 30
0.0
 11
5.559307756207108
 21
3.331828192757452
 31
0.0
  0
LINE
  5
2BC4
330
1E
100
AcDbEntity
  8
3
100
AcDbLine
 10
5.366394370380335
 20
1.101513232127532
 30
0.0
 11
5.417575472742541
 21
1.099544728190522
 31
0.0
  0
LINE
  5
2BCD
330
1E
100
AcDbEntity
  8
3
100
AcDbLine
 10
5.545528228648052
 20
1.333796696694459
 30
0.0
 11
5.545528228648052
 21
1.249151027403122
 31
0.0
  0
LINE
  5
2BCE
330
1E
100
AcDbEntity
  8
3
100
AcDbLine
 10
5.559307756207108
 20
1.339702208505483
 30
0.0
 11
5.559307756207108
 21
1.331828192757452
 31
0.0
  0
LINE
  5
2BFB
330
1E
100
AcDbEntity
  8
3
100
AcDbLine
 10
6.488441614474824
 20
2.78655260220627
 30
0.0
 11
6.561276260144115
 21
2.827891184883437
 31
0.0
  0
LINE
  5
2C28
330
1E
100
AcDbEntity
  8
3
100
AcDbLine
 10
4.758126653844902
 20
2.875135279371626
 30
0.0
 11
4.685292008175611
 21
2.918442365985798
 31
0.0
  0
LINE
  5
2C29
330
1E
100
AcDbEntity
  8
3
100
AcDbLine
 10
4.756158149907895
 20
2.859387247875563
 30
0.0
 11
4.750252638096871
 21
2.863324255749578
 31
0.0
  0
LINE
  5
2CBB
330
1E
100
AcDbEntity
  8
3
100
AcDbLine
 10
5.372299882191359
 20
2.304269137639343
 30
0.0
 11
4.970725079041752
 21
2.304269137639343
 31
0.0
  0
LINE
  5
2CBC
330
1E
100
AcDbEntity
  8
3
100
AcDbLine
 10
4.970725079041752
 20
2.359387247875563
 30
0.0
 11
4.970725079041752
 21
2.304269137639343
 31
0.0
  0
LINE
  5
2CBD
330
1E
100
AcDbEntity
  8
3
100
AcDbLine
 10
4.970725079041752
 20
2.359387247875563
 30
0.0
 11
5.372299882191359
 21
2.359387247875563
 31
0.0
  0
LINE
  5
2CC7
330
1E
100
AcDbEntity
  8
3
100
AcDbLine
 10
5.685292008175611
 20
2.540489610080287
 30
0.0
 11
5.886079409750415
 21
2.88891480693068
 31
0.0
  0
LINE
  5
2CC8
330
1E
100
AcDbEntity
  8
3
100
AcDbLine
 10
5.933323504238604
 20
2.86135575181257
 30
0.0
 11
5.886079409750415
 21
2.88891480693068
 31
0.0
  0
LINE
  5
2CC9
330
1E
100
AcDbEntity
  8
3
100
AcDbLine
 10
5.933323504238604
 20
2.86135575181257
 30
0.0
 11
5.7325361026638
 21
2.512930554962176
 31
0.0
  0
LINE
  5
2CD3
330
1E
100
AcDbEntity
  8
3
100
AcDbLine
 10
5.7325361026638
 20
2.150725830552728
 30
0.0
 11
5.933323504238604
 21
1.802300633702333
 31
0.0
  0
LINE
  5
2CD4
330
1E
100
AcDbEntity
  8
3
100
AcDbLine
 10
5.886079409750415
 20
1.774741578584224
 30
0.0
 11
5.933323504238604
 21
1.802300633702333
 31
0.0
  0
LINE
  5
2CD5
330
1E
100
AcDbEntity
  8
3
100
AcDbLine
 10
5.886079409750415
 20
1.774741578584224
 30
0.0
 11
5.685292008175611
 21
2.123166775434617
 31
0.0
  0
LINE
  5
2CD6
330
1E
100
AcDbEntity
  8
3
100
AcDbLine
 10
5.372299882191359
 20
2.304269137639343
 30
0.0
 11
5.39001641762443
 21
2.237340003781074
 31
0.0
  0
LINE
  5
2CDF
330
1E
100
AcDbEntity
  8
3
100
AcDbLine
 10
5.632142401876398
 20
1.581828192757452
 30
0.0
 11
5.673480984553563
 21
1.654662838426743
 31
0.0
  0
LINE
  5
2CEA
330
1E
100
AcDbEntity
  8
3
100
AcDbLine
 10
4.931355000301595
 20
1.987340003781074
 30
0.0
 11
4.972693582978761
 21
2.060174649450365
 31
0.0
  0
LINE
  5
2CF0
330
1E
100
AcDbEntity
  8
3
100
AcDbLine
 10
5.033717205026004
 20
2.105450240001546
 30
0.0
 11
5.145921929435454
 21
2.136946302993672
 31
0.0
  0
LINE
  5
2CF7
330
1E
100
AcDbEntity
  8
3
100
AcDbLine
 10
5.374268386128367
 20
2.107418743938554
 30
0.0
 11
5.514032165655926
 21
2.026710082521232
 31
0.0
  0
LINE
  5
2CFE
330
1E
100
AcDbEntity
  8
3
100
AcDbLine
 10
5.683323504238604
 20
1.73143449197005
 30
0.0
 11
5.653795945183485
 21
1.8436392163795
 31
0.0
  0
LINE
  5
2D04
330
1E
100
AcDbEntity
  8
3
100
AcDbLine
 10
6.228599094789784
 20
2.737340003781074
 30
0.0
 11
6.143953425498446
 21
2.737340003781074
 31
0.0
  0
LINE
  5
2D0F
330
1E
100
AcDbEntity
  8
3
100
AcDbLine
 10
6.228599094789784
 20
1.92631638173383
 30
0.0
 11
6.143953425498446
 21
1.92631638173383
 31
0.0
  0
LINE
  5
2D15
330
1E
100
AcDbEntity
  8
3
100
AcDbLine
 10
6.073087283766161
 20
1.955843940788948
 30
0.0
 11
5.990410118411832
 21
2.03852110614328
 31
0.0
  0
LINE
  5
2D16
330
1E
100
AcDbEntity
  8
3
100
AcDbLine
 10
5.903795945183485
 20
2.25111953134013
 30
0.0
 11
5.913638464868524
 21
2.174347877796822
 31
0.0
  0
LINE
  5
2D1C
330
1E
100
AcDbEntity
  8
3
100
AcDbLine
 10
5.903795945183485
 20
2.25111953134013
 30
0.0
 11
5.903795945183485
 21
2.412536854174774
 31
0.0
  0
LINE
  5
2D23
330
1E
100
AcDbEntity
  8
3
100
AcDbLine
 10
6.073087283766161
 20
2.707812444725956
 30
0.0
 11
5.990410118411832
 21
2.625135279371626
 31
0.0
  0
LINE
  5
2D29
330
1E
100
AcDbEntity
  8
3
100
AcDbLine
 10
4.931355000301595
 20
2.67631638173383
 30
0.0
 11
4.972693582978761
 21
2.603481736064539
 31
0.0
  0
LINE
  5
2D2A
330
1E
100
AcDbEntity
  8
3
100
AcDbLine
 10
4.96481956723073
 20
2.73143449197005
 30
0.0
 11
4.947103031797658
 21
2.703875436851941
 31
0.0
  0
LINE
  5
2D2B
330
1E
100
AcDbEntity
  8
3
100
AcDbLine
 10
4.947103031797658
 20
2.703875436851941
 30
0.0
 11
4.931355000301595
 21
2.674347877796822
 31
0.0
  0
LINE
  5
2D31
330
1E
100
AcDbEntity
  8
3
100
AcDbLine
 10
5.632142401876398
 20
3.079859688820445
 30
0.0
 11
5.673480984553563
 21
3.008993547088161
 31
0.0
  0
LINE
  5
2D37
330
1E
100
AcDbEntity
  8
3
100
AcDbLine
 10
5.683323504238604
 20
2.932221893544854
 30
0.0
 11
5.653795945183485
 21
2.820017169135406
 31
0.0
  0
LINE
  5
2D3E
330
1E
100
AcDbEntity
  8
3
100
AcDbLine
 10
5.514032165655926
 20
2.636946302993672
 30
0.0
 11
5.374268386128367
 21
2.55623764157635
 31
0.0
  0
LINE
  5
2D45
330
1E
100
AcDbEntity
  8
3
100
AcDbLine
 10
5.033717205026004
 20
2.55623764157635
 30
0.0
 11
5.145921929435454
 21
2.526710082521232
 31
0.0
  0
LINE
  5
2D82
330
1E
100
AcDbEntity
  8
3
100
AcDbLine
 10
5.372299882191359
 20
2.304269137639343
 30
0.0
 11
5.378205394002383
 21
2.310174649450365
 31
0.0
  0
LINE
  5
2D83
330
1E
100
AcDbEntity
  8
3
100
AcDbLine
 10
5.689229016049626
 20
2.131040791182648
 30
0.0
 11
5.685292008175611
 21
2.123166775434617
 31
0.0
  0
LINE
  5
2D89
330
1E
100
AcDbEntity
  8
3
100
AcDbLine
 10
5.724662086915769
 20
2.510962051025169
 30
0.0
 11
5.7325361026638
 21
2.512930554962176
 31
0.0
  0
LINE
  5
2D8F
330
1E
100
AcDbEntity
  8
3
100
AcDbLine
 10
5.685292008175611
 20
2.540489610080287
 30
0.0
 11
5.689229016049626
 21
2.530647090395248
 31
0.0
  0
LINE
  5
2D90
330
1E
100
AcDbEntity
  8
3
100
AcDbLine
 10
5.378205394002383
 20
2.351513232127532
 30
0.0
 11
5.372299882191359
 21
2.359387247875563
 31
0.0
  0
LINE
  5
2D96
330
1E
100
AcDbEntity
  8
3
100
AcDbLine
 10
5.693166023923643
 20
2.53852110614328
 30
0.0
 11
5.689229016049626
 21
2.530647090395248
 31
0.0
  0
LINE
  5
2D97
330
1E
100
AcDbEntity
  8
3
100
AcDbLine
 10
5.886079409750415
 20
2.88891480693068
 30
0.0
 11
5.693166023923643
 21
2.53852110614328
 31
0.0
  0
LINE
  5
2D98
330
1E
100
AcDbEntity
  8
3
100
AcDbLine
 10
5.728599094789784
 20
2.5188360667732
 30
0.0
 11
5.693166023923643
 21
2.53852110614328
 31
0.0
  0
LINE
  5
2D99
330
1E
100
AcDbEntity
  8
3
100
AcDbLine
 10
5.728599094789784
 20
2.5188360667732
 30
0.0
 11
5.933323504238604
 21
2.86135575181257
 31
0.0
  0
LINE
  5
2D9A
330
1E
100
AcDbEntity
  8
3
100
AcDbLine
 10
5.724662086915769
 20
2.510962051025169
 30
0.0
 11
5.728599094789784
 21
2.5188360667732
 31
0.0
  0
LINE
  5
2D9B
330
1E
100
AcDbEntity
  8
3
100
AcDbLine
 10
5.728599094789784
 20
2.144820318741704
 30
0.0
 11
5.724662086915769
 21
2.152694334489735
 31
0.0
  0
LINE
  5
2D9C
330
1E
100
AcDbEntity
  8
3
100
AcDbLine
 10
5.933323504238604
 20
1.802300633702333
 30
0.0
 11
5.728599094789784
 21
2.144820318741704
 31
0.0
  0
LINE
  5
2D9D
330
1E
100
AcDbEntity
  8
3
100
AcDbLine
 10
5.693166023923643
 20
2.125135279371626
 30
0.0
 11
5.728599094789784
 21
2.144820318741704
 31
0.0
  0
LINE
  5
2D9E
330
1E
100
AcDbEntity
  8
3
100
AcDbLine
 10
5.693166023923643
 20
2.125135279371626
 30
0.0
 11
5.886079409750415
 21
1.774741578584224
 31
0.0
  0
LINE
  5
2D9F
330
1E
100
AcDbEntity
  8
3
100
AcDbLine
 10
5.689229016049626
 20
2.131040791182648
 30
0.0
 11
5.693166023923643
 21
2.125135279371626
 31
0.0
  0
LINE
  5
2DA0
330
1E
100
AcDbEntity
  8
3
100
AcDbLine
 10
5.370331378254352
 20
2.310174649450365
 30
0.0
 11
5.378205394002383
 21
2.310174649450365
 31
0.0
  0
LINE
  5
2DA1
330
1E
100
AcDbEntity
  8
3
100
AcDbLine
 10
4.970725079041752
 20
2.304269137639343
 30
0.0
 11
5.370331378254352
 21
2.310174649450365
 31
0.0
  0
LINE
  5
2DA2
330
1E
100
AcDbEntity
  8
3
100
AcDbLine
 10
5.370331378254352
 20
2.351513232127532
 30
0.0
 11
5.370331378254352
 21
2.310174649450365
 31
0.0
  0
LINE
  5
2DA3
330
1E
100
AcDbEntity
  8
3
100
AcDbLine
 10
5.370331378254352
 20
2.351513232127532
 30
0.0
 11
4.970725079041752
 21
2.359387247875563
 31
0.0
  0
LINE
  5
2DA4
330
1E
100
AcDbEntity
  8
3
100
AcDbLine
 10
5.378205394002383
 20
2.351513232127532
 30
0.0
 11
5.370331378254352
 21
2.351513232127532
 31
0.0
  0
LINE
  5
2DA5
330
1E
100
AcDbEntity
  8
3
100
AcDbLine
 10
6.460882559356713
 20
2.829859688820445
 30
0.0
 11
6.447103031797658
 21
2.859387247875563
 31
0.0
  0
LINE
  5
2DAB
330
1E
100
AcDbEntity
  8
3
100
AcDbLine
 10
6.439229016049626
 20
2.871198271497609
 30
0.0
 11
6.360488858569311
 21
2.977497484096035
 31
0.0
  0
LINE
  5
2DB8
330
1E
100
AcDbEntity
  8
3
100
AcDbLine
 10
5.596709331010256
 20
3.327891184883437
 30
0.0
 11
5.628205394002383
 21
3.331828192757452
 31
0.0
  0
LINE
  5
2DB9
330
1E
100
AcDbEntity
  8
3
100
AcDbLine
 10
4.748284134159863
 20
2.859387247875563
 30
0.0
 11
4.734504606600808
 21
2.829859688820445
 31
0.0
  0
LINE
  5
2DBA
330
1E
100
AcDbEntity
  8
3
100
AcDbLine
 10
4.756158149907895
 20
2.859387247875563
 30
0.0
 11
4.734504606600808
 21
2.829859688820445
 31
0.0
  0
LINE
  5
2DCF
330
1E
100
AcDbEntity
  8
3
100
AcDbLine
 10
4.734504606600808
 20
1.833796696694459
 30
0.0
 11
4.71481956723073
 21
1.859387247875563
 31
0.0
  0
LINE
  5
2DD0
330
1E
100
AcDbEntity
  8
3
100
AcDbLine
 10
5.56521326801813
 20
1.331828192757452
 30
0.0
 11
5.596709331010256
 21
1.333796696694459
 31
0.0
  0
LINE
  5
2DD1
330
1E
100
AcDbEntity
  8
3
100
AcDbLine
 10
5.559307756207108
 20
1.339702208505483
 30
0.0
 11
5.596709331010256
 21
1.333796696694459
 31
0.0
  0
LINE
  5
2DE6
330
1E
100
AcDbEntity
  8
3
100
AcDbLine
 10
6.460882559356713
 20
1.833796696694459
 30
0.0
 11
6.447103031797658
 21
1.804269137639343
 31
0.0
  0
LINE
  5
2DE7
330
1E
100
AcDbEntity
  8
3
100
AcDbLine
 10
4.685292008175611
 20
2.918442365985798
 30
0.0
 11
4.681355000301595
 21
2.914505358111783
 31
0.0
  0
LINE
  5
2DE8
330
1E
100
AcDbEntity
  8
3
100
AcDbLine
 10
4.756158149907895
 20
2.871198271497609
 30
0.0
 11
4.681355000301595
 21
2.914505358111783
 31
0.0
  0
LINE
  5
2DE9
330
1E
100
AcDbEntity
  8
3
100
AcDbLine
 10
5.366394370380335
 20
3.562143153387374
 30
0.0
 11
5.372299882191359
 21
3.562143153387374
 31
0.0
  0
LINE
  5
2DEA
330
1E
100
AcDbEntity
  8
3
100
AcDbLine
 10
4.641984921561437
 20
3.140883310867689
 30
0.0
 11
4.645921929435454
 21
3.146788822678711
 31
0.0
  0
LINE
  5
2DEB
330
1E
100
AcDbEntity
  8
3
100
AcDbLine
 10
5.549465236522067
 20
3.416473862048791
 30
0.0
 11
5.549465236522067
 21
3.329859688820445
 31
0.0
  0
LINE
  5
2DEC
330
1E
100
AcDbEntity
  8
3
100
AcDbLine
 10
5.549465236522067
 20
3.416473862048791
 30
0.0
 11
5.545528228648052
 21
3.414505358111783
 31
0.0
  0
LINE
  5
2DF3
330
1E
100
AcDbEntity
  8
3
100
AcDbLine
 10
4.681355000301595
 20
2.914505358111783
 30
0.0
 11
4.67741799242758
 21
2.918442365985798
 31
0.0
  0
LINE
  5
2DF4
330
1E
100
AcDbEntity
  8
3
100
AcDbLine
 10
6.561276260144115
 20
2.827891184883437
 30
0.0
 11
6.559307756207108
 21
2.833796696694459
 31
0.0
  0
LINE
  5
2DF5
330
1E
100
AcDbEntity
  8
3
100
AcDbLine
 10
6.486473110537815
 20
2.790489610080287
 30
0.0
 11
6.559307756207108
 21
2.833796696694459
 31
0.0
  0
LINE
  5
2DF6
330
1E
100
AcDbEntity
  8
3
100
AcDbLine
 10
6.777811693214982
 20
1.916473862048791
 30
0.0
 11
6.775843189277972
 21
1.910568350237767
 31
0.0
  0
LINE
  5
2DF7
330
1E
100
AcDbEntity
  8
3
100
AcDbLine
 10
6.775843189277972
 20
2.753088035277137
 30
0.0
 11
6.777811693214982
 21
2.747182523466113
 31
0.0
  0
LINE
  5
2DF8
330
1E
100
AcDbEntity
  8
3
100
AcDbLine
 10
6.559307756207108
 20
1.829859688820445
 30
0.0
 11
6.486473110537815
 21
1.873166775434617
 31
0.0
  0
LINE
  5
2DF9
330
1E
100
AcDbEntity
  8
3
100
AcDbLine
 10
6.559307756207108
 20
1.829859688820445
 30
0.0
 11
6.561276260144115
 21
1.835765200631469
 31
0.0
  0
LINE
  5
2E00
330
1E
100
AcDbEntity
  8
3
100
AcDbLine
 10
6.559307756207108
 20
2.833796696694459
 30
0.0
 11
6.563244764081122
 21
2.835765200631469
 31
0.0
  0
LINE
  5
2E01
330
1E
100
AcDbEntity
  8
3
100
AcDbLine
 10
5.545528228648052
 20
1.249151027403122
 30
0.0
 11
5.549465236522067
 21
1.247182523466113
 31
0.0
  0
LINE
  5
2E02
330
1E
100
AcDbEntity
  8
3
100
AcDbLine
 10
5.549465236522067
 20
1.331828192757452
 30
0.0
 11
5.549465236522067
 21
1.247182523466113
 31
0.0
  0
LINE
  5
2E03
330
1E
100
AcDbEntity
  8
3
100
AcDbLine
 10
5.372299882191359
 20
1.099544728190522
 30
0.0
 11
5.366394370380335
 21
1.101513232127532
 31
0.0
  0
LINE
  5
2E04
330
1E
100
AcDbEntity
  8
3
100
AcDbLine
 10
4.645921929435454
 20
1.516867562836193
 30
0.0
 11
4.641984921561437
 21
1.520804570710208
 31
0.0
  0
LINE
  5
2E05
330
1E
100
AcDbEntity
  8
3
100
AcDbLine
 10
4.681355000301595
 20
1.749151027403122
 30
0.0
 11
4.756158149907895
 21
1.792458114017295
 31
0.0
  0
LINE
  5
2E06
330
1E
100
AcDbEntity
  8
3
100
AcDbLine
 10
4.681355000301595
 20
1.749151027403122
 30
0.0
 11
4.685292008175611
 21
1.745214019529106
 31
0.0
  0
LINE
  5
2E07
330
1E
100
AcDbEntity
  8
3
100
AcDbLine
 10
5.549465236522067
 20
1.247182523466113
 30
0.0
 11
5.549465236522067
 21
1.243245515592098
 31
0.0
  0
LINE
  5
2E19
330
1E
100
AcDbEntity
  8
3
100
AcDbLine
 10
5.939229016049626
 20
3.270804570710208
 30
0.0
 11
5.966788071167737
 21
3.345607720316507
 31
0.0
  0
LINE
  5
2E1A
330
1E
100
AcDbEntity
  8
3
100
AcDbLine
 10
4.645921929435454
 20
2.825922680946428
 30
0.0
 11
4.708914055419706
 21
2.790489610080287
 31
0.0
  0
LINE
  5
2E3A
330
1E
100
AcDbEntity
  8
3
100
AcDbLine
 10
5.643953425498446
 20
1.260962051025169
 30
0.0
 11
5.643953425498446
 21
1.331828192757452
 31
0.0
  0
LINE
  5
2E3B
330
1E
100
AcDbEntity
  8
3
100
AcDbLine
 10
5.643953425498446
 20
1.260962051025169
 30
0.0
 11
5.651827441246478
 21
1.209780948662965
 31
0.0
  0
LINE
  5
2E57
330
1E
100
AcDbEntity
  8
3
100
AcDbLine
 10
6.502221142033878
 20
2.908599846300759
 30
0.0
 11
6.439229016049626
 21
2.871198271497609
 31
0.0
  0
LINE
  5
2E58
330
1E
100
AcDbEntity
  8
3
100
AcDbLine
 10
6.502221142033878
 20
2.908599846300759
 30
0.0
 11
6.539622716837028
 21
2.940095909292885
 31
0.0
  0
LINE
  5
3BE1
330
1E
100
AcDbEntity
  8
3
100
AcDbLine
 10
6.539622716837028
 20
3.134977799056665
 30
0.0
 11
6.431355000301595
 21
3.247182523466113
 31
0.0
  0
LINE
  5
3BE2
330
1E
100
AcDbEntity
  8
3
100
AcDbLine
 10
6.431355000301595
 20
3.247182523466113
 30
0.0
 11
6.309307756207108
 21
3.3436392163795
 31
0.0
  0
LINE
  5
3BE3
330
1E
100
AcDbEntity
  8
3
100
AcDbLine
 10
6.309307756207108
 20
3.3436392163795
 30
0.0
 11
6.175449488490572
 21
3.42631638173383
 31
0.0
  0
LINE
  5
3BE4
330
1E
100
AcDbEntity
  8
3
100
AcDbLine
 10
6.539622716837028
 20
2.940095909292885
 30
0.0
 11
6.56521326801813
 21
2.983402995907059
 31
0.0
  0
LINE
  5
3BE5
330
1E
100
AcDbEntity
  8
3
100
AcDbLine
 10
6.56521326801813
 20
2.983402995907059
 30
0.0
 11
6.575055787703171
 21
3.032615594332256
 31
0.0
  0
LINE
  5
3BE6
330
1E
100
AcDbEntity
  8
3
100
AcDbLine
 10
6.575055787703171
 20
3.032615594332256
 30
0.0
 11
6.569150275892146
 21
3.081828192757452
 31
0.0
  0
LINE
  5
3BE7
330
1E
100
AcDbEntity
  8
3
100
AcDbLine
 10
6.569150275892146
 20
3.081828192757452
 30
0.0
 11
6.547496732585059
 21
3.127103783308633
 31
0.0
  0
LINE
  5
3BE8
330
1E
100
AcDbEntity
  8
3
100
AcDbLine
 10
6.547496732585059
 20
3.127103783308633
 30
0.0
 11
6.539622716837028
 21
3.134977799056665
 31
0.0
  0
LINE
  5
3BE9
330
1E
100
AcDbEntity
  8
3
100
AcDbLine
 10
6.539622716837028
 20
1.528678586458239
 30
0.0
 11
6.56521326801813
 21
1.571985673072413
 31
0.0
  0
LINE
  5
3BEA
330
1E
100
AcDbEntity
  8
3
100
AcDbLine
 10
6.56521326801813
 20
1.571985673072413
 30
0.0
 11
6.575055787703171
 21
1.621198271497609
 31
0.0
  0
LINE
  5
3BEB
330
1E
100
AcDbEntity
  8
3
100
AcDbLine
 10
6.575055787703171
 20
1.621198271497609
 30
0.0
 11
6.569150275892146
 21
1.670410869922806
 31
0.0
  0
LINE
  5
3BEC
330
1E
100
AcDbEntity
  8
3
100
AcDbLine
 10
6.569150275892146
 20
1.670410869922806
 30
0.0
 11
6.545528228648052
 21
1.715686460473987
 31
0.0
  0
LINE
  5
3BED
330
1E
100
AcDbEntity
  8
3
100
AcDbLine
 10
6.545528228648052
 20
1.715686460473987
 30
0.0
 11
6.510095157781909
 21
1.75111953134013
 31
0.0
  0
LINE
  5
3BEE
330
1E
100
AcDbEntity
  8
3
100
AcDbLine
 10
6.510095157781909
 20
1.75111953134013
 30
0.0
 11
6.502221142033878
 21
1.755056539214145
 31
0.0
  0
LINE
  5
3BEF
330
1E
100
AcDbEntity
  8
3
100
AcDbLine
 10
6.502221142033878
 20
1.755056539214145
 30
0.0
 11
6.439229016049626
 21
1.792458114017295
 31
0.0
  0
LINE
  5
3BF0
330
1E
100
AcDbEntity
  8
3
100
AcDbLine
 10
5.821118779829154
 20
1.113324255749578
 30
0.0
 11
5.956945551482698
 21
1.146788822678711
 31
0.0
  0
LINE
  5
3BF1
330
1E
100
AcDbEntity
  8
3
100
AcDbLine
 10
5.956945551482698
 20
1.146788822678711
 30
0.0
 11
6.090803819199233
 21
1.196001421103909
 31
0.0
  0
LINE
  5
3BF2
330
1E
100
AcDbEntity
  8
3
100
AcDbLine
 10
6.090803819199233
 20
1.196001421103909
 30
0.0
 11
6.21481956723073
 21
1.258993547088161
 31
0.0
  0
LINE
  5
3BF3
330
1E
100
AcDbEntity
  8
3
100
AcDbLine
 10
6.21481956723073
 20
1.258993547088161
 30
0.0
 11
6.332929803451202
 21
1.337733704568476
 31
0.0
  0
LINE
  5
3BF4
330
1E
100
AcDbEntity
  8
3
100
AcDbLine
 10
6.332929803451202
 20
1.337733704568476
 30
0.0
 11
6.441197519986635
 21
1.42631638173383
 31
0.0
  0
LINE
  5
3BF5
330
1E
100
AcDbEntity
  8
3
100
AcDbLine
 10
6.441197519986635
 20
1.42631638173383
 30
0.0
 11
6.539622716837028
 21
1.528678586458239
 31
0.0
  0
LINE
  5
3BF6
330
1E
100
AcDbEntity
  8
3
100
AcDbLine
 10
5.651827441246478
 20
1.209780948662965
 30
0.0
 11
5.67741799242758
 21
1.166473862048791
 31
0.0
  0
LINE
  5
3BF7
330
1E
100
AcDbEntity
  8
3
100
AcDbLine
 10
5.67741799242758
 20
1.166473862048791
 30
0.0
 11
5.71481956723073
 21
1.133009295119657
 31
0.0
  0
LINE
  5
3BF8
330
1E
100
AcDbEntity
  8
3
100
AcDbLine
 10
5.71481956723073
 20
1.133009295119657
 30
0.0
 11
5.760095157781909
 21
1.113324255749578
 31
0.0
  0
LINE
  5
3BF9
330
1E
100
AcDbEntity
  8
3
100
AcDbLine
 10
5.760095157781909
 20
1.113324255749578
 30
0.0
 11
5.811276260144115
 21
1.11135575181257
 31
0.0
  0
LINE
  5
3BFA
330
1E
100
AcDbEntity
  8
3
100
AcDbLine
 10
5.811276260144115
 20
1.11135575181257
 30
0.0
 11
5.821118779829154
 21
1.113324255749578
 31
0.0
  0
LINE
  5
3BFB
330
1E
100
AcDbEntity
  8
3
100
AcDbLine
 10
4.429386496364587
 20
1.916473862048791
 30
0.0
 11
4.454977047545689
 21
1.873166775434617
 31
0.0
  0
LINE
  5
3BFC
330
1E
100
AcDbEntity
  8
3
100
AcDbLine
 10
4.454977047545689
 20
1.873166775434617
 30
0.0
 11
4.492378622348839
 21
1.839702208505483
 31
0.0
  0
LINE
  5
3BFD
330
1E
100
AcDbEntity
  8
3
100
AcDbLine
 10
4.492378622348839
 20
1.839702208505483
 30
0.0
 11
4.539622716837028
 21
1.820017169135406
 31
0.0
  0
LINE
  5
3BFE
330
1E
100
AcDbEntity
  8
3
100
AcDbLine
 10
4.539622716837028
 20
1.820017169135406
 30
0.0
 11
4.588835315262226
 21
1.818048665198396
 31
0.0
  0
LINE
  5
3BFF
330
1E
100
AcDbEntity
  8
3
100
AcDbLine
 10
4.588835315262226
 20
1.818048665198396
 30
0.0
 11
4.638047913687422
 21
1.831828192757452
 31
0.0
  0
LINE
  5
3C00
330
1E
100
AcDbEntity
  8
3
100
AcDbLine
 10
4.638047913687422
 20
1.831828192757452
 30
0.0
 11
4.645921929435454
 21
1.835765200631469
 31
0.0
  0
LINE
  5
3C01
330
1E
100
AcDbEntity
  8
3
100
AcDbLine
 10
4.645921929435454
 20
1.835765200631469
 30
0.0
 11
4.708914055419706
 21
1.873166775434617
 31
0.0
  0
LINE
  5
3C02
330
1E
100
AcDbEntity
  8
3
100
AcDbLine
 10
4.429386496364587
 20
2.747182523466113
 30
0.0
 11
4.39001641762443
 21
2.61135575181257
 31
0.0
  0
LINE
  5
3C03
330
1E
100
AcDbEntity
  8
3
100
AcDbLine
 10
4.39001641762443
 20
2.61135575181257
 30
0.0
 11
4.366394370380335
 21
2.471591972285011
 31
0.0
  0
LINE
  5
3C04
330
1E
100
AcDbEntity
  8
3
100
AcDbLine
 10
4.366394370380335
 20
2.471591972285011
 30
0.0
 11
4.358520354632304
 21
2.331828192757452
 31
0.0
  0
LINE
  5
3C05
330
1E
100
AcDbEntity
  8
3
100
AcDbLine
 10
4.358520354632304
 20
2.331828192757452
 30
0.0
 11
4.366394370380335
 21
2.192064413229893
 31
0.0
  0
LINE
  5
3C06
330
1E
100
AcDbEntity
  8
3
100
AcDbLine
 10
4.366394370380335
 20
2.192064413229893
 30
0.0
 11
4.39001641762443
 21
2.052300633702333
 31
0.0
  0
LINE
  5
3C07
330
1E
100
AcDbEntity
  8
3
100
AcDbLine
 10
4.39001641762443
 20
2.052300633702333
 30
0.0
 11
4.429386496364587
 21
1.916473862048791
 31
0.0
  0
LINE
  5
3C08
330
1E
100
AcDbEntity
  8
3
100
AcDbLine
 10
4.500252638096871
 20
2.829859688820445
 30
0.0
 11
4.460882559356713
 21
2.798363625828319
 31
0.0
  0
LINE
  5
3C09
330
1E
100
AcDbEntity
  8
3
100
AcDbLine
 10
4.460882559356713
 20
2.798363625828319
 30
0.0
 11
4.433323504238604
 21
2.757025043151154
 31
0.0
  0
LINE
  5
3C0A
330
1E
100
AcDbEntity
  8
3
100
AcDbLine
 10
4.433323504238604
 20
2.757025043151154
 30
0.0
 11
4.429386496364587
 21
2.747182523466113
 31
0.0
  0
LINE
  5
3C0B
330
1E
100
AcDbEntity
  8
3
100
AcDbLine
 10
4.645921929435454
 20
2.825922680946428
 30
0.0
 11
4.598677834947265
 21
2.8436392163795
 31
0.0
  0
LINE
  5
3C0C
330
1E
100
AcDbEntity
  8
3
100
AcDbLine
 10
4.598677834947265
 20
2.8436392163795
 30
0.0
 11
4.547496732585059
 21
2.845607720316507
 31
0.0
  0
LINE
  5
3C0D
330
1E
100
AcDbEntity
  8
3
100
AcDbLine
 10
4.547496732585059
 20
2.845607720316507
 30
0.0
 11
4.500252638096871
 21
2.829859688820445
 31
0.0
  0
LINE
  5
3C0E
330
1E
100
AcDbEntity
  8
3
100
AcDbLine
 10
6.078992795577185
 20
3.442064413229893
 30
0.0
 11
6.031748701088996
 21
3.424347877796822
 31
0.0
  0
LINE
  5
3C0F
330
1E
100
AcDbEntity
  8
3
100
AcDbLine
 10
6.031748701088996
 20
3.424347877796822
 30
0.0
 11
5.992378622348839
 21
3.390883310867689
 31
0.0
  0
LINE
  5
3C10
330
1E
100
AcDbEntity
  8
3
100
AcDbLine
 10
5.992378622348839
 20
3.390883310867689
 30
0.0
 11
5.966788071167737
 21
3.345607720316507
 31
0.0
  0
LINE
  5
3C11
330
1E
100
AcDbEntity
  8
3
100
AcDbLine
 10
6.17741799242758
 20
3.42631638173383
 30
0.0
 11
6.130173897939391
 21
3.442064413229893
 31
0.0
  0
LINE
  5
3C12
330
1E
100
AcDbEntity
  8
3
100
AcDbLine
 10
6.130173897939391
 20
3.442064413229893
 30
0.0
 11
6.078992795577185
 21
3.442064413229893
 31
0.0
  0
LINE
  5
3C13
330
1E
100
AcDbEntity
  8
3
100
AcDbLine
 10
4.618362874317343
 20
1.674347877796822
 30
0.0
 11
4.638047913687422
 21
1.709780948662965
 31
0.0
  0
LINE
  5
3C14
330
1E
100
AcDbEntity
  8
3
100
AcDbLine
 10
4.638047913687422
 20
1.709780948662965
 30
0.0
 11
4.673480984553563
 21
1.743245515592098
 31
0.0
  0
LINE
  5
3C15
330
1E
100
AcDbEntity
  8
3
100
AcDbLine
 10
4.673480984553563
 20
1.743245515592098
 30
0.0
 11
4.681355000301595
 21
1.749151027403122
 31
0.0
  0
LINE
  5
3C16
330
1E
100
AcDbEntity
  8
3
100
AcDbLine
 10
6.655764449120493
 20
1.812143153387374
 30
0.0
 11
6.616394370380335
 21
1.812143153387374
 31
0.0
  0
LINE
  5
3C17
330
1E
100
AcDbEntity
  8
3
100
AcDbLine
 10
6.616394370380335
 20
1.812143153387374
 30
0.0
 11
6.567181771955139
 21
1.825922680946428
 31
0.0
  0
LINE
  5
3C18
330
1E
100
AcDbEntity
  8
3
100
AcDbLine
 10
6.567181771955139
 20
1.825922680946428
 30
0.0
 11
6.559307756207108
 21
1.829859688820445
 31
0.0
  0
LINE
  5
3C19
330
1E
100
AcDbEntity
  8
3
100
AcDbLine
 10
5.516000669592934
 20
3.507025043151154
 30
0.0
 11
5.537654212900021
 21
3.473560476222019
 31
0.0
  0
LINE
  5
3C1A
330
1E
100
AcDbEntity
  8
3
100
AcDbLine
 10
5.537654212900021
 20
3.473560476222019
 30
0.0
 11
5.549465236522067
 21
3.424347877796822
 31
0.0
  0
LINE
  5
3C1B
330
1E
100
AcDbEntity
  8
3
100
AcDbLine
 10
5.549465236522067
 20
3.424347877796822
 30
0.0
 11
5.549465236522067
 21
3.416473862048791
 31
0.0
  0
LINE
  5
3C1C
330
1E
100
AcDbEntity
  8
3
100
AcDbLine
 10
6.439229016049626
 20
1.792458114017295
 30
0.0
 11
6.443166023923643
 21
1.798363625828319
 31
0.0
  0
LINE
  5
3C1D
330
1E
100
AcDbEntity
  8
3
100
AcDbLine
 10
6.443166023923643
 20
1.798363625828319
 30
0.0
 11
6.447103031797658
 21
1.804269137639343
 31
0.0
  0
LINE
  5
3C1E
330
1E
100
AcDbEntity
  8
3
100
AcDbLine
 10
5.643953425498446
 20
1.333796696694459
 30
0.0
 11
5.779780197151989
 21
1.347576224253515
 31
0.0
  0
LINE
  5
3C1F
330
1E
100
AcDbEntity
  8
3
100
AcDbLine
 10
5.779780197151989
 20
1.347576224253515
 30
0.0
 11
5.909701456994509
 21
1.383009295119657
 31
0.0
  0
LINE
  5
3C20
330
1E
100
AcDbEntity
  8
3
100
AcDbLine
 10
5.909701456994509
 20
1.383009295119657
 30
0.0
 11
6.035685708963013
 21
1.434190397481861
 31
0.0
  0
LINE
  5
3C21
330
1E
100
AcDbEntity
  8
3
100
AcDbLine
 10
6.035685708963013
 20
1.434190397481861
 30
0.0
 11
6.153795945183485
 21
1.50111953134013
 31
0.0
  0
LINE
  5
3C22
330
1E
100
AcDbEntity
  8
3
100
AcDbLine
 10
6.153795945183485
 20
1.50111953134013
 30
0.0
 11
6.262063661718919
 21
1.585765200631469
 31
0.0
  0
LINE
  5
3C23
330
1E
100
AcDbEntity
  8
3
100
AcDbLine
 10
6.262063661718919
 20
1.585765200631469
 30
0.0
 11
6.356551850695296
 21
1.682221893544854
 31
0.0
  0
LINE
  5
3C24
330
1E
100
AcDbEntity
  8
3
100
AcDbLine
 10
6.356551850695296
 20
1.682221893544854
 30
0.0
 11
6.439229016049626
 21
1.792458114017295
 31
0.0
  0
LINE
  5
3C25
330
1E
100
AcDbEntity
  8
3
100
AcDbLine
 10
5.628205394002383
 20
1.331828192757452
 30
0.0
 11
5.636079409750415
 21
1.331828192757452
 31
0.0
  0
LINE
  5
3C26
330
1E
100
AcDbEntity
  8
3
100
AcDbLine
 10
5.636079409750415
 20
1.331828192757452
 30
0.0
 11
5.643953425498446
 21
1.333796696694459
 31
0.0
  0
LINE
  5
3C27
330
1E
100
AcDbEntity
  8
3
100
AcDbLine
 10
4.708914055419706
 20
1.873166775434617
 30
0.0
 11
4.710882559356713
 21
1.867261263623595
 31
0.0
  0
LINE
  5
3C28
330
1E
100
AcDbEntity
  8
3
100
AcDbLine
 10
4.710882559356713
 20
1.867261263623595
 30
0.0
 11
4.71481956723073
 21
1.859387247875563
 31
0.0
  0
LINE
  5
3C29
330
1E
100
AcDbEntity
  8
3
100
AcDbLine
 10
4.708914055419706
 20
2.790489610080287
 30
0.0
 11
4.653795945183485
 21
2.666473862048791
 31
0.0
  0
LINE
  5
3C2A
330
1E
100
AcDbEntity
  8
3
100
AcDbLine
 10
4.653795945183485
 20
2.666473862048791
 30
0.0
 11
4.618362874317343
 21
2.534584098269263
 31
0.0
  0
LINE
  5
3C2B
330
1E
100
AcDbEntity
  8
3
100
AcDbLine
 10
4.618362874317343
 20
2.534584098269263
 30
0.0
 11
4.598677834947265
 21
2.400725830552728
 31
0.0
  0
LINE
  5
3C2C
330
1E
100
AcDbEntity
  8
3
100
AcDbLine
 10
4.598677834947265
 20
2.400725830552728
 30
0.0
 11
4.598677834947265
 21
2.262930554962176
 31
0.0
  0
LINE
  5
3C2D
330
1E
100
AcDbEntity
  8
3
100
AcDbLine
 10
4.598677834947265
 20
2.262930554962176
 30
0.0
 11
4.618362874317343
 21
2.129072287245641
 31
0.0
  0
LINE
  5
3C2E
330
1E
100
AcDbEntity
  8
3
100
AcDbLine
 10
4.618362874317343
 20
2.129072287245641
 30
0.0
 11
4.653795945183485
 21
1.997182523466113
 31
0.0
  0
LINE
  5
3C2F
330
1E
100
AcDbEntity
  8
3
100
AcDbLine
 10
4.653795945183485
 20
1.997182523466113
 30
0.0
 11
4.708914055419706
 21
1.873166775434617
 31
0.0
  0
LINE
  5
3C30
330
1E
100
AcDbEntity
  8
3
100
AcDbLine
 10
4.71481956723073
 20
2.804269137639343
 30
0.0
 11
4.710882559356713
 21
2.796395121891311
 31
0.0
  0
LINE
  5
3C31
330
1E
100
AcDbEntity
  8
3
100
AcDbLine
 10
4.710882559356713
 20
2.796395121891311
 30
0.0
 11
4.708914055419706
 21
2.790489610080287
 31
0.0
  0
LINE
  5
3C32
330
1E
100
AcDbEntity
  8
3
100
AcDbLine
 10
5.939229016049626
 20
3.270804570710208
 30
0.0
 11
5.785685708963013
 21
3.314111657324382
 31
0.0
  0
LINE
  5
3C33
330
1E
100
AcDbEntity
  8
3
100
AcDbLine
 10
5.785685708963013
 20
3.314111657324382
 30
0.0
 11
5.628205394002383
 21
3.331828192757452
 31
0.0
  0
LINE
  5
3C34
330
1E
100
AcDbEntity
  8
3
100
AcDbLine
 10
6.360488858569311
 20
2.977497484096035
 30
0.0
 11
6.26993767746695
 21
3.070017169135406
 31
0.0
  0
LINE
  5
3C35
330
1E
100
AcDbEntity
  8
3
100
AcDbLine
 10
6.26993767746695
 20
3.070017169135406
 30
0.0
 11
6.169543976679548
 21
3.152694334489735
 31
0.0
  0
LINE
  5
3C36
330
1E
100
AcDbEntity
  8
3
100
AcDbLine
 10
6.169543976679548
 20
3.152694334489735
 30
0.0
 11
6.057339252270098
 21
3.219623468348004
 31
0.0
  0
LINE
  5
3C37
330
1E
100
AcDbEntity
  8
3
100
AcDbLine
 10
6.057339252270098
 20
3.219623468348004
 30
0.0
 11
5.939229016049626
 21
3.270804570710208
 31
0.0
  0
LINE
  5
3C38
330
1E
100
AcDbEntity
  8
3
100
AcDbLine
 10
6.447103031797658
 20
2.859387247875563
 30
0.0
 11
6.443166023923643
 21
2.865292759686585
 31
0.0
  0
LINE
  5
3C39
330
1E
100
AcDbEntity
  8
3
100
AcDbLine
 10
6.443166023923643
 20
2.865292759686585
 30
0.0
 11
6.439229016049626
 21
2.871198271497609
 31
0.0
  0
LINE
  5
3C3A
330
1E
100
AcDbEntity
  8
3
100
AcDbLine
 10
5.378205394002383
 20
2.351513232127532
 30
0.0
 11
5.378205394002383
 21
2.331828192757452
 31
0.0
  0
LINE
  5
3C3B
330
1E
100
AcDbEntity
  8
3
100
AcDbLine
 10
5.378205394002383
 20
2.331828192757452
 30
0.0
 11
5.378205394002383
 21
2.312143153387374
 31
0.0
  0
LINE
  5
3C3C
330
1E
100
AcDbEntity
  8
3
100
AcDbLine
 10
5.722693582978761
 20
2.510962051025169
 30
0.0
 11
5.706945551482698
 21
2.520804570710208
 31
0.0
  0
LINE
  5
3C3D
330
1E
100
AcDbEntity
  8
3
100
AcDbLine
 10
5.706945551482698
 20
2.520804570710208
 30
0.0
 11
5.687260512112619
 21
2.530647090395248
 31
0.0
  0
LINE
  5
3C3E
330
1E
100
AcDbEntity
  8
3
100
AcDbLine
 10
5.687260512112619
 20
2.133009295119657
 30
0.0
 11
5.704977047545689
 21
2.142851814804696
 31
0.0
  0
LINE
  5
3C3F
330
1E
100
AcDbEntity
  8
3
100
AcDbLine
 10
5.704977047545689
 20
2.142851814804696
 30
0.0
 11
5.722693582978761
 21
2.152694334489735
 31
0.0
  0
LINE
  5
3C40
330
1E
100
AcDbEntity
  8
3
100
AcDbLine
 10
5.710882559356713
 20
2.508993547088161
 30
0.0
 11
5.655764449120493
 21
2.534584098269263
 31
0.0
  0
LINE
  5
3C41
330
1E
100
AcDbEntity
  8
3
100
AcDbLine
 10
5.655764449120493
 20
2.534584098269263
 30
0.0
 11
5.596709331010256
 21
2.542458114017295
 31
0.0
  0
LINE
  5
3C42
330
1E
100
AcDbEntity
  8
3
100
AcDbLine
 10
5.388047913687422
 20
2.36135575181257
 30
0.0
 11
5.388047913687422
 21
2.302300633702333
 31
0.0
  0
LINE
  5
3C43
330
1E
100
AcDbEntity
  8
3
100
AcDbLine
 10
5.388047913687422
 20
2.302300633702333
 30
0.0
 11
5.405764449120493
 21
2.245214019529106
 31
0.0
  0
LINE
  5
3C44
330
1E
100
AcDbEntity
  8
3
100
AcDbLine
 10
5.405764449120493
 20
2.245214019529106
 30
0.0
 11
5.437260512112619
 21
2.1940329171669
 31
0.0
  0
LINE
  5
3C45
330
1E
100
AcDbEntity
  8
3
100
AcDbLine
 10
5.437260512112619
 20
2.1940329171669
 30
0.0
 11
5.4825361026638
 21
2.154662838426743
 31
0.0
  0
LINE
  5
3C46
330
1E
100
AcDbEntity
  8
3
100
AcDbLine
 10
5.4825361026638
 20
2.154662838426743
 30
0.0
 11
5.537654212900021
 21
2.129072287245641
 31
0.0
  0
LINE
  5
3C47
330
1E
100
AcDbEntity
  8
3
100
AcDbLine
 10
5.537654212900021
 20
2.129072287245641
 30
0.0
 11
5.596709331010256
 21
2.121198271497609
 31
0.0
  0
LINE
  5
3C48
330
1E
100
AcDbEntity
  8
3
100
AcDbLine
 10
5.596709331010256
 20
2.121198271497609
 30
0.0
 11
5.655764449120493
 21
2.129072287245641
 31
0.0
  0
LINE
  5
3C49
330
1E
100
AcDbEntity
  8
3
100
AcDbLine
 10
5.655764449120493
 20
2.129072287245641
 30
0.0
 11
5.710882559356713
 21
2.154662838426743
 31
0.0
  0
LINE
  5
3C4A
330
1E
100
AcDbEntity
  8
3
100
AcDbLine
 10
5.710882559356713
 20
2.154662838426743
 30
0.0
 11
5.756158149907895
 21
2.1940329171669
 31
0.0
  0
LINE
  5
3C4B
330
1E
100
AcDbEntity
  8
3
100
AcDbLine
 10
5.756158149907895
 20
2.1940329171669
 30
0.0
 11
5.787654212900021
 21
2.245214019529106
 31
0.0
  0
LINE
  5
3C4C
330
1E
100
AcDbEntity
  8
3
100
AcDbLine
 10
5.787654212900021
 20
2.245214019529106
 30
0.0
 11
5.805370748333091
 21
2.302300633702333
 31
0.0
  0
LINE
  5
3C4D
330
1E
100
AcDbEntity
  8
3
100
AcDbLine
 10
5.805370748333091
 20
2.302300633702333
 30
0.0
 11
5.805370748333091
 21
2.36135575181257
 31
0.0
  0
LINE
  5
3C4E
330
1E
100
AcDbEntity
  8
3
100
AcDbLine
 10
5.805370748333091
 20
2.36135575181257
 30
0.0
 11
5.787654212900021
 21
2.418442365985798
 31
0.0
  0
LINE
  5
3C4F
330
1E
100
AcDbEntity
  8
3
100
AcDbLine
 10
5.787654212900021
 20
2.418442365985798
 30
0.0
 11
5.756158149907895
 21
2.469623468348004
 31
0.0
  0
LINE
  5
3C50
330
1E
100
AcDbEntity
  8
3
100
AcDbLine
 10
5.756158149907895
 20
2.469623468348004
 30
0.0
 11
5.710882559356713
 21
2.508993547088161
 31
0.0
  0
LINE
  5
3C51
330
1E
100
AcDbEntity
  8
3
100
AcDbLine
 10
5.596709331010256
 20
2.542458114017295
 30
0.0
 11
5.537654212900021
 21
2.534584098269263
 31
0.0
  0
LINE
  5
3C52
330
1E
100
AcDbEntity
  8
3
100
AcDbLine
 10
5.537654212900021
 20
2.534584098269263
 30
0.0
 11
5.4825361026638
 21
2.508993547088161
 31
0.0
  0
LINE
  5
3C53
330
1E
100
AcDbEntity
  8
3
100
AcDbLine
 10
5.4825361026638
 20
2.508993547088161
 30
0.0
 11
5.437260512112619
 21
2.469623468348004
 31
0.0
  0
LINE
  5
3C54
330
1E
100
AcDbEntity
  8
3
100
AcDbLine
 10
5.437260512112619
 20
2.469623468348004
 30
0.0
 11
5.405764449120493
 21
2.418442365985798
 31
0.0
  0
LINE
  5
3C55
330
1E
100
AcDbEntity
  8
3
100
AcDbLine
 10
5.405764449120493
 20
2.418442365985798
 30
0.0
 11
5.388047913687422
 21
2.36135575181257
 31
0.0
  0
LINE
  5
3C56
330
1E
100
AcDbEntity
  8
3
100
AcDbLine
 10
5.683323504238604
 20
2.227497484096035
 30
0.0
 11
5.71481956723073
 21
2.262930554962176
 31
0.0
  0
LINE
  5
3C57
330
1E
100
AcDbEntity
  8
3
100
AcDbLine
 10
5.71481956723073
 20
2.262930554962176
 30
0.0
 11
5.730567598726793
 21
2.308206145513358
 31
0.0
  0
LINE
  5
3C58
330
1E
100
AcDbEntity
  8
3
100
AcDbLine
 10
5.730567598726793
 20
2.308206145513358
 30
0.0
 11
5.730567598726793
 21
2.355450240001546
 31
0.0
  0
LINE
  5
3C59
330
1E
100
AcDbEntity
  8
3
100
AcDbLine
 10
5.730567598726793
 20
2.355450240001546
 30
0.0
 11
5.71481956723073
 21
2.39875732661572
 31
0.0
  0
LINE
  5
3C5A
330
1E
100
AcDbEntity
  8
3
100
AcDbLine
 10
5.71481956723073
 20
2.39875732661572
 30
0.0
 11
5.683323504238604
 21
2.436158901418869
 31
0.0
  0
LINE
  5
3C5B
330
1E
100
AcDbEntity
  8
3
100
AcDbLine
 10
5.683323504238604
 20
2.436158901418869
 30
0.0
 11
5.643953425498446
 21
2.459780948662965
 31
0.0
  0
LINE
  5
3C5C
330
1E
100
AcDbEntity
  8
3
100
AcDbLine
 10
5.643953425498446
 20
2.459780948662965
 30
0.0
 11
5.596709331010256
 21
2.467654964410996
 31
0.0
  0
LINE
  5
3C5D
330
1E
100
AcDbEntity
  8
3
100
AcDbLine
 10
5.596709331010256
 20
2.467654964410996
 30
0.0
 11
5.549465236522067
 21
2.459780948662965
 31
0.0
  0
LINE
  5
3C5E
330
1E
100
AcDbEntity
  8
3
100
AcDbLine
 10
5.549465236522067
 20
2.459780948662965
 30
0.0
 11
5.510095157781909
 21
2.436158901418869
 31
0.0
  0
LINE
  5
3C5F
330
1E
100
AcDbEntity
  8
3
100
AcDbLine
 10
5.510095157781909
 20
2.436158901418869
 30
0.0
 11
5.478599094789784
 21
2.400725830552728
 31
0.0
  0
LINE
  5
3C60
330
1E
100
AcDbEntity
  8
3
100
AcDbLine
 10
5.478599094789784
 20
2.400725830552728
 30
0.0
 11
5.462851063293721
 21
2.355450240001546
 31
0.0
  0
LINE
  5
3C61
330
1E
100
AcDbEntity
  8
3
100
AcDbLine
 10
5.462851063293721
 20
2.355450240001546
 30
0.0
 11
5.462851063293721
 21
2.308206145513358
 31
0.0
  0
LINE
  5
3C62
330
1E
100
AcDbEntity
  8
3
100
AcDbLine
 10
5.462851063293721
 20
2.308206145513358
 30
0.0
 11
5.478599094789784
 21
2.264899058899185
 31
0.0
  0
LINE
  5
3C63
330
1E
100
AcDbEntity
  8
3
100
AcDbLine
 10
5.478599094789784
 20
2.264899058899185
 30
0.0
 11
5.510095157781909
 21
2.227497484096035
 31
0.0
  0
LINE
  5
3C64
330
1E
100
AcDbEntity
  8
3
100
AcDbLine
 10
5.510095157781909
 20
2.227497484096035
 30
0.0
 11
5.549465236522067
 21
2.203875436851941
 31
0.0
  0
LINE
  5
3C65
330
1E
100
AcDbEntity
  8
3
100
AcDbLine
 10
5.549465236522067
 20
2.203875436851941
 30
0.0
 11
5.596709331010256
 21
2.196001421103909
 31
0.0
  0
LINE
  5
3C66
330
1E
100
AcDbEntity
  8
3
100
AcDbLine
 10
5.596709331010256
 20
2.196001421103909
 30
0.0
 11
5.643953425498446
 21
2.203875436851941
 31
0.0
  0
LINE
  5
3C67
330
1E
100
AcDbEntity
  8
3
100
AcDbLine
 10
5.643953425498446
 20
2.203875436851941
 30
0.0
 11
5.683323504238604
 21
2.227497484096035
 31
0.0
  0
LINE
  5
3C68
330
1E
100
AcDbEntity
  8
3
100
AcDbLine
 10
4.974662086915769
 20
2.603481736064539
 30
0.0
 11
5.000252638096871
 21
2.57395417700942
 31
0.0
  0
LINE
  5
3C69
330
1E
100
AcDbEntity
  8
3
100
AcDbLine
 10
5.000252638096871
 20
2.57395417700942
 30
0.0
 11
5.033717205026004
 21
2.558206145513358
 31
0.0
  0
LINE
  5
3C6A
330
1E
100
AcDbEntity
  8
3
100
AcDbLine
 10
5.147890433372461
 20
2.526710082521232
 30
0.0
 11
5.224662086915769
 21
2.516867562836193
 31
0.0
  0
LINE
  5
3C6B
330
1E
100
AcDbEntity
  8
3
100
AcDbLine
 10
5.224662086915769
 20
2.516867562836193
 30
0.0
 11
5.301433740459076
 21
2.526710082521232
 31
0.0
  0
LINE
  5
3C6C
330
1E
100
AcDbEntity
  8
3
100
AcDbLine
 10
5.301433740459076
 20
2.526710082521232
 30
0.0
 11
5.374268386128367
 21
2.55623764157635
 31
0.0
  0
LINE
  5
3C6D
330
1E
100
AcDbEntity
  8
3
100
AcDbLine
 10
5.514032165655926
 20
2.636946302993672
 30
0.0
 11
5.575055787703171
 21
2.686158901418869
 31
0.0
  0
LINE
  5
3C6E
330
1E
100
AcDbEntity
  8
3
100
AcDbLine
 10
5.575055787703171
 20
2.686158901418869
 30
0.0
 11
5.624268386128367
 21
2.747182523466113
 31
0.0
  0
LINE
  5
3C6F
330
1E
100
AcDbEntity
  8
3
100
AcDbLine
 10
5.624268386128367
 20
2.747182523466113
 30
0.0
 11
5.653795945183485
 21
2.820017169135406
 31
0.0
  0
LINE
  5
3C70
330
1E
100
AcDbEntity
  8
3
100
AcDbLine
 10
5.681355000301595
 20
2.932221893544854
 30
0.0
 11
5.685292008175611
 21
2.971591972285011
 31
0.0
  0
LINE
  5
3C71
330
1E
100
AcDbEntity
  8
3
100
AcDbLine
 10
5.685292008175611
 20
2.971591972285011
 30
0.0
 11
5.671512480616556
 21
3.007025043151154
 31
0.0
  0
LINE
  5
3C72
330
1E
100
AcDbEntity
  8
3
100
AcDbLine
 10
5.632142401876398
 20
3.079859688820445
 30
0.0
 11
5.598677834947265
 21
3.079859688820445
 31
0.0
  0
LINE
  5
3C73
330
1E
100
AcDbEntity
  8
3
100
AcDbLine
 10
5.598677834947265
 20
3.079859688820445
 30
0.0
 11
5.567181771955139
 21
3.079859688820445
 31
0.0
  0
LINE
  5
3C74
330
1E
100
AcDbEntity
  8
3
100
AcDbLine
 10
6.143953425498446
 20
2.735371499844067
 30
0.0
 11
6.106551850695296
 21
2.727497484096035
 31
0.0
  0
LINE
  5
3C75
330
1E
100
AcDbEntity
  8
3
100
AcDbLine
 10
6.106551850695296
 20
2.727497484096035
 30
0.0
 11
6.075055787703171
 21
2.705843940788948
 31
0.0
  0
LINE
  5
3C76
330
1E
100
AcDbEntity
  8
3
100
AcDbLine
 10
5.992378622348839
 20
2.623166775434617
 30
0.0
 11
5.943166023923643
 21
2.562143153387374
 31
0.0
  0
LINE
  5
3C77
330
1E
100
AcDbEntity
  8
3
100
AcDbLine
 10
5.943166023923643
 20
2.562143153387374
 30
0.0
 11
5.913638464868524
 21
2.489308507718082
 31
0.0
  0
LINE
  5
3C78
330
1E
100
AcDbEntity
  8
3
100
AcDbLine
 10
5.913638464868524
 20
2.489308507718082
 30
0.0
 11
5.903795945183485
 21
2.412536854174774
 31
0.0
  0
LINE
  5
3C79
330
1E
100
AcDbEntity
  8
3
100
AcDbLine
 10
5.913638464868524
 20
2.174347877796822
 30
0.0
 11
5.943166023923643
 21
2.101513232127532
 31
0.0
  0
LINE
  5
3C7A
330
1E
100
AcDbEntity
  8
3
100
AcDbLine
 10
5.943166023923643
 20
2.101513232127532
 30
0.0
 11
5.992378622348839
 21
2.040489610080287
 31
0.0
  0
LINE
  5
3C7B
330
1E
100
AcDbEntity
  8
3
100
AcDbLine
 10
6.075055787703171
 20
1.957812444725956
 30
0.0
 11
6.106551850695296
 21
1.936158901418869
 31
0.0
  0
LINE
  5
3C7C
330
1E
100
AcDbEntity
  8
3
100
AcDbLine
 10
6.106551850695296
 20
1.936158901418869
 30
0.0
 11
6.143953425498446
 21
1.928284885670837
 31
0.0
  0
LINE
  5
3C7D
330
1E
100
AcDbEntity
  8
3
100
AcDbLine
 10
6.226630590852776
 20
1.928284885670837
 30
0.0
 11
6.242378622348839
 21
1.955843940788948
 31
0.0
  0
LINE
  5
3C7E
330
1E
100
AcDbEntity
  8
3
100
AcDbLine
 10
6.242378622348839
 20
1.955843940788948
 30
0.0
 11
6.260095157781909
 21
1.983402995907059
 31
0.0
  0
LINE
  5
3C7F
330
1E
100
AcDbEntity
  8
3
100
AcDbLine
 10
6.260095157781909
 20
2.678284885670837
 30
0.0
 11
6.244347126285846
 21
2.707812444725956
 31
0.0
  0
LINE
  5
3C80
330
1E
100
AcDbEntity
  8
3
100
AcDbLine
 10
6.244347126285846
 20
2.707812444725956
 30
0.0
 11
6.226630590852776
 21
2.735371499844067
 31
0.0
  0
LINE
  5
3C81
330
1E
100
AcDbEntity
  8
3
100
AcDbLine
 10
5.671512480616556
 20
1.654662838426743
 30
0.0
 11
5.685292008175611
 21
1.690095909292885
 31
0.0
  0
LINE
  5
3C82
330
1E
100
AcDbEntity
  8
3
100
AcDbLine
 10
5.685292008175611
 20
1.690095909292885
 30
0.0
 11
5.681355000301595
 21
1.729465988033043
 31
0.0
  0
LINE
  5
3C83
330
1E
100
AcDbEntity
  8
3
100
AcDbLine
 10
5.653795945183485
 20
1.8436392163795
 30
0.0
 11
5.624268386128367
 21
1.916473862048791
 31
0.0
  0
LINE
  5
3C84
330
1E
100
AcDbEntity
  8
3
100
AcDbLine
 10
5.624268386128367
 20
1.916473862048791
 30
0.0
 11
5.575055787703171
 21
1.977497484096035
 31
0.0
  0
LINE
  5
3C85
330
1E
100
AcDbEntity
  8
3
100
AcDbLine
 10
5.575055787703171
 20
1.977497484096035
 30
0.0
 11
5.514032165655926
 21
2.026710082521232
 31
0.0
  0
LINE
  5
3C86
330
1E
100
AcDbEntity
  8
3
100
AcDbLine
 10
5.374268386128367
 20
2.107418743938554
 30
0.0
 11
5.301433740459076
 21
2.136946302993672
 31
0.0
  0
LINE
  5
3C87
330
1E
100
AcDbEntity
  8
3
100
AcDbLine
 10
5.301433740459076
 20
2.136946302993672
 30
0.0
 11
5.224662086915769
 21
2.146788822678711
 31
0.0
  0
LINE
  5
3C88
330
1E
100
AcDbEntity
  8
3
100
AcDbLine
 10
5.224662086915769
 20
2.146788822678711
 30
0.0
 11
5.147890433372461
 21
2.136946302993672
 31
0.0
  0
LINE
  5
3C89
330
1E
100
AcDbEntity
  8
3
100
AcDbLine
 10
5.033717205026004
 20
2.103481736064539
 30
0.0
 11
5.000252638096871
 21
2.087733704568476
 31
0.0
  0
LINE
  5
3C8A
330
1E
100
AcDbEntity
  8
3
100
AcDbLine
 10
5.000252638096871
 20
2.087733704568476
 30
0.0
 11
4.974662086915769
 21
2.058206145513358
 31
0.0
  0
LINE
  5
3C8B
330
1E
100
AcDbEntity
  8
3
100
AcDbLine
 10
4.931355000301595
 20
1.989308507718082
 30
0.0
 11
4.947103031797658
 21
1.959780948662965
 31
0.0
  0
LINE
  5
3C8C
330
1E
100
AcDbEntity
  8
3
100
AcDbLine
 10
4.947103031797658
 20
1.959780948662965
 30
0.0
 11
4.96481956723073
 21
1.932221893544854
 31
0.0
  0
LINE
  5
3C8D
330
1E
100
AcDbEntity
  8
3
100
AcDbLine
 10
5.567181771955139
 20
1.583796696694459
 30
0.0
 11
5.598677834947265
 21
1.583796696694459
 31
0.0
  0
LINE
  5
3C8E
330
1E
100
AcDbEntity
  8
3
100
AcDbLine
 10
5.598677834947265
 20
1.583796696694459
 30
0.0
 11
5.632142401876398
 21
1.583796696694459
 31
0.0
  0
LINE
  5
3C8F
330
1E
100
AcDbEntity
  8
3
100
AcDbLine
 10
5.39001641762443
 20
2.237340003781074
 30
0.0
 11
5.429386496364587
 21
2.180253389607846
 31
0.0
  0
LINE
  5
3C90
330
1E
100
AcDbEntity
  8
3
100
AcDbLine
 10
5.429386496364587
 20
2.180253389607846
 30
0.0
 11
5.4825361026638
 21
2.134977799056665
 31
0.0
  0
LINE
  5
3C91
330
1E
100
AcDbEntity
  8
3
100
AcDbLine
 10
5.4825361026638
 20
2.134977799056665
 30
0.0
 11
5.547496732585059
 21
2.11135575181257
 31
0.0
  0
LINE
  5
3C92
330
1E
100
AcDbEntity
  8
3
100
AcDbLine
 10
5.547496732585059
 20
2.11135575181257
 30
0.0
 11
5.618362874317343
 21
2.107418743938554
 31
0.0
  0
LINE
  5
3C93
330
1E
100
AcDbEntity
  8
3
100
AcDbLine
 10
5.618362874317343
 20
2.107418743938554
 30
0.0
 11
5.685292008175611
 21
2.123166775434617
 31
0.0
  0
LINE
  5
3C94
330
1E
100
AcDbEntity
  8
3
100
AcDbLine
 10
5.7325361026638
 20
2.150725830552728
 30
0.0
 11
5.781748701088996
 21
2.199938428977924
 31
0.0
  0
LINE
  5
3C95
330
1E
100
AcDbEntity
  8
3
100
AcDbLine
 10
5.781748701088996
 20
2.199938428977924
 30
0.0
 11
5.813244764081122
 21
2.262930554962176
 31
0.0
  0
LINE
  5
3C96
330
1E
100
AcDbEntity
  8
3
100
AcDbLine
 10
5.813244764081122
 20
2.262930554962176
 30
0.0
 11
5.823087283766161
 21
2.331828192757452
 31
0.0
  0
LINE
  5
3C97
330
1E
100
AcDbEntity
  8
3
100
AcDbLine
 10
5.823087283766161
 20
2.331828192757452
 30
0.0
 11
5.813244764081122
 21
2.400725830552728
 31
0.0
  0
LINE
  5
3C98
330
1E
100
AcDbEntity
  8
3
100
AcDbLine
 10
5.813244764081122
 20
2.400725830552728
 30
0.0
 11
5.781748701088996
 21
2.46371795653698
 31
0.0
  0
LINE
  5
3C99
330
1E
100
AcDbEntity
  8
3
100
AcDbLine
 10
5.781748701088996
 20
2.46371795653698
 30
0.0
 11
5.7325361026638
 21
2.512930554962176
 31
0.0
  0
LINE
  5
3C9A
330
1E
100
AcDbEntity
  8
3
100
AcDbLine
 10
5.685292008175611
 20
2.540489610080287
 30
0.0
 11
5.618362874317343
 21
2.55623764157635
 31
0.0
  0
LINE
  5
3C9B
330
1E
100
AcDbEntity
  8
3
100
AcDbLine
 10
5.618362874317343
 20
2.55623764157635
 30
0.0
 11
5.547496732585059
 21
2.552300633702333
 31
0.0
  0
LINE
  5
3C9C
330
1E
100
AcDbEntity
  8
3
100
AcDbLine
 10
5.547496732585059
 20
2.552300633702333
 30
0.0
 11
5.484504606600808
 21
2.528678586458239
 31
0.0
  0
LINE
  5
3C9D
330
1E
100
AcDbEntity
  8
3
100
AcDbLine
 10
5.484504606600808
 20
2.528678586458239
 30
0.0
 11
5.429386496364587
 21
2.483402995907059
 31
0.0
  0
LINE
  5
3C9E
330
1E
100
AcDbEntity
  8
3
100
AcDbLine
 10
5.429386496364587
 20
2.483402995907059
 30
0.0
 11
5.39001641762443
 21
2.42631638173383
 31
0.0
  0
LINE
  5
3C9F
330
1E
100
AcDbEntity
  8
3
100
AcDbLine
 10
5.39001641762443
 20
2.42631638173383
 30
0.0
 11
5.372299882191359
 21
2.359387247875563
 31
0.0
  0
LINE
  5
3CA0
330
1E
100
AcDbEntity
  8
3
100
AcDbLine
 10
6.248284134159863
 20
2.961749452599972
 30
0.0
 11
6.1577329530575
 21
3.042458114017295
 31
0.0
  0
LINE
  5
3CA1
330
1E
100
AcDbEntity
  8
3
100
AcDbLine
 10
6.1577329530575
 20
3.042458114017295
 30
0.0
 11
6.057339252270098
 21
3.11135575181257
 31
0.0
  0
LINE
  5
3CA2
330
1E
100
AcDbEntity
  8
3
100
AcDbLine
 10
6.057339252270098
 20
3.11135575181257
 30
0.0
 11
5.951040039671674
 21
3.164505358111783
 31
0.0
  0
LINE
  5
3CA3
330
1E
100
AcDbEntity
  8
3
100
AcDbLine
 10
5.951040039671674
 20
3.164505358111783
 30
0.0
 11
5.836866811325217
 21
3.205843940788948
 31
0.0
  0
LINE
  5
3CA4
330
1E
100
AcDbEntity
  8
3
100
AcDbLine
 10
5.836866811325217
 20
3.205843940788948
 30
0.0
 11
5.716788071167737
 21
3.229465988033043
 31
0.0
  0
LINE
  5
3CA5
330
1E
100
AcDbEntity
  8
3
100
AcDbLine
 10
5.716788071167737
 20
3.229465988033043
 30
0.0
 11
5.596709331010256
 21
3.237340003781074
 31
0.0
  0
LINE
  5
3CA6
330
1E
100
AcDbEntity
  8
3
100
AcDbLine
 10
5.893953425498446
 20
1.475528980159028
 30
0.0
 11
6.004189645970887
 21
1.522773074647217
 31
0.0
  0
LINE
  5
3CA7
330
1E
100
AcDbEntity
  8
3
100
AcDbLine
 10
6.004189645970887
 20
1.522773074647217
 30
0.0
 11
6.108520354632304
 21
1.585765200631469
 31
0.0
  0
LINE
  5
3CA8
330
1E
100
AcDbEntity
  8
3
100
AcDbLine
 10
6.108520354632304
 20
1.585765200631469
 30
0.0
 11
6.204977047545689
 21
1.660568350237767
 31
0.0
  0
LINE
  5
3CA9
330
1E
100
AcDbEntity
  8
3
100
AcDbLine
 10
6.204977047545689
 20
1.660568350237767
 30
0.0
 11
6.287654212900021
 21
1.747182523466113
 31
0.0
  0
LINE
  5
3CAA
330
1E
100
AcDbEntity
  8
3
100
AcDbLine
 10
6.287654212900021
 20
1.747182523466113
 30
0.0
 11
6.360488858569311
 21
1.8436392163795
 31
0.0
  0
LINE
  5
3CAB
330
1E
100
AcDbEntity
  8
3
100
AcDbLine
 10
6.360488858569311
 20
1.8436392163795
 30
0.0
 11
6.417575472742541
 21
1.949938428977924
 31
0.0
  0
LINE
  5
3CAC
330
1E
100
AcDbEntity
  8
3
100
AcDbLine
 10
6.417575472742541
 20
1.949938428977924
 30
0.0
 11
6.460882559356713
 21
2.064111657324382
 31
0.0
  0
LINE
  5
3CAD
330
1E
100
AcDbEntity
  8
3
100
AcDbLine
 10
6.460882559356713
 20
2.064111657324382
 30
0.0
 11
6.490410118411832
 21
2.180253389607846
 31
0.0
  0
LINE
  5
3CAE
330
1E
100
AcDbEntity
  8
3
100
AcDbLine
 10
6.490410118411832
 20
2.180253389607846
 30
0.0
 11
6.502221142033878
 21
2.302300633702333
 31
0.0
  0
LINE
  5
3CAF
330
1E
100
AcDbEntity
  8
3
100
AcDbLine
 10
6.502221142033878
 20
2.302300633702333
 30
0.0
 11
6.498284134159863
 21
2.422379373859815
 31
0.0
  0
LINE
  5
3CB0
330
1E
100
AcDbEntity
  8
3
100
AcDbLine
 10
6.498284134159863
 20
2.422379373859815
 30
0.0
 11
6.476630590852776
 21
2.542458114017295
 31
0.0
  0
LINE
  5
3CB1
330
1E
100
AcDbEntity
  8
3
100
AcDbLine
 10
6.476630590852776
 20
2.542458114017295
 30
0.0
 11
6.441197519986635
 21
2.656631342363752
 31
0.0
  0
LINE
  5
3CB2
330
1E
100
AcDbEntity
  8
3
100
AcDbLine
 10
6.441197519986635
 20
2.656631342363752
 30
0.0
 11
6.39001641762443
 21
2.766867562836193
 31
0.0
  0
LINE
  5
3CB3
330
1E
100
AcDbEntity
  8
3
100
AcDbLine
 10
6.39001641762443
 20
2.766867562836193
 30
0.0
 11
6.325055787703171
 21
2.869229767560602
 31
0.0
  0
LINE
  5
3CB4
330
1E
100
AcDbEntity
  8
3
100
AcDbLine
 10
6.325055787703171
 20
2.869229767560602
 30
0.0
 11
6.248284134159863
 21
2.961749452599972
 31
0.0
  0
LINE
  5
3CB5
330
1E
100
AcDbEntity
  8
3
100
AcDbLine
 10
4.691197519986635
 20
2.302300633702333
 30
0.0
 11
4.703008543608682
 21
2.180253389607846
 31
0.0
  0
LINE
  5
3CB6
330
1E
100
AcDbEntity
  8
3
100
AcDbLine
 10
4.703008543608682
 20
2.180253389607846
 30
0.0
 11
4.7325361026638
 21
2.064111657324382
 31
0.0
  0
LINE
  5
3CB7
330
1E
100
AcDbEntity
  8
3
100
AcDbLine
 10
4.7325361026638
 20
2.064111657324382
 30
0.0
 11
4.775843189277972
 21
1.949938428977924
 31
0.0
  0
LINE
  5
3CB8
330
1E
100
AcDbEntity
  8
3
100
AcDbLine
 10
4.775843189277972
 20
1.949938428977924
 30
0.0
 11
4.832929803451202
 21
1.8436392163795
 31
0.0
  0
LINE
  5
3CB9
330
1E
100
AcDbEntity
  8
3
100
AcDbLine
 10
4.832929803451202
 20
1.8436392163795
 30
0.0
 11
4.905764449120493
 21
1.747182523466113
 31
0.0
  0
LINE
  5
3CBA
330
1E
100
AcDbEntity
  8
3
100
AcDbLine
 10
4.905764449120493
 20
1.747182523466113
 30
0.0
 11
4.988441614474824
 21
1.660568350237767
 31
0.0
  0
LINE
  5
3CBB
330
1E
100
AcDbEntity
  8
3
100
AcDbLine
 10
4.988441614474824
 20
1.660568350237767
 30
0.0
 11
5.084898307388209
 21
1.585765200631469
 31
0.0
  0
LINE
  5
3CBC
330
1E
100
AcDbEntity
  8
3
100
AcDbLine
 10
5.084898307388209
 20
1.585765200631469
 30
0.0
 11
5.189229016049626
 21
1.522773074647217
 31
0.0
  0
LINE
  5
3CBD
330
1E
100
AcDbEntity
  8
3
100
AcDbLine
 10
5.189229016049626
 20
1.522773074647217
 30
0.0
 11
5.299465236522067
 21
1.475528980159028
 31
0.0
  0
LINE
  5
3CBE
330
1E
100
AcDbEntity
  8
3
100
AcDbLine
 10
5.299465236522067
 20
1.475528980159028
 30
0.0
 11
5.415606968805532
 21
1.444032917166902
 31
0.0
  0
LINE
  5
3CBF
330
1E
100
AcDbEntity
  8
3
100
AcDbLine
 10
5.415606968805532
 20
1.444032917166902
 30
0.0
 11
5.535685708963013
 21
1.428284885670837
 31
0.0
  0
LINE
  5
3CC0
330
1E
100
AcDbEntity
  8
3
100
AcDbLine
 10
5.535685708963013
 20
1.428284885670837
 30
0.0
 11
5.6577329530575
 21
1.428284885670837
 31
0.0
  0
LINE
  5
3CC1
330
1E
100
AcDbEntity
  8
3
100
AcDbLine
 10
5.6577329530575
 20
1.428284885670837
 30
0.0
 11
5.777811693214982
 21
1.444032917166902
 31
0.0
  0
LINE
  5
3CC2
330
1E
100
AcDbEntity
  8
3
100
AcDbLine
 10
5.777811693214982
 20
1.444032917166902
 30
0.0
 11
5.893953425498446
 21
1.475528980159028
 31
0.0
  0
LINE
  5
3CC3
330
1E
100
AcDbEntity
  8
3
100
AcDbLine
 10
5.596709331010256
 20
3.237340003781074
 30
0.0
 11
5.476630590852776
 21
3.229465988033043
 31
0.0
  0
LINE
  5
3CC4
330
1E
100
AcDbEntity
  8
3
100
AcDbLine
 10
5.476630590852776
 20
3.229465988033043
 30
0.0
 11
5.356551850695296
 21
3.205843940788948
 31
0.0
  0
LINE
  5
3CC5
330
1E
100
AcDbEntity
  8
3
100
AcDbLine
 10
5.356551850695296
 20
3.205843940788948
 30
0.0
 11
5.242378622348839
 21
3.164505358111783
 31
0.0
  0
LINE
  5
3CC6
330
1E
100
AcDbEntity
  8
3
100
AcDbLine
 10
5.242378622348839
 20
3.164505358111783
 30
0.0
 11
5.136079409750415
 21
3.11135575181257
 31
0.0
  0
LINE
  5
3CC7
330
1E
100
AcDbEntity
  8
3
100
AcDbLine
 10
5.136079409750415
 20
3.11135575181257
 30
0.0
 11
5.035685708963013
 21
3.042458114017295
 31
0.0
  0
LINE
  5
3CC8
330
1E
100
AcDbEntity
  8
3
100
AcDbLine
 10
5.035685708963013
 20
3.042458114017295
 30
0.0
 11
4.94513452786065
 21
2.961749452599972
 31
0.0
  0
LINE
  5
3CC9
330
1E
100
AcDbEntity
  8
3
100
AcDbLine
 10
4.94513452786065
 20
2.961749452599972
 30
0.0
 11
4.868362874317343
 21
2.869229767560602
 31
0.0
  0
LINE
  5
3CCA
330
1E
100
AcDbEntity
  8
3
100
AcDbLine
 10
4.868362874317343
 20
2.869229767560602
 30
0.0
 11
4.803402244396083
 21
2.766867562836193
 31
0.0
  0
LINE
  5
3CCB
330
1E
100
AcDbEntity
  8
3
100
AcDbLine
 10
4.803402244396083
 20
2.766867562836193
 30
0.0
 11
4.752221142033878
 21
2.656631342363752
 31
0.0
  0
LINE
  5
3CCC
330
1E
100
AcDbEntity
  8
3
100
AcDbLine
 10
4.752221142033878
 20
2.656631342363752
 30
0.0
 11
4.716788071167737
 21
2.542458114017295
 31
0.0
  0
LINE
  5
3CCD
330
1E
100
AcDbEntity
  8
3
100
AcDbLine
 10
4.716788071167737
 20
2.542458114017295
 30
0.0
 11
4.69513452786065
 21
2.422379373859815
 31
0.0
  0
LINE
  5
3CCE
330
1E
100
AcDbEntity
  8
3
100
AcDbLine
 10
4.69513452786065
 20
2.422379373859815
 30
0.0
 11
4.691197519986635
 21
2.302300633702333
 31
0.0
  0
LINE
  5
3CCF
330
1E
100
AcDbEntity
  8
3
100
AcDbLine
 10
4.671512480616556
 20
2.239308507718082
 30
0.0
 11
4.693166023923643
 21
2.117261263623595
 31
0.0
  0
LINE
  5
3CD0
330
1E
100
AcDbEntity
  8
3
100
AcDbLine
 10
4.693166023923643
 20
2.117261263623595
 30
0.0
 11
4.730567598726793
 21
1.997182523466113
 31
0.0
  0
LINE
  5
3CD1
330
1E
100
AcDbEntity
  8
3
100
AcDbLine
 10
4.730567598726793
 20
1.997182523466113
 30
0.0
 11
4.781748701088996
 21
1.884977799056665
 31
0.0
  0
LINE
  5
3CD2
330
1E
100
AcDbEntity
  8
3
100
AcDbLine
 10
4.781748701088996
 20
1.884977799056665
 30
0.0
 11
4.848677834947265
 21
1.780647090395248
 31
0.0
  0
LINE
  5
3CD3
330
1E
100
AcDbEntity
  8
3
100
AcDbLine
 10
4.848677834947265
 20
1.780647090395248
 30
0.0
 11
4.929386496364587
 21
1.686158901418869
 31
0.0
  0
LINE
  5
3CD4
330
1E
100
AcDbEntity
  8
3
100
AcDbLine
 10
4.929386496364587
 20
1.686158901418869
 30
0.0
 11
5.01993767746695
 21
1.603481736064539
 31
0.0
  0
LINE
  5
3CD5
330
1E
100
AcDbEntity
  8
3
100
AcDbLine
 10
5.01993767746695
 20
1.603481736064539
 30
0.0
 11
5.122299882191359
 21
1.532615594332256
 31
0.0
  0
LINE
  5
3CD6
330
1E
100
AcDbEntity
  8
3
100
AcDbLine
 10
5.122299882191359
 20
1.532615594332256
 30
0.0
 11
5.234504606600808
 21
1.475528980159028
 31
0.0
  0
LINE
  5
3CD7
330
1E
100
AcDbEntity
  8
3
100
AcDbLine
 10
5.234504606600808
 20
1.475528980159028
 30
0.0
 11
5.350646338884272
 21
1.436158901418869
 31
0.0
  0
LINE
  5
3CD8
330
1E
100
AcDbEntity
  8
3
100
AcDbLine
 10
5.350646338884272
 20
1.436158901418869
 30
0.0
 11
5.472693582978761
 21
1.410568350237767
 31
0.0
  0
LINE
  5
3CD9
330
1E
100
AcDbEntity
  8
3
100
AcDbLine
 10
5.472693582978761
 20
1.410568350237767
 30
0.0
 11
5.596709331010256
 21
1.402694334489735
 31
0.0
  0
LINE
  5
3CDA
330
1E
100
AcDbEntity
  8
3
100
AcDbLine
 10
5.533717205026004
 20
3.258993547088161
 30
0.0
 11
5.411669960931517
 21
3.243245515592098
 31
0.0
  0
LINE
  5
3CDB
330
1E
100
AcDbEntity
  8
3
100
AcDbLine
 10
5.411669960931517
 20
3.243245515592098
 30
0.0
 11
5.291591220774035
 21
3.209780948662965
 31
0.0
  0
LINE
  5
3CDC
330
1E
100
AcDbEntity
  8
3
100
AcDbLine
 10
5.291591220774035
 20
3.209780948662965
 30
0.0
 11
5.17741799242758
 21
3.160568350237767
 31
0.0
  0
LINE
  5
3CDD
330
1E
100
AcDbEntity
  8
3
100
AcDbLine
 10
5.17741799242758
 20
3.160568350237767
 30
0.0
 11
5.071118779829154
 21
3.097576224253515
 31
0.0
  0
LINE
  5
3CDE
330
1E
100
AcDbEntity
  8
3
100
AcDbLine
 10
5.071118779829154
 20
3.097576224253515
 30
0.0
 11
4.972693582978761
 21
3.020804570710208
 31
0.0
  0
LINE
  5
3CDF
330
1E
100
AcDbEntity
  8
3
100
AcDbLine
 10
4.972693582978761
 20
3.020804570710208
 30
0.0
 11
4.888047913687422
 21
2.932221893544854
 31
0.0
  0
LINE
  5
3CE0
330
1E
100
AcDbEntity
  8
3
100
AcDbLine
 10
4.888047913687422
 20
2.932221893544854
 30
0.0
 11
4.813244764081122
 21
2.831828192757452
 31
0.0
  0
LINE
  5
3CE1
330
1E
100
AcDbEntity
  8
3
100
AcDbLine
 10
4.813244764081122
 20
2.831828192757452
 30
0.0
 11
4.754189645970887
 21
2.723560476222019
 31
0.0
  0
LINE
  5
3CE2
330
1E
100
AcDbEntity
  8
3
100
AcDbLine
 10
4.754189645970887
 20
2.723560476222019
 30
0.0
 11
4.708914055419706
 21
2.607418743938554
 31
0.0
  0
LINE
  5
3CE3
330
1E
100
AcDbEntity
  8
3
100
AcDbLine
 10
4.708914055419706
 20
2.607418743938554
 30
0.0
 11
4.681355000301595
 21
2.487340003781074
 31
0.0
  0
LINE
  5
3CE4
330
1E
100
AcDbEntity
  8
3
100
AcDbLine
 10
4.681355000301595
 20
2.487340003781074
 30
0.0
 11
4.667575472742541
 21
2.363324255749578
 31
0.0
  0
LINE
  5
3CE5
330
1E
100
AcDbEntity
  8
3
100
AcDbLine
 10
4.667575472742541
 20
2.363324255749578
 30
0.0
 11
4.671512480616556
 21
2.239308507718082
 31
0.0
  0
LINE
  5
3CE6
330
1E
100
AcDbEntity
  8
3
100
AcDbLine
 10
6.500252638096871
 20
2.117261263623595
 30
0.0
 11
6.521906181403958
 21
2.239308507718082
 31
0.0
  0
LINE
  5
3CE7
330
1E
100
AcDbEntity
  8
3
100
AcDbLine
 10
6.521906181403958
 20
2.239308507718082
 30
0.0
 11
6.525843189277972
 21
2.363324255749578
 31
0.0
  0
LINE
  5
3CE8
330
1E
100
AcDbEntity
  8
3
100
AcDbLine
 10
6.525843189277972
 20
2.363324255749578
 30
0.0
 11
6.512063661718919
 21
2.487340003781074
 31
0.0
  0
LINE
  5
3CE9
330
1E
100
AcDbEntity
  8
3
100
AcDbLine
 10
6.512063661718919
 20
2.487340003781074
 30
0.0
 11
6.484504606600808
 21
2.607418743938554
 31
0.0
  0
LINE
  5
3CEA
330
1E
100
AcDbEntity
  8
3
100
AcDbLine
 10
6.484504606600808
 20
2.607418743938554
 30
0.0
 11
6.439229016049626
 21
2.723560476222019
 31
0.0
  0
LINE
  5
3CEB
330
1E
100
AcDbEntity
  8
3
100
AcDbLine
 10
6.439229016049626
 20
2.723560476222019
 30
0.0
 11
6.380173897939391
 21
2.831828192757452
 31
0.0
  0
LINE
  5
3CEC
330
1E
100
AcDbEntity
  8
3
100
AcDbLine
 10
6.380173897939391
 20
2.831828192757452
 30
0.0
 11
6.305370748333091
 21
2.932221893544854
 31
0.0
  0
LINE
  5
3CED
330
1E
100
AcDbEntity
  8
3
100
AcDbLine
 10
6.305370748333091
 20
2.932221893544854
 30
0.0
 11
6.220725079041752
 21
3.020804570710208
 31
0.0
  0
LINE
  5
3CEE
330
1E
100
AcDbEntity
  8
3
100
AcDbLine
 10
6.220725079041752
 20
3.020804570710208
 30
0.0
 11
6.122299882191359
 21
3.097576224253515
 31
0.0
  0
LINE
  5
3CEF
330
1E
100
AcDbEntity
  8
3
100
AcDbLine
 10
6.122299882191359
 20
3.097576224253515
 30
0.0
 11
6.016000669592934
 21
3.160568350237767
 31
0.0
  0
LINE
  5
3CF0
330
1E
100
AcDbEntity
  8
3
100
AcDbLine
 10
6.016000669592934
 20
3.160568350237767
 30
0.0
 11
5.901827441246478
 21
3.209780948662965
 31
0.0
  0
LINE
  5
3CF1
330
1E
100
AcDbEntity
  8
3
100
AcDbLine
 10
5.901827441246478
 20
3.209780948662965
 30
0.0
 11
5.781748701088996
 21
3.243245515592098
 31
0.0
  0
LINE
  5
3CF2
330
1E
100
AcDbEntity
  8
3
100
AcDbLine
 10
5.781748701088996
 20
3.243245515592098
 30
0.0
 11
5.659701456994509
 21
3.258993547088161
 31
0.0
  0
LINE
  5
3CF3
330
1E
100
AcDbEntity
  8
3
100
AcDbLine
 10
5.659701456994509
 20
3.258993547088161
 30
0.0
 11
5.533717205026004
 21
3.258993547088161
 31
0.0
  0
LINE
  5
3CF4
330
1E
100
AcDbEntity
  8
3
100
AcDbLine
 10
5.596709331010256
 20
1.402694334489735
 30
0.0
 11
5.720725079041752
 21
1.410568350237767
 31
0.0
  0
LINE
  5
3CF5
330
1E
100
AcDbEntity
  8
3
100
AcDbLine
 10
5.720725079041752
 20
1.410568350237767
 30
0.0
 11
5.842772323136241
 21
1.436158901418869
 31
0.0
  0
LINE
  5
3CF6
330
1E
100
AcDbEntity
  8
3
100
AcDbLine
 10
5.842772323136241
 20
1.436158901418869
 30
0.0
 11
5.958914055419706
 21
1.475528980159028
 31
0.0
  0
LINE
  5
3CF7
330
1E
100
AcDbEntity
  8
3
100
AcDbLine
 10
5.958914055419706
 20
1.475528980159028
 30
0.0
 11
6.071118779829154
 21
1.532615594332256
 31
0.0
  0
LINE
  5
3CF8
330
1E
100
AcDbEntity
  8
3
100
AcDbLine
 10
6.071118779829154
 20
1.532615594332256
 30
0.0
 11
6.173480984553563
 21
1.603481736064539
 31
0.0
  0
LINE
  5
3CF9
330
1E
100
AcDbEntity
  8
3
100
AcDbLine
 10
6.173480984553563
 20
1.603481736064539
 30
0.0
 11
6.264032165655926
 21
1.686158901418869
 31
0.0
  0
LINE
  5
3CFA
330
1E
100
AcDbEntity
  8
3
100
AcDbLine
 10
6.264032165655926
 20
1.686158901418869
 30
0.0
 11
6.344740827073248
 21
1.780647090395248
 31
0.0
  0
LINE
  5
3CFB
330
1E
100
AcDbEntity
  8
3
100
AcDbLine
 10
6.344740827073248
 20
1.780647090395248
 30
0.0
 11
6.411669960931517
 21
1.884977799056665
 31
0.0
  0
LINE
  5
3CFC
330
1E
100
AcDbEntity
  8
3
100
AcDbLine
 10
6.411669960931517
 20
1.884977799056665
 30
0.0
 11
6.462851063293721
 21
1.997182523466113
 31
0.0
  0
LINE
  5
3CFD
330
1E
100
AcDbEntity
  8
3
100
AcDbLine
 10
6.462851063293721
 20
1.997182523466113
 30
0.0
 11
6.500252638096871
 21
2.117261263623595
 31
0.0
  0
LINE
  5
3CFE
330
1E
100
AcDbEntity
  8
3
100
AcDbLine
 10
4.610488858569311
 20
1.621198271497609
 30
0.0
 11
4.616394370380335
 21
1.570017169135406
 31
0.0
  0
LINE
  5
3CFF
330
1E
100
AcDbEntity
  8
3
100
AcDbLine
 10
4.616394370380335
 20
1.570017169135406
 30
0.0
 11
4.64001641762443
 21
1.524741578584224
 31
0.0
  0
LINE
  5
3D00
330
1E
100
AcDbEntity
  8
3
100
AcDbLine
 10
4.64001641762443
 20
1.524741578584224
 30
0.0
 11
4.645921929435454
 21
1.516867562836193
 31
0.0
  0
LINE
  5
3D01
330
1E
100
AcDbEntity
  8
3
100
AcDbLine
 10
4.758126653844902
 20
1.78655260220627
 30
0.0
 11
4.685292008175611
 21
1.745214019529106
 31
0.0
  0
LINE
  5
3D02
330
1E
100
AcDbEntity
  8
3
100
AcDbLine
 10
4.685292008175611
 20
1.745214019529106
 30
0.0
 11
4.645921929435454
 21
1.71371795653698
 31
0.0
  0
LINE
  5
3D03
330
1E
100
AcDbEntity
  8
3
100
AcDbLine
 10
4.645921929435454
 20
1.71371795653698
 30
0.0
 11
4.620331378254352
 21
1.670410869922806
 31
0.0
  0
LINE
  5
3D04
330
1E
100
AcDbEntity
  8
3
100
AcDbLine
 10
4.620331378254352
 20
1.670410869922806
 30
0.0
 11
4.610488858569311
 21
1.621198271497609
 31
0.0
  0
LINE
  5
3D05
330
1E
100
AcDbEntity
  8
3
100
AcDbLine
 10
4.643953425498446
 20
2.607418743938554
 30
0.0
 11
4.614425866443328
 21
2.469623468348004
 31
0.0
  0
LINE
  5
3D06
330
1E
100
AcDbEntity
  8
3
100
AcDbLine
 10
4.614425866443328
 20
2.469623468348004
 30
0.0
 11
4.604583346758289
 21
2.331828192757452
 31
0.0
  0
LINE
  5
3D07
330
1E
100
AcDbEntity
  8
3
100
AcDbLine
 10
4.604583346758289
 20
2.331828192757452
 30
0.0
 11
4.614425866443328
 21
2.1940329171669
 31
0.0
  0
LINE
  5
3D08
330
1E
100
AcDbEntity
  8
3
100
AcDbLine
 10
4.614425866443328
 20
2.1940329171669
 30
0.0
 11
4.643953425498446
 21
2.05623764157635
 31
0.0
  0
LINE
  5
3D09
330
1E
100
AcDbEntity
  8
3
100
AcDbLine
 10
4.643953425498446
 20
2.05623764157635
 30
0.0
 11
4.691197519986635
 21
1.92631638173383
 31
0.0
  0
LINE
  5
3D0A
330
1E
100
AcDbEntity
  8
3
100
AcDbLine
 10
4.691197519986635
 20
1.92631638173383
 30
0.0
 11
4.756158149907895
 21
1.804269137639343
 31
0.0
  0
LINE
  5
3D0B
330
1E
100
AcDbEntity
  8
3
100
AcDbLine
 10
4.756158149907895
 20
2.859387247875563
 30
0.0
 11
4.691197519986635
 21
2.737340003781074
 31
0.0
  0
LINE
  5
3D0C
330
1E
100
AcDbEntity
  8
3
100
AcDbLine
 10
4.691197519986635
 20
2.737340003781074
 30
0.0
 11
4.643953425498446
 21
2.607418743938554
 31
0.0
  0
LINE
  5
3D0D
330
1E
100
AcDbEntity
  8
3
100
AcDbLine
 10
4.616394370380335
 20
3.003088035277137
 30
0.0
 11
4.64001641762443
 21
2.957812444725956
 31
0.0
  0
LINE
  5
3D0E
330
1E
100
AcDbEntity
  8
3
100
AcDbLine
 10
4.64001641762443
 20
2.957812444725956
 30
0.0
 11
4.67741799242758
 21
2.924347877796822
 31
0.0
  0
LINE
  5
3D0F
330
1E
100
AcDbEntity
  8
3
100
AcDbLine
 10
4.67741799242758
 20
2.924347877796822
 30
0.0
 11
4.685292008175611
 21
2.918442365985798
 31
0.0
  0
LINE
  5
3D10
330
1E
100
AcDbEntity
  8
3
100
AcDbLine
 10
4.645921929435454
 20
3.146788822678711
 30
0.0
 11
4.620331378254352
 21
3.103481736064539
 31
0.0
  0
LINE
  5
3D11
330
1E
100
AcDbEntity
  8
3
100
AcDbLine
 10
4.620331378254352
 20
3.103481736064539
 30
0.0
 11
4.610488858569311
 21
3.052300633702333
 31
0.0
  0
LINE
  5
3D12
330
1E
100
AcDbEntity
  8
3
100
AcDbLine
 10
4.610488858569311
 20
3.052300633702333
 30
0.0
 11
4.616394370380335
 21
3.003088035277137
 31
0.0
  0
LINE
  5
3D13
330
1E
100
AcDbEntity
  8
3
100
AcDbLine
 10
5.366394370380335
 20
3.560174649450365
 30
0.0
 11
5.203008543608682
 21
3.5188360667732
 31
0.0
  0
LINE
  5
3D14
330
1E
100
AcDbEntity
  8
3
100
AcDbLine
 10
5.203008543608682
 20
3.5188360667732
 30
0.0
 11
5.045528228648052
 21
3.453875436851941
 31
0.0
  0
LINE
  5
3D15
330
1E
100
AcDbEntity
  8
3
100
AcDbLine
 10
5.045528228648052
 20
3.453875436851941
 30
0.0
 11
4.899858937309469
 21
3.369229767560602
 31
0.0
  0
LINE
  5
3D16
330
1E
100
AcDbEntity
  8
3
100
AcDbLine
 10
4.899858937309469
 20
3.369229767560602
 30
0.0
 11
4.766000669592934
 21
3.266867562836193
 31
0.0
  0
LINE
  5
3D17
330
1E
100
AcDbEntity
  8
3
100
AcDbLine
 10
4.766000669592934
 20
3.266867562836193
 30
0.0
 11
4.647890433372461
 21
3.144820318741704
 31
0.0
  0
LINE
  5
3D18
330
1E
100
AcDbEntity
  8
3
100
AcDbLine
 10
5.545528228648052
 20
3.329859688820445
 30
0.0
 11
5.545528228648052
 21
3.414505358111783
 31
0.0
  0
LINE
  5
3D19
330
1E
100
AcDbEntity
  8
3
100
AcDbLine
 10
5.545528228648052
 20
3.414505358111783
 30
0.0
 11
5.535685708963013
 21
3.46371795653698
 31
0.0
  0
LINE
  5
3D1A
330
1E
100
AcDbEntity
  8
3
100
AcDbLine
 10
5.535685708963013
 20
3.46371795653698
 30
0.0
 11
5.512063661718919
 21
3.508993547088161
 31
0.0
  0
LINE
  5
3D1B
330
1E
100
AcDbEntity
  8
3
100
AcDbLine
 10
5.512063661718919
 20
3.508993547088161
 30
0.0
 11
5.474662086915769
 21
3.542458114017295
 31
0.0
  0
LINE
  5
3D1C
330
1E
100
AcDbEntity
  8
3
100
AcDbLine
 10
5.474662086915769
 20
3.542458114017295
 30
0.0
 11
5.42741799242758
 21
3.560174649450365
 31
0.0
  0
LINE
  5
3D1D
330
1E
100
AcDbEntity
  8
3
100
AcDbLine
 10
5.42741799242758
 20
3.560174649450365
 30
0.0
 11
5.378205394002383
 21
3.564111657324382
 31
0.0
  0
LINE
  5
3D1E
330
1E
100
AcDbEntity
  8
3
100
AcDbLine
 10
5.378205394002383
 20
3.564111657324382
 30
0.0
 11
5.366394370380335
 21
3.562143153387374
 31
0.0
  0
LINE
  5
3D1F
330
1E
100
AcDbEntity
  8
3
100
AcDbLine
 10
5.968756575104745
 20
3.25111953134013
 30
0.0
 11
5.834898307388209
 21
3.294426617954302
 31
0.0
  0
LINE
  5
3D20
330
1E
100
AcDbEntity
  8
3
100
AcDbLine
 10
5.834898307388209
 20
3.294426617954302
 30
0.0
 11
5.699071535734667
 21
3.318048665198396
 31
0.0
  0
LINE
  5
3D21
330
1E
100
AcDbEntity
  8
3
100
AcDbLine
 10
5.699071535734667
 20
3.318048665198396
 30
0.0
 11
5.559307756207108
 21
3.32395417700942
 31
0.0
  0
LINE
  5
3D22
330
1E
100
AcDbEntity
  8
3
100
AcDbLine
 10
6.474662086915769
 20
2.794426617954302
 30
0.0
 11
6.399858937309469
 21
2.912536854174774
 31
0.0
  0
LINE
  5
3D23
330
1E
100
AcDbEntity
  8
3
100
AcDbLine
 10
6.399858937309469
 20
2.912536854174774
 30
0.0
 11
6.311276260144115
 21
3.020804570710208
 31
0.0
  0
LINE
  5
3D24
330
1E
100
AcDbEntity
  8
3
100
AcDbLine
 10
6.311276260144115
 20
3.020804570710208
 30
0.0
 11
6.208914055419706
 21
3.113324255749578
 31
0.0
  0
LINE
  5
3D25
330
1E
100
AcDbEntity
  8
3
100
AcDbLine
 10
6.208914055419706
 20
3.113324255749578
 30
0.0
 11
6.092772323136241
 21
3.190095909292885
 31
0.0
  0
LINE
  5
3D26
330
1E
100
AcDbEntity
  8
3
100
AcDbLine
 10
6.092772323136241
 20
3.190095909292885
 30
0.0
 11
5.968756575104745
 21
3.25111953134013
 31
0.0
  0
LINE
  5
3D27
330
1E
100
AcDbEntity
  8
3
100
AcDbLine
 10
6.667575472742541
 20
2.8436392163795
 30
0.0
 11
6.618362874317343
 21
2.847576224253515
 31
0.0
  0
LINE
  5
3D28
330
1E
100
AcDbEntity
  8
3
100
AcDbLine
 10
6.618362874317343
 20
2.847576224253515
 30
0.0
 11
6.569150275892146
 21
2.831828192757452
 31
0.0
  0
LINE
  5
3D29
330
1E
100
AcDbEntity
  8
3
100
AcDbLine
 10
6.569150275892146
 20
2.831828192757452
 30
0.0
 11
6.561276260144115
 21
2.827891184883437
 31
0.0
  0
LINE
  5
3D2A
330
1E
100
AcDbEntity
  8
3
100
AcDbLine
 10
6.777811693214982
 20
2.747182523466113
 30
0.0
 11
6.752221142033878
 21
2.792458114017295
 31
0.0
  0
LINE
  5
3D2B
330
1E
100
AcDbEntity
  8
3
100
AcDbLine
 10
6.752221142033878
 20
2.792458114017295
 30
0.0
 11
6.71481956723073
 21
2.825922680946428
 31
0.0
  0
LINE
  5
3D2C
330
1E
100
AcDbEntity
  8
3
100
AcDbLine
 10
6.71481956723073
 20
2.825922680946428
 30
0.0
 11
6.667575472742541
 21
2.8436392163795
 31
0.0
  0
LINE
  5
3D2D
330
1E
100
AcDbEntity
  8
3
100
AcDbLine
 10
6.775843189277972
 20
1.916473862048791
 30
0.0
 11
6.821118779829154
 21
2.079859688820445
 31
0.0
  0
LINE
  5
3D2E
330
1E
100
AcDbEntity
  8
3
100
AcDbLine
 10
6.821118779829154
 20
2.079859688820445
 30
0.0
 11
6.844740827073248
 21
2.247182523466113
 31
0.0
  0
LINE
  5
3D2F
330
1E
100
AcDbEntity
  8
3
100
AcDbLine
 10
6.844740827073248
 20
2.247182523466113
 30
0.0
 11
6.844740827073248
 21
2.416473862048791
 31
0.0
  0
LINE
  5
3D30
330
1E
100
AcDbEntity
  8
3
100
AcDbLine
 10
6.844740827073248
 20
2.416473862048791
 30
0.0
 11
6.821118779829154
 21
2.583796696694459
 31
0.0
  0
LINE
  5
3D31
330
1E
100
AcDbEntity
  8
3
100
AcDbLine
 10
6.821118779829154
 20
2.583796696694459
 30
0.0
 11
6.775843189277972
 21
2.747182523466113
 31
0.0
  0
LINE
  5
3D32
330
1E
100
AcDbEntity
  8
3
100
AcDbLine
 10
6.488441614474824
 20
1.877103783308633
 30
0.0
 11
6.561276260144115
 21
1.835765200631469
 31
0.0
  0
LINE
  5
3D33
330
1E
100
AcDbEntity
  8
3
100
AcDbLine
 10
6.561276260144115
 20
1.835765200631469
 30
0.0
 11
6.608520354632304
 21
1.818048665198396
 31
0.0
  0
LINE
  5
3D34
330
1E
100
AcDbEntity
  8
3
100
AcDbLine
 10
6.608520354632304
 20
1.818048665198396
 30
0.0
 11
6.6577329530575
 21
1.816080161261389
 31
0.0
  0
LINE
  5
3D35
330
1E
100
AcDbEntity
  8
3
100
AcDbLine
 10
6.6577329530575
 20
1.816080161261389
 30
0.0
 11
6.706945551482698
 21
1.831828192757452
 31
0.0
  0
LINE
  5
3D36
330
1E
100
AcDbEntity
  8
3
100
AcDbLine
 10
6.706945551482698
 20
1.831828192757452
 30
0.0
 11
6.746315630222856
 21
1.863324255749578
 31
0.0
  0
LINE
  5
3D37
330
1E
100
AcDbEntity
  8
3
100
AcDbLine
 10
6.746315630222856
 20
1.863324255749578
 30
0.0
 11
6.773874685340965
 21
1.906631342363752
 31
0.0
  0
LINE
  5
3D38
330
1E
100
AcDbEntity
  8
3
100
AcDbLine
 10
6.773874685340965
 20
1.906631342363752
 30
0.0
 11
6.777811693214982
 21
1.916473862048791
 31
0.0
  0
LINE
  5
3D39
330
1E
100
AcDbEntity
  8
3
100
AcDbLine
 10
5.968756575104745
 20
1.412536854174774
 30
0.0
 11
6.092772323136241
 21
1.473560476222019
 31
0.0
  0
LINE
  5
3D3A
330
1E
100
AcDbEntity
  8
3
100
AcDbLine
 10
6.092772323136241
 20
1.473560476222019
 30
0.0
 11
6.208914055419706
 21
1.550332129765326
 31
0.0
  0
LINE
  5
3D3B
330
1E
100
AcDbEntity
  8
3
100
AcDbLine
 10
6.208914055419706
 20
1.550332129765326
 30
0.0
 11
6.311276260144115
 21
1.642851814804696
 31
0.0
  0
LINE
  5
3D3C
330
1E
100
AcDbEntity
  8
3
100
AcDbLine
 10
6.311276260144115
 20
1.642851814804696
 30
0.0
 11
6.399858937309469
 21
1.75111953134013
 31
0.0
  0
LINE
  5
3D3D
330
1E
100
AcDbEntity
  8
3
100
AcDbLine
 10
6.399858937309469
 20
1.75111953134013
 30
0.0
 11
6.474662086915769
 21
1.869229767560602
 31
0.0
  0
LINE
  5
3D3E
330
1E
100
AcDbEntity
  8
3
100
AcDbLine
 10
5.559307756207108
 20
1.339702208505483
 30
0.0
 11
5.699071535734667
 21
1.345607720316507
 31
0.0
  0
LINE
  5
3D3F
330
1E
100
AcDbEntity
  8
3
100
AcDbLine
 10
5.699071535734667
 20
1.345607720316507
 30
0.0
 11
5.834898307388209
 21
1.369229767560602
 31
0.0
  0
LINE
  5
3D40
330
1E
100
AcDbEntity
  8
3
100
AcDbLine
 10
5.834898307388209
 20
1.369229767560602
 30
0.0
 11
5.968756575104745
 21
1.412536854174774
 31
0.0
  0
LINE
  5
3D41
330
1E
100
AcDbEntity
  8
3
100
AcDbLine
 10
5.417575472742541
 20
1.099544728190522
 30
0.0
 11
5.46481956723073
 21
1.117261263623595
 31
0.0
  0
LINE
  5
3D42
330
1E
100
AcDbEntity
  8
3
100
AcDbLine
 10
5.46481956723073
 20
1.117261263623595
 30
0.0
 11
5.506158149907895
 21
1.146788822678711
 31
0.0
  0
LINE
  5
3D43
330
1E
100
AcDbEntity
  8
3
100
AcDbLine
 10
5.506158149907895
 20
1.146788822678711
 30
0.0
 11
5.533717205026004
 21
1.190095909292885
 31
0.0
  0
LINE
  5
3D44
330
1E
100
AcDbEntity
  8
3
100
AcDbLine
 10
5.533717205026004
 20
1.190095909292885
 30
0.0
 11
5.543559724711045
 21
1.239308507718082
 31
0.0
  0
LINE
  5
3D45
330
1E
100
AcDbEntity
  8
3
100
AcDbLine
 10
5.543559724711045
 20
1.239308507718082
 30
0.0
 11
5.545528228648052
 21
1.249151027403122
 31
0.0
  0
LINE
  5
3D46
330
1E
100
AcDbEntity
  8
3
100
AcDbLine
 10
4.647890433372461
 20
1.5188360667732
 30
0.0
 11
4.766000669592934
 21
1.396788822678711
 31
0.0
  0
LINE
  5
3D47
330
1E
100
AcDbEntity
  8
3
100
AcDbLine
 10
4.766000669592934
 20
1.396788822678711
 30
0.0
 11
4.899858937309469
 21
1.294426617954302
 31
0.0
  0
LINE
  5
3D48
330
1E
100
AcDbEntity
  8
3
100
AcDbLine
 10
4.899858937309469
 20
1.294426617954302
 30
0.0
 11
5.045528228648052
 21
1.209780948662965
 31
0.0
  0
LINE
  5
3D49
330
1E
100
AcDbEntity
  8
3
100
AcDbLine
 10
5.045528228648052
 20
1.209780948662965
 30
0.0
 11
5.203008543608682
 21
1.144820318741704
 31
0.0
  0
LINE
  5
3D4A
330
1E
100
AcDbEntity
  8
3
100
AcDbLine
 10
5.203008543608682
 20
1.144820318741704
 30
0.0
 11
5.366394370380335
 21
1.103481736064539
 31
0.0
  0
LINE
  5
3D4B
330
1E
100
AcDbEntity
  8
3
100
AcDbLine
 10
5.559307756207108
 20
3.331828192757452
 30
0.0
 11
5.551433740459076
 21
3.329859688820445
 31
0.0
  0
LINE
  5
3D4C
330
1E
100
AcDbEntity
  8
3
100
AcDbLine
 10
5.551433740459076
 20
3.329859688820445
 30
0.0
 11
5.543559724711045
 21
3.329859688820445
 31
0.0
  0
LINE
  5
3D4D
330
1E
100
AcDbEntity
  8
3
100
AcDbLine
 10
4.750252638096871
 20
1.800332129765326
 30
0.0
 11
4.754189645970887
 21
1.794426617954302
 31
0.0
  0
LINE
  5
3D4E
330
1E
100
AcDbEntity
  8
3
100
AcDbLine
 10
4.754189645970887
 20
1.794426617954302
 30
0.0
 11
4.758126653844902
 21
1.78655260220627
 31
0.0
  0
LINE
  5
3D4F
330
1E
100
AcDbEntity
  8
3
100
AcDbLine
 10
6.480567598726793
 20
1.865292759686585
 30
0.0
 11
6.484504606600808
 21
1.871198271497609
 31
0.0
  0
LINE
  5
3D50
330
1E
100
AcDbEntity
  8
3
100
AcDbLine
 10
6.484504606600808
 20
1.871198271497609
 30
0.0
 11
6.488441614474824
 21
1.877103783308633
 31
0.0
  0
LINE
  5
3D51
330
1E
100
AcDbEntity
  8
3
100
AcDbLine
 10
4.758126653844902
 20
2.877103783308633
 30
0.0
 11
4.754189645970887
 21
2.869229767560602
 31
0.0
  0
LINE
  5
3D52
330
1E
100
AcDbEntity
  8
3
100
AcDbLine
 10
4.754189645970887
 20
2.869229767560602
 30
0.0
 11
4.750252638096871
 21
2.863324255749578
 31
0.0
  0
LINE
  5
3D53
330
1E
100
AcDbEntity
  8
3
100
AcDbLine
 10
6.488441614474824
 20
2.78655260220627
 30
0.0
 11
6.484504606600808
 21
2.792458114017295
 31
0.0
  0
LINE
  5
3D54
330
1E
100
AcDbEntity
  8
3
100
AcDbLine
 10
6.484504606600808
 20
2.792458114017295
 30
0.0
 11
6.480567598726793
 21
2.798363625828319
 31
0.0
  0
LINE
  5
3D55
330
1E
100
AcDbEntity
  8
3
100
AcDbLine
 10
5.543559724711045
 20
1.333796696694459
 30
0.0
 11
5.551433740459076
 21
1.333796696694459
 31
0.0
  0
LINE
  5
3D56
330
1E
100
AcDbEntity
  8
3
100
AcDbLine
 10
5.551433740459076
 20
1.333796696694459
 30
0.0
 11
5.559307756207108
 21
1.331828192757452
 31
0.0
  0
LINE
  5
3D57
330
1E
100
AcDbEntity
  8
3
100
AcDbLine
 10
5.108520354632304
 20
1.760962051025169
 30
0.0
 11
5.120331378254352
 21
1.770804570710208
 31
0.0
  0
LINE
  5
3D58
330
1E
100
AcDbEntity
  8
3
100
AcDbLine
 10
5.120331378254352
 20
1.770804570710208
 30
0.0
 11
5.132142401876398
 21
1.770804570710208
 31
0.0
  0
LINE
  5
3D59
330
1E
100
AcDbEntity
  8
3
100
AcDbLine
 10
5.132142401876398
 20
1.770804570710208
 30
0.0
 11
5.147890433372461
 21
1.7688360667732
 31
0.0
  0
LINE
  5
3D5A
330
1E
100
AcDbEntity
  8
3
100
AcDbLine
 10
5.147890433372461
 20
1.7688360667732
 30
0.0
 11
5.161669960931517
 21
1.760962051025169
 31
0.0
  0
LINE
  5
3D5B
330
1E
100
AcDbEntity
  8
3
100
AcDbLine
 10
5.161669960931517
 20
1.760962051025169
 30
0.0
 11
5.165606968805532
 21
1.758993547088161
 31
0.0
  0
LINE
  5
3D5C
330
1E
100
AcDbEntity
  8
3
100
AcDbLine
 10
5.165606968805532
 20
1.758993547088161
 30
0.0
 11
5.238441614474824
 21
1.711749452599972
 31
0.0
  0
LINE
  5
3D5D
330
1E
100
AcDbEntity
  8
3
100
AcDbLine
 10
5.238441614474824
 20
1.711749452599972
 30
0.0
 11
5.317181771955139
 21
1.672379373859815
 31
0.0
  0
LINE
  5
3D5E
330
1E
100
AcDbEntity
  8
3
100
AcDbLine
 10
5.346709331010258
 20
1.623166775434617
 30
0.0
 11
5.348677834947265
 21
1.63891480693068
 31
0.0
  0
LINE
  5
3D5F
330
1E
100
AcDbEntity
  8
3
100
AcDbLine
 10
5.348677834947265
 20
1.63891480693068
 30
0.0
 11
5.344740827073248
 21
1.64875732661572
 31
0.0
  0
LINE
  5
3D60
330
1E
100
AcDbEntity
  8
3
100
AcDbLine
 10
5.344740827073248
 20
1.64875732661572
 30
0.0
 11
5.332929803451202
 21
1.660568350237767
 31
0.0
  0
LINE
  5
3D61
330
1E
100
AcDbEntity
  8
3
100
AcDbLine
 10
5.332929803451202
 20
1.660568350237767
 30
0.0
 11
5.321118779829154
 21
1.668442365985798
 31
0.0
  0
LINE
  5
3D62
330
1E
100
AcDbEntity
  8
3
100
AcDbLine
 10
5.321118779829154
 20
1.668442365985798
 30
0.0
 11
5.317181771955139
 21
1.670410869922806
 31
0.0
  0
LINE
  5
3D63
330
1E
100
AcDbEntity
  8
3
100
AcDbLine
 10
5.317181771955139
 20
1.670410869922806
 30
0.0
 11
5.321118779829154
 21
1.678284885670837
 31
0.0
  0
LINE
  5
3D64
330
1E
100
AcDbEntity
  8
3
100
AcDbLine
 10
5.596709331010256
 20
2.381040791182648
 30
0.0
 11
5.569150275892146
 21
2.373166775434617
 31
0.0
  0
LINE
  5
3D65
330
1E
100
AcDbEntity
  8
3
100
AcDbLine
 10
5.569150275892146
 20
2.373166775434617
 30
0.0
 11
5.551433740459076
 21
2.351513232127532
 31
0.0
  0
LINE
  5
3D66
330
1E
100
AcDbEntity
  8
3
100
AcDbLine
 10
5.551433740459076
 20
2.351513232127532
 30
0.0
 11
5.547496732585059
 21
2.32395417700942
 31
0.0
  0
LINE
  5
3D67
330
1E
100
AcDbEntity
  8
3
100
AcDbLine
 10
5.547496732585059
 20
2.32395417700942
 30
0.0
 11
5.559307756207108
 21
2.300332129765326
 31
0.0
  0
LINE
  5
3D68
330
1E
100
AcDbEntity
  8
3
100
AcDbLine
 10
5.559307756207108
 20
2.300332129765326
 30
0.0
 11
5.582929803451202
 21
2.284584098269263
 31
0.0
  0
LINE
  5
3D69
330
1E
100
AcDbEntity
  8
3
100
AcDbLine
 10
5.582929803451202
 20
2.284584098269263
 30
0.0
 11
5.610488858569311
 21
2.284584098269263
 31
0.0
  0
LINE
  5
3D6A
330
1E
100
AcDbEntity
  8
3
100
AcDbLine
 10
5.610488858569311
 20
2.284584098269263
 30
0.0
 11
5.634110905813406
 21
2.300332129765326
 31
0.0
  0
LINE
  5
3D6B
330
1E
100
AcDbEntity
  8
3
100
AcDbLine
 10
5.634110905813406
 20
2.300332129765326
 30
0.0
 11
5.645921929435454
 21
2.32395417700942
 31
0.0
  0
LINE
  5
3D6C
330
1E
100
AcDbEntity
  8
3
100
AcDbLine
 10
5.645921929435454
 20
2.32395417700942
 30
0.0
 11
5.641984921561437
 21
2.351513232127532
 31
0.0
  0
LINE
  5
3D6D
330
1E
100
AcDbEntity
  8
3
100
AcDbLine
 10
5.641984921561437
 20
2.351513232127532
 30
0.0
 11
5.624268386128367
 21
2.373166775434617
 31
0.0
  0
LINE
  5
3D6E
330
1E
100
AcDbEntity
  8
3
100
AcDbLine
 10
5.624268386128367
 20
2.373166775434617
 30
0.0
 11
5.596709331010256
 21
2.381040791182648
 31
0.0
  0
LINE
  5
3D6F
330
1E
100
AcDbEntity
  8
3
100
AcDbLine
 10
5.636079409750415
 20
2.337733704568476
 30
0.0
 11
5.622299882191359
 21
2.36135575181257
 31
0.0
  0
LINE
  5
3D70
330
1E
100
AcDbEntity
  8
3
100
AcDbLine
 10
5.622299882191359
 20
2.36135575181257
 30
0.0
 11
5.596709331010256
 21
2.371198271497609
 31
0.0
  0
LINE
  5
3D71
330
1E
100
AcDbEntity
  8
3
100
AcDbLine
 10
5.596709331010256
 20
2.371198271497609
 30
0.0
 11
5.571118779829154
 21
2.36135575181257
 31
0.0
  0
LINE
  5
3D72
330
1E
100
AcDbEntity
  8
3
100
AcDbLine
 10
5.571118779829154
 20
2.36135575181257
 30
0.0
 11
5.557339252270098
 21
2.337733704568476
 31
0.0
  0
LINE
  5
3D73
330
1E
100
AcDbEntity
  8
3
100
AcDbLine
 10
5.557339252270098
 20
2.337733704568476
 30
0.0
 11
5.563244764081122
 21
2.312143153387374
 31
0.0
  0
LINE
  5
3D74
330
1E
100
AcDbEntity
  8
3
100
AcDbLine
 10
5.563244764081122
 20
2.312143153387374
 30
0.0
 11
5.582929803451202
 21
2.294426617954302
 31
0.0
  0
LINE
  5
3D75
330
1E
100
AcDbEntity
  8
3
100
AcDbLine
 10
5.582929803451202
 20
2.294426617954302
 30
0.0
 11
5.610488858569311
 21
2.294426617954302
 31
0.0
  0
LINE
  5
3D76
330
1E
100
AcDbEntity
  8
3
100
AcDbLine
 10
5.610488858569311
 20
2.294426617954302
 30
0.0
 11
5.630173897939391
 21
2.312143153387374
 31
0.0
  0
LINE
  5
3D77
330
1E
100
AcDbEntity
  8
3
100
AcDbLine
 10
5.630173897939391
 20
2.312143153387374
 30
0.0
 11
5.636079409750415
 21
2.337733704568476
 31
0.0
  0
LINE
  5
3D78
330
1E
100
AcDbEntity
  8
3
100
AcDbLine
 10
5.303402244396083
 20
3.127103783308633
 30
0.0
 11
5.173480984553563
 21
3.066080161261389
 31
0.0
  0
LINE
  5
3D79
330
1E
100
AcDbEntity
  8
3
100
AcDbLine
 10
5.173480984553563
 20
3.066080161261389
 30
0.0
 11
5.053402244396083
 21
2.983402995907059
 31
0.0
  0
LINE
  5
3D7A
330
1E
100
AcDbEntity
  8
3
100
AcDbLine
 10
5.346709331010258
 20
3.03852110614328
 30
0.0
 11
5.348677834947265
 21
3.024741578584224
 31
0.0
  0
LINE
  5
3D7B
330
1E
100
AcDbEntity
  8
3
100
AcDbLine
 10
5.348677834947265
 20
3.024741578584224
 30
0.0
 11
5.344740827073248
 21
3.012930554962176
 31
0.0
  0
LINE
  5
3D7C
330
1E
100
AcDbEntity
  8
3
100
AcDbLine
 10
5.344740827073248
 20
3.012930554962176
 30
0.0
 11
5.332929803451202
 21
3.003088035277137
 31
0.0
  0
LINE
  5
3D7D
330
1E
100
AcDbEntity
  8
3
100
AcDbLine
 10
5.332929803451202
 20
3.003088035277137
 30
0.0
 11
5.321118779829154
 21
2.995214019529106
 31
0.0
  0
LINE
  5
3D7E
330
1E
100
AcDbEntity
  8
3
100
AcDbLine
 10
5.321118779829154
 20
2.995214019529106
 30
0.0
 11
5.317181771955139
 21
2.991277011655091
 31
0.0
  0
LINE
  5
3D7F
330
1E
100
AcDbEntity
  8
3
100
AcDbLine
 10
5.108520354632304
 20
2.902694334489735
 30
0.0
 11
5.120331378254352
 21
2.892851814804696
 31
0.0
  0
LINE
  5
3D80
330
1E
100
AcDbEntity
  8
3
100
AcDbLine
 10
5.120331378254352
 20
2.892851814804696
 30
0.0
 11
5.132142401876398
 21
2.890883310867689
 31
0.0
  0
LINE
  5
3D81
330
1E
100
AcDbEntity
  8
3
100
AcDbLine
 10
5.132142401876398
 20
2.890883310867689
 30
0.0
 11
5.147890433372461
 21
2.894820318741704
 31
0.0
  0
LINE
  5
3D82
330
1E
100
AcDbEntity
  8
3
100
AcDbLine
 10
5.147890433372461
 20
2.894820318741704
 30
0.0
 11
5.161669960931517
 21
2.902694334489735
 31
0.0
  0
LINE
  5
3D83
330
1E
100
AcDbEntity
  8
3
100
AcDbLine
 10
5.161669960931517
 20
2.902694334489735
 30
0.0
 11
5.165606968805532
 21
2.904662838426743
 31
0.0
  0
LINE
  5
3D84
330
1E
100
AcDbEntity
  8
3
100
AcDbLine
 10
5.317181771955139
 20
2.991277011655091
 30
0.0
 11
5.238441614474824
 21
2.951906932914932
 31
0.0
  0
LINE
  5
3D85
330
1E
100
AcDbEntity
  8
3
100
AcDbLine
 10
5.238441614474824
 20
2.951906932914932
 30
0.0
 11
5.165606968805532
 21
2.904662838426743
 31
0.0
  0
LINE
  5
3D86
330
1E
100
AcDbEntity
  8
3
100
AcDbLine
 10
5.498284134159863
 20
3.134977799056665
 30
0.0
 11
5.411669960931517
 21
3.119229767560602
 31
0.0
  0
LINE
  5
3D87
330
1E
100
AcDbEntity
  8
3
100
AcDbLine
 10
5.411669960931517
 20
3.119229767560602
 30
0.0
 11
5.327024291640178
 21
3.095607720316507
 31
0.0
  0
LINE
  5
3D88
330
1E
100
AcDbEntity
  8
3
100
AcDbLine
 10
5.498284134159863
 20
3.134977799056665
 30
0.0
 11
5.498284134159863
 21
3.133009295119657
 31
0.0
  0
LINE
  5
3D89
330
1E
100
AcDbEntity
  8
3
100
AcDbLine
 10
5.498284134159863
 20
3.133009295119657
 30
0.0
 11
5.500252638096871
 21
3.131040791182648
 31
0.0
  0
LINE
  5
3D8A
330
1E
100
AcDbEntity
  8
3
100
AcDbLine
 10
5.500252638096871
 20
3.131040791182648
 30
0.0
 11
5.500252638096871
 21
3.129072287245641
 31
0.0
  0
LINE
  5
3D8B
330
1E
100
AcDbEntity
  8
3
100
AcDbLine
 10
5.500252638096871
 20
3.127103783308633
 30
0.0
 11
5.415606968805532
 21
3.11135575181257
 31
0.0
  0
LINE
  5
3D8C
330
1E
100
AcDbEntity
  8
3
100
AcDbLine
 10
5.415606968805532
 20
3.11135575181257
 30
0.0
 11
5.330961299514193
 21
3.087733704568476
 31
0.0
  0
LINE
  5
3D8D
330
1E
100
AcDbEntity
  8
3
100
AcDbLine
 10
5.537654212900021
 20
3.062143153387374
 30
0.0
 11
5.451040039671674
 21
3.050332129765326
 31
0.0
  0
LINE
  5
3D8E
330
1E
100
AcDbEntity
  8
3
100
AcDbLine
 10
5.451040039671674
 20
3.050332129765326
 30
0.0
 11
5.366394370380335
 21
3.026710082521232
 31
0.0
  0
LINE
  5
3D8F
330
1E
100
AcDbEntity
  8
3
100
AcDbLine
 10
5.598677834947265
 20
3.024741578584224
 30
0.0
 11
5.508126653844902
 21
3.0188360667732
 31
0.0
  0
LINE
  5
3D90
330
1E
100
AcDbEntity
  8
3
100
AcDbLine
 10
5.508126653844902
 20
3.0188360667732
 30
0.0
 11
5.419543976679548
 21
3.00111953134013
 31
0.0
  0
LINE
  5
3D91
330
1E
100
AcDbEntity
  8
3
100
AcDbLine
 10
5.61245736250632
 20
3.007025043151154
 30
0.0
 11
5.606551850695296
 21
3.014899058899185
 31
0.0
  0
LINE
  5
3D92
330
1E
100
AcDbEntity
  8
3
100
AcDbLine
 10
5.606551850695296
 20
3.014899058899185
 30
0.0
 11
5.60261484282128
 21
3.020804570710208
 31
0.0
  0
LINE
  5
3D93
330
1E
100
AcDbEntity
  8
3
100
AcDbLine
 10
5.60261484282128
 20
3.020804570710208
 30
0.0
 11
5.600646338884272
 21
3.024741578584224
 31
0.0
  0
LINE
  5
3D94
330
1E
100
AcDbEntity
  8
3
100
AcDbLine
 10
5.600646338884272
 20
3.024741578584224
 30
0.0
 11
5.598677834947265
 21
3.026710082521232
 31
0.0
  0
LINE
  5
3D95
330
1E
100
AcDbEntity
  8
3
100
AcDbLine
 10
5.610488858569311
 20
3.005056539214145
 30
0.0
 11
5.51993767746695
 21
3.00111953134013
 31
0.0
  0
LINE
  5
3D96
330
1E
100
AcDbEntity
  8
3
100
AcDbLine
 10
5.51993767746695
 20
3.00111953134013
 30
0.0
 11
5.431355000301595
 21
2.983402995907059
 31
0.0
  0
LINE
  5
3D97
330
1E
100
AcDbEntity
  8
3
100
AcDbLine
 10
5.169543976679548
 20
2.896788822678711
 30
0.0
 11
5.155764449120493
 21
2.886946302993672
 31
0.0
  0
LINE
  5
3D98
330
1E
100
AcDbEntity
  8
3
100
AcDbLine
 10
5.155764449120493
 20
2.886946302993672
 30
0.0
 11
5.145921929435454
 21
2.877103783308633
 31
0.0
  0
LINE
  5
3D99
330
1E
100
AcDbEntity
  8
3
100
AcDbLine
 10
5.145921929435454
 20
2.877103783308633
 30
0.0
 11
5.136079409750415
 21
2.869229767560602
 31
0.0
  0
LINE
  5
3D9A
330
1E
100
AcDbEntity
  8
3
100
AcDbLine
 10
5.136079409750415
 20
2.869229767560602
 30
0.0
 11
5.132142401876398
 21
2.863324255749578
 31
0.0
  0
LINE
  5
3D9B
330
1E
100
AcDbEntity
  8
3
100
AcDbLine
 10
5.321118779829154
 20
2.985371499844067
 30
0.0
 11
5.242378622348839
 21
2.946001421103909
 31
0.0
  0
LINE
  5
3D9C
330
1E
100
AcDbEntity
  8
3
100
AcDbLine
 10
5.242378622348839
 20
2.946001421103909
 30
0.0
 11
5.169543976679548
 21
2.896788822678711
 31
0.0
  0
LINE
  5
3D9D
330
1E
100
AcDbEntity
  8
3
100
AcDbLine
 10
5.321118779829154
 20
2.985371499844067
 30
0.0
 11
5.336866811325217
 21
2.991277011655091
 31
0.0
  0
LINE
  5
3D9E
330
1E
100
AcDbEntity
  8
3
100
AcDbLine
 10
5.336866811325217
 20
2.991277011655091
 30
0.0
 11
5.350646338884272
 21
2.995214019529106
 31
0.0
  0
LINE
  5
3D9F
330
1E
100
AcDbEntity
  8
3
100
AcDbLine
 10
5.350646338884272
 20
2.995214019529106
 30
0.0
 11
5.36245736250632
 21
2.999151027403122
 31
0.0
  0
LINE
  5
3DA0
330
1E
100
AcDbEntity
  8
3
100
AcDbLine
 10
5.36245736250632
 20
2.999151027403122
 30
0.0
 11
5.368362874317343
 21
3.00111953134013
 31
0.0
  0
LINE
  5
3DA1
330
1E
100
AcDbEntity
  8
3
100
AcDbLine
 10
5.330961299514193
 20
3.089702208505483
 30
0.0
 11
5.328992795577185
 21
3.091670712442491
 31
0.0
  0
LINE
  5
3DA2
330
1E
100
AcDbEntity
  8
3
100
AcDbLine
 10
5.328992795577185
 20
3.091670712442491
 30
0.0
 11
5.328992795577185
 21
3.0936392163795
 31
0.0
  0
LINE
  5
3DA3
330
1E
100
AcDbEntity
  8
3
100
AcDbLine
 10
5.328992795577185
 20
3.0936392163795
 30
0.0
 11
5.327024291640178
 21
3.0936392163795
 31
0.0
  0
LINE
  5
3DA4
330
1E
100
AcDbEntity
  8
3
100
AcDbLine
 10
5.327024291640178
 20
3.0936392163795
 30
0.0
 11
5.327024291640178
 21
3.095607720316507
 31
0.0
  0
LINE
  5
3DA5
330
1E
100
AcDbEntity
  8
3
100
AcDbLine
 10
5.419543976679548
 20
3.003088035277137
 30
0.0
 11
5.419543976679548
 21
3.00111953134013
 31
0.0
  0
LINE
  5
3DA6
330
1E
100
AcDbEntity
  8
3
100
AcDbLine
 10
5.419543976679548
 20
3.00111953134013
 30
0.0
 11
5.421512480616556
 21
2.999151027403122
 31
0.0
  0
LINE
  5
3DA7
330
1E
100
AcDbEntity
  8
3
100
AcDbLine
 10
5.421512480616556
 20
2.999151027403122
 30
0.0
 11
5.425449488490572
 21
2.995214019529106
 31
0.0
  0
LINE
  5
3DA8
330
1E
100
AcDbEntity
  8
3
100
AcDbLine
 10
5.425449488490572
 20
2.995214019529106
 30
0.0
 11
5.429386496364587
 21
2.989308507718082
 31
0.0
  0
LINE
  5
3DA9
330
1E
100
AcDbEntity
  8
3
100
AcDbLine
 10
5.429386496364587
 20
2.989308507718082
 30
0.0
 11
5.431355000301595
 21
2.985371499844067
 31
0.0
  0
LINE
  5
3DAA
330
1E
100
AcDbEntity
  8
3
100
AcDbLine
 10
5.437260512112619
 20
2.973560476222019
 30
0.0
 11
5.380173897939391
 21
2.995214019529106
 31
0.0
  0
LINE
  5
3DAB
330
1E
100
AcDbEntity
  8
3
100
AcDbLine
 10
5.380173897939391
 20
2.995214019529106
 30
0.0
 11
5.368362874317343
 21
3.00111953134013
 31
0.0
  0
LINE
  5
3DAC
330
1E
100
AcDbEntity
  8
3
100
AcDbLine
 10
5.053402244396083
 20
2.983402995907059
 30
0.0
 11
5.053402244396083
 21
2.985371499844067
 31
0.0
  0
LINE
  5
3DAD
330
1E
100
AcDbEntity
  8
3
100
AcDbLine
 10
5.053402244396083
 20
2.985371499844067
 30
0.0
 11
5.053402244396083
 21
2.983402995907059
 31
0.0
  0
LINE
  5
3DAE
330
1E
100
AcDbEntity
  8
3
100
AcDbLine
 10
5.053402244396083
 20
2.983402995907059
 30
0.0
 11
5.055370748333091
 21
2.98143449197005
 31
0.0
  0
LINE
  5
3DAF
330
1E
100
AcDbEntity
  8
3
100
AcDbLine
 10
5.055370748333091
 20
2.98143449197005
 30
0.0
 11
5.055370748333091
 21
2.979465988033043
 31
0.0
  0
LINE
  5
3DB0
330
1E
100
AcDbEntity
  8
3
100
AcDbLine
 10
5.055370748333091
 20
2.979465988033043
 30
0.0
 11
5.057339252270098
 21
2.977497484096035
 31
0.0
  0
LINE
  5
3DB1
330
1E
100
AcDbEntity
  8
3
100
AcDbLine
 10
5.120331378254352
 20
2.790489610080287
 30
0.0
 11
5.130173897939391
 21
2.851513232127532
 31
0.0
  0
LINE
  5
3DB2
330
1E
100
AcDbEntity
  8
3
100
AcDbLine
 10
5.130173897939391
 20
2.851513232127532
 30
0.0
 11
5.132142401876398
 21
2.863324255749578
 31
0.0
  0
LINE
  5
3DB3
330
1E
100
AcDbEntity
  8
3
100
AcDbLine
 10
5.132142401876398
 20
2.863324255749578
 30
0.0
 11
5.108520354632304
 21
2.902694334489735
 31
0.0
  0
LINE
  5
3DB4
330
1E
100
AcDbEntity
  8
3
100
AcDbLine
 10
3.730567598726793
 20
2.351513232127532
 30
0.0
 11
3.724662086915769
 21
2.377103783308633
 31
0.0
  0
LINE
  5
3DB5
330
1E
100
AcDbEntity
  8
3
100
AcDbLine
 10
3.724662086915769
 20
2.377103783308633
 30
0.0
 11
3.706945551482698
 21
2.394820318741704
 31
0.0
  0
LINE
  5
3DB6
330
1E
100
AcDbEntity
  8
3
100
AcDbLine
 10
3.706945551482698
 20
2.394820318741704
 30
0.0
 11
3.681355000301595
 21
2.402694334489735
 31
0.0
  0
LINE
  5
3DB7
330
1E
100
AcDbEntity
  8
3
100
AcDbLine
 10
3.730567598726793
 20
2.355450240001546
 30
0.0
 11
3.730567598726793
 21
2.351513232127532
 31
0.0
  0
LINE
  5
3DB8
330
1E
100
AcDbEntity
  8
3
100
AcDbLine
 10
3.730567598726793
 20
2.351513232127532
 30
0.0
 11
3.730567598726793
 21
2.349544728190522
 31
0.0
  0
LINE
  5
3DB9
330
1E
100
AcDbEntity
  8
3
100
AcDbLine
 10
4.951040039671674
 20
1.8436392163795
 30
0.0
 11
5.008126653844902
 21
1.776710082521232
 31
0.0
  0
LINE
  5
3DBA
330
1E
100
AcDbEntity
  8
3
100
AcDbLine
 10
5.008126653844902
 20
1.776710082521232
 30
0.0
 11
5.071118779829154
 21
1.717654964410996
 31
0.0
  0
LINE
  5
3DBB
330
1E
100
AcDbEntity
  8
3
100
AcDbLine
 10
4.951040039671674
 20
1.8436392163795
 30
0.0
 11
4.953008543608682
 21
1.845607720316507
 31
0.0
  0
LINE
  5
3DBC
330
1E
100
AcDbEntity
  8
3
100
AcDbLine
 10
4.953008543608682
 20
1.845607720316507
 30
0.0
 11
4.953008543608682
 21
1.847576224253515
 31
0.0
  0
LINE
  5
3DBD
330
1E
100
AcDbEntity
  8
3
100
AcDbLine
 10
4.953008543608682
 20
1.847576224253515
 30
0.0
 11
4.954977047545689
 21
1.849544728190522
 31
0.0
  0
LINE
  5
3DBE
330
1E
100
AcDbEntity
  8
3
100
AcDbLine
 10
4.954977047545689
 20
1.851513232127532
 30
0.0
 11
5.012063661718919
 21
1.784584098269263
 31
0.0
  0
LINE
  5
3DBF
330
1E
100
AcDbEntity
  8
3
100
AcDbLine
 10
5.012063661718919
 20
1.784584098269263
 30
0.0
 11
5.075055787703171
 21
1.723560476222019
 31
0.0
  0
LINE
  5
3DC0
330
1E
100
AcDbEntity
  8
3
100
AcDbLine
 10
4.994347126285846
 20
1.916473862048791
 30
0.0
 11
5.047496732585059
 21
1.847576224253515
 31
0.0
  0
LINE
  5
3DC1
330
1E
100
AcDbEntity
  8
3
100
AcDbLine
 10
5.047496732585059
 20
1.847576224253515
 30
0.0
 11
5.110488858569311
 21
1.784584098269263
 31
0.0
  0
LINE
  5
3DC2
330
1E
100
AcDbEntity
  8
3
100
AcDbLine
 10
4.996315630222856
 20
1.987340003781074
 30
0.0
 11
5.045528228648052
 21
1.912536854174774
 31
0.0
  0
LINE
  5
3DC3
330
1E
100
AcDbEntity
  8
3
100
AcDbLine
 10
5.045528228648052
 20
1.912536854174774
 30
0.0
 11
5.104583346758289
 21
1.8436392163795
 31
0.0
  0
LINE
  5
3DC4
330
1E
100
AcDbEntity
  8
3
100
AcDbLine
 10
5.000252638096871
 20
1.999151027403122
 30
0.0
 11
4.996315630222856
 21
1.991277011655091
 31
0.0
  0
LINE
  5
3DC5
330
1E
100
AcDbEntity
  8
3
100
AcDbLine
 10
4.996315630222856
 20
1.991277011655091
 30
0.0
 11
4.994347126285846
 21
1.987340003781074
 31
0.0
  0
LINE
  5
3DC6
330
1E
100
AcDbEntity
  8
3
100
AcDbLine
 10
4.994347126285846
 20
1.987340003781074
 30
0.0
 11
4.994347126285846
 21
1.985371499844067
 31
0.0
  0
LINE
  5
3DC7
330
1E
100
AcDbEntity
  8
3
100
AcDbLine
 10
5.006158149907895
 20
2.007025043151154
 30
0.0
 11
5.055370748333091
 21
1.930253389607846
 31
0.0
  0
LINE
  5
3DC8
330
1E
100
AcDbEntity
  8
3
100
AcDbLine
 10
5.055370748333091
 20
1.930253389607846
 30
0.0
 11
5.114425866443328
 21
1.86135575181257
 31
0.0
  0
LINE
  5
3DC9
330
1E
100
AcDbEntity
  8
3
100
AcDbLine
 10
5.437260512112619
 20
2.971591972285011
 30
0.0
 11
5.321118779829154
 21
2.930253389607846
 31
0.0
  0
LINE
  5
3DCA
330
1E
100
AcDbEntity
  8
3
100
AcDbLine
 10
5.321118779829154
 20
2.930253389607846
 30
0.0
 11
5.21481956723073
 21
2.869229767560602
 31
0.0
  0
LINE
  5
3DCB
330
1E
100
AcDbEntity
  8
3
100
AcDbLine
 10
5.21481956723073
 20
2.869229767560602
 30
0.0
 11
5.122299882191359
 21
2.78852110614328
 31
0.0
  0
LINE
  5
3DCC
330
1E
100
AcDbEntity
  8
3
100
AcDbLine
 10
5.620331378254352
 20
2.991277011655091
 30
0.0
 11
5.527811693214982
 21
2.987340003781074
 31
0.0
  0
LINE
  5
3DCD
330
1E
100
AcDbEntity
  8
3
100
AcDbLine
 10
5.527811693214982
 20
2.987340003781074
 30
0.0
 11
5.437260512112619
 21
2.971591972285011
 31
0.0
  0
LINE
  5
3DCE
330
1E
100
AcDbEntity
  8
3
100
AcDbLine
 10
5.053402244396083
 20
2.552300633702333
 30
0.0
 11
5.039622716837028
 21
2.577891184883437
 31
0.0
  0
LINE
  5
3DCF
330
1E
100
AcDbEntity
  8
3
100
AcDbLine
 10
5.039622716837028
 20
2.577891184883437
 30
0.0
 11
5.023874685340965
 21
2.603481736064539
 31
0.0
  0
LINE
  5
3DD0
330
1E
100
AcDbEntity
  8
3
100
AcDbLine
 10
5.023874685340965
 20
2.603481736064539
 30
0.0
 11
5.016000669592934
 21
2.621198271497609
 31
0.0
  0
LINE
  5
3DD1
330
1E
100
AcDbEntity
  8
3
100
AcDbLine
 10
5.016000669592934
 20
2.621198271497609
 30
0.0
 11
5.012063661718919
 21
2.631040791182648
 31
0.0
  0
LINE
  5
3DD2
330
1E
100
AcDbEntity
  8
3
100
AcDbLine
 10
5.012063661718919
 20
2.631040791182648
 30
0.0
 11
5.012063661718919
 21
2.633009295119657
 31
0.0
  0
LINE
  5
3DD3
330
1E
100
AcDbEntity
  8
3
100
AcDbLine
 10
5.012063661718919
 20
2.633009295119657
 30
0.0
 11
5.014032165655926
 21
2.640883310867689
 31
0.0
  0
LINE
  5
3DD4
330
1E
100
AcDbEntity
  8
3
100
AcDbLine
 10
5.31521326801813
 20
2.92631638173383
 30
0.0
 11
5.222693582978761
 21
2.873166775434617
 31
0.0
  0
LINE
  5
3DD5
330
1E
100
AcDbEntity
  8
3
100
AcDbLine
 10
5.222693582978761
 20
2.873166775434617
 30
0.0
 11
5.14001641762443
 21
2.804269137639343
 31
0.0
  0
LINE
  5
3DD6
330
1E
100
AcDbEntity
  8
3
100
AcDbLine
 10
5.14001641762443
 20
2.804269137639343
 30
0.0
 11
5.069150275892146
 21
2.723560476222019
 31
0.0
  0
LINE
  5
3DD7
330
1E
100
AcDbEntity
  8
3
100
AcDbLine
 10
5.069150275892146
 20
2.723560476222019
 30
0.0
 11
5.012063661718919
 21
2.633009295119657
 31
0.0
  0
LINE
  5
3DD8
330
1E
100
AcDbEntity
  8
3
100
AcDbLine
 10
5.628205394002383
 20
2.989308507718082
 30
0.0
 11
5.521906181403958
 21
2.985371499844067
 31
0.0
  0
LINE
  5
3DD9
330
1E
100
AcDbEntity
  8
3
100
AcDbLine
 10
5.521906181403958
 20
2.985371499844067
 30
0.0
 11
5.415606968805532
 21
2.96371795653698
 31
0.0
  0
LINE
  5
3DDA
330
1E
100
AcDbEntity
  8
3
100
AcDbLine
 10
5.415606968805532
 20
2.96371795653698
 30
0.0
 11
5.31521326801813
 21
2.92631638173383
 31
0.0
  0
LINE
  5
3DDB
330
1E
100
AcDbEntity
  8
3
100
AcDbLine
 10
5.630173897939391
 20
2.989308507718082
 30
0.0
 11
5.634110905813406
 21
2.985371499844067
 31
0.0
  0
LINE
  5
3DDC
330
1E
100
AcDbEntity
  8
3
100
AcDbLine
 10
5.634110905813406
 20
2.985371499844067
 30
0.0
 11
5.64001641762443
 21
2.973560476222019
 31
0.0
  0
LINE
  5
3DDD
330
1E
100
AcDbEntity
  8
3
100
AcDbLine
 10
5.64001641762443
 20
2.973560476222019
 30
0.0
 11
5.651827441246478
 21
2.957812444725956
 31
0.0
  0
LINE
  5
3DDE
330
1E
100
AcDbEntity
  8
3
100
AcDbLine
 10
5.651827441246478
 20
2.957812444725956
 30
0.0
 11
5.679386496364587
 21
2.912536854174774
 31
0.0
  0
LINE
  5
3DDF
330
1E
100
AcDbEntity
  8
3
100
AcDbLine
 10
3.289622716837028
 20
2.459780948662965
 30
0.0
 11
3.291591220774035
 21
2.461749452599972
 31
0.0
  0
LINE
  5
3DE0
330
1E
100
AcDbEntity
  8
3
100
AcDbLine
 10
3.291591220774035
 20
2.461749452599972
 30
0.0
 11
3.293559724711045
 21
2.461749452599972
 31
0.0
  0
LINE
  5
3DE1
330
1E
100
AcDbEntity
  8
3
100
AcDbLine
 10
3.9825361026638
 20
2.957812444725956
 30
0.0
 11
3.557339252270098
 21
2.959780948662965
 31
0.0
  0
LINE
  5
3DE2
330
1E
100
AcDbEntity
  8
3
100
AcDbLine
 10
3.557339252270098
 20
2.959780948662965
 30
0.0
 11
3.537654212900021
 21
2.965686460473987
 31
0.0
  0
LINE
  5
3DE3
330
1E
100
AcDbEntity
  8
3
100
AcDbLine
 10
3.537654212900021
 20
2.965686460473987
 30
0.0
 11
3.521906181403958
 21
2.98143449197005
 31
0.0
  0
LINE
  5
3DE4
330
1E
100
AcDbEntity
  8
3
100
AcDbLine
 10
3.521906181403958
 20
2.98143449197005
 30
0.0
 11
3.516000669592934
 21
3.00111953134013
 31
0.0
  0
LINE
  5
3DE5
330
1E
100
AcDbEntity
  8
3
100
AcDbLine
 10
4.356551850695296
 20
2.873166775434617
 30
0.0
 11
4.368362874317343
 21
2.859387247875563
 31
0.0
  0
LINE
  5
3DE6
330
1E
100
AcDbEntity
  8
3
100
AcDbLine
 10
4.368362874317343
 20
2.859387247875563
 30
0.0
 11
4.374268386128367
 21
2.8436392163795
 31
0.0
  0
LINE
  5
3DE7
330
1E
100
AcDbEntity
  8
3
100
AcDbLine
 10
4.374268386128367
 20
2.8436392163795
 30
0.0
 11
4.374268386128367
 21
2.827891184883437
 31
0.0
  0
LINE
  5
3DE8
330
1E
100
AcDbEntity
  8
3
100
AcDbLine
 10
4.374268386128367
 20
2.827891184883437
 30
0.0
 11
4.372299882191359
 21
2.814111657324382
 31
0.0
  0
LINE
  5
3DE9
330
1E
100
AcDbEntity
  8
3
100
AcDbLine
 10
4.325055787703171
 20
2.883009295119657
 30
0.0
 11
4.340803819199233
 21
2.881040791182648
 31
0.0
  0
LINE
  5
3DEA
330
1E
100
AcDbEntity
  8
3
100
AcDbLine
 10
4.340803819199233
 20
2.881040791182648
 30
0.0
 11
4.356551850695296
 21
2.873166775434617
 31
0.0
  0
LINE
  5
3DEB
330
1E
100
AcDbEntity
  8
3
100
AcDbLine
 10
4.443166023923643
 20
2.983402995907059
 30
0.0
 11
4.433323504238604
 21
2.969623468348004
 31
0.0
  0
LINE
  5
3DEC
330
1E
100
AcDbEntity
  8
3
100
AcDbLine
 10
4.433323504238604
 20
2.969623468348004
 30
0.0
 11
4.417575472742541
 21
2.961749452599972
 31
0.0
  0
LINE
  5
3DED
330
1E
100
AcDbEntity
  8
3
100
AcDbLine
 10
4.417575472742541
 20
2.961749452599972
 30
0.0
 11
4.401827441246478
 21
2.957812444725956
 31
0.0
  0
LINE
  5
3DEE
330
1E
100
AcDbEntity
  8
3
100
AcDbLine
 10
4.401827441246478
 20
2.957812444725956
 30
0.0
 11
4.399858937309469
 21
2.957812444725956
 31
0.0
  0
LINE
  5
3DEF
330
1E
100
AcDbEntity
  8
3
100
AcDbLine
 10
4.372299882191359
 20
2.814111657324382
 30
0.0
 11
4.31521326801813
 21
2.633009295119657
 31
0.0
  0
LINE
  5
3DF0
330
1E
100
AcDbEntity
  8
3
100
AcDbLine
 10
4.31521326801813
 20
2.633009295119657
 30
0.0
 11
4.283717205026004
 21
2.4440329171669
 31
0.0
  0
LINE
  5
3DF1
330
1E
100
AcDbEntity
  8
3
100
AcDbLine
 10
4.283717205026004
 20
2.4440329171669
 30
0.0
 11
4.281748701088996
 21
2.255056539214145
 31
0.0
  0
LINE
  5
3DF2
330
1E
100
AcDbEntity
  8
3
100
AcDbLine
 10
3.516000669592934
 20
3.00111953134013
 30
0.0
 11
3.516000669592934
 21
3.040489610080287
 31
0.0
  0
LINE
  5
3DF3
330
1E
100
AcDbEntity
  8
3
100
AcDbLine
 10
3.516000669592934
 20
3.040489610080287
 30
0.0
 11
3.201040039671674
 21
3.040489610080287
 31
0.0
  0
LINE
  5
3DF4
330
1E
100
AcDbEntity
  8
3
100
AcDbLine
 10
3.441197519986635
 20
2.92631638173383
 30
0.0
 11
3.453008543608682
 21
2.896788822678711
 31
0.0
  0
LINE
  5
3DF5
330
1E
100
AcDbEntity
  8
3
100
AcDbLine
 10
3.453008543608682
 20
2.896788822678711
 30
0.0
 11
3.4825361026638
 21
2.884977799056665
 31
0.0
  0
LINE
  5
3DF6
330
1E
100
AcDbEntity
  8
3
100
AcDbLine
 10
3.4825361026638
 20
2.884977799056665
 30
0.0
 11
3.516000669592934
 21
2.884977799056665
 31
0.0
  0
LINE
  5
3DF7
330
1E
100
AcDbEntity
  8
3
100
AcDbLine
 10
3.350646338884272
 20
2.39875732661572
 30
0.0
 11
3.289622716837028
 21
2.459780948662965
 31
0.0
  0
LINE
  5
3DF8
330
1E
100
AcDbEntity
  8
3
100
AcDbLine
 10
3.289622716837028
 20
2.459780948662965
 30
0.0
 11
3.289622716837028
 21
2.922379373859815
 31
0.0
  0
LINE
  5
3DF9
330
1E
100
AcDbEntity
  8
3
100
AcDbLine
 10
3.289622716837028
 20
2.922379373859815
 30
0.0
 11
3.332929803451202
 21
2.965686460473987
 31
0.0
  0
LINE
  5
3DFA
330
1E
100
AcDbEntity
  8
3
100
AcDbLine
 10
3.332929803451202
 20
2.965686460473987
 30
0.0
 11
3.431355000301595
 21
2.965686460473987
 31
0.0
  0
LINE
  5
3DFB
330
1E
100
AcDbEntity
  8
3
100
AcDbLine
 10
3.431355000301595
 20
2.965686460473987
 30
0.0
 11
3.441197519986635
 21
2.955843940788948
 31
0.0
  0
LINE
  5
3DFC
330
1E
100
AcDbEntity
  8
3
100
AcDbLine
 10
3.299465236522067
 20
2.320017169135406
 30
0.0
 11
3.730567598726793
 21
2.320017169135406
 31
0.0
  0
LINE
  5
3DFD
330
1E
100
AcDbEntity
  8
3
100
AcDbLine
 10
3.730567598726793
 20
2.320017169135406
 30
0.0
 11
3.730567598726793
 21
2.349544728190522
 31
0.0
  0
LINE
  5
3DFE
330
1E
100
AcDbEntity
  8
3
100
AcDbLine
 10
3.730567598726793
 20
2.349544728190522
 30
0.0
 11
3.724662086915769
 21
2.373166775434617
 31
0.0
  0
LINE
  5
3DFF
330
1E
100
AcDbEntity
  8
3
100
AcDbLine
 10
3.724662086915769
 20
2.373166775434617
 30
0.0
 11
3.706945551482698
 21
2.392851814804696
 31
0.0
  0
LINE
  5
3E00
330
1E
100
AcDbEntity
  8
3
100
AcDbLine
 10
3.706945551482698
 20
2.392851814804696
 30
0.0
 11
3.681355000301595
 21
2.39875732661572
 31
0.0
  0
LINE
  5
3E01
330
1E
100
AcDbEntity
  8
3
100
AcDbLine
 10
3.681355000301595
 20
2.39875732661572
 30
0.0
 11
3.350646338884272
 21
2.39875732661572
 31
0.0
  0
LINE
  5
3E02
330
1E
100
AcDbEntity
  8
3
100
AcDbLine
 10
4.321118779829154
 20
2.881040791182648
 30
0.0
 11
3.476630590852776
 21
2.881040791182648
 31
0.0
  0
LINE
  5
3E03
330
1E
100
AcDbEntity
  8
3
100
AcDbLine
 10
3.476630590852776
 20
2.881040791182648
 30
0.0
 11
3.449071535734667
 21
2.892851814804696
 31
0.0
  0
LINE
  5
3E04
330
1E
100
AcDbEntity
  8
3
100
AcDbLine
 10
3.449071535734667
 20
2.892851814804696
 30
0.0
 11
3.437260512112619
 21
2.920410869922806
 31
0.0
  0
LINE
  5
3E05
330
1E
100
AcDbEntity
  8
3
100
AcDbLine
 10
3.437260512112619
 20
2.920410869922806
 30
0.0
 11
3.437260512112619
 21
2.949938428977924
 31
0.0
  0
LINE
  5
3E06
330
1E
100
AcDbEntity
  8
3
100
AcDbLine
 10
3.437260512112619
 20
2.949938428977924
 30
0.0
 11
3.42741799242758
 21
2.959780948662965
 31
0.0
  0
LINE
  5
3E07
330
1E
100
AcDbEntity
  8
3
100
AcDbLine
 10
3.42741799242758
 20
2.959780948662965
 30
0.0
 11
3.334898307388209
 21
2.959780948662965
 31
0.0
  0
LINE
  5
3E08
330
1E
100
AcDbEntity
  8
3
100
AcDbLine
 10
3.334898307388209
 20
2.959780948662965
 30
0.0
 11
3.295528228648052
 21
2.920410869922806
 31
0.0
  0
LINE
  5
3E09
330
1E
100
AcDbEntity
  8
3
100
AcDbLine
 10
4.368362874317343
 20
2.812143153387374
 30
0.0
 11
4.317181771955139
 21
2.652694334489735
 31
0.0
  0
LINE
  5
3E0A
330
1E
100
AcDbEntity
  8
3
100
AcDbLine
 10
4.317181771955139
 20
2.652694334489735
 30
0.0
 11
4.287654212900021
 21
2.487340003781074
 31
0.0
  0
LINE
  5
3E0B
330
1E
100
AcDbEntity
  8
3
100
AcDbLine
 10
4.287654212900021
 20
2.487340003781074
 30
0.0
 11
4.277811693214982
 21
2.320017169135406
 31
0.0
  0
LINE
  5
3E0C
330
1E
100
AcDbEntity
  8
3
100
AcDbLine
 10
3.730567598726793
 20
2.491277011655091
 30
0.0
 11
3.9825361026638
 21
2.491277011655091
 31
0.0
  0
LINE
  5
3E0D
330
1E
100
AcDbEntity
  8
3
100
AcDbLine
 10
3.9825361026638
 20
2.491277011655091
 30
0.0
 11
4.277811693214982
 21
2.320017169135406
 31
0.0
  0
LINE
  5
3E0E
330
1E
100
AcDbEntity
  8
3
100
AcDbLine
 10
3.295528228648052
 20
2.46371795653698
 30
0.0
 11
3.354583346758289
 21
2.404662838426743
 31
0.0
  0
LINE
  5
3E0F
330
1E
100
AcDbEntity
  8
3
100
AcDbLine
 10
3.354583346758289
 20
2.404662838426743
 30
0.0
 11
3.681355000301595
 21
2.404662838426743
 31
0.0
  0
LINE
  5
3E10
330
1E
100
AcDbEntity
  8
3
100
AcDbLine
 10
5.122299882191359
 20
2.78852110614328
 30
0.0
 11
5.063244764081122
 21
2.719623468348004
 31
0.0
  0
LINE
  5
3E11
330
1E
100
AcDbEntity
  8
3
100
AcDbLine
 10
5.063244764081122
 20
2.719623468348004
 30
0.0
 11
5.014032165655926
 21
2.640883310867689
 31
0.0
  0
LINE
  5
3E12
330
1E
100
AcDbEntity
  8
3
100
AcDbLine
 10
5.006158149907895
 20
2.656631342363752
 30
0.0
 11
5.000252638096871
 21
2.664505358111783
 31
0.0
  0
LINE
  5
3E13
330
1E
100
AcDbEntity
  8
3
100
AcDbLine
 10
5.000252638096871
 20
2.664505358111783
 30
0.0
 11
4.996315630222856
 21
2.672379373859815
 31
0.0
  0
LINE
  5
3E14
330
1E
100
AcDbEntity
  8
3
100
AcDbLine
 10
4.996315630222856
 20
2.672379373859815
 30
0.0
 11
4.994347126285846
 21
2.67631638173383
 31
0.0
  0
LINE
  5
3E15
330
1E
100
AcDbEntity
  8
3
100
AcDbLine
 10
4.994347126285846
 20
2.67631638173383
 30
0.0
 11
4.994347126285846
 21
2.678284885670837
 31
0.0
  0
LINE
  5
3E16
330
1E
100
AcDbEntity
  8
3
100
AcDbLine
 10
5.104583346758289
 20
2.821985673072413
 30
0.0
 11
5.104583346758289
 21
2.820017169135406
 31
0.0
  0
LINE
  5
3E17
330
1E
100
AcDbEntity
  8
3
100
AcDbLine
 10
5.104583346758289
 20
2.820017169135406
 30
0.0
 11
5.106551850695296
 21
2.816080161261389
 31
0.0
  0
LINE
  5
3E18
330
1E
100
AcDbEntity
  8
3
100
AcDbLine
 10
5.106551850695296
 20
2.816080161261389
 30
0.0
 11
5.108520354632304
 21
2.812143153387374
 31
0.0
  0
LINE
  5
3E19
330
1E
100
AcDbEntity
  8
3
100
AcDbLine
 10
5.108520354632304
 20
2.812143153387374
 30
0.0
 11
5.11245736250632
 21
2.80623764157635
 31
0.0
  0
LINE
  5
3E1A
330
1E
100
AcDbEntity
  8
3
100
AcDbLine
 10
5.11245736250632
 20
2.80623764157635
 30
0.0
 11
5.114425866443328
 21
2.802300633702333
 31
0.0
  0
LINE
  5
3E1B
330
1E
100
AcDbEntity
  8
3
100
AcDbLine
 10
5.114425866443328
 20
2.802300633702333
 30
0.0
 11
5.055370748333091
 21
2.733402995907059
 31
0.0
  0
LINE
  5
3E1C
330
1E
100
AcDbEntity
  8
3
100
AcDbLine
 10
5.055370748333091
 20
2.733402995907059
 30
0.0
 11
5.006158149907895
 21
2.656631342363752
 31
0.0
  0
LINE
  5
3E1D
330
1E
100
AcDbEntity
  8
3
100
AcDbLine
 10
5.104583346758289
 20
2.820017169135406
 30
0.0
 11
5.045528228648052
 21
2.75111953134013
 31
0.0
  0
LINE
  5
3E1E
330
1E
100
AcDbEntity
  8
3
100
AcDbLine
 10
5.045528228648052
 20
2.75111953134013
 30
0.0
 11
4.996315630222856
 21
2.67631638173383
 31
0.0
  0
LINE
  5
3E1F
330
1E
100
AcDbEntity
  8
3
100
AcDbLine
 10
5.110488858569311
 20
2.879072287245641
 30
0.0
 11
5.047496732585059
 21
2.816080161261389
 31
0.0
  0
LINE
  5
3E20
330
1E
100
AcDbEntity
  8
3
100
AcDbLine
 10
5.047496732585059
 20
2.816080161261389
 30
0.0
 11
4.994347126285846
 21
2.747182523466113
 31
0.0
  0
LINE
  5
3E21
330
1E
100
AcDbEntity
  8
3
100
AcDbLine
 10
5.075055787703171
 20
2.940095909292885
 30
0.0
 11
5.012063661718919
 21
2.879072287245641
 31
0.0
  0
LINE
  5
3E22
330
1E
100
AcDbEntity
  8
3
100
AcDbLine
 10
5.012063661718919
 20
2.879072287245641
 30
0.0
 11
4.954977047545689
 21
2.812143153387374
 31
0.0
  0
LINE
  5
3E23
330
1E
100
AcDbEntity
  8
3
100
AcDbLine
 10
4.953008543608682
 20
2.818048665198396
 30
0.0
 11
4.951040039671674
 21
2.818048665198396
 31
0.0
  0
LINE
  5
3E24
330
1E
100
AcDbEntity
  8
3
100
AcDbLine
 10
4.951040039671674
 20
2.818048665198396
 30
0.0
 11
4.951040039671674
 21
2.820017169135406
 31
0.0
  0
LINE
  5
3E25
330
1E
100
AcDbEntity
  8
3
100
AcDbLine
 10
4.954977047545689
 20
2.814111657324382
 30
0.0
 11
4.953008543608682
 21
2.816080161261389
 31
0.0
  0
LINE
  5
3E26
330
1E
100
AcDbEntity
  8
3
100
AcDbLine
 10
4.953008543608682
 20
2.816080161261389
 30
0.0
 11
4.953008543608682
 21
2.818048665198396
 31
0.0
  0
LINE
  5
3E27
330
1E
100
AcDbEntity
  8
3
100
AcDbLine
 10
5.071118779829154
 20
2.946001421103909
 30
0.0
 11
5.008126653844902
 21
2.886946302993672
 31
0.0
  0
LINE
  5
3E28
330
1E
100
AcDbEntity
  8
3
100
AcDbLine
 10
5.008126653844902
 20
2.886946302993672
 30
0.0
 11
4.951040039671674
 21
2.820017169135406
 31
0.0
  0
LINE
  5
3E29
330
1E
100
AcDbEntity
  8
3
100
AcDbLine
 10
5.071118779829154
 20
2.946001421103909
 30
0.0
 11
5.071118779829154
 21
2.9440329171669
 31
0.0
  0
LINE
  5
3E2A
330
1E
100
AcDbEntity
  8
3
100
AcDbLine
 10
5.071118779829154
 20
2.9440329171669
 30
0.0
 11
5.073087283766161
 21
2.942064413229893
 31
0.0
  0
LINE
  5
3E2B
330
1E
100
AcDbEntity
  8
3
100
AcDbLine
 10
5.073087283766161
 20
2.942064413229893
 30
0.0
 11
5.073087283766161
 21
2.940095909292885
 31
0.0
  0
LINE
  5
3E2C
330
1E
100
AcDbEntity
  8
3
100
AcDbLine
 10
5.620331378254352
 20
2.203875436851941
 30
0.0
 11
5.665606968805532
 21
2.221591972285011
 31
0.0
  0
LINE
  5
3E2D
330
1E
100
AcDbEntity
  8
3
100
AcDbLine
 10
5.665606968805532
 20
2.221591972285011
 30
0.0
 11
5.701040039671674
 21
2.253088035277137
 31
0.0
  0
LINE
  5
3E2E
330
1E
100
AcDbEntity
  8
3
100
AcDbLine
 10
5.701040039671674
 20
2.253088035277137
 30
0.0
 11
5.720725079041752
 21
2.296395121891311
 31
0.0
  0
LINE
  5
3E2F
330
1E
100
AcDbEntity
  8
3
100
AcDbLine
 10
5.720725079041752
 20
2.296395121891311
 30
0.0
 11
5.726630590852776
 21
2.3436392163795
 31
0.0
  0
LINE
  5
3E30
330
1E
100
AcDbEntity
  8
3
100
AcDbLine
 10
5.726630590852776
 20
2.3436392163795
 30
0.0
 11
5.712851063293721
 21
2.38891480693068
 31
0.0
  0
LINE
  5
3E31
330
1E
100
AcDbEntity
  8
3
100
AcDbLine
 10
5.712851063293721
 20
2.38891480693068
 30
0.0
 11
5.683323504238604
 21
2.428284885670837
 31
0.0
  0
LINE
  5
3E32
330
1E
100
AcDbEntity
  8
3
100
AcDbLine
 10
5.683323504238604
 20
2.428284885670837
 30
0.0
 11
5.643953425498446
 21
2.453875436851941
 31
0.0
  0
LINE
  5
3E33
330
1E
100
AcDbEntity
  8
3
100
AcDbLine
 10
5.643953425498446
 20
2.453875436851941
 30
0.0
 11
5.596709331010256
 21
2.461749452599972
 31
0.0
  0
LINE
  5
3E34
330
1E
100
AcDbEntity
  8
3
100
AcDbLine
 10
5.596709331010256
 20
2.461749452599972
 30
0.0
 11
5.549465236522067
 21
2.453875436851941
 31
0.0
  0
LINE
  5
3E35
330
1E
100
AcDbEntity
  8
3
100
AcDbLine
 10
5.549465236522067
 20
2.453875436851941
 30
0.0
 11
5.510095157781909
 21
2.428284885670837
 31
0.0
  0
LINE
  5
3E36
330
1E
100
AcDbEntity
  8
3
100
AcDbLine
 10
5.510095157781909
 20
2.428284885670837
 30
0.0
 11
5.480567598726793
 21
2.38891480693068
 31
0.0
  0
LINE
  5
3E37
330
1E
100
AcDbEntity
  8
3
100
AcDbLine
 10
5.480567598726793
 20
2.38891480693068
 30
0.0
 11
5.466788071167737
 21
2.3436392163795
 31
0.0
  0
LINE
  5
3E38
330
1E
100
AcDbEntity
  8
3
100
AcDbLine
 10
5.466788071167737
 20
2.3436392163795
 30
0.0
 11
5.472693582978761
 21
2.296395121891311
 31
0.0
  0
LINE
  5
3E39
330
1E
100
AcDbEntity
  8
3
100
AcDbLine
 10
5.472693582978761
 20
2.296395121891311
 30
0.0
 11
5.492378622348839
 21
2.253088035277137
 31
0.0
  0
LINE
  5
3E3A
330
1E
100
AcDbEntity
  8
3
100
AcDbLine
 10
5.492378622348839
 20
2.253088035277137
 30
0.0
 11
5.527811693214982
 21
2.221591972285011
 31
0.0
  0
LINE
  5
3E3B
330
1E
100
AcDbEntity
  8
3
100
AcDbLine
 10
5.527811693214982
 20
2.221591972285011
 30
0.0
 11
5.573087283766161
 21
2.203875436851941
 31
0.0
  0
LINE
  5
3E3C
330
1E
100
AcDbEntity
  8
3
100
AcDbLine
 10
5.573087283766161
 20
2.203875436851941
 30
0.0
 11
5.620331378254352
 21
2.203875436851941
 31
0.0
  0
LINE
  5
3E3D
330
1E
100
AcDbEntity
  8
3
100
AcDbLine
 10
5.336866811325217
 20
1.672379373859815
 30
0.0
 11
5.350646338884272
 21
1.668442365985798
 31
0.0
  0
LINE
  5
3E3E
330
1E
100
AcDbEntity
  8
3
100
AcDbLine
 10
5.350646338884272
 20
1.668442365985798
 30
0.0
 11
5.36245736250632
 21
1.664505358111783
 31
0.0
  0
LINE
  5
3E3F
330
1E
100
AcDbEntity
  8
3
100
AcDbLine
 10
5.36245736250632
 20
1.664505358111783
 30
0.0
 11
5.368362874317343
 21
1.662536854174774
 31
0.0
  0
LINE
  5
3E40
330
1E
100
AcDbEntity
  8
3
100
AcDbLine
 10
5.169543976679548
 20
1.766867562836193
 30
0.0
 11
5.242378622348839
 21
1.717654964410996
 31
0.0
  0
LINE
  5
3E41
330
1E
100
AcDbEntity
  8
3
100
AcDbLine
 10
5.242378622348839
 20
1.717654964410996
 30
0.0
 11
5.321118779829154
 21
1.678284885670837
 31
0.0
  0
LINE
  5
3E42
330
1E
100
AcDbEntity
  8
3
100
AcDbLine
 10
5.169543976679548
 20
1.766867562836193
 30
0.0
 11
5.155764449120493
 21
1.776710082521232
 31
0.0
  0
LINE
  5
3E43
330
1E
100
AcDbEntity
  8
3
100
AcDbLine
 10
5.155764449120493
 20
1.776710082521232
 30
0.0
 11
5.145921929435454
 21
1.78655260220627
 31
0.0
  0
LINE
  5
3E44
330
1E
100
AcDbEntity
  8
3
100
AcDbLine
 10
5.145921929435454
 20
1.78655260220627
 30
0.0
 11
5.136079409750415
 21
1.794426617954302
 31
0.0
  0
LINE
  5
3E45
330
1E
100
AcDbEntity
  8
3
100
AcDbLine
 10
5.136079409750415
 20
1.794426617954302
 30
0.0
 11
5.132142401876398
 21
1.798363625828319
 31
0.0
  0
LINE
  5
3E46
330
1E
100
AcDbEntity
  8
3
100
AcDbLine
 10
5.132142401876398
 20
1.798363625828319
 30
0.0
 11
5.132142401876398
 21
1.800332129765326
 31
0.0
  0
LINE
  5
3E47
330
1E
100
AcDbEntity
  8
3
100
AcDbLine
 10
5.073087283766161
 20
1.721591972285011
 30
0.0
 11
5.073087283766161
 21
1.719623468348004
 31
0.0
  0
LINE
  5
3E48
330
1E
100
AcDbEntity
  8
3
100
AcDbLine
 10
5.073087283766161
 20
1.719623468348004
 30
0.0
 11
5.071118779829154
 21
1.717654964410996
 31
0.0
  0
LINE
  5
3E49
330
1E
100
AcDbEntity
  8
3
100
AcDbLine
 10
5.071118779829154
 20
1.717654964410996
 30
0.0
 11
5.071118779829154
 21
1.715686460473987
 31
0.0
  0
LINE
  5
3E4A
330
1E
100
AcDbEntity
  8
3
100
AcDbLine
 10
5.120331378254352
 20
1.873166775434617
 30
0.0
 11
5.114425866443328
 21
1.86135575181257
 31
0.0
  0
LINE
  5
3E4B
330
1E
100
AcDbEntity
  8
3
100
AcDbLine
 10
5.114425866443328
 20
1.86135575181257
 30
0.0
 11
5.114425866443328
 21
1.859387247875563
 31
0.0
  0
LINE
  5
3E4C
330
1E
100
AcDbEntity
  8
3
100
AcDbLine
 10
5.114425866443328
 20
1.859387247875563
 30
0.0
 11
5.110488858569311
 21
1.853481736064539
 31
0.0
  0
LINE
  5
3E4D
330
1E
100
AcDbEntity
  8
3
100
AcDbLine
 10
5.110488858569311
 20
1.853481736064539
 30
0.0
 11
5.106551850695296
 21
1.847576224253515
 31
0.0
  0
LINE
  5
3E4E
330
1E
100
AcDbEntity
  8
3
100
AcDbLine
 10
5.106551850695296
 20
1.847576224253515
 30
0.0
 11
5.104583346758289
 21
1.8436392163795
 31
0.0
  0
LINE
  5
3E4F
330
1E
100
AcDbEntity
  8
3
100
AcDbLine
 10
5.104583346758289
 20
1.8436392163795
 30
0.0
 11
5.104583346758289
 21
1.841670712442491
 31
0.0
  0
LINE
  5
3E50
330
1E
100
AcDbEntity
  8
3
100
AcDbLine
 10
5.104583346758289
 20
1.841670712442491
 30
0.0
 11
5.108520354632304
 21
1.782615594332256
 31
0.0
  0
LINE
  5
3E51
330
1E
100
AcDbEntity
  8
3
100
AcDbLine
 10
5.120331378254352
 20
1.873166775434617
 30
0.0
 11
5.130173897939391
 21
1.812143153387374
 31
0.0
  0
LINE
  5
3E52
330
1E
100
AcDbEntity
  8
3
100
AcDbLine
 10
5.130173897939391
 20
1.812143153387374
 30
0.0
 11
5.132142401876398
 21
1.800332129765326
 31
0.0
  0
LINE
  5
3E53
330
1E
100
AcDbEntity
  8
3
100
AcDbLine
 10
5.053402244396083
 20
1.680253389607846
 30
0.0
 11
5.055370748333091
 21
1.682221893544854
 31
0.0
  0
LINE
  5
3E54
330
1E
100
AcDbEntity
  8
3
100
AcDbLine
 10
5.055370748333091
 20
1.682221893544854
 30
0.0
 11
5.055370748333091
 21
1.684190397481861
 31
0.0
  0
LINE
  5
3E55
330
1E
100
AcDbEntity
  8
3
100
AcDbLine
 10
5.055370748333091
 20
1.684190397481861
 30
0.0
 11
5.057339252270098
 21
1.686158901418869
 31
0.0
  0
LINE
  5
3E56
330
1E
100
AcDbEntity
  8
3
100
AcDbLine
 10
5.303402244396083
 20
1.534584098269263
 30
0.0
 11
5.303402244396083
 21
1.532615594332256
 31
0.0
  0
LINE
  5
3E57
330
1E
100
AcDbEntity
  8
3
100
AcDbLine
 10
5.303402244396083
 20
1.532615594332256
 30
0.0
 11
5.303402244396083
 21
1.534584098269263
 31
0.0
  0
LINE
  5
3E58
330
1E
100
AcDbEntity
  8
3
100
AcDbLine
 10
5.303402244396083
 20
1.534584098269263
 30
0.0
 11
5.305370748333091
 21
1.534584098269263
 31
0.0
  0
LINE
  5
3E59
330
1E
100
AcDbEntity
  8
3
100
AcDbLine
 10
5.305370748333091
 20
1.534584098269263
 30
0.0
 11
5.305370748333091
 21
1.53655260220627
 31
0.0
  0
LINE
  5
3E5A
330
1E
100
AcDbEntity
  8
3
100
AcDbLine
 10
5.305370748333091
 20
1.53655260220627
 30
0.0
 11
5.307339252270098
 21
1.53852110614328
 31
0.0
  0
LINE
  5
3E5B
330
1E
100
AcDbEntity
  8
3
100
AcDbLine
 10
5.307339252270098
 20
1.53852110614328
 30
0.0
 11
5.307339252270098
 21
1.540489610080287
 31
0.0
  0
LINE
  5
3E5C
330
1E
100
AcDbEntity
  8
3
100
AcDbLine
 10
5.380173897939391
 20
1.666473862048791
 30
0.0
 11
5.368362874317343
 21
1.662536854174774
 31
0.0
  0
LINE
  5
3E5D
330
1E
100
AcDbEntity
  8
3
100
AcDbLine
 10
5.368362874317343
 20
1.662536854174774
 30
0.0
 11
5.346709331010258
 21
1.623166775434617
 31
0.0
  0
LINE
  5
3E5E
330
1E
100
AcDbEntity
  8
3
100
AcDbLine
 10
5.204977047545689
 20
3.595607720316507
 30
0.0
 11
5.212851063293721
 21
3.599544728190522
 31
0.0
  0
LINE
  5
3E5F
330
1E
100
AcDbEntity
  8
3
100
AcDbLine
 10
5.212851063293721
 20
3.599544728190522
 30
0.0
 11
5.226630590852776
 21
3.603481736064539
 31
0.0
  0
LINE
  5
3E60
330
1E
100
AcDbEntity
  8
3
100
AcDbLine
 10
5.226630590852776
 20
3.603481736064539
 30
0.0
 11
5.248284134159863
 21
3.609387247875563
 31
0.0
  0
LINE
  5
3E61
330
1E
100
AcDbEntity
  8
3
100
AcDbLine
 10
5.248284134159863
 20
3.609387247875563
 30
0.0
 11
5.273874685340965
 21
3.617261263623595
 31
0.0
  0
LINE
  5
3E62
330
1E
100
AcDbEntity
  8
3
100
AcDbLine
 10
5.273874685340965
 20
3.617261263623595
 30
0.0
 11
5.283717205026004
 21
3.619229767560602
 31
0.0
  0
LINE
  5
3E63
330
1E
100
AcDbEntity
  8
3
100
AcDbLine
 10
5.098677834947265
 20
3.550332129765326
 30
0.0
 11
5.11245736250632
 21
3.55623764157635
 31
0.0
  0
LINE
  5
3E64
330
1E
100
AcDbEntity
  8
3
100
AcDbLine
 10
5.11245736250632
 20
3.55623764157635
 30
0.0
 11
5.136079409750415
 21
3.566080161261389
 31
0.0
  0
LINE
  5
3E65
330
1E
100
AcDbEntity
  8
3
100
AcDbLine
 10
5.136079409750415
 20
3.566080161261389
 30
0.0
 11
5.1577329530575
 21
3.57395417700942
 31
0.0
  0
LINE
  5
3E66
330
1E
100
AcDbEntity
  8
3
100
AcDbLine
 10
5.1577329530575
 20
3.57395417700942
 30
0.0
 11
5.171512480616556
 21
3.579859688820445
 31
0.0
  0
LINE
  5
3E67
330
1E
100
AcDbEntity
  8
3
100
AcDbLine
 10
5.171512480616556
 20
3.579859688820445
 30
0.0
 11
5.17741799242758
 21
3.581828192757452
 31
0.0
  0
LINE
  5
3E68
330
1E
100
AcDbEntity
  8
3
100
AcDbLine
 10
5.098677834947265
 20
3.550332129765326
 30
0.0
 11
5.045528228648052
 21
3.528678586458239
 31
0.0
  0
LINE
  5
3E69
330
1E
100
AcDbEntity
  8
3
100
AcDbLine
 10
5.045528228648052
 20
3.528678586458239
 30
0.0
 11
4.994347126285846
 21
3.503088035277137
 31
0.0
  0
LINE
  5
3E6A
330
1E
100
AcDbEntity
  8
3
100
AcDbLine
 10
4.941197519986635
 20
3.473560476222019
 30
0.0
 11
4.96481956723073
 21
3.487340003781074
 31
0.0
  0
LINE
  5
3E6B
330
1E
100
AcDbEntity
  8
3
100
AcDbLine
 10
4.96481956723073
 20
3.487340003781074
 30
0.0
 11
4.984504606600808
 21
3.497182523466113
 31
0.0
  0
LINE
  5
3E6C
330
1E
100
AcDbEntity
  8
3
100
AcDbLine
 10
4.984504606600808
 20
3.497182523466113
 30
0.0
 11
4.994347126285846
 21
3.503088035277137
 31
0.0
  0
LINE
  5
3E6D
330
1E
100
AcDbEntity
  8
3
100
AcDbLine
 10
4.915606968805532
 20
3.459780948662965
 30
0.0
 11
4.923480984553563
 21
3.46371795653698
 31
0.0
  0
LINE
  5
3E6E
330
1E
100
AcDbEntity
  8
3
100
AcDbLine
 10
4.923480984553563
 20
3.46371795653698
 30
0.0
 11
4.941197519986635
 21
3.473560476222019
 31
0.0
  0
LINE
  5
3E6F
330
1E
100
AcDbEntity
  8
3
100
AcDbLine
 10
4.809307756207108
 20
3.396788822678711
 30
0.0
 11
4.819150275892146
 21
3.404662838426743
 31
0.0
  0
LINE
  5
3E70
330
1E
100
AcDbEntity
  8
3
100
AcDbLine
 10
4.819150275892146
 20
3.404662838426743
 30
0.0
 11
4.850646338884272
 21
3.42631638173383
 31
0.0
  0
LINE
  5
3E71
330
1E
100
AcDbEntity
  8
3
100
AcDbLine
 10
4.850646338884272
 20
3.42631638173383
 30
0.0
 11
4.872299882191359
 21
3.440095909292885
 31
0.0
  0
LINE
  5
3E72
330
1E
100
AcDbEntity
  8
3
100
AcDbLine
 10
4.872299882191359
 20
3.440095909292885
 30
0.0
 11
4.884110905813406
 21
3.447969925040917
 31
0.0
  0
LINE
  5
3E73
330
1E
100
AcDbEntity
  8
3
100
AcDbLine
 10
4.884110905813406
 20
3.447969925040917
 30
0.0
 11
4.888047913687422
 21
3.449938428977924
 31
0.0
  0
LINE
  5
3E74
330
1E
100
AcDbEntity
  8
3
100
AcDbLine
 10
4.667575472742541
 20
3.276710082521232
 30
0.0
 11
4.545528228648052
 21
3.13891480693068
 31
0.0
  0
LINE
  5
3E75
330
1E
100
AcDbEntity
  8
3
100
AcDbLine
 10
4.545528228648052
 20
3.13891480693068
 30
0.0
 11
4.443166023923643
 21
2.983402995907059
 31
0.0
  0
LINE
  5
3E76
330
1E
100
AcDbEntity
  8
3
100
AcDbLine
 10
4.277811693214982
 20
2.320017169135406
 30
0.0
 11
4.277811693214982
 21
2.300332129765326
 31
0.0
  0
LINE
  5
3E77
330
1E
100
AcDbEntity
  8
3
100
AcDbLine
 10
4.277811693214982
 20
2.300332129765326
 30
0.0
 11
4.279780197151989
 21
2.280647090395248
 31
0.0
  0
LINE
  5
3E78
330
1E
100
AcDbEntity
  8
3
100
AcDbLine
 10
4.273874685340965
 20
2.255056539214145
 30
0.0
 11
4.293559724711045
 21
2.089702208505483
 31
0.0
  0
LINE
  5
3E79
330
1E
100
AcDbEntity
  8
3
100
AcDbLine
 10
4.293559724711045
 20
2.089702208505483
 30
0.0
 11
4.334898307388209
 21
1.930253389607846
 31
0.0
  0
LINE
  5
3E7A
330
1E
100
AcDbEntity
  8
3
100
AcDbLine
 10
4.334898307388209
 20
1.930253389607846
 30
0.0
 11
4.393953425498446
 21
1.774741578584224
 31
0.0
  0
LINE
  5
3E7B
330
1E
100
AcDbEntity
  8
3
100
AcDbLine
 10
4.393953425498446
 20
1.774741578584224
 30
0.0
 11
4.472693582978761
 21
1.629072287245641
 31
0.0
  0
LINE
  5
3E7C
330
1E
100
AcDbEntity
  8
3
100
AcDbLine
 10
4.472693582978761
 20
1.629072287245641
 30
0.0
 11
4.569150275892146
 21
1.495214019529106
 31
0.0
  0
LINE
  5
3E7D
330
1E
100
AcDbEntity
  8
3
100
AcDbLine
 10
4.569150275892146
 20
1.495214019529106
 30
0.0
 11
4.683323504238604
 21
1.373166775434617
 31
0.0
  0
LINE
  5
3E7E
330
1E
100
AcDbEntity
  8
3
100
AcDbLine
 10
4.888047913687422
 20
1.21371795653698
 30
0.0
 11
4.886079409750415
 21
1.215686460473987
 31
0.0
  0
LINE
  5
3E7F
330
1E
100
AcDbEntity
  8
3
100
AcDbLine
 10
4.886079409750415
 20
1.215686460473987
 30
0.0
 11
4.876236890065374
 21
1.221591972285011
 31
0.0
  0
LINE
  5
3E80
330
1E
100
AcDbEntity
  8
3
100
AcDbLine
 10
4.876236890065374
 20
1.221591972285011
 30
0.0
 11
4.860488858569311
 21
1.23143449197005
 31
0.0
  0
LINE
  5
3E81
330
1E
100
AcDbEntity
  8
3
100
AcDbLine
 10
4.860488858569311
 20
1.23143449197005
 30
0.0
 11
4.838835315262224
 21
1.245214019529106
 31
0.0
  0
LINE
  5
3E82
330
1E
100
AcDbEntity
  8
3
100
AcDbLine
 10
4.838835315262224
 20
1.245214019529106
 30
0.0
 11
4.811276260144115
 21
1.264899058899185
 31
0.0
  0
LINE
  5
3E83
330
1E
100
AcDbEntity
  8
3
100
AcDbLine
 10
4.811276260144115
 20
1.264899058899185
 30
0.0
 11
4.809307756207108
 21
1.266867562836193
 31
0.0
  0
LINE
  5
3E84
330
1E
100
AcDbEntity
  8
3
100
AcDbLine
 10
4.994347126285846
 20
1.160568350237767
 30
0.0
 11
4.968756575104745
 21
1.174347877796822
 31
0.0
  0
LINE
  5
3E85
330
1E
100
AcDbEntity
  8
3
100
AcDbLine
 10
4.968756575104745
 20
1.174347877796822
 30
0.0
 11
4.947103031797658
 21
1.186158901418869
 31
0.0
  0
LINE
  5
3E86
330
1E
100
AcDbEntity
  8
3
100
AcDbLine
 10
4.947103031797658
 20
1.186158901418869
 30
0.0
 11
4.929386496364587
 21
1.196001421103909
 31
0.0
  0
LINE
  5
3E87
330
1E
100
AcDbEntity
  8
3
100
AcDbLine
 10
4.929386496364587
 20
1.196001421103909
 30
0.0
 11
4.919543976679548
 21
1.199938428977924
 31
0.0
  0
LINE
  5
3E88
330
1E
100
AcDbEntity
  8
3
100
AcDbLine
 10
4.919543976679548
 20
1.199938428977924
 30
0.0
 11
4.915606968805532
 21
1.203875436851941
 31
0.0
  0
LINE
  5
3E89
330
1E
100
AcDbEntity
  8
3
100
AcDbLine
 10
4.809307756207108
 20
1.347576224253515
 30
0.0
 11
4.840803819199233
 21
1.32395417700942
 31
0.0
  0
LINE
  5
3E8A
330
1E
100
AcDbEntity
  8
3
100
AcDbLine
 10
4.840803819199233
 20
1.32395417700942
 30
0.0
 11
4.864425866443328
 21
1.30623764157635
 31
0.0
  0
LINE
  5
3E8B
330
1E
100
AcDbEntity
  8
3
100
AcDbLine
 10
4.864425866443328
 20
1.30623764157635
 30
0.0
 11
4.880173897939391
 21
1.296395121891311
 31
0.0
  0
LINE
  5
3E8C
330
1E
100
AcDbEntity
  8
3
100
AcDbLine
 10
4.880173897939391
 20
1.296395121891311
 30
0.0
 11
4.888047913687422
 21
1.290489610080287
 31
0.0
  0
LINE
  5
3E8D
330
1E
100
AcDbEntity
  8
3
100
AcDbLine
 10
4.338835315262226
 20
2.257025043151154
 30
0.0
 11
4.356551850695296
 21
2.107418743938554
 31
0.0
  0
LINE
  5
3E8E
330
1E
100
AcDbEntity
  8
3
100
AcDbLine
 10
4.356551850695296
 20
2.107418743938554
 30
0.0
 11
4.391984921561437
 21
1.961749452599972
 31
0.0
  0
LINE
  5
3E8F
330
1E
100
AcDbEntity
  8
3
100
AcDbLine
 10
4.391984921561437
 20
1.961749452599972
 30
0.0
 11
4.44513452786065
 21
1.820017169135406
 31
0.0
  0
LINE
  5
3E90
330
1E
100
AcDbEntity
  8
3
100
AcDbLine
 10
4.44513452786065
 20
1.820017169135406
 30
0.0
 11
4.514032165655926
 21
1.686158901418869
 31
0.0
  0
LINE
  5
3E91
330
1E
100
AcDbEntity
  8
3
100
AcDbLine
 10
4.514032165655926
 20
1.686158901418869
 30
0.0
 11
4.598677834947265
 21
1.562143153387374
 31
0.0
  0
LINE
  5
3E92
330
1E
100
AcDbEntity
  8
3
100
AcDbLine
 10
4.598677834947265
 20
1.562143153387374
 30
0.0
 11
4.697103031797658
 21
1.449938428977924
 31
0.0
  0
LINE
  5
3E93
330
1E
100
AcDbEntity
  8
3
100
AcDbLine
 10
4.697103031797658
 20
1.449938428977924
 30
0.0
 11
4.809307756207108
 21
1.347576224253515
 31
0.0
  0
LINE
  5
3E94
330
1E
100
AcDbEntity
  8
3
100
AcDbLine
 10
4.809307756207108
 20
3.316080161261389
 30
0.0
 11
4.697103031797658
 21
3.21371795653698
 31
0.0
  0
LINE
  5
3E95
330
1E
100
AcDbEntity
  8
3
100
AcDbLine
 10
4.697103031797658
 20
3.21371795653698
 30
0.0
 11
4.598677834947265
 21
3.101513232127532
 31
0.0
  0
LINE
  5
3E96
330
1E
100
AcDbEntity
  8
3
100
AcDbLine
 10
4.598677834947265
 20
3.101513232127532
 30
0.0
 11
4.514032165655926
 21
2.977497484096035
 31
0.0
  0
LINE
  5
3E97
330
1E
100
AcDbEntity
  8
3
100
AcDbLine
 10
4.514032165655926
 20
2.977497484096035
 30
0.0
 11
4.44513452786065
 21
2.8436392163795
 31
0.0
  0
LINE
  5
3E98
330
1E
100
AcDbEntity
  8
3
100
AcDbLine
 10
4.44513452786065
 20
2.8436392163795
 30
0.0
 11
4.391984921561437
 21
2.701906932914933
 31
0.0
  0
LINE
  5
3E99
330
1E
100
AcDbEntity
  8
3
100
AcDbLine
 10
4.391984921561437
 20
2.701906932914933
 30
0.0
 11
4.356551850695296
 21
2.55623764157635
 31
0.0
  0
LINE
  5
3E9A
330
1E
100
AcDbEntity
  8
3
100
AcDbLine
 10
4.356551850695296
 20
2.55623764157635
 30
0.0
 11
4.338835315262226
 21
2.406631342363752
 31
0.0
  0
LINE
  5
3E9B
330
1E
100
AcDbEntity
  8
3
100
AcDbLine
 10
4.338835315262226
 20
2.406631342363752
 30
0.0
 11
4.338835315262226
 21
2.257025043151154
 31
0.0
  0
LINE
  5
3E9C
330
1E
100
AcDbEntity
  8
3
100
AcDbLine
 10
4.915606968805532
 20
3.383009295119657
 30
0.0
 11
4.888047913687422
 21
3.373166775434617
 31
0.0
  0
LINE
  5
3E9D
330
1E
100
AcDbEntity
  8
3
100
AcDbLine
 10
4.888047913687422
 20
3.373166775434617
 30
0.0
 11
4.884110905813406
 21
3.369229767560602
 31
0.0
  0
LINE
  5
3E9E
330
1E
100
AcDbEntity
  8
3
100
AcDbLine
 10
4.884110905813406
 20
3.369229767560602
 30
0.0
 11
4.872299882191359
 21
3.36135575181257
 31
0.0
  0
LINE
  5
3E9F
330
1E
100
AcDbEntity
  8
3
100
AcDbLine
 10
4.872299882191359
 20
3.36135575181257
 30
0.0
 11
4.856551850695296
 21
3.349544728190522
 31
0.0
  0
LINE
  5
3EA0
330
1E
100
AcDbEntity
  8
3
100
AcDbLine
 10
4.856551850695296
 20
3.349544728190522
 30
0.0
 11
4.832929803451202
 21
3.333796696694459
 31
0.0
  0
LINE
  5
3EA1
330
1E
100
AcDbEntity
  8
3
100
AcDbLine
 10
5.098677834947265
 20
3.479465988033043
 30
0.0
 11
5.045528228648052
 21
3.455843940788948
 31
0.0
  0
LINE
  5
3EA2
330
1E
100
AcDbEntity
  8
3
100
AcDbLine
 10
5.045528228648052
 20
3.455843940788948
 30
0.0
 11
4.994347126285846
 21
3.430253389607846
 31
0.0
  0
LINE
  5
3EA3
330
1E
100
AcDbEntity
  8
3
100
AcDbLine
 10
5.283717205026004
 20
3.552300633702333
 30
0.0
 11
5.258126653844902
 21
3.544426617954302
 31
0.0
  0
LINE
  5
3EA4
330
1E
100
AcDbEntity
  8
3
100
AcDbLine
 10
5.258126653844902
 20
3.544426617954302
 30
0.0
 11
5.2325361026638
 21
3.53852110614328
 31
0.0
  0
LINE
  5
3EA5
330
1E
100
AcDbEntity
  8
3
100
AcDbLine
 10
5.2325361026638
 20
3.53852110614328
 30
0.0
 11
5.21481956723073
 21
3.532615594332256
 31
0.0
  0
LINE
  5
3EA6
330
1E
100
AcDbEntity
  8
3
100
AcDbLine
 10
5.21481956723073
 20
3.532615594332256
 30
0.0
 11
5.204977047545689
 21
3.528678586458239
 31
0.0
  0
LINE
  5
3EA7
330
1E
100
AcDbEntity
  8
3
100
AcDbLine
 10
5.204977047545689
 20
3.528678586458239
 30
0.0
 11
5.17741799242758
 21
3.512930554962176
 31
0.0
  0
LINE
  5
3EA8
330
1E
100
AcDbEntity
  8
3
100
AcDbLine
 10
6.360488858569311
 20
3.42631638173383
 30
0.0
 11
6.449071535734667
 21
3.363324255749578
 31
0.0
  0
LINE
  5
3EA9
330
1E
100
AcDbEntity
  8
3
100
AcDbLine
 10
6.449071535734667
 20
3.363324255749578
 30
0.0
 11
6.537654212900021
 21
3.28852110614328
 31
0.0
  0
LINE
  5
3EAA
330
1E
100
AcDbEntity
  8
3
100
AcDbLine
 10
6.328992795577185
 20
3.418442365985798
 30
0.0
 11
6.279780197151989
 21
3.449938428977924
 31
0.0
  0
LINE
  5
3EAB
330
1E
100
AcDbEntity
  8
3
100
AcDbLine
 10
6.279780197151989
 20
3.449938428977924
 30
0.0
 11
6.228599094789784
 21
3.479465988033043
 31
0.0
  0
LINE
  5
3EAC
330
1E
100
AcDbEntity
  8
3
100
AcDbLine
 10
6.502221142033878
 20
3.280647090395248
 30
0.0
 11
6.417575472742541
 21
3.353481736064539
 31
0.0
  0
LINE
  5
3EAD
330
1E
100
AcDbEntity
  8
3
100
AcDbLine
 10
6.417575472742541
 20
3.353481736064539
 30
0.0
 11
6.330961299514193
 21
3.418442365985798
 31
0.0
  0
LINE
  5
3EAE
330
1E
100
AcDbEntity
  8
3
100
AcDbLine
 10
5.571118779829154
 20
3.591670712442491
 30
0.0
 11
5.425449488490572
 21
3.579859688820445
 31
0.0
  0
LINE
  5
3EAF
330
1E
100
AcDbEntity
  8
3
100
AcDbLine
 10
5.425449488490572
 20
3.579859688820445
 30
0.0
 11
5.283717205026004
 21
3.552300633702333
 31
0.0
  0
LINE
  5
3EB0
330
1E
100
AcDbEntity
  8
3
100
AcDbLine
 10
6.789622716837028
 20
2.739308507718082
 30
0.0
 11
6.734504606600808
 21
2.873166775434617
 31
0.0
  0
LINE
  5
3EB1
330
1E
100
AcDbEntity
  8
3
100
AcDbLine
 10
6.734504606600808
 20
2.873166775434617
 30
0.0
 11
6.665606968805532
 21
2.999151027403122
 31
0.0
  0
LINE
  5
3EB2
330
1E
100
AcDbEntity
  8
3
100
AcDbLine
 10
6.665606968805532
 20
2.999151027403122
 30
0.0
 11
6.580961299514193
 21
3.117261263623595
 31
0.0
  0
LINE
  5
3EB3
330
1E
100
AcDbEntity
  8
3
100
AcDbLine
 10
6.580961299514193
 20
3.117261263623595
 30
0.0
 11
6.484504606600808
 21
3.225528980159028
 31
0.0
  0
LINE
  5
3EB4
330
1E
100
AcDbEntity
  8
3
100
AcDbLine
 10
6.484504606600808
 20
3.225528980159028
 30
0.0
 11
6.376236890065374
 21
3.321985673072413
 31
0.0
  0
LINE
  5
3EB5
330
1E
100
AcDbEntity
  8
3
100
AcDbLine
 10
6.376236890065374
 20
3.321985673072413
 30
0.0
 11
6.258126653844902
 21
3.404662838426743
 31
0.0
  0
LINE
  5
3EB6
330
1E
100
AcDbEntity
  8
3
100
AcDbLine
 10
6.258126653844902
 20
3.404662838426743
 30
0.0
 11
6.130173897939391
 21
3.473560476222019
 31
0.0
  0
LINE
  5
3EB7
330
1E
100
AcDbEntity
  8
3
100
AcDbLine
 10
6.130173897939391
 20
3.473560476222019
 30
0.0
 11
5.996315630222856
 21
3.526710082521232
 31
0.0
  0
LINE
  5
3EB8
330
1E
100
AcDbEntity
  8
3
100
AcDbLine
 10
5.996315630222856
 20
3.526710082521232
 30
0.0
 11
5.856551850695296
 21
3.564111657324382
 31
0.0
  0
LINE
  5
3EB9
330
1E
100
AcDbEntity
  8
3
100
AcDbLine
 10
5.856551850695296
 20
3.564111657324382
 30
0.0
 11
5.71481956723073
 21
3.585765200631469
 31
0.0
  0
LINE
  5
3EBA
330
1E
100
AcDbEntity
  8
3
100
AcDbLine
 10
5.71481956723073
 20
3.585765200631469
 30
0.0
 11
5.571118779829154
 21
3.591670712442491
 31
0.0
  0
LINE
  5
3EBB
330
1E
100
AcDbEntity
  8
3
100
AcDbLine
 10
6.165606968805532
 20
3.528678586458239
 30
0.0
 11
6.025843189277972
 21
3.585765200631469
 31
0.0
  0
LINE
  5
3EBC
330
1E
100
AcDbEntity
  8
3
100
AcDbLine
 10
6.025843189277972
 20
3.585765200631469
 30
0.0
 11
5.882142401876398
 21
3.625135279371626
 31
0.0
  0
LINE
  5
3EBD
330
1E
100
AcDbEntity
  8
3
100
AcDbLine
 10
5.882142401876398
 20
3.625135279371626
 30
0.0
 11
5.7325361026638
 21
3.64875732661572
 31
0.0
  0
LINE
  5
3EBE
330
1E
100
AcDbEntity
  8
3
100
AcDbLine
 10
5.7325361026638
 20
3.64875732661572
 30
0.0
 11
5.582929803451202
 21
3.656631342363752
 31
0.0
  0
LINE
  5
3EBF
330
1E
100
AcDbEntity
  8
3
100
AcDbLine
 10
5.582929803451202
 20
3.656631342363752
 30
0.0
 11
5.433323504238604
 21
3.646788822678711
 31
0.0
  0
LINE
  5
3EC0
330
1E
100
AcDbEntity
  8
3
100
AcDbLine
 10
5.433323504238604
 20
3.646788822678711
 30
0.0
 11
5.283717205026004
 21
3.619229767560602
 31
0.0
  0
LINE
  5
3EC1
330
1E
100
AcDbEntity
  8
3
100
AcDbLine
 10
6.836866811325217
 20
2.739308507718082
 30
0.0
 11
6.781748701088996
 21
2.879072287245641
 31
0.0
  0
LINE
  5
3EC2
330
1E
100
AcDbEntity
  8
3
100
AcDbLine
 10
6.781748701088996
 20
2.879072287245641
 30
0.0
 11
6.710882559356713
 21
3.010962051025169
 31
0.0
  0
LINE
  5
3EC3
330
1E
100
AcDbEntity
  8
3
100
AcDbLine
 10
6.710882559356713
 20
3.010962051025169
 30
0.0
 11
6.626236890065374
 21
3.133009295119657
 31
0.0
  0
LINE
  5
3EC4
330
1E
100
AcDbEntity
  8
3
100
AcDbLine
 10
6.626236890065374
 20
3.133009295119657
 30
0.0
 11
6.527811693214982
 21
3.245214019529106
 31
0.0
  0
LINE
  5
3EC5
330
1E
100
AcDbEntity
  8
3
100
AcDbLine
 10
6.527811693214982
 20
3.245214019529106
 30
0.0
 11
6.417575472742541
 21
3.345607720316507
 31
0.0
  0
LINE
  5
3EC6
330
1E
100
AcDbEntity
  8
3
100
AcDbLine
 10
6.417575472742541
 20
3.345607720316507
 30
0.0
 11
6.295528228648052
 21
3.434190397481861
 31
0.0
  0
LINE
  5
3EC7
330
1E
100
AcDbEntity
  8
3
100
AcDbLine
 10
6.295528228648052
 20
3.434190397481861
 30
0.0
 11
6.165606968805532
 21
3.507025043151154
 31
0.0
  0
LINE
  5
3EC8
330
1E
100
AcDbEntity
  8
3
100
AcDbLine
 10
6.330961299514193
 20
3.418442365985798
 30
0.0
 11
6.332929803451202
 21
3.418442365985798
 31
0.0
  0
LINE
  5
3EC9
330
1E
100
AcDbEntity
  8
3
100
AcDbLine
 10
6.332929803451202
 20
3.418442365985798
 30
0.0
 11
6.336866811325217
 21
3.420410869922806
 31
0.0
  0
LINE
  5
3ECA
330
1E
100
AcDbEntity
  8
3
100
AcDbLine
 10
6.336866811325217
 20
3.420410869922806
 30
0.0
 11
6.342772323136241
 21
3.422379373859815
 31
0.0
  0
LINE
  5
3ECB
330
1E
100
AcDbEntity
  8
3
100
AcDbLine
 10
6.342772323136241
 20
3.422379373859815
 30
0.0
 11
6.350646338884272
 21
3.424347877796822
 31
0.0
  0
LINE
  5
3ECC
330
1E
100
AcDbEntity
  8
3
100
AcDbLine
 10
6.350646338884272
 20
3.424347877796822
 30
0.0
 11
6.360488858569311
 21
3.42631638173383
 31
0.0
  0
LINE
  5
3ECD
330
1E
100
AcDbEntity
  8
3
100
AcDbLine
 10
6.360488858569311
 20
3.42631638173383
 30
0.0
 11
6.478599094789784
 21
3.459780948662965
 31
0.0
  0
LINE
  5
3ECE
330
1E
100
AcDbEntity
  8
3
100
AcDbLine
 10
5.675449488490572
 20
2.902694334489735
 30
0.0
 11
5.567181771955139
 21
2.908599846300759
 31
0.0
  0
LINE
  5
3ECF
330
1E
100
AcDbEntity
  8
3
100
AcDbLine
 10
5.567181771955139
 20
2.908599846300759
 30
0.0
 11
5.458914055419706
 21
2.892851814804696
 31
0.0
  0
LINE
  5
3ED0
330
1E
100
AcDbEntity
  8
3
100
AcDbLine
 10
5.458914055419706
 20
2.892851814804696
 30
0.0
 11
5.356551850695296
 21
2.855450240001546
 31
0.0
  0
LINE
  5
3ED1
330
1E
100
AcDbEntity
  8
3
100
AcDbLine
 10
5.356551850695296
 20
2.855450240001546
 30
0.0
 11
5.262063661718919
 21
2.802300633702333
 31
0.0
  0
LINE
  5
3ED2
330
1E
100
AcDbEntity
  8
3
100
AcDbLine
 10
5.262063661718919
 20
2.802300633702333
 30
0.0
 11
5.179386496364587
 21
2.73143449197005
 31
0.0
  0
LINE
  5
3ED3
330
1E
100
AcDbEntity
  8
3
100
AcDbLine
 10
5.179386496364587
 20
2.73143449197005
 30
0.0
 11
5.11245736250632
 21
2.644820318741704
 31
0.0
  0
LINE
  5
3ED4
330
1E
100
AcDbEntity
  8
3
100
AcDbLine
 10
5.11245736250632
 20
2.644820318741704
 30
0.0
 11
5.063244764081122
 21
2.548363625828319
 31
0.0
  0
LINE
  5
3ED5
330
1E
100
AcDbEntity
  8
3
100
AcDbLine
 10
5.425449488490572
 20
1.099544728190522
 30
0.0
 11
5.510095157781909
 21
1.091670712442491
 31
0.0
  0
LINE
  5
3ED6
330
1E
100
AcDbEntity
  8
3
100
AcDbLine
 10
5.510095157781909
 20
1.091670712442491
 30
0.0
 11
5.596709331010256
 21
1.087733704568476
 31
0.0
  0
LINE
  5
3ED7
330
1E
100
AcDbEntity
  8
3
100
AcDbLine
 10
4.354583346758289
 20
2.406631342363752
 30
0.0
 11
4.354583346758289
 21
2.257025043151154
 31
0.0
  0
LINE
  5
3ED8
330
1E
100
AcDbEntity
  8
3
100
AcDbLine
 10
4.354583346758289
 20
2.257025043151154
 30
0.0
 11
4.372299882191359
 21
2.107418743938554
 31
0.0
  0
LINE
  5
3ED9
330
1E
100
AcDbEntity
  8
3
100
AcDbLine
 10
4.372299882191359
 20
2.107418743938554
 30
0.0
 11
4.409701456994509
 21
1.961749452599972
 31
0.0
  0
LINE
  5
3EDA
330
1E
100
AcDbEntity
  8
3
100
AcDbLine
 10
4.409701456994509
 20
1.961749452599972
 30
0.0
 11
4.462851063293721
 21
1.821985673072413
 31
0.0
  0
LINE
  5
3EDB
330
1E
100
AcDbEntity
  8
3
100
AcDbLine
 10
4.462851063293721
 20
1.821985673072413
 30
0.0
 11
4.531748701088996
 21
1.690095909292885
 31
0.0
  0
LINE
  5
3EDC
330
1E
100
AcDbEntity
  8
3
100
AcDbLine
 10
4.531748701088996
 20
1.690095909292885
 30
0.0
 11
4.616394370380335
 21
1.566080161261389
 31
0.0
  0
LINE
  5
3EDD
330
1E
100
AcDbEntity
  8
3
100
AcDbLine
 10
4.614425866443328
 20
3.095607720316507
 30
0.0
 11
4.529780197151989
 21
2.973560476222019
 31
0.0
  0
LINE
  5
3EDE
330
1E
100
AcDbEntity
  8
3
100
AcDbLine
 10
4.529780197151989
 20
2.973560476222019
 30
0.0
 11
4.460882559356713
 21
2.839702208505483
 31
0.0
  0
LINE
  5
3EDF
330
1E
100
AcDbEntity
  8
3
100
AcDbLine
 10
4.460882559356713
 20
2.839702208505483
 30
0.0
 11
4.4077329530575
 21
2.699938428977924
 31
0.0
  0
LINE
  5
3EE0
330
1E
100
AcDbEntity
  8
3
100
AcDbLine
 10
4.4077329530575
 20
2.699938428977924
 30
0.0
 11
4.372299882191359
 21
2.554269137639343
 31
0.0
  0
LINE
  5
3EE1
330
1E
100
AcDbEntity
  8
3
100
AcDbLine
 10
4.372299882191359
 20
2.554269137639343
 30
0.0
 11
4.354583346758289
 21
2.406631342363752
 31
0.0
  0
LINE
  5
3EE2
330
1E
100
AcDbEntity
  8
3
100
AcDbLine
 10
6.153795945183485
 20
3.4440329171669
 30
0.0
 11
6.016000669592934
 21
3.503088035277137
 31
0.0
  0
LINE
  5
3EE3
330
1E
100
AcDbEntity
  8
3
100
AcDbLine
 10
6.016000669592934
 20
3.503088035277137
 30
0.0
 11
5.872299882191359
 21
3.544426617954302
 31
0.0
  0
LINE
  5
3EE4
330
1E
100
AcDbEntity
  8
3
100
AcDbLine
 10
5.872299882191359
 20
3.544426617954302
 30
0.0
 11
5.724662086915769
 21
3.570017169135406
 31
0.0
  0
LINE
  5
3EE5
330
1E
100
AcDbEntity
  8
3
100
AcDbLine
 10
5.724662086915769
 20
3.570017169135406
 30
0.0
 11
5.575055787703171
 21
3.575922680946428
 31
0.0
  0
LINE
  5
3EE6
330
1E
100
AcDbEntity
  8
3
100
AcDbLine
 10
5.575055787703171
 20
3.575922680946428
 30
0.0
 11
5.423480984553563
 21
3.564111657324382
 31
0.0
  0
LINE
  5
3EE7
330
1E
100
AcDbEntity
  8
3
100
AcDbLine
 10
6.752221142033878
 20
2.794426617954302
 30
0.0
 11
6.687260512112619
 21
2.930253389607846
 31
0.0
  0
LINE
  5
3EE8
330
1E
100
AcDbEntity
  8
3
100
AcDbLine
 10
6.687260512112619
 20
2.930253389607846
 30
0.0
 11
6.606551850695296
 21
3.058206145513358
 31
0.0
  0
LINE
  5
3EE9
330
1E
100
AcDbEntity
  8
3
100
AcDbLine
 10
6.606551850695296
 20
3.058206145513358
 30
0.0
 11
6.512063661718919
 21
3.174347877796822
 31
0.0
  0
LINE
  5
3EEA
330
1E
100
AcDbEntity
  8
3
100
AcDbLine
 10
6.512063661718919
 20
3.174347877796822
 30
0.0
 11
6.403795945183485
 21
3.278678586458239
 31
0.0
  0
LINE
  5
3EEB
330
1E
100
AcDbEntity
  8
3
100
AcDbLine
 10
6.403795945183485
 20
3.278678586458239
 30
0.0
 11
6.283717205026004
 21
3.369229767560602
 31
0.0
  0
LINE
  5
3EEC
330
1E
100
AcDbEntity
  8
3
100
AcDbLine
 10
6.283717205026004
 20
3.369229767560602
 30
0.0
 11
6.153795945183485
 21
3.4440329171669
 31
0.0
  0
LINE
  5
3EED
330
1E
100
AcDbEntity
  8
3
100
AcDbLine
 10
6.291591220774035
 20
1.300332129765326
 30
0.0
 11
6.4077329530575
 21
1.38891480693068
 31
0.0
  0
LINE
  5
3EEE
330
1E
100
AcDbEntity
  8
3
100
AcDbLine
 10
6.4077329530575
 20
1.38891480693068
 30
0.0
 11
6.514032165655926
 21
1.491277011655091
 31
0.0
  0
LINE
  5
3EEF
330
1E
100
AcDbEntity
  8
3
100
AcDbLine
 10
6.514032165655926
 20
1.491277011655091
 30
0.0
 11
6.606551850695296
 21
1.605450240001546
 31
0.0
  0
LINE
  5
3EF0
330
1E
100
AcDbEntity
  8
3
100
AcDbLine
 10
6.606551850695296
 20
1.605450240001546
 30
0.0
 11
6.685292008175611
 21
1.729465988033043
 31
0.0
  0
LINE
  5
3EF1
330
1E
100
AcDbEntity
  8
3
100
AcDbLine
 10
6.685292008175611
 20
1.729465988033043
 30
0.0
 11
6.748284134159863
 21
1.863324255749578
 31
0.0
  0
LINE
  5
3EF2
330
1E
100
AcDbEntity
  8
3
100
AcDbLine
 10
5.596709331010256
 20
1.087733704568476
 30
0.0
 11
5.744347126285846
 21
1.095607720316507
 31
0.0
  0
LINE
  5
3EF3
330
1E
100
AcDbEntity
  8
3
100
AcDbLine
 10
5.744347126285846
 20
1.095607720316507
 30
0.0
 11
5.888047913687422
 21
1.123166775434617
 31
0.0
  0
LINE
  5
3EF4
330
1E
100
AcDbEntity
  8
3
100
AcDbLine
 10
5.888047913687422
 20
1.123166775434617
 30
0.0
 11
6.029780197151989
 21
1.164505358111783
 31
0.0
  0
LINE
  5
3EF5
330
1E
100
AcDbEntity
  8
3
100
AcDbLine
 10
6.029780197151989
 20
1.164505358111783
 30
0.0
 11
6.163638464868524
 21
1.225528980159028
 31
0.0
  0
LINE
  5
3EF6
330
1E
100
AcDbEntity
  8
3
100
AcDbLine
 10
6.163638464868524
 20
1.225528980159028
 30
0.0
 11
6.291591220774035
 21
1.300332129765326
 31
0.0
  0
LINE
  5
3EF7
330
1E
100
AcDbEntity
  8
3
100
AcDbLine
 10
5.366394370380335
 20
1.636946302993672
 30
0.0
 11
5.451040039671674
 21
1.613324255749578
 31
0.0
  0
LINE
  5
3EF8
330
1E
100
AcDbEntity
  8
3
100
AcDbLine
 10
5.451040039671674
 20
1.613324255749578
 30
0.0
 11
5.537654212900021
 21
1.601513232127532
 31
0.0
  0
LINE
  5
3EF9
330
1E
100
AcDbEntity
  8
3
100
AcDbLine
 10
5.419543976679548
 20
1.662536854174774
 30
0.0
 11
5.508126653844902
 21
1.644820318741704
 31
0.0
  0
LINE
  5
3EFA
330
1E
100
AcDbEntity
  8
3
100
AcDbLine
 10
5.508126653844902
 20
1.644820318741704
 30
0.0
 11
5.598677834947265
 21
1.63891480693068
 31
0.0
  0
LINE
  5
3EFB
330
1E
100
AcDbEntity
  8
3
100
AcDbLine
 10
5.419543976679548
 20
1.660568350237767
 30
0.0
 11
5.421512480616556
 21
1.664505358111783
 31
0.0
  0
LINE
  5
3EFC
330
1E
100
AcDbEntity
  8
3
100
AcDbLine
 10
5.421512480616556
 20
1.664505358111783
 30
0.0
 11
5.425449488490572
 21
1.668442365985798
 31
0.0
  0
LINE
  5
3EFD
330
1E
100
AcDbEntity
  8
3
100
AcDbLine
 10
5.425449488490572
 20
1.668442365985798
 30
0.0
 11
5.429386496364587
 21
1.674347877796822
 31
0.0
  0
LINE
  5
3EFE
330
1E
100
AcDbEntity
  8
3
100
AcDbLine
 10
5.429386496364587
 20
1.674347877796822
 30
0.0
 11
5.431355000301595
 21
1.678284885670837
 31
0.0
  0
LINE
  5
3EFF
330
1E
100
AcDbEntity
  8
3
100
AcDbLine
 10
5.431355000301595
 20
1.680253389607846
 30
0.0
 11
5.51993767746695
 21
1.662536854174774
 31
0.0
  0
LINE
  5
3F00
330
1E
100
AcDbEntity
  8
3
100
AcDbLine
 10
5.51993767746695
 20
1.662536854174774
 30
0.0
 11
5.610488858569311
 21
1.658599846300759
 31
0.0
  0
LINE
  5
3F01
330
1E
100
AcDbEntity
  8
3
100
AcDbLine
 10
5.437260512112619
 20
1.692064413229893
 30
0.0
 11
5.527811693214982
 21
1.67631638173383
 31
0.0
  0
LINE
  5
3F02
330
1E
100
AcDbEntity
  8
3
100
AcDbLine
 10
5.527811693214982
 20
1.67631638173383
 30
0.0
 11
5.620331378254352
 21
1.672379373859815
 31
0.0
  0
LINE
  5
3F03
330
1E
100
AcDbEntity
  8
3
100
AcDbLine
 10
5.122299882191359
 20
1.875135279371626
 30
0.0
 11
5.21481956723073
 21
1.794426617954302
 31
0.0
  0
LINE
  5
3F04
330
1E
100
AcDbEntity
  8
3
100
AcDbLine
 10
5.21481956723073
 20
1.794426617954302
 30
0.0
 11
5.321118779829154
 21
1.733402995907059
 31
0.0
  0
LINE
  5
3F05
330
1E
100
AcDbEntity
  8
3
100
AcDbLine
 10
5.321118779829154
 20
1.733402995907059
 30
0.0
 11
5.437260512112619
 21
1.692064413229893
 31
0.0
  0
LINE
  5
3F06
330
1E
100
AcDbEntity
  8
3
100
AcDbLine
 10
5.014032165655926
 20
2.022773074647217
 30
0.0
 11
5.063244764081122
 21
1.944032917166902
 31
0.0
  0
LINE
  5
3F07
330
1E
100
AcDbEntity
  8
3
100
AcDbLine
 10
5.063244764081122
 20
1.944032917166902
 30
0.0
 11
5.122299882191359
 21
1.875135279371626
 31
0.0
  0
LINE
  5
3F08
330
1E
100
AcDbEntity
  8
3
100
AcDbLine
 10
5.012063661718919
 20
2.030647090395248
 30
0.0
 11
5.069150275892146
 21
1.940095909292885
 31
0.0
  0
LINE
  5
3F09
330
1E
100
AcDbEntity
  8
3
100
AcDbLine
 10
5.069150275892146
 20
1.940095909292885
 30
0.0
 11
5.14001641762443
 21
1.859387247875563
 31
0.0
  0
LINE
  5
3F0A
330
1E
100
AcDbEntity
  8
3
100
AcDbLine
 10
5.14001641762443
 20
1.859387247875563
 30
0.0
 11
5.222693582978761
 21
1.790489610080287
 31
0.0
  0
LINE
  5
3F0B
330
1E
100
AcDbEntity
  8
3
100
AcDbLine
 10
5.222693582978761
 20
1.790489610080287
 30
0.0
 11
5.31521326801813
 21
1.737340003781074
 31
0.0
  0
LINE
  5
3F0C
330
1E
100
AcDbEntity
  8
3
100
AcDbLine
 10
5.31521326801813
 20
1.737340003781074
 30
0.0
 11
5.415606968805532
 21
1.699938428977924
 31
0.0
  0
LINE
  5
3F0D
330
1E
100
AcDbEntity
  8
3
100
AcDbLine
 10
5.415606968805532
 20
1.699938428977924
 30
0.0
 11
5.521906181403958
 21
1.678284885670837
 31
0.0
  0
LINE
  5
3F0E
330
1E
100
AcDbEntity
  8
3
100
AcDbLine
 10
5.521906181403958
 20
1.678284885670837
 30
0.0
 11
5.628205394002383
 21
1.674347877796822
 31
0.0
  0
LINE
  5
3F0F
330
1E
100
AcDbEntity
  8
3
100
AcDbLine
 10
5.012063661718919
 20
2.030647090395248
 30
0.0
 11
5.012063661718919
 21
2.03655260220627
 31
0.0
  0
LINE
  5
3F10
330
1E
100
AcDbEntity
  8
3
100
AcDbLine
 10
5.012063661718919
 20
2.03655260220627
 30
0.0
 11
5.017969173529941
 21
2.048363625828319
 31
0.0
  0
LINE
  5
3F11
330
1E
100
AcDbEntity
  8
3
100
AcDbLine
 10
5.017969173529941
 20
2.048363625828319
 30
0.0
 11
5.027811693214982
 21
2.066080161261389
 31
0.0
  0
LINE
  5
3F12
330
1E
100
AcDbEntity
  8
3
100
AcDbLine
 10
5.027811693214982
 20
2.066080161261389
 30
0.0
 11
5.053402244396083
 21
2.11135575181257
 31
0.0
  0
LINE
  5
3F13
330
1E
100
AcDbEntity
  8
3
100
AcDbLine
 10
5.179386496364587
 20
1.932221893544854
 30
0.0
 11
5.262063661718919
 21
1.86135575181257
 31
0.0
  0
LINE
  5
3F14
330
1E
100
AcDbEntity
  8
3
100
AcDbLine
 10
5.262063661718919
 20
1.86135575181257
 30
0.0
 11
5.356551850695296
 21
1.808206145513358
 31
0.0
  0
LINE
  5
3F15
330
1E
100
AcDbEntity
  8
3
100
AcDbLine
 10
5.356551850695296
 20
1.808206145513358
 30
0.0
 11
5.458914055419706
 21
1.770804570710208
 31
0.0
  0
LINE
  5
3F16
330
1E
100
AcDbEntity
  8
3
100
AcDbLine
 10
5.458914055419706
 20
1.770804570710208
 30
0.0
 11
5.567181771955139
 21
1.755056539214145
 31
0.0
  0
LINE
  5
3F17
330
1E
100
AcDbEntity
  8
3
100
AcDbLine
 10
5.567181771955139
 20
1.755056539214145
 30
0.0
 11
5.675449488490572
 21
1.760962051025169
 31
0.0
  0
LINE
  5
3F18
330
1E
100
AcDbEntity
  8
3
100
AcDbLine
 10
5.063244764081122
 20
2.115292759686585
 30
0.0
 11
5.11245736250632
 21
2.0188360667732
 31
0.0
  0
LINE
  5
3F19
330
1E
100
AcDbEntity
  8
3
100
AcDbLine
 10
5.11245736250632
 20
2.0188360667732
 30
0.0
 11
5.179386496364587
 21
1.932221893544854
 31
0.0
  0
LINE
  5
3F1A
330
1E
100
AcDbEntity
  8
3
100
AcDbLine
 10
4.994347126285846
 20
1.160568350237767
 30
0.0
 11
5.045528228648052
 21
1.134977799056665
 31
0.0
  0
LINE
  5
3F1B
330
1E
100
AcDbEntity
  8
3
100
AcDbLine
 10
5.045528228648052
 20
1.134977799056665
 30
0.0
 11
5.098677834947265
 21
1.113324255749578
 31
0.0
  0
LINE
  5
3F1C
330
1E
100
AcDbEntity
  8
3
100
AcDbLine
 10
4.994347126285846
 20
1.233402995907059
 30
0.0
 11
5.045528228648052
 21
1.207812444725956
 31
0.0
  0
LINE
  5
3F1D
330
1E
100
AcDbEntity
  8
3
100
AcDbLine
 10
5.045528228648052
 20
1.207812444725956
 30
0.0
 11
5.098677834947265
 21
1.184190397481861
 31
0.0
  0
LINE
  5
3F1E
330
1E
100
AcDbEntity
  8
3
100
AcDbLine
 10
5.17741799242758
 20
1.081828192757452
 30
0.0
 11
5.175449488490572
 21
1.083796696694459
 31
0.0
  0
LINE
  5
3F1F
330
1E
100
AcDbEntity
  8
3
100
AcDbLine
 10
5.175449488490572
 20
1.083796696694459
 30
0.0
 11
5.161669960931517
 21
1.087733704568476
 31
0.0
  0
LINE
  5
3F20
330
1E
100
AcDbEntity
  8
3
100
AcDbLine
 10
5.161669960931517
 20
1.087733704568476
 30
0.0
 11
5.14001641762443
 21
1.095607720316507
 31
0.0
  0
LINE
  5
3F21
330
1E
100
AcDbEntity
  8
3
100
AcDbLine
 10
5.14001641762443
 20
1.095607720316507
 30
0.0
 11
5.11245736250632
 21
1.107418743938554
 31
0.0
  0
LINE
  5
3F22
330
1E
100
AcDbEntity
  8
3
100
AcDbLine
 10
5.11245736250632
 20
1.107418743938554
 30
0.0
 11
5.098677834947265
 21
1.11135575181257
 31
0.0
  0
LINE
  5
3F23
330
1E
100
AcDbEntity
  8
3
100
AcDbLine
 10
6.866394370380335
 20
2.631040791182648
 30
0.0
 11
6.854583346758287
 21
2.678284885670837
 31
0.0
  0
LINE
  5
3F24
330
1E
100
AcDbEntity
  8
3
100
AcDbLine
 10
6.854583346758287
 20
2.678284885670837
 30
0.0
 11
6.840803819199233
 21
2.723560476222019
 31
0.0
  0
LINE
  5
3F25
330
1E
100
AcDbEntity
  8
3
100
AcDbLine
 10
6.886079409750415
 20
2.631040791182648
 30
0.0
 11
6.874268386128367
 21
2.678284885670837
 31
0.0
  0
LINE
  5
3F26
330
1E
100
AcDbEntity
  8
3
100
AcDbLine
 10
6.874268386128367
 20
2.678284885670837
 30
0.0
 11
6.860488858569311
 21
2.723560476222019
 31
0.0
  0
LINE
  5
3F27
330
1E
100
AcDbEntity
  8
3
100
AcDbLine
 10
6.712851063293721
 20
3.012930554962176
 30
0.0
 11
6.787654212900021
 21
2.873166775434617
 31
0.0
  0
LINE
  5
3F28
330
1E
100
AcDbEntity
  8
3
100
AcDbLine
 10
6.787654212900021
 20
2.873166775434617
 30
0.0
 11
6.842772323136241
 21
2.723560476222019
 31
0.0
  0
LINE
  5
3F29
330
1E
100
AcDbEntity
  8
3
100
AcDbLine
 10
6.842772323136241
 20
2.723560476222019
 30
0.0
 11
6.860488858569311
 21
2.723560476222019
 31
0.0
  0
LINE
  5
3F2A
330
1E
100
AcDbEntity
  8
3
100
AcDbLine
 10
6.728599094789784
 20
3.012930554962176
 30
0.0
 11
6.716788071167737
 21
3.032615594332256
 31
0.0
  0
LINE
  5
3F2B
330
1E
100
AcDbEntity
  8
3
100
AcDbLine
 10
6.716788071167737
 20
3.032615594332256
 30
0.0
 11
6.703008543608682
 21
3.054269137639343
 31
0.0
  0
LINE
  5
3F2C
330
1E
100
AcDbEntity
  8
3
100
AcDbLine
 10
6.712851063293721
 20
3.012930554962176
 30
0.0
 11
6.701040039671674
 21
3.030647090395248
 31
0.0
  0
LINE
  5
3F2D
330
1E
100
AcDbEntity
  8
3
100
AcDbLine
 10
6.701040039671674
 20
3.030647090395248
 30
0.0
 11
6.689229016049626
 21
3.048363625828319
 31
0.0
  0
LINE
  5
3F2E
330
1E
100
AcDbEntity
  8
3
100
AcDbLine
 10
6.669543976679548
 20
3.085765200631469
 30
0.0
 11
6.689229016049626
 21
3.048363625828319
 31
0.0
  0
LINE
  5
3F2F
330
1E
100
AcDbEntity
  8
3
100
AcDbLine
 10
6.689229016049626
 20
3.048363625828319
 30
0.0
 11
6.704977047545689
 21
3.054269137639343
 31
0.0
  0
LINE
  5
3F30
330
1E
100
AcDbEntity
  8
3
100
AcDbLine
 10
6.669543976679548
 20
3.085765200631469
 30
0.0
 11
6.590803819199233
 21
3.186158901418869
 31
0.0
  0
LINE
  5
3F31
330
1E
100
AcDbEntity
  8
3
100
AcDbLine
 10
6.590803819199233
 20
3.186158901418869
 30
0.0
 11
6.504189645970887
 21
3.278678586458239
 31
0.0
  0
LINE
  5
3F32
330
1E
100
AcDbEntity
  8
3
100
AcDbLine
 10
6.671512480616556
 20
3.085765200631469
 30
0.0
 11
6.592772323136241
 21
3.186158901418869
 31
0.0
  0
LINE
  5
3F33
330
1E
100
AcDbEntity
  8
3
100
AcDbLine
 10
6.592772323136241
 20
3.186158901418869
 30
0.0
 11
6.506158149907895
 21
3.278678586458239
 31
0.0
  0
LINE
  5
3F34
330
1E
100
AcDbEntity
  8
3
100
AcDbLine
 10
6.634110905813406
 20
3.314111657324382
 30
0.0
 11
6.537654212900021
 21
3.28852110614328
 31
0.0
  0
LINE
  5
3F35
330
1E
100
AcDbEntity
  8
3
100
AcDbLine
 10
6.537654212900021
 20
3.28852110614328
 30
0.0
 11
6.523874685340965
 21
3.284584098269263
 31
0.0
  0
LINE
  5
3F36
330
1E
100
AcDbEntity
  8
3
100
AcDbLine
 10
6.523874685340965
 20
3.284584098269263
 30
0.0
 11
6.512063661718919
 21
3.282615594332256
 31
0.0
  0
LINE
  5
3F37
330
1E
100
AcDbEntity
  8
3
100
AcDbLine
 10
6.512063661718919
 20
3.282615594332256
 30
0.0
 11
6.506158149907895
 21
3.280647090395248
 31
0.0
  0
LINE
  5
3F38
330
1E
100
AcDbEntity
  8
3
100
AcDbLine
 10
6.506158149907895
 20
3.280647090395248
 30
0.0
 11
6.502221142033878
 21
3.280647090395248
 31
0.0
  0
LINE
  5
3F39
330
1E
100
AcDbEntity
  8
3
100
AcDbLine
 10
6.502221142033878
 20
3.280647090395248
 30
0.0
 11
6.504189645970887
 21
3.278678586458239
 31
0.0
  0
LINE
  5
3F3A
330
1E
100
AcDbEntity
  8
3
100
AcDbLine
 10
6.478599094789784
 20
3.459780948662965
 30
0.0
 11
6.502221142033878
 21
3.465686460473987
 31
0.0
  0
LINE
  5
3F3B
330
1E
100
AcDbEntity
  8
3
100
AcDbLine
 10
6.502221142033878
 20
3.465686460473987
 30
0.0
 11
6.527811693214982
 21
3.471591972285011
 31
0.0
  0
LINE
  5
3F3C
330
1E
100
AcDbEntity
  8
3
100
AcDbLine
 10
6.527811693214982
 20
3.471591972285011
 30
0.0
 11
6.547496732585059
 21
3.475528980159028
 31
0.0
  0
LINE
  5
3F3D
330
1E
100
AcDbEntity
  8
3
100
AcDbLine
 10
6.547496732585059
 20
3.475528980159028
 30
0.0
 11
6.557339252270098
 21
3.477497484096035
 31
0.0
  0
LINE
  5
3F3E
330
1E
100
AcDbEntity
  8
3
100
AcDbLine
 10
6.557339252270098
 20
3.477497484096035
 30
0.0
 11
6.557339252270098
 21
3.479465988033043
 31
0.0
  0
LINE
  5
3F3F
330
1E
100
AcDbEntity
  8
3
100
AcDbLine
 10
6.697103031797658
 20
3.333796696694459
 30
0.0
 11
6.69513452786065
 21
3.331828192757452
 31
0.0
  0
LINE
  5
3F40
330
1E
100
AcDbEntity
  8
3
100
AcDbLine
 10
6.69513452786065
 20
3.331828192757452
 30
0.0
 11
6.687260512112619
 21
3.329859688820445
 31
0.0
  0
LINE
  5
3F41
330
1E
100
AcDbEntity
  8
3
100
AcDbLine
 10
6.687260512112619
 20
3.329859688820445
 30
0.0
 11
6.671512480616556
 21
3.325922680946428
 31
0.0
  0
LINE
  5
3F42
330
1E
100
AcDbEntity
  8
3
100
AcDbLine
 10
6.671512480616556
 20
3.325922680946428
 30
0.0
 11
6.653795945183485
 21
3.320017169135406
 31
0.0
  0
LINE
  5
3F43
330
1E
100
AcDbEntity
  8
3
100
AcDbLine
 10
6.653795945183485
 20
3.320017169135406
 30
0.0
 11
6.634110905813406
 21
3.314111657324382
 31
0.0
  0
LINE
  5
3F44
330
1E
100
AcDbEntity
  8
3
100
AcDbLine
 10
6.634110905813406
 20
3.314111657324382
 30
0.0
 11
6.557339252270098
 21
3.390883310867689
 31
0.0
  0
LINE
  5
3F45
330
1E
100
AcDbEntity
  8
3
100
AcDbLine
 10
6.557339252270098
 20
3.390883310867689
 30
0.0
 11
6.478599094789784
 21
3.459780948662965
 31
0.0
  0
LINE
  5
3F46
330
1E
100
AcDbEntity
  8
3
100
AcDbLine
 10
6.557339252270098
 20
3.479465988033043
 30
0.0
 11
6.628205394002383
 21
3.408599846300759
 31
0.0
  0
LINE
  5
3F47
330
1E
100
AcDbEntity
  8
3
100
AcDbLine
 10
6.628205394002383
 20
3.408599846300759
 30
0.0
 11
6.697103031797658
 21
3.333796696694459
 31
0.0
  0
LINE
  5
3F48
330
1E
100
AcDbEntity
  8
3
100
AcDbLine
 10
6.56521326801813
 20
3.475528980159028
 30
0.0
 11
6.638047913687422
 21
3.402694334489735
 31
0.0
  0
LINE
  5
3F49
330
1E
100
AcDbEntity
  8
3
100
AcDbLine
 10
6.638047913687422
 20
3.402694334489735
 30
0.0
 11
6.64001641762443
 21
3.400725830552728
 31
0.0
  0
LINE
  5
3F4A
330
1E
100
AcDbEntity
  8
3
100
AcDbLine
 10
5.630173897939391
 20
1.674347877796822
 30
0.0
 11
5.634110905813406
 21
1.678284885670837
 31
0.0
  0
LINE
  5
3F4B
330
1E
100
AcDbEntity
  8
3
100
AcDbLine
 10
5.634110905813406
 20
1.678284885670837
 30
0.0
 11
5.64001641762443
 21
1.688127405355878
 31
0.0
  0
LINE
  5
3F4C
330
1E
100
AcDbEntity
  8
3
100
AcDbLine
 10
5.64001641762443
 20
1.688127405355878
 30
0.0
 11
5.651827441246478
 21
1.705843940788948
 31
0.0
  0
LINE
  5
3F4D
330
1E
100
AcDbEntity
  8
3
100
AcDbLine
 10
5.651827441246478
 20
1.705843940788948
 30
0.0
 11
5.679386496364587
 21
1.75111953134013
 31
0.0
  0
LINE
  5
3F4E
330
1E
100
AcDbEntity
  8
3
100
AcDbLine
 10
5.630173897939391
 20
1.674347877796822
 30
0.0
 11
5.620331378254352
 21
1.670410869922806
 31
0.0
  0
LINE
  5
3F4F
330
1E
100
AcDbEntity
  8
3
100
AcDbLine
 10
5.620331378254352
 20
1.670410869922806
 30
0.0
 11
5.61245736250632
 21
1.656631342363752
 31
0.0
  0
LINE
  5
3F50
330
1E
100
AcDbEntity
  8
3
100
AcDbLine
 10
5.61245736250632
 20
1.656631342363752
 30
0.0
 11
5.606551850695296
 21
1.64875732661572
 31
0.0
  0
LINE
  5
3F51
330
1E
100
AcDbEntity
  8
3
100
AcDbLine
 10
5.606551850695296
 20
1.64875732661572
 30
0.0
 11
5.60261484282128
 21
1.640883310867689
 31
0.0
  0
LINE
  5
3F52
330
1E
100
AcDbEntity
  8
3
100
AcDbLine
 10
5.60261484282128
 20
1.640883310867689
 30
0.0
 11
5.600646338884272
 21
1.63891480693068
 31
0.0
  0
LINE
  5
3F53
330
1E
100
AcDbEntity
  8
3
100
AcDbLine
 10
5.600646338884272
 20
1.63891480693068
 30
0.0
 11
5.598677834947265
 21
1.636946302993672
 31
0.0
  0
LINE
  5
3F54
330
1E
100
AcDbEntity
  8
3
100
AcDbLine
 10
5.598677834947265
 20
1.636946302993672
 30
0.0
 11
5.539622716837028
 21
1.599544728190522
 31
0.0
  0
LINE
  5
3F55
330
1E
100
AcDbEntity
  8
3
100
AcDbLine
 10
5.330961299514193
 20
1.575922680946428
 30
0.0
 11
5.415606968805532
 21
1.552300633702333
 31
0.0
  0
LINE
  5
3F56
330
1E
100
AcDbEntity
  8
3
100
AcDbLine
 10
5.415606968805532
 20
1.552300633702333
 30
0.0
 11
5.500252638096871
 21
1.53655260220627
 31
0.0
  0
LINE
  5
3F57
330
1E
100
AcDbEntity
  8
3
100
AcDbLine
 10
5.500252638096871
 20
1.534584098269263
 30
0.0
 11
5.500252638096871
 21
1.532615594332256
 31
0.0
  0
LINE
  5
3F58
330
1E
100
AcDbEntity
  8
3
100
AcDbLine
 10
5.500252638096871
 20
1.532615594332256
 30
0.0
 11
5.498284134159863
 21
1.530647090395248
 31
0.0
  0
LINE
  5
3F59
330
1E
100
AcDbEntity
  8
3
100
AcDbLine
 10
5.498284134159863
 20
1.530647090395248
 30
0.0
 11
5.498284134159863
 21
1.528678586458239
 31
0.0
  0
LINE
  5
3F5A
330
1E
100
AcDbEntity
  8
3
100
AcDbLine
 10
5.327024291640178
 20
1.568048665198396
 30
0.0
 11
5.328992795577185
 21
1.568048665198396
 31
0.0
  0
LINE
  5
3F5B
330
1E
100
AcDbEntity
  8
3
100
AcDbLine
 10
5.328992795577185
 20
1.568048665198396
 30
0.0
 11
5.328992795577185
 21
1.570017169135406
 31
0.0
  0
LINE
  5
3F5C
330
1E
100
AcDbEntity
  8
3
100
AcDbLine
 10
5.328992795577185
 20
1.570017169135406
 30
0.0
 11
5.328992795577185
 21
1.571985673072413
 31
0.0
  0
LINE
  5
3F5D
330
1E
100
AcDbEntity
  8
3
100
AcDbLine
 10
5.328992795577185
 20
1.571985673072413
 30
0.0
 11
5.330961299514193
 21
1.57395417700942
 31
0.0
  0
LINE
  5
3F5E
330
1E
100
AcDbEntity
  8
3
100
AcDbLine
 10
5.327024291640178
 20
1.568048665198396
 30
0.0
 11
5.411669960931517
 21
1.544426617954302
 31
0.0
  0
LINE
  5
3F5F
330
1E
100
AcDbEntity
  8
3
100
AcDbLine
 10
5.411669960931517
 20
1.544426617954302
 30
0.0
 11
5.498284134159863
 21
1.528678586458239
 31
0.0
  0
LINE
  5
3F60
330
1E
100
AcDbEntity
  8
3
100
AcDbLine
 10
6.059307756207108
 20
1.971591972285011
 30
0.0
 11
6.088835315262224
 21
1.971591972285011
 31
0.0
  0
LINE
  5
3F61
330
1E
100
AcDbEntity
  8
3
100
AcDbLine
 10
6.088835315262224
 20
1.971591972285011
 30
0.0
 11
6.118362874317343
 21
1.971591972285011
 31
0.0
  0
LINE
  5
3F62
330
1E
100
AcDbEntity
  8
3
100
AcDbLine
 10
6.118362874317343
 20
1.971591972285011
 30
0.0
 11
6.138047913687422
 21
1.973560476222019
 31
0.0
  0
LINE
  5
3F63
330
1E
100
AcDbEntity
  8
3
100
AcDbLine
 10
6.138047913687422
 20
1.973560476222019
 30
0.0
 11
6.149858937309469
 21
1.973560476222019
 31
0.0
  0
LINE
  5
3F64
330
1E
100
AcDbEntity
  8
3
100
AcDbLine
 10
6.149858937309469
 20
1.973560476222019
 30
0.0
 11
6.149858937309469
 21
1.975528980159028
 31
0.0
  0
LINE
  5
3F65
330
1E
100
AcDbEntity
  8
3
100
AcDbLine
 10
6.149858937309469
 20
2.493245515592098
 30
0.0
 11
6.110488858569311
 21
2.5936392163795
 31
0.0
  0
LINE
  5
3F66
330
1E
100
AcDbEntity
  8
3
100
AcDbLine
 10
6.110488858569311
 20
2.5936392163795
 30
0.0
 11
6.051433740459076
 21
2.686158901418869
 31
0.0
  0
LINE
  5
3F67
330
1E
100
AcDbEntity
  8
3
100
AcDbLine
 10
6.051433740459076
 20
1.977497484096035
 30
0.0
 11
6.110488858569311
 21
2.070017169135406
 31
0.0
  0
LINE
  5
3F68
330
1E
100
AcDbEntity
  8
3
100
AcDbLine
 10
6.110488858569311
 20
2.070017169135406
 30
0.0
 11
6.149858937309469
 21
2.170410869922806
 31
0.0
  0
LINE
  5
3F69
330
1E
100
AcDbEntity
  8
3
100
AcDbLine
 10
6.149858937309469
 20
2.170410869922806
 30
0.0
 11
6.171512480616556
 21
2.276710082521232
 31
0.0
  0
LINE
  5
3F6A
330
1E
100
AcDbEntity
  8
3
100
AcDbLine
 10
6.171512480616556
 20
2.276710082521232
 30
0.0
 11
6.171512480616556
 21
2.386946302993672
 31
0.0
  0
LINE
  5
3F6B
330
1E
100
AcDbEntity
  8
3
100
AcDbLine
 10
6.171512480616556
 20
2.386946302993672
 30
0.0
 11
6.149858937309469
 21
2.493245515592098
 31
0.0
  0
LINE
  5
3F6C
330
1E
100
AcDbEntity
  8
3
100
AcDbLine
 10
6.059307756207108
 20
2.692064413229893
 30
0.0
 11
6.088835315262224
 21
2.692064413229893
 31
0.0
  0
LINE
  5
3F6D
330
1E
100
AcDbEntity
  8
3
100
AcDbLine
 10
6.088835315262224
 20
2.692064413229893
 30
0.0
 11
6.118362874317343
 21
2.692064413229893
 31
0.0
  0
LINE
  5
3F6E
330
1E
100
AcDbEntity
  8
3
100
AcDbLine
 10
6.118362874317343
 20
2.692064413229893
 30
0.0
 11
6.138047913687422
 21
2.690095909292885
 31
0.0
  0
LINE
  5
3F6F
330
1E
100
AcDbEntity
  8
3
100
AcDbLine
 10
6.138047913687422
 20
2.690095909292885
 30
0.0
 11
6.149858937309469
 21
2.688127405355878
 31
0.0
  0
LINE
  5
3F70
330
1E
100
AcDbEntity
  8
3
100
AcDbLine
 10
5.204977047545689
 20
1.134977799056665
 30
0.0
 11
5.210882559356713
 21
1.133009295119657
 31
0.0
  0
LINE
  5
3F71
330
1E
100
AcDbEntity
  8
3
100
AcDbLine
 10
5.210882559356713
 20
1.133009295119657
 30
0.0
 11
5.224662086915769
 21
1.127103783308633
 31
0.0
  0
LINE
  5
3F72
330
1E
100
AcDbEntity
  8
3
100
AcDbLine
 10
5.224662086915769
 20
1.127103783308633
 30
0.0
 11
5.246315630222856
 21
1.121198271497609
 31
0.0
  0
LINE
  5
3F73
330
1E
100
AcDbEntity
  8
3
100
AcDbLine
 10
5.246315630222856
 20
1.121198271497609
 30
0.0
 11
5.271906181403958
 21
1.113324255749578
 31
0.0
  0
LINE
  5
3F74
330
1E
100
AcDbEntity
  8
3
100
AcDbLine
 10
5.271906181403958
 20
1.113324255749578
 30
0.0
 11
5.283717205026004
 21
1.11135575181257
 31
0.0
  0
LINE
  5
3F75
330
1E
100
AcDbEntity
  8
3
100
AcDbLine
 10
5.283717205026004
 20
1.044426617954302
 30
0.0
 11
5.260095157781909
 21
1.050332129765326
 31
0.0
  0
LINE
  5
3F76
330
1E
100
AcDbEntity
  8
3
100
AcDbLine
 10
5.260095157781909
 20
1.050332129765326
 30
0.0
 11
5.234504606600808
 21
1.058206145513358
 31
0.0
  0
LINE
  5
3F77
330
1E
100
AcDbEntity
  8
3
100
AcDbLine
 10
5.234504606600808
 20
1.058206145513358
 30
0.0
 11
5.216788071167737
 21
1.062143153387374
 31
0.0
  0
LINE
  5
3F78
330
1E
100
AcDbEntity
  8
3
100
AcDbLine
 10
5.216788071167737
 20
1.062143153387374
 30
0.0
 11
5.206945551482698
 21
1.066080161261389
 31
0.0
  0
LINE
  5
3F79
330
1E
100
AcDbEntity
  8
3
100
AcDbLine
 10
5.206945551482698
 20
1.066080161261389
 30
0.0
 11
5.204977047545689
 21
1.068048665198396
 31
0.0
  0
LINE
  5
3F7A
330
1E
100
AcDbEntity
  8
3
100
AcDbLine
 10
5.71481956723073
 20
1.077891184883437
 30
0.0
 11
5.856551850695296
 21
1.099544728190522
 31
0.0
  0
LINE
  5
3F7B
330
1E
100
AcDbEntity
  8
3
100
AcDbLine
 10
5.856551850695296
 20
1.099544728190522
 30
0.0
 11
5.996315630222856
 21
1.136946302993672
 31
0.0
  0
LINE
  5
3F7C
330
1E
100
AcDbEntity
  8
3
100
AcDbLine
 10
5.996315630222856
 20
1.136946302993672
 30
0.0
 11
6.130173897939391
 21
1.190095909292885
 31
0.0
  0
LINE
  5
3F7D
330
1E
100
AcDbEntity
  8
3
100
AcDbLine
 10
6.130173897939391
 20
1.190095909292885
 30
0.0
 11
6.258126653844902
 21
1.258993547088161
 31
0.0
  0
LINE
  5
3F7E
330
1E
100
AcDbEntity
  8
3
100
AcDbLine
 10
6.258126653844902
 20
1.258993547088161
 30
0.0
 11
6.376236890065374
 21
1.341670712442491
 31
0.0
  0
LINE
  5
3F7F
330
1E
100
AcDbEntity
  8
3
100
AcDbLine
 10
6.376236890065374
 20
1.341670712442491
 30
0.0
 11
6.484504606600808
 21
1.438127405355878
 31
0.0
  0
LINE
  5
3F80
330
1E
100
AcDbEntity
  8
3
100
AcDbLine
 10
6.484504606600808
 20
1.438127405355878
 30
0.0
 11
6.580961299514193
 21
1.546395121891311
 31
0.0
  0
LINE
  5
3F81
330
1E
100
AcDbEntity
  8
3
100
AcDbLine
 10
6.580961299514193
 20
1.546395121891311
 30
0.0
 11
6.665606968805532
 21
1.664505358111783
 31
0.0
  0
LINE
  5
3F82
330
1E
100
AcDbEntity
  8
3
100
AcDbLine
 10
6.665606968805532
 20
1.664505358111783
 30
0.0
 11
6.734504606600808
 21
1.790489610080287
 31
0.0
  0
LINE
  5
3F83
330
1E
100
AcDbEntity
  8
3
100
AcDbLine
 10
6.734504606600808
 20
1.790489610080287
 30
0.0
 11
6.789622716837028
 21
1.924347877796822
 31
0.0
  0
LINE
  5
3F84
330
1E
100
AcDbEntity
  8
3
100
AcDbLine
 10
5.283717205026004
 20
1.11135575181257
 30
0.0
 11
5.425449488490572
 21
1.083796696694459
 31
0.0
  0
LINE
  5
3F85
330
1E
100
AcDbEntity
  8
3
100
AcDbLine
 10
5.425449488490572
 20
1.083796696694459
 30
0.0
 11
5.571118779829154
 21
1.071985673072413
 31
0.0
  0
LINE
  5
3F86
330
1E
100
AcDbEntity
  8
3
100
AcDbLine
 10
5.571118779829154
 20
1.071985673072413
 30
0.0
 11
5.71481956723073
 21
1.077891184883437
 31
0.0
  0
LINE
  5
3F87
330
1E
100
AcDbEntity
  8
3
100
AcDbLine
 10
5.283717205026004
 20
1.044426617954302
 30
0.0
 11
5.433323504238604
 21
1.016867562836193
 31
0.0
  0
LINE
  5
3F88
330
1E
100
AcDbEntity
  8
3
100
AcDbLine
 10
5.433323504238604
 20
1.016867562836193
 30
0.0
 11
5.582929803451202
 21
1.007025043151154
 31
0.0
  0
LINE
  5
3F89
330
1E
100
AcDbEntity
  8
3
100
AcDbLine
 10
5.582929803451202
 20
1.007025043151154
 30
0.0
 11
5.7325361026638
 21
1.014899058899185
 31
0.0
  0
LINE
  5
3F8A
330
1E
100
AcDbEntity
  8
3
100
AcDbLine
 10
5.7325361026638
 20
1.014899058899185
 30
0.0
 11
5.882142401876398
 21
1.03852110614328
 31
0.0
  0
LINE
  5
3F8B
330
1E
100
AcDbEntity
  8
3
100
AcDbLine
 10
5.882142401876398
 20
1.03852110614328
 30
0.0
 11
6.025843189277972
 21
1.077891184883437
 31
0.0
  0
LINE
  5
3F8C
330
1E
100
AcDbEntity
  8
3
100
AcDbLine
 10
6.025843189277972
 20
1.077891184883437
 30
0.0
 11
6.165606968805532
 21
1.134977799056665
 31
0.0
  0
LINE
  5
3F8D
330
1E
100
AcDbEntity
  8
3
100
AcDbLine
 10
6.868362874317343
 20
2.032615594332256
 30
0.0
 11
6.819150275892146
 21
2.032615594332256
 31
0.0
  0
LINE
  5
3F8E
330
1E
100
AcDbEntity
  8
3
100
AcDbLine
 10
6.819150275892146
 20
2.032615594332256
 30
0.0
 11
6.789622716837028
 21
1.924347877796822
 31
0.0
  0
LINE
  5
3F8F
330
1E
100
AcDbEntity
  8
3
100
AcDbLine
 10
6.789622716837028
 20
1.924347877796822
 30
0.0
 11
6.836866811325217
 21
1.924347877796822
 31
0.0
  0
LINE
  5
3F90
330
1E
100
AcDbEntity
  8
3
100
AcDbLine
 10
6.823087283766161
 20
2.075922680946428
 30
0.0
 11
6.886079409750415
 21
2.075922680946428
 31
0.0
  0
LINE
  5
3F91
330
1E
100
AcDbEntity
  8
3
100
AcDbLine
 10
6.886079409750415
 20
2.075922680946428
 30
0.0
 11
6.888047913687422
 21
2.083796696694459
 31
0.0
  0
LINE
  5
3F92
330
1E
100
AcDbEntity
  8
3
100
AcDbLine
 10
6.888047913687422
 20
2.083796696694459
 30
0.0
 11
6.89001641762443
 21
2.101513232127532
 31
0.0
  0
LINE
  5
3F93
330
1E
100
AcDbEntity
  8
3
100
AcDbLine
 10
6.89001641762443
 20
2.101513232127532
 30
0.0
 11
6.893953425498446
 21
2.123166775434617
 31
0.0
  0
LINE
  5
3F94
330
1E
100
AcDbEntity
  8
3
100
AcDbLine
 10
6.893953425498446
 20
2.123166775434617
 30
0.0
 11
6.897890433372461
 21
2.150725830552728
 31
0.0
  0
LINE
  5
3F95
330
1E
100
AcDbEntity
  8
3
100
AcDbLine
 10
6.897890433372461
 20
2.150725830552728
 30
0.0
 11
6.897890433372461
 21
2.154662838426743
 31
0.0
  0
LINE
  5
3F96
330
1E
100
AcDbEntity
  8
3
100
AcDbLine
 10
6.897890433372461
 20
2.154662838426743
 30
0.0
 11
6.909701456994509
 21
2.331828192757452
 31
0.0
  0
LINE
  5
3F97
330
1E
100
AcDbEntity
  8
3
100
AcDbLine
 10
6.909701456994509
 20
2.331828192757452
 30
0.0
 11
6.897890433372461
 21
2.508993547088161
 31
0.0
  0
LINE
  5
3F98
330
1E
100
AcDbEntity
  8
3
100
AcDbLine
 10
6.893953425498446
 20
2.540489610080287
 30
0.0
 11
6.897890433372461
 21
2.512930554962176
 31
0.0
  0
LINE
  5
3F99
330
1E
100
AcDbEntity
  8
3
100
AcDbLine
 10
6.897890433372461
 20
2.512930554962176
 30
0.0
 11
6.897890433372461
 21
2.508993547088161
 31
0.0
  0
LINE
  5
3F9A
330
1E
100
AcDbEntity
  8
3
100
AcDbLine
 10
6.886079409750415
 20
2.587733704568476
 30
0.0
 11
6.888047913687422
 21
2.579859688820445
 31
0.0
  0
LINE
  5
3F9B
330
1E
100
AcDbEntity
  8
3
100
AcDbLine
 10
6.888047913687422
 20
2.579859688820445
 30
0.0
 11
6.89001641762443
 21
2.562143153387374
 31
0.0
  0
LINE
  5
3F9C
330
1E
100
AcDbEntity
  8
3
100
AcDbLine
 10
6.89001641762443
 20
2.562143153387374
 30
0.0
 11
6.893953425498446
 21
2.540489610080287
 31
0.0
  0
LINE
  5
3F9D
330
1E
100
AcDbEntity
  8
3
100
AcDbLine
 10
6.860488858569311
 20
1.940095909292885
 30
0.0
 11
6.874268386128367
 21
1.985371499844067
 31
0.0
  0
LINE
  5
3F9E
330
1E
100
AcDbEntity
  8
3
100
AcDbLine
 10
6.874268386128367
 20
1.985371499844067
 30
0.0
 11
6.886079409750415
 21
2.032615594332256
 31
0.0
  0
LINE
  5
3F9F
330
1E
100
AcDbEntity
  8
3
100
AcDbLine
 10
6.703008543608682
 20
1.609387247875563
 30
0.0
 11
6.716788071167737
 21
1.631040791182648
 31
0.0
  0
LINE
  5
3FA0
330
1E
100
AcDbEntity
  8
3
100
AcDbLine
 10
6.716788071167737
 20
1.631040791182648
 30
0.0
 11
6.728599094789784
 21
1.650725830552728
 31
0.0
  0
LINE
  5
3FA1
330
1E
100
AcDbEntity
  8
3
100
AcDbLine
 10
6.506158149907895
 20
1.384977799056665
 30
0.0
 11
6.592772323136241
 21
1.477497484096035
 31
0.0
  0
LINE
  5
3FA2
330
1E
100
AcDbEntity
  8
3
100
AcDbLine
 10
6.592772323136241
 20
1.477497484096035
 30
0.0
 11
6.671512480616556
 21
1.577891184883437
 31
0.0
  0
LINE
  5
3FA3
330
1E
100
AcDbEntity
  8
3
100
AcDbLine
 10
6.840803819199233
 20
1.940095909292885
 30
0.0
 11
6.854583346758287
 21
1.985371499844067
 31
0.0
  0
LINE
  5
3FA4
330
1E
100
AcDbEntity
  8
3
100
AcDbLine
 10
6.854583346758287
 20
1.985371499844067
 30
0.0
 11
6.866394370380335
 21
2.032615594332256
 31
0.0
  0
LINE
  5
3FA5
330
1E
100
AcDbEntity
  8
3
100
AcDbLine
 10
6.689229016049626
 20
1.615292759686585
 30
0.0
 11
6.701040039671674
 21
1.633009295119657
 31
0.0
  0
LINE
  5
3FA6
330
1E
100
AcDbEntity
  8
3
100
AcDbLine
 10
6.701040039671674
 20
1.633009295119657
 30
0.0
 11
6.712851063293721
 21
1.650725830552728
 31
0.0
  0
LINE
  5
3FA7
330
1E
100
AcDbEntity
  8
3
100
AcDbLine
 10
6.504189645970887
 20
1.384977799056665
 30
0.0
 11
6.590803819199233
 21
1.477497484096035
 31
0.0
  0
LINE
  5
3FA8
330
1E
100
AcDbEntity
  8
3
100
AcDbLine
 10
6.590803819199233
 20
1.477497484096035
 30
0.0
 11
6.669543976679548
 21
1.577891184883437
 31
0.0
  0
LINE
  5
3FA9
330
1E
100
AcDbEntity
  8
3
100
AcDbLine
 10
6.228599094789784
 20
1.184190397481861
 30
0.0
 11
6.279780197151989
 21
1.21371795653698
 31
0.0
  0
LINE
  5
3FAA
330
1E
100
AcDbEntity
  8
3
100
AcDbLine
 10
6.279780197151989
 20
1.21371795653698
 30
0.0
 11
6.328992795577185
 21
1.245214019529106
 31
0.0
  0
LINE
  5
3FAB
330
1E
100
AcDbEntity
  8
3
100
AcDbLine
 10
6.710882559356713
 20
1.652694334489735
 30
0.0
 11
6.781748701088996
 21
1.784584098269263
 31
0.0
  0
LINE
  5
3FAC
330
1E
100
AcDbEntity
  8
3
100
AcDbLine
 10
6.781748701088996
 20
1.784584098269263
 30
0.0
 11
6.836866811325217
 21
1.924347877796822
 31
0.0
  0
LINE
  5
3FAD
330
1E
100
AcDbEntity
  8
3
100
AcDbLine
 10
6.165606968805532
 20
1.156631342363752
 30
0.0
 11
6.295528228648052
 21
1.229465988033043
 31
0.0
  0
LINE
  5
3FAE
330
1E
100
AcDbEntity
  8
3
100
AcDbLine
 10
6.295528228648052
 20
1.229465988033043
 30
0.0
 11
6.417575472742541
 21
1.318048665198396
 31
0.0
  0
LINE
  5
3FAF
330
1E
100
AcDbEntity
  8
3
100
AcDbLine
 10
6.417575472742541
 20
1.318048665198396
 30
0.0
 11
6.527811693214982
 21
1.418442365985798
 31
0.0
  0
LINE
  5
3FB0
330
1E
100
AcDbEntity
  8
3
100
AcDbLine
 10
6.527811693214982
 20
1.418442365985798
 30
0.0
 11
6.626236890065374
 21
1.530647090395248
 31
0.0
  0
LINE
  5
3FB1
330
1E
100
AcDbEntity
  8
3
100
AcDbLine
 10
6.626236890065374
 20
1.530647090395248
 30
0.0
 11
6.710882559356713
 21
1.652694334489735
 31
0.0
  0
LINE
  5
3FB2
330
1E
100
AcDbEntity
  8
3
100
AcDbLine
 10
6.165606968805532
 20
1.156631342363752
 30
0.0
 11
6.165606968805532
 21
1.134977799056665
 31
0.0
  0
LINE
  5
3FB3
330
1E
100
AcDbEntity
  8
3
100
AcDbLine
 10
6.165606968805532
 20
1.134977799056665
 30
0.0
 11
6.230567598726793
 21
1.182221893544854
 31
0.0
  0
LINE
  5
3FB4
330
1E
100
AcDbEntity
  8
3
100
AcDbLine
 10
6.972693582978761
 20
3.012930554962176
 30
0.0
 11
7.031748701088996
 21
2.871198271497609
 31
0.0
  0
LINE
  5
3FB5
330
1E
100
AcDbEntity
  8
3
100
AcDbLine
 10
7.031748701088996
 20
2.871198271497609
 30
0.0
 11
7.077024291640178
 21
2.723560476222019
 31
0.0
  0
LINE
  5
3FB6
330
1E
100
AcDbEntity
  8
3
100
AcDbLine
 10
6.689229016049626
 20
3.414505358111783
 30
0.0
 11
6.703008543608682
 21
3.39875732661572
 31
0.0
  0
LINE
  5
3FB7
330
1E
100
AcDbEntity
  8
3
100
AcDbLine
 10
6.703008543608682
 20
3.39875732661572
 30
0.0
 11
6.716788071167737
 21
3.383009295119657
 31
0.0
  0
LINE
  5
3FB8
330
1E
100
AcDbEntity
  8
3
100
AcDbLine
 10
6.716788071167737
 20
3.383009295119657
 30
0.0
 11
6.730567598726793
 21
3.369229767560602
 31
0.0
  0
LINE
  5
3FB9
330
1E
100
AcDbEntity
  8
3
100
AcDbLine
 10
6.730567598726793
 20
3.369229767560602
 30
0.0
 11
6.738441614474824
 21
3.357418743938554
 31
0.0
  0
LINE
  5
3FBA
330
1E
100
AcDbEntity
  8
3
100
AcDbLine
 10
6.738441614474824
 20
3.357418743938554
 30
0.0
 11
6.744347126285846
 21
3.351513232127532
 31
0.0
  0
LINE
  5
3FBB
330
1E
100
AcDbEntity
  8
3
100
AcDbLine
 10
6.744347126285846
 20
3.351513232127532
 30
0.0
 11
6.746315630222856
 21
3.351513232127532
 31
0.0
  0
LINE
  5
3FBC
330
1E
100
AcDbEntity
  8
3
100
AcDbLine
 10
6.69513452786065
 20
3.337733704568476
 30
0.0
 11
6.69513452786065
 21
3.339702208505483
 31
0.0
  0
LINE
  5
3FBD
330
1E
100
AcDbEntity
  8
3
100
AcDbLine
 10
6.69513452786065
 20
3.339702208505483
 30
0.0
 11
6.689229016049626
 21
3.345607720316507
 31
0.0
  0
LINE
  5
3FBE
330
1E
100
AcDbEntity
  8
3
100
AcDbLine
 10
6.689229016049626
 20
3.345607720316507
 30
0.0
 11
6.681355000301595
 21
3.355450240001546
 31
0.0
  0
LINE
  5
3FBF
330
1E
100
AcDbEntity
  8
3
100
AcDbLine
 10
6.681355000301595
 20
3.355450240001546
 30
0.0
 11
6.671512480616556
 21
3.367261263623595
 31
0.0
  0
LINE
  5
3FC0
330
1E
100
AcDbEntity
  8
3
100
AcDbLine
 10
6.671512480616556
 20
3.367261263623595
 30
0.0
 11
6.6577329530575
 21
3.381040791182648
 31
0.0
  0
LINE
  5
3FC1
330
1E
100
AcDbEntity
  8
3
100
AcDbLine
 10
6.6577329530575
 20
3.381040791182648
 30
0.0
 11
6.643953425498446
 21
3.396788822678711
 31
0.0
  0
LINE
  5
3FC2
330
1E
100
AcDbEntity
  8
3
100
AcDbLine
 10
6.643953425498446
 20
3.396788822678711
 30
0.0
 11
6.64001641762443
 21
3.400725830552728
 31
0.0
  0
LINE
  5
3FC3
330
1E
100
AcDbEntity
  8
3
100
AcDbLine
 10
6.340803819199233
 20
2.016867562836193
 30
0.0
 11
6.372299882191359
 21
2.097576224253515
 31
0.0
  0
LINE
  5
3FC4
330
1E
100
AcDbEntity
  8
3
100
AcDbLine
 10
6.372299882191359
 20
2.097576224253515
 30
0.0
 11
6.391984921561437
 21
2.184190397481861
 31
0.0
  0
LINE
  5
3FC5
330
1E
100
AcDbEntity
  8
3
100
AcDbLine
 10
6.342772323136241
 20
2.014899058899185
 30
0.0
 11
6.342772323136241
 21
2.016867562836193
 31
0.0
  0
LINE
  5
3FC6
330
1E
100
AcDbEntity
  8
3
100
AcDbLine
 10
6.342772323136241
 20
2.016867562836193
 30
0.0
 11
6.340803819199233
 21
2.016867562836193
 31
0.0
  0
LINE
  5
3FC7
330
1E
100
AcDbEntity
  8
3
100
AcDbLine
 10
6.340803819199233
 20
2.016867562836193
 30
0.0
 11
6.338835315262224
 21
2.016867562836193
 31
0.0
  0
LINE
  5
3FC8
330
1E
100
AcDbEntity
  8
3
100
AcDbLine
 10
6.338835315262224
 20
2.016867562836193
 30
0.0
 11
6.334898307388209
 21
2.016867562836193
 31
0.0
  0
LINE
  5
3FC9
330
1E
100
AcDbEntity
  8
3
100
AcDbLine
 10
6.332929803451202
 20
2.016867562836193
 30
0.0
 11
6.36245736250632
 21
2.099544728190522
 31
0.0
  0
LINE
  5
3FCA
330
1E
100
AcDbEntity
  8
3
100
AcDbLine
 10
6.36245736250632
 20
2.099544728190522
 30
0.0
 11
6.384110905813406
 21
2.184190397481861
 31
0.0
  0
LINE
  5
3FCB
330
1E
100
AcDbEntity
  8
3
100
AcDbLine
 10
6.258126653844902
 20
2.016867562836193
 30
0.0
 11
6.291591220774035
 21
2.099544728190522
 31
0.0
  0
LINE
  5
3FCC
330
1E
100
AcDbEntity
  8
3
100
AcDbLine
 10
6.291591220774035
 20
2.099544728190522
 30
0.0
 11
6.313244764081122
 21
2.184190397481861
 31
0.0
  0
LINE
  5
3FCD
330
1E
100
AcDbEntity
  8
3
100
AcDbLine
 10
6.19513452786065
 20
1.983402995907059
 30
0.0
 11
6.236473110537815
 21
2.064111657324382
 31
0.0
  0
LINE
  5
3FCE
330
1E
100
AcDbEntity
  8
3
100
AcDbLine
 10
6.236473110537815
 20
2.064111657324382
 30
0.0
 11
6.266000669592934
 21
2.150725830552728
 31
0.0
  0
LINE
  5
3FCF
330
1E
100
AcDbEntity
  8
3
100
AcDbLine
 10
6.173480984553563
 20
1.98143449197005
 30
0.0
 11
6.183323504238604
 21
1.98143449197005
 31
0.0
  0
LINE
  5
3FD0
330
1E
100
AcDbEntity
  8
3
100
AcDbLine
 10
6.183323504238604
 20
1.98143449197005
 30
0.0
 11
6.191197519986635
 21
1.98143449197005
 31
0.0
  0
LINE
  5
3FD1
330
1E
100
AcDbEntity
  8
3
100
AcDbLine
 10
6.191197519986635
 20
1.98143449197005
 30
0.0
 11
6.19513452786065
 21
1.98143449197005
 31
0.0
  0
LINE
  5
3FD2
330
1E
100
AcDbEntity
  8
3
100
AcDbLine
 10
6.19513452786065
 20
1.98143449197005
 30
0.0
 11
6.197103031797658
 21
1.983402995907059
 31
0.0
  0
LINE
  5
3FD3
330
1E
100
AcDbEntity
  8
3
100
AcDbLine
 10
6.171512480616556
 20
1.983402995907059
 30
0.0
 11
6.21481956723073
 21
2.064111657324382
 31
0.0
  0
LINE
  5
3FD4
330
1E
100
AcDbEntity
  8
3
100
AcDbLine
 10
6.21481956723073
 20
2.064111657324382
 30
0.0
 11
6.244347126285846
 21
2.14875732661572
 31
0.0
  0
LINE
  5
3FD5
330
1E
100
AcDbEntity
  8
3
100
AcDbLine
 10
6.155764449120493
 20
1.983402995907059
 30
0.0
 11
6.199071535734667
 21
2.064111657324382
 31
0.0
  0
LINE
  5
3FD6
330
1E
100
AcDbEntity
  8
3
100
AcDbLine
 10
6.199071535734667
 20
2.064111657324382
 30
0.0
 11
6.230567598726793
 21
2.14875732661572
 31
0.0
  0
LINE
  5
3FD7
330
1E
100
AcDbEntity
  8
3
100
AcDbLine
 10
6.149858937309469
 20
1.975528980159028
 30
0.0
 11
6.199071535734667
 21
2.070017169135406
 31
0.0
  0
LINE
  5
3FD8
330
1E
100
AcDbEntity
  8
3
100
AcDbLine
 10
6.199071535734667
 20
2.070017169135406
 30
0.0
 11
6.234504606600808
 21
2.172379373859815
 31
0.0
  0
LINE
  5
3FD9
330
1E
100
AcDbEntity
  8
3
100
AcDbLine
 10
6.234504606600808
 20
2.172379373859815
 30
0.0
 11
6.252221142033878
 21
2.278678586458239
 31
0.0
  0
LINE
  5
3FDA
330
1E
100
AcDbEntity
  8
3
100
AcDbLine
 10
6.252221142033878
 20
2.278678586458239
 30
0.0
 11
6.252221142033878
 21
2.384977799056665
 31
0.0
  0
LINE
  5
3FDB
330
1E
100
AcDbEntity
  8
3
100
AcDbLine
 10
6.252221142033878
 20
2.384977799056665
 30
0.0
 11
6.234504606600808
 21
2.491277011655091
 31
0.0
  0
LINE
  5
3FDC
330
1E
100
AcDbEntity
  8
3
100
AcDbLine
 10
6.234504606600808
 20
2.491277011655091
 30
0.0
 11
6.199071535734667
 21
2.5936392163795
 31
0.0
  0
LINE
  5
3FDD
330
1E
100
AcDbEntity
  8
3
100
AcDbLine
 10
6.199071535734667
 20
2.5936392163795
 30
0.0
 11
6.149858937309469
 21
2.688127405355878
 31
0.0
  0
LINE
  5
3FDE
330
1E
100
AcDbEntity
  8
3
100
AcDbLine
 10
6.230567598726793
 20
2.514899058899185
 30
0.0
 11
6.199071535734667
 21
2.599544728190522
 31
0.0
  0
LINE
  5
3FDF
330
1E
100
AcDbEntity
  8
3
100
AcDbLine
 10
6.199071535734667
 20
2.599544728190522
 30
0.0
 11
6.155764449120493
 21
2.680253389607846
 31
0.0
  0
LINE
  5
3FE0
330
1E
100
AcDbEntity
  8
3
100
AcDbLine
 10
6.173480984553563
 20
2.682221893544854
 30
0.0
 11
6.183323504238604
 21
2.682221893544854
 31
0.0
  0
LINE
  5
3FE1
330
1E
100
AcDbEntity
  8
3
100
AcDbLine
 10
6.183323504238604
 20
2.682221893544854
 30
0.0
 11
6.191197519986635
 21
2.680253389607846
 31
0.0
  0
LINE
  5
3FE2
330
1E
100
AcDbEntity
  8
3
100
AcDbLine
 10
6.191197519986635
 20
2.680253389607846
 30
0.0
 11
6.19513452786065
 21
2.680253389607846
 31
0.0
  0
LINE
  5
3FE3
330
1E
100
AcDbEntity
  8
3
100
AcDbLine
 10
6.19513452786065
 20
2.680253389607846
 30
0.0
 11
6.197103031797658
 21
2.680253389607846
 31
0.0
  0
LINE
  5
3FE4
330
1E
100
AcDbEntity
  8
3
100
AcDbLine
 10
6.266000669592934
 20
2.512930554962176
 30
0.0
 11
6.236473110537815
 21
2.599544728190522
 31
0.0
  0
LINE
  5
3FE5
330
1E
100
AcDbEntity
  8
3
100
AcDbLine
 10
6.236473110537815
 20
2.599544728190522
 30
0.0
 11
6.19513452786065
 21
2.680253389607846
 31
0.0
  0
LINE
  5
3FE6
330
1E
100
AcDbEntity
  8
3
100
AcDbLine
 10
6.313244764081122
 20
2.479465988033043
 30
0.0
 11
6.291591220774035
 21
2.564111657324382
 31
0.0
  0
LINE
  5
3FE7
330
1E
100
AcDbEntity
  8
3
100
AcDbLine
 10
6.291591220774035
 20
2.564111657324382
 30
0.0
 11
6.258126653844902
 21
2.646788822678711
 31
0.0
  0
LINE
  5
3FE8
330
1E
100
AcDbEntity
  8
3
100
AcDbLine
 10
6.384110905813406
 20
2.479465988033043
 30
0.0
 11
6.36245736250632
 21
2.564111657324382
 31
0.0
  0
LINE
  5
3FE9
330
1E
100
AcDbEntity
  8
3
100
AcDbLine
 10
6.36245736250632
 20
2.564111657324382
 30
0.0
 11
6.332929803451202
 21
2.646788822678711
 31
0.0
  0
LINE
  5
3FEA
330
1E
100
AcDbEntity
  8
3
100
AcDbLine
 10
6.334898307388209
 20
2.646788822678711
 30
0.0
 11
6.338835315262224
 21
2.646788822678711
 31
0.0
  0
LINE
  5
3FEB
330
1E
100
AcDbEntity
  8
3
100
AcDbLine
 10
6.338835315262224
 20
2.646788822678711
 30
0.0
 11
6.340803819199233
 21
2.646788822678711
 31
0.0
  0
LINE
  5
3FEC
330
1E
100
AcDbEntity
  8
3
100
AcDbLine
 10
6.340803819199233
 20
2.646788822678711
 30
0.0
 11
6.342772323136241
 21
2.646788822678711
 31
0.0
  0
LINE
  5
3FED
330
1E
100
AcDbEntity
  8
3
100
AcDbLine
 10
6.391984921561437
 20
2.479465988033043
 30
0.0
 11
6.372299882191359
 21
2.566080161261389
 31
0.0
  0
LINE
  5
3FEE
330
1E
100
AcDbEntity
  8
3
100
AcDbLine
 10
6.372299882191359
 20
2.566080161261389
 30
0.0
 11
6.340803819199233
 21
2.646788822678711
 31
0.0
  0
LINE
  5
3FEF
330
1E
100
AcDbEntity
  8
3
100
AcDbLine
 10
6.712851063293721
 20
1.650725830552728
 30
0.0
 11
6.787654212900021
 21
1.790489610080287
 31
0.0
  0
LINE
  5
3FF0
330
1E
100
AcDbEntity
  8
3
100
AcDbLine
 10
6.787654212900021
 20
1.790489610080287
 30
0.0
 11
6.842772323136241
 21
1.938127405355878
 31
0.0
  0
LINE
  5
3FF1
330
1E
100
AcDbEntity
  8
3
100
AcDbLine
 10
7.031748701088996
 20
1.792458114017295
 30
0.0
 11
7.077024291640178
 21
1.938127405355878
 31
0.0
  0
LINE
  5
3FF2
330
1E
100
AcDbEntity
  8
3
100
AcDbLine
 10
7.077024291640178
 20
1.938127405355878
 30
0.0
 11
6.860488858569311
 21
1.938127405355878
 31
0.0
  0
LINE
  5
3FF3
330
1E
100
AcDbEntity
  8
3
100
AcDbLine
 10
6.746315630222856
 20
1.312143153387374
 30
0.0
 11
6.754189645970887
 21
1.318048665198396
 31
0.0
  0
LINE
  5
3FF4
330
1E
100
AcDbEntity
  8
3
100
AcDbLine
 10
6.754189645970887
 20
1.318048665198396
 30
0.0
 11
6.506158149907895
 21
1.383009295119657
 31
0.0
  0
LINE
  5
3FF5
330
1E
100
AcDbEntity
  8
3
100
AcDbLine
 10
6.506158149907895
 20
1.383009295119657
 30
0.0
 11
6.504189645970887
 21
1.384977799056665
 31
0.0
  0
LINE
  5
3FF6
330
1E
100
AcDbEntity
  8
3
100
AcDbLine
 10
6.537654212900021
 20
1.375135279371626
 30
0.0
 11
6.523874685340965
 21
1.377103783308633
 31
0.0
  0
LINE
  5
3FF7
330
1E
100
AcDbEntity
  8
3
100
AcDbLine
 10
6.523874685340965
 20
1.377103783308633
 30
0.0
 11
6.512063661718919
 21
1.381040791182648
 31
0.0
  0
LINE
  5
3FF8
330
1E
100
AcDbEntity
  8
3
100
AcDbLine
 10
6.512063661718919
 20
1.381040791182648
 30
0.0
 11
6.506158149907895
 21
1.383009295119657
 31
0.0
  0
LINE
  5
3FF9
330
1E
100
AcDbEntity
  8
3
100
AcDbLine
 10
6.506158149907895
 20
1.383009295119657
 30
0.0
 11
6.502221142033878
 21
1.383009295119657
 31
0.0
  0
LINE
  5
3FFA
330
1E
100
AcDbEntity
  8
3
100
AcDbLine
 10
6.502221142033878
 20
1.383009295119657
 30
0.0
 11
6.417575472742541
 21
1.310174649450365
 31
0.0
  0
LINE
  5
3FFB
330
1E
100
AcDbEntity
  8
3
100
AcDbLine
 10
6.417575472742541
 20
1.310174649450365
 30
0.0
 11
6.330961299514193
 21
1.245214019529106
 31
0.0
  0
LINE
  5
3FFC
330
1E
100
AcDbEntity
  8
3
100
AcDbLine
 10
6.330961299514193
 20
1.245214019529106
 30
0.0
 11
6.332929803451202
 21
1.243245515592098
 31
0.0
  0
LINE
  5
3FFD
330
1E
100
AcDbEntity
  8
3
100
AcDbLine
 10
6.332929803451202
 20
1.243245515592098
 30
0.0
 11
6.336866811325217
 21
1.243245515592098
 31
0.0
  0
LINE
  5
3FFE
330
1E
100
AcDbEntity
  8
3
100
AcDbLine
 10
6.336866811325217
 20
1.243245515592098
 30
0.0
 11
6.342772323136241
 21
1.241277011655091
 31
0.0
  0
LINE
  5
3FFF
330
1E
100
AcDbEntity
  8
3
100
AcDbLine
 10
6.342772323136241
 20
1.241277011655091
 30
0.0
 11
6.350646338884272
 21
1.239308507718082
 31
0.0
  0
LINE
  5
4000
330
1E
100
AcDbEntity
  8
3
100
AcDbLine
 10
6.350646338884272
 20
1.239308507718082
 30
0.0
 11
6.360488858569311
 21
1.235371499844067
 31
0.0
  0
LINE
  5
4001
330
1E
100
AcDbEntity
  8
3
100
AcDbLine
 10
6.386079409750415
 20
2.184190397481861
 30
0.0
 11
6.388047913687422
 21
2.184190397481861
 31
0.0
  0
LINE
  5
4002
330
1E
100
AcDbEntity
  8
3
100
AcDbLine
 10
6.388047913687422
 20
2.184190397481861
 30
0.0
 11
6.39001641762443
 21
2.184190397481861
 31
0.0
  0
LINE
  5
4003
330
1E
100
AcDbEntity
  8
3
100
AcDbLine
 10
6.39001641762443
 20
2.184190397481861
 30
0.0
 11
6.391984921561437
 21
2.182221893544854
 31
0.0
  0
LINE
  5
4004
330
1E
100
AcDbEntity
  8
3
100
AcDbLine
 10
6.391984921561437
 20
2.182221893544854
 30
0.0
 11
6.393953425498446
 21
2.182221893544854
 31
0.0
  0
LINE
  5
4005
330
1E
100
AcDbEntity
  8
3
100
AcDbLine
 10
6.267969173529941
 20
2.14875732661572
 30
0.0
 11
6.266000669592934
 21
2.14875732661572
 31
0.0
  0
LINE
  5
4006
330
1E
100
AcDbEntity
  8
3
100
AcDbLine
 10
6.266000669592934
 20
2.14875732661572
 30
0.0
 11
6.262063661718919
 21
2.14875732661572
 31
0.0
  0
LINE
  5
4007
330
1E
100
AcDbEntity
  8
3
100
AcDbLine
 10
6.262063661718919
 20
2.14875732661572
 30
0.0
 11
6.256158149907895
 21
2.14875732661572
 31
0.0
  0
LINE
  5
4008
330
1E
100
AcDbEntity
  8
3
100
AcDbLine
 10
6.256158149907895
 20
2.14875732661572
 30
0.0
 11
6.250252638096871
 21
2.14875732661572
 31
0.0
  0
LINE
  5
4009
330
1E
100
AcDbEntity
  8
3
100
AcDbLine
 10
6.250252638096871
 20
2.14875732661572
 30
0.0
 11
6.246315630222856
 21
2.14875732661572
 31
0.0
  0
LINE
  5
400A
330
1E
100
AcDbEntity
  8
3
100
AcDbLine
 10
6.230567598726793
 20
2.14875732661572
 30
0.0
 11
6.254189645970887
 21
2.270804570710208
 31
0.0
  0
LINE
  5
400B
330
1E
100
AcDbEntity
  8
3
100
AcDbLine
 10
6.254189645970887
 20
2.270804570710208
 30
0.0
 11
6.254189645970887
 21
2.392851814804696
 31
0.0
  0
LINE
  5
400C
330
1E
100
AcDbEntity
  8
3
100
AcDbLine
 10
6.254189645970887
 20
2.392851814804696
 30
0.0
 11
6.230567598726793
 21
2.514899058899185
 31
0.0
  0
LINE
  5
400D
330
1E
100
AcDbEntity
  8
3
100
AcDbLine
 10
6.2325361026638
 20
2.14875732661572
 30
0.0
 11
6.279780197151989
 21
2.186158901418869
 31
0.0
  0
LINE
  5
400E
330
1E
100
AcDbEntity
  8
3
100
AcDbLine
 10
6.279780197151989
 20
2.186158901418869
 30
0.0
 11
6.289622716837028
 21
2.1940329171669
 31
0.0
  0
LINE
  5
400F
330
1E
100
AcDbEntity
  8
3
100
AcDbLine
 10
6.2325361026638
 20
2.514899058899185
 30
0.0
 11
6.279780197151989
 21
2.477497484096035
 31
0.0
  0
LINE
  5
4010
330
1E
100
AcDbEntity
  8
3
100
AcDbLine
 10
6.279780197151989
 20
2.477497484096035
 30
0.0
 11
6.289622716837028
 21
2.469623468348004
 31
0.0
  0
LINE
  5
4011
330
1E
100
AcDbEntity
  8
3
100
AcDbLine
 10
6.267969173529941
 20
2.512930554962176
 30
0.0
 11
6.266000669592934
 21
2.512930554962176
 31
0.0
  0
LINE
  5
4012
330
1E
100
AcDbEntity
  8
3
100
AcDbLine
 10
6.266000669592934
 20
2.512930554962176
 30
0.0
 11
6.262063661718919
 21
2.514899058899185
 31
0.0
  0
LINE
  5
4013
330
1E
100
AcDbEntity
  8
3
100
AcDbLine
 10
6.262063661718919
 20
2.514899058899185
 30
0.0
 11
6.256158149907895
 21
2.514899058899185
 31
0.0
  0
LINE
  5
4014
330
1E
100
AcDbEntity
  8
3
100
AcDbLine
 10
6.256158149907895
 20
2.514899058899185
 30
0.0
 11
6.250252638096871
 21
2.514899058899185
 31
0.0
  0
LINE
  5
4015
330
1E
100
AcDbEntity
  8
3
100
AcDbLine
 10
6.250252638096871
 20
2.514899058899185
 30
0.0
 11
6.246315630222856
 21
2.514899058899185
 31
0.0
  0
LINE
  5
4016
330
1E
100
AcDbEntity
  8
3
100
AcDbLine
 10
6.393953425498446
 20
2.479465988033043
 30
0.0
 11
6.391984921561437
 21
2.479465988033043
 31
0.0
  0
LINE
  5
4017
330
1E
100
AcDbEntity
  8
3
100
AcDbLine
 10
6.391984921561437
 20
2.479465988033043
 30
0.0
 11
6.39001641762443
 21
2.479465988033043
 31
0.0
  0
LINE
  5
4018
330
1E
100
AcDbEntity
  8
3
100
AcDbLine
 10
6.39001641762443
 20
2.479465988033043
 30
0.0
 11
6.388047913687422
 21
2.479465988033043
 31
0.0
  0
LINE
  5
4019
330
1E
100
AcDbEntity
  8
3
100
AcDbLine
 10
6.388047913687422
 20
2.479465988033043
 30
0.0
 11
6.386079409750415
 21
2.479465988033043
 31
0.0
  0
LINE
  5
401A
330
1E
100
AcDbEntity
  8
3
100
AcDbLine
 10
6.697103031797658
 20
1.329859688820445
 30
0.0
 11
6.69513452786065
 21
1.329859688820445
 31
0.0
  0
LINE
  5
401B
330
1E
100
AcDbEntity
  8
3
100
AcDbLine
 10
6.69513452786065
 20
1.329859688820445
 30
0.0
 11
6.687260512112619
 21
1.333796696694459
 31
0.0
  0
LINE
  5
401C
330
1E
100
AcDbEntity
  8
3
100
AcDbLine
 10
6.687260512112619
 20
1.333796696694459
 30
0.0
 11
6.671512480616556
 21
1.337733704568476
 31
0.0
  0
LINE
  5
401D
330
1E
100
AcDbEntity
  8
3
100
AcDbLine
 10
6.671512480616556
 20
1.337733704568476
 30
0.0
 11
6.653795945183485
 21
1.3436392163795
 31
0.0
  0
LINE
  5
401E
330
1E
100
AcDbEntity
  8
3
100
AcDbLine
 10
6.653795945183485
 20
1.3436392163795
 30
0.0
 11
6.634110905813406
 21
1.347576224253515
 31
0.0
  0
LINE
  5
401F
330
1E
100
AcDbEntity
  8
3
100
AcDbLine
 10
6.502221142033878
 20
1.197969925040917
 30
0.0
 11
6.527811693214982
 21
1.192064413229893
 31
0.0
  0
LINE
  5
4020
330
1E
100
AcDbEntity
  8
3
100
AcDbLine
 10
6.527811693214982
 20
1.192064413229893
 30
0.0
 11
6.547496732585059
 21
1.186158901418869
 31
0.0
  0
LINE
  5
4021
330
1E
100
AcDbEntity
  8
3
100
AcDbLine
 10
6.547496732585059
 20
1.186158901418869
 30
0.0
 11
6.557339252270098
 21
1.184190397481861
 31
0.0
  0
LINE
  5
4022
330
1E
100
AcDbEntity
  8
3
100
AcDbLine
 10
6.557339252270098
 20
1.184190397481861
 30
0.0
 11
6.628205394002383
 21
1.253088035277137
 31
0.0
  0
LINE
  5
4023
330
1E
100
AcDbEntity
  8
3
100
AcDbLine
 10
6.628205394002383
 20
1.253088035277137
 30
0.0
 11
6.697103031797658
 21
1.329859688820445
 31
0.0
  0
LINE
  5
4024
330
1E
100
AcDbEntity
  8
3
100
AcDbLine
 10
6.730567598726793
 20
1.294426617954302
 30
0.0
 11
6.738441614474824
 21
1.30623764157635
 31
0.0
  0
LINE
  5
4025
330
1E
100
AcDbEntity
  8
3
100
AcDbLine
 10
6.738441614474824
 20
1.30623764157635
 30
0.0
 11
6.744347126285846
 21
1.312143153387374
 31
0.0
  0
LINE
  5
4026
330
1E
100
AcDbEntity
  8
3
100
AcDbLine
 10
6.744347126285846
 20
1.312143153387374
 30
0.0
 11
6.746315630222856
 21
1.312143153387374
 31
0.0
  0
LINE
  5
4027
330
1E
100
AcDbEntity
  8
3
100
AcDbLine
 10
6.746315630222856
 20
1.312143153387374
 30
0.0
 11
6.69513452786065
 21
1.325922680946428
 31
0.0
  0
LINE
  5
4028
330
1E
100
AcDbEntity
  8
3
100
AcDbLine
 10
6.689229016049626
 20
1.249151027403122
 30
0.0
 11
6.703008543608682
 21
1.264899058899185
 31
0.0
  0
LINE
  5
4029
330
1E
100
AcDbEntity
  8
3
100
AcDbLine
 10
6.703008543608682
 20
1.264899058899185
 30
0.0
 11
6.716788071167737
 21
1.278678586458239
 31
0.0
  0
LINE
  5
402A
330
1E
100
AcDbEntity
  8
3
100
AcDbLine
 10
6.716788071167737
 20
1.278678586458239
 30
0.0
 11
6.730567598726793
 21
1.294426617954302
 31
0.0
  0
LINE
  5
402B
330
1E
100
AcDbEntity
  8
3
100
AcDbLine
 10
6.69513452786065
 20
1.325922680946428
 30
0.0
 11
6.69513452786065
 21
1.32395417700942
 31
0.0
  0
LINE
  5
402C
330
1E
100
AcDbEntity
  8
3
100
AcDbLine
 10
6.69513452786065
 20
1.32395417700942
 30
0.0
 11
6.689229016049626
 21
1.318048665198396
 31
0.0
  0
LINE
  5
402D
330
1E
100
AcDbEntity
  8
3
100
AcDbLine
 10
6.689229016049626
 20
1.318048665198396
 30
0.0
 11
6.681355000301595
 21
1.308206145513358
 31
0.0
  0
LINE
  5
402E
330
1E
100
AcDbEntity
  8
3
100
AcDbLine
 10
6.681355000301595
 20
1.308206145513358
 30
0.0
 11
6.671512480616556
 21
1.296395121891311
 31
0.0
  0
LINE
  5
402F
330
1E
100
AcDbEntity
  8
3
100
AcDbLine
 10
6.671512480616556
 20
1.296395121891311
 30
0.0
 11
6.6577329530575
 21
1.282615594332256
 31
0.0
  0
LINE
  5
4030
330
1E
100
AcDbEntity
  8
3
100
AcDbLine
 10
6.6577329530575
 20
1.282615594332256
 30
0.0
 11
6.643953425498446
 21
1.266867562836193
 31
0.0
  0
LINE
  5
4031
330
1E
100
AcDbEntity
  8
3
100
AcDbLine
 10
6.643953425498446
 20
1.266867562836193
 30
0.0
 11
6.64001641762443
 21
1.262930554962176
 31
0.0
  0
LINE
  5
4032
330
1E
100
AcDbEntity
  8
3
100
AcDbLine
 10
6.360488858569311
 20
1.235371499844067
 30
0.0
 11
6.449071535734667
 21
1.300332129765326
 31
0.0
  0
LINE
  5
4033
330
1E
100
AcDbEntity
  8
3
100
AcDbLine
 10
6.449071535734667
 20
1.300332129765326
 30
0.0
 11
6.537654212900021
 21
1.375135279371626
 31
0.0
  0
LINE
  5
4034
330
1E
100
AcDbEntity
  8
3
100
AcDbLine
 10
6.634110905813406
 20
1.347576224253515
 30
0.0
 11
6.557339252270098
 21
1.272773074647217
 31
0.0
  0
LINE
  5
4035
330
1E
100
AcDbEntity
  8
3
100
AcDbLine
 10
6.557339252270098
 20
1.272773074647217
 30
0.0
 11
6.478599094789784
 21
1.203875436851941
 31
0.0
  0
LINE
  5
4036
330
1E
100
AcDbEntity
  8
3
100
AcDbLine
 10
6.56521326801813
 20
1.188127405355878
 30
0.0
 11
6.638047913687422
 21
1.258993547088161
 31
0.0
  0
LINE
  5
4037
330
1E
100
AcDbEntity
  8
3
100
AcDbLine
 10
6.638047913687422
 20
1.258993547088161
 30
0.0
 11
6.64001641762443
 21
1.262930554962176
 31
0.0
  0
LINE
  5
4038
330
1E
100
AcDbEntity
  8
3
100
AcDbLine
 10
6.433323504238604
 20
2.186158901418869
 30
0.0
 11
6.431355000301595
 21
2.186158901418869
 31
0.0
  0
LINE
  5
4039
330
1E
100
AcDbEntity
  8
3
100
AcDbLine
 10
6.431355000301595
 20
2.186158901418869
 30
0.0
 11
6.42741799242758
 21
2.186158901418869
 31
0.0
  0
LINE
  5
403A
330
1E
100
AcDbEntity
  8
3
100
AcDbLine
 10
6.433323504238604
 20
2.475528980159028
 30
0.0
 11
6.435292008175611
 21
2.475528980159028
 31
0.0
  0
LINE
  5
403B
330
1E
100
AcDbEntity
  8
3
100
AcDbLine
 10
6.435292008175611
 20
2.475528980159028
 30
0.0
 11
6.433323504238604
 21
2.475528980159028
 31
0.0
  0
LINE
  5
403C
330
1E
100
AcDbEntity
  8
3
100
AcDbLine
 10
6.433323504238604
 20
2.475528980159028
 30
0.0
 11
6.433323504238604
 21
2.477497484096035
 31
0.0
  0
LINE
  5
403D
330
1E
100
AcDbEntity
  8
3
100
AcDbLine
 10
6.433323504238604
 20
2.477497484096035
 30
0.0
 11
6.431355000301595
 21
2.477497484096035
 31
0.0
  0
LINE
  5
403E
330
1E
100
AcDbEntity
  8
3
100
AcDbLine
 10
6.431355000301595
 20
2.477497484096035
 30
0.0
 11
6.42741799242758
 21
2.477497484096035
 31
0.0
  0
LINE
  5
403F
330
1E
100
AcDbEntity
  8
3
100
AcDbLine
 10
6.433323504238604
 20
2.188127405355878
 30
0.0
 11
6.44513452786065
 21
2.331828192757452
 31
0.0
  0
LINE
  5
4040
330
1E
100
AcDbEntity
  8
3
100
AcDbLine
 10
6.44513452786065
 20
2.331828192757452
 30
0.0
 11
6.433323504238604
 21
2.475528980159028
 31
0.0
  0
LINE
  5
4041
330
1E
100
AcDbEntity
  8
3
100
AcDbLine
 10
6.295528228648052
 20
2.21371795653698
 30
0.0
 11
6.293559724711045
 21
2.201906932914933
 31
0.0
  0
LINE
  5
4042
330
1E
100
AcDbEntity
  8
3
100
AcDbLine
 10
6.293559724711045
 20
2.201906932914933
 30
0.0
 11
6.289622716837028
 21
2.196001421103909
 31
0.0
  0
LINE
  5
4043
330
1E
100
AcDbEntity
  8
3
100
AcDbLine
 10
6.289622716837028
 20
2.196001421103909
 30
0.0
 11
6.289622716837028
 21
2.1940329171669
 31
0.0
  0
LINE
  5
4044
330
1E
100
AcDbEntity
  8
3
100
AcDbLine
 10
6.289622716837028
 20
2.1940329171669
 30
0.0
 11
6.334898307388209
 21
2.1940329171669
 31
0.0
  0
LINE
  5
4045
330
1E
100
AcDbEntity
  8
3
100
AcDbLine
 10
6.301433740459076
 20
2.245214019529106
 30
0.0
 11
6.297496732585059
 21
2.227497484096035
 31
0.0
  0
LINE
  5
4046
330
1E
100
AcDbEntity
  8
3
100
AcDbLine
 10
6.297496732585059
 20
2.227497484096035
 30
0.0
 11
6.295528228648052
 21
2.21371795653698
 31
0.0
  0
LINE
  5
4047
330
1E
100
AcDbEntity
  8
3
100
AcDbLine
 10
6.334898307388209
 20
2.1940329171669
 30
0.0
 11
6.321118779829154
 21
2.199938428977924
 31
0.0
  0
LINE
  5
4048
330
1E
100
AcDbEntity
  8
3
100
AcDbLine
 10
6.321118779829154
 20
2.199938428977924
 30
0.0
 11
6.313244764081122
 21
2.209780948662965
 31
0.0
  0
LINE
  5
4049
330
1E
100
AcDbEntity
  8
3
100
AcDbLine
 10
6.313244764081122
 20
2.209780948662965
 30
0.0
 11
6.309307756207108
 21
2.223560476222019
 31
0.0
  0
LINE
  5
404A
330
1E
100
AcDbEntity
  8
3
100
AcDbLine
 10
6.309307756207108
 20
2.223560476222019
 30
0.0
 11
6.309307756207108
 21
2.239308507718082
 31
0.0
  0
LINE
  5
404B
330
1E
100
AcDbEntity
  8
3
100
AcDbLine
 10
6.309307756207108
 20
2.239308507718082
 30
0.0
 11
6.309307756207108
 21
2.245214019529106
 31
0.0
  0
LINE
  5
404C
330
1E
100
AcDbEntity
  8
3
100
AcDbLine
 10
6.307339252270098
 20
2.245214019529106
 30
0.0
 11
6.313244764081122
 21
2.331828192757452
 31
0.0
  0
LINE
  5
404D
330
1E
100
AcDbEntity
  8
3
100
AcDbLine
 10
6.313244764081122
 20
2.331828192757452
 30
0.0
 11
6.307339252270098
 21
2.418442365985798
 31
0.0
  0
LINE
  5
404E
330
1E
100
AcDbEntity
  8
3
100
AcDbLine
 10
6.299465236522067
 20
2.245214019529106
 30
0.0
 11
6.305370748333091
 21
2.331828192757452
 31
0.0
  0
LINE
  5
404F
330
1E
100
AcDbEntity
  8
3
100
AcDbLine
 10
6.305370748333091
 20
2.331828192757452
 30
0.0
 11
6.299465236522067
 21
2.418442365985798
 31
0.0
  0
LINE
  5
4050
330
1E
100
AcDbEntity
  8
3
100
AcDbLine
 10
6.295528228648052
 20
2.449938428977924
 30
0.0
 11
6.293559724711045
 21
2.461749452599972
 31
0.0
  0
LINE
  5
4051
330
1E
100
AcDbEntity
  8
3
100
AcDbLine
 10
6.293559724711045
 20
2.461749452599972
 30
0.0
 11
6.289622716837028
 21
2.467654964410996
 31
0.0
  0
LINE
  5
4052
330
1E
100
AcDbEntity
  8
3
100
AcDbLine
 10
6.289622716837028
 20
2.467654964410996
 30
0.0
 11
6.289622716837028
 21
2.469623468348004
 31
0.0
  0
LINE
  5
4053
330
1E
100
AcDbEntity
  8
3
100
AcDbLine
 10
6.301433740459076
 20
2.418442365985798
 30
0.0
 11
6.297496732585059
 21
2.436158901418869
 31
0.0
  0
LINE
  5
4054
330
1E
100
AcDbEntity
  8
3
100
AcDbLine
 10
6.297496732585059
 20
2.436158901418869
 30
0.0
 11
6.295528228648052
 21
2.449938428977924
 31
0.0
  0
LINE
  5
4055
330
1E
100
AcDbEntity
  8
3
100
AcDbLine
 10
6.334898307388209
 20
2.469623468348004
 30
0.0
 11
6.321118779829154
 21
2.46371795653698
 31
0.0
  0
LINE
  5
4056
330
1E
100
AcDbEntity
  8
3
100
AcDbLine
 10
6.321118779829154
 20
2.46371795653698
 30
0.0
 11
6.313244764081122
 21
2.453875436851941
 31
0.0
  0
LINE
  5
4057
330
1E
100
AcDbEntity
  8
3
100
AcDbLine
 10
6.313244764081122
 20
2.453875436851941
 30
0.0
 11
6.309307756207108
 21
2.438127405355878
 31
0.0
  0
LINE
  5
4058
330
1E
100
AcDbEntity
  8
3
100
AcDbLine
 10
6.309307756207108
 20
2.438127405355878
 30
0.0
 11
6.309307756207108
 21
2.424347877796822
 31
0.0
  0
LINE
  5
4059
330
1E
100
AcDbEntity
  8
3
100
AcDbLine
 10
6.309307756207108
 20
2.424347877796822
 30
0.0
 11
6.309307756207108
 21
2.418442365985798
 31
0.0
  0
LINE
  5
407C
330
1E
100
AcDbEntity
  8
3
100
AcDbLine
 10
5.053402244396083
 20
1.680253389607846
 30
0.0
 11
5.171512480616556
 21
1.597576224253515
 31
0.0
  0
LINE
  5
407D
330
1E
100
AcDbEntity
  8
3
100
AcDbLine
 10
5.171512480616556
 20
1.597576224253515
 30
0.0
 11
5.303402244396083
 21
1.53655260220627
 31
0.0
  0
LINE
  5
407E
330
1E
100
AcDbEntity
  8
3
100
AcDbLine
 10
5.303402244396083
 20
3.127103783308633
 30
0.0
 11
5.171512480616556
 21
3.066080161261389
 31
0.0
  0
LINE
  5
407F
330
1E
100
AcDbEntity
  8
3
100
AcDbLine
 10
5.171512480616556
 20
3.066080161261389
 30
0.0
 11
5.053402244396083
 21
2.983402995907059
 31
0.0
  0
LINE
  5
4080
330
1E
100
AcDbEntity
  8
3
100
AcDbLine
 10
6.433323504238604
 20
2.188127405355878
 30
0.0
 11
6.441197519986635
 21
2.258993547088161
 31
0.0
  0
LINE
  5
4081
330
1E
100
AcDbEntity
  8
3
100
AcDbLine
 10
6.441197519986635
 20
2.258993547088161
 30
0.0
 11
6.44513452786065
 21
2.331828192757452
 31
0.0
  0
LINE
  5
4082
330
1E
100
AcDbEntity
  8
3
100
AcDbLine
 10
6.44513452786065
 20
2.331828192757452
 30
0.0
 11
6.441197519986635
 21
2.404662838426743
 31
0.0
  0
LINE
  5
4083
330
1E
100
AcDbEntity
  8
3
100
AcDbLine
 10
6.441197519986635
 20
2.404662838426743
 30
0.0
 11
6.433323504238604
 21
2.475528980159028
 31
0.0
  0
LINE
  5
4084
330
1E
100
AcDbEntity
  8
3
100
AcDbLine
 10
0.6833235042386035
 20
1.133009295119657
 30
0.0
 11
0.6833235042386035
 21
1.168442365985798
 31
0.0
  0
LINE
  5
4085
330
1E
100
AcDbEntity
  8
3
100
AcDbLine
 10
0.6833235042386035
 20
1.168442365985798
 30
0.0
 11
0.6833235042386035
 21
1.211749452599972
 31
0.0
  0
LINE
  5
4086
330
1E
100
AcDbEntity
  8
3
100
AcDbLine
 10
0.6833235042386035
 20
3.449938428977924
 30
0.0
 11
0.6833235042386035
 21
3.495214019529106
 31
0.0
  0
LINE
  5
4087
330
1E
100
AcDbEntity
  8
3
100
AcDbLine
 10
0.6833235042386035
 20
3.495214019529106
 30
0.0
 11
0.6833235042386035
 21
3.530647090395248
 31
0.0
  0
LINE
  5
4088
330
1E
100
AcDbEntity
  8
3
100
AcDbLine
 10
1.014032165655926
 20
2.121198271497609
 30
0.0
 11
1.014032165655926
 21
2.131040791182648
 31
0.0
  0
LINE
  5
4089
330
1E
100
AcDbEntity
  8
3
100
AcDbLine
 10
1.014032165655926
 20
2.131040791182648
 30
0.0
 11
1.014032165655926
 21
2.158599846300759
 31
0.0
  0
LINE
  5
408A
330
1E
100
AcDbEntity
  8
3
100
AcDbLine
 10
1.014032165655926
 20
2.158599846300759
 30
0.0
 11
1.014032165655926
 21
2.201906932914933
 31
0.0
  0
LINE
  5
408B
330
1E
100
AcDbEntity
  8
3
100
AcDbLine
 10
1.014032165655926
 20
2.201906932914933
 30
0.0
 11
1.014032165655926
 21
2.258993547088161
 31
0.0
  0
LINE
  5
408C
330
1E
100
AcDbEntity
  8
3
100
AcDbLine
 10
1.014032165655926
 20
2.258993547088161
 30
0.0
 11
1.014032165655926
 21
2.320017169135406
 31
0.0
  0
LINE
  5
408D
330
1E
100
AcDbEntity
  8
3
100
AcDbLine
 10
0.7443471262858479
 20
3.39875732661572
 30
0.0
 11
0.7443471262858479
 21
3.491277011655091
 31
0.0
  0
LINE
  5
408E
330
1E
100
AcDbEntity
  8
3
100
AcDbLine
 10
0.7443471262858479
 20
3.491277011655091
 30
0.0
 11
0.7443471262858479
 21
3.552300633702333
 31
0.0
  0
LINE
  5
408F
330
1E
100
AcDbEntity
  8
3
100
AcDbLine
 10
0.7443471262858479
 20
1.11135575181257
 30
0.0
 11
0.7443471262858479
 21
1.172379373859815
 31
0.0
  0
LINE
  5
4090
330
1E
100
AcDbEntity
  8
3
100
AcDbLine
 10
0.7443471262858479
 20
1.172379373859815
 30
0.0
 11
0.7443471262858479
 21
1.266867562836193
 31
0.0
  0
LINE
  5
4091
330
1E
100
AcDbEntity
  8
3
100
AcDbLine
 10
0.8132447640811237
 20
1.686158901418869
 30
0.0
 11
0.8132447640811237
 21
1.601513232127532
 31
0.0
  0
LINE
  5
4092
330
1E
100
AcDbEntity
  8
3
100
AcDbLine
 10
0.8132447640811237
 20
1.601513232127532
 30
0.0
 11
0.8132447640811237
 21
1.540489610080287
 31
0.0
  0
LINE
  5
4093
330
1E
100
AcDbEntity
  8
3
100
AcDbLine
 10
0.8270242916401784
 20
1.534584098269263
 30
0.0
 11
0.8270242916401784
 21
1.595607720316507
 31
0.0
  0
LINE
  5
4094
330
1E
100
AcDbEntity
  8
3
100
AcDbLine
 10
0.8270242916401784
 20
1.595607720316507
 30
0.0
 11
0.8270242916401784
 21
1.680253389607846
 31
0.0
  0
LINE
  5
4095
330
1E
100
AcDbEntity
  8
3
100
AcDbLine
 10
0.9667880711677376
 20
1.760962051025169
 30
0.0
 11
0.9864731105378163
 21
1.770804570710208
 31
0.0
  0
LINE
  5
4096
330
1E
100
AcDbEntity
  8
3
100
AcDbLine
 10
0.9864731105378163
 20
1.770804570710208
 30
0.0
 11
1.000252638096871
 21
1.770804570710208
 31
0.0
  0
LINE
  5
4097
330
1E
100
AcDbEntity
  8
3
100
AcDbLine
 10
1.000252638096871
 20
1.770804570710208
 30
0.0
 11
1.01009515778191
 21
1.7688360667732
 31
0.0
  0
LINE
  5
4098
330
1E
100
AcDbEntity
  8
3
100
AcDbLine
 10
1.01009515778191
 20
1.7688360667732
 30
0.0
 11
1.014032165655926
 21
1.760962051025169
 31
0.0
  0
LINE
  5
4099
330
1E
100
AcDbEntity
  8
3
100
AcDbLine
 10
1.014032165655926
 20
1.760962051025169
 30
0.0
 11
1.014032165655926
 21
1.758993547088161
 31
0.0
  0
LINE
  5
409A
330
1E
100
AcDbEntity
  8
3
100
AcDbLine
 10
1.014032165655926
 20
1.758993547088161
 30
0.0
 11
1.014032165655926
 21
1.709780948662965
 31
0.0
  0
LINE
  5
409B
330
1E
100
AcDbEntity
  8
3
100
AcDbLine
 10
1.014032165655926
 20
1.709780948662965
 30
0.0
 11
1.014032165655926
 21
1.670410869922806
 31
0.0
  0
LINE
  5
409C
330
1E
100
AcDbEntity
  8
3
100
AcDbLine
 10
0.9667880711677376
 20
1.623166775434617
 30
0.0
 11
0.9864731105378163
 21
1.63891480693068
 31
0.0
  0
LINE
  5
409D
330
1E
100
AcDbEntity
  8
3
100
AcDbLine
 10
0.9864731105378163
 20
1.63891480693068
 30
0.0
 11
1.000252638096871
 21
1.64875732661572
 31
0.0
  0
LINE
  5
409E
330
1E
100
AcDbEntity
  8
3
100
AcDbLine
 10
1.000252638096871
 20
1.64875732661572
 30
0.0
 11
1.01009515778191
 21
1.660568350237767
 31
0.0
  0
LINE
  5
409F
330
1E
100
AcDbEntity
  8
3
100
AcDbLine
 10
1.01009515778191
 20
1.660568350237767
 30
0.0
 11
1.014032165655926
 21
1.668442365985798
 31
0.0
  0
LINE
  5
40A0
330
1E
100
AcDbEntity
  8
3
100
AcDbLine
 10
1.014032165655926
 20
1.668442365985798
 30
0.0
 11
1.014032165655926
 21
1.670410869922806
 31
0.0
  0
LINE
  5
40A1
330
1E
100
AcDbEntity
  8
3
100
AcDbLine
 10
0.8132447640811237
 20
3.123166775434617
 30
0.0
 11
0.8132447640811237
 21
3.085765200631469
 31
0.0
  0
LINE
  5
40A2
330
1E
100
AcDbEntity
  8
3
100
AcDbLine
 10
0.8132447640811237
 20
3.085765200631469
 30
0.0
 11
0.8132447640811237
 21
3.040489610080287
 31
0.0
  0
LINE
  5
40A3
330
1E
100
AcDbEntity
  8
3
100
AcDbLine
 10
0.8270242916401784
 20
3.040489610080287
 30
0.0
 11
0.8270242916401784
 21
3.089702208505483
 31
0.0
  0
LINE
  5
40A4
330
1E
100
AcDbEntity
  8
3
100
AcDbLine
 10
0.8270242916401784
 20
3.089702208505483
 30
0.0
 11
0.8270242916401784
 21
3.129072287245641
 31
0.0
  0
LINE
  5
40A5
330
1E
100
AcDbEntity
  8
3
100
AcDbLine
 10
0.7463156302228553
 20
3.134977799056665
 30
0.0
 11
0.7482841341598637
 21
3.134977799056665
 31
0.0
  0
LINE
  5
40A6
330
1E
100
AcDbEntity
  8
3
100
AcDbLine
 10
0.7482841341598637
 20
3.134977799056665
 30
0.0
 11
0.7502526380968711
 21
3.134977799056665
 31
0.0
  0
LINE
  5
40A7
330
1E
100
AcDbEntity
  8
3
100
AcDbLine
 10
0.7502526380968711
 20
3.134977799056665
 30
0.0
 11
0.7522211420338794
 21
3.133009295119657
 31
0.0
  0
LINE
  5
40A8
330
1E
100
AcDbEntity
  8
3
100
AcDbLine
 10
0.7522211420338794
 20
3.133009295119657
 30
0.0
 11
0.7522211420338794
 21
3.131040791182648
 31
0.0
  0
LINE
  5
40A9
330
1E
100
AcDbEntity
  8
3
100
AcDbLine
 10
0.7522211420338794
 20
3.131040791182648
 30
0.0
 11
0.7541896459708868
 21
3.129072287245641
 31
0.0
  0
LINE
  5
40AA
330
1E
100
AcDbEntity
  8
3
100
AcDbLine
 10
0.7541896459708868
 20
3.129072287245641
 30
0.0
 11
0.7541896459708868
 21
3.117261263623595
 31
0.0
  0
LINE
  5
40AB
330
1E
100
AcDbEntity
  8
3
100
AcDbLine
 10
0.7541896459708868
 20
3.117261263623595
 30
0.0
 11
0.7541896459708868
 21
3.097576224253515
 31
0.0
  0
LINE
  5
40AC
330
1E
100
AcDbEntity
  8
3
100
AcDbLine
 10
0.8270242916401784
 20
3.129072287245641
 30
0.0
 11
0.8230872837661626
 21
3.129072287245641
 31
0.0
  0
LINE
  5
40AD
330
1E
100
AcDbEntity
  8
3
100
AcDbLine
 10
0.8230872837661626
 20
3.129072287245641
 30
0.0
 11
0.8211187798291552
 21
3.129072287245641
 31
0.0
  0
LINE
  5
40AE
330
1E
100
AcDbEntity
  8
3
100
AcDbLine
 10
0.8211187798291552
 20
3.129072287245641
 30
0.0
 11
0.8191502758921469
 21
3.129072287245641
 31
0.0
  0
LINE
  5
40AF
330
1E
100
AcDbEntity
  8
3
100
AcDbLine
 10
0.8191502758921469
 20
3.129072287245641
 30
0.0
 11
0.8171817719551395
 21
3.127103783308633
 31
0.0
  0
LINE
  5
40B0
330
1E
100
AcDbEntity
  8
3
100
AcDbLine
 10
0.8171817719551395
 20
3.127103783308633
 30
0.0
 11
0.8152132680181312
 21
3.127103783308633
 31
0.0
  0
LINE
  5
40B1
330
1E
100
AcDbEntity
  8
3
100
AcDbLine
 10
0.8152132680181312
 20
3.127103783308633
 30
0.0
 11
0.8132447640811237
 21
3.123166775434617
 31
0.0
  0
LINE
  5
40B2
330
1E
100
AcDbEntity
  8
3
100
AcDbLine
 10
0.5041896459708868
 20
2.329859688820445
 30
0.0
 11
0.5022211420338794
 21
2.320017169135406
 31
0.0
  0
LINE
  5
40B3
330
1E
100
AcDbEntity
  8
3
100
AcDbLine
 10
0.5022211420338794
 20
2.320017169135406
 30
0.0
 11
0.5022211420338794
 21
2.38891480693068
 31
0.0
  0
LINE
  5
40B4
330
1E
100
AcDbEntity
  8
3
100
AcDbLine
 10
0.9805675987267923
 20
2.320017169135406
 30
0.0
 11
0.9805675987267923
 21
2.38891480693068
 31
0.0
  0
LINE
  5
40B5
330
1E
100
AcDbEntity
  8
3
100
AcDbLine
 10
0.9805675987267923
 20
2.38891480693068
 30
0.0
 11
1.045528228648052
 21
2.38891480693068
 31
0.0
  0
LINE
  5
40B6
330
1E
100
AcDbEntity
  8
3
100
AcDbLine
 10
0.7463156302228553
 20
1.715686460473987
 30
0.0
 11
0.7463156302228553
 21
1.776710082521232
 31
0.0
  0
LINE
  5
40B7
330
1E
100
AcDbEntity
  8
3
100
AcDbLine
 10
0.7463156302228553
 20
1.776710082521232
 30
0.0
 11
0.7463156302228553
 21
1.8436392163795
 31
0.0
  0
LINE
  5
40B8
330
1E
100
AcDbEntity
  8
3
100
AcDbLine
 10
0.7463156302228553
 20
1.8436392163795
 30
0.0
 11
0.7443471262858479
 21
1.8436392163795
 31
0.0
  0
LINE
  5
40B9
330
1E
100
AcDbEntity
  8
3
100
AcDbLine
 10
0.7463156302228553
 20
1.8436392163795
 30
0.0
 11
0.7482841341598637
 21
1.8436392163795
 31
0.0
  0
LINE
  5
40BA
330
1E
100
AcDbEntity
  8
3
100
AcDbLine
 10
0.7482841341598637
 20
1.8436392163795
 30
0.0
 11
0.7502526380968711
 21
1.8436392163795
 31
0.0
  0
LINE
  5
40BB
330
1E
100
AcDbEntity
  8
3
100
AcDbLine
 10
0.7502526380968711
 20
1.8436392163795
 30
0.0
 11
0.7522211420338794
 21
1.845607720316507
 31
0.0
  0
LINE
  5
40BC
330
1E
100
AcDbEntity
  8
3
100
AcDbLine
 10
0.7522211420338794
 20
1.845607720316507
 30
0.0
 11
0.7522211420338794
 21
1.847576224253515
 31
0.0
  0
LINE
  5
40BD
330
1E
100
AcDbEntity
  8
3
100
AcDbLine
 10
0.7522211420338794
 20
1.847576224253515
 30
0.0
 11
0.7541896459708868
 21
1.849544728190522
 31
0.0
  0
LINE
  5
40BE
330
1E
100
AcDbEntity
  8
3
100
AcDbLine
 10
0.7541896459708868
 20
1.849544728190522
 30
0.0
 11
0.7541896459708868
 21
1.782615594332256
 31
0.0
  0
LINE
  5
40BF
330
1E
100
AcDbEntity
  8
3
100
AcDbLine
 10
0.7541896459708868
 20
1.782615594332256
 30
0.0
 11
0.7541896459708868
 21
1.721591972285011
 31
0.0
  0
LINE
  5
40C0
330
1E
100
AcDbEntity
  8
3
100
AcDbLine
 10
1.045528228648052
 20
2.320017169135406
 30
0.0
 11
0.9805675987267923
 21
2.320017169135406
 31
0.0
  0
LINE
  5
40C1
330
1E
100
AcDbEntity
  8
3
100
AcDbLine
 10
0.9805675987267923
 20
2.320017169135406
 30
0.0
 11
0.5022211420338794
 21
2.320017169135406
 31
0.0
  0
LINE
  5
40C2
330
1E
100
AcDbEntity
  8
3
100
AcDbLine
 10
0.5022211420338794
 20
2.320017169135406
 30
0.0
 11
0.3467093310102571
 21
2.320017169135406
 31
0.0
  0
LINE
  5
40C3
330
1E
100
AcDbEntity
  8
3
100
AcDbLine
 10
0.3467093310102571
 20
2.320017169135406
 30
0.0
 11
-0.1336056296196642
 21
2.320017169135406
 31
0.0
  0
LINE
  5
40C4
330
1E
100
AcDbEntity
  8
3
100
AcDbLine
 10
-0.1316371256826558
 20
2.390883310867689
 30
0.0
 11
-0.1336056296196642
 21
2.38891480693068
 31
0.0
  0
LINE
  5
40C5
330
1E
100
AcDbEntity
  8
3
100
AcDbLine
 10
-0.1336056296196642
 20
2.38891480693068
 30
0.0
 11
-0.196597755603916
 21
2.38891480693068
 31
0.0
  0
LINE
  5
40C6
330
1E
100
AcDbEntity
  8
3
100
AcDbLine
 10
0.7443471262858479
 20
2.253088035277137
 30
0.0
 11
0.7443471262858479
 21
2.28655260220627
 31
0.0
  0
LINE
  5
40C7
330
1E
100
AcDbEntity
  8
3
100
AcDbLine
 10
0.7443471262858479
 20
2.28655260220627
 30
0.0
 11
0.7443471262858479
 21
2.320017169135406
 31
0.0
  0
LINE
  5
40C8
330
1E
100
AcDbEntity
  8
3
100
AcDbLine
 10
1.014032165655926
 20
1.766867562836193
 30
0.0
 11
1.01009515778191
 21
1.776710082521232
 31
0.0
  0
LINE
  5
40C9
330
1E
100
AcDbEntity
  8
3
100
AcDbLine
 10
1.01009515778191
 20
1.776710082521232
 30
0.0
 11
1.002221142033879
 21
1.78655260220627
 31
0.0
  0
LINE
  5
40CA
330
1E
100
AcDbEntity
  8
3
100
AcDbLine
 10
1.002221142033879
 20
1.78655260220627
 30
0.0
 11
0.9904101184118321
 21
1.794426617954302
 31
0.0
  0
LINE
  5
40CB
330
1E
100
AcDbEntity
  8
3
100
AcDbLine
 10
0.9904101184118321
 20
1.794426617954302
 30
0.0
 11
0.9746620869157691
 21
1.798363625828319
 31
0.0
  0
LINE
  5
40CC
330
1E
100
AcDbEntity
  8
3
100
AcDbLine
 10
0.9746620869157691
 20
1.798363625828319
 30
0.0
 11
0.9667880711677376
 21
1.800332129765326
 31
0.0
  0
LINE
  5
40CD
330
1E
100
AcDbEntity
  8
3
100
AcDbLine
 10
0.7541896459708868
 20
1.721591972285011
 30
0.0
 11
0.7541896459708868
 21
1.719623468348004
 31
0.0
  0
LINE
  5
40CE
330
1E
100
AcDbEntity
  8
3
100
AcDbLine
 10
0.7541896459708868
 20
1.719623468348004
 30
0.0
 11
0.7522211420338794
 21
1.717654964410996
 31
0.0
  0
LINE
  5
40CF
330
1E
100
AcDbEntity
  8
3
100
AcDbLine
 10
0.7522211420338794
 20
1.717654964410996
 30
0.0
 11
0.7502526380968711
 21
1.717654964410996
 31
0.0
  0
LINE
  5
40D0
330
1E
100
AcDbEntity
  8
3
100
AcDbLine
 10
0.7502526380968711
 20
1.717654964410996
 30
0.0
 11
0.7482841341598637
 21
1.715686460473987
 31
0.0
  0
LINE
  5
40D1
330
1E
100
AcDbEntity
  8
3
100
AcDbLine
 10
0.7482841341598637
 20
1.715686460473987
 30
0.0
 11
0.7463156302228553
 21
1.715686460473987
 31
0.0
  0
LINE
  5
40D2
330
1E
100
AcDbEntity
  8
3
100
AcDbLine
 10
0.7463156302228553
 20
1.715686460473987
 30
0.0
 11
0.7443471262858479
 21
1.717654964410996
 31
0.0
  0
LINE
  5
40D3
330
1E
100
AcDbEntity
  8
3
100
AcDbLine
 10
0.7541896459708868
 20
1.818048665198396
 30
0.0
 11
0.8132447640811237
 21
1.812143153387374
 31
0.0
  0
LINE
  5
40D4
330
1E
100
AcDbEntity
  8
3
100
AcDbLine
 10
0.8132447640811237
 20
1.812143153387374
 30
0.0
 11
0.9667880711677376
 21
1.800332129765326
 31
0.0
  0
LINE
  5
40D5
330
1E
100
AcDbEntity
  8
3
100
AcDbLine
 10
0.8270242916401784
 20
1.680253389607846
 30
0.0
 11
0.8230872837661626
 21
1.678284885670837
 31
0.0
  0
LINE
  5
40D6
330
1E
100
AcDbEntity
  8
3
100
AcDbLine
 10
0.8230872837661626
 20
1.678284885670837
 30
0.0
 11
0.8211187798291552
 21
1.678284885670837
 31
0.0
  0
LINE
  5
40D7
330
1E
100
AcDbEntity
  8
3
100
AcDbLine
 10
0.8211187798291552
 20
1.678284885670837
 30
0.0
 11
0.8191502758921469
 21
1.678284885670837
 31
0.0
  0
LINE
  5
40D8
330
1E
100
AcDbEntity
  8
3
100
AcDbLine
 10
0.8191502758921469
 20
1.678284885670837
 30
0.0
 11
0.8171817719551395
 21
1.680253389607846
 31
0.0
  0
LINE
  5
40D9
330
1E
100
AcDbEntity
  8
3
100
AcDbLine
 10
0.8171817719551395
 20
1.680253389607846
 30
0.0
 11
0.8152132680181312
 21
1.682221893544854
 31
0.0
  0
LINE
  5
40DA
330
1E
100
AcDbEntity
  8
3
100
AcDbLine
 10
0.8152132680181312
 20
1.682221893544854
 30
0.0
 11
0.8132447640811237
 21
1.684190397481861
 31
0.0
  0
LINE
  5
40DB
330
1E
100
AcDbEntity
  8
3
100
AcDbLine
 10
0.8132447640811237
 20
1.684190397481861
 30
0.0
 11
0.8132447640811237
 21
1.686158901418869
 31
0.0
  0
LINE
  5
40DC
330
1E
100
AcDbEntity
  8
3
100
AcDbLine
 10
0.8270242916401784
 20
1.534584098269263
 30
0.0
 11
0.8230872837661626
 21
1.534584098269263
 31
0.0
  0
LINE
  5
40DD
330
1E
100
AcDbEntity
  8
3
100
AcDbLine
 10
0.8230872837661626
 20
1.534584098269263
 30
0.0
 11
0.8211187798291552
 21
1.532615594332256
 31
0.0
  0
LINE
  5
40DE
330
1E
100
AcDbEntity
  8
3
100
AcDbLine
 10
0.8211187798291552
 20
1.532615594332256
 30
0.0
 11
0.8191502758921469
 21
1.534584098269263
 31
0.0
  0
LINE
  5
40DF
330
1E
100
AcDbEntity
  8
3
100
AcDbLine
 10
0.8191502758921469
 20
1.534584098269263
 30
0.0
 11
0.8171817719551395
 21
1.534584098269263
 31
0.0
  0
LINE
  5
40E0
330
1E
100
AcDbEntity
  8
3
100
AcDbLine
 10
0.8171817719551395
 20
1.534584098269263
 30
0.0
 11
0.8152132680181312
 21
1.53655260220627
 31
0.0
  0
LINE
  5
40E1
330
1E
100
AcDbEntity
  8
3
100
AcDbLine
 10
0.8152132680181312
 20
1.53655260220627
 30
0.0
 11
0.8132447640811237
 21
1.53852110614328
 31
0.0
  0
LINE
  5
40E2
330
1E
100
AcDbEntity
  8
3
100
AcDbLine
 10
0.8132447640811237
 20
1.53852110614328
 30
0.0
 11
0.8132447640811237
 21
1.540489610080287
 31
0.0
  0
LINE
  5
40E3
330
1E
100
AcDbEntity
  8
3
100
AcDbLine
 10
0.6715124806165563
 20
3.595607720316507
 30
0.0
 11
0.6734809845535646
 21
3.595607720316507
 31
0.0
  0
LINE
  5
40E4
330
1E
100
AcDbEntity
  8
3
100
AcDbLine
 10
0.6734809845535646
 20
3.595607720316507
 30
0.0
 11
0.697103031797659
 21
3.599544728190522
 31
0.0
  0
LINE
  5
40E5
330
1E
100
AcDbEntity
  8
3
100
AcDbLine
 10
0.697103031797659
 20
3.599544728190522
 30
0.0
 11
0.7187565751047451
 21
3.603481736064539
 31
0.0
  0
LINE
  5
40E6
330
1E
100
AcDbEntity
  8
3
100
AcDbLine
 10
0.7187565751047451
 20
3.603481736064539
 30
0.0
 11
0.7345046066008081
 21
3.609387247875563
 31
0.0
  0
LINE
  5
40E7
330
1E
100
AcDbEntity
  8
3
100
AcDbLine
 10
0.7345046066008081
 20
3.609387247875563
 30
0.0
 11
0.7423786223488396
 21
3.617261263623595
 31
0.0
  0
LINE
  5
40E8
330
1E
100
AcDbEntity
  8
3
100
AcDbLine
 10
0.7423786223488396
 20
3.617261263623595
 30
0.0
 11
0.7443471262858479
 21
3.619229767560602
 31
0.0
  0
LINE
  5
40E9
330
1E
100
AcDbEntity
  8
3
100
AcDbLine
 10
0.3191502758921469
 20
3.57395417700942
 30
0.0
 11
0.340803819199234
 21
3.579859688820445
 31
0.0
  0
LINE
  5
40EA
330
1E
100
AcDbEntity
  8
3
100
AcDbLine
 10
0.340803819199234
 20
3.579859688820445
 30
0.0
 11
0.3644258664433284
 21
3.581828192757452
 31
0.0
  0
LINE
  5
40EB
330
1E
100
AcDbEntity
  8
3
100
AcDbLine
 10
0.3644258664433284
 20
3.581828192757452
 30
0.0
 11
0.3663943703803358
 21
3.581828192757452
 31
0.0
  0
LINE
  5
40EC
330
1E
100
AcDbEntity
  8
3
100
AcDbLine
 10
0.2935597247110442
 20
3.550332129765326
 30
0.0
 11
0.2955282286480525
 21
3.55623764157635
 31
0.0
  0
LINE
  5
40ED
330
1E
100
AcDbEntity
  8
3
100
AcDbLine
 10
0.2955282286480525
 20
3.55623764157635
 30
0.0
 11
0.303402244396084
 21
3.566080161261389
 31
0.0
  0
LINE
  5
40EE
330
1E
100
AcDbEntity
  8
3
100
AcDbLine
 10
0.303402244396084
 20
3.566080161261389
 30
0.0
 11
0.3191502758921469
 21
3.57395417700942
 31
0.0
  0
LINE
  5
40EF
330
1E
100
AcDbEntity
  8
3
100
AcDbLine
 10
0.2935597247110442
 20
3.550332129765326
 30
0.0
 11
0.2935597247110442
 21
3.528678586458239
 31
0.0
  0
LINE
  5
40F0
330
1E
100
AcDbEntity
  8
3
100
AcDbLine
 10
0.2935597247110442
 20
3.528678586458239
 30
0.0
 11
0.2935597247110442
 21
3.503088035277137
 31
0.0
  0
LINE
  5
40F1
330
1E
100
AcDbEntity
  8
3
100
AcDbLine
 10
0.3663943703803358
 20
3.459780948662965
 30
0.0
 11
0.3644258664433284
 21
3.459780948662965
 31
0.0
  0
LINE
  5
40F2
330
1E
100
AcDbEntity
  8
3
100
AcDbLine
 10
0.3644258664433284
 20
3.459780948662965
 30
0.0
 11
0.3388353152622257
 21
3.46371795653698
 31
0.0
  0
LINE
  5
40F3
330
1E
100
AcDbEntity
  8
3
100
AcDbLine
 10
0.3388353152622257
 20
3.46371795653698
 30
0.0
 11
0.3152132680181312
 21
3.473560476222019
 31
0.0
  0
LINE
  5
40F4
330
1E
100
AcDbEntity
  8
3
100
AcDbLine
 10
0.3152132680181312
 20
3.473560476222019
 30
0.0
 11
0.2994652365220682
 21
3.487340003781074
 31
0.0
  0
LINE
  5
40F5
330
1E
100
AcDbEntity
  8
3
100
AcDbLine
 10
0.2994652365220682
 20
3.487340003781074
 30
0.0
 11
0.2935597247110442
 21
3.497182523466113
 31
0.0
  0
LINE
  5
40F6
330
1E
100
AcDbEntity
  8
3
100
AcDbLine
 10
0.2935597247110442
 20
3.497182523466113
 30
0.0
 11
0.2935597247110442
 21
3.503088035277137
 31
0.0
  0
LINE
  5
40F7
330
1E
100
AcDbEntity
  8
3
100
AcDbLine
 10
0.7443471262858479
 20
3.040489610080287
 30
0.0
 11
0.7443471262858479
 21
3.172379373859815
 31
0.0
  0
LINE
  5
40F8
330
1E
100
AcDbEntity
  8
3
100
AcDbLine
 10
0.7443471262858479
 20
3.172379373859815
 30
0.0
 11
0.7443471262858479
 21
3.292458114017295
 31
0.0
  0
LINE
  5
40F9
330
1E
100
AcDbEntity
  8
3
100
AcDbLine
 10
0.7443471262858479
 20
3.292458114017295
 30
0.0
 11
0.7443471262858479
 21
3.396788822678711
 31
0.0
  0
LINE
  5
40FA
330
1E
100
AcDbEntity
  8
3
100
AcDbLine
 10
0.7443471262858479
 20
3.396788822678711
 30
0.0
 11
0.7423786223488396
 21
3.404662838426743
 31
0.0
  0
LINE
  5
40FB
330
1E
100
AcDbEntity
  8
3
100
AcDbLine
 10
0.7423786223488396
 20
3.404662838426743
 30
0.0
 11
0.7325361026638007
 21
3.42631638173383
 31
0.0
  0
LINE
  5
40FC
330
1E
100
AcDbEntity
  8
3
100
AcDbLine
 10
0.7325361026638007
 20
3.42631638173383
 30
0.0
 11
0.7148195672307294
 21
3.440095909292885
 31
0.0
  0
LINE
  5
40FD
330
1E
100
AcDbEntity
  8
3
100
AcDbLine
 10
0.7148195672307294
 20
3.440095909292885
 30
0.0
 11
0.6892290160496275
 21
3.447969925040917
 31
0.0
  0
LINE
  5
40FE
330
1E
100
AcDbEntity
  8
3
100
AcDbLine
 10
0.6892290160496275
 20
3.447969925040917
 30
0.0
 11
0.6715124806165563
 21
3.449938428977924
 31
0.0
  0
LINE
  5
40FF
330
1E
100
AcDbEntity
  8
3
100
AcDbLine
 10
0.7443471262858479
 20
1.774741578584224
 30
0.0
 11
0.7443471262858479
 21
1.928284885670837
 31
0.0
  0
LINE
  5
4100
330
1E
100
AcDbEntity
  8
3
100
AcDbLine
 10
0.7443471262858479
 20
1.928284885670837
 30
0.0
 11
0.7443471262858479
 21
2.089702208505483
 31
0.0
  0
LINE
  5
4101
330
1E
100
AcDbEntity
  8
3
100
AcDbLine
 10
0.7443471262858479
 20
2.089702208505483
 30
0.0
 11
0.7443471262858479
 21
2.253088035277137
 31
0.0
  0
LINE
  5
4102
330
1E
100
AcDbEntity
  8
3
100
AcDbLine
 10
0.7443471262858479
 20
2.253088035277137
 30
0.0
 11
0.4490715357346664
 21
2.280647090395248
 31
0.0
  0
LINE
  5
4103
330
1E
100
AcDbEntity
  8
3
100
AcDbLine
 10
0.4490715357346664
 20
2.280647090395248
 30
0.0
 11
0.4490715357346664
 21
2.300332129765326
 31
0.0
  0
LINE
  5
4104
330
1E
100
AcDbEntity
  8
3
100
AcDbLine
 10
0.4490715357346664
 20
2.300332129765326
 30
0.0
 11
0.4490715357346664
 21
2.320017169135406
 31
0.0
  0
LINE
  5
4105
330
1E
100
AcDbEntity
  8
3
100
AcDbLine
 10
0.6715124806165563
 20
1.21371795653698
 30
0.0
 11
0.6892290160496275
 21
1.215686460473987
 31
0.0
  0
LINE
  5
4106
330
1E
100
AcDbEntity
  8
3
100
AcDbLine
 10
0.6892290160496275
 20
1.215686460473987
 30
0.0
 11
0.7089140554197062
 21
1.221591972285011
 31
0.0
  0
LINE
  5
4107
330
1E
100
AcDbEntity
  8
3
100
AcDbLine
 10
0.7089140554197062
 20
1.221591972285011
 30
0.0
 11
0.7246620869157692
 21
1.23143449197005
 31
0.0
  0
LINE
  5
4108
330
1E
100
AcDbEntity
  8
3
100
AcDbLine
 10
0.7246620869157692
 20
1.23143449197005
 30
0.0
 11
0.7384416144748239
 21
1.245214019529106
 31
0.0
  0
LINE
  5
4109
330
1E
100
AcDbEntity
  8
3
100
AcDbLine
 10
0.7384416144748239
 20
1.245214019529106
 30
0.0
 11
0.7443471262858479
 21
1.264899058899185
 31
0.0
  0
LINE
  5
410A
330
1E
100
AcDbEntity
  8
3
100
AcDbLine
 10
0.7443471262858479
 20
1.264899058899185
 30
0.0
 11
0.7443471262858479
 21
1.266867562836193
 31
0.0
  0
LINE
  5
410B
330
1E
100
AcDbEntity
  8
3
100
AcDbLine
 10
0.7443471262858479
 20
1.266867562836193
 30
0.0
 11
0.7443471262858479
 21
1.373166775434617
 31
0.0
  0
LINE
  5
410C
330
1E
100
AcDbEntity
  8
3
100
AcDbLine
 10
0.7443471262858479
 20
1.373166775434617
 30
0.0
 11
0.7443471262858479
 21
1.495214019529106
 31
0.0
  0
LINE
  5
410D
330
1E
100
AcDbEntity
  8
3
100
AcDbLine
 10
0.7443471262858479
 20
1.495214019529106
 30
0.0
 11
0.7443471262858479
 21
1.629072287245641
 31
0.0
  0
LINE
  5
410E
330
1E
100
AcDbEntity
  8
3
100
AcDbLine
 10
0.7443471262858479
 20
1.629072287245641
 30
0.0
 11
0.7443471262858479
 21
1.774741578584224
 31
0.0
  0
LINE
  5
410F
330
1E
100
AcDbEntity
  8
3
100
AcDbLine
 10
0.2935597247110442
 20
1.160568350237767
 30
0.0
 11
0.2974967325850599
 21
1.174347877796822
 31
0.0
  0
LINE
  5
4110
330
1E
100
AcDbEntity
  8
3
100
AcDbLine
 10
0.2974967325850599
 20
1.174347877796822
 30
0.0
 11
0.309307756207108
 21
1.186158901418869
 31
0.0
  0
LINE
  5
4111
330
1E
100
AcDbEntity
  8
3
100
AcDbLine
 10
0.309307756207108
 20
1.186158901418869
 30
0.0
 11
0.3270242916401784
 21
1.196001421103909
 31
0.0
  0
LINE
  5
4112
330
1E
100
AcDbEntity
  8
3
100
AcDbLine
 10
0.3270242916401784
 20
1.196001421103909
 30
0.0
 11
0.3467093310102571
 21
1.199938428977924
 31
0.0
  0
LINE
  5
4113
330
1E
100
AcDbEntity
  8
3
100
AcDbLine
 10
0.3467093310102571
 20
1.199938428977924
 30
0.0
 11
0.3663943703803358
 21
1.203875436851941
 31
0.0
  0
LINE
  5
4114
330
1E
100
AcDbEntity
  8
3
100
AcDbLine
 10
0.7443471262858479
 20
3.619229767560602
 30
0.0
 11
0.7443471262858479
 21
3.552300633702333
 31
0.0
  0
LINE
  5
4115
330
1E
100
AcDbEntity
  8
3
100
AcDbLine
 10
0.7443471262858479
 20
3.552300633702333
 30
0.0
 11
0.7384416144748239
 21
3.544426617954302
 31
0.0
  0
LINE
  5
4116
330
1E
100
AcDbEntity
  8
3
100
AcDbLine
 10
0.7384416144748239
 20
3.544426617954302
 30
0.0
 11
0.7246620869157692
 21
3.53852110614328
 31
0.0
  0
LINE
  5
4117
330
1E
100
AcDbEntity
  8
3
100
AcDbLine
 10
0.7246620869157692
 20
3.53852110614328
 30
0.0
 11
0.7030085436086822
 21
3.532615594332256
 31
0.0
  0
LINE
  5
4118
330
1E
100
AcDbEntity
  8
3
100
AcDbLine
 10
0.7030085436086822
 20
3.532615594332256
 30
0.0
 11
0.6774179924275803
 21
3.528678586458239
 31
0.0
  0
LINE
  5
4119
330
1E
100
AcDbEntity
  8
3
100
AcDbLine
 10
0.6774179924275803
 20
3.528678586458239
 30
0.0
 11
0.6715124806165563
 21
3.528678586458239
 31
0.0
  0
LINE
  5
411A
330
1E
100
AcDbEntity
  8
3
100
AcDbLine
 10
0.6715124806165563
 20
3.528678586458239
 30
0.0
 11
0.3663943703803358
 21
3.512930554962176
 31
0.0
  0
LINE
  5
411B
330
1E
100
AcDbEntity
  8
3
100
AcDbLine
 10
0.3663943703803358
 20
3.512930554962176
 30
0.0
 11
0.340803819199234
 21
3.510962051025169
 31
0.0
  0
LINE
  5
411C
330
1E
100
AcDbEntity
  8
3
100
AcDbLine
 10
0.340803819199234
 20
3.510962051025169
 30
0.0
 11
0.3211187798291553
 21
3.505056539214145
 31
0.0
  0
LINE
  5
411D
330
1E
100
AcDbEntity
  8
3
100
AcDbLine
 10
0.3211187798291553
 20
3.505056539214145
 30
0.0
 11
0.2974967325850599
 21
3.489308507718082
 31
0.0
  0
LINE
  5
411E
330
1E
100
AcDbEntity
  8
3
100
AcDbLine
 10
-0.196597755603916
 20
3.640883310867689
 30
0.0
 11
-0.196597755603916
 21
3.633009295119657
 31
0.0
  0
LINE
  5
411F
330
1E
100
AcDbEntity
  8
3
100
AcDbLine
 10
-0.196597755603916
 20
3.633009295119657
 30
0.0
 11
-0.196597755603916
 21
3.607418743938554
 31
0.0
  0
LINE
  5
4120
330
1E
100
AcDbEntity
  8
3
100
AcDbLine
 10
-0.196597755603916
 20
3.607418743938554
 30
0.0
 11
-0.196597755603916
 21
3.568048665198396
 31
0.0
  0
LINE
  5
4121
330
1E
100
AcDbEntity
  8
3
100
AcDbLine
 10
-0.196597755603916
 20
3.568048665198396
 30
0.0
 11
-0.196597755603916
 21
3.512930554962176
 31
0.0
  0
LINE
  5
4122
330
1E
100
AcDbEntity
  8
3
100
AcDbLine
 10
-0.196597755603916
 20
3.512930554962176
 30
0.0
 11
-0.196597755603916
 21
3.4440329171669
 31
0.0
  0
LINE
  5
4123
330
1E
100
AcDbEntity
  8
3
100
AcDbLine
 10
-0.196597755603916
 20
3.4440329171669
 30
0.0
 11
-0.196597755603916
 21
3.36135575181257
 31
0.0
  0
LINE
  5
4124
330
1E
100
AcDbEntity
  8
3
100
AcDbLine
 10
-0.196597755603916
 20
3.36135575181257
 30
0.0
 11
-0.196597755603916
 21
3.264899058899185
 31
0.0
  0
LINE
  5
4125
330
1E
100
AcDbEntity
  8
3
100
AcDbLine
 10
-0.196597755603916
 20
3.264899058899185
 30
0.0
 11
-0.196597755603916
 21
3.158599846300759
 31
0.0
  0
LINE
  5
4126
330
1E
100
AcDbEntity
  8
3
100
AcDbLine
 10
-0.196597755603916
 20
3.158599846300759
 30
0.0
 11
-0.196597755603916
 21
3.040489610080287
 31
0.0
  0
LINE
  5
4127
330
1E
100
AcDbEntity
  8
3
100
AcDbLine
 10
-0.196597755603916
 20
2.320017169135406
 30
0.0
 11
-0.196597755603916
 21
2.174347877796822
 31
0.0
  0
LINE
  5
4128
330
1E
100
AcDbEntity
  8
3
100
AcDbLine
 10
-0.196597755603916
 20
2.174347877796822
 30
0.0
 11
-0.196597755603916
 21
2.030647090395248
 31
0.0
  0
LINE
  5
4129
330
1E
100
AcDbEntity
  8
3
100
AcDbLine
 10
-0.196597755603916
 20
2.030647090395248
 30
0.0
 11
-0.196597755603916
 21
1.890883310867689
 31
0.0
  0
LINE
  5
412A
330
1E
100
AcDbEntity
  8
3
100
AcDbLine
 10
-0.196597755603916
 20
1.890883310867689
 30
0.0
 11
-0.196597755603916
 21
1.757025043151154
 31
0.0
  0
LINE
  5
412B
330
1E
100
AcDbEntity
  8
3
100
AcDbLine
 10
-0.196597755603916
 20
1.757025043151154
 30
0.0
 11
-0.196597755603916
 21
1.629072287245641
 31
0.0
  0
LINE
  5
412C
330
1E
100
AcDbEntity
  8
3
100
AcDbLine
 10
-0.196597755603916
 20
1.629072287245641
 30
0.0
 11
-0.196597755603916
 21
1.510962051025169
 31
0.0
  0
LINE
  5
412D
330
1E
100
AcDbEntity
  8
3
100
AcDbLine
 10
-0.196597755603916
 20
1.510962051025169
 30
0.0
 11
-0.196597755603916
 21
1.402694334489735
 31
0.0
  0
LINE
  5
412E
330
1E
100
AcDbEntity
  8
3
100
AcDbLine
 10
-0.196597755603916
 20
1.402694334489735
 30
0.0
 11
-0.196597755603916
 21
1.30623764157635
 31
0.0
  0
LINE
  5
412F
330
1E
100
AcDbEntity
  8
3
100
AcDbLine
 10
-0.196597755603916
 20
1.30623764157635
 30
0.0
 11
-0.196597755603916
 21
1.221591972285011
 31
0.0
  0
LINE
  5
4130
330
1E
100
AcDbEntity
  8
3
100
AcDbLine
 10
-0.196597755603916
 20
1.221591972285011
 30
0.0
 11
-0.196597755603916
 21
1.150725830552728
 31
0.0
  0
LINE
  5
4131
330
1E
100
AcDbEntity
  8
3
100
AcDbLine
 10
-0.196597755603916
 20
1.150725830552728
 30
0.0
 11
-0.196597755603916
 21
1.095607720316507
 31
0.0
  0
LINE
  5
4132
330
1E
100
AcDbEntity
  8
3
100
AcDbLine
 10
-0.196597755603916
 20
1.095607720316507
 30
0.0
 11
-0.196597755603916
 21
1.05623764157635
 31
0.0
  0
LINE
  5
4133
330
1E
100
AcDbEntity
  8
3
100
AcDbLine
 10
-0.196597755603916
 20
1.05623764157635
 30
0.0
 11
-0.196597755603916
 21
1.030647090395248
 31
0.0
  0
LINE
  5
4134
330
1E
100
AcDbEntity
  8
3
100
AcDbLine
 10
-0.196597755603916
 20
1.030647090395248
 30
0.0
 11
-0.196597755603916
 21
1.022773074647217
 31
0.0
  0
LINE
  5
4135
330
1E
100
AcDbEntity
  8
3
100
AcDbLine
 10
0.2935597247110442
 20
1.160568350237767
 30
0.0
 11
0.2935597247110442
 21
1.134977799056665
 31
0.0
  0
LINE
  5
4136
330
1E
100
AcDbEntity
  8
3
100
AcDbLine
 10
0.2935597247110442
 20
1.134977799056665
 30
0.0
 11
0.2935597247110442
 21
1.11135575181257
 31
0.0
  0
LINE
  5
4137
330
1E
100
AcDbEntity
  8
3
100
AcDbLine
 10
0.3663943703803358
 20
1.081828192757452
 30
0.0
 11
0.3486778349472654
 21
1.083796696694459
 31
0.0
  0
LINE
  5
4138
330
1E
100
AcDbEntity
  8
3
100
AcDbLine
 10
0.3486778349472654
 20
1.083796696694459
 30
0.0
 11
0.325055787703171
 21
1.087733704568476
 31
0.0
  0
LINE
  5
4139
330
1E
100
AcDbEntity
  8
3
100
AcDbLine
 10
0.325055787703171
 20
1.087733704568476
 30
0.0
 11
0.3053707483330914
 21
1.095607720316507
 31
0.0
  0
LINE
  5
413A
330
1E
100
AcDbEntity
  8
3
100
AcDbLine
 10
0.3053707483330914
 20
1.095607720316507
 30
0.0
 11
0.2955282286480525
 21
1.107418743938554
 31
0.0
  0
LINE
  5
413B
330
1E
100
AcDbEntity
  8
3
100
AcDbLine
 10
0.2955282286480525
 20
1.107418743938554
 30
0.0
 11
0.2935597247110442
 21
1.11135575181257
 31
0.0
  0
LINE
  5
413C
330
1E
100
AcDbEntity
  8
3
100
AcDbLine
 10
0.2974967325850599
 20
1.172379373859815
 30
0.0
 11
0.2994652365220682
 21
1.170410869922806
 31
0.0
  0
LINE
  5
413D
330
1E
100
AcDbEntity
  8
3
100
AcDbLine
 10
0.2994652365220682
 20
1.170410869922806
 30
0.0
 11
0.3132447640811238
 21
1.160568350237767
 31
0.0
  0
LINE
  5
413E
330
1E
100
AcDbEntity
  8
3
100
AcDbLine
 10
0.3132447640811238
 20
1.160568350237767
 30
0.0
 11
0.3368668113252182
 21
1.154662838426743
 31
0.0
  0
LINE
  5
413F
330
1E
100
AcDbEntity
  8
3
100
AcDbLine
 10
0.3368668113252182
 20
1.154662838426743
 30
0.0
 11
0.3624573625063201
 21
1.150725830552728
 31
0.0
  0
LINE
  5
4140
330
1E
100
AcDbEntity
  8
3
100
AcDbLine
 10
0.3624573625063201
 20
1.150725830552728
 30
0.0
 11
0.3663943703803358
 21
1.150725830552728
 31
0.0
  0
LINE
  5
4141
330
1E
100
AcDbEntity
  8
3
100
AcDbLine
 10
0.7541896459708868
 20
1.564111657324382
 30
0.0
 11
0.7541896459708868
 21
1.546395121891311
 31
0.0
  0
LINE
  5
4142
330
1E
100
AcDbEntity
  8
3
100
AcDbLine
 10
0.7541896459708868
 20
1.546395121891311
 30
0.0
 11
0.7541896459708868
 21
1.534584098269263
 31
0.0
  0
LINE
  5
4143
330
1E
100
AcDbEntity
  8
3
100
AcDbLine
 10
0.7522211420338794
 20
1.530647090395248
 30
0.0
 11
0.7502526380968711
 21
1.528678586458239
 31
0.0
  0
LINE
  5
4144
330
1E
100
AcDbEntity
  8
3
100
AcDbLine
 10
0.7502526380968711
 20
1.528678586458239
 30
0.0
 11
0.7482841341598637
 21
1.528678586458239
 31
0.0
  0
LINE
  5
4145
330
1E
100
AcDbEntity
  8
3
100
AcDbLine
 10
0.7482841341598637
 20
1.528678586458239
 30
0.0
 11
0.7463156302228553
 21
1.528678586458239
 31
0.0
  0
LINE
  5
4146
330
1E
100
AcDbEntity
  8
3
100
AcDbLine
 10
0.7541896459708868
 20
1.534584098269263
 30
0.0
 11
0.7522211420338794
 21
1.532615594332256
 31
0.0
  0
LINE
  5
4147
330
1E
100
AcDbEntity
  8
3
100
AcDbLine
 10
0.7522211420338794
 20
1.532615594332256
 30
0.0
 11
0.7522211420338794
 21
1.530647090395248
 31
0.0
  0
LINE
  5
4148
330
1E
100
AcDbEntity
  8
3
100
AcDbLine
 10
0.6715124806165563
 20
1.134977799056665
 30
0.0
 11
0.6951345278606507
 21
1.133009295119657
 31
0.0
  0
LINE
  5
4149
330
1E
100
AcDbEntity
  8
3
100
AcDbLine
 10
0.6951345278606507
 20
1.133009295119657
 30
0.0
 11
0.7167880711677377
 21
1.127103783308633
 31
0.0
  0
LINE
  5
414A
330
1E
100
AcDbEntity
  8
3
100
AcDbLine
 10
0.7167880711677377
 20
1.127103783308633
 30
0.0
 11
0.7345046066008081
 21
1.121198271497609
 31
0.0
  0
LINE
  5
414B
330
1E
100
AcDbEntity
  8
3
100
AcDbLine
 10
0.7345046066008081
 20
1.121198271497609
 30
0.0
 11
0.7423786223488396
 21
1.113324255749578
 31
0.0
  0
LINE
  5
414C
330
1E
100
AcDbEntity
  8
3
100
AcDbLine
 10
0.7423786223488396
 20
1.113324255749578
 30
0.0
 11
0.7443471262858479
 21
1.11135575181257
 31
0.0
  0
LINE
  5
414D
330
1E
100
AcDbEntity
  8
3
100
AcDbLine
 10
0.7404101184118322
 20
1.050332129765326
 30
0.0
 11
0.7266305908527766
 21
1.058206145513358
 31
0.0
  0
LINE
  5
414E
330
1E
100
AcDbEntity
  8
3
100
AcDbLine
 10
0.7266305908527766
 20
1.058206145513358
 30
0.0
 11
0.7049770475456905
 21
1.062143153387374
 31
0.0
  0
LINE
  5
414F
330
1E
100
AcDbEntity
  8
3
100
AcDbLine
 10
0.7049770475456905
 20
1.062143153387374
 30
0.0
 11
0.6793864963645877
 21
1.066080161261389
 31
0.0
  0
LINE
  5
4150
330
1E
100
AcDbEntity
  8
3
100
AcDbLine
 10
0.6793864963645877
 20
1.066080161261389
 30
0.0
 11
0.6715124806165563
 21
1.068048665198396
 31
0.0
  0
LINE
  5
4151
330
1E
100
AcDbEntity
  8
3
100
AcDbLine
 10
0.7443471262858479
 20
1.007025043151154
 30
0.0
 11
0.7443471262858479
 21
1.016867562836193
 31
0.0
  0
LINE
  5
4152
330
1E
100
AcDbEntity
  8
3
100
AcDbLine
 10
0.7443471262858479
 20
1.016867562836193
 30
0.0
 11
0.7443471262858479
 21
1.044426617954302
 31
0.0
  0
LINE
  5
4153
330
1E
100
AcDbEntity
  8
3
100
AcDbLine
 10
0.7541896459708868
 20
2.016867562836193
 30
0.0
 11
0.7541896459708868
 21
2.066080161261389
 31
0.0
  0
LINE
  5
4154
330
1E
100
AcDbEntity
  8
3
100
AcDbLine
 10
0.7541896459708868
 20
2.066080161261389
 30
0.0
 11
0.7541896459708868
 21
2.115292759686585
 31
0.0
  0
LINE
  5
4155
330
1E
100
AcDbEntity
  8
3
100
AcDbLine
 10
-0.196597755603916
 20
2.012930554962176
 30
0.0
 11
-0.196597755603916
 21
2.00111953134013
 31
0.0
  0
LINE
  5
4156
330
1E
100
AcDbEntity
  8
3
100
AcDbLine
 10
-0.196597755603916
 20
2.00111953134013
 30
0.0
 11
-0.196597755603916
 21
1.995214019529106
 31
0.0
  0
LINE
  5
4157
330
1E
100
AcDbEntity
  8
3
100
AcDbLine
 10
-0.196597755603916
 20
2.062143153387374
 30
0.0
 11
-0.196597755603916
 21
2.03655260220627
 31
0.0
  0
LINE
  5
4158
330
1E
100
AcDbEntity
  8
3
100
AcDbLine
 10
-0.196597755603916
 20
2.03655260220627
 30
0.0
 11
-0.196597755603916
 21
2.007025043151154
 31
0.0
  0
LINE
  5
4159
330
1E
100
AcDbEntity
  8
3
100
AcDbLine
 10
-0.196597755603916
 20
2.007025043151154
 30
0.0
 11
-0.196597755603916
 21
1.98143449197005
 31
0.0
  0
LINE
  5
415A
330
1E
100
AcDbEntity
  8
3
100
AcDbLine
 10
-0.196597755603916
 20
1.98143449197005
 30
0.0
 11
-0.196597755603916
 21
1.973560476222019
 31
0.0
  0
LINE
  5
415B
330
1E
100
AcDbEntity
  8
3
100
AcDbLine
 10
-0.196597755603916
 20
1.973560476222019
 30
0.0
 11
-0.196597755603916
 21
1.98143449197005
 31
0.0
  0
LINE
  5
415C
330
1E
100
AcDbEntity
  8
3
100
AcDbLine
 10
-0.196597755603916
 20
1.98143449197005
 30
0.0
 11
-0.196597755603916
 21
2.007025043151154
 31
0.0
  0
LINE
  5
415D
330
1E
100
AcDbEntity
  8
3
100
AcDbLine
 10
-0.196597755603916
 20
2.007025043151154
 30
0.0
 11
-0.196597755603916
 21
2.03655260220627
 31
0.0
  0
LINE
  5
415E
330
1E
100
AcDbEntity
  8
3
100
AcDbLine
 10
-0.196597755603916
 20
2.03655260220627
 30
0.0
 11
-0.196597755603916
 21
2.062143153387374
 31
0.0
  0
LINE
  5
415F
330
1E
100
AcDbEntity
  8
3
100
AcDbLine
 10
-0.196597755603916
 20
2.686158901418869
 30
0.0
 11
-0.196597755603916
 21
2.703875436851941
 31
0.0
  0
LINE
  5
4160
330
1E
100
AcDbEntity
  8
3
100
AcDbLine
 10
-0.196597755603916
 20
2.703875436851941
 30
0.0
 11
-0.196597755603916
 21
2.71371795653698
 31
0.0
  0
LINE
  5
4161
330
1E
100
AcDbEntity
  8
3
100
AcDbLine
 10
-0.196597755603916
 20
2.71371795653698
 30
0.0
 11
-0.196597755603916
 21
2.703875436851941
 31
0.0
  0
LINE
  5
4162
330
1E
100
AcDbEntity
  8
3
100
AcDbLine
 10
-0.196597755603916
 20
2.703875436851941
 30
0.0
 11
-0.196597755603916
 21
2.686158901418869
 31
0.0
  0
LINE
  5
4163
330
1E
100
AcDbEntity
  8
3
100
AcDbLine
 10
-0.196597755603916
 20
2.686158901418869
 30
0.0
 11
-0.196597755603916
 21
2.678284885670837
 31
0.0
  0
LINE
  5
4164
330
1E
100
AcDbEntity
  8
3
100
AcDbLine
 10
-0.196597755603916
 20
2.678284885670837
 30
0.0
 11
-0.196597755603916
 21
2.686158901418869
 31
0.0
  0
LINE
  5
4165
330
1E
100
AcDbEntity
  8
3
100
AcDbLine
 10
-0.196597755603916
 20
2.048363625828319
 30
0.0
 11
-0.196597755603916
 21
2.054269137639343
 31
0.0
  0
LINE
  5
4166
330
1E
100
AcDbEntity
  8
3
100
AcDbLine
 10
-0.196597755603916
 20
2.054269137639343
 30
0.0
 11
-0.196597755603916
 21
2.034584098269263
 31
0.0
  0
LINE
  5
4167
330
1E
100
AcDbEntity
  8
3
100
AcDbLine
 10
-0.196597755603916
 20
2.617261263623595
 30
0.0
 11
-0.196597755603916
 21
2.627103783308633
 31
0.0
  0
LINE
  5
4168
330
1E
100
AcDbEntity
  8
3
100
AcDbLine
 10
-0.196597755603916
 20
2.627103783308633
 30
0.0
 11
-0.196597755603916
 21
2.63891480693068
 31
0.0
  0
LINE
  5
4169
330
1E
100
AcDbEntity
  8
3
100
AcDbLine
 10
-0.196597755603916
 20
2.607418743938554
 30
0.0
 11
-0.196597755603916
 21
2.591670712442491
 31
0.0
  0
LINE
  5
416A
330
1E
100
AcDbEntity
  8
3
100
AcDbLine
 10
-0.196597755603916
 20
2.591670712442491
 30
0.0
 11
-0.196597755603916
 21
2.607418743938554
 31
0.0
  0
LINE
  5
416B
330
1E
100
AcDbEntity
  8
3
100
AcDbLine
 10
-0.196597755603916
 20
2.607418743938554
 30
0.0
 11
-0.196597755603916
 21
2.634977799056665
 31
0.0
  0
LINE
  5
416C
330
1E
100
AcDbEntity
  8
3
100
AcDbLine
 10
-0.196597755603916
 20
2.634977799056665
 30
0.0
 11
-0.196597755603916
 21
2.666473862048791
 31
0.0
  0
LINE
  5
416D
330
1E
100
AcDbEntity
  8
3
100
AcDbLine
 10
-0.196597755603916
 20
2.666473862048791
 30
0.0
 11
-0.196597755603916
 21
2.688127405355878
 31
0.0
  0
LINE
  5
416E
330
1E
100
AcDbEntity
  8
3
100
AcDbLine
 10
-0.196597755603916
 20
2.688127405355878
 30
0.0
 11
-0.196597755603916
 21
2.697969925040917
 31
0.0
  0
LINE
  5
416F
330
1E
100
AcDbEntity
  8
3
100
AcDbLine
 10
-0.196597755603916
 20
2.697969925040917
 30
0.0
 11
-0.196597755603916
 21
2.688127405355878
 31
0.0
  0
LINE
  5
4170
330
1E
100
AcDbEntity
  8
3
100
AcDbLine
 10
-0.196597755603916
 20
2.688127405355878
 30
0.0
 11
-0.196597755603916
 21
2.666473862048791
 31
0.0
  0
LINE
  5
4171
330
1E
100
AcDbEntity
  8
3
100
AcDbLine
 10
-0.196597755603916
 20
2.666473862048791
 30
0.0
 11
-0.196597755603916
 21
2.634977799056665
 31
0.0
  0
LINE
  5
4172
330
1E
100
AcDbEntity
  8
3
100
AcDbLine
 10
-0.196597755603916
 20
2.634977799056665
 30
0.0
 11
-0.196597755603916
 21
2.607418743938554
 31
0.0
  0
LINE
  5
4323
330
1E
100
AcDbEntity
  8
3
100
AcDbLine
 10
6.122299882191359
 20
3.182221893544854
 30
0.0
 11
6.311276260144115
 21
3.359387247875563
 31
0.0
  0
LINE
  5
4324
330
1E
100
AcDbEntity
  8
3
100
AcDbLine
 10
6.311276260144115
 20
3.359387247875563
 30
0.0
 11
6.197103031797658
 21
3.430253389607846
 31
0.0
  0
LINE
  5
4325
330
1E
100
AcDbEntity
  8
3
100
AcDbLine
 10
6.197103031797658
 20
3.430253389607846
 30
0.0
 11
6.122299882191359
 21
3.182221893544854
 31
0.0
  0
ENDSEC
  0
SECTION
  2
OBJECTS
  0
DICTIONARY
  5
C
330
0
100
AcDbDictionary
  3
ACAD_GROUP
350
D
  3
ACAD_MLINESTYLE
350
16
  3
ACAD_PLOTSETTINGS
350
18
  3
ACAD_LAYOUT
350
19
1001
ACAD
1000
TREAT_AS_HARD
1070
     0
  0
DICTIONARY
  5
52D9
330
1E
100
AcDbDictionary
  3
ACAD_LAYOUTSELFREF
350
52DA
  0
DICTIONARY
  5
52D7
330
1A
100
AcDbDictionary
  3
ACAD_LAYOUTSELFREF
350
52D8
  0
DICTIONARY
  5
D
102
{ACAD_REACTORS
330
C
102
}
330
C
100
AcDbDictionary
1001
ACAD
1000
TREAT_AS_HARD
1070
     0
  0
DICTIONARY
  5
16
102
{ACAD_REACTORS
330
C
102
}
330
C
100
AcDbDictionary
  3
STANDARD
350
17
1001
ACAD
1000
TREAT_AS_HARD
1070
     0
  0
DICTIONARY
  5
18
102
{ACAD_REACTORS
330
C
102
}
330
C
100
AcDbDictionary
1001
ACAD
1000
TREAT_AS_HARD
1070
     0
  0
DICTIONARY
  5
19
102
{ACAD_REACTORS
330
C
102
}
330
C
100
AcDbDictionary
1001
ACAD
1000
TREAT_AS_HARD
1070
     0
  0
XRECORD
  5
52DA
102
{ACAD_REACTORS
330
52D9
102
}
330
52D9
100
AcDbXrecord
340
1E
  0
XRECORD
  5
52D8
102
{ACAD_REACTORS
330
52D7
102
}
330
52D7
100
AcDbXrecord
340
1A
  0
MLINESTYLE
  5
17
102
{ACAD_REACTORS
330
16
102
}
330
16
100
AcDbMlineStyle
  2
STANDARD
 70
     0
  3

 62
   256
 51
90.0
 52
90.0
 71
     2
 49
0.5
 62
   256
  6
BYLAYER
 49
-0.5
 62
   256
  6
BYLAYER
  0
ENDSEC
  0
EOF
