  0
SECTION
  2
HEADER
  9
$ACADVER
  1
AC1012
  9
$DWGCODEPAGE
  3
ANSI_1252
  9
$INSBASE
 10
0.0
 20
0.0
 30
0.0
  9
$EXTMIN
 10
33.29616805627967
 20
24.96972311776379
 30
-0.0015258207003583
  9
$EXTMAX
 10
39.17657708704718
 20
29.4713759930461
 30
0.0000000349246037
  9
$LIMMIN
 10
0.0
 20
0.0
  9
$LIMMAX
 10
12.0
 20
9.0
  9
$ORTHOMODE
 70
     0
  9
$REGENMODE
 70
     1
  9
$FILLMODE
 70
     1
  9
$QTEXTMODE
 70
     0
  9
$MIRRTEXT
 70
     1
  9
$DRAGMODE
 70
     2
  9
$LTSCALE
 40
1.0
  9
$OSMODE
 70
   547
  9
$ATTMODE
 70
     1
  9
$TEXTSIZE
 40
0.2
  9
$TRACEWID
 40
0.05
  9
$TEXTSTYLE
  7
STANDARD
  9
$CLAYER
  8
0
  9
$CELTYPE
  6
BYLAYER
  9
$CECOLOR
 62
   256
  9
$CELTSCALE
 40
1.0
  9
$DELOBJ
 70
     1
  9
$DISPSILH
 70
     0
  9
$DIMSCALE
 40
1.0
  9
$DIMASZ
 40
0.18
  9
$DIMEXO
 40
0.0625
  9
$DIMDLI
 40
0.38
  9
$DIMRND
 40
0.0
  9
$DIMDLE
 40
0.0
  9
$DIMEXE
 40
0.18
  9
$DIMTP
 40
0.0
  9
$DIMTM
 40
0.0
  9
$DIMTXT
 40
0.18
  9
$DIMCEN
 40
0.09
  9
$DIMTSZ
 40
0.0
  9
$DIMTOL
 70
     0
  9
$DIMLIM
 70
     0
  9
$DIMTIH
 70
     1
  9
$DIMTOH
 70
     1
  9
$DIMSE1
 70
     0
  9
$DIMSE2
 70
     0
  9
$DIMTAD
 70
     0
  9
$DIMZIN
 70
     0
  9
$DIMBLK
  1

  9
$DIMASO
 70
     1
  9
$DIMSHO
 70
     1
  9
$DIMPOST
  1

  9
$DIMAPOST
  1

  9
$DIMALT
 70
     0
  9
$DIMALTD
 70
     2
  9
$DIMALTF
 40
25.4
  9
$DIMLFAC
 40
1.0
  9
$DIMTOFL
 70
     0
  9
$DIMTVP
 40
0.0
  9
$DIMTIX
 70
     0
  9
$DIMSOXD
 70
     0
  9
$DIMSAH
 70
     0
  9
$DIMBLK1
  1

  9
$DIMBLK2
  1

  9
$DIMSTYLE
  2
STANDARD
  9
$DIMCLRD
 70
     0
  9
$DIMCLRE
 70
     0
  9
$DIMCLRT
 70
     0
  9
$DIMTFAC
 40
1.0
  9
$DIMGAP
 40
0.09
  9
$DIMJUST
 70
     0
  9
$DIMSD1
 70
     0
  9
$DIMSD2
 70
     0
  9
$DIMTOLJ
 70
     1
  9
$DIMTZIN
 70
     0
  9
$DIMALTZ
 70
     0
  9
$DIMALTTZ
 70
     0
  9
$DIMFIT
 70
     5
  9
$DIMUPT
 70
     0
  9
$DIMUNIT
 70
     2
  9
$DIMDEC
 70
     4
  9
$DIMTDEC
 70
     4
  9
$DIMALTU
 70
     2
  9
$DIMALTTD
 70
     2
  9
$DIMTXSTY
  7
STANDARD
  9
$DIMAUNIT
 70
     0
  9
$LUNITS
 70
     2
  9
$LUPREC
 70
     4
  9
$SKETCHINC
 40
0.1
  9
$FILLETRAD
 40
0.0
  9
$AUNITS
 70
     0
  9
$AUPREC
 70
     0
  9
$MENU
  1
acad
  9
$ELEVATION
 40
0.0
  9
$PELEVATION
 40
0.0
  9
$THICKNESS
 40
0.0
  9
$LIMCHECK
 70
     0
  9
$BLIPMODE
 70
     0
  9
$CHAMFERA
 40
0.0
  9
$CHAMFERB
 40
0.0
  9
$CHAMFERC
 40
0.0
  9
$CHAMFERD
 40
0.0
  9
$SKPOLY
 70
     0
  9
$TDCREATE
 40
2453354.460370370
  9
$TDUPDATE
 40
2453354.463040382
  9
$TDINDWG
 40
0.0004275116
  9
$TDUSRTIMER
 40
0.0004275116
  9
$USRTIMER
 70
     1
  9
$ANGBASE
 50
0.0
  9
$ANGDIR
 70
     0
  9
$PDMODE
 70
     0
  9
$PDSIZE
 40
0.0
  9
$PLINEWID
 40
0.0
  9
$COORDS
 70
     1
  9
$SPLFRAME
 70
     0
  9
$SPLINETYPE
 70
     6
  9
$SPLINESEGS
 70
     8
  9
$ATTDIA
 70
     0
  9
$ATTREQ
 70
     1
  9
$HANDLING
 70
  4097
  9
$HANDSEED
  5
400B
  9
$SURFTAB1
 70
     6
  9
$SURFTAB2
 70
     6
  9
$SURFTYPE
 70
     6
  9
$SURFU
 70
     6
  9
$SURFV
 70
     6
  9
$UCSNAME
  2

  9
$UCSORG
 10
0.0
 20
0.0
 30
0.0
  9
$UCSXDIR
 10
1.0
 20
0.0
 30
0.0
  9
$UCSYDIR
 10
0.0
 20
1.0
 30
0.0
  9
$PUCSNAME
  2

  9
$PUCSORG
 10
0.0
 20
0.0
 30
0.0
  9
$PUCSXDIR
 10
1.0
 20
0.0
 30
0.0
  9
$PUCSYDIR
 10
0.0
 20
1.0
 30
0.0
  9
$USERI1
 70
     0
  9
$USERI2
 70
     0
  9
$USERI3
 70
     0
  9
$USERI4
 70
     0
  9
$USERI5
 70
     0
  9
$USERR1
 40
0.0
  9
$USERR2
 40
0.0
  9
$USERR3
 40
0.0
  9
$USERR4
 40
0.0
  9
$USERR5
 40
0.0
  9
$WORLDVIEW
 70
     1
  9
$SHADEDGE
 70
     3
  9
$SHADEDIF
 70
    70
  9
$TILEMODE
 70
     1
  9
$MAXACTVP
 70
    16
  9
$PINSBASE
 10
0.0
 20
0.0
 30
0.0
  9
$PLIMCHECK
 70
     0
  9
$PEXTMIN
 10
1.000000000000000E+20
 20
1.000000000000000E+20
 30
1.000000000000000E+20
  9
$PEXTMAX
 10
-1.000000000000000E+20
 20
-1.000000000000000E+20
 30
-1.000000000000000E+20
  9
$PLIMMIN
 10
0.0
 20
0.0
  9
$PLIMMAX
 10
12.0
 20
9.0
  9
$UNITMODE
 70
     0
  9
$VISRETAIN
 70
     0
  9
$PLINEGEN
 70
     0
  9
$PSLTSCALE
 70
     1
  9
$TREEDEPTH
 70
  3020
  9
$PICKSTYLE
 70
     1
  9
$CMLSTYLE
  2
STANDARD
  9
$CMLJUST
 70
     0
  9
$CMLSCALE
 40
1.0
  9
$SAVEIMAGES
 70
     1
  0
ENDSEC
  0
SECTION
  2
CLASSES
  0
CLASS
  1
ACDBDICTIONARYWDFLT
  2
AcDbDictionaryWithDefault
  3
AutoCAD 2000
 90
    32768
280
     0
281
     0
  0
CLASS
  1
ACDBPLACEHOLDER
  2
AcDbPlaceHolder
  3
AutoCAD 2000
 90
    32768
280
     0
281
     0
  0
CLASS
  1
LAYOUT
  2
AcDbLayout
  3
AutoCAD 2000
 90
    32768
280
     0
281
     0
  0
CLASS
  1
LONG_TRANSACTION
  2
AcDbLongTransaction
  3
AutoCAD 2000
 90
    32768
280
     0
281
     0
  0
CLASS
  1
LWPOLYLINE
  2
AcDbPolyline
  3
AutoCAD 2000
 90
    32768
280
     0
281
     1
  0
CLASS
  1
HATCH
  2
AcDbHatch
  3
AutoCAD 2000
 90
    32768
280
     0
281
     1
  0
CLASS
  1
XRECORD
  2
AcDbXrecord
  3
AutoCAD 2000
 90
    32768
280
     0
281
     0
  0
ENDSEC
  0
SECTION
  2
TABLES
  0
TABLE
  2
VPORT
  5
8
330
0
100
AcDbSymbolTable
 70
     3
  0
VPORT
  5
4006
330
8
100
AcDbSymbolTableRecord
100
AcDbViewportTableRecord
  2
*ACTIVE
 70
     0
 10
0.0
 20
0.0
 11
1.0
 21
1.0
 12
36.23637257166342
 22
27.22054955540495
 13
0.0
 23
0.0
 14
1.0
 24
1.0
 15
0.0
 25
0.0
 16
0.0
 26
0.0
 36
1.0
 17
0.0
 27
0.0
 37
0.0
 40
4.555243980940439
 41
1.831013916500993
 42
50.0
 43
0.0
 44
0.0
 50
0.0
 51
0.0
 71
     0
 72
   100
 73
     1
 74
     1
 75
     0
 76
     0
 77
     0
 78
     0
  0
ENDTAB
  0
TABLE
  2
LTYPE
  5
5
330
0
100
AcDbSymbolTable
 70
    25
  0
LTYPE
  5
13
330
5
100
AcDbSymbolTableRecord
100
AcDbLinetypeTableRecord
  2
BYBLOCK
 70
     0
  3

 72
    65
 73
     0
 40
0.0
  0
LTYPE
  5
14
330
5
100
AcDbSymbolTableRecord
100
AcDbLinetypeTableRecord
  2
BYLAYER
 70
     0
  3

 72
    65
 73
     0
 40
0.0
  0
LTYPE
  5
15
330
5
100
AcDbSymbolTableRecord
100
AcDbLinetypeTableRecord
  2
CONTINUOUS
 70
     0
  3
Solid line
 72
    65
 73
     0
 40
0.0
  0
LTYPE
  5
22
330
5
100
AcDbSymbolTableRecord
100
AcDbLinetypeTableRecord
  2
BORDER
 70
     0
  3
__ __ . __ __ . __ __ . __ __ . __ __ . __ __ .
 72
    65
 73
     6
 40
1.75
 49
0.5
 74
     0
 49
-0.25
 74
     0
 49
0.5
 74
     0
 49
-0.25
 74
     0
 49
0.5
 74
     0
 49
-0.25
 74
     0
  0
LTYPE
  5
23
330
5
100
AcDbSymbolTableRecord
100
AcDbLinetypeTableRecord
  2
BORDER2
 70
     0
  3
__.__.__.__.__.__.__.__.__.__.__.__.__.__.__.__
 72
    65
 73
     6
 40
0.875
 49
0.25
 74
     0
 49
-0.125
 74
     0
 49
0.25
 74
     0
 49
-0.125
 74
     0
 49
0.25
 74
     0
 49
-0.125
 74
     0
  0
LTYPE
  5
24
330
5
100
AcDbSymbolTableRecord
100
AcDbLinetypeTableRecord
  2
BORDERX2
 70
     0
  3
____  ____  .  ____  ____  .  
 72
    65
 73
     6
 40
3.5
 49
1.0
 74
     0
 49
-0.5
 74
     0
 49
1.0
 74
     0
 49
-0.5
 74
     0
 49
1.0
 74
     0
 49
-0.5
 74
     0
  0
LTYPE
  5
25
330
5
100
AcDbSymbolTableRecord
100
AcDbLinetypeTableRecord
  2
CENTER
 70
     0
  3
____ _ ____ _ ____ _ ____ _ ____ _ ____ _ ____
 72
    65
 73
     4
 40
2.0
 49
1.25
 74
     0
 49
-0.25
 74
     0
 49
0.25
 74
     0
 49
-0.25
 74
     0
  0
LTYPE
  5
26
330
5
100
AcDbSymbolTableRecord
100
AcDbLinetypeTableRecord
  2
CENTER2
 70
     0
  3
____ _ ____ _ ____ _ ____ _ ____ _ ____ _ ____
 72
    65
 73
     4
 40
1.125
 49
0.75
 74
     0
 49
-0.125
 74
     0
 49
0.125
 74
     0
 49
-0.125
 74
     0
  0
LTYPE
  5
27
330
5
100
AcDbSymbolTableRecord
100
AcDbLinetypeTableRecord
  2
CENTERX2
 70
     0
  3
________  __  ________  __  ________  __  
 72
    65
 73
     4
 40
4.0
 49
2.5
 74
     0
 49
-0.5
 74
     0
 49
0.5
 74
     0
 49
-0.5
 74
     0
  0
LTYPE
  5
28
330
5
100
AcDbSymbolTableRecord
100
AcDbLinetypeTableRecord
  2
DASHDOT
 70
     0
  3
__ . __ . __ . __ . __ . __ . __ . 
 72
    65
 73
     4
 40
1.0
 49
0.5
 74
     0
 49
-0.25
 74
     0
 49
0.0
 74
     0
 49
-0.25
 74
     0
  0
LTYPE
  5
29
330
5
100
AcDbSymbolTableRecord
100
AcDbLinetypeTableRecord
  2
DASHDOT2
 70
     0
  3
_._._._._._._._._._._._._._._._.
 72
    65
 73
     4
 40
0.5
 49
0.25
 74
     0
 49
-0.125
 74
     0
 49
0.0
 74
     0
 49
-0.125
 74
     0
  0
LTYPE
  5
2A
330
5
100
AcDbSymbolTableRecord
100
AcDbLinetypeTableRecord
  2
DASHDOTX2
 70
     0
  3
____  .  ____  .  ____  .  ____  .  
 72
    65
 73
     4
 40
2.0
 49
1.0
 74
     0
 49
-0.5
 74
     0
 49
0.0
 74
     0
 49
-0.5
 74
     0
  0
LTYPE
  5
2B
330
5
100
AcDbSymbolTableRecord
100
AcDbLinetypeTableRecord
  2
DASHED
 70
     0
  3
__ __ __ __ __ __ __ __ __ __ __ __ 
 72
    65
 73
     2
 40
0.75
 49
0.5
 74
     0
 49
-0.25
 74
     0
  0
LTYPE
  5
2C
330
5
100
AcDbSymbolTableRecord
100
AcDbLinetypeTableRecord
  2
DASHED2
 70
     0
  3
_ _ _ _ _ _ _ _ _ _ _ _ _ _ _ _ _ _ 
 72
    65
 73
     2
 40
0.375
 49
0.25
 74
     0
 49
-0.125
 74
     0
  0
LTYPE
  5
2D
330
5
100
AcDbSymbolTableRecord
100
AcDbLinetypeTableRecord
  2
DASHEDX2
 70
     0
  3
____  ____  ____  ____  ____  ____  
 72
    65
 73
     2
 40
1.5
 49
1.0
 74
     0
 49
-0.5
 74
     0
  0
LTYPE
  5
2E
330
5
100
AcDbSymbolTableRecord
100
AcDbLinetypeTableRecord
  2
DIVIDE
 70
     0
  3
____ . . ____ . . ____ . . ____ . . 
 72
    65
 73
     6
 40
1.25
 49
0.5
 74
     0
 49
-0.25
 74
     0
 49
0.0
 74
     0
 49
-0.25
 74
     0
 49
0.0
 74
     0
 49
-0.25
 74
     0
  0
LTYPE
  5
2F
330
5
100
AcDbSymbolTableRecord
100
AcDbLinetypeTableRecord
  2
DIVIDE2
 70
     0
  3
__..__..__..__..__..__..__..__..__..
 72
    65
 73
     6
 40
0.625
 49
0.25
 74
     0
 49
-0.125
 74
     0
 49
0.0
 74
     0
 49
-0.125
 74
     0
 49
0.0
 74
     0
 49
-0.125
 74
     0
  0
LTYPE
  5
30
330
5
100
AcDbSymbolTableRecord
100
AcDbLinetypeTableRecord
  2
DIVIDEX2
 70
     0
  3
________  .  .  ________  .  .  ________  .  . 
 72
    65
 73
     6
 40
2.5
 49
1.0
 74
     0
 49
-0.5
 74
     0
 49
0.0
 74
     0
 49
-0.5
 74
     0
 49
0.0
 74
     0
 49
-0.5
 74
     0
  0
LTYPE
  5
31
330
5
100
AcDbSymbolTableRecord
100
AcDbLinetypeTableRecord
  2
DOT
 70
     0
  3
. . . . . . . . . . . . . . . . . . 
 72
    65
 73
     2
 40
0.25
 49
0.0
 74
     0
 49
-0.25
 74
     0
  0
LTYPE
  5
32
330
5
100
AcDbSymbolTableRecord
100
AcDbLinetypeTableRecord
  2
DOT2
 70
     0
  3
....................................
 72
    65
 73
     2
 40
0.125
 49
0.0
 74
     0
 49
-0.125
 74
     0
  0
LTYPE
  5
33
330
5
100
AcDbSymbolTableRecord
100
AcDbLinetypeTableRecord
  2
DOTX2
 70
     0
  3
.  .  .  .  .  .  .  .  .  .  .  .  .  
 72
    65
 73
     2
 40
0.5
 49
0.0
 74
     0
 49
-0.5
 74
     0
  0
LTYPE
  5
34
330
5
100
AcDbSymbolTableRecord
100
AcDbLinetypeTableRecord
  2
HIDDEN
 70
     0
  3
__ __ __ __ __ __ __ __ __ __ __ __ 
 72
    65
 73
     2
 40
0.375
 49
0.25
 74
     0
 49
-0.125
 74
     0
  0
LTYPE
  5
35
330
5
100
AcDbSymbolTableRecord
100
AcDbLinetypeTableRecord
  2
HIDDEN2
 70
     0
  3
_ _ _ _ _ _ _ _ _ _ _ _ _ _ _ _ _ _ 
 72
    65
 73
     2
 40
0.1875
 49
0.125
 74
     0
 49
-0.0625
 74
     0
  0
LTYPE
  5
36
330
5
100
AcDbSymbolTableRecord
100
AcDbLinetypeTableRecord
  2
HIDDENX2
 70
     0
  3
____ ____ ____ ____ ____ ____ ____ 
 72
    65
 73
     2
 40
0.75
 49
0.5
 74
     0
 49
-0.25
 74
     0
  0
LTYPE
  5
37
330
5
100
AcDbSymbolTableRecord
100
AcDbLinetypeTableRecord
  2
PHANTOM
 70
     0
  3
______  __  __  ______  __  __  
 72
    65
 73
     6
 40
2.5
 49
1.25
 74
     0
 49
-0.25
 74
     0
 49
0.25
 74
     0
 49
-0.25
 74
     0
 49
0.25
 74
     0
 49
-0.25
 74
     0
  0
LTYPE
  5
38
330
5
100
AcDbSymbolTableRecord
100
AcDbLinetypeTableRecord
  2
PHANTOM2
 70
     0
  3
___ _ _ ___ _ _ ___ _ _ ___ _ _ 
 72
    65
 73
     6
 40
1.25
 49
0.625
 74
     0
 49
-0.125
 74
     0
 49
0.125
 74
     0
 49
-0.125
 74
     0
 49
0.125
 74
     0
 49
-0.125
 74
     0
  0
LTYPE
  5
39
330
5
100
AcDbSymbolTableRecord
100
AcDbLinetypeTableRecord
  2
PHANTOMX2
 70
     0
  3
___ _ _ ___ _ _ ___ _ _ ___ _ _ 
 72
    65
 73
     6
 40
5.0
 49
2.5
 74
     0
 49
-0.5
 74
     0
 49
0.5
 74
     0
 49
-0.5
 74
     0
 49
0.5
 74
     0
 49
-0.5
 74
     0
  0
ENDTAB
  0
TABLE
  2
LAYER
  5
2
330
0
100
AcDbSymbolTable
 70
   256
  0
LAYER
  5
10
330
2
100
AcDbSymbolTableRecord
100
AcDbLayerTableRecord
  2
0
 70
     0
 62
     7
  6
CONTINUOUS
  0
LAYER
  5
3A
330
2
100
AcDbSymbolTableRecord
100
AcDbLayerTableRecord
  2
1
 70
     0
 62
     1
  6
CONTINUOUS
  0
LAYER
  5
3B
330
2
100
AcDbSymbolTableRecord
100
AcDbLayerTableRecord
  2
2
 70
     0
 62
     2
  6
CONTINUOUS
  0
LAYER
  5
3C
330
2
100
AcDbSymbolTableRecord
100
AcDbLayerTableRecord
  2
3
 70
     0
 62
     3
  6
CONTINUOUS
  0
LAYER
  5
3D
330
2
100
AcDbSymbolTableRecord
100
AcDbLayerTableRecord
  2
4
 70
     0
 62
     4
  6
CONTINUOUS
  0
LAYER
  5
3E
330
2
100
AcDbSymbolTableRecord
100
AcDbLayerTableRecord
  2
5
 70
     0
 62
     5
  6
CONTINUOUS
  0
LAYER
  5
3F
330
2
100
AcDbSymbolTableRecord
100
AcDbLayerTableRecord
  2
6
 70
     0
 62
     6
  6
CONTINUOUS
  0
LAYER
  5
40
330
2
100
AcDbSymbolTableRecord
100
AcDbLayerTableRecord
  2
7
 70
     0
 62
     7
  6
CONTINUOUS
  0
LAYER
  5
41
330
2
100
AcDbSymbolTableRecord
100
AcDbLayerTableRecord
  2
8
 70
     0
 62
     8
  6
CONTINUOUS
  0
LAYER
  5
42
330
2
100
AcDbSymbolTableRecord
100
AcDbLayerTableRecord
  2
9
 70
     0
 62
     9
  6
CONTINUOUS
  0
LAYER
  5
43
330
2
100
AcDbSymbolTableRecord
100
AcDbLayerTableRecord
  2
10
 70
     0
 62
    10
  6
CONTINUOUS
  0
LAYER
  5
44
330
2
100
AcDbSymbolTableRecord
100
AcDbLayerTableRecord
  2
11
 70
     0
 62
    11
  6
CONTINUOUS
  0
LAYER
  5
45
330
2
100
AcDbSymbolTableRecord
100
AcDbLayerTableRecord
  2
12
 70
     0
 62
    12
  6
CONTINUOUS
  0
LAYER
  5
46
330
2
100
AcDbSymbolTableRecord
100
AcDbLayerTableRecord
  2
13
 70
     0
 62
    13
  6
CONTINUOUS
  0
LAYER
  5
47
330
2
100
AcDbSymbolTableRecord
100
AcDbLayerTableRecord
  2
14
 70
     0
 62
    14
  6
CONTINUOUS
  0
LAYER
  5
48
330
2
100
AcDbSymbolTableRecord
100
AcDbLayerTableRecord
  2
15
 70
     0
 62
    15
  6
CONTINUOUS
  0
LAYER
  5
49
330
2
100
AcDbSymbolTableRecord
100
AcDbLayerTableRecord
  2
16
 70
     0
 62
    16
  6
CONTINUOUS
  0
LAYER
  5
4A
330
2
100
AcDbSymbolTableRecord
100
AcDbLayerTableRecord
  2
17
 70
     0
 62
    17
  6
CONTINUOUS
  0
LAYER
  5
4B
330
2
100
AcDbSymbolTableRecord
100
AcDbLayerTableRecord
  2
18
 70
     0
 62
    18
  6
CONTINUOUS
  0
LAYER
  5
4C
330
2
100
AcDbSymbolTableRecord
100
AcDbLayerTableRecord
  2
19
 70
     0
 62
    19
  6
CONTINUOUS
  0
LAYER
  5
4D
330
2
100
AcDbSymbolTableRecord
100
AcDbLayerTableRecord
  2
20
 70
     0
 62
    20
  6
CONTINUOUS
  0
LAYER
  5
4E
330
2
100
AcDbSymbolTableRecord
100
AcDbLayerTableRecord
  2
21
 70
     0
 62
    21
  6
CONTINUOUS
  0
LAYER
  5
4F
330
2
100
AcDbSymbolTableRecord
100
AcDbLayerTableRecord
  2
22
 70
     0
 62
    22
  6
CONTINUOUS
  0
LAYER
  5
50
330
2
100
AcDbSymbolTableRecord
100
AcDbLayerTableRecord
  2
23
 70
     0
 62
    23
  6
CONTINUOUS
  0
LAYER
  5
51
330
2
100
AcDbSymbolTableRecord
100
AcDbLayerTableRecord
  2
24
 70
     0
 62
    24
  6
CONTINUOUS
  0
LAYER
  5
52
330
2
100
AcDbSymbolTableRecord
100
AcDbLayerTableRecord
  2
25
 70
     0
 62
    25
  6
CONTINUOUS
  0
LAYER
  5
53
330
2
100
AcDbSymbolTableRecord
100
AcDbLayerTableRecord
  2
26
 70
     0
 62
    26
  6
CONTINUOUS
  0
LAYER
  5
54
330
2
100
AcDbSymbolTableRecord
100
AcDbLayerTableRecord
  2
27
 70
     0
 62
    27
  6
CONTINUOUS
  0
LAYER
  5
55
330
2
100
AcDbSymbolTableRecord
100
AcDbLayerTableRecord
  2
28
 70
     0
 62
    28
  6
CONTINUOUS
  0
LAYER
  5
56
330
2
100
AcDbSymbolTableRecord
100
AcDbLayerTableRecord
  2
29
 70
     0
 62
    29
  6
CONTINUOUS
  0
LAYER
  5
57
330
2
100
AcDbSymbolTableRecord
100
AcDbLayerTableRecord
  2
30
 70
     0
 62
    30
  6
CONTINUOUS
  0
LAYER
  5
58
330
2
100
AcDbSymbolTableRecord
100
AcDbLayerTableRecord
  2
31
 70
     0
 62
    31
  6
CONTINUOUS
  0
LAYER
  5
59
330
2
100
AcDbSymbolTableRecord
100
AcDbLayerTableRecord
  2
32
 70
     0
 62
    32
  6
CONTINUOUS
  0
LAYER
  5
5A
330
2
100
AcDbSymbolTableRecord
100
AcDbLayerTableRecord
  2
33
 70
     0
 62
    33
  6
CONTINUOUS
  0
LAYER
  5
5B
330
2
100
AcDbSymbolTableRecord
100
AcDbLayerTableRecord
  2
34
 70
     0
 62
    34
  6
CONTINUOUS
  0
LAYER
  5
5C
330
2
100
AcDbSymbolTableRecord
100
AcDbLayerTableRecord
  2
35
 70
     0
 62
    35
  6
CONTINUOUS
  0
LAYER
  5
5D
330
2
100
AcDbSymbolTableRecord
100
AcDbLayerTableRecord
  2
36
 70
     0
 62
    36
  6
CONTINUOUS
  0
LAYER
  5
5E
330
2
100
AcDbSymbolTableRecord
100
AcDbLayerTableRecord
  2
37
 70
     0
 62
    37
  6
CONTINUOUS
  0
LAYER
  5
5F
330
2
100
AcDbSymbolTableRecord
100
AcDbLayerTableRecord
  2
38
 70
     0
 62
    38
  6
CONTINUOUS
  0
LAYER
  5
60
330
2
100
AcDbSymbolTableRecord
100
AcDbLayerTableRecord
  2
39
 70
     0
 62
    39
  6
CONTINUOUS
  0
LAYER
  5
61
330
2
100
AcDbSymbolTableRecord
100
AcDbLayerTableRecord
  2
40
 70
     0
 62
    40
  6
CONTINUOUS
  0
LAYER
  5
62
330
2
100
AcDbSymbolTableRecord
100
AcDbLayerTableRecord
  2
41
 70
     0
 62
    41
  6
CONTINUOUS
  0
LAYER
  5
63
330
2
100
AcDbSymbolTableRecord
100
AcDbLayerTableRecord
  2
42
 70
     0
 62
    42
  6
CONTINUOUS
  0
LAYER
  5
64
330
2
100
AcDbSymbolTableRecord
100
AcDbLayerTableRecord
  2
43
 70
     0
 62
    43
  6
CONTINUOUS
  0
LAYER
  5
65
330
2
100
AcDbSymbolTableRecord
100
AcDbLayerTableRecord
  2
44
 70
     0
 62
    44
  6
CONTINUOUS
  0
LAYER
  5
66
330
2
100
AcDbSymbolTableRecord
100
AcDbLayerTableRecord
  2
45
 70
     0
 62
    45
  6
CONTINUOUS
  0
LAYER
  5
67
330
2
100
AcDbSymbolTableRecord
100
AcDbLayerTableRecord
  2
46
 70
     0
 62
    46
  6
CONTINUOUS
  0
LAYER
  5
68
330
2
100
AcDbSymbolTableRecord
100
AcDbLayerTableRecord
  2
47
 70
     0
 62
    47
  6
CONTINUOUS
  0
LAYER
  5
69
330
2
100
AcDbSymbolTableRecord
100
AcDbLayerTableRecord
  2
48
 70
     0
 62
    48
  6
CONTINUOUS
  0
LAYER
  5
6A
330
2
100
AcDbSymbolTableRecord
100
AcDbLayerTableRecord
  2
49
 70
     0
 62
    49
  6
CONTINUOUS
  0
LAYER
  5
6B
330
2
100
AcDbSymbolTableRecord
100
AcDbLayerTableRecord
  2
50
 70
     0
 62
    50
  6
CONTINUOUS
  0
LAYER
  5
6C
330
2
100
AcDbSymbolTableRecord
100
AcDbLayerTableRecord
  2
51
 70
     0
 62
    51
  6
CONTINUOUS
  0
LAYER
  5
6D
330
2
100
AcDbSymbolTableRecord
100
AcDbLayerTableRecord
  2
52
 70
     0
 62
    52
  6
CONTINUOUS
  0
LAYER
  5
6E
330
2
100
AcDbSymbolTableRecord
100
AcDbLayerTableRecord
  2
53
 70
     0
 62
    53
  6
CONTINUOUS
  0
LAYER
  5
6F
330
2
100
AcDbSymbolTableRecord
100
AcDbLayerTableRecord
  2
54
 70
     0
 62
    54
  6
CONTINUOUS
  0
LAYER
  5
70
330
2
100
AcDbSymbolTableRecord
100
AcDbLayerTableRecord
  2
55
 70
     0
 62
    55
  6
CONTINUOUS
  0
LAYER
  5
71
330
2
100
AcDbSymbolTableRecord
100
AcDbLayerTableRecord
  2
56
 70
     0
 62
    56
  6
CONTINUOUS
  0
LAYER
  5
72
330
2
100
AcDbSymbolTableRecord
100
AcDbLayerTableRecord
  2
57
 70
     0
 62
    57
  6
CONTINUOUS
  0
LAYER
  5
73
330
2
100
AcDbSymbolTableRecord
100
AcDbLayerTableRecord
  2
58
 70
     0
 62
    58
  6
CONTINUOUS
  0
LAYER
  5
74
330
2
100
AcDbSymbolTableRecord
100
AcDbLayerTableRecord
  2
59
 70
     0
 62
    59
  6
CONTINUOUS
  0
LAYER
  5
75
330
2
100
AcDbSymbolTableRecord
100
AcDbLayerTableRecord
  2
60
 70
     0
 62
    60
  6
CONTINUOUS
  0
LAYER
  5
76
330
2
100
AcDbSymbolTableRecord
100
AcDbLayerTableRecord
  2
61
 70
     0
 62
    61
  6
CONTINUOUS
  0
LAYER
  5
77
330
2
100
AcDbSymbolTableRecord
100
AcDbLayerTableRecord
  2
62
 70
     0
 62
    62
  6
CONTINUOUS
  0
LAYER
  5
78
330
2
100
AcDbSymbolTableRecord
100
AcDbLayerTableRecord
  2
63
 70
     0
 62
    63
  6
CONTINUOUS
  0
LAYER
  5
79
330
2
100
AcDbSymbolTableRecord
100
AcDbLayerTableRecord
  2
64
 70
     0
 62
    64
  6
CONTINUOUS
  0
LAYER
  5
7A
330
2
100
AcDbSymbolTableRecord
100
AcDbLayerTableRecord
  2
65
 70
     0
 62
    65
  6
CONTINUOUS
  0
LAYER
  5
7B
330
2
100
AcDbSymbolTableRecord
100
AcDbLayerTableRecord
  2
66
 70
     0
 62
    66
  6
CONTINUOUS
  0
LAYER
  5
7C
330
2
100
AcDbSymbolTableRecord
100
AcDbLayerTableRecord
  2
67
 70
     0
 62
    67
  6
CONTINUOUS
  0
LAYER
  5
7D
330
2
100
AcDbSymbolTableRecord
100
AcDbLayerTableRecord
  2
68
 70
     0
 62
    68
  6
CONTINUOUS
  0
LAYER
  5
7E
330
2
100
AcDbSymbolTableRecord
100
AcDbLayerTableRecord
  2
69
 70
     0
 62
    69
  6
CONTINUOUS
  0
LAYER
  5
7F
330
2
100
AcDbSymbolTableRecord
100
AcDbLayerTableRecord
  2
70
 70
     0
 62
    70
  6
CONTINUOUS
  0
LAYER
  5
80
330
2
100
AcDbSymbolTableRecord
100
AcDbLayerTableRecord
  2
71
 70
     0
 62
    71
  6
CONTINUOUS
  0
LAYER
  5
81
330
2
100
AcDbSymbolTableRecord
100
AcDbLayerTableRecord
  2
72
 70
     0
 62
    72
  6
CONTINUOUS
  0
LAYER
  5
82
330
2
100
AcDbSymbolTableRecord
100
AcDbLayerTableRecord
  2
73
 70
     0
 62
    73
  6
CONTINUOUS
  0
LAYER
  5
83
330
2
100
AcDbSymbolTableRecord
100
AcDbLayerTableRecord
  2
74
 70
     0
 62
    74
  6
CONTINUOUS
  0
LAYER
  5
84
330
2
100
AcDbSymbolTableRecord
100
AcDbLayerTableRecord
  2
75
 70
     0
 62
    75
  6
CONTINUOUS
  0
LAYER
  5
85
330
2
100
AcDbSymbolTableRecord
100
AcDbLayerTableRecord
  2
76
 70
     0
 62
    76
  6
CONTINUOUS
  0
LAYER
  5
86
330
2
100
AcDbSymbolTableRecord
100
AcDbLayerTableRecord
  2
77
 70
     0
 62
    77
  6
CONTINUOUS
  0
LAYER
  5
87
330
2
100
AcDbSymbolTableRecord
100
AcDbLayerTableRecord
  2
78
 70
     0
 62
    78
  6
CONTINUOUS
  0
LAYER
  5
88
330
2
100
AcDbSymbolTableRecord
100
AcDbLayerTableRecord
  2
79
 70
     0
 62
    79
  6
CONTINUOUS
  0
LAYER
  5
89
330
2
100
AcDbSymbolTableRecord
100
AcDbLayerTableRecord
  2
80
 70
     0
 62
    80
  6
CONTINUOUS
  0
LAYER
  5
8A
330
2
100
AcDbSymbolTableRecord
100
AcDbLayerTableRecord
  2
81
 70
     0
 62
    81
  6
CONTINUOUS
  0
LAYER
  5
8B
330
2
100
AcDbSymbolTableRecord
100
AcDbLayerTableRecord
  2
82
 70
     0
 62
    82
  6
CONTINUOUS
  0
LAYER
  5
8C
330
2
100
AcDbSymbolTableRecord
100
AcDbLayerTableRecord
  2
83
 70
     0
 62
    83
  6
CONTINUOUS
  0
LAYER
  5
8D
330
2
100
AcDbSymbolTableRecord
100
AcDbLayerTableRecord
  2
84
 70
     0
 62
    84
  6
CONTINUOUS
  0
LAYER
  5
8E
330
2
100
AcDbSymbolTableRecord
100
AcDbLayerTableRecord
  2
85
 70
     0
 62
    85
  6
CONTINUOUS
  0
LAYER
  5
8F
330
2
100
AcDbSymbolTableRecord
100
AcDbLayerTableRecord
  2
86
 70
     0
 62
    86
  6
CONTINUOUS
  0
LAYER
  5
90
330
2
100
AcDbSymbolTableRecord
100
AcDbLayerTableRecord
  2
87
 70
     0
 62
    87
  6
CONTINUOUS
  0
LAYER
  5
91
330
2
100
AcDbSymbolTableRecord
100
AcDbLayerTableRecord
  2
88
 70
     0
 62
    88
  6
CONTINUOUS
  0
LAYER
  5
92
330
2
100
AcDbSymbolTableRecord
100
AcDbLayerTableRecord
  2
89
 70
     0
 62
    89
  6
CONTINUOUS
  0
LAYER
  5
93
330
2
100
AcDbSymbolTableRecord
100
AcDbLayerTableRecord
  2
90
 70
     0
 62
    90
  6
CONTINUOUS
  0
LAYER
  5
94
330
2
100
AcDbSymbolTableRecord
100
AcDbLayerTableRecord
  2
91
 70
     0
 62
    91
  6
CONTINUOUS
  0
LAYER
  5
95
330
2
100
AcDbSymbolTableRecord
100
AcDbLayerTableRecord
  2
92
 70
     0
 62
    92
  6
CONTINUOUS
  0
LAYER
  5
96
330
2
100
AcDbSymbolTableRecord
100
AcDbLayerTableRecord
  2
93
 70
     0
 62
    93
  6
CONTINUOUS
  0
LAYER
  5
97
330
2
100
AcDbSymbolTableRecord
100
AcDbLayerTableRecord
  2
94
 70
     0
 62
    94
  6
CONTINUOUS
  0
LAYER
  5
98
330
2
100
AcDbSymbolTableRecord
100
AcDbLayerTableRecord
  2
95
 70
     0
 62
    95
  6
CONTINUOUS
  0
LAYER
  5
99
330
2
100
AcDbSymbolTableRecord
100
AcDbLayerTableRecord
  2
96
 70
     0
 62
    96
  6
CONTINUOUS
  0
LAYER
  5
9A
330
2
100
AcDbSymbolTableRecord
100
AcDbLayerTableRecord
  2
97
 70
     0
 62
    97
  6
CONTINUOUS
  0
LAYER
  5
9B
330
2
100
AcDbSymbolTableRecord
100
AcDbLayerTableRecord
  2
98
 70
     0
 62
    98
  6
CONTINUOUS
  0
LAYER
  5
9C
330
2
100
AcDbSymbolTableRecord
100
AcDbLayerTableRecord
  2
99
 70
     0
 62
    99
  6
CONTINUOUS
  0
LAYER
  5
9D
330
2
100
AcDbSymbolTableRecord
100
AcDbLayerTableRecord
  2
100
 70
     0
 62
   100
  6
CONTINUOUS
  0
LAYER
  5
9E
330
2
100
AcDbSymbolTableRecord
100
AcDbLayerTableRecord
  2
101
 70
     0
 62
   101
  6
CONTINUOUS
  0
LAYER
  5
9F
330
2
100
AcDbSymbolTableRecord
100
AcDbLayerTableRecord
  2
102
 70
     0
 62
   102
  6
CONTINUOUS
  0
LAYER
  5
A0
330
2
100
AcDbSymbolTableRecord
100
AcDbLayerTableRecord
  2
103
 70
     0
 62
   103
  6
CONTINUOUS
  0
LAYER
  5
A1
330
2
100
AcDbSymbolTableRecord
100
AcDbLayerTableRecord
  2
104
 70
     0
 62
   104
  6
CONTINUOUS
  0
LAYER
  5
A2
330
2
100
AcDbSymbolTableRecord
100
AcDbLayerTableRecord
  2
105
 70
     0
 62
   105
  6
CONTINUOUS
  0
LAYER
  5
A3
330
2
100
AcDbSymbolTableRecord
100
AcDbLayerTableRecord
  2
106
 70
     0
 62
   106
  6
CONTINUOUS
  0
LAYER
  5
A4
330
2
100
AcDbSymbolTableRecord
100
AcDbLayerTableRecord
  2
107
 70
     0
 62
   107
  6
CONTINUOUS
  0
LAYER
  5
A5
330
2
100
AcDbSymbolTableRecord
100
AcDbLayerTableRecord
  2
108
 70
     0
 62
   108
  6
CONTINUOUS
  0
LAYER
  5
A6
330
2
100
AcDbSymbolTableRecord
100
AcDbLayerTableRecord
  2
109
 70
     0
 62
   109
  6
CONTINUOUS
  0
LAYER
  5
A7
330
2
100
AcDbSymbolTableRecord
100
AcDbLayerTableRecord
  2
110
 70
     0
 62
   110
  6
CONTINUOUS
  0
LAYER
  5
A8
330
2
100
AcDbSymbolTableRecord
100
AcDbLayerTableRecord
  2
111
 70
     0
 62
   111
  6
CONTINUOUS
  0
LAYER
  5
A9
330
2
100
AcDbSymbolTableRecord
100
AcDbLayerTableRecord
  2
112
 70
     0
 62
   112
  6
CONTINUOUS
  0
LAYER
  5
AA
330
2
100
AcDbSymbolTableRecord
100
AcDbLayerTableRecord
  2
113
 70
     0
 62
   113
  6
CONTINUOUS
  0
LAYER
  5
AB
330
2
100
AcDbSymbolTableRecord
100
AcDbLayerTableRecord
  2
114
 70
     0
 62
   114
  6
CONTINUOUS
  0
LAYER
  5
AC
330
2
100
AcDbSymbolTableRecord
100
AcDbLayerTableRecord
  2
115
 70
     0
 62
   115
  6
CONTINUOUS
  0
LAYER
  5
AD
330
2
100
AcDbSymbolTableRecord
100
AcDbLayerTableRecord
  2
116
 70
     0
 62
   116
  6
CONTINUOUS
  0
LAYER
  5
AE
330
2
100
AcDbSymbolTableRecord
100
AcDbLayerTableRecord
  2
117
 70
     0
 62
   117
  6
CONTINUOUS
  0
LAYER
  5
AF
330
2
100
AcDbSymbolTableRecord
100
AcDbLayerTableRecord
  2
118
 70
     0
 62
   118
  6
CONTINUOUS
  0
LAYER
  5
B0
330
2
100
AcDbSymbolTableRecord
100
AcDbLayerTableRecord
  2
119
 70
     0
 62
   119
  6
CONTINUOUS
  0
LAYER
  5
B1
330
2
100
AcDbSymbolTableRecord
100
AcDbLayerTableRecord
  2
120
 70
     0
 62
   120
  6
CONTINUOUS
  0
LAYER
  5
B2
330
2
100
AcDbSymbolTableRecord
100
AcDbLayerTableRecord
  2
121
 70
     0
 62
   121
  6
CONTINUOUS
  0
LAYER
  5
B3
330
2
100
AcDbSymbolTableRecord
100
AcDbLayerTableRecord
  2
122
 70
     0
 62
   122
  6
CONTINUOUS
  0
LAYER
  5
B4
330
2
100
AcDbSymbolTableRecord
100
AcDbLayerTableRecord
  2
123
 70
     0
 62
   123
  6
CONTINUOUS
  0
LAYER
  5
B5
330
2
100
AcDbSymbolTableRecord
100
AcDbLayerTableRecord
  2
124
 70
     0
 62
   124
  6
CONTINUOUS
  0
LAYER
  5
B6
330
2
100
AcDbSymbolTableRecord
100
AcDbLayerTableRecord
  2
125
 70
     0
 62
   125
  6
CONTINUOUS
  0
LAYER
  5
B7
330
2
100
AcDbSymbolTableRecord
100
AcDbLayerTableRecord
  2
126
 70
     0
 62
   126
  6
CONTINUOUS
  0
LAYER
  5
B8
330
2
100
AcDbSymbolTableRecord
100
AcDbLayerTableRecord
  2
127
 70
     0
 62
   127
  6
CONTINUOUS
  0
LAYER
  5
B9
330
2
100
AcDbSymbolTableRecord
100
AcDbLayerTableRecord
  2
128
 70
     0
 62
   128
  6
CONTINUOUS
  0
LAYER
  5
BA
330
2
100
AcDbSymbolTableRecord
100
AcDbLayerTableRecord
  2
129
 70
     0
 62
   129
  6
CONTINUOUS
  0
LAYER
  5
BB
330
2
100
AcDbSymbolTableRecord
100
AcDbLayerTableRecord
  2
130
 70
     0
 62
   130
  6
CONTINUOUS
  0
LAYER
  5
BC
330
2
100
AcDbSymbolTableRecord
100
AcDbLayerTableRecord
  2
131
 70
     0
 62
   131
  6
CONTINUOUS
  0
LAYER
  5
BD
330
2
100
AcDbSymbolTableRecord
100
AcDbLayerTableRecord
  2
132
 70
     0
 62
   132
  6
CONTINUOUS
  0
LAYER
  5
BE
330
2
100
AcDbSymbolTableRecord
100
AcDbLayerTableRecord
  2
133
 70
     0
 62
   133
  6
CONTINUOUS
  0
LAYER
  5
BF
330
2
100
AcDbSymbolTableRecord
100
AcDbLayerTableRecord
  2
134
 70
     0
 62
   134
  6
CONTINUOUS
  0
LAYER
  5
C0
330
2
100
AcDbSymbolTableRecord
100
AcDbLayerTableRecord
  2
135
 70
     0
 62
   135
  6
CONTINUOUS
  0
LAYER
  5
C1
330
2
100
AcDbSymbolTableRecord
100
AcDbLayerTableRecord
  2
136
 70
     0
 62
   136
  6
CONTINUOUS
  0
LAYER
  5
C2
330
2
100
AcDbSymbolTableRecord
100
AcDbLayerTableRecord
  2
137
 70
     0
 62
   137
  6
CONTINUOUS
  0
LAYER
  5
C3
330
2
100
AcDbSymbolTableRecord
100
AcDbLayerTableRecord
  2
138
 70
     0
 62
   138
  6
CONTINUOUS
  0
LAYER
  5
C4
330
2
100
AcDbSymbolTableRecord
100
AcDbLayerTableRecord
  2
139
 70
     0
 62
   139
  6
CONTINUOUS
  0
LAYER
  5
C5
330
2
100
AcDbSymbolTableRecord
100
AcDbLayerTableRecord
  2
140
 70
     0
 62
   140
  6
CONTINUOUS
  0
LAYER
  5
C6
330
2
100
AcDbSymbolTableRecord
100
AcDbLayerTableRecord
  2
141
 70
     0
 62
   141
  6
CONTINUOUS
  0
LAYER
  5
C7
330
2
100
AcDbSymbolTableRecord
100
AcDbLayerTableRecord
  2
142
 70
     0
 62
   142
  6
CONTINUOUS
  0
LAYER
  5
C8
330
2
100
AcDbSymbolTableRecord
100
AcDbLayerTableRecord
  2
143
 70
     0
 62
   143
  6
CONTINUOUS
  0
LAYER
  5
C9
330
2
100
AcDbSymbolTableRecord
100
AcDbLayerTableRecord
  2
144
 70
     0
 62
   144
  6
CONTINUOUS
  0
LAYER
  5
CA
330
2
100
AcDbSymbolTableRecord
100
AcDbLayerTableRecord
  2
145
 70
     0
 62
   145
  6
CONTINUOUS
  0
LAYER
  5
CB
330
2
100
AcDbSymbolTableRecord
100
AcDbLayerTableRecord
  2
146
 70
     0
 62
   146
  6
CONTINUOUS
  0
LAYER
  5
CC
330
2
100
AcDbSymbolTableRecord
100
AcDbLayerTableRecord
  2
147
 70
     0
 62
   147
  6
CONTINUOUS
  0
LAYER
  5
CD
330
2
100
AcDbSymbolTableRecord
100
AcDbLayerTableRecord
  2
148
 70
     0
 62
   148
  6
CONTINUOUS
  0
LAYER
  5
CE
330
2
100
AcDbSymbolTableRecord
100
AcDbLayerTableRecord
  2
149
 70
     0
 62
   149
  6
CONTINUOUS
  0
LAYER
  5
CF
330
2
100
AcDbSymbolTableRecord
100
AcDbLayerTableRecord
  2
150
 70
     0
 62
   150
  6
CONTINUOUS
  0
LAYER
  5
D0
330
2
100
AcDbSymbolTableRecord
100
AcDbLayerTableRecord
  2
151
 70
     0
 62
   151
  6
CONTINUOUS
  0
LAYER
  5
D1
330
2
100
AcDbSymbolTableRecord
100
AcDbLayerTableRecord
  2
152
 70
     0
 62
   152
  6
CONTINUOUS
  0
LAYER
  5
D2
330
2
100
AcDbSymbolTableRecord
100
AcDbLayerTableRecord
  2
153
 70
     0
 62
   153
  6
CONTINUOUS
  0
LAYER
  5
D3
330
2
100
AcDbSymbolTableRecord
100
AcDbLayerTableRecord
  2
154
 70
     0
 62
   154
  6
CONTINUOUS
  0
LAYER
  5
D4
330
2
100
AcDbSymbolTableRecord
100
AcDbLayerTableRecord
  2
155
 70
     0
 62
   155
  6
CONTINUOUS
  0
LAYER
  5
D5
330
2
100
AcDbSymbolTableRecord
100
AcDbLayerTableRecord
  2
156
 70
     0
 62
   156
  6
CONTINUOUS
  0
LAYER
  5
D6
330
2
100
AcDbSymbolTableRecord
100
AcDbLayerTableRecord
  2
157
 70
     0
 62
   157
  6
CONTINUOUS
  0
LAYER
  5
D7
330
2
100
AcDbSymbolTableRecord
100
AcDbLayerTableRecord
  2
158
 70
     0
 62
   158
  6
CONTINUOUS
  0
LAYER
  5
D8
330
2
100
AcDbSymbolTableRecord
100
AcDbLayerTableRecord
  2
159
 70
     0
 62
   159
  6
CONTINUOUS
  0
LAYER
  5
D9
330
2
100
AcDbSymbolTableRecord
100
AcDbLayerTableRecord
  2
160
 70
     0
 62
   160
  6
CONTINUOUS
  0
LAYER
  5
DA
330
2
100
AcDbSymbolTableRecord
100
AcDbLayerTableRecord
  2
161
 70
     0
 62
   161
  6
CONTINUOUS
  0
LAYER
  5
DB
330
2
100
AcDbSymbolTableRecord
100
AcDbLayerTableRecord
  2
162
 70
     0
 62
   162
  6
CONTINUOUS
  0
LAYER
  5
DC
330
2
100
AcDbSymbolTableRecord
100
AcDbLayerTableRecord
  2
163
 70
     0
 62
   163
  6
CONTINUOUS
  0
LAYER
  5
DD
330
2
100
AcDbSymbolTableRecord
100
AcDbLayerTableRecord
  2
164
 70
     0
 62
   164
  6
CONTINUOUS
  0
LAYER
  5
DE
330
2
100
AcDbSymbolTableRecord
100
AcDbLayerTableRecord
  2
165
 70
     0
 62
   165
  6
CONTINUOUS
  0
LAYER
  5
DF
330
2
100
AcDbSymbolTableRecord
100
AcDbLayerTableRecord
  2
166
 70
     0
 62
   166
  6
CONTINUOUS
  0
LAYER
  5
E0
330
2
100
AcDbSymbolTableRecord
100
AcDbLayerTableRecord
  2
167
 70
     0
 62
   167
  6
CONTINUOUS
  0
LAYER
  5
E1
330
2
100
AcDbSymbolTableRecord
100
AcDbLayerTableRecord
  2
168
 70
     0
 62
   168
  6
CONTINUOUS
  0
LAYER
  5
E2
330
2
100
AcDbSymbolTableRecord
100
AcDbLayerTableRecord
  2
169
 70
     0
 62
   169
  6
CONTINUOUS
  0
LAYER
  5
E3
330
2
100
AcDbSymbolTableRecord
100
AcDbLayerTableRecord
  2
170
 70
     0
 62
   170
  6
CONTINUOUS
  0
LAYER
  5
E4
330
2
100
AcDbSymbolTableRecord
100
AcDbLayerTableRecord
  2
171
 70
     0
 62
   171
  6
CONTINUOUS
  0
LAYER
  5
E5
330
2
100
AcDbSymbolTableRecord
100
AcDbLayerTableRecord
  2
172
 70
     0
 62
   172
  6
CONTINUOUS
  0
LAYER
  5
E6
330
2
100
AcDbSymbolTableRecord
100
AcDbLayerTableRecord
  2
173
 70
     0
 62
   173
  6
CONTINUOUS
  0
LAYER
  5
E7
330
2
100
AcDbSymbolTableRecord
100
AcDbLayerTableRecord
  2
174
 70
     0
 62
   174
  6
CONTINUOUS
  0
LAYER
  5
E8
330
2
100
AcDbSymbolTableRecord
100
AcDbLayerTableRecord
  2
175
 70
     0
 62
   175
  6
CONTINUOUS
  0
LAYER
  5
E9
330
2
100
AcDbSymbolTableRecord
100
AcDbLayerTableRecord
  2
176
 70
     0
 62
   176
  6
CONTINUOUS
  0
LAYER
  5
EA
330
2
100
AcDbSymbolTableRecord
100
AcDbLayerTableRecord
  2
177
 70
     0
 62
   177
  6
CONTINUOUS
  0
LAYER
  5
EB
330
2
100
AcDbSymbolTableRecord
100
AcDbLayerTableRecord
  2
178
 70
     0
 62
   178
  6
CONTINUOUS
  0
LAYER
  5
EC
330
2
100
AcDbSymbolTableRecord
100
AcDbLayerTableRecord
  2
179
 70
     0
 62
   179
  6
CONTINUOUS
  0
LAYER
  5
ED
330
2
100
AcDbSymbolTableRecord
100
AcDbLayerTableRecord
  2
180
 70
     0
 62
   180
  6
CONTINUOUS
  0
LAYER
  5
EE
330
2
100
AcDbSymbolTableRecord
100
AcDbLayerTableRecord
  2
181
 70
     0
 62
   181
  6
CONTINUOUS
  0
LAYER
  5
EF
330
2
100
AcDbSymbolTableRecord
100
AcDbLayerTableRecord
  2
182
 70
     0
 62
   182
  6
CONTINUOUS
  0
LAYER
  5
F0
330
2
100
AcDbSymbolTableRecord
100
AcDbLayerTableRecord
  2
183
 70
     0
 62
   183
  6
CONTINUOUS
  0
LAYER
  5
F1
330
2
100
AcDbSymbolTableRecord
100
AcDbLayerTableRecord
  2
184
 70
     0
 62
   184
  6
CONTINUOUS
  0
LAYER
  5
F2
330
2
100
AcDbSymbolTableRecord
100
AcDbLayerTableRecord
  2
185
 70
     0
 62
   185
  6
CONTINUOUS
  0
LAYER
  5
F3
330
2
100
AcDbSymbolTableRecord
100
AcDbLayerTableRecord
  2
186
 70
     0
 62
   186
  6
CONTINUOUS
  0
LAYER
  5
F4
330
2
100
AcDbSymbolTableRecord
100
AcDbLayerTableRecord
  2
187
 70
     0
 62
   187
  6
CONTINUOUS
  0
LAYER
  5
F5
330
2
100
AcDbSymbolTableRecord
100
AcDbLayerTableRecord
  2
188
 70
     0
 62
   188
  6
CONTINUOUS
  0
LAYER
  5
F6
330
2
100
AcDbSymbolTableRecord
100
AcDbLayerTableRecord
  2
189
 70
     0
 62
   189
  6
CONTINUOUS
  0
LAYER
  5
F7
330
2
100
AcDbSymbolTableRecord
100
AcDbLayerTableRecord
  2
190
 70
     0
 62
   190
  6
CONTINUOUS
  0
LAYER
  5
F8
330
2
100
AcDbSymbolTableRecord
100
AcDbLayerTableRecord
  2
191
 70
     0
 62
   191
  6
CONTINUOUS
  0
LAYER
  5
F9
330
2
100
AcDbSymbolTableRecord
100
AcDbLayerTableRecord
  2
192
 70
     0
 62
   192
  6
CONTINUOUS
  0
LAYER
  5
FA
330
2
100
AcDbSymbolTableRecord
100
AcDbLayerTableRecord
  2
193
 70
     0
 62
   193
  6
CONTINUOUS
  0
LAYER
  5
FB
330
2
100
AcDbSymbolTableRecord
100
AcDbLayerTableRecord
  2
194
 70
     0
 62
   194
  6
CONTINUOUS
  0
LAYER
  5
FC
330
2
100
AcDbSymbolTableRecord
100
AcDbLayerTableRecord
  2
195
 70
     0
 62
   195
  6
CONTINUOUS
  0
LAYER
  5
FD
330
2
100
AcDbSymbolTableRecord
100
AcDbLayerTableRecord
  2
196
 70
     0
 62
   196
  6
CONTINUOUS
  0
LAYER
  5
FE
330
2
100
AcDbSymbolTableRecord
100
AcDbLayerTableRecord
  2
197
 70
     0
 62
   197
  6
CONTINUOUS
  0
LAYER
  5
FF
330
2
100
AcDbSymbolTableRecord
100
AcDbLayerTableRecord
  2
198
 70
     0
 62
   198
  6
CONTINUOUS
  0
LAYER
  5
100
330
2
100
AcDbSymbolTableRecord
100
AcDbLayerTableRecord
  2
199
 70
     0
 62
   199
  6
CONTINUOUS
  0
LAYER
  5
101
330
2
100
AcDbSymbolTableRecord
100
AcDbLayerTableRecord
  2
200
 70
     0
 62
   200
  6
CONTINUOUS
  0
LAYER
  5
102
330
2
100
AcDbSymbolTableRecord
100
AcDbLayerTableRecord
  2
201
 70
     0
 62
   201
  6
CONTINUOUS
  0
LAYER
  5
103
330
2
100
AcDbSymbolTableRecord
100
AcDbLayerTableRecord
  2
202
 70
     0
 62
   202
  6
CONTINUOUS
  0
LAYER
  5
104
330
2
100
AcDbSymbolTableRecord
100
AcDbLayerTableRecord
  2
203
 70
     0
 62
   203
  6
CONTINUOUS
  0
LAYER
  5
105
330
2
100
AcDbSymbolTableRecord
100
AcDbLayerTableRecord
  2
204
 70
     0
 62
   204
  6
CONTINUOUS
  0
LAYER
  5
106
330
2
100
AcDbSymbolTableRecord
100
AcDbLayerTableRecord
  2
205
 70
     0
 62
   205
  6
CONTINUOUS
  0
LAYER
  5
107
330
2
100
AcDbSymbolTableRecord
100
AcDbLayerTableRecord
  2
206
 70
     0
 62
   206
  6
CONTINUOUS
  0
LAYER
  5
108
330
2
100
AcDbSymbolTableRecord
100
AcDbLayerTableRecord
  2
207
 70
     0
 62
   207
  6
CONTINUOUS
  0
LAYER
  5
109
330
2
100
AcDbSymbolTableRecord
100
AcDbLayerTableRecord
  2
208
 70
     0
 62
   208
  6
CONTINUOUS
  0
LAYER
  5
10A
330
2
100
AcDbSymbolTableRecord
100
AcDbLayerTableRecord
  2
209
 70
     0
 62
   209
  6
CONTINUOUS
  0
LAYER
  5
10B
330
2
100
AcDbSymbolTableRecord
100
AcDbLayerTableRecord
  2
210
 70
     0
 62
   210
  6
CONTINUOUS
  0
LAYER
  5
10C
330
2
100
AcDbSymbolTableRecord
100
AcDbLayerTableRecord
  2
211
 70
     0
 62
   211
  6
CONTINUOUS
  0
LAYER
  5
10D
330
2
100
AcDbSymbolTableRecord
100
AcDbLayerTableRecord
  2
212
 70
     0
 62
   212
  6
CONTINUOUS
  0
LAYER
  5
10E
330
2
100
AcDbSymbolTableRecord
100
AcDbLayerTableRecord
  2
213
 70
     0
 62
   213
  6
CONTINUOUS
  0
LAYER
  5
10F
330
2
100
AcDbSymbolTableRecord
100
AcDbLayerTableRecord
  2
214
 70
     0
 62
   214
  6
CONTINUOUS
  0
LAYER
  5
110
330
2
100
AcDbSymbolTableRecord
100
AcDbLayerTableRecord
  2
215
 70
     0
 62
   215
  6
CONTINUOUS
  0
LAYER
  5
111
330
2
100
AcDbSymbolTableRecord
100
AcDbLayerTableRecord
  2
216
 70
     0
 62
   216
  6
CONTINUOUS
  0
LAYER
  5
112
330
2
100
AcDbSymbolTableRecord
100
AcDbLayerTableRecord
  2
217
 70
     0
 62
   217
  6
CONTINUOUS
  0
LAYER
  5
113
330
2
100
AcDbSymbolTableRecord
100
AcDbLayerTableRecord
  2
218
 70
     0
 62
   218
  6
CONTINUOUS
  0
LAYER
  5
114
330
2
100
AcDbSymbolTableRecord
100
AcDbLayerTableRecord
  2
219
 70
     0
 62
   219
  6
CONTINUOUS
  0
LAYER
  5
115
330
2
100
AcDbSymbolTableRecord
100
AcDbLayerTableRecord
  2
220
 70
     0
 62
   220
  6
CONTINUOUS
  0
LAYER
  5
116
330
2
100
AcDbSymbolTableRecord
100
AcDbLayerTableRecord
  2
221
 70
     0
 62
   221
  6
CONTINUOUS
  0
LAYER
  5
117
330
2
100
AcDbSymbolTableRecord
100
AcDbLayerTableRecord
  2
222
 70
     0
 62
   222
  6
CONTINUOUS
  0
LAYER
  5
118
330
2
100
AcDbSymbolTableRecord
100
AcDbLayerTableRecord
  2
223
 70
     0
 62
   223
  6
CONTINUOUS
  0
LAYER
  5
119
330
2
100
AcDbSymbolTableRecord
100
AcDbLayerTableRecord
  2
224
 70
     0
 62
   224
  6
CONTINUOUS
  0
LAYER
  5
11A
330
2
100
AcDbSymbolTableRecord
100
AcDbLayerTableRecord
  2
225
 70
     0
 62
   225
  6
CONTINUOUS
  0
LAYER
  5
11B
330
2
100
AcDbSymbolTableRecord
100
AcDbLayerTableRecord
  2
226
 70
     0
 62
   226
  6
CONTINUOUS
  0
LAYER
  5
11C
330
2
100
AcDbSymbolTableRecord
100
AcDbLayerTableRecord
  2
227
 70
     0
 62
   227
  6
CONTINUOUS
  0
LAYER
  5
11D
330
2
100
AcDbSymbolTableRecord
100
AcDbLayerTableRecord
  2
228
 70
     0
 62
   228
  6
CONTINUOUS
  0
LAYER
  5
11E
330
2
100
AcDbSymbolTableRecord
100
AcDbLayerTableRecord
  2
229
 70
     0
 62
   229
  6
CONTINUOUS
  0
LAYER
  5
11F
330
2
100
AcDbSymbolTableRecord
100
AcDbLayerTableRecord
  2
230
 70
     0
 62
   230
  6
CONTINUOUS
  0
LAYER
  5
120
330
2
100
AcDbSymbolTableRecord
100
AcDbLayerTableRecord
  2
231
 70
     0
 62
   231
  6
CONTINUOUS
  0
LAYER
  5
121
330
2
100
AcDbSymbolTableRecord
100
AcDbLayerTableRecord
  2
232
 70
     0
 62
   232
  6
CONTINUOUS
  0
LAYER
  5
122
330
2
100
AcDbSymbolTableRecord
100
AcDbLayerTableRecord
  2
233
 70
     0
 62
   233
  6
CONTINUOUS
  0
LAYER
  5
123
330
2
100
AcDbSymbolTableRecord
100
AcDbLayerTableRecord
  2
234
 70
     0
 62
   234
  6
CONTINUOUS
  0
LAYER
  5
124
330
2
100
AcDbSymbolTableRecord
100
AcDbLayerTableRecord
  2
235
 70
     0
 62
   235
  6
CONTINUOUS
  0
LAYER
  5
125
330
2
100
AcDbSymbolTableRecord
100
AcDbLayerTableRecord
  2
236
 70
     0
 62
   236
  6
CONTINUOUS
  0
LAYER
  5
126
330
2
100
AcDbSymbolTableRecord
100
AcDbLayerTableRecord
  2
237
 70
     0
 62
   237
  6
CONTINUOUS
  0
LAYER
  5
127
330
2
100
AcDbSymbolTableRecord
100
AcDbLayerTableRecord
  2
238
 70
     0
 62
   238
  6
CONTINUOUS
  0
LAYER
  5
128
330
2
100
AcDbSymbolTableRecord
100
AcDbLayerTableRecord
  2
239
 70
     0
 62
   239
  6
CONTINUOUS
  0
LAYER
  5
129
330
2
100
AcDbSymbolTableRecord
100
AcDbLayerTableRecord
  2
240
 70
     0
 62
   240
  6
CONTINUOUS
  0
LAYER
  5
12A
330
2
100
AcDbSymbolTableRecord
100
AcDbLayerTableRecord
  2
241
 70
     0
 62
   241
  6
CONTINUOUS
  0
LAYER
  5
12B
330
2
100
AcDbSymbolTableRecord
100
AcDbLayerTableRecord
  2
242
 70
     0
 62
   242
  6
CONTINUOUS
  0
LAYER
  5
12C
330
2
100
AcDbSymbolTableRecord
100
AcDbLayerTableRecord
  2
243
 70
     0
 62
   243
  6
CONTINUOUS
  0
LAYER
  5
12D
330
2
100
AcDbSymbolTableRecord
100
AcDbLayerTableRecord
  2
244
 70
     0
 62
   244
  6
CONTINUOUS
  0
LAYER
  5
12E
330
2
100
AcDbSymbolTableRecord
100
AcDbLayerTableRecord
  2
245
 70
     0
 62
   245
  6
CONTINUOUS
  0
LAYER
  5
12F
330
2
100
AcDbSymbolTableRecord
100
AcDbLayerTableRecord
  2
246
 70
     0
 62
   246
  6
CONTINUOUS
  0
LAYER
  5
130
330
2
100
AcDbSymbolTableRecord
100
AcDbLayerTableRecord
  2
247
 70
     0
 62
   247
  6
CONTINUOUS
  0
LAYER
  5
131
330
2
100
AcDbSymbolTableRecord
100
AcDbLayerTableRecord
  2
248
 70
     0
 62
   248
  6
CONTINUOUS
  0
LAYER
  5
132
330
2
100
AcDbSymbolTableRecord
100
AcDbLayerTableRecord
  2
249
 70
     0
 62
   249
  6
CONTINUOUS
  0
LAYER
  5
133
330
2
100
AcDbSymbolTableRecord
100
AcDbLayerTableRecord
  2
250
 70
     0
 62
   250
  6
CONTINUOUS
  0
LAYER
  5
134
330
2
100
AcDbSymbolTableRecord
100
AcDbLayerTableRecord
  2
251
 70
     0
 62
   251
  6
CONTINUOUS
  0
LAYER
  5
135
330
2
100
AcDbSymbolTableRecord
100
AcDbLayerTableRecord
  2
252
 70
     0
 62
   252
  6
CONTINUOUS
  0
LAYER
  5
136
330
2
100
AcDbSymbolTableRecord
100
AcDbLayerTableRecord
  2
253
 70
     0
 62
   253
  6
CONTINUOUS
  0
LAYER
  5
137
330
2
100
AcDbSymbolTableRecord
100
AcDbLayerTableRecord
  2
254
 70
     0
 62
   254
  6
CONTINUOUS
  0
LAYER
  5
138
330
2
100
AcDbSymbolTableRecord
100
AcDbLayerTableRecord
  2
255
 70
     0
 62
   255
  6
CONTINUOUS
  0
ENDTAB
  0
TABLE
  2
STYLE
  5
3
330
0
100
AcDbSymbolTable
 70
     1
  0
STYLE
  5
11
330
3
100
AcDbSymbolTableRecord
100
AcDbTextStyleTableRecord
  2
STANDARD
 70
     0
 40
0.0
 41
1.0
 50
0.0
 71
     0
 42
0.2
  3
monotxt
  4

  0
ENDTAB
  0
TABLE
  2
VIEW
  5
6
330
0
100
AcDbSymbolTable
 70
     0
  0
ENDTAB
  0
TABLE
  2
UCS
  5
7
330
0
100
AcDbSymbolTable
 70
     0
  0
ENDTAB
  0
TABLE
  2
APPID
  5
9
330
0
100
AcDbSymbolTable
 70
     1
  0
APPID
  5
12
330
9
100
AcDbSymbolTableRecord
100
AcDbRegAppTableRecord
  2
ACAD
 70
     0
  0
ENDTAB
  0
TABLE
  2
DIMSTYLE
  5
A
330
0
100
AcDbSymbolTable
 70
     1
  0
DIMSTYLE
105
2CB7
330
A
100
AcDbSymbolTableRecord
100
AcDbDimStyleTableRecord
  2
STANDARD
 70
     0
  3

  4

  5

  6

  7

 40
1.0
 41
0.18
 42
0.0625
 43
0.38
 44
0.18
 45
0.0
 46
0.0
 47
0.0
 48
0.0
140
0.18
141
0.09
142
0.0
143
25.4
144
1.0
145
0.0
146
1.0
147
0.09
 71
     0
 72
     0
 73
     1
 74
     1
 75
     0
 76
     0
 77
     0
 78
     0
170
     0
171
     2
172
     0
173
     0
174
     0
175
     0
176
     0
177
     0
178
     0
270
     2
271
     4
272
     4
273
     2
274
     2
340
11
275
     0
280
     0
281
     0
282
     0
283
     1
284
     0
285
     0
286
     0
287
     3
288
     0
  0
ENDTAB
  0
TABLE
  2
BLOCK_RECORD
  5
1
330
0
100
AcDbSymbolTable
 70
     0
  0
BLOCK_RECORD
  5
1E
102
{ACAD_XDICTIONARY
360
4009
102
}
330
1
100
AcDbSymbolTableRecord
100
AcDbBlockTableRecord
  2
*MODEL_SPACE
  0
BLOCK_RECORD
  5
1A
102
{ACAD_XDICTIONARY
360
4007
102
}
330
1
100
AcDbSymbolTableRecord
100
AcDbBlockTableRecord
  2
*PAPER_SPACE
  0
ENDTAB
  0
ENDSEC
  0
SECTION
  2
BLOCKS
  0
BLOCK
  5
13B
330
1E
100
AcDbEntity
  8
0
100
AcDbBlockBegin
  2
*MODEL_SPACE
 70
     0
 10
0.0
 20
0.0
 30
0.0
  3
*MODEL_SPACE
  1

  0
ENDBLK
  5
13C
330
1E
100
AcDbEntity
  8
0
100
AcDbBlockEnd
  0
BLOCK
  5
139
330
1A
100
AcDbEntity
 67
     1
  8
0
100
AcDbBlockBegin
  2
*PAPER_SPACE
 70
     0
 10
0.0
 20
0.0
 30
0.0
  3
*PAPER_SPACE
  1

  0
ENDBLK
  5
13A
330
1A
100
AcDbEntity
 67
     1
  8
0
100
AcDbBlockEnd
  0
ENDSEC
  0
SECTION
  2
ENTITIES
  0
LINE
  5
276B
330
1E
100
AcDbEntity
  8
7
100
AcDbLine
 10
33.36029770177036
 20
29.46631346706714
 30
0.0
 11
35.98496961778086
 21
29.46631346706714
 31
0.0
  0
LINE
  5
276C
330
1E
100
AcDbEntity
  8
7
100
AcDbLine
 10
35.8196152870722
 20
29.24190401824824
 30
0.0
 11
33.52565203247903
 21
29.24190401824824
 31
0.0
  0
LINE
  5
2781
330
1E
100
AcDbEntity
  8
7
100
AcDbLine
 10
35.8196152870722
 20
25.19859693163406
 30
0.0
 11
35.86161003772836
 21
25.16710086864194
 31
0.0
  0
LINE
  5
278C
330
1E
100
AcDbEntity
  8
7
100
AcDbLine
 10
36.0440247358911
 20
29.4072583489569
 30
0.0
 11
36.0440247358911
 21
25.0332426009254
 31
0.0
  0
LINE
  5
278D
330
1E
100
AcDbEntity
  8
7
100
AcDbLine
 10
35.8196152870722
 20
25.19859693163406
 30
0.0
 11
35.8196152870722
 21
29.24190401824824
 31
0.0
  0
LINE
  5
278E
330
1E
100
AcDbEntity
  8
7
100
AcDbLine
 10
33.30124258366012
 20
25.0332426009254
 30
0.0
 11
33.30124258366012
 21
29.4072583489569
 31
0.0
  0
LINE
  5
279A
330
1E
100
AcDbEntity
  8
7
100
AcDbLine
 10
33.52565203247903
 20
29.24190401824824
 30
0.0
 11
33.52565203247903
 21
25.19859693163406
 31
0.0
  0
LINE
  5
27B5
330
1E
100
AcDbEntity
  8
7
100
AcDbLine
 10
34.70806673064175
 20
27.47287514685717
 30
0.0
 11
34.70806673064175
 21
28.11723210223774
 31
0.0
  0
LINE
  5
27B6
330
1E
100
AcDbEntity
  8
7
100
AcDbLine
 10
35.28811922408007
 20
27.47287514685717
 30
0.0
 11
35.28811922408007
 21
28.11723210223774
 31
0.0
  0
LINE
  5
27B7
330
1E
100
AcDbEntity
  8
7
100
AcDbLine
 10
34.05714809547115
 20
27.47287514685717
 30
0.0
 11
34.05714809547115
 21
28.11723210223774
 31
0.0
  0
LINE
  5
27B8
330
1E
100
AcDbEntity
  8
7
100
AcDbLine
 10
34.63720058890948
 20
27.47287514685717
 30
0.0
 11
34.63720058890948
 21
28.11723210223774
 31
0.0
  0
LINE
  5
27B9
330
1E
100
AcDbEntity
  8
7
100
AcDbLine
 10
34.70806673064175
 20
26.32195651168656
 30
0.0
 11
34.70806673064175
 21
26.96762580302515
 31
0.0
  0
LINE
  5
27BA
330
1E
100
AcDbEntity
  8
7
100
AcDbLine
 10
35.28811922408007
 20
26.32195651168656
 30
0.0
 11
35.28811922408007
 21
26.96762580302515
 31
0.0
  0
LINE
  5
27BB
330
1E
100
AcDbEntity
  8
7
100
AcDbLine
 10
34.05714809547115
 20
26.32195651168656
 30
0.0
 11
34.05714809547115
 21
26.96762580302515
 31
0.0
  0
LINE
  5
27BC
330
1E
100
AcDbEntity
  8
7
100
AcDbLine
 10
34.63720058890948
 20
26.32195651168656
 30
0.0
 11
34.63720058890948
 21
26.96762580302515
 31
0.0
  0
LINE
  5
27D1
330
1E
100
AcDbEntity
  8
7
100
AcDbLine
 10
34.61751554953939
 20
25.62904312585979
 30
0.0
 11
34.60045518208533
 21
25.59754706286767
 31
0.0
  0
LINE
  5
27E2
330
1E
100
AcDbEntity
  8
7
100
AcDbLine
 10
35.98496961778086
 20
24.97287514685717
 30
0.0
 11
33.36029770177036
 21
24.97287514685717
 31
0.0
  0
LINE
  5
27EE
330
1E
100
AcDbEntity
  8
7
100
AcDbLine
 10
33.52565203247903
 20
25.19859693163406
 30
0.0
 11
35.8196152870722
 21
25.19859693163406
 31
0.0
  0
LINE
  5
27FB
330
1E
100
AcDbEntity
  8
7
100
AcDbLine
 10
34.68706935531367
 20
28.19465992376005
 30
0.0
 11
34.68706935531367
 21
28.2051586114241
 31
0.0
  0
LINE
  5
2801
330
1E
100
AcDbEntity
  8
7
100
AcDbLine
 10
34.70281738680973
 20
28.18022422822199
 30
0.0
 11
35.27237119258401
 21
28.18022422822199
 31
0.0
  0
LINE
  5
2808
330
1E
100
AcDbEntity
  8
7
100
AcDbLine
 10
35.27237119258401
 20
28.15004050118787
 30
0.0
 11
34.07289612696721
 21
28.15004050118787
 31
0.0
  0
LINE
  5
280F
330
1E
100
AcDbEntity
  8
7
100
AcDbLine
 10
34.07289612696721
 20
28.18022422822199
 30
0.0
 11
34.64244993274149
 21
28.18022422822199
 31
0.0
  0
LINE
  5
2815
330
1E
100
AcDbEntity
  8
7
100
AcDbLine
 10
34.65688562827955
 20
28.19465992376005
 30
0.0
 11
34.65688562827955
 21
28.2051586114241
 31
0.0
  0
LINE
  5
283C
330
1E
100
AcDbEntity
  8
7
100
AcDbLine
 10
34.63720058890948
 20
27.47287514685717
 30
0.0
 11
34.05714809547115
 21
27.47287514685717
 31
0.0
  0
LINE
  5
283D
330
1E
100
AcDbEntity
  8
7
100
AcDbLine
 10
34.63720058890948
 20
28.11723210223774
 30
0.0
 11
34.05714809547115
 21
28.11723210223774
 31
0.0
  0
LINE
  5
283E
330
1E
100
AcDbEntity
  8
7
100
AcDbLine
 10
35.28811922408007
 20
27.47287514685717
 30
0.0
 11
34.70806673064175
 21
27.47287514685717
 31
0.0
  0
LINE
  5
283F
330
1E
100
AcDbEntity
  8
7
100
AcDbLine
 10
35.28811922408007
 20
28.11723210223774
 30
0.0
 11
34.70806673064175
 21
28.11723210223774
 31
0.0
  0
LINE
  5
2840
330
1E
100
AcDbEntity
  8
7
100
AcDbLine
 10
34.63720058890948
 20
26.32195651168656
 30
0.0
 11
34.05714809547115
 21
26.32195651168656
 31
0.0
  0
LINE
  5
2841
330
1E
100
AcDbEntity
  8
7
100
AcDbLine
 10
34.63720058890948
 20
26.96762580302515
 30
0.0
 11
34.05714809547115
 21
26.96762580302515
 31
0.0
  0
LINE
  5
2842
330
1E
100
AcDbEntity
  8
7
100
AcDbLine
 10
35.28811922408007
 20
26.32195651168656
 30
0.0
 11
34.70806673064175
 21
26.32195651168656
 31
0.0
  0
LINE
  5
2843
330
1E
100
AcDbEntity
  8
7
100
AcDbLine
 10
35.28811922408007
 20
26.96762580302515
 30
0.0
 11
34.70806673064175
 21
26.96762580302515
 31
0.0
  0
LINE
  5
2861
330
1E
100
AcDbEntity
  8
7
100
AcDbLine
 10
34.68706935531367
 20
27.04505362454745
 30
0.0
 11
34.68706935531367
 21
27.0555523122115
 31
0.0
  0
LINE
  5
2867
330
1E
100
AcDbEntity
  8
7
100
AcDbLine
 10
34.70281738680973
 20
27.03061792900939
 30
0.0
 11
35.27237119258401
 21
27.03061792900939
 31
0.0
  0
LINE
  5
286E
330
1E
100
AcDbEntity
  8
7
100
AcDbLine
 10
35.27237119258401
 20
27.00043420197527
 30
0.0
 11
34.07289612696721
 21
27.00043420197527
 31
0.0
  0
LINE
  5
2875
330
1E
100
AcDbEntity
  8
7
100
AcDbLine
 10
34.07289612696721
 20
27.03061792900939
 30
0.0
 11
34.64244993274149
 21
27.03061792900939
 31
0.0
  0
LINE
  5
287B
330
1E
100
AcDbEntity
  8
7
100
AcDbLine
 10
34.65688562827955
 20
27.04505362454745
 30
0.0
 11
34.65688562827955
 21
27.0555523122115
 31
0.0
  0
LINE
  5
2882
330
1E
100
AcDbEntity
  8
7
100
AcDbLine
 10
35.32486463090422
 20
25.39807199725087
 30
0.0
 11
35.30255491961813
 21
25.39807199725087
 31
0.0
  0
LINE
  5
2883
330
1E
100
AcDbEntity
  8
7
100
AcDbLine
 10
35.31436594324018
 20
25.42169404449496
 30
0.0
 11
35.32486463090422
 21
25.39807199725087
 31
0.0
  0
LINE
  5
2884
330
1E
100
AcDbEntity
  8
7
100
AcDbLine
 10
35.30255491961813
 20
25.39807199725087
 30
0.0
 11
35.31436594324018
 21
25.42169404449496
 31
0.0
  0
LINE
  5
288A
330
1E
100
AcDbEntity
  8
7
100
AcDbLine
 10
35.25531082512994
 20
25.45450244344509
 30
0.0
 11
35.25531082512994
 21
25.42563105236897
 31
0.0
  0
LINE
  5
2895
330
1E
100
AcDbEntity
  8
7
100
AcDbLine
 10
35.24874914533991
 20
25.42038170853695
 30
0.0
 11
35.23825045767587
 21
25.42038170853695
 31
0.0
  0
LINE
  5
2896
330
1E
100
AcDbEntity
  8
7
100
AcDbLine
 10
35.46528457841078
 20
25.38626097362882
 30
0.0
 11
35.45741056266275
 21
25.38626097362882
 31
0.0
  0
LINE
  5
289C
330
1E
100
AcDbEntity
  8
7
100
AcDbLine
 10
35.47053392224281
 20
25.39019798150284
 30
0.0
 11
35.47053392224281
 21
25.430880396201
 31
0.0
  0
LINE
  5
28A7
330
1E
100
AcDbEntity
  8
7
100
AcDbLine
 10
35.32617696686223
 20
25.45319010748708
 30
0.0
 11
35.35111135006433
 21
25.39675966129286
 31
0.0
  0
LINE
  5
28A8
330
1E
100
AcDbEntity
  8
7
100
AcDbLine
 10
35.32617696686223
 20
25.45319010748708
 30
0.0
 11
35.30255491961813
 21
25.45319010748708
 31
0.0
  0
LINE
  5
28AE
330
1E
100
AcDbEntity
  8
7
100
AcDbLine
 10
35.18706935531367
 20
25.47943682664719
 30
0.0
 11
35.26580951279399
 21
25.47943682664719
 31
0.0
  0
LINE
  5
28AF
330
1E
100
AcDbEntity
  8
7
100
AcDbLine
 10
35.18706935531367
 20
25.47943682664719
 30
0.0
 11
35.18706935531367
 21
25.36657593425874
 31
0.0
  0
LINE
  5
28B0
330
1E
100
AcDbEntity
  8
7
100
AcDbLine
 10
35.23825045767587
 20
25.36657593425874
 30
0.0
 11
35.18706935531367
 21
25.36657593425874
 31
0.0
  0
LINE
  5
28B1
330
1E
100
AcDbEntity
  8
7
100
AcDbLine
 10
35.23825045767587
 20
25.40200900512488
 30
0.0
 11
35.23825045767587
 21
25.36657593425874
 31
0.0
  0
LINE
  5
28B2
330
1E
100
AcDbEntity
  8
7
100
AcDbLine
 10
35.23825045767587
 20
25.40200900512488
 30
0.0
 11
35.26580951279399
 21
25.40200900512488
 31
0.0
  0
LINE
  5
28B8
330
1E
100
AcDbEntity
  8
7
100
AcDbLine
 10
35.26712184875199
 20
25.36657593425874
 30
0.0
 11
35.28286988024806
 21
25.4059460129989
 31
0.0
  0
LINE
  5
28B9
330
1E
100
AcDbEntity
  8
7
100
AcDbLine
 10
35.29205623195409
 20
25.36657593425874
 30
0.0
 11
35.26712184875199
 21
25.36657593425874
 31
0.0
  0
LINE
  5
28BA
330
1E
100
AcDbEntity
  8
7
100
AcDbLine
 10
35.29205623195409
 20
25.36657593425874
 30
0.0
 11
35.29730557578611
 21
25.37838695788078
 31
0.0
  0
LINE
  5
28BB
330
1E
100
AcDbEntity
  8
7
100
AcDbLine
 10
35.33011397473624
 20
25.37838695788078
 30
0.0
 11
35.29730557578611
 21
25.37838695788078
 31
0.0
  0
LINE
  5
28BC
330
1E
100
AcDbEntity
  8
7
100
AcDbLine
 10
35.33667565452626
 20
25.36657593425874
 30
0.0
 11
35.33011397473624
 21
25.37838695788078
 31
0.0
  0
LINE
  5
28BD
330
1E
100
AcDbEntity
  8
7
100
AcDbLine
 10
35.33667565452626
 20
25.36657593425874
 30
0.0
 11
35.37604573326642
 21
25.36657593425874
 31
0.0
  0
LINE
  5
28BE
330
1E
100
AcDbEntity
  8
7
100
AcDbLine
 10
35.37604573326642
 20
25.40332134108289
 30
0.0
 11
35.37604573326642
 21
25.36657593425874
 31
0.0
  0
LINE
  5
28BF
330
1E
100
AcDbEntity
  8
7
100
AcDbLine
 10
35.3917937647625
 20
25.36657593425874
 30
0.0
 11
35.37604573326642
 21
25.40332134108289
 31
0.0
  0
LINE
  5
28CA
330
1E
100
AcDbEntity
  8
7
100
AcDbLine
 10
35.58470715058926
 20
25.45319010748708
 30
0.0
 11
35.58470715058926
 21
25.36657593425874
 31
0.0
  0
LINE
  5
28CB
330
1E
100
AcDbEntity
  8
7
100
AcDbLine
 10
35.58470715058926
 20
25.36657593425874
 30
0.0
 11
35.60832919783335
 21
25.36657593425874
 31
0.0
  0
LINE
  5
28CC
330
1E
100
AcDbEntity
  8
7
100
AcDbLine
 10
35.60832919783335
 20
25.45319010748708
 30
0.0
 11
35.60832919783335
 21
25.36657593425874
 31
0.0
  0
LINE
  5
28CD
330
1E
100
AcDbEntity
  8
7
100
AcDbLine
 10
35.60832919783335
 20
25.45319010748708
 30
0.0
 11
35.58470715058926
 21
25.45319010748708
 31
0.0
  0
LINE
  5
28D8
330
1E
100
AcDbEntity
  8
7
100
AcDbLine
 10
35.4954683054449
 20
25.3823239657548
 30
0.0
 11
35.4954683054449
 21
25.43744207599102
 31
0.0
  0
LINE
  5
28DE
330
1E
100
AcDbEntity
  8
7
100
AcDbLine
 10
35.47972027394884
 20
25.45319010748708
 30
0.0
 11
35.43116384350265
 21
25.45319010748708
 31
0.0
  0
LINE
  5
28DF
330
1E
100
AcDbEntity
  8
7
100
AcDbLine
 10
35.50859166502495
 20
25.45319010748708
 30
0.0
 11
35.50859166502495
 21
25.3823239657548
 31
0.0
  0
LINE
  5
28E5
330
1E
100
AcDbEntity
  8
7
100
AcDbLine
 10
35.55583575951315
 20
25.36657593425874
 30
0.0
 11
35.52433969652102
 21
25.36657593425874
 31
0.0
  0
LINE
  5
28F6
330
1E
100
AcDbEntity
  8
7
100
AcDbLine
 10
35.54796174376511
 20
25.38626097362882
 30
0.0
 11
35.54271239993309
 21
25.38626097362882
 31
0.0
  0
LINE
  5
2906
330
1E
100
AcDbEntity
  8
7
100
AcDbLine
 10
35.66738431594359
 20
25.43481740407501
 30
0.0
 11
35.66738431594359
 21
25.36657593425874
 31
0.0
  0
LINE
  5
290D
330
1E
100
AcDbEntity
  8
7
100
AcDbLine
 10
35.62276489337141
 20
25.43481740407501
 30
0.0
 11
35.62276489337141
 21
25.45319010748708
 31
0.0
  0
LINE
  5
290E
330
1E
100
AcDbEntity
  8
7
100
AcDbLine
 10
35.63982526082549
 20
25.43481740407501
 30
0.0
 11
35.62276489337141
 21
25.43481740407501
 31
0.0
  0
LINE
  5
2914
330
1E
100
AcDbEntity
  8
7
100
AcDbLine
 10
34.05977276738716
 20
28.1579145169359
 30
0.0
 11
34.07289612696721
 21
28.15004050118787
 31
0.0
  0
LINE
  5
2915
330
1E
100
AcDbEntity
  8
7
100
AcDbLine
 10
34.07289612696721
 20
28.15004050118787
 30
0.0
 11
35.27237119258401
 21
28.15004050118787
 31
0.0
  0
LINE
  5
291C
330
1E
100
AcDbEntity
  8
7
100
AcDbLine
 10
35.27237119258401
 20
28.18022422822199
 30
0.0
 11
34.70281738680973
 21
28.18022422822199
 31
0.0
  0
LINE
  5
2922
330
1E
100
AcDbEntity
  8
7
100
AcDbLine
 10
34.68706935531367
 20
28.19465992376005
 30
0.0
 11
34.68706935531367
 21
28.2051586114241
 31
0.0
  0
LINE
  5
2929
330
1E
100
AcDbEntity
  8
7
100
AcDbLine
 10
34.65819796423756
 20
28.19465992376005
 30
0.0
 11
34.65819796423756
 21
28.2051586114241
 31
0.0
  0
LINE
  5
292F
330
1E
100
AcDbEntity
  8
7
100
AcDbLine
 10
34.64244993274149
 20
28.18022422822199
 30
0.0
 11
34.07289612696721
 21
28.18022422822199
 31
0.0
  0
LINE
  5
2930
330
1E
100
AcDbEntity
  8
7
100
AcDbLine
 10
34.65819796423756
 20
28.2051586114241
 30
0.0
 11
34.65688562827955
 21
28.2051586114241
 31
0.0
  0
LINE
  5
2931
330
1E
100
AcDbEntity
  8
7
100
AcDbLine
 10
34.65688562827955
 20
28.19465992376005
 30
0.0
 11
34.65819796423756
 21
28.19465992376005
 31
0.0
  0
LINE
  5
2938
330
1E
100
AcDbEntity
  8
7
100
AcDbLine
 10
34.07289612696721
 20
27.00043420197527
 30
0.0
 11
35.27237119258401
 21
27.00043420197527
 31
0.0
  0
LINE
  5
293F
330
1E
100
AcDbEntity
  8
7
100
AcDbLine
 10
35.27237119258401
 20
27.02930559305139
 30
0.0
 11
34.70281738680973
 21
27.02930559305139
 31
0.0
  0
LINE
  5
2945
330
1E
100
AcDbEntity
  8
7
100
AcDbLine
 10
34.68706935531367
 20
27.04505362454745
 30
0.0
 11
34.68706935531367
 21
27.0555523122115
 31
0.0
  0
LINE
  5
294C
330
1E
100
AcDbEntity
  8
7
100
AcDbLine
 10
34.65819796423756
 20
27.04505362454745
 30
0.0
 11
34.65819796423756
 21
27.0555523122115
 31
0.0
  0
LINE
  5
2952
330
1E
100
AcDbEntity
  8
7
100
AcDbLine
 10
34.64244993274149
 20
27.02930559305139
 30
0.0
 11
34.07289612696721
 21
27.02930559305139
 31
0.0
  0
LINE
  5
2953
330
1E
100
AcDbEntity
  8
7
100
AcDbLine
 10
35.27237119258401
 20
27.02930559305139
 30
0.0
 11
35.27237119258401
 21
27.03061792900939
 31
0.0
  0
LINE
  5
2954
330
1E
100
AcDbEntity
  8
7
100
AcDbLine
 10
34.07289612696721
 20
27.03061792900939
 30
0.0
 11
34.07289612696721
 21
27.02930559305139
 31
0.0
  0
LINE
  5
2955
330
1E
100
AcDbEntity
  8
7
100
AcDbLine
 10
34.65819796423756
 20
27.0555523122115
 30
0.0
 11
34.65688562827955
 21
27.0555523122115
 31
0.0
  0
LINE
  5
2956
330
1E
100
AcDbEntity
  8
7
100
AcDbLine
 10
34.70281738680973
 20
27.03061792900939
 30
0.0
 11
34.70281738680973
 21
27.02930559305139
 31
0.0
  0
LINE
  5
2957
330
1E
100
AcDbEntity
  8
7
100
AcDbLine
 10
34.64244993274149
 20
27.02930559305139
 30
0.0
 11
34.64244993274149
 21
27.03061792900939
 31
0.0
  0
LINE
  5
2958
330
1E
100
AcDbEntity
  8
7
100
AcDbLine
 10
34.65688562827955
 20
27.04505362454745
 30
0.0
 11
34.65819796423756
 21
27.04505362454745
 31
0.0
  0
LINE
  5
2961
330
1E
100
AcDbEntity
  8
7
100
AcDbLine
 10
33.36029770177036
 20
29.46631346706714
 30
0.0
 11
33.35767302985435
 21
29.47025047494115
 31
0.0
  0
LINE
  5
297E
330
1E
100
AcDbEntity
  8
7
100
AcDbLine
 10
33.36029770177036
 20
24.97287514685717
 30
0.0
 11
33.35767302985435
 21
24.97025047494116
 31
0.0
  0
LINE
  5
298D
330
1E
100
AcDbEntity
  8
7
100
AcDbLine
 10
34.61620321358138
 20
25.52930559305139
 30
0.0
 11
34.72775177001183
 21
25.52930559305139
 31
0.0
  0
LINE
  5
298E
330
1E
100
AcDbEntity
  8
7
100
AcDbLine
 10
34.72775177001183
 20
25.62904312585979
 30
0.0
 11
34.61620321358138
 21
25.62904312585979
 31
0.0
  0
LINE
  5
298F
330
1E
100
AcDbEntity
  8
7
100
AcDbLine
 10
34.61620321358138
 20
28.81014548806451
 30
0.0
 11
34.72775177001183
 21
28.81014548806451
 31
0.0
  0
LINE
  5
2990
330
1E
100
AcDbEntity
  8
7
100
AcDbLine
 10
34.72775177001183
 20
28.91119535683091
 30
0.0
 11
34.61620321358138
 21
28.91119535683091
 31
0.0
  0
LINE
  5
2991
330
1E
100
AcDbEntity
  8
7
100
AcDbLine
 10
38.72381476213782
 20
28.21959430696215
 30
0.0
 11
38.71462841043177
 21
28.21959430696215
 31
0.0
  0
LINE
  5
2992
330
1E
100
AcDbEntity
  8
7
100
AcDbLine
 10
38.72381476213782
 20
27.06998800774955
 30
0.0
 11
38.71462841043177
 21
27.06998800774955
 31
0.0
  0
LINE
  5
299D
330
1E
100
AcDbEntity
  8
7
100
AcDbLine
 10
38.89573077263651
 20
29.46106412323512
 30
0.0
 11
38.93772552329267
 21
29.46631346706714
 31
0.0
  0
LINE
  5
29A9
330
1E
100
AcDbEntity
  8
7
100
AcDbLine
 10
38.93772552329267
 20
29.4072583489569
 30
0.0
 11
38.93641318733467
 21
29.43744207599102
 31
0.0
  0
LINE
  5
29BA
330
1E
100
AcDbEntity
  8
7
100
AcDbLine
 10
38.93772552329267
 20
29.4072583489569
 30
0.0
 11
38.93772552329267
 21
25.0332426009254
 31
0.0
  0
LINE
  5
29BB
330
1E
100
AcDbEntity
  8
7
100
AcDbLine
 10
38.72381476213782
 20
25.19859693163406
 30
0.0
 11
38.72381476213782
 21
29.24190401824824
 31
0.0
  0
LINE
  5
29D2
330
1E
100
AcDbEntity
  8
7
100
AcDbLine
 10
38.71462841043177
 20
25.43481740407501
 30
0.0
 11
38.71462841043177
 21
25.36657593425874
 31
0.0
  0
LINE
  5
29D3
330
1E
100
AcDbEntity
  8
7
100
AcDbLine
 10
38.71462841043177
 20
25.43481740407501
 30
0.0
 11
38.71462841043177
 21
25.45319010748708
 31
0.0
  0
LINE
  5
29D4
330
1E
100
AcDbEntity
  8
7
100
AcDbLine
 10
38.71462841043177
 20
25.47943682664719
 30
0.0
 11
38.72381476213782
 21
25.47943682664719
 31
0.0
  0
LINE
  5
29D5
330
1E
100
AcDbEntity
  8
7
100
AcDbLine
 10
38.71462841043177
 20
25.36657593425874
 30
0.0
 11
38.72381476213782
 21
25.36657593425874
 31
0.0
  0
LINE
  5
29D6
330
1E
100
AcDbEntity
  8
7
100
AcDbLine
 10
38.71462841043177
 20
25.43481740407501
 30
0.0
 11
38.72381476213782
 21
25.43481740407501
 31
0.0
  0
LINE
  5
29D7
330
1E
100
AcDbEntity
  8
7
100
AcDbLine
 10
38.71462841043177
 20
25.45319010748708
 30
0.0
 11
38.72381476213782
 21
25.45319010748708
 31
0.0
  0
LINE
  5
29E3
330
1E
100
AcDbEntity
  8
7
100
AcDbLine
 10
38.71462841043177
 20
28.18022422822199
 30
0.0
 11
38.72381476213782
 21
28.18022422822199
 31
0.0
  0
LINE
  5
29E4
330
1E
100
AcDbEntity
  8
7
100
AcDbLine
 10
38.72381476213782
 20
28.15004050118787
 30
0.0
 11
38.71462841043177
 21
28.15004050118787
 31
0.0
  0
LINE
  5
29E5
330
1E
100
AcDbEntity
  8
7
100
AcDbLine
 10
38.72381476213782
 20
28.2051586114241
 30
0.0
 11
38.71462841043177
 21
28.2051586114241
 31
0.0
  0
LINE
  5
29E6
330
1E
100
AcDbEntity
  8
7
100
AcDbLine
 10
38.71462841043177
 20
28.19465992376005
 30
0.0
 11
38.72381476213782
 21
28.19465992376005
 31
0.0
  0
LINE
  5
29F2
330
1E
100
AcDbEntity
  8
7
100
AcDbLine
 10
38.71462841043177
 20
27.02930559305139
 30
0.0
 11
38.72381476213782
 21
27.03061792900939
 31
0.0
  0
LINE
  5
29F3
330
1E
100
AcDbEntity
  8
7
100
AcDbLine
 10
38.72381476213782
 20
27.00043420197527
 30
0.0
 11
38.71462841043177
 21
27.00043420197527
 31
0.0
  0
LINE
  5
29F4
330
1E
100
AcDbEntity
  8
7
100
AcDbLine
 10
38.72381476213782
 20
27.0555523122115
 30
0.0
 11
38.71462841043177
 21
27.0555523122115
 31
0.0
  0
LINE
  5
29F5
330
1E
100
AcDbEntity
  8
7
100
AcDbLine
 10
38.71462841043177
 20
27.04505362454745
 30
0.0
 11
38.72381476213782
 21
27.04505362454745
 31
0.0
  0
LINE
  5
29FE
330
1E
100
AcDbEntity
  8
7
100
AcDbLine
 10
38.99940531331891
 20
29.40988302087291
 30
0.0
 11
38.93772552329267
 21
29.4072583489569
 31
0.0
  0
LINE
  5
2A04
330
1E
100
AcDbEntity
  8
7
100
AcDbLine
 10
38.99940531331891
 20
24.97025047494116
 30
0.0
 11
38.93772552329267
 21
24.97287514685717
 31
0.0
  0
LINE
  5
2A16
330
1E
100
AcDbEntity
  8
7
100
AcDbLine
 10
38.99940531331891
 20
28.33507987126662
 30
0.0
 11
39.17525833169162
 21
28.3311428633926
 31
0.0
  0
LINE
  5
2A1C
330
1E
100
AcDbEntity
  8
7
100
AcDbLine
 10
39.11620321358138
 20
27.46631346706714
 30
0.0
 11
39.13851292486748
 21
27.46106412323512
 31
0.0
  0
LINE
  5
2A23
330
1E
100
AcDbEntity
  8
7
100
AcDbLine
 10
39.10439218995934
 20
27.46631346706714
 30
0.0
 11
39.11620321358138
 21
27.46631346706714
 31
0.0
  0
LINE
  5
2A2E
330
1E
100
AcDbEntity
  8
7
100
AcDbLine
 10
38.99940531331891
 20
27.18416123609601
 30
0.0
 11
39.17525833169162
 21
27.18153656418
 31
0.0
  0
LINE
  5
2A3B
330
1E
100
AcDbEntity
  8
7
100
AcDbLine
 10
39.10439218995934
 20
26.31539483189653
 30
0.0
 11
39.11620321358138
 21
26.31539483189653
 31
0.0
  0
LINE
  5
2D7F
330
1E
100
AcDbEntity
  8
7
100
AcDbLine
 10
39.11620321358138
 20
26.31539483189653
 30
0.0
 11
39.13851292486748
 21
26.31145782402252
 31
0.0
  0
LINE
  5
2D80
330
1E
100
AcDbEntity
  8
7
100
AcDbLine
 10
39.13851292486748
 20
26.31145782402252
 30
0.0
 11
39.15819796423756
 21
26.29833446444246
 31
0.0
  0
LINE
  5
2D81
330
1E
100
AcDbEntity
  8
7
100
AcDbLine
 10
39.15819796423756
 20
26.29833446444246
 30
0.0
 11
39.17132132381761
 21
26.27864942507239
 31
0.0
  0
LINE
  5
2D82
330
1E
100
AcDbEntity
  8
7
100
AcDbLine
 10
39.17132132381761
 20
26.27864942507239
 30
0.0
 11
39.17525833169162
 21
26.2563397137863
 31
0.0
  0
LINE
  5
2D83
330
1E
100
AcDbEntity
  8
7
100
AcDbLine
 10
38.99940531331891
 20
26.21565729908814
 30
0.0
 11
39.17525833169162
 21
26.21828197100414
 31
0.0
  0
LINE
  5
2D84
330
1E
100
AcDbEntity
  8
7
100
AcDbLine
 10
39.17525833169162
 20
26.21828197100414
 30
0.0
 11
39.17525833169162
 21
26.2563397137863
 31
0.0
  0
LINE
  5
2D85
330
1E
100
AcDbEntity
  8
7
100
AcDbLine
 10
39.10439218995934
 20
26.31539483189653
 30
0.0
 11
39.10439218995934
 21
27.09361005499365
 31
0.0
  0
LINE
  5
2D86
330
1E
100
AcDbEntity
  8
7
100
AcDbLine
 10
39.10439218995934
 20
27.09361005499365
 30
0.0
 11
39.16869665190159
 21
27.13691714160782
 31
0.0
  0
LINE
  5
2D87
330
1E
100
AcDbEntity
  8
7
100
AcDbLine
 10
39.16869665190159
 20
27.13691714160782
 30
0.0
 11
39.17525833169162
 21
27.14872816522987
 31
0.0
  0
LINE
  5
2D88
330
1E
100
AcDbEntity
  8
7
100
AcDbLine
 10
39.17525833169162
 20
27.14872816522987
 30
0.0
 11
39.17525833169162
 21
27.18153656418
 31
0.0
  0
LINE
  5
2D89
330
1E
100
AcDbEntity
  8
7
100
AcDbLine
 10
39.13851292486748
 20
27.46106412323512
 30
0.0
 11
39.15819796423756
 21
27.44794076365506
 31
0.0
  0
LINE
  5
2D8A
330
1E
100
AcDbEntity
  8
7
100
AcDbLine
 10
39.15819796423756
 20
27.44794076365506
 30
0.0
 11
39.17132132381761
 21
27.42825572428499
 31
0.0
  0
LINE
  5
2D8B
330
1E
100
AcDbEntity
  8
7
100
AcDbLine
 10
39.17132132381761
 20
27.42825572428499
 30
0.0
 11
39.17525833169162
 21
27.4059460129989
 31
0.0
  0
LINE
  5
2D8C
330
1E
100
AcDbEntity
  8
7
100
AcDbLine
 10
38.99940531331891
 20
27.36526359830073
 30
0.0
 11
39.17525833169162
 21
27.36788827021674
 31
0.0
  0
LINE
  5
2D8D
330
1E
100
AcDbEntity
  8
7
100
AcDbLine
 10
39.17525833169162
 20
27.36788827021674
 30
0.0
 11
39.17525833169162
 21
27.4059460129989
 31
0.0
  0
LINE
  5
2D8E
330
1E
100
AcDbEntity
  8
7
100
AcDbLine
 10
39.10439218995934
 20
27.46631346706714
 30
0.0
 11
39.10439218995934
 21
28.24321635420624
 31
0.0
  0
LINE
  5
2D8F
330
1E
100
AcDbEntity
  8
7
100
AcDbLine
 10
39.10439218995934
 20
28.24321635420624
 30
0.0
 11
39.16869665190159
 21
28.28652344082042
 31
0.0
  0
LINE
  5
2D90
330
1E
100
AcDbEntity
  8
7
100
AcDbLine
 10
39.16869665190159
 20
28.28652344082042
 30
0.0
 11
39.17525833169162
 21
28.29964680040047
 31
0.0
  0
LINE
  5
2D91
330
1E
100
AcDbEntity
  8
7
100
AcDbLine
 10
39.17525833169162
 20
28.29964680040047
 30
0.0
 11
39.17525833169162
 21
28.3311428633926
 31
0.0
  0
LINE
  5
2D92
330
1E
100
AcDbEntity
  8
7
100
AcDbLine
 10
38.99940531331891
 20
25.02930559305139
 30
0.0
 11
38.99940531331891
 21
25.0069958817653
 31
0.0
  0
LINE
  5
2D93
330
1E
100
AcDbEntity
  8
7
100
AcDbLine
 10
38.99940531331891
 20
25.0069958817653
 30
0.0
 11
38.99940531331891
 21
24.98731084239522
 31
0.0
  0
LINE
  5
2D94
330
1E
100
AcDbEntity
  8
7
100
AcDbLine
 10
38.99940531331891
 20
24.98731084239522
 30
0.0
 11
38.99940531331891
 21
24.97418748281517
 31
0.0
  0
LINE
  5
2D95
330
1E
100
AcDbEntity
  8
7
100
AcDbLine
 10
38.99940531331891
 20
24.97418748281517
 30
0.0
 11
38.99940531331891
 21
24.97025047494116
 31
0.0
  0
LINE
  5
2D96
330
1E
100
AcDbEntity
  8
7
100
AcDbLine
 10
38.93772552329267
 20
25.0332426009254
 30
0.0
 11
38.99940531331891
 21
25.02930559305139
 31
0.0
  0
LINE
  5
2D97
330
1E
100
AcDbEntity
  8
7
100
AcDbLine
 10
38.99940531331891
 20
25.02930559305139
 30
0.0
 11
38.99940531331891
 21
29.40988302087291
 31
0.0
  0
LINE
  5
2D98
330
1E
100
AcDbEntity
  8
7
100
AcDbLine
 10
38.93772552329267
 20
29.46631346706714
 30
0.0
 11
38.99940531331891
 21
29.47025047494115
 31
0.0
  0
LINE
  5
2D99
330
1E
100
AcDbEntity
  8
7
100
AcDbLine
 10
38.99940531331891
 20
29.47025047494115
 30
0.0
 11
38.99940531331891
 21
29.46500113110913
 31
0.0
  0
LINE
  5
2D9A
330
1E
100
AcDbEntity
  8
7
100
AcDbLine
 10
38.99940531331891
 20
29.46500113110913
 30
0.0
 11
38.99940531331891
 21
29.45187777152908
 31
0.0
  0
LINE
  5
2D9B
330
1E
100
AcDbEntity
  8
7
100
AcDbLine
 10
38.99940531331891
 20
29.45187777152908
 30
0.0
 11
38.99940531331891
 21
29.43350506811701
 31
0.0
  0
LINE
  5
2D9C
330
1E
100
AcDbEntity
  8
7
100
AcDbLine
 10
38.99940531331891
 20
29.43350506811701
 30
0.0
 11
38.99940531331891
 21
29.40988302087291
 31
0.0
  0
LINE
  5
2D9D
330
1E
100
AcDbEntity
  8
7
100
AcDbLine
 10
38.71462841043177
 20
27.00043420197527
 30
0.0
 11
38.71462841043177
 21
27.0069958817653
 31
0.0
  0
LINE
  5
2D9E
330
1E
100
AcDbEntity
  8
7
100
AcDbLine
 10
38.71462841043177
 20
27.0069958817653
 30
0.0
 11
38.71462841043177
 21
27.02274391326136
 31
0.0
  0
LINE
  5
2D9F
330
1E
100
AcDbEntity
  8
7
100
AcDbLine
 10
38.71462841043177
 20
27.02274391326136
 30
0.0
 11
38.71462841043177
 21
27.02930559305139
 31
0.0
  0
LINE
  5
2DA0
330
1E
100
AcDbEntity
  8
7
100
AcDbLine
 10
38.71462841043177
 20
27.02930559305139
 30
0.0
 11
38.71462841043177
 21
27.03455493688341
 31
0.0
  0
LINE
  5
2DA1
330
1E
100
AcDbEntity
  8
7
100
AcDbLine
 10
38.71462841043177
 20
27.03455493688341
 30
0.0
 11
38.71462841043177
 21
27.04505362454745
 31
0.0
  0
LINE
  5
2DA2
330
1E
100
AcDbEntity
  8
7
100
AcDbLine
 10
38.71462841043177
 20
27.04505362454745
 30
0.0
 11
38.71462841043177
 21
27.0555523122115
 31
0.0
  0
LINE
  5
2DA3
330
1E
100
AcDbEntity
  8
7
100
AcDbLine
 10
38.71462841043177
 20
27.0555523122115
 30
0.0
 11
38.71462841043177
 21
27.06605099987553
 31
0.0
  0
LINE
  5
2DA4
330
1E
100
AcDbEntity
  8
7
100
AcDbLine
 10
38.71462841043177
 20
27.06605099987553
 30
0.0
 11
38.71462841043177
 21
27.06998800774955
 31
0.0
  0
LINE
  5
2DA5
330
1E
100
AcDbEntity
  8
7
100
AcDbLine
 10
38.71462841043177
 20
28.15004050118787
 30
0.0
 11
38.71462841043177
 21
28.1579145169359
 31
0.0
  0
LINE
  5
2DA6
330
1E
100
AcDbEntity
  8
7
100
AcDbLine
 10
38.71462841043177
 20
28.1579145169359
 30
0.0
 11
38.71462841043177
 21
28.17235021247396
 31
0.0
  0
LINE
  5
2DA7
330
1E
100
AcDbEntity
  8
7
100
AcDbLine
 10
38.71462841043177
 20
28.17235021247396
 30
0.0
 11
38.71462841043177
 21
28.18022422822199
 31
0.0
  0
LINE
  5
2DA8
330
1E
100
AcDbEntity
  8
7
100
AcDbLine
 10
38.71462841043177
 20
28.18022422822199
 30
0.0
 11
38.71462841043177
 21
28.18416123609601
 31
0.0
  0
LINE
  5
2DA9
330
1E
100
AcDbEntity
  8
7
100
AcDbLine
 10
38.71462841043177
 20
28.18416123609601
 30
0.0
 11
38.71462841043177
 21
28.19465992376005
 31
0.0
  0
LINE
  5
2DAA
330
1E
100
AcDbEntity
  8
7
100
AcDbLine
 10
38.71462841043177
 20
28.19465992376005
 30
0.0
 11
38.71462841043177
 21
28.2051586114241
 31
0.0
  0
LINE
  5
2DAB
330
1E
100
AcDbEntity
  8
7
100
AcDbLine
 10
38.71462841043177
 20
28.2051586114241
 30
0.0
 11
38.71462841043177
 21
28.21565729908813
 31
0.0
  0
LINE
  5
2DAC
330
1E
100
AcDbEntity
  8
7
100
AcDbLine
 10
38.71462841043177
 20
28.21565729908813
 30
0.0
 11
38.71462841043177
 21
28.21959430696215
 31
0.0
  0
LINE
  5
2DAD
330
1E
100
AcDbEntity
  8
7
100
AcDbLine
 10
38.71462841043177
 20
25.45319010748708
 30
0.0
 11
38.71462841043177
 21
25.47287514685717
 31
0.0
  0
LINE
  5
2DAE
330
1E
100
AcDbEntity
  8
7
100
AcDbLine
 10
38.71462841043177
 20
25.47287514685717
 30
0.0
 11
38.71462841043177
 21
25.47943682664719
 31
0.0
  0
LINE
  5
2DAF
330
1E
100
AcDbEntity
  8
7
100
AcDbLine
 10
38.93772552329267
 20
24.97287514685717
 30
0.0
 11
38.93641318733467
 21
24.9807491626052
 31
0.0
  0
LINE
  5
2DB0
330
1E
100
AcDbEntity
  8
7
100
AcDbLine
 10
38.93641318733467
 20
24.9807491626052
 30
0.0
 11
38.93641318733467
 21
25.00305887389128
 31
0.0
  0
LINE
  5
2DB1
330
1E
100
AcDbEntity
  8
7
100
AcDbLine
 10
38.93641318733467
 20
25.00305887389128
 30
0.0
 11
38.93772552329267
 21
25.0332426009254
 31
0.0
  0
LINE
  5
2DB2
330
1E
100
AcDbEntity
  8
7
100
AcDbLine
 10
38.93772552329267
 20
24.97287514685717
 30
0.0
 11
38.89573077263651
 21
24.97943682664719
 31
0.0
  0
LINE
  5
2DB3
330
1E
100
AcDbEntity
  8
7
100
AcDbLine
 10
38.89573077263651
 20
24.97943682664719
 30
0.0
 11
38.85504835793834
 21
24.99387252218525
 31
0.0
  0
LINE
  5
2DB4
330
1E
100
AcDbEntity
  8
7
100
AcDbLine
 10
38.85504835793834
 20
24.99387252218525
 30
0.0
 11
38.8183029511142
 21
25.01486989751334
 31
0.0
  0
LINE
  5
2DB5
330
1E
100
AcDbEntity
  8
7
100
AcDbLine
 10
38.8183029511142
 20
25.01486989751334
 30
0.0
 11
38.78549455216406
 21
25.04374128858945
 31
0.0
  0
LINE
  5
2DB6
330
1E
100
AcDbEntity
  8
7
100
AcDbLine
 10
38.78549455216406
 20
25.04374128858945
 30
0.0
 11
38.75924783300395
 21
25.07654968753957
 31
0.0
  0
LINE
  5
2DB7
330
1E
100
AcDbEntity
  8
7
100
AcDbLine
 10
38.75924783300395
 20
25.07654968753957
 30
0.0
 11
38.74087512959188
 21
25.11460743032173
 31
0.0
  0
LINE
  5
2DB8
330
1E
100
AcDbEntity
  8
7
100
AcDbLine
 10
38.74087512959188
 20
25.11460743032173
 30
0.0
 11
38.72775177001183
 21
25.15528984501989
 31
0.0
  0
LINE
  5
2DB9
330
1E
100
AcDbEntity
  8
7
100
AcDbLine
 10
38.72775177001183
 20
25.15528984501989
 30
0.0
 11
38.72381476213782
 21
25.19859693163406
 31
0.0
  0
LINE
  5
2DBA
330
1E
100
AcDbEntity
  8
7
100
AcDbLine
 10
38.72381476213782
 20
25.19859693163406
 30
0.0
 11
38.72775177001183
 21
25.16710086864194
 31
0.0
  0
LINE
  5
2DBB
330
1E
100
AcDbEntity
  8
7
100
AcDbLine
 10
38.72775177001183
 20
25.16710086864194
 30
0.0
 11
38.74087512959188
 21
25.13691714160782
 31
0.0
  0
LINE
  5
2DBC
330
1E
100
AcDbEntity
  8
7
100
AcDbLine
 10
38.74087512959188
 20
25.13691714160782
 30
0.0
 11
38.75924783300395
 21
25.10935808648971
 31
0.0
  0
LINE
  5
2DBD
330
1E
100
AcDbEntity
  8
7
100
AcDbLine
 10
38.75924783300395
 20
25.10935808648971
 30
0.0
 11
38.78549455216406
 21
25.08442370328761
 31
0.0
  0
LINE
  5
2DBE
330
1E
100
AcDbEntity
  8
7
100
AcDbLine
 10
38.78549455216406
 20
25.08442370328761
 30
0.0
 11
38.8183029511142
 21
25.06342632795953
 31
0.0
  0
LINE
  5
2DBF
330
1E
100
AcDbEntity
  8
7
100
AcDbLine
 10
38.8183029511142
 20
25.06342632795953
 30
0.0
 11
38.85504835793834
 21
25.04767829646346
 31
0.0
  0
LINE
  5
2DC0
330
1E
100
AcDbEntity
  8
7
100
AcDbLine
 10
38.85504835793834
 20
25.04767829646346
 30
0.0
 11
38.89573077263651
 21
25.03717960879942
 31
0.0
  0
LINE
  5
2DC1
330
1E
100
AcDbEntity
  8
7
100
AcDbLine
 10
38.89573077263651
 20
25.03717960879942
 30
0.0
 11
38.93772552329267
 21
25.0332426009254
 31
0.0
  0
LINE
  5
2DC2
330
1E
100
AcDbEntity
  8
7
100
AcDbLine
 10
38.93641318733467
 20
29.43744207599102
 30
0.0
 11
38.93641318733467
 21
29.4584394513191
 31
0.0
  0
LINE
  5
2DC3
330
1E
100
AcDbEntity
  8
7
100
AcDbLine
 10
38.93641318733467
 20
29.4584394513191
 30
0.0
 11
38.93772552329267
 21
29.46631346706714
 31
0.0
  0
LINE
  5
2DC4
330
1E
100
AcDbEntity
  8
7
100
AcDbLine
 10
38.93772552329267
 20
29.4072583489569
 30
0.0
 11
38.89573077263651
 21
29.40200900512488
 31
0.0
  0
LINE
  5
2DC5
330
1E
100
AcDbEntity
  8
7
100
AcDbLine
 10
38.89573077263651
 20
29.40200900512488
 30
0.0
 11
38.85504835793834
 21
29.39151031746084
 31
0.0
  0
LINE
  5
2DC6
330
1E
100
AcDbEntity
  8
7
100
AcDbLine
 10
38.85504835793834
 20
29.39151031746084
 30
0.0
 11
38.8183029511142
 21
29.37576228596478
 31
0.0
  0
LINE
  5
2DC7
330
1E
100
AcDbEntity
  8
7
100
AcDbLine
 10
38.8183029511142
 20
29.37576228596478
 30
0.0
 11
38.78549455216406
 21
29.3560772465947
 31
0.0
  0
LINE
  5
2DC8
330
1E
100
AcDbEntity
  8
7
100
AcDbLine
 10
38.78549455216406
 20
29.3560772465947
 30
0.0
 11
38.75924783300395
 21
29.33114286339259
 31
0.0
  0
LINE
  5
2DC9
330
1E
100
AcDbEntity
  8
7
100
AcDbLine
 10
38.75924783300395
 20
29.33114286339259
 30
0.0
 11
38.74087512959188
 21
29.30358380827449
 31
0.0
  0
LINE
  5
2DCA
330
1E
100
AcDbEntity
  8
7
100
AcDbLine
 10
38.74087512959188
 20
29.30358380827449
 30
0.0
 11
38.72775177001183
 21
29.27340008124037
 31
0.0
  0
LINE
  5
2DCB
330
1E
100
AcDbEntity
  8
7
100
AcDbLine
 10
38.72775177001183
 20
29.27340008124037
 30
0.0
 11
38.72381476213782
 21
29.24190401824824
 31
0.0
  0
LINE
  5
2DCC
330
1E
100
AcDbEntity
  8
7
100
AcDbLine
 10
38.72381476213782
 20
29.24190401824824
 30
0.0
 11
38.72775177001183
 21
29.28521110486241
 31
0.0
  0
LINE
  5
2DCD
330
1E
100
AcDbEntity
  8
7
100
AcDbLine
 10
38.72775177001183
 20
29.28521110486241
 30
0.0
 11
38.74087512959188
 21
29.32589351956057
 31
0.0
  0
LINE
  5
2DCE
330
1E
100
AcDbEntity
  8
7
100
AcDbLine
 10
38.74087512959188
 20
29.32589351956057
 30
0.0
 11
38.75924783300395
 21
29.36395126234273
 31
0.0
  0
LINE
  5
2DCF
330
1E
100
AcDbEntity
  8
7
100
AcDbLine
 10
38.75924783300395
 20
29.36395126234273
 30
0.0
 11
38.78549455216406
 21
29.39675966129286
 31
0.0
  0
LINE
  5
2DD0
330
1E
100
AcDbEntity
  8
7
100
AcDbLine
 10
38.78549455216406
 20
29.39675966129286
 30
0.0
 11
38.8183029511142
 21
29.42563105236898
 31
0.0
  0
LINE
  5
2DD1
330
1E
100
AcDbEntity
  8
7
100
AcDbLine
 10
38.8183029511142
 20
29.42563105236898
 30
0.0
 11
38.85504835793834
 21
29.44662842769706
 31
0.0
  0
LINE
  5
2DD2
330
1E
100
AcDbEntity
  8
7
100
AcDbLine
 10
38.85504835793834
 20
29.44662842769706
 30
0.0
 11
38.89573077263651
 21
29.46106412323512
 31
0.0
  0
LINE
  5
2DD3
330
1E
100
AcDbEntity
  8
7
100
AcDbLine
 10
33.35767302985435
 20
24.97025047494116
 30
0.0
 11
33.33405098261025
 21
24.97418748281517
 31
0.0
  0
LINE
  5
2DD4
330
1E
100
AcDbEntity
  8
7
100
AcDbLine
 10
33.33405098261025
 20
24.97418748281517
 30
0.0
 11
33.31436594324018
 21
24.98731084239522
 31
0.0
  0
LINE
  5
2DD5
330
1E
100
AcDbEntity
  8
7
100
AcDbLine
 10
33.31436594324018
 20
24.98731084239522
 30
0.0
 11
33.30255491961813
 21
25.0069958817653
 31
0.0
  0
LINE
  5
2DD6
330
1E
100
AcDbEntity
  8
7
100
AcDbLine
 10
33.30255491961813
 20
25.0069958817653
 30
0.0
 11
33.29730557578611
 21
25.02930559305139
 31
0.0
  0
LINE
  5
2DD7
330
1E
100
AcDbEntity
  8
7
100
AcDbLine
 10
36.04796174376511
 20
25.02930559305139
 30
0.0
 11
36.04271239993309
 21
25.0069958817653
 31
0.0
  0
LINE
  5
2DD8
330
1E
100
AcDbEntity
  8
7
100
AcDbLine
 10
36.04271239993309
 20
25.0069958817653
 30
0.0
 11
36.02958904035304
 21
24.98731084239522
 31
0.0
  0
LINE
  5
2DD9
330
1E
100
AcDbEntity
  8
7
100
AcDbLine
 10
36.02958904035304
 20
24.98731084239522
 30
0.0
 11
36.00990400098295
 21
24.97418748281517
 31
0.0
  0
LINE
  5
2DDA
330
1E
100
AcDbEntity
  8
7
100
AcDbLine
 10
36.00990400098295
 20
24.97418748281517
 30
0.0
 11
35.98759428969687
 21
24.97025047494116
 31
0.0
  0
LINE
  5
2DDB
330
1E
100
AcDbEntity
  8
7
100
AcDbLine
 10
33.35767302985435
 20
24.97025047494116
 30
0.0
 11
35.98759428969687
 21
24.97025047494116
 31
0.0
  0
LINE
  5
2DDC
330
1E
100
AcDbEntity
  8
7
100
AcDbLine
 10
35.98759428969687
 20
24.97025047494116
 30
0.0
 11
35.98496961778086
 21
24.97287514685717
 31
0.0
  0
LINE
  5
2DDD
330
1E
100
AcDbEntity
  8
7
100
AcDbLine
 10
33.29730557578611
 20
29.40988302087291
 30
0.0
 11
33.29730557578611
 21
25.02930559305139
 31
0.0
  0
LINE
  5
2DDE
330
1E
100
AcDbEntity
  8
7
100
AcDbLine
 10
33.29730557578611
 20
25.02930559305139
 30
0.0
 11
33.30124258366012
 21
25.0332426009254
 31
0.0
  0
LINE
  5
2DDF
330
1E
100
AcDbEntity
  8
7
100
AcDbLine
 10
36.0440247358911
 20
25.0332426009254
 30
0.0
 11
36.04796174376511
 21
25.02930559305139
 31
0.0
  0
LINE
  5
2DE0
330
1E
100
AcDbEntity
  8
7
100
AcDbLine
 10
36.04796174376511
 20
25.02930559305139
 30
0.0
 11
36.04796174376511
 21
29.40988302087291
 31
0.0
  0
LINE
  5
2DE1
330
1E
100
AcDbEntity
  8
7
100
AcDbLine
 10
35.98759428969687
 20
29.47025047494115
 30
0.0
 11
36.00990400098295
 21
29.46500113110913
 31
0.0
  0
LINE
  5
2DE2
330
1E
100
AcDbEntity
  8
7
100
AcDbLine
 10
36.00990400098295
 20
29.46500113110913
 30
0.0
 11
36.02958904035304
 21
29.45187777152908
 31
0.0
  0
LINE
  5
2DE3
330
1E
100
AcDbEntity
  8
7
100
AcDbLine
 10
36.02958904035304
 20
29.45187777152908
 30
0.0
 11
36.04271239993309
 21
29.43350506811701
 31
0.0
  0
LINE
  5
2DE4
330
1E
100
AcDbEntity
  8
7
100
AcDbLine
 10
36.04271239993309
 20
29.43350506811701
 30
0.0
 11
36.04796174376511
 21
29.40988302087291
 31
0.0
  0
LINE
  5
2DE5
330
1E
100
AcDbEntity
  8
7
100
AcDbLine
 10
36.04796174376511
 20
29.40988302087291
 30
0.0
 11
36.0440247358911
 21
29.4072583489569
 31
0.0
  0
LINE
  5
2DE6
330
1E
100
AcDbEntity
  8
7
100
AcDbLine
 10
35.98496961778086
 20
29.46631346706714
 30
0.0
 11
35.98759428969687
 21
29.47025047494115
 31
0.0
  0
LINE
  5
2DE7
330
1E
100
AcDbEntity
  8
7
100
AcDbLine
 10
35.98759428969687
 20
29.47025047494115
 30
0.0
 11
33.35767302985435
 21
29.47025047494115
 31
0.0
  0
LINE
  5
2DE8
330
1E
100
AcDbEntity
  8
7
100
AcDbLine
 10
33.35767302985435
 20
29.47025047494115
 30
0.0
 11
33.33405098261025
 21
29.46500113110913
 31
0.0
  0
LINE
  5
2DE9
330
1E
100
AcDbEntity
  8
7
100
AcDbLine
 10
33.33405098261025
 20
29.46500113110913
 30
0.0
 11
33.31436594324018
 21
29.45187777152908
 31
0.0
  0
LINE
  5
2DEA
330
1E
100
AcDbEntity
  8
7
100
AcDbLine
 10
33.31436594324018
 20
29.45187777152908
 30
0.0
 11
33.30255491961813
 21
29.43350506811701
 31
0.0
  0
LINE
  5
2DEB
330
1E
100
AcDbEntity
  8
7
100
AcDbLine
 10
33.30255491961813
 20
29.43350506811701
 30
0.0
 11
33.29730557578611
 21
29.40988302087291
 31
0.0
  0
LINE
  5
2DEC
330
1E
100
AcDbEntity
  8
7
100
AcDbLine
 10
33.29730557578611
 20
29.40988302087291
 30
0.0
 11
33.30124258366012
 21
29.4072583489569
 31
0.0
  0
LINE
  5
2DED
330
1E
100
AcDbEntity
  8
7
100
AcDbLine
 10
34.64244993274149
 20
27.03061792900939
 30
0.0
 11
34.65294862040554
 21
27.03455493688341
 31
0.0
  0
LINE
  5
2DEE
330
1E
100
AcDbEntity
  8
7
100
AcDbLine
 10
34.65294862040554
 20
27.03455493688341
 30
0.0
 11
34.65688562827955
 21
27.04505362454745
 31
0.0
  0
LINE
  5
2DEF
330
1E
100
AcDbEntity
  8
7
100
AcDbLine
 10
34.68706935531367
 20
27.0555523122115
 30
0.0
 11
34.68050767552365
 21
27.06867567179155
 31
0.0
  0
LINE
  5
2DF0
330
1E
100
AcDbEntity
  8
7
100
AcDbLine
 10
34.68050767552365
 20
27.06867567179155
 30
0.0
 11
34.66607197998559
 21
27.06867567179155
 31
0.0
  0
LINE
  5
2DF1
330
1E
100
AcDbEntity
  8
7
100
AcDbLine
 10
34.66607197998559
 20
27.06867567179155
 30
0.0
 11
34.65819796423756
 21
27.0555523122115
 31
0.0
  0
LINE
  5
2DF2
330
1E
100
AcDbEntity
  8
7
100
AcDbLine
 10
34.68838169127168
 20
27.04505362454745
 30
0.0
 11
34.69231869914569
 21
27.03455493688341
 31
0.0
  0
LINE
  5
2DF3
330
1E
100
AcDbEntity
  8
7
100
AcDbLine
 10
34.69231869914569
 20
27.03455493688341
 30
0.0
 11
34.70281738680973
 21
27.03061792900939
 31
0.0
  0
LINE
  5
2DF4
330
1E
100
AcDbEntity
  8
7
100
AcDbLine
 10
35.27237119258401
 20
27.00043420197527
 30
0.0
 11
35.28549455216406
 21
27.0069958817653
 31
0.0
  0
LINE
  5
2DF5
330
1E
100
AcDbEntity
  8
7
100
AcDbLine
 10
35.28549455216406
 20
27.0069958817653
 30
0.0
 11
35.28549455216406
 21
27.02143157730336
 31
0.0
  0
LINE
  5
2DF6
330
1E
100
AcDbEntity
  8
7
100
AcDbLine
 10
35.28549455216406
 20
27.02143157730336
 30
0.0
 11
35.27237119258401
 21
27.02930559305139
 31
0.0
  0
LINE
  5
2DF7
330
1E
100
AcDbEntity
  8
7
100
AcDbLine
 10
34.07289612696721
 20
27.02930559305139
 30
0.0
 11
34.05977276738716
 21
27.02274391326136
 31
0.0
  0
LINE
  5
2DF8
330
1E
100
AcDbEntity
  8
7
100
AcDbLine
 10
34.05977276738716
 20
27.02274391326136
 30
0.0
 11
34.05977276738716
 21
27.0083082177233
 31
0.0
  0
LINE
  5
2DF9
330
1E
100
AcDbEntity
  8
7
100
AcDbLine
 10
34.05977276738716
 20
27.0083082177233
 30
0.0
 11
34.07289612696721
 21
27.00043420197527
 31
0.0
  0
LINE
  5
2DFA
330
1E
100
AcDbEntity
  8
7
100
AcDbLine
 10
34.64244993274149
 20
28.18022422822199
 30
0.0
 11
34.65294862040554
 21
28.18416123609601
 31
0.0
  0
LINE
  5
2DFB
330
1E
100
AcDbEntity
  8
7
100
AcDbLine
 10
34.65294862040554
 20
28.18416123609601
 30
0.0
 11
34.65688562827955
 21
28.19465992376005
 31
0.0
  0
LINE
  5
2DFC
330
1E
100
AcDbEntity
  8
7
100
AcDbLine
 10
34.68706935531367
 20
28.2051586114241
 30
0.0
 11
34.68050767552365
 21
28.21828197100415
 31
0.0
  0
LINE
  5
2DFD
330
1E
100
AcDbEntity
  8
7
100
AcDbLine
 10
34.68050767552365
 20
28.21828197100415
 30
0.0
 11
34.66607197998559
 21
28.21828197100415
 31
0.0
  0
LINE
  5
2DFE
330
1E
100
AcDbEntity
  8
7
100
AcDbLine
 10
34.66607197998559
 20
28.21828197100415
 30
0.0
 11
34.65819796423756
 21
28.2051586114241
 31
0.0
  0
LINE
  5
2DFF
330
1E
100
AcDbEntity
  8
7
100
AcDbLine
 10
34.68838169127168
 20
28.19465992376005
 30
0.0
 11
34.69231869914569
 21
28.18416123609601
 31
0.0
  0
LINE
  5
2E00
330
1E
100
AcDbEntity
  8
7
100
AcDbLine
 10
34.69231869914569
 20
28.18416123609601
 30
0.0
 11
34.70281738680973
 21
28.18022422822199
 31
0.0
  0
LINE
  5
2E01
330
1E
100
AcDbEntity
  8
7
100
AcDbLine
 10
35.27237119258401
 20
28.15004050118787
 30
0.0
 11
35.28549455216406
 21
28.1566021809779
 31
0.0
  0
LINE
  5
2E02
330
1E
100
AcDbEntity
  8
7
100
AcDbLine
 10
35.28549455216406
 20
28.1566021809779
 30
0.0
 11
35.28549455216406
 21
28.17103787651596
 31
0.0
  0
LINE
  5
2E03
330
1E
100
AcDbEntity
  8
7
100
AcDbLine
 10
35.28549455216406
 20
28.17103787651596
 30
0.0
 11
35.27237119258401
 21
28.17891189226399
 31
0.0
  0
LINE
  5
2E04
330
1E
100
AcDbEntity
  8
7
100
AcDbLine
 10
34.07289612696721
 20
28.17891189226399
 30
0.0
 11
34.05977276738716
 21
28.17235021247396
 31
0.0
  0
LINE
  5
2E05
330
1E
100
AcDbEntity
  8
7
100
AcDbLine
 10
34.05977276738716
 20
28.17235021247396
 30
0.0
 11
34.05977276738716
 21
28.1579145169359
 31
0.0
  0
LINE
  5
2E06
330
1E
100
AcDbEntity
  8
7
100
AcDbLine
 10
35.66738431594359
 20
25.43481740407501
 30
0.0
 11
35.68706935531367
 21
25.43481740407501
 31
0.0
  0
LINE
  5
2E07
330
1E
100
AcDbEntity
  8
7
100
AcDbLine
 10
35.68706935531367
 20
25.43481740407501
 30
0.0
 11
35.68706935531367
 21
25.45319010748708
 31
0.0
  0
LINE
  5
2E08
330
1E
100
AcDbEntity
  8
7
100
AcDbLine
 10
35.68706935531367
 20
25.45319010748708
 30
0.0
 11
35.62276489337141
 21
25.45319010748708
 31
0.0
  0
LINE
  5
2E09
330
1E
100
AcDbEntity
  8
7
100
AcDbLine
 10
35.63982526082549
 20
25.43481740407501
 30
0.0
 11
35.63982526082549
 21
25.36657593425874
 31
0.0
  0
LINE
  5
2E0A
330
1E
100
AcDbEntity
  8
7
100
AcDbLine
 10
35.63982526082549
 20
25.36657593425874
 30
0.0
 11
35.66738431594359
 21
25.36657593425874
 31
0.0
  0
LINE
  5
2E0B
330
1E
100
AcDbEntity
  8
7
100
AcDbLine
 10
35.53746305610107
 20
25.39019798150284
 30
0.0
 11
35.53746305610107
 21
25.45319010748708
 31
0.0
  0
LINE
  5
2E0C
330
1E
100
AcDbEntity
  8
7
100
AcDbLine
 10
35.53746305610107
 20
25.45319010748708
 30
0.0
 11
35.50859166502495
 21
25.45319010748708
 31
0.0
  0
LINE
  5
2E0D
330
1E
100
AcDbEntity
  8
7
100
AcDbLine
 10
35.53877539205908
 20
25.39019798150284
 30
0.0
 11
35.54008772801708
 21
25.38757330958682
 31
0.0
  0
LINE
  5
2E0E
330
1E
100
AcDbEntity
  8
7
100
AcDbLine
 10
35.54008772801708
 20
25.38757330958682
 30
0.0
 11
35.54271239993309
 21
25.38626097362882
 31
0.0
  0
LINE
  5
2E0F
330
1E
100
AcDbEntity
  8
7
100
AcDbLine
 10
35.54796174376511
 20
25.38626097362882
 30
0.0
 11
35.55058641568112
 21
25.38757330958682
 31
0.0
  0
LINE
  5
2E10
330
1E
100
AcDbEntity
  8
7
100
AcDbLine
 10
35.55058641568112
 20
25.38757330958682
 30
0.0
 11
35.55189875163913
 21
25.39019798150284
 31
0.0
  0
LINE
  5
2E11
330
1E
100
AcDbEntity
  8
7
100
AcDbLine
 10
35.57158379100921
 20
25.3823239657548
 30
0.0
 11
35.57158379100921
 21
25.45319010748708
 31
0.0
  0
LINE
  5
2E12
330
1E
100
AcDbEntity
  8
7
100
AcDbLine
 10
35.57158379100921
 20
25.45319010748708
 30
0.0
 11
35.55321108759714
 21
25.45319010748708
 31
0.0
  0
LINE
  5
2E13
330
1E
100
AcDbEntity
  8
7
100
AcDbLine
 10
35.55321108759714
 20
25.45319010748708
 30
0.0
 11
35.55321108759714
 21
25.39019798150284
 31
0.0
  0
LINE
  5
2E14
330
1E
100
AcDbEntity
  8
7
100
AcDbLine
 10
35.55583575951315
 20
25.36788827021674
 30
0.0
 11
35.56633444717719
 21
25.37182527809076
 31
0.0
  0
LINE
  5
2E15
330
1E
100
AcDbEntity
  8
7
100
AcDbLine
 10
35.56633444717719
 20
25.37182527809076
 30
0.0
 11
35.5702714550512
 21
25.3823239657548
 31
0.0
  0
LINE
  5
2E16
330
1E
100
AcDbEntity
  8
7
100
AcDbLine
 10
35.50990400098295
 20
25.3823239657548
 30
0.0
 11
35.51384100885698
 21
25.37182527809076
 31
0.0
  0
LINE
  5
2E17
330
1E
100
AcDbEntity
  8
7
100
AcDbLine
 10
35.51384100885698
 20
25.37182527809076
 30
0.0
 11
35.52433969652102
 21
25.36788827021674
 31
0.0
  0
LINE
  5
2E18
330
1E
100
AcDbEntity
  8
7
100
AcDbLine
 10
35.49415596948689
 20
25.43744207599102
 30
0.0
 11
35.49021896161288
 21
25.44794076365506
 31
0.0
  0
LINE
  5
2E19
330
1E
100
AcDbEntity
  8
7
100
AcDbLine
 10
35.49021896161288
 20
25.44794076365506
 30
0.0
 11
35.47972027394884
 21
25.45187777152908
 31
0.0
  0
LINE
  5
2E1A
330
1E
100
AcDbEntity
  8
7
100
AcDbLine
 10
35.47972027394884
 20
25.36788827021674
 30
0.0
 11
35.49021896161288
 21
25.37182527809076
 31
0.0
  0
LINE
  5
2E1B
330
1E
100
AcDbEntity
  8
7
100
AcDbLine
 10
35.49021896161288
 20
25.37182527809076
 30
0.0
 11
35.49415596948689
 21
25.3823239657548
 31
0.0
  0
LINE
  5
2E1C
330
1E
100
AcDbEntity
  8
7
100
AcDbLine
 10
35.43116384350265
 20
25.45319010748708
 30
0.0
 11
35.43116384350265
 21
25.36657593425874
 31
0.0
  0
LINE
  5
2E1D
330
1E
100
AcDbEntity
  8
7
100
AcDbLine
 10
35.43116384350265
 20
25.36657593425874
 30
0.0
 11
35.47972027394884
 21
25.36657593425874
 31
0.0
  0
LINE
  5
2E1E
330
1E
100
AcDbEntity
  8
7
100
AcDbLine
 10
35.3917937647625
 20
25.36657593425874
 30
0.0
 11
35.41804048392259
 21
25.36657593425874
 31
0.0
  0
LINE
  5
2E1F
330
1E
100
AcDbEntity
  8
7
100
AcDbLine
 10
35.41804048392259
 20
25.36657593425874
 30
0.0
 11
35.41804048392259
 21
25.45319010748708
 31
0.0
  0
LINE
  5
2E20
330
1E
100
AcDbEntity
  8
7
100
AcDbLine
 10
35.41804048392259
 20
25.45319010748708
 30
0.0
 11
35.39573077263651
 21
25.45319010748708
 31
0.0
  0
LINE
  5
2E21
330
1E
100
AcDbEntity
  8
7
100
AcDbLine
 10
35.39573077263651
 20
25.45319010748708
 30
0.0
 11
35.39573077263651
 21
25.42038170853695
 31
0.0
  0
LINE
  5
2E22
330
1E
100
AcDbEntity
  8
7
100
AcDbLine
 10
35.39573077263651
 20
25.42038170853695
 30
0.0
 11
35.37998274114043
 21
25.45319010748708
 31
0.0
  0
LINE
  5
2E23
330
1E
100
AcDbEntity
  8
7
100
AcDbLine
 10
35.37998274114043
 20
25.45319010748708
 30
0.0
 11
35.35111135006433
 21
25.45319010748708
 31
0.0
  0
LINE
  5
2E24
330
1E
100
AcDbEntity
  8
7
100
AcDbLine
 10
35.35111135006433
 20
25.45319010748708
 30
0.0
 11
35.35111135006433
 21
25.39675966129286
 31
0.0
  0
LINE
  5
2E25
330
1E
100
AcDbEntity
  8
7
100
AcDbLine
 10
35.26580951279399
 20
25.40200900512488
 30
0.0
 11
35.27499586450002
 21
25.40332134108289
 31
0.0
  0
LINE
  5
2E26
330
1E
100
AcDbEntity
  8
7
100
AcDbLine
 10
35.27499586450002
 20
25.40332134108289
 30
0.0
 11
35.28286988024806
 21
25.4059460129989
 31
0.0
  0
LINE
  5
2E27
330
1E
100
AcDbEntity
  8
7
100
AcDbLine
 10
35.30124258366012
 20
25.45187777152908
 30
0.0
 11
35.28811922408007
 21
25.47156281089916
 31
0.0
  0
LINE
  5
2E28
330
1E
100
AcDbEntity
  8
7
100
AcDbLine
 10
35.28811922408007
 20
25.47156281089916
 30
0.0
 11
35.26580951279399
 21
25.47812449068919
 31
0.0
  0
LINE
  5
2E29
330
1E
100
AcDbEntity
  8
7
100
AcDbLine
 10
35.46528457841078
 20
25.43481740407501
 30
0.0
 11
35.45741056266275
 21
25.43481740407501
 31
0.0
  0
LINE
  5
2E2A
330
1E
100
AcDbEntity
  8
7
100
AcDbLine
 10
35.45741056266275
 20
25.43481740407501
 30
0.0
 11
35.45741056266275
 21
25.38626097362882
 31
0.0
  0
LINE
  5
2E2B
330
1E
100
AcDbEntity
  8
7
100
AcDbLine
 10
35.4692215862848
 20
25.430880396201
 30
0.0
 11
35.46790925032679
 21
25.43350506811701
 31
0.0
  0
LINE
  5
2E2C
330
1E
100
AcDbEntity
  8
7
100
AcDbLine
 10
35.46790925032679
 20
25.43350506811701
 30
0.0
 11
35.46528457841078
 21
25.43481740407501
 31
0.0
  0
LINE
  5
2E2D
330
1E
100
AcDbEntity
  8
7
100
AcDbLine
 10
35.46528457841078
 20
25.38626097362882
 30
0.0
 11
35.46790925032679
 21
25.38757330958682
 31
0.0
  0
LINE
  5
2E2E
330
1E
100
AcDbEntity
  8
7
100
AcDbLine
 10
35.46790925032679
 20
25.38757330958682
 30
0.0
 11
35.4692215862848
 21
25.39019798150284
 31
0.0
  0
LINE
  5
2E2F
330
1E
100
AcDbEntity
  8
7
100
AcDbLine
 10
35.24874914533991
 20
25.45975178727712
 30
0.0
 11
35.23825045767587
 21
25.45975178727712
 31
0.0
  0
LINE
  5
2E30
330
1E
100
AcDbEntity
  8
7
100
AcDbLine
 10
35.23825045767587
 20
25.45975178727712
 30
0.0
 11
35.23825045767587
 21
25.42038170853695
 31
0.0
  0
LINE
  5
2E31
330
1E
100
AcDbEntity
  8
7
100
AcDbLine
 10
35.25399848917193
 20
25.45450244344509
 30
0.0
 11
35.25268615321393
 21
25.45843945131911
 31
0.0
  0
LINE
  5
2E32
330
1E
100
AcDbEntity
  8
7
100
AcDbLine
 10
35.25268615321393
 20
25.45843945131911
 30
0.0
 11
35.24874914533991
 21
25.45975178727712
 31
0.0
  0
LINE
  5
2E33
330
1E
100
AcDbEntity
  8
7
100
AcDbLine
 10
35.24874914533991
 20
25.42038170853695
 30
0.0
 11
35.25268615321393
 21
25.42169404449496
 31
0.0
  0
LINE
  5
2E34
330
1E
100
AcDbEntity
  8
7
100
AcDbLine
 10
35.25268615321393
 20
25.42169404449496
 30
0.0
 11
35.25399848917193
 21
25.42563105236897
 31
0.0
  0
LINE
  5
2E35
330
1E
100
AcDbEntity
  8
7
100
AcDbLine
 10
34.68706935531367
 20
27.0555523122115
 30
0.0
 11
34.68050767552365
 21
27.06867567179155
 31
0.0
  0
LINE
  5
2E36
330
1E
100
AcDbEntity
  8
7
100
AcDbLine
 10
34.68050767552365
 20
27.06867567179155
 30
0.0
 11
34.66607197998559
 21
27.06867567179155
 31
0.0
  0
LINE
  5
2E37
330
1E
100
AcDbEntity
  8
7
100
AcDbLine
 10
34.66607197998559
 20
27.06867567179155
 30
0.0
 11
34.65819796423756
 21
27.0555523122115
 31
0.0
  0
LINE
  5
2E38
330
1E
100
AcDbEntity
  8
7
100
AcDbLine
 10
34.64244993274149
 20
27.03061792900939
 30
0.0
 11
34.65294862040554
 21
27.03455493688341
 31
0.0
  0
LINE
  5
2E39
330
1E
100
AcDbEntity
  8
7
100
AcDbLine
 10
34.65294862040554
 20
27.03455493688341
 30
0.0
 11
34.65688562827955
 21
27.04505362454745
 31
0.0
  0
LINE
  5
2E3A
330
1E
100
AcDbEntity
  8
7
100
AcDbLine
 10
34.07289612696721
 20
27.02930559305139
 30
0.0
 11
34.05977276738716
 21
27.02274391326136
 31
0.0
  0
LINE
  5
2E3B
330
1E
100
AcDbEntity
  8
7
100
AcDbLine
 10
34.05977276738716
 20
27.02274391326136
 30
0.0
 11
34.05977276738716
 21
27.0083082177233
 31
0.0
  0
LINE
  5
2E3C
330
1E
100
AcDbEntity
  8
7
100
AcDbLine
 10
34.05977276738716
 20
27.0083082177233
 30
0.0
 11
34.07289612696721
 21
27.00043420197527
 31
0.0
  0
LINE
  5
2E3D
330
1E
100
AcDbEntity
  8
7
100
AcDbLine
 10
35.27237119258401
 20
27.00043420197527
 30
0.0
 11
35.28549455216406
 21
27.0069958817653
 31
0.0
  0
LINE
  5
2E3E
330
1E
100
AcDbEntity
  8
7
100
AcDbLine
 10
35.28549455216406
 20
27.0069958817653
 30
0.0
 11
35.28549455216406
 21
27.02143157730336
 31
0.0
  0
LINE
  5
2E3F
330
1E
100
AcDbEntity
  8
7
100
AcDbLine
 10
35.28549455216406
 20
27.02143157730336
 30
0.0
 11
35.27237119258401
 21
27.02930559305139
 31
0.0
  0
LINE
  5
2E40
330
1E
100
AcDbEntity
  8
7
100
AcDbLine
 10
34.68838169127168
 20
27.04505362454745
 30
0.0
 11
34.69231869914569
 21
27.03455493688341
 31
0.0
  0
LINE
  5
2E41
330
1E
100
AcDbEntity
  8
7
100
AcDbLine
 10
34.69231869914569
 20
27.03455493688341
 30
0.0
 11
34.70281738680973
 21
27.03061792900939
 31
0.0
  0
LINE
  5
2E42
330
1E
100
AcDbEntity
  8
7
100
AcDbLine
 10
34.65163628444753
 20
25.42956806024299
 30
0.0
 11
34.6936310351037
 21
25.42956806024299
 31
0.0
  0
LINE
  5
2E43
330
1E
100
AcDbEntity
  8
7
100
AcDbLine
 10
34.6936310351037
 20
25.42956806024299
 30
0.0
 11
34.73300111384385
 21
25.44137908386504
 31
0.0
  0
LINE
  5
2E44
330
1E
100
AcDbEntity
  8
7
100
AcDbLine
 10
34.73300111384385
 20
25.44137908386504
 30
0.0
 11
34.76843418471
 21
25.46237645919312
 31
0.0
  0
LINE
  5
2E45
330
1E
100
AcDbEntity
  8
7
100
AcDbLine
 10
34.76843418471
 20
25.46237645919312
 30
0.0
 11
34.7959932398281
 21
25.49256018622724
 31
0.0
  0
LINE
  5
2E46
330
1E
100
AcDbEntity
  8
7
100
AcDbLine
 10
34.7959932398281
 20
25.49256018622724
 30
0.0
 11
34.81436594324018
 21
25.52799325709338
 31
0.0
  0
LINE
  5
2E47
330
1E
100
AcDbEntity
  8
7
100
AcDbLine
 10
34.81436594324018
 20
25.52799325709338
 30
0.0
 11
34.82355229494622
 21
25.56867567179155
 31
0.0
  0
LINE
  5
2E48
330
1E
100
AcDbEntity
  8
7
100
AcDbLine
 10
34.82355229494622
 20
25.56867567179155
 30
0.0
 11
34.8209276230302
 21
25.60935808648971
 31
0.0
  0
LINE
  5
2E49
330
1E
100
AcDbEntity
  8
7
100
AcDbLine
 10
34.8209276230302
 20
25.60935808648971
 30
0.0
 11
34.80649192749215
 21
25.64872816522987
 31
0.0
  0
LINE
  5
2E4A
330
1E
100
AcDbEntity
  8
7
100
AcDbLine
 10
34.80649192749215
 20
25.64872816522987
 30
0.0
 11
34.78286988024805
 21
25.68153656418
 31
0.0
  0
LINE
  5
2E4B
330
1E
100
AcDbEntity
  8
7
100
AcDbLine
 10
34.78286988024805
 20
25.68153656418
 30
0.0
 11
34.75137381725592
 21
25.70778328334011
 31
0.0
  0
LINE
  5
2E4C
330
1E
100
AcDbEntity
  8
7
100
AcDbLine
 10
34.75137381725592
 20
25.70778328334011
 30
0.0
 11
34.71331607447377
 21
25.72484365079418
 31
0.0
  0
LINE
  5
2E4D
330
1E
100
AcDbEntity
  8
7
100
AcDbLine
 10
34.71331607447377
 20
25.72484365079418
 30
0.0
 11
34.67263365977561
 21
25.73009299462619
 31
0.0
  0
LINE
  5
2E4E
330
1E
100
AcDbEntity
  8
7
100
AcDbLine
 10
34.67263365977561
 20
25.73009299462619
 30
0.0
 11
34.63195124507744
 21
25.72484365079418
 31
0.0
  0
LINE
  5
2E4F
330
1E
100
AcDbEntity
  8
7
100
AcDbLine
 10
34.63195124507744
 20
25.72484365079418
 30
0.0
 11
34.59389350229529
 21
25.70778328334011
 31
0.0
  0
LINE
  5
2E50
330
1E
100
AcDbEntity
  8
7
100
AcDbLine
 10
34.59389350229529
 20
25.70778328334011
 30
0.0
 11
34.56239743930317
 21
25.68153656418
 31
0.0
  0
LINE
  5
2E51
330
1E
100
AcDbEntity
  8
7
100
AcDbLine
 10
34.56239743930317
 20
25.68153656418
 30
0.0
 11
34.53877539205908
 21
25.64872816522987
 31
0.0
  0
LINE
  5
2E52
330
1E
100
AcDbEntity
  8
7
100
AcDbLine
 10
34.53877539205908
 20
25.64872816522987
 30
0.0
 11
34.52433969652102
 21
25.60935808648971
 31
0.0
  0
LINE
  5
2E53
330
1E
100
AcDbEntity
  8
7
100
AcDbLine
 10
34.52433969652102
 20
25.60935808648971
 30
0.0
 11
34.52171502460501
 21
25.56867567179155
 31
0.0
  0
LINE
  5
2E54
330
1E
100
AcDbEntity
  8
7
100
AcDbLine
 10
34.52171502460501
 20
25.56867567179155
 30
0.0
 11
34.53090137631105
 21
25.52799325709338
 31
0.0
  0
LINE
  5
2E55
330
1E
100
AcDbEntity
  8
7
100
AcDbLine
 10
34.53090137631105
 20
25.52799325709338
 30
0.0
 11
34.54927407972312
 21
25.49256018622724
 31
0.0
  0
LINE
  5
2E56
330
1E
100
AcDbEntity
  8
7
100
AcDbLine
 10
34.54927407972312
 20
25.49256018622724
 30
0.0
 11
34.57683313484123
 21
25.46237645919312
 31
0.0
  0
LINE
  5
2E57
330
1E
100
AcDbEntity
  8
7
100
AcDbLine
 10
34.57683313484123
 20
25.46237645919312
 30
0.0
 11
34.61226620570737
 21
25.44137908386504
 31
0.0
  0
LINE
  5
2E58
330
1E
100
AcDbEntity
  8
7
100
AcDbLine
 10
34.61226620570737
 20
25.44137908386504
 30
0.0
 11
34.65163628444753
 21
25.42956806024299
 31
0.0
  0
LINE
  5
2E59
330
1E
100
AcDbEntity
  8
7
100
AcDbLine
 10
34.75137381725592
 20
28.98862317835323
 30
0.0
 11
34.71331607447377
 21
29.00568354580729
 31
0.0
  0
LINE
  5
2E5A
330
1E
100
AcDbEntity
  8
7
100
AcDbLine
 10
34.71331607447377
 20
29.00568354580729
 30
0.0
 11
34.67263365977561
 21
29.01093288963931
 31
0.0
  0
LINE
  5
2E5B
330
1E
100
AcDbEntity
  8
7
100
AcDbLine
 10
34.52171502460501
 20
28.84951556680467
 30
0.0
 11
34.53090137631105
 21
28.80883315210651
 31
0.0
  0
LINE
  5
2E5C
330
1E
100
AcDbEntity
  8
7
100
AcDbLine
 10
34.53090137631105
 20
28.80883315210651
 30
0.0
 11
34.54927407972312
 21
28.77340008124037
 31
0.0
  0
LINE
  5
2E5D
330
1E
100
AcDbEntity
  8
7
100
AcDbLine
 10
34.54927407972312
 20
28.77340008124037
 30
0.0
 11
34.57683313484123
 21
28.74321635420624
 31
0.0
  0
LINE
  5
2E5E
330
1E
100
AcDbEntity
  8
7
100
AcDbLine
 10
34.57683313484123
 20
28.74321635420624
 30
0.0
 11
34.61226620570737
 21
28.72221897887817
 31
0.0
  0
LINE
  5
2E5F
330
1E
100
AcDbEntity
  8
7
100
AcDbLine
 10
34.61226620570737
 20
28.72221897887817
 30
0.0
 11
34.65163628444753
 21
28.71040795525612
 31
0.0
  0
LINE
  5
2E60
330
1E
100
AcDbEntity
  8
7
100
AcDbLine
 10
34.65163628444753
 20
28.71040795525612
 30
0.0
 11
34.6936310351037
 21
28.71040795525612
 31
0.0
  0
LINE
  5
2E61
330
1E
100
AcDbEntity
  8
7
100
AcDbLine
 10
34.6936310351037
 20
28.71040795525612
 30
0.0
 11
34.73300111384385
 21
28.72221897887817
 31
0.0
  0
LINE
  5
2E62
330
1E
100
AcDbEntity
  8
7
100
AcDbLine
 10
34.73300111384385
 20
28.72221897887817
 30
0.0
 11
34.76843418471
 21
28.74321635420624
 31
0.0
  0
LINE
  5
2E63
330
1E
100
AcDbEntity
  8
7
100
AcDbLine
 10
34.76843418471
 20
28.74321635420624
 30
0.0
 11
34.7959932398281
 21
28.77340008124037
 31
0.0
  0
LINE
  5
2E64
330
1E
100
AcDbEntity
  8
7
100
AcDbLine
 10
34.7959932398281
 20
28.77340008124037
 30
0.0
 11
34.81436594324018
 21
28.80883315210651
 31
0.0
  0
LINE
  5
2E65
330
1E
100
AcDbEntity
  8
7
100
AcDbLine
 10
34.81436594324018
 20
28.80883315210651
 30
0.0
 11
34.82355229494622
 21
28.84951556680467
 31
0.0
  0
LINE
  5
2E66
330
1E
100
AcDbEntity
  8
7
100
AcDbLine
 10
34.82355229494622
 20
28.84951556680467
 30
0.0
 11
34.8209276230302
 21
28.89019798150284
 31
0.0
  0
LINE
  5
2E67
330
1E
100
AcDbEntity
  8
7
100
AcDbLine
 10
34.8209276230302
 20
28.89019798150284
 30
0.0
 11
34.80649192749215
 21
28.92956806024299
 31
0.0
  0
LINE
  5
2E68
330
1E
100
AcDbEntity
  8
7
100
AcDbLine
 10
34.80649192749215
 20
28.92956806024299
 30
0.0
 11
34.78286988024805
 21
28.96237645919312
 31
0.0
  0
LINE
  5
2E69
330
1E
100
AcDbEntity
  8
7
100
AcDbLine
 10
34.78286988024805
 20
28.96237645919312
 30
0.0
 11
34.75137381725592
 21
28.98862317835323
 31
0.0
  0
LINE
  5
2E6A
330
1E
100
AcDbEntity
  8
7
100
AcDbLine
 10
34.67263365977561
 20
29.01093288963931
 30
0.0
 11
34.63195124507744
 21
29.00568354580729
 31
0.0
  0
LINE
  5
2E6B
330
1E
100
AcDbEntity
  8
7
100
AcDbLine
 10
34.63195124507744
 20
29.00568354580729
 30
0.0
 11
34.59389350229529
 21
28.98862317835323
 31
0.0
  0
LINE
  5
2E6C
330
1E
100
AcDbEntity
  8
7
100
AcDbLine
 10
34.59389350229529
 20
28.98862317835323
 30
0.0
 11
34.56239743930317
 21
28.96237645919312
 31
0.0
  0
LINE
  5
2E6D
330
1E
100
AcDbEntity
  8
7
100
AcDbLine
 10
34.56239743930317
 20
28.96237645919312
 30
0.0
 11
34.53877539205908
 21
28.92956806024299
 31
0.0
  0
LINE
  5
2E6E
330
1E
100
AcDbEntity
  8
7
100
AcDbLine
 10
34.53877539205908
 20
28.92956806024299
 30
0.0
 11
34.52433969652102
 21
28.89019798150284
 31
0.0
  0
LINE
  5
2E6F
330
1E
100
AcDbEntity
  8
7
100
AcDbLine
 10
34.52433969652102
 20
28.89019798150284
 30
0.0
 11
34.52171502460501
 21
28.84951556680467
 31
0.0
  0
LINE
  5
2E70
330
1E
100
AcDbEntity
  8
7
100
AcDbLine
 10
34.68706935531367
 20
28.2051586114241
 30
0.0
 11
34.68050767552365
 21
28.21828197100415
 31
0.0
  0
LINE
  5
2E71
330
1E
100
AcDbEntity
  8
7
100
AcDbLine
 10
34.68050767552365
 20
28.21828197100415
 30
0.0
 11
34.66607197998559
 21
28.21828197100415
 31
0.0
  0
LINE
  5
2E72
330
1E
100
AcDbEntity
  8
7
100
AcDbLine
 10
34.66607197998559
 20
28.21828197100415
 30
0.0
 11
34.65819796423756
 21
28.2051586114241
 31
0.0
  0
LINE
  5
2E73
330
1E
100
AcDbEntity
  8
7
100
AcDbLine
 10
34.64244993274149
 20
28.18022422822199
 30
0.0
 11
34.65294862040554
 21
28.18416123609601
 31
0.0
  0
LINE
  5
2E74
330
1E
100
AcDbEntity
  8
7
100
AcDbLine
 10
34.65294862040554
 20
28.18416123609601
 30
0.0
 11
34.65688562827955
 21
28.19465992376005
 31
0.0
  0
LINE
  5
2E75
330
1E
100
AcDbEntity
  8
7
100
AcDbLine
 10
34.07289612696721
 20
28.17891189226399
 30
0.0
 11
34.05977276738716
 21
28.17235021247396
 31
0.0
  0
LINE
  5
2E76
330
1E
100
AcDbEntity
  8
7
100
AcDbLine
 10
34.05977276738716
 20
28.17235021247396
 30
0.0
 11
34.05977276738716
 21
28.1579145169359
 31
0.0
  0
LINE
  5
2E77
330
1E
100
AcDbEntity
  8
7
100
AcDbLine
 10
34.05977276738716
 20
28.1579145169359
 30
0.0
 11
34.07289612696721
 21
28.15004050118787
 31
0.0
  0
LINE
  5
2E78
330
1E
100
AcDbEntity
  8
7
100
AcDbLine
 10
35.27237119258401
 20
28.15004050118787
 30
0.0
 11
35.28549455216406
 21
28.1566021809779
 31
0.0
  0
LINE
  5
2E79
330
1E
100
AcDbEntity
  8
7
100
AcDbLine
 10
35.28549455216406
 20
28.1566021809779
 30
0.0
 11
35.28549455216406
 21
28.17103787651596
 31
0.0
  0
LINE
  5
2E7A
330
1E
100
AcDbEntity
  8
7
100
AcDbLine
 10
35.28549455216406
 20
28.17103787651596
 30
0.0
 11
35.27237119258401
 21
28.17891189226399
 31
0.0
  0
LINE
  5
2E7B
330
1E
100
AcDbEntity
  8
7
100
AcDbLine
 10
34.68838169127168
 20
28.19465992376005
 30
0.0
 11
34.69231869914569
 21
28.18416123609601
 31
0.0
  0
LINE
  5
2E7C
330
1E
100
AcDbEntity
  8
7
100
AcDbLine
 10
34.69231869914569
 20
28.18416123609601
 30
0.0
 11
34.70281738680973
 21
28.18022422822199
 31
0.0
  0
LINE
  5
2E7D
330
1E
100
AcDbEntity
  8
7
100
AcDbLine
 10
33.30124258366012
 20
25.0332426009254
 30
0.0
 11
33.30911659940816
 21
25.00305887389128
 31
0.0
  0
LINE
  5
2E7E
330
1E
100
AcDbEntity
  8
7
100
AcDbLine
 10
33.30911659940816
 20
25.00305887389128
 30
0.0
 11
33.33011397473624
 21
24.9807491626052
 31
0.0
  0
LINE
  5
2E7F
330
1E
100
AcDbEntity
  8
7
100
AcDbLine
 10
33.33011397473624
 20
24.9807491626052
 30
0.0
 11
33.36029770177036
 21
24.97287514685717
 31
0.0
  0
LINE
  5
2E80
330
1E
100
AcDbEntity
  8
7
100
AcDbLine
 10
35.98496961778086
 20
24.97287514685717
 30
0.0
 11
36.01384100885698
 21
24.9807491626052
 31
0.0
  0
LINE
  5
2E81
330
1E
100
AcDbEntity
  8
7
100
AcDbLine
 10
36.01384100885698
 20
24.9807491626052
 30
0.0
 11
36.03615072014306
 21
25.00305887389128
 31
0.0
  0
LINE
  5
2E82
330
1E
100
AcDbEntity
  8
7
100
AcDbLine
 10
36.03615072014306
 20
25.00305887389128
 30
0.0
 11
36.0440247358911
 21
25.0332426009254
 31
0.0
  0
LINE
  5
2E83
330
1E
100
AcDbEntity
  8
7
100
AcDbLine
 10
35.98496961778086
 20
24.97287514685717
 30
0.0
 11
35.97972027394884
 21
24.97943682664719
 31
0.0
  0
LINE
  5
2E84
330
1E
100
AcDbEntity
  8
7
100
AcDbLine
 10
35.97972027394884
 20
24.97943682664719
 30
0.0
 11
35.9692215862848
 21
24.99387252218525
 31
0.0
  0
LINE
  5
2E85
330
1E
100
AcDbEntity
  8
7
100
AcDbLine
 10
35.9692215862848
 20
24.99387252218525
 30
0.0
 11
35.95347355478873
 21
25.01486989751334
 31
0.0
  0
LINE
  5
2E86
330
1E
100
AcDbEntity
  8
7
100
AcDbLine
 10
35.95347355478873
 20
25.01486989751334
 30
0.0
 11
35.93247617946065
 21
25.04374128858945
 31
0.0
  0
LINE
  5
2E87
330
1E
100
AcDbEntity
  8
7
100
AcDbLine
 10
35.93247617946065
 20
25.04374128858945
 30
0.0
 11
35.90885413221656
 21
25.07654968753957
 31
0.0
  0
LINE
  5
2E88
330
1E
100
AcDbEntity
  8
7
100
AcDbLine
 10
35.90885413221656
 20
25.07654968753957
 30
0.0
 11
35.88129507709844
 21
25.11460743032173
 31
0.0
  0
LINE
  5
2E89
330
1E
100
AcDbEntity
  8
7
100
AcDbLine
 10
35.88129507709844
 20
25.11460743032173
 30
0.0
 11
35.85111135006433
 21
25.15528984501989
 31
0.0
  0
LINE
  5
2E8A
330
1E
100
AcDbEntity
  8
7
100
AcDbLine
 10
35.85111135006433
 20
25.15528984501989
 30
0.0
 11
35.8196152870722
 21
25.19859693163406
 31
0.0
  0
LINE
  5
2E8B
330
1E
100
AcDbEntity
  8
7
100
AcDbLine
 10
33.52565203247903
 20
25.19859693163406
 30
0.0
 11
33.4941559694869
 21
25.15528984501989
 31
0.0
  0
LINE
  5
2E8C
330
1E
100
AcDbEntity
  8
7
100
AcDbLine
 10
33.4941559694869
 20
25.15528984501989
 30
0.0
 11
33.46397224245277
 21
25.11460743032173
 31
0.0
  0
LINE
  5
2E8D
330
1E
100
AcDbEntity
  8
7
100
AcDbLine
 10
33.46397224245277
 20
25.11460743032173
 30
0.0
 11
33.43641318733467
 21
25.07654968753957
 31
0.0
  0
LINE
  5
2E8E
330
1E
100
AcDbEntity
  8
7
100
AcDbLine
 10
33.43641318733467
 20
25.07654968753957
 30
0.0
 11
33.41147880413257
 21
25.04374128858945
 31
0.0
  0
LINE
  5
2E8F
330
1E
100
AcDbEntity
  8
7
100
AcDbLine
 10
33.41147880413257
 20
25.04374128858945
 30
0.0
 11
33.39179376476249
 21
25.01486989751334
 31
0.0
  0
LINE
  5
2E90
330
1E
100
AcDbEntity
  8
7
100
AcDbLine
 10
33.39179376476249
 20
25.01486989751334
 30
0.0
 11
33.37604573326642
 21
24.99387252218525
 31
0.0
  0
LINE
  5
2E91
330
1E
100
AcDbEntity
  8
7
100
AcDbLine
 10
33.37604573326642
 20
24.99387252218525
 30
0.0
 11
33.36554704560238
 21
24.97943682664719
 31
0.0
  0
LINE
  5
2E92
330
1E
100
AcDbEntity
  8
7
100
AcDbLine
 10
33.36554704560238
 20
24.97943682664719
 30
0.0
 11
33.36029770177036
 21
24.97287514685717
 31
0.0
  0
LINE
  5
2E93
330
1E
100
AcDbEntity
  8
7
100
AcDbLine
 10
34.60045518208533
 20
25.59754706286767
 30
0.0
 11
34.60045518208533
 21
25.56080165604352
 31
0.0
  0
LINE
  5
2E94
330
1E
100
AcDbEntity
  8
7
100
AcDbLine
 10
34.60045518208533
 20
25.56080165604352
 30
0.0
 11
34.61751554953939
 21
25.52930559305139
 31
0.0
  0
LINE
  5
2E95
330
1E
100
AcDbEntity
  8
7
100
AcDbLine
 10
34.61751554953939
 20
25.52930559305139
 30
0.0
 11
34.64244993274149
 21
25.51093288963931
 31
0.0
  0
LINE
  5
2E96
330
1E
100
AcDbEntity
  8
7
100
AcDbLine
 10
34.64244993274149
 20
25.51093288963931
 30
0.0
 11
34.67263365977561
 21
25.50437120984929
 31
0.0
  0
LINE
  5
2E97
330
1E
100
AcDbEntity
  8
7
100
AcDbLine
 10
34.67263365977561
 20
25.50437120984929
 30
0.0
 11
34.70281738680973
 21
25.51093288963931
 31
0.0
  0
LINE
  5
2E98
330
1E
100
AcDbEntity
  8
7
100
AcDbLine
 10
34.70281738680973
 20
25.51093288963931
 30
0.0
 11
34.72775177001183
 21
25.52930559305139
 31
0.0
  0
LINE
  5
2E99
330
1E
100
AcDbEntity
  8
7
100
AcDbLine
 10
34.72775177001183
 20
25.52930559305139
 30
0.0
 11
34.7448121374659
 21
25.56080165604352
 31
0.0
  0
LINE
  5
2E9A
330
1E
100
AcDbEntity
  8
7
100
AcDbLine
 10
34.7448121374659
 20
25.56080165604352
 30
0.0
 11
34.7448121374659
 21
25.59754706286767
 31
0.0
  0
LINE
  5
2E9B
330
1E
100
AcDbEntity
  8
7
100
AcDbLine
 10
34.7448121374659
 20
25.59754706286767
 30
0.0
 11
34.72775177001183
 21
25.62904312585979
 31
0.0
  0
LINE
  5
2E9C
330
1E
100
AcDbEntity
  8
7
100
AcDbLine
 10
34.72775177001183
 20
25.62904312585979
 30
0.0
 11
34.70281738680973
 21
25.64741582927187
 31
0.0
  0
LINE
  5
2E9D
330
1E
100
AcDbEntity
  8
7
100
AcDbLine
 10
34.70281738680973
 20
25.64741582927187
 30
0.0
 11
34.67263365977561
 21
25.65397750906189
 31
0.0
  0
LINE
  5
2E9E
330
1E
100
AcDbEntity
  8
7
100
AcDbLine
 10
34.67263365977561
 20
25.65397750906189
 30
0.0
 11
34.64244993274149
 21
25.64741582927187
 31
0.0
  0
LINE
  5
2E9F
330
1E
100
AcDbEntity
  8
7
100
AcDbLine
 10
34.64244993274149
 20
25.64741582927187
 30
0.0
 11
34.61751554953939
 21
25.62904312585979
 31
0.0
  0
LINE
  5
2EA0
330
1E
100
AcDbEntity
  8
7
100
AcDbLine
 10
34.61751554953939
 20
28.90988302087291
 30
0.0
 11
34.60045518208533
 21
28.87838695788079
 31
0.0
  0
LINE
  5
2EA1
330
1E
100
AcDbEntity
  8
7
100
AcDbLine
 10
34.60045518208533
 20
28.87838695788079
 30
0.0
 11
34.60045518208533
 21
28.84164155105664
 31
0.0
  0
LINE
  5
2EA2
330
1E
100
AcDbEntity
  8
7
100
AcDbLine
 10
34.60045518208533
 20
28.84164155105664
 30
0.0
 11
34.61751554953939
 21
28.81014548806451
 31
0.0
  0
LINE
  5
2EA3
330
1E
100
AcDbEntity
  8
7
100
AcDbLine
 10
34.61751554953939
 20
28.81014548806451
 30
0.0
 11
34.64244993274149
 21
28.79177278465244
 31
0.0
  0
LINE
  5
2EA4
330
1E
100
AcDbEntity
  8
7
100
AcDbLine
 10
34.64244993274149
 20
28.79177278465244
 30
0.0
 11
34.67263365977561
 21
28.78521110486241
 31
0.0
  0
LINE
  5
2EA5
330
1E
100
AcDbEntity
  8
7
100
AcDbLine
 10
34.67263365977561
 20
28.78521110486241
 30
0.0
 11
34.70281738680973
 21
28.79177278465244
 31
0.0
  0
LINE
  5
2EA6
330
1E
100
AcDbEntity
  8
7
100
AcDbLine
 10
34.70281738680973
 20
28.79177278465244
 30
0.0
 11
34.72775177001183
 21
28.81014548806451
 31
0.0
  0
LINE
  5
2EA7
330
1E
100
AcDbEntity
  8
7
100
AcDbLine
 10
34.72775177001183
 20
28.81014548806451
 30
0.0
 11
34.7448121374659
 21
28.84164155105664
 31
0.0
  0
LINE
  5
2EA8
330
1E
100
AcDbEntity
  8
7
100
AcDbLine
 10
34.7448121374659
 20
28.84164155105664
 30
0.0
 11
34.7448121374659
 21
28.87838695788079
 31
0.0
  0
LINE
  5
2EA9
330
1E
100
AcDbEntity
  8
7
100
AcDbLine
 10
34.7448121374659
 20
28.87838695788079
 30
0.0
 11
34.72775177001183
 21
28.90988302087291
 31
0.0
  0
LINE
  5
2EAA
330
1E
100
AcDbEntity
  8
7
100
AcDbLine
 10
34.72775177001183
 20
28.90988302087291
 30
0.0
 11
34.70281738680973
 21
28.92825572428499
 31
0.0
  0
LINE
  5
2EAB
330
1E
100
AcDbEntity
  8
7
100
AcDbLine
 10
34.70281738680973
 20
28.92825572428499
 30
0.0
 11
34.67263365977561
 21
28.93481740407501
 31
0.0
  0
LINE
  5
2EAC
330
1E
100
AcDbEntity
  8
7
100
AcDbLine
 10
34.67263365977561
 20
28.93481740407501
 30
0.0
 11
34.64244993274149
 21
28.92825572428499
 31
0.0
  0
LINE
  5
2EAD
330
1E
100
AcDbEntity
  8
7
100
AcDbLine
 10
34.64244993274149
 20
28.92825572428499
 30
0.0
 11
34.61751554953939
 21
28.90988302087291
 31
0.0
  0
LINE
  5
2EAE
330
1E
100
AcDbEntity
  8
7
100
AcDbLine
 10
33.30124258366012
 20
25.0332426009254
 30
0.0
 11
33.30649192749215
 21
25.03717960879942
 31
0.0
  0
LINE
  5
2EAF
330
1E
100
AcDbEntity
  8
7
100
AcDbLine
 10
33.30649192749215
 20
25.03717960879942
 30
0.0
 11
33.3209276230302
 21
25.04767829646346
 31
0.0
  0
LINE
  5
2EB0
330
1E
100
AcDbEntity
  8
7
100
AcDbLine
 10
33.3209276230302
 20
25.04767829646346
 30
0.0
 11
33.34192499835828
 21
25.06342632795953
 31
0.0
  0
LINE
  5
2EB1
330
1E
100
AcDbEntity
  8
7
100
AcDbLine
 10
33.34192499835828
 20
25.06342632795953
 30
0.0
 11
33.3707963894344
 21
25.08442370328761
 31
0.0
  0
LINE
  5
2EB2
330
1E
100
AcDbEntity
  8
7
100
AcDbLine
 10
33.3707963894344
 20
25.08442370328761
 30
0.0
 11
33.40360478838454
 21
25.10935808648971
 31
0.0
  0
LINE
  5
2EB3
330
1E
100
AcDbEntity
  8
7
100
AcDbLine
 10
33.40360478838454
 20
25.10935808648971
 30
0.0
 11
33.44166253116669
 21
25.13691714160782
 31
0.0
  0
LINE
  5
2EB4
330
1E
100
AcDbEntity
  8
7
100
AcDbLine
 10
33.44166253116669
 20
25.13691714160782
 30
0.0
 11
33.48234494586485
 21
25.16710086864194
 31
0.0
  0
LINE
  5
2EB5
330
1E
100
AcDbEntity
  8
7
100
AcDbLine
 10
33.48234494586485
 20
25.16710086864194
 30
0.0
 11
33.52565203247903
 21
25.19859693163406
 31
0.0
  0
LINE
  5
2EB6
330
1E
100
AcDbEntity
  8
7
100
AcDbLine
 10
35.86161003772836
 20
25.16710086864194
 30
0.0
 11
35.90229245242653
 21
25.13691714160782
 31
0.0
  0
LINE
  5
2EB7
330
1E
100
AcDbEntity
  8
7
100
AcDbLine
 10
35.90229245242653
 20
25.13691714160782
 30
0.0
 11
35.94035019520868
 21
25.10935808648971
 31
0.0
  0
LINE
  5
2EB8
330
1E
100
AcDbEntity
  8
7
100
AcDbLine
 10
35.94035019520868
 20
25.10935808648971
 30
0.0
 11
35.97447093011682
 21
25.08442370328761
 31
0.0
  0
LINE
  5
2EB9
330
1E
100
AcDbEntity
  8
7
100
AcDbLine
 10
35.97447093011682
 20
25.08442370328761
 30
0.0
 11
36.00202998523492
 21
25.06342632795953
 31
0.0
  0
LINE
  5
2EBA
330
1E
100
AcDbEntity
  8
7
100
AcDbLine
 10
36.00202998523492
 20
25.06342632795953
 30
0.0
 11
36.02433969652102
 21
25.04767829646346
 31
0.0
  0
LINE
  5
2EBB
330
1E
100
AcDbEntity
  8
7
100
AcDbLine
 10
36.02433969652102
 20
25.04767829646346
 30
0.0
 11
36.03746305610107
 21
25.03717960879942
 31
0.0
  0
LINE
  5
2EBC
330
1E
100
AcDbEntity
  8
7
100
AcDbLine
 10
36.03746305610107
 20
25.03717960879942
 30
0.0
 11
36.0440247358911
 21
25.0332426009254
 31
0.0
  0
LINE
  5
2EBD
330
1E
100
AcDbEntity
  8
7
100
AcDbLine
 10
36.0440247358911
 20
29.4072583489569
 30
0.0
 11
36.03615072014306
 21
29.43744207599102
 31
0.0
  0
LINE
  5
2EBE
330
1E
100
AcDbEntity
  8
7
100
AcDbLine
 10
36.03615072014306
 20
29.43744207599102
 30
0.0
 11
36.01384100885698
 21
29.4584394513191
 31
0.0
  0
LINE
  5
2EBF
330
1E
100
AcDbEntity
  8
7
100
AcDbLine
 10
36.01384100885698
 20
29.4584394513191
 30
0.0
 11
35.98496961778086
 21
29.46631346706714
 31
0.0
  0
LINE
  5
2EC0
330
1E
100
AcDbEntity
  8
7
100
AcDbLine
 10
36.00202998523492
 20
29.37576228596478
 30
0.0
 11
35.97447093011682
 21
29.3560772465947
 31
0.0
  0
LINE
  5
2EC1
330
1E
100
AcDbEntity
  8
7
100
AcDbLine
 10
35.97447093011682
 20
29.3560772465947
 30
0.0
 11
35.94035019520868
 21
29.33114286339259
 31
0.0
  0
LINE
  5
2EC2
330
1E
100
AcDbEntity
  8
7
100
AcDbLine
 10
35.94035019520868
 20
29.33114286339259
 30
0.0
 11
35.90229245242653
 21
29.30358380827449
 31
0.0
  0
LINE
  5
2EC3
330
1E
100
AcDbEntity
  8
7
100
AcDbLine
 10
35.90229245242653
 20
29.30358380827449
 30
0.0
 11
35.86161003772836
 21
29.27340008124037
 31
0.0
  0
LINE
  5
2EC4
330
1E
100
AcDbEntity
  8
7
100
AcDbLine
 10
35.86161003772836
 20
29.27340008124037
 30
0.0
 11
35.8196152870722
 21
29.24190401824824
 31
0.0
  0
LINE
  5
2EC5
330
1E
100
AcDbEntity
  8
7
100
AcDbLine
 10
36.0440247358911
 20
29.4072583489569
 30
0.0
 11
36.03746305610107
 21
29.40200900512488
 31
0.0
  0
LINE
  5
2EC6
330
1E
100
AcDbEntity
  8
7
100
AcDbLine
 10
36.03746305610107
 20
29.40200900512488
 30
0.0
 11
36.02433969652102
 21
29.39151031746084
 31
0.0
  0
LINE
  5
2EC7
330
1E
100
AcDbEntity
  8
7
100
AcDbLine
 10
36.02433969652102
 20
29.39151031746084
 30
0.0
 11
36.00202998523492
 21
29.37576228596478
 31
0.0
  0
LINE
  5
2EC8
330
1E
100
AcDbEntity
  8
7
100
AcDbLine
 10
35.93247617946065
 20
29.39675966129286
 30
0.0
 11
35.95347355478873
 21
29.42563105236898
 31
0.0
  0
LINE
  5
2EC9
330
1E
100
AcDbEntity
  8
7
100
AcDbLine
 10
35.95347355478873
 20
29.42563105236898
 30
0.0
 11
35.9692215862848
 21
29.44662842769706
 31
0.0
  0
LINE
  5
2ECA
330
1E
100
AcDbEntity
  8
7
100
AcDbLine
 10
35.9692215862848
 20
29.44662842769706
 30
0.0
 11
35.97972027394884
 21
29.46106412323512
 31
0.0
  0
LINE
  5
2ECB
330
1E
100
AcDbEntity
  8
7
100
AcDbLine
 10
35.97972027394884
 20
29.46106412323512
 30
0.0
 11
35.98496961778086
 21
29.46631346706714
 31
0.0
  0
LINE
  5
2ECC
330
1E
100
AcDbEntity
  8
7
100
AcDbLine
 10
35.8196152870722
 20
29.24190401824824
 30
0.0
 11
35.85111135006433
 21
29.28521110486241
 31
0.0
  0
LINE
  5
2ECD
330
1E
100
AcDbEntity
  8
7
100
AcDbLine
 10
35.85111135006433
 20
29.28521110486241
 30
0.0
 11
35.88129507709844
 21
29.32589351956057
 31
0.0
  0
LINE
  5
2ECE
330
1E
100
AcDbEntity
  8
7
100
AcDbLine
 10
35.88129507709844
 20
29.32589351956057
 30
0.0
 11
35.90885413221656
 21
29.36395126234273
 31
0.0
  0
LINE
  5
2ECF
330
1E
100
AcDbEntity
  8
7
100
AcDbLine
 10
35.90885413221656
 20
29.36395126234273
 30
0.0
 11
35.93247617946065
 21
29.39675966129286
 31
0.0
  0
LINE
  5
2ED0
330
1E
100
AcDbEntity
  8
7
100
AcDbLine
 10
33.30124258366012
 20
29.4072583489569
 30
0.0
 11
33.30649192749215
 21
29.40200900512488
 31
0.0
  0
LINE
  5
2ED1
330
1E
100
AcDbEntity
  8
7
100
AcDbLine
 10
33.30649192749215
 20
29.40200900512488
 30
0.0
 11
33.3209276230302
 21
29.39151031746084
 31
0.0
  0
LINE
  5
2ED2
330
1E
100
AcDbEntity
  8
7
100
AcDbLine
 10
33.3209276230302
 20
29.39151031746084
 30
0.0
 11
33.34192499835828
 21
29.37576228596478
 31
0.0
  0
LINE
  5
2ED3
330
1E
100
AcDbEntity
  8
7
100
AcDbLine
 10
33.34192499835828
 20
29.37576228596478
 30
0.0
 11
33.3707963894344
 21
29.3560772465947
 31
0.0
  0
LINE
  5
2ED4
330
1E
100
AcDbEntity
  8
7
100
AcDbLine
 10
33.3707963894344
 20
29.3560772465947
 30
0.0
 11
33.40360478838454
 21
29.33114286339259
 31
0.0
  0
LINE
  5
2ED5
330
1E
100
AcDbEntity
  8
7
100
AcDbLine
 10
33.40360478838454
 20
29.33114286339259
 30
0.0
 11
33.44166253116669
 21
29.30358380827449
 31
0.0
  0
LINE
  5
2ED6
330
1E
100
AcDbEntity
  8
7
100
AcDbLine
 10
33.44166253116669
 20
29.30358380827449
 30
0.0
 11
33.48234494586485
 21
29.27340008124037
 31
0.0
  0
LINE
  5
2ED7
330
1E
100
AcDbEntity
  8
7
100
AcDbLine
 10
33.48234494586485
 20
29.27340008124037
 30
0.0
 11
33.52565203247903
 21
29.24190401824824
 31
0.0
  0
LINE
  5
2ED8
330
1E
100
AcDbEntity
  8
7
100
AcDbLine
 10
33.30124258366012
 20
29.4072583489569
 30
0.0
 11
33.30911659940816
 21
29.43744207599102
 31
0.0
  0
LINE
  5
2ED9
330
1E
100
AcDbEntity
  8
7
100
AcDbLine
 10
33.30911659940816
 20
29.43744207599102
 30
0.0
 11
33.33011397473624
 21
29.4584394513191
 31
0.0
  0
LINE
  5
2EDA
330
1E
100
AcDbEntity
  8
7
100
AcDbLine
 10
33.33011397473624
 20
29.4584394513191
 30
0.0
 11
33.36029770177036
 21
29.46631346706714
 31
0.0
  0
LINE
  5
2EDB
330
1E
100
AcDbEntity
  8
7
100
AcDbLine
 10
33.52565203247903
 20
29.24190401824824
 30
0.0
 11
33.4941559694869
 21
29.28521110486241
 31
0.0
  0
LINE
  5
2EDC
330
1E
100
AcDbEntity
  8
7
100
AcDbLine
 10
33.4941559694869
 20
29.28521110486241
 30
0.0
 11
33.46397224245277
 21
29.32589351956057
 31
0.0
  0
LINE
  5
2EDD
330
1E
100
AcDbEntity
  8
7
100
AcDbLine
 10
33.46397224245277
 20
29.32589351956057
 30
0.0
 11
33.43641318733467
 21
29.36395126234273
 31
0.0
  0
LINE
  5
2EDE
330
1E
100
AcDbEntity
  8
7
100
AcDbLine
 10
33.43641318733467
 20
29.36395126234273
 30
0.0
 11
33.41147880413257
 21
29.39675966129286
 31
0.0
  0
LINE
  5
2EDF
330
1E
100
AcDbEntity
  8
7
100
AcDbLine
 10
33.41147880413257
 20
29.39675966129286
 30
0.0
 11
33.39179376476249
 21
29.42563105236898
 31
0.0
  0
LINE
  5
2EE0
330
1E
100
AcDbEntity
  8
7
100
AcDbLine
 10
33.39179376476249
 20
29.42563105236898
 30
0.0
 11
33.37604573326642
 21
29.44662842769706
 31
0.0
  0
LINE
  5
2EE1
330
1E
100
AcDbEntity
  8
7
100
AcDbLine
 10
33.37604573326642
 20
29.44662842769706
 30
0.0
 11
33.36554704560238
 21
29.46106412323512
 31
0.0
  0
LINE
  5
2EE2
330
1E
100
AcDbEntity
  8
7
100
AcDbLine
 10
33.36554704560238
 20
29.46106412323512
 30
0.0
 11
33.36029770177036
 21
29.46631346706714
 31
0.0
  0
ENDSEC
  0
SECTION
  2
OBJECTS
  0
DICTIONARY
  5
C
330
0
100
AcDbDictionary
  3
ACAD_GROUP
350
D
  3
ACAD_MLINESTYLE
350
16
  3
ACAD_PLOTSETTINGS
350
18
  3
ACAD_LAYOUT
350
19
1001
ACAD
1000
TREAT_AS_HARD
1070
     0
  0
DICTIONARY
  5
4009
330
1E
100
AcDbDictionary
  3
ACAD_LAYOUTSELFREF
350
400A
  0
DICTIONARY
  5
4007
330
1A
100
AcDbDictionary
  3
ACAD_LAYOUTSELFREF
350
4008
  0
DICTIONARY
  5
D
102
{ACAD_REACTORS
330
C
102
}
330
C
100
AcDbDictionary
1001
ACAD
1000
TREAT_AS_HARD
1070
     0
  0
DICTIONARY
  5
16
102
{ACAD_REACTORS
330
C
102
}
330
C
100
AcDbDictionary
  3
STANDARD
350
17
1001
ACAD
1000
TREAT_AS_HARD
1070
     0
  0
DICTIONARY
  5
18
102
{ACAD_REACTORS
330
C
102
}
330
C
100
AcDbDictionary
1001
ACAD
1000
TREAT_AS_HARD
1070
     0
  0
DICTIONARY
  5
19
102
{ACAD_REACTORS
330
C
102
}
330
C
100
AcDbDictionary
1001
ACAD
1000
TREAT_AS_HARD
1070
     0
  0
XRECORD
  5
400A
102
{ACAD_REACTORS
330
4009
102
}
330
4009
100
AcDbXrecord
340
1E
  0
XRECORD
  5
4008
102
{ACAD_REACTORS
330
4007
102
}
330
4007
100
AcDbXrecord
340
1A
  0
MLINESTYLE
  5
17
102
{ACAD_REACTORS
330
16
102
}
330
16
100
AcDbMlineStyle
  2
STANDARD
 70
     0
  3

 62
   256
 51
90.0
 52
90.0
 71
     2
 49
0.5
 62
   256
  6
BYLAYER
 49
-0.5
 62
   256
  6
BYLAYER
  0
ENDSEC
  0
EOF
