  0
SECTION
  2
HEADER
  9
$ACADVER
  1
AC1012
  9
$DWGCODEPAGE
  3
ANSI_1252
  9
$INSBASE
 10
0.0
 20
0.0
 30
0.0
  9
$EXTMIN
 10
-0.5323713387915845
 20
2.823547590647455
 30
0.0
  9
$EXTMAX
 10
5.11985963233702
 20
7.40097541216976
 30
0.0
  9
$LIMMIN
 10
0.0
 20
0.0
  9
$LIMMAX
 10
12.0
 20
9.0
  9
$ORTHOMODE
 70
     0
  9
$REGENMODE
 70
     1
  9
$FILLMODE
 70
     1
  9
$QTEXTMODE
 70
     0
  9
$MIRRTEXT
 70
     1
  9
$DRAGMODE
 70
     2
  9
$LTSCALE
 40
1.0
  9
$OSMODE
 70
   547
  9
$ATTMODE
 70
     1
  9
$TEXTSIZE
 40
0.2
  9
$TRACEWID
 40
0.05
  9
$TEXTSTYLE
  7
STANDARD
  9
$CLAYER
  8
0
  9
$CELTYPE
  6
BYLAYER
  9
$CECOLOR
 62
   256
  9
$CELTSCALE
 40
1.0
  9
$DELOBJ
 70
     1
  9
$DISPSILH
 70
     0
  9
$DIMSCALE
 40
1.0
  9
$DIMASZ
 40
0.18
  9
$DIMEXO
 40
0.0625
  9
$DIMDLI
 40
0.38
  9
$DIMRND
 40
0.0
  9
$DIMDLE
 40
0.0
  9
$DIMEXE
 40
0.18
  9
$DIMTP
 40
0.0
  9
$DIMTM
 40
0.0
  9
$DIMTXT
 40
0.18
  9
$DIMCEN
 40
0.09
  9
$DIMTSZ
 40
0.0
  9
$DIMTOL
 70
     0
  9
$DIMLIM
 70
     0
  9
$DIMTIH
 70
     1
  9
$DIMTOH
 70
     1
  9
$DIMSE1
 70
     0
  9
$DIMSE2
 70
     0
  9
$DIMTAD
 70
     0
  9
$DIMZIN
 70
     0
  9
$DIMBLK
  1

  9
$DIMASO
 70
     1
  9
$DIMSHO
 70
     1
  9
$DIMPOST
  1

  9
$DIMAPOST
  1

  9
$DIMALT
 70
     0
  9
$DIMALTD
 70
     2
  9
$DIMALTF
 40
25.4
  9
$DIMLFAC
 40
1.0
  9
$DIMTOFL
 70
     0
  9
$DIMTVP
 40
0.0
  9
$DIMTIX
 70
     0
  9
$DIMSOXD
 70
     0
  9
$DIMSAH
 70
     0
  9
$DIMBLK1
  1

  9
$DIMBLK2
  1

  9
$DIMSTYLE
  2
STANDARD
  9
$DIMCLRD
 70
     0
  9
$DIMCLRE
 70
     0
  9
$DIMCLRT
 70
     0
  9
$DIMTFAC
 40
1.0
  9
$DIMGAP
 40
0.09
  9
$DIMJUST
 70
     0
  9
$DIMSD1
 70
     0
  9
$DIMSD2
 70
     0
  9
$DIMTOLJ
 70
     1
  9
$DIMTZIN
 70
     0
  9
$DIMALTZ
 70
     0
  9
$DIMALTTZ
 70
     0
  9
$DIMFIT
 70
     5
  9
$DIMUPT
 70
     0
  9
$DIMUNIT
 70
     2
  9
$DIMDEC
 70
     4
  9
$DIMTDEC
 70
     4
  9
$DIMALTU
 70
     2
  9
$DIMALTTD
 70
     2
  9
$DIMTXSTY
  7
STANDARD
  9
$DIMAUNIT
 70
     0
  9
$LUNITS
 70
     2
  9
$LUPREC
 70
     4
  9
$SKETCHINC
 40
0.1
  9
$FILLETRAD
 40
0.0
  9
$AUNITS
 70
     0
  9
$AUPREC
 70
     0
  9
$MENU
  1
acad
  9
$ELEVATION
 40
0.0
  9
$PELEVATION
 40
0.0
  9
$THICKNESS
 40
0.0
  9
$LIMCHECK
 70
     0
  9
$BLIPMODE
 70
     0
  9
$CHAMFERA
 40
0.0
  9
$CHAMFERB
 40
0.0
  9
$CHAMFERC
 40
0.0
  9
$CHAMFERD
 40
0.0
  9
$SKPOLY
 70
     0
  9
$TDCREATE
 40
2452569.377129629
  9
$TDUPDATE
 40
2453776.653405011
  9
$TDINDWG
 40
0.0052061458
  9
$TDUSRTIMER
 40
0.0052061458
  9
$USRTIMER
 70
     1
  9
$ANGBASE
 50
0.0
  9
$ANGDIR
 70
     0
  9
$PDMODE
 70
     0
  9
$PDSIZE
 40
0.0
  9
$PLINEWID
 40
0.0
  9
$COORDS
 70
     1
  9
$SPLFRAME
 70
     0
  9
$SPLINETYPE
 70
     6
  9
$SPLINESEGS
 70
     8
  9
$ATTDIA
 70
     0
  9
$ATTREQ
 70
     1
  9
$HANDLING
 70
  4097
  9
$HANDSEED
  5
4075
  9
$SURFTAB1
 70
     6
  9
$SURFTAB2
 70
     6
  9
$SURFTYPE
 70
     6
  9
$SURFU
 70
     6
  9
$SURFV
 70
     6
  9
$UCSNAME
  2

  9
$UCSORG
 10
0.0
 20
0.0
 30
0.0
  9
$UCSXDIR
 10
1.0
 20
0.0
 30
0.0
  9
$UCSYDIR
 10
0.0
 20
1.0
 30
0.0
  9
$PUCSNAME
  2

  9
$PUCSORG
 10
0.0
 20
0.0
 30
0.0
  9
$PUCSXDIR
 10
1.0
 20
0.0
 30
0.0
  9
$PUCSYDIR
 10
0.0
 20
1.0
 30
0.0
  9
$USERI1
 70
     0
  9
$USERI2
 70
     0
  9
$USERI3
 70
     0
  9
$USERI4
 70
     0
  9
$USERI5
 70
     0
  9
$USERR1
 40
0.0
  9
$USERR2
 40
0.0
  9
$USERR3
 40
0.0
  9
$USERR4
 40
0.0
  9
$USERR5
 40
0.0
  9
$WORLDVIEW
 70
     1
  9
$SHADEDGE
 70
     3
  9
$SHADEDIF
 70
    70
  9
$TILEMODE
 70
     1
  9
$MAXACTVP
 70
    16
  9
$PINSBASE
 10
0.0
 20
0.0
 30
0.0
  9
$PLIMCHECK
 70
     0
  9
$PEXTMIN
 10
1.000000000000000E+20
 20
1.000000000000000E+20
 30
1.000000000000000E+20
  9
$PEXTMAX
 10
-1.000000000000000E+20
 20
-1.000000000000000E+20
 30
-1.000000000000000E+20
  9
$PLIMMIN
 10
0.0
 20
0.0
  9
$PLIMMAX
 10
12.0
 20
9.0
  9
$UNITMODE
 70
     0
  9
$VISRETAIN
 70
     0
  9
$PLINEGEN
 70
     0
  9
$PSLTSCALE
 70
     1
  9
$TREEDEPTH
 70
  3020
  9
$PICKSTYLE
 70
     1
  9
$CMLSTYLE
  2
STANDARD
  9
$CMLJUST
 70
     0
  9
$CMLSCALE
 40
1.0
  9
$SAVEIMAGES
 70
     1
  0
ENDSEC
  0
SECTION
  2
CLASSES
  0
CLASS
  1
ACDBDICTIONARYWDFLT
  2
AcDbDictionaryWithDefault
  3
AutoCAD 2000
 90
    32768
280
     0
281
     0
  0
CLASS
  1
ACDBPLACEHOLDER
  2
AcDbPlaceHolder
  3
AutoCAD 2000
 90
    32768
280
     0
281
     0
  0
CLASS
  1
LAYOUT
  2
AcDbLayout
  3
AutoCAD 2000
 90
    32768
280
     0
281
     0
  0
CLASS
  1
LONG_TRANSACTION
  2
AcDbLongTransaction
  3
AutoCAD 2000
 90
    32768
280
     0
281
     0
  0
CLASS
  1
LWPOLYLINE
  2
AcDbPolyline
  3
AutoCAD 2000
 90
    32768
280
     0
281
     1
  0
CLASS
  1
HATCH
  2
AcDbHatch
  3
AutoCAD 2000
 90
    32768
280
     0
281
     1
  0
CLASS
  1
XRECORD
  2
AcDbXrecord
  3
AutoCAD 2000
 90
    32768
280
     0
281
     0
  0
CLASS
  1
LONG_TRANSACTION
  2
AcDbLongTransaction
  3
AutoCAD 2000
 90
    32768
280
     0
281
     0
  0
CLASS
  1
LWPOLYLINE
  2
AcDbPolyline
  3
AutoCAD 2000
 90
    32768
280
     0
281
     1
  0
CLASS
  1
HATCH
  2
AcDbHatch
  3
AutoCAD 2000
 90
    32768
280
     0
281
     1
  0
CLASS
  1
XRECORD
  2
AcDbXrecord
  3
AutoCAD 2000
 90
    32768
280
     0
281
     0
  0
ENDSEC
  0
SECTION
  2
TABLES
  0
TABLE
  2
VPORT
  5
8
330
0
100
AcDbSymbolTable
 70
     2
  0
VPORT
  5
4072
330
8
100
AcDbSymbolTableRecord
100
AcDbViewportTableRecord
  2
*ACTIVE
 70
     0
 10
0.0
 20
0.0
 11
1.0
 21
1.0
 12
2.567670201300273
 22
5.112144491882231
 13
0.0
 23
0.0
 14
1.0
 24
1.0
 15
0.0
 25
0.0
 16
0.0
 26
0.0
 36
1.0
 17
0.0
 27
0.0
 37
0.0
 40
4.615192100418251
 41
1.740671641791044
 42
50.0
 43
0.0
 44
0.0
 50
0.0
 51
0.0
 71
     0
 72
   100
 73
     1
 74
     1
 75
     0
 76
     0
 77
     0
 78
     0
  0
ENDTAB
  0
TABLE
  2
LTYPE
  5
5
330
0
100
AcDbSymbolTable
 70
    25
  0
LTYPE
  5
13
330
5
100
AcDbSymbolTableRecord
100
AcDbLinetypeTableRecord
  2
BYBLOCK
 70
     0
  3

 72
    65
 73
     0
 40
0.0
  0
LTYPE
  5
14
330
5
100
AcDbSymbolTableRecord
100
AcDbLinetypeTableRecord
  2
BYLAYER
 70
     0
  3

 72
    65
 73
     0
 40
0.0
  0
LTYPE
  5
15
330
5
100
AcDbSymbolTableRecord
100
AcDbLinetypeTableRecord
  2
CONTINUOUS
 70
     0
  3
Solid line
 72
    65
 73
     0
 40
0.0
  0
LTYPE
  5
22
330
5
100
AcDbSymbolTableRecord
100
AcDbLinetypeTableRecord
  2
BORDER
 70
     0
  3
__ __ . __ __ . __ __ . __ __ . __ __ . __ __ .
 72
    65
 73
     6
 40
1.75
 49
0.5
 74
     0
 49
-0.25
 74
     0
 49
0.5
 74
     0
 49
-0.25
 74
     0
 49
0.5
 74
     0
 49
-0.25
 74
     0
  0
LTYPE
  5
23
330
5
100
AcDbSymbolTableRecord
100
AcDbLinetypeTableRecord
  2
BORDER2
 70
     0
  3
__.__.__.__.__.__.__.__.__.__.__.__.__.__.__.__
 72
    65
 73
     6
 40
0.875
 49
0.25
 74
     0
 49
-0.125
 74
     0
 49
0.25
 74
     0
 49
-0.125
 74
     0
 49
0.25
 74
     0
 49
-0.125
 74
     0
  0
LTYPE
  5
24
330
5
100
AcDbSymbolTableRecord
100
AcDbLinetypeTableRecord
  2
BORDERX2
 70
     0
  3
____  ____  .  ____  ____  .  
 72
    65
 73
     6
 40
3.5
 49
1.0
 74
     0
 49
-0.5
 74
     0
 49
1.0
 74
     0
 49
-0.5
 74
     0
 49
1.0
 74
     0
 49
-0.5
 74
     0
  0
LTYPE
  5
25
330
5
100
AcDbSymbolTableRecord
100
AcDbLinetypeTableRecord
  2
CENTER
 70
     0
  3
____ _ ____ _ ____ _ ____ _ ____ _ ____ _ ____
 72
    65
 73
     4
 40
2.0
 49
1.25
 74
     0
 49
-0.25
 74
     0
 49
0.25
 74
     0
 49
-0.25
 74
     0
  0
LTYPE
  5
26
330
5
100
AcDbSymbolTableRecord
100
AcDbLinetypeTableRecord
  2
CENTER2
 70
     0
  3
____ _ ____ _ ____ _ ____ _ ____ _ ____ _ ____
 72
    65
 73
     4
 40
1.125
 49
0.75
 74
     0
 49
-0.125
 74
     0
 49
0.125
 74
     0
 49
-0.125
 74
     0
  0
LTYPE
  5
27
330
5
100
AcDbSymbolTableRecord
100
AcDbLinetypeTableRecord
  2
CENTERX2
 70
     0
  3
________  __  ________  __  ________  __  
 72
    65
 73
     4
 40
4.0
 49
2.5
 74
     0
 49
-0.5
 74
     0
 49
0.5
 74
     0
 49
-0.5
 74
     0
  0
LTYPE
  5
28
330
5
100
AcDbSymbolTableRecord
100
AcDbLinetypeTableRecord
  2
DASHDOT
 70
     0
  3
__ . __ . __ . __ . __ . __ . __ . 
 72
    65
 73
     4
 40
1.0
 49
0.5
 74
     0
 49
-0.25
 74
     0
 49
0.0
 74
     0
 49
-0.25
 74
     0
  0
LTYPE
  5
29
330
5
100
AcDbSymbolTableRecord
100
AcDbLinetypeTableRecord
  2
DASHDOT2
 70
     0
  3
_._._._._._._._._._._._._._._._.
 72
    65
 73
     4
 40
0.5
 49
0.25
 74
     0
 49
-0.125
 74
     0
 49
0.0
 74
     0
 49
-0.125
 74
     0
  0
LTYPE
  5
2A
330
5
100
AcDbSymbolTableRecord
100
AcDbLinetypeTableRecord
  2
DASHDOTX2
 70
     0
  3
____  .  ____  .  ____  .  ____  .  
 72
    65
 73
     4
 40
2.0
 49
1.0
 74
     0
 49
-0.5
 74
     0
 49
0.0
 74
     0
 49
-0.5
 74
     0
  0
LTYPE
  5
2B
330
5
100
AcDbSymbolTableRecord
100
AcDbLinetypeTableRecord
  2
DASHED
 70
     0
  3
__ __ __ __ __ __ __ __ __ __ __ __ 
 72
    65
 73
     2
 40
0.75
 49
0.5
 74
     0
 49
-0.25
 74
     0
  0
LTYPE
  5
2C
330
5
100
AcDbSymbolTableRecord
100
AcDbLinetypeTableRecord
  2
DASHED2
 70
     0
  3
_ _ _ _ _ _ _ _ _ _ _ _ _ _ _ _ _ _ 
 72
    65
 73
     2
 40
0.375
 49
0.25
 74
     0
 49
-0.125
 74
     0
  0
LTYPE
  5
2D
330
5
100
AcDbSymbolTableRecord
100
AcDbLinetypeTableRecord
  2
DASHEDX2
 70
     0
  3
____  ____  ____  ____  ____  ____  
 72
    65
 73
     2
 40
1.5
 49
1.0
 74
     0
 49
-0.5
 74
     0
  0
LTYPE
  5
2E
330
5
100
AcDbSymbolTableRecord
100
AcDbLinetypeTableRecord
  2
DIVIDE
 70
     0
  3
____ . . ____ . . ____ . . ____ . . 
 72
    65
 73
     6
 40
1.25
 49
0.5
 74
     0
 49
-0.25
 74
     0
 49
0.0
 74
     0
 49
-0.25
 74
     0
 49
0.0
 74
     0
 49
-0.25
 74
     0
  0
LTYPE
  5
2F
330
5
100
AcDbSymbolTableRecord
100
AcDbLinetypeTableRecord
  2
DIVIDE2
 70
     0
  3
__..__..__..__..__..__..__..__..__..
 72
    65
 73
     6
 40
0.625
 49
0.25
 74
     0
 49
-0.125
 74
     0
 49
0.0
 74
     0
 49
-0.125
 74
     0
 49
0.0
 74
     0
 49
-0.125
 74
     0
  0
LTYPE
  5
30
330
5
100
AcDbSymbolTableRecord
100
AcDbLinetypeTableRecord
  2
DIVIDEX2
 70
     0
  3
________  .  .  ________  .  .  ________  .  . 
 72
    65
 73
     6
 40
2.5
 49
1.0
 74
     0
 49
-0.5
 74
     0
 49
0.0
 74
     0
 49
-0.5
 74
     0
 49
0.0
 74
     0
 49
-0.5
 74
     0
  0
LTYPE
  5
31
330
5
100
AcDbSymbolTableRecord
100
AcDbLinetypeTableRecord
  2
DOT
 70
     0
  3
. . . . . . . . . . . . . . . . . . 
 72
    65
 73
     2
 40
0.25
 49
0.0
 74
     0
 49
-0.25
 74
     0
  0
LTYPE
  5
32
330
5
100
AcDbSymbolTableRecord
100
AcDbLinetypeTableRecord
  2
DOT2
 70
     0
  3
....................................
 72
    65
 73
     2
 40
0.125
 49
0.0
 74
     0
 49
-0.125
 74
     0
  0
LTYPE
  5
33
330
5
100
AcDbSymbolTableRecord
100
AcDbLinetypeTableRecord
  2
DOTX2
 70
     0
  3
.  .  .  .  .  .  .  .  .  .  .  .  .  
 72
    65
 73
     2
 40
0.5
 49
0.0
 74
     0
 49
-0.5
 74
     0
  0
LTYPE
  5
34
330
5
100
AcDbSymbolTableRecord
100
AcDbLinetypeTableRecord
  2
HIDDEN
 70
     0
  3
__ __ __ __ __ __ __ __ __ __ __ __ 
 72
    65
 73
     2
 40
0.375
 49
0.25
 74
     0
 49
-0.125
 74
     0
  0
LTYPE
  5
35
330
5
100
AcDbSymbolTableRecord
100
AcDbLinetypeTableRecord
  2
HIDDEN2
 70
     0
  3
_ _ _ _ _ _ _ _ _ _ _ _ _ _ _ _ _ _ 
 72
    65
 73
     2
 40
0.1875
 49
0.125
 74
     0
 49
-0.0625
 74
     0
  0
LTYPE
  5
36
330
5
100
AcDbSymbolTableRecord
100
AcDbLinetypeTableRecord
  2
HIDDENX2
 70
     0
  3
____ ____ ____ ____ ____ ____ ____ 
 72
    65
 73
     2
 40
0.75
 49
0.5
 74
     0
 49
-0.25
 74
     0
  0
LTYPE
  5
37
330
5
100
AcDbSymbolTableRecord
100
AcDbLinetypeTableRecord
  2
PHANTOM
 70
     0
  3
______  __  __  ______  __  __  
 72
    65
 73
     6
 40
2.5
 49
1.25
 74
     0
 49
-0.25
 74
     0
 49
0.25
 74
     0
 49
-0.25
 74
     0
 49
0.25
 74
     0
 49
-0.25
 74
     0
  0
LTYPE
  5
38
330
5
100
AcDbSymbolTableRecord
100
AcDbLinetypeTableRecord
  2
PHANTOM2
 70
     0
  3
___ _ _ ___ _ _ ___ _ _ ___ _ _ 
 72
    65
 73
     6
 40
1.25
 49
0.625
 74
     0
 49
-0.125
 74
     0
 49
0.125
 74
     0
 49
-0.125
 74
     0
 49
0.125
 74
     0
 49
-0.125
 74
     0
  0
LTYPE
  5
39
330
5
100
AcDbSymbolTableRecord
100
AcDbLinetypeTableRecord
  2
PHANTOMX2
 70
     0
  3
___ _ _ ___ _ _ ___ _ _ ___ _ _ 
 72
    65
 73
     6
 40
5.0
 49
2.5
 74
     0
 49
-0.5
 74
     0
 49
0.5
 74
     0
 49
-0.5
 74
     0
 49
0.5
 74
     0
 49
-0.5
 74
     0
  0
ENDTAB
  0
TABLE
  2
LAYER
  5
2
330
0
100
AcDbSymbolTable
 70
   256
  0
LAYER
  5
10
330
2
100
AcDbSymbolTableRecord
100
AcDbLayerTableRecord
  2
0
 70
     0
 62
     7
  6
CONTINUOUS
  0
LAYER
  5
3A
330
2
100
AcDbSymbolTableRecord
100
AcDbLayerTableRecord
  2
1
 70
     0
 62
     1
  6
CONTINUOUS
  0
LAYER
  5
3B
330
2
100
AcDbSymbolTableRecord
100
AcDbLayerTableRecord
  2
2
 70
     0
 62
     2
  6
CONTINUOUS
  0
LAYER
  5
3C
330
2
100
AcDbSymbolTableRecord
100
AcDbLayerTableRecord
  2
3
 70
     0
 62
     3
  6
CONTINUOUS
  0
LAYER
  5
3D
330
2
100
AcDbSymbolTableRecord
100
AcDbLayerTableRecord
  2
4
 70
     0
 62
     4
  6
CONTINUOUS
  0
LAYER
  5
3E
330
2
100
AcDbSymbolTableRecord
100
AcDbLayerTableRecord
  2
5
 70
     0
 62
     5
  6
CONTINUOUS
  0
LAYER
  5
3F
330
2
100
AcDbSymbolTableRecord
100
AcDbLayerTableRecord
  2
6
 70
     0
 62
     6
  6
CONTINUOUS
  0
LAYER
  5
40
330
2
100
AcDbSymbolTableRecord
100
AcDbLayerTableRecord
  2
7
 70
     0
 62
     7
  6
CONTINUOUS
  0
LAYER
  5
41
330
2
100
AcDbSymbolTableRecord
100
AcDbLayerTableRecord
  2
8
 70
     0
 62
     8
  6
CONTINUOUS
  0
LAYER
  5
42
330
2
100
AcDbSymbolTableRecord
100
AcDbLayerTableRecord
  2
9
 70
     0
 62
     9
  6
CONTINUOUS
  0
LAYER
  5
43
330
2
100
AcDbSymbolTableRecord
100
AcDbLayerTableRecord
  2
10
 70
     0
 62
    10
  6
CONTINUOUS
  0
LAYER
  5
44
330
2
100
AcDbSymbolTableRecord
100
AcDbLayerTableRecord
  2
11
 70
     0
 62
    11
  6
CONTINUOUS
  0
LAYER
  5
45
330
2
100
AcDbSymbolTableRecord
100
AcDbLayerTableRecord
  2
12
 70
     0
 62
    12
  6
CONTINUOUS
  0
LAYER
  5
46
330
2
100
AcDbSymbolTableRecord
100
AcDbLayerTableRecord
  2
13
 70
     0
 62
    13
  6
CONTINUOUS
  0
LAYER
  5
47
330
2
100
AcDbSymbolTableRecord
100
AcDbLayerTableRecord
  2
14
 70
     0
 62
    14
  6
CONTINUOUS
  0
LAYER
  5
48
330
2
100
AcDbSymbolTableRecord
100
AcDbLayerTableRecord
  2
15
 70
     0
 62
    15
  6
CONTINUOUS
  0
LAYER
  5
49
330
2
100
AcDbSymbolTableRecord
100
AcDbLayerTableRecord
  2
16
 70
     0
 62
    16
  6
CONTINUOUS
  0
LAYER
  5
4A
330
2
100
AcDbSymbolTableRecord
100
AcDbLayerTableRecord
  2
17
 70
     0
 62
    17
  6
CONTINUOUS
  0
LAYER
  5
4B
330
2
100
AcDbSymbolTableRecord
100
AcDbLayerTableRecord
  2
18
 70
     0
 62
    18
  6
CONTINUOUS
  0
LAYER
  5
4C
330
2
100
AcDbSymbolTableRecord
100
AcDbLayerTableRecord
  2
19
 70
     0
 62
    19
  6
CONTINUOUS
  0
LAYER
  5
4D
330
2
100
AcDbSymbolTableRecord
100
AcDbLayerTableRecord
  2
20
 70
     0
 62
    20
  6
CONTINUOUS
  0
LAYER
  5
4E
330
2
100
AcDbSymbolTableRecord
100
AcDbLayerTableRecord
  2
21
 70
     0
 62
    21
  6
CONTINUOUS
  0
LAYER
  5
4F
330
2
100
AcDbSymbolTableRecord
100
AcDbLayerTableRecord
  2
22
 70
     0
 62
    22
  6
CONTINUOUS
  0
LAYER
  5
50
330
2
100
AcDbSymbolTableRecord
100
AcDbLayerTableRecord
  2
23
 70
     0
 62
    23
  6
CONTINUOUS
  0
LAYER
  5
51
330
2
100
AcDbSymbolTableRecord
100
AcDbLayerTableRecord
  2
24
 70
     0
 62
    24
  6
CONTINUOUS
  0
LAYER
  5
52
330
2
100
AcDbSymbolTableRecord
100
AcDbLayerTableRecord
  2
25
 70
     0
 62
    25
  6
CONTINUOUS
  0
LAYER
  5
53
330
2
100
AcDbSymbolTableRecord
100
AcDbLayerTableRecord
  2
26
 70
     0
 62
    26
  6
CONTINUOUS
  0
LAYER
  5
54
330
2
100
AcDbSymbolTableRecord
100
AcDbLayerTableRecord
  2
27
 70
     0
 62
    27
  6
CONTINUOUS
  0
LAYER
  5
55
330
2
100
AcDbSymbolTableRecord
100
AcDbLayerTableRecord
  2
28
 70
     0
 62
    28
  6
CONTINUOUS
  0
LAYER
  5
56
330
2
100
AcDbSymbolTableRecord
100
AcDbLayerTableRecord
  2
29
 70
     0
 62
    29
  6
CONTINUOUS
  0
LAYER
  5
57
330
2
100
AcDbSymbolTableRecord
100
AcDbLayerTableRecord
  2
30
 70
     0
 62
    30
  6
CONTINUOUS
  0
LAYER
  5
58
330
2
100
AcDbSymbolTableRecord
100
AcDbLayerTableRecord
  2
31
 70
     0
 62
    31
  6
CONTINUOUS
  0
LAYER
  5
59
330
2
100
AcDbSymbolTableRecord
100
AcDbLayerTableRecord
  2
32
 70
     0
 62
    32
  6
CONTINUOUS
  0
LAYER
  5
5A
330
2
100
AcDbSymbolTableRecord
100
AcDbLayerTableRecord
  2
33
 70
     0
 62
    33
  6
CONTINUOUS
  0
LAYER
  5
5B
330
2
100
AcDbSymbolTableRecord
100
AcDbLayerTableRecord
  2
34
 70
     0
 62
    34
  6
CONTINUOUS
  0
LAYER
  5
5C
330
2
100
AcDbSymbolTableRecord
100
AcDbLayerTableRecord
  2
35
 70
     0
 62
    35
  6
CONTINUOUS
  0
LAYER
  5
5D
330
2
100
AcDbSymbolTableRecord
100
AcDbLayerTableRecord
  2
36
 70
     0
 62
    36
  6
CONTINUOUS
  0
LAYER
  5
5E
330
2
100
AcDbSymbolTableRecord
100
AcDbLayerTableRecord
  2
37
 70
     0
 62
    37
  6
CONTINUOUS
  0
LAYER
  5
5F
330
2
100
AcDbSymbolTableRecord
100
AcDbLayerTableRecord
  2
38
 70
     0
 62
    38
  6
CONTINUOUS
  0
LAYER
  5
60
330
2
100
AcDbSymbolTableRecord
100
AcDbLayerTableRecord
  2
39
 70
     0
 62
    39
  6
CONTINUOUS
  0
LAYER
  5
61
330
2
100
AcDbSymbolTableRecord
100
AcDbLayerTableRecord
  2
40
 70
     0
 62
    40
  6
CONTINUOUS
  0
LAYER
  5
62
330
2
100
AcDbSymbolTableRecord
100
AcDbLayerTableRecord
  2
41
 70
     0
 62
    41
  6
CONTINUOUS
  0
LAYER
  5
63
330
2
100
AcDbSymbolTableRecord
100
AcDbLayerTableRecord
  2
42
 70
     0
 62
    42
  6
CONTINUOUS
  0
LAYER
  5
64
330
2
100
AcDbSymbolTableRecord
100
AcDbLayerTableRecord
  2
43
 70
     0
 62
    43
  6
CONTINUOUS
  0
LAYER
  5
65
330
2
100
AcDbSymbolTableRecord
100
AcDbLayerTableRecord
  2
44
 70
     0
 62
    44
  6
CONTINUOUS
  0
LAYER
  5
66
330
2
100
AcDbSymbolTableRecord
100
AcDbLayerTableRecord
  2
45
 70
     0
 62
    45
  6
CONTINUOUS
  0
LAYER
  5
67
330
2
100
AcDbSymbolTableRecord
100
AcDbLayerTableRecord
  2
46
 70
     0
 62
    46
  6
CONTINUOUS
  0
LAYER
  5
68
330
2
100
AcDbSymbolTableRecord
100
AcDbLayerTableRecord
  2
47
 70
     0
 62
    47
  6
CONTINUOUS
  0
LAYER
  5
69
330
2
100
AcDbSymbolTableRecord
100
AcDbLayerTableRecord
  2
48
 70
     0
 62
    48
  6
CONTINUOUS
  0
LAYER
  5
6A
330
2
100
AcDbSymbolTableRecord
100
AcDbLayerTableRecord
  2
49
 70
     0
 62
    49
  6
CONTINUOUS
  0
LAYER
  5
6B
330
2
100
AcDbSymbolTableRecord
100
AcDbLayerTableRecord
  2
50
 70
     0
 62
    50
  6
CONTINUOUS
  0
LAYER
  5
6C
330
2
100
AcDbSymbolTableRecord
100
AcDbLayerTableRecord
  2
51
 70
     0
 62
    51
  6
CONTINUOUS
  0
LAYER
  5
6D
330
2
100
AcDbSymbolTableRecord
100
AcDbLayerTableRecord
  2
52
 70
     0
 62
    52
  6
CONTINUOUS
  0
LAYER
  5
6E
330
2
100
AcDbSymbolTableRecord
100
AcDbLayerTableRecord
  2
53
 70
     0
 62
    53
  6
CONTINUOUS
  0
LAYER
  5
6F
330
2
100
AcDbSymbolTableRecord
100
AcDbLayerTableRecord
  2
54
 70
     0
 62
    54
  6
CONTINUOUS
  0
LAYER
  5
70
330
2
100
AcDbSymbolTableRecord
100
AcDbLayerTableRecord
  2
55
 70
     0
 62
    55
  6
CONTINUOUS
  0
LAYER
  5
71
330
2
100
AcDbSymbolTableRecord
100
AcDbLayerTableRecord
  2
56
 70
     0
 62
    56
  6
CONTINUOUS
  0
LAYER
  5
72
330
2
100
AcDbSymbolTableRecord
100
AcDbLayerTableRecord
  2
57
 70
     0
 62
    57
  6
CONTINUOUS
  0
LAYER
  5
73
330
2
100
AcDbSymbolTableRecord
100
AcDbLayerTableRecord
  2
58
 70
     0
 62
    58
  6
CONTINUOUS
  0
LAYER
  5
74
330
2
100
AcDbSymbolTableRecord
100
AcDbLayerTableRecord
  2
59
 70
     0
 62
    59
  6
CONTINUOUS
  0
LAYER
  5
75
330
2
100
AcDbSymbolTableRecord
100
AcDbLayerTableRecord
  2
60
 70
     0
 62
    60
  6
CONTINUOUS
  0
LAYER
  5
76
330
2
100
AcDbSymbolTableRecord
100
AcDbLayerTableRecord
  2
61
 70
     0
 62
    61
  6
CONTINUOUS
  0
LAYER
  5
77
330
2
100
AcDbSymbolTableRecord
100
AcDbLayerTableRecord
  2
62
 70
     0
 62
    62
  6
CONTINUOUS
  0
LAYER
  5
78
330
2
100
AcDbSymbolTableRecord
100
AcDbLayerTableRecord
  2
63
 70
     0
 62
    63
  6
CONTINUOUS
  0
LAYER
  5
79
330
2
100
AcDbSymbolTableRecord
100
AcDbLayerTableRecord
  2
64
 70
     0
 62
    64
  6
CONTINUOUS
  0
LAYER
  5
7A
330
2
100
AcDbSymbolTableRecord
100
AcDbLayerTableRecord
  2
65
 70
     0
 62
    65
  6
CONTINUOUS
  0
LAYER
  5
7B
330
2
100
AcDbSymbolTableRecord
100
AcDbLayerTableRecord
  2
66
 70
     0
 62
    66
  6
CONTINUOUS
  0
LAYER
  5
7C
330
2
100
AcDbSymbolTableRecord
100
AcDbLayerTableRecord
  2
67
 70
     0
 62
    67
  6
CONTINUOUS
  0
LAYER
  5
7D
330
2
100
AcDbSymbolTableRecord
100
AcDbLayerTableRecord
  2
68
 70
     0
 62
    68
  6
CONTINUOUS
  0
LAYER
  5
7E
330
2
100
AcDbSymbolTableRecord
100
AcDbLayerTableRecord
  2
69
 70
     0
 62
    69
  6
CONTINUOUS
  0
LAYER
  5
7F
330
2
100
AcDbSymbolTableRecord
100
AcDbLayerTableRecord
  2
70
 70
     0
 62
    70
  6
CONTINUOUS
  0
LAYER
  5
80
330
2
100
AcDbSymbolTableRecord
100
AcDbLayerTableRecord
  2
71
 70
     0
 62
    71
  6
CONTINUOUS
  0
LAYER
  5
81
330
2
100
AcDbSymbolTableRecord
100
AcDbLayerTableRecord
  2
72
 70
     0
 62
    72
  6
CONTINUOUS
  0
LAYER
  5
82
330
2
100
AcDbSymbolTableRecord
100
AcDbLayerTableRecord
  2
73
 70
     0
 62
    73
  6
CONTINUOUS
  0
LAYER
  5
83
330
2
100
AcDbSymbolTableRecord
100
AcDbLayerTableRecord
  2
74
 70
     0
 62
    74
  6
CONTINUOUS
  0
LAYER
  5
84
330
2
100
AcDbSymbolTableRecord
100
AcDbLayerTableRecord
  2
75
 70
     0
 62
    75
  6
CONTINUOUS
  0
LAYER
  5
85
330
2
100
AcDbSymbolTableRecord
100
AcDbLayerTableRecord
  2
76
 70
     0
 62
    76
  6
CONTINUOUS
  0
LAYER
  5
86
330
2
100
AcDbSymbolTableRecord
100
AcDbLayerTableRecord
  2
77
 70
     0
 62
    77
  6
CONTINUOUS
  0
LAYER
  5
87
330
2
100
AcDbSymbolTableRecord
100
AcDbLayerTableRecord
  2
78
 70
     0
 62
    78
  6
CONTINUOUS
  0
LAYER
  5
88
330
2
100
AcDbSymbolTableRecord
100
AcDbLayerTableRecord
  2
79
 70
     0
 62
    79
  6
CONTINUOUS
  0
LAYER
  5
89
330
2
100
AcDbSymbolTableRecord
100
AcDbLayerTableRecord
  2
80
 70
     0
 62
    80
  6
CONTINUOUS
  0
LAYER
  5
8A
330
2
100
AcDbSymbolTableRecord
100
AcDbLayerTableRecord
  2
81
 70
     0
 62
    81
  6
CONTINUOUS
  0
LAYER
  5
8B
330
2
100
AcDbSymbolTableRecord
100
AcDbLayerTableRecord
  2
82
 70
     0
 62
    82
  6
CONTINUOUS
  0
LAYER
  5
8C
330
2
100
AcDbSymbolTableRecord
100
AcDbLayerTableRecord
  2
83
 70
     0
 62
    83
  6
CONTINUOUS
  0
LAYER
  5
8D
330
2
100
AcDbSymbolTableRecord
100
AcDbLayerTableRecord
  2
84
 70
     0
 62
    84
  6
CONTINUOUS
  0
LAYER
  5
8E
330
2
100
AcDbSymbolTableRecord
100
AcDbLayerTableRecord
  2
85
 70
     0
 62
    85
  6
CONTINUOUS
  0
LAYER
  5
8F
330
2
100
AcDbSymbolTableRecord
100
AcDbLayerTableRecord
  2
86
 70
     0
 62
    86
  6
CONTINUOUS
  0
LAYER
  5
90
330
2
100
AcDbSymbolTableRecord
100
AcDbLayerTableRecord
  2
87
 70
     0
 62
    87
  6
CONTINUOUS
  0
LAYER
  5
91
330
2
100
AcDbSymbolTableRecord
100
AcDbLayerTableRecord
  2
88
 70
     0
 62
    88
  6
CONTINUOUS
  0
LAYER
  5
92
330
2
100
AcDbSymbolTableRecord
100
AcDbLayerTableRecord
  2
89
 70
     0
 62
    89
  6
CONTINUOUS
  0
LAYER
  5
93
330
2
100
AcDbSymbolTableRecord
100
AcDbLayerTableRecord
  2
90
 70
     0
 62
    90
  6
CONTINUOUS
  0
LAYER
  5
94
330
2
100
AcDbSymbolTableRecord
100
AcDbLayerTableRecord
  2
91
 70
     0
 62
    91
  6
CONTINUOUS
  0
LAYER
  5
95
330
2
100
AcDbSymbolTableRecord
100
AcDbLayerTableRecord
  2
92
 70
     0
 62
    92
  6
CONTINUOUS
  0
LAYER
  5
96
330
2
100
AcDbSymbolTableRecord
100
AcDbLayerTableRecord
  2
93
 70
     0
 62
    93
  6
CONTINUOUS
  0
LAYER
  5
97
330
2
100
AcDbSymbolTableRecord
100
AcDbLayerTableRecord
  2
94
 70
     0
 62
    94
  6
CONTINUOUS
  0
LAYER
  5
98
330
2
100
AcDbSymbolTableRecord
100
AcDbLayerTableRecord
  2
95
 70
     0
 62
    95
  6
CONTINUOUS
  0
LAYER
  5
99
330
2
100
AcDbSymbolTableRecord
100
AcDbLayerTableRecord
  2
96
 70
     0
 62
    96
  6
CONTINUOUS
  0
LAYER
  5
9A
330
2
100
AcDbSymbolTableRecord
100
AcDbLayerTableRecord
  2
97
 70
     0
 62
    97
  6
CONTINUOUS
  0
LAYER
  5
9B
330
2
100
AcDbSymbolTableRecord
100
AcDbLayerTableRecord
  2
98
 70
     0
 62
    98
  6
CONTINUOUS
  0
LAYER
  5
9C
330
2
100
AcDbSymbolTableRecord
100
AcDbLayerTableRecord
  2
99
 70
     0
 62
    99
  6
CONTINUOUS
  0
LAYER
  5
9D
330
2
100
AcDbSymbolTableRecord
100
AcDbLayerTableRecord
  2
100
 70
     0
 62
   100
  6
CONTINUOUS
  0
LAYER
  5
9E
330
2
100
AcDbSymbolTableRecord
100
AcDbLayerTableRecord
  2
101
 70
     0
 62
   101
  6
CONTINUOUS
  0
LAYER
  5
9F
330
2
100
AcDbSymbolTableRecord
100
AcDbLayerTableRecord
  2
102
 70
     0
 62
   102
  6
CONTINUOUS
  0
LAYER
  5
A0
330
2
100
AcDbSymbolTableRecord
100
AcDbLayerTableRecord
  2
103
 70
     0
 62
   103
  6
CONTINUOUS
  0
LAYER
  5
A1
330
2
100
AcDbSymbolTableRecord
100
AcDbLayerTableRecord
  2
104
 70
     0
 62
   104
  6
CONTINUOUS
  0
LAYER
  5
A2
330
2
100
AcDbSymbolTableRecord
100
AcDbLayerTableRecord
  2
105
 70
     0
 62
   105
  6
CONTINUOUS
  0
LAYER
  5
A3
330
2
100
AcDbSymbolTableRecord
100
AcDbLayerTableRecord
  2
106
 70
     0
 62
   106
  6
CONTINUOUS
  0
LAYER
  5
A4
330
2
100
AcDbSymbolTableRecord
100
AcDbLayerTableRecord
  2
107
 70
     0
 62
   107
  6
CONTINUOUS
  0
LAYER
  5
A5
330
2
100
AcDbSymbolTableRecord
100
AcDbLayerTableRecord
  2
108
 70
     0
 62
   108
  6
CONTINUOUS
  0
LAYER
  5
A6
330
2
100
AcDbSymbolTableRecord
100
AcDbLayerTableRecord
  2
109
 70
     0
 62
   109
  6
CONTINUOUS
  0
LAYER
  5
A7
330
2
100
AcDbSymbolTableRecord
100
AcDbLayerTableRecord
  2
110
 70
     0
 62
   110
  6
CONTINUOUS
  0
LAYER
  5
A8
330
2
100
AcDbSymbolTableRecord
100
AcDbLayerTableRecord
  2
111
 70
     0
 62
   111
  6
CONTINUOUS
  0
LAYER
  5
A9
330
2
100
AcDbSymbolTableRecord
100
AcDbLayerTableRecord
  2
112
 70
     0
 62
   112
  6
CONTINUOUS
  0
LAYER
  5
AA
330
2
100
AcDbSymbolTableRecord
100
AcDbLayerTableRecord
  2
113
 70
     0
 62
   113
  6
CONTINUOUS
  0
LAYER
  5
AB
330
2
100
AcDbSymbolTableRecord
100
AcDbLayerTableRecord
  2
114
 70
     0
 62
   114
  6
CONTINUOUS
  0
LAYER
  5
AC
330
2
100
AcDbSymbolTableRecord
100
AcDbLayerTableRecord
  2
115
 70
     0
 62
   115
  6
CONTINUOUS
  0
LAYER
  5
AD
330
2
100
AcDbSymbolTableRecord
100
AcDbLayerTableRecord
  2
116
 70
     0
 62
   116
  6
CONTINUOUS
  0
LAYER
  5
AE
330
2
100
AcDbSymbolTableRecord
100
AcDbLayerTableRecord
  2
117
 70
     0
 62
   117
  6
CONTINUOUS
  0
LAYER
  5
AF
330
2
100
AcDbSymbolTableRecord
100
AcDbLayerTableRecord
  2
118
 70
     0
 62
   118
  6
CONTINUOUS
  0
LAYER
  5
B0
330
2
100
AcDbSymbolTableRecord
100
AcDbLayerTableRecord
  2
119
 70
     0
 62
   119
  6
CONTINUOUS
  0
LAYER
  5
B1
330
2
100
AcDbSymbolTableRecord
100
AcDbLayerTableRecord
  2
120
 70
     0
 62
   120
  6
CONTINUOUS
  0
LAYER
  5
B2
330
2
100
AcDbSymbolTableRecord
100
AcDbLayerTableRecord
  2
121
 70
     0
 62
   121
  6
CONTINUOUS
  0
LAYER
  5
B3
330
2
100
AcDbSymbolTableRecord
100
AcDbLayerTableRecord
  2
122
 70
     0
 62
   122
  6
CONTINUOUS
  0
LAYER
  5
B4
330
2
100
AcDbSymbolTableRecord
100
AcDbLayerTableRecord
  2
123
 70
     0
 62
   123
  6
CONTINUOUS
  0
LAYER
  5
B5
330
2
100
AcDbSymbolTableRecord
100
AcDbLayerTableRecord
  2
124
 70
     0
 62
   124
  6
CONTINUOUS
  0
LAYER
  5
B6
330
2
100
AcDbSymbolTableRecord
100
AcDbLayerTableRecord
  2
125
 70
     0
 62
   125
  6
CONTINUOUS
  0
LAYER
  5
B7
330
2
100
AcDbSymbolTableRecord
100
AcDbLayerTableRecord
  2
126
 70
     0
 62
   126
  6
CONTINUOUS
  0
LAYER
  5
B8
330
2
100
AcDbSymbolTableRecord
100
AcDbLayerTableRecord
  2
127
 70
     0
 62
   127
  6
CONTINUOUS
  0
LAYER
  5
B9
330
2
100
AcDbSymbolTableRecord
100
AcDbLayerTableRecord
  2
128
 70
     0
 62
   128
  6
CONTINUOUS
  0
LAYER
  5
BA
330
2
100
AcDbSymbolTableRecord
100
AcDbLayerTableRecord
  2
129
 70
     0
 62
   129
  6
CONTINUOUS
  0
LAYER
  5
BB
330
2
100
AcDbSymbolTableRecord
100
AcDbLayerTableRecord
  2
130
 70
     0
 62
   130
  6
CONTINUOUS
  0
LAYER
  5
BC
330
2
100
AcDbSymbolTableRecord
100
AcDbLayerTableRecord
  2
131
 70
     0
 62
   131
  6
CONTINUOUS
  0
LAYER
  5
BD
330
2
100
AcDbSymbolTableRecord
100
AcDbLayerTableRecord
  2
132
 70
     0
 62
   132
  6
CONTINUOUS
  0
LAYER
  5
BE
330
2
100
AcDbSymbolTableRecord
100
AcDbLayerTableRecord
  2
133
 70
     0
 62
   133
  6
CONTINUOUS
  0
LAYER
  5
BF
330
2
100
AcDbSymbolTableRecord
100
AcDbLayerTableRecord
  2
134
 70
     0
 62
   134
  6
CONTINUOUS
  0
LAYER
  5
C0
330
2
100
AcDbSymbolTableRecord
100
AcDbLayerTableRecord
  2
135
 70
     0
 62
   135
  6
CONTINUOUS
  0
LAYER
  5
C1
330
2
100
AcDbSymbolTableRecord
100
AcDbLayerTableRecord
  2
136
 70
     0
 62
   136
  6
CONTINUOUS
  0
LAYER
  5
C2
330
2
100
AcDbSymbolTableRecord
100
AcDbLayerTableRecord
  2
137
 70
     0
 62
   137
  6
CONTINUOUS
  0
LAYER
  5
C3
330
2
100
AcDbSymbolTableRecord
100
AcDbLayerTableRecord
  2
138
 70
     0
 62
   138
  6
CONTINUOUS
  0
LAYER
  5
C4
330
2
100
AcDbSymbolTableRecord
100
AcDbLayerTableRecord
  2
139
 70
     0
 62
   139
  6
CONTINUOUS
  0
LAYER
  5
C5
330
2
100
AcDbSymbolTableRecord
100
AcDbLayerTableRecord
  2
140
 70
     0
 62
   140
  6
CONTINUOUS
  0
LAYER
  5
C6
330
2
100
AcDbSymbolTableRecord
100
AcDbLayerTableRecord
  2
141
 70
     0
 62
   141
  6
CONTINUOUS
  0
LAYER
  5
C7
330
2
100
AcDbSymbolTableRecord
100
AcDbLayerTableRecord
  2
142
 70
     0
 62
   142
  6
CONTINUOUS
  0
LAYER
  5
C8
330
2
100
AcDbSymbolTableRecord
100
AcDbLayerTableRecord
  2
143
 70
     0
 62
   143
  6
CONTINUOUS
  0
LAYER
  5
C9
330
2
100
AcDbSymbolTableRecord
100
AcDbLayerTableRecord
  2
144
 70
     0
 62
   144
  6
CONTINUOUS
  0
LAYER
  5
CA
330
2
100
AcDbSymbolTableRecord
100
AcDbLayerTableRecord
  2
145
 70
     0
 62
   145
  6
CONTINUOUS
  0
LAYER
  5
CB
330
2
100
AcDbSymbolTableRecord
100
AcDbLayerTableRecord
  2
146
 70
     0
 62
   146
  6
CONTINUOUS
  0
LAYER
  5
CC
330
2
100
AcDbSymbolTableRecord
100
AcDbLayerTableRecord
  2
147
 70
     0
 62
   147
  6
CONTINUOUS
  0
LAYER
  5
CD
330
2
100
AcDbSymbolTableRecord
100
AcDbLayerTableRecord
  2
148
 70
     0
 62
   148
  6
CONTINUOUS
  0
LAYER
  5
CE
330
2
100
AcDbSymbolTableRecord
100
AcDbLayerTableRecord
  2
149
 70
     0
 62
   149
  6
CONTINUOUS
  0
LAYER
  5
CF
330
2
100
AcDbSymbolTableRecord
100
AcDbLayerTableRecord
  2
150
 70
     0
 62
   150
  6
CONTINUOUS
  0
LAYER
  5
D0
330
2
100
AcDbSymbolTableRecord
100
AcDbLayerTableRecord
  2
151
 70
     0
 62
   151
  6
CONTINUOUS
  0
LAYER
  5
D1
330
2
100
AcDbSymbolTableRecord
100
AcDbLayerTableRecord
  2
152
 70
     0
 62
   152
  6
CONTINUOUS
  0
LAYER
  5
D2
330
2
100
AcDbSymbolTableRecord
100
AcDbLayerTableRecord
  2
153
 70
     0
 62
   153
  6
CONTINUOUS
  0
LAYER
  5
D3
330
2
100
AcDbSymbolTableRecord
100
AcDbLayerTableRecord
  2
154
 70
     0
 62
   154
  6
CONTINUOUS
  0
LAYER
  5
D4
330
2
100
AcDbSymbolTableRecord
100
AcDbLayerTableRecord
  2
155
 70
     0
 62
   155
  6
CONTINUOUS
  0
LAYER
  5
D5
330
2
100
AcDbSymbolTableRecord
100
AcDbLayerTableRecord
  2
156
 70
     0
 62
   156
  6
CONTINUOUS
  0
LAYER
  5
D6
330
2
100
AcDbSymbolTableRecord
100
AcDbLayerTableRecord
  2
157
 70
     0
 62
   157
  6
CONTINUOUS
  0
LAYER
  5
D7
330
2
100
AcDbSymbolTableRecord
100
AcDbLayerTableRecord
  2
158
 70
     0
 62
   158
  6
CONTINUOUS
  0
LAYER
  5
D8
330
2
100
AcDbSymbolTableRecord
100
AcDbLayerTableRecord
  2
159
 70
     0
 62
   159
  6
CONTINUOUS
  0
LAYER
  5
D9
330
2
100
AcDbSymbolTableRecord
100
AcDbLayerTableRecord
  2
160
 70
     0
 62
   160
  6
CONTINUOUS
  0
LAYER
  5
DA
330
2
100
AcDbSymbolTableRecord
100
AcDbLayerTableRecord
  2
161
 70
     0
 62
   161
  6
CONTINUOUS
  0
LAYER
  5
DB
330
2
100
AcDbSymbolTableRecord
100
AcDbLayerTableRecord
  2
162
 70
     0
 62
   162
  6
CONTINUOUS
  0
LAYER
  5
DC
330
2
100
AcDbSymbolTableRecord
100
AcDbLayerTableRecord
  2
163
 70
     0
 62
   163
  6
CONTINUOUS
  0
LAYER
  5
DD
330
2
100
AcDbSymbolTableRecord
100
AcDbLayerTableRecord
  2
164
 70
     0
 62
   164
  6
CONTINUOUS
  0
LAYER
  5
DE
330
2
100
AcDbSymbolTableRecord
100
AcDbLayerTableRecord
  2
165
 70
     0
 62
   165
  6
CONTINUOUS
  0
LAYER
  5
DF
330
2
100
AcDbSymbolTableRecord
100
AcDbLayerTableRecord
  2
166
 70
     0
 62
   166
  6
CONTINUOUS
  0
LAYER
  5
E0
330
2
100
AcDbSymbolTableRecord
100
AcDbLayerTableRecord
  2
167
 70
     0
 62
   167
  6
CONTINUOUS
  0
LAYER
  5
E1
330
2
100
AcDbSymbolTableRecord
100
AcDbLayerTableRecord
  2
168
 70
     0
 62
   168
  6
CONTINUOUS
  0
LAYER
  5
E2
330
2
100
AcDbSymbolTableRecord
100
AcDbLayerTableRecord
  2
169
 70
     0
 62
   169
  6
CONTINUOUS
  0
LAYER
  5
E3
330
2
100
AcDbSymbolTableRecord
100
AcDbLayerTableRecord
  2
170
 70
     0
 62
   170
  6
CONTINUOUS
  0
LAYER
  5
E4
330
2
100
AcDbSymbolTableRecord
100
AcDbLayerTableRecord
  2
171
 70
     0
 62
   171
  6
CONTINUOUS
  0
LAYER
  5
E5
330
2
100
AcDbSymbolTableRecord
100
AcDbLayerTableRecord
  2
172
 70
     0
 62
   172
  6
CONTINUOUS
  0
LAYER
  5
E6
330
2
100
AcDbSymbolTableRecord
100
AcDbLayerTableRecord
  2
173
 70
     0
 62
   173
  6
CONTINUOUS
  0
LAYER
  5
E7
330
2
100
AcDbSymbolTableRecord
100
AcDbLayerTableRecord
  2
174
 70
     0
 62
   174
  6
CONTINUOUS
  0
LAYER
  5
E8
330
2
100
AcDbSymbolTableRecord
100
AcDbLayerTableRecord
  2
175
 70
     0
 62
   175
  6
CONTINUOUS
  0
LAYER
  5
E9
330
2
100
AcDbSymbolTableRecord
100
AcDbLayerTableRecord
  2
176
 70
     0
 62
   176
  6
CONTINUOUS
  0
LAYER
  5
EA
330
2
100
AcDbSymbolTableRecord
100
AcDbLayerTableRecord
  2
177
 70
     0
 62
   177
  6
CONTINUOUS
  0
LAYER
  5
EB
330
2
100
AcDbSymbolTableRecord
100
AcDbLayerTableRecord
  2
178
 70
     0
 62
   178
  6
CONTINUOUS
  0
LAYER
  5
EC
330
2
100
AcDbSymbolTableRecord
100
AcDbLayerTableRecord
  2
179
 70
     0
 62
   179
  6
CONTINUOUS
  0
LAYER
  5
ED
330
2
100
AcDbSymbolTableRecord
100
AcDbLayerTableRecord
  2
180
 70
     0
 62
   180
  6
CONTINUOUS
  0
LAYER
  5
EE
330
2
100
AcDbSymbolTableRecord
100
AcDbLayerTableRecord
  2
181
 70
     0
 62
   181
  6
CONTINUOUS
  0
LAYER
  5
EF
330
2
100
AcDbSymbolTableRecord
100
AcDbLayerTableRecord
  2
182
 70
     0
 62
   182
  6
CONTINUOUS
  0
LAYER
  5
F0
330
2
100
AcDbSymbolTableRecord
100
AcDbLayerTableRecord
  2
183
 70
     0
 62
   183
  6
CONTINUOUS
  0
LAYER
  5
F1
330
2
100
AcDbSymbolTableRecord
100
AcDbLayerTableRecord
  2
184
 70
     0
 62
   184
  6
CONTINUOUS
  0
LAYER
  5
F2
330
2
100
AcDbSymbolTableRecord
100
AcDbLayerTableRecord
  2
185
 70
     0
 62
   185
  6
CONTINUOUS
  0
LAYER
  5
F3
330
2
100
AcDbSymbolTableRecord
100
AcDbLayerTableRecord
  2
186
 70
     0
 62
   186
  6
CONTINUOUS
  0
LAYER
  5
F4
330
2
100
AcDbSymbolTableRecord
100
AcDbLayerTableRecord
  2
187
 70
     0
 62
   187
  6
CONTINUOUS
  0
LAYER
  5
F5
330
2
100
AcDbSymbolTableRecord
100
AcDbLayerTableRecord
  2
188
 70
     0
 62
   188
  6
CONTINUOUS
  0
LAYER
  5
F6
330
2
100
AcDbSymbolTableRecord
100
AcDbLayerTableRecord
  2
189
 70
     0
 62
   189
  6
CONTINUOUS
  0
LAYER
  5
F7
330
2
100
AcDbSymbolTableRecord
100
AcDbLayerTableRecord
  2
190
 70
     0
 62
   190
  6
CONTINUOUS
  0
LAYER
  5
F8
330
2
100
AcDbSymbolTableRecord
100
AcDbLayerTableRecord
  2
191
 70
     0
 62
   191
  6
CONTINUOUS
  0
LAYER
  5
F9
330
2
100
AcDbSymbolTableRecord
100
AcDbLayerTableRecord
  2
192
 70
     0
 62
   192
  6
CONTINUOUS
  0
LAYER
  5
FA
330
2
100
AcDbSymbolTableRecord
100
AcDbLayerTableRecord
  2
193
 70
     0
 62
   193
  6
CONTINUOUS
  0
LAYER
  5
FB
330
2
100
AcDbSymbolTableRecord
100
AcDbLayerTableRecord
  2
194
 70
     0
 62
   194
  6
CONTINUOUS
  0
LAYER
  5
FC
330
2
100
AcDbSymbolTableRecord
100
AcDbLayerTableRecord
  2
195
 70
     0
 62
   195
  6
CONTINUOUS
  0
LAYER
  5
FD
330
2
100
AcDbSymbolTableRecord
100
AcDbLayerTableRecord
  2
196
 70
     0
 62
   196
  6
CONTINUOUS
  0
LAYER
  5
FE
330
2
100
AcDbSymbolTableRecord
100
AcDbLayerTableRecord
  2
197
 70
     0
 62
   197
  6
CONTINUOUS
  0
LAYER
  5
FF
330
2
100
AcDbSymbolTableRecord
100
AcDbLayerTableRecord
  2
198
 70
     0
 62
   198
  6
CONTINUOUS
  0
LAYER
  5
100
330
2
100
AcDbSymbolTableRecord
100
AcDbLayerTableRecord
  2
199
 70
     0
 62
   199
  6
CONTINUOUS
  0
LAYER
  5
101
330
2
100
AcDbSymbolTableRecord
100
AcDbLayerTableRecord
  2
200
 70
     0
 62
   200
  6
CONTINUOUS
  0
LAYER
  5
102
330
2
100
AcDbSymbolTableRecord
100
AcDbLayerTableRecord
  2
201
 70
     0
 62
   201
  6
CONTINUOUS
  0
LAYER
  5
103
330
2
100
AcDbSymbolTableRecord
100
AcDbLayerTableRecord
  2
202
 70
     0
 62
   202
  6
CONTINUOUS
  0
LAYER
  5
104
330
2
100
AcDbSymbolTableRecord
100
AcDbLayerTableRecord
  2
203
 70
     0
 62
   203
  6
CONTINUOUS
  0
LAYER
  5
105
330
2
100
AcDbSymbolTableRecord
100
AcDbLayerTableRecord
  2
204
 70
     0
 62
   204
  6
CONTINUOUS
  0
LAYER
  5
106
330
2
100
AcDbSymbolTableRecord
100
AcDbLayerTableRecord
  2
205
 70
     0
 62
   205
  6
CONTINUOUS
  0
LAYER
  5
107
330
2
100
AcDbSymbolTableRecord
100
AcDbLayerTableRecord
  2
206
 70
     0
 62
   206
  6
CONTINUOUS
  0
LAYER
  5
108
330
2
100
AcDbSymbolTableRecord
100
AcDbLayerTableRecord
  2
207
 70
     0
 62
   207
  6
CONTINUOUS
  0
LAYER
  5
109
330
2
100
AcDbSymbolTableRecord
100
AcDbLayerTableRecord
  2
208
 70
     0
 62
   208
  6
CONTINUOUS
  0
LAYER
  5
10A
330
2
100
AcDbSymbolTableRecord
100
AcDbLayerTableRecord
  2
209
 70
     0
 62
   209
  6
CONTINUOUS
  0
LAYER
  5
10B
330
2
100
AcDbSymbolTableRecord
100
AcDbLayerTableRecord
  2
210
 70
     0
 62
   210
  6
CONTINUOUS
  0
LAYER
  5
10C
330
2
100
AcDbSymbolTableRecord
100
AcDbLayerTableRecord
  2
211
 70
     0
 62
   211
  6
CONTINUOUS
  0
LAYER
  5
10D
330
2
100
AcDbSymbolTableRecord
100
AcDbLayerTableRecord
  2
212
 70
     0
 62
   212
  6
CONTINUOUS
  0
LAYER
  5
10E
330
2
100
AcDbSymbolTableRecord
100
AcDbLayerTableRecord
  2
213
 70
     0
 62
   213
  6
CONTINUOUS
  0
LAYER
  5
10F
330
2
100
AcDbSymbolTableRecord
100
AcDbLayerTableRecord
  2
214
 70
     0
 62
   214
  6
CONTINUOUS
  0
LAYER
  5
110
330
2
100
AcDbSymbolTableRecord
100
AcDbLayerTableRecord
  2
215
 70
     0
 62
   215
  6
CONTINUOUS
  0
LAYER
  5
111
330
2
100
AcDbSymbolTableRecord
100
AcDbLayerTableRecord
  2
216
 70
     0
 62
   216
  6
CONTINUOUS
  0
LAYER
  5
112
330
2
100
AcDbSymbolTableRecord
100
AcDbLayerTableRecord
  2
217
 70
     0
 62
   217
  6
CONTINUOUS
  0
LAYER
  5
113
330
2
100
AcDbSymbolTableRecord
100
AcDbLayerTableRecord
  2
218
 70
     0
 62
   218
  6
CONTINUOUS
  0
LAYER
  5
114
330
2
100
AcDbSymbolTableRecord
100
AcDbLayerTableRecord
  2
219
 70
     0
 62
   219
  6
CONTINUOUS
  0
LAYER
  5
115
330
2
100
AcDbSymbolTableRecord
100
AcDbLayerTableRecord
  2
220
 70
     0
 62
   220
  6
CONTINUOUS
  0
LAYER
  5
116
330
2
100
AcDbSymbolTableRecord
100
AcDbLayerTableRecord
  2
221
 70
     0
 62
   221
  6
CONTINUOUS
  0
LAYER
  5
117
330
2
100
AcDbSymbolTableRecord
100
AcDbLayerTableRecord
  2
222
 70
     0
 62
   222
  6
CONTINUOUS
  0
LAYER
  5
118
330
2
100
AcDbSymbolTableRecord
100
AcDbLayerTableRecord
  2
223
 70
     0
 62
   223
  6
CONTINUOUS
  0
LAYER
  5
119
330
2
100
AcDbSymbolTableRecord
100
AcDbLayerTableRecord
  2
224
 70
     0
 62
   224
  6
CONTINUOUS
  0
LAYER
  5
11A
330
2
100
AcDbSymbolTableRecord
100
AcDbLayerTableRecord
  2
225
 70
     0
 62
   225
  6
CONTINUOUS
  0
LAYER
  5
11B
330
2
100
AcDbSymbolTableRecord
100
AcDbLayerTableRecord
  2
226
 70
     0
 62
   226
  6
CONTINUOUS
  0
LAYER
  5
11C
330
2
100
AcDbSymbolTableRecord
100
AcDbLayerTableRecord
  2
227
 70
     0
 62
   227
  6
CONTINUOUS
  0
LAYER
  5
11D
330
2
100
AcDbSymbolTableRecord
100
AcDbLayerTableRecord
  2
228
 70
     0
 62
   228
  6
CONTINUOUS
  0
LAYER
  5
11E
330
2
100
AcDbSymbolTableRecord
100
AcDbLayerTableRecord
  2
229
 70
     0
 62
   229
  6
CONTINUOUS
  0
LAYER
  5
11F
330
2
100
AcDbSymbolTableRecord
100
AcDbLayerTableRecord
  2
230
 70
     0
 62
   230
  6
CONTINUOUS
  0
LAYER
  5
120
330
2
100
AcDbSymbolTableRecord
100
AcDbLayerTableRecord
  2
231
 70
     0
 62
   231
  6
CONTINUOUS
  0
LAYER
  5
121
330
2
100
AcDbSymbolTableRecord
100
AcDbLayerTableRecord
  2
232
 70
     0
 62
   232
  6
CONTINUOUS
  0
LAYER
  5
122
330
2
100
AcDbSymbolTableRecord
100
AcDbLayerTableRecord
  2
233
 70
     0
 62
   233
  6
CONTINUOUS
  0
LAYER
  5
123
330
2
100
AcDbSymbolTableRecord
100
AcDbLayerTableRecord
  2
234
 70
     0
 62
   234
  6
CONTINUOUS
  0
LAYER
  5
124
330
2
100
AcDbSymbolTableRecord
100
AcDbLayerTableRecord
  2
235
 70
     0
 62
   235
  6
CONTINUOUS
  0
LAYER
  5
125
330
2
100
AcDbSymbolTableRecord
100
AcDbLayerTableRecord
  2
236
 70
     0
 62
   236
  6
CONTINUOUS
  0
LAYER
  5
126
330
2
100
AcDbSymbolTableRecord
100
AcDbLayerTableRecord
  2
237
 70
     0
 62
   237
  6
CONTINUOUS
  0
LAYER
  5
127
330
2
100
AcDbSymbolTableRecord
100
AcDbLayerTableRecord
  2
238
 70
     0
 62
   238
  6
CONTINUOUS
  0
LAYER
  5
128
330
2
100
AcDbSymbolTableRecord
100
AcDbLayerTableRecord
  2
239
 70
     0
 62
   239
  6
CONTINUOUS
  0
LAYER
  5
129
330
2
100
AcDbSymbolTableRecord
100
AcDbLayerTableRecord
  2
240
 70
     0
 62
   240
  6
CONTINUOUS
  0
LAYER
  5
12A
330
2
100
AcDbSymbolTableRecord
100
AcDbLayerTableRecord
  2
241
 70
     0
 62
   241
  6
CONTINUOUS
  0
LAYER
  5
12B
330
2
100
AcDbSymbolTableRecord
100
AcDbLayerTableRecord
  2
242
 70
     0
 62
   242
  6
CONTINUOUS
  0
LAYER
  5
12C
330
2
100
AcDbSymbolTableRecord
100
AcDbLayerTableRecord
  2
243
 70
     0
 62
   243
  6
CONTINUOUS
  0
LAYER
  5
12D
330
2
100
AcDbSymbolTableRecord
100
AcDbLayerTableRecord
  2
244
 70
     0
 62
   244
  6
CONTINUOUS
  0
LAYER
  5
12E
330
2
100
AcDbSymbolTableRecord
100
AcDbLayerTableRecord
  2
245
 70
     0
 62
   245
  6
CONTINUOUS
  0
LAYER
  5
12F
330
2
100
AcDbSymbolTableRecord
100
AcDbLayerTableRecord
  2
246
 70
     0
 62
   246
  6
CONTINUOUS
  0
LAYER
  5
130
330
2
100
AcDbSymbolTableRecord
100
AcDbLayerTableRecord
  2
247
 70
     0
 62
   247
  6
CONTINUOUS
  0
LAYER
  5
131
330
2
100
AcDbSymbolTableRecord
100
AcDbLayerTableRecord
  2
248
 70
     0
 62
   248
  6
CONTINUOUS
  0
LAYER
  5
132
330
2
100
AcDbSymbolTableRecord
100
AcDbLayerTableRecord
  2
249
 70
     0
 62
   249
  6
CONTINUOUS
  0
LAYER
  5
133
330
2
100
AcDbSymbolTableRecord
100
AcDbLayerTableRecord
  2
250
 70
     0
 62
   250
  6
CONTINUOUS
  0
LAYER
  5
134
330
2
100
AcDbSymbolTableRecord
100
AcDbLayerTableRecord
  2
251
 70
     0
 62
   251
  6
CONTINUOUS
  0
LAYER
  5
135
330
2
100
AcDbSymbolTableRecord
100
AcDbLayerTableRecord
  2
252
 70
     0
 62
   252
  6
CONTINUOUS
  0
LAYER
  5
136
330
2
100
AcDbSymbolTableRecord
100
AcDbLayerTableRecord
  2
253
 70
     0
 62
   253
  6
CONTINUOUS
  0
LAYER
  5
137
330
2
100
AcDbSymbolTableRecord
100
AcDbLayerTableRecord
  2
254
 70
     0
 62
   254
  6
CONTINUOUS
  0
LAYER
  5
138
330
2
100
AcDbSymbolTableRecord
100
AcDbLayerTableRecord
  2
255
 70
     0
 62
   255
  6
CONTINUOUS
  0
ENDTAB
  0
TABLE
  2
STYLE
  5
3
330
0
100
AcDbSymbolTable
 70
     1
  0
STYLE
  5
11
330
3
100
AcDbSymbolTableRecord
100
AcDbTextStyleTableRecord
  2
STANDARD
 70
     0
 40
0.0
 41
1.0
 50
0.0
 71
     0
 42
0.2
  3
monotxt
  4

  0
ENDTAB
  0
TABLE
  2
VIEW
  5
6
330
0
100
AcDbSymbolTable
 70
     0
  0
ENDTAB
  0
TABLE
  2
UCS
  5
7
330
0
100
AcDbSymbolTable
 70
     0
  0
ENDTAB
  0
TABLE
  2
APPID
  5
9
330
0
100
AcDbSymbolTable
 70
     1
  0
APPID
  5
12
330
9
100
AcDbSymbolTableRecord
100
AcDbRegAppTableRecord
  2
ACAD
 70
     0
  0
ENDTAB
  0
TABLE
  2
DIMSTYLE
  5
A
330
0
100
AcDbSymbolTable
 70
     1
  0
DIMSTYLE
105
2CC7
330
A
100
AcDbSymbolTableRecord
100
AcDbDimStyleTableRecord
  2
STANDARD
 70
     0
  3

  4

  5

  6

  7

 40
1.0
 41
0.18
 42
0.0625
 43
0.38
 44
0.18
 45
0.0
 46
0.0
 47
0.0
 48
0.0
140
0.18
141
0.09
142
0.0
143
25.4
144
1.0
145
0.0
146
1.0
147
0.09
 71
     0
 72
     0
 73
     1
 74
     1
 75
     0
 76
     0
 77
     0
 78
     0
170
     0
171
     2
172
     0
173
     0
174
     0
175
     0
176
     0
177
     0
178
     0
270
     2
271
     4
272
     4
273
     2
274
     2
340
11
275
     0
280
     0
281
     0
282
     0
283
     1
284
     0
285
     0
286
     0
287
     3
288
     0
  0
ENDTAB
  0
TABLE
  2
BLOCK_RECORD
  5
1
330
0
100
AcDbSymbolTable
 70
     0
  0
BLOCK_RECORD
  5
1E
102
{ACAD_XDICTIONARY
360
403C
102
}
330
1
100
AcDbSymbolTableRecord
100
AcDbBlockTableRecord
  2
*MODEL_SPACE
  0
BLOCK_RECORD
  5
1A
102
{ACAD_XDICTIONARY
360
403E
102
}
330
1
100
AcDbSymbolTableRecord
100
AcDbBlockTableRecord
  2
*PAPER_SPACE
  0
ENDTAB
  0
ENDSEC
  0
SECTION
  2
BLOCKS
  0
BLOCK
  5
13B
330
1E
100
AcDbEntity
  8
0
100
AcDbBlockBegin
  2
*MODEL_SPACE
 70
     0
 10
0.0
 20
0.0
 30
0.0
  3
*MODEL_SPACE
  1

  0
ENDBLK
  5
13C
330
1E
100
AcDbEntity
  8
0
100
AcDbBlockEnd
  0
BLOCK
  5
139
330
1A
100
AcDbEntity
 67
     1
  8
0
100
AcDbBlockBegin
  2
*PAPER_SPACE
 70
     0
 10
0.0
 20
0.0
 30
0.0
  3
*PAPER_SPACE
  1

  0
ENDBLK
  5
13A
330
1A
100
AcDbEntity
 67
     1
  8
0
100
AcDbBlockEnd
  0
ENDSEC
  0
SECTION
  2
ENTITIES
  0
LINE
  5
29D7
330
1E
100
AcDbEntity
  8
3
100
AcDbLine
 10
1.989938372494502
 20
3.051894047340367
 30
0.0
 11
1.989938372494502
 21
7.095201133954537
 31
0.0
  0
LINE
  5
29EE
330
1E
100
AcDbEntity
  8
3
100
AcDbLine
 10
1.781276955171668
 20
3.257930792747192
 30
0.0
 11
1.781276955171668
 21
3.608324493534593
 31
0.0
  0
LINE
  5
29F5
330
1E
100
AcDbEntity
  8
3
100
AcDbLine
 10
-0.0625550658257055
 20
3.226434729755066
 30
0.0
 11
1.749780892179542
 21
3.226434729755066
 31
0.0
  0
LINE
  5
29FC
330
1E
100
AcDbEntity
  8
3
100
AcDbLine
 10
-0.0940511288178314
 20
3.608324493534593
 30
0.0
 11
-0.0940511288178314
 21
3.257930792747192
 31
0.0
  0
LINE
  5
2A03
330
1E
100
AcDbEntity
  8
3
100
AcDbLine
 10
1.749780892179542
 20
3.638508220568714
 30
0.0
 11
-0.0625550658257055
 21
3.638508220568714
 31
0.0
  0
LINE
  5
2A0A
330
1E
100
AcDbEntity
  8
3
100
AcDbLine
 10
0.6776024144892548
 20
4.303862551277375
 30
0.0
 11
0.6776024144892548
 21
4.948219506657951
 31
0.0
  0
LINE
  5
2A10
330
1E
100
AcDbEntity
  8
3
100
AcDbLine
 10
0.6776024144892548
 20
4.948219506657951
 30
0.0
 11
0.0988622570089399
 21
4.948219506657951
 31
0.0
  0
LINE
  5
2A11
330
1E
100
AcDbEntity
  8
3
100
AcDbLine
 10
0.6776024144892548
 20
5.198875674636953
 30
0.0
 11
0.6776024144892548
 21
5.843232630017531
 31
0.0
  0
LINE
  5
2A17
330
1E
100
AcDbEntity
  8
3
100
AcDbLine
 10
0.6776024144892548
 20
5.843232630017531
 30
0.0
 11
0.0988622570089399
 21
5.843232630017531
 31
0.0
  0
LINE
  5
2A18
330
1E
100
AcDbEntity
  8
3
100
AcDbLine
 10
1.588363569344897
 20
5.198875674636953
 30
0.0
 11
1.588363569344897
 21
5.843232630017531
 31
0.0
  0
LINE
  5
2A19
330
1E
100
AcDbEntity
  8
3
100
AcDbLine
 10
1.588363569344897
 20
5.198875674636953
 30
0.0
 11
1.008311075906576
 21
5.198875674636953
 31
0.0
  0
LINE
  5
2A1A
330
1E
100
AcDbEntity
  8
3
100
AcDbLine
 10
1.008311075906576
 20
5.198875674636953
 30
0.0
 11
1.008311075906576
 21
5.843232630017531
 31
0.0
  0
LINE
  5
2A1B
330
1E
100
AcDbEntity
  8
3
100
AcDbLine
 10
1.588363569344897
 20
5.843232630017531
 30
0.0
 11
1.008311075906576
 21
5.843232630017531
 31
0.0
  0
LINE
  5
2A1C
330
1E
100
AcDbEntity
  8
3
100
AcDbLine
 10
1.588363569344897
 20
4.303862551277375
 30
0.0
 11
1.588363569344897
 21
4.948219506657951
 31
0.0
  0
LINE
  5
2A22
330
1E
100
AcDbEntity
  8
3
100
AcDbLine
 10
1.588363569344897
 20
4.948219506657951
 30
0.0
 11
1.008311075906576
 21
4.948219506657951
 31
0.0
  0
LINE
  5
2A31
330
1E
100
AcDbEntity
  8
3
100
AcDbLine
 10
2.2143478213134
 20
7.260555464663198
 30
0.0
 11
2.2143478213134
 21
2.886539716631707
 31
0.0
  0
LINE
  5
2A45
330
1E
100
AcDbEntity
  8
3
100
AcDbLine
 10
2.181539422363269
 20
2.82748459852147
 30
0.0
 11
2.157917375119175
 21
2.823547590647455
 31
0.0
  0
LINE
  5
2A54
330
1E
100
AcDbEntity
  8
3
100
AcDbLine
 10
2.157917375119175
 20
7.32354759064745
 30
0.0
 11
2.181539422363269
 21
7.318298246815429
 31
0.0
  0
LINE
  5
2A98
330
1E
100
AcDbEntity
  8
3
100
AcDbLine
 10
1.989938372494502
 20
7.095201133954537
 30
0.0
 11
2.021434435486628
 21
7.138508220568711
 31
0.0
  0
LINE
  5
2AC1
330
1E
100
AcDbEntity
  8
3
100
AcDbLine
 10
2.185476430237284
 20
7.311736567025404
 30
0.0
 11
2.155292703203164
 21
7.319610582773435
 31
0.0
  0
LINE
  5
2AD3
330
1E
100
AcDbEntity
  8
3
100
AcDbLine
 10
-0.4982506038834478
 20
2.835358614269502
 30
0.0
 11
-0.4680668768493277
 21
2.826172262563465
 31
0.0
  0
LINE
  5
2AE5
330
1E
100
AcDbEntity
  8
3
100
AcDbLine
 10
0.7825892911296748
 20
6.562392735004406
 30
0.0
 11
0.9033241992661572
 21
6.562392735004406
 31
0.0
  0
LINE
  5
2AF7
330
1E
100
AcDbEntity
  8
3
100
AcDbLine
 10
0.9033241992661572
 20
6.865542341303619
 30
0.0
 11
0.7825892911296748
 21
6.865542341303619
 31
0.0
  0
LINE
  5
2B09
330
1E
100
AcDbEntity
  8
3
100
AcDbLine
 10
-0.0297466668755737
 20
6.508586960726192
 30
0.0
 11
-0.0297466668755737
 21
6.919348115581835
 31
0.0
  0
LINE
  5
2B0A
330
1E
100
AcDbEntity
  8
3
100
AcDbLine
 10
1.715660157271406
 20
6.508586960726192
 30
0.0
 11
-0.0297466668755737
 21
6.508586960726192
 31
0.0
  0
LINE
  5
2B0B
330
1E
100
AcDbEntity
  8
3
100
AcDbLine
 10
1.715660157271406
 20
6.508586960726192
 30
0.0
 11
1.715660157271406
 21
6.919348115581835
 31
0.0
  0
LINE
  5
2B0C
330
1E
100
AcDbEntity
  8
3
100
AcDbLine
 10
-0.0297466668755737
 20
6.919348115581835
 30
0.0
 11
1.715660157271406
 21
6.919348115581835
 31
0.0
  0
LINE
  5
2B0D
330
1E
100
AcDbEntity
  8
3
100
AcDbLine
 10
-0.0297466668755737
 20
6.508586960726192
 30
0.0
 11
-0.0323713387915845
 21
6.508586960726192
 31
0.0
  0
LINE
  5
2B0E
330
1E
100
AcDbEntity
  8
3
100
AcDbLine
 10
-0.0297466668755737
 20
6.919348115581835
 30
0.0
 11
-0.0323713387915845
 21
6.919348115581835
 31
0.0
  0
LINE
  5
2B1E
330
1E
100
AcDbEntity
  8
3
100
AcDbLine
 10
1.715660157271406
 20
6.508586960726192
 30
0.0
 11
1.718284829187416
 21
6.508586960726192
 31
0.0
  0
LINE
  5
2B1F
330
1E
100
AcDbEntity
  8
3
100
AcDbLine
 10
1.715660157271406
 20
6.919348115581835
 30
0.0
 11
1.718284829187416
 21
6.919348115581835
 31
0.0
  0
LINE
  5
2B2C
330
1E
100
AcDbEntity
  8
3
100
AcDbLine
 10
1.778652283255658
 20
6.540083023718318
 30
0.0
 11
1.781276955171668
 21
6.538770687760313
 31
0.0
  0
LINE
  5
2B2D
330
1E
100
AcDbEntity
  8
3
100
AcDbLine
 10
1.749780892179542
 20
6.507274624768187
 30
0.0
 11
1.747156220263532
 21
6.508586960726192
 31
0.0
  0
LINE
  5
2B2E
330
1E
100
AcDbEntity
  8
3
100
AcDbLine
 10
1.747156220263532
 20
6.919348115581835
 30
0.0
 11
1.749780892179542
 21
6.919348115581835
 31
0.0
  0
LINE
  5
2B2F
330
1E
100
AcDbEntity
  8
3
100
AcDbLine
 10
1.781276955171668
 20
6.889164388547714
 30
0.0
 11
1.778652283255658
 21
6.887852052589709
 31
0.0
  0
LINE
  5
2B30
330
1E
100
AcDbEntity
  8
3
100
AcDbLine
 10
-0.0927387928598265
 20
6.887852052589709
 30
0.0
 11
-0.0940511288178314
 21
6.889164388547714
 31
0.0
  0
LINE
  5
2B31
330
1E
100
AcDbEntity
  8
3
100
AcDbLine
 10
-0.0625550658257055
 20
6.919348115581835
 30
0.0
 11
-0.0612427298677005
 21
6.919348115581835
 31
0.0
  0
LINE
  5
2B32
330
1E
100
AcDbEntity
  8
3
100
AcDbLine
 10
-0.0612427298677005
 20
6.508586960726192
 30
0.0
 11
-0.0625550658257055
 21
6.507274624768187
 31
0.0
  0
LINE
  5
2B33
330
1E
100
AcDbEntity
  8
3
100
AcDbLine
 10
-0.0940511288178314
 20
6.538770687760313
 30
0.0
 11
-0.0927387928598265
 21
6.540083023718318
 31
0.0
  0
LINE
  5
2B34
330
1E
100
AcDbEntity
  8
3
100
AcDbLine
 10
0.7825892911296748
 20
6.563705070962411
 30
0.0
 11
0.7825892911296748
 21
6.562392735004406
 31
0.0
  0
LINE
  5
2B3A
330
1E
100
AcDbEntity
  8
3
100
AcDbLine
 10
0.9033241992661572
 20
6.864230005345614
 30
0.0
 11
0.9033241992661572
 21
6.865542341303619
 31
0.0
  0
LINE
  5
2B4E
330
1E
100
AcDbEntity
  8
3
100
AcDbLine
 10
0.7825892911296748
 20
6.862917669387609
 30
0.0
 11
0.7405945404735071
 21
6.856355989597583
 31
0.0
  0
LINE
  5
2B5C
330
1E
100
AcDbEntity
  8
3
100
AcDbLine
 10
0.7825892911296748
 20
6.637195884610706
 30
0.0
 11
0.9033241992661572
 21
6.637195884610706
 31
0.0
  0
LINE
  5
2B68
330
1E
100
AcDbEntity
  8
3
100
AcDbLine
 10
0.7825892911296748
 20
6.79073919169732
 30
0.0
 11
0.9033241992661572
 21
6.79073919169732
 31
0.0
  0
LINE
  5
2B74
330
1E
100
AcDbEntity
  8
3
100
AcDbLine
 10
0.7825892911296748
 20
6.79073919169732
 30
0.0
 11
0.9033241992661572
 21
6.79073919169732
 31
0.0
  0
LINE
  5
2B75
330
1E
100
AcDbEntity
  8
3
100
AcDbLine
 10
0.7825892911296748
 20
6.637195884610706
 30
0.0
 11
0.9033241992661572
 21
6.637195884610706
 31
0.0
  0
LINE
  5
2B76
330
1E
100
AcDbEntity
  8
3
100
AcDbLine
 10
0.9492559577963412
 20
6.773678824243252
 30
0.0
 11
0.9400696060903044
 21
6.781552839991283
 31
0.0
  0
LINE
  5
2B77
330
1E
100
AcDbEntity
  8
3
100
AcDbLine
 10
0.9400696060903044
 20
6.646382236316743
 30
0.0
 11
0.9492559577963412
 21
6.654256252064774
 31
0.0
  0
LINE
  5
2B7D
330
1E
100
AcDbEntity
  8
3
100
AcDbLine
 10
0.9387572701322994
 20
6.780240504033278
 30
0.0
 11
0.9216969026782312
 21
6.786802183823304
 31
0.0
  0
LINE
  5
2B7E
330
1E
100
AcDbEntity
  8
3
100
AcDbLine
 10
0.9216969026782312
 20
6.786802183823304
 30
0.0
 11
0.9033241992661572
 21
6.789426855739315
 31
0.0
  0
LINE
  5
2B84
330
1E
100
AcDbEntity
  8
3
100
AcDbLine
 10
0.7366575325994909
 20
6.654256252064774
 30
0.0
 11
0.7471562202635332
 21
6.646382236316743
 31
0.0
  0
LINE
  5
2B85
330
1E
100
AcDbEntity
  8
3
100
AcDbLine
 10
0.7471562202635332
 20
6.781552839991283
 30
0.0
 11
0.7366575325994909
 21
6.773678824243252
 31
0.0
  0
LINE
  5
2B8B
330
1E
100
AcDbEntity
  8
3
100
AcDbLine
 10
0.7471562202635332
 20
6.646382236316743
 30
0.0
 11
0.9400696060903044
 21
6.646382236316743
 31
0.0
  0
LINE
  5
2B8C
330
1E
100
AcDbEntity
  8
3
100
AcDbLine
 10
0.9492559577963412
 20
6.654256252064774
 30
0.0
 11
0.7366575325994909
 21
6.654256252064774
 31
0.0
  0
LINE
  5
2B8D
330
1E
100
AcDbEntity
  8
3
100
AcDbLine
 10
0.7471562202635332
 20
6.781552839991283
 30
0.0
 11
0.9400696060903044
 21
6.781552839991283
 31
0.0
  0
LINE
  5
2B8E
330
1E
100
AcDbEntity
  8
3
100
AcDbLine
 10
0.9492559577963412
 20
6.773678824243252
 30
0.0
 11
0.7366575325994909
 21
6.773678824243252
 31
0.0
  0
LINE
  5
2B9D
330
1E
100
AcDbEntity
  8
3
100
AcDbLine
 10
0.7825892911296748
 20
3.584702446290498
 30
0.0
 11
0.9033241992661572
 21
3.584702446290498
 31
0.0
  0
LINE
  5
2BAB
330
1E
100
AcDbEntity
  8
3
100
AcDbLine
 10
0.9453189499223256
 20
3.576828430542467
 30
0.0
 11
0.9033241992661572
 21
3.583390110332493
 31
0.0
  0
LINE
  5
2BAC
330
1E
100
AcDbEntity
  8
3
100
AcDbLine
 10
0.9033241992661572
 20
3.281552839991286
 30
0.0
 11
0.7825892911296748
 21
3.281552839991286
 31
0.0
  0
LINE
  5
2BC3
330
1E
100
AcDbEntity
  8
3
100
AcDbLine
 10
1.715660157271406
 20
3.637195884610709
 30
0.0
 11
1.715660157271406
 21
3.227747065713071
 31
0.0
  0
LINE
  5
2BC4
330
1E
100
AcDbEntity
  8
3
100
AcDbLine
 10
1.715660157271406
 20
3.637195884610709
 30
0.0
 11
-0.0297466668755737
 21
3.637195884610709
 31
0.0
  0
LINE
  5
2BC5
330
1E
100
AcDbEntity
  8
3
100
AcDbLine
 10
-0.0297466668755737
 20
3.637195884610709
 30
0.0
 11
-0.0323713387915845
 21
3.638508220568714
 31
0.0
  0
LINE
  5
2BC6
330
1E
100
AcDbEntity
  8
3
100
AcDbLine
 10
-0.0297466668755737
 20
3.227747065713071
 30
0.0
 11
-0.0323713387915845
 21
3.227747065713071
 31
0.0
  0
LINE
  5
2BCD
330
1E
100
AcDbEntity
  8
3
100
AcDbLine
 10
-0.0927387928598265
 20
3.257930792747192
 30
0.0
 11
-0.0927387928598265
 21
3.607012157576588
 31
0.0
  0
LINE
  5
2BD4
330
1E
100
AcDbEntity
  8
3
100
AcDbLine
 10
-0.0323713387915845
 20
3.227747065713071
 30
0.0
 11
-0.0612427298677005
 21
3.227747065713071
 31
0.0
  0
LINE
  5
2BD5
330
1E
100
AcDbEntity
  8
3
100
AcDbLine
 10
-0.0612427298677005
 20
3.638508220568714
 30
0.0
 11
-0.0323713387915845
 21
3.638508220568714
 31
0.0
  0
LINE
  5
2BD6
330
1E
100
AcDbEntity
  8
3
100
AcDbLine
 10
1.715660157271406
 20
3.637195884610709
 30
0.0
 11
1.718284829187416
 21
3.638508220568714
 31
0.0
  0
LINE
  5
2BD7
330
1E
100
AcDbEntity
  8
3
100
AcDbLine
 10
1.715660157271406
 20
3.227747065713071
 30
0.0
 11
1.718284829187416
 21
3.227747065713071
 31
0.0
  0
LINE
  5
2BD8
330
1E
100
AcDbEntity
  8
3
100
AcDbLine
 10
1.747156220263532
 20
3.227747065713071
 30
0.0
 11
1.718284829187416
 21
3.227747065713071
 31
0.0
  0
LINE
  5
2BD9
330
1E
100
AcDbEntity
  8
3
100
AcDbLine
 10
1.778652283255658
 20
3.257930792747192
 30
0.0
 11
1.774715275381642
 21
3.243495097209134
 31
0.0
  0
LINE
  5
2BDF
330
1E
100
AcDbEntity
  8
3
100
AcDbLine
 10
1.778652283255658
 20
3.607012157576588
 30
0.0
 11
1.778652283255658
 21
3.257930792747192
 31
0.0
  0
LINE
  5
2BE6
330
1E
100
AcDbEntity
  8
3
100
AcDbLine
 10
1.718284829187416
 20
3.638508220568714
 30
0.0
 11
1.747156220263532
 21
3.638508220568714
 31
0.0
  0
LINE
  5
2BE7
330
1E
100
AcDbEntity
  8
3
100
AcDbLine
 10
1.749780892179542
 20
3.638508220568714
 30
0.0
 11
1.747156220263532
 21
3.638508220568714
 31
0.0
  0
LINE
  5
2BE8
330
1E
100
AcDbEntity
  8
3
100
AcDbLine
 10
1.778652283255658
 20
3.607012157576588
 30
0.0
 11
1.781276955171668
 21
3.608324493534593
 31
0.0
  0
LINE
  5
2BE9
330
1E
100
AcDbEntity
  8
3
100
AcDbLine
 10
1.781276955171668
 20
3.257930792747192
 30
0.0
 11
1.778652283255658
 21
3.257930792747192
 31
0.0
  0
LINE
  5
2BEA
330
1E
100
AcDbEntity
  8
3
100
AcDbLine
 10
1.747156220263532
 20
3.227747065713071
 30
0.0
 11
1.749780892179542
 21
3.226434729755066
 31
0.0
  0
LINE
  5
2BEB
330
1E
100
AcDbEntity
  8
3
100
AcDbLine
 10
-0.0625550658257055
 20
3.226434729755066
 30
0.0
 11
-0.0612427298677005
 21
3.227747065713071
 31
0.0
  0
LINE
  5
2BEC
330
1E
100
AcDbEntity
  8
3
100
AcDbLine
 10
-0.0927387928598265
 20
3.257930792747192
 30
0.0
 11
-0.0940511288178314
 21
3.257930792747192
 31
0.0
  0
LINE
  5
2BED
330
1E
100
AcDbEntity
  8
3
100
AcDbLine
 10
-0.0940511288178314
 20
3.608324493534593
 30
0.0
 11
-0.0927387928598265
 21
3.607012157576588
 31
0.0
  0
LINE
  5
2BEE
330
1E
100
AcDbEntity
  8
3
100
AcDbLine
 10
-0.0612427298677005
 20
3.638508220568714
 30
0.0
 11
-0.0625550658257055
 21
3.638508220568714
 31
0.0
  0
LINE
  5
2BEF
330
1E
100
AcDbEntity
  8
3
100
AcDbLine
 10
0.7825892911296748
 20
3.583390110332493
 30
0.0
 11
0.7825892911296748
 21
3.584702446290498
 31
0.0
  0
LINE
  5
2BF0
330
1E
100
AcDbEntity
  8
3
100
AcDbLine
 10
0.9033241992661572
 20
3.583390110332493
 30
0.0
 11
0.7825892911296748
 21
3.583390110332493
 31
0.0
  0
LINE
  5
2BF1
330
1E
100
AcDbEntity
  8
3
100
AcDbLine
 10
0.9033241992661572
 20
3.584702446290498
 30
0.0
 11
0.9033241992661572
 21
3.583390110332493
 31
0.0
  0
LINE
  5
2BF2
330
1E
100
AcDbEntity
  8
3
100
AcDbLine
 10
0.9033241992661572
 20
3.282865175949292
 30
0.0
 11
0.9033241992661572
 21
3.281552839991286
 31
0.0
  0
LINE
  5
2BF3
330
1E
100
AcDbEntity
  8
3
100
AcDbLine
 10
0.7825892911296748
 20
3.282865175949292
 30
0.0
 11
0.9033241992661572
 21
3.282865175949292
 31
0.0
  0
LINE
  5
2BF4
330
1E
100
AcDbEntity
  8
3
100
AcDbLine
 10
0.7825892911296748
 20
3.281552839991286
 30
0.0
 11
0.7825892911296748
 21
3.282865175949292
 31
0.0
  0
LINE
  5
2C10
330
1E
100
AcDbEntity
  8
3
100
AcDbLine
 10
0.7405945404735071
 20
3.289426855739318
 30
0.0
 11
0.7825892911296748
 21
3.282865175949292
 31
0.0
  0
LINE
  5
2C11
330
1E
100
AcDbEntity
  8
3
100
AcDbLine
 10
0.7825892911296748
 20
3.509899296684199
 30
0.0
 11
0.9033241992661572
 21
3.509899296684199
 31
0.0
  0
LINE
  5
2C1D
330
1E
100
AcDbEntity
  8
3
100
AcDbLine
 10
0.7825892911296748
 20
3.356355989597586
 30
0.0
 11
0.9033241992661572
 21
3.356355989597586
 31
0.0
  0
LINE
  5
2C29
330
1E
100
AcDbEntity
  8
3
100
AcDbLine
 10
0.7825892911296748
 20
3.356355989597586
 30
0.0
 11
0.9033241992661572
 21
3.356355989597586
 31
0.0
  0
LINE
  5
2C2A
330
1E
100
AcDbEntity
  8
3
100
AcDbLine
 10
0.7825892911296748
 20
3.509899296684199
 30
0.0
 11
0.9033241992661572
 21
3.509899296684199
 31
0.0
  0
LINE
  5
2C2B
330
1E
100
AcDbEntity
  8
3
100
AcDbLine
 10
0.9492559577963412
 20
3.373416357051654
 30
0.0
 11
0.9400696060903044
 21
3.365542341303622
 31
0.0
  0
LINE
  5
2C36
330
1E
100
AcDbEntity
  8
3
100
AcDbLine
 10
0.9400696060903044
 20
3.500712944978162
 30
0.0
 11
0.9492559577963412
 21
3.492838929230131
 31
0.0
  0
LINE
  5
2C3C
330
1E
100
AcDbEntity
  8
3
100
AcDbLine
 10
0.7471562202635332
 20
3.365542341303622
 30
0.0
 11
0.7366575325994909
 21
3.373416357051654
 31
0.0
  0
LINE
  5
2C3D
330
1E
100
AcDbEntity
  8
3
100
AcDbLine
 10
0.7366575325994909
 20
3.492838929230131
 30
0.0
 11
0.7471562202635332
 21
3.500712944978162
 31
0.0
  0
LINE
  5
2C43
330
1E
100
AcDbEntity
  8
3
100
AcDbLine
 10
0.7471562202635332
 20
3.500712944978162
 30
0.0
 11
0.9400696060903044
 21
3.500712944978162
 31
0.0
  0
LINE
  5
2C44
330
1E
100
AcDbEntity
  8
3
100
AcDbLine
 10
0.9492559577963412
 20
3.492838929230131
 30
0.0
 11
0.7366575325994909
 21
3.492838929230131
 31
0.0
  0
LINE
  5
2C45
330
1E
100
AcDbEntity
  8
3
100
AcDbLine
 10
0.7471562202635332
 20
3.365542341303622
 30
0.0
 11
0.9400696060903044
 21
3.365542341303622
 31
0.0
  0
LINE
  5
2C46
330
1E
100
AcDbEntity
  8
3
100
AcDbLine
 10
0.9492559577963412
 20
3.373416357051654
 30
0.0
 11
0.7366575325994909
 21
3.373416357051654
 31
0.0
  0
LINE
  5
2C47
330
1E
100
AcDbEntity
  8
3
100
AcDbLine
 10
4.668416062783213
 20
3.129321868862677
 30
0.0
 11
4.668416062783213
 21
7.173941291434853
 31
0.0
  0
LINE
  5
2C48
330
1E
100
AcDbEntity
  8
3
100
AcDbLine
 10
4.881014487980064
 20
7.39835074025375
 30
0.0
 11
4.944006613964316
 21
7.40097541216976
 31
0.0
  0
LINE
  5
2C49
330
1E
100
AcDbEntity
  8
3
100
AcDbLine
 10
4.881014487980064
 20
7.337983286185508
 30
0.0
 11
4.881014487980064
 21
2.965279874112021
 31
0.0
  0
LINE
  5
2C50
330
1E
100
AcDbEntity
  8
3
100
AcDbLine
 10
4.944006613964316
 20
2.900975412169764
 30
0.0
 11
4.881014487980064
 21
2.90491242004378
 31
0.0
  0
LINE
  5
2C9D
330
1E
100
AcDbEntity
  8
3
100
AcDbLine
 10
5.048993490604735
 20
5.142445228442729
 30
0.0
 11
5.060804514226783
 21
5.142445228442729
 31
0.0
  0
LINE
  5
2C9E
330
1E
100
AcDbEntity
  8
3
100
AcDbLine
 10
5.048993490604735
 20
6.037458351802307
 30
0.0
 11
5.060804514226783
 21
6.037458351802307
 31
0.0
  0
LINE
  5
2C9F
330
1E
100
AcDbEntity
  8
3
100
AcDbLine
 10
5.048993490604735
 20
4.374728693009657
 30
0.0
 11
5.048993490604735
 21
5.142445228442729
 31
0.0
  0
LINE
  5
2CA0
330
1E
100
AcDbEntity
  8
3
100
AcDbLine
 10
5.048993490604735
 20
5.269741816369237
 30
0.0
 11
5.048993490604735
 21
6.037458351802307
 31
0.0
  0
LINE
  5
2CAD
330
1E
100
AcDbEntity
  8
3
100
AcDbLine
 10
5.048993490604735
 20
4.374728693009657
 30
0.0
 11
5.060804514226783
 21
4.374728693009657
 31
0.0
  0
LINE
  5
2CB5
330
1E
100
AcDbEntity
  8
3
100
AcDbLine
 10
5.11985963233702
 20
5.20281268251097
 30
0.0
 11
5.11985963233702
 21
5.209374362300995
 31
0.0
  0
LINE
  5
2CBD
330
1E
100
AcDbEntity
  8
3
100
AcDbLine
 10
5.048993490604735
 20
5.269741816369237
 30
0.0
 11
5.060804514226783
 21
5.269741816369237
 31
0.0
  0
LINE
  5
2CC5
330
1E
100
AcDbEntity
  8
3
100
AcDbLine
 10
5.11985963233702
 20
6.097825805870549
 30
0.0
 11
5.11985963233702
 21
6.135883548652701
 31
0.0
  0
LINE
  5
2CC6
330
1E
100
AcDbEntity
  8
3
100
AcDbLine
 10
4.944006613964316
 20
6.138508220568712
 30
0.0
 11
5.11985963233702
 21
6.135883548652701
 31
0.0
  0
LINE
  5
2CCA
330
1E
100
AcDbEntity
  8
3
100
AcDbLine
 10
5.11985963233702
 20
6.097825805870549
 30
0.0
 11
5.114610288504998
 21
6.07551609458446
 31
0.0
  0
LINE
  5
2CCB
330
1E
100
AcDbEntity
  8
3
100
AcDbLine
 10
5.114610288504998
 20
6.07551609458446
 30
0.0
 11
5.102799264882952
 21
6.055831055214381
 31
0.0
  0
LINE
  5
2CCC
330
1E
100
AcDbEntity
  8
3
100
AcDbLine
 10
5.102799264882952
 20
6.055831055214381
 30
0.0
 11
5.083114225512872
 21
6.042707695634328
 31
0.0
  0
LINE
  5
2CCD
330
1E
100
AcDbEntity
  8
3
100
AcDbLine
 10
5.083114225512872
 20
6.042707695634328
 30
0.0
 11
5.060804514226783
 21
6.037458351802307
 31
0.0
  0
LINE
  5
2CCE
330
1E
100
AcDbEntity
  8
3
100
AcDbLine
 10
5.060804514226783
 20
5.269741816369237
 30
0.0
 11
5.083114225512872
 21
5.264492472537217
 31
0.0
  0
LINE
  5
2CCF
330
1E
100
AcDbEntity
  8
3
100
AcDbLine
 10
5.083114225512872
 20
5.264492472537217
 30
0.0
 11
5.102799264882952
 21
5.251369112957164
 31
0.0
  0
LINE
  5
2CD0
330
1E
100
AcDbEntity
  8
3
100
AcDbLine
 10
5.102799264882952
 20
5.251369112957164
 30
0.0
 11
5.114610288504998
 21
5.232996409545091
 31
0.0
  0
LINE
  5
2CD1
330
1E
100
AcDbEntity
  8
3
100
AcDbLine
 10
5.114610288504998
 20
5.232996409545091
 30
0.0
 11
5.11985963233702
 21
5.209374362300995
 31
0.0
  0
LINE
  5
2CD2
330
1E
100
AcDbEntity
  8
3
100
AcDbLine
 10
5.11985963233702
 20
5.20281268251097
 30
0.0
 11
5.114610288504998
 21
5.18050297122488
 31
0.0
  0
LINE
  5
2CD3
330
1E
100
AcDbEntity
  8
3
100
AcDbLine
 10
5.114610288504998
 20
5.18050297122488
 30
0.0
 11
5.102799264882952
 21
5.160817931854801
 31
0.0
  0
LINE
  5
2CD4
330
1E
100
AcDbEntity
  8
3
100
AcDbLine
 10
5.102799264882952
 20
5.160817931854801
 30
0.0
 11
5.083114225512872
 21
5.147694572274749
 31
0.0
  0
LINE
  5
2CD5
330
1E
100
AcDbEntity
  8
3
100
AcDbLine
 10
5.083114225512872
 20
5.147694572274749
 30
0.0
 11
5.060804514226783
 21
5.142445228442729
 31
0.0
  0
LINE
  5
2CD6
330
1E
100
AcDbEntity
  8
3
100
AcDbLine
 10
5.060804514226783
 20
4.374728693009657
 30
0.0
 11
5.083114225512872
 21
4.369479349177637
 31
0.0
  0
LINE
  5
2CD7
330
1E
100
AcDbEntity
  8
3
100
AcDbLine
 10
5.083114225512872
 20
4.369479349177637
 30
0.0
 11
5.102799264882952
 21
4.356355989597584
 31
0.0
  0
LINE
  5
2CD8
330
1E
100
AcDbEntity
  8
3
100
AcDbLine
 10
5.102799264882952
 20
4.356355989597584
 30
0.0
 11
5.114610288504998
 21
4.337983286185511
 31
0.0
  0
LINE
  5
2CD9
330
1E
100
AcDbEntity
  8
3
100
AcDbLine
 10
5.114610288504998
 20
4.337983286185511
 30
0.0
 11
5.11985963233702
 21
4.314361238941417
 31
0.0
  0
LINE
  5
2CDA
330
1E
100
AcDbEntity
  8
3
100
AcDbLine
 10
4.944006613964316
 20
4.273678824243254
 30
0.0
 11
5.11985963233702
 21
4.27761583211727
 31
0.0
  0
LINE
  5
2CDB
330
1E
100
AcDbEntity
  8
3
100
AcDbLine
 10
5.11985963233702
 20
4.27761583211727
 30
0.0
 11
5.11985963233702
 21
4.314361238941417
 31
0.0
  0
LINE
  5
2CDC
330
1E
100
AcDbEntity
  8
3
100
AcDbLine
 10
4.881014487980064
 20
2.90491242004378
 30
0.0
 11
4.881014487980064
 21
2.912786435791812
 31
0.0
  0
LINE
  5
2CDD
330
1E
100
AcDbEntity
  8
3
100
AcDbLine
 10
4.881014487980064
 20
2.912786435791812
 30
0.0
 11
4.881014487980064
 21
2.935096147077901
 31
0.0
  0
LINE
  5
2CDE
330
1E
100
AcDbEntity
  8
3
100
AcDbLine
 10
4.881014487980064
 20
2.935096147077901
 30
0.0
 11
4.881014487980064
 21
2.965279874112021
 31
0.0
  0
LINE
  5
2CDF
330
1E
100
AcDbEntity
  8
3
100
AcDbLine
 10
4.881014487980064
 20
7.337983286185508
 30
0.0
 11
4.881014487980064
 21
7.368167013219629
 31
0.0
  0
LINE
  5
2CE0
330
1E
100
AcDbEntity
  8
3
100
AcDbLine
 10
4.881014487980064
 20
7.368167013219629
 30
0.0
 11
4.881014487980064
 21
7.390476724505719
 31
0.0
  0
LINE
  5
2CE1
330
1E
100
AcDbEntity
  8
3
100
AcDbLine
 10
4.881014487980064
 20
7.390476724505719
 30
0.0
 11
4.881014487980064
 21
7.39835074025375
 31
0.0
  0
LINE
  5
2CE2
330
1E
100
AcDbEntity
  8
3
100
AcDbLine
 10
4.668416062783213
 20
7.173941291434853
 30
0.0
 11
4.67235307065723
 21
7.215936042091021
 31
0.0
  0
LINE
  5
2CE3
330
1E
100
AcDbEntity
  8
3
100
AcDbLine
 10
4.67235307065723
 20
7.215936042091021
 30
0.0
 11
4.684164094279276
 21
7.256618456789182
 31
0.0
  0
LINE
  5
2CE4
330
1E
100
AcDbEntity
  8
3
100
AcDbLine
 10
4.684164094279276
 20
7.256618456789182
 30
0.0
 11
4.703849133649356
 21
7.294676199571336
 31
0.0
  0
LINE
  5
2CE5
330
1E
100
AcDbEntity
  8
3
100
AcDbLine
 10
4.703849133649356
 20
7.294676199571336
 30
0.0
 11
4.73009585280946
 21
7.328796934479472
 31
0.0
  0
LINE
  5
2CE6
330
1E
100
AcDbEntity
  8
3
100
AcDbLine
 10
4.73009585280946
 20
7.328796934479472
 30
0.0
 11
4.762904251759593
 21
7.356355989597583
 31
0.0
  0
LINE
  5
2CE7
330
1E
100
AcDbEntity
  8
3
100
AcDbLine
 10
4.762904251759593
 20
7.356355989597583
 30
0.0
 11
4.79964965858374
 21
7.377353364925666
 31
0.0
  0
LINE
  5
2CE8
330
1E
100
AcDbEntity
  8
3
100
AcDbLine
 10
4.79964965858374
 20
7.377353364925666
 30
0.0
 11
4.839019737323896
 21
7.391789060463723
 31
0.0
  0
LINE
  5
2CE9
330
1E
100
AcDbEntity
  8
3
100
AcDbLine
 10
4.839019737323896
 20
7.391789060463723
 30
0.0
 11
4.881014487980064
 21
7.39835074025375
 31
0.0
  0
LINE
  5
2CEA
330
1E
100
AcDbEntity
  8
3
100
AcDbLine
 10
4.762904251759593
 20
2.946907170699948
 30
0.0
 11
4.73009585280946
 21
2.974466225818058
 31
0.0
  0
LINE
  5
2CEB
330
1E
100
AcDbEntity
  8
3
100
AcDbLine
 10
4.73009585280946
 20
2.974466225818058
 30
0.0
 11
4.703849133649356
 21
3.008586960726195
 31
0.0
  0
LINE
  5
2CEC
330
1E
100
AcDbEntity
  8
3
100
AcDbLine
 10
4.703849133649356
 20
3.008586960726195
 30
0.0
 11
4.684164094279276
 21
3.046644703508347
 31
0.0
  0
LINE
  5
2CED
330
1E
100
AcDbEntity
  8
3
100
AcDbLine
 10
4.684164094279276
 20
3.046644703508347
 30
0.0
 11
4.67235307065723
 21
3.08732711820651
 31
0.0
  0
LINE
  5
2CEE
330
1E
100
AcDbEntity
  8
3
100
AcDbLine
 10
4.67235307065723
 20
3.08732711820651
 30
0.0
 11
4.668416062783213
 21
3.129321868862677
 31
0.0
  0
LINE
  5
2CEF
330
1E
100
AcDbEntity
  8
3
100
AcDbLine
 10
4.881014487980064
 20
2.90491242004378
 30
0.0
 11
4.839019737323896
 21
2.911474099833806
 31
0.0
  0
LINE
  5
2CF0
330
1E
100
AcDbEntity
  8
3
100
AcDbLine
 10
4.839019737323896
 20
2.911474099833806
 30
0.0
 11
4.79964965858374
 21
2.924597459413859
 31
0.0
  0
LINE
  5
2CF1
330
1E
100
AcDbEntity
  8
3
100
AcDbLine
 10
4.79964965858374
 20
2.924597459413859
 30
0.0
 11
4.762904251759593
 21
2.946907170699948
 31
0.0
  0
LINE
  5
2CF2
330
1E
100
AcDbEntity
  8
3
100
AcDbLine
 10
4.881014487980064
 20
7.337983286185508
 30
0.0
 11
4.839019737323896
 21
7.334046278311492
 31
0.0
  0
LINE
  5
2CF3
330
1E
100
AcDbEntity
  8
3
100
AcDbLine
 10
4.839019737323896
 20
7.334046278311492
 30
0.0
 11
4.79964965858374
 21
7.32354759064745
 31
0.0
  0
LINE
  5
2CF4
330
1E
100
AcDbEntity
  8
3
100
AcDbLine
 10
4.79964965858374
 20
7.32354759064745
 30
0.0
 11
4.762904251759593
 21
7.307799559151387
 31
0.0
  0
LINE
  5
2CF5
330
1E
100
AcDbEntity
  8
3
100
AcDbLine
 10
4.762904251759593
 20
7.307799559151387
 30
0.0
 11
4.73009585280946
 21
7.286802183823303
 31
0.0
  0
LINE
  5
2CF6
330
1E
100
AcDbEntity
  8
3
100
AcDbLine
 10
4.73009585280946
 20
7.286802183823303
 30
0.0
 11
4.703849133649356
 21
7.261867800621203
 31
0.0
  0
LINE
  5
2CF7
330
1E
100
AcDbEntity
  8
3
100
AcDbLine
 10
4.703849133649356
 20
7.261867800621203
 30
0.0
 11
4.684164094279276
 21
7.234308745503094
 31
0.0
  0
LINE
  5
2CF8
330
1E
100
AcDbEntity
  8
3
100
AcDbLine
 10
4.684164094279276
 20
7.234308745503094
 30
0.0
 11
4.67235307065723
 21
7.204125018468973
 31
0.0
  0
LINE
  5
2CF9
330
1E
100
AcDbEntity
  8
3
100
AcDbLine
 10
4.67235307065723
 20
7.204125018468973
 30
0.0
 11
4.668416062783213
 21
7.173941291434853
 31
0.0
  0
LINE
  5
2CFA
330
1E
100
AcDbEntity
  8
3
100
AcDbLine
 10
4.668416062783213
 20
3.129321868862677
 30
0.0
 11
4.67235307065723
 21
3.097825805870551
 31
0.0
  0
LINE
  5
2CFB
330
1E
100
AcDbEntity
  8
3
100
AcDbLine
 10
4.67235307065723
 20
3.097825805870551
 30
0.0
 11
4.684164094279276
 21
3.06764207883643
 31
0.0
  0
LINE
  5
2CFC
330
1E
100
AcDbEntity
  8
3
100
AcDbLine
 10
4.684164094279276
 20
3.06764207883643
 30
0.0
 11
4.703849133649356
 21
3.040083023718321
 31
0.0
  0
LINE
  5
2CFD
330
1E
100
AcDbEntity
  8
3
100
AcDbLine
 10
4.703849133649356
 20
3.040083023718321
 30
0.0
 11
4.73009585280946
 21
3.016460976474226
 31
0.0
  0
LINE
  5
2CFE
330
1E
100
AcDbEntity
  8
3
100
AcDbLine
 10
4.73009585280946
 20
3.016460976474226
 30
0.0
 11
4.762904251759593
 21
2.995463601146142
 31
0.0
  0
LINE
  5
2CFF
330
1E
100
AcDbEntity
  8
3
100
AcDbLine
 10
4.762904251759593
 20
2.995463601146142
 30
0.0
 11
4.79964965858374
 21
2.979715569650079
 31
0.0
  0
LINE
  5
2D00
330
1E
100
AcDbEntity
  8
3
100
AcDbLine
 10
4.79964965858374
 20
2.979715569650079
 30
0.0
 11
4.839019737323896
 21
2.969216881986038
 31
0.0
  0
LINE
  5
2D01
330
1E
100
AcDbEntity
  8
3
100
AcDbLine
 10
4.839019737323896
 20
2.969216881986038
 30
0.0
 11
4.881014487980064
 21
2.965279874112021
 31
0.0
  0
LINE
  5
2D02
330
1E
100
AcDbEntity
  8
3
100
AcDbLine
 10
4.944006613964316
 20
7.383915044715692
 30
0.0
 11
4.944006613964316
 21
7.364230005345613
 31
0.0
  0
LINE
  5
2D03
330
1E
100
AcDbEntity
  8
3
100
AcDbLine
 10
4.944006613964316
 20
7.364230005345613
 30
0.0
 11
4.944006613964316
 21
7.341920294059525
 31
0.0
  0
LINE
  5
2D04
330
1E
100
AcDbEntity
  8
3
100
AcDbLine
 10
4.944006613964316
 20
7.40097541216976
 30
0.0
 11
4.944006613964316
 21
7.397038404295744
 31
0.0
  0
LINE
  5
2D05
330
1E
100
AcDbEntity
  8
3
100
AcDbLine
 10
4.944006613964316
 20
7.397038404295744
 30
0.0
 11
4.944006613964316
 21
7.383915044715692
 31
0.0
  0
LINE
  5
2D06
330
1E
100
AcDbEntity
  8
3
100
AcDbLine
 10
4.944006613964316
 20
2.961342866238006
 30
0.0
 11
4.944006613964316
 21
2.939033154951917
 31
0.0
  0
LINE
  5
2D07
330
1E
100
AcDbEntity
  8
3
100
AcDbLine
 10
4.944006613964316
 20
2.939033154951917
 30
0.0
 11
4.944006613964316
 21
2.919348115581837
 31
0.0
  0
LINE
  5
2D08
330
1E
100
AcDbEntity
  8
3
100
AcDbLine
 10
4.944006613964316
 20
2.919348115581837
 30
0.0
 11
4.944006613964316
 21
2.906224756001785
 31
0.0
  0
LINE
  5
2D09
330
1E
100
AcDbEntity
  8
3
100
AcDbLine
 10
4.944006613964316
 20
2.906224756001785
 30
0.0
 11
4.944006613964316
 21
2.900975412169764
 31
0.0
  0
LINE
  5
2D0A
330
1E
100
AcDbEntity
  8
3
100
AcDbLine
 10
4.881014487980064
 20
2.965279874112021
 30
0.0
 11
4.944006613964316
 21
2.961342866238006
 31
0.0
  0
LINE
  5
2D0B
330
1E
100
AcDbEntity
  8
3
100
AcDbLine
 10
4.944006613964316
 20
2.961342866238006
 30
0.0
 11
4.944006613964316
 21
7.341920294059525
 31
0.0
  0
LINE
  5
2D0C
330
1E
100
AcDbEntity
  8
3
100
AcDbLine
 10
4.944006613964316
 20
7.341920294059525
 30
0.0
 11
4.881014487980064
 21
7.337983286185508
 31
0.0
  0
LINE
  5
2D0D
330
1E
100
AcDbEntity
  8
3
100
AcDbLine
 10
0.7825892911296748
 20
3.508586960726194
 30
0.0
 11
0.7642165877176015
 21
3.505962288810184
 31
0.0
  0
LINE
  5
2D0E
330
1E
100
AcDbEntity
  8
3
100
AcDbLine
 10
0.7642165877176015
 20
3.505962288810184
 30
0.0
 11
0.7471562202635332
 21
3.499400609020157
 31
0.0
  0
LINE
  5
2D0F
330
1E
100
AcDbEntity
  8
3
100
AcDbLine
 10
0.7471562202635332
 20
3.365542341303622
 30
0.0
 11
0.7642165877176015
 21
3.358980661513596
 31
0.0
  0
LINE
  5
2D10
330
1E
100
AcDbEntity
  8
3
100
AcDbLine
 10
0.7642165877176015
 20
3.358980661513596
 30
0.0
 11
0.7825892911296748
 21
3.356355989597586
 31
0.0
  0
LINE
  5
2D11
330
1E
100
AcDbEntity
  8
3
100
AcDbLine
 10
0.9387572701322994
 20
3.499400609020157
 30
0.0
 11
0.9216969026782312
 21
3.505962288810184
 31
0.0
  0
LINE
  5
2D12
330
1E
100
AcDbEntity
  8
3
100
AcDbLine
 10
0.9216969026782312
 20
3.505962288810184
 30
0.0
 11
0.9033241992661572
 21
3.508586960726194
 31
0.0
  0
LINE
  5
2D13
330
1E
100
AcDbEntity
  8
3
100
AcDbLine
 10
0.9033241992661572
 20
3.356355989597586
 30
0.0
 11
0.9216969026782312
 21
3.358980661513596
 31
0.0
  0
LINE
  5
2D14
330
1E
100
AcDbEntity
  8
3
100
AcDbLine
 10
0.9216969026782312
 20
3.358980661513596
 30
0.0
 11
0.9387572701322994
 21
3.365542341303622
 31
0.0
  0
LINE
  5
2D15
330
1E
100
AcDbEntity
  8
3
100
AcDbLine
 10
0.7825892911296748
 20
3.508586960726194
 30
0.0
 11
0.7537179000535592
 21
3.503337616894174
 31
0.0
  0
LINE
  5
2D16
330
1E
100
AcDbEntity
  8
3
100
AcDbLine
 10
0.7537179000535592
 20
3.503337616894174
 30
0.0
 11
0.7287835168514594
 21
3.486277249440106
 31
0.0
  0
LINE
  5
2D17
330
1E
100
AcDbEntity
  8
3
100
AcDbLine
 10
0.7287835168514594
 20
3.486277249440106
 30
0.0
 11
0.711723149397391
 21
3.461342866238005
 31
0.0
  0
LINE
  5
2D18
330
1E
100
AcDbEntity
  8
3
100
AcDbLine
 10
0.711723149397391
 20
3.461342866238005
 30
0.0
 11
0.7064738055653699
 21
3.432471475161889
 31
0.0
  0
LINE
  5
2D19
330
1E
100
AcDbEntity
  8
3
100
AcDbLine
 10
0.7064738055653699
 20
3.432471475161889
 30
0.0
 11
0.711723149397391
 21
3.403600084085775
 31
0.0
  0
LINE
  5
2D1A
330
1E
100
AcDbEntity
  8
3
100
AcDbLine
 10
0.711723149397391
 20
3.403600084085775
 30
0.0
 11
0.7287835168514594
 21
3.378665700883675
 31
0.0
  0
LINE
  5
2D1B
330
1E
100
AcDbEntity
  8
3
100
AcDbLine
 10
0.7287835168514594
 20
3.378665700883675
 30
0.0
 11
0.7537179000535592
 21
3.361605333429607
 31
0.0
  0
LINE
  5
2D1C
330
1E
100
AcDbEntity
  8
3
100
AcDbLine
 10
0.7537179000535592
 20
3.361605333429607
 30
0.0
 11
0.7825892911296748
 21
3.356355989597586
 31
0.0
  0
LINE
  5
2D1D
330
1E
100
AcDbEntity
  8
3
100
AcDbLine
 10
0.9033241992661572
 20
3.356355989597586
 30
0.0
 11
0.9321955903422729
 21
3.361605333429607
 31
0.0
  0
LINE
  5
2D1E
330
1E
100
AcDbEntity
  8
3
100
AcDbLine
 10
0.9321955903422729
 20
3.361605333429607
 30
0.0
 11
0.9571299735443727
 21
3.378665700883675
 31
0.0
  0
LINE
  5
2D1F
330
1E
100
AcDbEntity
  8
3
100
AcDbLine
 10
0.9571299735443727
 20
3.378665700883675
 30
0.0
 11
0.9741903409984406
 21
3.403600084085775
 31
0.0
  0
LINE
  5
2D20
330
1E
100
AcDbEntity
  8
3
100
AcDbLine
 10
0.9741903409984406
 20
3.403600084085775
 30
0.0
 11
0.9794396848304618
 21
3.432471475161889
 31
0.0
  0
LINE
  5
2D21
330
1E
100
AcDbEntity
  8
3
100
AcDbLine
 10
0.9794396848304618
 20
3.432471475161889
 30
0.0
 11
0.9741903409984406
 21
3.461342866238005
 31
0.0
  0
LINE
  5
2D22
330
1E
100
AcDbEntity
  8
3
100
AcDbLine
 10
0.9741903409984406
 20
3.461342866238005
 30
0.0
 11
0.9571299735443727
 21
3.486277249440106
 31
0.0
  0
LINE
  5
2D23
330
1E
100
AcDbEntity
  8
3
100
AcDbLine
 10
0.9571299735443727
 20
3.486277249440106
 30
0.0
 11
0.9321955903422729
 21
3.503337616894174
 31
0.0
  0
LINE
  5
2D24
330
1E
100
AcDbEntity
  8
3
100
AcDbLine
 10
0.9321955903422729
 20
3.503337616894174
 30
0.0
 11
0.9033241992661572
 21
3.508586960726194
 31
0.0
  0
LINE
  5
2D25
330
1E
100
AcDbEntity
  8
3
100
AcDbLine
 10
0.7825892911296748
 20
3.582077774374488
 30
0.0
 11
0.7405945404735071
 21
3.575516094584462
 31
0.0
  0
LINE
  5
2D26
330
1E
100
AcDbEntity
  8
3
100
AcDbLine
 10
0.7405945404735071
 20
3.575516094584462
 30
0.0
 11
0.7012244617333492
 21
3.558455727130393
 31
0.0
  0
LINE
  5
2D27
330
1E
100
AcDbEntity
  8
3
100
AcDbLine
 10
0.7012244617333492
 20
3.558455727130393
 30
0.0
 11
0.6697283987412233
 21
3.530896672012283
 31
0.0
  0
LINE
  5
2D28
330
1E
100
AcDbEntity
  8
3
100
AcDbLine
 10
0.6697283987412233
 20
3.530896672012283
 30
0.0
 11
0.6461063514971288
 21
3.494151265188136
 31
0.0
  0
LINE
  5
2D29
330
1E
100
AcDbEntity
  8
3
100
AcDbLine
 10
0.6461063514971288
 20
3.494151265188136
 30
0.0
 11
0.6342953278750816
 21
3.453468850489973
 31
0.0
  0
LINE
  5
2D2A
330
1E
100
AcDbEntity
  8
3
100
AcDbLine
 10
0.6342953278750816
 20
3.453468850489973
 30
0.0
 11
0.6342953278750816
 21
3.411474099833806
 31
0.0
  0
LINE
  5
2D2B
330
1E
100
AcDbEntity
  8
3
100
AcDbLine
 10
0.6342953278750816
 20
3.411474099833806
 30
0.0
 11
0.6461063514971288
 21
3.370791685135642
 31
0.0
  0
LINE
  5
2D2C
330
1E
100
AcDbEntity
  8
3
100
AcDbLine
 10
0.6461063514971288
 20
3.370791685135642
 30
0.0
 11
0.6697283987412233
 21
3.334046278311496
 31
0.0
  0
LINE
  5
2D2D
330
1E
100
AcDbEntity
  8
3
100
AcDbLine
 10
0.6697283987412233
 20
3.334046278311496
 30
0.0
 11
0.7012244617333492
 21
3.306487223193386
 31
0.0
  0
LINE
  5
2D2E
330
1E
100
AcDbEntity
  8
3
100
AcDbLine
 10
0.7012244617333492
 20
3.306487223193386
 30
0.0
 11
0.7405945404735071
 21
3.289426855739318
 31
0.0
  0
LINE
  5
2D2F
330
1E
100
AcDbEntity
  8
3
100
AcDbLine
 10
0.9033241992661572
 20
3.282865175949292
 30
0.0
 11
0.9453189499223256
 21
3.289426855739318
 31
0.0
  0
LINE
  5
2D30
330
1E
100
AcDbEntity
  8
3
100
AcDbLine
 10
0.9453189499223256
 20
3.289426855739318
 30
0.0
 11
0.9846890286624825
 21
3.306487223193386
 31
0.0
  0
LINE
  5
2D31
330
1E
100
AcDbEntity
  8
3
100
AcDbLine
 10
0.9846890286624825
 20
3.306487223193386
 30
0.0
 11
1.016185091654608
 21
3.334046278311496
 31
0.0
  0
LINE
  5
2D32
330
1E
100
AcDbEntity
  8
3
100
AcDbLine
 10
1.016185091654608
 20
3.334046278311496
 30
0.0
 11
1.039807138898702
 21
3.370791685135642
 31
0.0
  0
LINE
  5
2D33
330
1E
100
AcDbEntity
  8
3
100
AcDbLine
 10
1.039807138898702
 20
3.370791685135642
 30
0.0
 11
1.05161816252075
 21
3.411474099833806
 31
0.0
  0
LINE
  5
2D34
330
1E
100
AcDbEntity
  8
3
100
AcDbLine
 10
1.05161816252075
 20
3.411474099833806
 30
0.0
 11
1.05161816252075
 21
3.453468850489973
 31
0.0
  0
LINE
  5
2D35
330
1E
100
AcDbEntity
  8
3
100
AcDbLine
 10
1.05161816252075
 20
3.453468850489973
 30
0.0
 11
1.039807138898702
 21
3.494151265188136
 31
0.0
  0
LINE
  5
2D36
330
1E
100
AcDbEntity
  8
3
100
AcDbLine
 10
1.039807138898702
 20
3.494151265188136
 30
0.0
 11
1.016185091654608
 21
3.530896672012283
 31
0.0
  0
LINE
  5
2D37
330
1E
100
AcDbEntity
  8
3
100
AcDbLine
 10
1.016185091654608
 20
3.530896672012283
 30
0.0
 11
0.9846890286624825
 21
3.558455727130393
 31
0.0
  0
LINE
  5
2D38
330
1E
100
AcDbEntity
  8
3
100
AcDbLine
 10
0.9846890286624825
 20
3.558455727130393
 30
0.0
 11
0.9453189499223256
 21
3.575516094584462
 31
0.0
  0
LINE
  5
2D39
330
1E
100
AcDbEntity
  8
3
100
AcDbLine
 10
0.9453189499223256
 20
3.575516094584462
 30
0.0
 11
0.9033241992661572
 21
3.582077774374488
 31
0.0
  0
LINE
  5
2D3A
330
1E
100
AcDbEntity
  8
3
100
AcDbLine
 10
1.747156220263532
 20
3.638508220568714
 30
0.0
 11
1.762904251759595
 21
3.634571212694698
 31
0.0
  0
LINE
  5
2D3B
330
1E
100
AcDbEntity
  8
3
100
AcDbLine
 10
1.762904251759595
 20
3.634571212694698
 30
0.0
 11
1.774715275381642
 21
3.622760189072651
 31
0.0
  0
LINE
  5
2D3C
330
1E
100
AcDbEntity
  8
3
100
AcDbLine
 10
1.774715275381642
 20
3.622760189072651
 30
0.0
 11
1.778652283255658
 21
3.607012157576588
 31
0.0
  0
LINE
  5
2D3D
330
1E
100
AcDbEntity
  8
3
100
AcDbLine
 10
1.774715275381642
 20
3.243495097209134
 30
0.0
 11
1.762904251759595
 21
3.231684073587087
 31
0.0
  0
LINE
  5
2D3E
330
1E
100
AcDbEntity
  8
3
100
AcDbLine
 10
1.762904251759595
 20
3.231684073587087
 30
0.0
 11
1.747156220263532
 21
3.227747065713071
 31
0.0
  0
LINE
  5
2D3F
330
1E
100
AcDbEntity
  8
3
100
AcDbLine
 10
-0.0612427298677005
 20
3.227747065713071
 30
0.0
 11
-0.0769907613637635
 21
3.231684073587087
 31
0.0
  0
LINE
  5
2D40
330
1E
100
AcDbEntity
  8
3
100
AcDbLine
 10
-0.0769907613637635
 20
3.231684073587087
 30
0.0
 11
-0.0888017849858107
 21
3.243495097209134
 31
0.0
  0
LINE
  5
2D41
330
1E
100
AcDbEntity
  8
3
100
AcDbLine
 10
-0.0888017849858107
 20
3.243495097209134
 30
0.0
 11
-0.0927387928598265
 21
3.257930792747192
 31
0.0
  0
LINE
  5
2D42
330
1E
100
AcDbEntity
  8
3
100
AcDbLine
 10
-0.0927387928598265
 20
3.607012157576588
 30
0.0
 11
-0.0888017849858107
 21
3.622760189072651
 31
0.0
  0
LINE
  5
2D43
330
1E
100
AcDbEntity
  8
3
100
AcDbLine
 10
-0.0888017849858107
 20
3.622760189072651
 30
0.0
 11
-0.0769907613637635
 21
3.634571212694698
 31
0.0
  0
LINE
  5
2D44
330
1E
100
AcDbEntity
  8
3
100
AcDbLine
 10
-0.0769907613637635
 20
3.634571212694698
 30
0.0
 11
-0.0612427298677005
 21
3.638508220568714
 31
0.0
  0
LINE
  5
2D45
330
1E
100
AcDbEntity
  8
3
100
AcDbLine
 10
-0.0297466668755737
 20
3.637195884610709
 30
0.0
 11
-0.0297466668755737
 21
3.227747065713071
 31
0.0
  0
LINE
  5
2D46
330
1E
100
AcDbEntity
  8
3
100
AcDbLine
 10
-0.0297466668755737
 20
3.227747065713071
 30
0.0
 11
1.715660157271406
 21
3.227747065713071
 31
0.0
  0
LINE
  5
2D47
330
1E
100
AcDbEntity
  8
3
100
AcDbLine
 10
0.6447940155391239
 20
3.369479349177638
 30
0.0
 11
0.6684160627832183
 21
3.334046278311496
 31
0.0
  0
LINE
  5
2D48
330
1E
100
AcDbEntity
  8
3
100
AcDbLine
 10
0.6684160627832183
 20
3.334046278311496
 30
0.0
 11
0.7012244617333492
 21
3.305174887235381
 31
0.0
  0
LINE
  5
2D49
330
1E
100
AcDbEntity
  8
3
100
AcDbLine
 10
0.7012244617333492
 20
3.305174887235381
 30
0.0
 11
0.7405945404735071
 21
3.288114519781313
 31
0.0
  0
LINE
  5
2D4A
330
1E
100
AcDbEntity
  8
3
100
AcDbLine
 10
0.7405945404735071
 20
3.288114519781313
 30
0.0
 11
0.7825892911296748
 21
3.281552839991286
 31
0.0
  0
LINE
  5
2D4B
330
1E
100
AcDbEntity
  8
3
100
AcDbLine
 10
0.7825892911296748
 20
3.583390110332493
 30
0.0
 11
0.7405945404735071
 21
3.576828430542467
 31
0.0
  0
LINE
  5
2D4C
330
1E
100
AcDbEntity
  8
3
100
AcDbLine
 10
0.7405945404735071
 20
3.576828430542467
 30
0.0
 11
0.7012244617333492
 21
3.559768063088399
 31
0.0
  0
LINE
  5
2D4D
330
1E
100
AcDbEntity
  8
3
100
AcDbLine
 10
0.7012244617333492
 20
3.559768063088399
 30
0.0
 11
0.6684160627832183
 21
3.530896672012283
 31
0.0
  0
LINE
  5
2D4E
330
1E
100
AcDbEntity
  8
3
100
AcDbLine
 10
0.6684160627832183
 20
3.530896672012283
 30
0.0
 11
0.6447940155391239
 21
3.495463601146141
 31
0.0
  0
LINE
  5
2D4F
330
1E
100
AcDbEntity
  8
3
100
AcDbLine
 10
0.6447940155391239
 20
3.495463601146141
 30
0.0
 11
0.6329829919170762
 21
3.453468850489973
 31
0.0
  0
LINE
  5
2D50
330
1E
100
AcDbEntity
  8
3
100
AcDbLine
 10
0.6329829919170762
 20
3.453468850489973
 30
0.0
 11
0.6329829919170762
 21
3.411474099833806
 31
0.0
  0
LINE
  5
2D51
330
1E
100
AcDbEntity
  8
3
100
AcDbLine
 10
0.6329829919170762
 20
3.411474099833806
 30
0.0
 11
0.6447940155391239
 21
3.369479349177638
 31
0.0
  0
LINE
  5
2D52
330
1E
100
AcDbEntity
  8
3
100
AcDbLine
 10
0.9033241992661572
 20
3.281552839991286
 30
0.0
 11
0.9453189499223256
 21
3.288114519781313
 31
0.0
  0
LINE
  5
2D53
330
1E
100
AcDbEntity
  8
3
100
AcDbLine
 10
0.9453189499223256
 20
3.288114519781313
 30
0.0
 11
0.9846890286624825
 21
3.305174887235381
 31
0.0
  0
LINE
  5
2D54
330
1E
100
AcDbEntity
  8
3
100
AcDbLine
 10
0.9846890286624825
 20
3.305174887235381
 30
0.0
 11
1.017497427612614
 21
3.334046278311496
 31
0.0
  0
LINE
  5
2D55
330
1E
100
AcDbEntity
  8
3
100
AcDbLine
 10
1.017497427612614
 20
3.334046278311496
 30
0.0
 11
1.041119474856708
 21
3.369479349177638
 31
0.0
  0
LINE
  5
2D56
330
1E
100
AcDbEntity
  8
3
100
AcDbLine
 10
1.041119474856708
 20
3.369479349177638
 30
0.0
 11
1.052930498478755
 21
3.411474099833806
 31
0.0
  0
LINE
  5
2D57
330
1E
100
AcDbEntity
  8
3
100
AcDbLine
 10
1.052930498478755
 20
3.411474099833806
 30
0.0
 11
1.052930498478755
 21
3.453468850489973
 31
0.0
  0
LINE
  5
2D58
330
1E
100
AcDbEntity
  8
3
100
AcDbLine
 10
1.052930498478755
 20
3.453468850489973
 30
0.0
 11
1.041119474856708
 21
3.495463601146141
 31
0.0
  0
LINE
  5
2D59
330
1E
100
AcDbEntity
  8
3
100
AcDbLine
 10
1.041119474856708
 20
3.495463601146141
 30
0.0
 11
1.017497427612614
 21
3.530896672012283
 31
0.0
  0
LINE
  5
2D5A
330
1E
100
AcDbEntity
  8
3
100
AcDbLine
 10
1.017497427612614
 20
3.530896672012283
 30
0.0
 11
0.9846890286624825
 21
3.559768063088399
 31
0.0
  0
LINE
  5
2D5B
330
1E
100
AcDbEntity
  8
3
100
AcDbLine
 10
0.9846890286624825
 20
3.559768063088399
 30
0.0
 11
0.9453189499223256
 21
3.576828430542467
 31
0.0
  0
LINE
  5
2D5C
330
1E
100
AcDbEntity
  8
3
100
AcDbLine
 10
0.7366575325994909
 20
3.491526593272126
 30
0.0
 11
0.7156601572714072
 21
3.465279874112022
 31
0.0
  0
LINE
  5
2D5D
330
1E
100
AcDbEntity
  8
3
100
AcDbLine
 10
0.7156601572714072
 20
3.465279874112022
 30
0.0
 11
0.7077861415233758
 21
3.432471475161889
 31
0.0
  0
LINE
  5
2D5E
330
1E
100
AcDbEntity
  8
3
100
AcDbLine
 10
0.7077861415233758
 20
3.432471475161889
 30
0.0
 11
0.7156601572714072
 21
3.399663076211759
 31
0.0
  0
LINE
  5
2D5F
330
1E
100
AcDbEntity
  8
3
100
AcDbLine
 10
0.7156601572714072
 20
3.399663076211759
 30
0.0
 11
0.7366575325994909
 21
3.373416357051654
 31
0.0
  0
LINE
  5
2D60
330
1E
100
AcDbEntity
  8
3
100
AcDbLine
 10
0.9492559577963412
 20
3.373416357051654
 30
0.0
 11
0.9702533331244254
 21
3.399663076211759
 31
0.0
  0
LINE
  5
2D61
330
1E
100
AcDbEntity
  8
3
100
AcDbLine
 10
0.9702533331244254
 20
3.399663076211759
 30
0.0
 11
0.9781273488724568
 21
3.432471475161889
 31
0.0
  0
LINE
  5
2D62
330
1E
100
AcDbEntity
  8
3
100
AcDbLine
 10
0.9781273488724568
 20
3.432471475161889
 30
0.0
 11
0.9702533331244254
 21
3.465279874112022
 31
0.0
  0
LINE
  5
2D63
330
1E
100
AcDbEntity
  8
3
100
AcDbLine
 10
0.9702533331244254
 20
3.465279874112022
 30
0.0
 11
0.9492559577963412
 21
3.491526593272126
 31
0.0
  0
LINE
  5
2D64
330
1E
100
AcDbEntity
  8
3
100
AcDbLine
 10
0.7825892911296748
 20
6.789426855739315
 30
0.0
 11
0.7642165877176015
 21
6.786802183823304
 31
0.0
  0
LINE
  5
2D65
330
1E
100
AcDbEntity
  8
3
100
AcDbLine
 10
0.7642165877176015
 20
6.786802183823304
 30
0.0
 11
0.7471562202635332
 21
6.780240504033278
 31
0.0
  0
LINE
  5
2D66
330
1E
100
AcDbEntity
  8
3
100
AcDbLine
 10
0.7471562202635332
 20
6.646382236316743
 30
0.0
 11
0.7642165877176015
 21
6.639820556526716
 31
0.0
  0
LINE
  5
2D67
330
1E
100
AcDbEntity
  8
3
100
AcDbLine
 10
0.7642165877176015
 20
6.639820556526716
 30
0.0
 11
0.7825892911296748
 21
6.637195884610706
 31
0.0
  0
LINE
  5
2D68
330
1E
100
AcDbEntity
  8
3
100
AcDbLine
 10
0.9033241992661572
 20
6.637195884610706
 30
0.0
 11
0.9216969026782312
 21
6.639820556526716
 31
0.0
  0
LINE
  5
2D69
330
1E
100
AcDbEntity
  8
3
100
AcDbLine
 10
0.9216969026782312
 20
6.639820556526716
 30
0.0
 11
0.9387572701322994
 21
6.646382236316743
 31
0.0
  0
LINE
  5
2D6A
330
1E
100
AcDbEntity
  8
3
100
AcDbLine
 10
0.9033241992661572
 20
6.637195884610706
 30
0.0
 11
0.9321955903422729
 21
6.642445228442728
 31
0.0
  0
LINE
  5
2D6B
330
1E
100
AcDbEntity
  8
3
100
AcDbLine
 10
0.9321955903422729
 20
6.642445228442728
 30
0.0
 11
0.9571299735443727
 21
6.659505595896796
 31
0.0
  0
LINE
  5
2D6C
330
1E
100
AcDbEntity
  8
3
100
AcDbLine
 10
0.9571299735443727
 20
6.659505595896796
 30
0.0
 11
0.9741903409984406
 21
6.684439979098895
 31
0.0
  0
LINE
  5
2D6D
330
1E
100
AcDbEntity
  8
3
100
AcDbLine
 10
0.9741903409984406
 20
6.684439979098895
 30
0.0
 11
0.9794396848304618
 21
6.71331137017501
 31
0.0
  0
LINE
  5
2D6E
330
1E
100
AcDbEntity
  8
3
100
AcDbLine
 10
0.9794396848304618
 20
6.71331137017501
 30
0.0
 11
0.9741903409984406
 21
6.742182761251126
 31
0.0
  0
LINE
  5
2D6F
330
1E
100
AcDbEntity
  8
3
100
AcDbLine
 10
0.9741903409984406
 20
6.742182761251126
 30
0.0
 11
0.9571299735443727
 21
6.767117144453225
 31
0.0
  0
LINE
  5
2D70
330
1E
100
AcDbEntity
  8
3
100
AcDbLine
 10
0.9571299735443727
 20
6.767117144453225
 30
0.0
 11
0.9321955903422729
 21
6.784177511907294
 31
0.0
  0
LINE
  5
2D71
330
1E
100
AcDbEntity
  8
3
100
AcDbLine
 10
0.9321955903422729
 20
6.784177511907294
 30
0.0
 11
0.9033241992661572
 21
6.789426855739315
 31
0.0
  0
LINE
  5
2D72
330
1E
100
AcDbEntity
  8
3
100
AcDbLine
 10
0.7825892911296748
 20
6.789426855739315
 30
0.0
 11
0.7537179000535592
 21
6.784177511907294
 31
0.0
  0
LINE
  5
2D73
330
1E
100
AcDbEntity
  8
3
100
AcDbLine
 10
0.7537179000535592
 20
6.784177511907294
 30
0.0
 11
0.7287835168514594
 21
6.767117144453225
 31
0.0
  0
LINE
  5
2D74
330
1E
100
AcDbEntity
  8
3
100
AcDbLine
 10
0.7287835168514594
 20
6.767117144453225
 30
0.0
 11
0.711723149397391
 21
6.742182761251126
 31
0.0
  0
LINE
  5
2D75
330
1E
100
AcDbEntity
  8
3
100
AcDbLine
 10
0.711723149397391
 20
6.742182761251126
 30
0.0
 11
0.7064738055653699
 21
6.71331137017501
 31
0.0
  0
LINE
  5
2D76
330
1E
100
AcDbEntity
  8
3
100
AcDbLine
 10
0.7064738055653699
 20
6.71331137017501
 30
0.0
 11
0.711723149397391
 21
6.684439979098895
 31
0.0
  0
LINE
  5
2D77
330
1E
100
AcDbEntity
  8
3
100
AcDbLine
 10
0.711723149397391
 20
6.684439979098895
 30
0.0
 11
0.7287835168514594
 21
6.659505595896796
 31
0.0
  0
LINE
  5
2D78
330
1E
100
AcDbEntity
  8
3
100
AcDbLine
 10
0.7287835168514594
 20
6.659505595896796
 30
0.0
 11
0.7537179000535592
 21
6.642445228442728
 31
0.0
  0
LINE
  5
2D79
330
1E
100
AcDbEntity
  8
3
100
AcDbLine
 10
0.7537179000535592
 20
6.642445228442728
 30
0.0
 11
0.7825892911296748
 21
6.637195884610706
 31
0.0
  0
LINE
  5
2D7A
330
1E
100
AcDbEntity
  8
3
100
AcDbLine
 10
0.7405945404735071
 20
6.856355989597583
 30
0.0
 11
0.7012244617333492
 21
6.839295622143514
 31
0.0
  0
LINE
  5
2D7B
330
1E
100
AcDbEntity
  8
3
100
AcDbLine
 10
0.7012244617333492
 20
6.839295622143514
 30
0.0
 11
0.6697283987412233
 21
6.811736567025404
 31
0.0
  0
LINE
  5
2D7C
330
1E
100
AcDbEntity
  8
3
100
AcDbLine
 10
0.6697283987412233
 20
6.811736567025404
 30
0.0
 11
0.6461063514971288
 21
6.774991160201257
 31
0.0
  0
LINE
  5
2D7D
330
1E
100
AcDbEntity
  8
3
100
AcDbLine
 10
0.6461063514971288
 20
6.774991160201257
 30
0.0
 11
0.6342953278750816
 21
6.734308745503094
 31
0.0
  0
LINE
  5
2D7E
330
1E
100
AcDbEntity
  8
3
100
AcDbLine
 10
0.6342953278750816
 20
6.734308745503094
 30
0.0
 11
0.6342953278750816
 21
6.692313994846927
 31
0.0
  0
LINE
  5
2D7F
330
1E
100
AcDbEntity
  8
3
100
AcDbLine
 10
0.6342953278750816
 20
6.692313994846927
 30
0.0
 11
0.6461063514971288
 21
6.651631580148763
 31
0.0
  0
LINE
  5
2D80
330
1E
100
AcDbEntity
  8
3
100
AcDbLine
 10
0.6461063514971288
 20
6.651631580148763
 30
0.0
 11
0.6697283987412233
 21
6.614886173324617
 31
0.0
  0
LINE
  5
2D81
330
1E
100
AcDbEntity
  8
3
100
AcDbLine
 10
0.6697283987412233
 20
6.614886173324617
 30
0.0
 11
0.7012244617333492
 21
6.587327118206506
 31
0.0
  0
LINE
  5
2D82
330
1E
100
AcDbEntity
  8
3
100
AcDbLine
 10
0.7012244617333492
 20
6.587327118206506
 30
0.0
 11
0.7405945404735071
 21
6.570266750752439
 31
0.0
  0
LINE
  5
2D83
330
1E
100
AcDbEntity
  8
3
100
AcDbLine
 10
0.7405945404735071
 20
6.570266750752439
 30
0.0
 11
0.7825892911296748
 21
6.563705070962411
 31
0.0
  0
LINE
  5
2D84
330
1E
100
AcDbEntity
  8
3
100
AcDbLine
 10
0.9033241992661572
 20
6.563705070962411
 30
0.0
 11
0.9453189499223256
 21
6.570266750752439
 31
0.0
  0
LINE
  5
2D85
330
1E
100
AcDbEntity
  8
3
100
AcDbLine
 10
0.9453189499223256
 20
6.570266750752439
 30
0.0
 11
0.9846890286624825
 21
6.587327118206506
 31
0.0
  0
LINE
  5
2D86
330
1E
100
AcDbEntity
  8
3
100
AcDbLine
 10
0.9846890286624825
 20
6.587327118206506
 30
0.0
 11
1.016185091654608
 21
6.614886173324617
 31
0.0
  0
LINE
  5
2D87
330
1E
100
AcDbEntity
  8
3
100
AcDbLine
 10
1.016185091654608
 20
6.614886173324617
 30
0.0
 11
1.039807138898702
 21
6.651631580148763
 31
0.0
  0
LINE
  5
2D88
330
1E
100
AcDbEntity
  8
3
100
AcDbLine
 10
1.039807138898702
 20
6.651631580148763
 30
0.0
 11
1.05161816252075
 21
6.692313994846927
 31
0.0
  0
LINE
  5
2D89
330
1E
100
AcDbEntity
  8
3
100
AcDbLine
 10
1.05161816252075
 20
6.692313994846927
 30
0.0
 11
1.05161816252075
 21
6.734308745503094
 31
0.0
  0
LINE
  5
2D8A
330
1E
100
AcDbEntity
  8
3
100
AcDbLine
 10
1.05161816252075
 20
6.734308745503094
 30
0.0
 11
1.039807138898702
 21
6.774991160201257
 31
0.0
  0
LINE
  5
2D8B
330
1E
100
AcDbEntity
  8
3
100
AcDbLine
 10
1.039807138898702
 20
6.774991160201257
 30
0.0
 11
1.016185091654608
 21
6.811736567025404
 31
0.0
  0
LINE
  5
2D8C
330
1E
100
AcDbEntity
  8
3
100
AcDbLine
 10
1.016185091654608
 20
6.811736567025404
 30
0.0
 11
0.9846890286624825
 21
6.839295622143514
 31
0.0
  0
LINE
  5
2D8D
330
1E
100
AcDbEntity
  8
3
100
AcDbLine
 10
0.9846890286624825
 20
6.839295622143514
 30
0.0
 11
0.9453189499223256
 21
6.856355989597583
 31
0.0
  0
LINE
  5
2D8E
330
1E
100
AcDbEntity
  8
3
100
AcDbLine
 10
0.9453189499223256
 20
6.856355989597583
 30
0.0
 11
0.9033241992661572
 21
6.862917669387609
 31
0.0
  0
LINE
  5
2D8F
330
1E
100
AcDbEntity
  8
3
100
AcDbLine
 10
0.7825892911296748
 20
6.865542341303619
 30
0.0
 11
0.7825892911296748
 21
6.864230005345614
 31
0.0
  0
LINE
  5
2D90
330
1E
100
AcDbEntity
  8
3
100
AcDbLine
 10
0.7825892911296748
 20
6.864230005345614
 30
0.0
 11
0.9033241992661572
 21
6.864230005345614
 31
0.0
  0
LINE
  5
2D91
330
1E
100
AcDbEntity
  8
3
100
AcDbLine
 10
0.9033241992661572
 20
6.562392735004406
 30
0.0
 11
0.9033241992661572
 21
6.563705070962411
 31
0.0
  0
LINE
  5
2D92
330
1E
100
AcDbEntity
  8
3
100
AcDbLine
 10
0.9033241992661572
 20
6.563705070962411
 30
0.0
 11
0.7825892911296748
 21
6.563705070962411
 31
0.0
  0
LINE
  5
2D93
330
1E
100
AcDbEntity
  8
3
100
AcDbLine
 10
1.718284829187416
 20
6.508586960726192
 30
0.0
 11
1.747156220263532
 21
6.508586960726192
 31
0.0
  0
LINE
  5
2D94
330
1E
100
AcDbEntity
  8
3
100
AcDbLine
 10
1.747156220263532
 20
6.508586960726192
 30
0.0
 11
1.762904251759595
 21
6.512523968600207
 31
0.0
  0
LINE
  5
2D95
330
1E
100
AcDbEntity
  8
3
100
AcDbLine
 10
1.762904251759595
 20
6.512523968600207
 30
0.0
 11
1.774715275381642
 21
6.524334992222255
 31
0.0
  0
LINE
  5
2D96
330
1E
100
AcDbEntity
  8
3
100
AcDbLine
 10
1.774715275381642
 20
6.524334992222255
 30
0.0
 11
1.778652283255658
 21
6.540083023718318
 31
0.0
  0
LINE
  5
2D97
330
1E
100
AcDbEntity
  8
3
100
AcDbLine
 10
1.778652283255658
 20
6.540083023718318
 30
0.0
 11
1.778652283255658
 21
6.887852052589709
 31
0.0
  0
LINE
  5
2D98
330
1E
100
AcDbEntity
  8
3
100
AcDbLine
 10
1.778652283255658
 20
6.887852052589709
 30
0.0
 11
1.774715275381642
 21
6.903600084085772
 31
0.0
  0
LINE
  5
2D99
330
1E
100
AcDbEntity
  8
3
100
AcDbLine
 10
1.774715275381642
 20
6.903600084085772
 30
0.0
 11
1.762904251759595
 21
6.915411107707819
 31
0.0
  0
LINE
  5
2D9A
330
1E
100
AcDbEntity
  8
3
100
AcDbLine
 10
1.762904251759595
 20
6.915411107707819
 30
0.0
 11
1.747156220263532
 21
6.919348115581835
 31
0.0
  0
LINE
  5
2D9B
330
1E
100
AcDbEntity
  8
3
100
AcDbLine
 10
1.747156220263532
 20
6.919348115581835
 30
0.0
 11
1.718284829187416
 21
6.919348115581835
 31
0.0
  0
LINE
  5
2D9C
330
1E
100
AcDbEntity
  8
3
100
AcDbLine
 10
-0.0323713387915845
 20
6.919348115581835
 30
0.0
 11
-0.0612427298677005
 21
6.919348115581835
 31
0.0
  0
LINE
  5
2D9D
330
1E
100
AcDbEntity
  8
3
100
AcDbLine
 10
-0.0612427298677005
 20
6.919348115581835
 30
0.0
 11
-0.0769907613637635
 21
6.915411107707819
 31
0.0
  0
LINE
  5
2D9E
330
1E
100
AcDbEntity
  8
3
100
AcDbLine
 10
-0.0769907613637635
 20
6.915411107707819
 30
0.0
 11
-0.0888017849858107
 21
6.903600084085772
 31
0.0
  0
LINE
  5
2D9F
330
1E
100
AcDbEntity
  8
3
100
AcDbLine
 10
-0.0888017849858107
 20
6.903600084085772
 30
0.0
 11
-0.0927387928598265
 21
6.887852052589709
 31
0.0
  0
LINE
  5
2DA0
330
1E
100
AcDbEntity
  8
3
100
AcDbLine
 10
-0.0927387928598265
 20
6.887852052589709
 30
0.0
 11
-0.0927387928598265
 21
6.540083023718318
 31
0.0
  0
LINE
  5
2DA1
330
1E
100
AcDbEntity
  8
3
100
AcDbLine
 10
-0.0927387928598265
 20
6.540083023718318
 30
0.0
 11
-0.0888017849858107
 21
6.524334992222255
 31
0.0
  0
LINE
  5
2DA2
330
1E
100
AcDbEntity
  8
3
100
AcDbLine
 10
-0.0888017849858107
 20
6.524334992222255
 30
0.0
 11
-0.0769907613637635
 21
6.512523968600207
 31
0.0
  0
LINE
  5
2DA3
330
1E
100
AcDbEntity
  8
3
100
AcDbLine
 10
-0.0769907613637635
 20
6.512523968600207
 30
0.0
 11
-0.0612427298677005
 21
6.508586960726192
 31
0.0
  0
LINE
  5
2DA4
330
1E
100
AcDbEntity
  8
3
100
AcDbLine
 10
-0.0612427298677005
 20
6.508586960726192
 30
0.0
 11
-0.0323713387915845
 21
6.508586960726192
 31
0.0
  0
LINE
  5
2DA5
330
1E
100
AcDbEntity
  8
3
100
AcDbLine
 10
0.9846890286624825
 20
6.586014782248502
 30
0.0
 11
1.017497427612614
 21
6.614886173324617
 31
0.0
  0
LINE
  5
2DA6
330
1E
100
AcDbEntity
  8
3
100
AcDbLine
 10
1.017497427612614
 20
6.614886173324617
 30
0.0
 11
1.041119474856708
 21
6.650319244190758
 31
0.0
  0
LINE
  5
2DA7
330
1E
100
AcDbEntity
  8
3
100
AcDbLine
 10
1.041119474856708
 20
6.650319244190758
 30
0.0
 11
1.052930498478755
 21
6.692313994846927
 31
0.0
  0
LINE
  5
2DA8
330
1E
100
AcDbEntity
  8
3
100
AcDbLine
 10
1.052930498478755
 20
6.692313994846927
 30
0.0
 11
1.052930498478755
 21
6.734308745503094
 31
0.0
  0
LINE
  5
2DA9
330
1E
100
AcDbEntity
  8
3
100
AcDbLine
 10
1.052930498478755
 20
6.734308745503094
 30
0.0
 11
1.041119474856708
 21
6.776303496159262
 31
0.0
  0
LINE
  5
2DAA
330
1E
100
AcDbEntity
  8
3
100
AcDbLine
 10
1.041119474856708
 20
6.776303496159262
 30
0.0
 11
1.017497427612614
 21
6.811736567025404
 31
0.0
  0
LINE
  5
2DAB
330
1E
100
AcDbEntity
  8
3
100
AcDbLine
 10
1.017497427612614
 20
6.811736567025404
 30
0.0
 11
0.9846890286624825
 21
6.84060795810152
 31
0.0
  0
LINE
  5
2DAC
330
1E
100
AcDbEntity
  8
3
100
AcDbLine
 10
0.9846890286624825
 20
6.84060795810152
 30
0.0
 11
0.9453189499223256
 21
6.857668325555588
 31
0.0
  0
LINE
  5
2DAD
330
1E
100
AcDbEntity
  8
3
100
AcDbLine
 10
0.9453189499223256
 20
6.857668325555588
 30
0.0
 11
0.9033241992661572
 21
6.864230005345614
 31
0.0
  0
LINE
  5
2DAE
330
1E
100
AcDbEntity
  8
3
100
AcDbLine
 10
0.9033241992661572
 20
6.562392735004406
 30
0.0
 11
0.9453189499223256
 21
6.568954414794433
 31
0.0
  0
LINE
  5
2DAF
330
1E
100
AcDbEntity
  8
3
100
AcDbLine
 10
0.9453189499223256
 20
6.568954414794433
 30
0.0
 11
0.9846890286624825
 21
6.586014782248502
 31
0.0
  0
LINE
  5
2DB0
330
1E
100
AcDbEntity
  8
3
100
AcDbLine
 10
0.6329829919170762
 20
6.734308745503094
 30
0.0
 11
0.6329829919170762
 21
6.692313994846927
 31
0.0
  0
LINE
  5
2DB1
330
1E
100
AcDbEntity
  8
3
100
AcDbLine
 10
0.6329829919170762
 20
6.692313994846927
 30
0.0
 11
0.6447940155391239
 21
6.650319244190758
 31
0.0
  0
LINE
  5
2DB2
330
1E
100
AcDbEntity
  8
3
100
AcDbLine
 10
0.6447940155391239
 20
6.650319244190758
 30
0.0
 11
0.6684160627832183
 21
6.614886173324617
 31
0.0
  0
LINE
  5
2DB3
330
1E
100
AcDbEntity
  8
3
100
AcDbLine
 10
0.6684160627832183
 20
6.614886173324617
 30
0.0
 11
0.7012244617333492
 21
6.586014782248502
 31
0.0
  0
LINE
  5
2DB4
330
1E
100
AcDbEntity
  8
3
100
AcDbLine
 10
0.7012244617333492
 20
6.586014782248502
 30
0.0
 11
0.7405945404735071
 21
6.568954414794433
 31
0.0
  0
LINE
  5
2DB5
330
1E
100
AcDbEntity
  8
3
100
AcDbLine
 10
0.7405945404735071
 20
6.568954414794433
 30
0.0
 11
0.7825892911296748
 21
6.562392735004406
 31
0.0
  0
LINE
  5
2DB6
330
1E
100
AcDbEntity
  8
3
100
AcDbLine
 10
0.7825892911296748
 20
6.864230005345614
 30
0.0
 11
0.7405945404735071
 21
6.857668325555588
 31
0.0
  0
LINE
  5
2DB7
330
1E
100
AcDbEntity
  8
3
100
AcDbLine
 10
0.7405945404735071
 20
6.857668325555588
 30
0.0
 11
0.7012244617333492
 21
6.84060795810152
 31
0.0
  0
LINE
  5
2DB8
330
1E
100
AcDbEntity
  8
3
100
AcDbLine
 10
0.7012244617333492
 20
6.84060795810152
 30
0.0
 11
0.6684160627832183
 21
6.811736567025404
 31
0.0
  0
LINE
  5
2DB9
330
1E
100
AcDbEntity
  8
3
100
AcDbLine
 10
0.6684160627832183
 20
6.811736567025404
 30
0.0
 11
0.6447940155391239
 21
6.776303496159262
 31
0.0
  0
LINE
  5
2DBA
330
1E
100
AcDbEntity
  8
3
100
AcDbLine
 10
0.6447940155391239
 20
6.776303496159262
 30
0.0
 11
0.6329829919170762
 21
6.734308745503094
 31
0.0
  0
LINE
  5
2DBB
330
1E
100
AcDbEntity
  8
3
100
AcDbLine
 10
0.7077861415233758
 20
6.71331137017501
 30
0.0
 11
0.7156601572714072
 21
6.680502971224879
 31
0.0
  0
LINE
  5
2DBC
330
1E
100
AcDbEntity
  8
3
100
AcDbLine
 10
0.7156601572714072
 20
6.680502971224879
 30
0.0
 11
0.7366575325994909
 21
6.654256252064774
 31
0.0
  0
LINE
  5
2DBD
330
1E
100
AcDbEntity
  8
3
100
AcDbLine
 10
0.7366575325994909
 20
6.772366488285246
 30
0.0
 11
0.7156601572714072
 21
6.746119769125141
 31
0.0
  0
LINE
  5
2DBE
330
1E
100
AcDbEntity
  8
3
100
AcDbLine
 10
0.7156601572714072
 20
6.746119769125141
 30
0.0
 11
0.7077861415233758
 21
6.71331137017501
 31
0.0
  0
LINE
  5
2DBF
330
1E
100
AcDbEntity
  8
3
100
AcDbLine
 10
0.9492559577963412
 20
6.654256252064774
 30
0.0
 11
0.9702533331244254
 21
6.680502971224879
 31
0.0
  0
LINE
  5
2DC0
330
1E
100
AcDbEntity
  8
3
100
AcDbLine
 10
0.9702533331244254
 20
6.680502971224879
 30
0.0
 11
0.9781273488724568
 21
6.71331137017501
 31
0.0
  0
LINE
  5
2DC1
330
1E
100
AcDbEntity
  8
3
100
AcDbLine
 10
0.9781273488724568
 20
6.71331137017501
 30
0.0
 11
0.9702533331244254
 21
6.746119769125141
 31
0.0
  0
LINE
  5
2DC2
330
1E
100
AcDbEntity
  8
3
100
AcDbLine
 10
0.9702533331244254
 20
6.746119769125141
 30
0.0
 11
0.9492559577963412
 21
6.772366488285246
 31
0.0
  0
LINE
  5
2DC3
330
1E
100
AcDbEntity
  8
3
100
AcDbLine
 10
-0.5284343309175688
 20
2.886539716631707
 30
0.0
 11
-0.5205603151695373
 21
2.856355989597586
 31
0.0
  0
LINE
  5
2DC4
330
1E
100
AcDbEntity
  8
3
100
AcDbLine
 10
-0.5205603151695373
 20
2.856355989597586
 30
0.0
 11
-0.4982506038834478
 21
2.835358614269502
 31
0.0
  0
LINE
  5
2DC5
330
1E
100
AcDbEntity
  8
3
100
AcDbLine
 10
-0.4680668768493277
 20
7.319610582773435
 30
0.0
 11
-0.4982506038834478
 21
7.311736567025404
 31
0.0
  0
LINE
  5
2DC6
330
1E
100
AcDbEntity
  8
3
100
AcDbLine
 10
-0.4982506038834478
 20
7.311736567025404
 30
0.0
 11
-0.5205603151695373
 21
7.290739191697319
 31
0.0
  0
LINE
  5
2DC7
330
1E
100
AcDbEntity
  8
3
100
AcDbLine
 10
-0.5205603151695373
 20
7.290739191697319
 30
0.0
 11
-0.5284343309175688
 21
7.260555464663198
 31
0.0
  0
LINE
  5
2DC8
330
1E
100
AcDbEntity
  8
3
100
AcDbLine
 10
2.155292703203164
 20
2.826172262563465
 30
0.0
 11
2.185476430237284
 21
2.835358614269502
 31
0.0
  0
LINE
  5
2DC9
330
1E
100
AcDbEntity
  8
3
100
AcDbLine
 10
2.185476430237284
 20
2.835358614269502
 30
0.0
 11
2.206473805565368
 21
2.856355989597586
 31
0.0
  0
LINE
  5
2DCA
330
1E
100
AcDbEntity
  8
3
100
AcDbLine
 10
2.206473805565368
 20
2.856355989597586
 30
0.0
 11
2.2143478213134
 21
2.886539716631707
 31
0.0
  0
LINE
  5
2DCB
330
1E
100
AcDbEntity
  8
3
100
AcDbLine
 10
2.2143478213134
 20
7.260555464663198
 30
0.0
 11
2.206473805565368
 21
7.290739191697319
 31
0.0
  0
LINE
  5
2DCC
330
1E
100
AcDbEntity
  8
3
100
AcDbLine
 10
2.206473805565368
 20
7.290739191697319
 30
0.0
 11
2.185476430237284
 21
7.311736567025404
 31
0.0
  0
LINE
  5
2DCD
330
1E
100
AcDbEntity
  8
3
100
AcDbLine
 10
-0.5284343309175688
 20
2.886539716631707
 30
0.0
 11
-0.5218726511275423
 21
2.890476724505722
 31
0.0
  0
LINE
  5
2DCE
330
1E
100
AcDbEntity
  8
3
100
AcDbLine
 10
-0.5218726511275423
 20
2.890476724505722
 30
0.0
 11
-0.5087492915474901
 21
2.900975412169764
 31
0.0
  0
LINE
  5
2DCF
330
1E
100
AcDbEntity
  8
3
100
AcDbLine
 10
-0.5087492915474901
 20
2.900975412169764
 30
0.0
 11
-0.4864395802614006
 21
2.916723443665827
 31
0.0
  0
LINE
  5
2DD0
330
1E
100
AcDbEntity
  8
3
100
AcDbLine
 10
-0.4864395802614006
 20
2.916723443665827
 30
0.0
 11
-0.4588805251432904
 21
2.937720818993912
 31
0.0
  0
LINE
  5
2DD1
330
1E
100
AcDbEntity
  8
3
100
AcDbLine
 10
-0.4588805251432904
 20
2.937720818993912
 30
0.0
 11
-0.4247597902351537
 21
2.962655202196011
 31
0.0
  0
LINE
  5
2DD2
330
1E
100
AcDbEntity
  8
3
100
AcDbLine
 10
-0.4247597902351537
 20
2.962655202196011
 30
0.0
 11
-0.3867020474530021
 21
2.990214257314121
 31
0.0
  0
LINE
  5
2DD3
330
1E
100
AcDbEntity
  8
3
100
AcDbLine
 10
-0.3867020474530021
 20
2.990214257314121
 30
0.0
 11
-0.3460196327548388
 21
3.020397984348242
 31
0.0
  0
LINE
  5
2DD4
330
1E
100
AcDbEntity
  8
3
100
AcDbLine
 10
-0.3460196327548388
 20
3.020397984348242
 30
0.0
 11
-0.3040248820986715
 21
3.051894047340367
 31
0.0
  0
LINE
  5
2DD5
330
1E
100
AcDbEntity
  8
3
100
AcDbLine
 10
-0.5087492915474901
 20
7.244807433167135
 30
0.0
 11
-0.5218726511275423
 21
7.255306120831177
 31
0.0
  0
LINE
  5
2DD6
330
1E
100
AcDbEntity
  8
3
100
AcDbLine
 10
-0.5218726511275423
 20
7.255306120831177
 30
0.0
 11
-0.5284343309175688
 21
7.260555464663198
 31
0.0
  0
LINE
  5
2DD7
330
1E
100
AcDbEntity
  8
3
100
AcDbLine
 10
-0.3040248820986715
 20
7.095201133954537
 30
0.0
 11
-0.3460196327548388
 21
7.126697196946665
 31
0.0
  0
LINE
  5
2DD8
330
1E
100
AcDbEntity
  8
3
100
AcDbLine
 10
-0.3460196327548388
 20
7.126697196946665
 30
0.0
 11
-0.3867020474530021
 21
7.156880923980784
 31
0.0
  0
LINE
  5
2DD9
330
1E
100
AcDbEntity
  8
3
100
AcDbLine
 10
-0.3867020474530021
 20
7.156880923980784
 30
0.0
 11
-0.4247597902351537
 21
7.184439979098895
 31
0.0
  0
LINE
  5
2DDA
330
1E
100
AcDbEntity
  8
3
100
AcDbLine
 10
-0.4247597902351537
 20
7.184439979098895
 30
0.0
 11
-0.4588805251432904
 21
7.209374362300994
 31
0.0
  0
LINE
  5
2DDB
330
1E
100
AcDbEntity
  8
3
100
AcDbLine
 10
-0.4588805251432904
 20
7.209374362300994
 30
0.0
 11
-0.4864395802614006
 21
7.229059401671072
 31
0.0
  0
LINE
  5
2DDC
330
1E
100
AcDbEntity
  8
3
100
AcDbLine
 10
-0.4864395802614006
 20
7.229059401671072
 30
0.0
 11
-0.5087492915474901
 21
7.244807433167135
 31
0.0
  0
LINE
  5
2DDD
330
1E
100
AcDbEntity
  8
3
100
AcDbLine
 10
2.021434435486628
 20
7.138508220568711
 30
0.0
 11
2.051618162520749
 21
7.179190635266873
 31
0.0
  0
LINE
  5
2DDE
330
1E
100
AcDbEntity
  8
3
100
AcDbLine
 10
2.051618162520749
 20
7.179190635266873
 30
0.0
 11
2.07917721763886
 21
7.217248378049026
 31
0.0
  0
LINE
  5
2DDF
330
1E
100
AcDbEntity
  8
3
100
AcDbLine
 10
2.07917721763886
 20
7.217248378049026
 30
0.0
 11
2.104111600840959
 21
7.250056776999157
 31
0.0
  0
LINE
  5
2DE0
330
1E
100
AcDbEntity
  8
3
100
AcDbLine
 10
2.104111600840959
 20
7.250056776999157
 30
0.0
 11
2.123796640211038
 21
7.278928168075273
 31
0.0
  0
LINE
  5
2DE1
330
1E
100
AcDbEntity
  8
3
100
AcDbLine
 10
2.123796640211038
 20
7.278928168075273
 30
0.0
 11
2.139544671707101
 21
7.299925543403356
 31
0.0
  0
LINE
  5
2DE2
330
1E
100
AcDbEntity
  8
3
100
AcDbLine
 10
2.139544671707101
 20
7.299925543403356
 30
0.0
 11
2.150043359371143
 21
7.314361238941414
 31
0.0
  0
LINE
  5
2DE3
330
1E
100
AcDbEntity
  8
3
100
AcDbLine
 10
2.150043359371143
 20
7.314361238941414
 30
0.0
 11
2.155292703203164
 21
7.319610582773435
 31
0.0
  0
LINE
  5
2DE4
330
1E
100
AcDbEntity
  8
3
100
AcDbLine
 10
-0.4680668768493277
 20
7.319610582773435
 30
0.0
 11
-0.4641298689753111
 21
7.314361238941414
 31
0.0
  0
LINE
  5
2DE5
330
1E
100
AcDbEntity
  8
3
100
AcDbLine
 10
-0.4641298689753111
 20
7.314361238941414
 30
0.0
 11
-0.4536311813112697
 21
7.299925543403356
 31
0.0
  0
LINE
  5
2DE6
330
1E
100
AcDbEntity
  8
3
100
AcDbLine
 10
-0.4536311813112697
 20
7.299925543403356
 30
0.0
 11
-0.4378831498152067
 21
7.278928168075273
 31
0.0
  0
LINE
  5
2DE7
330
1E
100
AcDbEntity
  8
3
100
AcDbLine
 10
-0.4378831498152067
 20
7.278928168075273
 30
0.0
 11
-0.4168857744871222
 21
7.250056776999157
 31
0.0
  0
LINE
  5
2DE8
330
1E
100
AcDbEntity
  8
3
100
AcDbLine
 10
-0.4168857744871222
 20
7.250056776999157
 30
0.0
 11
-0.3932637272430277
 21
7.217248378049026
 31
0.0
  0
LINE
  5
2DE9
330
1E
100
AcDbEntity
  8
3
100
AcDbLine
 10
-0.3932637272430277
 20
7.217248378049026
 30
0.0
 11
-0.3643923361669126
 21
7.179190635266873
 31
0.0
  0
LINE
  5
2DEA
330
1E
100
AcDbEntity
  8
3
100
AcDbLine
 10
-0.3643923361669126
 20
7.179190635266873
 30
0.0
 11
-0.3355209450907974
 21
7.138508220568711
 31
0.0
  0
LINE
  5
2DEB
330
1E
100
AcDbEntity
  8
3
100
AcDbLine
 10
-0.3355209450907974
 20
7.138508220568711
 30
0.0
 11
-0.3040248820986715
 21
7.095201133954537
 31
0.0
  0
LINE
  5
2DEC
330
1E
100
AcDbEntity
  8
3
100
AcDbLine
 10
-0.4536311813112697
 20
2.847169637891549
 30
0.0
 11
-0.4641298689753111
 21
2.832733942353491
 31
0.0
  0
LINE
  5
2DED
330
1E
100
AcDbEntity
  8
3
100
AcDbLine
 10
-0.4641298689753111
 20
2.832733942353491
 30
0.0
 11
-0.4680668768493277
 21
2.826172262563465
 31
0.0
  0
LINE
  5
2DEE
330
1E
100
AcDbEntity
  8
3
100
AcDbLine
 10
-0.3040248820986715
 20
3.051894047340367
 30
0.0
 11
-0.3355209450907974
 21
3.008586960726195
 31
0.0
  0
LINE
  5
2DEF
330
1E
100
AcDbEntity
  8
3
100
AcDbLine
 10
-0.3355209450907974
 20
3.008586960726195
 30
0.0
 11
-0.3643923361669126
 21
2.967904546028032
 31
0.0
  0
LINE
  5
2DF0
330
1E
100
AcDbEntity
  8
3
100
AcDbLine
 10
-0.3643923361669126
 20
2.967904546028032
 30
0.0
 11
-0.3932637272430277
 21
2.92984680324588
 31
0.0
  0
LINE
  5
2DF1
330
1E
100
AcDbEntity
  8
3
100
AcDbLine
 10
-0.3932637272430277
 20
2.92984680324588
 30
0.0
 11
-0.4168857744871222
 21
2.897038404295749
 31
0.0
  0
LINE
  5
2DF2
330
1E
100
AcDbEntity
  8
3
100
AcDbLine
 10
-0.4168857744871222
 20
2.897038404295749
 30
0.0
 11
-0.4378831498152067
 21
2.868167013219633
 31
0.0
  0
LINE
  5
2DF3
330
1E
100
AcDbEntity
  8
3
100
AcDbLine
 10
-0.4378831498152067
 20
2.868167013219633
 30
0.0
 11
-0.4536311813112697
 21
2.847169637891549
 31
0.0
  0
LINE
  5
2DF4
330
1E
100
AcDbEntity
  8
3
100
AcDbLine
 10
2.123796640211038
 20
2.868167013219633
 30
0.0
 11
2.104111600840959
 21
2.897038404295749
 31
0.0
  0
LINE
  5
2DF5
330
1E
100
AcDbEntity
  8
3
100
AcDbLine
 10
2.104111600840959
 20
2.897038404295749
 30
0.0
 11
2.07917721763886
 21
2.92984680324588
 31
0.0
  0
LINE
  5
2DF6
330
1E
100
AcDbEntity
  8
3
100
AcDbLine
 10
2.07917721763886
 20
2.92984680324588
 30
0.0
 11
2.051618162520749
 21
2.967904546028032
 31
0.0
  0
LINE
  5
2DF7
330
1E
100
AcDbEntity
  8
3
100
AcDbLine
 10
2.051618162520749
 20
2.967904546028032
 30
0.0
 11
2.021434435486628
 21
3.008586960726195
 31
0.0
  0
LINE
  5
2DF8
330
1E
100
AcDbEntity
  8
3
100
AcDbLine
 10
2.021434435486628
 20
3.008586960726195
 30
0.0
 11
1.989938372494502
 21
3.051894047340367
 31
0.0
  0
LINE
  5
2DF9
330
1E
100
AcDbEntity
  8
3
100
AcDbLine
 10
2.155292703203164
 20
2.826172262563465
 30
0.0
 11
2.150043359371143
 21
2.832733942353491
 31
0.0
  0
LINE
  5
2DFA
330
1E
100
AcDbEntity
  8
3
100
AcDbLine
 10
2.150043359371143
 20
2.832733942353491
 30
0.0
 11
2.139544671707101
 21
2.847169637891549
 31
0.0
  0
LINE
  5
2DFB
330
1E
100
AcDbEntity
  8
3
100
AcDbLine
 10
2.139544671707101
 20
2.847169637891549
 30
0.0
 11
2.123796640211038
 21
2.868167013219633
 31
0.0
  0
LINE
  5
2DFC
330
1E
100
AcDbEntity
  8
3
100
AcDbLine
 10
2.2143478213134
 20
7.260555464663198
 30
0.0
 11
2.209098477481379
 21
7.255306120831177
 31
0.0
  0
LINE
  5
2DFD
330
1E
100
AcDbEntity
  8
3
100
AcDbLine
 10
2.209098477481379
 20
7.255306120831177
 30
0.0
 11
2.194662781943321
 21
7.244807433167135
 31
0.0
  0
LINE
  5
2DFE
330
1E
100
AcDbEntity
  8
3
100
AcDbLine
 10
2.194662781943321
 20
7.244807433167135
 30
0.0
 11
2.173665406615238
 21
7.229059401671072
 31
0.0
  0
LINE
  5
2DFF
330
1E
100
AcDbEntity
  8
3
100
AcDbLine
 10
2.173665406615238
 20
7.229059401671072
 30
0.0
 11
2.144794015539122
 21
7.209374362300994
 31
0.0
  0
LINE
  5
2E00
330
1E
100
AcDbEntity
  8
3
100
AcDbLine
 10
2.144794015539122
 20
7.209374362300994
 30
0.0
 11
2.111985616588991
 21
7.184439979098895
 31
0.0
  0
LINE
  5
2E01
330
1E
100
AcDbEntity
  8
3
100
AcDbLine
 10
2.111985616588991
 20
7.184439979098895
 30
0.0
 11
2.073927873806839
 21
7.156880923980784
 31
0.0
  0
LINE
  5
2E02
330
1E
100
AcDbEntity
  8
3
100
AcDbLine
 10
2.073927873806839
 20
7.156880923980784
 30
0.0
 11
2.033245459108676
 21
7.126697196946665
 31
0.0
  0
LINE
  5
2E03
330
1E
100
AcDbEntity
  8
3
100
AcDbLine
 10
2.033245459108676
 20
7.126697196946665
 30
0.0
 11
1.989938372494502
 21
7.095201133954537
 31
0.0
  0
LINE
  5
2E04
330
1E
100
AcDbEntity
  8
3
100
AcDbLine
 10
1.989938372494502
 20
3.051894047340367
 30
0.0
 11
2.033245459108676
 21
3.020397984348242
 31
0.0
  0
LINE
  5
2E05
330
1E
100
AcDbEntity
  8
3
100
AcDbLine
 10
2.033245459108676
 20
3.020397984348242
 30
0.0
 11
2.073927873806839
 21
2.990214257314121
 31
0.0
  0
LINE
  5
2E06
330
1E
100
AcDbEntity
  8
3
100
AcDbLine
 10
2.073927873806839
 20
2.990214257314121
 30
0.0
 11
2.111985616588991
 21
2.962655202196011
 31
0.0
  0
LINE
  5
2E07
330
1E
100
AcDbEntity
  8
3
100
AcDbLine
 10
2.111985616588991
 20
2.962655202196011
 30
0.0
 11
2.144794015539122
 21
2.937720818993912
 31
0.0
  0
LINE
  5
2E08
330
1E
100
AcDbEntity
  8
3
100
AcDbLine
 10
2.144794015539122
 20
2.937720818993912
 30
0.0
 11
2.173665406615238
 21
2.916723443665827
 31
0.0
  0
LINE
  5
2E09
330
1E
100
AcDbEntity
  8
3
100
AcDbLine
 10
2.173665406615238
 20
2.916723443665827
 30
0.0
 11
2.194662781943321
 21
2.900975412169764
 31
0.0
  0
LINE
  5
2E0A
330
1E
100
AcDbEntity
  8
3
100
AcDbLine
 10
2.194662781943321
 20
2.900975412169764
 30
0.0
 11
2.209098477481379
 21
2.890476724505722
 31
0.0
  0
LINE
  5
2E0B
330
1E
100
AcDbEntity
  8
3
100
AcDbLine
 10
2.209098477481379
 20
2.890476724505722
 30
0.0
 11
2.2143478213134
 21
2.886539716631707
 31
0.0
  0
LINE
  5
2E0C
330
1E
100
AcDbEntity
  8
3
100
AcDbLine
 10
2.181539422363269
 20
7.318298246815429
 30
0.0
 11
2.201224461733347
 21
7.306487223193382
 31
0.0
  0
LINE
  5
2E0D
330
1E
100
AcDbEntity
  8
3
100
AcDbLine
 10
2.201224461733347
 20
7.306487223193382
 30
0.0
 11
2.213035485355395
 21
7.286802183823303
 31
0.0
  0
LINE
  5
2E0E
330
1E
100
AcDbEntity
  8
3
100
AcDbLine
 10
2.213035485355395
 20
7.286802183823303
 30
0.0
 11
2.218284829187416
 21
7.26318013657921
 31
0.0
  0
LINE
  5
2E0F
330
1E
100
AcDbEntity
  8
3
100
AcDbLine
 10
-0.5323713387915845
 20
7.26318013657921
 30
0.0
 11
-0.527121994959563
 21
7.286802183823303
 31
0.0
  0
LINE
  5
2E10
330
1E
100
AcDbEntity
  8
3
100
AcDbLine
 10
-0.527121994959563
 20
7.286802183823303
 30
0.0
 11
-0.5139986353795108
 21
7.306487223193382
 31
0.0
  0
LINE
  5
2E11
330
1E
100
AcDbEntity
  8
3
100
AcDbLine
 10
-0.5139986353795108
 20
7.306487223193382
 30
0.0
 11
-0.4943135960094321
 21
7.318298246815429
 31
0.0
  0
LINE
  5
2E12
330
1E
100
AcDbEntity
  8
3
100
AcDbLine
 10
-0.4943135960094321
 20
7.318298246815429
 30
0.0
 11
-0.4720038847233426
 21
7.32354759064745
 31
0.0
  0
LINE
  5
2E13
330
1E
100
AcDbEntity
  8
3
100
AcDbLine
 10
-0.4720038847233426
 20
2.823547590647455
 30
0.0
 11
-0.4943135960094321
 21
2.82748459852147
 31
0.0
  0
LINE
  5
2E14
330
1E
100
AcDbEntity
  8
3
100
AcDbLine
 10
-0.4943135960094321
 20
2.82748459852147
 30
0.0
 11
-0.5139986353795108
 21
2.840607958101523
 31
0.0
  0
LINE
  5
2E15
330
1E
100
AcDbEntity
  8
3
100
AcDbLine
 10
-0.5139986353795108
 20
2.840607958101523
 30
0.0
 11
-0.527121994959563
 21
2.860292997471602
 31
0.0
  0
LINE
  5
2E16
330
1E
100
AcDbEntity
  8
3
100
AcDbLine
 10
-0.527121994959563
 20
2.860292997471602
 30
0.0
 11
-0.5323713387915845
 21
2.883915044715696
 31
0.0
  0
LINE
  5
2E17
330
1E
100
AcDbEntity
  8
3
100
AcDbLine
 10
2.218284829187416
 20
2.883915044715696
 30
0.0
 11
2.213035485355395
 21
2.860292997471602
 31
0.0
  0
LINE
  5
2E18
330
1E
100
AcDbEntity
  8
3
100
AcDbLine
 10
2.213035485355395
 20
2.860292997471602
 30
0.0
 11
2.201224461733347
 21
2.840607958101523
 31
0.0
  0
LINE
  5
2E19
330
1E
100
AcDbEntity
  8
3
100
AcDbLine
 10
2.201224461733347
 20
2.840607958101523
 30
0.0
 11
2.181539422363269
 21
2.82748459852147
 31
0.0
  0
LINE
  5
2E1A
330
1E
100
AcDbEntity
  8
3
100
AcDbLine
 10
-0.4720038847233426
 20
2.823547590647455
 30
0.0
 11
2.157917375119175
 21
2.823547590647455
 31
0.0
  0
LINE
  5
2E1B
330
1E
100
AcDbEntity
  8
3
100
AcDbLine
 10
2.157917375119175
 20
2.823547590647455
 30
0.0
 11
2.155292703203164
 21
2.826172262563465
 31
0.0
  0
LINE
  5
2E1C
330
1E
100
AcDbEntity
  8
3
100
AcDbLine
 10
2.155292703203164
 20
2.826172262563465
 30
0.0
 11
-0.4680668768493277
 21
2.826172262563465
 31
0.0
  0
LINE
  5
2E1D
330
1E
100
AcDbEntity
  8
3
100
AcDbLine
 10
-0.4680668768493277
 20
2.826172262563465
 30
0.0
 11
-0.4720038847233426
 21
2.823547590647455
 31
0.0
  0
LINE
  5
2E1E
330
1E
100
AcDbEntity
  8
3
100
AcDbLine
 10
2.2143478213134
 20
2.886539716631707
 30
0.0
 11
2.218284829187416
 21
2.883915044715696
 31
0.0
  0
LINE
  5
2E1F
330
1E
100
AcDbEntity
  8
3
100
AcDbLine
 10
2.218284829187416
 20
2.883915044715696
 30
0.0
 11
2.218284829187416
 21
7.26318013657921
 31
0.0
  0
LINE
  5
2E20
330
1E
100
AcDbEntity
  8
3
100
AcDbLine
 10
2.218284829187416
 20
7.26318013657921
 30
0.0
 11
2.2143478213134
 21
7.260555464663198
 31
0.0
  0
LINE
  5
2E21
330
1E
100
AcDbEntity
  8
3
100
AcDbLine
 10
2.157917375119175
 20
7.32354759064745
 30
0.0
 11
-0.4720038847233426
 21
7.32354759064745
 31
0.0
  0
LINE
  5
2E22
330
1E
100
AcDbEntity
  8
3
100
AcDbLine
 10
-0.4720038847233426
 20
7.32354759064745
 30
0.0
 11
-0.4680668768493277
 21
7.319610582773435
 31
0.0
  0
LINE
  5
2E23
330
1E
100
AcDbEntity
  8
3
100
AcDbLine
 10
-0.4680668768493277
 20
7.319610582773435
 30
0.0
 11
2.155292703203164
 21
7.319610582773435
 31
0.0
  0
LINE
  5
2E24
330
1E
100
AcDbEntity
  8
3
100
AcDbLine
 10
2.155292703203164
 20
7.319610582773435
 30
0.0
 11
2.157917375119175
 21
7.32354759064745
 31
0.0
  0
LINE
  5
2E25
330
1E
100
AcDbEntity
  8
3
100
AcDbLine
 10
-0.5284343309175688
 20
2.886539716631707
 30
0.0
 11
-0.5284343309175688
 21
7.260555464663198
 31
0.0
  0
LINE
  5
2E26
330
1E
100
AcDbEntity
  8
3
100
AcDbLine
 10
-0.5284343309175688
 20
7.260555464663198
 30
0.0
 11
-0.5323713387915845
 21
7.26318013657921
 31
0.0
  0
LINE
  5
2E27
330
1E
100
AcDbEntity
  8
3
100
AcDbLine
 10
-0.5323713387915845
 20
7.26318013657921
 30
0.0
 11
-0.5323713387915845
 21
2.883915044715696
 31
0.0
  0
LINE
  5
2E28
330
1E
100
AcDbEntity
  8
3
100
AcDbLine
 10
-0.5323713387915845
 20
2.883915044715696
 30
0.0
 11
-0.5284343309175688
 21
2.886539716631707
 31
0.0
  0
LINE
  5
2E29
330
1E
100
AcDbEntity
  8
3
100
AcDbLine
 10
1.588363569344897
 20
4.303862551277375
 30
0.0
 11
1.008311075906576
 21
4.303862551277375
 31
0.0
  0
LINE
  5
2E2A
330
1E
100
AcDbEntity
  8
3
100
AcDbLine
 10
1.008311075906576
 20
4.303862551277375
 30
0.0
 11
1.008311075906576
 21
4.948219506657951
 31
0.0
  0
LINE
  5
2E2B
330
1E
100
AcDbEntity
  8
3
100
AcDbLine
 10
0.6776024144892548
 20
5.198875674636953
 30
0.0
 11
0.0988622570089399
 21
5.198875674636953
 31
0.0
  0
LINE
  5
2E2C
330
1E
100
AcDbEntity
  8
3
100
AcDbLine
 10
0.0988622570089399
 20
5.198875674636953
 30
0.0
 11
0.0988622570089399
 21
5.843232630017531
 31
0.0
  0
LINE
  5
2E2D
330
1E
100
AcDbEntity
  8
3
100
AcDbLine
 10
0.6776024144892548
 20
4.303862551277375
 30
0.0
 11
0.0988622570089399
 21
4.303862551277375
 31
0.0
  0
LINE
  5
2E2E
330
1E
100
AcDbEntity
  8
3
100
AcDbLine
 10
0.0988622570089399
 20
4.303862551277375
 30
0.0
 11
0.0988622570089399
 21
4.948219506657951
 31
0.0
  0
LINE
  5
2E2F
330
1E
100
AcDbEntity
  8
3
100
AcDbLine
 10
1.781276955171668
 20
3.608324493534593
 30
0.0
 11
1.776027611339647
 21
3.622760189072651
 31
0.0
  0
LINE
  5
2E30
330
1E
100
AcDbEntity
  8
3
100
AcDbLine
 10
1.776027611339647
 20
3.622760189072651
 30
0.0
 11
1.765528923675605
 21
3.634571212694698
 31
0.0
  0
LINE
  5
2E31
330
1E
100
AcDbEntity
  8
3
100
AcDbLine
 10
1.765528923675605
 20
3.634571212694698
 30
0.0
 11
1.749780892179542
 21
3.638508220568714
 31
0.0
  0
LINE
  5
2E32
330
1E
100
AcDbEntity
  8
3
100
AcDbLine
 10
-0.0625550658257055
 20
3.638508220568714
 30
0.0
 11
-0.0783030973217684
 21
3.634571212694698
 31
0.0
  0
LINE
  5
2E33
330
1E
100
AcDbEntity
  8
3
100
AcDbLine
 10
-0.0783030973217684
 20
3.634571212694698
 30
0.0
 11
-0.0901141209438157
 21
3.622760189072651
 31
0.0
  0
LINE
  5
2E34
330
1E
100
AcDbEntity
  8
3
100
AcDbLine
 10
-0.0901141209438157
 20
3.622760189072651
 30
0.0
 11
-0.0940511288178314
 21
3.608324493534593
 31
0.0
  0
LINE
  5
2E35
330
1E
100
AcDbEntity
  8
3
100
AcDbLine
 10
-0.0940511288178314
 20
3.257930792747192
 30
0.0
 11
-0.0901141209438157
 21
3.242182761251129
 31
0.0
  0
LINE
  5
2E36
330
1E
100
AcDbEntity
  8
3
100
AcDbLine
 10
-0.0901141209438157
 20
3.242182761251129
 30
0.0
 11
-0.0783030973217684
 21
3.231684073587087
 31
0.0
  0
LINE
  5
2E37
330
1E
100
AcDbEntity
  8
3
100
AcDbLine
 10
-0.0783030973217684
 20
3.231684073587087
 30
0.0
 11
-0.0625550658257055
 21
3.226434729755066
 31
0.0
  0
LINE
  5
2E38
330
1E
100
AcDbEntity
  8
3
100
AcDbLine
 10
1.749780892179542
 20
3.226434729755066
 30
0.0
 11
1.765528923675605
 21
3.231684073587087
 31
0.0
  0
LINE
  5
2E39
330
1E
100
AcDbEntity
  8
3
100
AcDbLine
 10
1.765528923675605
 20
3.231684073587087
 30
0.0
 11
1.776027611339647
 21
3.242182761251129
 31
0.0
  0
LINE
  5
2E3A
330
1E
100
AcDbEntity
  8
3
100
AcDbLine
 10
1.776027611339647
 20
3.242182761251129
 30
0.0
 11
1.781276955171668
 21
3.257930792747192
 31
0.0
  0
LINE
  5
2E3B
330
1E
100
AcDbEntity
  8
3
100
AcDbLine
 10
-0.0625550658257055
 20
6.919348115581835
 30
0.0
 11
1.749780892179542
 21
6.919348115581835
 31
0.0
  0
LINE
  5
2E3C
330
1E
100
AcDbEntity
  8
3
100
AcDbLine
 10
1.749780892179542
 20
6.919348115581835
 30
0.0
 11
1.765528923675605
 21
6.915411107707819
 31
0.0
  0
LINE
  5
2E3D
330
1E
100
AcDbEntity
  8
3
100
AcDbLine
 10
1.765528923675605
 20
6.915411107707819
 30
0.0
 11
1.776027611339647
 21
6.904912420043777
 31
0.0
  0
LINE
  5
2E3E
330
1E
100
AcDbEntity
  8
3
100
AcDbLine
 10
1.776027611339647
 20
6.904912420043777
 30
0.0
 11
1.781276955171668
 21
6.889164388547714
 31
0.0
  0
LINE
  5
2E3F
330
1E
100
AcDbEntity
  8
3
100
AcDbLine
 10
1.781276955171668
 20
6.889164388547714
 30
0.0
 11
1.781276955171668
 21
6.538770687760313
 31
0.0
  0
LINE
  5
2E40
330
1E
100
AcDbEntity
  8
3
100
AcDbLine
 10
1.781276955171668
 20
6.538770687760313
 30
0.0
 11
1.776027611339647
 21
6.52302265626425
 31
0.0
  0
LINE
  5
2E41
330
1E
100
AcDbEntity
  8
3
100
AcDbLine
 10
1.776027611339647
 20
6.52302265626425
 30
0.0
 11
1.765528923675605
 21
6.512523968600207
 31
0.0
  0
LINE
  5
2E42
330
1E
100
AcDbEntity
  8
3
100
AcDbLine
 10
1.765528923675605
 20
6.512523968600207
 30
0.0
 11
1.749780892179542
 21
6.507274624768187
 31
0.0
  0
LINE
  5
2E43
330
1E
100
AcDbEntity
  8
3
100
AcDbLine
 10
1.749780892179542
 20
6.507274624768187
 30
0.0
 11
-0.0625550658257055
 21
6.507274624768187
 31
0.0
  0
LINE
  5
2E44
330
1E
100
AcDbEntity
  8
3
100
AcDbLine
 10
-0.0625550658257055
 20
6.507274624768187
 30
0.0
 11
-0.0783030973217684
 21
6.512523968600207
 31
0.0
  0
LINE
  5
2E45
330
1E
100
AcDbEntity
  8
3
100
AcDbLine
 10
-0.0783030973217684
 20
6.512523968600207
 30
0.0
 11
-0.0901141209438157
 21
6.52302265626425
 31
0.0
  0
LINE
  5
2E46
330
1E
100
AcDbEntity
  8
3
100
AcDbLine
 10
-0.0901141209438157
 20
6.52302265626425
 30
0.0
 11
-0.0940511288178314
 21
6.538770687760313
 31
0.0
  0
LINE
  5
2E47
330
1E
100
AcDbEntity
  8
3
100
AcDbLine
 10
-0.0940511288178314
 20
6.538770687760313
 30
0.0
 11
-0.0940511288178314
 21
6.889164388547714
 31
0.0
  0
LINE
  5
2E48
330
1E
100
AcDbEntity
  8
3
100
AcDbLine
 10
-0.0940511288178314
 20
6.889164388547714
 30
0.0
 11
-0.0901141209438157
 21
6.904912420043777
 31
0.0
  0
LINE
  5
2E49
330
1E
100
AcDbEntity
  8
3
100
AcDbLine
 10
-0.0901141209438157
 20
6.904912420043777
 30
0.0
 11
-0.0783030973217684
 21
6.915411107707819
 31
0.0
  0
LINE
  5
2E4A
330
1E
100
AcDbEntity
  8
3
100
AcDbLine
 10
-0.0783030973217684
 20
6.915411107707819
 30
0.0
 11
-0.0625550658257055
 21
6.919348115581835
 31
0.0
  0
LINE
  5
2E4B
330
1E
100
AcDbEntity
  8
3
100
AcDbLine
 10
1.989938372494502
 20
7.095201133954537
 30
0.0
 11
-0.3040248820986715
 21
7.095201133954537
 31
0.0
  0
LINE
  5
2E4C
330
1E
100
AcDbEntity
  8
3
100
AcDbLine
 10
-0.3040248820986715
 20
7.095201133954537
 30
0.0
 11
-0.3040248820986715
 21
3.051894047340367
 31
0.0
  0
LINE
  5
2E4D
330
1E
100
AcDbEntity
  8
3
100
AcDbLine
 10
-0.3040248820986715
 20
3.051894047340367
 30
0.0
 11
1.989938372494502
 21
3.051894047340367
 31
0.0
  0
ENDSEC
  0
SECTION
  2
OBJECTS
  0
DICTIONARY
  5
C
330
0
100
AcDbDictionary
  3
ACAD_GROUP
350
D
  3
ACAD_LAYOUT
350
19
  3
ACAD_MLINESTYLE
350
16
  3
ACAD_PLOTSETTINGS
350
18
1001
ACAD
1000
TREAT_AS_HARD
1070
     0
  0
DICTIONARY
  5
403C
330
1E
100
AcDbDictionary
  3
ACAD_LAYOUTSELFREF
350
4074
1001
ACAD
1000
TREAT_AS_HARD
1070
     1
  0
DICTIONARY
  5
403E
330
1A
100
AcDbDictionary
  3
ACAD_LAYOUTSELFREF
350
4073
1001
ACAD
1000
TREAT_AS_HARD
1070
     1
  0
DICTIONARY
  5
D
102
{ACAD_REACTORS
330
C
102
}
330
C
100
AcDbDictionary
1001
ACAD
1000
TREAT_AS_HARD
1070
     0
  0
DICTIONARY
  5
19
102
{ACAD_REACTORS
330
C
102
}
330
C
100
AcDbDictionary
1001
ACAD
1000
TREAT_AS_HARD
1070
     0
  0
DICTIONARY
  5
16
102
{ACAD_REACTORS
330
C
102
}
330
C
100
AcDbDictionary
  3
STANDARD
350
17
1001
ACAD
1000
TREAT_AS_HARD
1070
     0
  0
DICTIONARY
  5
18
102
{ACAD_REACTORS
330
C
102
}
330
C
100
AcDbDictionary
1001
ACAD
1000
TREAT_AS_HARD
1070
     0
  0
XRECORD
  5
4074
102
{ACAD_REACTORS
330
403C
102
}
330
403C
100
AcDbXrecord
340
1E
  0
XRECORD
  5
4073
102
{ACAD_REACTORS
330
403E
102
}
330
403E
100
AcDbXrecord
340
1A
  0
MLINESTYLE
  5
17
102
{ACAD_REACTORS
330
16
102
}
330
16
100
AcDbMlineStyle
  2
STANDARD
 70
     0
  3

 62
   256
 51
90.0
 52
90.0
 71
     2
 49
0.5
 62
   256
  6
BYLAYER
 49
-0.5
 62
   256
  6
BYLAYER
  0
ENDSEC
  0
EOF
