  0
SECTION
  2
HEADER
  9
$ACADVER
  1
AC1012
  9
$DWGCODEPAGE
  3
ANSI_1252
  9
$INSBASE
 10
0.0
 20
0.0
 30
0.0
  9
$EXTMIN
 10
36.50885826771653
 20
25.02362204724409
 30
0.0
  9
$EXTMAX
 10
39.60826771653543
 20
28.18700787401574
 30
0.0
  9
$LIMMIN
 10
0.0
 20
0.0
  9
$LIMMAX
 10
12.0
 20
9.0
  9
$ORTHOMODE
 70
     0
  9
$REGENMODE
 70
     1
  9
$FILLMODE
 70
     1
  9
$QTEXTMODE
 70
     0
  9
$MIRRTEXT
 70
     1
  9
$DRAGMODE
 70
     2
  9
$LTSCALE
 40
1.0
  9
$OSMODE
 70
    37
  9
$ATTMODE
 70
     1
  9
$TEXTSIZE
 40
0.2
  9
$TRACEWID
 40
0.05
  9
$TEXTSTYLE
  7
STANDARD
  9
$CLAYER
  8
0
  9
$CELTYPE
  6
BYLAYER
  9
$CECOLOR
 62
   256
  9
$CELTSCALE
 40
1.0
  9
$DELOBJ
 70
     1
  9
$DISPSILH
 70
     0
  9
$DIMSCALE
 40
1.0
  9
$DIMASZ
 40
0.18
  9
$DIMEXO
 40
0.0625
  9
$DIMDLI
 40
0.38
  9
$DIMRND
 40
0.0
  9
$DIMDLE
 40
0.0
  9
$DIMEXE
 40
0.18
  9
$DIMTP
 40
0.0
  9
$DIMTM
 40
0.0
  9
$DIMTXT
 40
0.18
  9
$DIMCEN
 40
0.09
  9
$DIMTSZ
 40
0.0
  9
$DIMTOL
 70
     0
  9
$DIMLIM
 70
     0
  9
$DIMTIH
 70
     1
  9
$DIMTOH
 70
     1
  9
$DIMSE1
 70
     0
  9
$DIMSE2
 70
     0
  9
$DIMTAD
 70
     0
  9
$DIMZIN
 70
     0
  9
$DIMBLK
  1

  9
$DIMASO
 70
     1
  9
$DIMSHO
 70
     1
  9
$DIMPOST
  1

  9
$DIMAPOST
  1

  9
$DIMALT
 70
     0
  9
$DIMALTD
 70
     2
  9
$DIMALTF
 40
25.4
  9
$DIMLFAC
 40
1.0
  9
$DIMTOFL
 70
     0
  9
$DIMTVP
 40
0.0
  9
$DIMTIX
 70
     0
  9
$DIMSOXD
 70
     0
  9
$DIMSAH
 70
     0
  9
$DIMBLK1
  1

  9
$DIMBLK2
  1

  9
$DIMSTYLE
  2
STANDARD
  9
$DIMCLRD
 70
     0
  9
$DIMCLRE
 70
     0
  9
$DIMCLRT
 70
     0
  9
$DIMTFAC
 40
1.0
  9
$DIMGAP
 40
0.09
  9
$DIMJUST
 70
     0
  9
$DIMSD1
 70
     0
  9
$DIMSD2
 70
     0
  9
$DIMTOLJ
 70
     1
  9
$DIMTZIN
 70
     0
  9
$DIMALTZ
 70
     0
  9
$DIMALTTZ
 70
     0
  9
$DIMFIT
 70
     5
  9
$DIMUPT
 70
     0
  9
$DIMUNIT
 70
     2
  9
$DIMDEC
 70
     4
  9
$DIMTDEC
 70
     4
  9
$DIMALTU
 70
     2
  9
$DIMALTTD
 70
     2
  9
$DIMTXSTY
  7
STANDARD
  9
$DIMAUNIT
 70
     0
  9
$LUNITS
 70
     2
  9
$LUPREC
 70
     4
  9
$SKETCHINC
 40
0.1
  9
$FILLETRAD
 40
0.0
  9
$AUNITS
 70
     0
  9
$AUPREC
 70
     0
  9
$MENU
  1
acad
  9
$ELEVATION
 40
0.0
  9
$PELEVATION
 40
0.0
  9
$THICKNESS
 40
0.0
  9
$LIMCHECK
 70
     0
  9
$BLIPMODE
 70
     0
  9
$CHAMFERA
 40
0.0
  9
$CHAMFERB
 40
0.0
  9
$CHAMFERC
 40
0.0
  9
$CHAMFERD
 40
0.0
  9
$SKPOLY
 70
     0
  9
$TDCREATE
 40
2452380.419143518
  9
$TDUPDATE
 40
2452380.439002951
  9
$TDINDWG
 40
0.0025898727
  9
$TDUSRTIMER
 40
0.0025898727
  9
$USRTIMER
 70
     1
  9
$ANGBASE
 50
0.0
  9
$ANGDIR
 70
     0
  9
$PDMODE
 70
     0
  9
$PDSIZE
 40
0.0
  9
$PLINEWID
 40
0.0
  9
$COORDS
 70
     1
  9
$SPLFRAME
 70
     0
  9
$SPLINETYPE
 70
     6
  9
$SPLINESEGS
 70
     8
  9
$ATTDIA
 70
     0
  9
$ATTREQ
 70
     1
  9
$HANDLING
 70
  4097
  9
$HANDSEED
  5
580
  9
$SURFTAB1
 70
     6
  9
$SURFTAB2
 70
     6
  9
$SURFTYPE
 70
     6
  9
$SURFU
 70
     6
  9
$SURFV
 70
     6
  9
$UCSNAME
  2

  9
$UCSORG
 10
0.0
 20
0.0
 30
0.0
  9
$UCSXDIR
 10
1.0
 20
0.0
 30
0.0
  9
$UCSYDIR
 10
0.0
 20
1.0
 30
0.0
  9
$PUCSNAME
  2

  9
$PUCSORG
 10
0.0
 20
0.0
 30
0.0
  9
$PUCSXDIR
 10
1.0
 20
0.0
 30
0.0
  9
$PUCSYDIR
 10
0.0
 20
1.0
 30
0.0
  9
$USERI1
 70
     0
  9
$USERI2
 70
     0
  9
$USERI3
 70
     0
  9
$USERI4
 70
     0
  9
$USERI5
 70
     0
  9
$USERR1
 40
0.0
  9
$USERR2
 40
0.0
  9
$USERR3
 40
0.0
  9
$USERR4
 40
0.0
  9
$USERR5
 40
0.0
  9
$WORLDVIEW
 70
     1
  9
$SHADEDGE
 70
     3
  9
$SHADEDIF
 70
    70
  9
$TILEMODE
 70
     1
  9
$MAXACTVP
 70
    16
  9
$PINSBASE
 10
0.0
 20
0.0
 30
0.0
  9
$PLIMCHECK
 70
     0
  9
$PEXTMIN
 10
1.000000000000000E+20
 20
1.000000000000000E+20
 30
1.000000000000000E+20
  9
$PEXTMAX
 10
-1.000000000000000E+20
 20
-1.000000000000000E+20
 30
-1.000000000000000E+20
  9
$PLIMMIN
 10
0.0
 20
0.0
  9
$PLIMMAX
 10
12.0
 20
9.0
  9
$UNITMODE
 70
     0
  9
$VISRETAIN
 70
     0
  9
$PLINEGEN
 70
     0
  9
$PSLTSCALE
 70
     1
  9
$TREEDEPTH
 70
  3020
  9
$PICKSTYLE
 70
     1
  9
$CMLSTYLE
  2
STANDARD
  9
$CMLJUST
 70
     0
  9
$CMLSCALE
 40
1.0
  9
$SAVEIMAGES
 70
     1
  0
ENDSEC
  0
SECTION
  2
CLASSES
  0
CLASS
  1
ACDBDICTIONARYWDFLT
  2
AcDbDictionaryWithDefault
  3
AutoCAD 2000
 90
    32768
280
     0
281
     0
  0
CLASS
  1
ACDBPLACEHOLDER
  2
AcDbPlaceHolder
  3
AutoCAD 2000
 90
    32768
280
     0
281
     0
  0
CLASS
  1
LAYOUT
  2
AcDbLayout
  3
AutoCAD 2000
 90
    32768
280
     0
281
     0
  0
CLASS
  1
LONG_TRANSACTION
  2
AcDbLongTransaction
  3
AutoCAD 2000
 90
    32768
280
     0
281
     0
  0
CLASS
  1
LWPOLYLINE
  2
AcDbPolyline
  3
AutoCAD 2000
 90
    32768
280
     0
281
     1
  0
CLASS
  1
HATCH
  2
AcDbHatch
  3
AutoCAD 2000
 90
    32768
280
     0
281
     1
  0
CLASS
  1
XRECORD
  2
AcDbXrecord
  3
AutoCAD 2000
 90
    32768
280
     0
281
     0
  0
CLASS
  1
LONG_TRANSACTION
  2
AcDbLongTransaction
  3
AutoCAD 2000
 90
    32768
280
     0
281
     0
  0
CLASS
  1
LWPOLYLINE
  2
AcDbPolyline
  3
AutoCAD 2000
 90
    32768
280
     0
281
     1
  0
CLASS
  1
HATCH
  2
AcDbHatch
  3
AutoCAD 2000
 90
    32768
280
     0
281
     1
  0
CLASS
  1
XRECORD
  2
AcDbXrecord
  3
AutoCAD 2000
 90
    32768
280
     0
281
     0
  0
ENDSEC
  0
SECTION
  2
TABLES
  0
TABLE
  2
VPORT
  5
8
330
0
100
AcDbSymbolTable
 70
    12
  0
VPORT
  5
57D
330
8
100
AcDbSymbolTableRecord
100
AcDbViewportTableRecord
  2
*ACTIVE
 70
     0
 10
0.0
 20
0.0
 11
1.0
 21
1.0
 12
38.05856299212598
 22
26.60531496062992
 13
0.0
 23
0.0
 14
1.0
 24
1.0
 15
0.0
 25
0.0
 16
0.0
 26
0.0
 36
1.0
 17
0.0
 27
0.0
 37
0.0
 40
3.1971772396375
 41
1.506297229219143
 42
50.0
 43
0.0
 44
0.0
 50
0.0
 51
0.0
 71
     0
 72
   100
 73
     1
 74
     1
 75
     0
 76
     0
 77
     0
 78
     0
  0
ENDTAB
  0
TABLE
  2
LTYPE
  5
5
330
0
100
AcDbSymbolTable
 70
    25
  0
LTYPE
  5
13
330
5
100
AcDbSymbolTableRecord
100
AcDbLinetypeTableRecord
  2
BYBLOCK
 70
     0
  3

 72
    65
 73
     0
 40
0.0
  0
LTYPE
  5
14
330
5
100
AcDbSymbolTableRecord
100
AcDbLinetypeTableRecord
  2
BYLAYER
 70
     0
  3

 72
    65
 73
     0
 40
0.0
  0
LTYPE
  5
15
330
5
100
AcDbSymbolTableRecord
100
AcDbLinetypeTableRecord
  2
CONTINUOUS
 70
     0
  3
Solid line
 72
    65
 73
     0
 40
0.0
  0
ENDTAB
  0
TABLE
  2
LAYER
  5
2
330
0
100
AcDbSymbolTable
 70
   256
  0
LAYER
  5
10
330
2
100
AcDbSymbolTableRecord
100
AcDbLayerTableRecord
  2
0
 70
     0
 62
     7
  6
CONTINUOUS
  0
LAYER
  5
40
330
2
100
AcDbSymbolTableRecord
100
AcDbLayerTableRecord
  2
7
 70
     0
 62
     7
  6
CONTINUOUS
  0
ENDTAB
  0
TABLE
  2
STYLE
  5
3
330
0
100
AcDbSymbolTable
 70
     1
  0
STYLE
  5
11
330
3
100
AcDbSymbolTableRecord
100
AcDbTextStyleTableRecord
  2
STANDARD
 70
     0
 40
0.0
 41
1.0
 50
0.0
 71
     0
 42
0.2
  3
monotxt
  4

  0
ENDTAB
  0
TABLE
  2
VIEW
  5
6
330
0
100
AcDbSymbolTable
 70
     0
  0
ENDTAB
  0
TABLE
  2
UCS
  5
7
330
0
100
AcDbSymbolTable
 70
     0
  0
ENDTAB
  0
TABLE
  2
APPID
  5
9
330
0
100
AcDbSymbolTable
 70
     1
  0
APPID
  5
12
330
9
100
AcDbSymbolTableRecord
100
AcDbRegAppTableRecord
  2
ACAD
 70
     0
  0
ENDTAB
  0
TABLE
  2
DIMSTYLE
  5
A
330
0
100
AcDbSymbolTable
 70
     1
  0
DIMSTYLE
105
3E1
330
A
100
AcDbSymbolTableRecord
100
AcDbDimStyleTableRecord
  2
STANDARD
 70
     0
  3

  4

  5

  6

  7

 40
1.0
 41
0.18
 42
0.0625
 43
0.38
 44
0.18
 45
0.0
 46
0.0
 47
0.0
 48
0.0
140
0.18
141
0.09
142
0.0
143
25.4
144
1.0
145
0.0
146
1.0
147
0.09
 71
     0
 72
     0
 73
     1
 74
     1
 75
     0
 76
     0
 77
     0
 78
     0
170
     0
171
     2
172
     0
173
     0
174
     0
175
     0
176
     0
177
     0
178
     0
270
     2
271
     4
272
     4
273
     2
274
     2
340
11
275
     0
280
     0
281
     0
282
     0
283
     1
284
     0
285
     0
286
     0
287
     3
288
     0
  0
ENDTAB
  0
TABLE
  2
BLOCK_RECORD
  5
1
330
0
100
AcDbSymbolTable
 70
     0
  0
BLOCK_RECORD
  5
1E
102
{ACAD_XDICTIONARY
360
50C
102
}
330
1
100
AcDbSymbolTableRecord
100
AcDbBlockTableRecord
  2
*MODEL_SPACE
  0
BLOCK_RECORD
  5
1A
102
{ACAD_XDICTIONARY
360
50E
102
}
330
1
100
AcDbSymbolTableRecord
100
AcDbBlockTableRecord
  2
*PAPER_SPACE
  0
ENDTAB
  0
ENDSEC
  0
SECTION
  2
BLOCKS
  0
BLOCK
  5
13B
330
1E
100
AcDbEntity
  8
0
100
AcDbBlockBegin
  2
*MODEL_SPACE
 70
     0
 10
0.0
 20
0.0
 30
0.0
  3
*MODEL_SPACE
  1

  0
ENDBLK
  5
13C
330
1E
100
AcDbEntity
  8
0
100
AcDbBlockEnd
  0
BLOCK
  5
139
330
1A
100
AcDbEntity
 67
     1
  8
0
100
AcDbBlockBegin
  2
*PAPER_SPACE
 70
     0
 10
0.0
 20
0.0
 30
0.0
  3
*PAPER_SPACE
  1

  0
ENDBLK
  5
13A
330
1A
100
AcDbEntity
 67
     1
  8
0
100
AcDbBlockEnd
  0
ENDSEC
  0
SECTION
  2
ENTITIES
  0
LINE
  5
13E
330
1E
100
AcDbEntity
  8
7
100
AcDbLine
 10
36.93011811023621
 20
28.18700787401574
 30
0.0
 11
37.08562992125983
 21
28.18700787401574
 31
0.0
  0
LINE
  5
13F
330
1E
100
AcDbEntity
  8
7
100
AcDbLine
 10
36.92913385826771
 20
28.14665354330708
 30
0.0
 11
36.93011811023621
 21
28.18700787401574
 31
0.0
  0
LINE
  5
140
330
1E
100
AcDbEntity
  8
7
100
AcDbLine
 10
36.70964566929133
 20
28.14665354330708
 30
0.0
 11
36.92913385826771
 21
28.14665354330708
 31
0.0
  0
LINE
  5
141
330
1E
100
AcDbEntity
  8
7
100
AcDbLine
 10
36.70964566929133
 20
28.18700787401574
 30
0.0
 11
36.70964566929133
 21
28.14665354330708
 31
0.0
  0
LINE
  5
142
330
1E
100
AcDbEntity
  8
7
100
AcDbLine
 10
36.55314960629921
 20
28.18700787401574
 30
0.0
 11
36.70964566929133
 21
28.18700787401574
 31
0.0
  0
LINE
  5
143
330
1E
100
AcDbEntity
  8
7
100
AcDbLine
 10
36.50885826771653
 20
27.33267716535433
 30
0.0
 11
37.12992125984252
 21
27.33267716535433
 31
0.0
  0
LINE
  5
144
330
1E
100
AcDbEntity
  8
7
100
AcDbLine
 10
37.05905511811023
 20
26.91240157480315
 30
0.0
 11
37.12303149606299
 21
26.91240157480315
 31
0.0
  0
LINE
  5
145
330
1E
100
AcDbEntity
  8
7
100
AcDbLine
 10
37.12992125984252
 20
27.33267716535433
 30
0.0
 11
37.12303149606299
 21
26.91240157480315
 31
0.0
  0
LINE
  5
146
330
1E
100
AcDbEntity
  8
7
100
AcDbLine
 10
36.51574803149606
 20
26.91240157480315
 30
0.0
 11
36.50885826771653
 21
27.33267716535433
 31
0.0
  0
LINE
  5
147
330
1E
100
AcDbEntity
  8
7
100
AcDbLine
 10
36.57972440944881
 20
26.91240157480315
 30
0.0
 11
36.51574803149606
 21
26.91240157480315
 31
0.0
  0
LINE
  5
148
330
1E
100
AcDbEntity
  8
7
100
AcDbLine
 10
36.58169291338582
 20
26.81496062992126
 30
0.0
 11
36.57972440944881
 21
26.91240157480315
 31
0.0
  0
LINE
  5
149
330
1E
100
AcDbEntity
  8
7
100
AcDbLine
 10
37.05708661417323
 20
26.81496062992126
 30
0.0
 11
36.58169291338582
 21
26.81496062992126
 31
0.0
  0
LINE
  5
14A
330
1E
100
AcDbEntity
  8
7
100
AcDbLine
 10
37.05905511811023
 20
26.91240157480315
 30
0.0
 11
37.05708661417323
 21
26.81496062992126
 31
0.0
  0
LINE
  5
14B
330
1E
100
AcDbEntity
  8
7
100
AcDbLine
 10
37.05708661417323
 20
26.81496062992126
 30
0.0
 11
37.12106299212598
 21
26.81496062992126
 31
0.0
  0
LINE
  5
14C
330
1E
100
AcDbEntity
  8
7
100
AcDbLine
 10
36.51771653543306
 20
26.81496062992126
 30
0.0
 11
36.58169291338582
 21
26.81496062992126
 31
0.0
  0
LINE
  5
14D
330
1E
100
AcDbEntity
  8
7
100
AcDbLine
 10
36.51574803149606
 20
26.91240157480315
 30
0.0
 11
36.51771653543306
 21
26.81496062992126
 31
0.0
  0
LINE
  5
14E
330
1E
100
AcDbEntity
  8
7
100
AcDbLine
 10
37.12106299212598
 20
26.81496062992126
 30
0.0
 11
37.12303149606299
 21
26.91240157480315
 31
0.0
  0
LINE
  5
162
330
1E
100
AcDbEntity
  8
7
100
AcDbLine
 10
36.91535433070866
 20
28.18700787401574
 30
0.0
 11
36.72342519685039
 21
28.18700787401574
 31
0.0
  0
LINE
  5
168
330
1E
100
AcDbEntity
  8
7
100
AcDbLine
 10
37.08562992125983
 20
28.18700787401574
 30
0.0
 11
37.11515748031495
 21
28.18700787401574
 31
0.0
  0
LINE
  5
169
330
1E
100
AcDbEntity
  8
7
100
AcDbLine
 10
36.52362204724409
 20
28.18700787401574
 30
0.0
 11
36.55314960629921
 21
28.18700787401574
 31
0.0
  0
LINE
  5
180
330
1E
100
AcDbEntity
  8
7
100
AcDbLine
 10
36.7253937007874
 20
26.71850393700787
 30
0.0
 11
36.70669291338582
 21
26.71850393700787
 31
0.0
  0
LINE
  5
186
330
1E
100
AcDbEntity
  8
7
100
AcDbLine
 10
36.74704724409449
 20
26.71850393700787
 30
0.0
 11
36.75984251968503
 21
26.71850393700787
 31
0.0
  0
LINE
  5
1A1
330
1E
100
AcDbEntity
  8
7
100
AcDbLine
 10
36.88681102362204
 20
26.70275590551181
 30
0.0
 11
36.89271653543306
 21
26.70275590551181
 31
0.0
  0
LINE
  5
1A2
330
1E
100
AcDbEntity
  8
7
100
AcDbLine
 10
36.88976377952755
 20
26.73326771653543
 30
0.0
 11
36.88976377952755
 21
26.70275590551181
 31
0.0
  0
LINE
  5
1A3
330
1E
100
AcDbEntity
  8
7
100
AcDbLine
 10
36.88681102362204
 20
26.73326771653543
 30
0.0
 11
36.89271653543306
 21
26.73326771653543
 31
0.0
  0
LINE
  5
1A4
330
1E
100
AcDbEntity
  8
7
100
AcDbLine
 10
36.92421259842519
 20
26.73326771653543
 30
0.0
 11
36.92421259842519
 21
26.70275590551181
 31
0.0
  0
LINE
  5
1A5
330
1E
100
AcDbEntity
  8
7
100
AcDbLine
 10
36.93602362204724
 20
26.73326771653543
 30
0.0
 11
36.91141732283464
 21
26.73326771653543
 31
0.0
  0
LINE
  5
1A6
330
1E
100
AcDbEntity
  8
7
100
AcDbLine
 10
36.7263779527559
 20
26.76181102362204
 30
0.0
 11
36.72834645669291
 21
26.76181102362204
 31
0.0
  0
LINE
  5
1A7
330
1E
100
AcDbEntity
  8
7
100
AcDbLine
 10
36.91043307086614
 20
26.76181102362204
 30
0.0
 11
36.91338582677165
 21
26.76181102362204
 31
0.0
  0
LINE
  5
1AD
330
1E
100
AcDbEntity
  8
7
100
AcDbLine
 10
36.71259842519684
 20
26.77460629921259
 30
0.0
 11
36.71259842519684
 21
26.81496062992126
 31
0.0
  0
LINE
  5
1AE
330
1E
100
AcDbEntity
  8
7
100
AcDbLine
 10
36.99114173228346
 20
26.67224409448818
 30
0.0
 11
36.64763779527558
 21
26.67224409448818
 31
0.0
  0
LINE
  5
1AF
330
1E
100
AcDbEntity
  8
7
100
AcDbLine
 10
36.9261811023622
 20
26.77460629921259
 30
0.0
 11
36.9261811023622
 21
26.81496062992126
 31
0.0
  0
LINE
  5
1BB
330
1E
100
AcDbEntity
  8
7
100
AcDbLine
 10
36.93996062992126
 20
26.68700787401574
 30
0.0
 11
36.93996062992126
 21
26.74704724409449
 31
0.0
  0
LINE
  5
1C1
330
1E
100
AcDbEntity
  8
7
100
AcDbLine
 10
36.93996062992126
 20
26.74704724409449
 30
0.0
 11
36.69980314960629
 21
26.74704724409449
 31
0.0
  0
LINE
  5
1C2
330
1E
100
AcDbEntity
  8
7
100
AcDbLine
 10
37.0009842519685
 20
26.67224409448818
 30
0.0
 11
36.99803149606299
 21
26.67224409448818
 31
0.0
  0
LINE
  5
1C3
330
1E
100
AcDbEntity
  8
7
100
AcDbLine
 10
36.99803149606299
 20
26.67224409448818
 30
0.0
 11
36.99114173228346
 21
26.67224409448818
 31
0.0
  0
LINE
  5
1C9
330
1E
100
AcDbEntity
  8
7
100
AcDbLine
 10
36.74114173228346
 20
26.77460629921259
 30
0.0
 11
36.74114173228346
 21
26.81496062992126
 31
0.0
  0
LINE
  5
1CA
330
1E
100
AcDbEntity
  8
7
100
AcDbLine
 10
36.89763779527558
 20
26.81496062992126
 30
0.0
 11
36.89763779527558
 21
26.77460629921259
 31
0.0
  0
LINE
  5
1D9
330
1E
100
AcDbEntity
  8
7
100
AcDbLine
 10
36.63779527559055
 20
26.67224409448818
 30
0.0
 11
36.63779527559055
 21
26.81496062992126
 31
0.0
  0
LINE
  5
1DA
330
1E
100
AcDbEntity
  8
7
100
AcDbLine
 10
37.001968503937
 20
26.81496062992126
 30
0.0
 11
37.0009842519685
 21
26.67224409448818
 31
0.0
  0
LINE
  5
1DB
330
1E
100
AcDbEntity
  8
7
100
AcDbLine
 10
36.99114173228346
 20
27.7509842519685
 30
0.0
 11
36.64763779527558
 21
27.7509842519685
 31
0.0
  0
LINE
  5
1E6
330
1E
100
AcDbEntity
  8
7
100
AcDbLine
 10
36.63582677165354
 20
27.33267716535433
 30
0.0
 11
36.63779527559055
 21
27.7509842519685
 31
0.0
  0
LINE
  5
1E7
330
1E
100
AcDbEntity
  8
7
100
AcDbLine
 10
37.0009842519685
 20
27.7509842519685
 30
0.0
 11
37.00295275590551
 21
27.33267716535433
 31
0.0
  0
LINE
  5
1E8
330
1E
100
AcDbEntity
  8
7
100
AcDbLine
 10
36.67027559055117
 20
25.44192913385826
 30
0.0
 11
36.67027559055117
 21
25.6023622047244
 31
0.0
  0
LINE
  5
1E9
330
1E
100
AcDbEntity
  8
7
100
AcDbLine
 10
36.67027559055117
 20
25.19586614173228
 30
0.0
 11
36.67027559055117
 21
25.35531496062992
 31
0.0
  0
LINE
  5
1EF
330
1E
100
AcDbEntity
  8
7
100
AcDbLine
 10
37.12992125984252
 20
25.30314960629921
 30
0.0
 11
37.12992125984252
 21
25.74114173228346
 31
0.0
  0
LINE
  5
1F0
330
1E
100
AcDbEntity
  8
7
100
AcDbLine
 10
37.05708661417323
 20
25.73228346456692
 30
0.0
 11
36.58169291338582
 21
25.73228346456692
 31
0.0
  0
LINE
  5
1F7
330
1E
100
AcDbEntity
  8
7
100
AcDbLine
 10
36.91437007874015
 20
25.71358267716535
 30
0.0
 11
36.72440944881889
 21
25.71358267716535
 31
0.0
  0
LINE
  5
1FD
330
1E
100
AcDbEntity
  8
7
100
AcDbLine
 10
36.92913385826771
 20
25.66141732283464
 30
0.0
 11
36.92913385826771
 21
25.69881889763779
 31
0.0
  0
LINE
  5
1FE
330
1E
100
AcDbEntity
  8
7
100
AcDbLine
 10
37.00688976377952
 20
25.66141732283464
 30
0.0
 11
36.92913385826771
 21
25.66141732283464
 31
0.0
  0
LINE
  5
1FF
330
1E
100
AcDbEntity
  8
7
100
AcDbLine
 10
37.00688976377952
 20
25.14665354330708
 30
0.0
 11
37.00688976377952
 21
25.66141732283464
 31
0.0
  0
LINE
  5
200
330
1E
100
AcDbEntity
  8
7
100
AcDbLine
 10
36.99606299212598
 20
25.14665354330708
 30
0.0
 11
37.00688976377952
 21
25.14665354330708
 31
0.0
  0
LINE
  5
201
330
1E
100
AcDbEntity
  8
7
100
AcDbLine
 10
36.92913385826771
 20
25.10334645669291
 30
0.0
 11
36.92913385826771
 21
25.14468503937008
 31
0.0
  0
LINE
  5
207
330
1E
100
AcDbEntity
  8
7
100
AcDbLine
 10
36.72440944881889
 20
25.08858267716535
 30
0.0
 11
36.91437007874015
 21
25.08858267716535
 31
0.0
  0
LINE
  5
20E
330
1E
100
AcDbEntity
  8
7
100
AcDbLine
 10
36.63188976377952
 20
25.14665354330708
 30
0.0
 11
36.64271653543306
 21
25.14665354330708
 31
0.0
  0
LINE
  5
20F
330
1E
100
AcDbEntity
  8
7
100
AcDbLine
 10
36.63188976377952
 20
25.14665354330708
 30
0.0
 11
36.63188976377952
 21
25.66141732283464
 31
0.0
  0
LINE
  5
210
330
1E
100
AcDbEntity
  8
7
100
AcDbLine
 10
36.70964566929133
 20
25.66141732283464
 30
0.0
 11
36.63188976377952
 21
25.66141732283464
 31
0.0
  0
LINE
  5
211
330
1E
100
AcDbEntity
  8
7
100
AcDbLine
 10
37.05708661417323
 20
25.66043307086614
 30
0.0
 11
37.12106299212598
 21
25.66043307086614
 31
0.0
  0
LINE
  5
212
330
1E
100
AcDbEntity
  8
7
100
AcDbLine
 10
37.05708661417323
 20
25.73228346456692
 30
0.0
 11
37.05708661417323
 21
25.66043307086614
 31
0.0
  0
LINE
  5
213
330
1E
100
AcDbEntity
  8
7
100
AcDbLine
 10
36.58169291338582
 20
25.66043307086614
 30
0.0
 11
36.58169291338582
 21
25.73228346456692
 31
0.0
  0
LINE
  5
214
330
1E
100
AcDbEntity
  8
7
100
AcDbLine
 10
36.51771653543306
 20
25.66043307086614
 30
0.0
 11
36.58169291338582
 21
25.66043307086614
 31
0.0
  0
LINE
  5
215
330
1E
100
AcDbEntity
  8
7
100
AcDbLine
 10
36.51771653543306
 20
25.02362204724409
 30
0.0
 11
36.51771653543306
 21
25.66043307086614
 31
0.0
  0
LINE
  5
21B
330
1E
100
AcDbEntity
  8
7
100
AcDbLine
 10
36.50885826771653
 20
25.02362204724409
 30
0.0
 11
36.50885826771653
 21
25.30314960629921
 31
0.0
  0
LINE
  5
21C
330
1E
100
AcDbEntity
  8
7
100
AcDbLine
 10
36.50885826771653
 20
25.02362204724409
 30
0.0
 11
36.51771653543306
 21
25.02362204724409
 31
0.0
  0
LINE
  5
222
330
1E
100
AcDbEntity
  8
7
100
AcDbLine
 10
36.7263779527559
 20
25.21850393700787
 30
0.0
 11
36.91338582677165
 21
25.21850393700787
 31
0.0
  0
LINE
  5
223
330
1E
100
AcDbEntity
  8
7
100
AcDbLine
 10
36.91338582677165
 20
25.57874015748031
 30
0.0
 11
36.7263779527559
 21
25.57874015748031
 31
0.0
  0
LINE
  5
224
330
1E
100
AcDbEntity
  8
7
100
AcDbLine
 10
36.64566929133858
 20
25.65255905511811
 30
0.0
 11
36.64763779527558
 21
25.65255905511811
 31
0.0
  0
LINE
  5
225
330
1E
100
AcDbEntity
  8
7
100
AcDbLine
 10
36.99114173228346
 20
25.65255905511811
 30
0.0
 11
36.64763779527558
 21
25.65255905511811
 31
0.0
  0
LINE
  5
226
330
1E
100
AcDbEntity
  8
7
100
AcDbLine
 10
36.99114173228346
 20
25.65255905511811
 30
0.0
 11
36.99311023622046
 21
25.65255905511811
 31
0.0
  0
LINE
  5
227
330
1E
100
AcDbEntity
  8
7
100
AcDbLine
 10
36.99114173228346
 20
25.14468503937008
 30
0.0
 11
36.64763779527558
 21
25.14468503937008
 31
0.0
  0
LINE
  5
250
330
1E
100
AcDbEntity
  8
7
100
AcDbLine
 10
36.67224409448818
 20
25.43996062992126
 30
0.0
 11
36.67027559055117
 21
25.44192913385826
 31
0.0
  0
LINE
  5
25B
330
1E
100
AcDbEntity
  8
7
100
AcDbLine
 10
36.67224409448818
 20
25.35826771653543
 30
0.0
 11
36.67224409448818
 21
25.36220472440945
 31
0.0
  0
LINE
  5
26F
330
1E
100
AcDbEntity
  8
7
100
AcDbLine
 10
36.71161417322834
 20
25.22047244094488
 30
0.0
 11
36.71259842519684
 21
25.21850393700787
 31
0.0
  0
LINE
  5
270
330
1E
100
AcDbEntity
  8
7
100
AcDbLine
 10
36.67027559055117
 20
25.21850393700787
 30
0.0
 11
36.96850393700787
 21
25.21850393700787
 31
0.0
  0
LINE
  5
271
330
1E
100
AcDbEntity
  8
7
100
AcDbLine
 10
36.9261811023622
 20
25.21850393700787
 30
0.0
 11
36.9271653543307
 21
25.22047244094488
 31
0.0
  0
LINE
  5
27C
330
1E
100
AcDbEntity
  8
7
100
AcDbLine
 10
36.9271653543307
 20
25.57677165354331
 30
0.0
 11
36.9261811023622
 21
25.57874015748031
 31
0.0
  0
LINE
  5
27D
330
1E
100
AcDbEntity
  8
7
100
AcDbLine
 10
36.96850393700787
 20
25.57874015748031
 30
0.0
 11
36.67027559055117
 21
25.57874015748031
 31
0.0
  0
LINE
  5
27E
330
1E
100
AcDbEntity
  8
7
100
AcDbLine
 10
36.71259842519684
 20
25.57874015748031
 30
0.0
 11
36.71161417322834
 21
25.57677165354331
 31
0.0
  0
LINE
  5
289
330
1E
100
AcDbEntity
  8
7
100
AcDbLine
 10
36.9281496062992
 20
25.24114173228346
 30
0.0
 11
36.9281496062992
 21
25.55708661417322
 31
0.0
  0
LINE
  5
28A
330
1E
100
AcDbEntity
  8
7
100
AcDbLine
 10
36.71161417322834
 20
25.55708661417322
 30
0.0
 11
36.71161417322834
 21
25.24114173228346
 31
0.0
  0
LINE
  5
29B
330
1E
100
AcDbEntity
  8
7
100
AcDbLine
 10
36.74114173228346
 20
25.13877952755905
 30
0.0
 11
36.74114173228346
 21
25.14468503937008
 31
0.0
  0
LINE
  5
29C
330
1E
100
AcDbEntity
  8
7
100
AcDbLine
 10
36.74212598425196
 20
25.08956692913386
 30
0.0
 11
36.74114173228346
 21
25.13877952755905
 31
0.0
  0
LINE
  5
2A7
330
1E
100
AcDbEntity
  8
7
100
AcDbLine
 10
36.89763779527558
 20
25.65846456692913
 30
0.0
 11
36.89763779527558
 21
25.65255905511811
 31
0.0
  0
LINE
  5
2A8
330
1E
100
AcDbEntity
  8
7
100
AcDbLine
 10
36.89665354330708
 20
25.70767716535433
 30
0.0
 11
36.89763779527558
 21
25.65846456692913
 31
0.0
  0
LINE
  5
2A9
330
1E
100
AcDbEntity
  8
7
100
AcDbLine
 10
36.74212598425196
 20
25.70767716535433
 30
0.0
 11
36.89665354330708
 21
25.70767716535433
 31
0.0
  0
LINE
  5
2AA
330
1E
100
AcDbEntity
  8
7
100
AcDbLine
 10
36.8523622047244
 20
25.6761811023622
 30
0.0
 11
36.8523622047244
 21
25.7007874015748
 31
0.0
  0
LINE
  5
2AB
330
1E
100
AcDbEntity
  8
7
100
AcDbLine
 10
36.78740157480314
 20
25.6761811023622
 30
0.0
 11
36.8523622047244
 21
25.6761811023622
 31
0.0
  0
LINE
  5
2AC
330
1E
100
AcDbEntity
  8
7
100
AcDbLine
 10
36.78641732283464
 20
25.7007874015748
 30
0.0
 11
36.78740157480314
 21
25.6761811023622
 31
0.0
  0
LINE
  5
2AD
330
1E
100
AcDbEntity
  8
7
100
AcDbLine
 10
36.8523622047244
 20
25.7007874015748
 30
0.0
 11
36.78641732283464
 21
25.7007874015748
 31
0.0
  0
LINE
  5
2AE
330
1E
100
AcDbEntity
  8
7
100
AcDbLine
 10
36.78641732283464
 20
25.09645669291338
 30
0.0
 11
36.8523622047244
 21
25.09645669291338
 31
0.0
  0
LINE
  5
2AF
330
1E
100
AcDbEntity
  8
7
100
AcDbLine
 10
36.78740157480314
 20
25.12204724409448
 30
0.0
 11
36.78641732283464
 21
25.09645669291338
 31
0.0
  0
LINE
  5
2B0
330
1E
100
AcDbEntity
  8
7
100
AcDbLine
 10
36.8523622047244
 20
25.12204724409448
 30
0.0
 11
36.78740157480314
 21
25.12204724409448
 31
0.0
  0
LINE
  5
2B1
330
1E
100
AcDbEntity
  8
7
100
AcDbLine
 10
36.8523622047244
 20
25.09645669291338
 30
0.0
 11
36.8523622047244
 21
25.12204724409448
 31
0.0
  0
LINE
  5
2BC
330
1E
100
AcDbEntity
  8
7
100
AcDbLine
 10
36.96850393700787
 20
25.19980314960629
 30
0.0
 11
36.97342519685039
 21
25.19586614173228
 31
0.0
  0
LINE
  5
2BD
330
1E
100
AcDbEntity
  8
7
100
AcDbLine
 10
36.96850393700787
 20
25.59744094488189
 30
0.0
 11
36.97342519685039
 21
25.6023622047244
 31
0.0
  0
LINE
  5
2D2
330
1E
100
AcDbEntity
  8
7
100
AcDbLine
 10
36.76771653543307
 20
25.40846456692913
 30
0.0
 11
36.76574803149605
 21
25.40846456692913
 31
0.0
  0
LINE
  5
2D3
330
1E
100
AcDbEntity
  8
7
100
AcDbLine
 10
36.76574803149605
 20
25.38877952755905
 30
0.0
 11
36.76771653543307
 21
25.38877952755905
 31
0.0
  0
LINE
  5
2F6
330
1E
100
AcDbEntity
  8
7
100
AcDbLine
 10
36.92027559055118
 20
25.2263779527559
 30
0.0
 11
36.71850393700787
 21
25.2263779527559
 31
0.0
  0
LINE
  5
2F7
330
1E
100
AcDbEntity
  8
7
100
AcDbLine
 10
36.71161417322834
 20
25.2263779527559
 30
0.0
 11
36.71850393700787
 21
25.2263779527559
 31
0.0
  0
LINE
  5
2F8
330
1E
100
AcDbEntity
  8
7
100
AcDbLine
 10
36.92027559055118
 20
25.56889763779527
 30
0.0
 11
36.9281496062992
 21
25.56889763779527
 31
0.0
  0
LINE
  5
2F9
330
1E
100
AcDbEntity
  8
7
100
AcDbLine
 10
36.71850393700787
 20
25.56889763779527
 30
0.0
 11
36.92027559055118
 21
25.56889763779527
 31
0.0
  0
LINE
  5
304
330
1E
100
AcDbEntity
  8
7
100
AcDbLine
 10
36.71850393700787
 20
25.5521653543307
 30
0.0
 11
36.71850393700787
 21
25.55708661417322
 31
0.0
  0
LINE
  5
30B
330
1E
100
AcDbEntity
  8
7
100
AcDbLine
 10
36.92027559055118
 20
25.53838582677165
 30
0.0
 11
36.89665354330708
 21
25.53838582677165
 31
0.0
  0
LINE
  5
31F
330
1E
100
AcDbEntity
  8
7
100
AcDbLine
 10
36.71850393700787
 20
25.55708661417322
 30
0.0
 11
36.71850393700787
 21
25.56102362204724
 31
0.0
  0
LINE
  5
325
330
1E
100
AcDbEntity
  8
7
100
AcDbLine
 10
36.89665354330708
 20
25.501968503937
 30
0.0
 11
36.74212598425196
 21
25.501968503937
 31
0.0
  0
LINE
  5
326
330
1E
100
AcDbEntity
  8
7
100
AcDbLine
 10
36.89665354330708
 20
25.52066929133858
 30
0.0
 11
36.74212598425196
 21
25.52066929133858
 31
0.0
  0
LINE
  5
327
330
1E
100
AcDbEntity
  8
7
100
AcDbLine
 10
36.74212598425196
 20
25.25688976377952
 30
0.0
 11
36.74212598425196
 21
25.27460629921259
 31
0.0
  0
LINE
  5
328
330
1E
100
AcDbEntity
  8
7
100
AcDbLine
 10
36.74212598425196
 20
25.29330708661417
 30
0.0
 11
36.74212598425196
 21
25.27460629921259
 31
0.0
  0
LINE
  5
329
330
1E
100
AcDbEntity
  8
7
100
AcDbLine
 10
36.89665354330708
 20
25.27460629921259
 30
0.0
 11
36.89665354330708
 21
25.29330708661417
 31
0.0
  0
LINE
  5
32A
330
1E
100
AcDbEntity
  8
7
100
AcDbLine
 10
36.89665354330708
 20
25.27460629921259
 30
0.0
 11
36.89665354330708
 21
25.25688976377952
 31
0.0
  0
LINE
  5
32B
330
1E
100
AcDbEntity
  8
7
100
AcDbLine
 10
36.92027559055118
 20
25.24311023622047
 30
0.0
 11
36.92027559055118
 21
25.23818897637795
 31
0.0
  0
LINE
  5
33F
330
1E
100
AcDbEntity
  8
7
100
AcDbLine
 10
36.71850393700787
 20
25.25688976377952
 30
0.0
 11
36.74212598425196
 21
25.25688976377952
 31
0.0
  0
LINE
  5
34C
330
1E
100
AcDbEntity
  8
7
100
AcDbLine
 10
36.89665354330708
 20
25.29330708661417
 30
0.0
 11
36.74212598425196
 21
25.29330708661417
 31
0.0
  0
LINE
  5
34D
330
1E
100
AcDbEntity
  8
7
100
AcDbLine
 10
36.74212598425196
 20
25.27460629921259
 30
0.0
 11
36.89665354330708
 21
25.27460629921259
 31
0.0
  0
LINE
  5
3AF
330
1E
100
AcDbEntity
  8
7
100
AcDbLine
 10
36.92027559055118
 20
25.23326771653543
 30
0.0
 11
36.71850393700787
 21
25.23326771653543
 31
0.0
  0
LINE
  5
3B0
330
1E
100
AcDbEntity
  8
7
100
AcDbLine
 10
36.71850393700787
 20
25.56200787401575
 30
0.0
 11
36.92027559055118
 21
25.56200787401575
 31
0.0
  0
LINE
  5
3B1
330
1E
100
AcDbEntity
  8
7
100
AcDbLine
 10
36.71850393700787
 20
25.25393700787401
 30
0.0
 11
36.92027559055118
 21
25.25393700787401
 31
0.0
  0
LINE
  5
3B2
330
1E
100
AcDbEntity
  8
7
100
AcDbLine
 10
36.92027559055118
 20
25.54133858267716
 30
0.0
 11
36.71850393700787
 21
25.54133858267716
 31
0.0
  0
LINE
  5
3B3
330
1E
100
AcDbEntity
  8
7
100
AcDbLine
 10
38.75393700787401
 20
25.30314960629921
 30
0.0
 11
38.75393700787401
 21
25.74114173228346
 31
0.0
  0
LINE
  5
3B9
330
1E
100
AcDbEntity
  8
7
100
AcDbLine
 10
38.23622047244094
 20
25.73228346456692
 30
0.0
 11
38.23622047244094
 21
25.66043307086614
 31
0.0
  0
LINE
  5
3BA
330
1E
100
AcDbEntity
  8
7
100
AcDbLine
 10
38.23622047244094
 20
25.02362204724409
 30
0.0
 11
38.23622047244094
 21
25.66043307086614
 31
0.0
  0
LINE
  5
3C0
330
1E
100
AcDbEntity
  8
7
100
AcDbLine
 10
38.23622047244094
 20
25.66043307086614
 30
0.0
 11
38.33464566929133
 21
25.66437007874015
 31
0.0
  0
LINE
  5
3C1
330
1E
100
AcDbEntity
  8
7
100
AcDbLine
 10
38.75393700787401
 20
25.02362204724409
 30
0.0
 11
38.75393700787401
 21
25.30314960629921
 31
0.0
  0
LINE
  5
3C2
330
1E
100
AcDbEntity
  8
7
100
AcDbLine
 10
38.33464566929133
 20
25.66437007874015
 30
0.0
 11
38.33464566929133
 21
25.73425196850394
 31
0.0
  0
LINE
  5
3CB
330
1E
100
AcDbEntity
  8
7
100
AcDbLine
 10
38.09350393700787
 20
25.65255905511811
 30
0.0
 11
38.23622047244094
 21
25.65255905511811
 31
0.0
  0
LINE
  5
3CC
330
1E
100
AcDbEntity
  8
7
100
AcDbLine
 10
38.23622047244094
 20
25.14468503937008
 30
0.0
 11
38.09350393700787
 21
25.14468503937008
 31
0.0
  0
LINE
  5
3D8
330
1E
100
AcDbEntity
  8
7
100
AcDbLine
 10
38.19685039370078
 20
25.14468503937008
 30
0.0
 11
38.23622047244094
 21
25.14074803149606
 31
0.0
  0
LINE
  5
3D9
330
1E
100
AcDbEntity
  8
7
100
AcDbLine
 10
38.23622047244094
 20
25.65748031496063
 30
0.0
 11
38.19685039370078
 21
25.65255905511811
 31
0.0
  0
LINE
  5
3E4
330
1E
100
AcDbEntity
  8
7
100
AcDbLine
 10
38.75393700787401
 20
25.65255905511811
 30
0.0
 11
39.17322834645668
 21
25.6505905511811
 31
0.0
  0
LINE
  5
3E5
330
1E
100
AcDbEntity
  8
7
100
AcDbLine
 10
39.17322834645668
 20
25.6505905511811
 30
0.0
 11
39.17322834645668
 21
25.64763779527559
 31
0.0
  0
LINE
  5
3E6
330
1E
100
AcDbEntity
  8
7
100
AcDbLine
 10
39.17322834645668
 20
25.64763779527559
 30
0.0
 11
39.17322834645668
 21
25.64074803149606
 31
0.0
  0
LINE
  5
3E7
330
1E
100
AcDbEntity
  8
7
100
AcDbLine
 10
39.17322834645668
 20
25.64074803149606
 30
0.0
 11
39.17322834645668
 21
25.18405511811023
 31
0.0
  0
LINE
  5
3E8
330
1E
100
AcDbEntity
  8
7
100
AcDbLine
 10
38.09350393700787
 20
25.14468503937008
 30
0.0
 11
38.09350393700787
 21
25.14763779527559
 31
0.0
  0
LINE
  5
3E9
330
1E
100
AcDbEntity
  8
7
100
AcDbLine
 10
38.09350393700787
 20
25.14763779527559
 30
0.0
 11
38.09350393700787
 21
25.15452755905512
 31
0.0
  0
LINE
  5
3EA
330
1E
100
AcDbEntity
  8
7
100
AcDbLine
 10
38.09350393700787
 20
25.15452755905512
 30
0.0
 11
38.09350393700787
 21
25.64271653543307
 31
0.0
  0
LINE
  5
3EB
330
1E
100
AcDbEntity
  8
7
100
AcDbLine
 10
38.09350393700787
 20
25.64271653543307
 30
0.0
 11
38.09350393700787
 21
25.64960629921259
 31
0.0
  0
LINE
  5
3EC
330
1E
100
AcDbEntity
  8
7
100
AcDbLine
 10
38.09350393700787
 20
25.64960629921259
 30
0.0
 11
38.09350393700787
 21
25.65255905511811
 31
0.0
  0
LINE
  5
3ED
330
1E
100
AcDbEntity
  8
7
100
AcDbLine
 10
39.60826771653543
 20
25.02362204724409
 30
0.0
 11
39.60826771653543
 21
25.08464566929133
 31
0.0
  0
LINE
  5
3EE
330
1E
100
AcDbEntity
  8
7
100
AcDbLine
 10
39.60826771653543
 20
25.08464566929133
 30
0.0
 11
38.7775590551181
 21
25.27460629921259
 31
0.0
  0
LINE
  5
3EF
330
1E
100
AcDbEntity
  8
7
100
AcDbLine
 10
38.7775590551181
 20
25.27460629921259
 30
0.0
 11
38.76574803149606
 21
25.28051181102362
 31
0.0
  0
LINE
  5
3F0
330
1E
100
AcDbEntity
  8
7
100
AcDbLine
 10
38.76574803149606
 20
25.28051181102362
 30
0.0
 11
38.75688976377952
 21
25.29035433070866
 31
0.0
  0
LINE
  5
3F1
330
1E
100
AcDbEntity
  8
7
100
AcDbLine
 10
38.75688976377952
 20
25.29035433070866
 30
0.0
 11
38.75393700787401
 21
25.30314960629921
 31
0.0
  0
LINE
  5
3F2
330
1E
100
AcDbEntity
  8
7
100
AcDbLine
 10
38.23622047244094
 20
25.02362204724409
 30
0.0
 11
38.75393700787401
 21
25.02362204724409
 31
0.0
  0
LINE
  5
3F3
330
1E
100
AcDbEntity
  8
7
100
AcDbLine
 10
38.75393700787401
 20
25.02362204724409
 30
0.0
 11
39.60826771653543
 21
25.02362204724409
 31
0.0
  0
LINE
  5
3F4
330
1E
100
AcDbEntity
  8
7
100
AcDbLine
 10
38.75393700787401
 20
25.74114173228346
 30
0.0
 11
38.33464566929133
 21
25.73425196850394
 31
0.0
  0
LINE
  5
3F5
330
1E
100
AcDbEntity
  8
7
100
AcDbLine
 10
38.33464566929133
 20
25.73425196850394
 30
0.0
 11
38.23622047244094
 21
25.73228346456692
 31
0.0
  0
LINE
  5
3F6
330
1E
100
AcDbEntity
  8
7
100
AcDbLine
 10
36.76968503937007
 20
25.41830708661417
 30
0.0
 11
36.76574803149605
 21
25.39763779527559
 31
0.0
  0
LINE
  5
3F7
330
1E
100
AcDbEntity
  8
7
100
AcDbLine
 10
36.76574803149605
 20
25.39763779527559
 30
0.0
 11
36.76968503937007
 21
25.376968503937
 31
0.0
  0
LINE
  5
3F8
330
1E
100
AcDbEntity
  8
7
100
AcDbLine
 10
36.76968503937007
 20
25.376968503937
 30
0.0
 11
36.78149606299212
 21
25.35925196850393
 31
0.0
  0
LINE
  5
3F9
330
1E
100
AcDbEntity
  8
7
100
AcDbLine
 10
36.78149606299212
 20
25.35925196850393
 30
0.0
 11
36.79921259842519
 21
25.34744094488189
 31
0.0
  0
LINE
  5
3FA
330
1E
100
AcDbEntity
  8
7
100
AcDbLine
 10
36.79921259842519
 20
25.34744094488189
 30
0.0
 11
36.81988188976378
 21
25.34350393700787
 31
0.0
  0
LINE
  5
3FB
330
1E
100
AcDbEntity
  8
7
100
AcDbLine
 10
36.81988188976378
 20
25.34350393700787
 30
0.0
 11
36.84055118110236
 21
25.34744094488189
 31
0.0
  0
LINE
  5
3FC
330
1E
100
AcDbEntity
  8
7
100
AcDbLine
 10
36.84055118110236
 20
25.34744094488189
 30
0.0
 11
36.85826771653543
 21
25.35925196850393
 31
0.0
  0
LINE
  5
3FD
330
1E
100
AcDbEntity
  8
7
100
AcDbLine
 10
36.85826771653543
 20
25.35925196850393
 30
0.0
 11
36.87007874015748
 21
25.376968503937
 31
0.0
  0
LINE
  5
3FE
330
1E
100
AcDbEntity
  8
7
100
AcDbLine
 10
36.87007874015748
 20
25.376968503937
 30
0.0
 11
36.87401574803149
 21
25.39763779527559
 31
0.0
  0
LINE
  5
3FF
330
1E
100
AcDbEntity
  8
7
100
AcDbLine
 10
36.87401574803149
 20
25.39763779527559
 30
0.0
 11
36.87007874015748
 21
25.41830708661417
 31
0.0
  0
LINE
  5
400
330
1E
100
AcDbEntity
  8
7
100
AcDbLine
 10
36.87007874015748
 20
25.41830708661417
 30
0.0
 11
36.85826771653543
 21
25.43602362204724
 31
0.0
  0
LINE
  5
401
330
1E
100
AcDbEntity
  8
7
100
AcDbLine
 10
36.85826771653543
 20
25.43602362204724
 30
0.0
 11
36.84055118110236
 21
25.44783464566929
 31
0.0
  0
LINE
  5
402
330
1E
100
AcDbEntity
  8
7
100
AcDbLine
 10
36.84055118110236
 20
25.44783464566929
 30
0.0
 11
36.81988188976378
 21
25.4517716535433
 31
0.0
  0
LINE
  5
403
330
1E
100
AcDbEntity
  8
7
100
AcDbLine
 10
36.81988188976378
 20
25.4517716535433
 30
0.0
 11
36.79921259842519
 21
25.44783464566929
 31
0.0
  0
LINE
  5
404
330
1E
100
AcDbEntity
  8
7
100
AcDbLine
 10
36.79921259842519
 20
25.44783464566929
 30
0.0
 11
36.78149606299212
 21
25.43602362204724
 31
0.0
  0
LINE
  5
405
330
1E
100
AcDbEntity
  8
7
100
AcDbLine
 10
36.78149606299212
 20
25.43602362204724
 30
0.0
 11
36.76968503937007
 21
25.41830708661417
 31
0.0
  0
LINE
  5
406
330
1E
100
AcDbEntity
  8
7
100
AcDbLine
 10
36.75787401574803
 20
25.46456692913386
 30
0.0
 11
36.74015748031495
 21
25.44389763779527
 31
0.0
  0
LINE
  5
407
330
1E
100
AcDbEntity
  8
7
100
AcDbLine
 10
36.74015748031495
 20
25.44389763779527
 30
0.0
 11
36.73031496062991
 21
25.41830708661417
 31
0.0
  0
LINE
  5
408
330
1E
100
AcDbEntity
  8
7
100
AcDbLine
 10
36.73031496062991
 20
25.41830708661417
 30
0.0
 11
36.72834645669291
 21
25.39074803149606
 31
0.0
  0
LINE
  5
409
330
1E
100
AcDbEntity
  8
7
100
AcDbLine
 10
36.72834645669291
 20
25.39074803149606
 30
0.0
 11
36.73425196850393
 21
25.36417322834645
 31
0.0
  0
LINE
  5
40A
330
1E
100
AcDbEntity
  8
7
100
AcDbLine
 10
36.73425196850393
 20
25.36417322834645
 30
0.0
 11
36.74803149606299
 21
25.34055118110236
 31
0.0
  0
LINE
  5
40B
330
1E
100
AcDbEntity
  8
7
100
AcDbLine
 10
36.74803149606299
 20
25.34055118110236
 30
0.0
 11
36.76870078740157
 21
25.32185039370078
 31
0.0
  0
LINE
  5
40C
330
1E
100
AcDbEntity
  8
7
100
AcDbLine
 10
36.76870078740157
 20
25.32185039370078
 30
0.0
 11
36.79330708661417
 21
25.31003937007874
 31
0.0
  0
LINE
  5
40D
330
1E
100
AcDbEntity
  8
7
100
AcDbLine
 10
36.79330708661417
 20
25.31003937007874
 30
0.0
 11
36.81988188976378
 21
25.30610236220472
 31
0.0
  0
LINE
  5
40E
330
1E
100
AcDbEntity
  8
7
100
AcDbLine
 10
36.81988188976378
 20
25.30610236220472
 30
0.0
 11
36.84645669291338
 21
25.31003937007874
 31
0.0
  0
LINE
  5
40F
330
1E
100
AcDbEntity
  8
7
100
AcDbLine
 10
36.84645669291338
 20
25.31003937007874
 30
0.0
 11
36.87106299212598
 21
25.32185039370078
 31
0.0
  0
LINE
  5
410
330
1E
100
AcDbEntity
  8
7
100
AcDbLine
 10
36.87106299212598
 20
25.32185039370078
 30
0.0
 11
36.89173228346456
 21
25.34055118110236
 31
0.0
  0
LINE
  5
411
330
1E
100
AcDbEntity
  8
7
100
AcDbLine
 10
36.89173228346456
 20
25.34055118110236
 30
0.0
 11
36.90551181102362
 21
25.36417322834645
 31
0.0
  0
LINE
  5
412
330
1E
100
AcDbEntity
  8
7
100
AcDbLine
 10
36.90551181102362
 20
25.36417322834645
 30
0.0
 11
36.91141732283464
 21
25.39074803149606
 31
0.0
  0
LINE
  5
413
330
1E
100
AcDbEntity
  8
7
100
AcDbLine
 10
36.91141732283464
 20
25.39074803149606
 30
0.0
 11
36.90944881889763
 21
25.41830708661417
 31
0.0
  0
LINE
  5
414
330
1E
100
AcDbEntity
  8
7
100
AcDbLine
 10
36.90944881889763
 20
25.41830708661417
 30
0.0
 11
36.89960629921259
 21
25.44291338582677
 31
0.0
  0
LINE
  5
415
330
1E
100
AcDbEntity
  8
7
100
AcDbLine
 10
36.89960629921259
 20
25.44291338582677
 30
0.0
 11
36.88188976377952
 21
25.46456692913386
 31
0.0
  0
LINE
  5
416
330
1E
100
AcDbEntity
  8
7
100
AcDbLine
 10
36.88188976377952
 20
25.46456692913386
 30
0.0
 11
36.85925196850393
 21
25.48031496062991
 31
0.0
  0
LINE
  5
417
330
1E
100
AcDbEntity
  8
7
100
AcDbLine
 10
36.85925196850393
 20
25.48031496062991
 30
0.0
 11
36.83366141732283
 21
25.48818897637795
 31
0.0
  0
LINE
  5
418
330
1E
100
AcDbEntity
  8
7
100
AcDbLine
 10
36.83366141732283
 20
25.48818897637795
 30
0.0
 11
36.80610236220472
 21
25.48818897637795
 31
0.0
  0
LINE
  5
419
330
1E
100
AcDbEntity
  8
7
100
AcDbLine
 10
36.80610236220472
 20
25.48818897637795
 30
0.0
 11
36.78051181102362
 21
25.48031496062991
 31
0.0
  0
LINE
  5
41A
330
1E
100
AcDbEntity
  8
7
100
AcDbLine
 10
36.78051181102362
 20
25.48031496062991
 30
0.0
 11
36.75787401574803
 21
25.46456692913386
 31
0.0
  0
LINE
  5
41B
330
1E
100
AcDbEntity
  8
7
100
AcDbLine
 10
36.75885826771653
 20
25.43307086614173
 30
0.0
 11
36.75
 21
25.41043307086614
 31
0.0
  0
LINE
  5
41C
330
1E
100
AcDbEntity
  8
7
100
AcDbLine
 10
36.75
 20
25.41043307086614
 30
0.0
 11
36.75
 21
25.38484251968503
 31
0.0
  0
LINE
  5
41D
330
1E
100
AcDbEntity
  8
7
100
AcDbLine
 10
36.75
 20
25.38484251968503
 30
0.0
 11
36.75885826771653
 21
25.36220472440945
 31
0.0
  0
LINE
  5
41E
330
1E
100
AcDbEntity
  8
7
100
AcDbLine
 10
36.75885826771653
 20
25.36220472440945
 30
0.0
 11
36.77460629921259
 21
25.34350393700787
 31
0.0
  0
LINE
  5
41F
330
1E
100
AcDbEntity
  8
7
100
AcDbLine
 10
36.77460629921259
 20
25.34350393700787
 30
0.0
 11
36.79527559055117
 21
25.33070866141732
 31
0.0
  0
LINE
  5
420
330
1E
100
AcDbEntity
  8
7
100
AcDbLine
 10
36.79527559055117
 20
25.33070866141732
 30
0.0
 11
36.81988188976378
 21
25.3267716535433
 31
0.0
  0
LINE
  5
421
330
1E
100
AcDbEntity
  8
7
100
AcDbLine
 10
36.81988188976378
 20
25.3267716535433
 30
0.0
 11
36.84448818897637
 21
25.33070866141732
 31
0.0
  0
LINE
  5
422
330
1E
100
AcDbEntity
  8
7
100
AcDbLine
 10
36.84448818897637
 20
25.33070866141732
 30
0.0
 11
36.86515748031495
 21
25.34350393700787
 31
0.0
  0
LINE
  5
423
330
1E
100
AcDbEntity
  8
7
100
AcDbLine
 10
36.86515748031495
 20
25.34350393700787
 30
0.0
 11
36.88090551181102
 21
25.36220472440945
 31
0.0
  0
LINE
  5
424
330
1E
100
AcDbEntity
  8
7
100
AcDbLine
 10
36.88090551181102
 20
25.36220472440945
 30
0.0
 11
36.88976377952755
 21
25.38484251968503
 31
0.0
  0
LINE
  5
425
330
1E
100
AcDbEntity
  8
7
100
AcDbLine
 10
36.88976377952755
 20
25.38484251968503
 30
0.0
 11
36.88976377952755
 21
25.41043307086614
 31
0.0
  0
LINE
  5
426
330
1E
100
AcDbEntity
  8
7
100
AcDbLine
 10
36.88976377952755
 20
25.41043307086614
 30
0.0
 11
36.88090551181102
 21
25.43307086614173
 31
0.0
  0
LINE
  5
427
330
1E
100
AcDbEntity
  8
7
100
AcDbLine
 10
36.88090551181102
 20
25.43307086614173
 30
0.0
 11
36.86515748031495
 21
25.4517716535433
 31
0.0
  0
LINE
  5
428
330
1E
100
AcDbEntity
  8
7
100
AcDbLine
 10
36.86515748031495
 20
25.4517716535433
 30
0.0
 11
36.84448818897637
 21
25.46456692913386
 31
0.0
  0
LINE
  5
429
330
1E
100
AcDbEntity
  8
7
100
AcDbLine
 10
36.84448818897637
 20
25.46456692913386
 30
0.0
 11
36.81988188976378
 21
25.46850393700787
 31
0.0
  0
LINE
  5
42A
330
1E
100
AcDbEntity
  8
7
100
AcDbLine
 10
36.81988188976378
 20
25.46850393700787
 30
0.0
 11
36.79527559055117
 21
25.46456692913386
 31
0.0
  0
LINE
  5
42B
330
1E
100
AcDbEntity
  8
7
100
AcDbLine
 10
36.79527559055117
 20
25.46456692913386
 30
0.0
 11
36.77460629921259
 21
25.4517716535433
 31
0.0
  0
LINE
  5
42C
330
1E
100
AcDbEntity
  8
7
100
AcDbLine
 10
36.77460629921259
 20
25.4517716535433
 30
0.0
 11
36.75885826771653
 21
25.43307086614173
 31
0.0
  0
LINE
  5
42D
330
1E
100
AcDbEntity
  8
7
100
AcDbLine
 10
36.79625984251968
 20
25.46259842519685
 30
0.0
 11
36.77559055118109
 21
25.4507874015748
 31
0.0
  0
LINE
  5
42E
330
1E
100
AcDbEntity
  8
7
100
AcDbLine
 10
36.77559055118109
 20
25.4507874015748
 30
0.0
 11
36.75984251968503
 21
25.43208661417322
 31
0.0
  0
LINE
  5
42F
330
1E
100
AcDbEntity
  8
7
100
AcDbLine
 10
36.75984251968503
 20
25.43208661417322
 30
0.0
 11
36.751968503937
 21
25.40944881889763
 31
0.0
  0
LINE
  5
430
330
1E
100
AcDbEntity
  8
7
100
AcDbLine
 10
36.751968503937
 20
25.40944881889763
 30
0.0
 11
36.751968503937
 21
25.38582677165354
 31
0.0
  0
LINE
  5
431
330
1E
100
AcDbEntity
  8
7
100
AcDbLine
 10
36.751968503937
 20
25.38582677165354
 30
0.0
 11
36.75984251968503
 21
25.36318897637795
 31
0.0
  0
LINE
  5
432
330
1E
100
AcDbEntity
  8
7
100
AcDbLine
 10
36.75984251968503
 20
25.36318897637795
 30
0.0
 11
36.77559055118109
 21
25.34448818897637
 31
0.0
  0
LINE
  5
433
330
1E
100
AcDbEntity
  8
7
100
AcDbLine
 10
36.77559055118109
 20
25.34448818897637
 30
0.0
 11
36.79625984251968
 21
25.33267716535433
 31
0.0
  0
LINE
  5
434
330
1E
100
AcDbEntity
  8
7
100
AcDbLine
 10
36.79625984251968
 20
25.33267716535433
 30
0.0
 11
36.81988188976378
 21
25.32874015748031
 31
0.0
  0
LINE
  5
435
330
1E
100
AcDbEntity
  8
7
100
AcDbLine
 10
36.81988188976378
 20
25.32874015748031
 30
0.0
 11
36.84350393700787
 21
25.33267716535433
 31
0.0
  0
LINE
  5
436
330
1E
100
AcDbEntity
  8
7
100
AcDbLine
 10
36.84350393700787
 20
25.33267716535433
 30
0.0
 11
36.86417322834645
 21
25.34448818897637
 31
0.0
  0
LINE
  5
437
330
1E
100
AcDbEntity
  8
7
100
AcDbLine
 10
36.86417322834645
 20
25.34448818897637
 30
0.0
 11
36.87992125984251
 21
25.36318897637795
 31
0.0
  0
LINE
  5
438
330
1E
100
AcDbEntity
  8
7
100
AcDbLine
 10
36.87992125984251
 20
25.36318897637795
 30
0.0
 11
36.88779527559054
 21
25.38582677165354
 31
0.0
  0
LINE
  5
439
330
1E
100
AcDbEntity
  8
7
100
AcDbLine
 10
36.88779527559054
 20
25.38582677165354
 30
0.0
 11
36.88779527559054
 21
25.40944881889763
 31
0.0
  0
LINE
  5
43A
330
1E
100
AcDbEntity
  8
7
100
AcDbLine
 10
36.88779527559054
 20
25.40944881889763
 30
0.0
 11
36.87992125984251
 21
25.43208661417322
 31
0.0
  0
LINE
  5
43B
330
1E
100
AcDbEntity
  8
7
100
AcDbLine
 10
36.87992125984251
 20
25.43208661417322
 30
0.0
 11
36.86417322834645
 21
25.4507874015748
 31
0.0
  0
LINE
  5
43C
330
1E
100
AcDbEntity
  8
7
100
AcDbLine
 10
36.86417322834645
 20
25.4507874015748
 30
0.0
 11
36.84350393700787
 21
25.46259842519685
 31
0.0
  0
LINE
  5
43D
330
1E
100
AcDbEntity
  8
7
100
AcDbLine
 10
36.84350393700787
 20
25.46259842519685
 30
0.0
 11
36.81988188976378
 21
25.46653543307086
 31
0.0
  0
LINE
  5
43E
330
1E
100
AcDbEntity
  8
7
100
AcDbLine
 10
36.81988188976378
 20
25.46653543307086
 30
0.0
 11
36.79625984251968
 21
25.46259842519685
 31
0.0
  0
LINE
  5
43F
330
1E
100
AcDbEntity
  8
7
100
AcDbLine
 10
36.71850393700787
 20
25.24311023622047
 30
0.0
 11
36.71850393700787
 21
25.24901574803149
 31
0.0
  0
LINE
  5
440
330
1E
100
AcDbEntity
  8
7
100
AcDbLine
 10
36.71850393700787
 20
25.24901574803149
 30
0.0
 11
36.71850393700787
 21
25.25393700787401
 31
0.0
  0
LINE
  5
441
330
1E
100
AcDbEntity
  8
7
100
AcDbLine
 10
36.71850393700787
 20
25.25393700787401
 30
0.0
 11
36.71850393700787
 21
25.25688976377952
 31
0.0
  0
LINE
  5
442
330
1E
100
AcDbEntity
  8
7
100
AcDbLine
 10
36.71850393700787
 20
25.2263779527559
 30
0.0
 11
36.71850393700787
 21
25.23326771653543
 31
0.0
  0
LINE
  5
443
330
1E
100
AcDbEntity
  8
7
100
AcDbLine
 10
36.71850393700787
 20
25.23326771653543
 30
0.0
 11
36.71850393700787
 21
25.23523622047244
 31
0.0
  0
LINE
  5
444
330
1E
100
AcDbEntity
  8
7
100
AcDbLine
 10
36.71850393700787
 20
25.23523622047244
 30
0.0
 11
36.71850393700787
 21
25.23818897637795
 31
0.0
  0
LINE
  5
445
330
1E
100
AcDbEntity
  8
7
100
AcDbLine
 10
36.92027559055118
 20
25.23818897637795
 30
0.0
 11
36.92027559055118
 21
25.23523622047244
 31
0.0
  0
LINE
  5
446
330
1E
100
AcDbEntity
  8
7
100
AcDbLine
 10
36.92027559055118
 20
25.23523622047244
 30
0.0
 11
36.92027559055118
 21
25.23326771653543
 31
0.0
  0
LINE
  5
447
330
1E
100
AcDbEntity
  8
7
100
AcDbLine
 10
36.92027559055118
 20
25.23326771653543
 30
0.0
 11
36.92027559055118
 21
25.2263779527559
 31
0.0
  0
LINE
  5
448
330
1E
100
AcDbEntity
  8
7
100
AcDbLine
 10
36.89665354330708
 20
25.25688976377952
 30
0.0
 11
36.92027559055118
 21
25.25688976377952
 31
0.0
  0
LINE
  5
449
330
1E
100
AcDbEntity
  8
7
100
AcDbLine
 10
36.92027559055118
 20
25.25688976377952
 30
0.0
 11
36.92027559055118
 21
25.25393700787401
 31
0.0
  0
LINE
  5
44A
330
1E
100
AcDbEntity
  8
7
100
AcDbLine
 10
36.92027559055118
 20
25.25393700787401
 30
0.0
 11
36.92027559055118
 21
25.24901574803149
 31
0.0
  0
LINE
  5
44B
330
1E
100
AcDbEntity
  8
7
100
AcDbLine
 10
36.92027559055118
 20
25.24901574803149
 30
0.0
 11
36.92027559055118
 21
25.24311023622047
 31
0.0
  0
LINE
  5
44C
330
1E
100
AcDbEntity
  8
7
100
AcDbLine
 10
36.92027559055118
 20
25.24311023622047
 30
0.0
 11
36.71850393700787
 21
25.24311023622047
 31
0.0
  0
LINE
  5
44D
330
1E
100
AcDbEntity
  8
7
100
AcDbLine
 10
36.71850393700787
 20
25.24311023622047
 30
0.0
 11
36.71850393700787
 21
25.23818897637795
 31
0.0
  0
LINE
  5
44E
330
1E
100
AcDbEntity
  8
7
100
AcDbLine
 10
36.71850393700787
 20
25.23818897637795
 30
0.0
 11
36.92027559055118
 21
25.23818897637795
 31
0.0
  0
LINE
  5
44F
330
1E
100
AcDbEntity
  8
7
100
AcDbLine
 10
36.71850393700787
 20
25.56102362204724
 30
0.0
 11
36.71850393700787
 21
25.56200787401575
 31
0.0
  0
LINE
  5
450
330
1E
100
AcDbEntity
  8
7
100
AcDbLine
 10
36.71850393700787
 20
25.56200787401575
 30
0.0
 11
36.71850393700787
 21
25.56889763779527
 31
0.0
  0
LINE
  5
451
330
1E
100
AcDbEntity
  8
7
100
AcDbLine
 10
36.74212598425196
 20
25.53838582677165
 30
0.0
 11
36.71850393700787
 21
25.53838582677165
 31
0.0
  0
LINE
  5
452
330
1E
100
AcDbEntity
  8
7
100
AcDbLine
 10
36.71850393700787
 20
25.53838582677165
 30
0.0
 11
36.71850393700787
 21
25.54133858267716
 31
0.0
  0
LINE
  5
453
330
1E
100
AcDbEntity
  8
7
100
AcDbLine
 10
36.71850393700787
 20
25.54133858267716
 30
0.0
 11
36.71850393700787
 21
25.54625984251968
 31
0.0
  0
LINE
  5
454
330
1E
100
AcDbEntity
  8
7
100
AcDbLine
 10
36.71850393700787
 20
25.54625984251968
 30
0.0
 11
36.71850393700787
 21
25.5521653543307
 31
0.0
  0
LINE
  5
455
330
1E
100
AcDbEntity
  8
7
100
AcDbLine
 10
36.92027559055118
 20
25.5521653543307
 30
0.0
 11
36.92027559055118
 21
25.54625984251968
 31
0.0
  0
LINE
  5
456
330
1E
100
AcDbEntity
  8
7
100
AcDbLine
 10
36.92027559055118
 20
25.54625984251968
 30
0.0
 11
36.92027559055118
 21
25.54133858267716
 31
0.0
  0
LINE
  5
457
330
1E
100
AcDbEntity
  8
7
100
AcDbLine
 10
36.92027559055118
 20
25.54133858267716
 30
0.0
 11
36.92027559055118
 21
25.53838582677165
 31
0.0
  0
LINE
  5
458
330
1E
100
AcDbEntity
  8
7
100
AcDbLine
 10
36.92027559055118
 20
25.56889763779527
 30
0.0
 11
36.92027559055118
 21
25.56200787401575
 31
0.0
  0
LINE
  5
459
330
1E
100
AcDbEntity
  8
7
100
AcDbLine
 10
36.92027559055118
 20
25.56200787401575
 30
0.0
 11
36.92027559055118
 21
25.56102362204724
 31
0.0
  0
LINE
  5
45A
330
1E
100
AcDbEntity
  8
7
100
AcDbLine
 10
36.92027559055118
 20
25.56102362204724
 30
0.0
 11
36.92027559055118
 21
25.55708661417322
 31
0.0
  0
LINE
  5
45B
330
1E
100
AcDbEntity
  8
7
100
AcDbLine
 10
36.71850393700787
 20
25.5521653543307
 30
0.0
 11
36.92027559055118
 21
25.5521653543307
 31
0.0
  0
LINE
  5
45C
330
1E
100
AcDbEntity
  8
7
100
AcDbLine
 10
36.92027559055118
 20
25.5521653543307
 30
0.0
 11
36.92027559055118
 21
25.55708661417322
 31
0.0
  0
LINE
  5
45D
330
1E
100
AcDbEntity
  8
7
100
AcDbLine
 10
36.92027559055118
 20
25.55708661417322
 30
0.0
 11
36.71850393700787
 21
25.55708661417322
 31
0.0
  0
LINE
  5
45E
330
1E
100
AcDbEntity
  8
7
100
AcDbLine
 10
36.89665354330708
 20
25.53838582677165
 30
0.0
 11
36.89665354330708
 21
25.52066929133858
 31
0.0
  0
LINE
  5
45F
330
1E
100
AcDbEntity
  8
7
100
AcDbLine
 10
36.89665354330708
 20
25.52066929133858
 30
0.0
 11
36.89665354330708
 21
25.501968503937
 31
0.0
  0
LINE
  5
460
330
1E
100
AcDbEntity
  8
7
100
AcDbLine
 10
36.74212598425196
 20
25.501968503937
 30
0.0
 11
36.74212598425196
 21
25.52066929133858
 31
0.0
  0
LINE
  5
461
330
1E
100
AcDbEntity
  8
7
100
AcDbLine
 10
36.74212598425196
 20
25.52066929133858
 30
0.0
 11
36.74212598425196
 21
25.53838582677165
 31
0.0
  0
LINE
  5
462
330
1E
100
AcDbEntity
  8
7
100
AcDbLine
 10
36.77165354330708
 20
25.40846456692913
 30
0.0
 11
36.77066929133857
 21
25.40846456692913
 31
0.0
  0
LINE
  5
463
330
1E
100
AcDbEntity
  8
7
100
AcDbLine
 10
36.77066929133857
 20
25.40846456692913
 30
0.0
 11
36.76968503937007
 21
25.40846456692913
 31
0.0
  0
LINE
  5
464
330
1E
100
AcDbEntity
  8
7
100
AcDbLine
 10
36.76968503937007
 20
25.40846456692913
 30
0.0
 11
36.76870078740157
 21
25.40846456692913
 31
0.0
  0
LINE
  5
465
330
1E
100
AcDbEntity
  8
7
100
AcDbLine
 10
36.76870078740157
 20
25.40846456692913
 30
0.0
 11
36.76771653543307
 21
25.40846456692913
 31
0.0
  0
LINE
  5
466
330
1E
100
AcDbEntity
  8
7
100
AcDbLine
 10
36.76771653543307
 20
25.38877952755905
 30
0.0
 11
36.76870078740157
 21
25.38877952755905
 31
0.0
  0
LINE
  5
467
330
1E
100
AcDbEntity
  8
7
100
AcDbLine
 10
36.76870078740157
 20
25.38877952755905
 30
0.0
 11
36.76968503937007
 21
25.38877952755905
 31
0.0
  0
LINE
  5
468
330
1E
100
AcDbEntity
  8
7
100
AcDbLine
 10
36.76968503937007
 20
25.38877952755905
 30
0.0
 11
36.77066929133857
 21
25.38877952755905
 31
0.0
  0
LINE
  5
469
330
1E
100
AcDbEntity
  8
7
100
AcDbLine
 10
36.77066929133857
 20
25.38877952755905
 30
0.0
 11
36.77165354330708
 21
25.38877952755905
 31
0.0
  0
LINE
  5
46A
330
1E
100
AcDbEntity
  8
7
100
AcDbLine
 10
36.8523622047244
 20
25.36318897637795
 30
0.0
 11
36.86417322834645
 21
25.37893700787401
 31
0.0
  0
LINE
  5
46B
330
1E
100
AcDbEntity
  8
7
100
AcDbLine
 10
36.86417322834645
 20
25.37893700787401
 30
0.0
 11
36.86811023622047
 21
25.39862204724409
 31
0.0
  0
LINE
  5
46C
330
1E
100
AcDbEntity
  8
7
100
AcDbLine
 10
36.86811023622047
 20
25.39862204724409
 30
0.0
 11
36.86417322834645
 21
25.41830708661417
 31
0.0
  0
LINE
  5
46D
330
1E
100
AcDbEntity
  8
7
100
AcDbLine
 10
36.86417322834645
 20
25.41830708661417
 30
0.0
 11
36.8523622047244
 21
25.43405511811023
 31
0.0
  0
LINE
  5
46E
330
1E
100
AcDbEntity
  8
7
100
AcDbLine
 10
36.8523622047244
 20
25.43405511811023
 30
0.0
 11
36.83464566929133
 21
25.44488188976377
 31
0.0
  0
LINE
  5
46F
330
1E
100
AcDbEntity
  8
7
100
AcDbLine
 10
36.83464566929133
 20
25.44488188976377
 30
0.0
 11
36.81496062992126
 21
25.44685039370078
 31
0.0
  0
LINE
  5
470
330
1E
100
AcDbEntity
  8
7
100
AcDbLine
 10
36.81496062992126
 20
25.44685039370078
 30
0.0
 11
36.79527559055117
 21
25.43996062992126
 31
0.0
  0
LINE
  5
471
330
1E
100
AcDbEntity
  8
7
100
AcDbLine
 10
36.79527559055117
 20
25.43996062992126
 30
0.0
 11
36.78051181102362
 21
25.4271653543307
 31
0.0
  0
LINE
  5
472
330
1E
100
AcDbEntity
  8
7
100
AcDbLine
 10
36.78051181102362
 20
25.4271653543307
 30
0.0
 11
36.77263779527558
 21
25.40846456692913
 31
0.0
  0
LINE
  5
473
330
1E
100
AcDbEntity
  8
7
100
AcDbLine
 10
36.77263779527558
 20
25.38877952755905
 30
0.0
 11
36.78051181102362
 21
25.37007874015747
 31
0.0
  0
LINE
  5
474
330
1E
100
AcDbEntity
  8
7
100
AcDbLine
 10
36.78051181102362
 20
25.37007874015747
 30
0.0
 11
36.79527559055117
 21
25.35728346456693
 31
0.0
  0
LINE
  5
475
330
1E
100
AcDbEntity
  8
7
100
AcDbLine
 10
36.79527559055117
 20
25.35728346456693
 30
0.0
 11
36.81496062992126
 21
25.3503937007874
 31
0.0
  0
LINE
  5
476
330
1E
100
AcDbEntity
  8
7
100
AcDbLine
 10
36.81496062992126
 20
25.3503937007874
 30
0.0
 11
36.83464566929133
 21
25.35236220472441
 31
0.0
  0
LINE
  5
477
330
1E
100
AcDbEntity
  8
7
100
AcDbLine
 10
36.83464566929133
 20
25.35236220472441
 30
0.0
 11
36.8523622047244
 21
25.36318897637795
 31
0.0
  0
LINE
  5
478
330
1E
100
AcDbEntity
  8
7
100
AcDbLine
 10
36.71161417322834
 20
25.57677165354331
 30
0.0
 11
36.71161417322834
 21
25.57086614173228
 31
0.0
  0
LINE
  5
479
330
1E
100
AcDbEntity
  8
7
100
AcDbLine
 10
36.71161417322834
 20
25.57086614173228
 30
0.0
 11
36.71161417322834
 21
25.55708661417322
 31
0.0
  0
LINE
  5
47A
330
1E
100
AcDbEntity
  8
7
100
AcDbLine
 10
36.71161417322834
 20
25.24114173228346
 30
0.0
 11
36.71161417322834
 21
25.2263779527559
 31
0.0
  0
LINE
  5
47B
330
1E
100
AcDbEntity
  8
7
100
AcDbLine
 10
36.71161417322834
 20
25.2263779527559
 30
0.0
 11
36.71161417322834
 21
25.22047244094488
 31
0.0
  0
LINE
  5
47C
330
1E
100
AcDbEntity
  8
7
100
AcDbLine
 10
36.9271653543307
 20
25.22047244094488
 30
0.0
 11
36.9281496062992
 21
25.2263779527559
 31
0.0
  0
LINE
  5
47D
330
1E
100
AcDbEntity
  8
7
100
AcDbLine
 10
36.9281496062992
 20
25.2263779527559
 30
0.0
 11
36.9281496062992
 21
25.24114173228346
 31
0.0
  0
LINE
  5
47E
330
1E
100
AcDbEntity
  8
7
100
AcDbLine
 10
36.9281496062992
 20
25.55708661417322
 30
0.0
 11
36.9281496062992
 21
25.57086614173228
 31
0.0
  0
LINE
  5
47F
330
1E
100
AcDbEntity
  8
7
100
AcDbLine
 10
36.9281496062992
 20
25.57086614173228
 30
0.0
 11
36.9271653543307
 21
25.57677165354331
 31
0.0
  0
LINE
  5
480
330
1E
100
AcDbEntity
  8
7
100
AcDbLine
 10
36.63779527559055
 20
25.35531496062992
 30
0.0
 11
36.63779527559055
 21
25.35334645669291
 31
0.0
  0
LINE
  5
481
330
1E
100
AcDbEntity
  8
7
100
AcDbLine
 10
36.63779527559055
 20
25.35334645669291
 30
0.0
 11
36.63779527559055
 21
25.34744094488189
 31
0.0
  0
LINE
  5
482
330
1E
100
AcDbEntity
  8
7
100
AcDbLine
 10
36.63779527559055
 20
25.44980314960629
 30
0.0
 11
36.63779527559055
 21
25.44488188976377
 31
0.0
  0
LINE
  5
483
330
1E
100
AcDbEntity
  8
7
100
AcDbLine
 10
36.63779527559055
 20
25.44488188976377
 30
0.0
 11
36.63779527559055
 21
25.44192913385826
 31
0.0
  0
LINE
  5
484
330
1E
100
AcDbEntity
  8
7
100
AcDbLine
 10
36.74114173228346
 20
25.65255905511811
 30
0.0
 11
36.74114173228346
 21
25.65846456692913
 31
0.0
  0
LINE
  5
485
330
1E
100
AcDbEntity
  8
7
100
AcDbLine
 10
36.74114173228346
 20
25.65846456692913
 30
0.0
 11
36.74212598425196
 21
25.70767716535433
 31
0.0
  0
LINE
  5
486
330
1E
100
AcDbEntity
  8
7
100
AcDbLine
 10
36.89763779527558
 20
25.14468503937008
 30
0.0
 11
36.89763779527558
 21
25.13877952755905
 31
0.0
  0
LINE
  5
487
330
1E
100
AcDbEntity
  8
7
100
AcDbLine
 10
36.89763779527558
 20
25.13877952755905
 30
0.0
 11
36.89665354330708
 21
25.08956692913386
 31
0.0
  0
LINE
  5
488
330
1E
100
AcDbEntity
  8
7
100
AcDbLine
 10
36.67027559055117
 20
25.19980314960629
 30
0.0
 11
36.96850393700787
 21
25.19980314960629
 31
0.0
  0
LINE
  5
489
330
1E
100
AcDbEntity
  8
7
100
AcDbLine
 10
36.96850393700787
 20
25.19980314960629
 30
0.0
 11
36.96850393700787
 21
25.2007874015748
 31
0.0
  0
LINE
  5
48A
330
1E
100
AcDbEntity
  8
7
100
AcDbLine
 10
36.96850393700787
 20
25.59645669291338
 30
0.0
 11
36.96850393700787
 21
25.59744094488189
 31
0.0
  0
LINE
  5
48B
330
1E
100
AcDbEntity
  8
7
100
AcDbLine
 10
36.96850393700787
 20
25.59744094488189
 30
0.0
 11
36.67027559055117
 21
25.59744094488189
 31
0.0
  0
LINE
  5
48C
330
1E
100
AcDbEntity
  8
7
100
AcDbLine
 10
36.96850393700787
 20
25.21850393700787
 30
0.0
 11
36.96850393700787
 21
25.2007874015748
 31
0.0
  0
LINE
  5
48D
330
1E
100
AcDbEntity
  8
7
100
AcDbLine
 10
36.96850393700787
 20
25.2007874015748
 30
0.0
 11
36.96850393700787
 21
25.59645669291338
 31
0.0
  0
LINE
  5
48E
330
1E
100
AcDbEntity
  8
7
100
AcDbLine
 10
36.96850393700787
 20
25.59645669291338
 30
0.0
 11
36.96850393700787
 21
25.57874015748031
 31
0.0
  0
LINE
  5
48F
330
1E
100
AcDbEntity
  8
7
100
AcDbLine
 10
36.91338582677165
 20
25.57874015748031
 30
0.0
 11
36.92224409448818
 21
25.57874015748031
 31
0.0
  0
LINE
  5
490
330
1E
100
AcDbEntity
  8
7
100
AcDbLine
 10
36.92224409448818
 20
25.57874015748031
 30
0.0
 11
36.9261811023622
 21
25.57874015748031
 31
0.0
  0
LINE
  5
491
330
1E
100
AcDbEntity
  8
7
100
AcDbLine
 10
36.71259842519684
 20
25.57874015748031
 30
0.0
 11
36.71653543307086
 21
25.57874015748031
 31
0.0
  0
LINE
  5
492
330
1E
100
AcDbEntity
  8
7
100
AcDbLine
 10
36.71653543307086
 20
25.57874015748031
 30
0.0
 11
36.7263779527559
 21
25.57874015748031
 31
0.0
  0
LINE
  5
493
330
1E
100
AcDbEntity
  8
7
100
AcDbLine
 10
36.7263779527559
 20
25.21850393700787
 30
0.0
 11
36.71653543307086
 21
25.21850393700787
 31
0.0
  0
LINE
  5
494
330
1E
100
AcDbEntity
  8
7
100
AcDbLine
 10
36.71653543307086
 20
25.21850393700787
 30
0.0
 11
36.71259842519684
 21
25.21850393700787
 31
0.0
  0
LINE
  5
495
330
1E
100
AcDbEntity
  8
7
100
AcDbLine
 10
36.9261811023622
 20
25.21850393700787
 30
0.0
 11
36.92224409448818
 21
25.21850393700787
 31
0.0
  0
LINE
  5
496
330
1E
100
AcDbEntity
  8
7
100
AcDbLine
 10
36.92224409448818
 20
25.21850393700787
 30
0.0
 11
36.91338582677165
 21
25.21850393700787
 31
0.0
  0
LINE
  5
497
330
1E
100
AcDbEntity
  8
7
100
AcDbLine
 10
36.67027559055117
 20
25.35531496062992
 30
0.0
 11
36.67027559055117
 21
25.35433070866141
 31
0.0
  0
LINE
  5
498
330
1E
100
AcDbEntity
  8
7
100
AcDbLine
 10
36.67027559055117
 20
25.35433070866141
 30
0.0
 11
36.67027559055117
 21
25.2007874015748
 31
0.0
  0
LINE
  5
499
330
1E
100
AcDbEntity
  8
7
100
AcDbLine
 10
36.67027559055117
 20
25.59645669291338
 30
0.0
 11
36.67027559055117
 21
25.44291338582677
 31
0.0
  0
LINE
  5
49A
330
1E
100
AcDbEntity
  8
7
100
AcDbLine
 10
36.67027559055117
 20
25.44291338582677
 30
0.0
 11
36.67027559055117
 21
25.44192913385826
 31
0.0
  0
LINE
  5
49B
330
1E
100
AcDbEntity
  8
7
100
AcDbLine
 10
36.67224409448818
 20
25.36220472440945
 30
0.0
 11
36.67224409448818
 21
25.37303149606299
 31
0.0
  0
LINE
  5
49C
330
1E
100
AcDbEntity
  8
7
100
AcDbLine
 10
36.67224409448818
 20
25.37303149606299
 30
0.0
 11
36.67224409448818
 21
25.38976377952756
 31
0.0
  0
LINE
  5
49D
330
1E
100
AcDbEntity
  8
7
100
AcDbLine
 10
36.67224409448818
 20
25.38976377952756
 30
0.0
 11
36.67224409448818
 21
25.40748031496063
 31
0.0
  0
LINE
  5
49E
330
1E
100
AcDbEntity
  8
7
100
AcDbLine
 10
36.67224409448818
 20
25.40748031496063
 30
0.0
 11
36.67224409448818
 21
25.42421259842519
 31
0.0
  0
LINE
  5
49F
330
1E
100
AcDbEntity
  8
7
100
AcDbLine
 10
36.67224409448818
 20
25.42421259842519
 30
0.0
 11
36.67224409448818
 21
25.43602362204724
 31
0.0
  0
LINE
  5
4A0
330
1E
100
AcDbEntity
  8
7
100
AcDbLine
 10
36.67224409448818
 20
25.43602362204724
 30
0.0
 11
36.67224409448818
 21
25.43996062992126
 31
0.0
  0
LINE
  5
4A1
330
1E
100
AcDbEntity
  8
7
100
AcDbLine
 10
36.63681102362204
 20
25.43996062992126
 30
0.0
 11
36.63681102362204
 21
25.43602362204724
 31
0.0
  0
LINE
  5
4A2
330
1E
100
AcDbEntity
  8
7
100
AcDbLine
 10
36.63681102362204
 20
25.43602362204724
 30
0.0
 11
36.63681102362204
 21
25.42421259842519
 31
0.0
  0
LINE
  5
4A3
330
1E
100
AcDbEntity
  8
7
100
AcDbLine
 10
36.63681102362204
 20
25.42421259842519
 30
0.0
 11
36.63681102362204
 21
25.40748031496063
 31
0.0
  0
LINE
  5
4A4
330
1E
100
AcDbEntity
  8
7
100
AcDbLine
 10
36.63681102362204
 20
25.40748031496063
 30
0.0
 11
36.63681102362204
 21
25.38976377952756
 31
0.0
  0
LINE
  5
4A5
330
1E
100
AcDbEntity
  8
7
100
AcDbLine
 10
36.63681102362204
 20
25.38976377952756
 30
0.0
 11
36.63681102362204
 21
25.37303149606299
 31
0.0
  0
LINE
  5
4A6
330
1E
100
AcDbEntity
  8
7
100
AcDbLine
 10
36.63681102362204
 20
25.37303149606299
 30
0.0
 11
36.63681102362204
 21
25.36220472440945
 31
0.0
  0
LINE
  5
4A7
330
1E
100
AcDbEntity
  8
7
100
AcDbLine
 10
36.63681102362204
 20
25.36220472440945
 30
0.0
 11
36.63681102362204
 21
25.35826771653543
 31
0.0
  0
LINE
  5
4A8
330
1E
100
AcDbEntity
  8
7
100
AcDbLine
 10
36.67027559055117
 20
25.44192913385826
 30
0.0
 11
36.63779527559055
 21
25.44192913385826
 31
0.0
  0
LINE
  5
4A9
330
1E
100
AcDbEntity
  8
7
100
AcDbLine
 10
36.63779527559055
 20
25.44192913385826
 30
0.0
 11
36.63681102362204
 21
25.43996062992126
 31
0.0
  0
LINE
  5
4AA
330
1E
100
AcDbEntity
  8
7
100
AcDbLine
 10
36.63681102362204
 20
25.35826771653543
 30
0.0
 11
36.63779527559055
 21
25.35531496062992
 31
0.0
  0
LINE
  5
4AB
330
1E
100
AcDbEntity
  8
7
100
AcDbLine
 10
36.63779527559055
 20
25.35531496062992
 30
0.0
 11
36.67027559055117
 21
25.35531496062992
 31
0.0
  0
LINE
  5
4AC
330
1E
100
AcDbEntity
  8
7
100
AcDbLine
 10
36.67027559055117
 20
25.35531496062992
 30
0.0
 11
36.67224409448818
 21
25.35826771653543
 31
0.0
  0
LINE
  5
4AD
330
1E
100
AcDbEntity
  8
7
100
AcDbLine
 10
36.99114173228346
 20
25.14468503937008
 30
0.0
 11
36.99803149606299
 21
25.14763779527559
 31
0.0
  0
LINE
  5
4AE
330
1E
100
AcDbEntity
  8
7
100
AcDbLine
 10
36.99803149606299
 20
25.14763779527559
 30
0.0
 11
37.0009842519685
 21
25.15452755905512
 31
0.0
  0
LINE
  5
4AF
330
1E
100
AcDbEntity
  8
7
100
AcDbLine
 10
36.63779527559055
 20
25.34744094488189
 30
0.0
 11
36.63779527559055
 21
25.15452755905512
 31
0.0
  0
LINE
  5
4B0
330
1E
100
AcDbEntity
  8
7
100
AcDbLine
 10
36.63779527559055
 20
25.15452755905512
 30
0.0
 11
36.64074803149606
 21
25.14763779527559
 31
0.0
  0
LINE
  5
4B1
330
1E
100
AcDbEntity
  8
7
100
AcDbLine
 10
36.64074803149606
 20
25.14763779527559
 30
0.0
 11
36.64763779527558
 21
25.14468503937008
 31
0.0
  0
LINE
  5
4B2
330
1E
100
AcDbEntity
  8
7
100
AcDbLine
 10
36.67027559055117
 20
25.6023622047244
 30
0.0
 11
36.97342519685039
 21
25.6023622047244
 31
0.0
  0
LINE
  5
4B3
330
1E
100
AcDbEntity
  8
7
100
AcDbLine
 10
36.97342519685039
 20
25.6023622047244
 30
0.0
 11
36.97342519685039
 21
25.19586614173228
 31
0.0
  0
LINE
  5
4B4
330
1E
100
AcDbEntity
  8
7
100
AcDbLine
 10
36.97342519685039
 20
25.19586614173228
 30
0.0
 11
36.67027559055117
 21
25.19586614173228
 31
0.0
  0
LINE
  5
4B5
330
1E
100
AcDbEntity
  8
7
100
AcDbLine
 10
36.64763779527558
 20
25.65255905511811
 30
0.0
 11
36.64074803149606
 21
25.64960629921259
 31
0.0
  0
LINE
  5
4B6
330
1E
100
AcDbEntity
  8
7
100
AcDbLine
 10
36.64074803149606
 20
25.64960629921259
 30
0.0
 11
36.63779527559055
 21
25.64271653543307
 31
0.0
  0
LINE
  5
4B7
330
1E
100
AcDbEntity
  8
7
100
AcDbLine
 10
36.63779527559055
 20
25.64271653543307
 30
0.0
 11
36.63779527559055
 21
25.44980314960629
 31
0.0
  0
LINE
  5
4B8
330
1E
100
AcDbEntity
  8
7
100
AcDbLine
 10
37.0009842519685
 20
25.15452755905512
 30
0.0
 11
37.0009842519685
 21
25.64271653543307
 31
0.0
  0
LINE
  5
4B9
330
1E
100
AcDbEntity
  8
7
100
AcDbLine
 10
37.0009842519685
 20
25.64271653543307
 30
0.0
 11
36.99803149606299
 21
25.64960629921259
 31
0.0
  0
LINE
  5
4BA
330
1E
100
AcDbEntity
  8
7
100
AcDbLine
 10
36.99803149606299
 20
25.64960629921259
 30
0.0
 11
36.99114173228346
 21
25.65255905511811
 31
0.0
  0
LINE
  5
4BB
330
1E
100
AcDbEntity
  8
7
100
AcDbLine
 10
37.12106299212598
 20
25.02362204724409
 30
0.0
 11
37.12992125984252
 21
25.02362204724409
 31
0.0
  0
LINE
  5
4BC
330
1E
100
AcDbEntity
  8
7
100
AcDbLine
 10
37.12992125984252
 20
25.02362204724409
 30
0.0
 11
37.12992125984252
 21
25.30314960629921
 31
0.0
  0
LINE
  5
4BD
330
1E
100
AcDbEntity
  8
7
100
AcDbLine
 10
36.51771653543306
 20
25.02362204724409
 30
0.0
 11
37.12106299212598
 21
25.02362204724409
 31
0.0
  0
LINE
  5
4BE
330
1E
100
AcDbEntity
  8
7
100
AcDbLine
 10
37.12106299212598
 20
25.02362204724409
 30
0.0
 11
37.12106299212598
 21
25.66043307086614
 31
0.0
  0
LINE
  5
4BF
330
1E
100
AcDbEntity
  8
7
100
AcDbLine
 10
36.72440944881889
 20
25.08858267716535
 30
0.0
 11
36.71358267716534
 21
25.09251968503937
 31
0.0
  0
LINE
  5
4C0
330
1E
100
AcDbEntity
  8
7
100
AcDbLine
 10
36.71358267716534
 20
25.09251968503937
 30
0.0
 11
36.70964566929133
 21
25.10334645669291
 31
0.0
  0
LINE
  5
4C1
330
1E
100
AcDbEntity
  8
7
100
AcDbLine
 10
36.70964566929133
 20
25.10334645669291
 30
0.0
 11
36.70964566929133
 21
25.14468503937008
 31
0.0
  0
LINE
  5
4C2
330
1E
100
AcDbEntity
  8
7
100
AcDbLine
 10
36.92913385826771
 20
25.10334645669291
 30
0.0
 11
36.9251968503937
 21
25.09251968503937
 31
0.0
  0
LINE
  5
4C3
330
1E
100
AcDbEntity
  8
7
100
AcDbLine
 10
36.9251968503937
 20
25.09251968503937
 30
0.0
 11
36.91437007874015
 21
25.08858267716535
 31
0.0
  0
LINE
  5
4C4
330
1E
100
AcDbEntity
  8
7
100
AcDbLine
 10
36.91437007874015
 20
25.71358267716535
 30
0.0
 11
36.9251968503937
 21
25.70866141732283
 31
0.0
  0
LINE
  5
4C5
330
1E
100
AcDbEntity
  8
7
100
AcDbLine
 10
36.9251968503937
 20
25.70866141732283
 30
0.0
 11
36.92913385826771
 21
25.69881889763779
 31
0.0
  0
LINE
  5
4C6
330
1E
100
AcDbEntity
  8
7
100
AcDbLine
 10
36.70964566929133
 20
25.66141732283464
 30
0.0
 11
36.70964566929133
 21
25.69881889763779
 31
0.0
  0
LINE
  5
4C7
330
1E
100
AcDbEntity
  8
7
100
AcDbLine
 10
36.70964566929133
 20
25.69881889763779
 30
0.0
 11
36.71358267716534
 21
25.70866141732283
 31
0.0
  0
LINE
  5
4C8
330
1E
100
AcDbEntity
  8
7
100
AcDbLine
 10
36.71358267716534
 20
25.70866141732283
 30
0.0
 11
36.72440944881889
 21
25.71358267716535
 31
0.0
  0
LINE
  5
4C9
330
1E
100
AcDbEntity
  8
7
100
AcDbLine
 10
36.50885826771653
 20
25.30314960629921
 30
0.0
 11
36.50885826771653
 21
25.74114173228346
 31
0.0
  0
LINE
  5
4CA
330
1E
100
AcDbEntity
  8
7
100
AcDbLine
 10
36.50885826771653
 20
25.74114173228346
 30
0.0
 11
37.12992125984252
 21
25.74114173228346
 31
0.0
  0
LINE
  5
4CB
330
1E
100
AcDbEntity
  8
7
100
AcDbLine
 10
36.99114173228346
 20
27.7509842519685
 30
0.0
 11
36.99803149606299
 21
27.7509842519685
 31
0.0
  0
LINE
  5
4CC
330
1E
100
AcDbEntity
  8
7
100
AcDbLine
 10
36.99803149606299
 20
27.7509842519685
 30
0.0
 11
37.0009842519685
 21
27.7509842519685
 31
0.0
  0
LINE
  5
4CD
330
1E
100
AcDbEntity
  8
7
100
AcDbLine
 10
36.63779527559055
 20
27.7509842519685
 30
0.0
 11
36.64074803149606
 21
27.7509842519685
 31
0.0
  0
LINE
  5
4CE
330
1E
100
AcDbEntity
  8
7
100
AcDbLine
 10
36.64074803149606
 20
27.7509842519685
 30
0.0
 11
36.64763779527558
 21
27.7509842519685
 31
0.0
  0
LINE
  5
4CF
330
1E
100
AcDbEntity
  8
7
100
AcDbLine
 10
36.90452755905512
 20
26.76377952755905
 30
0.0
 11
36.90059055118109
 21
26.76673228346456
 31
0.0
  0
LINE
  5
4D0
330
1E
100
AcDbEntity
  8
7
100
AcDbLine
 10
36.90059055118109
 20
26.76673228346456
 30
0.0
 11
36.89862204724409
 21
26.76968503937008
 31
0.0
  0
LINE
  5
4D1
330
1E
100
AcDbEntity
  8
7
100
AcDbLine
 10
36.89862204724409
 20
26.76968503937008
 30
0.0
 11
36.89763779527558
 21
26.77263779527558
 31
0.0
  0
LINE
  5
4D2
330
1E
100
AcDbEntity
  8
7
100
AcDbLine
 10
36.89763779527558
 20
26.77263779527558
 30
0.0
 11
36.89763779527558
 21
26.77460629921259
 31
0.0
  0
LINE
  5
4D3
330
1E
100
AcDbEntity
  8
7
100
AcDbLine
 10
36.74114173228346
 20
26.77460629921259
 30
0.0
 11
36.74015748031495
 21
26.77066929133858
 31
0.0
  0
LINE
  5
4D4
330
1E
100
AcDbEntity
  8
7
100
AcDbLine
 10
36.74015748031495
 20
26.77066929133858
 30
0.0
 11
36.73818897637795
 21
26.76673228346456
 31
0.0
  0
LINE
  5
4D5
330
1E
100
AcDbEntity
  8
7
100
AcDbLine
 10
36.73818897637795
 20
26.76673228346456
 30
0.0
 11
36.73720472440944
 21
26.76476377952756
 31
0.0
  0
LINE
  5
4D6
330
1E
100
AcDbEntity
  8
7
100
AcDbLine
 10
36.73720472440944
 20
26.76476377952756
 30
0.0
 11
36.73523622047243
 21
26.76377952755905
 31
0.0
  0
LINE
  5
4D7
330
1E
100
AcDbEntity
  8
7
100
AcDbLine
 10
36.64763779527558
 20
26.67224409448818
 30
0.0
 11
36.64074803149606
 21
26.67224409448818
 31
0.0
  0
LINE
  5
4D8
330
1E
100
AcDbEntity
  8
7
100
AcDbLine
 10
36.64074803149606
 20
26.67224409448818
 30
0.0
 11
36.63779527559055
 21
26.67224409448818
 31
0.0
  0
LINE
  5
4D9
330
1E
100
AcDbEntity
  8
7
100
AcDbLine
 10
36.93996062992126
 20
26.68700787401574
 30
0.0
 11
36.69980314960629
 21
26.68700787401574
 31
0.0
  0
LINE
  5
4DA
330
1E
100
AcDbEntity
  8
7
100
AcDbLine
 10
36.69980314960629
 20
26.68700787401574
 30
0.0
 11
36.69980314960629
 21
26.74704724409449
 31
0.0
  0
LINE
  5
4DB
330
1E
100
AcDbEntity
  8
7
100
AcDbLine
 10
36.91043307086614
 20
26.76181102362204
 30
0.0
 11
36.90452755905512
 21
26.76377952755905
 31
0.0
  0
LINE
  5
4DC
330
1E
100
AcDbEntity
  8
7
100
AcDbLine
 10
36.90452755905512
 20
26.76377952755905
 30
0.0
 11
36.73523622047243
 21
26.76377952755905
 31
0.0
  0
LINE
  5
4DD
330
1E
100
AcDbEntity
  8
7
100
AcDbLine
 10
36.73523622047243
 20
26.76377952755905
 30
0.0
 11
36.72834645669291
 21
26.76181102362204
 31
0.0
  0
LINE
  5
4DE
330
1E
100
AcDbEntity
  8
7
100
AcDbLine
 10
36.91338582677165
 20
26.76181102362204
 30
0.0
 11
36.92224409448818
 21
26.76574803149606
 31
0.0
  0
LINE
  5
4DF
330
1E
100
AcDbEntity
  8
7
100
AcDbLine
 10
36.92224409448818
 20
26.76574803149606
 30
0.0
 11
36.9261811023622
 21
26.77460629921259
 31
0.0
  0
LINE
  5
4E0
330
1E
100
AcDbEntity
  8
7
100
AcDbLine
 10
36.71358267716534
 20
26.77460629921259
 30
0.0
 11
36.71751968503937
 21
26.76574803149606
 31
0.0
  0
LINE
  5
4E1
330
1E
100
AcDbEntity
  8
7
100
AcDbLine
 10
36.71751968503937
 20
26.76574803149606
 30
0.0
 11
36.7263779527559
 21
26.76181102362204
 31
0.0
  0
LINE
  5
4E2
330
1E
100
AcDbEntity
  8
7
100
AcDbLine
 10
36.84350393700787
 20
26.73326771653543
 30
0.0
 11
36.84350393700787
 21
26.70866141732283
 31
0.0
  0
LINE
  5
4E3
330
1E
100
AcDbEntity
  8
7
100
AcDbLine
 10
36.84350393700787
 20
26.70866141732283
 30
0.0
 11
36.84940944881889
 21
26.70275590551181
 31
0.0
  0
LINE
  5
4E4
330
1E
100
AcDbEntity
  8
7
100
AcDbLine
 10
36.84940944881889
 20
26.70275590551181
 30
0.0
 11
36.86122047244094
 21
26.70275590551181
 31
0.0
  0
LINE
  5
4E5
330
1E
100
AcDbEntity
  8
7
100
AcDbLine
 10
36.86122047244094
 20
26.70275590551181
 30
0.0
 11
36.86811023622047
 21
26.70866141732283
 31
0.0
  0
LINE
  5
4E6
330
1E
100
AcDbEntity
  8
7
100
AcDbLine
 10
36.86811023622047
 20
26.70866141732283
 30
0.0
 11
36.86811023622047
 21
26.73326771653543
 31
0.0
  0
LINE
  5
4E7
330
1E
100
AcDbEntity
  8
7
100
AcDbLine
 10
36.83366141732283
 20
26.70866141732283
 30
0.0
 11
36.83366141732283
 21
26.7273622047244
 31
0.0
  0
LINE
  5
4E8
330
1E
100
AcDbEntity
  8
7
100
AcDbLine
 10
36.83366141732283
 20
26.7273622047244
 30
0.0
 11
36.8277559055118
 21
26.73326771653543
 31
0.0
  0
LINE
  5
4E9
330
1E
100
AcDbEntity
  8
7
100
AcDbLine
 10
36.8277559055118
 20
26.73326771653543
 30
0.0
 11
36.80905511811023
 21
26.73326771653543
 31
0.0
  0
LINE
  5
4EA
330
1E
100
AcDbEntity
  8
7
100
AcDbLine
 10
36.80905511811023
 20
26.73326771653543
 30
0.0
 11
36.80905511811023
 21
26.70275590551181
 31
0.0
  0
LINE
  5
4EB
330
1E
100
AcDbEntity
  8
7
100
AcDbLine
 10
36.80905511811023
 20
26.70275590551181
 30
0.0
 11
36.8277559055118
 21
26.70275590551181
 31
0.0
  0
LINE
  5
4EC
330
1E
100
AcDbEntity
  8
7
100
AcDbLine
 10
36.8277559055118
 20
26.70275590551181
 30
0.0
 11
36.83366141732283
 21
26.70866141732283
 31
0.0
  0
LINE
  5
4ED
330
1E
100
AcDbEntity
  8
7
100
AcDbLine
 10
36.77559055118109
 20
26.70275590551181
 30
0.0
 11
36.77559055118109
 21
26.73326771653543
 31
0.0
  0
LINE
  5
4EE
330
1E
100
AcDbEntity
  8
7
100
AcDbLine
 10
36.77559055118109
 20
26.73326771653543
 30
0.0
 11
36.80019685039369
 21
26.70275590551181
 31
0.0
  0
LINE
  5
4EF
330
1E
100
AcDbEntity
  8
7
100
AcDbLine
 10
36.80019685039369
 20
26.70275590551181
 30
0.0
 11
36.80019685039369
 21
26.73326771653543
 31
0.0
  0
LINE
  5
4F0
330
1E
100
AcDbEntity
  8
7
100
AcDbLine
 10
36.74114173228346
 20
26.70275590551181
 30
0.0
 11
36.75393700787401
 21
26.73326771653543
 31
0.0
  0
LINE
  5
4F1
330
1E
100
AcDbEntity
  8
7
100
AcDbLine
 10
36.75393700787401
 20
26.73326771653543
 30
0.0
 11
36.76574803149605
 21
26.70275590551181
 31
0.0
  0
LINE
  5
4F2
330
1E
100
AcDbEntity
  8
7
100
AcDbLine
 10
36.70669291338582
 20
26.70275590551181
 30
0.0
 11
36.70669291338582
 21
26.73326771653543
 31
0.0
  0
LINE
  5
4F3
330
1E
100
AcDbEntity
  8
7
100
AcDbLine
 10
36.70669291338582
 20
26.73326771653543
 30
0.0
 11
36.7253937007874
 21
26.73326771653543
 31
0.0
  0
LINE
  5
4F4
330
1E
100
AcDbEntity
  8
7
100
AcDbLine
 10
36.7253937007874
 20
26.73326771653543
 30
0.0
 11
36.73228346456692
 21
26.73031496062991
 31
0.0
  0
LINE
  5
4F5
330
1E
100
AcDbEntity
  8
7
100
AcDbLine
 10
36.73228346456692
 20
26.73031496062991
 30
0.0
 11
36.73228346456692
 21
26.72145669291338
 31
0.0
  0
LINE
  5
4F6
330
1E
100
AcDbEntity
  8
7
100
AcDbLine
 10
36.73228346456692
 20
26.72145669291338
 30
0.0
 11
36.7253937007874
 21
26.71850393700787
 31
0.0
  0
LINE
  5
4F7
330
1E
100
AcDbEntity
  8
7
100
AcDbLine
 10
36.55314960629921
 20
28.18700787401574
 30
0.0
 11
36.56102362204724
 21
27.35629921259842
 31
0.0
  0
LINE
  5
4F8
330
1E
100
AcDbEntity
  8
7
100
AcDbLine
 10
36.56102362204724
 20
27.35629921259842
 30
0.0
 11
36.56102362204724
 21
27.34350393700787
 31
0.0
  0
LINE
  5
4F9
330
1E
100
AcDbEntity
  8
7
100
AcDbLine
 10
36.56102362204724
 20
27.34350393700787
 30
0.0
 11
36.56102362204724
 21
27.33562992125984
 31
0.0
  0
LINE
  5
4FA
330
1E
100
AcDbEntity
  8
7
100
AcDbLine
 10
36.56102362204724
 20
27.33562992125984
 30
0.0
 11
36.56102362204724
 21
27.33267716535433
 31
0.0
  0
LINE
  5
4FB
330
1E
100
AcDbEntity
  8
7
100
AcDbLine
 10
37.07775590551181
 20
27.33267716535433
 30
0.0
 11
37.07775590551181
 21
27.33562992125984
 31
0.0
  0
LINE
  5
4FC
330
1E
100
AcDbEntity
  8
7
100
AcDbLine
 10
37.07775590551181
 20
27.33562992125984
 30
0.0
 11
37.07775590551181
 21
27.34350393700787
 31
0.0
  0
LINE
  5
4FD
330
1E
100
AcDbEntity
  8
7
100
AcDbLine
 10
37.07775590551181
 20
27.34350393700787
 30
0.0
 11
37.07874015748031
 21
27.35629921259842
 31
0.0
  0
LINE
  5
4FE
330
1E
100
AcDbEntity
  8
7
100
AcDbLine
 10
37.07874015748031
 20
27.35629921259842
 30
0.0
 11
37.08562992125983
 21
28.18700787401574
 31
0.0
  0
LINE
  5
4FF
330
1E
100
AcDbEntity
  8
7
100
AcDbLine
 10
36.93011811023621
 20
28.18700787401574
 30
0.0
 11
36.92421259842519
 21
28.18700787401574
 31
0.0
  0
LINE
  5
500
330
1E
100
AcDbEntity
  8
7
100
AcDbLine
 10
36.92421259842519
 20
28.18700787401574
 30
0.0
 11
36.91535433070866
 21
28.18700787401574
 31
0.0
  0
LINE
  5
501
330
1E
100
AcDbEntity
  8
7
100
AcDbLine
 10
36.72342519685039
 20
28.18700787401574
 30
0.0
 11
36.71456692913386
 21
28.18700787401574
 31
0.0
  0
LINE
  5
502
330
1E
100
AcDbEntity
  8
7
100
AcDbLine
 10
36.71456692913386
 20
28.18700787401574
 30
0.0
 11
36.70964566929133
 21
28.18700787401574
 31
0.0
  0
LINE
  5
503
330
1E
100
AcDbEntity
  8
7
100
AcDbLine
 10
36.50885826771653
 20
27.33267716535433
 30
0.0
 11
36.50885826771653
 21
27.33562992125984
 31
0.0
  0
LINE
  5
504
330
1E
100
AcDbEntity
  8
7
100
AcDbLine
 10
36.50885826771653
 20
27.33562992125984
 30
0.0
 11
36.50885826771653
 21
27.34350393700787
 31
0.0
  0
LINE
  5
505
330
1E
100
AcDbEntity
  8
7
100
AcDbLine
 10
36.50885826771653
 20
27.34350393700787
 30
0.0
 11
36.50885826771653
 21
27.35629921259842
 31
0.0
  0
LINE
  5
506
330
1E
100
AcDbEntity
  8
7
100
AcDbLine
 10
36.50885826771653
 20
27.35629921259842
 30
0.0
 11
36.52362204724409
 21
28.18700787401574
 31
0.0
  0
LINE
  5
507
330
1E
100
AcDbEntity
  8
7
100
AcDbLine
 10
37.11515748031495
 20
28.18700787401574
 30
0.0
 11
37.12992125984252
 21
27.35629921259842
 31
0.0
  0
LINE
  5
508
330
1E
100
AcDbEntity
  8
7
100
AcDbLine
 10
37.12992125984252
 20
27.35629921259842
 30
0.0
 11
37.12992125984252
 21
27.34350393700787
 31
0.0
  0
LINE
  5
509
330
1E
100
AcDbEntity
  8
7
100
AcDbLine
 10
37.12992125984252
 20
27.34350393700787
 30
0.0
 11
37.12992125984252
 21
27.33562992125984
 31
0.0
  0
LINE
  5
50A
330
1E
100
AcDbEntity
  8
7
100
AcDbLine
 10
37.12992125984252
 20
27.33562992125984
 30
0.0
 11
37.12992125984252
 21
27.33267716535433
 31
0.0
  0
ENDSEC
  0
SECTION
  2
OBJECTS
  0
DICTIONARY
  5
C
330
0
100
AcDbDictionary
  3
ACAD_GROUP
350
D
  3
ACAD_LAYOUT
350
19
  3
ACAD_MLINESTYLE
350
16
  3
ACAD_PLOTSETTINGS
350
18
1001
ACAD
1000
TREAT_AS_HARD
1070
     0
  0
DICTIONARY
  5
50C
330
1E
100
AcDbDictionary
  3
ACAD_LAYOUTSELFREF
350
57F
1001
ACAD
1000
TREAT_AS_HARD
1070
     1
  0
DICTIONARY
  5
50E
330
1A
100
AcDbDictionary
  3
ACAD_LAYOUTSELFREF
350
57E
1001
ACAD
1000
TREAT_AS_HARD
1070
     1
  0
DICTIONARY
  5
D
102
{ACAD_REACTORS
330
C
102
}
330
C
100
AcDbDictionary
1001
ACAD
1000
TREAT_AS_HARD
1070
     0
  0
DICTIONARY
  5
19
102
{ACAD_REACTORS
330
C
102
}
330
C
100
AcDbDictionary
1001
ACAD
1000
TREAT_AS_HARD
1070
     0
  0
DICTIONARY
  5
16
102
{ACAD_REACTORS
330
C
102
}
330
C
100
AcDbDictionary
  3
STANDARD
350
17
1001
ACAD
1000
TREAT_AS_HARD
1070
     0
  0
DICTIONARY
  5
18
102
{ACAD_REACTORS
330
C
102
}
330
C
100
AcDbDictionary
1001
ACAD
1000
TREAT_AS_HARD
1070
     0
  0
XRECORD
  5
57F
102
{ACAD_REACTORS
330
50C
102
}
330
50C
100
AcDbXrecord
340
1E
  0
XRECORD
  5
57E
102
{ACAD_REACTORS
330
50E
102
}
330
50E
100
AcDbXrecord
340
1A
  0
MLINESTYLE
  5
17
102
{ACAD_REACTORS
330
16
102
}
330
16
100
AcDbMlineStyle
  2
STANDARD
 70
     0
  3

 62
   256
 51
90.0
 52
90.0
 71
     2
 49
0.5
 62
   256
  6
BYLAYER
 49
-0.5
 62
   256
  6
BYLAYER
  0
ENDSEC
  0
EOF
