  0
SECTION
  2
HEADER
  9
$ACADVER
  1
AC1012
  9
$DWGCODEPAGE
  3
ANSI_1252
  9
$INSBASE
 10
0.0
 20
0.0
 30
0.0
  9
$EXTMIN
 10
1.729064971358823
 20
4.171096827568366
 30
-0.0015258207003583
  9
$EXTMAX
 10
6.319519064295477
 20
7.123672504121987
 30
0.0000000349246037
  9
$LIMMIN
 10
0.0
 20
0.0
  9
$LIMMAX
 10
12.0
 20
9.0
  9
$ORTHOMODE
 70
     0
  9
$REGENMODE
 70
     1
  9
$FILLMODE
 70
     1
  9
$QTEXTMODE
 70
     0
  9
$MIRRTEXT
 70
     1
  9
$DRAGMODE
 70
     2
  9
$LTSCALE
 40
1.0
  9
$OSMODE
 70
    37
  9
$ATTMODE
 70
     1
  9
$TEXTSIZE
 40
0.2
  9
$TRACEWID
 40
0.05
  9
$TEXTSTYLE
  7
STANDARD
  9
$CLAYER
  8
0
  9
$CELTYPE
  6
BYLAYER
  9
$CECOLOR
 62
   256
  9
$CELTSCALE
 40
1.0
  9
$DELOBJ
 70
     1
  9
$DISPSILH
 70
     0
  9
$DIMSCALE
 40
1.0
  9
$DIMASZ
 40
0.18
  9
$DIMEXO
 40
0.0625
  9
$DIMDLI
 40
0.38
  9
$DIMRND
 40
0.0
  9
$DIMDLE
 40
0.0
  9
$DIMEXE
 40
0.18
  9
$DIMTP
 40
0.0
  9
$DIMTM
 40
0.0
  9
$DIMTXT
 40
0.18
  9
$DIMCEN
 40
0.09
  9
$DIMTSZ
 40
0.0
  9
$DIMTOL
 70
     0
  9
$DIMLIM
 70
     0
  9
$DIMTIH
 70
     1
  9
$DIMTOH
 70
     1
  9
$DIMSE1
 70
     0
  9
$DIMSE2
 70
     0
  9
$DIMTAD
 70
     0
  9
$DIMZIN
 70
     0
  9
$DIMBLK
  1

  9
$DIMASO
 70
     1
  9
$DIMSHO
 70
     1
  9
$DIMPOST
  1

  9
$DIMAPOST
  1

  9
$DIMALT
 70
     0
  9
$DIMALTD
 70
     2
  9
$DIMALTF
 40
25.4
  9
$DIMLFAC
 40
1.0
  9
$DIMTOFL
 70
     0
  9
$DIMTVP
 40
0.0
  9
$DIMTIX
 70
     0
  9
$DIMSOXD
 70
     0
  9
$DIMSAH
 70
     0
  9
$DIMBLK1
  1

  9
$DIMBLK2
  1

  9
$DIMSTYLE
  2
STANDARD
  9
$DIMCLRD
 70
     0
  9
$DIMCLRE
 70
     0
  9
$DIMCLRT
 70
     0
  9
$DIMTFAC
 40
1.0
  9
$DIMGAP
 40
0.09
  9
$DIMJUST
 70
     0
  9
$DIMSD1
 70
     0
  9
$DIMSD2
 70
     0
  9
$DIMTOLJ
 70
     1
  9
$DIMTZIN
 70
     0
  9
$DIMALTZ
 70
     0
  9
$DIMALTTZ
 70
     0
  9
$DIMFIT
 70
     5
  9
$DIMUPT
 70
     0
  9
$DIMUNIT
 70
     2
  9
$DIMDEC
 70
     4
  9
$DIMTDEC
 70
     4
  9
$DIMALTU
 70
     2
  9
$DIMALTTD
 70
     2
  9
$DIMTXSTY
  7
STANDARD
  9
$DIMAUNIT
 70
     0
  9
$LUNITS
 70
     2
  9
$LUPREC
 70
     4
  9
$SKETCHINC
 40
0.1
  9
$FILLETRAD
 40
0.0
  9
$AUNITS
 70
     0
  9
$AUPREC
 70
     0
  9
$MENU
  1
acad
  9
$ELEVATION
 40
0.0
  9
$PELEVATION
 40
0.0
  9
$THICKNESS
 40
0.0
  9
$LIMCHECK
 70
     0
  9
$BLIPMODE
 70
     0
  9
$CHAMFERA
 40
0.0
  9
$CHAMFERB
 40
0.0
  9
$CHAMFERC
 40
0.0
  9
$CHAMFERD
 40
0.0
  9
$SKPOLY
 70
     0
  9
$TDCREATE
 40
2454319.434155092
  9
$TDUPDATE
 40
2454319.443636805
  9
$TDINDWG
 40
0.0010946296
  9
$TDUSRTIMER
 40
0.0010946296
  9
$USRTIMER
 70
     1
  9
$ANGBASE
 50
0.0
  9
$ANGDIR
 70
     0
  9
$PDMODE
 70
     0
  9
$PDSIZE
 40
0.0
  9
$PLINEWID
 40
0.0
  9
$COORDS
 70
     1
  9
$SPLFRAME
 70
     0
  9
$SPLINETYPE
 70
     6
  9
$SPLINESEGS
 70
     8
  9
$ATTDIA
 70
     0
  9
$ATTREQ
 70
     1
  9
$HANDLING
 70
  4097
  9
$HANDSEED
  5
33E9
  9
$SURFTAB1
 70
     6
  9
$SURFTAB2
 70
     6
  9
$SURFTYPE
 70
     6
  9
$SURFU
 70
     6
  9
$SURFV
 70
     6
  9
$UCSNAME
  2

  9
$UCSORG
 10
0.0
 20
0.0
 30
0.0
  9
$UCSXDIR
 10
1.0
 20
0.0
 30
0.0
  9
$UCSYDIR
 10
0.0
 20
1.0
 30
0.0
  9
$PUCSNAME
  2

  9
$PUCSORG
 10
0.0
 20
0.0
 30
0.0
  9
$PUCSXDIR
 10
1.0
 20
0.0
 30
0.0
  9
$PUCSYDIR
 10
0.0
 20
1.0
 30
0.0
  9
$USERI1
 70
     0
  9
$USERI2
 70
     0
  9
$USERI3
 70
     0
  9
$USERI4
 70
     0
  9
$USERI5
 70
     0
  9
$USERR1
 40
0.0
  9
$USERR2
 40
0.0
  9
$USERR3
 40
0.0
  9
$USERR4
 40
0.0
  9
$USERR5
 40
0.0
  9
$WORLDVIEW
 70
     1
  9
$SHADEDGE
 70
     3
  9
$SHADEDIF
 70
    70
  9
$TILEMODE
 70
     1
  9
$MAXACTVP
 70
    16
  9
$PINSBASE
 10
0.0
 20
0.0
 30
0.0
  9
$PLIMCHECK
 70
     0
  9
$PEXTMIN
 10
1.000000000000000E+20
 20
1.000000000000000E+20
 30
1.000000000000000E+20
  9
$PEXTMAX
 10
-1.000000000000000E+20
 20
-1.000000000000000E+20
 30
-1.000000000000000E+20
  9
$PLIMMIN
 10
0.0
 20
0.0
  9
$PLIMMAX
 10
12.0
 20
9.0
  9
$UNITMODE
 70
     0
  9
$VISRETAIN
 70
     0
  9
$PLINEGEN
 70
     0
  9
$PSLTSCALE
 70
     1
  9
$TREEDEPTH
 70
  3020
  9
$PICKSTYLE
 70
     1
  9
$CMLSTYLE
  2
STANDARD
  9
$CMLJUST
 70
     0
  9
$CMLSCALE
 40
1.0
  9
$SAVEIMAGES
 70
     1
  0
ENDSEC
  0
SECTION
  2
CLASSES
  0
CLASS
  1
ACDBDICTIONARYWDFLT
  2
AcDbDictionaryWithDefault
  3
AutoCAD 2000
 90
    32768
280
     0
281
     0
  0
CLASS
  1
ACDBPLACEHOLDER
  2
AcDbPlaceHolder
  3
AutoCAD 2000
 90
    32768
280
     0
281
     0
  0
CLASS
  1
LAYOUT
  2
AcDbLayout
  3
AutoCAD 2000
 90
    32768
280
     0
281
     0
  0
CLASS
  1
LONG_TRANSACTION
  2
AcDbLongTransaction
  3
AutoCAD 2000
 90
    32768
280
     0
281
     0
  0
CLASS
  1
LWPOLYLINE
  2
AcDbPolyline
  3
AutoCAD 2000
 90
    32768
280
     0
281
     1
  0
CLASS
  1
HATCH
  2
AcDbHatch
  3
AutoCAD 2000
 90
    32768
280
     0
281
     1
  0
CLASS
  1
XRECORD
  2
AcDbXrecord
  3
AutoCAD 2000
 90
    32768
280
     0
281
     0
  0
ENDSEC
  0
SECTION
  2
TABLES
  0
TABLE
  2
VPORT
  5
8
330
0
100
AcDbSymbolTable
 70
     4
  0
VPORT
  5
2FCD
330
8
100
AcDbSymbolTableRecord
100
AcDbViewportTableRecord
  2
*ACTIVE
 70
     0
 10
0.0
 20
0.0
 11
1.0
 21
1.0
 12
4.02429201782715
 22
5.647384665845176
 13
0.0
 23
0.0
 14
1.0
 24
1.0
 15
0.0
 25
0.0
 16
0.0
 26
0.0
 36
1.0
 17
0.0
 27
0.0
 37
0.0
 40
2.987865425675776
 41
1.838323353293413
 42
50.0
 43
0.0
 44
0.0
 50
0.0
 51
0.0
 71
     0
 72
   100
 73
     1
 74
     1
 75
     0
 76
     0
 77
     0
 78
     0
  0
ENDTAB
  0
TABLE
  2
LTYPE
  5
5
330
0
100
AcDbSymbolTable
 70
    25
  0
LTYPE
  5
13
330
5
100
AcDbSymbolTableRecord
100
AcDbLinetypeTableRecord
  2
BYBLOCK
 70
     0
  3

 72
    65
 73
     0
 40
0.0
  0
LTYPE
  5
14
330
5
100
AcDbSymbolTableRecord
100
AcDbLinetypeTableRecord
  2
BYLAYER
 70
     0
  3

 72
    65
 73
     0
 40
0.0
  0
LTYPE
  5
15
330
5
100
AcDbSymbolTableRecord
100
AcDbLinetypeTableRecord
  2
CONTINUOUS
 70
     0
  3
Solid line
 72
    65
 73
     0
 40
0.0
  0
LTYPE
  5
22
330
5
100
AcDbSymbolTableRecord
100
AcDbLinetypeTableRecord
  2
BORDER
 70
     0
  3
__ __ . __ __ . __ __ . __ __ . __ __ . __ __ .
 72
    65
 73
     6
 40
1.75
 49
0.5
 74
     0
 49
-0.25
 74
     0
 49
0.5
 74
     0
 49
-0.25
 74
     0
 49
0.5
 74
     0
 49
-0.25
 74
     0
  0
LTYPE
  5
23
330
5
100
AcDbSymbolTableRecord
100
AcDbLinetypeTableRecord
  2
BORDER2
 70
     0
  3
__.__.__.__.__.__.__.__.
 72
    65
 73
     6
 40
0.875
 49
0.25
 74
     0
 49
-0.125
 74
     0
 49
0.25
 74
     0
 49
-0.125
 74
     0
 49
0.25
 74
     0
 49
-0.125
 74
     0
  0
LTYPE
  5
24
330
5
100
AcDbSymbolTableRecord
100
AcDbLinetypeTableRecord
  2
BORDERX2
 70
     0
  3
____  ____  .  
 72
    65
 73
     6
 40
3.5
 49
1.0
 74
     0
 49
-0.5
 74
     0
 49
1.0
 74
     0
 49
-0.5
 74
     0
 49
1.0
 74
     0
 49
-0.5
 74
     0
  0
LTYPE
  5
25
330
5
100
AcDbSymbolTableRecord
100
AcDbLinetypeTableRecord
  2
CENTER
 70
     0
  3
____ _ ____ _ ____ _ 
 72
    65
 73
     4
 40
2.0
 49
1.25
 74
     0
 49
-0.25
 74
     0
 49
0.25
 74
     0
 49
-0.25
 74
     0
  0
LTYPE
  5
26
330
5
100
AcDbSymbolTableRecord
100
AcDbLinetypeTableRecord
  2
CENTER2
 70
     0
  3
____ _ ____ _ ____ _ 
 72
    65
 73
     4
 40
1.125
 49
0.75
 74
     0
 49
-0.125
 74
     0
 49
0.125
 74
     0
 49
-0.125
 74
     0
  0
LTYPE
  5
27
330
5
100
AcDbSymbolTableRecord
100
AcDbLinetypeTableRecord
  2
CENTERX2
 70
     0
  3
________  __  
 72
    65
 73
     4
 40
4.0
 49
2.5
 74
     0
 49
-0.5
 74
     0
 49
0.5
 74
     0
 49
-0.5
 74
     0
  0
LTYPE
  5
28
330
5
100
AcDbSymbolTableRecord
100
AcDbLinetypeTableRecord
  2
DASHDOT
 70
     0
  3
__ . __ . __ . __ . 
 72
    65
 73
     4
 40
1.0
 49
0.5
 74
     0
 49
-0.25
 74
     0
 49
0.0
 74
     0
 49
-0.25
 74
     0
  0
LTYPE
  5
29
330
5
100
AcDbSymbolTableRecord
100
AcDbLinetypeTableRecord
  2
DASHDOT2
 70
     0
  3
_._._._._._._._._.
 72
    65
 73
     4
 40
0.5
 49
0.25
 74
     0
 49
-0.125
 74
     0
 49
0.0
 74
     0
 49
-0.125
 74
     0
  0
LTYPE
  5
2A
330
5
100
AcDbSymbolTableRecord
100
AcDbLinetypeTableRecord
  2
DASHDOTX2
 70
     0
  3
____  .  ____  .  
 72
    65
 73
     4
 40
2.0
 49
1.0
 74
     0
 49
-0.5
 74
     0
 49
0.0
 74
     0
 49
-0.5
 74
     0
  0
LTYPE
  5
2B
330
5
100
AcDbSymbolTableRecord
100
AcDbLinetypeTableRecord
  2
DASHED
 70
     0
  3
__ __ __ __ __ __ __ 
 72
    65
 73
     2
 40
0.75
 49
0.5
 74
     0
 49
-0.25
 74
     0
  0
LTYPE
  5
2C
330
5
100
AcDbSymbolTableRecord
100
AcDbLinetypeTableRecord
  2
DASHED2
 70
     0
  3
_ _ _ _ _ _ _ _ _ _ 
 72
    65
 73
     2
 40
0.375
 49
0.25
 74
     0
 49
-0.125
 74
     0
  0
LTYPE
  5
2D
330
5
100
AcDbSymbolTableRecord
100
AcDbLinetypeTableRecord
  2
DASHEDX2
 70
     0
  3
____  ____  ____  
 72
    65
 73
     2
 40
1.5
 49
1.0
 74
     0
 49
-0.5
 74
     0
  0
LTYPE
  5
2E
330
5
100
AcDbSymbolTableRecord
100
AcDbLinetypeTableRecord
  2
DIVIDE
 70
     0
  3
____ . . ____ . . 
 72
    65
 73
     6
 40
1.25
 49
0.5
 74
     0
 49
-0.25
 74
     0
 49
0.0
 74
     0
 49
-0.25
 74
     0
 49
0.0
 74
     0
 49
-0.25
 74
     0
  0
LTYPE
  5
2F
330
5
100
AcDbSymbolTableRecord
100
AcDbLinetypeTableRecord
  2
DIVIDE2
 70
     0
  3
__..__..__..__..__..
 72
    65
 73
     6
 40
0.625
 49
0.25
 74
     0
 49
-0.125
 74
     0
 49
0.0
 74
     0
 49
-0.125
 74
     0
 49
0.0
 74
     0
 49
-0.125
 74
     0
  0
LTYPE
  5
30
330
5
100
AcDbSymbolTableRecord
100
AcDbLinetypeTableRecord
  2
DIVIDEX2
 70
     0
  3
________  .  .  
 72
    65
 73
     6
 40
2.5
 49
1.0
 74
     0
 49
-0.5
 74
     0
 49
0.0
 74
     0
 49
-0.5
 74
     0
 49
0.0
 74
     0
 49
-0.5
 74
     0
  0
LTYPE
  5
31
330
5
100
AcDbSymbolTableRecord
100
AcDbLinetypeTableRecord
  2
DOT
 70
     0
  3
. . . . . . . . . 
 72
    65
 73
     2
 40
0.25
 49
0.0
 74
     0
 49
-0.25
 74
     0
  0
LTYPE
  5
32
330
5
100
AcDbSymbolTableRecord
100
AcDbLinetypeTableRecord
  2
DOT2
 70
     0
  3
..................
 72
    65
 73
     2
 40
0.125
 49
0.0
 74
     0
 49
-0.125
 74
     0
  0
LTYPE
  5
33
330
5
100
AcDbSymbolTableRecord
100
AcDbLinetypeTableRecord
  2
DOTX2
 70
     0
  3
.  .  .  .  .  .  
 72
    65
 73
     2
 40
0.5
 49
0.0
 74
     0
 49
-0.5
 74
     0
  0
LTYPE
  5
34
330
5
100
AcDbSymbolTableRecord
100
AcDbLinetypeTableRecord
  2
HIDDEN
 70
     0
  3
__ __ __ __ __ __ 
 72
    65
 73
     2
 40
0.375
 49
0.25
 74
     0
 49
-0.125
 74
     0
  0
LTYPE
  5
35
330
5
100
AcDbSymbolTableRecord
100
AcDbLinetypeTableRecord
  2
HIDDEN2
 70
     0
  3
_ _ _ _ _ _ _ _ _ 
 72
    65
 73
     2
 40
0.1875
 49
0.125
 74
     0
 49
-0.0625
 74
     0
  0
LTYPE
  5
36
330
5
100
AcDbSymbolTableRecord
100
AcDbLinetypeTableRecord
  2
HIDDENX2
 70
     0
  3
____ ____ ____ ____ 
 72
    65
 73
     2
 40
0.75
 49
0.5
 74
     0
 49
-0.25
 74
     0
  0
LTYPE
  5
37
330
5
100
AcDbSymbolTableRecord
100
AcDbLinetypeTableRecord
  2
PHANTOM
 70
     0
  3
______  __  __  
 72
    65
 73
     6
 40
2.5
 49
1.25
 74
     0
 49
-0.25
 74
     0
 49
0.25
 74
     0
 49
-0.25
 74
     0
 49
0.25
 74
     0
 49
-0.25
 74
     0
  0
LTYPE
  5
38
330
5
100
AcDbSymbolTableRecord
100
AcDbLinetypeTableRecord
  2
PHANTOM2
 70
     0
  3
___ _ _ ___ _ _ 
 72
    65
 73
     6
 40
1.25
 49
0.625
 74
     0
 49
-0.125
 74
     0
 49
0.125
 74
     0
 49
-0.125
 74
     0
 49
0.125
 74
     0
 49
-0.125
 74
     0
  0
LTYPE
  5
39
330
5
100
AcDbSymbolTableRecord
100
AcDbLinetypeTableRecord
  2
PHANTOMX2
 70
     0
  3
___ _ _ ___ _ _ 
 72
    65
 73
     6
 40
5.0
 49
2.5
 74
     0
 49
-0.5
 74
     0
 49
0.5
 74
     0
 49
-0.5
 74
     0
 49
0.5
 74
     0
 49
-0.5
 74
     0
  0
ENDTAB
  0
TABLE
  2
LAYER
  5
2
330
0
100
AcDbSymbolTable
 70
   256
  0
LAYER
  5
10
330
2
100
AcDbSymbolTableRecord
100
AcDbLayerTableRecord
  2
0
 70
     0
 62
     7
  6
CONTINUOUS
  0
LAYER
  5
3A
330
2
100
AcDbSymbolTableRecord
100
AcDbLayerTableRecord
  2
1
 70
     0
 62
     1
  6
CONTINUOUS
  0
LAYER
  5
3B
330
2
100
AcDbSymbolTableRecord
100
AcDbLayerTableRecord
  2
2
 70
     0
 62
     2
  6
CONTINUOUS
  0
LAYER
  5
3C
330
2
100
AcDbSymbolTableRecord
100
AcDbLayerTableRecord
  2
3
 70
     0
 62
     3
  6
CONTINUOUS
  0
LAYER
  5
3D
330
2
100
AcDbSymbolTableRecord
100
AcDbLayerTableRecord
  2
4
 70
     0
 62
     4
  6
CONTINUOUS
  0
LAYER
  5
3E
330
2
100
AcDbSymbolTableRecord
100
AcDbLayerTableRecord
  2
5
 70
     0
 62
     5
  6
CONTINUOUS
  0
LAYER
  5
3F
330
2
100
AcDbSymbolTableRecord
100
AcDbLayerTableRecord
  2
6
 70
     0
 62
     6
  6
CONTINUOUS
  0
LAYER
  5
40
330
2
100
AcDbSymbolTableRecord
100
AcDbLayerTableRecord
  2
7
 70
     0
 62
     7
  6
CONTINUOUS
  0
LAYER
  5
41
330
2
100
AcDbSymbolTableRecord
100
AcDbLayerTableRecord
  2
8
 70
     0
 62
     8
  6
CONTINUOUS
  0
LAYER
  5
42
330
2
100
AcDbSymbolTableRecord
100
AcDbLayerTableRecord
  2
9
 70
     0
 62
     9
  6
CONTINUOUS
  0
LAYER
  5
43
330
2
100
AcDbSymbolTableRecord
100
AcDbLayerTableRecord
  2
10
 70
     0
 62
    10
  6
CONTINUOUS
  0
LAYER
  5
44
330
2
100
AcDbSymbolTableRecord
100
AcDbLayerTableRecord
  2
11
 70
     0
 62
    11
  6
CONTINUOUS
  0
LAYER
  5
45
330
2
100
AcDbSymbolTableRecord
100
AcDbLayerTableRecord
  2
12
 70
     0
 62
    12
  6
CONTINUOUS
  0
LAYER
  5
46
330
2
100
AcDbSymbolTableRecord
100
AcDbLayerTableRecord
  2
13
 70
     0
 62
    13
  6
CONTINUOUS
  0
LAYER
  5
47
330
2
100
AcDbSymbolTableRecord
100
AcDbLayerTableRecord
  2
14
 70
     0
 62
    14
  6
CONTINUOUS
  0
LAYER
  5
48
330
2
100
AcDbSymbolTableRecord
100
AcDbLayerTableRecord
  2
15
 70
     0
 62
    15
  6
CONTINUOUS
  0
LAYER
  5
49
330
2
100
AcDbSymbolTableRecord
100
AcDbLayerTableRecord
  2
16
 70
     0
 62
    16
  6
CONTINUOUS
  0
LAYER
  5
4A
330
2
100
AcDbSymbolTableRecord
100
AcDbLayerTableRecord
  2
17
 70
     0
 62
    17
  6
CONTINUOUS
  0
LAYER
  5
4B
330
2
100
AcDbSymbolTableRecord
100
AcDbLayerTableRecord
  2
18
 70
     0
 62
    18
  6
CONTINUOUS
  0
LAYER
  5
4C
330
2
100
AcDbSymbolTableRecord
100
AcDbLayerTableRecord
  2
19
 70
     0
 62
    19
  6
CONTINUOUS
  0
LAYER
  5
4D
330
2
100
AcDbSymbolTableRecord
100
AcDbLayerTableRecord
  2
20
 70
     0
 62
    20
  6
CONTINUOUS
  0
LAYER
  5
4E
330
2
100
AcDbSymbolTableRecord
100
AcDbLayerTableRecord
  2
21
 70
     0
 62
    21
  6
CONTINUOUS
  0
LAYER
  5
4F
330
2
100
AcDbSymbolTableRecord
100
AcDbLayerTableRecord
  2
22
 70
     0
 62
    22
  6
CONTINUOUS
  0
LAYER
  5
50
330
2
100
AcDbSymbolTableRecord
100
AcDbLayerTableRecord
  2
23
 70
     0
 62
    23
  6
CONTINUOUS
  0
LAYER
  5
51
330
2
100
AcDbSymbolTableRecord
100
AcDbLayerTableRecord
  2
24
 70
     0
 62
    24
  6
CONTINUOUS
  0
LAYER
  5
52
330
2
100
AcDbSymbolTableRecord
100
AcDbLayerTableRecord
  2
25
 70
     0
 62
    25
  6
CONTINUOUS
  0
LAYER
  5
53
330
2
100
AcDbSymbolTableRecord
100
AcDbLayerTableRecord
  2
26
 70
     0
 62
    26
  6
CONTINUOUS
  0
LAYER
  5
54
330
2
100
AcDbSymbolTableRecord
100
AcDbLayerTableRecord
  2
27
 70
     0
 62
    27
  6
CONTINUOUS
  0
LAYER
  5
55
330
2
100
AcDbSymbolTableRecord
100
AcDbLayerTableRecord
  2
28
 70
     0
 62
    28
  6
CONTINUOUS
  0
LAYER
  5
56
330
2
100
AcDbSymbolTableRecord
100
AcDbLayerTableRecord
  2
29
 70
     0
 62
    29
  6
CONTINUOUS
  0
LAYER
  5
57
330
2
100
AcDbSymbolTableRecord
100
AcDbLayerTableRecord
  2
30
 70
     0
 62
    30
  6
CONTINUOUS
  0
LAYER
  5
58
330
2
100
AcDbSymbolTableRecord
100
AcDbLayerTableRecord
  2
31
 70
     0
 62
    31
  6
CONTINUOUS
  0
LAYER
  5
59
330
2
100
AcDbSymbolTableRecord
100
AcDbLayerTableRecord
  2
32
 70
     0
 62
    32
  6
CONTINUOUS
  0
LAYER
  5
5A
330
2
100
AcDbSymbolTableRecord
100
AcDbLayerTableRecord
  2
33
 70
     0
 62
    33
  6
CONTINUOUS
  0
LAYER
  5
5B
330
2
100
AcDbSymbolTableRecord
100
AcDbLayerTableRecord
  2
34
 70
     0
 62
    34
  6
CONTINUOUS
  0
LAYER
  5
5C
330
2
100
AcDbSymbolTableRecord
100
AcDbLayerTableRecord
  2
35
 70
     0
 62
    35
  6
CONTINUOUS
  0
LAYER
  5
5D
330
2
100
AcDbSymbolTableRecord
100
AcDbLayerTableRecord
  2
36
 70
     0
 62
    36
  6
CONTINUOUS
  0
LAYER
  5
5E
330
2
100
AcDbSymbolTableRecord
100
AcDbLayerTableRecord
  2
37
 70
     0
 62
    37
  6
CONTINUOUS
  0
LAYER
  5
5F
330
2
100
AcDbSymbolTableRecord
100
AcDbLayerTableRecord
  2
38
 70
     0
 62
    38
  6
CONTINUOUS
  0
LAYER
  5
60
330
2
100
AcDbSymbolTableRecord
100
AcDbLayerTableRecord
  2
39
 70
     0
 62
    39
  6
CONTINUOUS
  0
LAYER
  5
61
330
2
100
AcDbSymbolTableRecord
100
AcDbLayerTableRecord
  2
40
 70
     0
 62
    40
  6
CONTINUOUS
  0
LAYER
  5
62
330
2
100
AcDbSymbolTableRecord
100
AcDbLayerTableRecord
  2
41
 70
     0
 62
    41
  6
CONTINUOUS
  0
LAYER
  5
63
330
2
100
AcDbSymbolTableRecord
100
AcDbLayerTableRecord
  2
42
 70
     0
 62
    42
  6
CONTINUOUS
  0
LAYER
  5
64
330
2
100
AcDbSymbolTableRecord
100
AcDbLayerTableRecord
  2
43
 70
     0
 62
    43
  6
CONTINUOUS
  0
LAYER
  5
65
330
2
100
AcDbSymbolTableRecord
100
AcDbLayerTableRecord
  2
44
 70
     0
 62
    44
  6
CONTINUOUS
  0
LAYER
  5
66
330
2
100
AcDbSymbolTableRecord
100
AcDbLayerTableRecord
  2
45
 70
     0
 62
    45
  6
CONTINUOUS
  0
LAYER
  5
67
330
2
100
AcDbSymbolTableRecord
100
AcDbLayerTableRecord
  2
46
 70
     0
 62
    46
  6
CONTINUOUS
  0
LAYER
  5
68
330
2
100
AcDbSymbolTableRecord
100
AcDbLayerTableRecord
  2
47
 70
     0
 62
    47
  6
CONTINUOUS
  0
LAYER
  5
69
330
2
100
AcDbSymbolTableRecord
100
AcDbLayerTableRecord
  2
48
 70
     0
 62
    48
  6
CONTINUOUS
  0
LAYER
  5
6A
330
2
100
AcDbSymbolTableRecord
100
AcDbLayerTableRecord
  2
49
 70
     0
 62
    49
  6
CONTINUOUS
  0
LAYER
  5
6B
330
2
100
AcDbSymbolTableRecord
100
AcDbLayerTableRecord
  2
50
 70
     0
 62
    50
  6
CONTINUOUS
  0
LAYER
  5
6C
330
2
100
AcDbSymbolTableRecord
100
AcDbLayerTableRecord
  2
51
 70
     0
 62
    51
  6
CONTINUOUS
  0
LAYER
  5
6D
330
2
100
AcDbSymbolTableRecord
100
AcDbLayerTableRecord
  2
52
 70
     0
 62
    52
  6
CONTINUOUS
  0
LAYER
  5
6E
330
2
100
AcDbSymbolTableRecord
100
AcDbLayerTableRecord
  2
53
 70
     0
 62
    53
  6
CONTINUOUS
  0
LAYER
  5
6F
330
2
100
AcDbSymbolTableRecord
100
AcDbLayerTableRecord
  2
54
 70
     0
 62
    54
  6
CONTINUOUS
  0
LAYER
  5
70
330
2
100
AcDbSymbolTableRecord
100
AcDbLayerTableRecord
  2
55
 70
     0
 62
    55
  6
CONTINUOUS
  0
LAYER
  5
71
330
2
100
AcDbSymbolTableRecord
100
AcDbLayerTableRecord
  2
56
 70
     0
 62
    56
  6
CONTINUOUS
  0
LAYER
  5
72
330
2
100
AcDbSymbolTableRecord
100
AcDbLayerTableRecord
  2
57
 70
     0
 62
    57
  6
CONTINUOUS
  0
LAYER
  5
73
330
2
100
AcDbSymbolTableRecord
100
AcDbLayerTableRecord
  2
58
 70
     0
 62
    58
  6
CONTINUOUS
  0
LAYER
  5
74
330
2
100
AcDbSymbolTableRecord
100
AcDbLayerTableRecord
  2
59
 70
     0
 62
    59
  6
CONTINUOUS
  0
LAYER
  5
75
330
2
100
AcDbSymbolTableRecord
100
AcDbLayerTableRecord
  2
60
 70
     0
 62
    60
  6
CONTINUOUS
  0
LAYER
  5
76
330
2
100
AcDbSymbolTableRecord
100
AcDbLayerTableRecord
  2
61
 70
     0
 62
    61
  6
CONTINUOUS
  0
LAYER
  5
77
330
2
100
AcDbSymbolTableRecord
100
AcDbLayerTableRecord
  2
62
 70
     0
 62
    62
  6
CONTINUOUS
  0
LAYER
  5
78
330
2
100
AcDbSymbolTableRecord
100
AcDbLayerTableRecord
  2
63
 70
     0
 62
    63
  6
CONTINUOUS
  0
LAYER
  5
79
330
2
100
AcDbSymbolTableRecord
100
AcDbLayerTableRecord
  2
64
 70
     0
 62
    64
  6
CONTINUOUS
  0
LAYER
  5
7A
330
2
100
AcDbSymbolTableRecord
100
AcDbLayerTableRecord
  2
65
 70
     0
 62
    65
  6
CONTINUOUS
  0
LAYER
  5
7B
330
2
100
AcDbSymbolTableRecord
100
AcDbLayerTableRecord
  2
66
 70
     0
 62
    66
  6
CONTINUOUS
  0
LAYER
  5
7C
330
2
100
AcDbSymbolTableRecord
100
AcDbLayerTableRecord
  2
67
 70
     0
 62
    67
  6
CONTINUOUS
  0
LAYER
  5
7D
330
2
100
AcDbSymbolTableRecord
100
AcDbLayerTableRecord
  2
68
 70
     0
 62
    68
  6
CONTINUOUS
  0
LAYER
  5
7E
330
2
100
AcDbSymbolTableRecord
100
AcDbLayerTableRecord
  2
69
 70
     0
 62
    69
  6
CONTINUOUS
  0
LAYER
  5
7F
330
2
100
AcDbSymbolTableRecord
100
AcDbLayerTableRecord
  2
70
 70
     0
 62
    70
  6
CONTINUOUS
  0
LAYER
  5
80
330
2
100
AcDbSymbolTableRecord
100
AcDbLayerTableRecord
  2
71
 70
     0
 62
    71
  6
CONTINUOUS
  0
LAYER
  5
81
330
2
100
AcDbSymbolTableRecord
100
AcDbLayerTableRecord
  2
72
 70
     0
 62
    72
  6
CONTINUOUS
  0
LAYER
  5
82
330
2
100
AcDbSymbolTableRecord
100
AcDbLayerTableRecord
  2
73
 70
     0
 62
    73
  6
CONTINUOUS
  0
LAYER
  5
83
330
2
100
AcDbSymbolTableRecord
100
AcDbLayerTableRecord
  2
74
 70
     0
 62
    74
  6
CONTINUOUS
  0
LAYER
  5
84
330
2
100
AcDbSymbolTableRecord
100
AcDbLayerTableRecord
  2
75
 70
     0
 62
    75
  6
CONTINUOUS
  0
LAYER
  5
85
330
2
100
AcDbSymbolTableRecord
100
AcDbLayerTableRecord
  2
76
 70
     0
 62
    76
  6
CONTINUOUS
  0
LAYER
  5
86
330
2
100
AcDbSymbolTableRecord
100
AcDbLayerTableRecord
  2
77
 70
     0
 62
    77
  6
CONTINUOUS
  0
LAYER
  5
87
330
2
100
AcDbSymbolTableRecord
100
AcDbLayerTableRecord
  2
78
 70
     0
 62
    78
  6
CONTINUOUS
  0
LAYER
  5
88
330
2
100
AcDbSymbolTableRecord
100
AcDbLayerTableRecord
  2
79
 70
     0
 62
    79
  6
CONTINUOUS
  0
LAYER
  5
89
330
2
100
AcDbSymbolTableRecord
100
AcDbLayerTableRecord
  2
80
 70
     0
 62
    80
  6
CONTINUOUS
  0
LAYER
  5
8A
330
2
100
AcDbSymbolTableRecord
100
AcDbLayerTableRecord
  2
81
 70
     0
 62
    81
  6
CONTINUOUS
  0
LAYER
  5
8B
330
2
100
AcDbSymbolTableRecord
100
AcDbLayerTableRecord
  2
82
 70
     0
 62
    82
  6
CONTINUOUS
  0
LAYER
  5
8C
330
2
100
AcDbSymbolTableRecord
100
AcDbLayerTableRecord
  2
83
 70
     0
 62
    83
  6
CONTINUOUS
  0
LAYER
  5
8D
330
2
100
AcDbSymbolTableRecord
100
AcDbLayerTableRecord
  2
84
 70
     0
 62
    84
  6
CONTINUOUS
  0
LAYER
  5
8E
330
2
100
AcDbSymbolTableRecord
100
AcDbLayerTableRecord
  2
85
 70
     0
 62
    85
  6
CONTINUOUS
  0
LAYER
  5
8F
330
2
100
AcDbSymbolTableRecord
100
AcDbLayerTableRecord
  2
86
 70
     0
 62
    86
  6
CONTINUOUS
  0
LAYER
  5
90
330
2
100
AcDbSymbolTableRecord
100
AcDbLayerTableRecord
  2
87
 70
     0
 62
    87
  6
CONTINUOUS
  0
LAYER
  5
91
330
2
100
AcDbSymbolTableRecord
100
AcDbLayerTableRecord
  2
88
 70
     0
 62
    88
  6
CONTINUOUS
  0
LAYER
  5
92
330
2
100
AcDbSymbolTableRecord
100
AcDbLayerTableRecord
  2
89
 70
     0
 62
    89
  6
CONTINUOUS
  0
LAYER
  5
93
330
2
100
AcDbSymbolTableRecord
100
AcDbLayerTableRecord
  2
90
 70
     0
 62
    90
  6
CONTINUOUS
  0
LAYER
  5
94
330
2
100
AcDbSymbolTableRecord
100
AcDbLayerTableRecord
  2
91
 70
     0
 62
    91
  6
CONTINUOUS
  0
LAYER
  5
95
330
2
100
AcDbSymbolTableRecord
100
AcDbLayerTableRecord
  2
92
 70
     0
 62
    92
  6
CONTINUOUS
  0
LAYER
  5
96
330
2
100
AcDbSymbolTableRecord
100
AcDbLayerTableRecord
  2
93
 70
     0
 62
    93
  6
CONTINUOUS
  0
LAYER
  5
97
330
2
100
AcDbSymbolTableRecord
100
AcDbLayerTableRecord
  2
94
 70
     0
 62
    94
  6
CONTINUOUS
  0
LAYER
  5
98
330
2
100
AcDbSymbolTableRecord
100
AcDbLayerTableRecord
  2
95
 70
     0
 62
    95
  6
CONTINUOUS
  0
LAYER
  5
99
330
2
100
AcDbSymbolTableRecord
100
AcDbLayerTableRecord
  2
96
 70
     0
 62
    96
  6
CONTINUOUS
  0
LAYER
  5
9A
330
2
100
AcDbSymbolTableRecord
100
AcDbLayerTableRecord
  2
97
 70
     0
 62
    97
  6
CONTINUOUS
  0
LAYER
  5
9B
330
2
100
AcDbSymbolTableRecord
100
AcDbLayerTableRecord
  2
98
 70
     0
 62
    98
  6
CONTINUOUS
  0
LAYER
  5
9C
330
2
100
AcDbSymbolTableRecord
100
AcDbLayerTableRecord
  2
99
 70
     0
 62
    99
  6
CONTINUOUS
  0
LAYER
  5
9D
330
2
100
AcDbSymbolTableRecord
100
AcDbLayerTableRecord
  2
100
 70
     0
 62
   100
  6
CONTINUOUS
  0
LAYER
  5
9E
330
2
100
AcDbSymbolTableRecord
100
AcDbLayerTableRecord
  2
101
 70
     0
 62
   101
  6
CONTINUOUS
  0
LAYER
  5
9F
330
2
100
AcDbSymbolTableRecord
100
AcDbLayerTableRecord
  2
102
 70
     0
 62
   102
  6
CONTINUOUS
  0
LAYER
  5
A0
330
2
100
AcDbSymbolTableRecord
100
AcDbLayerTableRecord
  2
103
 70
     0
 62
   103
  6
CONTINUOUS
  0
LAYER
  5
A1
330
2
100
AcDbSymbolTableRecord
100
AcDbLayerTableRecord
  2
104
 70
     0
 62
   104
  6
CONTINUOUS
  0
LAYER
  5
A2
330
2
100
AcDbSymbolTableRecord
100
AcDbLayerTableRecord
  2
105
 70
     0
 62
   105
  6
CONTINUOUS
  0
LAYER
  5
A3
330
2
100
AcDbSymbolTableRecord
100
AcDbLayerTableRecord
  2
106
 70
     0
 62
   106
  6
CONTINUOUS
  0
LAYER
  5
A4
330
2
100
AcDbSymbolTableRecord
100
AcDbLayerTableRecord
  2
107
 70
     0
 62
   107
  6
CONTINUOUS
  0
LAYER
  5
A5
330
2
100
AcDbSymbolTableRecord
100
AcDbLayerTableRecord
  2
108
 70
     0
 62
   108
  6
CONTINUOUS
  0
LAYER
  5
A6
330
2
100
AcDbSymbolTableRecord
100
AcDbLayerTableRecord
  2
109
 70
     0
 62
   109
  6
CONTINUOUS
  0
LAYER
  5
A7
330
2
100
AcDbSymbolTableRecord
100
AcDbLayerTableRecord
  2
110
 70
     0
 62
   110
  6
CONTINUOUS
  0
LAYER
  5
A8
330
2
100
AcDbSymbolTableRecord
100
AcDbLayerTableRecord
  2
111
 70
     0
 62
   111
  6
CONTINUOUS
  0
LAYER
  5
A9
330
2
100
AcDbSymbolTableRecord
100
AcDbLayerTableRecord
  2
112
 70
     0
 62
   112
  6
CONTINUOUS
  0
LAYER
  5
AA
330
2
100
AcDbSymbolTableRecord
100
AcDbLayerTableRecord
  2
113
 70
     0
 62
   113
  6
CONTINUOUS
  0
LAYER
  5
AB
330
2
100
AcDbSymbolTableRecord
100
AcDbLayerTableRecord
  2
114
 70
     0
 62
   114
  6
CONTINUOUS
  0
LAYER
  5
AC
330
2
100
AcDbSymbolTableRecord
100
AcDbLayerTableRecord
  2
115
 70
     0
 62
   115
  6
CONTINUOUS
  0
LAYER
  5
AD
330
2
100
AcDbSymbolTableRecord
100
AcDbLayerTableRecord
  2
116
 70
     0
 62
   116
  6
CONTINUOUS
  0
LAYER
  5
AE
330
2
100
AcDbSymbolTableRecord
100
AcDbLayerTableRecord
  2
117
 70
     0
 62
   117
  6
CONTINUOUS
  0
LAYER
  5
AF
330
2
100
AcDbSymbolTableRecord
100
AcDbLayerTableRecord
  2
118
 70
     0
 62
   118
  6
CONTINUOUS
  0
LAYER
  5
B0
330
2
100
AcDbSymbolTableRecord
100
AcDbLayerTableRecord
  2
119
 70
     0
 62
   119
  6
CONTINUOUS
  0
LAYER
  5
B1
330
2
100
AcDbSymbolTableRecord
100
AcDbLayerTableRecord
  2
120
 70
     0
 62
   120
  6
CONTINUOUS
  0
LAYER
  5
B2
330
2
100
AcDbSymbolTableRecord
100
AcDbLayerTableRecord
  2
121
 70
     0
 62
   121
  6
CONTINUOUS
  0
LAYER
  5
B3
330
2
100
AcDbSymbolTableRecord
100
AcDbLayerTableRecord
  2
122
 70
     0
 62
   122
  6
CONTINUOUS
  0
LAYER
  5
B4
330
2
100
AcDbSymbolTableRecord
100
AcDbLayerTableRecord
  2
123
 70
     0
 62
   123
  6
CONTINUOUS
  0
LAYER
  5
B5
330
2
100
AcDbSymbolTableRecord
100
AcDbLayerTableRecord
  2
124
 70
     0
 62
   124
  6
CONTINUOUS
  0
LAYER
  5
B6
330
2
100
AcDbSymbolTableRecord
100
AcDbLayerTableRecord
  2
125
 70
     0
 62
   125
  6
CONTINUOUS
  0
LAYER
  5
B7
330
2
100
AcDbSymbolTableRecord
100
AcDbLayerTableRecord
  2
126
 70
     0
 62
   126
  6
CONTINUOUS
  0
LAYER
  5
B8
330
2
100
AcDbSymbolTableRecord
100
AcDbLayerTableRecord
  2
127
 70
     0
 62
   127
  6
CONTINUOUS
  0
LAYER
  5
B9
330
2
100
AcDbSymbolTableRecord
100
AcDbLayerTableRecord
  2
128
 70
     0
 62
   128
  6
CONTINUOUS
  0
LAYER
  5
BA
330
2
100
AcDbSymbolTableRecord
100
AcDbLayerTableRecord
  2
129
 70
     0
 62
   129
  6
CONTINUOUS
  0
LAYER
  5
BB
330
2
100
AcDbSymbolTableRecord
100
AcDbLayerTableRecord
  2
130
 70
     0
 62
   130
  6
CONTINUOUS
  0
LAYER
  5
BC
330
2
100
AcDbSymbolTableRecord
100
AcDbLayerTableRecord
  2
131
 70
     0
 62
   131
  6
CONTINUOUS
  0
LAYER
  5
BD
330
2
100
AcDbSymbolTableRecord
100
AcDbLayerTableRecord
  2
132
 70
     0
 62
   132
  6
CONTINUOUS
  0
LAYER
  5
BE
330
2
100
AcDbSymbolTableRecord
100
AcDbLayerTableRecord
  2
133
 70
     0
 62
   133
  6
CONTINUOUS
  0
LAYER
  5
BF
330
2
100
AcDbSymbolTableRecord
100
AcDbLayerTableRecord
  2
134
 70
     0
 62
   134
  6
CONTINUOUS
  0
LAYER
  5
C0
330
2
100
AcDbSymbolTableRecord
100
AcDbLayerTableRecord
  2
135
 70
     0
 62
   135
  6
CONTINUOUS
  0
LAYER
  5
C1
330
2
100
AcDbSymbolTableRecord
100
AcDbLayerTableRecord
  2
136
 70
     0
 62
   136
  6
CONTINUOUS
  0
LAYER
  5
C2
330
2
100
AcDbSymbolTableRecord
100
AcDbLayerTableRecord
  2
137
 70
     0
 62
   137
  6
CONTINUOUS
  0
LAYER
  5
C3
330
2
100
AcDbSymbolTableRecord
100
AcDbLayerTableRecord
  2
138
 70
     0
 62
   138
  6
CONTINUOUS
  0
LAYER
  5
C4
330
2
100
AcDbSymbolTableRecord
100
AcDbLayerTableRecord
  2
139
 70
     0
 62
   139
  6
CONTINUOUS
  0
LAYER
  5
C5
330
2
100
AcDbSymbolTableRecord
100
AcDbLayerTableRecord
  2
140
 70
     0
 62
   140
  6
CONTINUOUS
  0
LAYER
  5
C6
330
2
100
AcDbSymbolTableRecord
100
AcDbLayerTableRecord
  2
141
 70
     0
 62
   141
  6
CONTINUOUS
  0
LAYER
  5
C7
330
2
100
AcDbSymbolTableRecord
100
AcDbLayerTableRecord
  2
142
 70
     0
 62
   142
  6
CONTINUOUS
  0
LAYER
  5
C8
330
2
100
AcDbSymbolTableRecord
100
AcDbLayerTableRecord
  2
143
 70
     0
 62
   143
  6
CONTINUOUS
  0
LAYER
  5
C9
330
2
100
AcDbSymbolTableRecord
100
AcDbLayerTableRecord
  2
144
 70
     0
 62
   144
  6
CONTINUOUS
  0
LAYER
  5
CA
330
2
100
AcDbSymbolTableRecord
100
AcDbLayerTableRecord
  2
145
 70
     0
 62
   145
  6
CONTINUOUS
  0
LAYER
  5
CB
330
2
100
AcDbSymbolTableRecord
100
AcDbLayerTableRecord
  2
146
 70
     0
 62
   146
  6
CONTINUOUS
  0
LAYER
  5
CC
330
2
100
AcDbSymbolTableRecord
100
AcDbLayerTableRecord
  2
147
 70
     0
 62
   147
  6
CONTINUOUS
  0
LAYER
  5
CD
330
2
100
AcDbSymbolTableRecord
100
AcDbLayerTableRecord
  2
148
 70
     0
 62
   148
  6
CONTINUOUS
  0
LAYER
  5
CE
330
2
100
AcDbSymbolTableRecord
100
AcDbLayerTableRecord
  2
149
 70
     0
 62
   149
  6
CONTINUOUS
  0
LAYER
  5
CF
330
2
100
AcDbSymbolTableRecord
100
AcDbLayerTableRecord
  2
150
 70
     0
 62
   150
  6
CONTINUOUS
  0
LAYER
  5
D0
330
2
100
AcDbSymbolTableRecord
100
AcDbLayerTableRecord
  2
151
 70
     0
 62
   151
  6
CONTINUOUS
  0
LAYER
  5
D1
330
2
100
AcDbSymbolTableRecord
100
AcDbLayerTableRecord
  2
152
 70
     0
 62
   152
  6
CONTINUOUS
  0
LAYER
  5
D2
330
2
100
AcDbSymbolTableRecord
100
AcDbLayerTableRecord
  2
153
 70
     0
 62
   153
  6
CONTINUOUS
  0
LAYER
  5
D3
330
2
100
AcDbSymbolTableRecord
100
AcDbLayerTableRecord
  2
154
 70
     0
 62
   154
  6
CONTINUOUS
  0
LAYER
  5
D4
330
2
100
AcDbSymbolTableRecord
100
AcDbLayerTableRecord
  2
155
 70
     0
 62
   155
  6
CONTINUOUS
  0
LAYER
  5
D5
330
2
100
AcDbSymbolTableRecord
100
AcDbLayerTableRecord
  2
156
 70
     0
 62
   156
  6
CONTINUOUS
  0
LAYER
  5
D6
330
2
100
AcDbSymbolTableRecord
100
AcDbLayerTableRecord
  2
157
 70
     0
 62
   157
  6
CONTINUOUS
  0
LAYER
  5
D7
330
2
100
AcDbSymbolTableRecord
100
AcDbLayerTableRecord
  2
158
 70
     0
 62
   158
  6
CONTINUOUS
  0
LAYER
  5
D8
330
2
100
AcDbSymbolTableRecord
100
AcDbLayerTableRecord
  2
159
 70
     0
 62
   159
  6
CONTINUOUS
  0
LAYER
  5
D9
330
2
100
AcDbSymbolTableRecord
100
AcDbLayerTableRecord
  2
160
 70
     0
 62
   160
  6
CONTINUOUS
  0
LAYER
  5
DA
330
2
100
AcDbSymbolTableRecord
100
AcDbLayerTableRecord
  2
161
 70
     0
 62
   161
  6
CONTINUOUS
  0
LAYER
  5
DB
330
2
100
AcDbSymbolTableRecord
100
AcDbLayerTableRecord
  2
162
 70
     0
 62
   162
  6
CONTINUOUS
  0
LAYER
  5
DC
330
2
100
AcDbSymbolTableRecord
100
AcDbLayerTableRecord
  2
163
 70
     0
 62
   163
  6
CONTINUOUS
  0
LAYER
  5
DD
330
2
100
AcDbSymbolTableRecord
100
AcDbLayerTableRecord
  2
164
 70
     0
 62
   164
  6
CONTINUOUS
  0
LAYER
  5
DE
330
2
100
AcDbSymbolTableRecord
100
AcDbLayerTableRecord
  2
165
 70
     0
 62
   165
  6
CONTINUOUS
  0
LAYER
  5
DF
330
2
100
AcDbSymbolTableRecord
100
AcDbLayerTableRecord
  2
166
 70
     0
 62
   166
  6
CONTINUOUS
  0
LAYER
  5
E0
330
2
100
AcDbSymbolTableRecord
100
AcDbLayerTableRecord
  2
167
 70
     0
 62
   167
  6
CONTINUOUS
  0
LAYER
  5
E1
330
2
100
AcDbSymbolTableRecord
100
AcDbLayerTableRecord
  2
168
 70
     0
 62
   168
  6
CONTINUOUS
  0
LAYER
  5
E2
330
2
100
AcDbSymbolTableRecord
100
AcDbLayerTableRecord
  2
169
 70
     0
 62
   169
  6
CONTINUOUS
  0
LAYER
  5
E3
330
2
100
AcDbSymbolTableRecord
100
AcDbLayerTableRecord
  2
170
 70
     0
 62
   170
  6
CONTINUOUS
  0
LAYER
  5
E4
330
2
100
AcDbSymbolTableRecord
100
AcDbLayerTableRecord
  2
171
 70
     0
 62
   171
  6
CONTINUOUS
  0
LAYER
  5
E5
330
2
100
AcDbSymbolTableRecord
100
AcDbLayerTableRecord
  2
172
 70
     0
 62
   172
  6
CONTINUOUS
  0
LAYER
  5
E6
330
2
100
AcDbSymbolTableRecord
100
AcDbLayerTableRecord
  2
173
 70
     0
 62
   173
  6
CONTINUOUS
  0
LAYER
  5
E7
330
2
100
AcDbSymbolTableRecord
100
AcDbLayerTableRecord
  2
174
 70
     0
 62
   174
  6
CONTINUOUS
  0
LAYER
  5
E8
330
2
100
AcDbSymbolTableRecord
100
AcDbLayerTableRecord
  2
175
 70
     0
 62
   175
  6
CONTINUOUS
  0
LAYER
  5
E9
330
2
100
AcDbSymbolTableRecord
100
AcDbLayerTableRecord
  2
176
 70
     0
 62
   176
  6
CONTINUOUS
  0
LAYER
  5
EA
330
2
100
AcDbSymbolTableRecord
100
AcDbLayerTableRecord
  2
177
 70
     0
 62
   177
  6
CONTINUOUS
  0
LAYER
  5
EB
330
2
100
AcDbSymbolTableRecord
100
AcDbLayerTableRecord
  2
178
 70
     0
 62
   178
  6
CONTINUOUS
  0
LAYER
  5
EC
330
2
100
AcDbSymbolTableRecord
100
AcDbLayerTableRecord
  2
179
 70
     0
 62
   179
  6
CONTINUOUS
  0
LAYER
  5
ED
330
2
100
AcDbSymbolTableRecord
100
AcDbLayerTableRecord
  2
180
 70
     0
 62
   180
  6
CONTINUOUS
  0
LAYER
  5
EE
330
2
100
AcDbSymbolTableRecord
100
AcDbLayerTableRecord
  2
181
 70
     0
 62
   181
  6
CONTINUOUS
  0
LAYER
  5
EF
330
2
100
AcDbSymbolTableRecord
100
AcDbLayerTableRecord
  2
182
 70
     0
 62
   182
  6
CONTINUOUS
  0
LAYER
  5
F0
330
2
100
AcDbSymbolTableRecord
100
AcDbLayerTableRecord
  2
183
 70
     0
 62
   183
  6
CONTINUOUS
  0
LAYER
  5
F1
330
2
100
AcDbSymbolTableRecord
100
AcDbLayerTableRecord
  2
184
 70
     0
 62
   184
  6
CONTINUOUS
  0
LAYER
  5
F2
330
2
100
AcDbSymbolTableRecord
100
AcDbLayerTableRecord
  2
185
 70
     0
 62
   185
  6
CONTINUOUS
  0
LAYER
  5
F3
330
2
100
AcDbSymbolTableRecord
100
AcDbLayerTableRecord
  2
186
 70
     0
 62
   186
  6
CONTINUOUS
  0
LAYER
  5
F4
330
2
100
AcDbSymbolTableRecord
100
AcDbLayerTableRecord
  2
187
 70
     0
 62
   187
  6
CONTINUOUS
  0
LAYER
  5
F5
330
2
100
AcDbSymbolTableRecord
100
AcDbLayerTableRecord
  2
188
 70
     0
 62
   188
  6
CONTINUOUS
  0
LAYER
  5
F6
330
2
100
AcDbSymbolTableRecord
100
AcDbLayerTableRecord
  2
189
 70
     0
 62
   189
  6
CONTINUOUS
  0
LAYER
  5
F7
330
2
100
AcDbSymbolTableRecord
100
AcDbLayerTableRecord
  2
190
 70
     0
 62
   190
  6
CONTINUOUS
  0
LAYER
  5
F8
330
2
100
AcDbSymbolTableRecord
100
AcDbLayerTableRecord
  2
191
 70
     0
 62
   191
  6
CONTINUOUS
  0
LAYER
  5
F9
330
2
100
AcDbSymbolTableRecord
100
AcDbLayerTableRecord
  2
192
 70
     0
 62
   192
  6
CONTINUOUS
  0
LAYER
  5
FA
330
2
100
AcDbSymbolTableRecord
100
AcDbLayerTableRecord
  2
193
 70
     0
 62
   193
  6
CONTINUOUS
  0
LAYER
  5
FB
330
2
100
AcDbSymbolTableRecord
100
AcDbLayerTableRecord
  2
194
 70
     0
 62
   194
  6
CONTINUOUS
  0
LAYER
  5
FC
330
2
100
AcDbSymbolTableRecord
100
AcDbLayerTableRecord
  2
195
 70
     0
 62
   195
  6
CONTINUOUS
  0
LAYER
  5
FD
330
2
100
AcDbSymbolTableRecord
100
AcDbLayerTableRecord
  2
196
 70
     0
 62
   196
  6
CONTINUOUS
  0
LAYER
  5
FE
330
2
100
AcDbSymbolTableRecord
100
AcDbLayerTableRecord
  2
197
 70
     0
 62
   197
  6
CONTINUOUS
  0
LAYER
  5
FF
330
2
100
AcDbSymbolTableRecord
100
AcDbLayerTableRecord
  2
198
 70
     0
 62
   198
  6
CONTINUOUS
  0
LAYER
  5
100
330
2
100
AcDbSymbolTableRecord
100
AcDbLayerTableRecord
  2
199
 70
     0
 62
   199
  6
CONTINUOUS
  0
LAYER
  5
101
330
2
100
AcDbSymbolTableRecord
100
AcDbLayerTableRecord
  2
200
 70
     0
 62
   200
  6
CONTINUOUS
  0
LAYER
  5
102
330
2
100
AcDbSymbolTableRecord
100
AcDbLayerTableRecord
  2
201
 70
     0
 62
   201
  6
CONTINUOUS
  0
LAYER
  5
103
330
2
100
AcDbSymbolTableRecord
100
AcDbLayerTableRecord
  2
202
 70
     0
 62
   202
  6
CONTINUOUS
  0
LAYER
  5
104
330
2
100
AcDbSymbolTableRecord
100
AcDbLayerTableRecord
  2
203
 70
     0
 62
   203
  6
CONTINUOUS
  0
LAYER
  5
105
330
2
100
AcDbSymbolTableRecord
100
AcDbLayerTableRecord
  2
204
 70
     0
 62
   204
  6
CONTINUOUS
  0
LAYER
  5
106
330
2
100
AcDbSymbolTableRecord
100
AcDbLayerTableRecord
  2
205
 70
     0
 62
   205
  6
CONTINUOUS
  0
LAYER
  5
107
330
2
100
AcDbSymbolTableRecord
100
AcDbLayerTableRecord
  2
206
 70
     0
 62
   206
  6
CONTINUOUS
  0
LAYER
  5
108
330
2
100
AcDbSymbolTableRecord
100
AcDbLayerTableRecord
  2
207
 70
     0
 62
   207
  6
CONTINUOUS
  0
LAYER
  5
109
330
2
100
AcDbSymbolTableRecord
100
AcDbLayerTableRecord
  2
208
 70
     0
 62
   208
  6
CONTINUOUS
  0
LAYER
  5
10A
330
2
100
AcDbSymbolTableRecord
100
AcDbLayerTableRecord
  2
209
 70
     0
 62
   209
  6
CONTINUOUS
  0
LAYER
  5
10B
330
2
100
AcDbSymbolTableRecord
100
AcDbLayerTableRecord
  2
210
 70
     0
 62
   210
  6
CONTINUOUS
  0
LAYER
  5
10C
330
2
100
AcDbSymbolTableRecord
100
AcDbLayerTableRecord
  2
211
 70
     0
 62
   211
  6
CONTINUOUS
  0
LAYER
  5
10D
330
2
100
AcDbSymbolTableRecord
100
AcDbLayerTableRecord
  2
212
 70
     0
 62
   212
  6
CONTINUOUS
  0
LAYER
  5
10E
330
2
100
AcDbSymbolTableRecord
100
AcDbLayerTableRecord
  2
213
 70
     0
 62
   213
  6
CONTINUOUS
  0
LAYER
  5
10F
330
2
100
AcDbSymbolTableRecord
100
AcDbLayerTableRecord
  2
214
 70
     0
 62
   214
  6
CONTINUOUS
  0
LAYER
  5
110
330
2
100
AcDbSymbolTableRecord
100
AcDbLayerTableRecord
  2
215
 70
     0
 62
   215
  6
CONTINUOUS
  0
LAYER
  5
111
330
2
100
AcDbSymbolTableRecord
100
AcDbLayerTableRecord
  2
216
 70
     0
 62
   216
  6
CONTINUOUS
  0
LAYER
  5
112
330
2
100
AcDbSymbolTableRecord
100
AcDbLayerTableRecord
  2
217
 70
     0
 62
   217
  6
CONTINUOUS
  0
LAYER
  5
113
330
2
100
AcDbSymbolTableRecord
100
AcDbLayerTableRecord
  2
218
 70
     0
 62
   218
  6
CONTINUOUS
  0
LAYER
  5
114
330
2
100
AcDbSymbolTableRecord
100
AcDbLayerTableRecord
  2
219
 70
     0
 62
   219
  6
CONTINUOUS
  0
LAYER
  5
115
330
2
100
AcDbSymbolTableRecord
100
AcDbLayerTableRecord
  2
220
 70
     0
 62
   220
  6
CONTINUOUS
  0
LAYER
  5
116
330
2
100
AcDbSymbolTableRecord
100
AcDbLayerTableRecord
  2
221
 70
     0
 62
   221
  6
CONTINUOUS
  0
LAYER
  5
117
330
2
100
AcDbSymbolTableRecord
100
AcDbLayerTableRecord
  2
222
 70
     0
 62
   222
  6
CONTINUOUS
  0
LAYER
  5
118
330
2
100
AcDbSymbolTableRecord
100
AcDbLayerTableRecord
  2
223
 70
     0
 62
   223
  6
CONTINUOUS
  0
LAYER
  5
119
330
2
100
AcDbSymbolTableRecord
100
AcDbLayerTableRecord
  2
224
 70
     0
 62
   224
  6
CONTINUOUS
  0
LAYER
  5
11A
330
2
100
AcDbSymbolTableRecord
100
AcDbLayerTableRecord
  2
225
 70
     0
 62
   225
  6
CONTINUOUS
  0
LAYER
  5
11B
330
2
100
AcDbSymbolTableRecord
100
AcDbLayerTableRecord
  2
226
 70
     0
 62
   226
  6
CONTINUOUS
  0
LAYER
  5
11C
330
2
100
AcDbSymbolTableRecord
100
AcDbLayerTableRecord
  2
227
 70
     0
 62
   227
  6
CONTINUOUS
  0
LAYER
  5
11D
330
2
100
AcDbSymbolTableRecord
100
AcDbLayerTableRecord
  2
228
 70
     0
 62
   228
  6
CONTINUOUS
  0
LAYER
  5
11E
330
2
100
AcDbSymbolTableRecord
100
AcDbLayerTableRecord
  2
229
 70
     0
 62
   229
  6
CONTINUOUS
  0
LAYER
  5
11F
330
2
100
AcDbSymbolTableRecord
100
AcDbLayerTableRecord
  2
230
 70
     0
 62
   230
  6
CONTINUOUS
  0
LAYER
  5
120
330
2
100
AcDbSymbolTableRecord
100
AcDbLayerTableRecord
  2
231
 70
     0
 62
   231
  6
CONTINUOUS
  0
LAYER
  5
121
330
2
100
AcDbSymbolTableRecord
100
AcDbLayerTableRecord
  2
232
 70
     0
 62
   232
  6
CONTINUOUS
  0
LAYER
  5
122
330
2
100
AcDbSymbolTableRecord
100
AcDbLayerTableRecord
  2
233
 70
     0
 62
   233
  6
CONTINUOUS
  0
LAYER
  5
123
330
2
100
AcDbSymbolTableRecord
100
AcDbLayerTableRecord
  2
234
 70
     0
 62
   234
  6
CONTINUOUS
  0
LAYER
  5
124
330
2
100
AcDbSymbolTableRecord
100
AcDbLayerTableRecord
  2
235
 70
     0
 62
   235
  6
CONTINUOUS
  0
LAYER
  5
125
330
2
100
AcDbSymbolTableRecord
100
AcDbLayerTableRecord
  2
236
 70
     0
 62
   236
  6
CONTINUOUS
  0
LAYER
  5
126
330
2
100
AcDbSymbolTableRecord
100
AcDbLayerTableRecord
  2
237
 70
     0
 62
   237
  6
CONTINUOUS
  0
LAYER
  5
127
330
2
100
AcDbSymbolTableRecord
100
AcDbLayerTableRecord
  2
238
 70
     0
 62
   238
  6
CONTINUOUS
  0
LAYER
  5
128
330
2
100
AcDbSymbolTableRecord
100
AcDbLayerTableRecord
  2
239
 70
     0
 62
   239
  6
CONTINUOUS
  0
LAYER
  5
129
330
2
100
AcDbSymbolTableRecord
100
AcDbLayerTableRecord
  2
240
 70
     0
 62
   240
  6
CONTINUOUS
  0
LAYER
  5
12A
330
2
100
AcDbSymbolTableRecord
100
AcDbLayerTableRecord
  2
241
 70
     0
 62
   241
  6
CONTINUOUS
  0
LAYER
  5
12B
330
2
100
AcDbSymbolTableRecord
100
AcDbLayerTableRecord
  2
242
 70
     0
 62
   242
  6
CONTINUOUS
  0
LAYER
  5
12C
330
2
100
AcDbSymbolTableRecord
100
AcDbLayerTableRecord
  2
243
 70
     0
 62
   243
  6
CONTINUOUS
  0
LAYER
  5
12D
330
2
100
AcDbSymbolTableRecord
100
AcDbLayerTableRecord
  2
244
 70
     0
 62
   244
  6
CONTINUOUS
  0
LAYER
  5
12E
330
2
100
AcDbSymbolTableRecord
100
AcDbLayerTableRecord
  2
245
 70
     0
 62
   245
  6
CONTINUOUS
  0
LAYER
  5
12F
330
2
100
AcDbSymbolTableRecord
100
AcDbLayerTableRecord
  2
246
 70
     0
 62
   246
  6
CONTINUOUS
  0
LAYER
  5
130
330
2
100
AcDbSymbolTableRecord
100
AcDbLayerTableRecord
  2
247
 70
     0
 62
   247
  6
CONTINUOUS
  0
LAYER
  5
131
330
2
100
AcDbSymbolTableRecord
100
AcDbLayerTableRecord
  2
248
 70
     0
 62
   248
  6
CONTINUOUS
  0
LAYER
  5
132
330
2
100
AcDbSymbolTableRecord
100
AcDbLayerTableRecord
  2
249
 70
     0
 62
   249
  6
CONTINUOUS
  0
LAYER
  5
133
330
2
100
AcDbSymbolTableRecord
100
AcDbLayerTableRecord
  2
250
 70
     0
 62
   250
  6
CONTINUOUS
  0
LAYER
  5
134
330
2
100
AcDbSymbolTableRecord
100
AcDbLayerTableRecord
  2
251
 70
     0
 62
   251
  6
CONTINUOUS
  0
LAYER
  5
135
330
2
100
AcDbSymbolTableRecord
100
AcDbLayerTableRecord
  2
252
 70
     0
 62
   252
  6
CONTINUOUS
  0
LAYER
  5
136
330
2
100
AcDbSymbolTableRecord
100
AcDbLayerTableRecord
  2
253
 70
     0
 62
   253
  6
CONTINUOUS
  0
LAYER
  5
137
330
2
100
AcDbSymbolTableRecord
100
AcDbLayerTableRecord
  2
254
 70
     0
 62
   254
  6
CONTINUOUS
  0
LAYER
  5
138
330
2
100
AcDbSymbolTableRecord
100
AcDbLayerTableRecord
  2
255
 70
     0
 62
   255
  6
CONTINUOUS
  0
ENDTAB
  0
TABLE
  2
STYLE
  5
3
330
0
100
AcDbSymbolTable
 70
     1
  0
STYLE
  5
11
330
3
100
AcDbSymbolTableRecord
100
AcDbTextStyleTableRecord
  2
STANDARD
 70
     0
 40
0.0
 41
1.0
 50
0.0
 71
     0
 42
0.2
  3
txt
  4

  0
ENDTAB
  0
TABLE
  2
VIEW
  5
6
330
0
100
AcDbSymbolTable
 70
     0
  0
ENDTAB
  0
TABLE
  2
UCS
  5
7
330
0
100
AcDbSymbolTable
 70
     0
  0
ENDTAB
  0
TABLE
  2
APPID
  5
9
330
0
100
AcDbSymbolTable
 70
     1
  0
APPID
  5
12
330
9
100
AcDbSymbolTableRecord
100
AcDbRegAppTableRecord
  2
ACAD
 70
     0
  0
ENDTAB
  0
TABLE
  2
DIMSTYLE
  5
A
330
0
100
AcDbSymbolTable
 70
     1
  0
DIMSTYLE
105
2FC8
330
A
100
AcDbSymbolTableRecord
100
AcDbDimStyleTableRecord
  2
STANDARD
 70
     0
  3

  4

  5

  6

  7

 40
1.0
 41
0.18
 42
0.0625
 43
0.38
 44
0.18
 45
0.0
 46
0.0
 47
0.0
 48
0.0
140
0.18
141
0.09
142
0.0
143
25.4
144
1.0
145
0.0
146
1.0
147
0.09
 71
     0
 72
     0
 73
     1
 74
     1
 75
     0
 76
     0
 77
     0
 78
     0
170
     0
171
     2
172
     0
173
     0
174
     0
175
     0
176
     0
177
     0
178
     0
270
     2
271
     4
272
     4
273
     2
274
     2
340
11
275
     0
280
     0
281
     0
282
     0
283
     1
284
     0
285
     0
286
     0
287
     3
288
     0
  0
ENDTAB
  0
TABLE
  2
BLOCK_RECORD
  5
1
330
0
100
AcDbSymbolTable
 70
     0
  0
BLOCK_RECORD
  5
1E
102
{ACAD_XDICTIONARY
360
2FD0
102
}
330
1
100
AcDbSymbolTableRecord
100
AcDbBlockTableRecord
  2
*MODEL_SPACE
  0
BLOCK_RECORD
  5
1A
102
{ACAD_XDICTIONARY
360
2FCE
102
}
330
1
100
AcDbSymbolTableRecord
100
AcDbBlockTableRecord
  2
*PAPER_SPACE
  0
ENDTAB
  0
ENDSEC
  0
SECTION
  2
BLOCKS
  0
BLOCK
  5
13B
330
1E
100
AcDbEntity
  8
0
100
AcDbBlockBegin
  2
*MODEL_SPACE
 70
     0
 10
0.0
 20
0.0
 30
0.0
  3
*MODEL_SPACE
  1

  0
ENDBLK
  5
13C
330
1E
100
AcDbEntity
  8
0
100
AcDbBlockEnd
  0
BLOCK
  5
139
330
1A
100
AcDbEntity
 67
     1
  8
0
100
AcDbBlockBegin
  2
*PAPER_SPACE
 70
     0
 10
0.0
 20
0.0
 30
0.0
  3
*PAPER_SPACE
  1

  0
ENDBLK
  5
13A
330
1A
100
AcDbEntity
 67
     1
  8
0
100
AcDbBlockEnd
  0
ENDSEC
  0
SECTION
  2
ENTITIES
  0
LINE
  5
2815
330
1E
100
AcDbEntity
  8
0
100
AcDbLine
 10
2.904527559055118
 20
6.222440944881889
 30
0.0
 11
2.864173228346456
 21
6.222440944881889
 31
0.0
  0
LINE
  5
2816
330
1E
100
AcDbEntity
  8
0
100
AcDbLine
 10
2.434055118110236
 20
6.222440944881889
 30
0.0
 11
2.434055118110236
 21
6.222440944881889
 31
0.0
  0
LINE
  5
2817
330
1E
100
AcDbEntity
  8
0
100
AcDbLine
 10
2.434055118110236
 20
6.222440944881889
 30
0.0
 11
2.493110236220472
 21
6.222440944881889
 31
0.0
  0
LINE
  5
2818
330
1E
100
AcDbEntity
  8
0
100
AcDbLine
 10
2.661417322834645
 20
6.222440944881889
 30
0.0
 11
2.646653543307086
 21
6.222440944881889
 31
0.0
  0
LINE
  5
2819
330
1E
100
AcDbEntity
  8
0
100
AcDbLine
 10
2.864173228346456
 20
6.222440944881889
 30
0.0
 11
2.904527559055118
 21
6.222440944881889
 31
0.0
  0
LINE
  5
281A
330
1E
100
AcDbEntity
  8
0
100
AcDbLine
 10
2.904527559055118
 20
6.222440944881889
 30
0.0
 11
2.924212598425196
 21
6.222440944881889
 31
0.0
  0
LINE
  5
281B
330
1E
100
AcDbEntity
  8
0
100
AcDbLine
 10
2.924212598425196
 20
6.222440944881889
 30
0.0
 11
2.904527559055118
 21
6.222440944881889
 31
0.0
  0
LINE
  5
281C
330
1E
100
AcDbEntity
  8
0
100
AcDbLine
 10
2.265748031496062
 20
6.222440944881889
 30
0.0
 11
2.265748031496062
 21
6.222440944881889
 31
0.0
  0
LINE
  5
281D
330
1E
100
AcDbEntity
  8
0
100
AcDbLine
 10
2.801181102362204
 20
6.222440944881889
 30
0.0
 11
2.801181102362204
 21
6.222440944881889
 31
0.0
  0
LINE
  5
281E
330
1E
100
AcDbEntity
  8
0
100
AcDbLine
 10
2.716535433070866
 20
6.222440944881889
 30
0.0
 11
2.746062992125984
 21
6.222440944881889
 31
0.0
  0
LINE
  5
281F
330
1E
100
AcDbEntity
  8
0
100
AcDbLine
 10
2.845472440944881
 20
6.222440944881889
 30
0.0
 11
2.864173228346456
 21
6.222440944881889
 31
0.0
  0
LINE
  5
2820
330
1E
100
AcDbEntity
  8
0
100
AcDbLine
 10
2.602362204724409
 20
6.222440944881889
 30
0.0
 11
2.602362204724409
 21
6.222440944881889
 31
0.0
  0
LINE
  5
2821
330
1E
100
AcDbEntity
  8
0
100
AcDbLine
 10
2.602362204724409
 20
6.222440944881889
 30
0.0
 11
2.617125984251968
 21
6.222440944881889
 31
0.0
  0
LINE
  5
2822
330
1E
100
AcDbEntity
  8
0
100
AcDbLine
 10
2.617125984251968
 20
6.222440944881889
 30
0.0
 11
2.602362204724409
 21
6.222440944881889
 31
0.0
  0
LINE
  5
2823
330
1E
100
AcDbEntity
  8
0
100
AcDbLine
 10
2.864173228346456
 20
6.222440944881889
 30
0.0
 11
2.904527559055118
 21
6.222440944881889
 31
0.0
  0
LINE
  5
2824
330
1E
100
AcDbEntity
  8
0
100
AcDbLine
 10
2.36515748031496
 20
6.222440944881889
 30
0.0
 11
2.394685039370078
 21
6.222440944881889
 31
0.0
  0
LINE
  5
2825
330
1E
100
AcDbEntity
  8
0
100
AcDbLine
 10
2.265748031496062
 20
6.222440944881889
 30
0.0
 11
2.324803149606299
 21
6.222440944881889
 31
0.0
  0
LINE
  5
2826
330
1E
100
AcDbEntity
  8
0
100
AcDbLine
 10
2.577755905511811
 20
6.222440944881889
 30
0.0
 11
2.518700787401574
 21
6.222440944881889
 31
0.0
  0
LINE
  5
2827
330
1E
100
AcDbEntity
  8
0
100
AcDbLine
 10
2.845472440944881
 20
6.222440944881889
 30
0.0
 11
2.864173228346456
 21
6.222440944881889
 31
0.0
  0
LINE
  5
2828
330
1E
100
AcDbEntity
  8
0
100
AcDbLine
 10
2.924212598425196
 20
6.222440944881889
 30
0.0
 11
2.924212598425196
 21
6.222440944881889
 31
0.0
  0
LINE
  5
2829
330
1E
100
AcDbEntity
  8
0
100
AcDbLine
 10
2.646653543307086
 20
6.222440944881889
 30
0.0
 11
2.617125984251968
 21
6.222440944881889
 31
0.0
  0
LINE
  5
282A
330
1E
100
AcDbEntity
  8
0
100
AcDbLine
 10
2.617125984251968
 20
6.222440944881889
 30
0.0
 11
2.646653543307086
 21
6.222440944881889
 31
0.0
  0
LINE
  5
282B
330
1E
100
AcDbEntity
  8
0
100
AcDbLine
 10
2.379921259842519
 20
6.222440944881889
 30
0.0
 11
2.409448818897637
 21
6.222440944881889
 31
0.0
  0
LINE
  5
282C
330
1E
100
AcDbEntity
  8
0
100
AcDbLine
 10
2.845472440944881
 20
6.222440944881889
 30
0.0
 11
2.845472440944881
 21
6.222440944881889
 31
0.0
  0
LINE
  5
282D
330
1E
100
AcDbEntity
  8
0
100
AcDbLine
 10
2.687007874015748
 20
6.222440944881889
 30
0.0
 11
2.716535433070866
 21
6.222440944881889
 31
0.0
  0
LINE
  5
282E
330
1E
100
AcDbEntity
  8
0
100
AcDbLine
 10
2.701771653543306
 20
6.222440944881889
 30
0.0
 11
2.731299212598425
 21
6.222440944881889
 31
0.0
  0
LINE
  5
282F
330
1E
100
AcDbEntity
  8
0
100
AcDbLine
 10
2.493110236220472
 20
6.222440944881889
 30
0.0
 11
2.493110236220472
 21
6.222440944881889
 31
0.0
  0
LINE
  5
2830
330
1E
100
AcDbEntity
  8
0
100
AcDbLine
 10
2.864173228346456
 20
6.222440944881889
 30
0.0
 11
2.845472440944881
 21
6.222440944881889
 31
0.0
  0
LINE
  5
2831
330
1E
100
AcDbEntity
  8
0
100
AcDbLine
 10
2.350393700787401
 20
6.222440944881889
 30
0.0
 11
2.379921259842519
 21
6.222440944881889
 31
0.0
  0
LINE
  5
2832
330
1E
100
AcDbEntity
  8
0
100
AcDbLine
 10
2.830708661417322
 20
6.222440944881889
 30
0.0
 11
2.770669291338582
 21
6.222440944881889
 31
0.0
  0
LINE
  5
2833
330
1E
100
AcDbEntity
  8
0
100
AcDbLine
 10
2.646653543307086
 20
6.222440944881889
 30
0.0
 11
2.662401574803149
 21
6.222440944881889
 31
0.0
  0
LINE
  5
2834
330
1E
100
AcDbEntity
  8
0
100
AcDbLine
 10
1.918307086614173
 20
6.657480314960629
 30
0.0
 11
1.918307086614173
 21
6.657480314960629
 31
0.0
  0
LINE
  5
2835
330
1E
100
AcDbEntity
  8
0
100
AcDbLine
 10
1.862204724409448
 20
6.657480314960629
 30
0.0
 11
1.880905511811023
 21
6.657480314960629
 31
0.0
  0
LINE
  5
2836
330
1E
100
AcDbEntity
  8
0
100
AcDbLine
 10
1.918307086614173
 20
6.657480314960629
 30
0.0
 11
1.905511811023622
 21
6.657480314960629
 31
0.0
  0
LINE
  5
2837
330
1E
100
AcDbEntity
  8
0
100
AcDbLine
 10
3.278543307086614
 20
6.657480314960629
 30
0.0
 11
3.27263779527559
 21
6.657480314960629
 31
0.0
  0
LINE
  5
2838
330
1E
100
AcDbEntity
  8
0
100
AcDbLine
 10
3.27263779527559
 20
6.657480314960629
 30
0.0
 11
3.278543307086614
 21
6.657480314960629
 31
0.0
  0
LINE
  5
2839
330
1E
100
AcDbEntity
  8
0
100
AcDbLine
 10
3.334645669291338
 20
6.657480314960629
 30
0.0
 11
3.327755905511811
 21
6.657480314960629
 31
0.0
  0
LINE
  5
283A
330
1E
100
AcDbEntity
  8
0
100
AcDbLine
 10
3.303149606299212
 20
6.657480314960629
 30
0.0
 11
3.297244094488188
 21
6.657480314960629
 31
0.0
  0
LINE
  5
283B
330
1E
100
AcDbEntity
  8
0
100
AcDbLine
 10
3.27263779527559
 20
6.657480314960629
 30
0.0
 11
3.27263779527559
 21
6.657480314960629
 31
0.0
  0
LINE
  5
283C
330
1E
100
AcDbEntity
  8
0
100
AcDbLine
 10
3.328740157480314
 20
6.657480314960629
 30
0.0
 11
3.334645669291338
 21
6.657480314960629
 31
0.0
  0
LINE
  5
283D
330
1E
100
AcDbEntity
  8
0
100
AcDbLine
 10
3.334645669291338
 20
6.657480314960629
 30
0.0
 11
3.321850393700787
 21
6.657480314960629
 31
0.0
  0
LINE
  5
283E
330
1E
100
AcDbEntity
  8
0
100
AcDbLine
 10
3.27263779527559
 20
6.657480314960629
 30
0.0
 11
3.27263779527559
 21
6.657480314960629
 31
0.0
  0
LINE
  5
283F
330
1E
100
AcDbEntity
  8
0
100
AcDbLine
 10
1.856299212598425
 20
6.657480314960629
 30
0.0
 11
1.862204724409448
 21
6.657480314960629
 31
0.0
  0
LINE
  5
2840
330
1E
100
AcDbEntity
  8
0
100
AcDbLine
 10
3.303149606299212
 20
6.657480314960629
 30
0.0
 11
3.303149606299212
 21
6.657480314960629
 31
0.0
  0
LINE
  5
2841
330
1E
100
AcDbEntity
  8
0
100
AcDbLine
 10
1.856299212598425
 20
6.657480314960629
 30
0.0
 11
1.905511811023622
 21
6.657480314960629
 31
0.0
  0
LINE
  5
2842
330
1E
100
AcDbEntity
  8
0
100
AcDbLine
 10
1.856299212598425
 20
6.657480314960629
 30
0.0
 11
1.918307086614173
 21
6.657480314960629
 31
0.0
  0
LINE
  5
2843
330
1E
100
AcDbEntity
  8
0
100
AcDbLine
 10
3.31003937007874
 20
6.657480314960629
 30
0.0
 11
3.303149606299212
 21
6.657480314960629
 31
0.0
  0
LINE
  5
2844
330
1E
100
AcDbEntity
  8
0
100
AcDbLine
 10
3.334645669291338
 20
6.657480314960629
 30
0.0
 11
3.27263779527559
 21
6.657480314960629
 31
0.0
  0
LINE
  5
2845
330
1E
100
AcDbEntity
  8
0
100
AcDbLine
 10
1.856299212598425
 20
6.657480314960629
 30
0.0
 11
1.918307086614173
 21
6.657480314960629
 31
0.0
  0
LINE
  5
2846
330
1E
100
AcDbEntity
  8
0
100
AcDbLine
 10
1.856299212598425
 20
6.657480314960629
 30
0.0
 11
1.856299212598425
 21
6.657480314960629
 31
0.0
  0
LINE
  5
2847
330
1E
100
AcDbEntity
  8
0
100
AcDbLine
 10
1.868110236220472
 20
6.657480314960629
 30
0.0
 11
1.856299212598425
 21
6.657480314960629
 31
0.0
  0
LINE
  5
2848
330
1E
100
AcDbEntity
  8
0
100
AcDbLine
 10
1.905511811023622
 20
6.657480314960629
 30
0.0
 11
1.856299212598425
 21
6.657480314960629
 31
0.0
  0
LINE
  5
2849
330
1E
100
AcDbEntity
  8
0
100
AcDbLine
 10
1.918307086614173
 20
6.657480314960629
 30
0.0
 11
1.856299212598425
 21
6.657480314960629
 31
0.0
  0
LINE
  5
284A
330
1E
100
AcDbEntity
  8
0
100
AcDbLine
 10
1.918307086614173
 20
6.657480314960629
 30
0.0
 11
1.918307086614173
 21
6.657480314960629
 31
0.0
  0
LINE
  5
284B
330
1E
100
AcDbEntity
  8
0
100
AcDbLine
 10
3.27263779527559
 20
6.657480314960629
 30
0.0
 11
3.284448818897637
 21
6.657480314960629
 31
0.0
  0
LINE
  5
284C
330
1E
100
AcDbEntity
  8
0
100
AcDbLine
 10
1.905511811023622
 20
6.657480314960629
 30
0.0
 11
1.868110236220472
 21
6.657480314960629
 31
0.0
  0
LINE
  5
284D
330
1E
100
AcDbEntity
  8
0
100
AcDbLine
 10
3.27263779527559
 20
6.657480314960629
 30
0.0
 11
3.334645669291338
 21
6.657480314960629
 31
0.0
  0
LINE
  5
284E
330
1E
100
AcDbEntity
  8
0
100
AcDbLine
 10
1.856299212598425
 20
6.657480314960629
 30
0.0
 11
1.856299212598425
 21
6.657480314960629
 31
0.0
  0
LINE
  5
284F
330
1E
100
AcDbEntity
  8
0
100
AcDbLine
 10
3.321850393700787
 20
6.657480314960629
 30
0.0
 11
3.284448818897637
 21
6.657480314960629
 31
0.0
  0
LINE
  5
2850
330
1E
100
AcDbEntity
  8
0
100
AcDbLine
 10
1.856299212598425
 20
6.657480314960629
 30
0.0
 11
1.856299212598425
 21
6.657480314960629
 31
0.0
  0
LINE
  5
2851
330
1E
100
AcDbEntity
  8
0
100
AcDbLine
 10
3.334645669291338
 20
6.657480314960629
 30
0.0
 11
3.27263779527559
 21
6.657480314960629
 31
0.0
  0
LINE
  5
2852
330
1E
100
AcDbEntity
  8
0
100
AcDbLine
 10
3.303149606299212
 20
6.657480314960629
 30
0.0
 11
3.303149606299212
 21
6.657480314960629
 31
0.0
  0
LINE
  5
2853
330
1E
100
AcDbEntity
  8
0
100
AcDbLine
 10
1.886811023622047
 20
6.657480314960629
 30
0.0
 11
1.886811023622047
 21
6.657480314960629
 31
0.0
  0
LINE
  5
2854
330
1E
100
AcDbEntity
  8
0
100
AcDbLine
 10
1.918307086614173
 20
6.657480314960629
 30
0.0
 11
1.918307086614173
 21
6.657480314960629
 31
0.0
  0
LINE
  5
2855
330
1E
100
AcDbEntity
  8
0
100
AcDbLine
 10
3.297244094488188
 20
6.657480314960629
 30
0.0
 11
3.278543307086614
 21
6.657480314960629
 31
0.0
  0
LINE
  5
2856
330
1E
100
AcDbEntity
  8
0
100
AcDbLine
 10
1.856299212598425
 20
6.657480314960629
 30
0.0
 11
1.918307086614173
 21
6.657480314960629
 31
0.0
  0
LINE
  5
2857
330
1E
100
AcDbEntity
  8
0
100
AcDbLine
 10
1.880905511811023
 20
6.657480314960629
 30
0.0
 11
1.886811023622047
 21
6.657480314960629
 31
0.0
  0
LINE
  5
2858
330
1E
100
AcDbEntity
  8
0
100
AcDbLine
 10
1.918307086614173
 20
6.657480314960629
 30
0.0
 11
1.856299212598425
 21
6.657480314960629
 31
0.0
  0
LINE
  5
2859
330
1E
100
AcDbEntity
  8
0
100
AcDbLine
 10
3.334645669291338
 20
6.657480314960629
 30
0.0
 11
3.334645669291338
 21
6.657480314960629
 31
0.0
  0
LINE
  5
285A
330
1E
100
AcDbEntity
  8
0
100
AcDbLine
 10
3.27263779527559
 20
6.657480314960629
 30
0.0
 11
3.334645669291338
 21
6.657480314960629
 31
0.0
  0
LINE
  5
285B
330
1E
100
AcDbEntity
  8
0
100
AcDbLine
 10
3.27263779527559
 20
6.657480314960629
 30
0.0
 11
3.334645669291338
 21
6.657480314960629
 31
0.0
  0
LINE
  5
285C
330
1E
100
AcDbEntity
  8
0
100
AcDbLine
 10
3.321850393700787
 20
6.657480314960629
 30
0.0
 11
3.334645669291338
 21
6.657480314960629
 31
0.0
  0
LINE
  5
285D
330
1E
100
AcDbEntity
  8
0
100
AcDbLine
 10
3.334645669291338
 20
6.657480314960629
 30
0.0
 11
3.27263779527559
 21
6.657480314960629
 31
0.0
  0
LINE
  5
285E
330
1E
100
AcDbEntity
  8
0
100
AcDbLine
 10
1.856299212598425
 20
6.657480314960629
 30
0.0
 11
1.918307086614173
 21
6.657480314960629
 31
0.0
  0
LINE
  5
285F
330
1E
100
AcDbEntity
  8
0
100
AcDbLine
 10
3.327755905511811
 20
6.657480314960629
 30
0.0
 11
3.31003937007874
 21
6.657480314960629
 31
0.0
  0
LINE
  5
2860
330
1E
100
AcDbEntity
  8
0
100
AcDbLine
 10
1.918307086614173
 20
6.657480314960629
 30
0.0
 11
1.905511811023622
 21
6.657480314960629
 31
0.0
  0
LINE
  5
2861
330
1E
100
AcDbEntity
  8
0
100
AcDbLine
 10
1.886811023622047
 20
6.657480314960629
 30
0.0
 11
1.886811023622047
 21
6.657480314960629
 31
0.0
  0
LINE
  5
2862
330
1E
100
AcDbEntity
  8
0
100
AcDbLine
 10
3.284448818897637
 20
6.657480314960629
 30
0.0
 11
3.27263779527559
 21
6.657480314960629
 31
0.0
  0
LINE
  5
2863
330
1E
100
AcDbEntity
  8
0
100
AcDbLine
 10
3.334645669291338
 20
6.657480314960629
 30
0.0
 11
3.334645669291338
 21
6.657480314960629
 31
0.0
  0
LINE
  5
2864
330
1E
100
AcDbEntity
  8
0
100
AcDbLine
 10
1.856299212598425
 20
6.657480314960629
 30
0.0
 11
1.856299212598425
 21
6.657480314960629
 31
0.0
  0
LINE
  5
2865
330
1E
100
AcDbEntity
  8
0
100
AcDbLine
 10
1.918307086614173
 20
6.657480314960629
 30
0.0
 11
1.856299212598425
 21
6.657480314960629
 31
0.0
  0
LINE
  5
2866
330
1E
100
AcDbEntity
  8
0
100
AcDbLine
 10
1.918307086614173
 20
6.657480314960629
 30
0.0
 11
1.856299212598425
 21
6.657480314960629
 31
0.0
  0
LINE
  5
2867
330
1E
100
AcDbEntity
  8
0
100
AcDbLine
 10
1.905511811023622
 20
6.657480314960629
 30
0.0
 11
1.918307086614173
 21
6.657480314960629
 31
0.0
  0
LINE
  5
2868
330
1E
100
AcDbEntity
  8
0
100
AcDbLine
 10
1.856299212598425
 20
6.657480314960629
 30
0.0
 11
1.918307086614173
 21
6.657480314960629
 31
0.0
  0
LINE
  5
2869
330
1E
100
AcDbEntity
  8
0
100
AcDbLine
 10
2.686023622047243
 20
7.11515748031496
 30
0.0
 11
2.686023622047243
 21
7.108267716535433
 31
0.0
  0
LINE
  5
286A
330
1E
100
AcDbEntity
  8
0
100
AcDbLine
 10
2.686023622047243
 20
7.108267716535433
 30
0.0
 11
2.688976377952756
 21
7.044291338582676
 31
0.0
  0
POLYLINE
  5
286B
330
1E
100
AcDbEntity
  8
0
100
AcDb2dPolyline
 66
     1
 10
0.0
 20
0.0
 30
0.0
  0
VERTEX
  5
2FD2
330
286B
100
AcDbEntity
  8
0
100
AcDbVertex
100
AcDb2dVertex
 10
2.688976377952756
 20
7.044291338582676
 30
0.0
  0
VERTEX
  5
2FD3
330
286B
100
AcDbEntity
  8
0
100
AcDbVertex
100
AcDb2dVertex
 10
2.690944881889763
 20
7.021653543307086
 30
0.0
  0
VERTEX
  5
2FD4
330
286B
100
AcDbEntity
  8
0
100
AcDbVertex
100
AcDb2dVertex
 10
2.691929133858267
 20
7.002952755905512
 30
0.0
  0
SEQEND
  5
2FD5
330
286B
100
AcDbEntity
  8
0
  0
LINE
  5
2870
330
1E
100
AcDbEntity
  8
0
100
AcDbLine
 10
2.694881889763779
 20
6.940944881889763
 30
0.0
 11
2.691929133858267
 21
7.002952755905512
 31
0.0
  0
POLYLINE
  5
2871
330
1E
100
AcDbEntity
  8
0
100
AcDb2dPolyline
 66
     1
 10
0.0
 20
0.0
 30
0.0
  0
VERTEX
  5
2FD6
330
2871
100
AcDbEntity
  8
0
100
AcDbVertex
100
AcDb2dVertex
 10
2.694881889763779
 20
6.940944881889763
 30
0.0
  0
VERTEX
  5
2FD7
330
2871
100
AcDbEntity
  8
0
100
AcDbVertex
100
AcDb2dVertex
 10
2.695866141732283
 20
6.912401574803149
 30
0.0
  0
VERTEX
  5
2FD8
330
2871
100
AcDbEntity
  8
0
100
AcDbVertex
100
AcDb2dVertex
 10
2.697834645669291
 20
6.878937007874015
 30
0.0
  0
SEQEND
  5
2FD9
330
2871
100
AcDbEntity
  8
0
  0
LINE
  5
2876
330
1E
100
AcDbEntity
  8
0
100
AcDbLine
 10
2.697834645669291
 20
6.877952755905512
 30
0.0
 11
2.697834645669291
 21
6.878937007874015
 31
0.0
  0
LINE
  5
2877
330
1E
100
AcDbEntity
  8
0
100
AcDbLine
 10
2.697834645669291
 20
6.877952755905512
 30
0.0
 11
2.697834645669291
 21
6.875984251968503
 31
0.0
  0
LINE
  5
2878
330
1E
100
AcDbEntity
  8
0
100
AcDbLine
 10
2.711614173228346
 20
6.612204724409449
 30
0.0
 11
2.697834645669291
 21
6.875984251968503
 31
0.0
  0
LINE
  5
2879
330
1E
100
AcDbEntity
  8
0
100
AcDbLine
 10
3.141732283464566
 20
6.347440944881889
 30
0.0
 11
3.126968503937007
 21
6.347440944881889
 31
0.0
  0
LINE
  5
287A
330
1E
100
AcDbEntity
  8
0
100
AcDbLine
 10
3.126968503937007
 20
6.347440944881889
 30
0.0
 11
2.915354330708661
 21
6.347440944881889
 31
0.0
  0
LINE
  5
287B
330
1E
100
AcDbEntity
  8
0
100
AcDbLine
 10
2.275590551181102
 20
6.347440944881889
 30
0.0
 11
2.062992125984251
 21
6.347440944881889
 31
0.0
  0
LINE
  5
287C
330
1E
100
AcDbEntity
  8
0
100
AcDbLine
 10
2.062992125984251
 20
6.347440944881889
 30
0.0
 11
2.049212598425196
 21
6.347440944881889
 31
0.0
  0
LINE
  5
287D
330
1E
100
AcDbEntity
  8
0
100
AcDbLine
 10
2.280511811023622
 20
6.450787401574802
 30
0.0
 11
2.909448818897637
 21
6.450787401574802
 31
0.0
  0
LINE
  5
287E
330
1E
100
AcDbEntity
  8
0
100
AcDbLine
 10
2.280511811023622
 20
6.451771653543307
 30
0.0
 11
2.275590551181102
 21
6.347440944881889
 31
0.0
  0
LINE
  5
287F
330
1E
100
AcDbEntity
  8
0
100
AcDbLine
 10
2.915354330708661
 20
6.347440944881889
 30
0.0
 11
2.909448818897637
 21
6.451771653543307
 31
0.0
  0
LINE
  5
2880
330
1E
100
AcDbEntity
  8
0
100
AcDbLine
 10
2.709645669291338
 20
6.657480314960629
 30
0.0
 11
2.919291338582677
 21
6.657480314960629
 31
0.0
  0
LINE
  5
2881
330
1E
100
AcDbEntity
  8
0
100
AcDbLine
 10
2.478346456692913
 20
6.612204724409449
 30
0.0
 11
2.492125984251968
 21
6.875984251968503
 31
0.0
  0
LINE
  5
2882
330
1E
100
AcDbEntity
  8
0
100
AcDbLine
 10
2.492125984251968
 20
6.875984251968503
 30
0.0
 11
2.492125984251968
 21
6.878937007874015
 31
0.0
  0
LINE
  5
2883
330
1E
100
AcDbEntity
  8
0
100
AcDbLine
 10
2.492125984251968
 20
6.877952755905512
 30
0.0
 11
2.492125984251968
 21
6.878937007874015
 31
0.0
  0
POLYLINE
  5
2884
330
1E
100
AcDbEntity
  8
0
100
AcDb2dPolyline
 66
     1
 10
0.0
 20
0.0
 30
0.0
  0
VERTEX
  5
2FDA
330
2884
100
AcDbEntity
  8
0
100
AcDbVertex
100
AcDb2dVertex
 10
2.492125984251968
 20
6.878937007874015
 30
0.0
  0
VERTEX
  5
2FDB
330
2884
100
AcDbEntity
  8
0
100
AcDbVertex
100
AcDb2dVertex
 10
2.494094488188976
 20
6.912401574803149
 30
0.0
  0
VERTEX
  5
2FDC
330
2884
100
AcDbEntity
  8
0
100
AcDbVertex
100
AcDb2dVertex
 10
2.496062992125984
 20
6.940944881889763
 30
0.0
  0
SEQEND
  5
2FDD
330
2884
100
AcDbEntity
  8
0
  0
LINE
  5
2889
330
1E
100
AcDbEntity
  8
0
100
AcDbLine
 10
2.496062992125984
 20
6.940944881889763
 30
0.0
 11
2.499015748031495
 21
7.002952755905512
 31
0.0
  0
POLYLINE
  5
288A
330
1E
100
AcDbEntity
  8
0
100
AcDb2dPolyline
 66
     1
 10
0.0
 20
0.0
 30
0.0
  0
VERTEX
  5
2FDE
330
288A
100
AcDbEntity
  8
0
100
AcDbVertex
100
AcDb2dVertex
 10
2.499015748031495
 20
7.002952755905512
 30
0.0
  0
VERTEX
  5
2FDF
330
288A
100
AcDbEntity
  8
0
100
AcDbVertex
100
AcDb2dVertex
 10
2.5
 20
7.021653543307086
 30
0.0
  0
VERTEX
  5
2FE0
330
288A
100
AcDbEntity
  8
0
100
AcDbVertex
100
AcDb2dVertex
 10
2.500984251968503
 20
7.044291338582676
 30
0.0
  0
SEQEND
  5
2FE1
330
288A
100
AcDbEntity
  8
0
  0
LINE
  5
288F
330
1E
100
AcDbEntity
  8
0
100
AcDbLine
 10
2.503937007874015
 20
7.108267716535433
 30
0.0
 11
2.500984251968503
 21
7.044291338582676
 31
0.0
  0
LINE
  5
2890
330
1E
100
AcDbEntity
  8
0
100
AcDbLine
 10
2.503937007874015
 20
7.108267716535433
 30
0.0
 11
2.504921259842519
 21
7.11515748031496
 31
0.0
  0
LINE
  5
2891
330
1E
100
AcDbEntity
  8
0
100
AcDbLine
 10
2.697834645669291
 20
6.875984251968503
 30
0.0
 11
2.492125984251968
 21
6.875984251968503
 31
0.0
  0
LINE
  5
2892
330
1E
100
AcDbEntity
  8
0
100
AcDbLine
 10
3.127952755905511
 20
6.657480314960629
 30
0.0
 11
2.919291338582677
 21
6.657480314960629
 31
0.0
  0
POLYLINE
  5
2893
330
1E
100
AcDbEntity
  8
0
100
AcDb2dPolyline
 66
     1
 10
0.0
 20
0.0
 30
0.0
  0
VERTEX
  5
2FE2
330
2893
100
AcDbEntity
  8
0
100
AcDbVertex
100
AcDb2dVertex
 10
3.127952755905511
 20
6.657480314960629
 30
0.0
  0
VERTEX
  5
2FE3
330
2893
100
AcDbEntity
  8
0
100
AcDbVertex
100
AcDb2dVertex
 10
3.141732283464566
 20
6.657480314960629
 30
0.0
  0
VERTEX
  5
2FE4
330
2893
100
AcDbEntity
  8
0
100
AcDbVertex
100
AcDb2dVertex
 10
3.14763779527559
 20
6.657480314960629
 30
0.0
  0
SEQEND
  5
2FE5
330
2893
100
AcDbEntity
  8
0
  0
LINE
  5
2898
330
1E
100
AcDbEntity
  8
0
100
AcDbLine
 10
3.359251968503937
 20
6.657480314960629
 30
0.0
 11
3.14763779527559
 21
6.657480314960629
 31
0.0
  0
POLYLINE
  5
2899
330
1E
100
AcDbEntity
  8
0
100
AcDb2dPolyline
 66
     1
 10
0.0
 20
0.0
 30
0.0
  0
VERTEX
  5
2FE6
330
2899
100
AcDbEntity
  8
0
100
AcDbVertex
100
AcDb2dVertex
 10
3.359251968503937
 20
6.657480314960629
 30
0.0
  0
VERTEX
  5
2FE7
330
2899
100
AcDbEntity
  8
0
100
AcDbVertex
100
AcDb2dVertex
 10
3.382874015748031
 20
6.657480314960629
 30
0.0
  0
VERTEX
  5
2FE8
330
2899
100
AcDbEntity
  8
0
100
AcDbVertex
100
AcDb2dVertex
 10
3.401574803149606
 20
6.657480314960629
 30
0.0
  0
VERTEX
  5
2FE9
330
2899
100
AcDbEntity
  8
0
100
AcDbVertex
100
AcDb2dVertex
 10
3.415354330708661
 20
6.657480314960629
 30
0.0
  0
VERTEX
  5
2FEA
330
2899
100
AcDbEntity
  8
0
100
AcDbVertex
100
AcDb2dVertex
 10
3.419291338582677
 20
6.657480314960629
 30
0.0
  0
SEQEND
  5
2FEB
330
2899
100
AcDbEntity
  8
0
  0
POLYLINE
  5
28A0
330
1E
100
AcDbEntity
  8
0
100
AcDb2dPolyline
 66
     1
 10
0.0
 20
0.0
 30
0.0
  0
VERTEX
  5
2FEC
330
28A0
100
AcDbEntity
  8
0
100
AcDbVertex
100
AcDb2dVertex
 10
1.770669291338582
 20
6.657480314960629
 30
0.0
  0
VERTEX
  5
2FED
330
28A0
100
AcDbEntity
  8
0
100
AcDbVertex
100
AcDb2dVertex
 10
1.775590551181102
 20
6.657480314960629
 30
0.0
  0
VERTEX
  5
2FEE
330
28A0
100
AcDbEntity
  8
0
100
AcDbVertex
100
AcDb2dVertex
 10
1.788385826771653
 20
6.657480314960629
 30
0.0
  0
VERTEX
  5
2FEF
330
28A0
100
AcDbEntity
  8
0
100
AcDbVertex
100
AcDb2dVertex
 10
1.808070866141732
 20
6.657480314960629
 30
0.0
  0
VERTEX
  5
2FF0
330
28A0
100
AcDbEntity
  8
0
100
AcDbVertex
100
AcDb2dVertex
 10
1.830708661417322
 20
6.657480314960629
 30
0.0
  0
SEQEND
  5
2FF1
330
28A0
100
AcDbEntity
  8
0
  0
LINE
  5
28A7
330
1E
100
AcDbEntity
  8
0
100
AcDbLine
 10
2.042322834645669
 20
6.657480314960629
 30
0.0
 11
1.830708661417322
 21
6.657480314960629
 31
0.0
  0
POLYLINE
  5
28A8
330
1E
100
AcDbEntity
  8
0
100
AcDb2dPolyline
 66
     1
 10
0.0
 20
0.0
 30
0.0
  0
VERTEX
  5
2FF2
330
28A8
100
AcDbEntity
  8
0
100
AcDbVertex
100
AcDb2dVertex
 10
2.042322834645669
 20
6.657480314960629
 30
0.0
  0
VERTEX
  5
2FF3
330
28A8
100
AcDbEntity
  8
0
100
AcDbVertex
100
AcDb2dVertex
 10
2.048228346456693
 20
6.657480314960629
 30
0.0
  0
VERTEX
  5
2FF4
330
28A8
100
AcDbEntity
  8
0
100
AcDbVertex
100
AcDb2dVertex
 10
2.062007874015748
 20
6.657480314960629
 30
0.0
  0
SEQEND
  5
2FF5
330
28A8
100
AcDbEntity
  8
0
  0
LINE
  5
28AD
330
1E
100
AcDbEntity
  8
0
100
AcDbLine
 10
2.270669291338582
 20
6.657480314960629
 30
0.0
 11
2.062007874015748
 21
6.657480314960629
 31
0.0
  0
LINE
  5
28AE
330
1E
100
AcDbEntity
  8
0
100
AcDbLine
 10
2.270669291338582
 20
6.657480314960629
 30
0.0
 11
2.480314960629921
 21
6.657480314960629
 31
0.0
  0
POLYLINE
  5
28AF
330
1E
100
AcDbEntity
  8
0
100
AcDb2dPolyline
 66
     1
 10
0.0
 20
0.0
 30
0.0
  0
VERTEX
  5
2FF6
330
28AF
100
AcDbEntity
  8
0
100
AcDbVertex
100
AcDb2dVertex
 10
3.197834645669291
 20
6.399606299212598
 30
0.0
  0
VERTEX
  5
2FF7
330
28AF
100
AcDbEntity
  8
0
100
AcDbVertex
100
AcDb2dVertex
 10
3.197834645669291
 20
6.385826771653543
 30
0.0
  0
VERTEX
  5
2FF8
330
28AF
100
AcDbEntity
  8
0
100
AcDbVertex
100
AcDb2dVertex
 10
3.197834645669291
 20
6.379921259842519
 30
0.0
  0
SEQEND
  5
2FF9
330
28AF
100
AcDbEntity
  8
0
  0
LINE
  5
28B4
330
1E
100
AcDbEntity
  8
0
100
AcDbLine
 10
3.202755905511811
 20
6.379921259842519
 30
0.0
 11
3.197834645669291
 21
6.379921259842519
 31
0.0
  0
POLYLINE
  5
28B5
330
1E
100
AcDbEntity
  8
0
100
AcDb2dPolyline
 66
     1
 10
0.0
 20
0.0
 30
0.0
  0
VERTEX
  5
2FFA
330
28B5
100
AcDbEntity
  8
0
100
AcDbVertex
100
AcDb2dVertex
 10
3.222440944881889
 20
6.399606299212598
 30
0.0
  0
VERTEX
  5
2FFB
330
28B5
100
AcDbEntity
  8
0
100
AcDbVertex
100
AcDb2dVertex
 10
3.216535433070866
 20
6.385826771653543
 30
0.0
  0
VERTEX
  5
2FFC
330
28B5
100
AcDbEntity
  8
0
100
AcDbVertex
100
AcDb2dVertex
 10
3.202755905511811
 20
6.379921259842519
 30
0.0
  0
SEQEND
  5
2FFD
330
28B5
100
AcDbEntity
  8
0
  0
POLYLINE
  5
28BA
330
1E
100
AcDbEntity
  8
0
100
AcDb2dPolyline
 66
     1
 10
0.0
 20
0.0
 30
0.0
  0
VERTEX
  5
2FFE
330
28BA
100
AcDbEntity
  8
0
100
AcDbVertex
100
AcDb2dVertex
 10
3.197834645669291
 20
6.399606299212598
 30
0.0
  0
VERTEX
  5
2FFF
330
28BA
100
AcDbEntity
  8
0
100
AcDbVertex
100
AcDb2dVertex
 10
3.210629921259842
 20
6.399606299212598
 30
0.0
  0
VERTEX
  5
3000
330
28BA
100
AcDbEntity
  8
0
100
AcDbVertex
100
AcDb2dVertex
 10
3.219488188976377
 20
6.399606299212598
 30
0.0
  0
VERTEX
  5
3001
330
28BA
100
AcDbEntity
  8
0
100
AcDbVertex
100
AcDb2dVertex
 10
3.222440944881889
 20
6.399606299212598
 30
0.0
  0
SEQEND
  5
3002
330
28BA
100
AcDbEntity
  8
0
  0
LINE
  5
28C0
330
1E
100
AcDbEntity
  8
0
100
AcDbLine
 10
3.427165354330708
 20
6.574803149606299
 30
0.0
 11
3.431102362204724
 21
6.574803149606299
 31
0.0
  0
LINE
  5
28C1
330
1E
100
AcDbEntity
  8
0
100
AcDbLine
 10
3.449803149606299
 20
6.570866141732283
 30
0.0
 11
3.431102362204724
 21
6.574803149606299
 31
0.0
  0
POLYLINE
  5
28C2
330
1E
100
AcDbEntity
  8
0
100
AcDb2dPolyline
 66
     1
 10
0.0
 20
0.0
 30
0.0
  0
VERTEX
  5
3003
330
28C2
100
AcDbEntity
  8
0
100
AcDbVertex
100
AcDb2dVertex
 10
3.449803149606299
 20
6.570866141732283
 30
0.0
  0
VERTEX
  5
3004
330
28C2
100
AcDbEntity
  8
0
100
AcDbVertex
100
AcDb2dVertex
 10
3.456692913385826
 20
6.569881889763779
 30
0.0
  0
VERTEX
  5
3005
330
28C2
100
AcDbEntity
  8
0
100
AcDbVertex
100
AcDb2dVertex
 10
3.459645669291338
 20
6.568897637795275
 30
0.0
  0
SEQEND
  5
3006
330
28C2
100
AcDbEntity
  8
0
  0
LINE
  5
28C7
330
1E
100
AcDbEntity
  8
0
100
AcDbLine
 10
3.197834645669291
 20
6.399606299212598
 30
0.0
 11
3.199803149606299
 21
6.537401574803149
 31
0.0
  0
LINE
  5
28C8
330
1E
100
AcDbEntity
  8
0
100
AcDbLine
 10
3.225393700787401
 20
6.537401574803149
 30
0.0
 11
3.222440944881889
 21
6.399606299212598
 31
0.0
  0
LINE
  5
28C9
330
1E
100
AcDbEntity
  8
0
100
AcDbLine
 10
3.432086614173228
 20
6.537401574803149
 30
0.0
 11
3.450787401574803
 21
6.537401574803149
 31
0.0
  0
LINE
  5
28CA
330
1E
100
AcDbEntity
  8
0
100
AcDbLine
 10
3.450787401574803
 20
6.537401574803149
 30
0.0
 11
3.449803149606299
 21
6.570866141732283
 31
0.0
  0
LINE
  5
28CB
330
1E
100
AcDbEntity
  8
0
100
AcDbLine
 10
3.431102362204724
 20
6.574803149606299
 30
0.0
 11
3.432086614173228
 21
6.537401574803149
 31
0.0
  0
POLYLINE
  5
28CC
330
1E
100
AcDbEntity
  8
0
100
AcDb2dPolyline
 66
     1
 10
0.0
 20
0.0
 30
0.0
  0
VERTEX
  5
3007
330
28CC
100
AcDbEntity
  8
0
100
AcDbVertex
100
AcDb2dVertex
 10
3.460629921259842
 20
6.537401574803149
 30
0.0
  0
VERTEX
  5
3008
330
28CC
100
AcDbEntity
  8
0
100
AcDbVertex
100
AcDb2dVertex
 10
3.45767716535433
 20
6.537401574803149
 30
0.0
  0
VERTEX
  5
3009
330
28CC
100
AcDbEntity
  8
0
100
AcDbVertex
100
AcDb2dVertex
 10
3.450787401574803
 20
6.537401574803149
 30
0.0
  0
SEQEND
  5
300A
330
28CC
100
AcDbEntity
  8
0
  0
LINE
  5
28D1
330
1E
100
AcDbEntity
  8
0
100
AcDbLine
 10
3.459645669291338
 20
6.568897637795275
 30
0.0
 11
3.460629921259842
 21
6.537401574803149
 31
0.0
  0
LINE
  5
28D2
330
1E
100
AcDbEntity
  8
0
100
AcDbLine
 10
3.197834645669291
 20
6.379921259842519
 30
0.0
 11
3.14763779527559
 21
6.379921259842519
 31
0.0
  0
LINE
  5
28D3
330
1E
100
AcDbEntity
  8
0
100
AcDbLine
 10
3.14763779527559
 20
6.399606299212598
 30
0.0
 11
3.197834645669291
 21
6.399606299212598
 31
0.0
  0
POLYLINE
  5
28D4
330
1E
100
AcDbEntity
  8
0
100
AcDb2dPolyline
 66
     1
 10
0.0
 20
0.0
 30
0.0
  0
VERTEX
  5
300B
330
28D4
100
AcDbEntity
  8
0
100
AcDbVertex
100
AcDb2dVertex
 10
3.427165354330708
 20
6.574803149606299
 30
0.0
  0
VERTEX
  5
300C
330
28D4
100
AcDbEntity
  8
0
100
AcDbVertex
100
AcDb2dVertex
 10
3.4251968503937
 20
6.575787401574802
 30
0.0
  0
VERTEX
  5
300D
330
28D4
100
AcDbEntity
  8
0
100
AcDbVertex
100
AcDb2dVertex
 10
3.423228346456693
 20
6.577755905511811
 30
0.0
  0
VERTEX
  5
300E
330
28D4
100
AcDbEntity
  8
0
100
AcDbVertex
100
AcDb2dVertex
 10
3.421259842519685
 20
6.580708661417323
 30
0.0
  0
VERTEX
  5
300F
330
28D4
100
AcDbEntity
  8
0
100
AcDbVertex
100
AcDb2dVertex
 10
3.421259842519685
 20
6.58267716535433
 30
0.0
  0
SEQEND
  5
3010
330
28D4
100
AcDbEntity
  8
0
  0
POLYLINE
  5
28DB
330
1E
100
AcDbEntity
  8
0
100
AcDb2dPolyline
 66
     1
 10
0.0
 20
0.0
 30
0.0
  0
VERTEX
  5
3011
330
28DB
100
AcDbEntity
  8
0
100
AcDbVertex
100
AcDb2dVertex
 10
3.432086614173228
 20
6.537401574803149
 30
0.0
  0
VERTEX
  5
3012
330
28DB
100
AcDbEntity
  8
0
100
AcDbVertex
100
AcDb2dVertex
 10
3.424212598425196
 20
6.537401574803149
 30
0.0
  0
VERTEX
  5
3013
330
28DB
100
AcDbEntity
  8
0
100
AcDbVertex
100
AcDb2dVertex
 10
3.421259842519685
 20
6.537401574803149
 30
0.0
  0
SEQEND
  5
3014
330
28DB
100
AcDbEntity
  8
0
  0
POLYLINE
  5
28E0
330
1E
100
AcDbEntity
  8
0
100
AcDb2dPolyline
 66
     1
 10
0.0
 20
0.0
 30
0.0
  0
VERTEX
  5
3015
330
28E0
100
AcDbEntity
  8
0
100
AcDbVertex
100
AcDb2dVertex
 10
3.421259842519685
 20
6.537401574803149
 30
0.0
  0
VERTEX
  5
3016
330
28E0
100
AcDbEntity
  8
0
100
AcDbVertex
100
AcDb2dVertex
 10
3.417322834645669
 20
6.537401574803149
 30
0.0
  0
VERTEX
  5
3017
330
28E0
100
AcDbEntity
  8
0
100
AcDbVertex
100
AcDb2dVertex
 10
3.404527559055118
 20
6.537401574803149
 30
0.0
  0
VERTEX
  5
3018
330
28E0
100
AcDbEntity
  8
0
100
AcDbVertex
100
AcDb2dVertex
 10
3.384842519685039
 20
6.537401574803149
 30
0.0
  0
VERTEX
  5
3019
330
28E0
100
AcDbEntity
  8
0
100
AcDbVertex
100
AcDb2dVertex
 10
3.361220472440944
 20
6.537401574803149
 30
0.0
  0
SEQEND
  5
301A
330
28E0
100
AcDbEntity
  8
0
  0
LINE
  5
28E7
330
1E
100
AcDbEntity
  8
0
100
AcDbLine
 10
3.150590551181102
 20
6.537401574803149
 30
0.0
 11
3.361220472440944
 21
6.537401574803149
 31
0.0
  0
POLYLINE
  5
28E8
330
1E
100
AcDbEntity
  8
0
100
AcDb2dPolyline
 66
     1
 10
0.0
 20
0.0
 30
0.0
  0
VERTEX
  5
301B
330
28E8
100
AcDbEntity
  8
0
100
AcDbVertex
100
AcDb2dVertex
 10
3.14763779527559
 20
6.379921259842519
 30
0.0
  0
VERTEX
  5
301C
330
28E8
100
AcDbEntity
  8
0
100
AcDbVertex
100
AcDb2dVertex
 10
3.146653543307086
 20
6.375984251968503
 30
0.0
  0
VERTEX
  5
301D
330
28E8
100
AcDbEntity
  8
0
100
AcDbVertex
100
AcDb2dVertex
 10
3.144685039370078
 20
6.36515748031496
 30
0.0
  0
VERTEX
  5
301E
330
28E8
100
AcDbEntity
  8
0
100
AcDbVertex
100
AcDb2dVertex
 10
3.141732283464566
 20
6.347440944881889
 30
0.0
  0
SEQEND
  5
301F
330
28E8
100
AcDbEntity
  8
0
  0
LINE
  5
28EE
330
1E
100
AcDbEntity
  8
0
100
AcDbLine
 10
3.150590551181102
 20
6.537401574803149
 30
0.0
 11
3.14763779527559
 21
6.379921259842519
 31
0.0
  0
POLYLINE
  5
28EF
330
1E
100
AcDbEntity
  8
0
100
AcDb2dPolyline
 66
     1
 10
0.0
 20
0.0
 30
0.0
  0
VERTEX
  5
3020
330
28EF
100
AcDbEntity
  8
0
100
AcDbVertex
100
AcDb2dVertex
 10
3.150590551181102
 20
6.537401574803149
 30
0.0
  0
VERTEX
  5
3021
330
28EF
100
AcDbEntity
  8
0
100
AcDbVertex
100
AcDb2dVertex
 10
3.144685039370078
 20
6.537401574803149
 30
0.0
  0
VERTEX
  5
3022
330
28EF
100
AcDbEntity
  8
0
100
AcDbVertex
100
AcDb2dVertex
 10
3.129921259842519
 20
6.537401574803149
 30
0.0
  0
SEQEND
  5
3023
330
28EF
100
AcDbEntity
  8
0
  0
LINE
  5
28F4
330
1E
100
AcDbEntity
  8
0
100
AcDbLine
 10
3.126968503937007
 20
6.347440944881889
 30
0.0
 11
3.129921259842519
 21
6.537401574803149
 31
0.0
  0
LINE
  5
28F5
330
1E
100
AcDbEntity
  8
0
100
AcDbLine
 10
3.419291338582677
 20
6.657480314960629
 30
0.0
 11
3.421259842519685
 21
6.537401574803149
 31
0.0
  0
LINE
  5
28F6
330
1E
100
AcDbEntity
  8
0
100
AcDbLine
 10
3.361220472440944
 20
6.537401574803149
 30
0.0
 11
3.359251968503937
 21
6.657480314960629
 31
0.0
  0
LINE
  5
28F7
330
1E
100
AcDbEntity
  8
0
100
AcDbLine
 10
3.14763779527559
 20
6.657480314960629
 30
0.0
 11
3.150590551181102
 21
6.537401574803149
 31
0.0
  0
LINE
  5
28F8
330
1E
100
AcDbEntity
  8
0
100
AcDbLine
 10
3.129921259842519
 20
6.537401574803149
 30
0.0
 11
3.127952755905511
 21
6.657480314960629
 31
0.0
  0
LINE
  5
28F9
330
1E
100
AcDbEntity
  8
0
100
AcDbLine
 10
2.919291338582677
 20
6.657480314960629
 30
0.0
 11
2.918307086614173
 21
6.612204724409449
 31
0.0
  0
LINE
  5
28FA
330
1E
100
AcDbEntity
  8
0
100
AcDbLine
 10
2.271653543307086
 20
6.612204724409449
 30
0.0
 11
2.918307086614173
 21
6.612204724409449
 31
0.0
  0
LINE
  5
28FB
330
1E
100
AcDbEntity
  8
0
100
AcDbLine
 10
2.06003937007874
 20
6.537401574803149
 30
0.0
 11
3.129921259842519
 21
6.537401574803149
 31
0.0
  0
LINE
  5
28FC
330
1E
100
AcDbEntity
  8
0
100
AcDbLine
 10
2.270669291338582
 20
6.657480314960629
 30
0.0
 11
2.271653543307086
 21
6.612204724409449
 31
0.0
  0
LINE
  5
28FD
330
1E
100
AcDbEntity
  8
0
100
AcDbLine
 10
2.062007874015748
 20
6.657480314960629
 30
0.0
 11
2.06003937007874
 21
6.537401574803149
 31
0.0
  0
LINE
  5
28FE
330
1E
100
AcDbEntity
  8
0
100
AcDbLine
 10
2.06003937007874
 20
6.537401574803149
 30
0.0
 11
2.062992125984251
 21
6.347440944881889
 31
0.0
  0
LINE
  5
28FF
330
1E
100
AcDbEntity
  8
0
100
AcDbLine
 10
2.280511811023622
 20
6.451771653543307
 30
0.0
 11
2.909448818897637
 21
6.451771653543307
 31
0.0
  0
LINE
  5
2900
330
1E
100
AcDbEntity
  8
0
100
AcDbLine
 10
1.758858267716535
 20
6.574803149606299
 30
0.0
 11
1.762795275590551
 21
6.574803149606299
 31
0.0
  0
POLYLINE
  5
2901
330
1E
100
AcDbEntity
  8
0
100
AcDb2dPolyline
 66
     1
 10
0.0
 20
0.0
 30
0.0
  0
VERTEX
  5
3024
330
2901
100
AcDbEntity
  8
0
100
AcDbVertex
100
AcDb2dVertex
 10
1.730314960629921
 20
6.568897637795275
 30
0.0
  0
VERTEX
  5
3025
330
2901
100
AcDbEntity
  8
0
100
AcDbVertex
100
AcDb2dVertex
 10
1.733267716535433
 20
6.569881889763779
 30
0.0
  0
VERTEX
  5
3026
330
2901
100
AcDbEntity
  8
0
100
AcDbVertex
100
AcDb2dVertex
 10
1.74015748031496
 20
6.570866141732283
 30
0.0
  0
SEQEND
  5
3027
330
2901
100
AcDbEntity
  8
0
  0
LINE
  5
2906
330
1E
100
AcDbEntity
  8
0
100
AcDbLine
 10
1.758858267716535
 20
6.574803149606299
 30
0.0
 11
1.74015748031496
 21
6.570866141732283
 31
0.0
  0
LINE
  5
2907
330
1E
100
AcDbEntity
  8
0
100
AcDbLine
 10
1.729330708661417
 20
6.537401574803149
 30
0.0
 11
1.730314960629921
 21
6.568897637795275
 31
0.0
  0
POLYLINE
  5
2908
330
1E
100
AcDbEntity
  8
0
100
AcDb2dPolyline
 66
     1
 10
0.0
 20
0.0
 30
0.0
  0
VERTEX
  5
3028
330
2908
100
AcDbEntity
  8
0
100
AcDbVertex
100
AcDb2dVertex
 10
1.739173228346456
 20
6.537401574803149
 30
0.0
  0
VERTEX
  5
3029
330
2908
100
AcDbEntity
  8
0
100
AcDbVertex
100
AcDb2dVertex
 10
1.732283464566929
 20
6.537401574803149
 30
0.0
  0
VERTEX
  5
302A
330
2908
100
AcDbEntity
  8
0
100
AcDbVertex
100
AcDb2dVertex
 10
1.729330708661417
 20
6.537401574803149
 30
0.0
  0
SEQEND
  5
302B
330
2908
100
AcDbEntity
  8
0
  0
LINE
  5
290D
330
1E
100
AcDbEntity
  8
0
100
AcDbLine
 10
1.74015748031496
 20
6.570866141732283
 30
0.0
 11
1.739173228346456
 21
6.537401574803149
 31
0.0
  0
LINE
  5
290E
330
1E
100
AcDbEntity
  8
0
100
AcDbLine
 10
1.739173228346456
 20
6.537401574803149
 30
0.0
 11
1.758858267716535
 21
6.537401574803149
 31
0.0
  0
LINE
  5
290F
330
1E
100
AcDbEntity
  8
0
100
AcDbLine
 10
1.758858267716535
 20
6.537401574803149
 30
0.0
 11
1.758858267716535
 21
6.574803149606299
 31
0.0
  0
POLYLINE
  5
2910
330
1E
100
AcDbEntity
  8
0
100
AcDb2dPolyline
 66
     1
 10
0.0
 20
0.0
 30
0.0
  0
VERTEX
  5
302C
330
2910
100
AcDbEntity
  8
0
100
AcDbVertex
100
AcDb2dVertex
 10
1.768700787401574
 20
6.537401574803149
 30
0.0
  0
VERTEX
  5
302D
330
2910
100
AcDbEntity
  8
0
100
AcDbVertex
100
AcDb2dVertex
 10
1.765748031496062
 20
6.537401574803149
 30
0.0
  0
VERTEX
  5
302E
330
2910
100
AcDbEntity
  8
0
100
AcDbVertex
100
AcDb2dVertex
 10
1.758858267716535
 20
6.537401574803149
 30
0.0
  0
SEQEND
  5
302F
330
2910
100
AcDbEntity
  8
0
  0
POLYLINE
  5
2915
330
1E
100
AcDbEntity
  8
0
100
AcDb2dPolyline
 66
     1
 10
0.0
 20
0.0
 30
0.0
  0
VERTEX
  5
3030
330
2915
100
AcDbEntity
  8
0
100
AcDbVertex
100
AcDb2dVertex
 10
1.769685039370078
 20
6.58267716535433
 30
0.0
  0
VERTEX
  5
3031
330
2915
100
AcDbEntity
  8
0
100
AcDbVertex
100
AcDb2dVertex
 10
1.768700787401574
 20
6.580708661417323
 30
0.0
  0
VERTEX
  5
3032
330
2915
100
AcDbEntity
  8
0
100
AcDbVertex
100
AcDb2dVertex
 10
1.76771653543307
 20
6.577755905511811
 30
0.0
  0
VERTEX
  5
3033
330
2915
100
AcDbEntity
  8
0
100
AcDbVertex
100
AcDb2dVertex
 10
1.765748031496062
 20
6.575787401574802
 30
0.0
  0
VERTEX
  5
3034
330
2915
100
AcDbEntity
  8
0
100
AcDbVertex
100
AcDb2dVertex
 10
1.762795275590551
 20
6.574803149606299
 30
0.0
  0
SEQEND
  5
3035
330
2915
100
AcDbEntity
  8
0
  0
LINE
  5
291C
330
1E
100
AcDbEntity
  8
0
100
AcDbLine
 10
1.96751968503937
 20
6.399606299212598
 30
0.0
 11
1.965551181102362
 21
6.537401574803149
 31
0.0
  0
POLYLINE
  5
291D
330
1E
100
AcDbEntity
  8
0
100
AcDb2dPolyline
 66
     1
 10
0.0
 20
0.0
 30
0.0
  0
VERTEX
  5
3036
330
291D
100
AcDbEntity
  8
0
100
AcDbVertex
100
AcDb2dVertex
 10
1.96751968503937
 20
6.399606299212598
 30
0.0
  0
VERTEX
  5
3037
330
291D
100
AcDbEntity
  8
0
100
AcDbVertex
100
AcDb2dVertex
 10
1.970472440944881
 20
6.399606299212598
 30
0.0
  0
VERTEX
  5
3038
330
291D
100
AcDbEntity
  8
0
100
AcDbVertex
100
AcDb2dVertex
 10
1.980314960629921
 20
6.399606299212598
 30
0.0
  0
VERTEX
  5
3039
330
291D
100
AcDbEntity
  8
0
100
AcDbVertex
100
AcDb2dVertex
 10
1.992125984251968
 20
6.399606299212598
 30
0.0
  0
SEQEND
  5
303A
330
291D
100
AcDbEntity
  8
0
  0
LINE
  5
2923
330
1E
100
AcDbEntity
  8
0
100
AcDbLine
 10
1.99015748031496
 20
6.537401574803149
 30
0.0
 11
1.992125984251968
 21
6.399606299212598
 31
0.0
  0
POLYLINE
  5
2924
330
1E
100
AcDbEntity
  8
0
100
AcDb2dPolyline
 66
     1
 10
0.0
 20
0.0
 30
0.0
  0
VERTEX
  5
303B
330
2924
100
AcDbEntity
  8
0
100
AcDbVertex
100
AcDb2dVertex
 10
1.987204724409448
 20
6.379921259842519
 30
0.0
  0
VERTEX
  5
303C
330
2924
100
AcDbEntity
  8
0
100
AcDbVertex
100
AcDb2dVertex
 10
1.973425196850393
 20
6.385826771653543
 30
0.0
  0
VERTEX
  5
303D
330
2924
100
AcDbEntity
  8
0
100
AcDbVertex
100
AcDb2dVertex
 10
1.96751968503937
 20
6.399606299212598
 30
0.0
  0
SEQEND
  5
303E
330
2924
100
AcDbEntity
  8
0
  0
POLYLINE
  5
2929
330
1E
100
AcDbEntity
  8
0
100
AcDb2dPolyline
 66
     1
 10
0.0
 20
0.0
 30
0.0
  0
VERTEX
  5
303F
330
2929
100
AcDbEntity
  8
0
100
AcDbVertex
100
AcDb2dVertex
 10
1.992125984251968
 20
6.379921259842519
 30
0.0
  0
VERTEX
  5
3040
330
2929
100
AcDbEntity
  8
0
100
AcDbVertex
100
AcDb2dVertex
 10
1.992125984251968
 20
6.385826771653543
 30
0.0
  0
VERTEX
  5
3041
330
2929
100
AcDbEntity
  8
0
100
AcDbVertex
100
AcDb2dVertex
 10
1.992125984251968
 20
6.399606299212598
 30
0.0
  0
SEQEND
  5
3042
330
2929
100
AcDbEntity
  8
0
  0
LINE
  5
292E
330
1E
100
AcDbEntity
  8
0
100
AcDbLine
 10
1.992125984251968
 20
6.379921259842519
 30
0.0
 11
1.987204724409448
 21
6.379921259842519
 31
0.0
  0
LINE
  5
292F
330
1E
100
AcDbEntity
  8
0
100
AcDbLine
 10
1.828740157480314
 20
6.537401574803149
 30
0.0
 11
2.040354330708661
 21
6.537401574803149
 31
0.0
  0
LINE
  5
2930
330
1E
100
AcDbEntity
  8
0
100
AcDbLine
 10
1.830708661417322
 20
6.657480314960629
 30
0.0
 11
1.828740157480314
 21
6.537401574803149
 31
0.0
  0
LINE
  5
2931
330
1E
100
AcDbEntity
  8
0
100
AcDbLine
 10
1.768700787401574
 20
6.537401574803149
 30
0.0
 11
1.770669291338582
 21
6.657480314960629
 31
0.0
  0
POLYLINE
  5
2932
330
1E
100
AcDbEntity
  8
0
100
AcDb2dPolyline
 66
     1
 10
0.0
 20
0.0
 30
0.0
  0
VERTEX
  5
3043
330
2932
100
AcDbEntity
  8
0
100
AcDbVertex
100
AcDb2dVertex
 10
1.828740157480314
 20
6.537401574803149
 30
0.0
  0
VERTEX
  5
3044
330
2932
100
AcDbEntity
  8
0
100
AcDbVertex
100
AcDb2dVertex
 10
1.806102362204724
 20
6.537401574803149
 30
0.0
  0
VERTEX
  5
3045
330
2932
100
AcDbEntity
  8
0
100
AcDbVertex
100
AcDb2dVertex
 10
1.786417322834645
 20
6.537401574803149
 30
0.0
  0
VERTEX
  5
3046
330
2932
100
AcDbEntity
  8
0
100
AcDbVertex
100
AcDb2dVertex
 10
1.773622047244094
 20
6.537401574803149
 30
0.0
  0
VERTEX
  5
3047
330
2932
100
AcDbEntity
  8
0
100
AcDbVertex
100
AcDb2dVertex
 10
1.768700787401574
 20
6.537401574803149
 30
0.0
  0
SEQEND
  5
3048
330
2932
100
AcDbEntity
  8
0
  0
LINE
  5
2939
330
1E
100
AcDbEntity
  8
0
100
AcDbLine
 10
1.992125984251968
 20
6.399606299212598
 30
0.0
 11
2.042322834645669
 21
6.399606299212598
 31
0.0
  0
LINE
  5
293A
330
1E
100
AcDbEntity
  8
0
100
AcDbLine
 10
2.040354330708661
 20
6.537401574803149
 30
0.0
 11
2.042322834645669
 21
6.657480314960629
 31
0.0
  0
LINE
  5
293B
330
1E
100
AcDbEntity
  8
0
100
AcDbLine
 10
2.043307086614173
 20
6.379921259842519
 30
0.0
 11
1.992125984251968
 21
6.379921259842519
 31
0.0
  0
POLYLINE
  5
293C
330
1E
100
AcDbEntity
  8
0
100
AcDb2dPolyline
 66
     1
 10
0.0
 20
0.0
 30
0.0
  0
VERTEX
  5
3049
330
293C
100
AcDbEntity
  8
0
100
AcDbVertex
100
AcDb2dVertex
 10
2.06003937007874
 20
6.537401574803149
 30
0.0
  0
VERTEX
  5
304A
330
293C
100
AcDbEntity
  8
0
100
AcDbVertex
100
AcDb2dVertex
 10
2.046259842519685
 20
6.537401574803149
 30
0.0
  0
VERTEX
  5
304B
330
293C
100
AcDbEntity
  8
0
100
AcDbVertex
100
AcDb2dVertex
 10
2.040354330708661
 20
6.537401574803149
 30
0.0
  0
SEQEND
  5
304C
330
293C
100
AcDbEntity
  8
0
  0
LINE
  5
2941
330
1E
100
AcDbEntity
  8
0
100
AcDbLine
 10
2.043307086614173
 20
6.379921259842519
 30
0.0
 11
2.040354330708661
 21
6.537401574803149
 31
0.0
  0
POLYLINE
  5
2942
330
1E
100
AcDbEntity
  8
0
100
AcDb2dPolyline
 66
     1
 10
0.0
 20
0.0
 30
0.0
  0
VERTEX
  5
304D
330
2942
100
AcDbEntity
  8
0
100
AcDbVertex
100
AcDb2dVertex
 10
2.049212598425196
 20
6.347440944881889
 30
0.0
  0
VERTEX
  5
304E
330
2942
100
AcDbEntity
  8
0
100
AcDbVertex
100
AcDb2dVertex
 10
2.045275590551181
 20
6.36515748031496
 30
0.0
  0
VERTEX
  5
304F
330
2942
100
AcDbEntity
  8
0
100
AcDbVertex
100
AcDb2dVertex
 10
2.043307086614173
 20
6.375984251968503
 30
0.0
  0
VERTEX
  5
3050
330
2942
100
AcDbEntity
  8
0
100
AcDbVertex
100
AcDb2dVertex
 10
2.043307086614173
 20
6.379921259842519
 30
0.0
  0
SEQEND
  5
3051
330
2942
100
AcDbEntity
  8
0
  0
LINE
  5
2948
330
1E
100
AcDbEntity
  8
0
100
AcDbLine
 10
2.492125984251968
 20
6.877952755905512
 30
0.0
 11
2.697834645669291
 21
6.877952755905512
 31
0.0
  0
LINE
  5
2949
330
1E
100
AcDbEntity
  8
0
100
AcDbLine
 10
2.504921259842519
 20
7.123031496062991
 30
0.0
 11
2.686023622047243
 21
7.123031496062991
 31
0.0
  0
LINE
  5
294A
330
1E
100
AcDbEntity
  8
0
100
AcDbLine
 10
2.686023622047243
 20
7.108267716535433
 30
0.0
 11
2.503937007874015
 21
7.108267716535433
 31
0.0
  0
LINE
  5
294B
330
1E
100
AcDbEntity
  8
0
100
AcDbLine
 10
2.500984251968503
 20
7.044291338582676
 30
0.0
 11
2.688976377952756
 21
7.044291338582676
 31
0.0
  0
LINE
  5
294C
330
1E
100
AcDbEntity
  8
0
100
AcDbLine
 10
2.496062992125984
 20
6.940944881889763
 30
0.0
 11
2.694881889763779
 21
6.940944881889763
 31
0.0
  0
LINE
  5
294D
330
1E
100
AcDbEntity
  8
0
100
AcDbLine
 10
2.691929133858267
 20
7.002952755905512
 30
0.0
 11
2.499015748031495
 21
7.002952755905512
 31
0.0
  0
LINE
  5
294E
330
1E
100
AcDbEntity
  8
0
100
AcDbLine
 10
2.697834645669291
 20
6.878937007874015
 30
0.0
 11
2.492125984251968
 21
6.878937007874015
 31
0.0
  0
POLYLINE
  5
294F
330
1E
100
AcDbEntity
  8
0
100
AcDb2dPolyline
 66
     1
 10
0.0
 20
0.0
 30
0.0
  0
VERTEX
  5
3052
330
294F
100
AcDbEntity
  8
0
100
AcDbVertex
100
AcDb2dVertex
 10
2.686023622047243
 20
7.123031496062991
 30
0.0
  0
VERTEX
  5
3053
330
294F
100
AcDbEntity
  8
0
100
AcDbVertex
100
AcDb2dVertex
 10
2.686023622047243
 20
7.121062992125984
 30
0.0
  0
VERTEX
  5
3054
330
294F
100
AcDbEntity
  8
0
100
AcDbVertex
100
AcDb2dVertex
 10
2.686023622047243
 20
7.11515748031496
 30
0.0
  0
SEQEND
  5
3055
330
294F
100
AcDbEntity
  8
0
  0
POLYLINE
  5
2954
330
1E
100
AcDbEntity
  8
0
100
AcDb2dPolyline
 66
     1
 10
0.0
 20
0.0
 30
0.0
  0
VERTEX
  5
3056
330
2954
100
AcDbEntity
  8
0
100
AcDbVertex
100
AcDb2dVertex
 10
2.504921259842519
 20
7.11515748031496
 30
0.0
  0
VERTEX
  5
3057
330
2954
100
AcDbEntity
  8
0
100
AcDbVertex
100
AcDb2dVertex
 10
2.504921259842519
 20
7.121062992125984
 30
0.0
  0
VERTEX
  5
3058
330
2954
100
AcDbEntity
  8
0
100
AcDbVertex
100
AcDb2dVertex
 10
2.504921259842519
 20
7.123031496062991
 30
0.0
  0
SEQEND
  5
3059
330
2954
100
AcDbEntity
  8
0
  0
LINE
  5
2959
330
1E
100
AcDbEntity
  8
0
100
AcDbLine
 10
3.126968503937007
 20
6.347440944881889
 30
0.0
 11
2.910433070866141
 21
6.347440944881889
 31
0.0
  0
POLYLINE
  5
295A
330
1E
100
AcDbEntity
  8
0
100
AcDb2dPolyline
 66
     1
 10
0.0
 20
0.0
 30
0.0
  0
VERTEX
  5
305A
330
295A
100
AcDbEntity
  8
0
100
AcDbVertex
100
AcDb2dVertex
 10
3.146653543307086
 20
6.347440944881889
 30
0.0
  0
VERTEX
  5
305B
330
295A
100
AcDbEntity
  8
0
100
AcDbVertex
100
AcDb2dVertex
 10
3.140748031496062
 20
6.347440944881889
 30
0.0
  0
VERTEX
  5
305C
330
295A
100
AcDbEntity
  8
0
100
AcDbVertex
100
AcDb2dVertex
 10
3.126968503937007
 20
6.347440944881889
 30
0.0
  0
SEQEND
  5
305D
330
295A
100
AcDbEntity
  8
0
  0
POLYLINE
  5
295F
330
1E
100
AcDbEntity
  8
0
100
AcDb2dPolyline
 66
     1
 10
0.0
 20
0.0
 30
0.0
  0
VERTEX
  5
305E
330
295F
100
AcDbEntity
  8
0
100
AcDbVertex
100
AcDb2dVertex
 10
2.045275590551181
 20
6.237204724409449
 30
0.0
  0
VERTEX
  5
305F
330
295F
100
AcDbEntity
  8
0
100
AcDbVertex
100
AcDb2dVertex
 10
2.0501968503937
 20
6.227362204724409
 30
0.0
  0
VERTEX
  5
3060
330
295F
100
AcDbEntity
  8
0
100
AcDbVertex
100
AcDb2dVertex
 10
2.06003937007874
 20
6.222440944881889
 30
0.0
  0
SEQEND
  5
3061
330
295F
100
AcDbEntity
  8
0
  0
LINE
  5
2964
330
1E
100
AcDbEntity
  8
0
100
AcDbLine
 10
2.064960629921259
 20
6.222440944881889
 30
0.0
 11
2.06003937007874
 21
6.222440944881889
 31
0.0
  0
POLYLINE
  5
2965
330
1E
100
AcDbEntity
  8
0
100
AcDb2dPolyline
 66
     1
 10
0.0
 20
0.0
 30
0.0
  0
VERTEX
  5
3062
330
2965
100
AcDbEntity
  8
0
100
AcDbVertex
100
AcDb2dVertex
 10
2.064960629921259
 20
6.237204724409449
 30
0.0
  0
VERTEX
  5
3063
330
2965
100
AcDbEntity
  8
0
100
AcDbVertex
100
AcDb2dVertex
 10
2.064960629921259
 20
6.227362204724409
 30
0.0
  0
VERTEX
  5
3064
330
2965
100
AcDbEntity
  8
0
100
AcDbVertex
100
AcDb2dVertex
 10
2.064960629921259
 20
6.222440944881889
 30
0.0
  0
SEQEND
  5
3065
330
2965
100
AcDbEntity
  8
0
  0
POLYLINE
  5
296A
330
1E
100
AcDbEntity
  8
0
100
AcDb2dPolyline
 66
     1
 10
0.0
 20
0.0
 30
0.0
  0
VERTEX
  5
3066
330
296A
100
AcDbEntity
  8
0
100
AcDbVertex
100
AcDb2dVertex
 10
2.045275590551181
 20
6.237204724409449
 30
0.0
  0
VERTEX
  5
3067
330
296A
100
AcDbEntity
  8
0
100
AcDbVertex
100
AcDb2dVertex
 10
2.051181102362204
 20
6.237204724409449
 30
0.0
  0
VERTEX
  5
3068
330
296A
100
AcDbEntity
  8
0
100
AcDbVertex
100
AcDb2dVertex
 10
2.064960629921259
 20
6.237204724409449
 30
0.0
  0
SEQEND
  5
3069
330
296A
100
AcDbEntity
  8
0
  0
LINE
  5
296F
330
1E
100
AcDbEntity
  8
0
100
AcDbLine
 10
2.064960629921259
 20
6.237204724409449
 30
0.0
 11
3.125
 21
6.237204724409449
 31
0.0
  0
LINE
  5
2970
330
1E
100
AcDbEntity
  8
0
100
AcDbLine
 10
3.125
 20
6.222440944881889
 30
0.0
 11
2.064960629921259
 21
6.222440944881889
 31
0.0
  0
POLYLINE
  5
2971
330
1E
100
AcDbEntity
  8
0
100
AcDb2dPolyline
 66
     1
 10
0.0
 20
0.0
 30
0.0
  0
VERTEX
  5
306A
330
2971
100
AcDbEntity
  8
0
100
AcDbVertex
100
AcDb2dVertex
 10
3.125
 20
6.237204724409449
 30
0.0
  0
VERTEX
  5
306B
330
2971
100
AcDbEntity
  8
0
100
AcDbVertex
100
AcDb2dVertex
 10
3.125
 20
6.227362204724409
 30
0.0
  0
VERTEX
  5
306C
330
2971
100
AcDbEntity
  8
0
100
AcDbVertex
100
AcDb2dVertex
 10
3.125
 20
6.222440944881889
 30
0.0
  0
SEQEND
  5
306D
330
2971
100
AcDbEntity
  8
0
  0
POLYLINE
  5
2976
330
1E
100
AcDbEntity
  8
0
100
AcDb2dPolyline
 66
     1
 10
0.0
 20
0.0
 30
0.0
  0
VERTEX
  5
306E
330
2976
100
AcDbEntity
  8
0
100
AcDbVertex
100
AcDb2dVertex
 10
3.129921259842519
 20
6.222440944881889
 30
0.0
  0
VERTEX
  5
306F
330
2976
100
AcDbEntity
  8
0
100
AcDbVertex
100
AcDb2dVertex
 10
3.140748031496062
 20
6.227362204724409
 30
0.0
  0
VERTEX
  5
3070
330
2976
100
AcDbEntity
  8
0
100
AcDbVertex
100
AcDb2dVertex
 10
3.144685039370078
 20
6.237204724409449
 30
0.0
  0
SEQEND
  5
3071
330
2976
100
AcDbEntity
  8
0
  0
POLYLINE
  5
297B
330
1E
100
AcDbEntity
  8
0
100
AcDb2dPolyline
 66
     1
 10
0.0
 20
0.0
 30
0.0
  0
VERTEX
  5
3072
330
297B
100
AcDbEntity
  8
0
100
AcDbVertex
100
AcDb2dVertex
 10
3.125
 20
6.237204724409449
 30
0.0
  0
VERTEX
  5
3073
330
297B
100
AcDbEntity
  8
0
100
AcDbVertex
100
AcDb2dVertex
 10
3.138779527559055
 20
6.237204724409449
 30
0.0
  0
VERTEX
  5
3074
330
297B
100
AcDbEntity
  8
0
100
AcDbVertex
100
AcDb2dVertex
 10
3.144685039370078
 20
6.237204724409449
 30
0.0
  0
SEQEND
  5
3075
330
297B
100
AcDbEntity
  8
0
  0
LINE
  5
2980
330
1E
100
AcDbEntity
  8
0
100
AcDbLine
 10
3.129921259842519
 20
6.222440944881889
 30
0.0
 11
3.125
 21
6.222440944881889
 31
0.0
  0
LINE
  5
2981
330
1E
100
AcDbEntity
  8
0
100
AcDbLine
 10
2.045275590551181
 20
6.237204724409449
 30
0.0
 11
2.043307086614173
 21
6.347440944881889
 31
0.0
  0
LINE
  5
2982
330
1E
100
AcDbEntity
  8
0
100
AcDbLine
 10
2.043307086614173
 20
6.379921259842519
 30
0.0
 11
2.043307086614173
 21
6.347440944881889
 31
0.0
  0
LINE
  5
2983
330
1E
100
AcDbEntity
  8
0
100
AcDbLine
 10
3.146653543307086
 20
6.347440944881889
 30
0.0
 11
3.14763779527559
 21
6.379921259842519
 31
0.0
  0
LINE
  5
2984
330
1E
100
AcDbEntity
  8
0
100
AcDbLine
 10
3.146653543307086
 20
6.347440944881889
 30
0.0
 11
3.144685039370078
 21
6.237204724409449
 31
0.0
  0
LINE
  5
2985
330
1E
100
AcDbEntity
  8
0
100
AcDbLine
 10
3.125
 20
6.237204724409449
 30
0.0
 11
3.126968503937007
 21
6.347440944881889
 31
0.0
  0
LINE
  5
2986
330
1E
100
AcDbEntity
  8
0
100
AcDbLine
 10
2.910433070866141
 20
6.347440944881889
 30
0.0
 11
2.280511811023622
 21
6.347440944881889
 31
0.0
  0
LINE
  5
2987
330
1E
100
AcDbEntity
  8
0
100
AcDbLine
 10
2.280511811023622
 20
6.347440944881889
 30
0.0
 11
2.062992125984251
 21
6.347440944881889
 31
0.0
  0
LINE
  5
2988
330
1E
100
AcDbEntity
  8
0
100
AcDbLine
 10
2.062992125984251
 20
6.347440944881889
 30
0.0
 11
2.064960629921259
 21
6.237204724409449
 31
0.0
  0
POLYLINE
  5
2989
330
1E
100
AcDbEntity
  8
0
100
AcDb2dPolyline
 66
     1
 10
0.0
 20
0.0
 30
0.0
  0
VERTEX
  5
3076
330
2989
100
AcDbEntity
  8
0
100
AcDbVertex
100
AcDb2dVertex
 10
2.062992125984251
 20
6.347440944881889
 30
0.0
  0
VERTEX
  5
3077
330
2989
100
AcDbEntity
  8
0
100
AcDbVertex
100
AcDb2dVertex
 10
2.049212598425196
 20
6.347440944881889
 30
0.0
  0
VERTEX
  5
3078
330
2989
100
AcDbEntity
  8
0
100
AcDbVertex
100
AcDb2dVertex
 10
2.043307086614173
 20
6.347440944881889
 30
0.0
  0
SEQEND
  5
3079
330
2989
100
AcDbEntity
  8
0
  0
LINE
  5
298E
330
1E
100
AcDbEntity
  8
0
100
AcDbLine
 10
2.907480314960629
 20
6.437007874015748
 30
0.0
 11
2.910433070866141
 21
6.347440944881889
 31
0.0
  0
LINE
  5
298F
330
1E
100
AcDbEntity
  8
0
100
AcDbLine
 10
2.293307086614173
 20
6.446850393700787
 30
0.0
 11
2.896653543307086
 21
6.446850393700787
 31
0.0
  0
POLYLINE
  5
2990
330
1E
100
AcDbEntity
  8
0
100
AcDb2dPolyline
 66
     1
 10
0.0
 20
0.0
 30
0.0
  0
VERTEX
  5
307A
330
2990
100
AcDbEntity
  8
0
100
AcDbVertex
100
AcDb2dVertex
 10
2.907480314960629
 20
6.437007874015748
 30
0.0
  0
VERTEX
  5
307B
330
2990
100
AcDbEntity
  8
0
100
AcDbVertex
100
AcDb2dVertex
 10
2.903543307086614
 20
6.443897637795275
 30
0.0
  0
VERTEX
  5
307C
330
2990
100
AcDbEntity
  8
0
100
AcDbVertex
100
AcDb2dVertex
 10
2.896653543307086
 20
6.446850393700787
 30
0.0
  0
SEQEND
  5
307D
330
2990
100
AcDbEntity
  8
0
  0
POLYLINE
  5
2995
330
1E
100
AcDbEntity
  8
0
100
AcDb2dPolyline
 66
     1
 10
0.0
 20
0.0
 30
0.0
  0
VERTEX
  5
307E
330
2995
100
AcDbEntity
  8
0
100
AcDbVertex
100
AcDb2dVertex
 10
2.293307086614173
 20
6.446850393700787
 30
0.0
  0
VERTEX
  5
307F
330
2995
100
AcDbEntity
  8
0
100
AcDbVertex
100
AcDb2dVertex
 10
2.286417322834645
 20
6.443897637795275
 30
0.0
  0
VERTEX
  5
3080
330
2995
100
AcDbEntity
  8
0
100
AcDbVertex
100
AcDb2dVertex
 10
2.283464566929133
 20
6.437007874015748
 30
0.0
  0
SEQEND
  5
3081
330
2995
100
AcDbEntity
  8
0
  0
LINE
  5
299A
330
1E
100
AcDbEntity
  8
0
100
AcDbLine
 10
2.280511811023622
 20
6.347440944881889
 30
0.0
 11
2.283464566929133
 21
6.437007874015748
 31
0.0
  0
LINE
  5
299B
330
1E
100
AcDbEntity
  8
0
100
AcDbLine
 10
2.523622047244094
 20
6.222440944881889
 30
0.0
 11
2.524606299212598
 21
6.202755905511811
 31
0.0
  0
LINE
  5
299C
330
1E
100
AcDbEntity
  8
0
100
AcDbLine
 10
2.524606299212598
 20
6.202755905511811
 30
0.0
 11
2.666338582677165
 21
6.202755905511811
 31
0.0
  0
LINE
  5
299D
330
1E
100
AcDbEntity
  8
0
100
AcDbLine
 10
2.666338582677165
 20
6.202755905511811
 30
0.0
 11
2.666338582677165
 21
6.222440944881889
 31
0.0
  0
LINE
  5
299E
330
1E
100
AcDbEntity
  8
0
100
AcDbLine
 10
2.666338582677165
 20
6.192913385826771
 30
0.0
 11
2.524606299212598
 21
6.192913385826771
 31
0.0
  0
LINE
  5
299F
330
1E
100
AcDbEntity
  8
0
100
AcDbLine
 10
2.676181102362204
 20
6.222440944881889
 30
0.0
 11
2.676181102362204
 21
6.202755905511811
 31
0.0
  0
LINE
  5
29A0
330
1E
100
AcDbEntity
  8
0
100
AcDbLine
 10
2.514763779527558
 20
6.202755905511811
 30
0.0
 11
2.513779527559055
 21
6.222440944881889
 31
0.0
  0
POLYLINE
  5
29A1
330
1E
100
AcDbEntity
  8
0
100
AcDb2dPolyline
 66
     1
 10
0.0
 20
0.0
 30
0.0
  0
VERTEX
  5
3082
330
29A1
100
AcDbEntity
  8
0
100
AcDbVertex
100
AcDb2dVertex
 10
2.666338582677165
 20
6.202755905511811
 30
0.0
  0
VERTEX
  5
3083
330
29A1
100
AcDbEntity
  8
0
100
AcDbVertex
100
AcDb2dVertex
 10
2.673228346456693
 20
6.202755905511811
 30
0.0
  0
VERTEX
  5
3084
330
29A1
100
AcDbEntity
  8
0
100
AcDbVertex
100
AcDb2dVertex
 10
2.676181102362204
 20
6.202755905511811
 30
0.0
  0
SEQEND
  5
3085
330
29A1
100
AcDbEntity
  8
0
  0
POLYLINE
  5
29A6
330
1E
100
AcDbEntity
  8
0
100
AcDb2dPolyline
 66
     1
 10
0.0
 20
0.0
 30
0.0
  0
VERTEX
  5
3086
330
29A6
100
AcDbEntity
  8
0
100
AcDbVertex
100
AcDb2dVertex
 10
2.514763779527558
 20
6.202755905511811
 30
0.0
  0
VERTEX
  5
3087
330
29A6
100
AcDbEntity
  8
0
100
AcDbVertex
100
AcDb2dVertex
 10
2.51771653543307
 20
6.202755905511811
 30
0.0
  0
VERTEX
  5
3088
330
29A6
100
AcDbEntity
  8
0
100
AcDbVertex
100
AcDb2dVertex
 10
2.524606299212598
 20
6.202755905511811
 30
0.0
  0
SEQEND
  5
3089
330
29A6
100
AcDbEntity
  8
0
  0
POLYLINE
  5
29AB
330
1E
100
AcDbEntity
  8
0
100
AcDb2dPolyline
 66
     1
 10
0.0
 20
0.0
 30
0.0
  0
VERTEX
  5
308A
330
29AB
100
AcDbEntity
  8
0
100
AcDbVertex
100
AcDb2dVertex
 10
2.666338582677165
 20
6.202755905511811
 30
0.0
  0
VERTEX
  5
308B
330
29AB
100
AcDbEntity
  8
0
100
AcDbVertex
100
AcDb2dVertex
 10
2.666338582677165
 20
6.195866141732283
 30
0.0
  0
VERTEX
  5
308C
330
29AB
100
AcDbEntity
  8
0
100
AcDbVertex
100
AcDb2dVertex
 10
2.666338582677165
 20
6.192913385826771
 30
0.0
  0
SEQEND
  5
308D
330
29AB
100
AcDbEntity
  8
0
  0
POLYLINE
  5
29B0
330
1E
100
AcDbEntity
  8
0
100
AcDb2dPolyline
 66
     1
 10
0.0
 20
0.0
 30
0.0
  0
VERTEX
  5
308E
330
29B0
100
AcDbEntity
  8
0
100
AcDbVertex
100
AcDb2dVertex
 10
2.524606299212598
 20
6.192913385826771
 30
0.0
  0
VERTEX
  5
308F
330
29B0
100
AcDbEntity
  8
0
100
AcDbVertex
100
AcDb2dVertex
 10
2.524606299212598
 20
6.195866141732283
 30
0.0
  0
VERTEX
  5
3090
330
29B0
100
AcDbEntity
  8
0
100
AcDbVertex
100
AcDb2dVertex
 10
2.524606299212598
 20
6.202755905511811
 30
0.0
  0
SEQEND
  5
3091
330
29B0
100
AcDbEntity
  8
0
  0
POLYLINE
  5
29B5
330
1E
100
AcDbEntity
  8
0
100
AcDb2dPolyline
 66
     1
 10
0.0
 20
0.0
 30
0.0
  0
VERTEX
  5
3092
330
29B5
100
AcDbEntity
  8
0
100
AcDbVertex
100
AcDb2dVertex
 10
2.524606299212598
 20
6.192913385826771
 30
0.0
  0
VERTEX
  5
3093
330
29B5
100
AcDbEntity
  8
0
100
AcDbVertex
100
AcDb2dVertex
 10
2.51771653543307
 20
6.195866141732283
 30
0.0
  0
VERTEX
  5
3094
330
29B5
100
AcDbEntity
  8
0
100
AcDbVertex
100
AcDb2dVertex
 10
2.514763779527558
 20
6.202755905511811
 30
0.0
  0
SEQEND
  5
3095
330
29B5
100
AcDbEntity
  8
0
  0
POLYLINE
  5
29BA
330
1E
100
AcDbEntity
  8
0
100
AcDb2dPolyline
 66
     1
 10
0.0
 20
0.0
 30
0.0
  0
VERTEX
  5
3096
330
29BA
100
AcDbEntity
  8
0
100
AcDbVertex
100
AcDb2dVertex
 10
2.676181102362204
 20
6.202755905511811
 30
0.0
  0
VERTEX
  5
3097
330
29BA
100
AcDbEntity
  8
0
100
AcDbVertex
100
AcDb2dVertex
 10
2.673228346456693
 20
6.195866141732283
 30
0.0
  0
VERTEX
  5
3098
330
29BA
100
AcDbEntity
  8
0
100
AcDbVertex
100
AcDb2dVertex
 10
2.666338582677165
 20
6.192913385826771
 30
0.0
  0
SEQEND
  5
3099
330
29BA
100
AcDbEntity
  8
0
  0
LINE
  5
29BF
330
1E
100
AcDbEntity
  8
0
100
AcDbLine
 10
2.904527559055118
 20
4.903543307086613
 30
0.0
 11
2.864173228346456
 21
4.903543307086613
 31
0.0
  0
LINE
  5
29C0
330
1E
100
AcDbEntity
  8
0
100
AcDbLine
 10
2.434055118110236
 20
4.903543307086613
 30
0.0
 11
2.434055118110236
 21
5.002952755905512
 31
0.0
  0
LINE
  5
29C1
330
1E
100
AcDbEntity
  8
0
100
AcDbLine
 10
2.434055118110236
 20
5.002952755905512
 30
0.0
 11
2.493110236220472
 21
4.903543307086613
 31
0.0
  0
LINE
  5
29C2
330
1E
100
AcDbEntity
  8
0
100
AcDbLine
 10
2.661417322834645
 20
4.923228346456692
 30
0.0
 11
2.646653543307086
 21
4.903543307086613
 31
0.0
  0
LINE
  5
29C3
330
1E
100
AcDbEntity
  8
0
100
AcDbLine
 10
2.864173228346456
 20
4.963582677165354
 30
0.0
 11
2.904527559055118
 21
4.963582677165354
 31
0.0
  0
LINE
  5
29C4
330
1E
100
AcDbEntity
  8
0
100
AcDbLine
 10
2.904527559055118
 20
4.963582677165354
 30
0.0
 11
2.924212598425196
 21
4.943897637795275
 31
0.0
  0
LINE
  5
29C5
330
1E
100
AcDbEntity
  8
0
100
AcDbLine
 10
2.924212598425196
 20
4.923228346456692
 30
0.0
 11
2.904527559055118
 21
4.903543307086613
 31
0.0
  0
LINE
  5
29C6
330
1E
100
AcDbEntity
  8
0
100
AcDbLine
 10
2.265748031496062
 20
5.002952755905512
 30
0.0
 11
2.265748031496062
 21
4.903543307086613
 31
0.0
  0
LINE
  5
29C7
330
1E
100
AcDbEntity
  8
0
100
AcDbLine
 10
2.801181102362204
 20
5.002952755905512
 30
0.0
 11
2.801181102362204
 21
4.903543307086613
 31
0.0
  0
LINE
  5
29C8
330
1E
100
AcDbEntity
  8
0
100
AcDbLine
 10
2.716535433070866
 20
5.002952755905512
 30
0.0
 11
2.746062992125984
 21
4.903543307086613
 31
0.0
  0
LINE
  5
29C9
330
1E
100
AcDbEntity
  8
0
100
AcDbLine
 10
2.845472440944881
 20
4.943897637795275
 30
0.0
 11
2.864173228346456
 21
4.963582677165354
 31
0.0
  0
LINE
  5
29CA
330
1E
100
AcDbEntity
  8
0
100
AcDbLine
 10
2.602362204724409
 20
4.923228346456692
 30
0.0
 11
2.602362204724409
 21
4.983267716535433
 31
0.0
  0
LINE
  5
29CB
330
1E
100
AcDbEntity
  8
0
100
AcDbLine
 10
2.602362204724409
 20
4.983267716535433
 30
0.0
 11
2.617125984251968
 21
5.002952755905512
 31
0.0
  0
LINE
  5
29CC
330
1E
100
AcDbEntity
  8
0
100
AcDbLine
 10
2.617125984251968
 20
4.903543307086613
 30
0.0
 11
2.602362204724409
 21
4.923228346456692
 31
0.0
  0
LINE
  5
29CD
330
1E
100
AcDbEntity
  8
0
100
AcDbLine
 10
2.864173228346456
 20
5.002952755905512
 30
0.0
 11
2.904527559055118
 21
5.002952755905512
 31
0.0
  0
LINE
  5
29CE
330
1E
100
AcDbEntity
  8
0
100
AcDbLine
 10
2.36515748031496
 20
4.953740157480314
 30
0.0
 11
2.394685039370078
 21
4.953740157480314
 31
0.0
  0
LINE
  5
29CF
330
1E
100
AcDbEntity
  8
0
100
AcDbLine
 10
2.265748031496062
 20
4.903543307086613
 30
0.0
 11
2.324803149606299
 21
4.903543307086613
 31
0.0
  0
LINE
  5
29D0
330
1E
100
AcDbEntity
  8
0
100
AcDbLine
 10
2.577755905511811
 20
5.002952755905512
 30
0.0
 11
2.518700787401574
 21
4.903543307086613
 31
0.0
  0
LINE
  5
29D1
330
1E
100
AcDbEntity
  8
0
100
AcDbLine
 10
2.845472440944881
 20
4.983267716535433
 30
0.0
 11
2.864173228346456
 21
5.002952755905512
 31
0.0
  0
LINE
  5
29D2
330
1E
100
AcDbEntity
  8
0
100
AcDbLine
 10
2.924212598425196
 20
4.943897637795275
 30
0.0
 11
2.924212598425196
 21
4.923228346456692
 31
0.0
  0
LINE
  5
29D3
330
1E
100
AcDbEntity
  8
0
100
AcDbLine
 10
2.646653543307086
 20
4.903543307086613
 30
0.0
 11
2.617125984251968
 21
4.903543307086613
 31
0.0
  0
LINE
  5
29D4
330
1E
100
AcDbEntity
  8
0
100
AcDbLine
 10
2.617125984251968
 20
5.002952755905512
 30
0.0
 11
2.646653543307086
 21
5.002952755905512
 31
0.0
  0
LINE
  5
29D5
330
1E
100
AcDbEntity
  8
0
100
AcDbLine
 10
2.379921259842519
 20
5.002952755905512
 30
0.0
 11
2.409448818897637
 21
4.903543307086613
 31
0.0
  0
LINE
  5
29D6
330
1E
100
AcDbEntity
  8
0
100
AcDbLine
 10
2.845472440944881
 20
4.923228346456692
 30
0.0
 11
2.845472440944881
 21
4.983267716535433
 31
0.0
  0
LINE
  5
29D7
330
1E
100
AcDbEntity
  8
0
100
AcDbLine
 10
2.687007874015748
 20
4.903543307086613
 30
0.0
 11
2.716535433070866
 21
5.002952755905512
 31
0.0
  0
LINE
  5
29D8
330
1E
100
AcDbEntity
  8
0
100
AcDbLine
 10
2.701771653543306
 20
4.953740157480314
 30
0.0
 11
2.731299212598425
 21
4.953740157480314
 31
0.0
  0
LINE
  5
29D9
330
1E
100
AcDbEntity
  8
0
100
AcDbLine
 10
2.493110236220472
 20
4.903543307086613
 30
0.0
 11
2.493110236220472
 21
5.002952755905512
 31
0.0
  0
LINE
  5
29DA
330
1E
100
AcDbEntity
  8
0
100
AcDbLine
 10
2.864173228346456
 20
4.903543307086613
 30
0.0
 11
2.845472440944881
 21
4.923228346456692
 31
0.0
  0
LINE
  5
29DB
330
1E
100
AcDbEntity
  8
0
100
AcDbLine
 10
2.350393700787401
 20
4.903543307086613
 30
0.0
 11
2.379921259842519
 21
5.002952755905512
 31
0.0
  0
LINE
  5
29DC
330
1E
100
AcDbEntity
  8
0
100
AcDbLine
 10
2.830708661417322
 20
5.002952755905512
 30
0.0
 11
2.770669291338582
 21
5.002952755905512
 31
0.0
  0
LINE
  5
29DD
330
1E
100
AcDbEntity
  8
0
100
AcDbLine
 10
2.646653543307086
 20
5.002952755905512
 30
0.0
 11
2.662401574803149
 21
4.983267716535433
 31
0.0
  0
LINE
  5
29DE
330
1E
100
AcDbEntity
  8
0
100
AcDbLine
 10
3.14763779527559
 20
4.375984251968503
 30
0.0
 11
3.14763779527559
 21
4.473425196850393
 31
0.0
  0
LINE
  5
29DF
330
1E
100
AcDbEntity
  8
0
100
AcDbLine
 10
3.14763779527559
 20
4.770669291338582
 30
0.0
 11
3.14763779527559
 21
4.867125984251968
 31
0.0
  0
LINE
  5
29E0
330
1E
100
AcDbEntity
  8
0
100
AcDbLine
 10
2.043307086614173
 20
4.867125984251968
 30
0.0
 11
2.043307086614173
 21
4.770669291338582
 31
0.0
  0
LINE
  5
29E1
330
1E
100
AcDbEntity
  8
0
100
AcDbLine
 10
2.043307086614173
 20
4.473425196850393
 30
0.0
 11
2.043307086614173
 21
4.375984251968503
 31
0.0
  0
LINE
  5
29E2
330
1E
100
AcDbEntity
  8
0
100
AcDbLine
 10
2.049212598425196
 20
4.181102362204724
 30
0.0
 11
2.062992125984251
 21
4.1751968503937
 31
0.0
  0
LINE
  5
29E3
330
1E
100
AcDbEntity
  8
0
100
AcDbLine
 10
2.062992125984251
 20
4.1751968503937
 30
0.0
 11
3.126968503937007
 21
4.1751968503937
 31
0.0
  0
LINE
  5
29E4
330
1E
100
AcDbEntity
  8
0
100
AcDbLine
 10
3.126968503937007
 20
4.1751968503937
 30
0.0
 11
3.141732283464566
 21
4.181102362204724
 31
0.0
  0
LINE
  5
29E5
330
1E
100
AcDbEntity
  8
0
100
AcDbLine
 10
3.141732283464566
 20
5.062007874015748
 30
0.0
 11
3.126968503937007
 21
5.067913385826771
 31
0.0
  0
LINE
  5
29E6
330
1E
100
AcDbEntity
  8
0
100
AcDbLine
 10
3.126968503937007
 20
5.067913385826771
 30
0.0
 11
2.915354330708661
 21
5.067913385826771
 31
0.0
  0
LINE
  5
29E7
330
1E
100
AcDbEntity
  8
0
100
AcDbLine
 10
2.275590551181102
 20
5.067913385826771
 30
0.0
 11
2.062992125984251
 21
5.067913385826771
 31
0.0
  0
LINE
  5
29E8
330
1E
100
AcDbEntity
  8
0
100
AcDbLine
 10
2.062992125984251
 20
5.067913385826771
 30
0.0
 11
2.049212598425196
 21
5.062007874015748
 31
0.0
  0
LINE
  5
29E9
330
1E
100
AcDbEntity
  8
0
100
AcDbLine
 10
2.280511811023622
 20
5.069881889763779
 30
0.0
 11
2.280511811023622
 21
5.067913385826771
 31
0.0
  0
LINE
  5
29EA
330
1E
100
AcDbEntity
  8
0
100
AcDbLine
 10
2.280511811023622
 20
5.069881889763779
 30
0.0
 11
2.275590551181102
 21
5.067913385826771
 31
0.0
  0
LINE
  5
29EB
330
1E
100
AcDbEntity
  8
0
100
AcDbLine
 10
2.909448818897637
 20
5.067913385826771
 30
0.0
 11
2.909448818897637
 21
5.069881889763779
 31
0.0
  0
LINE
  5
29EC
330
1E
100
AcDbEntity
  8
0
100
AcDbLine
 10
2.915354330708661
 20
5.067913385826771
 30
0.0
 11
2.909448818897637
 21
5.069881889763779
 31
0.0
  0
LINE
  5
29ED
330
1E
100
AcDbEntity
  8
0
100
AcDbLine
 10
2.251968503937007
 20
4.171259842519685
 30
0.0
 11
2.915354330708661
 21
4.171259842519685
 31
0.0
  0
LINE
  5
29EE
330
1E
100
AcDbEntity
  8
0
100
AcDbLine
 10
2.251968503937007
 20
4.171259842519685
 30
0.0
 11
2.06003937007874
 21
4.171259842519685
 31
0.0
  0
LINE
  5
29EF
330
1E
100
AcDbEntity
  8
0
100
AcDbLine
 10
3.129921259842519
 20
4.171259842519685
 30
0.0
 11
2.937992125984251
 21
4.171259842519685
 31
0.0
  0
LINE
  5
29F0
330
1E
100
AcDbEntity
  8
0
100
AcDbLine
 10
2.937992125984251
 20
4.171259842519685
 30
0.0
 11
2.915354330708661
 21
4.171259842519685
 31
0.0
  0
LINE
  5
29F1
330
1E
100
AcDbEntity
  8
0
100
AcDbLine
 10
2.062992125984251
 20
4.1751968503937
 30
0.0
 11
2.06003937007874
 21
4.171259842519685
 31
0.0
  0
LINE
  5
29F2
330
1E
100
AcDbEntity
  8
0
100
AcDbLine
 10
3.129921259842519
 20
4.171259842519685
 30
0.0
 11
3.126968503937007
 21
4.1751968503937
 31
0.0
  0
POLYLINE
  5
29F3
330
1E
100
AcDbEntity
  8
0
100
AcDb2dPolyline
 66
     1
 10
0.0
 20
0.0
 30
0.0
  0
VERTEX
  5
309A
330
29F3
100
AcDbEntity
  8
0
100
AcDbVertex
100
AcDb2dVertex
 10
3.197834645669291
 20
4.934055118110236
 30
0.0
  0
VERTEX
  5
309B
330
29F3
100
AcDbEntity
  8
0
100
AcDbVertex
100
AcDb2dVertex
 10
3.197834645669291
 20
4.928149606299212
 30
0.0
  0
VERTEX
  5
309C
330
29F3
100
AcDbEntity
  8
0
100
AcDbVertex
100
AcDb2dVertex
 10
3.197834645669291
 20
4.914370078740157
 30
0.0
  0
SEQEND
  5
309D
330
29F3
100
AcDbEntity
  8
0
  0
LINE
  5
29F8
330
1E
100
AcDbEntity
  8
0
100
AcDbLine
 10
3.202755905511811
 20
4.909448818897637
 30
0.0
 11
3.197834645669291
 21
4.914370078740157
 31
0.0
  0
POLYLINE
  5
29F9
330
1E
100
AcDbEntity
  8
0
100
AcDb2dPolyline
 66
     1
 10
0.0
 20
0.0
 30
0.0
  0
VERTEX
  5
309E
330
29F9
100
AcDbEntity
  8
0
100
AcDbVertex
100
AcDb2dVertex
 10
3.222440944881889
 20
4.909448818897637
 30
0.0
  0
VERTEX
  5
309F
330
29F9
100
AcDbEntity
  8
0
100
AcDbVertex
100
AcDb2dVertex
 10
3.216535433070866
 20
4.909448818897637
 30
0.0
  0
VERTEX
  5
30A0
330
29F9
100
AcDbEntity
  8
0
100
AcDbVertex
100
AcDb2dVertex
 10
3.202755905511811
 20
4.909448818897637
 30
0.0
  0
SEQEND
  5
30A1
330
29F9
100
AcDbEntity
  8
0
  0
POLYLINE
  5
29FE
330
1E
100
AcDbEntity
  8
0
100
AcDb2dPolyline
 66
     1
 10
0.0
 20
0.0
 30
0.0
  0
VERTEX
  5
30A2
330
29FE
100
AcDbEntity
  8
0
100
AcDbVertex
100
AcDb2dVertex
 10
3.197834645669291
 20
4.934055118110236
 30
0.0
  0
VERTEX
  5
30A3
330
29FE
100
AcDbEntity
  8
0
100
AcDbVertex
100
AcDb2dVertex
 10
3.210629921259842
 20
4.931102362204724
 30
0.0
  0
VERTEX
  5
30A4
330
29FE
100
AcDbEntity
  8
0
100
AcDbVertex
100
AcDb2dVertex
 10
3.219488188976377
 20
4.921259842519685
 30
0.0
  0
VERTEX
  5
30A5
330
29FE
100
AcDbEntity
  8
0
100
AcDbVertex
100
AcDb2dVertex
 10
3.222440944881889
 20
4.909448818897637
 30
0.0
  0
SEQEND
  5
30A6
330
29FE
100
AcDbEntity
  8
0
  0
LINE
  5
2A04
330
1E
100
AcDbEntity
  8
0
100
AcDbLine
 10
3.202755905511811
 20
4.333661417322834
 30
0.0
 11
3.202755905511811
 21
4.909448818897637
 31
0.0
  0
POLYLINE
  5
2A05
330
1E
100
AcDbEntity
  8
0
100
AcDb2dPolyline
 66
     1
 10
0.0
 20
0.0
 30
0.0
  0
VERTEX
  5
30A7
330
2A05
100
AcDbEntity
  8
0
100
AcDbVertex
100
AcDb2dVertex
 10
3.222440944881889
 20
4.333661417322834
 30
0.0
  0
VERTEX
  5
30A8
330
2A05
100
AcDbEntity
  8
0
100
AcDbVertex
100
AcDb2dVertex
 10
3.216535433070866
 20
4.333661417322834
 30
0.0
  0
VERTEX
  5
30A9
330
2A05
100
AcDbEntity
  8
0
100
AcDbVertex
100
AcDb2dVertex
 10
3.202755905511811
 20
4.333661417322834
 30
0.0
  0
SEQEND
  5
30AA
330
2A05
100
AcDbEntity
  8
0
  0
LINE
  5
2A0A
330
1E
100
AcDbEntity
  8
0
100
AcDbLine
 10
3.222440944881889
 20
4.909448818897637
 30
0.0
 11
3.222440944881889
 21
4.333661417322834
 31
0.0
  0
LINE
  5
2A0B
330
1E
100
AcDbEntity
  8
0
100
AcDbLine
 10
3.197834645669291
 20
4.328740157480314
 30
0.0
 11
3.202755905511811
 21
4.333661417322834
 31
0.0
  0
POLYLINE
  5
2A0C
330
1E
100
AcDbEntity
  8
0
100
AcDb2dPolyline
 66
     1
 10
0.0
 20
0.0
 30
0.0
  0
VERTEX
  5
30AB
330
2A0C
100
AcDbEntity
  8
0
100
AcDbVertex
100
AcDb2dVertex
 10
3.197834645669291
 20
4.309055118110236
 30
0.0
  0
VERTEX
  5
30AC
330
2A0C
100
AcDbEntity
  8
0
100
AcDbVertex
100
AcDb2dVertex
 10
3.197834645669291
 20
4.31496062992126
 30
0.0
  0
VERTEX
  5
30AD
330
2A0C
100
AcDbEntity
  8
0
100
AcDbVertex
100
AcDb2dVertex
 10
3.197834645669291
 20
4.328740157480314
 30
0.0
  0
SEQEND
  5
30AE
330
2A0C
100
AcDbEntity
  8
0
  0
POLYLINE
  5
2A11
330
1E
100
AcDbEntity
  8
0
100
AcDb2dPolyline
 66
     1
 10
0.0
 20
0.0
 30
0.0
  0
VERTEX
  5
30AF
330
2A11
100
AcDbEntity
  8
0
100
AcDbVertex
100
AcDb2dVertex
 10
3.222440944881889
 20
4.333661417322834
 30
0.0
  0
VERTEX
  5
30B0
330
2A11
100
AcDbEntity
  8
0
100
AcDbVertex
100
AcDb2dVertex
 10
3.219488188976377
 20
4.321850393700787
 30
0.0
  0
VERTEX
  5
30B1
330
2A11
100
AcDbEntity
  8
0
100
AcDbVertex
100
AcDb2dVertex
 10
3.210629921259842
 20
4.312007874015748
 30
0.0
  0
VERTEX
  5
30B2
330
2A11
100
AcDbEntity
  8
0
100
AcDbVertex
100
AcDb2dVertex
 10
3.197834645669291
 20
4.309055118110236
 30
0.0
  0
SEQEND
  5
30B3
330
2A11
100
AcDbEntity
  8
0
  0
LINE
  5
2A17
330
1E
100
AcDbEntity
  8
0
100
AcDbLine
 10
3.224409448818897
 20
4.763779527559054
 30
0.0
 11
3.224409448818897
 21
4.479330708661417
 31
0.0
  0
LINE
  5
2A18
330
1E
100
AcDbEntity
  8
0
100
AcDbLine
 10
3.197834645669291
 20
4.934055118110236
 30
0.0
 11
3.199803149606299
 21
4.937007874015748
 31
0.0
  0
LINE
  5
2A19
330
1E
100
AcDbEntity
  8
0
100
AcDbLine
 10
3.225393700787401
 20
4.911417322834645
 30
0.0
 11
3.222440944881889
 21
4.909448818897637
 31
0.0
  0
POLYLINE
  5
2A1A
330
1E
100
AcDbEntity
  8
0
100
AcDb2dPolyline
 66
     1
 10
0.0
 20
0.0
 30
0.0
  0
VERTEX
  5
30B4
330
2A1A
100
AcDbEntity
  8
0
100
AcDbVertex
100
AcDb2dVertex
 10
3.199803149606299
 20
4.937007874015748
 30
0.0
  0
VERTEX
  5
30B5
330
2A1A
100
AcDbEntity
  8
0
100
AcDbVertex
100
AcDb2dVertex
 10
3.21259842519685
 20
4.933070866141732
 30
0.0
  0
VERTEX
  5
30B6
330
2A1A
100
AcDbEntity
  8
0
100
AcDbVertex
100
AcDb2dVertex
 10
3.221456692913385
 20
4.924212598425197
 30
0.0
  0
VERTEX
  5
30B7
330
2A1A
100
AcDbEntity
  8
0
100
AcDbVertex
100
AcDb2dVertex
 10
3.225393700787401
 20
4.911417322834645
 30
0.0
  0
SEQEND
  5
30B8
330
2A1A
100
AcDbEntity
  8
0
  0
LINE
  5
2A20
330
1E
100
AcDbEntity
  8
0
100
AcDbLine
 10
3.432086614173228
 20
4.946850393700787
 30
0.0
 11
3.450787401574803
 21
4.946850393700787
 31
0.0
  0
POLYLINE
  5
2A21
330
1E
100
AcDbEntity
  8
0
100
AcDb2dPolyline
 66
     1
 10
0.0
 20
0.0
 30
0.0
  0
VERTEX
  5
30B9
330
2A21
100
AcDbEntity
  8
0
100
AcDbVertex
100
AcDb2dVertex
 10
3.460629921259842
 20
4.937007874015748
 30
0.0
  0
VERTEX
  5
30BA
330
2A21
100
AcDbEntity
  8
0
100
AcDbVertex
100
AcDb2dVertex
 10
3.45767716535433
 20
4.943897637795275
 30
0.0
  0
VERTEX
  5
30BB
330
2A21
100
AcDbEntity
  8
0
100
AcDbVertex
100
AcDb2dVertex
 10
3.450787401574803
 20
4.946850393700787
 30
0.0
  0
SEQEND
  5
30BC
330
2A21
100
AcDbEntity
  8
0
  0
LINE
  5
2A26
330
1E
100
AcDbEntity
  8
0
100
AcDbLine
 10
3.460629921259842
 20
4.937007874015748
 30
0.0
 11
3.460629921259842
 21
4.838582677165354
 31
0.0
  0
POLYLINE
  5
2A27
330
1E
100
AcDbEntity
  8
0
100
AcDb2dPolyline
 66
     1
 10
0.0
 20
0.0
 30
0.0
  0
VERTEX
  5
30BD
330
2A27
100
AcDbEntity
  8
0
100
AcDbVertex
100
AcDb2dVertex
 10
3.450787401574803
 20
4.828740157480314
 30
0.0
  0
VERTEX
  5
30BE
330
2A27
100
AcDbEntity
  8
0
100
AcDbVertex
100
AcDb2dVertex
 10
3.45767716535433
 20
4.831692913385826
 30
0.0
  0
VERTEX
  5
30BF
330
2A27
100
AcDbEntity
  8
0
100
AcDbVertex
100
AcDb2dVertex
 10
3.460629921259842
 20
4.838582677165354
 30
0.0
  0
SEQEND
  5
30C0
330
2A27
100
AcDbEntity
  8
0
  0
LINE
  5
2A2C
330
1E
100
AcDbEntity
  8
0
100
AcDbLine
 10
3.450787401574803
 20
4.828740157480314
 30
0.0
 11
3.432086614173228
 21
4.828740157480314
 31
0.0
  0
LINE
  5
2A2D
330
1E
100
AcDbEntity
  8
0
100
AcDbLine
 10
3.432086614173228
 20
4.414370078740157
 30
0.0
 11
3.450787401574803
 21
4.414370078740157
 31
0.0
  0
POLYLINE
  5
2A2E
330
1E
100
AcDbEntity
  8
0
100
AcDb2dPolyline
 66
     1
 10
0.0
 20
0.0
 30
0.0
  0
VERTEX
  5
30C1
330
2A2E
100
AcDbEntity
  8
0
100
AcDbVertex
100
AcDb2dVertex
 10
3.460629921259842
 20
4.404527559055117
 30
0.0
  0
VERTEX
  5
30C2
330
2A2E
100
AcDbEntity
  8
0
100
AcDbVertex
100
AcDb2dVertex
 10
3.45767716535433
 20
4.411417322834645
 30
0.0
  0
VERTEX
  5
30C3
330
2A2E
100
AcDbEntity
  8
0
100
AcDbVertex
100
AcDb2dVertex
 10
3.450787401574803
 20
4.414370078740157
 30
0.0
  0
SEQEND
  5
30C4
330
2A2E
100
AcDbEntity
  8
0
  0
LINE
  5
2A33
330
1E
100
AcDbEntity
  8
0
100
AcDbLine
 10
3.460629921259842
 20
4.404527559055117
 30
0.0
 11
3.460629921259842
 21
4.307086614173228
 31
0.0
  0
POLYLINE
  5
2A34
330
1E
100
AcDbEntity
  8
0
100
AcDb2dPolyline
 66
     1
 10
0.0
 20
0.0
 30
0.0
  0
VERTEX
  5
30C5
330
2A34
100
AcDbEntity
  8
0
100
AcDbVertex
100
AcDb2dVertex
 10
3.450787401574803
 20
4.296259842519685
 30
0.0
  0
VERTEX
  5
30C6
330
2A34
100
AcDbEntity
  8
0
100
AcDbVertex
100
AcDb2dVertex
 10
3.45767716535433
 20
4.299212598425197
 30
0.0
  0
VERTEX
  5
30C7
330
2A34
100
AcDbEntity
  8
0
100
AcDbVertex
100
AcDb2dVertex
 10
3.460629921259842
 20
4.307086614173228
 30
0.0
  0
SEQEND
  5
30C8
330
2A34
100
AcDbEntity
  8
0
  0
LINE
  5
2A39
330
1E
100
AcDbEntity
  8
0
100
AcDbLine
 10
3.450787401574803
 20
4.296259842519685
 30
0.0
 11
3.432086614173228
 21
4.296259842519685
 31
0.0
  0
LINE
  5
2A3A
330
1E
100
AcDbEntity
  8
0
100
AcDbLine
 10
3.222440944881889
 20
4.333661417322834
 30
0.0
 11
3.225393700787401
 21
4.331692913385826
 31
0.0
  0
LINE
  5
2A3B
330
1E
100
AcDbEntity
  8
0
100
AcDbLine
 10
3.199803149606299
 20
4.307086614173228
 30
0.0
 11
3.197834645669291
 21
4.309055118110236
 31
0.0
  0
POLYLINE
  5
2A3C
330
1E
100
AcDbEntity
  8
0
100
AcDb2dPolyline
 66
     1
 10
0.0
 20
0.0
 30
0.0
  0
VERTEX
  5
30C9
330
2A3C
100
AcDbEntity
  8
0
100
AcDbVertex
100
AcDb2dVertex
 10
3.225393700787401
 20
4.331692913385826
 30
0.0
  0
VERTEX
  5
30CA
330
2A3C
100
AcDbEntity
  8
0
100
AcDbVertex
100
AcDb2dVertex
 10
3.221456692913385
 20
4.318897637795275
 30
0.0
  0
VERTEX
  5
30CB
330
2A3C
100
AcDbEntity
  8
0
100
AcDbVertex
100
AcDb2dVertex
 10
3.21259842519685
 20
4.310039370078739
 30
0.0
  0
VERTEX
  5
30CC
330
2A3C
100
AcDbEntity
  8
0
100
AcDbVertex
100
AcDb2dVertex
 10
3.199803149606299
 20
4.307086614173228
 30
0.0
  0
SEQEND
  5
30CD
330
2A3C
100
AcDbEntity
  8
0
  0
LINE
  5
2A42
330
1E
100
AcDbEntity
  8
0
100
AcDbLine
 10
3.225393700787401
 20
4.331692913385826
 30
0.0
 11
3.225393700787401
 21
4.478346456692912
 31
0.0
  0
LINE
  5
2A43
330
1E
100
AcDbEntity
  8
0
100
AcDbLine
 10
3.224409448818897
 20
4.479330708661417
 30
0.0
 11
3.225393700787401
 21
4.478346456692912
 31
0.0
  0
LINE
  5
2A44
330
1E
100
AcDbEntity
  8
0
100
AcDbLine
 10
3.225393700787401
 20
4.764763779527559
 30
0.0
 11
3.224409448818897
 21
4.763779527559054
 31
0.0
  0
LINE
  5
2A45
330
1E
100
AcDbEntity
  8
0
100
AcDbLine
 10
3.225393700787401
 20
4.764763779527559
 30
0.0
 11
3.225393700787401
 21
4.911417322834645
 31
0.0
  0
POLYLINE
  5
2A46
330
1E
100
AcDbEntity
  8
0
100
AcDb2dPolyline
 66
     1
 10
0.0
 20
0.0
 30
0.0
  0
VERTEX
  5
30CE
330
2A46
100
AcDbEntity
  8
0
100
AcDbVertex
100
AcDb2dVertex
 10
3.14763779527559
 20
4.914370078740157
 30
0.0
  0
VERTEX
  5
30CF
330
2A46
100
AcDbEntity
  8
0
100
AcDbVertex
100
AcDb2dVertex
 10
3.14763779527559
 20
4.928149606299212
 30
0.0
  0
VERTEX
  5
30D0
330
2A46
100
AcDbEntity
  8
0
100
AcDbVertex
100
AcDb2dVertex
 10
3.14763779527559
 20
4.934055118110236
 30
0.0
  0
SEQEND
  5
30D1
330
2A46
100
AcDbEntity
  8
0
  0
LINE
  5
2A4B
330
1E
100
AcDbEntity
  8
0
100
AcDbLine
 10
3.197834645669291
 20
4.914370078740157
 30
0.0
 11
3.14763779527559
 21
4.914370078740157
 31
0.0
  0
LINE
  5
2A4C
330
1E
100
AcDbEntity
  8
0
100
AcDbLine
 10
3.14763779527559
 20
4.934055118110236
 30
0.0
 11
3.197834645669291
 21
4.934055118110236
 31
0.0
  0
LINE
  5
2A4D
330
1E
100
AcDbEntity
  8
0
100
AcDbLine
 10
3.150590551181102
 20
4.937007874015748
 30
0.0
 11
3.14763779527559
 21
4.934055118110236
 31
0.0
  0
LINE
  5
2A4E
330
1E
100
AcDbEntity
  8
0
100
AcDbLine
 10
3.199803149606299
 20
4.937007874015748
 30
0.0
 11
3.150590551181102
 21
4.937007874015748
 31
0.0
  0
LINE
  5
2A4F
330
1E
100
AcDbEntity
  8
0
100
AcDbLine
 10
3.197834645669291
 20
4.309055118110236
 30
0.0
 11
3.14763779527559
 21
4.309055118110236
 31
0.0
  0
LINE
  5
2A50
330
1E
100
AcDbEntity
  8
0
100
AcDbLine
 10
3.150590551181102
 20
4.307086614173228
 30
0.0
 11
3.14763779527559
 21
4.309055118110236
 31
0.0
  0
LINE
  5
2A51
330
1E
100
AcDbEntity
  8
0
100
AcDbLine
 10
3.150590551181102
 20
4.307086614173228
 30
0.0
 11
3.199803149606299
 21
4.307086614173228
 31
0.0
  0
LINE
  5
2A52
330
1E
100
AcDbEntity
  8
0
100
AcDbLine
 10
3.14763779527559
 20
4.328740157480314
 30
0.0
 11
3.14763779527559
 21
4.375984251968503
 31
0.0
  0
LINE
  5
2A53
330
1E
100
AcDbEntity
  8
0
100
AcDbLine
 10
3.14763779527559
 20
4.328740157480314
 30
0.0
 11
3.197834645669291
 21
4.328740157480314
 31
0.0
  0
LINE
  5
2A54
330
1E
100
AcDbEntity
  8
0
100
AcDbLine
 10
3.14763779527559
 20
4.867125984251968
 30
0.0
 11
3.14763779527559
 21
4.914370078740157
 31
0.0
  0
LINE
  5
2A55
330
1E
100
AcDbEntity
  8
0
100
AcDbLine
 10
3.14763779527559
 20
4.473425196850393
 30
0.0
 11
3.14763779527559
 21
4.770669291338582
 31
0.0
  0
POLYLINE
  5
2A56
330
1E
100
AcDbEntity
  8
0
100
AcDb2dPolyline
 66
     1
 10
0.0
 20
0.0
 30
0.0
  0
VERTEX
  5
30D2
330
2A56
100
AcDbEntity
  8
0
100
AcDbVertex
100
AcDb2dVertex
 10
3.14763779527559
 20
4.309055118110236
 30
0.0
  0
VERTEX
  5
30D3
330
2A56
100
AcDbEntity
  8
0
100
AcDbVertex
100
AcDb2dVertex
 10
3.14763779527559
 20
4.31496062992126
 30
0.0
  0
VERTEX
  5
30D4
330
2A56
100
AcDbEntity
  8
0
100
AcDbVertex
100
AcDb2dVertex
 10
3.14763779527559
 20
4.328740157480314
 30
0.0
  0
SEQEND
  5
30D5
330
2A56
100
AcDbEntity
  8
0
  0
POLYLINE
  5
2A5B
330
1E
100
AcDbEntity
  8
0
100
AcDb2dPolyline
 66
     1
 10
0.0
 20
0.0
 30
0.0
  0
VERTEX
  5
30D6
330
2A5B
100
AcDbEntity
  8
0
100
AcDbVertex
100
AcDb2dVertex
 10
3.432086614173228
 20
4.414370078740157
 30
0.0
  0
VERTEX
  5
30D7
330
2A5B
100
AcDbEntity
  8
0
100
AcDbVertex
100
AcDb2dVertex
 10
3.424212598425196
 20
4.417322834645669
 30
0.0
  0
VERTEX
  5
30D8
330
2A5B
100
AcDbEntity
  8
0
100
AcDbVertex
100
AcDb2dVertex
 10
3.421259842519685
 20
4.424212598425197
 30
0.0
  0
SEQEND
  5
30D9
330
2A5B
100
AcDbEntity
  8
0
  0
POLYLINE
  5
2A60
330
1E
100
AcDbEntity
  8
0
100
AcDb2dPolyline
 66
     1
 10
0.0
 20
0.0
 30
0.0
  0
VERTEX
  5
30DA
330
2A60
100
AcDbEntity
  8
0
100
AcDbVertex
100
AcDb2dVertex
 10
3.421259842519685
 20
4.286417322834645
 30
0.0
  0
VERTEX
  5
30DB
330
2A60
100
AcDbEntity
  8
0
100
AcDbVertex
100
AcDb2dVertex
 10
3.424212598425196
 20
4.293307086614173
 30
0.0
  0
VERTEX
  5
30DC
330
2A60
100
AcDbEntity
  8
0
100
AcDbVertex
100
AcDb2dVertex
 10
3.432086614173228
 20
4.296259842519685
 30
0.0
  0
SEQEND
  5
30DD
330
2A60
100
AcDbEntity
  8
0
  0
POLYLINE
  5
2A65
330
1E
100
AcDbEntity
  8
0
100
AcDb2dPolyline
 66
     1
 10
0.0
 20
0.0
 30
0.0
  0
VERTEX
  5
30DE
330
2A65
100
AcDbEntity
  8
0
100
AcDbVertex
100
AcDb2dVertex
 10
3.432086614173228
 20
4.946850393700787
 30
0.0
  0
VERTEX
  5
30DF
330
2A65
100
AcDbEntity
  8
0
100
AcDbVertex
100
AcDb2dVertex
 10
3.424212598425196
 20
4.949803149606299
 30
0.0
  0
VERTEX
  5
30E0
330
2A65
100
AcDbEntity
  8
0
100
AcDbVertex
100
AcDb2dVertex
 10
3.421259842519685
 20
4.956692913385826
 30
0.0
  0
SEQEND
  5
30E1
330
2A65
100
AcDbEntity
  8
0
  0
POLYLINE
  5
2A6A
330
1E
100
AcDbEntity
  8
0
100
AcDb2dPolyline
 66
     1
 10
0.0
 20
0.0
 30
0.0
  0
VERTEX
  5
30E2
330
2A6A
100
AcDbEntity
  8
0
100
AcDbVertex
100
AcDb2dVertex
 10
3.421259842519685
 20
4.818897637795275
 30
0.0
  0
VERTEX
  5
30E3
330
2A6A
100
AcDbEntity
  8
0
100
AcDbVertex
100
AcDb2dVertex
 10
3.424212598425196
 20
4.825787401574802
 30
0.0
  0
VERTEX
  5
30E4
330
2A6A
100
AcDbEntity
  8
0
100
AcDbVertex
100
AcDb2dVertex
 10
3.432086614173228
 20
4.828740157480314
 30
0.0
  0
SEQEND
  5
30E5
330
2A6A
100
AcDbEntity
  8
0
  0
LINE
  5
2A6F
330
1E
100
AcDbEntity
  8
0
100
AcDbLine
 10
3.225393700787401
 20
4.478346456692912
 30
0.0
 11
3.24507874015748
 21
4.478346456692912
 31
0.0
  0
LINE
  5
2A70
330
1E
100
AcDbEntity
  8
0
100
AcDbLine
 10
3.24507874015748
 20
4.764763779527559
 30
0.0
 11
3.225393700787401
 21
4.764763779527559
 31
0.0
  0
LINE
  5
2A71
330
1E
100
AcDbEntity
  8
0
100
AcDbLine
 10
3.150590551181102
 20
4.20767716535433
 30
0.0
 11
3.150590551181102
 21
4.307086614173228
 31
0.0
  0
LINE
  5
2A72
330
1E
100
AcDbEntity
  8
0
100
AcDbLine
 10
3.361220472440944
 20
4.20767716535433
 30
0.0
 11
3.150590551181102
 21
4.20767716535433
 31
0.0
  0
POLYLINE
  5
2A73
330
1E
100
AcDbEntity
  8
0
100
AcDb2dPolyline
 66
     1
 10
0.0
 20
0.0
 30
0.0
  0
VERTEX
  5
30E6
330
2A73
100
AcDbEntity
  8
0
100
AcDbVertex
100
AcDb2dVertex
 10
3.361220472440944
 20
4.20767716535433
 30
0.0
  0
VERTEX
  5
30E7
330
2A73
100
AcDbEntity
  8
0
100
AcDbVertex
100
AcDb2dVertex
 10
3.384842519685039
 20
4.21259842519685
 30
0.0
  0
VERTEX
  5
30E8
330
2A73
100
AcDbEntity
  8
0
100
AcDbVertex
100
AcDb2dVertex
 10
3.404527559055118
 20
4.225393700787401
 30
0.0
  0
VERTEX
  5
30E9
330
2A73
100
AcDbEntity
  8
0
100
AcDbVertex
100
AcDb2dVertex
 10
3.417322834645669
 20
4.24507874015748
 30
0.0
  0
VERTEX
  5
30EA
330
2A73
100
AcDbEntity
  8
0
100
AcDbVertex
100
AcDb2dVertex
 10
3.421259842519685
 20
4.26771653543307
 30
0.0
  0
SEQEND
  5
30EB
330
2A73
100
AcDbEntity
  8
0
  0
LINE
  5
2A7A
330
1E
100
AcDbEntity
  8
0
100
AcDbLine
 10
3.421259842519685
 20
4.286417322834645
 30
0.0
 11
3.421259842519685
 21
4.26771653543307
 31
0.0
  0
LINE
  5
2A7B
330
1E
100
AcDbEntity
  8
0
100
AcDbLine
 10
3.421259842519685
 20
4.443897637795275
 30
0.0
 11
3.421259842519685
 21
4.424212598425197
 31
0.0
  0
POLYLINE
  5
2A7C
330
1E
100
AcDbEntity
  8
0
100
AcDb2dPolyline
 66
     1
 10
0.0
 20
0.0
 30
0.0
  0
VERTEX
  5
30EC
330
2A7C
100
AcDbEntity
  8
0
100
AcDbVertex
100
AcDb2dVertex
 10
3.421259842519685
 20
4.443897637795275
 30
0.0
  0
VERTEX
  5
30ED
330
2A7C
100
AcDbEntity
  8
0
100
AcDbVertex
100
AcDb2dVertex
 10
3.417322834645669
 20
4.458661417322834
 30
0.0
  0
VERTEX
  5
30EE
330
2A7C
100
AcDbEntity
  8
0
100
AcDbVertex
100
AcDb2dVertex
 10
3.406496062992125
 20
4.470472440944881
 30
0.0
  0
VERTEX
  5
30EF
330
2A7C
100
AcDbEntity
  8
0
100
AcDbVertex
100
AcDb2dVertex
 10
3.391732283464566
 20
4.474409448818897
 30
0.0
  0
SEQEND
  5
30F0
330
2A7C
100
AcDbEntity
  8
0
  0
LINE
  5
2A82
330
1E
100
AcDbEntity
  8
0
100
AcDbLine
 10
3.391732283464566
 20
4.474409448818897
 30
0.0
 11
3.391732283464566
 21
4.474409448818897
 31
0.0
  0
POLYLINE
  5
2A83
330
1E
100
AcDbEntity
  8
0
100
AcDb2dPolyline
 66
     1
 10
0.0
 20
0.0
 30
0.0
  0
VERTEX
  5
30F1
330
2A83
100
AcDbEntity
  8
0
100
AcDbVertex
100
AcDb2dVertex
 10
3.391732283464566
 20
4.474409448818897
 30
0.0
  0
VERTEX
  5
30F2
330
2A83
100
AcDbEntity
  8
0
100
AcDbVertex
100
AcDb2dVertex
 10
3.376968503937007
 20
4.478346456692912
 30
0.0
  0
VERTEX
  5
30F3
330
2A83
100
AcDbEntity
  8
0
100
AcDbVertex
100
AcDb2dVertex
 10
3.366141732283464
 20
4.489173228346456
 30
0.0
  0
VERTEX
  5
30F4
330
2A83
100
AcDbEntity
  8
0
100
AcDbVertex
100
AcDb2dVertex
 10
3.361220472440944
 20
4.503937007874015
 30
0.0
  0
SEQEND
  5
30F5
330
2A83
100
AcDbEntity
  8
0
  0
LINE
  5
2A89
330
1E
100
AcDbEntity
  8
0
100
AcDbLine
 10
3.361220472440944
 20
4.503937007874015
 30
0.0
 11
3.361220472440944
 21
4.739173228346456
 31
0.0
  0
POLYLINE
  5
2A8A
330
1E
100
AcDbEntity
  8
0
100
AcDb2dPolyline
 66
     1
 10
0.0
 20
0.0
 30
0.0
  0
VERTEX
  5
30F6
330
2A8A
100
AcDbEntity
  8
0
100
AcDbVertex
100
AcDb2dVertex
 10
3.361220472440944
 20
4.739173228346456
 30
0.0
  0
VERTEX
  5
30F7
330
2A8A
100
AcDbEntity
  8
0
100
AcDbVertex
100
AcDb2dVertex
 10
3.366141732283464
 20
4.753937007874015
 30
0.0
  0
VERTEX
  5
30F8
330
2A8A
100
AcDbEntity
  8
0
100
AcDbVertex
100
AcDb2dVertex
 10
3.376968503937007
 20
4.764763779527559
 30
0.0
  0
VERTEX
  5
30F9
330
2A8A
100
AcDbEntity
  8
0
100
AcDbVertex
100
AcDb2dVertex
 10
3.391732283464566
 20
4.768700787401574
 30
0.0
  0
SEQEND
  5
30FA
330
2A8A
100
AcDbEntity
  8
0
  0
LINE
  5
2A90
330
1E
100
AcDbEntity
  8
0
100
AcDbLine
 10
3.391732283464566
 20
4.768700787401574
 30
0.0
 11
3.391732283464566
 21
4.768700787401574
 31
0.0
  0
POLYLINE
  5
2A91
330
1E
100
AcDbEntity
  8
0
100
AcDb2dPolyline
 66
     1
 10
0.0
 20
0.0
 30
0.0
  0
VERTEX
  5
30FB
330
2A91
100
AcDbEntity
  8
0
100
AcDbVertex
100
AcDb2dVertex
 10
3.391732283464566
 20
4.768700787401574
 30
0.0
  0
VERTEX
  5
30FC
330
2A91
100
AcDbEntity
  8
0
100
AcDbVertex
100
AcDb2dVertex
 10
3.406496062992125
 20
4.773622047244094
 30
0.0
  0
VERTEX
  5
30FD
330
2A91
100
AcDbEntity
  8
0
100
AcDbVertex
100
AcDb2dVertex
 10
3.417322834645669
 20
4.784448818897637
 30
0.0
  0
VERTEX
  5
30FE
330
2A91
100
AcDbEntity
  8
0
100
AcDbVertex
100
AcDb2dVertex
 10
3.421259842519685
 20
4.799212598425197
 30
0.0
  0
SEQEND
  5
30FF
330
2A91
100
AcDbEntity
  8
0
  0
LINE
  5
2A97
330
1E
100
AcDbEntity
  8
0
100
AcDbLine
 10
3.421259842519685
 20
4.818897637795275
 30
0.0
 11
3.421259842519685
 21
4.799212598425197
 31
0.0
  0
LINE
  5
2A98
330
1E
100
AcDbEntity
  8
0
100
AcDbLine
 10
3.421259842519685
 20
4.975393700787401
 30
0.0
 11
3.421259842519685
 21
4.956692913385826
 31
0.0
  0
POLYLINE
  5
2A99
330
1E
100
AcDbEntity
  8
0
100
AcDb2dPolyline
 66
     1
 10
0.0
 20
0.0
 30
0.0
  0
VERTEX
  5
3100
330
2A99
100
AcDbEntity
  8
0
100
AcDbVertex
100
AcDb2dVertex
 10
3.421259842519685
 20
4.975393700787401
 30
0.0
  0
VERTEX
  5
3101
330
2A99
100
AcDbEntity
  8
0
100
AcDbVertex
100
AcDb2dVertex
 10
3.417322834645669
 20
4.998031496062991
 30
0.0
  0
VERTEX
  5
3102
330
2A99
100
AcDbEntity
  8
0
100
AcDbVertex
100
AcDb2dVertex
 10
3.404527559055118
 20
5.01771653543307
 30
0.0
  0
VERTEX
  5
3103
330
2A99
100
AcDbEntity
  8
0
100
AcDbVertex
100
AcDb2dVertex
 10
3.384842519685039
 20
5.030511811023622
 30
0.0
  0
VERTEX
  5
3104
330
2A99
100
AcDbEntity
  8
0
100
AcDbVertex
100
AcDb2dVertex
 10
3.361220472440944
 20
5.035433070866141
 30
0.0
  0
SEQEND
  5
3105
330
2A99
100
AcDbEntity
  8
0
  0
LINE
  5
2AA0
330
1E
100
AcDbEntity
  8
0
100
AcDbLine
 10
3.150590551181102
 20
5.035433070866141
 30
0.0
 11
3.361220472440944
 21
5.035433070866141
 31
0.0
  0
LINE
  5
2AA1
330
1E
100
AcDbEntity
  8
0
100
AcDbLine
 10
3.150590551181102
 20
4.937007874015748
 30
0.0
 11
3.150590551181102
 21
5.035433070866141
 31
0.0
  0
LINE
  5
2AA2
330
1E
100
AcDbEntity
  8
0
100
AcDbLine
 10
3.24507874015748
 20
4.478346456692912
 30
0.0
 11
3.24507874015748
 21
4.764763779527559
 31
0.0
  0
POLYLINE
  5
2AA3
330
1E
100
AcDbEntity
  8
0
100
AcDb2dPolyline
 66
     1
 10
0.0
 20
0.0
 30
0.0
  0
VERTEX
  5
3106
330
2AA3
100
AcDbEntity
  8
0
100
AcDbVertex
100
AcDb2dVertex
 10
3.14763779527559
 20
5.049212598425197
 30
0.0
  0
VERTEX
  5
3107
330
2AA3
100
AcDbEntity
  8
0
100
AcDbVertex
100
AcDb2dVertex
 10
3.146653543307086
 20
5.054133858267716
 30
0.0
  0
VERTEX
  5
3108
330
2AA3
100
AcDbEntity
  8
0
100
AcDbVertex
100
AcDb2dVertex
 10
3.144685039370078
 20
5.058070866141732
 30
0.0
  0
VERTEX
  5
3109
330
2AA3
100
AcDbEntity
  8
0
100
AcDbVertex
100
AcDb2dVertex
 10
3.141732283464566
 20
5.062007874015748
 30
0.0
  0
SEQEND
  5
310A
330
2AA3
100
AcDbEntity
  8
0
  0
LINE
  5
2AA9
330
1E
100
AcDbEntity
  8
0
100
AcDbLine
 10
3.150590551181102
 20
5.051181102362204
 30
0.0
 11
3.14763779527559
 21
5.049212598425197
 31
0.0
  0
POLYLINE
  5
2AAA
330
1E
100
AcDbEntity
  8
0
100
AcDb2dPolyline
 66
     1
 10
0.0
 20
0.0
 30
0.0
  0
VERTEX
  5
310B
330
2AAA
100
AcDbEntity
  8
0
100
AcDbVertex
100
AcDb2dVertex
 10
3.150590551181102
 20
5.051181102362204
 30
0.0
  0
VERTEX
  5
310C
330
2AAA
100
AcDbEntity
  8
0
100
AcDbVertex
100
AcDb2dVertex
 10
3.144685039370078
 20
5.065944881889763
 30
0.0
  0
VERTEX
  5
310D
330
2AAA
100
AcDbEntity
  8
0
100
AcDbVertex
100
AcDb2dVertex
 10
3.129921259842519
 20
5.071850393700787
 30
0.0
  0
SEQEND
  5
310E
330
2AAA
100
AcDbEntity
  8
0
  0
LINE
  5
2AAF
330
1E
100
AcDbEntity
  8
0
100
AcDbLine
 10
3.126968503937007
 20
5.067913385826771
 30
0.0
 11
3.129921259842519
 21
5.071850393700787
 31
0.0
  0
LINE
  5
2AB0
330
1E
100
AcDbEntity
  8
0
100
AcDbLine
 10
3.14763779527559
 20
5.049212598425197
 30
0.0
 11
3.14763779527559
 21
4.914370078740157
 31
0.0
  0
LINE
  5
2AB1
330
1E
100
AcDbEntity
  8
0
100
AcDbLine
 10
3.150590551181102
 20
5.051181102362204
 30
0.0
 11
3.150590551181102
 21
5.035433070866141
 31
0.0
  0
LINE
  5
2AB2
330
1E
100
AcDbEntity
  8
0
100
AcDbLine
 10
3.14763779527559
 20
4.328740157480314
 30
0.0
 11
3.14763779527559
 21
4.193897637795275
 31
0.0
  0
LINE
  5
2AB3
330
1E
100
AcDbEntity
  8
0
100
AcDbLine
 10
3.14763779527559
 20
4.193897637795275
 30
0.0
 11
3.150590551181102
 21
4.191929133858267
 31
0.0
  0
LINE
  5
2AB4
330
1E
100
AcDbEntity
  8
0
100
AcDbLine
 10
3.150590551181102
 20
4.20767716535433
 30
0.0
 11
3.150590551181102
 21
4.191929133858267
 31
0.0
  0
POLYLINE
  5
2AB5
330
1E
100
AcDbEntity
  8
0
100
AcDb2dPolyline
 66
     1
 10
0.0
 20
0.0
 30
0.0
  0
VERTEX
  5
310F
330
2AB5
100
AcDbEntity
  8
0
100
AcDbVertex
100
AcDb2dVertex
 10
3.141732283464566
 20
4.181102362204724
 30
0.0
  0
VERTEX
  5
3110
330
2AB5
100
AcDbEntity
  8
0
100
AcDbVertex
100
AcDb2dVertex
 10
3.144685039370078
 20
4.185039370078739
 30
0.0
  0
VERTEX
  5
3111
330
2AB5
100
AcDbEntity
  8
0
100
AcDbVertex
100
AcDb2dVertex
 10
3.146653543307086
 20
4.18996062992126
 30
0.0
  0
VERTEX
  5
3112
330
2AB5
100
AcDbEntity
  8
0
100
AcDbVertex
100
AcDb2dVertex
 10
3.14763779527559
 20
4.193897637795275
 30
0.0
  0
SEQEND
  5
3113
330
2AB5
100
AcDbEntity
  8
0
  0
POLYLINE
  5
2ABB
330
1E
100
AcDbEntity
  8
0
100
AcDb2dPolyline
 66
     1
 10
0.0
 20
0.0
 30
0.0
  0
VERTEX
  5
3114
330
2ABB
100
AcDbEntity
  8
0
100
AcDbVertex
100
AcDb2dVertex
 10
3.129921259842519
 20
4.171259842519685
 30
0.0
  0
VERTEX
  5
3115
330
2ABB
100
AcDbEntity
  8
0
100
AcDbVertex
100
AcDb2dVertex
 10
3.144685039370078
 20
4.177165354330708
 30
0.0
  0
VERTEX
  5
3116
330
2ABB
100
AcDbEntity
  8
0
100
AcDbVertex
100
AcDb2dVertex
 10
3.150590551181102
 20
4.191929133858267
 30
0.0
  0
SEQEND
  5
3117
330
2ABB
100
AcDbEntity
  8
0
  0
LINE
  5
2AC0
330
1E
100
AcDbEntity
  8
0
100
AcDbLine
 10
2.06003937007874
 20
5.071850393700787
 30
0.0
 11
3.129921259842519
 21
5.071850393700787
 31
0.0
  0
LINE
  5
2AC1
330
1E
100
AcDbEntity
  8
0
100
AcDbLine
 10
2.06003937007874
 20
5.071850393700787
 30
0.0
 11
2.062992125984251
 21
5.067913385826771
 31
0.0
  0
LINE
  5
2AC2
330
1E
100
AcDbEntity
  8
0
100
AcDbLine
 10
2.280511811023622
 20
5.069881889763779
 30
0.0
 11
2.909448818897637
 21
5.069881889763779
 31
0.0
  0
LINE
  5
2AC3
330
1E
100
AcDbEntity
  8
0
100
AcDbLine
 10
1.966535433070866
 20
4.479330708661417
 30
0.0
 11
1.966535433070866
 21
4.763779527559054
 31
0.0
  0
POLYLINE
  5
2AC4
330
1E
100
AcDbEntity
  8
0
100
AcDb2dPolyline
 66
     1
 10
0.0
 20
0.0
 30
0.0
  0
VERTEX
  5
3118
330
2AC4
100
AcDbEntity
  8
0
100
AcDbVertex
100
AcDb2dVertex
 10
1.758858267716535
 20
4.296259842519685
 30
0.0
  0
VERTEX
  5
3119
330
2AC4
100
AcDbEntity
  8
0
100
AcDbVertex
100
AcDb2dVertex
 10
1.765748031496062
 20
4.293307086614173
 30
0.0
  0
VERTEX
  5
311A
330
2AC4
100
AcDbEntity
  8
0
100
AcDbVertex
100
AcDb2dVertex
 10
1.768700787401574
 20
4.286417322834645
 30
0.0
  0
SEQEND
  5
311B
330
2AC4
100
AcDbEntity
  8
0
  0
LINE
  5
2AC9
330
1E
100
AcDbEntity
  8
0
100
AcDbLine
 10
1.758858267716535
 20
4.296259842519685
 30
0.0
 11
1.739173228346456
 21
4.296259842519685
 31
0.0
  0
POLYLINE
  5
2ACA
330
1E
100
AcDbEntity
  8
0
100
AcDb2dPolyline
 66
     1
 10
0.0
 20
0.0
 30
0.0
  0
VERTEX
  5
311C
330
2ACA
100
AcDbEntity
  8
0
100
AcDbVertex
100
AcDb2dVertex
 10
1.729330708661417
 20
4.307086614173228
 30
0.0
  0
VERTEX
  5
311D
330
2ACA
100
AcDbEntity
  8
0
100
AcDbVertex
100
AcDb2dVertex
 10
1.732283464566929
 20
4.299212598425197
 30
0.0
  0
VERTEX
  5
311E
330
2ACA
100
AcDbEntity
  8
0
100
AcDbVertex
100
AcDb2dVertex
 10
1.739173228346456
 20
4.296259842519685
 30
0.0
  0
SEQEND
  5
311F
330
2ACA
100
AcDbEntity
  8
0
  0
LINE
  5
2ACF
330
1E
100
AcDbEntity
  8
0
100
AcDbLine
 10
1.729330708661417
 20
4.307086614173228
 30
0.0
 11
1.729330708661417
 21
4.404527559055117
 31
0.0
  0
POLYLINE
  5
2AD0
330
1E
100
AcDbEntity
  8
0
100
AcDb2dPolyline
 66
     1
 10
0.0
 20
0.0
 30
0.0
  0
VERTEX
  5
3120
330
2AD0
100
AcDbEntity
  8
0
100
AcDbVertex
100
AcDb2dVertex
 10
1.739173228346456
 20
4.414370078740157
 30
0.0
  0
VERTEX
  5
3121
330
2AD0
100
AcDbEntity
  8
0
100
AcDbVertex
100
AcDb2dVertex
 10
1.732283464566929
 20
4.411417322834645
 30
0.0
  0
VERTEX
  5
3122
330
2AD0
100
AcDbEntity
  8
0
100
AcDbVertex
100
AcDb2dVertex
 10
1.729330708661417
 20
4.404527559055117
 30
0.0
  0
SEQEND
  5
3123
330
2AD0
100
AcDbEntity
  8
0
  0
LINE
  5
2AD5
330
1E
100
AcDbEntity
  8
0
100
AcDbLine
 10
1.739173228346456
 20
4.414370078740157
 30
0.0
 11
1.758858267716535
 21
4.414370078740157
 31
0.0
  0
POLYLINE
  5
2AD6
330
1E
100
AcDbEntity
  8
0
100
AcDb2dPolyline
 66
     1
 10
0.0
 20
0.0
 30
0.0
  0
VERTEX
  5
3124
330
2AD6
100
AcDbEntity
  8
0
100
AcDbVertex
100
AcDb2dVertex
 10
1.768700787401574
 20
4.424212598425197
 30
0.0
  0
VERTEX
  5
3125
330
2AD6
100
AcDbEntity
  8
0
100
AcDbVertex
100
AcDb2dVertex
 10
1.765748031496062
 20
4.417322834645669
 30
0.0
  0
VERTEX
  5
3126
330
2AD6
100
AcDbEntity
  8
0
100
AcDbVertex
100
AcDb2dVertex
 10
1.758858267716535
 20
4.414370078740157
 30
0.0
  0
SEQEND
  5
3127
330
2AD6
100
AcDbEntity
  8
0
  0
POLYLINE
  5
2ADB
330
1E
100
AcDbEntity
  8
0
100
AcDb2dPolyline
 66
     1
 10
0.0
 20
0.0
 30
0.0
  0
VERTEX
  5
3128
330
2ADB
100
AcDbEntity
  8
0
100
AcDbVertex
100
AcDb2dVertex
 10
1.758858267716535
 20
4.828740157480314
 30
0.0
  0
VERTEX
  5
3129
330
2ADB
100
AcDbEntity
  8
0
100
AcDbVertex
100
AcDb2dVertex
 10
1.765748031496062
 20
4.825787401574802
 30
0.0
  0
VERTEX
  5
312A
330
2ADB
100
AcDbEntity
  8
0
100
AcDbVertex
100
AcDb2dVertex
 10
1.768700787401574
 20
4.818897637795275
 30
0.0
  0
SEQEND
  5
312B
330
2ADB
100
AcDbEntity
  8
0
  0
LINE
  5
2AE0
330
1E
100
AcDbEntity
  8
0
100
AcDbLine
 10
1.758858267716535
 20
4.828740157480314
 30
0.0
 11
1.739173228346456
 21
4.828740157480314
 31
0.0
  0
POLYLINE
  5
2AE1
330
1E
100
AcDbEntity
  8
0
100
AcDb2dPolyline
 66
     1
 10
0.0
 20
0.0
 30
0.0
  0
VERTEX
  5
312C
330
2AE1
100
AcDbEntity
  8
0
100
AcDbVertex
100
AcDb2dVertex
 10
1.729330708661417
 20
4.838582677165354
 30
0.0
  0
VERTEX
  5
312D
330
2AE1
100
AcDbEntity
  8
0
100
AcDbVertex
100
AcDb2dVertex
 10
1.732283464566929
 20
4.831692913385826
 30
0.0
  0
VERTEX
  5
312E
330
2AE1
100
AcDbEntity
  8
0
100
AcDbVertex
100
AcDb2dVertex
 10
1.739173228346456
 20
4.828740157480314
 30
0.0
  0
SEQEND
  5
312F
330
2AE1
100
AcDbEntity
  8
0
  0
LINE
  5
2AE6
330
1E
100
AcDbEntity
  8
0
100
AcDbLine
 10
1.729330708661417
 20
4.838582677165354
 30
0.0
 11
1.729330708661417
 21
4.937007874015748
 31
0.0
  0
POLYLINE
  5
2AE7
330
1E
100
AcDbEntity
  8
0
100
AcDb2dPolyline
 66
     1
 10
0.0
 20
0.0
 30
0.0
  0
VERTEX
  5
3130
330
2AE7
100
AcDbEntity
  8
0
100
AcDbVertex
100
AcDb2dVertex
 10
1.739173228346456
 20
4.946850393700787
 30
0.0
  0
VERTEX
  5
3131
330
2AE7
100
AcDbEntity
  8
0
100
AcDbVertex
100
AcDb2dVertex
 10
1.732283464566929
 20
4.943897637795275
 30
0.0
  0
VERTEX
  5
3132
330
2AE7
100
AcDbEntity
  8
0
100
AcDbVertex
100
AcDb2dVertex
 10
1.729330708661417
 20
4.937007874015748
 30
0.0
  0
SEQEND
  5
3133
330
2AE7
100
AcDbEntity
  8
0
  0
LINE
  5
2AEC
330
1E
100
AcDbEntity
  8
0
100
AcDbLine
 10
1.739173228346456
 20
4.946850393700787
 30
0.0
 11
1.758858267716535
 21
4.946850393700787
 31
0.0
  0
POLYLINE
  5
2AED
330
1E
100
AcDbEntity
  8
0
100
AcDb2dPolyline
 66
     1
 10
0.0
 20
0.0
 30
0.0
  0
VERTEX
  5
3134
330
2AED
100
AcDbEntity
  8
0
100
AcDbVertex
100
AcDb2dVertex
 10
1.768700787401574
 20
4.956692913385826
 30
0.0
  0
VERTEX
  5
3135
330
2AED
100
AcDbEntity
  8
0
100
AcDbVertex
100
AcDb2dVertex
 10
1.765748031496062
 20
4.949803149606299
 30
0.0
  0
VERTEX
  5
3136
330
2AED
100
AcDbEntity
  8
0
100
AcDbVertex
100
AcDb2dVertex
 10
1.758858267716535
 20
4.946850393700787
 30
0.0
  0
SEQEND
  5
3137
330
2AED
100
AcDbEntity
  8
0
  0
LINE
  5
2AF2
330
1E
100
AcDbEntity
  8
0
100
AcDbLine
 10
1.96751968503937
 20
4.909448818897637
 30
0.0
 11
1.965551181102362
 21
4.911417322834645
 31
0.0
  0
POLYLINE
  5
2AF3
330
1E
100
AcDbEntity
  8
0
100
AcDb2dPolyline
 66
     1
 10
0.0
 20
0.0
 30
0.0
  0
VERTEX
  5
3138
330
2AF3
100
AcDbEntity
  8
0
100
AcDbVertex
100
AcDb2dVertex
 10
1.96751968503937
 20
4.909448818897637
 30
0.0
  0
VERTEX
  5
3139
330
2AF3
100
AcDbEntity
  8
0
100
AcDbVertex
100
AcDb2dVertex
 10
1.970472440944881
 20
4.921259842519685
 30
0.0
  0
VERTEX
  5
313A
330
2AF3
100
AcDbEntity
  8
0
100
AcDbVertex
100
AcDb2dVertex
 10
1.980314960629921
 20
4.931102362204724
 30
0.0
  0
VERTEX
  5
313B
330
2AF3
100
AcDbEntity
  8
0
100
AcDbVertex
100
AcDb2dVertex
 10
1.992125984251968
 20
4.934055118110236
 30
0.0
  0
SEQEND
  5
313C
330
2AF3
100
AcDbEntity
  8
0
  0
LINE
  5
2AF9
330
1E
100
AcDbEntity
  8
0
100
AcDbLine
 10
1.99015748031496
 20
4.937007874015748
 30
0.0
 11
1.992125984251968
 21
4.934055118110236
 31
0.0
  0
POLYLINE
  5
2AFA
330
1E
100
AcDbEntity
  8
0
100
AcDb2dPolyline
 66
     1
 10
0.0
 20
0.0
 30
0.0
  0
VERTEX
  5
313D
330
2AFA
100
AcDbEntity
  8
0
100
AcDbVertex
100
AcDb2dVertex
 10
1.965551181102362
 20
4.911417322834645
 30
0.0
  0
VERTEX
  5
313E
330
2AFA
100
AcDbEntity
  8
0
100
AcDbVertex
100
AcDb2dVertex
 10
1.968503937007874
 20
4.924212598425197
 30
0.0
  0
VERTEX
  5
313F
330
2AFA
100
AcDbEntity
  8
0
100
AcDbVertex
100
AcDb2dVertex
 10
1.977362204724409
 20
4.933070866141732
 30
0.0
  0
VERTEX
  5
3140
330
2AFA
100
AcDbEntity
  8
0
100
AcDbVertex
100
AcDb2dVertex
 10
1.99015748031496
 20
4.937007874015748
 30
0.0
  0
SEQEND
  5
3141
330
2AFA
100
AcDbEntity
  8
0
  0
LINE
  5
2B00
330
1E
100
AcDbEntity
  8
0
100
AcDbLine
 10
1.966535433070866
 20
4.763779527559054
 30
0.0
 11
1.965551181102362
 21
4.764763779527559
 31
0.0
  0
LINE
  5
2B01
330
1E
100
AcDbEntity
  8
0
100
AcDbLine
 10
1.965551181102362
 20
4.764763779527559
 30
0.0
 11
1.944881889763779
 21
4.764763779527559
 31
0.0
  0
LINE
  5
2B02
330
1E
100
AcDbEntity
  8
0
100
AcDbLine
 10
1.944881889763779
 20
4.478346456692912
 30
0.0
 11
1.965551181102362
 21
4.478346456692912
 31
0.0
  0
LINE
  5
2B03
330
1E
100
AcDbEntity
  8
0
100
AcDbLine
 10
1.965551181102362
 20
4.478346456692912
 30
0.0
 11
1.966535433070866
 21
4.479330708661417
 31
0.0
  0
LINE
  5
2B04
330
1E
100
AcDbEntity
  8
0
100
AcDbLine
 10
1.965551181102362
 20
4.331692913385826
 30
0.0
 11
1.96751968503937
 21
4.333661417322834
 31
0.0
  0
LINE
  5
2B05
330
1E
100
AcDbEntity
  8
0
100
AcDbLine
 10
1.96751968503937
 20
4.333661417322834
 30
0.0
 11
1.96751968503937
 21
4.909448818897637
 31
0.0
  0
LINE
  5
2B06
330
1E
100
AcDbEntity
  8
0
100
AcDbLine
 10
1.965551181102362
 20
4.911417322834645
 30
0.0
 11
1.965551181102362
 21
4.764763779527559
 31
0.0
  0
LINE
  5
2B07
330
1E
100
AcDbEntity
  8
0
100
AcDbLine
 10
1.965551181102362
 20
4.478346456692912
 30
0.0
 11
1.965551181102362
 21
4.331692913385826
 31
0.0
  0
LINE
  5
2B08
330
1E
100
AcDbEntity
  8
0
100
AcDbLine
 10
1.992125984251968
 20
4.309055118110236
 30
0.0
 11
1.99015748031496
 21
4.307086614173228
 31
0.0
  0
POLYLINE
  5
2B09
330
1E
100
AcDbEntity
  8
0
100
AcDb2dPolyline
 66
     1
 10
0.0
 20
0.0
 30
0.0
  0
VERTEX
  5
3142
330
2B09
100
AcDbEntity
  8
0
100
AcDbVertex
100
AcDb2dVertex
 10
1.992125984251968
 20
4.309055118110236
 30
0.0
  0
VERTEX
  5
3143
330
2B09
100
AcDbEntity
  8
0
100
AcDbVertex
100
AcDb2dVertex
 10
1.980314960629921
 20
4.312007874015748
 30
0.0
  0
VERTEX
  5
3144
330
2B09
100
AcDbEntity
  8
0
100
AcDbVertex
100
AcDb2dVertex
 10
1.970472440944881
 20
4.321850393700787
 30
0.0
  0
VERTEX
  5
3145
330
2B09
100
AcDbEntity
  8
0
100
AcDbVertex
100
AcDb2dVertex
 10
1.96751968503937
 20
4.333661417322834
 30
0.0
  0
SEQEND
  5
3146
330
2B09
100
AcDbEntity
  8
0
  0
POLYLINE
  5
2B0F
330
1E
100
AcDbEntity
  8
0
100
AcDb2dPolyline
 66
     1
 10
0.0
 20
0.0
 30
0.0
  0
VERTEX
  5
3147
330
2B0F
100
AcDbEntity
  8
0
100
AcDbVertex
100
AcDb2dVertex
 10
1.99015748031496
 20
4.307086614173228
 30
0.0
  0
VERTEX
  5
3148
330
2B0F
100
AcDbEntity
  8
0
100
AcDbVertex
100
AcDb2dVertex
 10
1.977362204724409
 20
4.310039370078739
 30
0.0
  0
VERTEX
  5
3149
330
2B0F
100
AcDbEntity
  8
0
100
AcDbVertex
100
AcDb2dVertex
 10
1.968503937007874
 20
4.318897637795275
 30
0.0
  0
VERTEX
  5
314A
330
2B0F
100
AcDbEntity
  8
0
100
AcDbVertex
100
AcDb2dVertex
 10
1.965551181102362
 20
4.331692913385826
 30
0.0
  0
SEQEND
  5
314B
330
2B0F
100
AcDbEntity
  8
0
  0
POLYLINE
  5
2B15
330
1E
100
AcDbEntity
  8
0
100
AcDb2dPolyline
 66
     1
 10
0.0
 20
0.0
 30
0.0
  0
VERTEX
  5
314C
330
2B15
100
AcDbEntity
  8
0
100
AcDbVertex
100
AcDb2dVertex
 10
1.987204724409448
 20
4.909448818897637
 30
0.0
  0
VERTEX
  5
314D
330
2B15
100
AcDbEntity
  8
0
100
AcDbVertex
100
AcDb2dVertex
 10
1.973425196850393
 20
4.909448818897637
 30
0.0
  0
VERTEX
  5
314E
330
2B15
100
AcDbEntity
  8
0
100
AcDbVertex
100
AcDb2dVertex
 10
1.96751968503937
 20
4.909448818897637
 30
0.0
  0
SEQEND
  5
314F
330
2B15
100
AcDbEntity
  8
0
  0
POLYLINE
  5
2B1A
330
1E
100
AcDbEntity
  8
0
100
AcDb2dPolyline
 66
     1
 10
0.0
 20
0.0
 30
0.0
  0
VERTEX
  5
3150
330
2B1A
100
AcDbEntity
  8
0
100
AcDbVertex
100
AcDb2dVertex
 10
1.987204724409448
 20
4.333661417322834
 30
0.0
  0
VERTEX
  5
3151
330
2B1A
100
AcDbEntity
  8
0
100
AcDbVertex
100
AcDb2dVertex
 10
1.973425196850393
 20
4.333661417322834
 30
0.0
  0
VERTEX
  5
3152
330
2B1A
100
AcDbEntity
  8
0
100
AcDbVertex
100
AcDb2dVertex
 10
1.96751968503937
 20
4.333661417322834
 30
0.0
  0
SEQEND
  5
3153
330
2B1A
100
AcDbEntity
  8
0
  0
LINE
  5
2B1F
330
1E
100
AcDbEntity
  8
0
100
AcDbLine
 10
1.987204724409448
 20
4.909448818897637
 30
0.0
 11
1.987204724409448
 21
4.333661417322834
 31
0.0
  0
POLYLINE
  5
2B20
330
1E
100
AcDbEntity
  8
0
100
AcDb2dPolyline
 66
     1
 10
0.0
 20
0.0
 30
0.0
  0
VERTEX
  5
3154
330
2B20
100
AcDbEntity
  8
0
100
AcDbVertex
100
AcDb2dVertex
 10
1.992125984251968
 20
4.328740157480314
 30
0.0
  0
VERTEX
  5
3155
330
2B20
100
AcDbEntity
  8
0
100
AcDbVertex
100
AcDb2dVertex
 10
1.992125984251968
 20
4.31496062992126
 30
0.0
  0
VERTEX
  5
3156
330
2B20
100
AcDbEntity
  8
0
100
AcDbVertex
100
AcDb2dVertex
 10
1.992125984251968
 20
4.309055118110236
 30
0.0
  0
SEQEND
  5
3157
330
2B20
100
AcDbEntity
  8
0
  0
LINE
  5
2B25
330
1E
100
AcDbEntity
  8
0
100
AcDbLine
 10
1.987204724409448
 20
4.333661417322834
 30
0.0
 11
1.992125984251968
 21
4.328740157480314
 31
0.0
  0
POLYLINE
  5
2B26
330
1E
100
AcDbEntity
  8
0
100
AcDb2dPolyline
 66
     1
 10
0.0
 20
0.0
 30
0.0
  0
VERTEX
  5
3158
330
2B26
100
AcDbEntity
  8
0
100
AcDbVertex
100
AcDb2dVertex
 10
1.992125984251968
 20
4.914370078740157
 30
0.0
  0
VERTEX
  5
3159
330
2B26
100
AcDbEntity
  8
0
100
AcDbVertex
100
AcDb2dVertex
 10
1.992125984251968
 20
4.928149606299212
 30
0.0
  0
VERTEX
  5
315A
330
2B26
100
AcDbEntity
  8
0
100
AcDbVertex
100
AcDb2dVertex
 10
1.992125984251968
 20
4.934055118110236
 30
0.0
  0
SEQEND
  5
315B
330
2B26
100
AcDbEntity
  8
0
  0
LINE
  5
2B2B
330
1E
100
AcDbEntity
  8
0
100
AcDbLine
 10
1.992125984251968
 20
4.914370078740157
 30
0.0
 11
1.987204724409448
 21
4.909448818897637
 31
0.0
  0
LINE
  5
2B2C
330
1E
100
AcDbEntity
  8
0
100
AcDbLine
 10
1.944881889763779
 20
4.764763779527559
 30
0.0
 11
1.944881889763779
 21
4.478346456692912
 31
0.0
  0
LINE
  5
2B2D
330
1E
100
AcDbEntity
  8
0
100
AcDbLine
 10
1.828740157480314
 20
5.035433070866141
 30
0.0
 11
2.040354330708661
 21
5.035433070866141
 31
0.0
  0
POLYLINE
  5
2B2E
330
1E
100
AcDbEntity
  8
0
100
AcDb2dPolyline
 66
     1
 10
0.0
 20
0.0
 30
0.0
  0
VERTEX
  5
315C
330
2B2E
100
AcDbEntity
  8
0
100
AcDbVertex
100
AcDb2dVertex
 10
1.828740157480314
 20
5.035433070866141
 30
0.0
  0
VERTEX
  5
315D
330
2B2E
100
AcDbEntity
  8
0
100
AcDbVertex
100
AcDb2dVertex
 10
1.806102362204724
 20
5.030511811023622
 30
0.0
  0
VERTEX
  5
315E
330
2B2E
100
AcDbEntity
  8
0
100
AcDbVertex
100
AcDb2dVertex
 10
1.786417322834645
 20
5.01771653543307
 30
0.0
  0
VERTEX
  5
315F
330
2B2E
100
AcDbEntity
  8
0
100
AcDbVertex
100
AcDb2dVertex
 10
1.773622047244094
 20
4.998031496062991
 30
0.0
  0
VERTEX
  5
3160
330
2B2E
100
AcDbEntity
  8
0
100
AcDbVertex
100
AcDb2dVertex
 10
1.768700787401574
 20
4.975393700787401
 30
0.0
  0
SEQEND
  5
3161
330
2B2E
100
AcDbEntity
  8
0
  0
LINE
  5
2B35
330
1E
100
AcDbEntity
  8
0
100
AcDbLine
 10
1.768700787401574
 20
4.956692913385826
 30
0.0
 11
1.768700787401574
 21
4.975393700787401
 31
0.0
  0
LINE
  5
2B36
330
1E
100
AcDbEntity
  8
0
100
AcDbLine
 10
1.768700787401574
 20
4.799212598425197
 30
0.0
 11
1.768700787401574
 21
4.818897637795275
 31
0.0
  0
POLYLINE
  5
2B37
330
1E
100
AcDbEntity
  8
0
100
AcDb2dPolyline
 66
     1
 10
0.0
 20
0.0
 30
0.0
  0
VERTEX
  5
3162
330
2B37
100
AcDbEntity
  8
0
100
AcDbVertex
100
AcDb2dVertex
 10
1.768700787401574
 20
4.799212598425197
 30
0.0
  0
VERTEX
  5
3163
330
2B37
100
AcDbEntity
  8
0
100
AcDbVertex
100
AcDb2dVertex
 10
1.77263779527559
 20
4.784448818897637
 30
0.0
  0
VERTEX
  5
3164
330
2B37
100
AcDbEntity
  8
0
100
AcDbVertex
100
AcDb2dVertex
 10
1.783464566929133
 20
4.773622047244094
 30
0.0
  0
VERTEX
  5
3165
330
2B37
100
AcDbEntity
  8
0
100
AcDbVertex
100
AcDb2dVertex
 10
1.798228346456692
 20
4.768700787401574
 30
0.0
  0
SEQEND
  5
3166
330
2B37
100
AcDbEntity
  8
0
  0
LINE
  5
2B3D
330
1E
100
AcDbEntity
  8
0
100
AcDbLine
 10
1.798228346456692
 20
4.768700787401574
 30
0.0
 11
1.798228346456692
 21
4.768700787401574
 31
0.0
  0
POLYLINE
  5
2B3E
330
1E
100
AcDbEntity
  8
0
100
AcDb2dPolyline
 66
     1
 10
0.0
 20
0.0
 30
0.0
  0
VERTEX
  5
3167
330
2B3E
100
AcDbEntity
  8
0
100
AcDbVertex
100
AcDb2dVertex
 10
1.798228346456692
 20
4.768700787401574
 30
0.0
  0
VERTEX
  5
3168
330
2B3E
100
AcDbEntity
  8
0
100
AcDbVertex
100
AcDb2dVertex
 10
1.813976377952755
 20
4.764763779527559
 30
0.0
  0
VERTEX
  5
3169
330
2B3E
100
AcDbEntity
  8
0
100
AcDbVertex
100
AcDb2dVertex
 10
1.824803149606299
 20
4.753937007874015
 30
0.0
  0
VERTEX
  5
316A
330
2B3E
100
AcDbEntity
  8
0
100
AcDbVertex
100
AcDb2dVertex
 10
1.828740157480314
 20
4.739173228346456
 30
0.0
  0
SEQEND
  5
316B
330
2B3E
100
AcDbEntity
  8
0
  0
LINE
  5
2B44
330
1E
100
AcDbEntity
  8
0
100
AcDbLine
 10
1.828740157480314
 20
4.739173228346456
 30
0.0
 11
1.828740157480314
 21
4.503937007874015
 31
0.0
  0
POLYLINE
  5
2B45
330
1E
100
AcDbEntity
  8
0
100
AcDb2dPolyline
 66
     1
 10
0.0
 20
0.0
 30
0.0
  0
VERTEX
  5
316C
330
2B45
100
AcDbEntity
  8
0
100
AcDbVertex
100
AcDb2dVertex
 10
1.828740157480314
 20
4.503937007874015
 30
0.0
  0
VERTEX
  5
316D
330
2B45
100
AcDbEntity
  8
0
100
AcDbVertex
100
AcDb2dVertex
 10
1.824803149606299
 20
4.489173228346456
 30
0.0
  0
VERTEX
  5
316E
330
2B45
100
AcDbEntity
  8
0
100
AcDbVertex
100
AcDb2dVertex
 10
1.813976377952755
 20
4.478346456692912
 30
0.0
  0
VERTEX
  5
316F
330
2B45
100
AcDbEntity
  8
0
100
AcDbVertex
100
AcDb2dVertex
 10
1.798228346456692
 20
4.474409448818897
 30
0.0
  0
SEQEND
  5
3170
330
2B45
100
AcDbEntity
  8
0
  0
LINE
  5
2B4B
330
1E
100
AcDbEntity
  8
0
100
AcDbLine
 10
1.798228346456692
 20
4.474409448818897
 30
0.0
 11
1.798228346456692
 21
4.474409448818897
 31
0.0
  0
POLYLINE
  5
2B4C
330
1E
100
AcDbEntity
  8
0
100
AcDb2dPolyline
 66
     1
 10
0.0
 20
0.0
 30
0.0
  0
VERTEX
  5
3171
330
2B4C
100
AcDbEntity
  8
0
100
AcDbVertex
100
AcDb2dVertex
 10
1.798228346456692
 20
4.474409448818897
 30
0.0
  0
VERTEX
  5
3172
330
2B4C
100
AcDbEntity
  8
0
100
AcDbVertex
100
AcDb2dVertex
 10
1.783464566929133
 20
4.470472440944881
 30
0.0
  0
VERTEX
  5
3173
330
2B4C
100
AcDbEntity
  8
0
100
AcDbVertex
100
AcDb2dVertex
 10
1.77263779527559
 20
4.458661417322834
 30
0.0
  0
VERTEX
  5
3174
330
2B4C
100
AcDbEntity
  8
0
100
AcDbVertex
100
AcDb2dVertex
 10
1.768700787401574
 20
4.443897637795275
 30
0.0
  0
SEQEND
  5
3175
330
2B4C
100
AcDbEntity
  8
0
  0
LINE
  5
2B52
330
1E
100
AcDbEntity
  8
0
100
AcDbLine
 10
1.768700787401574
 20
4.424212598425197
 30
0.0
 11
1.768700787401574
 21
4.443897637795275
 31
0.0
  0
LINE
  5
2B53
330
1E
100
AcDbEntity
  8
0
100
AcDbLine
 10
1.768700787401574
 20
4.26771653543307
 30
0.0
 11
1.768700787401574
 21
4.286417322834645
 31
0.0
  0
POLYLINE
  5
2B54
330
1E
100
AcDbEntity
  8
0
100
AcDb2dPolyline
 66
     1
 10
0.0
 20
0.0
 30
0.0
  0
VERTEX
  5
3176
330
2B54
100
AcDbEntity
  8
0
100
AcDbVertex
100
AcDb2dVertex
 10
1.768700787401574
 20
4.26771653543307
 30
0.0
  0
VERTEX
  5
3177
330
2B54
100
AcDbEntity
  8
0
100
AcDbVertex
100
AcDb2dVertex
 10
1.773622047244094
 20
4.24507874015748
 30
0.0
  0
VERTEX
  5
3178
330
2B54
100
AcDbEntity
  8
0
100
AcDbVertex
100
AcDb2dVertex
 10
1.786417322834645
 20
4.225393700787401
 30
0.0
  0
VERTEX
  5
3179
330
2B54
100
AcDbEntity
  8
0
100
AcDbVertex
100
AcDb2dVertex
 10
1.806102362204724
 20
4.21259842519685
 30
0.0
  0
VERTEX
  5
317A
330
2B54
100
AcDbEntity
  8
0
100
AcDbVertex
100
AcDb2dVertex
 10
1.828740157480314
 20
4.20767716535433
 30
0.0
  0
SEQEND
  5
317B
330
2B54
100
AcDbEntity
  8
0
  0
LINE
  5
2B5B
330
1E
100
AcDbEntity
  8
0
100
AcDbLine
 10
2.040354330708661
 20
4.20767716535433
 30
0.0
 11
1.828740157480314
 21
4.20767716535433
 31
0.0
  0
LINE
  5
2B5C
330
1E
100
AcDbEntity
  8
0
100
AcDbLine
 10
2.040354330708661
 20
4.191929133858267
 30
0.0
 11
2.040354330708661
 21
4.20767716535433
 31
0.0
  0
LINE
  5
2B5D
330
1E
100
AcDbEntity
  8
0
100
AcDbLine
 10
2.040354330708661
 20
4.307086614173228
 30
0.0
 11
2.042322834645669
 21
4.309055118110236
 31
0.0
  0
LINE
  5
2B5E
330
1E
100
AcDbEntity
  8
0
100
AcDbLine
 10
2.042322834645669
 20
4.309055118110236
 30
0.0
 11
1.992125984251968
 21
4.309055118110236
 31
0.0
  0
LINE
  5
2B5F
330
1E
100
AcDbEntity
  8
0
100
AcDbLine
 10
1.99015748031496
 20
4.307086614173228
 30
0.0
 11
2.040354330708661
 21
4.307086614173228
 31
0.0
  0
POLYLINE
  5
2B60
330
1E
100
AcDbEntity
  8
0
100
AcDb2dPolyline
 66
     1
 10
0.0
 20
0.0
 30
0.0
  0
VERTEX
  5
317C
330
2B60
100
AcDbEntity
  8
0
100
AcDbVertex
100
AcDb2dVertex
 10
2.042322834645669
 20
4.309055118110236
 30
0.0
  0
VERTEX
  5
317D
330
2B60
100
AcDbEntity
  8
0
100
AcDbVertex
100
AcDb2dVertex
 10
2.042322834645669
 20
4.31496062992126
 30
0.0
  0
VERTEX
  5
317E
330
2B60
100
AcDbEntity
  8
0
100
AcDbVertex
100
AcDb2dVertex
 10
2.043307086614173
 20
4.328740157480314
 30
0.0
  0
SEQEND
  5
317F
330
2B60
100
AcDbEntity
  8
0
  0
LINE
  5
2B65
330
1E
100
AcDbEntity
  8
0
100
AcDbLine
 10
1.992125984251968
 20
4.328740157480314
 30
0.0
 11
2.043307086614173
 21
4.328740157480314
 31
0.0
  0
LINE
  5
2B66
330
1E
100
AcDbEntity
  8
0
100
AcDbLine
 10
1.992125984251968
 20
4.934055118110236
 30
0.0
 11
2.042322834645669
 21
4.934055118110236
 31
0.0
  0
LINE
  5
2B67
330
1E
100
AcDbEntity
  8
0
100
AcDbLine
 10
2.040354330708661
 20
4.937007874015748
 30
0.0
 11
2.042322834645669
 21
4.934055118110236
 31
0.0
  0
LINE
  5
2B68
330
1E
100
AcDbEntity
  8
0
100
AcDbLine
 10
2.040354330708661
 20
4.937007874015748
 30
0.0
 11
1.99015748031496
 21
4.937007874015748
 31
0.0
  0
LINE
  5
2B69
330
1E
100
AcDbEntity
  8
0
100
AcDbLine
 10
2.040354330708661
 20
4.307086614173228
 30
0.0
 11
2.040354330708661
 21
4.20767716535433
 31
0.0
  0
LINE
  5
2B6A
330
1E
100
AcDbEntity
  8
0
100
AcDbLine
 10
2.040354330708661
 20
5.035433070866141
 30
0.0
 11
2.040354330708661
 21
4.937007874015748
 31
0.0
  0
LINE
  5
2B6B
330
1E
100
AcDbEntity
  8
0
100
AcDbLine
 10
2.040354330708661
 20
5.035433070866141
 30
0.0
 11
2.040354330708661
 21
5.051181102362204
 31
0.0
  0
LINE
  5
2B6C
330
1E
100
AcDbEntity
  8
0
100
AcDbLine
 10
2.043307086614173
 20
4.375984251968503
 30
0.0
 11
2.043307086614173
 21
4.328740157480314
 31
0.0
  0
LINE
  5
2B6D
330
1E
100
AcDbEntity
  8
0
100
AcDbLine
 10
2.043307086614173
 20
4.770669291338582
 30
0.0
 11
2.043307086614173
 21
4.473425196850393
 31
0.0
  0
LINE
  5
2B6E
330
1E
100
AcDbEntity
  8
0
100
AcDbLine
 10
2.043307086614173
 20
4.914370078740157
 30
0.0
 11
2.043307086614173
 21
4.867125984251968
 31
0.0
  0
LINE
  5
2B6F
330
1E
100
AcDbEntity
  8
0
100
AcDbLine
 10
2.043307086614173
 20
4.914370078740157
 30
0.0
 11
1.992125984251968
 21
4.914370078740157
 31
0.0
  0
POLYLINE
  5
2B70
330
1E
100
AcDbEntity
  8
0
100
AcDb2dPolyline
 66
     1
 10
0.0
 20
0.0
 30
0.0
  0
VERTEX
  5
3180
330
2B70
100
AcDbEntity
  8
0
100
AcDbVertex
100
AcDb2dVertex
 10
2.042322834645669
 20
4.934055118110236
 30
0.0
  0
VERTEX
  5
3181
330
2B70
100
AcDbEntity
  8
0
100
AcDbVertex
100
AcDb2dVertex
 10
2.042322834645669
 20
4.928149606299212
 30
0.0
  0
VERTEX
  5
3182
330
2B70
100
AcDbEntity
  8
0
100
AcDbVertex
100
AcDb2dVertex
 10
2.043307086614173
 20
4.914370078740157
 30
0.0
  0
SEQEND
  5
3183
330
2B70
100
AcDbEntity
  8
0
  0
POLYLINE
  5
2B75
330
1E
100
AcDbEntity
  8
0
100
AcDb2dPolyline
 66
     1
 10
0.0
 20
0.0
 30
0.0
  0
VERTEX
  5
3184
330
2B75
100
AcDbEntity
  8
0
100
AcDbVertex
100
AcDb2dVertex
 10
2.06003937007874
 20
5.071850393700787
 30
0.0
  0
VERTEX
  5
3185
330
2B75
100
AcDbEntity
  8
0
100
AcDbVertex
100
AcDb2dVertex
 10
2.046259842519685
 20
5.065944881889763
 30
0.0
  0
VERTEX
  5
3186
330
2B75
100
AcDbEntity
  8
0
100
AcDbVertex
100
AcDb2dVertex
 10
2.040354330708661
 20
5.051181102362204
 30
0.0
  0
SEQEND
  5
3187
330
2B75
100
AcDbEntity
  8
0
  0
POLYLINE
  5
2B7A
330
1E
100
AcDbEntity
  8
0
100
AcDb2dPolyline
 66
     1
 10
0.0
 20
0.0
 30
0.0
  0
VERTEX
  5
3188
330
2B7A
100
AcDbEntity
  8
0
100
AcDbVertex
100
AcDb2dVertex
 10
2.040354330708661
 20
4.191929133858267
 30
0.0
  0
VERTEX
  5
3189
330
2B7A
100
AcDbEntity
  8
0
100
AcDbVertex
100
AcDb2dVertex
 10
2.046259842519685
 20
4.177165354330708
 30
0.0
  0
VERTEX
  5
318A
330
2B7A
100
AcDbEntity
  8
0
100
AcDbVertex
100
AcDb2dVertex
 10
2.06003937007874
 20
4.171259842519685
 30
0.0
  0
SEQEND
  5
318B
330
2B7A
100
AcDbEntity
  8
0
  0
LINE
  5
2B7F
330
1E
100
AcDbEntity
  8
0
100
AcDbLine
 10
2.043307086614173
 20
4.328740157480314
 30
0.0
 11
2.043307086614173
 21
4.193897637795275
 31
0.0
  0
LINE
  5
2B80
330
1E
100
AcDbEntity
  8
0
100
AcDbLine
 10
2.040354330708661
 20
4.191929133858267
 30
0.0
 11
2.043307086614173
 21
4.193897637795275
 31
0.0
  0
LINE
  5
2B81
330
1E
100
AcDbEntity
  8
0
100
AcDbLine
 10
2.043307086614173
 20
5.049212598425197
 30
0.0
 11
2.043307086614173
 21
4.914370078740157
 31
0.0
  0
LINE
  5
2B82
330
1E
100
AcDbEntity
  8
0
100
AcDbLine
 10
2.043307086614173
 20
5.049212598425197
 30
0.0
 11
2.040354330708661
 21
5.051181102362204
 31
0.0
  0
POLYLINE
  5
2B83
330
1E
100
AcDbEntity
  8
0
100
AcDb2dPolyline
 66
     1
 10
0.0
 20
0.0
 30
0.0
  0
VERTEX
  5
318C
330
2B83
100
AcDbEntity
  8
0
100
AcDbVertex
100
AcDb2dVertex
 10
2.043307086614173
 20
4.193897637795275
 30
0.0
  0
VERTEX
  5
318D
330
2B83
100
AcDbEntity
  8
0
100
AcDbVertex
100
AcDb2dVertex
 10
2.043307086614173
 20
4.18996062992126
 30
0.0
  0
VERTEX
  5
318E
330
2B83
100
AcDbEntity
  8
0
100
AcDbVertex
100
AcDb2dVertex
 10
2.045275590551181
 20
4.185039370078739
 30
0.0
  0
VERTEX
  5
318F
330
2B83
100
AcDbEntity
  8
0
100
AcDbVertex
100
AcDb2dVertex
 10
2.049212598425196
 20
4.181102362204724
 30
0.0
  0
SEQEND
  5
3190
330
2B83
100
AcDbEntity
  8
0
  0
POLYLINE
  5
2B89
330
1E
100
AcDbEntity
  8
0
100
AcDb2dPolyline
 66
     1
 10
0.0
 20
0.0
 30
0.0
  0
VERTEX
  5
3191
330
2B89
100
AcDbEntity
  8
0
100
AcDbVertex
100
AcDb2dVertex
 10
2.049212598425196
 20
5.062007874015748
 30
0.0
  0
VERTEX
  5
3192
330
2B89
100
AcDbEntity
  8
0
100
AcDbVertex
100
AcDb2dVertex
 10
2.045275590551181
 20
5.058070866141732
 30
0.0
  0
VERTEX
  5
3193
330
2B89
100
AcDbEntity
  8
0
100
AcDbVertex
100
AcDb2dVertex
 10
2.043307086614173
 20
5.054133858267716
 30
0.0
  0
VERTEX
  5
3194
330
2B89
100
AcDbEntity
  8
0
100
AcDbVertex
100
AcDb2dVertex
 10
2.043307086614173
 20
5.049212598425197
 30
0.0
  0
SEQEND
  5
3195
330
2B89
100
AcDbEntity
  8
0
  0
LINE
  5
2B8F
330
1E
100
AcDbEntity
  8
0
100
AcDbLine
 10
3.14763779527559
 20
4.375984251968503
 30
0.0
 11
3.146653543307086
 21
4.375984251968503
 31
0.0
  0
LINE
  5
2B90
330
1E
100
AcDbEntity
  8
0
100
AcDbLine
 10
3.14763779527559
 20
4.473425196850393
 30
0.0
 11
3.146653543307086
 21
4.472440944881889
 31
0.0
  0
LINE
  5
2B91
330
1E
100
AcDbEntity
  8
0
100
AcDbLine
 10
3.14763779527559
 20
4.770669291338582
 30
0.0
 11
3.146653543307086
 21
4.770669291338582
 31
0.0
  0
LINE
  5
2B92
330
1E
100
AcDbEntity
  8
0
100
AcDbLine
 10
3.14763779527559
 20
4.867125984251968
 30
0.0
 11
3.146653543307086
 21
4.867125984251968
 31
0.0
  0
LINE
  5
2B93
330
1E
100
AcDbEntity
  8
0
100
AcDbLine
 10
2.043307086614173
 20
4.867125984251968
 30
0.0
 11
2.043307086614173
 21
4.867125984251968
 31
0.0
  0
LINE
  5
2B94
330
1E
100
AcDbEntity
  8
0
100
AcDbLine
 10
2.043307086614173
 20
4.375984251968503
 30
0.0
 11
2.043307086614173
 21
4.375984251968503
 31
0.0
  0
LINE
  5
2B95
330
1E
100
AcDbEntity
  8
0
100
AcDbLine
 10
2.043307086614173
 20
4.770669291338582
 30
0.0
 11
2.043307086614173
 21
4.770669291338582
 31
0.0
  0
LINE
  5
2B96
330
1E
100
AcDbEntity
  8
0
100
AcDbLine
 10
2.043307086614173
 20
4.473425196850393
 30
0.0
 11
2.043307086614173
 21
4.472440944881889
 31
0.0
  0
LINE
  5
2B97
330
1E
100
AcDbEntity
  8
0
100
AcDbLine
 10
3.146653543307086
 20
4.471456692913386
 30
0.0
 11
3.146653543307086
 21
4.771653543307086
 31
0.0
  0
LINE
  5
2B98
330
1E
100
AcDbEntity
  8
0
100
AcDbLine
 10
3.146653543307086
 20
4.194881889763779
 30
0.0
 11
3.146653543307086
 21
4.376968503937007
 31
0.0
  0
POLYLINE
  5
2B99
330
1E
100
AcDbEntity
  8
0
100
AcDb2dPolyline
 66
     1
 10
0.0
 20
0.0
 30
0.0
  0
VERTEX
  5
3196
330
2B99
100
AcDbEntity
  8
0
100
AcDbVertex
100
AcDb2dVertex
 10
3.126968503937007
 20
4.1751968503937
 30
0.0
  0
VERTEX
  5
3197
330
2B99
100
AcDbEntity
  8
0
100
AcDbVertex
100
AcDb2dVertex
 10
3.140748031496062
 20
4.181102362204724
 30
0.0
  0
VERTEX
  5
3198
330
2B99
100
AcDbEntity
  8
0
100
AcDbVertex
100
AcDb2dVertex
 10
3.146653543307086
 20
4.194881889763779
 30
0.0
  0
SEQEND
  5
3199
330
2B99
100
AcDbEntity
  8
0
  0
LINE
  5
2B9E
330
1E
100
AcDbEntity
  8
0
100
AcDbLine
 10
2.062992125984251
 20
4.1751968503937
 30
0.0
 11
3.126968503937007
 21
4.1751968503937
 31
0.0
  0
POLYLINE
  5
2B9F
330
1E
100
AcDbEntity
  8
0
100
AcDb2dPolyline
 66
     1
 10
0.0
 20
0.0
 30
0.0
  0
VERTEX
  5
319A
330
2B9F
100
AcDbEntity
  8
0
100
AcDbVertex
100
AcDb2dVertex
 10
2.043307086614173
 20
4.194881889763779
 30
0.0
  0
VERTEX
  5
319B
330
2B9F
100
AcDbEntity
  8
0
100
AcDbVertex
100
AcDb2dVertex
 10
2.049212598425196
 20
4.181102362204724
 30
0.0
  0
VERTEX
  5
319C
330
2B9F
100
AcDbEntity
  8
0
100
AcDbVertex
100
AcDb2dVertex
 10
2.062992125984251
 20
4.1751968503937
 30
0.0
  0
SEQEND
  5
319D
330
2B9F
100
AcDbEntity
  8
0
  0
LINE
  5
2BA4
330
1E
100
AcDbEntity
  8
0
100
AcDbLine
 10
2.043307086614173
 20
4.376968503937007
 30
0.0
 11
2.043307086614173
 21
4.194881889763779
 31
0.0
  0
LINE
  5
2BA5
330
1E
100
AcDbEntity
  8
0
100
AcDbLine
 10
2.043307086614173
 20
4.771653543307086
 30
0.0
 11
2.043307086614173
 21
4.471456692913386
 31
0.0
  0
LINE
  5
2BA6
330
1E
100
AcDbEntity
  8
0
100
AcDbLine
 10
3.126968503937007
 20
5.067913385826771
 30
0.0
 11
2.910433070866141
 21
5.067913385826771
 31
0.0
  0
POLYLINE
  5
2BA7
330
1E
100
AcDbEntity
  8
0
100
AcDb2dPolyline
 66
     1
 10
0.0
 20
0.0
 30
0.0
  0
VERTEX
  5
319E
330
2BA7
100
AcDbEntity
  8
0
100
AcDbVertex
100
AcDb2dVertex
 10
3.146653543307086
 20
5.048228346456692
 30
0.0
  0
VERTEX
  5
319F
330
2BA7
100
AcDbEntity
  8
0
100
AcDbVertex
100
AcDb2dVertex
 10
3.140748031496062
 20
5.062007874015748
 30
0.0
  0
VERTEX
  5
31A0
330
2BA7
100
AcDbEntity
  8
0
100
AcDbVertex
100
AcDb2dVertex
 10
3.126968503937007
 20
5.067913385826771
 30
0.0
  0
SEQEND
  5
31A1
330
2BA7
100
AcDbEntity
  8
0
  0
LINE
  5
2BAC
330
1E
100
AcDbEntity
  8
0
100
AcDbLine
 10
3.146653543307086
 20
4.866141732283464
 30
0.0
 11
3.146653543307086
 21
5.048228346456692
 31
0.0
  0
LINE
  5
2BAD
330
1E
100
AcDbEntity
  8
0
100
AcDbLine
 10
2.271653543307086
 20
4.823818897637795
 30
0.0
 11
2.918307086614173
 21
4.823818897637795
 31
0.0
  0
LINE
  5
2BAE
330
1E
100
AcDbEntity
  8
0
100
AcDbLine
 10
2.275590551181102
 20
4.774606299212598
 30
0.0
 11
2.271653543307086
 21
4.823818897637795
 31
0.0
  0
LINE
  5
2BAF
330
1E
100
AcDbEntity
  8
0
100
AcDbLine
 10
2.914370078740157
 20
4.774606299212598
 30
0.0
 11
2.275590551181102
 21
4.774606299212598
 31
0.0
  0
LINE
  5
2BB0
330
1E
100
AcDbEntity
  8
0
100
AcDbLine
 10
2.914370078740157
 20
4.774606299212598
 30
0.0
 11
2.918307086614173
 21
4.823818897637795
 31
0.0
  0
POLYLINE
  5
2BB1
330
1E
100
AcDbEntity
  8
0
100
AcDb2dPolyline
 66
     1
 10
0.0
 20
0.0
 30
0.0
  0
VERTEX
  5
31A2
330
2BB1
100
AcDbEntity
  8
0
100
AcDbVertex
100
AcDb2dVertex
 10
2.045275590551181
 20
4.196850393700787
 30
0.0
  0
VERTEX
  5
31A3
330
2BB1
100
AcDbEntity
  8
0
100
AcDbVertex
100
AcDb2dVertex
 10
2.0501968503937
 20
4.196850393700787
 30
0.0
  0
VERTEX
  5
31A4
330
2BB1
100
AcDbEntity
  8
0
100
AcDbVertex
100
AcDb2dVertex
 10
2.06003937007874
 20
4.196850393700787
 30
0.0
  0
SEQEND
  5
31A5
330
2BB1
100
AcDbEntity
  8
0
  0
POLYLINE
  5
2BB6
330
1E
100
AcDbEntity
  8
0
100
AcDb2dPolyline
 66
     1
 10
0.0
 20
0.0
 30
0.0
  0
VERTEX
  5
31A6
330
2BB6
100
AcDbEntity
  8
0
100
AcDbVertex
100
AcDb2dVertex
 10
2.064960629921259
 20
4.177165354330708
 30
0.0
  0
VERTEX
  5
31A7
330
2BB6
100
AcDbEntity
  8
0
100
AcDbVertex
100
AcDb2dVertex
 10
2.051181102362204
 20
4.183070866141732
 30
0.0
  0
VERTEX
  5
31A8
330
2BB6
100
AcDbEntity
  8
0
100
AcDbVertex
100
AcDb2dVertex
 10
2.045275590551181
 20
4.196850393700787
 30
0.0
  0
SEQEND
  5
31A9
330
2BB6
100
AcDbEntity
  8
0
  0
POLYLINE
  5
2BBB
330
1E
100
AcDbEntity
  8
0
100
AcDb2dPolyline
 66
     1
 10
0.0
 20
0.0
 30
0.0
  0
VERTEX
  5
31AA
330
2BBB
100
AcDbEntity
  8
0
100
AcDbVertex
100
AcDb2dVertex
 10
2.064960629921259
 20
4.191929133858267
 30
0.0
  0
VERTEX
  5
31AB
330
2BBB
100
AcDbEntity
  8
0
100
AcDbVertex
100
AcDb2dVertex
 10
2.064960629921259
 20
4.181102362204724
 30
0.0
  0
VERTEX
  5
31AC
330
2BBB
100
AcDbEntity
  8
0
100
AcDbVertex
100
AcDb2dVertex
 10
2.064960629921259
 20
4.177165354330708
 30
0.0
  0
SEQEND
  5
31AD
330
2BBB
100
AcDbEntity
  8
0
  0
LINE
  5
2BC0
330
1E
100
AcDbEntity
  8
0
100
AcDbLine
 10
2.06003937007874
 20
4.196850393700787
 30
0.0
 11
2.064960629921259
 21
4.191929133858267
 31
0.0
  0
POLYLINE
  5
2BC1
330
1E
100
AcDbEntity
  8
0
100
AcDb2dPolyline
 66
     1
 10
0.0
 20
0.0
 30
0.0
  0
VERTEX
  5
31AE
330
2BC1
100
AcDbEntity
  8
0
100
AcDbVertex
100
AcDb2dVertex
 10
2.045275590551181
 20
5.046259842519685
 30
0.0
  0
VERTEX
  5
31AF
330
2BC1
100
AcDbEntity
  8
0
100
AcDbVertex
100
AcDb2dVertex
 10
2.0501968503937
 20
5.046259842519685
 30
0.0
  0
VERTEX
  5
31B0
330
2BC1
100
AcDbEntity
  8
0
100
AcDbVertex
100
AcDb2dVertex
 10
2.06003937007874
 20
5.046259842519685
 30
0.0
  0
SEQEND
  5
31B1
330
2BC1
100
AcDbEntity
  8
0
  0
LINE
  5
2BC6
330
1E
100
AcDbEntity
  8
0
100
AcDbLine
 10
2.064960629921259
 20
5.051181102362204
 30
0.0
 11
2.06003937007874
 21
5.046259842519685
 31
0.0
  0
POLYLINE
  5
2BC7
330
1E
100
AcDbEntity
  8
0
100
AcDb2dPolyline
 66
     1
 10
0.0
 20
0.0
 30
0.0
  0
VERTEX
  5
31B2
330
2BC7
100
AcDbEntity
  8
0
100
AcDbVertex
100
AcDb2dVertex
 10
2.064960629921259
 20
5.065944881889763
 30
0.0
  0
VERTEX
  5
31B3
330
2BC7
100
AcDbEntity
  8
0
100
AcDbVertex
100
AcDb2dVertex
 10
2.064960629921259
 20
5.062007874015748
 30
0.0
  0
VERTEX
  5
31B4
330
2BC7
100
AcDbEntity
  8
0
100
AcDbVertex
100
AcDb2dVertex
 10
2.064960629921259
 20
5.051181102362204
 30
0.0
  0
SEQEND
  5
31B5
330
2BC7
100
AcDbEntity
  8
0
  0
POLYLINE
  5
2BCC
330
1E
100
AcDbEntity
  8
0
100
AcDb2dPolyline
 66
     1
 10
0.0
 20
0.0
 30
0.0
  0
VERTEX
  5
31B6
330
2BCC
100
AcDbEntity
  8
0
100
AcDbVertex
100
AcDb2dVertex
 10
2.045275590551181
 20
5.046259842519685
 30
0.0
  0
VERTEX
  5
31B7
330
2BCC
100
AcDbEntity
  8
0
100
AcDbVertex
100
AcDb2dVertex
 10
2.051181102362204
 20
5.060039370078739
 30
0.0
  0
VERTEX
  5
31B8
330
2BCC
100
AcDbEntity
  8
0
100
AcDbVertex
100
AcDb2dVertex
 10
2.064960629921259
 20
5.065944881889763
 30
0.0
  0
SEQEND
  5
31B9
330
2BCC
100
AcDbEntity
  8
0
  0
LINE
  5
2BD1
330
1E
100
AcDbEntity
  8
0
100
AcDbLine
 10
2.06003937007874
 20
5.046259842519685
 30
0.0
 11
2.06003937007874
 21
4.196850393700787
 31
0.0
  0
LINE
  5
2BD2
330
1E
100
AcDbEntity
  8
0
100
AcDbLine
 10
2.045275590551181
 20
4.196850393700787
 30
0.0
 11
2.045275590551181
 21
5.046259842519685
 31
0.0
  0
LINE
  5
2BD3
330
1E
100
AcDbEntity
  8
0
100
AcDbLine
 10
2.064960629921259
 20
5.065944881889763
 30
0.0
 11
3.125
 21
5.065944881889763
 31
0.0
  0
LINE
  5
2BD4
330
1E
100
AcDbEntity
  8
0
100
AcDbLine
 10
3.125
 20
5.051181102362204
 30
0.0
 11
2.064960629921259
 21
5.051181102362204
 31
0.0
  0
POLYLINE
  5
2BD5
330
1E
100
AcDbEntity
  8
0
100
AcDb2dPolyline
 66
     1
 10
0.0
 20
0.0
 30
0.0
  0
VERTEX
  5
31BA
330
2BD5
100
AcDbEntity
  8
0
100
AcDbVertex
100
AcDb2dVertex
 10
3.125
 20
5.065944881889763
 30
0.0
  0
VERTEX
  5
31BB
330
2BD5
100
AcDbEntity
  8
0
100
AcDbVertex
100
AcDb2dVertex
 10
3.125
 20
5.062007874015748
 30
0.0
  0
VERTEX
  5
31BC
330
2BD5
100
AcDbEntity
  8
0
100
AcDbVertex
100
AcDb2dVertex
 10
3.125
 20
5.051181102362204
 30
0.0
  0
SEQEND
  5
31BD
330
2BD5
100
AcDbEntity
  8
0
  0
POLYLINE
  5
2BDA
330
1E
100
AcDbEntity
  8
0
100
AcDb2dPolyline
 66
     1
 10
0.0
 20
0.0
 30
0.0
  0
VERTEX
  5
31BE
330
2BDA
100
AcDbEntity
  8
0
100
AcDbVertex
100
AcDb2dVertex
 10
3.129921259842519
 20
5.046259842519685
 30
0.0
  0
VERTEX
  5
31BF
330
2BDA
100
AcDbEntity
  8
0
100
AcDbVertex
100
AcDb2dVertex
 10
3.140748031496062
 20
5.046259842519685
 30
0.0
  0
VERTEX
  5
31C0
330
2BDA
100
AcDbEntity
  8
0
100
AcDbVertex
100
AcDb2dVertex
 10
3.144685039370078
 20
5.046259842519685
 30
0.0
  0
SEQEND
  5
31C1
330
2BDA
100
AcDbEntity
  8
0
  0
POLYLINE
  5
2BDF
330
1E
100
AcDbEntity
  8
0
100
AcDb2dPolyline
 66
     1
 10
0.0
 20
0.0
 30
0.0
  0
VERTEX
  5
31C2
330
2BDF
100
AcDbEntity
  8
0
100
AcDbVertex
100
AcDb2dVertex
 10
3.125
 20
5.065944881889763
 30
0.0
  0
VERTEX
  5
31C3
330
2BDF
100
AcDbEntity
  8
0
100
AcDbVertex
100
AcDb2dVertex
 10
3.138779527559055
 20
5.060039370078739
 30
0.0
  0
VERTEX
  5
31C4
330
2BDF
100
AcDbEntity
  8
0
100
AcDbVertex
100
AcDb2dVertex
 10
3.144685039370078
 20
5.046259842519685
 30
0.0
  0
SEQEND
  5
31C5
330
2BDF
100
AcDbEntity
  8
0
  0
LINE
  5
2BE4
330
1E
100
AcDbEntity
  8
0
100
AcDbLine
 10
3.129921259842519
 20
5.046259842519685
 30
0.0
 11
3.125
 21
5.051181102362204
 31
0.0
  0
LINE
  5
2BE5
330
1E
100
AcDbEntity
  8
0
100
AcDbLine
 10
2.064960629921259
 20
4.191929133858267
 30
0.0
 11
3.125
 21
4.191929133858267
 31
0.0
  0
LINE
  5
2BE6
330
1E
100
AcDbEntity
  8
0
100
AcDbLine
 10
3.125
 20
4.177165354330708
 30
0.0
 11
2.064960629921259
 21
4.177165354330708
 31
0.0
  0
POLYLINE
  5
2BE7
330
1E
100
AcDbEntity
  8
0
100
AcDb2dPolyline
 66
     1
 10
0.0
 20
0.0
 30
0.0
  0
VERTEX
  5
31C6
330
2BE7
100
AcDbEntity
  8
0
100
AcDbVertex
100
AcDb2dVertex
 10
3.125
 20
4.191929133858267
 30
0.0
  0
VERTEX
  5
31C7
330
2BE7
100
AcDbEntity
  8
0
100
AcDbVertex
100
AcDb2dVertex
 10
3.125
 20
4.181102362204724
 30
0.0
  0
VERTEX
  5
31C8
330
2BE7
100
AcDbEntity
  8
0
100
AcDbVertex
100
AcDb2dVertex
 10
3.125
 20
4.177165354330708
 30
0.0
  0
SEQEND
  5
31C9
330
2BE7
100
AcDbEntity
  8
0
  0
POLYLINE
  5
2BEC
330
1E
100
AcDbEntity
  8
0
100
AcDb2dPolyline
 66
     1
 10
0.0
 20
0.0
 30
0.0
  0
VERTEX
  5
31CA
330
2BEC
100
AcDbEntity
  8
0
100
AcDbVertex
100
AcDb2dVertex
 10
3.144685039370078
 20
4.196850393700787
 30
0.0
  0
VERTEX
  5
31CB
330
2BEC
100
AcDbEntity
  8
0
100
AcDbVertex
100
AcDb2dVertex
 10
3.138779527559055
 20
4.183070866141732
 30
0.0
  0
VERTEX
  5
31CC
330
2BEC
100
AcDbEntity
  8
0
100
AcDbVertex
100
AcDb2dVertex
 10
3.125
 20
4.177165354330708
 30
0.0
  0
SEQEND
  5
31CD
330
2BEC
100
AcDbEntity
  8
0
  0
POLYLINE
  5
2BF1
330
1E
100
AcDbEntity
  8
0
100
AcDb2dPolyline
 66
     1
 10
0.0
 20
0.0
 30
0.0
  0
VERTEX
  5
31CE
330
2BF1
100
AcDbEntity
  8
0
100
AcDbVertex
100
AcDb2dVertex
 10
3.129921259842519
 20
4.196850393700787
 30
0.0
  0
VERTEX
  5
31CF
330
2BF1
100
AcDbEntity
  8
0
100
AcDbVertex
100
AcDb2dVertex
 10
3.140748031496062
 20
4.196850393700787
 30
0.0
  0
VERTEX
  5
31D0
330
2BF1
100
AcDbEntity
  8
0
100
AcDbVertex
100
AcDb2dVertex
 10
3.144685039370078
 20
4.196850393700787
 30
0.0
  0
SEQEND
  5
31D1
330
2BF1
100
AcDbEntity
  8
0
  0
LINE
  5
2BF6
330
1E
100
AcDbEntity
  8
0
100
AcDbLine
 10
3.125
 20
4.191929133858267
 30
0.0
 11
3.129921259842519
 21
4.196850393700787
 31
0.0
  0
LINE
  5
2BF7
330
1E
100
AcDbEntity
  8
0
100
AcDbLine
 10
2.914370078740157
 20
4.774606299212598
 30
0.0
 11
2.914370078740157
 21
4.539370078740157
 31
0.0
  0
LINE
  5
2BF8
330
1E
100
AcDbEntity
  8
0
100
AcDbLine
 10
2.275590551181102
 20
4.774606299212598
 30
0.0
 11
2.275590551181102
 21
4.539370078740157
 31
0.0
  0
LINE
  5
2BF9
330
1E
100
AcDbEntity
  8
0
100
AcDbLine
 10
3.129921259842519
 20
4.196850393700787
 30
0.0
 11
3.129921259842519
 21
5.046259842519685
 31
0.0
  0
LINE
  5
2BFA
330
1E
100
AcDbEntity
  8
0
100
AcDbLine
 10
2.918307086614173
 20
4.823818897637795
 30
0.0
 11
2.918307086614173
 21
4.274606299212598
 31
0.0
  0
LINE
  5
2BFB
330
1E
100
AcDbEntity
  8
0
100
AcDbLine
 10
2.271653543307086
 20
4.274606299212598
 30
0.0
 11
2.524606299212598
 21
4.274606299212598
 31
0.0
  0
LINE
  5
2BFC
330
1E
100
AcDbEntity
  8
0
100
AcDbLine
 10
2.666338582677165
 20
4.274606299212598
 30
0.0
 11
2.918307086614173
 21
4.274606299212598
 31
0.0
  0
LINE
  5
2BFD
330
1E
100
AcDbEntity
  8
0
100
AcDbLine
 10
2.271653543307086
 20
4.823818897637795
 30
0.0
 11
2.271653543307086
 21
4.274606299212598
 31
0.0
  0
LINE
  5
2BFE
330
1E
100
AcDbEntity
  8
0
100
AcDbLine
 10
2.914370078740157
 20
4.539370078740157
 30
0.0
 11
2.914370078740157
 21
4.274606299212598
 31
0.0
  0
LINE
  5
2BFF
330
1E
100
AcDbEntity
  8
0
100
AcDbLine
 10
2.275590551181102
 20
4.539370078740157
 30
0.0
 11
2.275590551181102
 21
4.274606299212598
 31
0.0
  0
LINE
  5
2C00
330
1E
100
AcDbEntity
  8
0
100
AcDbLine
 10
3.144685039370078
 20
5.046259842519685
 30
0.0
 11
3.144685039370078
 21
4.196850393700787
 31
0.0
  0
LINE
  5
2C01
330
1E
100
AcDbEntity
  8
0
100
AcDbLine
 10
2.045275590551181
 20
5.046259842519685
 30
0.0
 11
2.043307086614173
 21
5.048228346456692
 31
0.0
  0
LINE
  5
2C02
330
1E
100
AcDbEntity
  8
0
100
AcDbLine
 10
2.043307086614173
 20
5.048228346456692
 30
0.0
 11
2.043307086614173
 21
4.866141732283464
 31
0.0
  0
LINE
  5
2C03
330
1E
100
AcDbEntity
  8
0
100
AcDbLine
 10
2.043307086614173
 20
4.86515748031496
 30
0.0
 11
2.043307086614173
 21
4.866141732283464
 31
0.0
  0
LINE
  5
2C04
330
1E
100
AcDbEntity
  8
0
100
AcDbLine
 10
2.043307086614173
 20
4.77263779527559
 30
0.0
 11
2.043307086614173
 21
4.771653543307086
 31
0.0
  0
LINE
  5
2C05
330
1E
100
AcDbEntity
  8
0
100
AcDbLine
 10
2.043307086614173
 20
4.470472440944881
 30
0.0
 11
2.043307086614173
 21
4.471456692913386
 31
0.0
  0
LINE
  5
2C06
330
1E
100
AcDbEntity
  8
0
100
AcDbLine
 10
2.043307086614173
 20
4.377952755905512
 30
0.0
 11
2.043307086614173
 21
4.376968503937007
 31
0.0
  0
LINE
  5
2C07
330
1E
100
AcDbEntity
  8
0
100
AcDbLine
 10
2.043307086614173
 20
4.194881889763779
 30
0.0
 11
2.045275590551181
 21
4.196850393700787
 31
0.0
  0
LINE
  5
2C08
330
1E
100
AcDbEntity
  8
0
100
AcDbLine
 10
3.144685039370078
 20
4.196850393700787
 30
0.0
 11
3.146653543307086
 21
4.194881889763779
 31
0.0
  0
LINE
  5
2C09
330
1E
100
AcDbEntity
  8
0
100
AcDbLine
 10
3.146653543307086
 20
4.376968503937007
 30
0.0
 11
3.14763779527559
 21
4.377952755905512
 31
0.0
  0
LINE
  5
2C0A
330
1E
100
AcDbEntity
  8
0
100
AcDbLine
 10
3.146653543307086
 20
4.471456692913386
 30
0.0
 11
3.14763779527559
 21
4.470472440944881
 31
0.0
  0
LINE
  5
2C0B
330
1E
100
AcDbEntity
  8
0
100
AcDbLine
 10
3.146653543307086
 20
4.771653543307086
 30
0.0
 11
3.14763779527559
 21
4.77263779527559
 31
0.0
  0
LINE
  5
2C0C
330
1E
100
AcDbEntity
  8
0
100
AcDbLine
 10
3.146653543307086
 20
4.866141732283464
 30
0.0
 11
3.14763779527559
 21
4.86515748031496
 31
0.0
  0
LINE
  5
2C0D
330
1E
100
AcDbEntity
  8
0
100
AcDbLine
 10
3.146653543307086
 20
5.048228346456692
 30
0.0
 11
3.144685039370078
 21
5.046259842519685
 31
0.0
  0
LINE
  5
2C0E
330
1E
100
AcDbEntity
  8
0
100
AcDbLine
 10
3.126968503937007
 20
4.1751968503937
 30
0.0
 11
3.125
 21
4.177165354330708
 31
0.0
  0
LINE
  5
2C0F
330
1E
100
AcDbEntity
  8
0
100
AcDbLine
 10
2.064960629921259
 20
4.177165354330708
 30
0.0
 11
2.062992125984251
 21
4.1751968503937
 31
0.0
  0
LINE
  5
2C10
330
1E
100
AcDbEntity
  8
0
100
AcDbLine
 10
3.125
 20
5.065944881889763
 30
0.0
 11
3.126968503937007
 21
5.067913385826771
 31
0.0
  0
LINE
  5
2C11
330
1E
100
AcDbEntity
  8
0
100
AcDbLine
 10
2.910433070866141
 20
5.067913385826771
 30
0.0
 11
2.280511811023622
 21
5.067913385826771
 31
0.0
  0
LINE
  5
2C12
330
1E
100
AcDbEntity
  8
0
100
AcDbLine
 10
2.280511811023622
 20
5.067913385826771
 30
0.0
 11
2.062992125984251
 21
5.067913385826771
 31
0.0
  0
LINE
  5
2C13
330
1E
100
AcDbEntity
  8
0
100
AcDbLine
 10
2.062992125984251
 20
5.067913385826771
 30
0.0
 11
2.064960629921259
 21
5.065944881889763
 31
0.0
  0
POLYLINE
  5
2C14
330
1E
100
AcDbEntity
  8
0
100
AcDb2dPolyline
 66
     1
 10
0.0
 20
0.0
 30
0.0
  0
VERTEX
  5
31D2
330
2C14
100
AcDbEntity
  8
0
100
AcDbVertex
100
AcDb2dVertex
 10
2.062992125984251
 20
5.067913385826771
 30
0.0
  0
VERTEX
  5
31D3
330
2C14
100
AcDbEntity
  8
0
100
AcDbVertex
100
AcDb2dVertex
 10
2.049212598425196
 20
5.062007874015748
 30
0.0
  0
VERTEX
  5
31D4
330
2C14
100
AcDbEntity
  8
0
100
AcDbVertex
100
AcDb2dVertex
 10
2.043307086614173
 20
5.048228346456692
 30
0.0
  0
SEQEND
  5
31D5
330
2C14
100
AcDbEntity
  8
0
  0
LINE
  5
2C19
330
1E
100
AcDbEntity
  8
0
100
AcDbLine
 10
2.679133858267716
 20
4.284448818897637
 30
0.0
 11
2.679133858267716
 21
4.310039370078739
 31
0.0
  0
LINE
  5
2C1A
330
1E
100
AcDbEntity
  8
0
100
AcDbLine
 10
2.679133858267716
 20
4.284448818897637
 30
0.0
 11
2.875
 21
4.284448818897637
 31
0.0
  0
LINE
  5
2C1B
330
1E
100
AcDbEntity
  8
0
100
AcDbLine
 10
2.875
 20
4.284448818897637
 30
0.0
 11
2.875
 21
4.310039370078739
 31
0.0
  0
LINE
  5
2C1C
330
1E
100
AcDbEntity
  8
0
100
AcDbLine
 10
2.875
 20
4.310039370078739
 30
0.0
 11
2.679133858267716
 21
4.310039370078739
 31
0.0
  0
LINE
  5
2C1D
330
1E
100
AcDbEntity
  8
0
100
AcDbLine
 10
2.669291338582677
 20
4.319881889763779
 30
0.0
 11
2.884842519685039
 21
4.319881889763779
 31
0.0
  0
POLYLINE
  5
2C1E
330
1E
100
AcDbEntity
  8
0
100
AcDb2dPolyline
 66
     1
 10
0.0
 20
0.0
 30
0.0
  0
VERTEX
  5
31D6
330
2C1E
100
AcDbEntity
  8
0
100
AcDbVertex
100
AcDb2dVertex
 10
2.669291338582677
 20
4.319881889763779
 30
0.0
  0
VERTEX
  5
31D7
330
2C1E
100
AcDbEntity
  8
0
100
AcDbVertex
100
AcDb2dVertex
 10
2.676181102362204
 20
4.316929133858267
 30
0.0
  0
VERTEX
  5
31D8
330
2C1E
100
AcDbEntity
  8
0
100
AcDbVertex
100
AcDb2dVertex
 10
2.679133858267716
 20
4.310039370078739
 30
0.0
  0
SEQEND
  5
31D9
330
2C1E
100
AcDbEntity
  8
0
  0
POLYLINE
  5
2C23
330
1E
100
AcDbEntity
  8
0
100
AcDb2dPolyline
 66
     1
 10
0.0
 20
0.0
 30
0.0
  0
VERTEX
  5
31DA
330
2C23
100
AcDbEntity
  8
0
100
AcDbVertex
100
AcDb2dVertex
 10
2.875
 20
4.310039370078739
 30
0.0
  0
VERTEX
  5
31DB
330
2C23
100
AcDbEntity
  8
0
100
AcDbVertex
100
AcDb2dVertex
 10
2.881889763779527
 20
4.316929133858267
 30
0.0
  0
VERTEX
  5
31DC
330
2C23
100
AcDbEntity
  8
0
100
AcDbVertex
100
AcDb2dVertex
 10
2.884842519685039
 20
4.319881889763779
 30
0.0
  0
SEQEND
  5
31DD
330
2C23
100
AcDbEntity
  8
0
  0
POLYLINE
  5
2C28
330
1E
100
AcDbEntity
  8
0
100
AcDb2dPolyline
 66
     1
 10
0.0
 20
0.0
 30
0.0
  0
VERTEX
  5
31DE
330
2C28
100
AcDbEntity
  8
0
100
AcDbVertex
100
AcDb2dVertex
 10
2.679133858267716
 20
4.284448818897637
 30
0.0
  0
VERTEX
  5
31DF
330
2C28
100
AcDbEntity
  8
0
100
AcDbVertex
100
AcDb2dVertex
 10
2.676181102362204
 20
4.27755905511811
 30
0.0
  0
VERTEX
  5
31E0
330
2C28
100
AcDbEntity
  8
0
100
AcDbVertex
100
AcDb2dVertex
 10
2.669291338582677
 20
4.274606299212598
 30
0.0
  0
SEQEND
  5
31E1
330
2C28
100
AcDbEntity
  8
0
  0
POLYLINE
  5
2C2D
330
1E
100
AcDbEntity
  8
0
100
AcDb2dPolyline
 66
     1
 10
0.0
 20
0.0
 30
0.0
  0
VERTEX
  5
31E2
330
2C2D
100
AcDbEntity
  8
0
100
AcDbVertex
100
AcDb2dVertex
 10
2.884842519685039
 20
4.274606299212598
 30
0.0
  0
VERTEX
  5
31E3
330
2C2D
100
AcDbEntity
  8
0
100
AcDbVertex
100
AcDb2dVertex
 10
2.881889763779527
 20
4.27755905511811
 30
0.0
  0
VERTEX
  5
31E4
330
2C2D
100
AcDbEntity
  8
0
100
AcDbVertex
100
AcDb2dVertex
 10
2.875
 20
4.284448818897637
 30
0.0
  0
SEQEND
  5
31E5
330
2C2D
100
AcDbEntity
  8
0
  0
LINE
  5
2C32
330
1E
100
AcDbEntity
  8
0
100
AcDbLine
 10
2.884842519685039
 20
4.319881889763779
 30
0.0
 11
2.884842519685039
 21
4.274606299212598
 31
0.0
  0
LINE
  5
2C33
330
1E
100
AcDbEntity
  8
0
100
AcDbLine
 10
2.521653543307086
 20
4.319881889763779
 30
0.0
 11
2.524606299212598
 21
4.319881889763779
 31
0.0
  0
LINE
  5
2C34
330
1E
100
AcDbEntity
  8
0
100
AcDbLine
 10
2.524606299212598
 20
4.319881889763779
 30
0.0
 11
2.666338582677165
 21
4.319881889763779
 31
0.0
  0
LINE
  5
2C35
330
1E
100
AcDbEntity
  8
0
100
AcDbLine
 10
2.666338582677165
 20
4.319881889763779
 30
0.0
 11
2.669291338582677
 21
4.319881889763779
 31
0.0
  0
LINE
  5
2C36
330
1E
100
AcDbEntity
  8
0
100
AcDbLine
 10
2.30511811023622
 20
4.319881889763779
 30
0.0
 11
2.521653543307086
 21
4.319881889763779
 31
0.0
  0
LINE
  5
2C37
330
1E
100
AcDbEntity
  8
0
100
AcDbLine
 10
2.511811023622047
 20
4.310039370078739
 30
0.0
 11
2.511811023622047
 21
4.284448818897637
 31
0.0
  0
LINE
  5
2C38
330
1E
100
AcDbEntity
  8
0
100
AcDbLine
 10
2.511811023622047
 20
4.310039370078739
 30
0.0
 11
2.314960629921259
 21
4.310039370078739
 31
0.0
  0
LINE
  5
2C39
330
1E
100
AcDbEntity
  8
0
100
AcDbLine
 10
2.314960629921259
 20
4.310039370078739
 30
0.0
 11
2.314960629921259
 21
4.284448818897637
 31
0.0
  0
LINE
  5
2C3A
330
1E
100
AcDbEntity
  8
0
100
AcDbLine
 10
2.314960629921259
 20
4.284448818897637
 30
0.0
 11
2.511811023622047
 21
4.284448818897637
 31
0.0
  0
LINE
  5
2C3B
330
1E
100
AcDbEntity
  8
0
100
AcDbLine
 10
2.666338582677165
 20
4.274606299212598
 30
0.0
 11
2.666338582677165
 21
4.274606299212598
 31
0.0
  0
LINE
  5
2C3C
330
1E
100
AcDbEntity
  8
0
100
AcDbLine
 10
2.666338582677165
 20
4.274606299212598
 30
0.0
 11
2.524606299212598
 21
4.274606299212598
 31
0.0
  0
LINE
  5
2C3D
330
1E
100
AcDbEntity
  8
0
100
AcDbLine
 10
2.524606299212598
 20
4.274606299212598
 30
0.0
 11
2.523622047244094
 21
4.274606299212598
 31
0.0
  0
LINE
  5
2C3E
330
1E
100
AcDbEntity
  8
0
100
AcDbLine
 10
2.30511811023622
 20
4.274606299212598
 30
0.0
 11
2.30511811023622
 21
4.319881889763779
 31
0.0
  0
POLYLINE
  5
2C3F
330
1E
100
AcDbEntity
  8
0
100
AcDb2dPolyline
 66
     1
 10
0.0
 20
0.0
 30
0.0
  0
VERTEX
  5
31E6
330
2C3F
100
AcDbEntity
  8
0
100
AcDbVertex
100
AcDb2dVertex
 10
2.511811023622047
 20
4.310039370078739
 30
0.0
  0
VERTEX
  5
31E7
330
2C3F
100
AcDbEntity
  8
0
100
AcDbVertex
100
AcDb2dVertex
 10
2.514763779527558
 20
4.316929133858267
 30
0.0
  0
VERTEX
  5
31E8
330
2C3F
100
AcDbEntity
  8
0
100
AcDbVertex
100
AcDb2dVertex
 10
2.521653543307086
 20
4.319881889763779
 30
0.0
  0
SEQEND
  5
31E9
330
2C3F
100
AcDbEntity
  8
0
  0
POLYLINE
  5
2C44
330
1E
100
AcDbEntity
  8
0
100
AcDb2dPolyline
 66
     1
 10
0.0
 20
0.0
 30
0.0
  0
VERTEX
  5
31EA
330
2C44
100
AcDbEntity
  8
0
100
AcDbVertex
100
AcDb2dVertex
 10
2.314960629921259
 20
4.310039370078739
 30
0.0
  0
VERTEX
  5
31EB
330
2C44
100
AcDbEntity
  8
0
100
AcDbVertex
100
AcDb2dVertex
 10
2.308070866141732
 20
4.316929133858267
 30
0.0
  0
VERTEX
  5
31EC
330
2C44
100
AcDbEntity
  8
0
100
AcDbVertex
100
AcDb2dVertex
 10
2.30511811023622
 20
4.319881889763779
 30
0.0
  0
SEQEND
  5
31ED
330
2C44
100
AcDbEntity
  8
0
  0
POLYLINE
  5
2C49
330
1E
100
AcDbEntity
  8
0
100
AcDb2dPolyline
 66
     1
 10
0.0
 20
0.0
 30
0.0
  0
VERTEX
  5
31EE
330
2C49
100
AcDbEntity
  8
0
100
AcDbVertex
100
AcDb2dVertex
 10
2.521653543307086
 20
4.274606299212598
 30
0.0
  0
VERTEX
  5
31EF
330
2C49
100
AcDbEntity
  8
0
100
AcDbVertex
100
AcDb2dVertex
 10
2.514763779527558
 20
4.27755905511811
 30
0.0
  0
VERTEX
  5
31F0
330
2C49
100
AcDbEntity
  8
0
100
AcDbVertex
100
AcDb2dVertex
 10
2.511811023622047
 20
4.284448818897637
 30
0.0
  0
SEQEND
  5
31F1
330
2C49
100
AcDbEntity
  8
0
  0
POLYLINE
  5
2C4E
330
1E
100
AcDbEntity
  8
0
100
AcDb2dPolyline
 66
     1
 10
0.0
 20
0.0
 30
0.0
  0
VERTEX
  5
31F2
330
2C4E
100
AcDbEntity
  8
0
100
AcDbVertex
100
AcDb2dVertex
 10
2.30511811023622
 20
4.274606299212598
 30
0.0
  0
VERTEX
  5
31F3
330
2C4E
100
AcDbEntity
  8
0
100
AcDbVertex
100
AcDb2dVertex
 10
2.308070866141732
 20
4.27755905511811
 30
0.0
  0
VERTEX
  5
31F4
330
2C4E
100
AcDbEntity
  8
0
100
AcDbVertex
100
AcDb2dVertex
 10
2.314960629921259
 20
4.284448818897637
 30
0.0
  0
SEQEND
  5
31F5
330
2C4E
100
AcDbEntity
  8
0
  0
LINE
  5
2C53
330
1E
100
AcDbEntity
  8
0
100
AcDbLine
 10
2.524606299212598
 20
4.310039370078739
 30
0.0
 11
2.524606299212598
 21
4.284448818897637
 31
0.0
  0
LINE
  5
2C54
330
1E
100
AcDbEntity
  8
0
100
AcDbLine
 10
2.524606299212598
 20
4.284448818897637
 30
0.0
 11
2.666338582677165
 21
4.284448818897637
 31
0.0
  0
LINE
  5
2C55
330
1E
100
AcDbEntity
  8
0
100
AcDbLine
 10
2.666338582677165
 20
4.284448818897637
 30
0.0
 11
2.666338582677165
 21
4.310039370078739
 31
0.0
  0
LINE
  5
2C56
330
1E
100
AcDbEntity
  8
0
100
AcDbLine
 10
2.666338582677165
 20
4.310039370078739
 30
0.0
 11
2.524606299212598
 21
4.310039370078739
 31
0.0
  0
LINE
  5
2C57
330
1E
100
AcDbEntity
  8
0
100
AcDbLine
 10
2.679133858267716
 20
4.310039370078739
 30
0.0
 11
2.676181102362204
 21
4.310039370078739
 31
0.0
  0
LINE
  5
2C58
330
1E
100
AcDbEntity
  8
0
100
AcDbLine
 10
2.676181102362204
 20
4.310039370078739
 30
0.0
 11
2.676181102362204
 21
4.284448818897637
 31
0.0
  0
LINE
  5
2C59
330
1E
100
AcDbEntity
  8
0
100
AcDbLine
 10
2.676181102362204
 20
4.284448818897637
 30
0.0
 11
2.679133858267716
 21
4.284448818897637
 31
0.0
  0
LINE
  5
2C5A
330
1E
100
AcDbEntity
  8
0
100
AcDbLine
 10
2.511811023622047
 20
4.284448818897637
 30
0.0
 11
2.514763779527558
 21
4.284448818897637
 31
0.0
  0
LINE
  5
2C5B
330
1E
100
AcDbEntity
  8
0
100
AcDbLine
 10
2.514763779527558
 20
4.284448818897637
 30
0.0
 11
2.514763779527558
 21
4.310039370078739
 31
0.0
  0
LINE
  5
2C5C
330
1E
100
AcDbEntity
  8
0
100
AcDbLine
 10
2.514763779527558
 20
4.310039370078739
 30
0.0
 11
2.511811023622047
 21
4.310039370078739
 31
0.0
  0
POLYLINE
  5
2C5D
330
1E
100
AcDbEntity
  8
0
100
AcDb2dPolyline
 66
     1
 10
0.0
 20
0.0
 30
0.0
  0
VERTEX
  5
31F6
330
2C5D
100
AcDbEntity
  8
0
100
AcDbVertex
100
AcDb2dVertex
 10
2.676181102362204
 20
4.284448818897637
 30
0.0
  0
VERTEX
  5
31F7
330
2C5D
100
AcDbEntity
  8
0
100
AcDbVertex
100
AcDb2dVertex
 10
2.673228346456693
 20
4.27755905511811
 30
0.0
  0
VERTEX
  5
31F8
330
2C5D
100
AcDbEntity
  8
0
100
AcDbVertex
100
AcDb2dVertex
 10
2.666338582677165
 20
4.274606299212598
 30
0.0
  0
SEQEND
  5
31F9
330
2C5D
100
AcDbEntity
  8
0
  0
POLYLINE
  5
2C62
330
1E
100
AcDbEntity
  8
0
100
AcDb2dPolyline
 66
     1
 10
0.0
 20
0.0
 30
0.0
  0
VERTEX
  5
31FA
330
2C62
100
AcDbEntity
  8
0
100
AcDbVertex
100
AcDb2dVertex
 10
2.666338582677165
 20
4.319881889763779
 30
0.0
  0
VERTEX
  5
31FB
330
2C62
100
AcDbEntity
  8
0
100
AcDbVertex
100
AcDb2dVertex
 10
2.673228346456693
 20
4.316929133858267
 30
0.0
  0
VERTEX
  5
31FC
330
2C62
100
AcDbEntity
  8
0
100
AcDbVertex
100
AcDb2dVertex
 10
2.676181102362204
 20
4.310039370078739
 30
0.0
  0
SEQEND
  5
31FD
330
2C62
100
AcDbEntity
  8
0
  0
POLYLINE
  5
2C67
330
1E
100
AcDbEntity
  8
0
100
AcDb2dPolyline
 66
     1
 10
0.0
 20
0.0
 30
0.0
  0
VERTEX
  5
31FE
330
2C67
100
AcDbEntity
  8
0
100
AcDbVertex
100
AcDb2dVertex
 10
2.514763779527558
 20
4.310039370078739
 30
0.0
  0
VERTEX
  5
31FF
330
2C67
100
AcDbEntity
  8
0
100
AcDbVertex
100
AcDb2dVertex
 10
2.51771653543307
 20
4.316929133858267
 30
0.0
  0
VERTEX
  5
3200
330
2C67
100
AcDbEntity
  8
0
100
AcDbVertex
100
AcDb2dVertex
 10
2.524606299212598
 20
4.319881889763779
 30
0.0
  0
SEQEND
  5
3201
330
2C67
100
AcDbEntity
  8
0
  0
POLYLINE
  5
2C6C
330
1E
100
AcDbEntity
  8
0
100
AcDb2dPolyline
 66
     1
 10
0.0
 20
0.0
 30
0.0
  0
VERTEX
  5
3202
330
2C6C
100
AcDbEntity
  8
0
100
AcDbVertex
100
AcDb2dVertex
 10
2.524606299212598
 20
4.274606299212598
 30
0.0
  0
VERTEX
  5
3203
330
2C6C
100
AcDbEntity
  8
0
100
AcDbVertex
100
AcDb2dVertex
 10
2.51771653543307
 20
4.27755905511811
 30
0.0
  0
VERTEX
  5
3204
330
2C6C
100
AcDbEntity
  8
0
100
AcDbVertex
100
AcDb2dVertex
 10
2.514763779527558
 20
4.284448818897637
 30
0.0
  0
SEQEND
  5
3205
330
2C6C
100
AcDbEntity
  8
0
  0
POLYLINE
  5
2C71
330
1E
100
AcDbEntity
  8
0
100
AcDb2dPolyline
 66
     1
 10
0.0
 20
0.0
 30
0.0
  0
VERTEX
  5
3206
330
2C71
100
AcDbEntity
  8
0
100
AcDbVertex
100
AcDb2dVertex
 10
2.666338582677165
 20
4.319881889763779
 30
0.0
  0
VERTEX
  5
3207
330
2C71
100
AcDbEntity
  8
0
100
AcDbVertex
100
AcDb2dVertex
 10
2.666338582677165
 20
4.316929133858267
 30
0.0
  0
VERTEX
  5
3208
330
2C71
100
AcDbEntity
  8
0
100
AcDbVertex
100
AcDb2dVertex
 10
2.666338582677165
 20
4.310039370078739
 30
0.0
  0
SEQEND
  5
3209
330
2C71
100
AcDbEntity
  8
0
  0
POLYLINE
  5
2C76
330
1E
100
AcDbEntity
  8
0
100
AcDb2dPolyline
 66
     1
 10
0.0
 20
0.0
 30
0.0
  0
VERTEX
  5
320A
330
2C76
100
AcDbEntity
  8
0
100
AcDbVertex
100
AcDb2dVertex
 10
2.524606299212598
 20
4.310039370078739
 30
0.0
  0
VERTEX
  5
320B
330
2C76
100
AcDbEntity
  8
0
100
AcDbVertex
100
AcDb2dVertex
 10
2.524606299212598
 20
4.316929133858267
 30
0.0
  0
VERTEX
  5
320C
330
2C76
100
AcDbEntity
  8
0
100
AcDbVertex
100
AcDb2dVertex
 10
2.524606299212598
 20
4.319881889763779
 30
0.0
  0
SEQEND
  5
320D
330
2C76
100
AcDbEntity
  8
0
  0
POLYLINE
  5
2C7B
330
1E
100
AcDbEntity
  8
0
100
AcDb2dPolyline
 66
     1
 10
0.0
 20
0.0
 30
0.0
  0
VERTEX
  5
320E
330
2C7B
100
AcDbEntity
  8
0
100
AcDbVertex
100
AcDb2dVertex
 10
2.524606299212598
 20
4.310039370078739
 30
0.0
  0
VERTEX
  5
320F
330
2C7B
100
AcDbEntity
  8
0
100
AcDbVertex
100
AcDb2dVertex
 10
2.51771653543307
 20
4.310039370078739
 30
0.0
  0
VERTEX
  5
3210
330
2C7B
100
AcDbEntity
  8
0
100
AcDbVertex
100
AcDb2dVertex
 10
2.514763779527558
 20
4.310039370078739
 30
0.0
  0
SEQEND
  5
3211
330
2C7B
100
AcDbEntity
  8
0
  0
POLYLINE
  5
2C80
330
1E
100
AcDbEntity
  8
0
100
AcDb2dPolyline
 66
     1
 10
0.0
 20
0.0
 30
0.0
  0
VERTEX
  5
3212
330
2C80
100
AcDbEntity
  8
0
100
AcDbVertex
100
AcDb2dVertex
 10
2.676181102362204
 20
4.310039370078739
 30
0.0
  0
VERTEX
  5
3213
330
2C80
100
AcDbEntity
  8
0
100
AcDbVertex
100
AcDb2dVertex
 10
2.673228346456693
 20
4.310039370078739
 30
0.0
  0
VERTEX
  5
3214
330
2C80
100
AcDbEntity
  8
0
100
AcDbVertex
100
AcDb2dVertex
 10
2.666338582677165
 20
4.310039370078739
 30
0.0
  0
SEQEND
  5
3215
330
2C80
100
AcDbEntity
  8
0
  0
POLYLINE
  5
2C85
330
1E
100
AcDbEntity
  8
0
100
AcDb2dPolyline
 66
     1
 10
0.0
 20
0.0
 30
0.0
  0
VERTEX
  5
3216
330
2C85
100
AcDbEntity
  8
0
100
AcDbVertex
100
AcDb2dVertex
 10
2.524606299212598
 20
4.284448818897637
 30
0.0
  0
VERTEX
  5
3217
330
2C85
100
AcDbEntity
  8
0
100
AcDbVertex
100
AcDb2dVertex
 10
2.51771653543307
 20
4.284448818897637
 30
0.0
  0
VERTEX
  5
3218
330
2C85
100
AcDbEntity
  8
0
100
AcDbVertex
100
AcDb2dVertex
 10
2.514763779527558
 20
4.284448818897637
 30
0.0
  0
SEQEND
  5
3219
330
2C85
100
AcDbEntity
  8
0
  0
POLYLINE
  5
2C8A
330
1E
100
AcDbEntity
  8
0
100
AcDb2dPolyline
 66
     1
 10
0.0
 20
0.0
 30
0.0
  0
VERTEX
  5
321A
330
2C8A
100
AcDbEntity
  8
0
100
AcDbVertex
100
AcDb2dVertex
 10
2.676181102362204
 20
4.284448818897637
 30
0.0
  0
VERTEX
  5
321B
330
2C8A
100
AcDbEntity
  8
0
100
AcDbVertex
100
AcDb2dVertex
 10
2.673228346456693
 20
4.284448818897637
 30
0.0
  0
VERTEX
  5
321C
330
2C8A
100
AcDbEntity
  8
0
100
AcDbVertex
100
AcDb2dVertex
 10
2.666338582677165
 20
4.284448818897637
 30
0.0
  0
SEQEND
  5
321D
330
2C8A
100
AcDbEntity
  8
0
  0
POLYLINE
  5
2C8F
330
1E
100
AcDbEntity
  8
0
100
AcDb2dPolyline
 66
     1
 10
0.0
 20
0.0
 30
0.0
  0
VERTEX
  5
321E
330
2C8F
100
AcDbEntity
  8
0
100
AcDbVertex
100
AcDb2dVertex
 10
2.524606299212598
 20
4.284448818897637
 30
0.0
  0
VERTEX
  5
321F
330
2C8F
100
AcDbEntity
  8
0
100
AcDbVertex
100
AcDb2dVertex
 10
2.524606299212598
 20
4.27755905511811
 30
0.0
  0
VERTEX
  5
3220
330
2C8F
100
AcDbEntity
  8
0
100
AcDbVertex
100
AcDb2dVertex
 10
2.524606299212598
 20
4.274606299212598
 30
0.0
  0
SEQEND
  5
3221
330
2C8F
100
AcDbEntity
  8
0
  0
POLYLINE
  5
2C94
330
1E
100
AcDbEntity
  8
0
100
AcDb2dPolyline
 66
     1
 10
0.0
 20
0.0
 30
0.0
  0
VERTEX
  5
3222
330
2C94
100
AcDbEntity
  8
0
100
AcDbVertex
100
AcDb2dVertex
 10
2.666338582677165
 20
4.274606299212598
 30
0.0
  0
VERTEX
  5
3223
330
2C94
100
AcDbEntity
  8
0
100
AcDbVertex
100
AcDb2dVertex
 10
2.666338582677165
 20
4.27755905511811
 30
0.0
  0
VERTEX
  5
3224
330
2C94
100
AcDbEntity
  8
0
100
AcDbVertex
100
AcDb2dVertex
 10
2.666338582677165
 20
4.284448818897637
 30
0.0
  0
SEQEND
  5
3225
330
2C94
100
AcDbEntity
  8
0
  0
LINE
  5
2C99
330
1E
100
AcDbEntity
  8
0
100
AcDbLine
 10
2.914370078740157
 20
4.542322834645669
 30
0.0
 11
2.275590551181102
 21
4.542322834645669
 31
0.0
  0
LINE
  5
2C9A
330
1E
100
AcDbEntity
  8
0
100
AcDbLine
 10
5.996062992125984
 20
4.40255905511811
 30
0.0
 11
6.080708661417323
 21
4.353346456692912
 31
0.0
  0
LINE
  5
2C9B
330
1E
100
AcDbEntity
  8
0
100
AcDbLine
 10
5.112204724409449
 20
4.955708661417323
 30
0.0
 11
5.11023622047244
 21
4.955708661417323
 31
0.0
  0
LINE
  5
2C9C
330
1E
100
AcDbEntity
  8
0
100
AcDbLine
 10
5.190944881889763
 20
4.955708661417323
 30
0.0
 11
5.154527559055117
 21
4.955708661417323
 31
0.0
  0
LINE
  5
2C9D
330
1E
100
AcDbEntity
  8
0
100
AcDbLine
 10
5.12007874015748
 20
4.955708661417323
 30
0.0
 11
5.100393700787401
 21
4.955708661417323
 31
0.0
  0
LINE
  5
2C9E
330
1E
100
AcDbEntity
  8
0
100
AcDbLine
 10
5.127952755905512
 20
4.955708661417323
 30
0.0
 11
5.127952755905512
 21
4.955708661417323
 31
0.0
  0
LINE
  5
2C9F
330
1E
100
AcDbEntity
  8
0
100
AcDbLine
 10
5.127952755905512
 20
4.955708661417323
 30
0.0
 11
5.173228346456692
 21
4.955708661417323
 31
0.0
  0
LINE
  5
2CA0
330
1E
100
AcDbEntity
  8
0
100
AcDbLine
 10
5.157480314960629
 20
4.955708661417323
 30
0.0
 11
5.157480314960629
 21
4.955708661417323
 31
0.0
  0
LINE
  5
2CA1
330
1E
100
AcDbEntity
  8
0
100
AcDbLine
 10
5.11023622047244
 20
4.955708661417323
 30
0.0
 11
5.11023622047244
 21
4.955708661417323
 31
0.0
  0
LINE
  5
2CA2
330
1E
100
AcDbEntity
  8
0
100
AcDbLine
 10
5.15255905511811
 20
4.955708661417323
 30
0.0
 11
5.169291338582676
 21
4.955708661417323
 31
0.0
  0
LINE
  5
2CA3
330
1E
100
AcDbEntity
  8
0
100
AcDbLine
 10
5.15255905511811
 20
4.955708661417323
 30
0.0
 11
5.127952755905512
 21
4.955708661417323
 31
0.0
  0
LINE
  5
2CA4
330
1E
100
AcDbEntity
  8
0
100
AcDbLine
 10
5.11023622047244
 20
4.955708661417323
 30
0.0
 11
5.100393700787401
 21
4.955708661417323
 31
0.0
  0
LINE
  5
2CA5
330
1E
100
AcDbEntity
  8
0
100
AcDbLine
 10
5.12007874015748
 20
4.955708661417323
 30
0.0
 11
5.118110236220472
 21
4.955708661417323
 31
0.0
  0
LINE
  5
2CA6
330
1E
100
AcDbEntity
  8
0
100
AcDbLine
 10
5.12007874015748
 20
4.955708661417323
 30
0.0
 11
5.12007874015748
 21
4.955708661417323
 31
0.0
  0
LINE
  5
2CA7
330
1E
100
AcDbEntity
  8
0
100
AcDbLine
 10
5.122047244094487
 20
4.955708661417323
 30
0.0
 11
5.187007874015748
 21
4.955708661417323
 31
0.0
  0
LINE
  5
2CA8
330
1E
100
AcDbEntity
  8
0
100
AcDbLine
 10
5.172244094488188
 20
4.955708661417323
 30
0.0
 11
5.187007874015748
 21
4.955708661417323
 31
0.0
  0
LINE
  5
2CA9
330
1E
100
AcDbEntity
  8
0
100
AcDbLine
 10
5.190944881889763
 20
4.955708661417323
 30
0.0
 11
5.154527559055117
 21
4.955708661417323
 31
0.0
  0
LINE
  5
2CAA
330
1E
100
AcDbEntity
  8
0
100
AcDbLine
 10
5.118110236220472
 20
4.955708661417323
 30
0.0
 11
5.112204724409449
 21
4.955708661417323
 31
0.0
  0
POLYLINE
  5
2CAB
330
1E
100
AcDbEntity
  8
0
100
AcDb2dPolyline
 66
     1
 10
0.0
 20
0.0
 30
0.0
  0
VERTEX
  5
3226
330
2CAB
100
AcDbEntity
  8
0
100
AcDbVertex
100
AcDb2dVertex
 10
5.187007874015748
 20
4.955708661417323
 30
0.0
  0
VERTEX
  5
3227
330
2CAB
100
AcDbEntity
  8
0
100
AcDbVertex
100
AcDb2dVertex
 10
5.18011811023622
 20
4.955708661417323
 30
0.0
  0
VERTEX
  5
3228
330
2CAB
100
AcDbEntity
  8
0
100
AcDbVertex
100
AcDb2dVertex
 10
5.169291338582676
 20
4.955708661417323
 30
0.0
  0
SEQEND
  5
3229
330
2CAB
100
AcDbEntity
  8
0
  0
POLYLINE
  5
2CB0
330
1E
100
AcDbEntity
  8
0
100
AcDb2dPolyline
 66
     1
 10
0.0
 20
0.0
 30
0.0
  0
VERTEX
  5
322A
330
2CB0
100
AcDbEntity
  8
0
100
AcDbVertex
100
AcDb2dVertex
 10
5.154527559055117
 20
4.955708661417323
 30
0.0
  0
VERTEX
  5
322B
330
2CB0
100
AcDbEntity
  8
0
100
AcDbVertex
100
AcDb2dVertex
 10
5.145669291338582
 20
4.955708661417323
 30
0.0
  0
VERTEX
  5
322C
330
2CB0
100
AcDbEntity
  8
0
100
AcDbVertex
100
AcDb2dVertex
 10
5.154527559055117
 20
4.955708661417323
 30
0.0
  0
SEQEND
  5
322D
330
2CB0
100
AcDbEntity
  8
0
  0
POLYLINE
  5
2CB5
330
1E
100
AcDbEntity
  8
0
100
AcDb2dPolyline
 66
     1
 10
0.0
 20
0.0
 30
0.0
  0
VERTEX
  5
322E
330
2CB5
100
AcDbEntity
  8
0
100
AcDbVertex
100
AcDb2dVertex
 10
5.18996062992126
 20
4.955708661417323
 30
0.0
  0
VERTEX
  5
322F
330
2CB5
100
AcDbEntity
  8
0
100
AcDbVertex
100
AcDb2dVertex
 10
5.202755905511811
 20
4.955708661417323
 30
0.0
  0
VERTEX
  5
3230
330
2CB5
100
AcDbEntity
  8
0
100
AcDbVertex
100
AcDb2dVertex
 10
5.20767716535433
 20
4.955708661417323
 30
0.0
  0
VERTEX
  5
3231
330
2CB5
100
AcDbEntity
  8
0
100
AcDbVertex
100
AcDb2dVertex
 10
5.204724409448818
 20
4.955708661417323
 30
0.0
  0
VERTEX
  5
3232
330
2CB5
100
AcDbEntity
  8
0
100
AcDbVertex
100
AcDb2dVertex
 10
5.193897637795275
 20
4.955708661417323
 30
0.0
  0
VERTEX
  5
3233
330
2CB5
100
AcDbEntity
  8
0
100
AcDbVertex
100
AcDb2dVertex
 10
5.177165354330708
 20
4.955708661417323
 30
0.0
  0
VERTEX
  5
3234
330
2CB5
100
AcDbEntity
  8
0
100
AcDbVertex
100
AcDb2dVertex
 10
5.157480314960629
 20
4.955708661417323
 30
0.0
  0
VERTEX
  5
3235
330
2CB5
100
AcDbEntity
  8
0
100
AcDbVertex
100
AcDb2dVertex
 10
5.13779527559055
 20
4.955708661417323
 30
0.0
  0
VERTEX
  5
3236
330
2CB5
100
AcDbEntity
  8
0
100
AcDbVertex
100
AcDb2dVertex
 10
5.121062992125984
 20
4.955708661417323
 30
0.0
  0
VERTEX
  5
3237
330
2CB5
100
AcDbEntity
  8
0
100
AcDbVertex
100
AcDb2dVertex
 10
5.11023622047244
 20
4.955708661417323
 30
0.0
  0
VERTEX
  5
3238
330
2CB5
100
AcDbEntity
  8
0
100
AcDbVertex
100
AcDb2dVertex
 10
5.107283464566928
 20
4.955708661417323
 30
0.0
  0
VERTEX
  5
3239
330
2CB5
100
AcDbEntity
  8
0
100
AcDbVertex
100
AcDb2dVertex
 10
5.112204724409449
 20
4.955708661417323
 30
0.0
  0
VERTEX
  5
323A
330
2CB5
100
AcDbEntity
  8
0
100
AcDbVertex
100
AcDb2dVertex
 10
5.125
 20
4.955708661417323
 30
0.0
  0
SEQEND
  5
323B
330
2CB5
100
AcDbEntity
  8
0
  0
POLYLINE
  5
2CC4
330
1E
100
AcDbEntity
  8
0
100
AcDb2dPolyline
 66
     1
 10
0.0
 20
0.0
 30
0.0
  0
VERTEX
  5
323C
330
2CC4
100
AcDbEntity
  8
0
100
AcDbVertex
100
AcDb2dVertex
 10
5.157480314960629
 20
4.955708661417323
 30
0.0
  0
VERTEX
  5
323D
330
2CC4
100
AcDbEntity
  8
0
100
AcDbVertex
100
AcDb2dVertex
 10
5.178149606299212
 20
4.955708661417323
 30
0.0
  0
VERTEX
  5
323E
330
2CC4
100
AcDbEntity
  8
0
100
AcDbVertex
100
AcDb2dVertex
 10
5.195866141732283
 20
4.955708661417323
 30
0.0
  0
VERTEX
  5
323F
330
2CC4
100
AcDbEntity
  8
0
100
AcDbVertex
100
AcDb2dVertex
 10
5.20767716535433
 20
4.955708661417323
 30
0.0
  0
VERTEX
  5
3240
330
2CC4
100
AcDbEntity
  8
0
100
AcDbVertex
100
AcDb2dVertex
 10
5.211614173228346
 20
4.955708661417323
 30
0.0
  0
VERTEX
  5
3241
330
2CC4
100
AcDbEntity
  8
0
100
AcDbVertex
100
AcDb2dVertex
 10
5.20767716535433
 20
4.955708661417323
 30
0.0
  0
VERTEX
  5
3242
330
2CC4
100
AcDbEntity
  8
0
100
AcDbVertex
100
AcDb2dVertex
 10
5.195866141732283
 20
4.955708661417323
 30
0.0
  0
VERTEX
  5
3243
330
2CC4
100
AcDbEntity
  8
0
100
AcDbVertex
100
AcDb2dVertex
 10
5.178149606299212
 20
4.955708661417323
 30
0.0
  0
VERTEX
  5
3244
330
2CC4
100
AcDbEntity
  8
0
100
AcDbVertex
100
AcDb2dVertex
 10
5.157480314960629
 20
4.955708661417323
 30
0.0
  0
VERTEX
  5
3245
330
2CC4
100
AcDbEntity
  8
0
100
AcDbVertex
100
AcDb2dVertex
 10
5.136811023622047
 20
4.955708661417323
 30
0.0
  0
VERTEX
  5
3246
330
2CC4
100
AcDbEntity
  8
0
100
AcDbVertex
100
AcDb2dVertex
 10
5.119094488188975
 20
4.955708661417323
 30
0.0
  0
VERTEX
  5
3247
330
2CC4
100
AcDbEntity
  8
0
100
AcDbVertex
100
AcDb2dVertex
 10
5.107283464566928
 20
4.955708661417323
 30
0.0
  0
VERTEX
  5
3248
330
2CC4
100
AcDbEntity
  8
0
100
AcDbVertex
100
AcDb2dVertex
 10
5.103346456692912
 20
4.955708661417323
 30
0.0
  0
VERTEX
  5
3249
330
2CC4
100
AcDbEntity
  8
0
100
AcDbVertex
100
AcDb2dVertex
 10
5.107283464566928
 20
4.955708661417323
 30
0.0
  0
VERTEX
  5
324A
330
2CC4
100
AcDbEntity
  8
0
100
AcDbVertex
100
AcDb2dVertex
 10
5.119094488188975
 20
4.955708661417323
 30
0.0
  0
VERTEX
  5
324B
330
2CC4
100
AcDbEntity
  8
0
100
AcDbVertex
100
AcDb2dVertex
 10
5.136811023622047
 20
4.955708661417323
 30
0.0
  0
VERTEX
  5
324C
330
2CC4
100
AcDbEntity
  8
0
100
AcDbVertex
100
AcDb2dVertex
 10
5.157480314960629
 20
4.955708661417323
 30
0.0
  0
SEQEND
  5
324D
330
2CC4
100
AcDbEntity
  8
0
  0
POLYLINE
  5
2CD7
330
1E
100
AcDbEntity
  8
0
100
AcDb2dPolyline
 66
     1
 10
0.0
 20
0.0
 30
0.0
  0
VERTEX
  5
324E
330
2CD7
100
AcDbEntity
  8
0
100
AcDbVertex
100
AcDb2dVertex
 10
5.149606299212598
 20
4.955708661417323
 30
0.0
  0
VERTEX
  5
324F
330
2CD7
100
AcDbEntity
  8
0
100
AcDbVertex
100
AcDb2dVertex
 10
5.135826771653543
 20
4.955708661417323
 30
0.0
  0
VERTEX
  5
3250
330
2CD7
100
AcDbEntity
  8
0
100
AcDbVertex
100
AcDb2dVertex
 10
5.127952755905512
 20
4.955708661417323
 30
0.0
  0
SEQEND
  5
3251
330
2CD7
100
AcDbEntity
  8
0
  0
POLYLINE
  5
2CDC
330
1E
100
AcDbEntity
  8
0
100
AcDb2dPolyline
 66
     1
 10
0.0
 20
0.0
 30
0.0
  0
VERTEX
  5
3252
330
2CDC
100
AcDbEntity
  8
0
100
AcDbVertex
100
AcDb2dVertex
 10
5.11023622047244
 20
4.955708661417323
 30
0.0
  0
VERTEX
  5
3253
330
2CDC
100
AcDbEntity
  8
0
100
AcDbVertex
100
AcDb2dVertex
 10
5.122047244094487
 20
4.955708661417323
 30
0.0
  0
VERTEX
  5
3254
330
2CDC
100
AcDbEntity
  8
0
100
AcDbVertex
100
AcDb2dVertex
 10
5.127952755905512
 20
4.955708661417323
 30
0.0
  0
VERTEX
  5
3255
330
2CDC
100
AcDbEntity
  8
0
100
AcDbVertex
100
AcDb2dVertex
 10
5.125984251968503
 20
4.955708661417323
 30
0.0
  0
VERTEX
  5
3256
330
2CDC
100
AcDbEntity
  8
0
100
AcDbVertex
100
AcDb2dVertex
 10
5.116141732283464
 20
4.955708661417323
 30
0.0
  0
VERTEX
  5
3257
330
2CDC
100
AcDbEntity
  8
0
100
AcDbVertex
100
AcDb2dVertex
 10
5.104330708661417
 20
4.955708661417323
 30
0.0
  0
VERTEX
  5
3258
330
2CDC
100
AcDbEntity
  8
0
100
AcDbVertex
100
AcDb2dVertex
 10
5.095472440944881
 20
4.955708661417323
 30
0.0
  0
VERTEX
  5
3259
330
2CDC
100
AcDbEntity
  8
0
100
AcDbVertex
100
AcDb2dVertex
 10
5.093503937007874
 20
4.955708661417323
 30
0.0
  0
VERTEX
  5
325A
330
2CDC
100
AcDbEntity
  8
0
100
AcDbVertex
100
AcDb2dVertex
 10
5.099409448818897
 20
4.955708661417323
 30
0.0
  0
VERTEX
  5
325B
330
2CDC
100
AcDbEntity
  8
0
100
AcDbVertex
100
AcDb2dVertex
 10
5.11023622047244
 20
4.955708661417323
 30
0.0
  0
SEQEND
  5
325C
330
2CDC
100
AcDbEntity
  8
0
  0
POLYLINE
  5
2CE8
330
1E
100
AcDbEntity
  8
0
100
AcDb2dPolyline
 66
     1
 10
0.0
 20
0.0
 30
0.0
  0
VERTEX
  5
325D
330
2CE8
100
AcDbEntity
  8
0
100
AcDbVertex
100
AcDb2dVertex
 10
5.136811023622047
 20
4.955708661417323
 30
0.0
  0
VERTEX
  5
325E
330
2CE8
100
AcDbEntity
  8
0
100
AcDbVertex
100
AcDb2dVertex
 10
5.155511811023622
 20
4.955708661417323
 30
0.0
  0
VERTEX
  5
325F
330
2CE8
100
AcDbEntity
  8
0
100
AcDbVertex
100
AcDb2dVertex
 10
5.174212598425197
 20
4.955708661417323
 30
0.0
  0
VERTEX
  5
3260
330
2CE8
100
AcDbEntity
  8
0
100
AcDbVertex
100
AcDb2dVertex
 10
5.187007874015748
 20
4.955708661417323
 30
0.0
  0
SEQEND
  5
3261
330
2CE8
100
AcDbEntity
  8
0
  0
LINE
  5
2CEE
330
1E
100
AcDbEntity
  8
0
100
AcDbLine
 10
4.741141732283464
 20
4.903543307086613
 30
0.0
 11
4.741141732283464
 21
4.903543307086613
 31
0.0
  0
LINE
  5
2CEF
330
1E
100
AcDbEntity
  8
0
100
AcDbLine
 10
4.741141732283464
 20
4.903543307086613
 30
0.0
 11
4.741141732283464
 21
5.002952755905512
 31
0.0
  0
LINE
  5
2CF0
330
1E
100
AcDbEntity
  8
0
100
AcDbLine
 10
4.741141732283464
 20
5.002952755905512
 30
0.0
 11
4.741141732283464
 21
4.903543307086613
 31
0.0
  0
LINE
  5
2CF1
330
1E
100
AcDbEntity
  8
0
100
AcDbLine
 10
4.741141732283464
 20
4.923228346456692
 30
0.0
 11
4.741141732283464
 21
4.903543307086613
 31
0.0
  0
LINE
  5
2CF2
330
1E
100
AcDbEntity
  8
0
100
AcDbLine
 10
4.741141732283464
 20
4.963582677165354
 30
0.0
 11
4.741141732283464
 21
4.963582677165354
 31
0.0
  0
LINE
  5
2CF3
330
1E
100
AcDbEntity
  8
0
100
AcDbLine
 10
4.741141732283464
 20
4.963582677165354
 30
0.0
 11
4.741141732283464
 21
4.943897637795275
 31
0.0
  0
LINE
  5
2CF4
330
1E
100
AcDbEntity
  8
0
100
AcDbLine
 10
4.741141732283464
 20
4.923228346456692
 30
0.0
 11
4.741141732283464
 21
4.903543307086613
 31
0.0
  0
LINE
  5
2CF5
330
1E
100
AcDbEntity
  8
0
100
AcDbLine
 10
4.741141732283464
 20
5.002952755905512
 30
0.0
 11
4.741141732283464
 21
4.903543307086613
 31
0.0
  0
LINE
  5
2CF6
330
1E
100
AcDbEntity
  8
0
100
AcDbLine
 10
4.741141732283464
 20
5.002952755905512
 30
0.0
 11
4.741141732283464
 21
4.903543307086613
 31
0.0
  0
LINE
  5
2CF7
330
1E
100
AcDbEntity
  8
0
100
AcDbLine
 10
4.741141732283464
 20
5.002952755905512
 30
0.0
 11
4.741141732283464
 21
4.903543307086613
 31
0.0
  0
LINE
  5
2CF8
330
1E
100
AcDbEntity
  8
0
100
AcDbLine
 10
4.741141732283464
 20
4.943897637795275
 30
0.0
 11
4.741141732283464
 21
4.963582677165354
 31
0.0
  0
LINE
  5
2CF9
330
1E
100
AcDbEntity
  8
0
100
AcDbLine
 10
4.741141732283464
 20
4.923228346456692
 30
0.0
 11
4.741141732283464
 21
4.983267716535433
 31
0.0
  0
LINE
  5
2CFA
330
1E
100
AcDbEntity
  8
0
100
AcDbLine
 10
4.741141732283464
 20
4.983267716535433
 30
0.0
 11
4.741141732283464
 21
5.002952755905512
 31
0.0
  0
LINE
  5
2CFB
330
1E
100
AcDbEntity
  8
0
100
AcDbLine
 10
4.741141732283464
 20
4.903543307086613
 30
0.0
 11
4.741141732283464
 21
4.923228346456692
 31
0.0
  0
LINE
  5
2CFC
330
1E
100
AcDbEntity
  8
0
100
AcDbLine
 10
4.741141732283464
 20
5.002952755905512
 30
0.0
 11
4.741141732283464
 21
5.002952755905512
 31
0.0
  0
LINE
  5
2CFD
330
1E
100
AcDbEntity
  8
0
100
AcDbLine
 10
4.741141732283464
 20
4.953740157480314
 30
0.0
 11
4.741141732283464
 21
4.953740157480314
 31
0.0
  0
LINE
  5
2CFE
330
1E
100
AcDbEntity
  8
0
100
AcDbLine
 10
4.741141732283464
 20
4.903543307086613
 30
0.0
 11
4.741141732283464
 21
4.903543307086613
 31
0.0
  0
LINE
  5
2CFF
330
1E
100
AcDbEntity
  8
0
100
AcDbLine
 10
4.741141732283464
 20
5.002952755905512
 30
0.0
 11
4.741141732283464
 21
4.903543307086613
 31
0.0
  0
LINE
  5
2D00
330
1E
100
AcDbEntity
  8
0
100
AcDbLine
 10
4.741141732283464
 20
4.983267716535433
 30
0.0
 11
4.741141732283464
 21
5.002952755905512
 31
0.0
  0
LINE
  5
2D01
330
1E
100
AcDbEntity
  8
0
100
AcDbLine
 10
4.741141732283464
 20
4.943897637795275
 30
0.0
 11
4.741141732283464
 21
4.923228346456692
 31
0.0
  0
LINE
  5
2D02
330
1E
100
AcDbEntity
  8
0
100
AcDbLine
 10
4.741141732283464
 20
4.903543307086613
 30
0.0
 11
4.741141732283464
 21
4.903543307086613
 31
0.0
  0
LINE
  5
2D03
330
1E
100
AcDbEntity
  8
0
100
AcDbLine
 10
4.741141732283464
 20
5.002952755905512
 30
0.0
 11
4.741141732283464
 21
5.002952755905512
 31
0.0
  0
LINE
  5
2D04
330
1E
100
AcDbEntity
  8
0
100
AcDbLine
 10
4.741141732283464
 20
5.002952755905512
 30
0.0
 11
4.741141732283464
 21
4.903543307086613
 31
0.0
  0
LINE
  5
2D05
330
1E
100
AcDbEntity
  8
0
100
AcDbLine
 10
4.741141732283464
 20
4.923228346456692
 30
0.0
 11
4.741141732283464
 21
4.983267716535433
 31
0.0
  0
LINE
  5
2D06
330
1E
100
AcDbEntity
  8
0
100
AcDbLine
 10
4.741141732283464
 20
4.903543307086613
 30
0.0
 11
4.741141732283464
 21
5.002952755905512
 31
0.0
  0
LINE
  5
2D07
330
1E
100
AcDbEntity
  8
0
100
AcDbLine
 10
4.741141732283464
 20
4.953740157480314
 30
0.0
 11
4.741141732283464
 21
4.953740157480314
 31
0.0
  0
LINE
  5
2D08
330
1E
100
AcDbEntity
  8
0
100
AcDbLine
 10
4.741141732283464
 20
4.903543307086613
 30
0.0
 11
4.741141732283464
 21
5.002952755905512
 31
0.0
  0
LINE
  5
2D09
330
1E
100
AcDbEntity
  8
0
100
AcDbLine
 10
4.741141732283464
 20
4.903543307086613
 30
0.0
 11
4.741141732283464
 21
4.923228346456692
 31
0.0
  0
LINE
  5
2D0A
330
1E
100
AcDbEntity
  8
0
100
AcDbLine
 10
4.741141732283464
 20
4.903543307086613
 30
0.0
 11
4.741141732283464
 21
5.002952755905512
 31
0.0
  0
LINE
  5
2D0B
330
1E
100
AcDbEntity
  8
0
100
AcDbLine
 10
4.741141732283464
 20
5.002952755905512
 30
0.0
 11
4.741141732283464
 21
5.002952755905512
 31
0.0
  0
LINE
  5
2D0C
330
1E
100
AcDbEntity
  8
0
100
AcDbLine
 10
4.741141732283464
 20
5.002952755905512
 30
0.0
 11
4.741141732283464
 21
4.983267716535433
 31
0.0
  0
LINE
  5
2D0D
330
1E
100
AcDbEntity
  8
0
100
AcDbLine
 10
5.176181102362204
 20
4.638779527559054
 30
0.0
 11
5.176181102362204
 21
4.613188976377952
 31
0.0
  0
LINE
  5
2D0E
330
1E
100
AcDbEntity
  8
0
100
AcDbLine
 10
5.176181102362204
 20
4.771653543307086
 30
0.0
 11
5.176181102362204
 21
4.771653543307086
 31
0.0
  0
LINE
  5
2D0F
330
1E
100
AcDbEntity
  8
0
100
AcDbLine
 10
5.176181102362204
 20
4.558070866141732
 30
0.0
 11
5.176181102362204
 21
4.548228346456692
 31
0.0
  0
LINE
  5
2D10
330
1E
100
AcDbEntity
  8
0
100
AcDbLine
 10
5.176181102362204
 20
4.553149606299212
 30
0.0
 11
5.176181102362204
 21
4.543307086614173
 31
0.0
  0
LINE
  5
2D11
330
1E
100
AcDbEntity
  8
0
100
AcDbLine
 10
5.176181102362204
 20
4.524606299212598
 30
0.0
 11
5.176181102362204
 21
4.515748031496062
 31
0.0
  0
LINE
  5
2D12
330
1E
100
AcDbEntity
  8
0
100
AcDbLine
 10
5.176181102362204
 20
4.524606299212598
 30
0.0
 11
5.176181102362204
 21
4.515748031496062
 31
0.0
  0
LINE
  5
2D13
330
1E
100
AcDbEntity
  8
0
100
AcDbLine
 10
5.176181102362204
 20
4.543307086614173
 30
0.0
 11
5.176181102362204
 21
4.553149606299212
 31
0.0
  0
LINE
  5
2D14
330
1E
100
AcDbEntity
  8
0
100
AcDbLine
 10
5.176181102362204
 20
4.710629921259842
 30
0.0
 11
5.176181102362204
 21
4.693897637795275
 31
0.0
  0
LINE
  5
2D15
330
1E
100
AcDbEntity
  8
0
100
AcDbLine
 10
5.176181102362204
 20
4.553149606299212
 30
0.0
 11
5.176181102362204
 21
4.544291338582676
 31
0.0
  0
LINE
  5
2D16
330
1E
100
AcDbEntity
  8
0
100
AcDbLine
 10
5.176181102362204
 20
4.710629921259842
 30
0.0
 11
5.176181102362204
 21
4.719488188976377
 31
0.0
  0
LINE
  5
2D17
330
1E
100
AcDbEntity
  8
0
100
AcDbLine
 10
5.176181102362204
 20
4.543307086614173
 30
0.0
 11
5.176181102362204
 21
4.524606299212598
 31
0.0
  0
LINE
  5
2D18
330
1E
100
AcDbEntity
  8
0
100
AcDbLine
 10
5.176181102362204
 20
4.780511811023622
 30
0.0
 11
5.176181102362204
 21
4.771653543307086
 31
0.0
  0
LINE
  5
2D19
330
1E
100
AcDbEntity
  8
0
100
AcDbLine
 10
5.176181102362204
 20
4.524606299212598
 30
0.0
 11
5.176181102362204
 21
4.543307086614173
 31
0.0
  0
LINE
  5
2D1A
330
1E
100
AcDbEntity
  8
0
100
AcDbLine
 10
5.176181102362204
 20
4.58267716535433
 30
0.0
 11
5.176181102362204
 21
4.58267716535433
 31
0.0
  0
LINE
  5
2D1B
330
1E
100
AcDbEntity
  8
0
100
AcDbLine
 10
5.176181102362204
 20
4.454724409448818
 30
0.0
 11
5.176181102362204
 21
4.454724409448818
 31
0.0
  0
LINE
  5
2D1C
330
1E
100
AcDbEntity
  8
0
100
AcDbLine
 10
5.176181102362204
 20
4.515748031496062
 30
0.0
 11
5.176181102362204
 21
4.524606299212598
 31
0.0
  0
LINE
  5
2D1D
330
1E
100
AcDbEntity
  8
0
100
AcDbLine
 10
5.176181102362204
 20
4.646653543307086
 30
0.0
 11
5.176181102362204
 21
4.628937007874015
 31
0.0
  0
LINE
  5
2D1E
330
1E
100
AcDbEntity
  8
0
100
AcDbLine
 10
5.176181102362204
 20
4.733267716535433
 30
0.0
 11
5.176181102362204
 21
4.715551181102362
 31
0.0
  0
LINE
  5
2D1F
330
1E
100
AcDbEntity
  8
0
100
AcDbLine
 10
5.176181102362204
 20
4.613188976377952
 30
0.0
 11
5.176181102362204
 21
4.638779527559054
 31
0.0
  0
LINE
  5
2D20
330
1E
100
AcDbEntity
  8
0
100
AcDbLine
 10
5.176181102362204
 20
4.604330708661417
 30
0.0
 11
5.176181102362204
 21
4.613188976377952
 31
0.0
  0
LINE
  5
2D21
330
1E
100
AcDbEntity
  8
0
100
AcDbLine
 10
5.176181102362204
 20
4.548228346456692
 30
0.0
 11
5.176181102362204
 21
4.548228346456692
 31
0.0
  0
LINE
  5
2D22
330
1E
100
AcDbEntity
  8
0
100
AcDbLine
 10
5.176181102362204
 20
4.660433070866141
 30
0.0
 11
5.176181102362204
 21
4.660433070866141
 31
0.0
  0
LINE
  5
2D23
330
1E
100
AcDbEntity
  8
0
100
AcDbLine
 10
5.176181102362204
 20
4.514763779527559
 30
0.0
 11
5.176181102362204
 21
4.505905511811023
 31
0.0
  0
LINE
  5
2D24
330
1E
100
AcDbEntity
  8
0
100
AcDbLine
 10
5.176181102362204
 20
4.693897637795275
 30
0.0
 11
5.176181102362204
 21
4.685039370078739
 31
0.0
  0
LINE
  5
2D25
330
1E
100
AcDbEntity
  8
0
100
AcDbLine
 10
5.176181102362204
 20
4.604330708661417
 30
0.0
 11
5.176181102362204
 21
4.604330708661417
 31
0.0
  0
LINE
  5
2D26
330
1E
100
AcDbEntity
  8
0
100
AcDbLine
 10
5.176181102362204
 20
4.664370078740157
 30
0.0
 11
5.176181102362204
 21
4.646653543307086
 31
0.0
  0
LINE
  5
2D27
330
1E
100
AcDbEntity
  8
0
100
AcDbLine
 10
5.176181102362204
 20
4.806102362204724
 30
0.0
 11
5.176181102362204
 21
4.780511811023622
 31
0.0
  0
LINE
  5
2D28
330
1E
100
AcDbEntity
  8
0
100
AcDbLine
 10
5.176181102362204
 20
4.719488188976377
 30
0.0
 11
5.176181102362204
 21
4.719488188976377
 31
0.0
  0
LINE
  5
2D29
330
1E
100
AcDbEntity
  8
0
100
AcDbLine
 10
5.176181102362204
 20
4.514763779527559
 30
0.0
 11
5.176181102362204
 21
4.505905511811023
 31
0.0
  0
LINE
  5
2D2A
330
1E
100
AcDbEntity
  8
0
100
AcDbLine
 10
5.176181102362204
 20
4.664370078740157
 30
0.0
 11
5.176181102362204
 21
4.664370078740157
 31
0.0
  0
LINE
  5
2D2B
330
1E
100
AcDbEntity
  8
0
100
AcDbLine
 10
5.176181102362204
 20
4.599409448818897
 30
0.0
 11
5.176181102362204
 21
4.581692913385826
 31
0.0
  0
LINE
  5
2D2C
330
1E
100
AcDbEntity
  8
0
100
AcDbLine
 10
5.176181102362204
 20
4.742125984251968
 30
0.0
 11
5.176181102362204
 21
4.724409448818897
 31
0.0
  0
LINE
  5
2D2D
330
1E
100
AcDbEntity
  8
0
100
AcDbLine
 10
5.176181102362204
 20
4.574803149606299
 30
0.0
 11
5.176181102362204
 21
4.558070866141732
 31
0.0
  0
LINE
  5
2D2E
330
1E
100
AcDbEntity
  8
0
100
AcDbLine
 10
5.176181102362204
 20
4.553149606299212
 30
0.0
 11
5.176181102362204
 21
4.553149606299212
 31
0.0
  0
LINE
  5
2D2F
330
1E
100
AcDbEntity
  8
0
100
AcDbLine
 10
5.176181102362204
 20
4.510826771653543
 30
0.0
 11
5.176181102362204
 21
4.509842519685038
 31
0.0
  0
LINE
  5
2D30
330
1E
100
AcDbEntity
  8
0
100
AcDbLine
 10
5.176181102362204
 20
4.771653543307086
 30
0.0
 11
5.176181102362204
 21
4.780511811023622
 31
0.0
  0
LINE
  5
2D31
330
1E
100
AcDbEntity
  8
0
100
AcDbLine
 10
5.176181102362204
 20
4.694881889763779
 30
0.0
 11
5.176181102362204
 21
4.694881889763779
 31
0.0
  0
LINE
  5
2D32
330
1E
100
AcDbEntity
  8
0
100
AcDbLine
 10
5.176181102362204
 20
4.693897637795275
 30
0.0
 11
5.176181102362204
 21
4.710629921259842
 31
0.0
  0
LINE
  5
2D33
330
1E
100
AcDbEntity
  8
0
100
AcDbLine
 10
5.176181102362204
 20
4.628937007874015
 30
0.0
 11
5.176181102362204
 21
4.628937007874015
 31
0.0
  0
LINE
  5
2D34
330
1E
100
AcDbEntity
  8
0
100
AcDbLine
 10
5.176181102362204
 20
4.590551181102362
 30
0.0
 11
5.176181102362204
 21
4.573818897637795
 31
0.0
  0
LINE
  5
2D35
330
1E
100
AcDbEntity
  8
0
100
AcDbLine
 10
5.176181102362204
 20
4.686023622047244
 30
0.0
 11
5.176181102362204
 21
4.693897637795275
 31
0.0
  0
LINE
  5
2D36
330
1E
100
AcDbEntity
  8
0
100
AcDbLine
 10
5.176181102362204
 20
4.608267716535433
 30
0.0
 11
5.176181102362204
 21
4.590551181102362
 31
0.0
  0
LINE
  5
2D37
330
1E
100
AcDbEntity
  8
0
100
AcDbLine
 10
5.176181102362204
 20
4.638779527559054
 30
0.0
 11
5.176181102362204
 21
4.638779527559054
 31
0.0
  0
LINE
  5
2D38
330
1E
100
AcDbEntity
  8
0
100
AcDbLine
 10
5.176181102362204
 20
4.515748031496062
 30
0.0
 11
5.176181102362204
 21
4.515748031496062
 31
0.0
  0
LINE
  5
2D39
330
1E
100
AcDbEntity
  8
0
100
AcDbLine
 10
5.176181102362204
 20
4.613188976377952
 30
0.0
 11
5.176181102362204
 21
4.604330708661417
 31
0.0
  0
LINE
  5
2D3A
330
1E
100
AcDbEntity
  8
0
100
AcDbLine
 10
5.176181102362204
 20
4.780511811023622
 30
0.0
 11
5.176181102362204
 21
4.806102362204724
 31
0.0
  0
LINE
  5
2D3B
330
1E
100
AcDbEntity
  8
0
100
AcDbLine
 10
5.176181102362204
 20
4.719488188976377
 30
0.0
 11
5.176181102362204
 21
4.710629921259842
 31
0.0
  0
LINE
  5
2D3C
330
1E
100
AcDbEntity
  8
0
100
AcDbLine
 10
5.176181102362204
 20
4.544291338582676
 30
0.0
 11
5.176181102362204
 21
4.524606299212598
 31
0.0
  0
LINE
  5
2D3D
330
1E
100
AcDbEntity
  8
0
100
AcDbLine
 10
5.176181102362204
 20
4.437007874015748
 30
0.0
 11
5.176181102362204
 21
4.471456692913386
 31
0.0
  0
LINE
  5
2D3E
330
1E
100
AcDbEntity
  8
0
100
AcDbLine
 10
5.176181102362204
 20
4.750984251968503
 30
0.0
 11
5.176181102362204
 21
4.733267716535433
 31
0.0
  0
LINE
  5
2D3F
330
1E
100
AcDbEntity
  8
0
100
AcDbLine
 10
5.176181102362204
 20
4.806102362204724
 30
0.0
 11
5.176181102362204
 21
4.806102362204724
 31
0.0
  0
LINE
  5
2D40
330
1E
100
AcDbEntity
  8
0
100
AcDbLine
 10
5.176181102362204
 20
4.58267716535433
 30
0.0
 11
5.176181102362204
 21
4.574803149606299
 31
0.0
  0
LINE
  5
2D41
330
1E
100
AcDbEntity
  8
0
100
AcDbLine
 10
5.176181102362204
 20
4.694881889763779
 30
0.0
 11
5.176181102362204
 21
4.660433070866141
 31
0.0
  0
LINE
  5
2D42
330
1E
100
AcDbEntity
  8
0
100
AcDbLine
 10
5.633858267716535
 20
4.190944881889763
 30
0.0
 11
5.633858267716535
 21
4.238188976377952
 31
0.0
  0
LINE
  5
2D43
330
1E
100
AcDbEntity
  8
0
100
AcDbLine
 10
5.633858267716535
 20
4.238188976377952
 30
0.0
 11
5.626968503937007
 21
4.239173228346456
 31
0.0
  0
LINE
  5
2D44
330
1E
100
AcDbEntity
  8
0
100
AcDbLine
 10
5.626968503937007
 20
4.239173228346456
 30
0.0
 11
5.562992125984251
 21
4.241141732283464
 31
0.0
  0
POLYLINE
  5
2D45
330
1E
100
AcDbEntity
  8
0
100
AcDb2dPolyline
 66
     1
 10
0.0
 20
0.0
 30
0.0
  0
VERTEX
  5
3262
330
2D45
100
AcDbEntity
  8
0
100
AcDbVertex
100
AcDb2dVertex
 10
5.562992125984251
 20
4.241141732283464
 30
0.0
  0
VERTEX
  5
3263
330
2D45
100
AcDbEntity
  8
0
100
AcDbVertex
100
AcDb2dVertex
 10
5.540354330708661
 20
4.24507874015748
 30
0.0
  0
VERTEX
  5
3264
330
2D45
100
AcDbEntity
  8
0
100
AcDbVertex
100
AcDb2dVertex
 10
5.520669291338582
 20
4.257874015748031
 30
0.0
  0
SEQEND
  5
3265
330
2D45
100
AcDbEntity
  8
0
  0
LINE
  5
2D4A
330
1E
100
AcDbEntity
  8
0
100
AcDbLine
 10
5.480314960629921
 20
4.299212598425197
 30
0.0
 11
5.520669291338582
 21
4.257874015748031
 31
0.0
  0
LINE
  5
2D4B
330
1E
100
AcDbEntity
  8
0
100
AcDbLine
 10
5.176181102362204
 20
4.246062992125984
 30
0.0
 11
5.25
 21
4.248031496062991
 31
0.0
  0
LINE
  5
2D4C
330
1E
100
AcDbEntity
  8
0
100
AcDbLine
 10
5.176181102362204
 20
4.173228346456692
 30
0.0
 11
5.626968503937007
 21
4.188976377952755
 31
0.0
  0
LINE
  5
2D4D
330
1E
100
AcDbEntity
  8
0
100
AcDbLine
 10
5.626968503937007
 20
4.188976377952755
 30
0.0
 11
5.633858267716535
 21
4.190944881889763
 31
0.0
  0
LINE
  5
2D4E
330
1E
100
AcDbEntity
  8
0
100
AcDbLine
 10
4.86515748031496
 20
4.1751968503937
 30
0.0
 11
4.86515748031496
 21
4.181102362204724
 31
0.0
  0
LINE
  5
2D4F
330
1E
100
AcDbEntity
  8
0
100
AcDbLine
 10
4.86515748031496
 20
5.062007874015748
 30
0.0
 11
4.86515748031496
 21
5.067913385826771
 31
0.0
  0
POLYLINE
  5
2D50
330
1E
100
AcDbEntity
  8
0
100
AcDb2dPolyline
 66
     1
 10
0.0
 20
0.0
 30
0.0
  0
VERTEX
  5
3266
330
2D50
100
AcDbEntity
  8
0
100
AcDbVertex
100
AcDb2dVertex
 10
5.176181102362204
 20
5.069881889763779
 30
0.0
  0
VERTEX
  5
3267
330
2D50
100
AcDbEntity
  8
0
100
AcDbVertex
100
AcDb2dVertex
 10
5.176181102362204
 20
5.063976377952755
 30
0.0
  0
VERTEX
  5
3268
330
2D50
100
AcDbEntity
  8
0
100
AcDbVertex
100
AcDb2dVertex
 10
5.176181102362204
 20
5.049212598425197
 30
0.0
  0
SEQEND
  5
3269
330
2D50
100
AcDbEntity
  8
0
  0
LINE
  5
2D55
330
1E
100
AcDbEntity
  8
0
100
AcDbLine
 10
5.176181102362204
 20
5.033464566929133
 30
0.0
 11
5.176181102362204
 21
5.049212598425197
 31
0.0
  0
POLYLINE
  5
2D56
330
1E
100
AcDbEntity
  8
0
100
AcDb2dPolyline
 66
     1
 10
0.0
 20
0.0
 30
0.0
  0
VERTEX
  5
326A
330
2D56
100
AcDbEntity
  8
0
100
AcDbVertex
100
AcDb2dVertex
 10
5.176181102362204
 20
5.033464566929133
 30
0.0
  0
VERTEX
  5
326B
330
2D56
100
AcDbEntity
  8
0
100
AcDbVertex
100
AcDb2dVertex
 10
5.176181102362204
 20
5.028543307086613
 30
0.0
  0
VERTEX
  5
326C
330
2D56
100
AcDbEntity
  8
0
100
AcDbVertex
100
AcDb2dVertex
 10
5.176181102362204
 20
5.015748031496062
 30
0.0
  0
VERTEX
  5
326D
330
2D56
100
AcDbEntity
  8
0
100
AcDbVertex
100
AcDb2dVertex
 10
5.176181102362204
 20
4.996062992125984
 30
0.0
  0
VERTEX
  5
326E
330
2D56
100
AcDbEntity
  8
0
100
AcDbVertex
100
AcDb2dVertex
 10
5.176181102362204
 20
4.973425196850393
 30
0.0
  0
SEQEND
  5
326F
330
2D56
100
AcDbEntity
  8
0
  0
LINE
  5
2D5D
330
1E
100
AcDbEntity
  8
0
100
AcDbLine
 10
5.176181102362204
 20
4.801181102362204
 30
0.0
 11
5.176181102362204
 21
4.973425196850393
 31
0.0
  0
POLYLINE
  5
2D5E
330
1E
100
AcDbEntity
  8
0
100
AcDb2dPolyline
 66
     1
 10
0.0
 20
0.0
 30
0.0
  0
VERTEX
  5
3270
330
2D5E
100
AcDbEntity
  8
0
100
AcDbVertex
100
AcDb2dVertex
 10
5.176181102362204
 20
4.801181102362204
 30
0.0
  0
VERTEX
  5
3271
330
2D5E
100
AcDbEntity
  8
0
100
AcDbVertex
100
AcDb2dVertex
 10
5.176181102362204
 20
4.786417322834645
 30
0.0
  0
VERTEX
  5
3272
330
2D5E
100
AcDbEntity
  8
0
100
AcDbVertex
100
AcDb2dVertex
 10
5.176181102362204
 20
4.775590551181101
 30
0.0
  0
VERTEX
  5
3273
330
2D5E
100
AcDbEntity
  8
0
100
AcDbVertex
100
AcDb2dVertex
 10
5.176181102362204
 20
4.771653543307086
 30
0.0
  0
SEQEND
  5
3274
330
2D5E
100
AcDbEntity
  8
0
  0
POLYLINE
  5
2D64
330
1E
100
AcDbEntity
  8
0
100
AcDb2dPolyline
 66
     1
 10
0.0
 20
0.0
 30
0.0
  0
VERTEX
  5
3275
330
2D64
100
AcDbEntity
  8
0
100
AcDbVertex
100
AcDb2dVertex
 10
5.176181102362204
 20
4.771653543307086
 30
0.0
  0
VERTEX
  5
3276
330
2D64
100
AcDbEntity
  8
0
100
AcDbVertex
100
AcDb2dVertex
 10
5.176181102362204
 20
4.766732283464566
 30
0.0
  0
VERTEX
  5
3277
330
2D64
100
AcDbEntity
  8
0
100
AcDbVertex
100
AcDb2dVertex
 10
5.176181102362204
 20
4.755905511811023
 30
0.0
  0
VERTEX
  5
3278
330
2D64
100
AcDbEntity
  8
0
100
AcDbVertex
100
AcDb2dVertex
 10
5.176181102362204
 20
4.741141732283464
 30
0.0
  0
SEQEND
  5
3279
330
2D64
100
AcDbEntity
  8
0
  0
LINE
  5
2D6A
330
1E
100
AcDbEntity
  8
0
100
AcDbLine
 10
5.176181102362204
 20
4.741141732283464
 30
0.0
 11
5.176181102362204
 21
4.501968503937007
 31
0.0
  0
POLYLINE
  5
2D6B
330
1E
100
AcDbEntity
  8
0
100
AcDb2dPolyline
 66
     1
 10
0.0
 20
0.0
 30
0.0
  0
VERTEX
  5
327A
330
2D6B
100
AcDbEntity
  8
0
100
AcDbVertex
100
AcDb2dVertex
 10
5.176181102362204
 20
4.501968503937007
 30
0.0
  0
VERTEX
  5
327B
330
2D6B
100
AcDbEntity
  8
0
100
AcDbVertex
100
AcDb2dVertex
 10
5.176181102362204
 20
4.487204724409449
 30
0.0
  0
VERTEX
  5
327C
330
2D6B
100
AcDbEntity
  8
0
100
AcDbVertex
100
AcDb2dVertex
 10
5.176181102362204
 20
4.476377952755905
 30
0.0
  0
VERTEX
  5
327D
330
2D6B
100
AcDbEntity
  8
0
100
AcDbVertex
100
AcDb2dVertex
 10
5.176181102362204
 20
4.472440944881889
 30
0.0
  0
SEQEND
  5
327E
330
2D6B
100
AcDbEntity
  8
0
  0
POLYLINE
  5
2D71
330
1E
100
AcDbEntity
  8
0
100
AcDb2dPolyline
 66
     1
 10
0.0
 20
0.0
 30
0.0
  0
VERTEX
  5
327F
330
2D71
100
AcDbEntity
  8
0
100
AcDbVertex
100
AcDb2dVertex
 10
5.176181102362204
 20
4.472440944881889
 30
0.0
  0
VERTEX
  5
3280
330
2D71
100
AcDbEntity
  8
0
100
AcDbVertex
100
AcDb2dVertex
 10
5.176181102362204
 20
4.46751968503937
 30
0.0
  0
VERTEX
  5
3281
330
2D71
100
AcDbEntity
  8
0
100
AcDbVertex
100
AcDb2dVertex
 10
5.176181102362204
 20
4.456692913385826
 30
0.0
  0
VERTEX
  5
3282
330
2D71
100
AcDbEntity
  8
0
100
AcDbVertex
100
AcDb2dVertex
 10
5.176181102362204
 20
4.441929133858267
 30
0.0
  0
SEQEND
  5
3283
330
2D71
100
AcDbEntity
  8
0
  0
LINE
  5
2D77
330
1E
100
AcDbEntity
  8
0
100
AcDbLine
 10
5.176181102362204
 20
4.270669291338582
 30
0.0
 11
5.176181102362204
 21
4.441929133858267
 31
0.0
  0
POLYLINE
  5
2D78
330
1E
100
AcDbEntity
  8
0
100
AcDb2dPolyline
 66
     1
 10
0.0
 20
0.0
 30
0.0
  0
VERTEX
  5
3284
330
2D78
100
AcDbEntity
  8
0
100
AcDbVertex
100
AcDb2dVertex
 10
5.176181102362204
 20
4.270669291338582
 30
0.0
  0
VERTEX
  5
3285
330
2D78
100
AcDbEntity
  8
0
100
AcDbVertex
100
AcDb2dVertex
 10
5.176181102362204
 20
4.247047244094487
 30
0.0
  0
VERTEX
  5
3286
330
2D78
100
AcDbEntity
  8
0
100
AcDbVertex
100
AcDb2dVertex
 10
5.176181102362204
 20
4.227362204724409
 30
0.0
  0
VERTEX
  5
3287
330
2D78
100
AcDbEntity
  8
0
100
AcDbVertex
100
AcDb2dVertex
 10
5.176181102362204
 20
4.214566929133858
 30
0.0
  0
VERTEX
  5
3288
330
2D78
100
AcDbEntity
  8
0
100
AcDbVertex
100
AcDb2dVertex
 10
5.176181102362204
 20
4.210629921259842
 30
0.0
  0
SEQEND
  5
3289
330
2D78
100
AcDbEntity
  8
0
  0
LINE
  5
2D7F
330
1E
100
AcDbEntity
  8
0
100
AcDbLine
 10
5.176181102362204
 20
4.193897637795275
 30
0.0
 11
5.176181102362204
 21
4.210629921259842
 31
0.0
  0
POLYLINE
  5
2D80
330
1E
100
AcDbEntity
  8
0
100
AcDb2dPolyline
 66
     1
 10
0.0
 20
0.0
 30
0.0
  0
VERTEX
  5
328A
330
2D80
100
AcDbEntity
  8
0
100
AcDbVertex
100
AcDb2dVertex
 10
5.176181102362204
 20
4.193897637795275
 30
0.0
  0
VERTEX
  5
328B
330
2D80
100
AcDbEntity
  8
0
100
AcDbVertex
100
AcDb2dVertex
 10
5.176181102362204
 20
4.179133858267716
 30
0.0
  0
VERTEX
  5
328C
330
2D80
100
AcDbEntity
  8
0
100
AcDbVertex
100
AcDb2dVertex
 10
5.176181102362204
 20
4.173228346456692
 30
0.0
  0
SEQEND
  5
328D
330
2D80
100
AcDbEntity
  8
0
  0
LINE
  5
2D85
330
1E
100
AcDbEntity
  8
0
100
AcDbLine
 10
5.176181102362204
 20
4.173228346456692
 30
0.0
 11
5.056102362204724
 21
4.171259842519685
 31
0.0
  0
LINE
  5
2D86
330
1E
100
AcDbEntity
  8
0
100
AcDbLine
 10
5.056102362204724
 20
4.171259842519685
 30
0.0
 11
4.86515748031496
 21
4.1751968503937
 31
0.0
  0
POLYLINE
  5
2D87
330
1E
100
AcDbEntity
  8
0
100
AcDb2dPolyline
 66
     1
 10
0.0
 20
0.0
 30
0.0
  0
VERTEX
  5
328E
330
2D87
100
AcDbEntity
  8
0
100
AcDbVertex
100
AcDb2dVertex
 10
4.918307086614173
 20
4.934055118110236
 30
0.0
  0
VERTEX
  5
328F
330
2D87
100
AcDbEntity
  8
0
100
AcDbVertex
100
AcDb2dVertex
 10
4.904527559055117
 20
4.928149606299212
 30
0.0
  0
VERTEX
  5
3290
330
2D87
100
AcDbEntity
  8
0
100
AcDbVertex
100
AcDb2dVertex
 10
4.898622047244094
 20
4.914370078740157
 30
0.0
  0
SEQEND
  5
3291
330
2D87
100
AcDbEntity
  8
0
  0
LINE
  5
2D8C
330
1E
100
AcDbEntity
  8
0
100
AcDbLine
 10
4.898622047244094
 20
4.909448818897637
 30
0.0
 11
4.898622047244094
 21
4.914370078740157
 31
0.0
  0
POLYLINE
  5
2D8D
330
1E
100
AcDbEntity
  8
0
100
AcDb2dPolyline
 66
     1
 10
0.0
 20
0.0
 30
0.0
  0
VERTEX
  5
3292
330
2D8D
100
AcDbEntity
  8
0
100
AcDbVertex
100
AcDb2dVertex
 10
4.918307086614173
 20
4.909448818897637
 30
0.0
  0
VERTEX
  5
3293
330
2D8D
100
AcDbEntity
  8
0
100
AcDbVertex
100
AcDb2dVertex
 10
4.904527559055117
 20
4.909448818897637
 30
0.0
  0
VERTEX
  5
3294
330
2D8D
100
AcDbEntity
  8
0
100
AcDbVertex
100
AcDb2dVertex
 10
4.898622047244094
 20
4.909448818897637
 30
0.0
  0
SEQEND
  5
3295
330
2D8D
100
AcDbEntity
  8
0
  0
POLYLINE
  5
2D92
330
1E
100
AcDbEntity
  8
0
100
AcDb2dPolyline
 66
     1
 10
0.0
 20
0.0
 30
0.0
  0
VERTEX
  5
3296
330
2D92
100
AcDbEntity
  8
0
100
AcDbVertex
100
AcDb2dVertex
 10
4.918307086614173
 20
4.934055118110236
 30
0.0
  0
VERTEX
  5
3297
330
2D92
100
AcDbEntity
  8
0
100
AcDbVertex
100
AcDb2dVertex
 10
4.918307086614173
 20
4.931102362204724
 30
0.0
  0
VERTEX
  5
3298
330
2D92
100
AcDbEntity
  8
0
100
AcDbVertex
100
AcDb2dVertex
 10
4.918307086614173
 20
4.921259842519685
 30
0.0
  0
VERTEX
  5
3299
330
2D92
100
AcDbEntity
  8
0
100
AcDbVertex
100
AcDb2dVertex
 10
4.918307086614173
 20
4.909448818897637
 30
0.0
  0
SEQEND
  5
329A
330
2D92
100
AcDbEntity
  8
0
  0
LINE
  5
2D98
330
1E
100
AcDbEntity
  8
0
100
AcDbLine
 10
4.898622047244094
 20
4.333661417322834
 30
0.0
 11
4.898622047244094
 21
4.909448818897637
 31
0.0
  0
POLYLINE
  5
2D99
330
1E
100
AcDbEntity
  8
0
100
AcDb2dPolyline
 66
     1
 10
0.0
 20
0.0
 30
0.0
  0
VERTEX
  5
329B
330
2D99
100
AcDbEntity
  8
0
100
AcDbVertex
100
AcDb2dVertex
 10
4.918307086614173
 20
4.333661417322834
 30
0.0
  0
VERTEX
  5
329C
330
2D99
100
AcDbEntity
  8
0
100
AcDbVertex
100
AcDb2dVertex
 10
4.904527559055117
 20
4.333661417322834
 30
0.0
  0
VERTEX
  5
329D
330
2D99
100
AcDbEntity
  8
0
100
AcDbVertex
100
AcDb2dVertex
 10
4.898622047244094
 20
4.333661417322834
 30
0.0
  0
SEQEND
  5
329E
330
2D99
100
AcDbEntity
  8
0
  0
LINE
  5
2D9E
330
1E
100
AcDbEntity
  8
0
100
AcDbLine
 10
4.918307086614173
 20
4.909448818897637
 30
0.0
 11
4.918307086614173
 21
4.333661417322834
 31
0.0
  0
LINE
  5
2D9F
330
1E
100
AcDbEntity
  8
0
100
AcDbLine
 10
4.898622047244094
 20
4.328740157480314
 30
0.0
 11
4.898622047244094
 21
4.333661417322834
 31
0.0
  0
POLYLINE
  5
2DA0
330
1E
100
AcDbEntity
  8
0
100
AcDb2dPolyline
 66
     1
 10
0.0
 20
0.0
 30
0.0
  0
VERTEX
  5
329F
330
2DA0
100
AcDbEntity
  8
0
100
AcDbVertex
100
AcDb2dVertex
 10
4.918307086614173
 20
4.309055118110236
 30
0.0
  0
VERTEX
  5
32A0
330
2DA0
100
AcDbEntity
  8
0
100
AcDbVertex
100
AcDb2dVertex
 10
4.904527559055117
 20
4.31496062992126
 30
0.0
  0
VERTEX
  5
32A1
330
2DA0
100
AcDbEntity
  8
0
100
AcDbVertex
100
AcDb2dVertex
 10
4.898622047244094
 20
4.328740157480314
 30
0.0
  0
SEQEND
  5
32A2
330
2DA0
100
AcDbEntity
  8
0
  0
POLYLINE
  5
2DA5
330
1E
100
AcDbEntity
  8
0
100
AcDb2dPolyline
 66
     1
 10
0.0
 20
0.0
 30
0.0
  0
VERTEX
  5
32A3
330
2DA5
100
AcDbEntity
  8
0
100
AcDbVertex
100
AcDb2dVertex
 10
4.918307086614173
 20
4.333661417322834
 30
0.0
  0
VERTEX
  5
32A4
330
2DA5
100
AcDbEntity
  8
0
100
AcDbVertex
100
AcDb2dVertex
 10
4.918307086614173
 20
4.321850393700787
 30
0.0
  0
VERTEX
  5
32A5
330
2DA5
100
AcDbEntity
  8
0
100
AcDbVertex
100
AcDb2dVertex
 10
4.918307086614173
 20
4.312007874015748
 30
0.0
  0
VERTEX
  5
32A6
330
2DA5
100
AcDbEntity
  8
0
100
AcDbVertex
100
AcDb2dVertex
 10
4.918307086614173
 20
4.309055118110236
 30
0.0
  0
SEQEND
  5
32A7
330
2DA5
100
AcDbEntity
  8
0
  0
LINE
  5
2DAB
330
1E
100
AcDbEntity
  8
0
100
AcDbLine
 10
5.09251968503937
 20
4.297244094488188
 30
0.0
 11
5.093503937007874
 21
4.296259842519685
 31
0.0
  0
LINE
  5
2DAC
330
1E
100
AcDbEntity
  8
0
100
AcDbLine
 10
5.093503937007874
 20
4.296259842519685
 30
0.0
 11
5.093503937007874
 21
4.414370078740157
 31
0.0
  0
LINE
  5
2DAD
330
1E
100
AcDbEntity
  8
0
100
AcDbLine
 10
5.093503937007874
 20
4.414370078740157
 30
0.0
 11
5.09251968503937
 21
4.414370078740157
 31
0.0
  0
LINE
  5
2DAE
330
1E
100
AcDbEntity
  8
0
100
AcDbLine
 10
5.089566929133858
 20
4.414370078740157
 30
0.0
 11
5.09251968503937
 21
4.414370078740157
 31
0.0
  0
POLYLINE
  5
2DAF
330
1E
100
AcDbEntity
  8
0
100
AcDb2dPolyline
 66
     1
 10
0.0
 20
0.0
 30
0.0
  0
VERTEX
  5
32A8
330
2DAF
100
AcDbEntity
  8
0
100
AcDbVertex
100
AcDb2dVertex
 10
5.089566929133858
 20
4.414370078740157
 30
0.0
  0
VERTEX
  5
32A9
330
2DAF
100
AcDbEntity
  8
0
100
AcDbVertex
100
AcDb2dVertex
 10
5.088582677165354
 20
4.411417322834645
 30
0.0
  0
VERTEX
  5
32AA
330
2DAF
100
AcDbEntity
  8
0
100
AcDbVertex
100
AcDb2dVertex
 10
5.08759842519685
 20
4.404527559055117
 30
0.0
  0
SEQEND
  5
32AB
330
2DAF
100
AcDbEntity
  8
0
  0
LINE
  5
2DB4
330
1E
100
AcDbEntity
  8
0
100
AcDbLine
 10
5.08759842519685
 20
4.307086614173228
 30
0.0
 11
5.08759842519685
 21
4.404527559055117
 31
0.0
  0
POLYLINE
  5
2DB5
330
1E
100
AcDbEntity
  8
0
100
AcDb2dPolyline
 66
     1
 10
0.0
 20
0.0
 30
0.0
  0
VERTEX
  5
32AC
330
2DB5
100
AcDbEntity
  8
0
100
AcDbVertex
100
AcDb2dVertex
 10
5.08759842519685
 20
4.307086614173228
 30
0.0
  0
VERTEX
  5
32AD
330
2DB5
100
AcDbEntity
  8
0
100
AcDbVertex
100
AcDb2dVertex
 10
5.088582677165354
 20
4.3001968503937
 30
0.0
  0
VERTEX
  5
32AE
330
2DB5
100
AcDbEntity
  8
0
100
AcDbVertex
100
AcDb2dVertex
 10
5.089566929133858
 20
4.297244094488188
 30
0.0
  0
SEQEND
  5
32AF
330
2DB5
100
AcDbEntity
  8
0
  0
LINE
  5
2DBA
330
1E
100
AcDbEntity
  8
0
100
AcDbLine
 10
5.09251968503937
 20
4.297244094488188
 30
0.0
 11
5.089566929133858
 21
4.297244094488188
 31
0.0
  0
LINE
  5
2DBB
330
1E
100
AcDbEntity
  8
0
100
AcDbLine
 10
5.09251968503937
 20
4.829724409448818
 30
0.0
 11
5.093503937007874
 21
4.828740157480314
 31
0.0
  0
LINE
  5
2DBC
330
1E
100
AcDbEntity
  8
0
100
AcDbLine
 10
5.093503937007874
 20
4.828740157480314
 30
0.0
 11
5.093503937007874
 21
4.946850393700787
 31
0.0
  0
LINE
  5
2DBD
330
1E
100
AcDbEntity
  8
0
100
AcDbLine
 10
5.093503937007874
 20
4.946850393700787
 30
0.0
 11
5.09251968503937
 21
4.945866141732283
 31
0.0
  0
LINE
  5
2DBE
330
1E
100
AcDbEntity
  8
0
100
AcDbLine
 10
5.089566929133858
 20
4.945866141732283
 30
0.0
 11
5.09251968503937
 21
4.945866141732283
 31
0.0
  0
POLYLINE
  5
2DBF
330
1E
100
AcDbEntity
  8
0
100
AcDb2dPolyline
 66
     1
 10
0.0
 20
0.0
 30
0.0
  0
VERTEX
  5
32B0
330
2DBF
100
AcDbEntity
  8
0
100
AcDbVertex
100
AcDb2dVertex
 10
5.089566929133858
 20
4.945866141732283
 30
0.0
  0
VERTEX
  5
32B1
330
2DBF
100
AcDbEntity
  8
0
100
AcDbVertex
100
AcDb2dVertex
 10
5.088582677165354
 20
4.942913385826771
 30
0.0
  0
VERTEX
  5
32B2
330
2DBF
100
AcDbEntity
  8
0
100
AcDbVertex
100
AcDb2dVertex
 10
5.08759842519685
 20
4.936023622047244
 30
0.0
  0
SEQEND
  5
32B3
330
2DBF
100
AcDbEntity
  8
0
  0
LINE
  5
2DC4
330
1E
100
AcDbEntity
  8
0
100
AcDbLine
 10
5.08759842519685
 20
4.839566929133858
 30
0.0
 11
5.08759842519685
 21
4.936023622047244
 31
0.0
  0
POLYLINE
  5
2DC5
330
1E
100
AcDbEntity
  8
0
100
AcDb2dPolyline
 66
     1
 10
0.0
 20
0.0
 30
0.0
  0
VERTEX
  5
32B4
330
2DC5
100
AcDbEntity
  8
0
100
AcDbVertex
100
AcDb2dVertex
 10
5.08759842519685
 20
4.839566929133858
 30
0.0
  0
VERTEX
  5
32B5
330
2DC5
100
AcDbEntity
  8
0
100
AcDbVertex
100
AcDb2dVertex
 10
5.088582677165354
 20
4.831692913385826
 30
0.0
  0
VERTEX
  5
32B6
330
2DC5
100
AcDbEntity
  8
0
100
AcDbVertex
100
AcDb2dVertex
 10
5.089566929133858
 20
4.828740157480314
 30
0.0
  0
SEQEND
  5
32B7
330
2DC5
100
AcDbEntity
  8
0
  0
LINE
  5
2DCA
330
1E
100
AcDbEntity
  8
0
100
AcDbLine
 10
5.09251968503937
 20
4.829724409448818
 30
0.0
 11
5.089566929133858
 21
4.828740157480314
 31
0.0
  0
LINE
  5
2DCB
330
1E
100
AcDbEntity
  8
0
100
AcDbLine
 10
4.999015748031496
 20
4.763779527559054
 30
0.0
 11
4.999015748031496
 21
4.479330708661417
 31
0.0
  0
LINE
  5
2DCC
330
1E
100
AcDbEntity
  8
0
100
AcDbLine
 10
4.918307086614173
 20
4.934055118110236
 30
0.0
 11
5.056102362204724
 21
4.937007874015748
 31
0.0
  0
LINE
  5
2DCD
330
1E
100
AcDbEntity
  8
0
100
AcDbLine
 10
5.056102362204724
 20
4.911417322834645
 30
0.0
 11
4.918307086614173
 21
4.909448818897637
 31
0.0
  0
LINE
  5
2DCE
330
1E
100
AcDbEntity
  8
0
100
AcDbLine
 10
5.056102362204724
 20
4.946850393700787
 30
0.0
 11
5.089566929133858
 21
4.945866141732283
 31
0.0
  0
POLYLINE
  5
2DCF
330
1E
100
AcDbEntity
  8
0
100
AcDb2dPolyline
 66
     1
 10
0.0
 20
0.0
 30
0.0
  0
VERTEX
  5
32B8
330
2DCF
100
AcDbEntity
  8
0
100
AcDbVertex
100
AcDb2dVertex
 10
5.056102362204724
 20
4.937007874015748
 30
0.0
  0
VERTEX
  5
32B9
330
2DCF
100
AcDbEntity
  8
0
100
AcDbVertex
100
AcDb2dVertex
 10
5.056102362204724
 20
4.943897637795275
 30
0.0
  0
VERTEX
  5
32BA
330
2DCF
100
AcDbEntity
  8
0
100
AcDbVertex
100
AcDb2dVertex
 10
5.056102362204724
 20
4.946850393700787
 30
0.0
  0
SEQEND
  5
32BB
330
2DCF
100
AcDbEntity
  8
0
  0
LINE
  5
2DD4
330
1E
100
AcDbEntity
  8
0
100
AcDbLine
 10
5.08759842519685
 20
4.936023622047244
 30
0.0
 11
5.056102362204724
 21
4.937007874015748
 31
0.0
  0
LINE
  5
2DD5
330
1E
100
AcDbEntity
  8
0
100
AcDbLine
 10
5.056102362204724
 20
4.937007874015748
 30
0.0
 11
5.056102362204724
 21
4.838582677165354
 31
0.0
  0
LINE
  5
2DD6
330
1E
100
AcDbEntity
  8
0
100
AcDbLine
 10
5.056102362204724
 20
4.838582677165354
 30
0.0
 11
5.08759842519685
 21
4.839566929133858
 31
0.0
  0
POLYLINE
  5
2DD7
330
1E
100
AcDbEntity
  8
0
100
AcDb2dPolyline
 66
     1
 10
0.0
 20
0.0
 30
0.0
  0
VERTEX
  5
32BC
330
2DD7
100
AcDbEntity
  8
0
100
AcDbVertex
100
AcDb2dVertex
 10
5.056102362204724
 20
4.828740157480314
 30
0.0
  0
VERTEX
  5
32BD
330
2DD7
100
AcDbEntity
  8
0
100
AcDbVertex
100
AcDb2dVertex
 10
5.056102362204724
 20
4.831692913385826
 30
0.0
  0
VERTEX
  5
32BE
330
2DD7
100
AcDbEntity
  8
0
100
AcDbVertex
100
AcDb2dVertex
 10
5.056102362204724
 20
4.838582677165354
 30
0.0
  0
SEQEND
  5
32BF
330
2DD7
100
AcDbEntity
  8
0
  0
LINE
  5
2DDC
330
1E
100
AcDbEntity
  8
0
100
AcDbLine
 10
5.089566929133858
 20
4.828740157480314
 30
0.0
 11
5.056102362204724
 21
4.828740157480314
 31
0.0
  0
LINE
  5
2DDD
330
1E
100
AcDbEntity
  8
0
100
AcDbLine
 10
5.056102362204724
 20
4.414370078740157
 30
0.0
 11
5.089566929133858
 21
4.414370078740157
 31
0.0
  0
POLYLINE
  5
2DDE
330
1E
100
AcDbEntity
  8
0
100
AcDb2dPolyline
 66
     1
 10
0.0
 20
0.0
 30
0.0
  0
VERTEX
  5
32C0
330
2DDE
100
AcDbEntity
  8
0
100
AcDbVertex
100
AcDb2dVertex
 10
5.056102362204724
 20
4.404527559055117
 30
0.0
  0
VERTEX
  5
32C1
330
2DDE
100
AcDbEntity
  8
0
100
AcDbVertex
100
AcDb2dVertex
 10
5.056102362204724
 20
4.411417322834645
 30
0.0
  0
VERTEX
  5
32C2
330
2DDE
100
AcDbEntity
  8
0
100
AcDbVertex
100
AcDb2dVertex
 10
5.056102362204724
 20
4.414370078740157
 30
0.0
  0
SEQEND
  5
32C3
330
2DDE
100
AcDbEntity
  8
0
  0
LINE
  5
2DE3
330
1E
100
AcDbEntity
  8
0
100
AcDbLine
 10
5.08759842519685
 20
4.404527559055117
 30
0.0
 11
5.056102362204724
 21
4.404527559055117
 31
0.0
  0
LINE
  5
2DE4
330
1E
100
AcDbEntity
  8
0
100
AcDbLine
 10
5.056102362204724
 20
4.404527559055117
 30
0.0
 11
5.056102362204724
 21
4.307086614173228
 31
0.0
  0
LINE
  5
2DE5
330
1E
100
AcDbEntity
  8
0
100
AcDbLine
 10
5.056102362204724
 20
4.307086614173228
 30
0.0
 11
5.08759842519685
 21
4.307086614173228
 31
0.0
  0
POLYLINE
  5
2DE6
330
1E
100
AcDbEntity
  8
0
100
AcDb2dPolyline
 66
     1
 10
0.0
 20
0.0
 30
0.0
  0
VERTEX
  5
32C4
330
2DE6
100
AcDbEntity
  8
0
100
AcDbVertex
100
AcDb2dVertex
 10
5.056102362204724
 20
4.296259842519685
 30
0.0
  0
VERTEX
  5
32C5
330
2DE6
100
AcDbEntity
  8
0
100
AcDbVertex
100
AcDb2dVertex
 10
5.056102362204724
 20
4.299212598425197
 30
0.0
  0
VERTEX
  5
32C6
330
2DE6
100
AcDbEntity
  8
0
100
AcDbVertex
100
AcDb2dVertex
 10
5.056102362204724
 20
4.307086614173228
 30
0.0
  0
SEQEND
  5
32C7
330
2DE6
100
AcDbEntity
  8
0
  0
LINE
  5
2DEB
330
1E
100
AcDbEntity
  8
0
100
AcDbLine
 10
5.089566929133858
 20
4.297244094488188
 30
0.0
 11
5.056102362204724
 21
4.296259842519685
 31
0.0
  0
LINE
  5
2DEC
330
1E
100
AcDbEntity
  8
0
100
AcDbLine
 10
4.918307086614173
 20
4.333661417322834
 30
0.0
 11
5.056102362204724
 21
4.331692913385826
 31
0.0
  0
LINE
  5
2DED
330
1E
100
AcDbEntity
  8
0
100
AcDbLine
 10
5.056102362204724
 20
4.307086614173228
 30
0.0
 11
4.918307086614173
 21
4.309055118110236
 31
0.0
  0
LINE
  5
2DEE
330
1E
100
AcDbEntity
  8
0
100
AcDbLine
 10
4.999015748031496
 20
4.479330708661417
 30
0.0
 11
5.056102362204724
 21
4.478346456692912
 31
0.0
  0
LINE
  5
2DEF
330
1E
100
AcDbEntity
  8
0
100
AcDbLine
 10
5.056102362204724
 20
4.764763779527559
 30
0.0
 11
4.999015748031496
 21
4.763779527559054
 31
0.0
  0
POLYLINE
  5
2DF0
330
1E
100
AcDbEntity
  8
0
100
AcDb2dPolyline
 66
     1
 10
0.0
 20
0.0
 30
0.0
  0
VERTEX
  5
32C8
330
2DF0
100
AcDbEntity
  8
0
100
AcDbVertex
100
AcDb2dVertex
 10
5.093503937007874
 20
4.414370078740157
 30
0.0
  0
VERTEX
  5
32C9
330
2DF0
100
AcDbEntity
  8
0
100
AcDbVertex
100
AcDb2dVertex
 10
5.094488188976377
 20
4.416338582677165
 30
0.0
  0
VERTEX
  5
32CA
330
2DF0
100
AcDbEntity
  8
0
100
AcDbVertex
100
AcDb2dVertex
 10
5.096456692913386
 20
4.418307086614173
 30
0.0
  0
VERTEX
  5
32CB
330
2DF0
100
AcDbEntity
  8
0
100
AcDbVertex
100
AcDb2dVertex
 10
5.099409448818897
 20
4.421259842519685
 30
0.0
  0
VERTEX
  5
32CC
330
2DF0
100
AcDbEntity
  8
0
100
AcDbVertex
100
AcDb2dVertex
 10
5.101377952755905
 20
4.424212598425197
 30
0.0
  0
SEQEND
  5
32CD
330
2DF0
100
AcDbEntity
  8
0
  0
LINE
  5
2DF7
330
1E
100
AcDbEntity
  8
0
100
AcDbLine
 10
5.056102362204724
 20
4.424212598425197
 30
0.0
 11
5.101377952755905
 21
4.424212598425197
 31
0.0
  0
POLYLINE
  5
2DF8
330
1E
100
AcDbEntity
  8
0
100
AcDb2dPolyline
 66
     1
 10
0.0
 20
0.0
 30
0.0
  0
VERTEX
  5
32CE
330
2DF8
100
AcDbEntity
  8
0
100
AcDbVertex
100
AcDb2dVertex
 10
5.056102362204724
 20
4.414370078740157
 30
0.0
  0
VERTEX
  5
32CF
330
2DF8
100
AcDbEntity
  8
0
100
AcDbVertex
100
AcDb2dVertex
 10
5.056102362204724
 20
4.417322834645669
 30
0.0
  0
VERTEX
  5
32D0
330
2DF8
100
AcDbEntity
  8
0
100
AcDbVertex
100
AcDb2dVertex
 10
5.056102362204724
 20
4.424212598425197
 30
0.0
  0
SEQEND
  5
32D1
330
2DF8
100
AcDbEntity
  8
0
  0
POLYLINE
  5
2DFD
330
1E
100
AcDbEntity
  8
0
100
AcDb2dPolyline
 66
     1
 10
0.0
 20
0.0
 30
0.0
  0
VERTEX
  5
32D2
330
2DFD
100
AcDbEntity
  8
0
100
AcDbVertex
100
AcDb2dVertex
 10
5.056102362204724
 20
4.286417322834645
 30
0.0
  0
VERTEX
  5
32D3
330
2DFD
100
AcDbEntity
  8
0
100
AcDbVertex
100
AcDb2dVertex
 10
5.056102362204724
 20
4.293307086614173
 30
0.0
  0
VERTEX
  5
32D4
330
2DFD
100
AcDbEntity
  8
0
100
AcDbVertex
100
AcDb2dVertex
 10
5.056102362204724
 20
4.296259842519685
 30
0.0
  0
SEQEND
  5
32D5
330
2DFD
100
AcDbEntity
  8
0
  0
LINE
  5
2E02
330
1E
100
AcDbEntity
  8
0
100
AcDbLine
 10
5.101377952755905
 20
4.287401574803149
 30
0.0
 11
5.056102362204724
 21
4.286417322834645
 31
0.0
  0
POLYLINE
  5
2E03
330
1E
100
AcDbEntity
  8
0
100
AcDb2dPolyline
 66
     1
 10
0.0
 20
0.0
 30
0.0
  0
VERTEX
  5
32D6
330
2E03
100
AcDbEntity
  8
0
100
AcDbVertex
100
AcDb2dVertex
 10
5.101377952755905
 20
4.287401574803149
 30
0.0
  0
VERTEX
  5
32D7
330
2E03
100
AcDbEntity
  8
0
100
AcDbVertex
100
AcDb2dVertex
 10
5.099409448818897
 20
4.289370078740157
 30
0.0
  0
VERTEX
  5
32D8
330
2E03
100
AcDbEntity
  8
0
100
AcDbVertex
100
AcDb2dVertex
 10
5.096456692913386
 20
4.293307086614173
 30
0.0
  0
VERTEX
  5
32D9
330
2E03
100
AcDbEntity
  8
0
100
AcDbVertex
100
AcDb2dVertex
 10
5.094488188976377
 20
4.295275590551181
 30
0.0
  0
VERTEX
  5
32DA
330
2E03
100
AcDbEntity
  8
0
100
AcDbVertex
100
AcDb2dVertex
 10
5.093503937007874
 20
4.296259842519685
 30
0.0
  0
SEQEND
  5
32DB
330
2E03
100
AcDbEntity
  8
0
  0
POLYLINE
  5
2E0A
330
1E
100
AcDbEntity
  8
0
100
AcDb2dPolyline
 66
     1
 10
0.0
 20
0.0
 30
0.0
  0
VERTEX
  5
32DC
330
2E0A
100
AcDbEntity
  8
0
100
AcDbVertex
100
AcDb2dVertex
 10
5.093503937007874
 20
4.946850393700787
 30
0.0
  0
VERTEX
  5
32DD
330
2E0A
100
AcDbEntity
  8
0
100
AcDbVertex
100
AcDb2dVertex
 10
5.094488188976377
 20
4.947834645669291
 30
0.0
  0
VERTEX
  5
32DE
330
2E0A
100
AcDbEntity
  8
0
100
AcDbVertex
100
AcDb2dVertex
 10
5.096456692913386
 20
4.949803149606299
 30
0.0
  0
VERTEX
  5
32DF
330
2E0A
100
AcDbEntity
  8
0
100
AcDbVertex
100
AcDb2dVertex
 10
5.099409448818897
 20
4.953740157480314
 30
0.0
  0
VERTEX
  5
32E0
330
2E0A
100
AcDbEntity
  8
0
100
AcDbVertex
100
AcDb2dVertex
 10
5.101377952755905
 20
4.955708661417323
 30
0.0
  0
SEQEND
  5
32E1
330
2E0A
100
AcDbEntity
  8
0
  0
LINE
  5
2E11
330
1E
100
AcDbEntity
  8
0
100
AcDbLine
 10
5.056102362204724
 20
4.956692913385826
 30
0.0
 11
5.101377952755905
 21
4.955708661417323
 31
0.0
  0
POLYLINE
  5
2E12
330
1E
100
AcDbEntity
  8
0
100
AcDb2dPolyline
 66
     1
 10
0.0
 20
0.0
 30
0.0
  0
VERTEX
  5
32E2
330
2E12
100
AcDbEntity
  8
0
100
AcDbVertex
100
AcDb2dVertex
 10
5.056102362204724
 20
4.946850393700787
 30
0.0
  0
VERTEX
  5
32E3
330
2E12
100
AcDbEntity
  8
0
100
AcDbVertex
100
AcDb2dVertex
 10
5.056102362204724
 20
4.949803149606299
 30
0.0
  0
VERTEX
  5
32E4
330
2E12
100
AcDbEntity
  8
0
100
AcDbVertex
100
AcDb2dVertex
 10
5.056102362204724
 20
4.956692913385826
 30
0.0
  0
SEQEND
  5
32E5
330
2E12
100
AcDbEntity
  8
0
  0
POLYLINE
  5
2E17
330
1E
100
AcDbEntity
  8
0
100
AcDb2dPolyline
 66
     1
 10
0.0
 20
0.0
 30
0.0
  0
VERTEX
  5
32E6
330
2E17
100
AcDbEntity
  8
0
100
AcDbVertex
100
AcDb2dVertex
 10
5.056102362204724
 20
4.818897637795275
 30
0.0
  0
VERTEX
  5
32E7
330
2E17
100
AcDbEntity
  8
0
100
AcDbVertex
100
AcDb2dVertex
 10
5.056102362204724
 20
4.825787401574802
 30
0.0
  0
VERTEX
  5
32E8
330
2E17
100
AcDbEntity
  8
0
100
AcDbVertex
100
AcDb2dVertex
 10
5.056102362204724
 20
4.828740157480314
 30
0.0
  0
SEQEND
  5
32E9
330
2E17
100
AcDbEntity
  8
0
  0
LINE
  5
2E1C
330
1E
100
AcDbEntity
  8
0
100
AcDbLine
 10
5.101377952755905
 20
4.819881889763779
 30
0.0
 11
5.056102362204724
 21
4.818897637795275
 31
0.0
  0
POLYLINE
  5
2E1D
330
1E
100
AcDbEntity
  8
0
100
AcDb2dPolyline
 66
     1
 10
0.0
 20
0.0
 30
0.0
  0
VERTEX
  5
32EA
330
2E1D
100
AcDbEntity
  8
0
100
AcDbVertex
100
AcDb2dVertex
 10
5.101377952755905
 20
4.819881889763779
 30
0.0
  0
VERTEX
  5
32EB
330
2E1D
100
AcDbEntity
  8
0
100
AcDbVertex
100
AcDb2dVertex
 10
5.099409448818897
 20
4.821850393700787
 30
0.0
  0
VERTEX
  5
32EC
330
2E1D
100
AcDbEntity
  8
0
100
AcDbVertex
100
AcDb2dVertex
 10
5.096456692913386
 20
4.824803149606299
 30
0.0
  0
VERTEX
  5
32ED
330
2E1D
100
AcDbEntity
  8
0
100
AcDbVertex
100
AcDb2dVertex
 10
5.094488188976377
 20
4.827755905511811
 30
0.0
  0
VERTEX
  5
32EE
330
2E1D
100
AcDbEntity
  8
0
100
AcDbVertex
100
AcDb2dVertex
 10
5.093503937007874
 20
4.828740157480314
 30
0.0
  0
SEQEND
  5
32EF
330
2E1D
100
AcDbEntity
  8
0
  0
POLYLINE
  5
2E24
330
1E
100
AcDbEntity
  8
0
100
AcDb2dPolyline
 66
     1
 10
0.0
 20
0.0
 30
0.0
  0
VERTEX
  5
32F0
330
2E24
100
AcDbEntity
  8
0
100
AcDbVertex
100
AcDb2dVertex
 10
5.056102362204724
 20
4.20767716535433
 30
0.0
  0
VERTEX
  5
32F1
330
2E24
100
AcDbEntity
  8
0
100
AcDbVertex
100
AcDb2dVertex
 10
5.056102362204724
 20
4.21259842519685
 30
0.0
  0
VERTEX
  5
32F2
330
2E24
100
AcDbEntity
  8
0
100
AcDbVertex
100
AcDb2dVertex
 10
5.056102362204724
 20
4.225393700787401
 30
0.0
  0
VERTEX
  5
32F3
330
2E24
100
AcDbEntity
  8
0
100
AcDbVertex
100
AcDb2dVertex
 10
5.056102362204724
 20
4.24507874015748
 30
0.0
  0
VERTEX
  5
32F4
330
2E24
100
AcDbEntity
  8
0
100
AcDbVertex
100
AcDb2dVertex
 10
5.056102362204724
 20
4.26771653543307
 30
0.0
  0
SEQEND
  5
32F5
330
2E24
100
AcDbEntity
  8
0
  0
LINE
  5
2E2B
330
1E
100
AcDbEntity
  8
0
100
AcDbLine
 10
5.056102362204724
 20
4.286417322834645
 30
0.0
 11
5.056102362204724
 21
4.26771653543307
 31
0.0
  0
LINE
  5
2E2C
330
1E
100
AcDbEntity
  8
0
100
AcDbLine
 10
5.056102362204724
 20
4.443897637795275
 30
0.0
 11
5.056102362204724
 21
4.424212598425197
 31
0.0
  0
POLYLINE
  5
2E2D
330
1E
100
AcDbEntity
  8
0
100
AcDb2dPolyline
 66
     1
 10
0.0
 20
0.0
 30
0.0
  0
VERTEX
  5
32F6
330
2E2D
100
AcDbEntity
  8
0
100
AcDbVertex
100
AcDb2dVertex
 10
5.056102362204724
 20
4.443897637795275
 30
0.0
  0
VERTEX
  5
32F7
330
2E2D
100
AcDbEntity
  8
0
100
AcDbVertex
100
AcDb2dVertex
 10
5.056102362204724
 20
4.458661417322834
 30
0.0
  0
VERTEX
  5
32F8
330
2E2D
100
AcDbEntity
  8
0
100
AcDbVertex
100
AcDb2dVertex
 10
5.056102362204724
 20
4.470472440944881
 30
0.0
  0
VERTEX
  5
32F9
330
2E2D
100
AcDbEntity
  8
0
100
AcDbVertex
100
AcDb2dVertex
 10
5.056102362204724
 20
4.474409448818897
 30
0.0
  0
SEQEND
  5
32FA
330
2E2D
100
AcDbEntity
  8
0
  0
POLYLINE
  5
2E33
330
1E
100
AcDbEntity
  8
0
100
AcDb2dPolyline
 66
     1
 10
0.0
 20
0.0
 30
0.0
  0
VERTEX
  5
32FB
330
2E33
100
AcDbEntity
  8
0
100
AcDbVertex
100
AcDb2dVertex
 10
5.056102362204724
 20
4.474409448818897
 30
0.0
  0
VERTEX
  5
32FC
330
2E33
100
AcDbEntity
  8
0
100
AcDbVertex
100
AcDb2dVertex
 10
5.056102362204724
 20
4.478346456692912
 30
0.0
  0
VERTEX
  5
32FD
330
2E33
100
AcDbEntity
  8
0
100
AcDbVertex
100
AcDb2dVertex
 10
5.056102362204724
 20
4.489173228346456
 30
0.0
  0
VERTEX
  5
32FE
330
2E33
100
AcDbEntity
  8
0
100
AcDbVertex
100
AcDb2dVertex
 10
5.056102362204724
 20
4.503937007874015
 30
0.0
  0
SEQEND
  5
32FF
330
2E33
100
AcDbEntity
  8
0
  0
LINE
  5
2E39
330
1E
100
AcDbEntity
  8
0
100
AcDbLine
 10
5.056102362204724
 20
4.503937007874015
 30
0.0
 11
5.056102362204724
 21
4.739173228346456
 31
0.0
  0
POLYLINE
  5
2E3A
330
1E
100
AcDbEntity
  8
0
100
AcDb2dPolyline
 66
     1
 10
0.0
 20
0.0
 30
0.0
  0
VERTEX
  5
3300
330
2E3A
100
AcDbEntity
  8
0
100
AcDbVertex
100
AcDb2dVertex
 10
5.056102362204724
 20
4.739173228346456
 30
0.0
  0
VERTEX
  5
3301
330
2E3A
100
AcDbEntity
  8
0
100
AcDbVertex
100
AcDb2dVertex
 10
5.056102362204724
 20
4.753937007874015
 30
0.0
  0
VERTEX
  5
3302
330
2E3A
100
AcDbEntity
  8
0
100
AcDbVertex
100
AcDb2dVertex
 10
5.056102362204724
 20
4.764763779527559
 30
0.0
  0
VERTEX
  5
3303
330
2E3A
100
AcDbEntity
  8
0
100
AcDbVertex
100
AcDb2dVertex
 10
5.056102362204724
 20
4.768700787401574
 30
0.0
  0
SEQEND
  5
3304
330
2E3A
100
AcDbEntity
  8
0
  0
POLYLINE
  5
2E40
330
1E
100
AcDbEntity
  8
0
100
AcDb2dPolyline
 66
     1
 10
0.0
 20
0.0
 30
0.0
  0
VERTEX
  5
3305
330
2E40
100
AcDbEntity
  8
0
100
AcDbVertex
100
AcDb2dVertex
 10
5.056102362204724
 20
4.768700787401574
 30
0.0
  0
VERTEX
  5
3306
330
2E40
100
AcDbEntity
  8
0
100
AcDbVertex
100
AcDb2dVertex
 10
5.056102362204724
 20
4.773622047244094
 30
0.0
  0
VERTEX
  5
3307
330
2E40
100
AcDbEntity
  8
0
100
AcDbVertex
100
AcDb2dVertex
 10
5.056102362204724
 20
4.784448818897637
 30
0.0
  0
VERTEX
  5
3308
330
2E40
100
AcDbEntity
  8
0
100
AcDbVertex
100
AcDb2dVertex
 10
5.056102362204724
 20
4.799212598425197
 30
0.0
  0
SEQEND
  5
3309
330
2E40
100
AcDbEntity
  8
0
  0
LINE
  5
2E46
330
1E
100
AcDbEntity
  8
0
100
AcDbLine
 10
5.056102362204724
 20
4.818897637795275
 30
0.0
 11
5.056102362204724
 21
4.799212598425197
 31
0.0
  0
LINE
  5
2E47
330
1E
100
AcDbEntity
  8
0
100
AcDbLine
 10
5.056102362204724
 20
4.975393700787401
 30
0.0
 11
5.056102362204724
 21
4.956692913385826
 31
0.0
  0
POLYLINE
  5
2E48
330
1E
100
AcDbEntity
  8
0
100
AcDb2dPolyline
 66
     1
 10
0.0
 20
0.0
 30
0.0
  0
VERTEX
  5
330A
330
2E48
100
AcDbEntity
  8
0
100
AcDbVertex
100
AcDb2dVertex
 10
5.056102362204724
 20
4.975393700787401
 30
0.0
  0
VERTEX
  5
330B
330
2E48
100
AcDbEntity
  8
0
100
AcDbVertex
100
AcDb2dVertex
 10
5.056102362204724
 20
4.998031496062991
 30
0.0
  0
VERTEX
  5
330C
330
2E48
100
AcDbEntity
  8
0
100
AcDbVertex
100
AcDb2dVertex
 10
5.056102362204724
 20
5.01771653543307
 30
0.0
  0
VERTEX
  5
330D
330
2E48
100
AcDbEntity
  8
0
100
AcDbVertex
100
AcDb2dVertex
 10
5.056102362204724
 20
5.030511811023622
 30
0.0
  0
VERTEX
  5
330E
330
2E48
100
AcDbEntity
  8
0
100
AcDbVertex
100
AcDb2dVertex
 10
5.056102362204724
 20
5.035433070866141
 30
0.0
  0
SEQEND
  5
330F
330
2E48
100
AcDbEntity
  8
0
  0
POLYLINE
  5
2E4F
330
1E
100
AcDbEntity
  8
0
100
AcDb2dPolyline
 66
     1
 10
0.0
 20
0.0
 30
0.0
  0
VERTEX
  5
3310
330
2E4F
100
AcDbEntity
  8
0
100
AcDbVertex
100
AcDb2dVertex
 10
4.898622047244094
 20
5.049212598425197
 30
0.0
  0
VERTEX
  5
3311
330
2E4F
100
AcDbEntity
  8
0
100
AcDbVertex
100
AcDb2dVertex
 10
4.894685039370078
 20
5.054133858267716
 30
0.0
  0
VERTEX
  5
3312
330
2E4F
100
AcDbEntity
  8
0
100
AcDbVertex
100
AcDb2dVertex
 10
4.883858267716535
 20
5.058070866141732
 30
0.0
  0
VERTEX
  5
3313
330
2E4F
100
AcDbEntity
  8
0
100
AcDbVertex
100
AcDb2dVertex
 10
4.86515748031496
 20
5.062007874015748
 30
0.0
  0
SEQEND
  5
3314
330
2E4F
100
AcDbEntity
  8
0
  0
LINE
  5
2E55
330
1E
100
AcDbEntity
  8
0
100
AcDbLine
 10
5.056102362204724
 20
5.051181102362204
 30
0.0
 11
4.898622047244094
 21
5.049212598425197
 31
0.0
  0
POLYLINE
  5
2E56
330
1E
100
AcDbEntity
  8
0
100
AcDb2dPolyline
 66
     1
 10
0.0
 20
0.0
 30
0.0
  0
VERTEX
  5
3315
330
2E56
100
AcDbEntity
  8
0
100
AcDbVertex
100
AcDb2dVertex
 10
5.056102362204724
 20
5.051181102362204
 30
0.0
  0
VERTEX
  5
3316
330
2E56
100
AcDbEntity
  8
0
100
AcDbVertex
100
AcDb2dVertex
 10
5.056102362204724
 20
5.065944881889763
 30
0.0
  0
VERTEX
  5
3317
330
2E56
100
AcDbEntity
  8
0
100
AcDbVertex
100
AcDb2dVertex
 10
5.056102362204724
 20
5.071850393700787
 30
0.0
  0
SEQEND
  5
3318
330
2E56
100
AcDbEntity
  8
0
  0
LINE
  5
2E5B
330
1E
100
AcDbEntity
  8
0
100
AcDbLine
 10
4.86515748031496
 20
5.067913385826771
 30
0.0
 11
5.056102362204724
 21
5.071850393700787
 31
0.0
  0
LINE
  5
2E5C
330
1E
100
AcDbEntity
  8
0
100
AcDbLine
 10
4.898622047244094
 20
5.049212598425197
 30
0.0
 11
4.898622047244094
 21
4.914370078740157
 31
0.0
  0
LINE
  5
2E5D
330
1E
100
AcDbEntity
  8
0
100
AcDbLine
 10
5.056102362204724
 20
5.051181102362204
 30
0.0
 11
5.056102362204724
 21
5.035433070866141
 31
0.0
  0
LINE
  5
2E5E
330
1E
100
AcDbEntity
  8
0
100
AcDbLine
 10
4.898622047244094
 20
4.328740157480314
 30
0.0
 11
4.898622047244094
 21
4.193897637795275
 31
0.0
  0
LINE
  5
2E5F
330
1E
100
AcDbEntity
  8
0
100
AcDbLine
 10
4.898622047244094
 20
4.193897637795275
 30
0.0
 11
5.056102362204724
 21
4.191929133858267
 31
0.0
  0
LINE
  5
2E60
330
1E
100
AcDbEntity
  8
0
100
AcDbLine
 10
5.056102362204724
 20
4.20767716535433
 30
0.0
 11
5.056102362204724
 21
4.191929133858267
 31
0.0
  0
POLYLINE
  5
2E61
330
1E
100
AcDbEntity
  8
0
100
AcDb2dPolyline
 66
     1
 10
0.0
 20
0.0
 30
0.0
  0
VERTEX
  5
3319
330
2E61
100
AcDbEntity
  8
0
100
AcDbVertex
100
AcDb2dVertex
 10
4.86515748031496
 20
4.181102362204724
 30
0.0
  0
VERTEX
  5
331A
330
2E61
100
AcDbEntity
  8
0
100
AcDbVertex
100
AcDb2dVertex
 10
4.883858267716535
 20
4.185039370078739
 30
0.0
  0
VERTEX
  5
331B
330
2E61
100
AcDbEntity
  8
0
100
AcDbVertex
100
AcDb2dVertex
 10
4.894685039370078
 20
4.18996062992126
 30
0.0
  0
VERTEX
  5
331C
330
2E61
100
AcDbEntity
  8
0
100
AcDbVertex
100
AcDb2dVertex
 10
4.898622047244094
 20
4.193897637795275
 30
0.0
  0
SEQEND
  5
331D
330
2E61
100
AcDbEntity
  8
0
  0
POLYLINE
  5
2E67
330
1E
100
AcDbEntity
  8
0
100
AcDb2dPolyline
 66
     1
 10
0.0
 20
0.0
 30
0.0
  0
VERTEX
  5
331E
330
2E67
100
AcDbEntity
  8
0
100
AcDbVertex
100
AcDb2dVertex
 10
5.056102362204724
 20
4.171259842519685
 30
0.0
  0
VERTEX
  5
331F
330
2E67
100
AcDbEntity
  8
0
100
AcDbVertex
100
AcDb2dVertex
 10
5.056102362204724
 20
4.177165354330708
 30
0.0
  0
VERTEX
  5
3320
330
2E67
100
AcDbEntity
  8
0
100
AcDbVertex
100
AcDb2dVertex
 10
5.056102362204724
 20
4.191929133858267
 30
0.0
  0
SEQEND
  5
3321
330
2E67
100
AcDbEntity
  8
0
  0
LINE
  5
2E6C
330
1E
100
AcDbEntity
  8
0
100
AcDbLine
 10
5.056102362204724
 20
4.191929133858267
 30
0.0
 11
5.176181102362204
 21
4.193897637795275
 31
0.0
  0
LINE
  5
2E6D
330
1E
100
AcDbEntity
  8
0
100
AcDbLine
 10
5.176181102362204
 20
4.210629921259842
 30
0.0
 11
5.056102362204724
 21
4.20767716535433
 31
0.0
  0
LINE
  5
2E6E
330
1E
100
AcDbEntity
  8
0
100
AcDbLine
 10
5.056102362204724
 20
4.26771653543307
 30
0.0
 11
5.176181102362204
 21
4.270669291338582
 31
0.0
  0
LINE
  5
2E6F
330
1E
100
AcDbEntity
  8
0
100
AcDbLine
 10
5.101377952755905
 20
4.424212598425197
 30
0.0
 11
5.101377952755905
 21
4.287401574803149
 31
0.0
  0
LINE
  5
2E70
330
1E
100
AcDbEntity
  8
0
100
AcDbLine
 10
5.176181102362204
 20
4.441929133858267
 30
0.0
 11
5.056102362204724
 21
4.443897637795275
 31
0.0
  0
LINE
  5
2E71
330
1E
100
AcDbEntity
  8
0
100
AcDbLine
 10
5.056102362204724
 20
4.474409448818897
 30
0.0
 11
5.176181102362204
 21
4.472440944881889
 31
0.0
  0
LINE
  5
2E72
330
1E
100
AcDbEntity
  8
0
100
AcDbLine
 10
5.056102362204724
 20
4.503937007874015
 30
0.0
 11
5.176181102362204
 21
4.501968503937007
 31
0.0
  0
LINE
  5
2E73
330
1E
100
AcDbEntity
  8
0
100
AcDbLine
 10
5.176181102362204
 20
4.741141732283464
 30
0.0
 11
5.056102362204724
 21
4.739173228346456
 31
0.0
  0
LINE
  5
2E74
330
1E
100
AcDbEntity
  8
0
100
AcDbLine
 10
5.176181102362204
 20
4.771653543307086
 30
0.0
 11
5.056102362204724
 21
4.768700787401574
 31
0.0
  0
LINE
  5
2E75
330
1E
100
AcDbEntity
  8
0
100
AcDbLine
 10
5.056102362204724
 20
4.799212598425197
 30
0.0
 11
5.176181102362204
 21
4.801181102362204
 31
0.0
  0
LINE
  5
2E76
330
1E
100
AcDbEntity
  8
0
100
AcDbLine
 10
5.101377952755905
 20
4.955708661417323
 30
0.0
 11
5.101377952755905
 21
4.819881889763779
 31
0.0
  0
LINE
  5
2E77
330
1E
100
AcDbEntity
  8
0
100
AcDbLine
 10
5.176181102362204
 20
4.973425196850393
 30
0.0
 11
5.056102362204724
 21
4.975393700787401
 31
0.0
  0
LINE
  5
2E78
330
1E
100
AcDbEntity
  8
0
100
AcDbLine
 10
5.056102362204724
 20
5.035433070866141
 30
0.0
 11
5.176181102362204
 21
5.033464566929133
 31
0.0
  0
LINE
  5
2E79
330
1E
100
AcDbEntity
  8
0
100
AcDbLine
 10
5.176181102362204
 20
5.049212598425197
 30
0.0
 11
5.056102362204724
 21
5.051181102362204
 31
0.0
  0
LINE
  5
2E7A
330
1E
100
AcDbEntity
  8
0
100
AcDbLine
 10
5.056102362204724
 20
5.071850393700787
 30
0.0
 11
5.176181102362204
 21
5.069881889763779
 31
0.0
  0
LINE
  5
2E7B
330
1E
100
AcDbEntity
  8
0
100
AcDbLine
 10
4.898622047244094
 20
4.375984251968503
 30
0.0
 11
4.86515748031496
 21
4.375984251968503
 31
0.0
  0
LINE
  5
2E7C
330
1E
100
AcDbEntity
  8
0
100
AcDbLine
 10
4.898622047244094
 20
4.473425196850393
 30
0.0
 11
4.86515748031496
 21
4.472440944881889
 31
0.0
  0
LINE
  5
2E7D
330
1E
100
AcDbEntity
  8
0
100
AcDbLine
 10
4.898622047244094
 20
4.770669291338582
 30
0.0
 11
4.86515748031496
 21
4.770669291338582
 31
0.0
  0
LINE
  5
2E7E
330
1E
100
AcDbEntity
  8
0
100
AcDbLine
 10
4.898622047244094
 20
4.867125984251968
 30
0.0
 11
4.86515748031496
 21
4.867125984251968
 31
0.0
  0
LINE
  5
2E7F
330
1E
100
AcDbEntity
  8
0
100
AcDbLine
 10
5.641732283464566
 20
4.204724409448818
 30
0.0
 11
5.641732283464566
 21
4.224409448818897
 31
0.0
  0
POLYLINE
  5
2E80
330
1E
100
AcDbEntity
  8
0
100
AcDb2dPolyline
 66
     1
 10
0.0
 20
0.0
 30
0.0
  0
VERTEX
  5
3322
330
2E80
100
AcDbEntity
  8
0
100
AcDbVertex
100
AcDb2dVertex
 10
5.641732283464566
 20
4.224409448818897
 30
0.0
  0
VERTEX
  5
3323
330
2E80
100
AcDbEntity
  8
0
100
AcDbVertex
100
AcDb2dVertex
 10
5.639763779527559
 20
4.232283464566928
 30
0.0
  0
VERTEX
  5
3324
330
2E80
100
AcDbEntity
  8
0
100
AcDbVertex
100
AcDb2dVertex
 10
5.633858267716535
 20
4.238188976377952
 30
0.0
  0
SEQEND
  5
3325
330
2E80
100
AcDbEntity
  8
0
  0
POLYLINE
  5
2E85
330
1E
100
AcDbEntity
  8
0
100
AcDb2dPolyline
 66
     1
 10
0.0
 20
0.0
 30
0.0
  0
VERTEX
  5
3326
330
2E85
100
AcDbEntity
  8
0
100
AcDbVertex
100
AcDb2dVertex
 10
5.633858267716535
 20
4.190944881889763
 30
0.0
  0
VERTEX
  5
3327
330
2E85
100
AcDbEntity
  8
0
100
AcDbVertex
100
AcDb2dVertex
 10
5.639763779527559
 20
4.196850393700787
 30
0.0
  0
VERTEX
  5
3328
330
2E85
100
AcDbEntity
  8
0
100
AcDbVertex
100
AcDb2dVertex
 10
5.641732283464566
 20
4.204724409448818
 30
0.0
  0
SEQEND
  5
3329
330
2E85
100
AcDbEntity
  8
0
  0
LINE
  5
2E8A
330
1E
100
AcDbEntity
  8
0
100
AcDbLine
 10
4.86515748031496
 20
4.471456692913386
 30
0.0
 11
4.86515748031496
 21
4.771653543307086
 31
0.0
  0
LINE
  5
2E8B
330
1E
100
AcDbEntity
  8
0
100
AcDbLine
 10
4.86515748031496
 20
4.194881889763779
 30
0.0
 11
4.86515748031496
 21
4.376968503937007
 31
0.0
  0
POLYLINE
  5
2E8C
330
1E
100
AcDbEntity
  8
0
100
AcDb2dPolyline
 66
     1
 10
0.0
 20
0.0
 30
0.0
  0
VERTEX
  5
332A
330
2E8C
100
AcDbEntity
  8
0
100
AcDbVertex
100
AcDb2dVertex
 10
4.86515748031496
 20
4.1751968503937
 30
0.0
  0
VERTEX
  5
332B
330
2E8C
100
AcDbEntity
  8
0
100
AcDbVertex
100
AcDb2dVertex
 10
4.86515748031496
 20
4.181102362204724
 30
0.0
  0
VERTEX
  5
332C
330
2E8C
100
AcDbEntity
  8
0
100
AcDbVertex
100
AcDb2dVertex
 10
4.86515748031496
 20
4.194881889763779
 30
0.0
  0
SEQEND
  5
332D
330
2E8C
100
AcDbEntity
  8
0
  0
POLYLINE
  5
2E91
330
1E
100
AcDbEntity
  8
0
100
AcDb2dPolyline
 66
     1
 10
0.0
 20
0.0
 30
0.0
  0
VERTEX
  5
332E
330
2E91
100
AcDbEntity
  8
0
100
AcDbVertex
100
AcDb2dVertex
 10
4.86515748031496
 20
5.048228346456692
 30
0.0
  0
VERTEX
  5
332F
330
2E91
100
AcDbEntity
  8
0
100
AcDbVertex
100
AcDb2dVertex
 10
4.86515748031496
 20
5.062007874015748
 30
0.0
  0
VERTEX
  5
3330
330
2E91
100
AcDbEntity
  8
0
100
AcDbVertex
100
AcDb2dVertex
 10
4.86515748031496
 20
5.067913385826771
 30
0.0
  0
SEQEND
  5
3331
330
2E91
100
AcDbEntity
  8
0
  0
LINE
  5
2E96
330
1E
100
AcDbEntity
  8
0
100
AcDbLine
 10
4.86515748031496
 20
4.866141732283464
 30
0.0
 11
4.86515748031496
 21
5.048228346456692
 31
0.0
  0
POLYLINE
  5
2E97
330
1E
100
AcDbEntity
  8
0
100
AcDb2dPolyline
 66
     1
 10
0.0
 20
0.0
 30
0.0
  0
VERTEX
  5
3332
330
2E97
100
AcDbEntity
  8
0
100
AcDbVertex
100
AcDb2dVertex
 10
4.755905511811023
 20
5.065944881889763
 30
0.0
  0
VERTEX
  5
3333
330
2E97
100
AcDbEntity
  8
0
100
AcDbVertex
100
AcDb2dVertex
 10
4.746062992125984
 20
5.062007874015748
 30
0.0
  0
VERTEX
  5
3334
330
2E97
100
AcDbEntity
  8
0
100
AcDbVertex
100
AcDb2dVertex
 10
4.741141732283464
 20
5.051181102362204
 30
0.0
  0
SEQEND
  5
3335
330
2E97
100
AcDbEntity
  8
0
  0
POLYLINE
  5
2E9C
330
1E
100
AcDbEntity
  8
0
100
AcDb2dPolyline
 66
     1
 10
0.0
 20
0.0
 30
0.0
  0
VERTEX
  5
3336
330
2E9C
100
AcDbEntity
  8
0
100
AcDbVertex
100
AcDb2dVertex
 10
4.741141732283464
 20
5.046259842519685
 30
0.0
  0
VERTEX
  5
3337
330
2E9C
100
AcDbEntity
  8
0
100
AcDbVertex
100
AcDb2dVertex
 10
4.746062992125984
 20
5.046259842519685
 30
0.0
  0
VERTEX
  5
3338
330
2E9C
100
AcDbEntity
  8
0
100
AcDbVertex
100
AcDb2dVertex
 10
4.755905511811023
 20
5.046259842519685
 30
0.0
  0
SEQEND
  5
3339
330
2E9C
100
AcDbEntity
  8
0
  0
POLYLINE
  5
2EA1
330
1E
100
AcDbEntity
  8
0
100
AcDb2dPolyline
 66
     1
 10
0.0
 20
0.0
 30
0.0
  0
VERTEX
  5
333A
330
2EA1
100
AcDbEntity
  8
0
100
AcDbVertex
100
AcDb2dVertex
 10
4.755905511811023
 20
5.065944881889763
 30
0.0
  0
VERTEX
  5
333B
330
2EA1
100
AcDbEntity
  8
0
100
AcDbVertex
100
AcDb2dVertex
 10
4.755905511811023
 20
5.060039370078739
 30
0.0
  0
VERTEX
  5
333C
330
2EA1
100
AcDbEntity
  8
0
100
AcDbVertex
100
AcDb2dVertex
 10
4.755905511811023
 20
5.046259842519685
 30
0.0
  0
SEQEND
  5
333D
330
2EA1
100
AcDbEntity
  8
0
  0
LINE
  5
2EA6
330
1E
100
AcDbEntity
  8
0
100
AcDbLine
 10
4.741141732283464
 20
5.046259842519685
 30
0.0
 11
4.741141732283464
 21
5.051181102362204
 31
0.0
  0
POLYLINE
  5
2EA7
330
1E
100
AcDbEntity
  8
0
100
AcDb2dPolyline
 66
     1
 10
0.0
 20
0.0
 30
0.0
  0
VERTEX
  5
333E
330
2EA7
100
AcDbEntity
  8
0
100
AcDbVertex
100
AcDb2dVertex
 10
4.741141732283464
 20
4.191929133858267
 30
0.0
  0
VERTEX
  5
333F
330
2EA7
100
AcDbEntity
  8
0
100
AcDbVertex
100
AcDb2dVertex
 10
4.746062992125984
 20
4.181102362204724
 30
0.0
  0
VERTEX
  5
3340
330
2EA7
100
AcDbEntity
  8
0
100
AcDbVertex
100
AcDb2dVertex
 10
4.755905511811023
 20
4.177165354330708
 30
0.0
  0
SEQEND
  5
3341
330
2EA7
100
AcDbEntity
  8
0
  0
POLYLINE
  5
2EAC
330
1E
100
AcDbEntity
  8
0
100
AcDb2dPolyline
 66
     1
 10
0.0
 20
0.0
 30
0.0
  0
VERTEX
  5
3342
330
2EAC
100
AcDbEntity
  8
0
100
AcDbVertex
100
AcDb2dVertex
 10
4.755905511811023
 20
4.196850393700787
 30
0.0
  0
VERTEX
  5
3343
330
2EAC
100
AcDbEntity
  8
0
100
AcDbVertex
100
AcDb2dVertex
 10
4.755905511811023
 20
4.183070866141732
 30
0.0
  0
VERTEX
  5
3344
330
2EAC
100
AcDbEntity
  8
0
100
AcDbVertex
100
AcDb2dVertex
 10
4.755905511811023
 20
4.177165354330708
 30
0.0
  0
SEQEND
  5
3345
330
2EAC
100
AcDbEntity
  8
0
  0
POLYLINE
  5
2EB1
330
1E
100
AcDbEntity
  8
0
100
AcDb2dPolyline
 66
     1
 10
0.0
 20
0.0
 30
0.0
  0
VERTEX
  5
3346
330
2EB1
100
AcDbEntity
  8
0
100
AcDbVertex
100
AcDb2dVertex
 10
4.741141732283464
 20
4.196850393700787
 30
0.0
  0
VERTEX
  5
3347
330
2EB1
100
AcDbEntity
  8
0
100
AcDbVertex
100
AcDb2dVertex
 10
4.746062992125984
 20
4.196850393700787
 30
0.0
  0
VERTEX
  5
3348
330
2EB1
100
AcDbEntity
  8
0
100
AcDbVertex
100
AcDb2dVertex
 10
4.755905511811023
 20
4.196850393700787
 30
0.0
  0
SEQEND
  5
3349
330
2EB1
100
AcDbEntity
  8
0
  0
LINE
  5
2EB6
330
1E
100
AcDbEntity
  8
0
100
AcDbLine
 10
4.741141732283464
 20
4.191929133858267
 30
0.0
 11
4.741141732283464
 21
4.196850393700787
 31
0.0
  0
LINE
  5
2EB7
330
1E
100
AcDbEntity
  8
0
100
AcDbLine
 10
4.741141732283464
 20
4.196850393700787
 30
0.0
 11
4.741141732283464
 21
5.046259842519685
 31
0.0
  0
LINE
  5
2EB8
330
1E
100
AcDbEntity
  8
0
100
AcDbLine
 10
4.755905511811023
 20
5.046259842519685
 30
0.0
 11
4.755905511811023
 21
4.196850393700787
 31
0.0
  0
LINE
  5
2EB9
330
1E
100
AcDbEntity
  8
0
100
AcDbLine
 10
4.755905511811023
 20
4.196850393700787
 30
0.0
 11
4.86515748031496
 21
4.194881889763779
 31
0.0
  0
LINE
  5
2EBA
330
1E
100
AcDbEntity
  8
0
100
AcDbLine
 10
4.86515748031496
 20
4.376968503937007
 30
0.0
 11
4.898622047244094
 21
4.377952755905512
 31
0.0
  0
LINE
  5
2EBB
330
1E
100
AcDbEntity
  8
0
100
AcDbLine
 10
4.86515748031496
 20
4.471456692913386
 30
0.0
 11
4.898622047244094
 21
4.470472440944881
 31
0.0
  0
LINE
  5
2EBC
330
1E
100
AcDbEntity
  8
0
100
AcDbLine
 10
4.86515748031496
 20
4.771653543307086
 30
0.0
 11
4.898622047244094
 21
4.77263779527559
 31
0.0
  0
LINE
  5
2EBD
330
1E
100
AcDbEntity
  8
0
100
AcDbLine
 10
4.86515748031496
 20
4.866141732283464
 30
0.0
 11
4.898622047244094
 21
4.86515748031496
 31
0.0
  0
LINE
  5
2EBE
330
1E
100
AcDbEntity
  8
0
100
AcDbLine
 10
4.86515748031496
 20
5.048228346456692
 30
0.0
 11
4.755905511811023
 21
5.046259842519685
 31
0.0
  0
LINE
  5
2EBF
330
1E
100
AcDbEntity
  8
0
100
AcDbLine
 10
4.86515748031496
 20
4.1751968503937
 30
0.0
 11
4.755905511811023
 21
4.177165354330708
 31
0.0
  0
LINE
  5
2EC0
330
1E
100
AcDbEntity
  8
0
100
AcDbLine
 10
4.755905511811023
 20
5.065944881889763
 30
0.0
 11
4.86515748031496
 21
5.067913385826771
 31
0.0
  0
LINE
  5
2EC1
330
1E
100
AcDbEntity
  8
0
100
AcDbLine
 10
4.721456692913386
 20
4.319881889763779
 30
0.0
 11
4.741141732283464
 21
4.319881889763779
 31
0.0
  0
LINE
  5
2EC2
330
1E
100
AcDbEntity
  8
0
100
AcDbLine
 10
4.741141732283464
 20
4.274606299212598
 30
0.0
 11
4.721456692913386
 21
4.274606299212598
 31
0.0
  0
LINE
  5
2EC3
330
1E
100
AcDbEntity
  8
0
100
AcDbLine
 10
4.711614173228346
 20
4.284448818897637
 30
0.0
 11
4.711614173228346
 21
4.310039370078739
 31
0.0
  0
LINE
  5
2EC4
330
1E
100
AcDbEntity
  8
0
100
AcDbLine
 10
4.741141732283464
 20
4.310039370078739
 30
0.0
 11
4.721456692913386
 21
4.310039370078739
 31
0.0
  0
LINE
  5
2EC5
330
1E
100
AcDbEntity
  8
0
100
AcDbLine
 10
4.721456692913386
 20
4.310039370078739
 30
0.0
 11
4.721456692913386
 21
4.284448818897637
 31
0.0
  0
LINE
  5
2EC6
330
1E
100
AcDbEntity
  8
0
100
AcDbLine
 10
4.721456692913386
 20
4.284448818897637
 30
0.0
 11
4.741141732283464
 21
4.284448818897637
 31
0.0
  0
POLYLINE
  5
2EC7
330
1E
100
AcDbEntity
  8
0
100
AcDb2dPolyline
 66
     1
 10
0.0
 20
0.0
 30
0.0
  0
VERTEX
  5
334A
330
2EC7
100
AcDbEntity
  8
0
100
AcDbVertex
100
AcDb2dVertex
 10
4.721456692913386
 20
4.284448818897637
 30
0.0
  0
VERTEX
  5
334B
330
2EC7
100
AcDbEntity
  8
0
100
AcDbVertex
100
AcDb2dVertex
 10
4.721456692913386
 20
4.27755905511811
 30
0.0
  0
VERTEX
  5
334C
330
2EC7
100
AcDbEntity
  8
0
100
AcDbVertex
100
AcDb2dVertex
 10
4.721456692913386
 20
4.274606299212598
 30
0.0
  0
SEQEND
  5
334D
330
2EC7
100
AcDbEntity
  8
0
  0
POLYLINE
  5
2ECC
330
1E
100
AcDbEntity
  8
0
100
AcDb2dPolyline
 66
     1
 10
0.0
 20
0.0
 30
0.0
  0
VERTEX
  5
334E
330
2ECC
100
AcDbEntity
  8
0
100
AcDbVertex
100
AcDb2dVertex
 10
4.721456692913386
 20
4.319881889763779
 30
0.0
  0
VERTEX
  5
334F
330
2ECC
100
AcDbEntity
  8
0
100
AcDbVertex
100
AcDb2dVertex
 10
4.721456692913386
 20
4.316929133858267
 30
0.0
  0
VERTEX
  5
3350
330
2ECC
100
AcDbEntity
  8
0
100
AcDbVertex
100
AcDb2dVertex
 10
4.721456692913386
 20
4.310039370078739
 30
0.0
  0
SEQEND
  5
3351
330
2ECC
100
AcDbEntity
  8
0
  0
POLYLINE
  5
2ED1
330
1E
100
AcDbEntity
  8
0
100
AcDb2dPolyline
 66
     1
 10
0.0
 20
0.0
 30
0.0
  0
VERTEX
  5
3352
330
2ED1
100
AcDbEntity
  8
0
100
AcDbVertex
100
AcDb2dVertex
 10
4.721456692913386
 20
4.319881889763779
 30
0.0
  0
VERTEX
  5
3353
330
2ED1
100
AcDbEntity
  8
0
100
AcDbVertex
100
AcDb2dVertex
 10
4.714566929133858
 20
4.316929133858267
 30
0.0
  0
VERTEX
  5
3354
330
2ED1
100
AcDbEntity
  8
0
100
AcDbVertex
100
AcDb2dVertex
 10
4.711614173228346
 20
4.310039370078739
 30
0.0
  0
SEQEND
  5
3355
330
2ED1
100
AcDbEntity
  8
0
  0
POLYLINE
  5
2ED6
330
1E
100
AcDbEntity
  8
0
100
AcDb2dPolyline
 66
     1
 10
0.0
 20
0.0
 30
0.0
  0
VERTEX
  5
3356
330
2ED6
100
AcDbEntity
  8
0
100
AcDbVertex
100
AcDb2dVertex
 10
4.721456692913386
 20
4.310039370078739
 30
0.0
  0
VERTEX
  5
3357
330
2ED6
100
AcDbEntity
  8
0
100
AcDbVertex
100
AcDb2dVertex
 10
4.714566929133858
 20
4.310039370078739
 30
0.0
  0
VERTEX
  5
3358
330
2ED6
100
AcDbEntity
  8
0
100
AcDbVertex
100
AcDb2dVertex
 10
4.711614173228346
 20
4.310039370078739
 30
0.0
  0
SEQEND
  5
3359
330
2ED6
100
AcDbEntity
  8
0
  0
POLYLINE
  5
2EDB
330
1E
100
AcDbEntity
  8
0
100
AcDb2dPolyline
 66
     1
 10
0.0
 20
0.0
 30
0.0
  0
VERTEX
  5
335A
330
2EDB
100
AcDbEntity
  8
0
100
AcDbVertex
100
AcDb2dVertex
 10
4.721456692913386
 20
4.284448818897637
 30
0.0
  0
VERTEX
  5
335B
330
2EDB
100
AcDbEntity
  8
0
100
AcDbVertex
100
AcDb2dVertex
 10
4.714566929133858
 20
4.284448818897637
 30
0.0
  0
VERTEX
  5
335C
330
2EDB
100
AcDbEntity
  8
0
100
AcDbVertex
100
AcDb2dVertex
 10
4.711614173228346
 20
4.284448818897637
 30
0.0
  0
SEQEND
  5
335D
330
2EDB
100
AcDbEntity
  8
0
  0
POLYLINE
  5
2EE0
330
1E
100
AcDbEntity
  8
0
100
AcDb2dPolyline
 66
     1
 10
0.0
 20
0.0
 30
0.0
  0
VERTEX
  5
335E
330
2EE0
100
AcDbEntity
  8
0
100
AcDbVertex
100
AcDb2dVertex
 10
4.721456692913386
 20
4.274606299212598
 30
0.0
  0
VERTEX
  5
335F
330
2EE0
100
AcDbEntity
  8
0
100
AcDbVertex
100
AcDb2dVertex
 10
4.714566929133858
 20
4.27755905511811
 30
0.0
  0
VERTEX
  5
3360
330
2EE0
100
AcDbEntity
  8
0
100
AcDbVertex
100
AcDb2dVertex
 10
4.711614173228346
 20
4.284448818897637
 30
0.0
  0
SEQEND
  5
3361
330
2EE0
100
AcDbEntity
  8
0
  0
POLYLINE
  5
2EE5
330
1E
100
AcDbEntity
  8
0
100
AcDb2dPolyline
 66
     1
 10
0.0
 20
0.0
 30
0.0
  0
VERTEX
  5
3362
330
2EE5
100
AcDbEntity
  8
0
100
AcDbVertex
100
AcDb2dVertex
 10
5.569881889763779
 20
4.954724409448818
 30
0.0
  0
VERTEX
  5
3363
330
2EE5
100
AcDbEntity
  8
0
100
AcDbVertex
100
AcDb2dVertex
 10
5.588582677165354
 20
4.954724409448818
 30
0.0
  0
VERTEX
  5
3364
330
2EE5
100
AcDbEntity
  8
0
100
AcDbVertex
100
AcDb2dVertex
 10
5.636811023622047
 20
4.954724409448818
 30
0.0
  0
VERTEX
  5
3365
330
2EE5
100
AcDbEntity
  8
0
100
AcDbVertex
100
AcDb2dVertex
 10
5.699803149606299
 20
4.954724409448818
 30
0.0
  0
VERTEX
  5
3366
330
2EE5
100
AcDbEntity
  8
0
100
AcDbVertex
100
AcDb2dVertex
 10
5.750984251968503
 20
4.954724409448818
 30
0.0
  0
VERTEX
  5
3367
330
2EE5
100
AcDbEntity
  8
0
100
AcDbVertex
100
AcDb2dVertex
 10
5.801181102362204
 20
4.954724409448818
 30
0.0
  0
SEQEND
  5
3368
330
2EE5
100
AcDbEntity
  8
0
  0
POLYLINE
  5
2EED
330
1E
100
AcDbEntity
  8
0
100
AcDb2dPolyline
 66
     1
 10
0.0
 20
0.0
 30
0.0
  0
VERTEX
  5
3369
330
2EED
100
AcDbEntity
  8
0
100
AcDbVertex
100
AcDb2dVertex
 10
5.811023622047244
 20
4.954724409448818
 30
0.0
  0
VERTEX
  5
336A
330
2EED
100
AcDbEntity
  8
0
100
AcDbVertex
100
AcDb2dVertex
 10
5.808070866141732
 20
4.954724409448818
 30
0.0
  0
VERTEX
  5
336B
330
2EED
100
AcDbEntity
  8
0
100
AcDbVertex
100
AcDb2dVertex
 10
5.801181102362204
 20
4.954724409448818
 30
0.0
  0
SEQEND
  5
336C
330
2EED
100
AcDbEntity
  8
0
  0
POLYLINE
  5
2EF2
330
1E
100
AcDbEntity
  8
0
100
AcDb2dPolyline
 66
     1
 10
0.0
 20
0.0
 30
0.0
  0
VERTEX
  5
336D
330
2EF2
100
AcDbEntity
  8
0
100
AcDbVertex
100
AcDb2dVertex
 10
5.820866141732283
 20
4.954724409448818
 30
0.0
  0
VERTEX
  5
336E
330
2EF2
100
AcDbEntity
  8
0
100
AcDbVertex
100
AcDb2dVertex
 10
5.813976377952755
 20
4.954724409448818
 30
0.0
  0
VERTEX
  5
336F
330
2EF2
100
AcDbEntity
  8
0
100
AcDbVertex
100
AcDb2dVertex
 10
5.811023622047244
 20
4.954724409448818
 30
0.0
  0
SEQEND
  5
3370
330
2EF2
100
AcDbEntity
  8
0
  0
LINE
  5
2EF7
330
1E
100
AcDbEntity
  8
0
100
AcDbLine
 10
5.820866141732283
 20
4.954724409448818
 30
0.0
 11
5.979330708661417
 21
4.954724409448818
 31
0.0
  0
LINE
  5
2EF8
330
1E
100
AcDbEntity
  8
0
100
AcDbLine
 10
5.811023622047244
 20
4.807086614173228
 30
0.0
 11
5.820866141732283
 21
4.807086614173228
 31
0.0
  0
LINE
  5
2EF9
330
1E
100
AcDbEntity
  8
0
100
AcDbLine
 10
6.173228346456692
 20
4.964566929133858
 30
0.0
 11
6.14271653543307
 21
4.964566929133858
 31
0.0
  0
POLYLINE
  5
2EFA
330
1E
100
AcDbEntity
  8
0
100
AcDb2dPolyline
 66
     1
 10
0.0
 20
0.0
 30
0.0
  0
VERTEX
  5
3371
330
2EFA
100
AcDbEntity
  8
0
100
AcDbVertex
100
AcDb2dVertex
 10
6.181102362204724
 20
4.964566929133858
 30
0.0
  0
VERTEX
  5
3372
330
2EFA
100
AcDbEntity
  8
0
100
AcDbVertex
100
AcDb2dVertex
 10
6.179133858267716
 20
4.964566929133858
 30
0.0
  0
VERTEX
  5
3373
330
2EFA
100
AcDbEntity
  8
0
100
AcDbVertex
100
AcDb2dVertex
 10
6.173228346456692
 20
4.964566929133858
 30
0.0
  0
SEQEND
  5
3374
330
2EFA
100
AcDbEntity
  8
0
  0
LINE
  5
2EFF
330
1E
100
AcDbEntity
  8
0
100
AcDbLine
 10
5.811023622047244
 20
4.706692913385826
 30
0.0
 11
5.820866141732283
 21
4.706692913385826
 31
0.0
  0
POLYLINE
  5
2F00
330
1E
100
AcDbEntity
  8
0
100
AcDb2dPolyline
 66
     1
 10
0.0
 20
0.0
 30
0.0
  0
VERTEX
  5
3375
330
2F00
100
AcDbEntity
  8
0
100
AcDbVertex
100
AcDb2dVertex
 10
5.802165354330708
 20
4.706692913385826
 30
0.0
  0
VERTEX
  5
3376
330
2F00
100
AcDbEntity
  8
0
100
AcDbVertex
100
AcDb2dVertex
 10
5.809055118110236
 20
4.706692913385826
 30
0.0
  0
VERTEX
  5
3377
330
2F00
100
AcDbEntity
  8
0
100
AcDbVertex
100
AcDb2dVertex
 10
5.811023622047244
 20
4.706692913385826
 30
0.0
  0
SEQEND
  5
3378
330
2F00
100
AcDbEntity
  8
0
  0
LINE
  5
2F05
330
1E
100
AcDbEntity
  8
0
100
AcDbLine
 10
5.802165354330708
 20
4.706692913385826
 30
0.0
 11
5.636811023622047
 21
4.704724409448818
 31
0.0
  0
LINE
  5
2F06
330
1E
100
AcDbEntity
  8
0
100
AcDbLine
 10
6.14271653543307
 20
4.954724409448818
 30
0.0
 11
6.14271653543307
 21
4.964566929133858
 31
0.0
  0
LINE
  5
2F07
330
1E
100
AcDbEntity
  8
0
100
AcDbLine
 10
6.182086614173228
 20
4.954724409448818
 30
0.0
 11
6.181102362204724
 21
4.964566929133858
 31
0.0
  0
LINE
  5
2F08
330
1E
100
AcDbEntity
  8
0
100
AcDbLine
 10
5.569881889763779
 20
4.901574803149606
 30
0.0
 11
5.514763779527559
 21
4.901574803149606
 31
0.0
  0
POLYLINE
  5
2F09
330
1E
100
AcDbEntity
  8
0
100
AcDb2dPolyline
 66
     1
 10
0.0
 20
0.0
 30
0.0
  0
VERTEX
  5
3379
330
2F09
100
AcDbEntity
  8
0
100
AcDbVertex
100
AcDb2dVertex
 10
5.514763779527559
 20
4.901574803149606
 30
0.0
  0
VERTEX
  5
337A
330
2F09
100
AcDbEntity
  8
0
100
AcDbVertex
100
AcDb2dVertex
 10
5.498031496062991
 20
4.89763779527559
 30
0.0
  0
VERTEX
  5
337B
330
2F09
100
AcDbEntity
  8
0
100
AcDbVertex
100
AcDb2dVertex
 10
5.48523622047244
 20
4.884842519685038
 30
0.0
  0
VERTEX
  5
337C
330
2F09
100
AcDbEntity
  8
0
100
AcDbVertex
100
AcDb2dVertex
 10
5.480314960629921
 20
4.867125984251968
 30
0.0
  0
SEQEND
  5
337D
330
2F09
100
AcDbEntity
  8
0
  0
LINE
  5
2F0F
330
1E
100
AcDbEntity
  8
0
100
AcDbLine
 10
5.636811023622047
 20
4.704724409448818
 30
0.0
 11
5.636811023622047
 21
4.393700787401574
 31
0.0
  0
LINE
  5
2F10
330
1E
100
AcDbEntity
  8
0
100
AcDbLine
 10
5.546259842519685
 20
4.326771653543307
 30
0.0
 11
5.480314960629921
 21
4.325787401574802
 31
0.0
  0
LINE
  5
2F11
330
1E
100
AcDbEntity
  8
0
100
AcDbLine
 10
5.546259842519685
 20
4.326771653543307
 30
0.0
 11
5.636811023622047
 21
4.393700787401574
 31
0.0
  0
LINE
  5
2F12
330
1E
100
AcDbEntity
  8
0
100
AcDbLine
 10
5.802165354330708
 20
4.901574803149606
 30
0.0
 11
5.802165354330708
 21
4.706692913385826
 31
0.0
  0
LINE
  5
2F13
330
1E
100
AcDbEntity
  8
0
100
AcDbLine
 10
5.636811023622047
 20
4.901574803149606
 30
0.0
 11
5.802165354330708
 21
4.901574803149606
 31
0.0
  0
LINE
  5
2F14
330
1E
100
AcDbEntity
  8
0
100
AcDbLine
 10
5.636811023622047
 20
4.901574803149606
 30
0.0
 11
5.569881889763779
 21
4.901574803149606
 31
0.0
  0
POLYLINE
  5
2F15
330
1E
100
AcDbEntity
  8
0
100
AcDb2dPolyline
 66
     1
 10
0.0
 20
0.0
 30
0.0
  0
VERTEX
  5
337E
330
2F15
100
AcDbEntity
  8
0
100
AcDbVertex
100
AcDb2dVertex
 10
5.811023622047244
 20
4.901574803149606
 30
0.0
  0
VERTEX
  5
337F
330
2F15
100
AcDbEntity
  8
0
100
AcDbVertex
100
AcDb2dVertex
 10
5.813976377952755
 20
4.901574803149606
 30
0.0
  0
VERTEX
  5
3380
330
2F15
100
AcDbEntity
  8
0
100
AcDbVertex
100
AcDb2dVertex
 10
5.820866141732283
 20
4.901574803149606
 30
0.0
  0
SEQEND
  5
3381
330
2F15
100
AcDbEntity
  8
0
  0
LINE
  5
2F1A
330
1E
100
AcDbEntity
  8
0
100
AcDbLine
 10
5.820866141732283
 20
4.901574803149606
 30
0.0
 11
5.820866141732283
 21
4.954724409448818
 31
0.0
  0
LINE
  5
2F1B
330
1E
100
AcDbEntity
  8
0
100
AcDbLine
 10
5.811023622047244
 20
4.901574803149606
 30
0.0
 11
5.811023622047244
 21
4.954724409448818
 31
0.0
  0
LINE
  5
2F1C
330
1E
100
AcDbEntity
  8
0
100
AcDbLine
 10
5.811023622047244
 20
4.726377952755905
 30
0.0
 11
5.81496062992126
 21
4.726377952755905
 31
0.0
  0
LINE
  5
2F1D
330
1E
100
AcDbEntity
  8
0
100
AcDbLine
 10
5.811023622047244
 20
4.706692913385826
 30
0.0
 11
5.811023622047244
 21
4.901574803149606
 31
0.0
  0
LINE
  5
2F1E
330
1E
100
AcDbEntity
  8
0
100
AcDbLine
 10
5.820866141732283
 20
4.807086614173228
 30
0.0
 11
5.820866141732283
 21
4.901574803149606
 31
0.0
  0
LINE
  5
2F1F
330
1E
100
AcDbEntity
  8
0
100
AcDbLine
 10
5.820866141732283
 20
4.901574803149606
 30
0.0
 11
5.88779527559055
 21
4.901574803149606
 31
0.0
  0
LINE
  5
2F20
330
1E
100
AcDbEntity
  8
0
100
AcDbLine
 10
6.173228346456692
 20
4.964566929133858
 30
0.0
 11
6.173228346456692
 21
4.954724409448818
 31
0.0
  0
LINE
  5
2F21
330
1E
100
AcDbEntity
  8
0
100
AcDbLine
 10
5.801181102362204
 20
4.954724409448818
 30
0.0
 11
5.802165354330708
 21
4.901574803149606
 31
0.0
  0
POLYLINE
  5
2F22
330
1E
100
AcDbEntity
  8
0
100
AcDb2dPolyline
 66
     1
 10
0.0
 20
0.0
 30
0.0
  0
VERTEX
  5
3382
330
2F22
100
AcDbEntity
  8
0
100
AcDbVertex
100
AcDb2dVertex
 10
5.569881889763779
 20
4.954724409448818
 30
0.0
  0
VERTEX
  5
3383
330
2F22
100
AcDbEntity
  8
0
100
AcDbVertex
100
AcDb2dVertex
 10
5.569881889763779
 20
4.928149606299212
 30
0.0
  0
VERTEX
  5
3384
330
2F22
100
AcDbEntity
  8
0
100
AcDbVertex
100
AcDb2dVertex
 10
5.569881889763779
 20
4.909448818897637
 30
0.0
  0
VERTEX
  5
3385
330
2F22
100
AcDbEntity
  8
0
100
AcDbVertex
100
AcDb2dVertex
 10
5.569881889763779
 20
4.901574803149606
 30
0.0
  0
SEQEND
  5
3386
330
2F22
100
AcDbEntity
  8
0
  0
POLYLINE
  5
2F28
330
1E
100
AcDbEntity
  8
0
100
AcDb2dPolyline
 66
     1
 10
0.0
 20
0.0
 30
0.0
  0
VERTEX
  5
3387
330
2F28
100
AcDbEntity
  8
0
100
AcDbVertex
100
AcDb2dVertex
 10
5.811023622047244
 20
4.901574803149606
 30
0.0
  0
VERTEX
  5
3388
330
2F28
100
AcDbEntity
  8
0
100
AcDbVertex
100
AcDb2dVertex
 10
5.809055118110236
 20
4.901574803149606
 30
0.0
  0
VERTEX
  5
3389
330
2F28
100
AcDbEntity
  8
0
100
AcDbVertex
100
AcDb2dVertex
 10
5.80511811023622
 20
4.901574803149606
 30
0.0
  0
VERTEX
  5
338A
330
2F28
100
AcDbEntity
  8
0
100
AcDbVertex
100
AcDb2dVertex
 10
5.802165354330708
 20
4.901574803149606
 30
0.0
  0
SEQEND
  5
338B
330
2F28
100
AcDbEntity
  8
0
  0
POLYLINE
  5
2F2E
330
1E
100
AcDbEntity
  8
0
100
AcDb2dPolyline
 66
     1
 10
0.0
 20
0.0
 30
0.0
  0
VERTEX
  5
338C
330
2F2E
100
AcDbEntity
  8
0
100
AcDbVertex
100
AcDb2dVertex
 10
5.480314960629921
 20
4.875984251968503
 30
0.0
  0
VERTEX
  5
338D
330
2F2E
100
AcDbEntity
  8
0
100
AcDbVertex
100
AcDb2dVertex
 10
5.480314960629921
 20
4.881889763779527
 30
0.0
  0
VERTEX
  5
338E
330
2F2E
100
AcDbEntity
  8
0
100
AcDbVertex
100
AcDb2dVertex
 10
5.481299212598425
 20
4.88779527559055
 30
0.0
  0
VERTEX
  5
338F
330
2F2E
100
AcDbEntity
  8
0
100
AcDbVertex
100
AcDb2dVertex
 10
5.487204724409449
 20
4.898622047244094
 30
0.0
  0
VERTEX
  5
3390
330
2F2E
100
AcDbEntity
  8
0
100
AcDbVertex
100
AcDb2dVertex
 10
5.492125984251968
 20
4.904527559055117
 30
0.0
  0
VERTEX
  5
3391
330
2F2E
100
AcDbEntity
  8
0
100
AcDbVertex
100
AcDb2dVertex
 10
5.494094488188975
 20
4.905511811023622
 30
0.0
  0
SEQEND
  5
3392
330
2F2E
100
AcDbEntity
  8
0
  0
POLYLINE
  5
2F36
330
1E
100
AcDbEntity
  8
0
100
AcDb2dPolyline
 66
     1
 10
0.0
 20
0.0
 30
0.0
  0
VERTEX
  5
3393
330
2F36
100
AcDbEntity
  8
0
100
AcDbVertex
100
AcDb2dVertex
 10
5.509842519685038
 20
4.910433070866141
 30
0.0
  0
VERTEX
  5
3394
330
2F36
100
AcDbEntity
  8
0
100
AcDbVertex
100
AcDb2dVertex
 10
5.503937007874015
 20
4.909448818897637
 30
0.0
  0
VERTEX
  5
3395
330
2F36
100
AcDbEntity
  8
0
100
AcDbVertex
100
AcDb2dVertex
 10
5.497047244094487
 20
4.907480314960629
 30
0.0
  0
VERTEX
  5
3396
330
2F36
100
AcDbEntity
  8
0
100
AcDbVertex
100
AcDb2dVertex
 10
5.494094488188975
 20
4.905511811023622
 30
0.0
  0
SEQEND
  5
3397
330
2F36
100
AcDbEntity
  8
0
  0
LINE
  5
2F3C
330
1E
100
AcDbEntity
  8
0
100
AcDbLine
 10
5.540354330708661
 20
4.910433070866141
 30
0.0
 11
5.509842519685038
 21
4.910433070866141
 31
0.0
  0
LINE
  5
2F3D
330
1E
100
AcDbEntity
  8
0
100
AcDbLine
 10
5.540354330708661
 20
4.965551181102362
 30
0.0
 11
5.540354330708661
 21
4.910433070866141
 31
0.0
  0
LINE
  5
2F3E
330
1E
100
AcDbEntity
  8
0
100
AcDbLine
 10
5.415354330708661
 20
4.965551181102362
 30
0.0
 11
5.540354330708661
 21
4.965551181102362
 31
0.0
  0
LINE
  5
2F3F
330
1E
100
AcDbEntity
  8
0
100
AcDbLine
 10
5.415354330708661
 20
4.965551181102362
 30
0.0
 11
5.415354330708661
 21
4.31496062992126
 31
0.0
  0
LINE
  5
2F40
330
1E
100
AcDbEntity
  8
0
100
AcDbLine
 10
5.415354330708661
 20
4.251968503937007
 30
0.0
 11
5.415354330708661
 21
4.31496062992126
 31
0.0
  0
LINE
  5
2F41
330
1E
100
AcDbEntity
  8
0
100
AcDbLine
 10
5.415354330708661
 20
4.251968503937007
 30
0.0
 11
5.480314960629921
 21
4.299212598425197
 31
0.0
  0
LINE
  5
2F42
330
1E
100
AcDbEntity
  8
0
100
AcDbLine
 10
5.480314960629921
 20
4.299212598425197
 30
0.0
 11
5.480314960629921
 21
4.875984251968503
 31
0.0
  0
LINE
  5
2F43
330
1E
100
AcDbEntity
  8
0
100
AcDbLine
 10
5.415354330708661
 20
4.965551181102362
 30
0.0
 11
5.176181102362204
 21
4.965551181102362
 31
0.0
  0
LINE
  5
2F44
330
1E
100
AcDbEntity
  8
0
100
AcDbLine
 10
5.176181102362204
 20
4.254921259842519
 30
0.0
 11
5.415354330708661
 21
4.250984251968503
 31
0.0
  0
LINE
  5
2F45
330
1E
100
AcDbEntity
  8
0
100
AcDbLine
 10
5.415354330708661
 20
4.250984251968503
 30
0.0
 11
5.415354330708661
 21
4.251968503937007
 31
0.0
  0
POLYLINE
  5
2F46
330
1E
100
AcDbEntity
  8
0
100
AcDb2dPolyline
 66
     1
 10
0.0
 20
0.0
 30
0.0
  0
VERTEX
  5
3398
330
2F46
100
AcDbEntity
  8
0
100
AcDbVertex
100
AcDb2dVertex
 10
5.509842519685038
 20
4.905511811023622
 30
0.0
  0
VERTEX
  5
3399
330
2F46
100
AcDbEntity
  8
0
100
AcDbVertex
100
AcDb2dVertex
 10
5.502952755905512
 20
4.904527559055117
 30
0.0
  0
VERTEX
  5
339A
330
2F46
100
AcDbEntity
  8
0
100
AcDbVertex
100
AcDb2dVertex
 10
5.494094488188975
 20
4.900590551181101
 30
0.0
  0
VERTEX
  5
339B
330
2F46
100
AcDbEntity
  8
0
100
AcDbVertex
100
AcDb2dVertex
 10
5.489173228346456
 20
4.896653543307086
 30
0.0
  0
VERTEX
  5
339C
330
2F46
100
AcDbEntity
  8
0
100
AcDbVertex
100
AcDb2dVertex
 10
5.484251968503937
 20
4.891732283464566
 30
0.0
  0
VERTEX
  5
339D
330
2F46
100
AcDbEntity
  8
0
100
AcDbVertex
100
AcDb2dVertex
 10
5.481299212598425
 20
4.883858267716535
 30
0.0
  0
VERTEX
  5
339E
330
2F46
100
AcDbEntity
  8
0
100
AcDbVertex
100
AcDb2dVertex
 10
5.480314960629921
 20
4.875984251968503
 30
0.0
  0
SEQEND
  5
339F
330
2F46
100
AcDbEntity
  8
0
  0
POLYLINE
  5
2F4F
330
1E
100
AcDbEntity
  8
0
100
AcDb2dPolyline
 66
     1
 10
0.0
 20
0.0
 30
0.0
  0
VERTEX
  5
33A0
330
2F4F
100
AcDbEntity
  8
0
100
AcDbVertex
100
AcDb2dVertex
 10
5.509842519685038
 20
4.905511811023622
 30
0.0
  0
VERTEX
  5
33A1
330
2F4F
100
AcDbEntity
  8
0
100
AcDbVertex
100
AcDb2dVertex
 10
5.509842519685038
 20
4.906496062992125
 30
0.0
  0
VERTEX
  5
33A2
330
2F4F
100
AcDbEntity
  8
0
100
AcDbVertex
100
AcDb2dVertex
 10
5.509842519685038
 20
4.908464566929133
 30
0.0
  0
VERTEX
  5
33A3
330
2F4F
100
AcDbEntity
  8
0
100
AcDbVertex
100
AcDb2dVertex
 10
5.509842519685038
 20
4.910433070866141
 30
0.0
  0
SEQEND
  5
33A4
330
2F4F
100
AcDbEntity
  8
0
  0
LINE
  5
2F55
330
1E
100
AcDbEntity
  8
0
100
AcDbLine
 10
5.480314960629921
 20
4.299212598425197
 30
0.0
 11
5.480314960629921
 21
4.293307086614173
 31
0.0
  0
LINE
  5
2F56
330
1E
100
AcDbEntity
  8
0
100
AcDbLine
 10
5.480314960629921
 20
4.293307086614173
 30
0.0
 11
5.415354330708661
 21
4.24507874015748
 31
0.0
  0
LINE
  5
2F57
330
1E
100
AcDbEntity
  8
0
100
AcDbLine
 10
5.415354330708661
 20
4.24507874015748
 30
0.0
 11
5.415354330708661
 21
4.24507874015748
 31
0.0
  0
LINE
  5
2F58
330
1E
100
AcDbEntity
  8
0
100
AcDbLine
 10
5.415354330708661
 20
4.24507874015748
 30
0.0
 11
5.176181102362204
 21
4.25
 31
0.0
  0
POLYLINE
  5
2F59
330
1E
100
AcDbEntity
  8
0
100
AcDb2dPolyline
 66
     1
 10
0.0
 20
0.0
 30
0.0
  0
VERTEX
  5
33A5
330
2F59
100
AcDbEntity
  8
0
100
AcDbVertex
100
AcDb2dVertex
 10
5.415354330708661
 20
4.250984251968503
 30
0.0
  0
VERTEX
  5
33A6
330
2F59
100
AcDbEntity
  8
0
100
AcDbVertex
100
AcDb2dVertex
 10
5.414370078740157
 20
4.25
 30
0.0
  0
VERTEX
  5
33A7
330
2F59
100
AcDbEntity
  8
0
100
AcDbVertex
100
AcDb2dVertex
 10
5.414370078740157
 20
4.249015748031496
 30
0.0
  0
VERTEX
  5
33A8
330
2F59
100
AcDbEntity
  8
0
100
AcDbVertex
100
AcDb2dVertex
 10
5.415354330708661
 20
4.248031496062991
 30
0.0
  0
VERTEX
  5
33A9
330
2F59
100
AcDbEntity
  8
0
100
AcDbVertex
100
AcDb2dVertex
 10
5.415354330708661
 20
4.247047244094487
 30
0.0
  0
VERTEX
  5
33AA
330
2F59
100
AcDbEntity
  8
0
100
AcDbVertex
100
AcDb2dVertex
 10
5.415354330708661
 20
4.246062992125984
 30
0.0
  0
VERTEX
  5
33AB
330
2F59
100
AcDbEntity
  8
0
100
AcDbVertex
100
AcDb2dVertex
 10
5.415354330708661
 20
4.24507874015748
 30
0.0
  0
SEQEND
  5
33AC
330
2F59
100
AcDbEntity
  8
0
  0
POLYLINE
  5
2F62
330
1E
100
AcDbEntity
  8
0
100
AcDb2dPolyline
 66
     1
 10
0.0
 20
0.0
 30
0.0
  0
VERTEX
  5
33AD
330
2F62
100
AcDbEntity
  8
0
100
AcDbVertex
100
AcDb2dVertex
 10
5.559055118110236
 20
4.905511811023622
 30
0.0
  0
VERTEX
  5
33AE
330
2F62
100
AcDbEntity
  8
0
100
AcDbVertex
100
AcDb2dVertex
 10
5.562007874015748
 20
4.905511811023622
 30
0.0
  0
VERTEX
  5
33AF
330
2F62
100
AcDbEntity
  8
0
100
AcDbVertex
100
AcDb2dVertex
 10
5.569881889763779
 20
4.905511811023622
 30
0.0
  0
SEQEND
  5
33B0
330
2F62
100
AcDbEntity
  8
0
  0
POLYLINE
  5
2F67
330
1E
100
AcDbEntity
  8
0
100
AcDb2dPolyline
 66
     1
 10
0.0
 20
0.0
 30
0.0
  0
VERTEX
  5
33B1
330
2F67
100
AcDbEntity
  8
0
100
AcDbVertex
100
AcDb2dVertex
 10
5.540354330708661
 20
4.905511811023622
 30
0.0
  0
VERTEX
  5
33B2
330
2F67
100
AcDbEntity
  8
0
100
AcDbVertex
100
AcDb2dVertex
 10
5.553149606299212
 20
4.905511811023622
 30
0.0
  0
VERTEX
  5
33B3
330
2F67
100
AcDbEntity
  8
0
100
AcDbVertex
100
AcDb2dVertex
 10
5.559055118110236
 20
4.905511811023622
 30
0.0
  0
SEQEND
  5
33B4
330
2F67
100
AcDbEntity
  8
0
  0
LINE
  5
2F6C
330
1E
100
AcDbEntity
  8
0
100
AcDbLine
 10
5.509842519685038
 20
4.905511811023622
 30
0.0
 11
5.540354330708661
 21
4.905511811023622
 31
0.0
  0
LINE
  5
2F6D
330
1E
100
AcDbEntity
  8
0
100
AcDbLine
 10
5.602362204724409
 20
4.954724409448818
 30
0.0
 11
5.602362204724409
 21
4.965551181102362
 31
0.0
  0
POLYLINE
  5
2F6E
330
1E
100
AcDbEntity
  8
0
100
AcDb2dPolyline
 66
     1
 10
0.0
 20
0.0
 30
0.0
  0
VERTEX
  5
33B5
330
2F6E
100
AcDbEntity
  8
0
100
AcDbVertex
100
AcDb2dVertex
 10
5.602362204724409
 20
4.965551181102362
 30
0.0
  0
VERTEX
  5
33B6
330
2F6E
100
AcDbEntity
  8
0
100
AcDbVertex
100
AcDb2dVertex
 10
5.583661417322834
 20
4.965551181102362
 30
0.0
  0
VERTEX
  5
33B7
330
2F6E
100
AcDbEntity
  8
0
100
AcDbVertex
100
AcDb2dVertex
 10
5.569881889763779
 20
4.965551181102362
 30
0.0
  0
VERTEX
  5
33B8
330
2F6E
100
AcDbEntity
  8
0
100
AcDbVertex
100
AcDb2dVertex
 10
5.563976377952755
 20
4.965551181102362
 30
0.0
  0
SEQEND
  5
33B9
330
2F6E
100
AcDbEntity
  8
0
  0
LINE
  5
2F74
330
1E
100
AcDbEntity
  8
0
100
AcDbLine
 10
5.563976377952755
 20
4.910433070866141
 30
0.0
 11
5.563976377952755
 21
4.965551181102362
 31
0.0
  0
POLYLINE
  5
2F75
330
1E
100
AcDbEntity
  8
0
100
AcDb2dPolyline
 66
     1
 10
0.0
 20
0.0
 30
0.0
  0
VERTEX
  5
33BA
330
2F75
100
AcDbEntity
  8
0
100
AcDbVertex
100
AcDb2dVertex
 10
5.569881889763779
 20
4.910433070866141
 30
0.0
  0
VERTEX
  5
33BB
330
2F75
100
AcDbEntity
  8
0
100
AcDbVertex
100
AcDb2dVertex
 10
5.565944881889763
 20
4.910433070866141
 30
0.0
  0
VERTEX
  5
33BC
330
2F75
100
AcDbEntity
  8
0
100
AcDbVertex
100
AcDb2dVertex
 10
5.563976377952755
 20
4.910433070866141
 30
0.0
  0
SEQEND
  5
33BD
330
2F75
100
AcDbEntity
  8
0
  0
LINE
  5
2F7A
330
1E
100
AcDbEntity
  8
0
100
AcDbLine
 10
5.726377952755905
 20
4.954724409448818
 30
0.0
 11
5.726377952755905
 21
4.965551181102362
 31
0.0
  0
LINE
  5
2F7B
330
1E
100
AcDbEntity
  8
0
100
AcDbLine
 10
5.602362204724409
 20
4.965551181102362
 30
0.0
 11
5.726377952755905
 21
4.965551181102362
 31
0.0
  0
LINE
  5
2F7C
330
1E
100
AcDbEntity
  8
0
100
AcDbLine
 10
5.750984251968503
 20
4.965551181102362
 30
0.0
 11
5.750984251968503
 21
4.954724409448818
 31
0.0
  0
POLYLINE
  5
2F7D
330
1E
100
AcDbEntity
  8
0
100
AcDb2dPolyline
 66
     1
 10
0.0
 20
0.0
 30
0.0
  0
VERTEX
  5
33BE
330
2F7D
100
AcDbEntity
  8
0
100
AcDbVertex
100
AcDb2dVertex
 10
5.726377952755905
 20
4.965551181102362
 30
0.0
  0
VERTEX
  5
33BF
330
2F7D
100
AcDbEntity
  8
0
100
AcDbVertex
100
AcDb2dVertex
 10
5.743110236220472
 20
4.965551181102362
 30
0.0
  0
VERTEX
  5
33C0
330
2F7D
100
AcDbEntity
  8
0
100
AcDbVertex
100
AcDb2dVertex
 10
5.750984251968503
 20
4.965551181102362
 30
0.0
  0
SEQEND
  5
33C1
330
2F7D
100
AcDbEntity
  8
0
  0
POLYLINE
  5
2F82
330
1E
100
AcDbEntity
  8
0
100
AcDb2dPolyline
 66
     1
 10
0.0
 20
0.0
 30
0.0
  0
VERTEX
  5
33C2
330
2F82
100
AcDbEntity
  8
0
100
AcDbVertex
100
AcDb2dVertex
 10
5.563976377952755
 20
4.965551181102362
 30
0.0
  0
VERTEX
  5
33C3
330
2F82
100
AcDbEntity
  8
0
100
AcDbVertex
100
AcDb2dVertex
 10
5.557086614173228
 20
4.965551181102362
 30
0.0
  0
VERTEX
  5
33C4
330
2F82
100
AcDbEntity
  8
0
100
AcDbVertex
100
AcDb2dVertex
 10
5.540354330708661
 20
4.965551181102362
 30
0.0
  0
SEQEND
  5
33C5
330
2F82
100
AcDbEntity
  8
0
  0
POLYLINE
  5
2F87
330
1E
100
AcDbEntity
  8
0
100
AcDb2dPolyline
 66
     1
 10
0.0
 20
0.0
 30
0.0
  0
VERTEX
  5
33C6
330
2F87
100
AcDbEntity
  8
0
100
AcDbVertex
100
AcDb2dVertex
 10
5.563976377952755
 20
4.910433070866141
 30
0.0
  0
VERTEX
  5
33C7
330
2F87
100
AcDbEntity
  8
0
100
AcDbVertex
100
AcDb2dVertex
 10
5.557086614173228
 20
4.910433070866141
 30
0.0
  0
VERTEX
  5
33C8
330
2F87
100
AcDbEntity
  8
0
100
AcDbVertex
100
AcDb2dVertex
 10
5.540354330708661
 20
4.910433070866141
 30
0.0
  0
SEQEND
  5
33C9
330
2F87
100
AcDbEntity
  8
0
  0
POLYLINE
  5
2F8C
330
1E
100
AcDbEntity
  8
0
100
AcDb2dPolyline
 66
     1
 10
0.0
 20
0.0
 30
0.0
  0
VERTEX
  5
33CA
330
2F8C
100
AcDbEntity
  8
0
100
AcDbVertex
100
AcDb2dVertex
 10
5.540354330708661
 20
4.905511811023622
 30
0.0
  0
VERTEX
  5
33CB
330
2F8C
100
AcDbEntity
  8
0
100
AcDbVertex
100
AcDb2dVertex
 10
5.540354330708661
 20
4.906496062992125
 30
0.0
  0
VERTEX
  5
33CC
330
2F8C
100
AcDbEntity
  8
0
100
AcDbVertex
100
AcDb2dVertex
 10
5.540354330708661
 20
4.910433070866141
 30
0.0
  0
SEQEND
  5
33CD
330
2F8C
100
AcDbEntity
  8
0
  0
POLYLINE
  5
2F91
330
1E
100
AcDbEntity
  8
0
100
AcDb2dPolyline
 66
     1
 10
0.0
 20
0.0
 30
0.0
  0
VERTEX
  5
33CE
330
2F91
100
AcDbEntity
  8
0
100
AcDbVertex
100
AcDb2dVertex
 10
5.559055118110236
 20
4.905511811023622
 30
0.0
  0
VERTEX
  5
33CF
330
2F91
100
AcDbEntity
  8
0
100
AcDbVertex
100
AcDb2dVertex
 10
5.562992125984251
 20
4.906496062992125
 30
0.0
  0
VERTEX
  5
33D0
330
2F91
100
AcDbEntity
  8
0
100
AcDbVertex
100
AcDb2dVertex
 10
5.563976377952755
 20
4.910433070866141
 30
0.0
  0
SEQEND
  5
33D1
330
2F91
100
AcDbEntity
  8
0
  0
LINE
  5
2F96
330
1E
100
AcDbEntity
  8
0
100
AcDbLine
 10
5.820866141732283
 20
4.704724409448818
 30
0.0
 11
5.636811023622047
 21
4.704724409448818
 31
0.0
  0
LINE
  5
2F97
330
1E
100
AcDbEntity
  8
0
100
AcDbLine
 10
6.09251968503937
 20
4.399606299212598
 30
0.0
 11
5.636811023622047
 21
4.415354330708661
 31
0.0
  0
LINE
  5
2F98
330
1E
100
AcDbEntity
  8
0
100
AcDbLine
 10
6.258858267716535
 20
4.915354330708661
 30
0.0
 11
6.258858267716535
 21
4.93996062992126
 31
0.0
  0
LINE
  5
2F99
330
1E
100
AcDbEntity
  8
0
100
AcDbLine
 10
6.09251968503937
 20
4.62007874015748
 30
0.0
 11
6.298228346456692
 21
4.622047244094487
 31
0.0
  0
LINE
  5
2F9A
330
1E
100
AcDbEntity
  8
0
100
AcDbLine
 10
6.299212598425196
 20
4.693897637795275
 30
0.0
 11
6.307086614173228
 21
4.690944881889763
 31
0.0
  0
LINE
  5
2F9B
330
1E
100
AcDbEntity
  8
0
100
AcDbLine
 10
6.248031496062991
 20
4.71751968503937
 30
0.0
 11
6.299212598425196
 21
4.693897637795275
 31
0.0
  0
LINE
  5
2F9C
330
1E
100
AcDbEntity
  8
0
100
AcDbLine
 10
6.318897637795275
 20
4.672244094488188
 30
0.0
 11
6.318897637795275
 21
4.641732283464566
 31
0.0
  0
LINE
  5
2F9D
330
1E
100
AcDbEntity
  8
0
100
AcDbLine
 10
5.820866141732283
 20
4.863188976377952
 30
0.0
 11
5.820866141732283
 21
4.704724409448818
 31
0.0
  0
LINE
  5
2F9E
330
1E
100
AcDbEntity
  8
0
100
AcDbLine
 10
6.09251968503937
 20
4.419291338582676
 30
0.0
 11
6.09251968503937
 21
4.62007874015748
 31
0.0
  0
POLYLINE
  5
2F9F
330
1E
100
AcDbEntity
  8
0
100
AcDb2dPolyline
 66
     1
 10
0.0
 20
0.0
 30
0.0
  0
VERTEX
  5
33D2
330
2F9F
100
AcDbEntity
  8
0
100
AcDbVertex
100
AcDb2dVertex
 10
6.09251968503937
 20
4.419291338582676
 30
0.0
  0
VERTEX
  5
33D3
330
2F9F
100
AcDbEntity
  8
0
100
AcDbVertex
100
AcDb2dVertex
 10
6.09251968503937
 20
4.405511811023622
 30
0.0
  0
VERTEX
  5
33D4
330
2F9F
100
AcDbEntity
  8
0
100
AcDbVertex
100
AcDb2dVertex
 10
6.09251968503937
 20
4.399606299212598
 30
0.0
  0
SEQEND
  5
33D5
330
2F9F
100
AcDbEntity
  8
0
  0
POLYLINE
  5
2FA4
330
1E
100
AcDbEntity
  8
0
100
AcDb2dPolyline
 66
     1
 10
0.0
 20
0.0
 30
0.0
  0
VERTEX
  5
33D6
330
2FA4
100
AcDbEntity
  8
0
100
AcDbVertex
100
AcDb2dVertex
 10
6.09251968503937
 20
4.399606299212598
 30
0.0
  0
VERTEX
  5
33D7
330
2FA4
100
AcDbEntity
  8
0
100
AcDbVertex
100
AcDb2dVertex
 10
6.09251968503937
 20
4.374015748031496
 30
0.0
  0
VERTEX
  5
33D8
330
2FA4
100
AcDbEntity
  8
0
100
AcDbVertex
100
AcDb2dVertex
 10
6.09251968503937
 20
4.359251968503937
 30
0.0
  0
VERTEX
  5
33D9
330
2FA4
100
AcDbEntity
  8
0
100
AcDbVertex
100
AcDb2dVertex
 10
6.09251968503937
 20
4.353346456692912
 30
0.0
  0
SEQEND
  5
33DA
330
2FA4
100
AcDbEntity
  8
0
  0
LINE
  5
2FAA
330
1E
100
AcDbEntity
  8
0
100
AcDbLine
 10
6.258858267716535
 20
4.915354330708661
 30
0.0
 11
6.248031496062991
 21
4.914370078740157
 31
0.0
  0
LINE
  5
2FAB
330
1E
100
AcDbEntity
  8
0
100
AcDbLine
 10
6.258858267716535
 20
4.718503937007874
 30
0.0
 11
6.258858267716535
 21
4.713582677165354
 31
0.0
  0
LINE
  5
2FAC
330
1E
100
AcDbEntity
  8
0
100
AcDbLine
 10
5.636811023622047
 20
4.435039370078739
 30
0.0
 11
6.09251968503937
 21
4.419291338582676
 31
0.0
  0
LINE
  5
2FAD
330
1E
100
AcDbEntity
  8
0
100
AcDbLine
 10
6.09251968503937
 20
4.954724409448818
 30
0.0
 11
6.09251968503937
 21
4.62007874015748
 31
0.0
  0
LINE
  5
2FAE
330
1E
100
AcDbEntity
  8
0
100
AcDbLine
 10
5.979330708661417
 20
4.954724409448818
 30
0.0
 11
6.09251968503937
 21
4.954724409448818
 31
0.0
  0
LINE
  5
2FAF
330
1E
100
AcDbEntity
  8
0
100
AcDbLine
 10
5.979330708661417
 20
4.954724409448818
 30
0.0
 11
5.820866141732283
 21
4.863188976377952
 31
0.0
  0
LINE
  5
2FB0
330
1E
100
AcDbEntity
  8
0
100
AcDbLine
 10
6.298228346456692
 20
4.622047244094487
 30
0.0
 11
6.299212598425196
 21
4.622047244094487
 31
0.0
  0
LINE
  5
2FB1
330
1E
100
AcDbEntity
  8
0
100
AcDbLine
 10
6.299212598425196
 20
4.622047244094487
 30
0.0
 11
6.299212598425196
 21
4.693897637795275
 31
0.0
  0
LINE
  5
2FB2
330
1E
100
AcDbEntity
  8
0
100
AcDbLine
 10
6.248031496062991
 20
4.949803149606299
 30
0.0
 11
6.248031496062991
 21
4.71751968503937
 31
0.0
  0
LINE
  5
2FB3
330
1E
100
AcDbEntity
  8
0
100
AcDbLine
 10
6.248031496062991
 20
4.949803149606299
 30
0.0
 11
6.243110236220472
 21
4.954724409448818
 31
0.0
  0
LINE
  5
2FB4
330
1E
100
AcDbEntity
  8
0
100
AcDbLine
 10
6.09251968503937
 20
4.954724409448818
 30
0.0
 11
6.243110236220472
 21
4.954724409448818
 31
0.0
  0
LINE
  5
2FB5
330
1E
100
AcDbEntity
  8
0
100
AcDbLine
 10
6.258858267716535
 20
4.93996062992126
 30
0.0
 11
6.248031496062991
 21
4.949803149606299
 31
0.0
  0
LINE
  5
2FB6
330
1E
100
AcDbEntity
  8
0
100
AcDbLine
 10
6.248031496062991
 20
4.718503937007874
 30
0.0
 11
6.258858267716535
 21
4.718503937007874
 31
0.0
  0
POLYLINE
  5
2FB7
330
1E
100
AcDbEntity
  8
0
100
AcDb2dPolyline
 66
     1
 10
0.0
 20
0.0
 30
0.0
  0
VERTEX
  5
33DB
330
2FB7
100
AcDbEntity
  8
0
100
AcDbVertex
100
AcDb2dVertex
 10
6.318897637795275
 20
4.672244094488188
 30
0.0
  0
VERTEX
  5
33DC
330
2FB7
100
AcDbEntity
  8
0
100
AcDbVertex
100
AcDb2dVertex
 10
6.31496062992126
 20
4.683070866141732
 30
0.0
  0
VERTEX
  5
33DD
330
2FB7
100
AcDbEntity
  8
0
100
AcDbVertex
100
AcDb2dVertex
 10
6.307086614173228
 20
4.690944881889763
 30
0.0
  0
SEQEND
  5
33DE
330
2FB7
100
AcDbEntity
  8
0
  0
POLYLINE
  5
2FBC
330
1E
100
AcDbEntity
  8
0
100
AcDb2dPolyline
 66
     1
 10
0.0
 20
0.0
 30
0.0
  0
VERTEX
  5
33DF
330
2FBC
100
AcDbEntity
  8
0
100
AcDbVertex
100
AcDb2dVertex
 10
6.318897637795275
 20
4.641732283464566
 30
0.0
  0
VERTEX
  5
33E0
330
2FBC
100
AcDbEntity
  8
0
100
AcDbVertex
100
AcDb2dVertex
 10
6.315944881889763
 20
4.631889763779527
 30
0.0
  0
VERTEX
  5
33E1
330
2FBC
100
AcDbEntity
  8
0
100
AcDbVertex
100
AcDb2dVertex
 10
6.309055118110236
 20
4.625
 30
0.0
  0
VERTEX
  5
33E2
330
2FBC
100
AcDbEntity
  8
0
100
AcDbVertex
100
AcDb2dVertex
 10
6.299212598425196
 20
4.622047244094487
 30
0.0
  0
SEQEND
  5
33E3
330
2FBC
100
AcDbEntity
  8
0
  0
POLYLINE
  5
2FC2
330
1E
100
AcDbEntity
  8
0
100
AcDb2dPolyline
 66
     1
 10
0.0
 20
0.0
 30
0.0
  0
VERTEX
  5
33E4
330
2FC2
100
AcDbEntity
  8
0
100
AcDbVertex
100
AcDb2dVertex
 10
6.080708661417323
 20
4.399606299212598
 30
0.0
  0
VERTEX
  5
33E5
330
2FC2
100
AcDbEntity
  8
0
100
AcDbVertex
100
AcDb2dVertex
 10
6.080708661417323
 20
4.375
 30
0.0
  0
VERTEX
  5
33E6
330
2FC2
100
AcDbEntity
  8
0
100
AcDbVertex
100
AcDb2dVertex
 10
6.080708661417323
 20
4.359251968503937
 30
0.0
  0
VERTEX
  5
33E7
330
2FC2
100
AcDbEntity
  8
0
100
AcDbVertex
100
AcDb2dVertex
 10
6.080708661417323
 20
4.353346456692912
 30
0.0
  0
SEQEND
  5
33E8
330
2FC2
100
AcDbEntity
  8
0
  0
ENDSEC
  0
SECTION
  2
OBJECTS
  0
DICTIONARY
  5
C
330
0
100
AcDbDictionary
  3
ACAD_GROUP
350
D
  3
ACAD_MLINESTYLE
350
16
  3
ACAD_PLOTSETTINGS
350
18
  3
ACAD_LAYOUT
350
19
1001
ACAD
1000
TREAT_AS_HARD
1070
     0
  0
DICTIONARY
  5
2FD0
330
1E
100
AcDbDictionary
  3
ACAD_LAYOUTSELFREF
350
2FD1
  0
DICTIONARY
  5
2FCE
330
1A
100
AcDbDictionary
  3
ACAD_LAYOUTSELFREF
350
2FCF
  0
DICTIONARY
  5
D
102
{ACAD_REACTORS
330
C
102
}
330
C
100
AcDbDictionary
1001
ACAD
1000
TREAT_AS_HARD
1070
     0
  0
DICTIONARY
  5
16
102
{ACAD_REACTORS
330
C
102
}
330
C
100
AcDbDictionary
  3
STANDARD
350
17
1001
ACAD
1000
TREAT_AS_HARD
1070
     0
  0
DICTIONARY
  5
18
102
{ACAD_REACTORS
330
C
102
}
330
C
100
AcDbDictionary
1001
ACAD
1000
TREAT_AS_HARD
1070
     0
  0
DICTIONARY
  5
19
102
{ACAD_REACTORS
330
C
102
}
330
C
100
AcDbDictionary
1001
ACAD
1000
TREAT_AS_HARD
1070
     0
  0
XRECORD
  5
2FD1
102
{ACAD_REACTORS
330
2FD0
102
}
330
2FD0
100
AcDbXrecord
340
1E
  0
XRECORD
  5
2FCF
102
{ACAD_REACTORS
330
2FCE
102
}
330
2FCE
100
AcDbXrecord
340
1A
  0
MLINESTYLE
  5
17
102
{ACAD_REACTORS
330
16
102
}
330
16
100
AcDbMlineStyle
  2
STANDARD
 70
     0
  3

 62
   256
 51
90.0
 52
90.0
 71
     2
 49
0.5
 62
   256
  6
BYLAYER
 49
-0.5
 62
   256
  6
BYLAYER
  0
ENDSEC
  0
EOF
