  0
SECTION
  2
HEADER
  9
$ACADVER
  1
AC1012
  9
$DWGCODEPAGE
  3
ANSI_1252
  9
$INSBASE
 10
0.0
 20
0.0
 30
0.0
  9
$EXTMIN
 10
1.378417998294366
 20
3.829147364279659
 30
-0.0015258207003583
  9
$EXTMAX
 10
6.122680685160077
 20
6.865493792883928
 30
0.0000000349246037
  9
$LIMMIN
 10
0.0
 20
0.0
  9
$LIMMAX
 10
12.0
 20
9.0
  9
$ORTHOMODE
 70
     0
  9
$REGENMODE
 70
     1
  9
$FILLMODE
 70
     1
  9
$QTEXTMODE
 70
     0
  9
$MIRRTEXT
 70
     1
  9
$DRAGMODE
 70
     2
  9
$LTSCALE
 40
1.0
  9
$OSMODE
 70
   547
  9
$ATTMODE
 70
     1
  9
$TEXTSIZE
 40
0.2
  9
$TRACEWID
 40
0.05
  9
$TEXTSTYLE
  7
STANDARD
  9
$CLAYER
  8
0
  9
$CELTYPE
  6
BYLAYER
  9
$CECOLOR
 62
   256
  9
$CELTSCALE
 40
1.0
  9
$DELOBJ
 70
     1
  9
$DISPSILH
 70
     0
  9
$DIMSCALE
 40
1.0
  9
$DIMASZ
 40
0.18
  9
$DIMEXO
 40
0.0625
  9
$DIMDLI
 40
0.38
  9
$DIMRND
 40
0.0
  9
$DIMDLE
 40
0.0
  9
$DIMEXE
 40
0.18
  9
$DIMTP
 40
0.0
  9
$DIMTM
 40
0.0
  9
$DIMTXT
 40
0.18
  9
$DIMCEN
 40
0.09
  9
$DIMTSZ
 40
0.0
  9
$DIMTOL
 70
     0
  9
$DIMLIM
 70
     0
  9
$DIMTIH
 70
     1
  9
$DIMTOH
 70
     1
  9
$DIMSE1
 70
     0
  9
$DIMSE2
 70
     0
  9
$DIMTAD
 70
     0
  9
$DIMZIN
 70
     0
  9
$DIMBLK
  1

  9
$DIMASO
 70
     1
  9
$DIMSHO
 70
     1
  9
$DIMPOST
  1

  9
$DIMAPOST
  1

  9
$DIMALT
 70
     0
  9
$DIMALTD
 70
     2
  9
$DIMALTF
 40
25.4
  9
$DIMLFAC
 40
1.0
  9
$DIMTOFL
 70
     0
  9
$DIMTVP
 40
0.0
  9
$DIMTIX
 70
     0
  9
$DIMSOXD
 70
     0
  9
$DIMSAH
 70
     0
  9
$DIMBLK1
  1

  9
$DIMBLK2
  1

  9
$DIMSTYLE
  2
STANDARD
  9
$DIMCLRD
 70
     0
  9
$DIMCLRE
 70
     0
  9
$DIMCLRT
 70
     0
  9
$DIMTFAC
 40
1.0
  9
$DIMGAP
 40
0.09
  9
$DIMJUST
 70
     0
  9
$DIMSD1
 70
     0
  9
$DIMSD2
 70
     0
  9
$DIMTOLJ
 70
     1
  9
$DIMTZIN
 70
     0
  9
$DIMALTZ
 70
     0
  9
$DIMALTTZ
 70
     0
  9
$DIMFIT
 70
     5
  9
$DIMUPT
 70
     0
  9
$DIMUNIT
 70
     2
  9
$DIMDEC
 70
     4
  9
$DIMTDEC
 70
     4
  9
$DIMALTU
 70
     2
  9
$DIMALTTD
 70
     2
  9
$DIMTXSTY
  7
STANDARD
  9
$DIMAUNIT
 70
     0
  9
$LUNITS
 70
     2
  9
$LUPREC
 70
     4
  9
$SKETCHINC
 40
0.1
  9
$FILLETRAD
 40
0.0
  9
$AUNITS
 70
     0
  9
$AUPREC
 70
     0
  9
$MENU
  1
acad
  9
$ELEVATION
 40
0.0
  9
$PELEVATION
 40
0.0
  9
$THICKNESS
 40
0.0
  9
$LIMCHECK
 70
     0
  9
$BLIPMODE
 70
     0
  9
$CHAMFERA
 40
0.0
  9
$CHAMFERB
 40
0.0
  9
$CHAMFERC
 40
0.0
  9
$CHAMFERD
 40
0.0
  9
$SKPOLY
 70
     0
  9
$TDCREATE
 40
2454019.484375000
  9
$TDUPDATE
 40
2454019.524125370
  9
$TDINDWG
 40
0.0059984838
  9
$TDUSRTIMER
 40
0.0059984838
  9
$USRTIMER
 70
     1
  9
$ANGBASE
 50
0.0
  9
$ANGDIR
 70
     0
  9
$PDMODE
 70
     0
  9
$PDSIZE
 40
0.0
  9
$PLINEWID
 40
0.0
  9
$COORDS
 70
     1
  9
$SPLFRAME
 70
     0
  9
$SPLINETYPE
 70
     6
  9
$SPLINESEGS
 70
     8
  9
$ATTDIA
 70
     0
  9
$ATTREQ
 70
     1
  9
$HANDLING
 70
  4097
  9
$HANDSEED
  5
3066
  9
$SURFTAB1
 70
     6
  9
$SURFTAB2
 70
     6
  9
$SURFTYPE
 70
     6
  9
$SURFU
 70
     6
  9
$SURFV
 70
     6
  9
$UCSNAME
  2

  9
$UCSORG
 10
0.0
 20
0.0
 30
0.0
  9
$UCSXDIR
 10
1.0
 20
0.0
 30
0.0
  9
$UCSYDIR
 10
0.0
 20
1.0
 30
0.0
  9
$PUCSNAME
  2

  9
$PUCSORG
 10
0.0
 20
0.0
 30
0.0
  9
$PUCSXDIR
 10
1.0
 20
0.0
 30
0.0
  9
$PUCSYDIR
 10
0.0
 20
1.0
 30
0.0
  9
$USERI1
 70
     0
  9
$USERI2
 70
     0
  9
$USERI3
 70
     0
  9
$USERI4
 70
     0
  9
$USERI5
 70
     0
  9
$USERR1
 40
0.0
  9
$USERR2
 40
0.0
  9
$USERR3
 40
0.0
  9
$USERR4
 40
0.0
  9
$USERR5
 40
0.0
  9
$WORLDVIEW
 70
     1
  9
$SHADEDGE
 70
     3
  9
$SHADEDIF
 70
    70
  9
$TILEMODE
 70
     1
  9
$MAXACTVP
 70
    16
  9
$PINSBASE
 10
0.0
 20
0.0
 30
0.0
  9
$PLIMCHECK
 70
     0
  9
$PEXTMIN
 10
1.000000000000000E+20
 20
1.000000000000000E+20
 30
1.000000000000000E+20
  9
$PEXTMAX
 10
-1.000000000000000E+20
 20
-1.000000000000000E+20
 30
-1.000000000000000E+20
  9
$PLIMMIN
 10
0.0
 20
0.0
  9
$PLIMMAX
 10
12.0
 20
9.0
  9
$UNITMODE
 70
     0
  9
$VISRETAIN
 70
     0
  9
$PLINEGEN
 70
     0
  9
$PSLTSCALE
 70
     1
  9
$TREEDEPTH
 70
  3020
  9
$PICKSTYLE
 70
     1
  9
$CMLSTYLE
  2
STANDARD
  9
$CMLJUST
 70
     0
  9
$CMLSCALE
 40
1.0
  9
$SAVEIMAGES
 70
     1
  0
ENDSEC
  0
SECTION
  2
CLASSES
  0
CLASS
  1
ACDBDICTIONARYWDFLT
  2
AcDbDictionaryWithDefault
  3
AutoCAD 2000
 90
    32768
280
     0
281
     0
  0
CLASS
  1
ACDBPLACEHOLDER
  2
AcDbPlaceHolder
  3
AutoCAD 2000
 90
    32768
280
     0
281
     0
  0
CLASS
  1
LAYOUT
  2
AcDbLayout
  3
AutoCAD 2000
 90
    32768
280
     0
281
     0
  0
CLASS
  1
LONG_TRANSACTION
  2
AcDbLongTransaction
  3
AutoCAD 2000
 90
    32768
280
     0
281
     0
  0
CLASS
  1
LWPOLYLINE
  2
AcDbPolyline
  3
AutoCAD 2000
 90
    32768
280
     0
281
     1
  0
CLASS
  1
HATCH
  2
AcDbHatch
  3
AutoCAD 2000
 90
    32768
280
     0
281
     1
  0
CLASS
  1
XRECORD
  2
AcDbXrecord
  3
AutoCAD 2000
 90
    32768
280
     0
281
     0
  0
ENDSEC
  0
SECTION
  2
TABLES
  0
TABLE
  2
VPORT
  5
8
330
0
100
AcDbSymbolTable
 70
     5
  0
VPORT
  5
2D72
330
8
100
AcDbSymbolTableRecord
100
AcDbViewportTableRecord
  2
*ACTIVE
 70
     0
 10
0.0
 20
0.0
 11
1.0
 21
1.0
 12
3.750549341727221
 22
5.347320578581793
 13
0.0
 23
0.0
 14
1.0
 24
1.0
 15
0.0
 25
0.0
 16
0.0
 26
0.0
 36
1.0
 17
0.0
 27
0.0
 37
0.0
 40
3.070272087024427
 41
1.740671641791044
 42
50.0
 43
0.0
 44
0.0
 50
0.0
 51
0.0
 71
     0
 72
   100
 73
     1
 74
     1
 75
     0
 76
     0
 77
     0
 78
     0
  0
ENDTAB
  0
TABLE
  2
LTYPE
  5
5
330
0
100
AcDbSymbolTable
 70
    25
  0
LTYPE
  5
13
330
5
100
AcDbSymbolTableRecord
100
AcDbLinetypeTableRecord
  2
BYBLOCK
 70
     0
  3

 72
    65
 73
     0
 40
0.0
  0
LTYPE
  5
14
330
5
100
AcDbSymbolTableRecord
100
AcDbLinetypeTableRecord
  2
BYLAYER
 70
     0
  3

 72
    65
 73
     0
 40
0.0
  0
LTYPE
  5
15
330
5
100
AcDbSymbolTableRecord
100
AcDbLinetypeTableRecord
  2
CONTINUOUS
 70
     0
  3
Solid line
 72
    65
 73
     0
 40
0.0
  0
LTYPE
  5
22
330
5
100
AcDbSymbolTableRecord
100
AcDbLinetypeTableRecord
  2
BORDER
 70
     0
  3
__ __ . __ __ . __ __ . __ __ . __ __ . __ __ .
 72
    65
 73
     6
 40
1.75
 49
0.5
 74
     0
 49
-0.25
 74
     0
 49
0.5
 74
     0
 49
-0.25
 74
     0
 49
0.5
 74
     0
 49
-0.25
 74
     0
  0
LTYPE
  5
23
330
5
100
AcDbSymbolTableRecord
100
AcDbLinetypeTableRecord
  2
BORDER2
 70
     0
  3
__.__.__.__.__.__.__.__.
 72
    65
 73
     6
 40
0.875
 49
0.25
 74
     0
 49
-0.125
 74
     0
 49
0.25
 74
     0
 49
-0.125
 74
     0
 49
0.25
 74
     0
 49
-0.125
 74
     0
  0
LTYPE
  5
24
330
5
100
AcDbSymbolTableRecord
100
AcDbLinetypeTableRecord
  2
BORDERX2
 70
     0
  3
____  ____  .  
 72
    65
 73
     6
 40
3.5
 49
1.0
 74
     0
 49
-0.5
 74
     0
 49
1.0
 74
     0
 49
-0.5
 74
     0
 49
1.0
 74
     0
 49
-0.5
 74
     0
  0
LTYPE
  5
25
330
5
100
AcDbSymbolTableRecord
100
AcDbLinetypeTableRecord
  2
CENTER
 70
     0
  3
____ _ ____ _ ____ _ 
 72
    65
 73
     4
 40
2.0
 49
1.25
 74
     0
 49
-0.25
 74
     0
 49
0.25
 74
     0
 49
-0.25
 74
     0
  0
LTYPE
  5
26
330
5
100
AcDbSymbolTableRecord
100
AcDbLinetypeTableRecord
  2
CENTER2
 70
     0
  3
____ _ ____ _ ____ _ 
 72
    65
 73
     4
 40
1.125
 49
0.75
 74
     0
 49
-0.125
 74
     0
 49
0.125
 74
     0
 49
-0.125
 74
     0
  0
LTYPE
  5
27
330
5
100
AcDbSymbolTableRecord
100
AcDbLinetypeTableRecord
  2
CENTERX2
 70
     0
  3
________  __  
 72
    65
 73
     4
 40
4.0
 49
2.5
 74
     0
 49
-0.5
 74
     0
 49
0.5
 74
     0
 49
-0.5
 74
     0
  0
LTYPE
  5
28
330
5
100
AcDbSymbolTableRecord
100
AcDbLinetypeTableRecord
  2
DASHDOT
 70
     0
  3
__ . __ . __ . __ . 
 72
    65
 73
     4
 40
1.0
 49
0.5
 74
     0
 49
-0.25
 74
     0
 49
0.0
 74
     0
 49
-0.25
 74
     0
  0
LTYPE
  5
29
330
5
100
AcDbSymbolTableRecord
100
AcDbLinetypeTableRecord
  2
DASHDOT2
 70
     0
  3
_._._._._._._._._.
 72
    65
 73
     4
 40
0.5
 49
0.25
 74
     0
 49
-0.125
 74
     0
 49
0.0
 74
     0
 49
-0.125
 74
     0
  0
LTYPE
  5
2A
330
5
100
AcDbSymbolTableRecord
100
AcDbLinetypeTableRecord
  2
DASHDOTX2
 70
     0
  3
____  .  ____  .  
 72
    65
 73
     4
 40
2.0
 49
1.0
 74
     0
 49
-0.5
 74
     0
 49
0.0
 74
     0
 49
-0.5
 74
     0
  0
LTYPE
  5
2B
330
5
100
AcDbSymbolTableRecord
100
AcDbLinetypeTableRecord
  2
DASHED
 70
     0
  3
__ __ __ __ __ __ __ 
 72
    65
 73
     2
 40
0.75
 49
0.5
 74
     0
 49
-0.25
 74
     0
  0
LTYPE
  5
2C
330
5
100
AcDbSymbolTableRecord
100
AcDbLinetypeTableRecord
  2
DASHED2
 70
     0
  3
_ _ _ _ _ _ _ _ _ _ 
 72
    65
 73
     2
 40
0.375
 49
0.25
 74
     0
 49
-0.125
 74
     0
  0
LTYPE
  5
2D
330
5
100
AcDbSymbolTableRecord
100
AcDbLinetypeTableRecord
  2
DASHEDX2
 70
     0
  3
____  ____  ____  
 72
    65
 73
     2
 40
1.5
 49
1.0
 74
     0
 49
-0.5
 74
     0
  0
LTYPE
  5
2E
330
5
100
AcDbSymbolTableRecord
100
AcDbLinetypeTableRecord
  2
DIVIDE
 70
     0
  3
____ . . ____ . . 
 72
    65
 73
     6
 40
1.25
 49
0.5
 74
     0
 49
-0.25
 74
     0
 49
0.0
 74
     0
 49
-0.25
 74
     0
 49
0.0
 74
     0
 49
-0.25
 74
     0
  0
LTYPE
  5
2F
330
5
100
AcDbSymbolTableRecord
100
AcDbLinetypeTableRecord
  2
DIVIDE2
 70
     0
  3
__..__..__..__..__..
 72
    65
 73
     6
 40
0.625
 49
0.25
 74
     0
 49
-0.125
 74
     0
 49
0.0
 74
     0
 49
-0.125
 74
     0
 49
0.0
 74
     0
 49
-0.125
 74
     0
  0
LTYPE
  5
30
330
5
100
AcDbSymbolTableRecord
100
AcDbLinetypeTableRecord
  2
DIVIDEX2
 70
     0
  3
________  .  .  
 72
    65
 73
     6
 40
2.5
 49
1.0
 74
     0
 49
-0.5
 74
     0
 49
0.0
 74
     0
 49
-0.5
 74
     0
 49
0.0
 74
     0
 49
-0.5
 74
     0
  0
LTYPE
  5
31
330
5
100
AcDbSymbolTableRecord
100
AcDbLinetypeTableRecord
  2
DOT
 70
     0
  3
. . . . . . . . . 
 72
    65
 73
     2
 40
0.25
 49
0.0
 74
     0
 49
-0.25
 74
     0
  0
LTYPE
  5
32
330
5
100
AcDbSymbolTableRecord
100
AcDbLinetypeTableRecord
  2
DOT2
 70
     0
  3
..................
 72
    65
 73
     2
 40
0.125
 49
0.0
 74
     0
 49
-0.125
 74
     0
  0
LTYPE
  5
33
330
5
100
AcDbSymbolTableRecord
100
AcDbLinetypeTableRecord
  2
DOTX2
 70
     0
  3
.  .  .  .  .  .  
 72
    65
 73
     2
 40
0.5
 49
0.0
 74
     0
 49
-0.5
 74
     0
  0
LTYPE
  5
34
330
5
100
AcDbSymbolTableRecord
100
AcDbLinetypeTableRecord
  2
HIDDEN
 70
     0
  3
__ __ __ __ __ __ 
 72
    65
 73
     2
 40
0.375
 49
0.25
 74
     0
 49
-0.125
 74
     0
  0
LTYPE
  5
35
330
5
100
AcDbSymbolTableRecord
100
AcDbLinetypeTableRecord
  2
HIDDEN2
 70
     0
  3
_ _ _ _ _ _ _ _ _ 
 72
    65
 73
     2
 40
0.1875
 49
0.125
 74
     0
 49
-0.0625
 74
     0
  0
LTYPE
  5
36
330
5
100
AcDbSymbolTableRecord
100
AcDbLinetypeTableRecord
  2
HIDDENX2
 70
     0
  3
____ ____ ____ ____ 
 72
    65
 73
     2
 40
0.75
 49
0.5
 74
     0
 49
-0.25
 74
     0
  0
LTYPE
  5
37
330
5
100
AcDbSymbolTableRecord
100
AcDbLinetypeTableRecord
  2
PHANTOM
 70
     0
  3
______  __  __  
 72
    65
 73
     6
 40
2.5
 49
1.25
 74
     0
 49
-0.25
 74
     0
 49
0.25
 74
     0
 49
-0.25
 74
     0
 49
0.25
 74
     0
 49
-0.25
 74
     0
  0
LTYPE
  5
38
330
5
100
AcDbSymbolTableRecord
100
AcDbLinetypeTableRecord
  2
PHANTOM2
 70
     0
  3
___ _ _ ___ _ _ 
 72
    65
 73
     6
 40
1.25
 49
0.625
 74
     0
 49
-0.125
 74
     0
 49
0.125
 74
     0
 49
-0.125
 74
     0
 49
0.125
 74
     0
 49
-0.125
 74
     0
  0
LTYPE
  5
39
330
5
100
AcDbSymbolTableRecord
100
AcDbLinetypeTableRecord
  2
PHANTOMX2
 70
     0
  3
___ _ _ ___ _ _ 
 72
    65
 73
     6
 40
5.0
 49
2.5
 74
     0
 49
-0.5
 74
     0
 49
0.5
 74
     0
 49
-0.5
 74
     0
 49
0.5
 74
     0
 49
-0.5
 74
     0
  0
ENDTAB
  0
TABLE
  2
LAYER
  5
2
330
0
100
AcDbSymbolTable
 70
   257
  0
LAYER
  5
10
330
2
100
AcDbSymbolTableRecord
100
AcDbLayerTableRecord
  2
0
 70
     0
 62
     7
  6
CONTINUOUS
  0
LAYER
  5
3A
330
2
100
AcDbSymbolTableRecord
100
AcDbLayerTableRecord
  2
1
 70
     0
 62
     1
  6
CONTINUOUS
  0
LAYER
  5
3B
330
2
100
AcDbSymbolTableRecord
100
AcDbLayerTableRecord
  2
2
 70
     0
 62
     2
  6
CONTINUOUS
  0
LAYER
  5
3C
330
2
100
AcDbSymbolTableRecord
100
AcDbLayerTableRecord
  2
3
 70
     0
 62
     3
  6
CONTINUOUS
  0
LAYER
  5
3D
330
2
100
AcDbSymbolTableRecord
100
AcDbLayerTableRecord
  2
4
 70
     0
 62
     4
  6
CONTINUOUS
  0
LAYER
  5
3E
330
2
100
AcDbSymbolTableRecord
100
AcDbLayerTableRecord
  2
5
 70
     0
 62
     5
  6
CONTINUOUS
  0
LAYER
  5
3F
330
2
100
AcDbSymbolTableRecord
100
AcDbLayerTableRecord
  2
6
 70
     0
 62
     6
  6
CONTINUOUS
  0
LAYER
  5
40
330
2
100
AcDbSymbolTableRecord
100
AcDbLayerTableRecord
  2
7
 70
     0
 62
     7
  6
CONTINUOUS
  0
LAYER
  5
41
330
2
100
AcDbSymbolTableRecord
100
AcDbLayerTableRecord
  2
8
 70
     0
 62
     8
  6
CONTINUOUS
  0
LAYER
  5
42
330
2
100
AcDbSymbolTableRecord
100
AcDbLayerTableRecord
  2
9
 70
     0
 62
     9
  6
CONTINUOUS
  0
LAYER
  5
43
330
2
100
AcDbSymbolTableRecord
100
AcDbLayerTableRecord
  2
10
 70
     0
 62
    10
  6
CONTINUOUS
  0
LAYER
  5
44
330
2
100
AcDbSymbolTableRecord
100
AcDbLayerTableRecord
  2
11
 70
     0
 62
    11
  6
CONTINUOUS
  0
LAYER
  5
45
330
2
100
AcDbSymbolTableRecord
100
AcDbLayerTableRecord
  2
12
 70
     0
 62
    12
  6
CONTINUOUS
  0
LAYER
  5
46
330
2
100
AcDbSymbolTableRecord
100
AcDbLayerTableRecord
  2
13
 70
     0
 62
    13
  6
CONTINUOUS
  0
LAYER
  5
47
330
2
100
AcDbSymbolTableRecord
100
AcDbLayerTableRecord
  2
14
 70
     0
 62
    14
  6
CONTINUOUS
  0
LAYER
  5
48
330
2
100
AcDbSymbolTableRecord
100
AcDbLayerTableRecord
  2
15
 70
     0
 62
    15
  6
CONTINUOUS
  0
LAYER
  5
49
330
2
100
AcDbSymbolTableRecord
100
AcDbLayerTableRecord
  2
16
 70
     0
 62
    16
  6
CONTINUOUS
  0
LAYER
  5
4A
330
2
100
AcDbSymbolTableRecord
100
AcDbLayerTableRecord
  2
17
 70
     0
 62
    17
  6
CONTINUOUS
  0
LAYER
  5
4B
330
2
100
AcDbSymbolTableRecord
100
AcDbLayerTableRecord
  2
18
 70
     0
 62
    18
  6
CONTINUOUS
  0
LAYER
  5
4C
330
2
100
AcDbSymbolTableRecord
100
AcDbLayerTableRecord
  2
19
 70
     0
 62
    19
  6
CONTINUOUS
  0
LAYER
  5
4D
330
2
100
AcDbSymbolTableRecord
100
AcDbLayerTableRecord
  2
20
 70
     0
 62
    20
  6
CONTINUOUS
  0
LAYER
  5
4E
330
2
100
AcDbSymbolTableRecord
100
AcDbLayerTableRecord
  2
21
 70
     0
 62
    21
  6
CONTINUOUS
  0
LAYER
  5
4F
330
2
100
AcDbSymbolTableRecord
100
AcDbLayerTableRecord
  2
22
 70
     0
 62
    22
  6
CONTINUOUS
  0
LAYER
  5
50
330
2
100
AcDbSymbolTableRecord
100
AcDbLayerTableRecord
  2
23
 70
     0
 62
    23
  6
CONTINUOUS
  0
LAYER
  5
51
330
2
100
AcDbSymbolTableRecord
100
AcDbLayerTableRecord
  2
24
 70
     0
 62
    24
  6
CONTINUOUS
  0
LAYER
  5
52
330
2
100
AcDbSymbolTableRecord
100
AcDbLayerTableRecord
  2
25
 70
     0
 62
    25
  6
CONTINUOUS
  0
LAYER
  5
53
330
2
100
AcDbSymbolTableRecord
100
AcDbLayerTableRecord
  2
26
 70
     0
 62
    26
  6
CONTINUOUS
  0
LAYER
  5
54
330
2
100
AcDbSymbolTableRecord
100
AcDbLayerTableRecord
  2
27
 70
     0
 62
    27
  6
CONTINUOUS
  0
LAYER
  5
55
330
2
100
AcDbSymbolTableRecord
100
AcDbLayerTableRecord
  2
28
 70
     0
 62
    28
  6
CONTINUOUS
  0
LAYER
  5
56
330
2
100
AcDbSymbolTableRecord
100
AcDbLayerTableRecord
  2
29
 70
     0
 62
    29
  6
CONTINUOUS
  0
LAYER
  5
57
330
2
100
AcDbSymbolTableRecord
100
AcDbLayerTableRecord
  2
30
 70
     0
 62
    30
  6
CONTINUOUS
  0
LAYER
  5
58
330
2
100
AcDbSymbolTableRecord
100
AcDbLayerTableRecord
  2
31
 70
     0
 62
    31
  6
CONTINUOUS
  0
LAYER
  5
59
330
2
100
AcDbSymbolTableRecord
100
AcDbLayerTableRecord
  2
32
 70
     0
 62
    32
  6
CONTINUOUS
  0
LAYER
  5
5A
330
2
100
AcDbSymbolTableRecord
100
AcDbLayerTableRecord
  2
33
 70
     0
 62
    33
  6
CONTINUOUS
  0
LAYER
  5
5B
330
2
100
AcDbSymbolTableRecord
100
AcDbLayerTableRecord
  2
34
 70
     0
 62
    34
  6
CONTINUOUS
  0
LAYER
  5
5C
330
2
100
AcDbSymbolTableRecord
100
AcDbLayerTableRecord
  2
35
 70
     0
 62
    35
  6
CONTINUOUS
  0
LAYER
  5
5D
330
2
100
AcDbSymbolTableRecord
100
AcDbLayerTableRecord
  2
36
 70
     0
 62
    36
  6
CONTINUOUS
  0
LAYER
  5
5E
330
2
100
AcDbSymbolTableRecord
100
AcDbLayerTableRecord
  2
37
 70
     0
 62
    37
  6
CONTINUOUS
  0
LAYER
  5
5F
330
2
100
AcDbSymbolTableRecord
100
AcDbLayerTableRecord
  2
38
 70
     0
 62
    38
  6
CONTINUOUS
  0
LAYER
  5
60
330
2
100
AcDbSymbolTableRecord
100
AcDbLayerTableRecord
  2
39
 70
     0
 62
    39
  6
CONTINUOUS
  0
LAYER
  5
61
330
2
100
AcDbSymbolTableRecord
100
AcDbLayerTableRecord
  2
40
 70
     0
 62
    40
  6
CONTINUOUS
  0
LAYER
  5
62
330
2
100
AcDbSymbolTableRecord
100
AcDbLayerTableRecord
  2
41
 70
     0
 62
    41
  6
CONTINUOUS
  0
LAYER
  5
63
330
2
100
AcDbSymbolTableRecord
100
AcDbLayerTableRecord
  2
42
 70
     0
 62
    42
  6
CONTINUOUS
  0
LAYER
  5
64
330
2
100
AcDbSymbolTableRecord
100
AcDbLayerTableRecord
  2
43
 70
     0
 62
    43
  6
CONTINUOUS
  0
LAYER
  5
65
330
2
100
AcDbSymbolTableRecord
100
AcDbLayerTableRecord
  2
44
 70
     0
 62
    44
  6
CONTINUOUS
  0
LAYER
  5
66
330
2
100
AcDbSymbolTableRecord
100
AcDbLayerTableRecord
  2
45
 70
     0
 62
    45
  6
CONTINUOUS
  0
LAYER
  5
67
330
2
100
AcDbSymbolTableRecord
100
AcDbLayerTableRecord
  2
46
 70
     0
 62
    46
  6
CONTINUOUS
  0
LAYER
  5
68
330
2
100
AcDbSymbolTableRecord
100
AcDbLayerTableRecord
  2
47
 70
     0
 62
    47
  6
CONTINUOUS
  0
LAYER
  5
69
330
2
100
AcDbSymbolTableRecord
100
AcDbLayerTableRecord
  2
48
 70
     0
 62
    48
  6
CONTINUOUS
  0
LAYER
  5
6A
330
2
100
AcDbSymbolTableRecord
100
AcDbLayerTableRecord
  2
49
 70
     0
 62
    49
  6
CONTINUOUS
  0
LAYER
  5
6B
330
2
100
AcDbSymbolTableRecord
100
AcDbLayerTableRecord
  2
50
 70
     0
 62
    50
  6
CONTINUOUS
  0
LAYER
  5
6C
330
2
100
AcDbSymbolTableRecord
100
AcDbLayerTableRecord
  2
51
 70
     0
 62
    51
  6
CONTINUOUS
  0
LAYER
  5
6D
330
2
100
AcDbSymbolTableRecord
100
AcDbLayerTableRecord
  2
52
 70
     0
 62
    52
  6
CONTINUOUS
  0
LAYER
  5
6E
330
2
100
AcDbSymbolTableRecord
100
AcDbLayerTableRecord
  2
53
 70
     0
 62
    53
  6
CONTINUOUS
  0
LAYER
  5
6F
330
2
100
AcDbSymbolTableRecord
100
AcDbLayerTableRecord
  2
54
 70
     0
 62
    54
  6
CONTINUOUS
  0
LAYER
  5
70
330
2
100
AcDbSymbolTableRecord
100
AcDbLayerTableRecord
  2
55
 70
     0
 62
    55
  6
CONTINUOUS
  0
LAYER
  5
71
330
2
100
AcDbSymbolTableRecord
100
AcDbLayerTableRecord
  2
56
 70
     0
 62
    56
  6
CONTINUOUS
  0
LAYER
  5
72
330
2
100
AcDbSymbolTableRecord
100
AcDbLayerTableRecord
  2
57
 70
     0
 62
    57
  6
CONTINUOUS
  0
LAYER
  5
73
330
2
100
AcDbSymbolTableRecord
100
AcDbLayerTableRecord
  2
58
 70
     0
 62
    58
  6
CONTINUOUS
  0
LAYER
  5
74
330
2
100
AcDbSymbolTableRecord
100
AcDbLayerTableRecord
  2
59
 70
     0
 62
    59
  6
CONTINUOUS
  0
LAYER
  5
75
330
2
100
AcDbSymbolTableRecord
100
AcDbLayerTableRecord
  2
60
 70
     0
 62
    60
  6
CONTINUOUS
  0
LAYER
  5
76
330
2
100
AcDbSymbolTableRecord
100
AcDbLayerTableRecord
  2
61
 70
     0
 62
    61
  6
CONTINUOUS
  0
LAYER
  5
77
330
2
100
AcDbSymbolTableRecord
100
AcDbLayerTableRecord
  2
62
 70
     0
 62
    62
  6
CONTINUOUS
  0
LAYER
  5
78
330
2
100
AcDbSymbolTableRecord
100
AcDbLayerTableRecord
  2
63
 70
     0
 62
    63
  6
CONTINUOUS
  0
LAYER
  5
79
330
2
100
AcDbSymbolTableRecord
100
AcDbLayerTableRecord
  2
64
 70
     0
 62
    64
  6
CONTINUOUS
  0
LAYER
  5
7A
330
2
100
AcDbSymbolTableRecord
100
AcDbLayerTableRecord
  2
65
 70
     0
 62
    65
  6
CONTINUOUS
  0
LAYER
  5
7B
330
2
100
AcDbSymbolTableRecord
100
AcDbLayerTableRecord
  2
66
 70
     0
 62
    66
  6
CONTINUOUS
  0
LAYER
  5
7C
330
2
100
AcDbSymbolTableRecord
100
AcDbLayerTableRecord
  2
67
 70
     0
 62
    67
  6
CONTINUOUS
  0
LAYER
  5
7D
330
2
100
AcDbSymbolTableRecord
100
AcDbLayerTableRecord
  2
68
 70
     0
 62
    68
  6
CONTINUOUS
  0
LAYER
  5
7E
330
2
100
AcDbSymbolTableRecord
100
AcDbLayerTableRecord
  2
69
 70
     0
 62
    69
  6
CONTINUOUS
  0
LAYER
  5
7F
330
2
100
AcDbSymbolTableRecord
100
AcDbLayerTableRecord
  2
70
 70
     0
 62
    70
  6
CONTINUOUS
  0
LAYER
  5
80
330
2
100
AcDbSymbolTableRecord
100
AcDbLayerTableRecord
  2
71
 70
     0
 62
    71
  6
CONTINUOUS
  0
LAYER
  5
81
330
2
100
AcDbSymbolTableRecord
100
AcDbLayerTableRecord
  2
72
 70
     0
 62
    72
  6
CONTINUOUS
  0
LAYER
  5
82
330
2
100
AcDbSymbolTableRecord
100
AcDbLayerTableRecord
  2
73
 70
     0
 62
    73
  6
CONTINUOUS
  0
LAYER
  5
83
330
2
100
AcDbSymbolTableRecord
100
AcDbLayerTableRecord
  2
74
 70
     0
 62
    74
  6
CONTINUOUS
  0
LAYER
  5
84
330
2
100
AcDbSymbolTableRecord
100
AcDbLayerTableRecord
  2
75
 70
     0
 62
    75
  6
CONTINUOUS
  0
LAYER
  5
85
330
2
100
AcDbSymbolTableRecord
100
AcDbLayerTableRecord
  2
76
 70
     0
 62
    76
  6
CONTINUOUS
  0
LAYER
  5
86
330
2
100
AcDbSymbolTableRecord
100
AcDbLayerTableRecord
  2
77
 70
     0
 62
    77
  6
CONTINUOUS
  0
LAYER
  5
87
330
2
100
AcDbSymbolTableRecord
100
AcDbLayerTableRecord
  2
78
 70
     0
 62
    78
  6
CONTINUOUS
  0
LAYER
  5
88
330
2
100
AcDbSymbolTableRecord
100
AcDbLayerTableRecord
  2
79
 70
     0
 62
    79
  6
CONTINUOUS
  0
LAYER
  5
89
330
2
100
AcDbSymbolTableRecord
100
AcDbLayerTableRecord
  2
80
 70
     0
 62
    80
  6
CONTINUOUS
  0
LAYER
  5
8A
330
2
100
AcDbSymbolTableRecord
100
AcDbLayerTableRecord
  2
81
 70
     0
 62
    81
  6
CONTINUOUS
  0
LAYER
  5
8B
330
2
100
AcDbSymbolTableRecord
100
AcDbLayerTableRecord
  2
82
 70
     0
 62
    82
  6
CONTINUOUS
  0
LAYER
  5
8C
330
2
100
AcDbSymbolTableRecord
100
AcDbLayerTableRecord
  2
83
 70
     0
 62
    83
  6
CONTINUOUS
  0
LAYER
  5
8D
330
2
100
AcDbSymbolTableRecord
100
AcDbLayerTableRecord
  2
84
 70
     0
 62
    84
  6
CONTINUOUS
  0
LAYER
  5
8E
330
2
100
AcDbSymbolTableRecord
100
AcDbLayerTableRecord
  2
85
 70
     0
 62
    85
  6
CONTINUOUS
  0
LAYER
  5
8F
330
2
100
AcDbSymbolTableRecord
100
AcDbLayerTableRecord
  2
86
 70
     0
 62
    86
  6
CONTINUOUS
  0
LAYER
  5
90
330
2
100
AcDbSymbolTableRecord
100
AcDbLayerTableRecord
  2
87
 70
     0
 62
    87
  6
CONTINUOUS
  0
LAYER
  5
91
330
2
100
AcDbSymbolTableRecord
100
AcDbLayerTableRecord
  2
88
 70
     0
 62
    88
  6
CONTINUOUS
  0
LAYER
  5
92
330
2
100
AcDbSymbolTableRecord
100
AcDbLayerTableRecord
  2
89
 70
     0
 62
    89
  6
CONTINUOUS
  0
LAYER
  5
93
330
2
100
AcDbSymbolTableRecord
100
AcDbLayerTableRecord
  2
90
 70
     0
 62
    90
  6
CONTINUOUS
  0
LAYER
  5
94
330
2
100
AcDbSymbolTableRecord
100
AcDbLayerTableRecord
  2
91
 70
     0
 62
    91
  6
CONTINUOUS
  0
LAYER
  5
95
330
2
100
AcDbSymbolTableRecord
100
AcDbLayerTableRecord
  2
92
 70
     0
 62
    92
  6
CONTINUOUS
  0
LAYER
  5
96
330
2
100
AcDbSymbolTableRecord
100
AcDbLayerTableRecord
  2
93
 70
     0
 62
    93
  6
CONTINUOUS
  0
LAYER
  5
97
330
2
100
AcDbSymbolTableRecord
100
AcDbLayerTableRecord
  2
94
 70
     0
 62
    94
  6
CONTINUOUS
  0
LAYER
  5
98
330
2
100
AcDbSymbolTableRecord
100
AcDbLayerTableRecord
  2
95
 70
     0
 62
    95
  6
CONTINUOUS
  0
LAYER
  5
99
330
2
100
AcDbSymbolTableRecord
100
AcDbLayerTableRecord
  2
96
 70
     0
 62
    96
  6
CONTINUOUS
  0
LAYER
  5
9A
330
2
100
AcDbSymbolTableRecord
100
AcDbLayerTableRecord
  2
97
 70
     0
 62
    97
  6
CONTINUOUS
  0
LAYER
  5
9B
330
2
100
AcDbSymbolTableRecord
100
AcDbLayerTableRecord
  2
98
 70
     0
 62
    98
  6
CONTINUOUS
  0
LAYER
  5
9C
330
2
100
AcDbSymbolTableRecord
100
AcDbLayerTableRecord
  2
99
 70
     0
 62
    99
  6
CONTINUOUS
  0
LAYER
  5
9D
330
2
100
AcDbSymbolTableRecord
100
AcDbLayerTableRecord
  2
100
 70
     0
 62
   100
  6
CONTINUOUS
  0
LAYER
  5
9E
330
2
100
AcDbSymbolTableRecord
100
AcDbLayerTableRecord
  2
101
 70
     0
 62
   101
  6
CONTINUOUS
  0
LAYER
  5
9F
330
2
100
AcDbSymbolTableRecord
100
AcDbLayerTableRecord
  2
102
 70
     0
 62
   102
  6
CONTINUOUS
  0
LAYER
  5
A0
330
2
100
AcDbSymbolTableRecord
100
AcDbLayerTableRecord
  2
103
 70
     0
 62
   103
  6
CONTINUOUS
  0
LAYER
  5
A1
330
2
100
AcDbSymbolTableRecord
100
AcDbLayerTableRecord
  2
104
 70
     0
 62
   104
  6
CONTINUOUS
  0
LAYER
  5
A2
330
2
100
AcDbSymbolTableRecord
100
AcDbLayerTableRecord
  2
105
 70
     0
 62
   105
  6
CONTINUOUS
  0
LAYER
  5
A3
330
2
100
AcDbSymbolTableRecord
100
AcDbLayerTableRecord
  2
106
 70
     0
 62
   106
  6
CONTINUOUS
  0
LAYER
  5
A4
330
2
100
AcDbSymbolTableRecord
100
AcDbLayerTableRecord
  2
107
 70
     0
 62
   107
  6
CONTINUOUS
  0
LAYER
  5
A5
330
2
100
AcDbSymbolTableRecord
100
AcDbLayerTableRecord
  2
108
 70
     0
 62
   108
  6
CONTINUOUS
  0
LAYER
  5
A6
330
2
100
AcDbSymbolTableRecord
100
AcDbLayerTableRecord
  2
109
 70
     0
 62
   109
  6
CONTINUOUS
  0
LAYER
  5
A7
330
2
100
AcDbSymbolTableRecord
100
AcDbLayerTableRecord
  2
110
 70
     0
 62
   110
  6
CONTINUOUS
  0
LAYER
  5
A8
330
2
100
AcDbSymbolTableRecord
100
AcDbLayerTableRecord
  2
111
 70
     0
 62
   111
  6
CONTINUOUS
  0
LAYER
  5
A9
330
2
100
AcDbSymbolTableRecord
100
AcDbLayerTableRecord
  2
112
 70
     0
 62
   112
  6
CONTINUOUS
  0
LAYER
  5
AA
330
2
100
AcDbSymbolTableRecord
100
AcDbLayerTableRecord
  2
113
 70
     0
 62
   113
  6
CONTINUOUS
  0
LAYER
  5
AB
330
2
100
AcDbSymbolTableRecord
100
AcDbLayerTableRecord
  2
114
 70
     0
 62
   114
  6
CONTINUOUS
  0
LAYER
  5
AC
330
2
100
AcDbSymbolTableRecord
100
AcDbLayerTableRecord
  2
115
 70
     0
 62
   115
  6
CONTINUOUS
  0
LAYER
  5
AD
330
2
100
AcDbSymbolTableRecord
100
AcDbLayerTableRecord
  2
116
 70
     0
 62
   116
  6
CONTINUOUS
  0
LAYER
  5
AE
330
2
100
AcDbSymbolTableRecord
100
AcDbLayerTableRecord
  2
117
 70
     0
 62
   117
  6
CONTINUOUS
  0
LAYER
  5
AF
330
2
100
AcDbSymbolTableRecord
100
AcDbLayerTableRecord
  2
118
 70
     0
 62
   118
  6
CONTINUOUS
  0
LAYER
  5
B0
330
2
100
AcDbSymbolTableRecord
100
AcDbLayerTableRecord
  2
119
 70
     0
 62
   119
  6
CONTINUOUS
  0
LAYER
  5
B1
330
2
100
AcDbSymbolTableRecord
100
AcDbLayerTableRecord
  2
120
 70
     0
 62
   120
  6
CONTINUOUS
  0
LAYER
  5
B2
330
2
100
AcDbSymbolTableRecord
100
AcDbLayerTableRecord
  2
121
 70
     0
 62
   121
  6
CONTINUOUS
  0
LAYER
  5
B3
330
2
100
AcDbSymbolTableRecord
100
AcDbLayerTableRecord
  2
122
 70
     0
 62
   122
  6
CONTINUOUS
  0
LAYER
  5
B4
330
2
100
AcDbSymbolTableRecord
100
AcDbLayerTableRecord
  2
123
 70
     0
 62
   123
  6
CONTINUOUS
  0
LAYER
  5
B5
330
2
100
AcDbSymbolTableRecord
100
AcDbLayerTableRecord
  2
124
 70
     0
 62
   124
  6
CONTINUOUS
  0
LAYER
  5
B6
330
2
100
AcDbSymbolTableRecord
100
AcDbLayerTableRecord
  2
125
 70
     0
 62
   125
  6
CONTINUOUS
  0
LAYER
  5
B7
330
2
100
AcDbSymbolTableRecord
100
AcDbLayerTableRecord
  2
126
 70
     0
 62
   126
  6
CONTINUOUS
  0
LAYER
  5
B8
330
2
100
AcDbSymbolTableRecord
100
AcDbLayerTableRecord
  2
127
 70
     0
 62
   127
  6
CONTINUOUS
  0
LAYER
  5
B9
330
2
100
AcDbSymbolTableRecord
100
AcDbLayerTableRecord
  2
128
 70
     0
 62
   128
  6
CONTINUOUS
  0
LAYER
  5
BA
330
2
100
AcDbSymbolTableRecord
100
AcDbLayerTableRecord
  2
129
 70
     0
 62
   129
  6
CONTINUOUS
  0
LAYER
  5
BB
330
2
100
AcDbSymbolTableRecord
100
AcDbLayerTableRecord
  2
130
 70
     0
 62
   130
  6
CONTINUOUS
  0
LAYER
  5
BC
330
2
100
AcDbSymbolTableRecord
100
AcDbLayerTableRecord
  2
131
 70
     0
 62
   131
  6
CONTINUOUS
  0
LAYER
  5
BD
330
2
100
AcDbSymbolTableRecord
100
AcDbLayerTableRecord
  2
132
 70
     0
 62
   132
  6
CONTINUOUS
  0
LAYER
  5
BE
330
2
100
AcDbSymbolTableRecord
100
AcDbLayerTableRecord
  2
133
 70
     0
 62
   133
  6
CONTINUOUS
  0
LAYER
  5
BF
330
2
100
AcDbSymbolTableRecord
100
AcDbLayerTableRecord
  2
134
 70
     0
 62
   134
  6
CONTINUOUS
  0
LAYER
  5
C0
330
2
100
AcDbSymbolTableRecord
100
AcDbLayerTableRecord
  2
135
 70
     0
 62
   135
  6
CONTINUOUS
  0
LAYER
  5
C1
330
2
100
AcDbSymbolTableRecord
100
AcDbLayerTableRecord
  2
136
 70
     0
 62
   136
  6
CONTINUOUS
  0
LAYER
  5
C2
330
2
100
AcDbSymbolTableRecord
100
AcDbLayerTableRecord
  2
137
 70
     0
 62
   137
  6
CONTINUOUS
  0
LAYER
  5
C3
330
2
100
AcDbSymbolTableRecord
100
AcDbLayerTableRecord
  2
138
 70
     0
 62
   138
  6
CONTINUOUS
  0
LAYER
  5
C4
330
2
100
AcDbSymbolTableRecord
100
AcDbLayerTableRecord
  2
139
 70
     0
 62
   139
  6
CONTINUOUS
  0
LAYER
  5
C5
330
2
100
AcDbSymbolTableRecord
100
AcDbLayerTableRecord
  2
140
 70
     0
 62
   140
  6
CONTINUOUS
  0
LAYER
  5
C6
330
2
100
AcDbSymbolTableRecord
100
AcDbLayerTableRecord
  2
141
 70
     0
 62
   141
  6
CONTINUOUS
  0
LAYER
  5
C7
330
2
100
AcDbSymbolTableRecord
100
AcDbLayerTableRecord
  2
142
 70
     0
 62
   142
  6
CONTINUOUS
  0
LAYER
  5
C8
330
2
100
AcDbSymbolTableRecord
100
AcDbLayerTableRecord
  2
143
 70
     0
 62
   143
  6
CONTINUOUS
  0
LAYER
  5
C9
330
2
100
AcDbSymbolTableRecord
100
AcDbLayerTableRecord
  2
144
 70
     0
 62
   144
  6
CONTINUOUS
  0
LAYER
  5
CA
330
2
100
AcDbSymbolTableRecord
100
AcDbLayerTableRecord
  2
145
 70
     0
 62
   145
  6
CONTINUOUS
  0
LAYER
  5
CB
330
2
100
AcDbSymbolTableRecord
100
AcDbLayerTableRecord
  2
146
 70
     0
 62
   146
  6
CONTINUOUS
  0
LAYER
  5
CC
330
2
100
AcDbSymbolTableRecord
100
AcDbLayerTableRecord
  2
147
 70
     0
 62
   147
  6
CONTINUOUS
  0
LAYER
  5
CD
330
2
100
AcDbSymbolTableRecord
100
AcDbLayerTableRecord
  2
148
 70
     0
 62
   148
  6
CONTINUOUS
  0
LAYER
  5
CE
330
2
100
AcDbSymbolTableRecord
100
AcDbLayerTableRecord
  2
149
 70
     0
 62
   149
  6
CONTINUOUS
  0
LAYER
  5
CF
330
2
100
AcDbSymbolTableRecord
100
AcDbLayerTableRecord
  2
150
 70
     0
 62
   150
  6
CONTINUOUS
  0
LAYER
  5
D0
330
2
100
AcDbSymbolTableRecord
100
AcDbLayerTableRecord
  2
151
 70
     0
 62
   151
  6
CONTINUOUS
  0
LAYER
  5
D1
330
2
100
AcDbSymbolTableRecord
100
AcDbLayerTableRecord
  2
152
 70
     0
 62
   152
  6
CONTINUOUS
  0
LAYER
  5
D2
330
2
100
AcDbSymbolTableRecord
100
AcDbLayerTableRecord
  2
153
 70
     0
 62
   153
  6
CONTINUOUS
  0
LAYER
  5
D3
330
2
100
AcDbSymbolTableRecord
100
AcDbLayerTableRecord
  2
154
 70
     0
 62
   154
  6
CONTINUOUS
  0
LAYER
  5
D4
330
2
100
AcDbSymbolTableRecord
100
AcDbLayerTableRecord
  2
155
 70
     0
 62
   155
  6
CONTINUOUS
  0
LAYER
  5
D5
330
2
100
AcDbSymbolTableRecord
100
AcDbLayerTableRecord
  2
156
 70
     0
 62
   156
  6
CONTINUOUS
  0
LAYER
  5
D6
330
2
100
AcDbSymbolTableRecord
100
AcDbLayerTableRecord
  2
157
 70
     0
 62
   157
  6
CONTINUOUS
  0
LAYER
  5
D7
330
2
100
AcDbSymbolTableRecord
100
AcDbLayerTableRecord
  2
158
 70
     0
 62
   158
  6
CONTINUOUS
  0
LAYER
  5
D8
330
2
100
AcDbSymbolTableRecord
100
AcDbLayerTableRecord
  2
159
 70
     0
 62
   159
  6
CONTINUOUS
  0
LAYER
  5
D9
330
2
100
AcDbSymbolTableRecord
100
AcDbLayerTableRecord
  2
160
 70
     0
 62
   160
  6
CONTINUOUS
  0
LAYER
  5
DA
330
2
100
AcDbSymbolTableRecord
100
AcDbLayerTableRecord
  2
161
 70
     0
 62
   161
  6
CONTINUOUS
  0
LAYER
  5
DB
330
2
100
AcDbSymbolTableRecord
100
AcDbLayerTableRecord
  2
162
 70
     0
 62
   162
  6
CONTINUOUS
  0
LAYER
  5
DC
330
2
100
AcDbSymbolTableRecord
100
AcDbLayerTableRecord
  2
163
 70
     0
 62
   163
  6
CONTINUOUS
  0
LAYER
  5
DD
330
2
100
AcDbSymbolTableRecord
100
AcDbLayerTableRecord
  2
164
 70
     0
 62
   164
  6
CONTINUOUS
  0
LAYER
  5
DE
330
2
100
AcDbSymbolTableRecord
100
AcDbLayerTableRecord
  2
165
 70
     0
 62
   165
  6
CONTINUOUS
  0
LAYER
  5
DF
330
2
100
AcDbSymbolTableRecord
100
AcDbLayerTableRecord
  2
166
 70
     0
 62
   166
  6
CONTINUOUS
  0
LAYER
  5
E0
330
2
100
AcDbSymbolTableRecord
100
AcDbLayerTableRecord
  2
167
 70
     0
 62
   167
  6
CONTINUOUS
  0
LAYER
  5
E1
330
2
100
AcDbSymbolTableRecord
100
AcDbLayerTableRecord
  2
168
 70
     0
 62
   168
  6
CONTINUOUS
  0
LAYER
  5
E2
330
2
100
AcDbSymbolTableRecord
100
AcDbLayerTableRecord
  2
169
 70
     0
 62
   169
  6
CONTINUOUS
  0
LAYER
  5
E3
330
2
100
AcDbSymbolTableRecord
100
AcDbLayerTableRecord
  2
170
 70
     0
 62
   170
  6
CONTINUOUS
  0
LAYER
  5
E4
330
2
100
AcDbSymbolTableRecord
100
AcDbLayerTableRecord
  2
171
 70
     0
 62
   171
  6
CONTINUOUS
  0
LAYER
  5
E5
330
2
100
AcDbSymbolTableRecord
100
AcDbLayerTableRecord
  2
172
 70
     0
 62
   172
  6
CONTINUOUS
  0
LAYER
  5
E6
330
2
100
AcDbSymbolTableRecord
100
AcDbLayerTableRecord
  2
173
 70
     0
 62
   173
  6
CONTINUOUS
  0
LAYER
  5
E7
330
2
100
AcDbSymbolTableRecord
100
AcDbLayerTableRecord
  2
174
 70
     0
 62
   174
  6
CONTINUOUS
  0
LAYER
  5
E8
330
2
100
AcDbSymbolTableRecord
100
AcDbLayerTableRecord
  2
175
 70
     0
 62
   175
  6
CONTINUOUS
  0
LAYER
  5
E9
330
2
100
AcDbSymbolTableRecord
100
AcDbLayerTableRecord
  2
176
 70
     0
 62
   176
  6
CONTINUOUS
  0
LAYER
  5
EA
330
2
100
AcDbSymbolTableRecord
100
AcDbLayerTableRecord
  2
177
 70
     0
 62
   177
  6
CONTINUOUS
  0
LAYER
  5
EB
330
2
100
AcDbSymbolTableRecord
100
AcDbLayerTableRecord
  2
178
 70
     0
 62
   178
  6
CONTINUOUS
  0
LAYER
  5
EC
330
2
100
AcDbSymbolTableRecord
100
AcDbLayerTableRecord
  2
179
 70
     0
 62
   179
  6
CONTINUOUS
  0
LAYER
  5
ED
330
2
100
AcDbSymbolTableRecord
100
AcDbLayerTableRecord
  2
180
 70
     0
 62
   180
  6
CONTINUOUS
  0
LAYER
  5
EE
330
2
100
AcDbSymbolTableRecord
100
AcDbLayerTableRecord
  2
181
 70
     0
 62
   181
  6
CONTINUOUS
  0
LAYER
  5
EF
330
2
100
AcDbSymbolTableRecord
100
AcDbLayerTableRecord
  2
182
 70
     0
 62
   182
  6
CONTINUOUS
  0
LAYER
  5
F0
330
2
100
AcDbSymbolTableRecord
100
AcDbLayerTableRecord
  2
183
 70
     0
 62
   183
  6
CONTINUOUS
  0
LAYER
  5
F1
330
2
100
AcDbSymbolTableRecord
100
AcDbLayerTableRecord
  2
184
 70
     0
 62
   184
  6
CONTINUOUS
  0
LAYER
  5
F2
330
2
100
AcDbSymbolTableRecord
100
AcDbLayerTableRecord
  2
185
 70
     0
 62
   185
  6
CONTINUOUS
  0
LAYER
  5
F3
330
2
100
AcDbSymbolTableRecord
100
AcDbLayerTableRecord
  2
186
 70
     0
 62
   186
  6
CONTINUOUS
  0
LAYER
  5
F4
330
2
100
AcDbSymbolTableRecord
100
AcDbLayerTableRecord
  2
187
 70
     0
 62
   187
  6
CONTINUOUS
  0
LAYER
  5
F5
330
2
100
AcDbSymbolTableRecord
100
AcDbLayerTableRecord
  2
188
 70
     0
 62
   188
  6
CONTINUOUS
  0
LAYER
  5
F6
330
2
100
AcDbSymbolTableRecord
100
AcDbLayerTableRecord
  2
189
 70
     0
 62
   189
  6
CONTINUOUS
  0
LAYER
  5
F7
330
2
100
AcDbSymbolTableRecord
100
AcDbLayerTableRecord
  2
190
 70
     0
 62
   190
  6
CONTINUOUS
  0
LAYER
  5
F8
330
2
100
AcDbSymbolTableRecord
100
AcDbLayerTableRecord
  2
191
 70
     0
 62
   191
  6
CONTINUOUS
  0
LAYER
  5
F9
330
2
100
AcDbSymbolTableRecord
100
AcDbLayerTableRecord
  2
192
 70
     0
 62
   192
  6
CONTINUOUS
  0
LAYER
  5
FA
330
2
100
AcDbSymbolTableRecord
100
AcDbLayerTableRecord
  2
193
 70
     0
 62
   193
  6
CONTINUOUS
  0
LAYER
  5
FB
330
2
100
AcDbSymbolTableRecord
100
AcDbLayerTableRecord
  2
194
 70
     0
 62
   194
  6
CONTINUOUS
  0
LAYER
  5
FC
330
2
100
AcDbSymbolTableRecord
100
AcDbLayerTableRecord
  2
195
 70
     0
 62
   195
  6
CONTINUOUS
  0
LAYER
  5
FD
330
2
100
AcDbSymbolTableRecord
100
AcDbLayerTableRecord
  2
196
 70
     0
 62
   196
  6
CONTINUOUS
  0
LAYER
  5
FE
330
2
100
AcDbSymbolTableRecord
100
AcDbLayerTableRecord
  2
197
 70
     0
 62
   197
  6
CONTINUOUS
  0
LAYER
  5
FF
330
2
100
AcDbSymbolTableRecord
100
AcDbLayerTableRecord
  2
198
 70
     0
 62
   198
  6
CONTINUOUS
  0
LAYER
  5
100
330
2
100
AcDbSymbolTableRecord
100
AcDbLayerTableRecord
  2
199
 70
     0
 62
   199
  6
CONTINUOUS
  0
LAYER
  5
101
330
2
100
AcDbSymbolTableRecord
100
AcDbLayerTableRecord
  2
200
 70
     0
 62
   200
  6
CONTINUOUS
  0
LAYER
  5
102
330
2
100
AcDbSymbolTableRecord
100
AcDbLayerTableRecord
  2
201
 70
     0
 62
   201
  6
CONTINUOUS
  0
LAYER
  5
103
330
2
100
AcDbSymbolTableRecord
100
AcDbLayerTableRecord
  2
202
 70
     0
 62
   202
  6
CONTINUOUS
  0
LAYER
  5
104
330
2
100
AcDbSymbolTableRecord
100
AcDbLayerTableRecord
  2
203
 70
     0
 62
   203
  6
CONTINUOUS
  0
LAYER
  5
105
330
2
100
AcDbSymbolTableRecord
100
AcDbLayerTableRecord
  2
204
 70
     0
 62
   204
  6
CONTINUOUS
  0
LAYER
  5
106
330
2
100
AcDbSymbolTableRecord
100
AcDbLayerTableRecord
  2
205
 70
     0
 62
   205
  6
CONTINUOUS
  0
LAYER
  5
107
330
2
100
AcDbSymbolTableRecord
100
AcDbLayerTableRecord
  2
206
 70
     0
 62
   206
  6
CONTINUOUS
  0
LAYER
  5
108
330
2
100
AcDbSymbolTableRecord
100
AcDbLayerTableRecord
  2
207
 70
     0
 62
   207
  6
CONTINUOUS
  0
LAYER
  5
109
330
2
100
AcDbSymbolTableRecord
100
AcDbLayerTableRecord
  2
208
 70
     0
 62
   208
  6
CONTINUOUS
  0
LAYER
  5
10A
330
2
100
AcDbSymbolTableRecord
100
AcDbLayerTableRecord
  2
209
 70
     0
 62
   209
  6
CONTINUOUS
  0
LAYER
  5
10B
330
2
100
AcDbSymbolTableRecord
100
AcDbLayerTableRecord
  2
210
 70
     0
 62
   210
  6
CONTINUOUS
  0
LAYER
  5
10C
330
2
100
AcDbSymbolTableRecord
100
AcDbLayerTableRecord
  2
211
 70
     0
 62
   211
  6
CONTINUOUS
  0
LAYER
  5
10D
330
2
100
AcDbSymbolTableRecord
100
AcDbLayerTableRecord
  2
212
 70
     0
 62
   212
  6
CONTINUOUS
  0
LAYER
  5
10E
330
2
100
AcDbSymbolTableRecord
100
AcDbLayerTableRecord
  2
213
 70
     0
 62
   213
  6
CONTINUOUS
  0
LAYER
  5
10F
330
2
100
AcDbSymbolTableRecord
100
AcDbLayerTableRecord
  2
214
 70
     0
 62
   214
  6
CONTINUOUS
  0
LAYER
  5
110
330
2
100
AcDbSymbolTableRecord
100
AcDbLayerTableRecord
  2
215
 70
     0
 62
   215
  6
CONTINUOUS
  0
LAYER
  5
111
330
2
100
AcDbSymbolTableRecord
100
AcDbLayerTableRecord
  2
216
 70
     0
 62
   216
  6
CONTINUOUS
  0
LAYER
  5
112
330
2
100
AcDbSymbolTableRecord
100
AcDbLayerTableRecord
  2
217
 70
     0
 62
   217
  6
CONTINUOUS
  0
LAYER
  5
113
330
2
100
AcDbSymbolTableRecord
100
AcDbLayerTableRecord
  2
218
 70
     0
 62
   218
  6
CONTINUOUS
  0
LAYER
  5
114
330
2
100
AcDbSymbolTableRecord
100
AcDbLayerTableRecord
  2
219
 70
     0
 62
   219
  6
CONTINUOUS
  0
LAYER
  5
115
330
2
100
AcDbSymbolTableRecord
100
AcDbLayerTableRecord
  2
220
 70
     0
 62
   220
  6
CONTINUOUS
  0
LAYER
  5
116
330
2
100
AcDbSymbolTableRecord
100
AcDbLayerTableRecord
  2
221
 70
     0
 62
   221
  6
CONTINUOUS
  0
LAYER
  5
117
330
2
100
AcDbSymbolTableRecord
100
AcDbLayerTableRecord
  2
222
 70
     0
 62
   222
  6
CONTINUOUS
  0
LAYER
  5
118
330
2
100
AcDbSymbolTableRecord
100
AcDbLayerTableRecord
  2
223
 70
     0
 62
   223
  6
CONTINUOUS
  0
LAYER
  5
119
330
2
100
AcDbSymbolTableRecord
100
AcDbLayerTableRecord
  2
224
 70
     0
 62
   224
  6
CONTINUOUS
  0
LAYER
  5
11A
330
2
100
AcDbSymbolTableRecord
100
AcDbLayerTableRecord
  2
225
 70
     0
 62
   225
  6
CONTINUOUS
  0
LAYER
  5
11B
330
2
100
AcDbSymbolTableRecord
100
AcDbLayerTableRecord
  2
226
 70
     0
 62
   226
  6
CONTINUOUS
  0
LAYER
  5
11C
330
2
100
AcDbSymbolTableRecord
100
AcDbLayerTableRecord
  2
227
 70
     0
 62
   227
  6
CONTINUOUS
  0
LAYER
  5
11D
330
2
100
AcDbSymbolTableRecord
100
AcDbLayerTableRecord
  2
228
 70
     0
 62
   228
  6
CONTINUOUS
  0
LAYER
  5
11E
330
2
100
AcDbSymbolTableRecord
100
AcDbLayerTableRecord
  2
229
 70
     0
 62
   229
  6
CONTINUOUS
  0
LAYER
  5
11F
330
2
100
AcDbSymbolTableRecord
100
AcDbLayerTableRecord
  2
230
 70
     0
 62
   230
  6
CONTINUOUS
  0
LAYER
  5
120
330
2
100
AcDbSymbolTableRecord
100
AcDbLayerTableRecord
  2
231
 70
     0
 62
   231
  6
CONTINUOUS
  0
LAYER
  5
121
330
2
100
AcDbSymbolTableRecord
100
AcDbLayerTableRecord
  2
232
 70
     0
 62
   232
  6
CONTINUOUS
  0
LAYER
  5
122
330
2
100
AcDbSymbolTableRecord
100
AcDbLayerTableRecord
  2
233
 70
     0
 62
   233
  6
CONTINUOUS
  0
LAYER
  5
123
330
2
100
AcDbSymbolTableRecord
100
AcDbLayerTableRecord
  2
234
 70
     0
 62
   234
  6
CONTINUOUS
  0
LAYER
  5
124
330
2
100
AcDbSymbolTableRecord
100
AcDbLayerTableRecord
  2
235
 70
     0
 62
   235
  6
CONTINUOUS
  0
LAYER
  5
125
330
2
100
AcDbSymbolTableRecord
100
AcDbLayerTableRecord
  2
236
 70
     0
 62
   236
  6
CONTINUOUS
  0
LAYER
  5
126
330
2
100
AcDbSymbolTableRecord
100
AcDbLayerTableRecord
  2
237
 70
     0
 62
   237
  6
CONTINUOUS
  0
LAYER
  5
127
330
2
100
AcDbSymbolTableRecord
100
AcDbLayerTableRecord
  2
238
 70
     0
 62
   238
  6
CONTINUOUS
  0
LAYER
  5
128
330
2
100
AcDbSymbolTableRecord
100
AcDbLayerTableRecord
  2
239
 70
     0
 62
   239
  6
CONTINUOUS
  0
LAYER
  5
129
330
2
100
AcDbSymbolTableRecord
100
AcDbLayerTableRecord
  2
240
 70
     0
 62
   240
  6
CONTINUOUS
  0
LAYER
  5
12A
330
2
100
AcDbSymbolTableRecord
100
AcDbLayerTableRecord
  2
241
 70
     0
 62
   241
  6
CONTINUOUS
  0
LAYER
  5
12B
330
2
100
AcDbSymbolTableRecord
100
AcDbLayerTableRecord
  2
242
 70
     0
 62
   242
  6
CONTINUOUS
  0
LAYER
  5
12C
330
2
100
AcDbSymbolTableRecord
100
AcDbLayerTableRecord
  2
243
 70
     0
 62
   243
  6
CONTINUOUS
  0
LAYER
  5
12D
330
2
100
AcDbSymbolTableRecord
100
AcDbLayerTableRecord
  2
244
 70
     0
 62
   244
  6
CONTINUOUS
  0
LAYER
  5
12E
330
2
100
AcDbSymbolTableRecord
100
AcDbLayerTableRecord
  2
245
 70
     0
 62
   245
  6
CONTINUOUS
  0
LAYER
  5
12F
330
2
100
AcDbSymbolTableRecord
100
AcDbLayerTableRecord
  2
246
 70
     0
 62
   246
  6
CONTINUOUS
  0
LAYER
  5
130
330
2
100
AcDbSymbolTableRecord
100
AcDbLayerTableRecord
  2
247
 70
     0
 62
   247
  6
CONTINUOUS
  0
LAYER
  5
131
330
2
100
AcDbSymbolTableRecord
100
AcDbLayerTableRecord
  2
248
 70
     0
 62
   248
  6
CONTINUOUS
  0
LAYER
  5
132
330
2
100
AcDbSymbolTableRecord
100
AcDbLayerTableRecord
  2
249
 70
     0
 62
   249
  6
CONTINUOUS
  0
LAYER
  5
133
330
2
100
AcDbSymbolTableRecord
100
AcDbLayerTableRecord
  2
250
 70
     0
 62
   250
  6
CONTINUOUS
  0
LAYER
  5
134
330
2
100
AcDbSymbolTableRecord
100
AcDbLayerTableRecord
  2
251
 70
     0
 62
   251
  6
CONTINUOUS
  0
LAYER
  5
135
330
2
100
AcDbSymbolTableRecord
100
AcDbLayerTableRecord
  2
252
 70
     0
 62
   252
  6
CONTINUOUS
  0
LAYER
  5
136
330
2
100
AcDbSymbolTableRecord
100
AcDbLayerTableRecord
  2
253
 70
     0
 62
   253
  6
CONTINUOUS
  0
LAYER
  5
137
330
2
100
AcDbSymbolTableRecord
100
AcDbLayerTableRecord
  2
254
 70
     0
 62
   254
  6
CONTINUOUS
  0
LAYER
  5
138
330
2
100
AcDbSymbolTableRecord
100
AcDbLayerTableRecord
  2
255
 70
     0
 62
   255
  6
CONTINUOUS
  0
LAYER
  5
2D61
330
2
100
AcDbSymbolTableRecord
100
AcDbLayerTableRecord
  2
DEFPOINTS
 70
     0
 62
     7
  6
CONTINUOUS
  0
ENDTAB
  0
TABLE
  2
STYLE
  5
3
330
0
100
AcDbSymbolTable
 70
     1
  0
STYLE
  5
11
330
3
100
AcDbSymbolTableRecord
100
AcDbTextStyleTableRecord
  2
STANDARD
 70
     0
 40
0.0
 41
1.0
 50
0.0
 71
     0
 42
0.2
  3
txt
  4

  0
ENDTAB
  0
TABLE
  2
VIEW
  5
6
330
0
100
AcDbSymbolTable
 70
     0
  0
ENDTAB
  0
TABLE
  2
UCS
  5
7
330
0
100
AcDbSymbolTable
 70
     0
  0
ENDTAB
  0
TABLE
  2
APPID
  5
9
330
0
100
AcDbSymbolTable
 70
     1
  0
APPID
  5
12
330
9
100
AcDbSymbolTableRecord
100
AcDbRegAppTableRecord
  2
ACAD
 70
     0
  0
ENDTAB
  0
TABLE
  2
DIMSTYLE
  5
A
330
0
100
AcDbSymbolTable
 70
     1
  0
DIMSTYLE
105
2D5D
102
{ACAD_REACTORS
330
2D60
102
}
330
A
100
AcDbSymbolTableRecord
100
AcDbDimStyleTableRecord
  2
STANDARD
 70
     0
  3

  4

  5

  6

  7

 40
1.0
 41
0.18
 42
0.0625
 43
0.38
 44
0.18
 45
0.0
 46
0.0
 47
0.0
 48
0.0
140
0.18
141
0.09
142
0.0
143
25.4
144
1.0
145
0.0
146
1.0
147
0.09
 71
     0
 72
     0
 73
     1
 74
     1
 75
     0
 76
     0
 77
     0
 78
     0
170
     0
171
     2
172
     0
173
     0
174
     0
175
     0
176
     0
177
     0
178
     0
270
     2
271
     4
272
     4
273
     2
274
     2
340
11
275
     0
280
     0
281
     0
282
     0
283
     1
284
     0
285
     0
286
     0
287
     3
288
     0
  0
ENDTAB
  0
TABLE
  2
BLOCK_RECORD
  5
1
330
0
100
AcDbSymbolTable
 70
     1
  0
BLOCK_RECORD
  5
1E
102
{ACAD_XDICTIONARY
360
2D75
102
}
330
1
100
AcDbSymbolTableRecord
100
AcDbBlockTableRecord
  2
*MODEL_SPACE
  0
BLOCK_RECORD
  5
1A
102
{ACAD_XDICTIONARY
360
2D73
102
}
330
1
100
AcDbSymbolTableRecord
100
AcDbBlockTableRecord
  2
*PAPER_SPACE
  0
BLOCK_RECORD
  5
2D62
330
1
100
AcDbSymbolTableRecord
100
AcDbBlockTableRecord
  2
*D0
  0
ENDTAB
  0
ENDSEC
  0
SECTION
  2
BLOCKS
  0
BLOCK
  5
13B
330
1E
100
AcDbEntity
  8
0
100
AcDbBlockBegin
  2
*MODEL_SPACE
 70
     0
 10
0.0
 20
0.0
 30
0.0
  3
*MODEL_SPACE
  1

  0
ENDBLK
  5
13C
330
1E
100
AcDbEntity
  8
0
100
AcDbBlockEnd
  0
BLOCK
  5
139
330
1A
100
AcDbEntity
 67
     1
  8
0
100
AcDbBlockBegin
  2
*PAPER_SPACE
 70
     0
 10
0.0
 20
0.0
 30
0.0
  3
*PAPER_SPACE
  1

  0
ENDBLK
  5
13A
330
1A
100
AcDbEntity
 67
     1
  8
0
100
AcDbBlockEnd
  0
BLOCK
  5
2D6D
330
2D62
100
AcDbEntity
  8
0
100
AcDbBlockBegin
  2
*D0
 70
     1
 10
0.0
 20
0.0
 30
0.0
  3
*D0
  1

  0
LINE
  5
2D63
330
2D62
100
AcDbEntity
  8
0
 62
     0
100
AcDbLine
 10
1.378937007874015
 20
7.587106299212598
 30
0.0
 11
1.378937007874015
 21
7.704606299212597
 31
0.0
  0
LINE
  5
2D64
330
2D62
100
AcDbEntity
  8
0
 62
     0
100
AcDbLine
 10
3.364173228346456
 20
7.587106299212598
 30
0.0
 11
3.364173228346456
 21
7.704606299212597
 31
0.0
  0
LINE
  5
2D65
330
2D62
100
AcDbEntity
  8
0
 62
     0
100
AcDbLine
 10
1.558937007874015
 20
7.524606299212598
 30
0.0
 11
1.861555118110236
 21
7.524606299212598
 31
0.0
  0
LINE
  5
2D66
330
2D62
100
AcDbEntity
  8
0
 62
     0
100
AcDbLine
 10
3.184173228346456
 20
7.524606299212598
 30
0.0
 11
2.881555118110235
 21
7.524606299212598
 31
0.0
  0
SOLID
  5
2D67
330
2D62
100
AcDbEntity
  8
0
 62
     0
100
AcDbTrace
 10
1.558937007874015
 20
7.554606299212598
 30
0.0
 11
1.558937007874015
 21
7.494606299212597
 31
0.0
 12
1.378937007874015
 22
7.524606299212598
 32
0.0
 13
1.378937007874015
 23
7.524606299212598
 33
0.0
  0
SOLID
  5
2D68
330
2D62
100
AcDbEntity
  8
0
 62
     0
100
AcDbTrace
 10
3.184173228346456
 20
7.554606299212598
 30
0.0
 11
3.184173228346456
 21
7.494606299212597
 31
0.0
 12
3.364173228346456
 22
7.524606299212598
 32
0.0
 13
3.364173228346456
 23
7.524606299212598
 33
0.0
  0
MTEXT
  5
2D69
330
2D62
100
AcDbEntity
  8
0
 62
     0
100
AcDbMText
 10
2.371555118110236
 20
7.524606299212598
 30
0.0
 40
0.18
 41
0.0
 71
     5
 72
     1
  1
\A1;1.9852
1001
ACAD
1000
MTEXTBEGIN
1070
    73
1070
     1
1070
    44
1040
1.0
1070
    74
1070
     0
1000
MTEXTEND
  0
POINT
  5
2D6A
330
2D62
100
AcDbEntity
  8
DEFPOINTS
 62
     0
100
AcDbPoint
 10
1.378937007874015
 20
7.524606299212598
 30
0.0
  0
POINT
  5
2D6B
330
2D62
100
AcDbEntity
  8
DEFPOINTS
 62
     0
100
AcDbPoint
 10
3.364173228346456
 20
7.524606299212598
 30
0.0
  0
POINT
  5
2D6C
330
2D62
100
AcDbEntity
  8
DEFPOINTS
 62
     0
100
AcDbPoint
 10
3.364173228346456
 20
7.524606299212598
 30
0.0
  0
ENDBLK
  5
2D6E
330
2D62
100
AcDbEntity
  8
0
100
AcDbBlockEnd
  0
ENDSEC
  0
SECTION
  2
ENTITIES
  0
LINE
  5
24EB
330
1E
100
AcDbEntity
  8
0
100
AcDbLine
 10
3.151574803149606
 20
4.532480314960629
 30
0.0
 11
3.15255905511811
 21
4.530511811023622
 31
0.0
  0
LINE
  5
24EC
330
1E
100
AcDbEntity
  8
0
100
AcDbLine
 10
3.15255905511811
 20
4.530511811023622
 30
0.0
 11
3.151574803149606
 21
4.530511811023622
 31
0.0
  0
LINE
  5
24ED
330
1E
100
AcDbEntity
  8
0
100
AcDbLine
 10
1.591535433070866
 20
4.532480314960629
 30
0.0
 11
1.590551181102362
 21
4.530511811023622
 31
0.0
  0
LINE
  5
24EE
330
1E
100
AcDbEntity
  8
0
100
AcDbLine
 10
1.591535433070866
 20
4.530511811023622
 30
0.0
 11
1.590551181102362
 21
4.530511811023622
 31
0.0
  0
LINE
  5
24EF
330
1E
100
AcDbEntity
  8
0
100
AcDbLine
 10
3.01771653543307
 20
5.295275590551181
 30
0.0
 11
1.725393700787401
 21
5.295275590551181
 31
0.0
  0
POLYLINE
  5
24F0
330
1E
100
AcDbEntity
  8
0
100
AcDb2dPolyline
 66
     1
 10
0.0
 20
0.0
 30
0.0
  0
VERTEX
  5
2D77
330
24F0
100
AcDbEntity
  8
0
100
AcDbVertex
100
AcDb2dVertex
 10
3.01771653543307
 20
5.295275590551181
 30
0.0
  0
VERTEX
  5
2D78
330
24F0
100
AcDbEntity
  8
0
100
AcDbVertex
100
AcDb2dVertex
 10
3.041338582677165
 20
5.290354330708661
 30
0.0
  0
VERTEX
  5
2D79
330
24F0
100
AcDbEntity
  8
0
100
AcDbVertex
100
AcDb2dVertex
 10
3.062992125984251
 20
5.278543307086613
 30
0.0
  0
VERTEX
  5
2D7A
330
24F0
100
AcDbEntity
  8
0
100
AcDbVertex
100
AcDb2dVertex
 10
3.081692913385826
 20
5.257874015748031
 30
0.0
  0
VERTEX
  5
2D7B
330
24F0
100
AcDbEntity
  8
0
100
AcDbVertex
100
AcDb2dVertex
 10
3.095472440944881
 20
5.232283464566928
 30
0.0
  0
VERTEX
  5
2D7C
330
24F0
100
AcDbEntity
  8
0
100
AcDbVertex
100
AcDb2dVertex
 10
3.104330708661417
 20
5.201771653543307
 30
0.0
  0
VERTEX
  5
2D7D
330
24F0
100
AcDbEntity
  8
0
100
AcDbVertex
100
AcDb2dVertex
 10
3.107283464566929
 20
5.168307086614173
 30
0.0
  0
SEQEND
  5
2D7E
330
24F0
100
AcDbEntity
  8
0
  0
LINE
  5
24F9
330
1E
100
AcDbEntity
  8
0
100
AcDbLine
 10
3.107283464566929
 20
4.225393700787401
 30
0.0
 11
3.107283464566929
 21
5.168307086614173
 31
0.0
  0
POLYLINE
  5
24FA
330
1E
100
AcDbEntity
  8
0
100
AcDb2dPolyline
 66
     1
 10
0.0
 20
0.0
 30
0.0
  0
VERTEX
  5
2D7F
330
24FA
100
AcDbEntity
  8
0
100
AcDbVertex
100
AcDb2dVertex
 10
3.107283464566929
 20
4.225393700787401
 30
0.0
  0
VERTEX
  5
2D80
330
24FA
100
AcDbEntity
  8
0
100
AcDbVertex
100
AcDb2dVertex
 10
3.104330708661417
 20
4.191929133858267
 30
0.0
  0
VERTEX
  5
2D81
330
24FA
100
AcDbEntity
  8
0
100
AcDbVertex
100
AcDb2dVertex
 10
3.095472440944881
 20
4.161417322834645
 30
0.0
  0
VERTEX
  5
2D82
330
24FA
100
AcDbEntity
  8
0
100
AcDbVertex
100
AcDb2dVertex
 10
3.081692913385826
 20
4.134842519685038
 30
0.0
  0
VERTEX
  5
2D83
330
24FA
100
AcDbEntity
  8
0
100
AcDbVertex
100
AcDb2dVertex
 10
3.062992125984251
 20
4.11515748031496
 30
0.0
  0
VERTEX
  5
2D84
330
24FA
100
AcDbEntity
  8
0
100
AcDbVertex
100
AcDb2dVertex
 10
3.041338582677165
 20
4.102362204724409
 30
0.0
  0
VERTEX
  5
2D85
330
24FA
100
AcDbEntity
  8
0
100
AcDbVertex
100
AcDb2dVertex
 10
3.01771653543307
 20
4.098425196850393
 30
0.0
  0
SEQEND
  5
2D86
330
24FA
100
AcDbEntity
  8
0
  0
LINE
  5
2503
330
1E
100
AcDbEntity
  8
0
100
AcDbLine
 10
1.725393700787401
 20
4.098425196850393
 30
0.0
 11
3.01771653543307
 21
4.098425196850393
 31
0.0
  0
POLYLINE
  5
2504
330
1E
100
AcDbEntity
  8
0
100
AcDb2dPolyline
 66
     1
 10
0.0
 20
0.0
 30
0.0
  0
VERTEX
  5
2D87
330
2504
100
AcDbEntity
  8
0
100
AcDbVertex
100
AcDb2dVertex
 10
1.725393700787401
 20
4.098425196850393
 30
0.0
  0
VERTEX
  5
2D88
330
2504
100
AcDbEntity
  8
0
100
AcDbVertex
100
AcDb2dVertex
 10
1.701771653543307
 20
4.102362204724409
 30
0.0
  0
VERTEX
  5
2D89
330
2504
100
AcDbEntity
  8
0
100
AcDbVertex
100
AcDb2dVertex
 10
1.68011811023622
 20
4.11515748031496
 30
0.0
  0
VERTEX
  5
2D8A
330
2504
100
AcDbEntity
  8
0
100
AcDbVertex
100
AcDb2dVertex
 10
1.661417322834645
 20
4.134842519685038
 30
0.0
  0
VERTEX
  5
2D8B
330
2504
100
AcDbEntity
  8
0
100
AcDbVertex
100
AcDb2dVertex
 10
1.64763779527559
 20
4.161417322834645
 30
0.0
  0
VERTEX
  5
2D8C
330
2504
100
AcDbEntity
  8
0
100
AcDbVertex
100
AcDb2dVertex
 10
1.638779527559055
 20
4.191929133858267
 30
0.0
  0
VERTEX
  5
2D8D
330
2504
100
AcDbEntity
  8
0
100
AcDbVertex
100
AcDb2dVertex
 10
1.635826771653543
 20
4.225393700787401
 30
0.0
  0
SEQEND
  5
2D8E
330
2504
100
AcDbEntity
  8
0
  0
LINE
  5
250D
330
1E
100
AcDbEntity
  8
0
100
AcDbLine
 10
1.635826771653543
 20
5.168307086614173
 30
0.0
 11
1.635826771653543
 21
4.225393700787401
 31
0.0
  0
POLYLINE
  5
250E
330
1E
100
AcDbEntity
  8
0
100
AcDb2dPolyline
 66
     1
 10
0.0
 20
0.0
 30
0.0
  0
VERTEX
  5
2D8F
330
250E
100
AcDbEntity
  8
0
100
AcDbVertex
100
AcDb2dVertex
 10
1.635826771653543
 20
5.168307086614173
 30
0.0
  0
VERTEX
  5
2D90
330
250E
100
AcDbEntity
  8
0
100
AcDbVertex
100
AcDb2dVertex
 10
1.638779527559055
 20
5.201771653543307
 30
0.0
  0
VERTEX
  5
2D91
330
250E
100
AcDbEntity
  8
0
100
AcDbVertex
100
AcDb2dVertex
 10
1.64763779527559
 20
5.232283464566928
 30
0.0
  0
VERTEX
  5
2D92
330
250E
100
AcDbEntity
  8
0
100
AcDbVertex
100
AcDb2dVertex
 10
1.661417322834645
 20
5.257874015748031
 30
0.0
  0
VERTEX
  5
2D93
330
250E
100
AcDbEntity
  8
0
100
AcDbVertex
100
AcDb2dVertex
 10
1.68011811023622
 20
5.278543307086613
 30
0.0
  0
VERTEX
  5
2D94
330
250E
100
AcDbEntity
  8
0
100
AcDbVertex
100
AcDb2dVertex
 10
1.701771653543307
 20
5.290354330708661
 30
0.0
  0
VERTEX
  5
2D95
330
250E
100
AcDbEntity
  8
0
100
AcDbVertex
100
AcDb2dVertex
 10
1.725393700787401
 20
5.295275590551181
 30
0.0
  0
SEQEND
  5
2D96
330
250E
100
AcDbEntity
  8
0
  0
LINE
  5
2517
330
1E
100
AcDbEntity
  8
0
100
AcDbLine
 10
1.591535433070866
 20
4.530511811023622
 30
0.0
 11
1.591535433070866
 21
4.863188976377952
 31
0.0
  0
LINE
  5
2518
330
1E
100
AcDbEntity
  8
0
100
AcDbLine
 10
1.590551181102362
 20
4.029527559055117
 30
0.0
 11
1.590551181102362
 21
4.530511811023622
 31
0.0
  0
LINE
  5
2519
330
1E
100
AcDbEntity
  8
0
100
AcDbLine
 10
1.590551181102362
 20
4.029527559055117
 30
0.0
 11
3.15255905511811
 21
4.029527559055117
 31
0.0
  0
LINE
  5
251A
330
1E
100
AcDbEntity
  8
0
100
AcDbLine
 10
3.15255905511811
 20
4.029527559055117
 30
0.0
 11
3.15255905511811
 21
4.530511811023622
 31
0.0
  0
LINE
  5
251B
330
1E
100
AcDbEntity
  8
0
100
AcDbLine
 10
3.151574803149606
 20
4.863188976377952
 30
0.0
 11
3.151574803149606
 21
4.530511811023622
 31
0.0
  0
LINE
  5
251C
330
1E
100
AcDbEntity
  8
0
100
AcDbLine
 10
3.15255905511811
 20
4.863188976377952
 30
0.0
 11
3.15255905511811
 21
5.364173228346456
 31
0.0
  0
LINE
  5
251D
330
1E
100
AcDbEntity
  8
0
100
AcDbLine
 10
1.590551181102362
 20
5.364173228346456
 30
0.0
 11
3.15255905511811
 21
5.364173228346456
 31
0.0
  0
LINE
  5
251E
330
1E
100
AcDbEntity
  8
0
100
AcDbLine
 10
1.590551181102362
 20
4.863188976377952
 30
0.0
 11
1.590551181102362
 21
5.364173228346456
 31
0.0
  0
LINE
  5
251F
330
1E
100
AcDbEntity
  8
0
100
AcDbLine
 10
1.755905511811023
 20
4.573818897637795
 30
0.0
 11
1.755905511811023
 21
4.117125984251968
 31
0.0
  0
LINE
  5
2520
330
1E
100
AcDbEntity
  8
0
100
AcDbLine
 10
2.33759842519685
 20
4.573818897637795
 30
0.0
 11
2.33759842519685
 21
4.117125984251968
 31
0.0
  0
LINE
  5
2521
330
1E
100
AcDbEntity
  8
0
100
AcDbLine
 10
2.33759842519685
 20
4.15255905511811
 30
0.0
 11
1.755905511811023
 21
4.15255905511811
 31
0.0
  0
LINE
  5
2522
330
1E
100
AcDbEntity
  8
0
100
AcDbLine
 10
1.755905511811023
 20
4.138779527559054
 30
0.0
 11
2.33759842519685
 21
4.138779527559054
 31
0.0
  0
LINE
  5
2523
330
1E
100
AcDbEntity
  8
0
100
AcDbLine
 10
2.987204724409448
 20
4.573818897637795
 30
0.0
 11
2.987204724409448
 21
4.117125984251968
 31
0.0
  0
LINE
  5
2524
330
1E
100
AcDbEntity
  8
0
100
AcDbLine
 10
2.405511811023622
 20
4.573818897637795
 30
0.0
 11
2.405511811023622
 21
4.117125984251968
 31
0.0
  0
LINE
  5
2525
330
1E
100
AcDbEntity
  8
0
100
AcDbLine
 10
2.987204724409448
 20
4.15255905511811
 30
0.0
 11
2.405511811023622
 21
4.15255905511811
 31
0.0
  0
LINE
  5
2526
330
1E
100
AcDbEntity
  8
0
100
AcDbLine
 10
2.405511811023622
 20
4.138779527559054
 30
0.0
 11
2.987204724409448
 21
4.138779527559054
 31
0.0
  0
LINE
  5
2527
330
1E
100
AcDbEntity
  8
0
100
AcDbLine
 10
1.752952755905511
 20
4.76279527559055
 30
0.0
 11
2.99015748031496
 21
4.76279527559055
 31
0.0
  0
LINE
  5
2528
330
1E
100
AcDbEntity
  8
0
100
AcDbLine
 10
2.99015748031496
 20
4.76279527559055
 30
0.0
 11
3.01771653543307
 21
5.295275590551181
 31
0.0
  0
LINE
  5
2529
330
1E
100
AcDbEntity
  8
0
100
AcDbLine
 10
1.725393700787401
 20
5.295275590551181
 30
0.0
 11
1.752952755905511
 21
4.76279527559055
 31
0.0
  0
LINE
  5
252A
330
1E
100
AcDbEntity
  8
0
100
AcDbLine
 10
3.107283464566929
 20
5.168307086614173
 30
0.0
 11
3.08267716535433
 21
4.696850393700787
 31
0.0
  0
LINE
  5
252B
330
1E
100
AcDbEntity
  8
0
100
AcDbLine
 10
3.08267716535433
 20
4.696850393700787
 30
0.0
 11
3.107283464566929
 21
4.225393700787401
 31
0.0
  0
LINE
  5
252C
330
1E
100
AcDbEntity
  8
0
100
AcDbLine
 10
1.635826771653543
 20
4.225393700787401
 30
0.0
 11
1.660433070866141
 21
4.696850393700787
 31
0.0
  0
LINE
  5
252D
330
1E
100
AcDbEntity
  8
0
100
AcDbLine
 10
1.660433070866141
 20
4.696850393700787
 30
0.0
 11
1.635826771653543
 21
5.168307086614173
 31
0.0
  0
LINE
  5
252E
330
1E
100
AcDbEntity
  8
0
100
AcDbLine
 10
1.755905511811023
 20
4.573818897637795
 30
0.0
 11
2.33759842519685
 21
4.573818897637795
 31
0.0
  0
LINE
  5
252F
330
1E
100
AcDbEntity
  8
0
100
AcDbLine
 10
1.755905511811023
 20
4.117125984251968
 30
0.0
 11
2.33759842519685
 21
4.117125984251968
 31
0.0
  0
LINE
  5
2530
330
1E
100
AcDbEntity
  8
0
100
AcDbLine
 10
2.405511811023622
 20
4.573818897637795
 30
0.0
 11
2.987204724409448
 21
4.573818897637795
 31
0.0
  0
LINE
  5
2531
330
1E
100
AcDbEntity
  8
0
100
AcDbLine
 10
3.01771653543307
 20
4.098425196850393
 30
0.0
 11
2.99015748031496
 21
4.630905511811023
 31
0.0
  0
LINE
  5
2532
330
1E
100
AcDbEntity
  8
0
100
AcDbLine
 10
2.99015748031496
 20
4.630905511811023
 30
0.0
 11
1.752952755905511
 21
4.630905511811023
 31
0.0
  0
LINE
  5
2533
330
1E
100
AcDbEntity
  8
0
100
AcDbLine
 10
1.752952755905511
 20
4.630905511811023
 30
0.0
 11
1.725393700787401
 21
4.098425196850393
 31
0.0
  0
LINE
  5
2534
330
1E
100
AcDbEntity
  8
0
100
AcDbLine
 10
2.405511811023622
 20
4.117125984251968
 30
0.0
 11
2.987204724409448
 21
4.117125984251968
 31
0.0
  0
LINE
  5
2535
330
1E
100
AcDbEntity
  8
0
100
AcDbLine
 10
2.129921259842519
 20
4.264763779527559
 30
0.0
 11
1.963582677165354
 21
4.264763779527559
 31
0.0
  0
LINE
  5
2536
330
1E
100
AcDbEntity
  8
0
100
AcDbLine
 10
2.129921259842519
 20
4.264763779527559
 30
0.0
 11
2.129921259842519
 21
4.293307086614173
 31
0.0
  0
LINE
  5
2537
330
1E
100
AcDbEntity
  8
0
100
AcDbLine
 10
2.129921259842519
 20
4.293307086614173
 30
0.0
 11
2.129921259842519
 21
4.293307086614173
 31
0.0
  0
LINE
  5
2538
330
1E
100
AcDbEntity
  8
0
100
AcDbLine
 10
2.129921259842519
 20
4.264763779527559
 30
0.0
 11
2.129921259842519
 21
4.293307086614173
 31
0.0
  0
LINE
  5
2539
330
1E
100
AcDbEntity
  8
0
100
AcDbLine
 10
2.614173228346456
 20
4.264763779527559
 30
0.0
 11
2.614173228346456
 21
4.293307086614173
 31
0.0
  0
LINE
  5
253A
330
1E
100
AcDbEntity
  8
0
100
AcDbLine
 10
2.613188976377952
 20
4.293307086614173
 30
0.0
 11
2.614173228346456
 21
4.293307086614173
 31
0.0
  0
LINE
  5
253B
330
1E
100
AcDbEntity
  8
0
100
AcDbLine
 10
2.613188976377952
 20
4.264763779527559
 30
0.0
 11
2.613188976377952
 21
4.293307086614173
 31
0.0
  0
LINE
  5
253C
330
1E
100
AcDbEntity
  8
0
100
AcDbLine
 10
2.779527559055118
 20
4.264763779527559
 30
0.0
 11
2.613188976377952
 21
4.264763779527559
 31
0.0
  0
LINE
  5
253D
330
1E
100
AcDbEntity
  8
0
100
AcDbLine
 10
1.963582677165354
 20
4.264763779527559
 30
0.0
 11
1.963582677165354
 21
4.293307086614173
 31
0.0
  0
LINE
  5
253E
330
1E
100
AcDbEntity
  8
0
100
AcDbLine
 10
1.963582677165354
 20
4.293307086614173
 30
0.0
 11
1.963582677165354
 21
4.293307086614173
 31
0.0
  0
LINE
  5
253F
330
1E
100
AcDbEntity
  8
0
100
AcDbLine
 10
1.963582677165354
 20
4.264763779527559
 30
0.0
 11
1.963582677165354
 21
4.293307086614173
 31
0.0
  0
LINE
  5
2540
330
1E
100
AcDbEntity
  8
0
100
AcDbLine
 10
2.779527559055118
 20
4.264763779527559
 30
0.0
 11
2.779527559055118
 21
4.293307086614173
 31
0.0
  0
LINE
  5
2541
330
1E
100
AcDbEntity
  8
0
100
AcDbLine
 10
2.779527559055118
 20
4.293307086614173
 30
0.0
 11
2.779527559055118
 21
4.293307086614173
 31
0.0
  0
LINE
  5
2542
330
1E
100
AcDbEntity
  8
0
100
AcDbLine
 10
2.779527559055118
 20
4.264763779527559
 30
0.0
 11
2.779527559055118
 21
4.293307086614173
 31
0.0
  0
LINE
  5
2543
330
1E
100
AcDbEntity
  8
0
100
AcDbLine
 10
2.779527559055118
 20
4.293307086614173
 30
0.0
 11
2.779527559055118
 21
4.293307086614173
 31
0.0
  0
LINE
  5
2544
330
1E
100
AcDbEntity
  8
0
100
AcDbLine
 10
2.779527559055118
 20
4.293307086614173
 30
0.0
 11
2.779527559055118
 21
4.264763779527559
 31
0.0
  0
LINE
  5
2545
330
1E
100
AcDbEntity
  8
0
100
AcDbLine
 10
2.774606299212598
 20
4.293307086614173
 30
0.0
 11
2.779527559055118
 21
4.293307086614173
 31
0.0
  0
LINE
  5
2546
330
1E
100
AcDbEntity
  8
0
100
AcDbLine
 10
2.774606299212598
 20
4.293307086614173
 30
0.0
 11
2.773622047244094
 21
4.293307086614173
 31
0.0
  0
LINE
  5
2547
330
1E
100
AcDbEntity
  8
0
100
AcDbLine
 10
2.773622047244094
 20
4.293307086614173
 30
0.0
 11
2.773622047244094
 21
4.264763779527559
 31
0.0
  0
LINE
  5
2548
330
1E
100
AcDbEntity
  8
0
100
AcDbLine
 10
2.773622047244094
 20
4.293307086614173
 30
0.0
 11
2.618110236220472
 21
4.293307086614173
 31
0.0
  0
LINE
  5
2549
330
1E
100
AcDbEntity
  8
0
100
AcDbLine
 10
2.618110236220472
 20
4.293307086614173
 30
0.0
 11
2.618110236220472
 21
4.264763779527559
 31
0.0
  0
LINE
  5
254A
330
1E
100
AcDbEntity
  8
0
100
AcDbLine
 10
2.618110236220472
 20
4.293307086614173
 30
0.0
 11
2.618110236220472
 21
4.293307086614173
 31
0.0
  0
LINE
  5
254B
330
1E
100
AcDbEntity
  8
0
100
AcDbLine
 10
2.614173228346456
 20
4.293307086614173
 30
0.0
 11
2.618110236220472
 21
4.293307086614173
 31
0.0
  0
LINE
  5
254C
330
1E
100
AcDbEntity
  8
0
100
AcDbLine
 10
2.125
 20
4.293307086614173
 30
0.0
 11
2.129921259842519
 21
4.293307086614173
 31
0.0
  0
LINE
  5
254D
330
1E
100
AcDbEntity
  8
0
100
AcDbLine
 10
2.125
 20
4.293307086614173
 30
0.0
 11
2.124015748031495
 21
4.293307086614173
 31
0.0
  0
LINE
  5
254E
330
1E
100
AcDbEntity
  8
0
100
AcDbLine
 10
2.124015748031495
 20
4.264763779527559
 30
0.0
 11
2.124015748031495
 21
4.293307086614173
 31
0.0
  0
LINE
  5
254F
330
1E
100
AcDbEntity
  8
0
100
AcDbLine
 10
2.124015748031495
 20
4.293307086614173
 30
0.0
 11
1.968503937007874
 21
4.293307086614173
 31
0.0
  0
LINE
  5
2550
330
1E
100
AcDbEntity
  8
0
100
AcDbLine
 10
1.968503937007874
 20
4.264763779527559
 30
0.0
 11
1.968503937007874
 21
4.293307086614173
 31
0.0
  0
LINE
  5
2551
330
1E
100
AcDbEntity
  8
0
100
AcDbLine
 10
1.968503937007874
 20
4.293307086614173
 30
0.0
 11
1.968503937007874
 21
4.293307086614173
 31
0.0
  0
LINE
  5
2552
330
1E
100
AcDbEntity
  8
0
100
AcDbLine
 10
1.963582677165354
 20
4.293307086614173
 30
0.0
 11
1.968503937007874
 21
4.293307086614173
 31
0.0
  0
LINE
  5
2553
330
1E
100
AcDbEntity
  8
0
100
AcDbLine
 10
2.613188976377952
 20
4.293307086614173
 30
0.0
 11
2.405511811023622
 21
4.293307086614173
 31
0.0
  0
LINE
  5
2554
330
1E
100
AcDbEntity
  8
0
100
AcDbLine
 10
2.33759842519685
 20
4.293307086614173
 30
0.0
 11
2.129921259842519
 21
4.293307086614173
 31
0.0
  0
LINE
  5
2555
330
1E
100
AcDbEntity
  8
0
100
AcDbLine
 10
1.755905511811023
 20
4.264763779527559
 30
0.0
 11
1.963582677165354
 21
4.264763779527559
 31
0.0
  0
LINE
  5
2556
330
1E
100
AcDbEntity
  8
0
100
AcDbLine
 10
1.963582677165354
 20
4.293307086614173
 30
0.0
 11
1.755905511811023
 21
4.293307086614173
 31
0.0
  0
LINE
  5
2557
330
1E
100
AcDbEntity
  8
0
100
AcDbLine
 10
1.755905511811023
 20
4.202755905511811
 30
0.0
 11
2.33759842519685
 21
4.202755905511811
 31
0.0
  0
LINE
  5
2558
330
1E
100
AcDbEntity
  8
0
100
AcDbLine
 10
2.33759842519685
 20
4.215551181102362
 30
0.0
 11
1.755905511811023
 21
4.215551181102362
 31
0.0
  0
LINE
  5
2559
330
1E
100
AcDbEntity
  8
0
100
AcDbLine
 10
2.33759842519685
 20
4.253937007874015
 30
0.0
 11
1.755905511811023
 21
4.253937007874015
 31
0.0
  0
LINE
  5
255A
330
1E
100
AcDbEntity
  8
0
100
AcDbLine
 10
2.129921259842519
 20
4.264763779527559
 30
0.0
 11
2.33759842519685
 21
4.264763779527559
 31
0.0
  0
LINE
  5
255B
330
1E
100
AcDbEntity
  8
0
100
AcDbLine
 10
2.987204724409448
 20
4.293307086614173
 30
0.0
 11
2.779527559055118
 21
4.293307086614173
 31
0.0
  0
LINE
  5
255C
330
1E
100
AcDbEntity
  8
0
100
AcDbLine
 10
2.779527559055118
 20
4.264763779527559
 30
0.0
 11
2.987204724409448
 21
4.264763779527559
 31
0.0
  0
LINE
  5
255D
330
1E
100
AcDbEntity
  8
0
100
AcDbLine
 10
2.405511811023622
 20
4.264763779527559
 30
0.0
 11
2.613188976377952
 21
4.264763779527559
 31
0.0
  0
LINE
  5
255E
330
1E
100
AcDbEntity
  8
0
100
AcDbLine
 10
2.987204724409448
 20
4.253937007874015
 30
0.0
 11
2.405511811023622
 21
4.253937007874015
 31
0.0
  0
LINE
  5
255F
330
1E
100
AcDbEntity
  8
0
100
AcDbLine
 10
2.987204724409448
 20
4.215551181102362
 30
0.0
 11
2.405511811023622
 21
4.215551181102362
 31
0.0
  0
LINE
  5
2560
330
1E
100
AcDbEntity
  8
0
100
AcDbLine
 10
2.405511811023622
 20
4.202755905511811
 30
0.0
 11
2.987204724409448
 21
4.202755905511811
 31
0.0
  0
POLYLINE
  5
2561
330
1E
100
AcDbEntity
  8
0
100
AcDb2dPolyline
 66
     1
 10
0.0
 20
0.0
 30
0.0
  0
VERTEX
  5
2D97
330
2561
100
AcDbEntity
  8
0
100
AcDbVertex
100
AcDb2dVertex
 10
2.99015748031496
 20
4.630905511811023
 30
0.0
  0
VERTEX
  5
2D98
330
2561
100
AcDbEntity
  8
0
100
AcDbVertex
100
AcDb2dVertex
 10
2.99015748031496
 20
4.654527559055117
 30
0.0
  0
VERTEX
  5
2D99
330
2561
100
AcDbEntity
  8
0
100
AcDbVertex
100
AcDb2dVertex
 10
2.99015748031496
 20
4.682086614173228
 30
0.0
  0
VERTEX
  5
2D9A
330
2561
100
AcDbEntity
  8
0
100
AcDbVertex
100
AcDb2dVertex
 10
2.99015748031496
 20
4.711614173228346
 30
0.0
  0
VERTEX
  5
2D9B
330
2561
100
AcDbEntity
  8
0
100
AcDbVertex
100
AcDb2dVertex
 10
2.99015748031496
 20
4.739173228346456
 30
0.0
  0
VERTEX
  5
2D9C
330
2561
100
AcDbEntity
  8
0
100
AcDbVertex
100
AcDb2dVertex
 10
2.99015748031496
 20
4.76279527559055
 30
0.0
  0
SEQEND
  5
2D9D
330
2561
100
AcDbEntity
  8
0
  0
POLYLINE
  5
2569
330
1E
100
AcDbEntity
  8
0
100
AcDb2dPolyline
 66
     1
 10
0.0
 20
0.0
 30
0.0
  0
VERTEX
  5
2D9E
330
2569
100
AcDbEntity
  8
0
100
AcDbVertex
100
AcDb2dVertex
 10
1.752952755905511
 20
4.76279527559055
 30
0.0
  0
VERTEX
  5
2D9F
330
2569
100
AcDbEntity
  8
0
100
AcDbVertex
100
AcDb2dVertex
 10
1.752952755905511
 20
4.739173228346456
 30
0.0
  0
VERTEX
  5
2DA0
330
2569
100
AcDbEntity
  8
0
100
AcDbVertex
100
AcDb2dVertex
 10
1.752952755905511
 20
4.711614173228346
 30
0.0
  0
VERTEX
  5
2DA1
330
2569
100
AcDbEntity
  8
0
100
AcDbVertex
100
AcDb2dVertex
 10
1.752952755905511
 20
4.682086614173228
 30
0.0
  0
VERTEX
  5
2DA2
330
2569
100
AcDbEntity
  8
0
100
AcDbVertex
100
AcDb2dVertex
 10
1.752952755905511
 20
4.654527559055117
 30
0.0
  0
VERTEX
  5
2DA3
330
2569
100
AcDbEntity
  8
0
100
AcDbVertex
100
AcDb2dVertex
 10
1.752952755905511
 20
4.630905511811023
 30
0.0
  0
SEQEND
  5
2DA4
330
2569
100
AcDbEntity
  8
0
  0
POLYLINE
  5
2571
330
1E
100
AcDbEntity
  8
0
100
AcDb2dPolyline
 66
     1
 10
0.0
 20
0.0
 30
0.0
  0
VERTEX
  5
2DA5
330
2571
100
AcDbEntity
  8
0
100
AcDbVertex
100
AcDb2dVertex
 10
3.08267716535433
 20
4.696850393700787
 30
0.0
  0
VERTEX
  5
2DA6
330
2571
100
AcDbEntity
  8
0
100
AcDbVertex
100
AcDb2dVertex
 10
3.077755905511811
 20
4.716535433070865
 30
0.0
  0
VERTEX
  5
2DA7
330
2571
100
AcDbEntity
  8
0
100
AcDbVertex
100
AcDb2dVertex
 10
3.063976377952756
 20
4.734251968503937
 30
0.0
  0
VERTEX
  5
2DA8
330
2571
100
AcDbEntity
  8
0
100
AcDbVertex
100
AcDb2dVertex
 10
3.043307086614173
 20
4.749015748031496
 30
0.0
  0
VERTEX
  5
2DA9
330
2571
100
AcDbEntity
  8
0
100
AcDbVertex
100
AcDb2dVertex
 10
3.018700787401574
 20
4.758858267716535
 30
0.0
  0
VERTEX
  5
2DAA
330
2571
100
AcDbEntity
  8
0
100
AcDbVertex
100
AcDb2dVertex
 10
2.99015748031496
 20
4.76279527559055
 30
0.0
  0
SEQEND
  5
2DAB
330
2571
100
AcDbEntity
  8
0
  0
POLYLINE
  5
2579
330
1E
100
AcDbEntity
  8
0
100
AcDb2dPolyline
 66
     1
 10
0.0
 20
0.0
 30
0.0
  0
VERTEX
  5
2DAC
330
2579
100
AcDbEntity
  8
0
100
AcDbVertex
100
AcDb2dVertex
 10
3.08267716535433
 20
4.696850393700787
 30
0.0
  0
VERTEX
  5
2DAD
330
2579
100
AcDbEntity
  8
0
100
AcDbVertex
100
AcDb2dVertex
 10
3.077755905511811
 20
4.677165354330708
 30
0.0
  0
VERTEX
  5
2DAE
330
2579
100
AcDbEntity
  8
0
100
AcDbVertex
100
AcDb2dVertex
 10
3.063976377952756
 20
4.658464566929133
 30
0.0
  0
VERTEX
  5
2DAF
330
2579
100
AcDbEntity
  8
0
100
AcDbVertex
100
AcDb2dVertex
 10
3.043307086614173
 20
4.644685039370078
 30
0.0
  0
VERTEX
  5
2DB0
330
2579
100
AcDbEntity
  8
0
100
AcDbVertex
100
AcDb2dVertex
 10
3.018700787401574
 20
4.634842519685038
 30
0.0
  0
VERTEX
  5
2DB1
330
2579
100
AcDbEntity
  8
0
100
AcDbVertex
100
AcDb2dVertex
 10
2.99015748031496
 20
4.630905511811023
 30
0.0
  0
SEQEND
  5
2DB2
330
2579
100
AcDbEntity
  8
0
  0
POLYLINE
  5
2581
330
1E
100
AcDbEntity
  8
0
100
AcDb2dPolyline
 66
     1
 10
0.0
 20
0.0
 30
0.0
  0
VERTEX
  5
2DB3
330
2581
100
AcDbEntity
  8
0
100
AcDbVertex
100
AcDb2dVertex
 10
1.660433070866141
 20
4.696850393700787
 30
0.0
  0
VERTEX
  5
2DB4
330
2581
100
AcDbEntity
  8
0
100
AcDbVertex
100
AcDb2dVertex
 10
1.665354330708661
 20
4.677165354330708
 30
0.0
  0
VERTEX
  5
2DB5
330
2581
100
AcDbEntity
  8
0
100
AcDbVertex
100
AcDb2dVertex
 10
1.679133858267716
 20
4.658464566929133
 30
0.0
  0
VERTEX
  5
2DB6
330
2581
100
AcDbEntity
  8
0
100
AcDbVertex
100
AcDb2dVertex
 10
1.699803149606299
 20
4.644685039370078
 30
0.0
  0
VERTEX
  5
2DB7
330
2581
100
AcDbEntity
  8
0
100
AcDbVertex
100
AcDb2dVertex
 10
1.725393700787401
 20
4.634842519685038
 30
0.0
  0
VERTEX
  5
2DB8
330
2581
100
AcDbEntity
  8
0
100
AcDbVertex
100
AcDb2dVertex
 10
1.752952755905511
 20
4.630905511811023
 30
0.0
  0
SEQEND
  5
2DB9
330
2581
100
AcDbEntity
  8
0
  0
POLYLINE
  5
2589
330
1E
100
AcDbEntity
  8
0
100
AcDb2dPolyline
 66
     1
 10
0.0
 20
0.0
 30
0.0
  0
VERTEX
  5
2DBA
330
2589
100
AcDbEntity
  8
0
100
AcDbVertex
100
AcDb2dVertex
 10
1.660433070866141
 20
4.696850393700787
 30
0.0
  0
VERTEX
  5
2DBB
330
2589
100
AcDbEntity
  8
0
100
AcDbVertex
100
AcDb2dVertex
 10
1.665354330708661
 20
4.716535433070865
 30
0.0
  0
VERTEX
  5
2DBC
330
2589
100
AcDbEntity
  8
0
100
AcDbVertex
100
AcDb2dVertex
 10
1.679133858267716
 20
4.734251968503937
 30
0.0
  0
VERTEX
  5
2DBD
330
2589
100
AcDbEntity
  8
0
100
AcDbVertex
100
AcDb2dVertex
 10
1.699803149606299
 20
4.749015748031496
 30
0.0
  0
VERTEX
  5
2DBE
330
2589
100
AcDbEntity
  8
0
100
AcDbVertex
100
AcDb2dVertex
 10
1.725393700787401
 20
4.758858267716535
 30
0.0
  0
VERTEX
  5
2DBF
330
2589
100
AcDbEntity
  8
0
100
AcDbVertex
100
AcDb2dVertex
 10
1.752952755905511
 20
4.76279527559055
 30
0.0
  0
SEQEND
  5
2DC0
330
2589
100
AcDbEntity
  8
0
  0
POLYLINE
  5
2591
330
1E
100
AcDbEntity
  8
0
100
AcDb2dPolyline
 66
     1
 10
0.0
 20
0.0
 30
0.0
  0
VERTEX
  5
2DC1
330
2591
100
AcDbEntity
  8
0
100
AcDbVertex
100
AcDb2dVertex
 10
1.659448818897637
 20
5.364173228346456
 30
0.0
  0
VERTEX
  5
2DC2
330
2591
100
AcDbEntity
  8
0
100
AcDbVertex
100
AcDb2dVertex
 10
1.658464566929133
 20
5.366141732283464
 30
0.0
  0
VERTEX
  5
2DC3
330
2591
100
AcDbEntity
  8
0
100
AcDbVertex
100
AcDb2dVertex
 10
1.657480314960629
 20
5.368110236220472
 30
0.0
  0
SEQEND
  5
2DC4
330
2591
100
AcDbEntity
  8
0
  0
POLYLINE
  5
2596
330
1E
100
AcDbEntity
  8
0
100
AcDb2dPolyline
 66
     1
 10
0.0
 20
0.0
 30
0.0
  0
VERTEX
  5
2DC5
330
2596
100
AcDbEntity
  8
0
100
AcDbVertex
100
AcDb2dVertex
 10
3.085629921259842
 20
5.368110236220472
 30
0.0
  0
VERTEX
  5
2DC6
330
2596
100
AcDbEntity
  8
0
100
AcDbVertex
100
AcDb2dVertex
 10
3.084645669291338
 20
5.366141732283464
 30
0.0
  0
VERTEX
  5
2DC7
330
2596
100
AcDbEntity
  8
0
100
AcDbVertex
100
AcDb2dVertex
 10
3.083661417322834
 20
5.364173228346456
 30
0.0
  0
SEQEND
  5
2DC8
330
2596
100
AcDbEntity
  8
0
  0
LINE
  5
259B
330
1E
100
AcDbEntity
  8
0
100
AcDbLine
 10
3.364173228346456
 20
4.0
 30
0.0
 11
3.364173228346456
 21
6.694881889763779
 31
0.0
  0
POLYLINE
  5
259C
330
1E
100
AcDbEntity
  8
0
100
AcDb2dPolyline
 66
     1
 10
0.0
 20
0.0
 30
0.0
  0
VERTEX
  5
2DC9
330
259C
100
AcDbEntity
  8
0
100
AcDbVertex
100
AcDb2dVertex
 10
3.364173228346456
 20
4.0
 30
0.0
  0
VERTEX
  5
2DCA
330
259C
100
AcDbEntity
  8
0
100
AcDbVertex
100
AcDb2dVertex
 10
3.36023622047244
 20
3.961614173228346
 30
0.0
  0
VERTEX
  5
2DCB
330
259C
100
AcDbEntity
  8
0
100
AcDbVertex
100
AcDb2dVertex
 10
3.347440944881889
 20
3.926181102362204
 30
0.0
  0
VERTEX
  5
2DCC
330
259C
100
AcDbEntity
  8
0
100
AcDbVertex
100
AcDb2dVertex
 10
3.326771653543306
 20
3.893700787401574
 30
0.0
  0
VERTEX
  5
2DCD
330
259C
100
AcDbEntity
  8
0
100
AcDbVertex
100
AcDb2dVertex
 10
3.3001968503937
 20
3.867125984251968
 30
0.0
  0
VERTEX
  5
2DCE
330
259C
100
AcDbEntity
  8
0
100
AcDbVertex
100
AcDb2dVertex
 10
3.26771653543307
 20
3.846456692913385
 30
0.0
  0
VERTEX
  5
2DCF
330
259C
100
AcDbEntity
  8
0
100
AcDbVertex
100
AcDb2dVertex
 10
3.232283464566929
 20
3.834645669291338
 30
0.0
  0
VERTEX
  5
2DD0
330
259C
100
AcDbEntity
  8
0
100
AcDbVertex
100
AcDb2dVertex
 10
3.193897637795275
 20
3.829724409448818
 30
0.0
  0
SEQEND
  5
2DD1
330
259C
100
AcDbEntity
  8
0
  0
LINE
  5
25A6
330
1E
100
AcDbEntity
  8
0
100
AcDbLine
 10
1.549212598425196
 20
3.829724409448818
 30
0.0
 11
3.193897637795275
 21
3.829724409448818
 31
0.0
  0
POLYLINE
  5
25A7
330
1E
100
AcDbEntity
  8
0
100
AcDb2dPolyline
 66
     1
 10
0.0
 20
0.0
 30
0.0
  0
VERTEX
  5
2DD2
330
25A7
100
AcDbEntity
  8
0
100
AcDbVertex
100
AcDb2dVertex
 10
1.549212598425196
 20
3.829724409448818
 30
0.0
  0
VERTEX
  5
2DD3
330
25A7
100
AcDbEntity
  8
0
100
AcDbVertex
100
AcDb2dVertex
 10
1.510826771653543
 20
3.834645669291338
 30
0.0
  0
VERTEX
  5
2DD4
330
25A7
100
AcDbEntity
  8
0
100
AcDbVertex
100
AcDb2dVertex
 10
1.475393700787401
 20
3.846456692913385
 30
0.0
  0
VERTEX
  5
2DD5
330
25A7
100
AcDbEntity
  8
0
100
AcDbVertex
100
AcDb2dVertex
 10
1.442913385826771
 20
3.867125984251968
 30
0.0
  0
VERTEX
  5
2DD6
330
25A7
100
AcDbEntity
  8
0
100
AcDbVertex
100
AcDb2dVertex
 10
1.416338582677165
 20
3.893700787401574
 30
0.0
  0
VERTEX
  5
2DD7
330
25A7
100
AcDbEntity
  8
0
100
AcDbVertex
100
AcDb2dVertex
 10
1.395669291338582
 20
3.926181102362204
 30
0.0
  0
VERTEX
  5
2DD8
330
25A7
100
AcDbEntity
  8
0
100
AcDbVertex
100
AcDb2dVertex
 10
1.383858267716535
 20
3.961614173228346
 30
0.0
  0
VERTEX
  5
2DD9
330
25A7
100
AcDbEntity
  8
0
100
AcDbVertex
100
AcDb2dVertex
 10
1.378937007874015
 20
4.0
 30
0.0
  0
SEQEND
  5
2DDA
330
25A7
100
AcDbEntity
  8
0
  0
LINE
  5
25B1
330
1E
100
AcDbEntity
  8
0
100
AcDbLine
 10
1.378937007874015
 20
6.694881889763779
 30
0.0
 11
1.378937007874015
 21
4.0
 31
0.0
  0
POLYLINE
  5
25B2
330
1E
100
AcDbEntity
  8
0
100
AcDb2dPolyline
 66
     1
 10
0.0
 20
0.0
 30
0.0
  0
VERTEX
  5
2DDB
330
25B2
100
AcDbEntity
  8
0
100
AcDbVertex
100
AcDb2dVertex
 10
1.378937007874015
 20
6.694881889763779
 30
0.0
  0
VERTEX
  5
2DDC
330
25B2
100
AcDbEntity
  8
0
100
AcDbVertex
100
AcDb2dVertex
 10
1.383858267716535
 20
6.733267716535433
 30
0.0
  0
VERTEX
  5
2DDD
330
25B2
100
AcDbEntity
  8
0
100
AcDbVertex
100
AcDb2dVertex
 10
1.395669291338582
 20
6.768700787401574
 30
0.0
  0
VERTEX
  5
2DDE
330
25B2
100
AcDbEntity
  8
0
100
AcDbVertex
100
AcDb2dVertex
 10
1.416338582677165
 20
6.801181102362204
 30
0.0
  0
VERTEX
  5
2DDF
330
25B2
100
AcDbEntity
  8
0
100
AcDbVertex
100
AcDb2dVertex
 10
1.442913385826771
 20
6.827755905511811
 30
0.0
  0
VERTEX
  5
2DE0
330
25B2
100
AcDbEntity
  8
0
100
AcDbVertex
100
AcDb2dVertex
 10
1.475393700787401
 20
6.848425196850393
 30
0.0
  0
VERTEX
  5
2DE1
330
25B2
100
AcDbEntity
  8
0
100
AcDbVertex
100
AcDb2dVertex
 10
1.510826771653543
 20
6.861220472440944
 30
0.0
  0
VERTEX
  5
2DE2
330
25B2
100
AcDbEntity
  8
0
100
AcDbVertex
100
AcDb2dVertex
 10
1.549212598425196
 20
6.86515748031496
 30
0.0
  0
SEQEND
  5
2DE3
330
25B2
100
AcDbEntity
  8
0
  0
LINE
  5
25BC
330
1E
100
AcDbEntity
  8
0
100
AcDbLine
 10
3.193897637795275
 20
6.86515748031496
 30
0.0
 11
1.549212598425196
 21
6.86515748031496
 31
0.0
  0
POLYLINE
  5
25BD
330
1E
100
AcDbEntity
  8
0
100
AcDb2dPolyline
 66
     1
 10
0.0
 20
0.0
 30
0.0
  0
VERTEX
  5
2DE4
330
25BD
100
AcDbEntity
  8
0
100
AcDbVertex
100
AcDb2dVertex
 10
3.193897637795275
 20
6.86515748031496
 30
0.0
  0
VERTEX
  5
2DE5
330
25BD
100
AcDbEntity
  8
0
100
AcDbVertex
100
AcDb2dVertex
 10
3.232283464566929
 20
6.861220472440944
 30
0.0
  0
VERTEX
  5
2DE6
330
25BD
100
AcDbEntity
  8
0
100
AcDbVertex
100
AcDb2dVertex
 10
3.26771653543307
 20
6.848425196850393
 30
0.0
  0
VERTEX
  5
2DE7
330
25BD
100
AcDbEntity
  8
0
100
AcDbVertex
100
AcDb2dVertex
 10
3.3001968503937
 20
6.827755905511811
 30
0.0
  0
VERTEX
  5
2DE8
330
25BD
100
AcDbEntity
  8
0
100
AcDbVertex
100
AcDb2dVertex
 10
3.326771653543306
 20
6.801181102362204
 30
0.0
  0
VERTEX
  5
2DE9
330
25BD
100
AcDbEntity
  8
0
100
AcDbVertex
100
AcDb2dVertex
 10
3.347440944881889
 20
6.768700787401574
 30
0.0
  0
VERTEX
  5
2DEA
330
25BD
100
AcDbEntity
  8
0
100
AcDbVertex
100
AcDb2dVertex
 10
3.36023622047244
 20
6.733267716535433
 30
0.0
  0
VERTEX
  5
2DEB
330
25BD
100
AcDbEntity
  8
0
100
AcDbVertex
100
AcDb2dVertex
 10
3.364173228346456
 20
6.694881889763779
 30
0.0
  0
SEQEND
  5
2DEC
330
25BD
100
AcDbEntity
  8
0
  0
POLYLINE
  5
25C7
330
1E
100
AcDbEntity
  8
0
100
AcDb2dPolyline
 66
     1
 10
0.0
 20
0.0
 30
0.0
  0
VERTEX
  5
2DED
330
25C7
100
AcDbEntity
  8
0
100
AcDbVertex
100
AcDb2dVertex
 10
1.410433070866141
 20
4.010826771653543
 30
0.0
  0
VERTEX
  5
2DEE
330
25C7
100
AcDbEntity
  8
0
100
AcDbVertex
100
AcDb2dVertex
 10
1.414370078740157
 20
3.977362204724409
 30
0.0
  0
VERTEX
  5
2DEF
330
25C7
100
AcDbEntity
  8
0
100
AcDbVertex
100
AcDb2dVertex
 10
1.4251968503937
 20
3.945866141732283
 30
0.0
  0
VERTEX
  5
2DF0
330
25C7
100
AcDbEntity
  8
0
100
AcDbVertex
100
AcDb2dVertex
 10
1.442913385826771
 20
3.917322834645669
 30
0.0
  0
VERTEX
  5
2DF1
330
25C7
100
AcDbEntity
  8
0
100
AcDbVertex
100
AcDb2dVertex
 10
1.466535433070866
 20
3.893700787401574
 30
0.0
  0
VERTEX
  5
2DF2
330
25C7
100
AcDbEntity
  8
0
100
AcDbVertex
100
AcDb2dVertex
 10
1.49507874015748
 20
3.875984251968503
 30
0.0
  0
VERTEX
  5
2DF3
330
25C7
100
AcDbEntity
  8
0
100
AcDbVertex
100
AcDb2dVertex
 10
1.526574803149606
 20
3.86515748031496
 30
0.0
  0
VERTEX
  5
2DF4
330
25C7
100
AcDbEntity
  8
0
100
AcDbVertex
100
AcDb2dVertex
 10
1.56003937007874
 20
3.861220472440944
 30
0.0
  0
SEQEND
  5
2DF5
330
25C7
100
AcDbEntity
  8
0
  0
LINE
  5
25D1
330
1E
100
AcDbEntity
  8
0
100
AcDbLine
 10
1.56003937007874
 20
3.861220472440944
 30
0.0
 11
3.183070866141732
 21
3.861220472440944
 31
0.0
  0
POLYLINE
  5
25D2
330
1E
100
AcDbEntity
  8
0
100
AcDb2dPolyline
 66
     1
 10
0.0
 20
0.0
 30
0.0
  0
VERTEX
  5
2DF6
330
25D2
100
AcDbEntity
  8
0
100
AcDbVertex
100
AcDb2dVertex
 10
3.183070866141732
 20
3.861220472440944
 30
0.0
  0
VERTEX
  5
2DF7
330
25D2
100
AcDbEntity
  8
0
100
AcDbVertex
100
AcDb2dVertex
 10
3.216535433070866
 20
3.86515748031496
 30
0.0
  0
VERTEX
  5
2DF8
330
25D2
100
AcDbEntity
  8
0
100
AcDbVertex
100
AcDb2dVertex
 10
3.248031496062992
 20
3.875984251968503
 30
0.0
  0
VERTEX
  5
2DF9
330
25D2
100
AcDbEntity
  8
0
100
AcDbVertex
100
AcDb2dVertex
 10
3.276574803149606
 20
3.893700787401574
 30
0.0
  0
VERTEX
  5
2DFA
330
25D2
100
AcDbEntity
  8
0
100
AcDbVertex
100
AcDb2dVertex
 10
3.3001968503937
 20
3.917322834645669
 30
0.0
  0
VERTEX
  5
2DFB
330
25D2
100
AcDbEntity
  8
0
100
AcDbVertex
100
AcDb2dVertex
 10
3.317913385826771
 20
3.945866141732283
 30
0.0
  0
VERTEX
  5
2DFC
330
25D2
100
AcDbEntity
  8
0
100
AcDbVertex
100
AcDb2dVertex
 10
3.329724409448818
 20
3.977362204724409
 30
0.0
  0
VERTEX
  5
2DFD
330
25D2
100
AcDbEntity
  8
0
100
AcDbVertex
100
AcDb2dVertex
 10
3.33267716535433
 20
4.010826771653543
 30
0.0
  0
SEQEND
  5
2DFE
330
25D2
100
AcDbEntity
  8
0
  0
LINE
  5
25DC
330
1E
100
AcDbEntity
  8
0
100
AcDbLine
 10
3.33267716535433
 20
4.010826771653543
 30
0.0
 11
3.33267716535433
 21
6.684055118110236
 31
0.0
  0
POLYLINE
  5
25DD
330
1E
100
AcDbEntity
  8
0
100
AcDb2dPolyline
 66
     1
 10
0.0
 20
0.0
 30
0.0
  0
VERTEX
  5
2DFF
330
25DD
100
AcDbEntity
  8
0
100
AcDbVertex
100
AcDb2dVertex
 10
3.33267716535433
 20
6.684055118110236
 30
0.0
  0
VERTEX
  5
2E00
330
25DD
100
AcDbEntity
  8
0
100
AcDbVertex
100
AcDb2dVertex
 10
3.329724409448818
 20
6.71751968503937
 30
0.0
  0
VERTEX
  5
2E01
330
25DD
100
AcDbEntity
  8
0
100
AcDbVertex
100
AcDb2dVertex
 10
3.317913385826771
 20
6.749015748031496
 30
0.0
  0
VERTEX
  5
2E02
330
25DD
100
AcDbEntity
  8
0
100
AcDbVertex
100
AcDb2dVertex
 10
3.3001968503937
 20
6.77755905511811
 30
0.0
  0
VERTEX
  5
2E03
330
25DD
100
AcDbEntity
  8
0
100
AcDbVertex
100
AcDb2dVertex
 10
3.276574803149606
 20
6.801181102362204
 30
0.0
  0
VERTEX
  5
2E04
330
25DD
100
AcDbEntity
  8
0
100
AcDbVertex
100
AcDb2dVertex
 10
3.248031496062992
 20
6.818897637795275
 30
0.0
  0
VERTEX
  5
2E05
330
25DD
100
AcDbEntity
  8
0
100
AcDbVertex
100
AcDb2dVertex
 10
3.216535433070866
 20
6.830708661417323
 30
0.0
  0
VERTEX
  5
2E06
330
25DD
100
AcDbEntity
  8
0
100
AcDbVertex
100
AcDb2dVertex
 10
3.183070866141732
 20
6.833661417322834
 30
0.0
  0
SEQEND
  5
2E07
330
25DD
100
AcDbEntity
  8
0
  0
LINE
  5
25E7
330
1E
100
AcDbEntity
  8
0
100
AcDbLine
 10
3.183070866141732
 20
6.833661417322834
 30
0.0
 11
1.56003937007874
 21
6.833661417322834
 31
0.0
  0
POLYLINE
  5
25E8
330
1E
100
AcDbEntity
  8
0
100
AcDb2dPolyline
 66
     1
 10
0.0
 20
0.0
 30
0.0
  0
VERTEX
  5
2E08
330
25E8
100
AcDbEntity
  8
0
100
AcDbVertex
100
AcDb2dVertex
 10
1.56003937007874
 20
6.833661417322834
 30
0.0
  0
VERTEX
  5
2E09
330
25E8
100
AcDbEntity
  8
0
100
AcDbVertex
100
AcDb2dVertex
 10
1.526574803149606
 20
6.830708661417323
 30
0.0
  0
VERTEX
  5
2E0A
330
25E8
100
AcDbEntity
  8
0
100
AcDbVertex
100
AcDb2dVertex
 10
1.49507874015748
 20
6.818897637795275
 30
0.0
  0
VERTEX
  5
2E0B
330
25E8
100
AcDbEntity
  8
0
100
AcDbVertex
100
AcDb2dVertex
 10
1.466535433070866
 20
6.801181102362204
 30
0.0
  0
VERTEX
  5
2E0C
330
25E8
100
AcDbEntity
  8
0
100
AcDbVertex
100
AcDb2dVertex
 10
1.442913385826771
 20
6.77755905511811
 30
0.0
  0
VERTEX
  5
2E0D
330
25E8
100
AcDbEntity
  8
0
100
AcDbVertex
100
AcDb2dVertex
 10
1.4251968503937
 20
6.749015748031496
 30
0.0
  0
VERTEX
  5
2E0E
330
25E8
100
AcDbEntity
  8
0
100
AcDbVertex
100
AcDb2dVertex
 10
1.414370078740157
 20
6.71751968503937
 30
0.0
  0
VERTEX
  5
2E0F
330
25E8
100
AcDbEntity
  8
0
100
AcDbVertex
100
AcDb2dVertex
 10
1.410433070866141
 20
6.684055118110236
 30
0.0
  0
SEQEND
  5
2E10
330
25E8
100
AcDbEntity
  8
0
  0
LINE
  5
25F2
330
1E
100
AcDbEntity
  8
0
100
AcDbLine
 10
1.410433070866141
 20
6.684055118110236
 30
0.0
 11
1.410433070866141
 21
4.010826771653543
 31
0.0
  0
LINE
  5
25F3
330
1E
100
AcDbEntity
  8
0
100
AcDbLine
 10
1.56003937007874
 20
6.775590551181101
 30
0.0
 11
3.183070866141732
 21
6.775590551181101
 31
0.0
  0
POLYLINE
  5
25F4
330
1E
100
AcDbEntity
  8
0
100
AcDb2dPolyline
 66
     1
 10
0.0
 20
0.0
 30
0.0
  0
VERTEX
  5
2E11
330
25F4
100
AcDbEntity
  8
0
100
AcDbVertex
100
AcDb2dVertex
 10
3.183070866141732
 20
6.775590551181101
 30
0.0
  0
VERTEX
  5
2E12
330
25F4
100
AcDbEntity
  8
0
100
AcDbVertex
100
AcDb2dVertex
 10
3.211614173228346
 20
6.770669291338582
 30
0.0
  0
VERTEX
  5
2E13
330
25F4
100
AcDbEntity
  8
0
100
AcDbVertex
100
AcDb2dVertex
 10
3.237204724409448
 20
6.757874015748031
 30
0.0
  0
VERTEX
  5
2E14
330
25F4
100
AcDbEntity
  8
0
100
AcDbVertex
100
AcDb2dVertex
 10
3.256889763779527
 20
6.738188976377952
 30
0.0
  0
VERTEX
  5
2E15
330
25F4
100
AcDbEntity
  8
0
100
AcDbVertex
100
AcDb2dVertex
 10
3.269685039370078
 20
6.71259842519685
 30
0.0
  0
VERTEX
  5
2E16
330
25F4
100
AcDbEntity
  8
0
100
AcDbVertex
100
AcDb2dVertex
 10
3.274606299212598
 20
6.684055118110236
 30
0.0
  0
SEQEND
  5
2E17
330
25F4
100
AcDbEntity
  8
0
  0
LINE
  5
25FC
330
1E
100
AcDbEntity
  8
0
100
AcDbLine
 10
3.274606299212598
 20
6.684055118110236
 30
0.0
 11
3.274606299212598
 21
4.010826771653543
 31
0.0
  0
POLYLINE
  5
25FD
330
1E
100
AcDbEntity
  8
0
100
AcDb2dPolyline
 66
     1
 10
0.0
 20
0.0
 30
0.0
  0
VERTEX
  5
2E18
330
25FD
100
AcDbEntity
  8
0
100
AcDbVertex
100
AcDb2dVertex
 10
3.274606299212598
 20
4.010826771653543
 30
0.0
  0
VERTEX
  5
2E19
330
25FD
100
AcDbEntity
  8
0
100
AcDbVertex
100
AcDb2dVertex
 10
3.269685039370078
 20
3.982283464566929
 30
0.0
  0
VERTEX
  5
2E1A
330
25FD
100
AcDbEntity
  8
0
100
AcDbVertex
100
AcDb2dVertex
 10
3.256889763779527
 20
3.95767716535433
 30
0.0
  0
VERTEX
  5
2E1B
330
25FD
100
AcDbEntity
  8
0
100
AcDbVertex
100
AcDb2dVertex
 10
3.237204724409448
 20
3.937007874015748
 30
0.0
  0
VERTEX
  5
2E1C
330
25FD
100
AcDbEntity
  8
0
100
AcDbVertex
100
AcDb2dVertex
 10
3.211614173228346
 20
3.924212598425196
 30
0.0
  0
VERTEX
  5
2E1D
330
25FD
100
AcDbEntity
  8
0
100
AcDbVertex
100
AcDb2dVertex
 10
3.183070866141732
 20
3.919291338582677
 30
0.0
  0
SEQEND
  5
2E1E
330
25FD
100
AcDbEntity
  8
0
  0
LINE
  5
2605
330
1E
100
AcDbEntity
  8
0
100
AcDbLine
 10
3.183070866141732
 20
3.919291338582677
 30
0.0
 11
1.56003937007874
 21
3.919291338582677
 31
0.0
  0
POLYLINE
  5
2606
330
1E
100
AcDbEntity
  8
0
100
AcDb2dPolyline
 66
     1
 10
0.0
 20
0.0
 30
0.0
  0
VERTEX
  5
2E1F
330
2606
100
AcDbEntity
  8
0
100
AcDbVertex
100
AcDb2dVertex
 10
1.56003937007874
 20
3.919291338582677
 30
0.0
  0
VERTEX
  5
2E20
330
2606
100
AcDbEntity
  8
0
100
AcDbVertex
100
AcDb2dVertex
 10
1.531496062992125
 20
3.924212598425196
 30
0.0
  0
VERTEX
  5
2E21
330
2606
100
AcDbEntity
  8
0
100
AcDbVertex
100
AcDb2dVertex
 10
1.505905511811023
 20
3.937007874015748
 30
0.0
  0
VERTEX
  5
2E22
330
2606
100
AcDbEntity
  8
0
100
AcDbVertex
100
AcDb2dVertex
 10
1.486220472440944
 20
3.95767716535433
 30
0.0
  0
VERTEX
  5
2E23
330
2606
100
AcDbEntity
  8
0
100
AcDbVertex
100
AcDb2dVertex
 10
1.473425196850393
 20
3.982283464566929
 30
0.0
  0
VERTEX
  5
2E24
330
2606
100
AcDbEntity
  8
0
100
AcDbVertex
100
AcDb2dVertex
 10
1.468503937007874
 20
4.010826771653543
 30
0.0
  0
SEQEND
  5
2E25
330
2606
100
AcDbEntity
  8
0
  0
LINE
  5
260E
330
1E
100
AcDbEntity
  8
0
100
AcDbLine
 10
1.468503937007874
 20
4.010826771653543
 30
0.0
 11
1.468503937007874
 21
6.684055118110236
 31
0.0
  0
POLYLINE
  5
260F
330
1E
100
AcDbEntity
  8
0
100
AcDb2dPolyline
 66
     1
 10
0.0
 20
0.0
 30
0.0
  0
VERTEX
  5
2E26
330
260F
100
AcDbEntity
  8
0
100
AcDbVertex
100
AcDb2dVertex
 10
1.468503937007874
 20
6.684055118110236
 30
0.0
  0
VERTEX
  5
2E27
330
260F
100
AcDbEntity
  8
0
100
AcDbVertex
100
AcDb2dVertex
 10
1.473425196850393
 20
6.71259842519685
 30
0.0
  0
VERTEX
  5
2E28
330
260F
100
AcDbEntity
  8
0
100
AcDbVertex
100
AcDb2dVertex
 10
1.486220472440944
 20
6.738188976377952
 30
0.0
  0
VERTEX
  5
2E29
330
260F
100
AcDbEntity
  8
0
100
AcDbVertex
100
AcDb2dVertex
 10
1.505905511811023
 20
6.757874015748031
 30
0.0
  0
VERTEX
  5
2E2A
330
260F
100
AcDbEntity
  8
0
100
AcDbVertex
100
AcDb2dVertex
 10
1.531496062992125
 20
6.770669291338582
 30
0.0
  0
VERTEX
  5
2E2B
330
260F
100
AcDbEntity
  8
0
100
AcDbVertex
100
AcDb2dVertex
 10
1.56003937007874
 20
6.775590551181101
 30
0.0
  0
SEQEND
  5
2E2C
330
260F
100
AcDbEntity
  8
0
  0
LINE
  5
2617
330
1E
100
AcDbEntity
  8
0
100
AcDbLine
 10
3.193897637795275
 20
3.829724409448818
 30
0.0
 11
3.183070866141732
 21
3.841535433070866
 31
0.0
  0
LINE
  5
2618
330
1E
100
AcDbEntity
  8
0
100
AcDbLine
 10
3.183070866141732
 20
3.841535433070866
 30
0.0
 11
1.56003937007874
 21
3.841535433070866
 31
0.0
  0
LINE
  5
2619
330
1E
100
AcDbEntity
  8
0
100
AcDbLine
 10
1.56003937007874
 20
3.841535433070866
 30
0.0
 11
1.549212598425196
 21
3.829724409448818
 31
0.0
  0
LINE
  5
261A
330
1E
100
AcDbEntity
  8
0
100
AcDbLine
 10
1.378937007874015
 20
4.0
 30
0.0
 11
1.389763779527559
 21
4.010826771653543
 31
0.0
  0
LINE
  5
261B
330
1E
100
AcDbEntity
  8
0
100
AcDbLine
 10
1.389763779527559
 20
4.010826771653543
 30
0.0
 11
1.389763779527559
 21
6.684055118110236
 31
0.0
  0
LINE
  5
261C
330
1E
100
AcDbEntity
  8
0
100
AcDbLine
 10
1.389763779527559
 20
6.684055118110236
 30
0.0
 11
1.378937007874015
 21
6.694881889763779
 31
0.0
  0
LINE
  5
261D
330
1E
100
AcDbEntity
  8
0
100
AcDbLine
 10
1.549212598425196
 20
6.86515748031496
 30
0.0
 11
1.56003937007874
 21
6.854330708661417
 31
0.0
  0
LINE
  5
261E
330
1E
100
AcDbEntity
  8
0
100
AcDbLine
 10
1.56003937007874
 20
6.854330708661417
 30
0.0
 11
3.183070866141732
 21
6.854330708661417
 31
0.0
  0
LINE
  5
261F
330
1E
100
AcDbEntity
  8
0
100
AcDbLine
 10
3.183070866141732
 20
6.854330708661417
 30
0.0
 11
3.193897637795275
 21
6.86515748031496
 31
0.0
  0
LINE
  5
2620
330
1E
100
AcDbEntity
  8
0
100
AcDbLine
 10
3.364173228346456
 20
6.694881889763779
 30
0.0
 11
3.353346456692913
 21
6.684055118110236
 31
0.0
  0
LINE
  5
2621
330
1E
100
AcDbEntity
  8
0
100
AcDbLine
 10
3.353346456692913
 20
6.684055118110236
 30
0.0
 11
3.353346456692913
 21
4.010826771653543
 31
0.0
  0
LINE
  5
2622
330
1E
100
AcDbEntity
  8
0
100
AcDbLine
 10
3.353346456692913
 20
4.010826771653543
 30
0.0
 11
3.364173228346456
 21
4.0
 31
0.0
  0
LINE
  5
2623
330
1E
100
AcDbEntity
  8
0
100
AcDbLine
 10
2.52755905511811
 20
3.926181102362204
 30
0.0
 11
2.215551181102362
 21
3.926181102362204
 31
0.0
  0
LINE
  5
2624
330
1E
100
AcDbEntity
  8
0
100
AcDbLine
 10
1.563976377952755
 20
3.923228346456692
 30
0.0
 11
1.56003937007874
 21
3.919291338582677
 31
0.0
  0
LINE
  5
2625
330
1E
100
AcDbEntity
  8
0
100
AcDbLine
 10
3.183070866141732
 20
3.919291338582677
 30
0.0
 11
3.179133858267716
 21
3.923228346456692
 31
0.0
  0
LINE
  5
2626
330
1E
100
AcDbEntity
  8
0
100
AcDbLine
 10
1.468503937007874
 20
4.010826771653543
 30
0.0
 11
1.472440944881889
 21
4.014763779527559
 31
0.0
  0
LINE
  5
2627
330
1E
100
AcDbEntity
  8
0
100
AcDbLine
 10
1.472440944881889
 20
6.68011811023622
 30
0.0
 11
1.468503937007874
 21
6.684055118110236
 31
0.0
  0
LINE
  5
2628
330
1E
100
AcDbEntity
  8
0
100
AcDbLine
 10
2.215551181102362
 20
6.768700787401574
 30
0.0
 11
2.52755905511811
 21
6.768700787401574
 31
0.0
  0
LINE
  5
2629
330
1E
100
AcDbEntity
  8
0
100
AcDbLine
 10
3.179133858267716
 20
6.771653543307086
 30
0.0
 11
3.183070866141732
 21
6.775590551181101
 31
0.0
  0
LINE
  5
262A
330
1E
100
AcDbEntity
  8
0
100
AcDbLine
 10
1.56003937007874
 20
6.775590551181101
 30
0.0
 11
1.563976377952755
 21
6.771653543307086
 31
0.0
  0
LINE
  5
262B
330
1E
100
AcDbEntity
  8
0
100
AcDbLine
 10
3.274606299212598
 20
6.684055118110236
 30
0.0
 11
3.270669291338582
 21
6.68011811023622
 31
0.0
  0
LINE
  5
262C
330
1E
100
AcDbEntity
  8
0
100
AcDbLine
 10
3.270669291338582
 20
4.014763779527559
 30
0.0
 11
3.274606299212598
 21
4.010826771653543
 31
0.0
  0
POLYLINE
  5
262D
330
1E
100
AcDbEntity
  8
0
100
AcDb2dPolyline
 66
     1
 10
0.0
 20
0.0
 30
0.0
  0
VERTEX
  5
2E2D
330
262D
100
AcDbEntity
  8
0
100
AcDbVertex
100
AcDb2dVertex
 10
3.353346456692913
 20
4.010826771653543
 30
0.0
  0
VERTEX
  5
2E2E
330
262D
100
AcDbEntity
  8
0
100
AcDbVertex
100
AcDb2dVertex
 10
3.348425196850393
 20
3.973425196850393
 30
0.0
  0
VERTEX
  5
2E2F
330
262D
100
AcDbEntity
  8
0
100
AcDbVertex
100
AcDb2dVertex
 10
3.336614173228346
 20
3.937007874015748
 30
0.0
  0
VERTEX
  5
2E30
330
262D
100
AcDbEntity
  8
0
100
AcDbVertex
100
AcDb2dVertex
 10
3.315944881889763
 20
3.904527559055118
 30
0.0
  0
VERTEX
  5
2E31
330
262D
100
AcDbEntity
  8
0
100
AcDbVertex
100
AcDb2dVertex
 10
3.289370078740157
 20
3.877952755905511
 30
0.0
  0
VERTEX
  5
2E32
330
262D
100
AcDbEntity
  8
0
100
AcDbVertex
100
AcDb2dVertex
 10
3.256889763779527
 20
3.858267716535432
 30
0.0
  0
VERTEX
  5
2E33
330
262D
100
AcDbEntity
  8
0
100
AcDbVertex
100
AcDb2dVertex
 10
3.221456692913385
 20
3.845472440944881
 30
0.0
  0
VERTEX
  5
2E34
330
262D
100
AcDbEntity
  8
0
100
AcDbVertex
100
AcDb2dVertex
 10
3.183070866141732
 20
3.841535433070866
 30
0.0
  0
SEQEND
  5
2E35
330
262D
100
AcDbEntity
  8
0
  0
POLYLINE
  5
2637
330
1E
100
AcDbEntity
  8
0
100
AcDb2dPolyline
 66
     1
 10
0.0
 20
0.0
 30
0.0
  0
VERTEX
  5
2E36
330
2637
100
AcDbEntity
  8
0
100
AcDbVertex
100
AcDb2dVertex
 10
3.183070866141732
 20
6.854330708661417
 30
0.0
  0
VERTEX
  5
2E37
330
2637
100
AcDbEntity
  8
0
100
AcDbVertex
100
AcDb2dVertex
 10
3.221456692913385
 20
6.849409448818897
 30
0.0
  0
VERTEX
  5
2E38
330
2637
100
AcDbEntity
  8
0
100
AcDbVertex
100
AcDb2dVertex
 10
3.256889763779527
 20
6.83759842519685
 30
0.0
  0
VERTEX
  5
2E39
330
2637
100
AcDbEntity
  8
0
100
AcDbVertex
100
AcDb2dVertex
 10
3.289370078740157
 20
6.816929133858267
 30
0.0
  0
VERTEX
  5
2E3A
330
2637
100
AcDbEntity
  8
0
100
AcDbVertex
100
AcDb2dVertex
 10
3.315944881889763
 20
6.790354330708661
 30
0.0
  0
VERTEX
  5
2E3B
330
2637
100
AcDbEntity
  8
0
100
AcDbVertex
100
AcDb2dVertex
 10
3.336614173228346
 20
6.757874015748031
 30
0.0
  0
VERTEX
  5
2E3C
330
2637
100
AcDbEntity
  8
0
100
AcDbVertex
100
AcDb2dVertex
 10
3.348425196850393
 20
6.721456692913386
 30
0.0
  0
VERTEX
  5
2E3D
330
2637
100
AcDbEntity
  8
0
100
AcDbVertex
100
AcDb2dVertex
 10
3.353346456692913
 20
6.684055118110236
 30
0.0
  0
SEQEND
  5
2E3E
330
2637
100
AcDbEntity
  8
0
  0
POLYLINE
  5
2641
330
1E
100
AcDbEntity
  8
0
100
AcDb2dPolyline
 66
     1
 10
0.0
 20
0.0
 30
0.0
  0
VERTEX
  5
2E3F
330
2641
100
AcDbEntity
  8
0
100
AcDbVertex
100
AcDb2dVertex
 10
1.389763779527559
 20
6.684055118110236
 30
0.0
  0
VERTEX
  5
2E40
330
2641
100
AcDbEntity
  8
0
100
AcDbVertex
100
AcDb2dVertex
 10
1.394685039370078
 20
6.721456692913386
 30
0.0
  0
VERTEX
  5
2E41
330
2641
100
AcDbEntity
  8
0
100
AcDbVertex
100
AcDb2dVertex
 10
1.406496062992125
 20
6.757874015748031
 30
0.0
  0
VERTEX
  5
2E42
330
2641
100
AcDbEntity
  8
0
100
AcDbVertex
100
AcDb2dVertex
 10
1.427165354330708
 20
6.790354330708661
 30
0.0
  0
VERTEX
  5
2E43
330
2641
100
AcDbEntity
  8
0
100
AcDbVertex
100
AcDb2dVertex
 10
1.453740157480314
 20
6.816929133858267
 30
0.0
  0
VERTEX
  5
2E44
330
2641
100
AcDbEntity
  8
0
100
AcDbVertex
100
AcDb2dVertex
 10
1.486220472440944
 20
6.83759842519685
 30
0.0
  0
VERTEX
  5
2E45
330
2641
100
AcDbEntity
  8
0
100
AcDbVertex
100
AcDb2dVertex
 10
1.52263779527559
 20
6.849409448818897
 30
0.0
  0
VERTEX
  5
2E46
330
2641
100
AcDbEntity
  8
0
100
AcDbVertex
100
AcDb2dVertex
 10
1.56003937007874
 20
6.854330708661417
 30
0.0
  0
SEQEND
  5
2E47
330
2641
100
AcDbEntity
  8
0
  0
POLYLINE
  5
264B
330
1E
100
AcDbEntity
  8
0
100
AcDb2dPolyline
 66
     1
 10
0.0
 20
0.0
 30
0.0
  0
VERTEX
  5
2E48
330
264B
100
AcDbEntity
  8
0
100
AcDbVertex
100
AcDb2dVertex
 10
1.56003937007874
 20
3.841535433070866
 30
0.0
  0
VERTEX
  5
2E49
330
264B
100
AcDbEntity
  8
0
100
AcDbVertex
100
AcDb2dVertex
 10
1.52263779527559
 20
3.845472440944881
 30
0.0
  0
VERTEX
  5
2E4A
330
264B
100
AcDbEntity
  8
0
100
AcDbVertex
100
AcDb2dVertex
 10
1.486220472440944
 20
3.858267716535432
 30
0.0
  0
VERTEX
  5
2E4B
330
264B
100
AcDbEntity
  8
0
100
AcDbVertex
100
AcDb2dVertex
 10
1.453740157480314
 20
3.877952755905511
 30
0.0
  0
VERTEX
  5
2E4C
330
264B
100
AcDbEntity
  8
0
100
AcDbVertex
100
AcDb2dVertex
 10
1.427165354330708
 20
3.904527559055118
 30
0.0
  0
VERTEX
  5
2E4D
330
264B
100
AcDbEntity
  8
0
100
AcDbVertex
100
AcDb2dVertex
 10
1.406496062992125
 20
3.937007874015748
 30
0.0
  0
VERTEX
  5
2E4E
330
264B
100
AcDbEntity
  8
0
100
AcDbVertex
100
AcDb2dVertex
 10
1.394685039370078
 20
3.973425196850393
 30
0.0
  0
VERTEX
  5
2E4F
330
264B
100
AcDbEntity
  8
0
100
AcDbVertex
100
AcDb2dVertex
 10
1.389763779527559
 20
4.010826771653543
 30
0.0
  0
SEQEND
  5
2E50
330
264B
100
AcDbEntity
  8
0
  0
POLYLINE
  5
2655
330
1E
100
AcDbEntity
  8
0
100
AcDb2dPolyline
 66
     1
 10
0.0
 20
0.0
 30
0.0
  0
VERTEX
  5
2E51
330
2655
100
AcDbEntity
  8
0
100
AcDbVertex
100
AcDb2dVertex
 10
1.56003937007874
 20
6.833661417322834
 30
0.0
  0
VERTEX
  5
2E52
330
2655
100
AcDbEntity
  8
0
100
AcDbVertex
100
AcDb2dVertex
 10
1.56003937007874
 20
6.847440944881889
 30
0.0
  0
VERTEX
  5
2E53
330
2655
100
AcDbEntity
  8
0
100
AcDbVertex
100
AcDb2dVertex
 10
1.56003937007874
 20
6.854330708661417
 30
0.0
  0
SEQEND
  5
2E54
330
2655
100
AcDbEntity
  8
0
  0
POLYLINE
  5
265A
330
1E
100
AcDbEntity
  8
0
100
AcDb2dPolyline
 66
     1
 10
0.0
 20
0.0
 30
0.0
  0
VERTEX
  5
2E55
330
265A
100
AcDbEntity
  8
0
100
AcDbVertex
100
AcDb2dVertex
 10
3.183070866141732
 20
6.854330708661417
 30
0.0
  0
VERTEX
  5
2E56
330
265A
100
AcDbEntity
  8
0
100
AcDbVertex
100
AcDb2dVertex
 10
3.183070866141732
 20
6.847440944881889
 30
0.0
  0
VERTEX
  5
2E57
330
265A
100
AcDbEntity
  8
0
100
AcDbVertex
100
AcDb2dVertex
 10
3.183070866141732
 20
6.833661417322834
 30
0.0
  0
SEQEND
  5
2E58
330
265A
100
AcDbEntity
  8
0
  0
POLYLINE
  5
265F
330
1E
100
AcDbEntity
  8
0
100
AcDb2dPolyline
 66
     1
 10
0.0
 20
0.0
 30
0.0
  0
VERTEX
  5
2E59
330
265F
100
AcDbEntity
  8
0
100
AcDbVertex
100
AcDb2dVertex
 10
3.353346456692913
 20
6.684055118110236
 30
0.0
  0
VERTEX
  5
2E5A
330
265F
100
AcDbEntity
  8
0
100
AcDbVertex
100
AcDb2dVertex
 10
3.347440944881889
 20
6.684055118110236
 30
0.0
  0
VERTEX
  5
2E5B
330
265F
100
AcDbEntity
  8
0
100
AcDbVertex
100
AcDb2dVertex
 10
3.33267716535433
 20
6.684055118110236
 30
0.0
  0
SEQEND
  5
2E5C
330
265F
100
AcDbEntity
  8
0
  0
POLYLINE
  5
2664
330
1E
100
AcDbEntity
  8
0
100
AcDb2dPolyline
 66
     1
 10
0.0
 20
0.0
 30
0.0
  0
VERTEX
  5
2E5D
330
2664
100
AcDbEntity
  8
0
100
AcDbVertex
100
AcDb2dVertex
 10
1.410433070866141
 20
6.684055118110236
 30
0.0
  0
VERTEX
  5
2E5E
330
2664
100
AcDbEntity
  8
0
100
AcDbVertex
100
AcDb2dVertex
 10
1.396653543307086
 20
6.684055118110236
 30
0.0
  0
VERTEX
  5
2E5F
330
2664
100
AcDbEntity
  8
0
100
AcDbVertex
100
AcDb2dVertex
 10
1.389763779527559
 20
6.684055118110236
 30
0.0
  0
SEQEND
  5
2E60
330
2664
100
AcDbEntity
  8
0
  0
POLYLINE
  5
2669
330
1E
100
AcDbEntity
  8
0
100
AcDb2dPolyline
 66
     1
 10
0.0
 20
0.0
 30
0.0
  0
VERTEX
  5
2E61
330
2669
100
AcDbEntity
  8
0
100
AcDbVertex
100
AcDb2dVertex
 10
3.353346456692913
 20
4.010826771653543
 30
0.0
  0
VERTEX
  5
2E62
330
2669
100
AcDbEntity
  8
0
100
AcDbVertex
100
AcDb2dVertex
 10
3.347440944881889
 20
4.010826771653543
 30
0.0
  0
VERTEX
  5
2E63
330
2669
100
AcDbEntity
  8
0
100
AcDbVertex
100
AcDb2dVertex
 10
3.33267716535433
 20
4.010826771653543
 30
0.0
  0
SEQEND
  5
2E64
330
2669
100
AcDbEntity
  8
0
  0
POLYLINE
  5
266E
330
1E
100
AcDbEntity
  8
0
100
AcDb2dPolyline
 66
     1
 10
0.0
 20
0.0
 30
0.0
  0
VERTEX
  5
2E65
330
266E
100
AcDbEntity
  8
0
100
AcDbVertex
100
AcDb2dVertex
 10
1.410433070866141
 20
4.010826771653543
 30
0.0
  0
VERTEX
  5
2E66
330
266E
100
AcDbEntity
  8
0
100
AcDbVertex
100
AcDb2dVertex
 10
1.396653543307086
 20
4.010826771653543
 30
0.0
  0
VERTEX
  5
2E67
330
266E
100
AcDbEntity
  8
0
100
AcDbVertex
100
AcDb2dVertex
 10
1.389763779527559
 20
4.010826771653543
 30
0.0
  0
SEQEND
  5
2E68
330
266E
100
AcDbEntity
  8
0
  0
POLYLINE
  5
2673
330
1E
100
AcDbEntity
  8
0
100
AcDb2dPolyline
 66
     1
 10
0.0
 20
0.0
 30
0.0
  0
VERTEX
  5
2E69
330
2673
100
AcDbEntity
  8
0
100
AcDbVertex
100
AcDb2dVertex
 10
3.183070866141732
 20
3.841535433070866
 30
0.0
  0
VERTEX
  5
2E6A
330
2673
100
AcDbEntity
  8
0
100
AcDbVertex
100
AcDb2dVertex
 10
3.183070866141732
 20
3.847440944881889
 30
0.0
  0
VERTEX
  5
2E6B
330
2673
100
AcDbEntity
  8
0
100
AcDbVertex
100
AcDb2dVertex
 10
3.183070866141732
 20
3.861220472440944
 30
0.0
  0
SEQEND
  5
2E6C
330
2673
100
AcDbEntity
  8
0
  0
POLYLINE
  5
2678
330
1E
100
AcDbEntity
  8
0
100
AcDb2dPolyline
 66
     1
 10
0.0
 20
0.0
 30
0.0
  0
VERTEX
  5
2E6D
330
2678
100
AcDbEntity
  8
0
100
AcDbVertex
100
AcDb2dVertex
 10
1.56003937007874
 20
3.861220472440944
 30
0.0
  0
VERTEX
  5
2E6E
330
2678
100
AcDbEntity
  8
0
100
AcDbVertex
100
AcDb2dVertex
 10
1.56003937007874
 20
3.847440944881889
 30
0.0
  0
VERTEX
  5
2E6F
330
2678
100
AcDbEntity
  8
0
100
AcDbVertex
100
AcDb2dVertex
 10
1.56003937007874
 20
3.841535433070866
 30
0.0
  0
SEQEND
  5
2E70
330
2678
100
AcDbEntity
  8
0
  0
LINE
  5
267D
330
1E
100
AcDbEntity
  8
0
100
AcDbLine
 10
3.067913385826771
 20
4.029527559055117
 30
0.0
 11
3.064960629921259
 21
4.029527559055117
 31
0.0
  0
LINE
  5
267E
330
1E
100
AcDbEntity
  8
0
100
AcDbLine
 10
1.678149606299212
 20
4.029527559055117
 30
0.0
 11
3.064960629921259
 21
4.029527559055117
 31
0.0
  0
LINE
  5
267F
330
1E
100
AcDbEntity
  8
0
100
AcDbLine
 10
1.678149606299212
 20
4.029527559055117
 30
0.0
 11
1.6751968503937
 21
4.029527559055117
 31
0.0
  0
LINE
  5
2680
330
1E
100
AcDbEntity
  8
0
100
AcDbLine
 10
1.725393700787401
 20
5.364173228346456
 30
0.0
 11
1.725393700787401
 21
5.368110236220472
 31
0.0
  0
LINE
  5
2681
330
1E
100
AcDbEntity
  8
0
100
AcDbLine
 10
3.01771653543307
 20
5.368110236220472
 30
0.0
 11
3.01771653543307
 21
5.364173228346456
 31
0.0
  0
POLYLINE
  5
2682
330
1E
100
AcDbEntity
  8
0
100
AcDb2dPolyline
 66
     1
 10
0.0
 20
0.0
 30
0.0
  0
VERTEX
  5
2E71
330
2682
100
AcDbEntity
  8
0
100
AcDbVertex
100
AcDb2dVertex
 10
3.083661417322834
 20
5.368110236220472
 30
0.0
  0
VERTEX
  5
2E72
330
2682
100
AcDbEntity
  8
0
100
AcDbVertex
100
AcDb2dVertex
 10
3.083661417322834
 20
5.366141732283464
 30
0.0
  0
VERTEX
  5
2E73
330
2682
100
AcDbEntity
  8
0
100
AcDbVertex
100
AcDb2dVertex
 10
3.08267716535433
 20
5.364173228346456
 30
0.0
  0
SEQEND
  5
2E74
330
2682
100
AcDbEntity
  8
0
  0
POLYLINE
  5
2687
330
1E
100
AcDbEntity
  8
0
100
AcDb2dPolyline
 66
     1
 10
0.0
 20
0.0
 30
0.0
  0
VERTEX
  5
2E75
330
2687
100
AcDbEntity
  8
0
100
AcDbVertex
100
AcDb2dVertex
 10
1.660433070866141
 20
5.364173228346456
 30
0.0
  0
VERTEX
  5
2E76
330
2687
100
AcDbEntity
  8
0
100
AcDbVertex
100
AcDb2dVertex
 10
1.660433070866141
 20
5.366141732283464
 30
0.0
  0
VERTEX
  5
2E77
330
2687
100
AcDbEntity
  8
0
100
AcDbVertex
100
AcDb2dVertex
 10
1.659448818897637
 20
5.368110236220472
 30
0.0
  0
SEQEND
  5
2E78
330
2687
100
AcDbEntity
  8
0
  0
LINE
  5
268C
330
1E
100
AcDbEntity
  8
0
100
AcDbLine
 10
3.092519685039369
 20
6.643700787401574
 30
0.0
 11
3.092519685039369
 21
6.304133858267716
 31
0.0
  0
POLYLINE
  5
268D
330
1E
100
AcDbEntity
  8
0
100
AcDb2dPolyline
 66
     1
 10
0.0
 20
0.0
 30
0.0
  0
VERTEX
  5
2E79
330
268D
100
AcDbEntity
  8
0
100
AcDbVertex
100
AcDb2dVertex
 10
3.092519685039369
 20
6.304133858267716
 30
0.0
  0
VERTEX
  5
2E7A
330
268D
100
AcDbEntity
  8
0
100
AcDbVertex
100
AcDb2dVertex
 10
3.089566929133858
 20
6.297244094488188
 30
0.0
  0
VERTEX
  5
2E7B
330
268D
100
AcDbEntity
  8
0
100
AcDbVertex
100
AcDb2dVertex
 10
3.08267716535433
 20
6.294291338582676
 30
0.0
  0
SEQEND
  5
2E7C
330
268D
100
AcDbEntity
  8
0
  0
LINE
  5
2692
330
1E
100
AcDbEntity
  8
0
100
AcDbLine
 10
3.08267716535433
 20
6.294291338582676
 30
0.0
 11
1.660433070866141
 21
6.294291338582676
 31
0.0
  0
POLYLINE
  5
2693
330
1E
100
AcDbEntity
  8
0
100
AcDb2dPolyline
 66
     1
 10
0.0
 20
0.0
 30
0.0
  0
VERTEX
  5
2E7D
330
2693
100
AcDbEntity
  8
0
100
AcDbVertex
100
AcDb2dVertex
 10
1.660433070866141
 20
6.294291338582676
 30
0.0
  0
VERTEX
  5
2E7E
330
2693
100
AcDbEntity
  8
0
100
AcDbVertex
100
AcDb2dVertex
 10
1.653543307086614
 20
6.297244094488188
 30
0.0
  0
VERTEX
  5
2E7F
330
2693
100
AcDbEntity
  8
0
100
AcDbVertex
100
AcDb2dVertex
 10
1.650590551181102
 20
6.304133858267716
 30
0.0
  0
SEQEND
  5
2E80
330
2693
100
AcDbEntity
  8
0
  0
LINE
  5
2698
330
1E
100
AcDbEntity
  8
0
100
AcDbLine
 10
1.650590551181102
 20
6.304133858267716
 30
0.0
 11
1.650590551181102
 21
6.643700787401574
 31
0.0
  0
POLYLINE
  5
2699
330
1E
100
AcDbEntity
  8
0
100
AcDb2dPolyline
 66
     1
 10
0.0
 20
0.0
 30
0.0
  0
VERTEX
  5
2E81
330
2699
100
AcDbEntity
  8
0
100
AcDbVertex
100
AcDb2dVertex
 10
1.650590551181102
 20
6.643700787401574
 30
0.0
  0
VERTEX
  5
2E82
330
2699
100
AcDbEntity
  8
0
100
AcDbVertex
100
AcDb2dVertex
 10
1.653543307086614
 20
6.650590551181101
 30
0.0
  0
VERTEX
  5
2E83
330
2699
100
AcDbEntity
  8
0
100
AcDbVertex
100
AcDb2dVertex
 10
1.660433070866141
 20
6.653543307086613
 30
0.0
  0
SEQEND
  5
2E84
330
2699
100
AcDbEntity
  8
0
  0
LINE
  5
269E
330
1E
100
AcDbEntity
  8
0
100
AcDbLine
 10
1.660433070866141
 20
6.653543307086613
 30
0.0
 11
3.08267716535433
 21
6.653543307086613
 31
0.0
  0
POLYLINE
  5
269F
330
1E
100
AcDbEntity
  8
0
100
AcDb2dPolyline
 66
     1
 10
0.0
 20
0.0
 30
0.0
  0
VERTEX
  5
2E85
330
269F
100
AcDbEntity
  8
0
100
AcDbVertex
100
AcDb2dVertex
 10
3.08267716535433
 20
6.653543307086613
 30
0.0
  0
VERTEX
  5
2E86
330
269F
100
AcDbEntity
  8
0
100
AcDbVertex
100
AcDb2dVertex
 10
3.089566929133858
 20
6.650590551181101
 30
0.0
  0
VERTEX
  5
2E87
330
269F
100
AcDbEntity
  8
0
100
AcDbVertex
100
AcDb2dVertex
 10
3.092519685039369
 20
6.643700787401574
 30
0.0
  0
SEQEND
  5
2E88
330
269F
100
AcDbEntity
  8
0
  0
LINE
  5
26A4
330
1E
100
AcDbEntity
  8
0
100
AcDbLine
 10
3.161417322834645
 20
5.372047244094487
 30
0.0
 11
3.161417322834645
 21
4.785433070866141
 31
0.0
  0
POLYLINE
  5
26A5
330
1E
100
AcDbEntity
  8
0
100
AcDb2dPolyline
 66
     1
 10
0.0
 20
0.0
 30
0.0
  0
VERTEX
  5
2E89
330
26A5
100
AcDbEntity
  8
0
100
AcDbVertex
100
AcDb2dVertex
 10
3.161417322834645
 20
4.785433070866141
 30
0.0
  0
VERTEX
  5
2E8A
330
26A5
100
AcDbEntity
  8
0
100
AcDbVertex
100
AcDb2dVertex
 10
3.163385826771653
 20
4.779527559055117
 30
0.0
  0
VERTEX
  5
2E8B
330
26A5
100
AcDbEntity
  8
0
100
AcDbVertex
100
AcDb2dVertex
 10
3.169291338582677
 20
4.77755905511811
 30
0.0
  0
SEQEND
  5
2E8C
330
26A5
100
AcDbEntity
  8
0
  0
LINE
  5
26AA
330
1E
100
AcDbEntity
  8
0
100
AcDbLine
 10
3.216535433070866
 20
4.77755905511811
 30
0.0
 11
3.169291338582677
 21
4.77755905511811
 31
0.0
  0
POLYLINE
  5
26AB
330
1E
100
AcDbEntity
  8
0
100
AcDb2dPolyline
 66
     1
 10
0.0
 20
0.0
 30
0.0
  0
VERTEX
  5
2E8D
330
26AB
100
AcDbEntity
  8
0
100
AcDbVertex
100
AcDb2dVertex
 10
3.216535433070866
 20
4.77755905511811
 30
0.0
  0
VERTEX
  5
2E8E
330
26AB
100
AcDbEntity
  8
0
100
AcDbVertex
100
AcDb2dVertex
 10
3.222440944881889
 20
4.775590551181101
 30
0.0
  0
VERTEX
  5
2E8F
330
26AB
100
AcDbEntity
  8
0
100
AcDbVertex
100
AcDb2dVertex
 10
3.224409448818897
 20
4.769685039370078
 30
0.0
  0
SEQEND
  5
2E90
330
26AB
100
AcDbEntity
  8
0
  0
LINE
  5
26B0
330
1E
100
AcDbEntity
  8
0
100
AcDbLine
 10
3.224409448818897
 20
4.624015748031496
 30
0.0
 11
3.224409448818897
 21
4.769685039370078
 31
0.0
  0
POLYLINE
  5
26B1
330
1E
100
AcDbEntity
  8
0
100
AcDb2dPolyline
 66
     1
 10
0.0
 20
0.0
 30
0.0
  0
VERTEX
  5
2E91
330
26B1
100
AcDbEntity
  8
0
100
AcDbVertex
100
AcDb2dVertex
 10
3.224409448818897
 20
4.624015748031496
 30
0.0
  0
VERTEX
  5
2E92
330
26B1
100
AcDbEntity
  8
0
100
AcDbVertex
100
AcDb2dVertex
 10
3.222440944881889
 20
4.618110236220472
 30
0.0
  0
VERTEX
  5
2E93
330
26B1
100
AcDbEntity
  8
0
100
AcDbVertex
100
AcDb2dVertex
 10
3.216535433070866
 20
4.616141732283464
 30
0.0
  0
SEQEND
  5
2E94
330
26B1
100
AcDbEntity
  8
0
  0
LINE
  5
26B6
330
1E
100
AcDbEntity
  8
0
100
AcDbLine
 10
3.169291338582677
 20
4.616141732283464
 30
0.0
 11
3.216535433070866
 21
4.616141732283464
 31
0.0
  0
POLYLINE
  5
26B7
330
1E
100
AcDbEntity
  8
0
100
AcDb2dPolyline
 66
     1
 10
0.0
 20
0.0
 30
0.0
  0
VERTEX
  5
2E95
330
26B7
100
AcDbEntity
  8
0
100
AcDbVertex
100
AcDb2dVertex
 10
3.169291338582677
 20
4.616141732283464
 30
0.0
  0
VERTEX
  5
2E96
330
26B7
100
AcDbEntity
  8
0
100
AcDbVertex
100
AcDb2dVertex
 10
3.163385826771653
 20
4.613188976377952
 30
0.0
  0
VERTEX
  5
2E97
330
26B7
100
AcDbEntity
  8
0
100
AcDbVertex
100
AcDb2dVertex
 10
3.161417322834645
 20
4.608267716535433
 30
0.0
  0
SEQEND
  5
2E98
330
26B7
100
AcDbEntity
  8
0
  0
LINE
  5
26BC
330
1E
100
AcDbEntity
  8
0
100
AcDbLine
 10
3.161417322834645
 20
4.608267716535433
 30
0.0
 11
3.161417322834645
 21
4.020669291338582
 31
0.0
  0
LINE
  5
26BD
330
1E
100
AcDbEntity
  8
0
100
AcDbLine
 10
3.161417322834645
 20
4.020669291338582
 30
0.0
 11
1.581692913385826
 21
4.020669291338582
 31
0.0
  0
LINE
  5
26BE
330
1E
100
AcDbEntity
  8
0
100
AcDbLine
 10
1.581692913385826
 20
4.608267716535433
 30
0.0
 11
1.581692913385826
 21
4.020669291338582
 31
0.0
  0
POLYLINE
  5
26BF
330
1E
100
AcDbEntity
  8
0
100
AcDb2dPolyline
 66
     1
 10
0.0
 20
0.0
 30
0.0
  0
VERTEX
  5
2E99
330
26BF
100
AcDbEntity
  8
0
100
AcDbVertex
100
AcDb2dVertex
 10
1.581692913385826
 20
4.608267716535433
 30
0.0
  0
VERTEX
  5
2E9A
330
26BF
100
AcDbEntity
  8
0
100
AcDbVertex
100
AcDb2dVertex
 10
1.579724409448818
 20
4.613188976377952
 30
0.0
  0
VERTEX
  5
2E9B
330
26BF
100
AcDbEntity
  8
0
100
AcDbVertex
100
AcDb2dVertex
 10
1.573818897637795
 20
4.616141732283464
 30
0.0
  0
SEQEND
  5
2E9C
330
26BF
100
AcDbEntity
  8
0
  0
LINE
  5
26C4
330
1E
100
AcDbEntity
  8
0
100
AcDbLine
 10
1.526574803149606
 20
4.616141732283464
 30
0.0
 11
1.573818897637795
 21
4.616141732283464
 31
0.0
  0
POLYLINE
  5
26C5
330
1E
100
AcDbEntity
  8
0
100
AcDb2dPolyline
 66
     1
 10
0.0
 20
0.0
 30
0.0
  0
VERTEX
  5
2E9D
330
26C5
100
AcDbEntity
  8
0
100
AcDbVertex
100
AcDb2dVertex
 10
1.526574803149606
 20
4.616141732283464
 30
0.0
  0
VERTEX
  5
2E9E
330
26C5
100
AcDbEntity
  8
0
100
AcDbVertex
100
AcDb2dVertex
 10
1.521653543307086
 20
4.618110236220472
 30
0.0
  0
VERTEX
  5
2E9F
330
26C5
100
AcDbEntity
  8
0
100
AcDbVertex
100
AcDb2dVertex
 10
1.518700787401574
 20
4.624015748031496
 30
0.0
  0
SEQEND
  5
2EA0
330
26C5
100
AcDbEntity
  8
0
  0
LINE
  5
26CA
330
1E
100
AcDbEntity
  8
0
100
AcDbLine
 10
1.518700787401574
 20
4.769685039370078
 30
0.0
 11
1.518700787401574
 21
4.624015748031496
 31
0.0
  0
POLYLINE
  5
26CB
330
1E
100
AcDbEntity
  8
0
100
AcDb2dPolyline
 66
     1
 10
0.0
 20
0.0
 30
0.0
  0
VERTEX
  5
2EA1
330
26CB
100
AcDbEntity
  8
0
100
AcDbVertex
100
AcDb2dVertex
 10
1.518700787401574
 20
4.769685039370078
 30
0.0
  0
VERTEX
  5
2EA2
330
26CB
100
AcDbEntity
  8
0
100
AcDbVertex
100
AcDb2dVertex
 10
1.521653543307086
 20
4.775590551181101
 30
0.0
  0
VERTEX
  5
2EA3
330
26CB
100
AcDbEntity
  8
0
100
AcDbVertex
100
AcDb2dVertex
 10
1.526574803149606
 20
4.77755905511811
 30
0.0
  0
SEQEND
  5
2EA4
330
26CB
100
AcDbEntity
  8
0
  0
LINE
  5
26D0
330
1E
100
AcDbEntity
  8
0
100
AcDbLine
 10
1.573818897637795
 20
4.77755905511811
 30
0.0
 11
1.526574803149606
 21
4.77755905511811
 31
0.0
  0
POLYLINE
  5
26D1
330
1E
100
AcDbEntity
  8
0
100
AcDb2dPolyline
 66
     1
 10
0.0
 20
0.0
 30
0.0
  0
VERTEX
  5
2EA5
330
26D1
100
AcDbEntity
  8
0
100
AcDbVertex
100
AcDb2dVertex
 10
1.573818897637795
 20
4.77755905511811
 30
0.0
  0
VERTEX
  5
2EA6
330
26D1
100
AcDbEntity
  8
0
100
AcDbVertex
100
AcDb2dVertex
 10
1.579724409448818
 20
4.779527559055117
 30
0.0
  0
VERTEX
  5
2EA7
330
26D1
100
AcDbEntity
  8
0
100
AcDbVertex
100
AcDb2dVertex
 10
1.581692913385826
 20
4.785433070866141
 30
0.0
  0
SEQEND
  5
2EA8
330
26D1
100
AcDbEntity
  8
0
  0
LINE
  5
26D6
330
1E
100
AcDbEntity
  8
0
100
AcDbLine
 10
1.581692913385826
 20
5.372047244094487
 30
0.0
 11
1.581692913385826
 21
4.785433070866141
 31
0.0
  0
LINE
  5
26D7
330
1E
100
AcDbEntity
  8
0
100
AcDbLine
 10
3.161417322834645
 20
5.372047244094487
 30
0.0
 11
1.581692913385826
 21
5.372047244094487
 31
0.0
  0
POLYLINE
  5
26D8
330
1E
100
AcDbEntity
  8
0
100
AcDb2dPolyline
 66
     1
 10
0.0
 20
0.0
 30
0.0
  0
VERTEX
  5
2EA9
330
26D8
100
AcDbEntity
  8
0
100
AcDbVertex
100
AcDb2dVertex
 10
3.25
 20
6.679133858267716
 30
0.0
  0
VERTEX
  5
2EAA
330
26D8
100
AcDbEntity
  8
0
100
AcDbVertex
100
AcDb2dVertex
 10
3.246062992125984
 20
6.701771653543307
 30
0.0
  0
VERTEX
  5
2EAB
330
26D8
100
AcDbEntity
  8
0
100
AcDbVertex
100
AcDb2dVertex
 10
3.236220472440944
 20
6.721456692913386
 30
0.0
  0
VERTEX
  5
2EAC
330
26D8
100
AcDbEntity
  8
0
100
AcDbVertex
100
AcDb2dVertex
 10
3.220472440944881
 20
6.737204724409449
 30
0.0
  0
VERTEX
  5
2EAD
330
26D8
100
AcDbEntity
  8
0
100
AcDbVertex
100
AcDb2dVertex
 10
3.200787401574803
 20
6.747047244094487
 30
0.0
  0
VERTEX
  5
2EAE
330
26D8
100
AcDbEntity
  8
0
100
AcDbVertex
100
AcDb2dVertex
 10
3.178149606299212
 20
6.750984251968503
 30
0.0
  0
SEQEND
  5
2EAF
330
26D8
100
AcDbEntity
  8
0
  0
LINE
  5
26E0
330
1E
100
AcDbEntity
  8
0
100
AcDbLine
 10
3.178149606299212
 20
6.750984251968503
 30
0.0
 11
2.533464566929133
 21
6.750984251968503
 31
0.0
  0
LINE
  5
26E1
330
1E
100
AcDbEntity
  8
0
100
AcDbLine
 10
2.533464566929133
 20
6.744094488188975
 30
0.0
 11
2.533464566929133
 21
6.750984251968503
 31
0.0
  0
LINE
  5
26E2
330
1E
100
AcDbEntity
  8
0
100
AcDbLine
 10
2.209645669291338
 20
6.744094488188975
 30
0.0
 11
2.533464566929133
 21
6.744094488188975
 31
0.0
  0
LINE
  5
26E3
330
1E
100
AcDbEntity
  8
0
100
AcDbLine
 10
2.209645669291338
 20
6.750984251968503
 30
0.0
 11
2.209645669291338
 21
6.744094488188975
 31
0.0
  0
LINE
  5
26E4
330
1E
100
AcDbEntity
  8
0
100
AcDbLine
 10
2.209645669291338
 20
6.750984251968503
 30
0.0
 11
1.564960629921259
 21
6.750984251968503
 31
0.0
  0
POLYLINE
  5
26E5
330
1E
100
AcDbEntity
  8
0
100
AcDb2dPolyline
 66
     1
 10
0.0
 20
0.0
 30
0.0
  0
VERTEX
  5
2EB0
330
26E5
100
AcDbEntity
  8
0
100
AcDbVertex
100
AcDb2dVertex
 10
1.564960629921259
 20
6.750984251968503
 30
0.0
  0
VERTEX
  5
2EB1
330
26E5
100
AcDbEntity
  8
0
100
AcDbVertex
100
AcDb2dVertex
 10
1.542322834645669
 20
6.747047244094487
 30
0.0
  0
VERTEX
  5
2EB2
330
26E5
100
AcDbEntity
  8
0
100
AcDbVertex
100
AcDb2dVertex
 10
1.52263779527559
 20
6.737204724409449
 30
0.0
  0
VERTEX
  5
2EB3
330
26E5
100
AcDbEntity
  8
0
100
AcDbVertex
100
AcDb2dVertex
 10
1.506889763779527
 20
6.721456692913386
 30
0.0
  0
VERTEX
  5
2EB4
330
26E5
100
AcDbEntity
  8
0
100
AcDbVertex
100
AcDb2dVertex
 10
1.497047244094488
 20
6.701771653543307
 30
0.0
  0
VERTEX
  5
2EB5
330
26E5
100
AcDbEntity
  8
0
100
AcDbVertex
100
AcDb2dVertex
 10
1.493110236220472
 20
6.679133858267716
 30
0.0
  0
SEQEND
  5
2EB6
330
26E5
100
AcDbEntity
  8
0
  0
LINE
  5
26ED
330
1E
100
AcDbEntity
  8
0
100
AcDbLine
 10
1.493110236220472
 20
6.679133858267716
 30
0.0
 11
1.493110236220472
 21
4.015748031496062
 31
0.0
  0
POLYLINE
  5
26EE
330
1E
100
AcDbEntity
  8
0
100
AcDb2dPolyline
 66
     1
 10
0.0
 20
0.0
 30
0.0
  0
VERTEX
  5
2EB7
330
26EE
100
AcDbEntity
  8
0
100
AcDbVertex
100
AcDb2dVertex
 10
1.493110236220472
 20
4.015748031496062
 30
0.0
  0
VERTEX
  5
2EB8
330
26EE
100
AcDbEntity
  8
0
100
AcDbVertex
100
AcDb2dVertex
 10
1.497047244094488
 20
3.993110236220472
 30
0.0
  0
VERTEX
  5
2EB9
330
26EE
100
AcDbEntity
  8
0
100
AcDbVertex
100
AcDb2dVertex
 10
1.506889763779527
 20
3.973425196850393
 30
0.0
  0
VERTEX
  5
2EBA
330
26EE
100
AcDbEntity
  8
0
100
AcDbVertex
100
AcDb2dVertex
 10
1.52263779527559
 20
3.95767716535433
 30
0.0
  0
VERTEX
  5
2EBB
330
26EE
100
AcDbEntity
  8
0
100
AcDbVertex
100
AcDb2dVertex
 10
1.542322834645669
 20
3.947834645669291
 30
0.0
  0
VERTEX
  5
2EBC
330
26EE
100
AcDbEntity
  8
0
100
AcDbVertex
100
AcDb2dVertex
 10
1.564960629921259
 20
3.943897637795275
 30
0.0
  0
SEQEND
  5
2EBD
330
26EE
100
AcDbEntity
  8
0
  0
LINE
  5
26F6
330
1E
100
AcDbEntity
  8
0
100
AcDbLine
 10
1.564960629921259
 20
3.943897637795275
 30
0.0
 11
2.209645669291338
 21
3.943897637795275
 31
0.0
  0
LINE
  5
26F7
330
1E
100
AcDbEntity
  8
0
100
AcDbLine
 10
2.209645669291338
 20
3.950787401574803
 30
0.0
 11
2.209645669291338
 21
3.943897637795275
 31
0.0
  0
LINE
  5
26F8
330
1E
100
AcDbEntity
  8
0
100
AcDbLine
 10
2.533464566929133
 20
3.950787401574803
 30
0.0
 11
2.209645669291338
 21
3.950787401574803
 31
0.0
  0
LINE
  5
26F9
330
1E
100
AcDbEntity
  8
0
100
AcDbLine
 10
2.533464566929133
 20
3.943897637795275
 30
0.0
 11
2.533464566929133
 21
3.950787401574803
 31
0.0
  0
LINE
  5
26FA
330
1E
100
AcDbEntity
  8
0
100
AcDbLine
 10
2.533464566929133
 20
3.943897637795275
 30
0.0
 11
3.178149606299212
 21
3.943897637795275
 31
0.0
  0
POLYLINE
  5
26FB
330
1E
100
AcDbEntity
  8
0
100
AcDb2dPolyline
 66
     1
 10
0.0
 20
0.0
 30
0.0
  0
VERTEX
  5
2EBE
330
26FB
100
AcDbEntity
  8
0
100
AcDbVertex
100
AcDb2dVertex
 10
3.178149606299212
 20
3.943897637795275
 30
0.0
  0
VERTEX
  5
2EBF
330
26FB
100
AcDbEntity
  8
0
100
AcDbVertex
100
AcDb2dVertex
 10
3.200787401574803
 20
3.947834645669291
 30
0.0
  0
VERTEX
  5
2EC0
330
26FB
100
AcDbEntity
  8
0
100
AcDbVertex
100
AcDb2dVertex
 10
3.220472440944881
 20
3.95767716535433
 30
0.0
  0
VERTEX
  5
2EC1
330
26FB
100
AcDbEntity
  8
0
100
AcDbVertex
100
AcDb2dVertex
 10
3.236220472440944
 20
3.973425196850393
 30
0.0
  0
VERTEX
  5
2EC2
330
26FB
100
AcDbEntity
  8
0
100
AcDbVertex
100
AcDb2dVertex
 10
3.246062992125984
 20
3.993110236220472
 30
0.0
  0
VERTEX
  5
2EC3
330
26FB
100
AcDbEntity
  8
0
100
AcDbVertex
100
AcDb2dVertex
 10
3.25
 20
4.015748031496062
 30
0.0
  0
SEQEND
  5
2EC4
330
26FB
100
AcDbEntity
  8
0
  0
LINE
  5
2703
330
1E
100
AcDbEntity
  8
0
100
AcDbLine
 10
3.25
 20
4.015748031496062
 30
0.0
 11
3.25
 21
6.679133858267716
 31
0.0
  0
POLYLINE
  5
2704
330
1E
100
AcDbEntity
  8
0
100
AcDb2dPolyline
 66
     1
 10
0.0
 20
0.0
 30
0.0
  0
VERTEX
  5
2EC5
330
2704
100
AcDbEntity
  8
0
100
AcDbVertex
100
AcDb2dVertex
 10
2.209645669291338
 20
3.943897637795275
 30
0.0
  0
VERTEX
  5
2EC6
330
2704
100
AcDbEntity
  8
0
100
AcDbVertex
100
AcDb2dVertex
 10
2.210629921259842
 20
3.93011811023622
 30
0.0
  0
VERTEX
  5
2EC7
330
2704
100
AcDbEntity
  8
0
100
AcDbVertex
100
AcDb2dVertex
 10
2.210629921259842
 20
3.924212598425196
 30
0.0
  0
SEQEND
  5
2EC8
330
2704
100
AcDbEntity
  8
0
  0
LINE
  5
2709
330
1E
100
AcDbEntity
  8
0
100
AcDbLine
 10
2.21259842519685
 20
3.923228346456692
 30
0.0
 11
2.210629921259842
 21
3.924212598425196
 31
0.0
  0
LINE
  5
270A
330
1E
100
AcDbEntity
  8
0
100
AcDbLine
 10
2.21259842519685
 20
3.923228346456692
 30
0.0
 11
2.219488188976377
 21
3.93011811023622
 31
0.0
  0
LINE
  5
270B
330
1E
100
AcDbEntity
  8
0
100
AcDbLine
 10
2.219488188976377
 20
3.93011811023622
 30
0.0
 11
2.219488188976377
 21
3.946850393700787
 31
0.0
  0
LINE
  5
270C
330
1E
100
AcDbEntity
  8
0
100
AcDbLine
 10
2.219488188976377
 20
3.946850393700787
 30
0.0
 11
2.209645669291338
 21
3.950787401574803
 31
0.0
  0
LINE
  5
270D
330
1E
100
AcDbEntity
  8
0
100
AcDbLine
 10
2.53248031496063
 20
3.924212598425196
 30
0.0
 11
2.530511811023622
 21
3.923228346456692
 31
0.0
  0
POLYLINE
  5
270E
330
1E
100
AcDbEntity
  8
0
100
AcDb2dPolyline
 66
     1
 10
0.0
 20
0.0
 30
0.0
  0
VERTEX
  5
2EC9
330
270E
100
AcDbEntity
  8
0
100
AcDbVertex
100
AcDb2dVertex
 10
2.53248031496063
 20
3.924212598425196
 30
0.0
  0
VERTEX
  5
2ECA
330
270E
100
AcDbEntity
  8
0
100
AcDbVertex
100
AcDb2dVertex
 10
2.53248031496063
 20
3.93011811023622
 30
0.0
  0
VERTEX
  5
2ECB
330
270E
100
AcDbEntity
  8
0
100
AcDbVertex
100
AcDb2dVertex
 10
2.533464566929133
 20
3.943897637795275
 30
0.0
  0
SEQEND
  5
2ECC
330
270E
100
AcDbEntity
  8
0
  0
LINE
  5
2713
330
1E
100
AcDbEntity
  8
0
100
AcDbLine
 10
2.523622047244094
 20
3.946850393700787
 30
0.0
 11
2.533464566929133
 21
3.950787401574803
 31
0.0
  0
LINE
  5
2714
330
1E
100
AcDbEntity
  8
0
100
AcDbLine
 10
2.523622047244094
 20
3.946850393700787
 30
0.0
 11
2.523622047244094
 21
3.93011811023622
 31
0.0
  0
LINE
  5
2715
330
1E
100
AcDbEntity
  8
0
100
AcDbLine
 10
2.523622047244094
 20
3.93011811023622
 30
0.0
 11
2.530511811023622
 21
3.923228346456692
 31
0.0
  0
LINE
  5
2716
330
1E
100
AcDbEntity
  8
0
100
AcDbLine
 10
2.210629921259842
 20
6.770669291338582
 30
0.0
 11
2.21259842519685
 21
6.771653543307086
 31
0.0
  0
POLYLINE
  5
2717
330
1E
100
AcDbEntity
  8
0
100
AcDb2dPolyline
 66
     1
 10
0.0
 20
0.0
 30
0.0
  0
VERTEX
  5
2ECD
330
2717
100
AcDbEntity
  8
0
100
AcDbVertex
100
AcDb2dVertex
 10
2.210629921259842
 20
6.770669291338582
 30
0.0
  0
VERTEX
  5
2ECE
330
2717
100
AcDbEntity
  8
0
100
AcDbVertex
100
AcDb2dVertex
 10
2.210629921259842
 20
6.764763779527559
 30
0.0
  0
VERTEX
  5
2ECF
330
2717
100
AcDbEntity
  8
0
100
AcDbVertex
100
AcDb2dVertex
 10
2.209645669291338
 20
6.750984251968503
 30
0.0
  0
SEQEND
  5
2ED0
330
2717
100
AcDbEntity
  8
0
  0
LINE
  5
271C
330
1E
100
AcDbEntity
  8
0
100
AcDbLine
 10
2.219488188976377
 20
6.749015748031496
 30
0.0
 11
2.209645669291338
 21
6.744094488188975
 31
0.0
  0
LINE
  5
271D
330
1E
100
AcDbEntity
  8
0
100
AcDbLine
 10
2.219488188976377
 20
6.749015748031496
 30
0.0
 11
2.219488188976377
 21
6.764763779527559
 31
0.0
  0
LINE
  5
271E
330
1E
100
AcDbEntity
  8
0
100
AcDbLine
 10
2.219488188976377
 20
6.764763779527559
 30
0.0
 11
2.21259842519685
 21
6.771653543307086
 31
0.0
  0
POLYLINE
  5
271F
330
1E
100
AcDbEntity
  8
0
100
AcDb2dPolyline
 66
     1
 10
0.0
 20
0.0
 30
0.0
  0
VERTEX
  5
2ED1
330
271F
100
AcDbEntity
  8
0
100
AcDbVertex
100
AcDb2dVertex
 10
2.533464566929133
 20
6.750984251968503
 30
0.0
  0
VERTEX
  5
2ED2
330
271F
100
AcDbEntity
  8
0
100
AcDbVertex
100
AcDb2dVertex
 10
2.53248031496063
 20
6.764763779527559
 30
0.0
  0
VERTEX
  5
2ED3
330
271F
100
AcDbEntity
  8
0
100
AcDbVertex
100
AcDb2dVertex
 10
2.53248031496063
 20
6.770669291338582
 30
0.0
  0
SEQEND
  5
2ED4
330
271F
100
AcDbEntity
  8
0
  0
LINE
  5
2724
330
1E
100
AcDbEntity
  8
0
100
AcDbLine
 10
2.530511811023622
 20
6.771653543307086
 30
0.0
 11
2.53248031496063
 21
6.770669291338582
 31
0.0
  0
LINE
  5
2725
330
1E
100
AcDbEntity
  8
0
100
AcDbLine
 10
2.530511811023622
 20
6.771653543307086
 30
0.0
 11
2.523622047244094
 21
6.764763779527559
 31
0.0
  0
LINE
  5
2726
330
1E
100
AcDbEntity
  8
0
100
AcDbLine
 10
2.523622047244094
 20
6.764763779527559
 30
0.0
 11
2.523622047244094
 21
6.749015748031496
 31
0.0
  0
LINE
  5
2727
330
1E
100
AcDbEntity
  8
0
100
AcDbLine
 10
2.523622047244094
 20
6.749015748031496
 30
0.0
 11
2.533464566929133
 21
6.744094488188975
 31
0.0
  0
LINE
  5
2728
330
1E
100
AcDbEntity
  8
0
100
AcDbLine
 10
1.563976377952755
 20
6.771653543307086
 30
0.0
 11
1.563976377952755
 21
6.771653543307086
 31
0.0
  0
LINE
  5
2729
330
1E
100
AcDbEntity
  8
0
100
AcDbLine
 10
2.21259842519685
 20
6.771653543307086
 30
0.0
 11
1.563976377952755
 21
6.771653543307086
 31
0.0
  0
LINE
  5
272A
330
1E
100
AcDbEntity
  8
0
100
AcDbLine
 10
1.563976377952755
 20
3.923228346456692
 30
0.0
 11
1.563976377952755
 21
3.923228346456692
 31
0.0
  0
LINE
  5
272B
330
1E
100
AcDbEntity
  8
0
100
AcDbLine
 10
1.563976377952755
 20
3.923228346456692
 30
0.0
 11
2.21259842519685
 21
3.923228346456692
 31
0.0
  0
LINE
  5
272C
330
1E
100
AcDbEntity
  8
0
100
AcDbLine
 10
2.219488188976377
 20
3.926181102362204
 30
0.0
 11
2.219488188976377
 21
3.93011811023622
 31
0.0
  0
LINE
  5
272D
330
1E
100
AcDbEntity
  8
0
100
AcDbLine
 10
2.523622047244094
 20
3.93011811023622
 30
0.0
 11
2.523622047244094
 21
3.926181102362204
 31
0.0
  0
LINE
  5
272E
330
1E
100
AcDbEntity
  8
0
100
AcDbLine
 10
1.701771653543307
 20
6.294291338582676
 30
0.0
 11
1.661417322834645
 21
6.294291338582676
 31
0.0
  0
LINE
  5
272F
330
1E
100
AcDbEntity
  8
0
100
AcDbLine
 10
1.661417322834645
 20
6.294291338582676
 30
0.0
 11
1.660433070866141
 21
6.294291338582676
 31
0.0
  0
LINE
  5
2730
330
1E
100
AcDbEntity
  8
0
100
AcDbLine
 10
3.08267716535433
 20
6.294291338582676
 30
0.0
 11
3.081692913385826
 21
6.294291338582676
 31
0.0
  0
LINE
  5
2731
330
1E
100
AcDbEntity
  8
0
100
AcDbLine
 10
3.081692913385826
 20
6.294291338582676
 30
0.0
 11
3.041338582677165
 21
6.294291338582676
 31
0.0
  0
LINE
  5
2732
330
1E
100
AcDbEntity
  8
0
100
AcDbLine
 10
3.041338582677165
 20
6.294291338582676
 30
0.0
 11
3.038385826771653
 21
6.29527559055118
 31
0.0
  0
LINE
  5
2733
330
1E
100
AcDbEntity
  8
0
100
AcDbLine
 10
1.704724409448818
 20
6.29527559055118
 30
0.0
 11
3.038385826771653
 21
6.29527559055118
 31
0.0
  0
LINE
  5
2734
330
1E
100
AcDbEntity
  8
0
100
AcDbLine
 10
1.704724409448818
 20
6.29527559055118
 30
0.0
 11
1.701771653543307
 21
6.294291338582676
 31
0.0
  0
LINE
  5
2735
330
1E
100
AcDbEntity
  8
0
100
AcDbLine
 10
1.651574803149606
 20
6.304133858267716
 30
0.0
 11
1.651574803149606
 21
6.643700787401574
 31
0.0
  0
LINE
  5
2736
330
1E
100
AcDbEntity
  8
0
100
AcDbLine
 10
1.651574803149606
 20
6.643700787401574
 30
0.0
 11
1.650590551181102
 21
6.643700787401574
 31
0.0
  0
LINE
  5
2737
330
1E
100
AcDbEntity
  8
0
100
AcDbLine
 10
1.650590551181102
 20
6.304133858267716
 30
0.0
 11
1.651574803149606
 21
6.304133858267716
 31
0.0
  0
LINE
  5
2738
330
1E
100
AcDbEntity
  8
0
100
AcDbLine
 10
1.660433070866141
 20
6.653543307086613
 30
0.0
 11
1.661417322834645
 21
6.653543307086613
 31
0.0
  0
LINE
  5
2739
330
1E
100
AcDbEntity
  8
0
100
AcDbLine
 10
1.661417322834645
 20
6.653543307086613
 30
0.0
 11
1.701771653543307
 21
6.653543307086613
 31
0.0
  0
LINE
  5
273A
330
1E
100
AcDbEntity
  8
0
100
AcDbLine
 10
1.701771653543307
 20
6.653543307086613
 30
0.0
 11
1.704724409448818
 21
6.65255905511811
 31
0.0
  0
LINE
  5
273B
330
1E
100
AcDbEntity
  8
0
100
AcDbLine
 10
3.038385826771653
 20
6.65255905511811
 30
0.0
 11
1.704724409448818
 21
6.65255905511811
 31
0.0
  0
LINE
  5
273C
330
1E
100
AcDbEntity
  8
0
100
AcDbLine
 10
3.038385826771653
 20
6.65255905511811
 30
0.0
 11
3.041338582677165
 21
6.653543307086613
 31
0.0
  0
LINE
  5
273D
330
1E
100
AcDbEntity
  8
0
100
AcDbLine
 10
3.041338582677165
 20
6.653543307086613
 30
0.0
 11
3.081692913385826
 21
6.653543307086613
 31
0.0
  0
LINE
  5
273E
330
1E
100
AcDbEntity
  8
0
100
AcDbLine
 10
3.081692913385826
 20
6.653543307086613
 30
0.0
 11
3.08267716535433
 21
6.653543307086613
 31
0.0
  0
LINE
  5
273F
330
1E
100
AcDbEntity
  8
0
100
AcDbLine
 10
3.038385826771653
 20
6.29527559055118
 30
0.0
 11
3.038385826771653
 21
6.65255905511811
 31
0.0
  0
LINE
  5
2740
330
1E
100
AcDbEntity
  8
0
100
AcDbLine
 10
1.704724409448818
 20
6.65255905511811
 30
0.0
 11
1.704724409448818
 21
6.29527559055118
 31
0.0
  0
LINE
  5
2741
330
1E
100
AcDbEntity
  8
0
100
AcDbLine
 10
3.092519685039369
 20
6.643700787401574
 30
0.0
 11
3.092519685039369
 21
6.304133858267716
 31
0.0
  0
LINE
  5
2742
330
1E
100
AcDbEntity
  8
0
100
AcDbLine
 10
3.092519685039369
 20
6.304133858267716
 30
0.0
 11
3.092519685039369
 21
6.304133858267716
 31
0.0
  0
LINE
  5
2743
330
1E
100
AcDbEntity
  8
0
100
AcDbLine
 10
3.092519685039369
 20
6.643700787401574
 30
0.0
 11
3.092519685039369
 21
6.643700787401574
 31
0.0
  0
LINE
  5
2744
330
1E
100
AcDbEntity
  8
0
100
AcDbLine
 10
3.097440944881889
 20
5.369094488188975
 30
0.0
 11
3.096456692913385
 21
5.368110236220472
 31
0.0
  0
LINE
  5
2745
330
1E
100
AcDbEntity
  8
0
100
AcDbLine
 10
3.096456692913385
 20
5.368110236220472
 30
0.0
 11
3.096456692913385
 21
5.364173228346456
 31
0.0
  0
LINE
  5
2746
330
1E
100
AcDbEntity
  8
0
100
AcDbLine
 10
3.097440944881889
 20
5.369094488188975
 30
0.0
 11
3.097440944881889
 21
5.364173228346456
 31
0.0
  0
LINE
  5
2747
330
1E
100
AcDbEntity
  8
0
100
AcDbLine
 10
1.646653543307086
 20
5.368110236220472
 30
0.0
 11
1.646653543307086
 21
5.364173228346456
 31
0.0
  0
LINE
  5
2748
330
1E
100
AcDbEntity
  8
0
100
AcDbLine
 10
1.645669291338582
 20
5.369094488188975
 30
0.0
 11
1.646653543307086
 21
5.368110236220472
 31
0.0
  0
LINE
  5
2749
330
1E
100
AcDbEntity
  8
0
100
AcDbLine
 10
1.645669291338582
 20
5.369094488188975
 30
0.0
 11
1.645669291338582
 21
5.364173228346456
 31
0.0
  0
LINE
  5
274A
330
1E
100
AcDbEntity
  8
0
100
AcDbLine
 10
1.645669291338582
 20
5.369094488188975
 30
0.0
 11
1.585629921259842
 21
5.369094488188975
 31
0.0
  0
LINE
  5
274B
330
1E
100
AcDbEntity
  8
0
100
AcDbLine
 10
1.585629921259842
 20
5.369094488188975
 30
0.0
 11
1.585629921259842
 21
4.890748031496062
 31
0.0
  0
LINE
  5
274C
330
1E
100
AcDbEntity
  8
0
100
AcDbLine
 10
1.590551181102362
 20
4.890748031496062
 30
0.0
 11
1.585629921259842
 21
4.890748031496062
 31
0.0
  0
LINE
  5
274D
330
1E
100
AcDbEntity
  8
0
100
AcDbLine
 10
3.097440944881889
 20
5.369094488188975
 30
0.0
 11
3.15748031496063
 21
5.369094488188975
 31
0.0
  0
LINE
  5
274E
330
1E
100
AcDbEntity
  8
0
100
AcDbLine
 10
3.15748031496063
 20
4.890748031496062
 30
0.0
 11
3.15255905511811
 21
4.890748031496062
 31
0.0
  0
LINE
  5
274F
330
1E
100
AcDbEntity
  8
0
100
AcDbLine
 10
3.15748031496063
 20
5.369094488188975
 30
0.0
 11
3.15748031496063
 21
4.890748031496062
 31
0.0
  0
LINE
  5
2750
330
1E
100
AcDbEntity
  8
0
100
AcDbLine
 10
1.590551181102362
 20
4.502952755905512
 30
0.0
 11
1.585629921259842
 21
4.502952755905512
 31
0.0
  0
LINE
  5
2751
330
1E
100
AcDbEntity
  8
0
100
AcDbLine
 10
1.585629921259842
 20
4.502952755905512
 30
0.0
 11
1.585629921259842
 21
4.024606299212598
 31
0.0
  0
LINE
  5
2752
330
1E
100
AcDbEntity
  8
0
100
AcDbLine
 10
1.585629921259842
 20
4.024606299212598
 30
0.0
 11
1.645669291338582
 21
4.024606299212598
 31
0.0
  0
LINE
  5
2753
330
1E
100
AcDbEntity
  8
0
100
AcDbLine
 10
1.645669291338582
 20
4.029527559055117
 30
0.0
 11
1.645669291338582
 21
4.024606299212598
 31
0.0
  0
LINE
  5
2754
330
1E
100
AcDbEntity
  8
0
100
AcDbLine
 10
1.646653543307086
 20
4.029527559055117
 30
0.0
 11
1.646653543307086
 21
4.025590551181101
 31
0.0
  0
LINE
  5
2755
330
1E
100
AcDbEntity
  8
0
100
AcDbLine
 10
1.646653543307086
 20
4.025590551181101
 30
0.0
 11
1.645669291338582
 21
4.024606299212598
 31
0.0
  0
LINE
  5
2756
330
1E
100
AcDbEntity
  8
0
100
AcDbLine
 10
3.096456692913385
 20
4.029527559055117
 30
0.0
 11
3.096456692913385
 21
4.025590551181101
 31
0.0
  0
LINE
  5
2757
330
1E
100
AcDbEntity
  8
0
100
AcDbLine
 10
3.096456692913385
 20
4.025590551181101
 30
0.0
 11
3.097440944881889
 21
4.024606299212598
 31
0.0
  0
LINE
  5
2758
330
1E
100
AcDbEntity
  8
0
100
AcDbLine
 10
3.097440944881889
 20
4.029527559055117
 30
0.0
 11
3.097440944881889
 21
4.024606299212598
 31
0.0
  0
LINE
  5
2759
330
1E
100
AcDbEntity
  8
0
100
AcDbLine
 10
3.15748031496063
 20
4.502952755905512
 30
0.0
 11
3.15748031496063
 21
4.024606299212598
 31
0.0
  0
LINE
  5
275A
330
1E
100
AcDbEntity
  8
0
100
AcDbLine
 10
3.15748031496063
 20
4.502952755905512
 30
0.0
 11
3.15255905511811
 21
4.502952755905512
 31
0.0
  0
LINE
  5
275B
330
1E
100
AcDbEntity
  8
0
100
AcDbLine
 10
3.15748031496063
 20
4.024606299212598
 30
0.0
 11
3.097440944881889
 21
4.024606299212598
 31
0.0
  0
LINE
  5
275C
330
1E
100
AcDbEntity
  8
0
100
AcDbLine
 10
1.581692913385826
 20
4.785433070866141
 30
0.0
 11
1.585629921259842
 21
4.778543307086613
 31
0.0
  0
LINE
  5
275D
330
1E
100
AcDbEntity
  8
0
100
AcDbLine
 10
1.585629921259842
 20
4.890748031496062
 30
0.0
 11
1.585629921259842
 21
4.778543307086613
 31
0.0
  0
LINE
  5
275E
330
1E
100
AcDbEntity
  8
0
100
AcDbLine
 10
1.585629921259842
 20
5.369094488188975
 30
0.0
 11
1.581692913385826
 21
5.372047244094487
 31
0.0
  0
LINE
  5
275F
330
1E
100
AcDbEntity
  8
0
100
AcDbLine
 10
3.15748031496063
 20
4.890748031496062
 30
0.0
 11
3.15748031496063
 21
4.778543307086613
 31
0.0
  0
LINE
  5
2760
330
1E
100
AcDbEntity
  8
0
100
AcDbLine
 10
3.15748031496063
 20
4.778543307086613
 30
0.0
 11
3.161417322834645
 21
4.785433070866141
 31
0.0
  0
LINE
  5
2761
330
1E
100
AcDbEntity
  8
0
100
AcDbLine
 10
3.15748031496063
 20
5.369094488188975
 30
0.0
 11
3.161417322834645
 21
5.372047244094487
 31
0.0
  0
LINE
  5
2762
330
1E
100
AcDbEntity
  8
0
100
AcDbLine
 10
1.585629921259842
 20
4.614173228346456
 30
0.0
 11
1.585629921259842
 21
4.502952755905512
 31
0.0
  0
LINE
  5
2763
330
1E
100
AcDbEntity
  8
0
100
AcDbLine
 10
1.585629921259842
 20
4.614173228346456
 30
0.0
 11
1.581692913385826
 21
4.608267716535433
 31
0.0
  0
LINE
  5
2764
330
1E
100
AcDbEntity
  8
0
100
AcDbLine
 10
1.581692913385826
 20
4.020669291338582
 30
0.0
 11
1.585629921259842
 21
4.024606299212598
 31
0.0
  0
LINE
  5
2765
330
1E
100
AcDbEntity
  8
0
100
AcDbLine
 10
3.161417322834645
 20
4.608267716535433
 30
0.0
 11
3.15748031496063
 21
4.614173228346456
 31
0.0
  0
LINE
  5
2766
330
1E
100
AcDbEntity
  8
0
100
AcDbLine
 10
3.15748031496063
 20
4.614173228346456
 30
0.0
 11
3.15748031496063
 21
4.502952755905512
 31
0.0
  0
LINE
  5
2767
330
1E
100
AcDbEntity
  8
0
100
AcDbLine
 10
3.161417322834645
 20
4.020669291338582
 30
0.0
 11
3.15748031496063
 21
4.024606299212598
 31
0.0
  0
LINE
  5
2768
330
1E
100
AcDbEntity
  8
0
100
AcDbLine
 10
1.585629921259842
 20
4.778543307086613
 30
0.0
 11
1.585629921259842
 21
4.614173228346456
 31
0.0
  0
POLYLINE
  5
2769
330
1E
100
AcDbEntity
  8
0
100
AcDb2dPolyline
 66
     1
 10
0.0
 20
0.0
 30
0.0
  0
VERTEX
  5
2ED5
330
2769
100
AcDbEntity
  8
0
100
AcDbVertex
100
AcDb2dVertex
 10
1.585629921259842
 20
4.778543307086613
 30
0.0
  0
VERTEX
  5
2ED6
330
2769
100
AcDbEntity
  8
0
100
AcDbVertex
100
AcDb2dVertex
 10
1.58267716535433
 20
4.773622047244094
 30
0.0
  0
VERTEX
  5
2ED7
330
2769
100
AcDbEntity
  8
0
100
AcDbVertex
100
AcDb2dVertex
 10
1.577755905511811
 20
4.770669291338582
 30
0.0
  0
SEQEND
  5
2ED8
330
2769
100
AcDbEntity
  8
0
  0
LINE
  5
276E
330
1E
100
AcDbEntity
  8
0
100
AcDbLine
 10
1.577755905511811
 20
4.770669291338582
 30
0.0
 11
1.533464566929133
 21
4.770669291338582
 31
0.0
  0
POLYLINE
  5
276F
330
1E
100
AcDbEntity
  8
0
100
AcDb2dPolyline
 66
     1
 10
0.0
 20
0.0
 30
0.0
  0
VERTEX
  5
2ED9
330
276F
100
AcDbEntity
  8
0
100
AcDbVertex
100
AcDb2dVertex
 10
1.533464566929133
 20
4.770669291338582
 30
0.0
  0
VERTEX
  5
2EDA
330
276F
100
AcDbEntity
  8
0
100
AcDbVertex
100
AcDb2dVertex
 10
1.52755905511811
 20
4.768700787401574
 30
0.0
  0
VERTEX
  5
2EDB
330
276F
100
AcDbEntity
  8
0
100
AcDbVertex
100
AcDb2dVertex
 10
1.525590551181102
 20
4.76279527559055
 30
0.0
  0
SEQEND
  5
2EDC
330
276F
100
AcDbEntity
  8
0
  0
LINE
  5
2774
330
1E
100
AcDbEntity
  8
0
100
AcDbLine
 10
1.525590551181102
 20
4.76279527559055
 30
0.0
 11
1.525590551181102
 21
4.630905511811023
 31
0.0
  0
POLYLINE
  5
2775
330
1E
100
AcDbEntity
  8
0
100
AcDb2dPolyline
 66
     1
 10
0.0
 20
0.0
 30
0.0
  0
VERTEX
  5
2EDD
330
2775
100
AcDbEntity
  8
0
100
AcDbVertex
100
AcDb2dVertex
 10
1.525590551181102
 20
4.630905511811023
 30
0.0
  0
VERTEX
  5
2EDE
330
2775
100
AcDbEntity
  8
0
100
AcDbVertex
100
AcDb2dVertex
 10
1.52755905511811
 20
4.625
 30
0.0
  0
VERTEX
  5
2EDF
330
2775
100
AcDbEntity
  8
0
100
AcDbVertex
100
AcDb2dVertex
 10
1.533464566929133
 20
4.622047244094487
 30
0.0
  0
SEQEND
  5
2EE0
330
2775
100
AcDbEntity
  8
0
  0
LINE
  5
277A
330
1E
100
AcDbEntity
  8
0
100
AcDbLine
 10
1.533464566929133
 20
4.622047244094487
 30
0.0
 11
1.577755905511811
 21
4.622047244094487
 31
0.0
  0
POLYLINE
  5
277B
330
1E
100
AcDbEntity
  8
0
100
AcDb2dPolyline
 66
     1
 10
0.0
 20
0.0
 30
0.0
  0
VERTEX
  5
2EE1
330
277B
100
AcDbEntity
  8
0
100
AcDbVertex
100
AcDb2dVertex
 10
1.577755905511811
 20
4.622047244094487
 30
0.0
  0
VERTEX
  5
2EE2
330
277B
100
AcDbEntity
  8
0
100
AcDbVertex
100
AcDb2dVertex
 10
1.58267716535433
 20
4.62007874015748
 30
0.0
  0
VERTEX
  5
2EE3
330
277B
100
AcDbEntity
  8
0
100
AcDbVertex
100
AcDb2dVertex
 10
1.585629921259842
 20
4.614173228346456
 30
0.0
  0
SEQEND
  5
2EE4
330
277B
100
AcDbEntity
  8
0
  0
LINE
  5
2780
330
1E
100
AcDbEntity
  8
0
100
AcDbLine
 10
3.217519685039369
 20
4.630905511811023
 30
0.0
 11
3.217519685039369
 21
4.76279527559055
 31
0.0
  0
POLYLINE
  5
2781
330
1E
100
AcDbEntity
  8
0
100
AcDb2dPolyline
 66
     1
 10
0.0
 20
0.0
 30
0.0
  0
VERTEX
  5
2EE5
330
2781
100
AcDbEntity
  8
0
100
AcDbVertex
100
AcDb2dVertex
 10
3.217519685039369
 20
4.76279527559055
 30
0.0
  0
VERTEX
  5
2EE6
330
2781
100
AcDbEntity
  8
0
100
AcDbVertex
100
AcDb2dVertex
 10
3.215551181102362
 20
4.768700787401574
 30
0.0
  0
VERTEX
  5
2EE7
330
2781
100
AcDbEntity
  8
0
100
AcDbVertex
100
AcDb2dVertex
 10
3.209645669291338
 20
4.770669291338582
 30
0.0
  0
SEQEND
  5
2EE8
330
2781
100
AcDbEntity
  8
0
  0
LINE
  5
2786
330
1E
100
AcDbEntity
  8
0
100
AcDbLine
 10
3.209645669291338
 20
4.770669291338582
 30
0.0
 11
3.166338582677165
 21
4.770669291338582
 31
0.0
  0
POLYLINE
  5
2787
330
1E
100
AcDbEntity
  8
0
100
AcDb2dPolyline
 66
     1
 10
0.0
 20
0.0
 30
0.0
  0
VERTEX
  5
2EE9
330
2787
100
AcDbEntity
  8
0
100
AcDbVertex
100
AcDb2dVertex
 10
3.166338582677165
 20
4.770669291338582
 30
0.0
  0
VERTEX
  5
2EEA
330
2787
100
AcDbEntity
  8
0
100
AcDbVertex
100
AcDb2dVertex
 10
3.160433070866141
 20
4.773622047244094
 30
0.0
  0
VERTEX
  5
2EEB
330
2787
100
AcDbEntity
  8
0
100
AcDbVertex
100
AcDb2dVertex
 10
3.15748031496063
 20
4.778543307086613
 30
0.0
  0
SEQEND
  5
2EEC
330
2787
100
AcDbEntity
  8
0
  0
LINE
  5
278C
330
1E
100
AcDbEntity
  8
0
100
AcDbLine
 10
3.15748031496063
 20
4.614173228346456
 30
0.0
 11
3.15748031496063
 21
4.778543307086613
 31
0.0
  0
POLYLINE
  5
278D
330
1E
100
AcDbEntity
  8
0
100
AcDb2dPolyline
 66
     1
 10
0.0
 20
0.0
 30
0.0
  0
VERTEX
  5
2EED
330
278D
100
AcDbEntity
  8
0
100
AcDbVertex
100
AcDb2dVertex
 10
3.15748031496063
 20
4.614173228346456
 30
0.0
  0
VERTEX
  5
2EEE
330
278D
100
AcDbEntity
  8
0
100
AcDbVertex
100
AcDb2dVertex
 10
3.160433070866141
 20
4.62007874015748
 30
0.0
  0
VERTEX
  5
2EEF
330
278D
100
AcDbEntity
  8
0
100
AcDbVertex
100
AcDb2dVertex
 10
3.166338582677165
 20
4.622047244094487
 30
0.0
  0
SEQEND
  5
2EF0
330
278D
100
AcDbEntity
  8
0
  0
LINE
  5
2792
330
1E
100
AcDbEntity
  8
0
100
AcDbLine
 10
3.166338582677165
 20
4.622047244094487
 30
0.0
 11
3.209645669291338
 21
4.622047244094487
 31
0.0
  0
POLYLINE
  5
2793
330
1E
100
AcDbEntity
  8
0
100
AcDb2dPolyline
 66
     1
 10
0.0
 20
0.0
 30
0.0
  0
VERTEX
  5
2EF1
330
2793
100
AcDbEntity
  8
0
100
AcDbVertex
100
AcDb2dVertex
 10
3.209645669291338
 20
4.622047244094487
 30
0.0
  0
VERTEX
  5
2EF2
330
2793
100
AcDbEntity
  8
0
100
AcDbVertex
100
AcDb2dVertex
 10
3.215551181102362
 20
4.625
 30
0.0
  0
VERTEX
  5
2EF3
330
2793
100
AcDbEntity
  8
0
100
AcDbVertex
100
AcDb2dVertex
 10
3.217519685039369
 20
4.630905511811023
 30
0.0
  0
SEQEND
  5
2EF4
330
2793
100
AcDbEntity
  8
0
  0
LINE
  5
2798
330
1E
100
AcDbEntity
  8
0
100
AcDbLine
 10
3.096456692913385
 20
4.025590551181101
 30
0.0
 11
1.646653543307086
 21
4.025590551181101
 31
0.0
  0
LINE
  5
2799
330
1E
100
AcDbEntity
  8
0
100
AcDbLine
 10
3.169291338582677
 20
4.77755905511811
 30
0.0
 11
3.166338582677165
 21
4.770669291338582
 31
0.0
  0
LINE
  5
279A
330
1E
100
AcDbEntity
  8
0
100
AcDbLine
 10
3.209645669291338
 20
4.770669291338582
 30
0.0
 11
3.216535433070866
 21
4.77755905511811
 31
0.0
  0
LINE
  5
279B
330
1E
100
AcDbEntity
  8
0
100
AcDbLine
 10
3.216535433070866
 20
4.616141732283464
 30
0.0
 11
3.209645669291338
 21
4.622047244094487
 31
0.0
  0
LINE
  5
279C
330
1E
100
AcDbEntity
  8
0
100
AcDbLine
 10
3.166338582677165
 20
4.622047244094487
 30
0.0
 11
3.169291338582677
 21
4.616141732283464
 31
0.0
  0
LINE
  5
279D
330
1E
100
AcDbEntity
  8
0
100
AcDbLine
 10
3.224409448818897
 20
4.769685039370078
 30
0.0
 11
3.217519685039369
 21
4.76279527559055
 31
0.0
  0
LINE
  5
279E
330
1E
100
AcDbEntity
  8
0
100
AcDbLine
 10
3.217519685039369
 20
4.630905511811023
 30
0.0
 11
3.224409448818897
 21
4.624015748031496
 31
0.0
  0
LINE
  5
279F
330
1E
100
AcDbEntity
  8
0
100
AcDbLine
 10
1.573818897637795
 20
4.616141732283464
 30
0.0
 11
1.577755905511811
 21
4.622047244094487
 31
0.0
  0
LINE
  5
27A0
330
1E
100
AcDbEntity
  8
0
100
AcDbLine
 10
1.533464566929133
 20
4.622047244094487
 30
0.0
 11
1.526574803149606
 21
4.616141732283464
 31
0.0
  0
LINE
  5
27A1
330
1E
100
AcDbEntity
  8
0
100
AcDbLine
 10
1.577755905511811
 20
4.770669291338582
 30
0.0
 11
1.573818897637795
 21
4.77755905511811
 31
0.0
  0
LINE
  5
27A2
330
1E
100
AcDbEntity
  8
0
100
AcDbLine
 10
1.526574803149606
 20
4.77755905511811
 30
0.0
 11
1.533464566929133
 21
4.770669291338582
 31
0.0
  0
LINE
  5
27A3
330
1E
100
AcDbEntity
  8
0
100
AcDbLine
 10
1.525590551181102
 20
4.76279527559055
 30
0.0
 11
1.518700787401574
 21
4.769685039370078
 31
0.0
  0
LINE
  5
27A4
330
1E
100
AcDbEntity
  8
0
100
AcDbLine
 10
1.518700787401574
 20
4.624015748031496
 30
0.0
 11
1.525590551181102
 21
4.630905511811023
 31
0.0
  0
LINE
  5
27A5
330
1E
100
AcDbEntity
  8
0
100
AcDbLine
 10
3.15748031496063
 20
4.890748031496062
 30
0.0
 11
3.15255905511811
 21
4.881889763779527
 31
0.0
  0
LINE
  5
27A6
330
1E
100
AcDbEntity
  8
0
100
AcDbLine
 10
3.15748031496063
 20
4.502952755905512
 30
0.0
 11
3.15255905511811
 21
4.510826771653543
 31
0.0
  0
LINE
  5
27A7
330
1E
100
AcDbEntity
  8
0
100
AcDbLine
 10
1.585629921259842
 20
4.502952755905512
 30
0.0
 11
1.590551181102362
 21
4.510826771653543
 31
0.0
  0
LINE
  5
27A8
330
1E
100
AcDbEntity
  8
0
100
AcDbLine
 10
1.585629921259842
 20
4.890748031496062
 30
0.0
 11
1.590551181102362
 21
4.881889763779527
 31
0.0
  0
LINE
  5
27A9
330
1E
100
AcDbEntity
  8
0
100
AcDbLine
 10
3.179133858267716
 20
3.923228346456692
 30
0.0
 11
3.179133858267716
 21
3.923228346456692
 31
0.0
  0
LINE
  5
27AA
330
1E
100
AcDbEntity
  8
0
100
AcDbLine
 10
2.530511811023622
 20
3.923228346456692
 30
0.0
 11
3.179133858267716
 21
3.923228346456692
 31
0.0
  0
LINE
  5
27AB
330
1E
100
AcDbEntity
  8
0
100
AcDbLine
 10
3.179133858267716
 20
6.771653543307086
 30
0.0
 11
3.179133858267716
 21
6.771653543307086
 31
0.0
  0
LINE
  5
27AC
330
1E
100
AcDbEntity
  8
0
100
AcDbLine
 10
3.179133858267716
 20
6.771653543307086
 30
0.0
 11
2.530511811023622
 21
6.771653543307086
 31
0.0
  0
LINE
  5
27AD
330
1E
100
AcDbEntity
  8
0
100
AcDbLine
 10
1.472440944881889
 20
6.68011811023622
 30
0.0
 11
1.472440944881889
 21
6.68011811023622
 31
0.0
  0
LINE
  5
27AE
330
1E
100
AcDbEntity
  8
0
100
AcDbLine
 10
1.472440944881889
 20
4.014763779527559
 30
0.0
 11
1.472440944881889
 21
4.014763779527559
 31
0.0
  0
LINE
  5
27AF
330
1E
100
AcDbEntity
  8
0
100
AcDbLine
 10
1.472440944881889
 20
6.68011811023622
 30
0.0
 11
1.472440944881889
 21
4.014763779527559
 31
0.0
  0
LINE
  5
27B0
330
1E
100
AcDbEntity
  8
0
100
AcDbLine
 10
3.270669291338582
 20
4.014763779527559
 30
0.0
 11
3.270669291338582
 21
4.014763779527559
 31
0.0
  0
LINE
  5
27B1
330
1E
100
AcDbEntity
  8
0
100
AcDbLine
 10
3.270669291338582
 20
6.68011811023622
 30
0.0
 11
3.270669291338582
 21
6.68011811023622
 31
0.0
  0
LINE
  5
27B2
330
1E
100
AcDbEntity
  8
0
100
AcDbLine
 10
3.270669291338582
 20
4.014763779527559
 30
0.0
 11
3.270669291338582
 21
6.68011811023622
 31
0.0
  0
LINE
  5
27B3
330
1E
100
AcDbEntity
  8
0
100
AcDbLine
 10
3.096456692913385
 20
5.368110236220472
 30
0.0
 11
1.646653543307086
 21
5.368110236220472
 31
0.0
  0
POLYLINE
  5
27B4
330
1E
100
AcDbEntity
  8
0
100
AcDb2dPolyline
 66
     1
 10
0.0
 20
0.0
 30
0.0
  0
VERTEX
  5
2EF5
330
27B4
100
AcDbEntity
  8
0
100
AcDbVertex
100
AcDb2dVertex
 10
1.661417322834645
 20
6.653543307086613
 30
0.0
  0
VERTEX
  5
2EF6
330
27B4
100
AcDbEntity
  8
0
100
AcDbVertex
100
AcDb2dVertex
 10
1.654527559055118
 20
6.650590551181101
 30
0.0
  0
VERTEX
  5
2EF7
330
27B4
100
AcDbEntity
  8
0
100
AcDbVertex
100
AcDb2dVertex
 10
1.651574803149606
 20
6.643700787401574
 30
0.0
  0
SEQEND
  5
2EF8
330
27B4
100
AcDbEntity
  8
0
  0
POLYLINE
  5
27B9
330
1E
100
AcDbEntity
  8
0
100
AcDb2dPolyline
 66
     1
 10
0.0
 20
0.0
 30
0.0
  0
VERTEX
  5
2EF9
330
27B9
100
AcDbEntity
  8
0
100
AcDbVertex
100
AcDb2dVertex
 10
1.651574803149606
 20
6.304133858267716
 30
0.0
  0
VERTEX
  5
2EFA
330
27B9
100
AcDbEntity
  8
0
100
AcDbVertex
100
AcDb2dVertex
 10
1.654527559055118
 20
6.297244094488188
 30
0.0
  0
VERTEX
  5
2EFB
330
27B9
100
AcDbEntity
  8
0
100
AcDbVertex
100
AcDb2dVertex
 10
1.661417322834645
 20
6.294291338582676
 30
0.0
  0
SEQEND
  5
2EFC
330
27B9
100
AcDbEntity
  8
0
  0
POLYLINE
  5
27BE
330
1E
100
AcDbEntity
  8
0
100
AcDb2dPolyline
 66
     1
 10
0.0
 20
0.0
 30
0.0
  0
VERTEX
  5
2EFD
330
27BE
100
AcDbEntity
  8
0
100
AcDbVertex
100
AcDb2dVertex
 10
3.092519685039369
 20
6.643700787401574
 30
0.0
  0
VERTEX
  5
2EFE
330
27BE
100
AcDbEntity
  8
0
100
AcDbVertex
100
AcDb2dVertex
 10
3.089566929133858
 20
6.650590551181101
 30
0.0
  0
VERTEX
  5
2EFF
330
27BE
100
AcDbEntity
  8
0
100
AcDbVertex
100
AcDb2dVertex
 10
3.081692913385826
 20
6.653543307086613
 30
0.0
  0
SEQEND
  5
2F00
330
27BE
100
AcDbEntity
  8
0
  0
POLYLINE
  5
27C3
330
1E
100
AcDbEntity
  8
0
100
AcDb2dPolyline
 66
     1
 10
0.0
 20
0.0
 30
0.0
  0
VERTEX
  5
2F01
330
27C3
100
AcDbEntity
  8
0
100
AcDbVertex
100
AcDb2dVertex
 10
3.081692913385826
 20
6.294291338582676
 30
0.0
  0
VERTEX
  5
2F02
330
27C3
100
AcDbEntity
  8
0
100
AcDbVertex
100
AcDb2dVertex
 10
3.089566929133858
 20
6.297244094488188
 30
0.0
  0
VERTEX
  5
2F03
330
27C3
100
AcDbEntity
  8
0
100
AcDbVertex
100
AcDb2dVertex
 10
3.092519685039369
 20
6.304133858267716
 30
0.0
  0
SEQEND
  5
2F04
330
27C3
100
AcDbEntity
  8
0
  0
LINE
  5
27C8
330
1E
100
AcDbEntity
  8
0
100
AcDbLine
 10
2.219488188976377
 20
6.764763779527559
 30
0.0
 11
2.219488188976377
 21
6.768700787401574
 31
0.0
  0
LINE
  5
27C9
330
1E
100
AcDbEntity
  8
0
100
AcDbLine
 10
2.523622047244094
 20
6.749015748031496
 30
0.0
 11
2.219488188976377
 21
6.749015748031496
 31
0.0
  0
LINE
  5
27CA
330
1E
100
AcDbEntity
  8
0
100
AcDbLine
 10
2.523622047244094
 20
6.768700787401574
 30
0.0
 11
2.523622047244094
 21
6.764763779527559
 31
0.0
  0
LINE
  5
27CB
330
1E
100
AcDbEntity
  8
0
100
AcDbLine
 10
2.219488188976377
 20
3.946850393700787
 30
0.0
 11
2.523622047244094
 21
3.946850393700787
 31
0.0
  0
POLYLINE
  5
27CC
330
1E
100
AcDbEntity
  8
0
100
AcDb2dPolyline
 66
     1
 10
0.0
 20
0.0
 30
0.0
  0
VERTEX
  5
2F05
330
27CC
100
AcDbEntity
  8
0
100
AcDbVertex
100
AcDb2dVertex
 10
3.179133858267716
 20
3.923228346456692
 30
0.0
  0
VERTEX
  5
2F06
330
27CC
100
AcDbEntity
  8
0
100
AcDbVertex
100
AcDb2dVertex
 10
3.20767716535433
 20
3.928149606299212
 30
0.0
  0
VERTEX
  5
2F07
330
27CC
100
AcDbEntity
  8
0
100
AcDbVertex
100
AcDb2dVertex
 10
3.233267716535432
 20
3.940944881889763
 30
0.0
  0
VERTEX
  5
2F08
330
27CC
100
AcDbEntity
  8
0
100
AcDbVertex
100
AcDb2dVertex
 10
3.252952755905511
 20
3.960629921259842
 30
0.0
  0
VERTEX
  5
2F09
330
27CC
100
AcDbEntity
  8
0
100
AcDbVertex
100
AcDb2dVertex
 10
3.266732283464566
 20
3.986220472440944
 30
0.0
  0
VERTEX
  5
2F0A
330
27CC
100
AcDbEntity
  8
0
100
AcDbVertex
100
AcDb2dVertex
 10
3.270669291338582
 20
4.014763779527559
 30
0.0
  0
SEQEND
  5
2F0B
330
27CC
100
AcDbEntity
  8
0
  0
POLYLINE
  5
27D4
330
1E
100
AcDbEntity
  8
0
100
AcDb2dPolyline
 66
     1
 10
0.0
 20
0.0
 30
0.0
  0
VERTEX
  5
2F0C
330
27D4
100
AcDbEntity
  8
0
100
AcDbVertex
100
AcDb2dVertex
 10
3.270669291338582
 20
6.68011811023622
 30
0.0
  0
VERTEX
  5
2F0D
330
27D4
100
AcDbEntity
  8
0
100
AcDbVertex
100
AcDb2dVertex
 10
3.266732283464566
 20
6.708661417322834
 30
0.0
  0
VERTEX
  5
2F0E
330
27D4
100
AcDbEntity
  8
0
100
AcDbVertex
100
AcDb2dVertex
 10
3.252952755905511
 20
6.734251968503937
 30
0.0
  0
VERTEX
  5
2F0F
330
27D4
100
AcDbEntity
  8
0
100
AcDbVertex
100
AcDb2dVertex
 10
3.233267716535432
 20
6.753937007874015
 30
0.0
  0
VERTEX
  5
2F10
330
27D4
100
AcDbEntity
  8
0
100
AcDbVertex
100
AcDb2dVertex
 10
3.20767716535433
 20
6.76771653543307
 30
0.0
  0
VERTEX
  5
2F11
330
27D4
100
AcDbEntity
  8
0
100
AcDbVertex
100
AcDb2dVertex
 10
3.179133858267716
 20
6.771653543307086
 30
0.0
  0
SEQEND
  5
2F12
330
27D4
100
AcDbEntity
  8
0
  0
POLYLINE
  5
27DC
330
1E
100
AcDbEntity
  8
0
100
AcDb2dPolyline
 66
     1
 10
0.0
 20
0.0
 30
0.0
  0
VERTEX
  5
2F13
330
27DC
100
AcDbEntity
  8
0
100
AcDbVertex
100
AcDb2dVertex
 10
1.563976377952755
 20
6.771653543307086
 30
0.0
  0
VERTEX
  5
2F14
330
27DC
100
AcDbEntity
  8
0
100
AcDbVertex
100
AcDb2dVertex
 10
1.535433070866141
 20
6.76771653543307
 30
0.0
  0
VERTEX
  5
2F15
330
27DC
100
AcDbEntity
  8
0
100
AcDbVertex
100
AcDb2dVertex
 10
1.509842519685039
 20
6.753937007874015
 30
0.0
  0
VERTEX
  5
2F16
330
27DC
100
AcDbEntity
  8
0
100
AcDbVertex
100
AcDb2dVertex
 10
1.49015748031496
 20
6.734251968503937
 30
0.0
  0
VERTEX
  5
2F17
330
27DC
100
AcDbEntity
  8
0
100
AcDbVertex
100
AcDb2dVertex
 10
1.477362204724409
 20
6.708661417322834
 30
0.0
  0
VERTEX
  5
2F18
330
27DC
100
AcDbEntity
  8
0
100
AcDbVertex
100
AcDb2dVertex
 10
1.472440944881889
 20
6.68011811023622
 30
0.0
  0
SEQEND
  5
2F19
330
27DC
100
AcDbEntity
  8
0
  0
POLYLINE
  5
27E4
330
1E
100
AcDbEntity
  8
0
100
AcDb2dPolyline
 66
     1
 10
0.0
 20
0.0
 30
0.0
  0
VERTEX
  5
2F1A
330
27E4
100
AcDbEntity
  8
0
100
AcDbVertex
100
AcDb2dVertex
 10
1.472440944881889
 20
4.014763779527559
 30
0.0
  0
VERTEX
  5
2F1B
330
27E4
100
AcDbEntity
  8
0
100
AcDbVertex
100
AcDb2dVertex
 10
1.477362204724409
 20
3.986220472440944
 30
0.0
  0
VERTEX
  5
2F1C
330
27E4
100
AcDbEntity
  8
0
100
AcDbVertex
100
AcDb2dVertex
 10
1.49015748031496
 20
3.960629921259842
 30
0.0
  0
VERTEX
  5
2F1D
330
27E4
100
AcDbEntity
  8
0
100
AcDbVertex
100
AcDb2dVertex
 10
1.509842519685039
 20
3.940944881889763
 30
0.0
  0
VERTEX
  5
2F1E
330
27E4
100
AcDbEntity
  8
0
100
AcDbVertex
100
AcDb2dVertex
 10
1.535433070866141
 20
3.928149606299212
 30
0.0
  0
VERTEX
  5
2F1F
330
27E4
100
AcDbEntity
  8
0
100
AcDbVertex
100
AcDb2dVertex
 10
1.563976377952755
 20
3.923228346456692
 30
0.0
  0
SEQEND
  5
2F20
330
27E4
100
AcDbEntity
  8
0
  0
POLYLINE
  5
27EC
330
1E
100
AcDbEntity
  8
0
100
AcDb2dPolyline
 66
     1
 10
0.0
 20
0.0
 30
0.0
  0
VERTEX
  5
2F21
330
27EC
100
AcDbEntity
  8
0
100
AcDbVertex
100
AcDb2dVertex
 10
1.563976377952755
 20
6.771653543307086
 30
0.0
  0
VERTEX
  5
2F22
330
27EC
100
AcDbEntity
  8
0
100
AcDbVertex
100
AcDb2dVertex
 10
1.535433070866141
 20
6.76771653543307
 30
0.0
  0
VERTEX
  5
2F23
330
27EC
100
AcDbEntity
  8
0
100
AcDbVertex
100
AcDb2dVertex
 10
1.509842519685039
 20
6.753937007874015
 30
0.0
  0
VERTEX
  5
2F24
330
27EC
100
AcDbEntity
  8
0
100
AcDbVertex
100
AcDb2dVertex
 10
1.49015748031496
 20
6.734251968503937
 30
0.0
  0
VERTEX
  5
2F25
330
27EC
100
AcDbEntity
  8
0
100
AcDbVertex
100
AcDb2dVertex
 10
1.477362204724409
 20
6.708661417322834
 30
0.0
  0
VERTEX
  5
2F26
330
27EC
100
AcDbEntity
  8
0
100
AcDbVertex
100
AcDb2dVertex
 10
1.472440944881889
 20
6.68011811023622
 30
0.0
  0
SEQEND
  5
2F27
330
27EC
100
AcDbEntity
  8
0
  0
POLYLINE
  5
27F4
330
1E
100
AcDbEntity
  8
0
100
AcDb2dPolyline
 66
     1
 10
0.0
 20
0.0
 30
0.0
  0
VERTEX
  5
2F28
330
27F4
100
AcDbEntity
  8
0
100
AcDbVertex
100
AcDb2dVertex
 10
1.472440944881889
 20
4.014763779527559
 30
0.0
  0
VERTEX
  5
2F29
330
27F4
100
AcDbEntity
  8
0
100
AcDbVertex
100
AcDb2dVertex
 10
1.477362204724409
 20
3.986220472440944
 30
0.0
  0
VERTEX
  5
2F2A
330
27F4
100
AcDbEntity
  8
0
100
AcDbVertex
100
AcDb2dVertex
 10
1.49015748031496
 20
3.960629921259842
 30
0.0
  0
VERTEX
  5
2F2B
330
27F4
100
AcDbEntity
  8
0
100
AcDbVertex
100
AcDb2dVertex
 10
1.509842519685039
 20
3.940944881889763
 30
0.0
  0
VERTEX
  5
2F2C
330
27F4
100
AcDbEntity
  8
0
100
AcDbVertex
100
AcDb2dVertex
 10
1.535433070866141
 20
3.928149606299212
 30
0.0
  0
VERTEX
  5
2F2D
330
27F4
100
AcDbEntity
  8
0
100
AcDbVertex
100
AcDb2dVertex
 10
1.563976377952755
 20
3.923228346456692
 30
0.0
  0
SEQEND
  5
2F2E
330
27F4
100
AcDbEntity
  8
0
  0
LINE
  5
27FC
330
1E
100
AcDbEntity
  8
0
100
AcDbLine
 10
2.210629921259842
 20
3.924212598425196
 30
0.0
 11
1.564960629921259
 21
3.924212598425196
 31
0.0
  0
LINE
  5
27FD
330
1E
100
AcDbEntity
  8
0
100
AcDbLine
 10
1.563976377952755
 20
3.923228346456692
 30
0.0
 11
1.564960629921259
 21
3.924212598425196
 31
0.0
  0
LINE
  5
27FE
330
1E
100
AcDbEntity
  8
0
100
AcDbLine
 10
1.473425196850393
 20
4.015748031496062
 30
0.0
 11
1.472440944881889
 21
4.014763779527559
 31
0.0
  0
LINE
  5
27FF
330
1E
100
AcDbEntity
  8
0
100
AcDbLine
 10
1.473425196850393
 20
4.015748031496062
 30
0.0
 11
1.473425196850393
 21
6.679133858267716
 31
0.0
  0
LINE
  5
2800
330
1E
100
AcDbEntity
  8
0
100
AcDbLine
 10
1.472440944881889
 20
6.68011811023622
 30
0.0
 11
1.473425196850393
 21
6.679133858267716
 31
0.0
  0
POLYLINE
  5
2801
330
1E
100
AcDbEntity
  8
0
100
AcDb2dPolyline
 66
     1
 10
0.0
 20
0.0
 30
0.0
  0
VERTEX
  5
2F2F
330
2801
100
AcDbEntity
  8
0
100
AcDbVertex
100
AcDb2dVertex
 10
1.564960629921259
 20
3.924212598425196
 30
0.0
  0
VERTEX
  5
2F30
330
2801
100
AcDbEntity
  8
0
100
AcDbVertex
100
AcDb2dVertex
 10
1.536417322834645
 20
3.928149606299212
 30
0.0
  0
VERTEX
  5
2F31
330
2801
100
AcDbEntity
  8
0
100
AcDbVertex
100
AcDb2dVertex
 10
1.510826771653543
 20
3.941929133858267
 30
0.0
  0
VERTEX
  5
2F32
330
2801
100
AcDbEntity
  8
0
100
AcDbVertex
100
AcDb2dVertex
 10
1.491141732283464
 20
3.961614173228346
 30
0.0
  0
VERTEX
  5
2F33
330
2801
100
AcDbEntity
  8
0
100
AcDbVertex
100
AcDb2dVertex
 10
1.477362204724409
 20
3.987204724409448
 30
0.0
  0
VERTEX
  5
2F34
330
2801
100
AcDbEntity
  8
0
100
AcDbVertex
100
AcDb2dVertex
 10
1.473425196850393
 20
4.015748031496062
 30
0.0
  0
SEQEND
  5
2F35
330
2801
100
AcDbEntity
  8
0
  0
LINE
  5
2809
330
1E
100
AcDbEntity
  8
0
100
AcDbLine
 10
1.564960629921259
 20
6.770669291338582
 30
0.0
 11
1.563976377952755
 21
6.771653543307086
 31
0.0
  0
LINE
  5
280A
330
1E
100
AcDbEntity
  8
0
100
AcDbLine
 10
1.564960629921259
 20
6.770669291338582
 30
0.0
 11
2.210629921259842
 21
6.770669291338582
 31
0.0
  0
POLYLINE
  5
280B
330
1E
100
AcDbEntity
  8
0
100
AcDb2dPolyline
 66
     1
 10
0.0
 20
0.0
 30
0.0
  0
VERTEX
  5
2F36
330
280B
100
AcDbEntity
  8
0
100
AcDbVertex
100
AcDb2dVertex
 10
1.473425196850393
 20
6.679133858267716
 30
0.0
  0
VERTEX
  5
2F37
330
280B
100
AcDbEntity
  8
0
100
AcDbVertex
100
AcDb2dVertex
 10
1.477362204724409
 20
6.70767716535433
 30
0.0
  0
VERTEX
  5
2F38
330
280B
100
AcDbEntity
  8
0
100
AcDbVertex
100
AcDb2dVertex
 10
1.491141732283464
 20
6.733267716535433
 30
0.0
  0
VERTEX
  5
2F39
330
280B
100
AcDbEntity
  8
0
100
AcDbVertex
100
AcDb2dVertex
 10
1.510826771653543
 20
6.753937007874015
 30
0.0
  0
VERTEX
  5
2F3A
330
280B
100
AcDbEntity
  8
0
100
AcDbVertex
100
AcDb2dVertex
 10
1.536417322834645
 20
6.766732283464566
 30
0.0
  0
VERTEX
  5
2F3B
330
280B
100
AcDbEntity
  8
0
100
AcDbVertex
100
AcDb2dVertex
 10
1.564960629921259
 20
6.770669291338582
 30
0.0
  0
SEQEND
  5
2F3C
330
280B
100
AcDbEntity
  8
0
  0
LINE
  5
2813
330
1E
100
AcDbEntity
  8
0
100
AcDbLine
 10
3.178149606299212
 20
3.924212598425196
 30
0.0
 11
3.179133858267716
 21
3.923228346456692
 31
0.0
  0
LINE
  5
2814
330
1E
100
AcDbEntity
  8
0
100
AcDbLine
 10
3.178149606299212
 20
3.924212598425196
 30
0.0
 11
2.53248031496063
 21
3.924212598425196
 31
0.0
  0
LINE
  5
2815
330
1E
100
AcDbEntity
  8
0
100
AcDbLine
 10
2.53248031496063
 20
6.770669291338582
 30
0.0
 11
3.178149606299212
 21
6.770669291338582
 31
0.0
  0
LINE
  5
2816
330
1E
100
AcDbEntity
  8
0
100
AcDbLine
 10
3.179133858267716
 20
6.771653543307086
 30
0.0
 11
3.178149606299212
 21
6.770669291338582
 31
0.0
  0
POLYLINE
  5
2817
330
1E
100
AcDbEntity
  8
0
100
AcDb2dPolyline
 66
     1
 10
0.0
 20
0.0
 30
0.0
  0
VERTEX
  5
2F3D
330
2817
100
AcDbEntity
  8
0
100
AcDbVertex
100
AcDb2dVertex
 10
3.179133858267716
 20
3.923228346456692
 30
0.0
  0
VERTEX
  5
2F3E
330
2817
100
AcDbEntity
  8
0
100
AcDbVertex
100
AcDb2dVertex
 10
3.20767716535433
 20
3.928149606299212
 30
0.0
  0
VERTEX
  5
2F3F
330
2817
100
AcDbEntity
  8
0
100
AcDbVertex
100
AcDb2dVertex
 10
3.233267716535432
 20
3.940944881889763
 30
0.0
  0
VERTEX
  5
2F40
330
2817
100
AcDbEntity
  8
0
100
AcDbVertex
100
AcDb2dVertex
 10
3.252952755905511
 20
3.960629921259842
 30
0.0
  0
VERTEX
  5
2F41
330
2817
100
AcDbEntity
  8
0
100
AcDbVertex
100
AcDb2dVertex
 10
3.266732283464566
 20
3.986220472440944
 30
0.0
  0
VERTEX
  5
2F42
330
2817
100
AcDbEntity
  8
0
100
AcDbVertex
100
AcDb2dVertex
 10
3.270669291338582
 20
4.014763779527559
 30
0.0
  0
SEQEND
  5
2F43
330
2817
100
AcDbEntity
  8
0
  0
POLYLINE
  5
281F
330
1E
100
AcDbEntity
  8
0
100
AcDb2dPolyline
 66
     1
 10
0.0
 20
0.0
 30
0.0
  0
VERTEX
  5
2F44
330
281F
100
AcDbEntity
  8
0
100
AcDbVertex
100
AcDb2dVertex
 10
3.270669291338582
 20
6.68011811023622
 30
0.0
  0
VERTEX
  5
2F45
330
281F
100
AcDbEntity
  8
0
100
AcDbVertex
100
AcDb2dVertex
 10
3.266732283464566
 20
6.708661417322834
 30
0.0
  0
VERTEX
  5
2F46
330
281F
100
AcDbEntity
  8
0
100
AcDbVertex
100
AcDb2dVertex
 10
3.252952755905511
 20
6.734251968503937
 30
0.0
  0
VERTEX
  5
2F47
330
281F
100
AcDbEntity
  8
0
100
AcDbVertex
100
AcDb2dVertex
 10
3.233267716535432
 20
6.753937007874015
 30
0.0
  0
VERTEX
  5
2F48
330
281F
100
AcDbEntity
  8
0
100
AcDbVertex
100
AcDb2dVertex
 10
3.20767716535433
 20
6.76771653543307
 30
0.0
  0
VERTEX
  5
2F49
330
281F
100
AcDbEntity
  8
0
100
AcDbVertex
100
AcDb2dVertex
 10
3.179133858267716
 20
6.771653543307086
 30
0.0
  0
SEQEND
  5
2F4A
330
281F
100
AcDbEntity
  8
0
  0
LINE
  5
2827
330
1E
100
AcDbEntity
  8
0
100
AcDbLine
 10
3.269685039370078
 20
6.679133858267716
 30
0.0
 11
3.270669291338582
 21
6.68011811023622
 31
0.0
  0
LINE
  5
2828
330
1E
100
AcDbEntity
  8
0
100
AcDbLine
 10
3.269685039370078
 20
6.679133858267716
 30
0.0
 11
3.269685039370078
 21
4.015748031496062
 31
0.0
  0
LINE
  5
2829
330
1E
100
AcDbEntity
  8
0
100
AcDbLine
 10
3.270669291338582
 20
4.014763779527559
 30
0.0
 11
3.269685039370078
 21
4.015748031496062
 31
0.0
  0
POLYLINE
  5
282A
330
1E
100
AcDbEntity
  8
0
100
AcDb2dPolyline
 66
     1
 10
0.0
 20
0.0
 30
0.0
  0
VERTEX
  5
2F4B
330
282A
100
AcDbEntity
  8
0
100
AcDbVertex
100
AcDb2dVertex
 10
3.269685039370078
 20
4.015748031496062
 30
0.0
  0
VERTEX
  5
2F4C
330
282A
100
AcDbEntity
  8
0
100
AcDbVertex
100
AcDb2dVertex
 10
3.265748031496062
 20
3.987204724409448
 30
0.0
  0
VERTEX
  5
2F4D
330
282A
100
AcDbEntity
  8
0
100
AcDbVertex
100
AcDb2dVertex
 10
3.252952755905511
 20
3.961614173228346
 30
0.0
  0
VERTEX
  5
2F4E
330
282A
100
AcDbEntity
  8
0
100
AcDbVertex
100
AcDb2dVertex
 10
3.232283464566929
 20
3.941929133858267
 30
0.0
  0
VERTEX
  5
2F4F
330
282A
100
AcDbEntity
  8
0
100
AcDbVertex
100
AcDb2dVertex
 10
3.206692913385826
 20
3.928149606299212
 30
0.0
  0
VERTEX
  5
2F50
330
282A
100
AcDbEntity
  8
0
100
AcDbVertex
100
AcDb2dVertex
 10
3.178149606299212
 20
3.924212598425196
 30
0.0
  0
SEQEND
  5
2F51
330
282A
100
AcDbEntity
  8
0
  0
POLYLINE
  5
2832
330
1E
100
AcDbEntity
  8
0
100
AcDb2dPolyline
 66
     1
 10
0.0
 20
0.0
 30
0.0
  0
VERTEX
  5
2F52
330
2832
100
AcDbEntity
  8
0
100
AcDbVertex
100
AcDb2dVertex
 10
3.178149606299212
 20
6.770669291338582
 30
0.0
  0
VERTEX
  5
2F53
330
2832
100
AcDbEntity
  8
0
100
AcDbVertex
100
AcDb2dVertex
 10
3.206692913385826
 20
6.766732283464566
 30
0.0
  0
VERTEX
  5
2F54
330
2832
100
AcDbEntity
  8
0
100
AcDbVertex
100
AcDb2dVertex
 10
3.232283464566929
 20
6.753937007874015
 30
0.0
  0
VERTEX
  5
2F55
330
2832
100
AcDbEntity
  8
0
100
AcDbVertex
100
AcDb2dVertex
 10
3.252952755905511
 20
6.733267716535433
 30
0.0
  0
VERTEX
  5
2F56
330
2832
100
AcDbEntity
  8
0
100
AcDbVertex
100
AcDb2dVertex
 10
3.265748031496062
 20
6.70767716535433
 30
0.0
  0
VERTEX
  5
2F57
330
2832
100
AcDbEntity
  8
0
100
AcDbVertex
100
AcDb2dVertex
 10
3.269685039370078
 20
6.679133858267716
 30
0.0
  0
SEQEND
  5
2F58
330
2832
100
AcDbEntity
  8
0
  0
POLYLINE
  5
283A
330
1E
100
AcDbEntity
  8
0
100
AcDb2dPolyline
 66
     1
 10
0.0
 20
0.0
 30
0.0
  0
VERTEX
  5
2F59
330
283A
100
AcDbEntity
  8
0
100
AcDbVertex
100
AcDb2dVertex
 10
1.564960629921259
 20
3.924212598425196
 30
0.0
  0
VERTEX
  5
2F5A
330
283A
100
AcDbEntity
  8
0
100
AcDbVertex
100
AcDb2dVertex
 10
1.564960629921259
 20
3.93011811023622
 30
0.0
  0
VERTEX
  5
2F5B
330
283A
100
AcDbEntity
  8
0
100
AcDbVertex
100
AcDb2dVertex
 10
1.564960629921259
 20
3.943897637795275
 30
0.0
  0
SEQEND
  5
2F5C
330
283A
100
AcDbEntity
  8
0
  0
POLYLINE
  5
283F
330
1E
100
AcDbEntity
  8
0
100
AcDb2dPolyline
 66
     1
 10
0.0
 20
0.0
 30
0.0
  0
VERTEX
  5
2F5D
330
283F
100
AcDbEntity
  8
0
100
AcDbVertex
100
AcDb2dVertex
 10
1.473425196850393
 20
4.015748031496062
 30
0.0
  0
VERTEX
  5
2F5E
330
283F
100
AcDbEntity
  8
0
100
AcDbVertex
100
AcDb2dVertex
 10
1.479330708661417
 20
4.015748031496062
 30
0.0
  0
VERTEX
  5
2F5F
330
283F
100
AcDbEntity
  8
0
100
AcDbVertex
100
AcDb2dVertex
 10
1.493110236220472
 20
4.015748031496062
 30
0.0
  0
SEQEND
  5
2F60
330
283F
100
AcDbEntity
  8
0
  0
POLYLINE
  5
2844
330
1E
100
AcDbEntity
  8
0
100
AcDb2dPolyline
 66
     1
 10
0.0
 20
0.0
 30
0.0
  0
VERTEX
  5
2F61
330
2844
100
AcDbEntity
  8
0
100
AcDbVertex
100
AcDb2dVertex
 10
1.473425196850393
 20
6.679133858267716
 30
0.0
  0
VERTEX
  5
2F62
330
2844
100
AcDbEntity
  8
0
100
AcDbVertex
100
AcDb2dVertex
 10
1.479330708661417
 20
6.679133858267716
 30
0.0
  0
VERTEX
  5
2F63
330
2844
100
AcDbEntity
  8
0
100
AcDbVertex
100
AcDb2dVertex
 10
1.493110236220472
 20
6.679133858267716
 30
0.0
  0
SEQEND
  5
2F64
330
2844
100
AcDbEntity
  8
0
  0
POLYLINE
  5
2849
330
1E
100
AcDbEntity
  8
0
100
AcDb2dPolyline
 66
     1
 10
0.0
 20
0.0
 30
0.0
  0
VERTEX
  5
2F65
330
2849
100
AcDbEntity
  8
0
100
AcDbVertex
100
AcDb2dVertex
 10
1.564960629921259
 20
6.770669291338582
 30
0.0
  0
VERTEX
  5
2F66
330
2849
100
AcDbEntity
  8
0
100
AcDbVertex
100
AcDb2dVertex
 10
1.564960629921259
 20
6.764763779527559
 30
0.0
  0
VERTEX
  5
2F67
330
2849
100
AcDbEntity
  8
0
100
AcDbVertex
100
AcDb2dVertex
 10
1.564960629921259
 20
6.750984251968503
 30
0.0
  0
SEQEND
  5
2F68
330
2849
100
AcDbEntity
  8
0
  0
POLYLINE
  5
284E
330
1E
100
AcDbEntity
  8
0
100
AcDb2dPolyline
 66
     1
 10
0.0
 20
0.0
 30
0.0
  0
VERTEX
  5
2F69
330
284E
100
AcDbEntity
  8
0
100
AcDbVertex
100
AcDb2dVertex
 10
3.178149606299212
 20
3.943897637795275
 30
0.0
  0
VERTEX
  5
2F6A
330
284E
100
AcDbEntity
  8
0
100
AcDbVertex
100
AcDb2dVertex
 10
3.178149606299212
 20
3.93011811023622
 30
0.0
  0
VERTEX
  5
2F6B
330
284E
100
AcDbEntity
  8
0
100
AcDbVertex
100
AcDb2dVertex
 10
3.178149606299212
 20
3.924212598425196
 30
0.0
  0
SEQEND
  5
2F6C
330
284E
100
AcDbEntity
  8
0
  0
POLYLINE
  5
2853
330
1E
100
AcDbEntity
  8
0
100
AcDb2dPolyline
 66
     1
 10
0.0
 20
0.0
 30
0.0
  0
VERTEX
  5
2F6D
330
2853
100
AcDbEntity
  8
0
100
AcDbVertex
100
AcDb2dVertex
 10
3.25
 20
4.015748031496062
 30
0.0
  0
VERTEX
  5
2F6E
330
2853
100
AcDbEntity
  8
0
100
AcDbVertex
100
AcDb2dVertex
 10
3.263779527559055
 20
4.015748031496062
 30
0.0
  0
VERTEX
  5
2F6F
330
2853
100
AcDbEntity
  8
0
100
AcDbVertex
100
AcDb2dVertex
 10
3.269685039370078
 20
4.015748031496062
 30
0.0
  0
SEQEND
  5
2F70
330
2853
100
AcDbEntity
  8
0
  0
POLYLINE
  5
2858
330
1E
100
AcDbEntity
  8
0
100
AcDb2dPolyline
 66
     1
 10
0.0
 20
0.0
 30
0.0
  0
VERTEX
  5
2F71
330
2858
100
AcDbEntity
  8
0
100
AcDbVertex
100
AcDb2dVertex
 10
3.25
 20
6.679133858267716
 30
0.0
  0
VERTEX
  5
2F72
330
2858
100
AcDbEntity
  8
0
100
AcDbVertex
100
AcDb2dVertex
 10
3.263779527559055
 20
6.679133858267716
 30
0.0
  0
VERTEX
  5
2F73
330
2858
100
AcDbEntity
  8
0
100
AcDbVertex
100
AcDb2dVertex
 10
3.269685039370078
 20
6.679133858267716
 30
0.0
  0
SEQEND
  5
2F74
330
2858
100
AcDbEntity
  8
0
  0
POLYLINE
  5
285D
330
1E
100
AcDbEntity
  8
0
100
AcDb2dPolyline
 66
     1
 10
0.0
 20
0.0
 30
0.0
  0
VERTEX
  5
2F75
330
285D
100
AcDbEntity
  8
0
100
AcDbVertex
100
AcDb2dVertex
 10
3.178149606299212
 20
6.750984251968503
 30
0.0
  0
VERTEX
  5
2F76
330
285D
100
AcDbEntity
  8
0
100
AcDbVertex
100
AcDb2dVertex
 10
3.178149606299212
 20
6.764763779527559
 30
0.0
  0
VERTEX
  5
2F77
330
285D
100
AcDbEntity
  8
0
100
AcDbVertex
100
AcDb2dVertex
 10
3.178149606299212
 20
6.770669291338582
 30
0.0
  0
SEQEND
  5
2F78
330
285D
100
AcDbEntity
  8
0
  0
LINE
  5
2862
330
1E
100
AcDbEntity
  8
0
100
AcDbLine
 10
4.688976377952755
 20
4.76279527559055
 30
0.0
 11
5.222440944881889
 21
5.295275590551181
 31
0.0
  0
LINE
  5
2863
330
1E
100
AcDbEntity
  8
0
100
AcDbLine
 10
5.222440944881889
 20
5.168307086614173
 30
0.0
 11
4.75
 21
4.696850393700787
 31
0.0
  0
LINE
  5
2864
330
1E
100
AcDbEntity
  8
0
100
AcDbLine
 10
4.75
 20
4.696850393700787
 30
0.0
 11
5.222440944881889
 21
4.225393700787401
 31
0.0
  0
LINE
  5
2865
330
1E
100
AcDbEntity
  8
0
100
AcDbLine
 10
5.222440944881889
 20
4.098425196850393
 30
0.0
 11
4.688976377952755
 21
4.630905511811023
 31
0.0
  0
LINE
  5
2866
330
1E
100
AcDbEntity
  8
0
100
AcDbLine
 10
5.622047244094487
 20
4.281496062992125
 30
0.0
 11
5.627952755905512
 21
4.26279527559055
 31
0.0
  0
LINE
  5
2867
330
1E
100
AcDbEntity
  8
0
100
AcDbLine
 10
5.627952755905512
 20
4.26279527559055
 30
0.0
 11
5.627952755905512
 21
4.202755905511811
 31
0.0
  0
LINE
  5
2868
330
1E
100
AcDbEntity
  8
0
100
AcDbLine
 10
5.622047244094487
 20
4.164370078740157
 30
0.0
 11
5.627952755905512
 21
4.202755905511811
 31
0.0
  0
LINE
  5
2869
330
1E
100
AcDbEntity
  8
0
100
AcDbLine
 10
5.74015748031496
 20
4.845472440944881
 30
0.0
 11
5.622047244094487
 21
4.849409448818897
 31
0.0
  0
LINE
  5
286A
330
1E
100
AcDbEntity
  8
0
100
AcDbLine
 10
5.74015748031496
 20
4.548228346456692
 30
0.0
 11
5.622047244094487
 21
4.544291338582676
 31
0.0
  0
LINE
  5
286B
330
1E
100
AcDbEntity
  8
0
100
AcDbLine
 10
5.74015748031496
 20
4.845472440944881
 30
0.0
 11
5.74015748031496
 21
4.548228346456692
 31
0.0
  0
POLYLINE
  5
286C
330
1E
100
AcDbEntity
  8
0
100
AcDb2dPolyline
 66
     1
 10
0.0
 20
0.0
 30
0.0
  0
VERTEX
  5
2F79
330
286C
100
AcDbEntity
  8
0
100
AcDbVertex
100
AcDb2dVertex
 10
4.688976377952755
 20
4.630905511811023
 30
0.0
  0
VERTEX
  5
2F7A
330
286C
100
AcDbEntity
  8
0
100
AcDbVertex
100
AcDb2dVertex
 10
4.672244094488188
 20
4.654527559055117
 30
0.0
  0
VERTEX
  5
2F7B
330
286C
100
AcDbEntity
  8
0
100
AcDbVertex
100
AcDb2dVertex
 10
4.663385826771653
 20
4.682086614173228
 30
0.0
  0
VERTEX
  5
2F7C
330
286C
100
AcDbEntity
  8
0
100
AcDbVertex
100
AcDb2dVertex
 10
4.663385826771653
 20
4.711614173228346
 30
0.0
  0
VERTEX
  5
2F7D
330
286C
100
AcDbEntity
  8
0
100
AcDbVertex
100
AcDb2dVertex
 10
4.672244094488188
 20
4.739173228346456
 30
0.0
  0
VERTEX
  5
2F7E
330
286C
100
AcDbEntity
  8
0
100
AcDbVertex
100
AcDb2dVertex
 10
4.688976377952755
 20
4.76279527559055
 30
0.0
  0
SEQEND
  5
2F7F
330
286C
100
AcDbEntity
  8
0
  0
POLYLINE
  5
2874
330
1E
100
AcDbEntity
  8
0
100
AcDb2dPolyline
 66
     1
 10
0.0
 20
0.0
 30
0.0
  0
VERTEX
  5
2F80
330
2874
100
AcDbEntity
  8
0
100
AcDbVertex
100
AcDb2dVertex
 10
4.75
 20
4.696850393700787
 30
0.0
  0
VERTEX
  5
2F81
330
2874
100
AcDbEntity
  8
0
100
AcDbVertex
100
AcDb2dVertex
 10
4.730314960629921
 20
4.716535433070865
 30
0.0
  0
VERTEX
  5
2F82
330
2874
100
AcDbEntity
  8
0
100
AcDbVertex
100
AcDb2dVertex
 10
4.713582677165354
 20
4.734251968503937
 30
0.0
  0
VERTEX
  5
2F83
330
2874
100
AcDbEntity
  8
0
100
AcDbVertex
100
AcDb2dVertex
 10
4.699803149606299
 20
4.749015748031496
 30
0.0
  0
VERTEX
  5
2F84
330
2874
100
AcDbEntity
  8
0
100
AcDbVertex
100
AcDb2dVertex
 10
4.691929133858267
 20
4.758858267716535
 30
0.0
  0
VERTEX
  5
2F85
330
2874
100
AcDbEntity
  8
0
100
AcDbVertex
100
AcDb2dVertex
 10
4.688976377952755
 20
4.76279527559055
 30
0.0
  0
SEQEND
  5
2F86
330
2874
100
AcDbEntity
  8
0
  0
POLYLINE
  5
287C
330
1E
100
AcDbEntity
  8
0
100
AcDb2dPolyline
 66
     1
 10
0.0
 20
0.0
 30
0.0
  0
VERTEX
  5
2F87
330
287C
100
AcDbEntity
  8
0
100
AcDbVertex
100
AcDb2dVertex
 10
4.75
 20
4.696850393700787
 30
0.0
  0
VERTEX
  5
2F88
330
287C
100
AcDbEntity
  8
0
100
AcDbVertex
100
AcDb2dVertex
 10
4.730314960629921
 20
4.677165354330708
 30
0.0
  0
VERTEX
  5
2F89
330
287C
100
AcDbEntity
  8
0
100
AcDbVertex
100
AcDb2dVertex
 10
4.713582677165354
 20
4.658464566929133
 30
0.0
  0
VERTEX
  5
2F8A
330
287C
100
AcDbEntity
  8
0
100
AcDbVertex
100
AcDb2dVertex
 10
4.699803149606299
 20
4.644685039370078
 30
0.0
  0
VERTEX
  5
2F8B
330
287C
100
AcDbEntity
  8
0
100
AcDbVertex
100
AcDb2dVertex
 10
4.691929133858267
 20
4.634842519685038
 30
0.0
  0
VERTEX
  5
2F8C
330
287C
100
AcDbEntity
  8
0
100
AcDbVertex
100
AcDb2dVertex
 10
4.688976377952755
 20
4.630905511811023
 30
0.0
  0
SEQEND
  5
2F8D
330
287C
100
AcDbEntity
  8
0
  0
LINE
  5
2884
330
1E
100
AcDbEntity
  8
0
100
AcDbLine
 10
5.622047244094487
 20
4.0
 30
0.0
 11
5.622047244094487
 21
6.694881889763779
 31
0.0
  0
POLYLINE
  5
2885
330
1E
100
AcDbEntity
  8
0
100
AcDb2dPolyline
 66
     1
 10
0.0
 20
0.0
 30
0.0
  0
VERTEX
  5
2F8E
330
2885
100
AcDbEntity
  8
0
100
AcDbVertex
100
AcDb2dVertex
 10
5.622047244094487
 20
4.0
 30
0.0
  0
VERTEX
  5
2F8F
330
2885
100
AcDbEntity
  8
0
100
AcDbVertex
100
AcDb2dVertex
 10
5.622047244094487
 20
3.961614173228346
 30
0.0
  0
VERTEX
  5
2F90
330
2885
100
AcDbEntity
  8
0
100
AcDbVertex
100
AcDb2dVertex
 10
5.622047244094487
 20
3.926181102362204
 30
0.0
  0
VERTEX
  5
2F91
330
2885
100
AcDbEntity
  8
0
100
AcDbVertex
100
AcDb2dVertex
 10
5.622047244094487
 20
3.893700787401574
 30
0.0
  0
VERTEX
  5
2F92
330
2885
100
AcDbEntity
  8
0
100
AcDbVertex
100
AcDb2dVertex
 10
5.622047244094487
 20
3.867125984251968
 30
0.0
  0
VERTEX
  5
2F93
330
2885
100
AcDbEntity
  8
0
100
AcDbVertex
100
AcDb2dVertex
 10
5.622047244094487
 20
3.846456692913385
 30
0.0
  0
VERTEX
  5
2F94
330
2885
100
AcDbEntity
  8
0
100
AcDbVertex
100
AcDb2dVertex
 10
5.622047244094487
 20
3.834645669291338
 30
0.0
  0
VERTEX
  5
2F95
330
2885
100
AcDbEntity
  8
0
100
AcDbVertex
100
AcDb2dVertex
 10
5.622047244094487
 20
3.829724409448818
 30
0.0
  0
SEQEND
  5
2F96
330
2885
100
AcDbEntity
  8
0
  0
POLYLINE
  5
288F
330
1E
100
AcDbEntity
  8
0
100
AcDb2dPolyline
 66
     1
 10
0.0
 20
0.0
 30
0.0
  0
VERTEX
  5
2F97
330
288F
100
AcDbEntity
  8
0
100
AcDbVertex
100
AcDb2dVertex
 10
5.622047244094487
 20
6.86515748031496
 30
0.0
  0
VERTEX
  5
2F98
330
288F
100
AcDbEntity
  8
0
100
AcDbVertex
100
AcDb2dVertex
 10
5.622047244094487
 20
6.861220472440944
 30
0.0
  0
VERTEX
  5
2F99
330
288F
100
AcDbEntity
  8
0
100
AcDbVertex
100
AcDb2dVertex
 10
5.622047244094487
 20
6.848425196850393
 30
0.0
  0
VERTEX
  5
2F9A
330
288F
100
AcDbEntity
  8
0
100
AcDbVertex
100
AcDb2dVertex
 10
5.622047244094487
 20
6.827755905511811
 30
0.0
  0
VERTEX
  5
2F9B
330
288F
100
AcDbEntity
  8
0
100
AcDbVertex
100
AcDb2dVertex
 10
5.622047244094487
 20
6.801181102362204
 30
0.0
  0
VERTEX
  5
2F9C
330
288F
100
AcDbEntity
  8
0
100
AcDbVertex
100
AcDb2dVertex
 10
5.622047244094487
 20
6.768700787401574
 30
0.0
  0
VERTEX
  5
2F9D
330
288F
100
AcDbEntity
  8
0
100
AcDbVertex
100
AcDb2dVertex
 10
5.622047244094487
 20
6.733267716535433
 30
0.0
  0
VERTEX
  5
2F9E
330
288F
100
AcDbEntity
  8
0
100
AcDbVertex
100
AcDb2dVertex
 10
5.622047244094487
 20
6.694881889763779
 30
0.0
  0
SEQEND
  5
2F9F
330
288F
100
AcDbEntity
  8
0
  0
POLYLINE
  5
2899
330
1E
100
AcDbEntity
  8
0
100
AcDb2dPolyline
 66
     1
 10
0.0
 20
0.0
 30
0.0
  0
VERTEX
  5
2FA0
330
2899
100
AcDbEntity
  8
0
100
AcDbVertex
100
AcDb2dVertex
 10
5.287401574803149
 20
3.861220472440944
 30
0.0
  0
VERTEX
  5
2FA1
330
2899
100
AcDbEntity
  8
0
100
AcDbVertex
100
AcDb2dVertex
 10
5.287401574803149
 20
3.86515748031496
 30
0.0
  0
VERTEX
  5
2FA2
330
2899
100
AcDbEntity
  8
0
100
AcDbVertex
100
AcDb2dVertex
 10
5.287401574803149
 20
3.875984251968503
 30
0.0
  0
VERTEX
  5
2FA3
330
2899
100
AcDbEntity
  8
0
100
AcDbVertex
100
AcDb2dVertex
 10
5.287401574803149
 20
3.893700787401574
 30
0.0
  0
VERTEX
  5
2FA4
330
2899
100
AcDbEntity
  8
0
100
AcDbVertex
100
AcDb2dVertex
 10
5.287401574803149
 20
3.917322834645669
 30
0.0
  0
VERTEX
  5
2FA5
330
2899
100
AcDbEntity
  8
0
100
AcDbVertex
100
AcDb2dVertex
 10
5.287401574803149
 20
3.945866141732283
 30
0.0
  0
VERTEX
  5
2FA6
330
2899
100
AcDbEntity
  8
0
100
AcDbVertex
100
AcDb2dVertex
 10
5.287401574803149
 20
3.977362204724409
 30
0.0
  0
VERTEX
  5
2FA7
330
2899
100
AcDbEntity
  8
0
100
AcDbVertex
100
AcDb2dVertex
 10
5.287401574803149
 20
4.010826771653543
 30
0.0
  0
SEQEND
  5
2FA8
330
2899
100
AcDbEntity
  8
0
  0
LINE
  5
28A3
330
1E
100
AcDbEntity
  8
0
100
AcDbLine
 10
5.287401574803149
 20
4.010826771653543
 30
0.0
 11
5.287401574803149
 21
6.684055118110236
 31
0.0
  0
POLYLINE
  5
28A4
330
1E
100
AcDbEntity
  8
0
100
AcDb2dPolyline
 66
     1
 10
0.0
 20
0.0
 30
0.0
  0
VERTEX
  5
2FA9
330
28A4
100
AcDbEntity
  8
0
100
AcDbVertex
100
AcDb2dVertex
 10
5.287401574803149
 20
6.684055118110236
 30
0.0
  0
VERTEX
  5
2FAA
330
28A4
100
AcDbEntity
  8
0
100
AcDbVertex
100
AcDb2dVertex
 10
5.287401574803149
 20
6.71751968503937
 30
0.0
  0
VERTEX
  5
2FAB
330
28A4
100
AcDbEntity
  8
0
100
AcDbVertex
100
AcDb2dVertex
 10
5.287401574803149
 20
6.749015748031496
 30
0.0
  0
VERTEX
  5
2FAC
330
28A4
100
AcDbEntity
  8
0
100
AcDbVertex
100
AcDb2dVertex
 10
5.287401574803149
 20
6.77755905511811
 30
0.0
  0
VERTEX
  5
2FAD
330
28A4
100
AcDbEntity
  8
0
100
AcDbVertex
100
AcDb2dVertex
 10
5.287401574803149
 20
6.801181102362204
 30
0.0
  0
VERTEX
  5
2FAE
330
28A4
100
AcDbEntity
  8
0
100
AcDbVertex
100
AcDb2dVertex
 10
5.287401574803149
 20
6.818897637795275
 30
0.0
  0
VERTEX
  5
2FAF
330
28A4
100
AcDbEntity
  8
0
100
AcDbVertex
100
AcDb2dVertex
 10
5.287401574803149
 20
6.830708661417323
 30
0.0
  0
VERTEX
  5
2FB0
330
28A4
100
AcDbEntity
  8
0
100
AcDbVertex
100
AcDb2dVertex
 10
5.287401574803149
 20
6.833661417322834
 30
0.0
  0
SEQEND
  5
2FB1
330
28A4
100
AcDbEntity
  8
0
  0
LINE
  5
28AE
330
1E
100
AcDbEntity
  8
0
100
AcDbLine
 10
5.622047244094487
 20
3.829724409448818
 30
0.0
 11
5.306102362204724
 21
3.841535433070866
 31
0.0
  0
LINE
  5
28AF
330
1E
100
AcDbEntity
  8
0
100
AcDbLine
 10
5.306102362204724
 20
6.854330708661417
 30
0.0
 11
5.622047244094487
 21
6.86515748031496
 31
0.0
  0
LINE
  5
28B0
330
1E
100
AcDbEntity
  8
0
100
AcDbLine
 10
5.622047244094487
 20
6.694881889763779
 30
0.0
 11
5.306102362204724
 21
6.684055118110236
 31
0.0
  0
LINE
  5
28B1
330
1E
100
AcDbEntity
  8
0
100
AcDbLine
 10
5.306102362204724
 20
6.684055118110236
 30
0.0
 11
5.306102362204724
 21
4.010826771653543
 31
0.0
  0
LINE
  5
28B2
330
1E
100
AcDbEntity
  8
0
100
AcDbLine
 10
5.306102362204724
 20
4.010826771653543
 30
0.0
 11
5.622047244094487
 21
4.0
 31
0.0
  0
POLYLINE
  5
28B3
330
1E
100
AcDbEntity
  8
0
100
AcDb2dPolyline
 66
     1
 10
0.0
 20
0.0
 30
0.0
  0
VERTEX
  5
2FB2
330
28B3
100
AcDbEntity
  8
0
100
AcDbVertex
100
AcDb2dVertex
 10
5.306102362204724
 20
4.010826771653543
 30
0.0
  0
VERTEX
  5
2FB3
330
28B3
100
AcDbEntity
  8
0
100
AcDbVertex
100
AcDb2dVertex
 10
5.306102362204724
 20
3.973425196850393
 30
0.0
  0
VERTEX
  5
2FB4
330
28B3
100
AcDbEntity
  8
0
100
AcDbVertex
100
AcDb2dVertex
 10
5.306102362204724
 20
3.937007874015748
 30
0.0
  0
VERTEX
  5
2FB5
330
28B3
100
AcDbEntity
  8
0
100
AcDbVertex
100
AcDb2dVertex
 10
5.306102362204724
 20
3.904527559055118
 30
0.0
  0
VERTEX
  5
2FB6
330
28B3
100
AcDbEntity
  8
0
100
AcDbVertex
100
AcDb2dVertex
 10
5.306102362204724
 20
3.877952755905511
 30
0.0
  0
VERTEX
  5
2FB7
330
28B3
100
AcDbEntity
  8
0
100
AcDbVertex
100
AcDb2dVertex
 10
5.306102362204724
 20
3.858267716535432
 30
0.0
  0
VERTEX
  5
2FB8
330
28B3
100
AcDbEntity
  8
0
100
AcDbVertex
100
AcDb2dVertex
 10
5.306102362204724
 20
3.845472440944881
 30
0.0
  0
VERTEX
  5
2FB9
330
28B3
100
AcDbEntity
  8
0
100
AcDbVertex
100
AcDb2dVertex
 10
5.306102362204724
 20
3.841535433070866
 30
0.0
  0
SEQEND
  5
2FBA
330
28B3
100
AcDbEntity
  8
0
  0
POLYLINE
  5
28BD
330
1E
100
AcDbEntity
  8
0
100
AcDb2dPolyline
 66
     1
 10
0.0
 20
0.0
 30
0.0
  0
VERTEX
  5
2FBB
330
28BD
100
AcDbEntity
  8
0
100
AcDbVertex
100
AcDb2dVertex
 10
5.306102362204724
 20
6.854330708661417
 30
0.0
  0
VERTEX
  5
2FBC
330
28BD
100
AcDbEntity
  8
0
100
AcDbVertex
100
AcDb2dVertex
 10
5.306102362204724
 20
6.849409448818897
 30
0.0
  0
VERTEX
  5
2FBD
330
28BD
100
AcDbEntity
  8
0
100
AcDbVertex
100
AcDb2dVertex
 10
5.306102362204724
 20
6.83759842519685
 30
0.0
  0
VERTEX
  5
2FBE
330
28BD
100
AcDbEntity
  8
0
100
AcDbVertex
100
AcDb2dVertex
 10
5.306102362204724
 20
6.816929133858267
 30
0.0
  0
VERTEX
  5
2FBF
330
28BD
100
AcDbEntity
  8
0
100
AcDbVertex
100
AcDb2dVertex
 10
5.306102362204724
 20
6.790354330708661
 30
0.0
  0
VERTEX
  5
2FC0
330
28BD
100
AcDbEntity
  8
0
100
AcDbVertex
100
AcDb2dVertex
 10
5.306102362204724
 20
6.757874015748031
 30
0.0
  0
VERTEX
  5
2FC1
330
28BD
100
AcDbEntity
  8
0
100
AcDbVertex
100
AcDb2dVertex
 10
5.306102362204724
 20
6.721456692913386
 30
0.0
  0
VERTEX
  5
2FC2
330
28BD
100
AcDbEntity
  8
0
100
AcDbVertex
100
AcDb2dVertex
 10
5.306102362204724
 20
6.684055118110236
 30
0.0
  0
SEQEND
  5
2FC3
330
28BD
100
AcDbEntity
  8
0
  0
POLYLINE
  5
28C7
330
1E
100
AcDbEntity
  8
0
100
AcDb2dPolyline
 66
     1
 10
0.0
 20
0.0
 30
0.0
  0
VERTEX
  5
2FC4
330
28C7
100
AcDbEntity
  8
0
100
AcDbVertex
100
AcDb2dVertex
 10
5.306102362204724
 20
6.854330708661417
 30
0.0
  0
VERTEX
  5
2FC5
330
28C7
100
AcDbEntity
  8
0
100
AcDbVertex
100
AcDb2dVertex
 10
5.292322834645669
 20
6.847440944881889
 30
0.0
  0
VERTEX
  5
2FC6
330
28C7
100
AcDbEntity
  8
0
100
AcDbVertex
100
AcDb2dVertex
 10
5.287401574803149
 20
6.833661417322834
 30
0.0
  0
SEQEND
  5
2FC7
330
28C7
100
AcDbEntity
  8
0
  0
POLYLINE
  5
28CC
330
1E
100
AcDbEntity
  8
0
100
AcDb2dPolyline
 66
     1
 10
0.0
 20
0.0
 30
0.0
  0
VERTEX
  5
2FC8
330
28CC
100
AcDbEntity
  8
0
100
AcDbVertex
100
AcDb2dVertex
 10
5.306102362204724
 20
6.684055118110236
 30
0.0
  0
VERTEX
  5
2FC9
330
28CC
100
AcDbEntity
  8
0
100
AcDbVertex
100
AcDb2dVertex
 10
5.292322834645669
 20
6.684055118110236
 30
0.0
  0
VERTEX
  5
2FCA
330
28CC
100
AcDbEntity
  8
0
100
AcDbVertex
100
AcDb2dVertex
 10
5.287401574803149
 20
6.684055118110236
 30
0.0
  0
SEQEND
  5
2FCB
330
28CC
100
AcDbEntity
  8
0
  0
POLYLINE
  5
28D1
330
1E
100
AcDbEntity
  8
0
100
AcDb2dPolyline
 66
     1
 10
0.0
 20
0.0
 30
0.0
  0
VERTEX
  5
2FCC
330
28D1
100
AcDbEntity
  8
0
100
AcDbVertex
100
AcDb2dVertex
 10
5.306102362204724
 20
4.010826771653543
 30
0.0
  0
VERTEX
  5
2FCD
330
28D1
100
AcDbEntity
  8
0
100
AcDbVertex
100
AcDb2dVertex
 10
5.292322834645669
 20
4.010826771653543
 30
0.0
  0
VERTEX
  5
2FCE
330
28D1
100
AcDbEntity
  8
0
100
AcDbVertex
100
AcDb2dVertex
 10
5.287401574803149
 20
4.010826771653543
 30
0.0
  0
SEQEND
  5
2FCF
330
28D1
100
AcDbEntity
  8
0
  0
POLYLINE
  5
28D6
330
1E
100
AcDbEntity
  8
0
100
AcDb2dPolyline
 66
     1
 10
0.0
 20
0.0
 30
0.0
  0
VERTEX
  5
2FD0
330
28D6
100
AcDbEntity
  8
0
100
AcDbVertex
100
AcDb2dVertex
 10
5.306102362204724
 20
3.841535433070866
 30
0.0
  0
VERTEX
  5
2FD1
330
28D6
100
AcDbEntity
  8
0
100
AcDbVertex
100
AcDb2dVertex
 10
5.292322834645669
 20
3.847440944881889
 30
0.0
  0
VERTEX
  5
2FD2
330
28D6
100
AcDbEntity
  8
0
100
AcDbVertex
100
AcDb2dVertex
 10
5.287401574803149
 20
3.861220472440944
 30
0.0
  0
SEQEND
  5
2FD3
330
28D6
100
AcDbEntity
  8
0
  0
LINE
  5
28DB
330
1E
100
AcDbEntity
  8
0
100
AcDbLine
 10
6.102362204724409
 20
5.014763779527559
 30
0.0
 11
5.622047244094487
 21
4.997047244094487
 31
0.0
  0
LINE
  5
28DC
330
1E
100
AcDbEntity
  8
0
100
AcDbLine
 10
6.102362204724409
 20
5.681102362204724
 30
0.0
 11
5.622047244094487
 21
5.697834645669291
 31
0.0
  0
LINE
  5
28DD
330
1E
100
AcDbEntity
  8
0
100
AcDbLine
 10
6.102362204724409
 20
5.014763779527559
 30
0.0
 11
6.102362204724409
 21
5.238188976377952
 31
0.0
  0
LINE
  5
28DE
330
1E
100
AcDbEntity
  8
0
100
AcDbLine
 10
6.102362204724409
 20
5.238188976377952
 30
0.0
 11
5.821850393700787
 21
5.247047244094487
 31
0.0
  0
LINE
  5
28DF
330
1E
100
AcDbEntity
  8
0
100
AcDbLine
 10
6.122047244094487
 20
5.21751968503937
 30
0.0
 11
6.122047244094487
 21
5.034448818897637
 31
0.0
  0
LINE
  5
28E0
330
1E
100
AcDbEntity
  8
0
100
AcDbLine
 10
5.821850393700787
 20
5.445866141732283
 30
0.0
 11
5.821850393700787
 21
5.432086614173228
 31
0.0
  0
POLYLINE
  5
28E1
330
1E
100
AcDbEntity
  8
0
100
AcDb2dPolyline
 66
     1
 10
0.0
 20
0.0
 30
0.0
  0
VERTEX
  5
2FD4
330
28E1
100
AcDbEntity
  8
0
100
AcDbVertex
100
AcDb2dVertex
 10
5.821850393700787
 20
5.432086614173228
 30
0.0
  0
VERTEX
  5
2FD5
330
28E1
100
AcDbEntity
  8
0
100
AcDbVertex
100
AcDb2dVertex
 10
5.821850393700787
 20
5.428149606299212
 30
0.0
  0
VERTEX
  5
2FD6
330
28E1
100
AcDbEntity
  8
0
100
AcDbVertex
100
AcDb2dVertex
 10
5.821850393700787
 20
5.417322834645669
 30
0.0
  0
VERTEX
  5
2FD7
330
28E1
100
AcDbEntity
  8
0
100
AcDbVertex
100
AcDb2dVertex
 10
5.821850393700787
 20
5.399606299212598
 30
0.0
  0
VERTEX
  5
2FD8
330
28E1
100
AcDbEntity
  8
0
100
AcDbVertex
100
AcDb2dVertex
 10
5.821850393700787
 20
5.377952755905512
 30
0.0
  0
VERTEX
  5
2FD9
330
28E1
100
AcDbEntity
  8
0
100
AcDbVertex
100
AcDb2dVertex
 10
5.821850393700787
 20
5.354330708661417
 30
0.0
  0
SEQEND
  5
2FDA
330
28E1
100
AcDbEntity
  8
0
  0
LINE
  5
28E9
330
1E
100
AcDbEntity
  8
0
100
AcDbLine
 10
5.821850393700787
 20
5.354330708661417
 30
0.0
 11
5.821850393700787
 21
5.340551181102362
 31
0.0
  0
POLYLINE
  5
28EA
330
1E
100
AcDbEntity
  8
0
100
AcDb2dPolyline
 66
     1
 10
0.0
 20
0.0
 30
0.0
  0
VERTEX
  5
2FDB
330
28EA
100
AcDbEntity
  8
0
100
AcDbVertex
100
AcDb2dVertex
 10
5.821850393700787
 20
5.340551181102362
 30
0.0
  0
VERTEX
  5
2FDC
330
28EA
100
AcDbEntity
  8
0
100
AcDbVertex
100
AcDb2dVertex
 10
5.821850393700787
 20
5.316929133858267
 30
0.0
  0
VERTEX
  5
2FDD
330
28EA
100
AcDbEntity
  8
0
100
AcDbVertex
100
AcDb2dVertex
 10
5.821850393700787
 20
5.295275590551181
 30
0.0
  0
VERTEX
  5
2FDE
330
28EA
100
AcDbEntity
  8
0
100
AcDbVertex
100
AcDb2dVertex
 10
5.821850393700787
 20
5.27755905511811
 30
0.0
  0
VERTEX
  5
2FDF
330
28EA
100
AcDbEntity
  8
0
100
AcDbVertex
100
AcDb2dVertex
 10
5.821850393700787
 20
5.266732283464566
 30
0.0
  0
VERTEX
  5
2FE0
330
28EA
100
AcDbEntity
  8
0
100
AcDbVertex
100
AcDb2dVertex
 10
5.821850393700787
 20
5.26279527559055
 30
0.0
  0
SEQEND
  5
2FE1
330
28EA
100
AcDbEntity
  8
0
  0
LINE
  5
28F2
330
1E
100
AcDbEntity
  8
0
100
AcDbLine
 10
5.821850393700787
 20
5.26279527559055
 30
0.0
 11
5.821850393700787
 21
5.249015748031496
 31
0.0
  0
LINE
  5
28F3
330
1E
100
AcDbEntity
  8
0
100
AcDbLine
 10
6.122047244094487
 20
5.660433070866141
 30
0.0
 11
6.122047244094487
 21
5.477362204724409
 31
0.0
  0
LINE
  5
28F4
330
1E
100
AcDbEntity
  8
0
100
AcDbLine
 10
5.821850393700787
 20
5.447834645669291
 30
0.0
 11
6.102362204724409
 21
5.45767716535433
 31
0.0
  0
LINE
  5
28F5
330
1E
100
AcDbEntity
  8
0
100
AcDbLine
 10
6.102362204724409
 20
5.45767716535433
 30
0.0
 11
6.102362204724409
 21
5.681102362204724
 31
0.0
  0
LINE
  5
28F6
330
1E
100
AcDbEntity
  8
0
100
AcDbLine
 10
5.80511811023622
 20
5.249015748031496
 30
0.0
 11
5.80511811023622
 21
5.26279527559055
 31
0.0
  0
LINE
  5
28F7
330
1E
100
AcDbEntity
  8
0
100
AcDbLine
 10
5.80511811023622
 20
5.26279527559055
 30
0.0
 11
5.622047244094487
 21
5.269685039370078
 31
0.0
  0
LINE
  5
28F8
330
1E
100
AcDbEntity
  8
0
100
AcDbLine
 10
5.622047244094487
 20
5.242125984251968
 30
0.0
 11
5.80511811023622
 21
5.249015748031496
 31
0.0
  0
LINE
  5
28F9
330
1E
100
AcDbEntity
  8
0
100
AcDbLine
 10
5.80511811023622
 20
5.432086614173228
 30
0.0
 11
5.80511811023622
 21
5.445866141732283
 31
0.0
  0
LINE
  5
28FA
330
1E
100
AcDbEntity
  8
0
100
AcDbLine
 10
5.80511811023622
 20
5.445866141732283
 30
0.0
 11
5.622047244094487
 21
5.452755905511811
 31
0.0
  0
LINE
  5
28FB
330
1E
100
AcDbEntity
  8
0
100
AcDbLine
 10
5.622047244094487
 20
5.4251968503937
 30
0.0
 11
5.80511811023622
 21
5.432086614173228
 31
0.0
  0
LINE
  5
28FC
330
1E
100
AcDbEntity
  8
0
100
AcDbLine
 10
5.803149606299212
 20
5.228346456692912
 30
0.0
 11
5.622047244094487
 21
5.222440944881889
 31
0.0
  0
LINE
  5
28FD
330
1E
100
AcDbEntity
  8
0
100
AcDbLine
 10
5.622047244094487
 20
5.472440944881889
 30
0.0
 11
5.803149606299212
 21
5.466535433070865
 31
0.0
  0
LINE
  5
28FE
330
1E
100
AcDbEntity
  8
0
100
AcDbLine
 10
5.622047244094487
 20
5.289370078740157
 30
0.0
 11
5.803149606299212
 21
5.283464566929133
 31
0.0
  0
LINE
  5
28FF
330
1E
100
AcDbEntity
  8
0
100
AcDbLine
 10
5.622047244094487
 20
5.347440944881889
 30
0.0
 11
5.803149606299212
 21
5.340551181102362
 31
0.0
  0
LINE
  5
2900
330
1E
100
AcDbEntity
  8
0
100
AcDbLine
 10
5.803149606299212
 20
5.340551181102362
 30
0.0
 11
5.803149606299212
 21
5.354330708661417
 31
0.0
  0
LINE
  5
2901
330
1E
100
AcDbEntity
  8
0
100
AcDbLine
 10
5.803149606299212
 20
5.354330708661417
 30
0.0
 11
5.622047244094487
 21
5.348425196850393
 31
0.0
  0
LINE
  5
2902
330
1E
100
AcDbEntity
  8
0
100
AcDbLine
 10
5.803149606299212
 20
5.411417322834645
 30
0.0
 11
5.622047244094487
 21
5.405511811023622
 31
0.0
  0
POLYLINE
  5
2903
330
1E
100
AcDbEntity
  8
0
100
AcDb2dPolyline
 66
     1
 10
0.0
 20
0.0
 30
0.0
  0
VERTEX
  5
2FE2
330
2903
100
AcDbEntity
  8
0
100
AcDbVertex
100
AcDb2dVertex
 10
5.803149606299212
 20
5.354330708661417
 30
0.0
  0
VERTEX
  5
2FE3
330
2903
100
AcDbEntity
  8
0
100
AcDbVertex
100
AcDb2dVertex
 10
5.803149606299212
 20
5.375984251968503
 30
0.0
  0
VERTEX
  5
2FE4
330
2903
100
AcDbEntity
  8
0
100
AcDbVertex
100
AcDb2dVertex
 10
5.803149606299212
 20
5.394685039370078
 30
0.0
  0
VERTEX
  5
2FE5
330
2903
100
AcDbEntity
  8
0
100
AcDbVertex
100
AcDb2dVertex
 10
5.803149606299212
 20
5.407480314960629
 30
0.0
  0
VERTEX
  5
2FE6
330
2903
100
AcDbEntity
  8
0
100
AcDbVertex
100
AcDb2dVertex
 10
5.803149606299212
 20
5.411417322834645
 30
0.0
  0
SEQEND
  5
2FE7
330
2903
100
AcDbEntity
  8
0
  0
POLYLINE
  5
290A
330
1E
100
AcDbEntity
  8
0
100
AcDb2dPolyline
 66
     1
 10
0.0
 20
0.0
 30
0.0
  0
VERTEX
  5
2FE8
330
290A
100
AcDbEntity
  8
0
100
AcDbVertex
100
AcDb2dVertex
 10
5.803149606299212
 20
5.283464566929133
 30
0.0
  0
VERTEX
  5
2FE9
330
290A
100
AcDbEntity
  8
0
100
AcDbVertex
100
AcDb2dVertex
 10
5.803149606299212
 20
5.287401574803149
 30
0.0
  0
VERTEX
  5
2FEA
330
290A
100
AcDbEntity
  8
0
100
AcDbVertex
100
AcDb2dVertex
 10
5.803149606299212
 20
5.3001968503937
 30
0.0
  0
VERTEX
  5
2FEB
330
290A
100
AcDbEntity
  8
0
100
AcDbVertex
100
AcDb2dVertex
 10
5.803149606299212
 20
5.318897637795275
 30
0.0
  0
VERTEX
  5
2FEC
330
290A
100
AcDbEntity
  8
0
100
AcDbVertex
100
AcDb2dVertex
 10
5.803149606299212
 20
5.340551181102362
 30
0.0
  0
SEQEND
  5
2FED
330
290A
100
AcDbEntity
  8
0
  0
POLYLINE
  5
2911
330
1E
100
AcDbEntity
  8
0
100
AcDb2dPolyline
 66
     1
 10
0.0
 20
0.0
 30
0.0
  0
VERTEX
  5
2FEE
330
2911
100
AcDbEntity
  8
0
100
AcDbVertex
100
AcDb2dVertex
 10
5.803149606299212
 20
5.228346456692912
 30
0.0
  0
VERTEX
  5
2FEF
330
2911
100
AcDbEntity
  8
0
100
AcDbVertex
100
AcDb2dVertex
 10
5.815944881889763
 20
5.23523622047244
 30
0.0
  0
VERTEX
  5
2FF0
330
2911
100
AcDbEntity
  8
0
100
AcDbVertex
100
AcDb2dVertex
 10
5.821850393700787
 20
5.249015748031496
 30
0.0
  0
SEQEND
  5
2FF1
330
2911
100
AcDbEntity
  8
0
  0
POLYLINE
  5
2916
330
1E
100
AcDbEntity
  8
0
100
AcDb2dPolyline
 66
     1
 10
0.0
 20
0.0
 30
0.0
  0
VERTEX
  5
2FF2
330
2916
100
AcDbEntity
  8
0
100
AcDbVertex
100
AcDb2dVertex
 10
5.80511811023622
 20
5.249015748031496
 30
0.0
  0
VERTEX
  5
2FF3
330
2916
100
AcDbEntity
  8
0
100
AcDbVertex
100
AcDb2dVertex
 10
5.80511811023622
 20
5.234251968503937
 30
0.0
  0
VERTEX
  5
2FF4
330
2916
100
AcDbEntity
  8
0
100
AcDbVertex
100
AcDb2dVertex
 10
5.803149606299212
 20
5.228346456692912
 30
0.0
  0
SEQEND
  5
2FF5
330
2916
100
AcDbEntity
  8
0
  0
POLYLINE
  5
291B
330
1E
100
AcDbEntity
  8
0
100
AcDb2dPolyline
 66
     1
 10
0.0
 20
0.0
 30
0.0
  0
VERTEX
  5
2FF6
330
291B
100
AcDbEntity
  8
0
100
AcDbVertex
100
AcDb2dVertex
 10
5.80511811023622
 20
5.249015748031496
 30
0.0
  0
VERTEX
  5
2FF7
330
291B
100
AcDbEntity
  8
0
100
AcDbVertex
100
AcDb2dVertex
 10
5.816929133858267
 20
5.249015748031496
 30
0.0
  0
VERTEX
  5
2FF8
330
291B
100
AcDbEntity
  8
0
100
AcDbVertex
100
AcDb2dVertex
 10
5.821850393700787
 20
5.249015748031496
 30
0.0
  0
SEQEND
  5
2FF9
330
291B
100
AcDbEntity
  8
0
  0
POLYLINE
  5
2920
330
1E
100
AcDbEntity
  8
0
100
AcDb2dPolyline
 66
     1
 10
0.0
 20
0.0
 30
0.0
  0
VERTEX
  5
2FFA
330
2920
100
AcDbEntity
  8
0
100
AcDbVertex
100
AcDb2dVertex
 10
5.80511811023622
 20
5.26279527559055
 30
0.0
  0
VERTEX
  5
2FFB
330
2920
100
AcDbEntity
  8
0
100
AcDbVertex
100
AcDb2dVertex
 10
5.816929133858267
 20
5.26279527559055
 30
0.0
  0
VERTEX
  5
2FFC
330
2920
100
AcDbEntity
  8
0
100
AcDbVertex
100
AcDb2dVertex
 10
5.821850393700787
 20
5.26279527559055
 30
0.0
  0
SEQEND
  5
2FFD
330
2920
100
AcDbEntity
  8
0
  0
POLYLINE
  5
2925
330
1E
100
AcDbEntity
  8
0
100
AcDb2dPolyline
 66
     1
 10
0.0
 20
0.0
 30
0.0
  0
VERTEX
  5
2FFE
330
2925
100
AcDbEntity
  8
0
100
AcDbVertex
100
AcDb2dVertex
 10
5.803149606299212
 20
5.283464566929133
 30
0.0
  0
VERTEX
  5
2FFF
330
2925
100
AcDbEntity
  8
0
100
AcDbVertex
100
AcDb2dVertex
 10
5.80511811023622
 20
5.27755905511811
 30
0.0
  0
VERTEX
  5
3000
330
2925
100
AcDbEntity
  8
0
100
AcDbVertex
100
AcDb2dVertex
 10
5.80511811023622
 20
5.26279527559055
 30
0.0
  0
SEQEND
  5
3001
330
2925
100
AcDbEntity
  8
0
  0
POLYLINE
  5
292A
330
1E
100
AcDbEntity
  8
0
100
AcDb2dPolyline
 66
     1
 10
0.0
 20
0.0
 30
0.0
  0
VERTEX
  5
3002
330
292A
100
AcDbEntity
  8
0
100
AcDbVertex
100
AcDb2dVertex
 10
5.803149606299212
 20
5.283464566929133
 30
0.0
  0
VERTEX
  5
3003
330
292A
100
AcDbEntity
  8
0
100
AcDbVertex
100
AcDb2dVertex
 10
5.815944881889763
 20
5.27755905511811
 30
0.0
  0
VERTEX
  5
3004
330
292A
100
AcDbEntity
  8
0
100
AcDbVertex
100
AcDb2dVertex
 10
5.821850393700787
 20
5.26279527559055
 30
0.0
  0
SEQEND
  5
3005
330
292A
100
AcDbEntity
  8
0
  0
POLYLINE
  5
292F
330
1E
100
AcDbEntity
  8
0
100
AcDb2dPolyline
 66
     1
 10
0.0
 20
0.0
 30
0.0
  0
VERTEX
  5
3006
330
292F
100
AcDbEntity
  8
0
100
AcDbVertex
100
AcDb2dVertex
 10
5.803149606299212
 20
5.340551181102362
 30
0.0
  0
VERTEX
  5
3007
330
292F
100
AcDbEntity
  8
0
100
AcDbVertex
100
AcDb2dVertex
 10
5.815944881889763
 20
5.340551181102362
 30
0.0
  0
VERTEX
  5
3008
330
292F
100
AcDbEntity
  8
0
100
AcDbVertex
100
AcDb2dVertex
 10
5.821850393700787
 20
5.340551181102362
 30
0.0
  0
SEQEND
  5
3009
330
292F
100
AcDbEntity
  8
0
  0
POLYLINE
  5
2934
330
1E
100
AcDbEntity
  8
0
100
AcDb2dPolyline
 66
     1
 10
0.0
 20
0.0
 30
0.0
  0
VERTEX
  5
300A
330
2934
100
AcDbEntity
  8
0
100
AcDbVertex
100
AcDb2dVertex
 10
5.803149606299212
 20
5.354330708661417
 30
0.0
  0
VERTEX
  5
300B
330
2934
100
AcDbEntity
  8
0
100
AcDbVertex
100
AcDb2dVertex
 10
5.815944881889763
 20
5.354330708661417
 30
0.0
  0
VERTEX
  5
300C
330
2934
100
AcDbEntity
  8
0
100
AcDbVertex
100
AcDb2dVertex
 10
5.821850393700787
 20
5.354330708661417
 30
0.0
  0
SEQEND
  5
300D
330
2934
100
AcDbEntity
  8
0
  0
POLYLINE
  5
2939
330
1E
100
AcDbEntity
  8
0
100
AcDb2dPolyline
 66
     1
 10
0.0
 20
0.0
 30
0.0
  0
VERTEX
  5
300E
330
2939
100
AcDbEntity
  8
0
100
AcDbVertex
100
AcDb2dVertex
 10
5.803149606299212
 20
5.411417322834645
 30
0.0
  0
VERTEX
  5
300F
330
2939
100
AcDbEntity
  8
0
100
AcDbVertex
100
AcDb2dVertex
 10
5.815944881889763
 20
5.418307086614173
 30
0.0
  0
VERTEX
  5
3010
330
2939
100
AcDbEntity
  8
0
100
AcDbVertex
100
AcDb2dVertex
 10
5.821850393700787
 20
5.432086614173228
 30
0.0
  0
SEQEND
  5
3011
330
2939
100
AcDbEntity
  8
0
  0
POLYLINE
  5
293E
330
1E
100
AcDbEntity
  8
0
100
AcDb2dPolyline
 66
     1
 10
0.0
 20
0.0
 30
0.0
  0
VERTEX
  5
3012
330
293E
100
AcDbEntity
  8
0
100
AcDbVertex
100
AcDb2dVertex
 10
5.80511811023622
 20
5.432086614173228
 30
0.0
  0
VERTEX
  5
3013
330
293E
100
AcDbEntity
  8
0
100
AcDbVertex
100
AcDb2dVertex
 10
5.80511811023622
 20
5.417322834645669
 30
0.0
  0
VERTEX
  5
3014
330
293E
100
AcDbEntity
  8
0
100
AcDbVertex
100
AcDb2dVertex
 10
5.803149606299212
 20
5.411417322834645
 30
0.0
  0
SEQEND
  5
3015
330
293E
100
AcDbEntity
  8
0
  0
POLYLINE
  5
2943
330
1E
100
AcDbEntity
  8
0
100
AcDb2dPolyline
 66
     1
 10
0.0
 20
0.0
 30
0.0
  0
VERTEX
  5
3016
330
2943
100
AcDbEntity
  8
0
100
AcDbVertex
100
AcDb2dVertex
 10
5.80511811023622
 20
5.432086614173228
 30
0.0
  0
VERTEX
  5
3017
330
2943
100
AcDbEntity
  8
0
100
AcDbVertex
100
AcDb2dVertex
 10
5.816929133858267
 20
5.432086614173228
 30
0.0
  0
VERTEX
  5
3018
330
2943
100
AcDbEntity
  8
0
100
AcDbVertex
100
AcDb2dVertex
 10
5.821850393700787
 20
5.432086614173228
 30
0.0
  0
SEQEND
  5
3019
330
2943
100
AcDbEntity
  8
0
  0
POLYLINE
  5
2948
330
1E
100
AcDbEntity
  8
0
100
AcDb2dPolyline
 66
     1
 10
0.0
 20
0.0
 30
0.0
  0
VERTEX
  5
301A
330
2948
100
AcDbEntity
  8
0
100
AcDbVertex
100
AcDb2dVertex
 10
5.80511811023622
 20
5.445866141732283
 30
0.0
  0
VERTEX
  5
301B
330
2948
100
AcDbEntity
  8
0
100
AcDbVertex
100
AcDb2dVertex
 10
5.816929133858267
 20
5.445866141732283
 30
0.0
  0
VERTEX
  5
301C
330
2948
100
AcDbEntity
  8
0
100
AcDbVertex
100
AcDb2dVertex
 10
5.821850393700787
 20
5.445866141732283
 30
0.0
  0
SEQEND
  5
301D
330
2948
100
AcDbEntity
  8
0
  0
POLYLINE
  5
294D
330
1E
100
AcDbEntity
  8
0
100
AcDb2dPolyline
 66
     1
 10
0.0
 20
0.0
 30
0.0
  0
VERTEX
  5
301E
330
294D
100
AcDbEntity
  8
0
100
AcDbVertex
100
AcDb2dVertex
 10
5.803149606299212
 20
5.466535433070865
 30
0.0
  0
VERTEX
  5
301F
330
294D
100
AcDbEntity
  8
0
100
AcDbVertex
100
AcDb2dVertex
 10
5.80511811023622
 20
5.460629921259842
 30
0.0
  0
VERTEX
  5
3020
330
294D
100
AcDbEntity
  8
0
100
AcDbVertex
100
AcDb2dVertex
 10
5.80511811023622
 20
5.445866141732283
 30
0.0
  0
SEQEND
  5
3021
330
294D
100
AcDbEntity
  8
0
  0
POLYLINE
  5
2952
330
1E
100
AcDbEntity
  8
0
100
AcDb2dPolyline
 66
     1
 10
0.0
 20
0.0
 30
0.0
  0
VERTEX
  5
3022
330
2952
100
AcDbEntity
  8
0
100
AcDbVertex
100
AcDb2dVertex
 10
5.803149606299212
 20
5.466535433070865
 30
0.0
  0
VERTEX
  5
3023
330
2952
100
AcDbEntity
  8
0
100
AcDbVertex
100
AcDb2dVertex
 10
5.815944881889763
 20
5.459645669291338
 30
0.0
  0
VERTEX
  5
3024
330
2952
100
AcDbEntity
  8
0
100
AcDbVertex
100
AcDb2dVertex
 10
5.821850393700787
 20
5.445866141732283
 30
0.0
  0
SEQEND
  5
3025
330
2952
100
AcDbEntity
  8
0
  0
POLYLINE
  5
2957
330
1E
100
AcDbEntity
  8
0
100
AcDb2dPolyline
 66
     1
 10
0.0
 20
0.0
 30
0.0
  0
VERTEX
  5
3026
330
2957
100
AcDbEntity
  8
0
100
AcDbVertex
100
AcDb2dVertex
 10
6.122047244094487
 20
5.034448818897637
 30
0.0
  0
VERTEX
  5
3027
330
2957
100
AcDbEntity
  8
0
100
AcDbVertex
100
AcDb2dVertex
 10
6.119094488188975
 20
5.024606299212598
 30
0.0
  0
VERTEX
  5
3028
330
2957
100
AcDbEntity
  8
0
100
AcDbVertex
100
AcDb2dVertex
 10
6.112204724409449
 20
5.016732283464566
 30
0.0
  0
VERTEX
  5
3029
330
2957
100
AcDbEntity
  8
0
100
AcDbVertex
100
AcDb2dVertex
 10
6.102362204724409
 20
5.014763779527559
 30
0.0
  0
SEQEND
  5
302A
330
2957
100
AcDbEntity
  8
0
  0
POLYLINE
  5
295D
330
1E
100
AcDbEntity
  8
0
100
AcDb2dPolyline
 66
     1
 10
0.0
 20
0.0
 30
0.0
  0
VERTEX
  5
302B
330
295D
100
AcDbEntity
  8
0
100
AcDbVertex
100
AcDb2dVertex
 10
6.102362204724409
 20
5.238188976377952
 30
0.0
  0
VERTEX
  5
302C
330
295D
100
AcDbEntity
  8
0
100
AcDbVertex
100
AcDb2dVertex
 10
6.112204724409449
 20
5.23523622047244
 30
0.0
  0
VERTEX
  5
302D
330
295D
100
AcDbEntity
  8
0
100
AcDbVertex
100
AcDb2dVertex
 10
6.119094488188975
 20
5.227362204724409
 30
0.0
  0
VERTEX
  5
302E
330
295D
100
AcDbEntity
  8
0
100
AcDbVertex
100
AcDb2dVertex
 10
6.122047244094487
 20
5.21751968503937
 30
0.0
  0
SEQEND
  5
302F
330
295D
100
AcDbEntity
  8
0
  0
POLYLINE
  5
2963
330
1E
100
AcDbEntity
  8
0
100
AcDb2dPolyline
 66
     1
 10
0.0
 20
0.0
 30
0.0
  0
VERTEX
  5
3030
330
2963
100
AcDbEntity
  8
0
100
AcDbVertex
100
AcDb2dVertex
 10
6.122047244094487
 20
5.477362204724409
 30
0.0
  0
VERTEX
  5
3031
330
2963
100
AcDbEntity
  8
0
100
AcDbVertex
100
AcDb2dVertex
 10
6.119094488188975
 20
5.46751968503937
 30
0.0
  0
VERTEX
  5
3032
330
2963
100
AcDbEntity
  8
0
100
AcDbVertex
100
AcDb2dVertex
 10
6.112204724409449
 20
5.460629921259842
 30
0.0
  0
VERTEX
  5
3033
330
2963
100
AcDbEntity
  8
0
100
AcDbVertex
100
AcDb2dVertex
 10
6.102362204724409
 20
5.45767716535433
 30
0.0
  0
SEQEND
  5
3034
330
2963
100
AcDbEntity
  8
0
  0
POLYLINE
  5
2969
330
1E
100
AcDbEntity
  8
0
100
AcDb2dPolyline
 66
     1
 10
0.0
 20
0.0
 30
0.0
  0
VERTEX
  5
3035
330
2969
100
AcDbEntity
  8
0
100
AcDbVertex
100
AcDb2dVertex
 10
6.102362204724409
 20
5.681102362204724
 30
0.0
  0
VERTEX
  5
3036
330
2969
100
AcDbEntity
  8
0
100
AcDbVertex
100
AcDb2dVertex
 10
6.112204724409449
 20
5.678149606299212
 30
0.0
  0
VERTEX
  5
3037
330
2969
100
AcDbEntity
  8
0
100
AcDbVertex
100
AcDb2dVertex
 10
6.119094488188975
 20
5.670275590551181
 30
0.0
  0
VERTEX
  5
3038
330
2969
100
AcDbEntity
  8
0
100
AcDbVertex
100
AcDb2dVertex
 10
6.122047244094487
 20
5.660433070866141
 30
0.0
  0
SEQEND
  5
3039
330
2969
100
AcDbEntity
  8
0
  0
POLYLINE
  5
296F
330
1E
100
AcDbEntity
  8
0
100
AcDb2dPolyline
 66
     1
 10
0.0
 20
0.0
 30
0.0
  0
VERTEX
  5
303A
330
296F
100
AcDbEntity
  8
0
100
AcDbVertex
100
AcDb2dVertex
 10
5.222440944881889
 20
6.679133858267716
 30
0.0
  0
VERTEX
  5
303B
330
296F
100
AcDbEntity
  8
0
100
AcDbVertex
100
AcDb2dVertex
 10
5.222440944881889
 20
6.701771653543307
 30
0.0
  0
VERTEX
  5
303C
330
296F
100
AcDbEntity
  8
0
100
AcDbVertex
100
AcDb2dVertex
 10
5.222440944881889
 20
6.721456692913386
 30
0.0
  0
VERTEX
  5
303D
330
296F
100
AcDbEntity
  8
0
100
AcDbVertex
100
AcDb2dVertex
 10
5.222440944881889
 20
6.737204724409449
 30
0.0
  0
VERTEX
  5
303E
330
296F
100
AcDbEntity
  8
0
100
AcDbVertex
100
AcDb2dVertex
 10
5.222440944881889
 20
6.747047244094487
 30
0.0
  0
VERTEX
  5
303F
330
296F
100
AcDbEntity
  8
0
100
AcDbVertex
100
AcDb2dVertex
 10
5.222440944881889
 20
6.750984251968503
 30
0.0
  0
SEQEND
  5
3040
330
296F
100
AcDbEntity
  8
0
  0
POLYLINE
  5
2977
330
1E
100
AcDbEntity
  8
0
100
AcDb2dPolyline
 66
     1
 10
0.0
 20
0.0
 30
0.0
  0
VERTEX
  5
3041
330
2977
100
AcDbEntity
  8
0
100
AcDbVertex
100
AcDb2dVertex
 10
5.222440944881889
 20
3.943897637795275
 30
0.0
  0
VERTEX
  5
3042
330
2977
100
AcDbEntity
  8
0
100
AcDbVertex
100
AcDb2dVertex
 10
5.222440944881889
 20
3.947834645669291
 30
0.0
  0
VERTEX
  5
3043
330
2977
100
AcDbEntity
  8
0
100
AcDbVertex
100
AcDb2dVertex
 10
5.222440944881889
 20
3.95767716535433
 30
0.0
  0
VERTEX
  5
3044
330
2977
100
AcDbEntity
  8
0
100
AcDbVertex
100
AcDb2dVertex
 10
5.222440944881889
 20
3.973425196850393
 30
0.0
  0
VERTEX
  5
3045
330
2977
100
AcDbEntity
  8
0
100
AcDbVertex
100
AcDb2dVertex
 10
5.222440944881889
 20
3.993110236220472
 30
0.0
  0
VERTEX
  5
3046
330
2977
100
AcDbEntity
  8
0
100
AcDbVertex
100
AcDb2dVertex
 10
5.222440944881889
 20
4.015748031496062
 30
0.0
  0
SEQEND
  5
3047
330
2977
100
AcDbEntity
  8
0
  0
LINE
  5
297F
330
1E
100
AcDbEntity
  8
0
100
AcDbLine
 10
5.222440944881889
 20
4.015748031496062
 30
0.0
 11
5.222440944881889
 21
6.679133858267716
 31
0.0
  0
LINE
  5
2980
330
1E
100
AcDbEntity
  8
0
100
AcDbLine
 10
5.287401574803149
 20
4.014763779527559
 30
0.0
 11
5.287401574803149
 21
4.014763779527559
 31
0.0
  0
LINE
  5
2981
330
1E
100
AcDbEntity
  8
0
100
AcDbLine
 10
5.287401574803149
 20
6.68011811023622
 30
0.0
 11
5.287401574803149
 21
6.68011811023622
 31
0.0
  0
LINE
  5
2982
330
1E
100
AcDbEntity
  8
0
100
AcDbLine
 10
5.242125984251968
 20
3.924212598425196
 30
0.0
 11
5.287401574803149
 21
3.923228346456692
 31
0.0
  0
LINE
  5
2983
330
1E
100
AcDbEntity
  8
0
100
AcDbLine
 10
5.287401574803149
 20
6.771653543307086
 30
0.0
 11
5.242125984251968
 21
6.770669291338582
 31
0.0
  0
LINE
  5
2984
330
1E
100
AcDbEntity
  8
0
100
AcDbLine
 10
5.242125984251968
 20
6.679133858267716
 30
0.0
 11
5.287401574803149
 21
6.68011811023622
 31
0.0
  0
LINE
  5
2985
330
1E
100
AcDbEntity
  8
0
100
AcDbLine
 10
5.242125984251968
 20
6.679133858267716
 30
0.0
 11
5.242125984251968
 21
4.015748031496062
 31
0.0
  0
LINE
  5
2986
330
1E
100
AcDbEntity
  8
0
100
AcDbLine
 10
5.287401574803149
 20
4.014763779527559
 30
0.0
 11
5.242125984251968
 21
4.015748031496062
 31
0.0
  0
POLYLINE
  5
2987
330
1E
100
AcDbEntity
  8
0
100
AcDb2dPolyline
 66
     1
 10
0.0
 20
0.0
 30
0.0
  0
VERTEX
  5
3048
330
2987
100
AcDbEntity
  8
0
100
AcDbVertex
100
AcDb2dVertex
 10
5.242125984251968
 20
4.015748031496062
 30
0.0
  0
VERTEX
  5
3049
330
2987
100
AcDbEntity
  8
0
100
AcDbVertex
100
AcDb2dVertex
 10
5.241141732283464
 20
3.987204724409448
 30
0.0
  0
VERTEX
  5
304A
330
2987
100
AcDbEntity
  8
0
100
AcDbVertex
100
AcDb2dVertex
 10
5.241141732283464
 20
3.961614173228346
 30
0.0
  0
VERTEX
  5
304B
330
2987
100
AcDbEntity
  8
0
100
AcDbVertex
100
AcDb2dVertex
 10
5.241141732283464
 20
3.941929133858267
 30
0.0
  0
VERTEX
  5
304C
330
2987
100
AcDbEntity
  8
0
100
AcDbVertex
100
AcDb2dVertex
 10
5.241141732283464
 20
3.928149606299212
 30
0.0
  0
VERTEX
  5
304D
330
2987
100
AcDbEntity
  8
0
100
AcDbVertex
100
AcDb2dVertex
 10
5.242125984251968
 20
3.924212598425196
 30
0.0
  0
SEQEND
  5
304E
330
2987
100
AcDbEntity
  8
0
  0
POLYLINE
  5
298F
330
1E
100
AcDbEntity
  8
0
100
AcDb2dPolyline
 66
     1
 10
0.0
 20
0.0
 30
0.0
  0
VERTEX
  5
304F
330
298F
100
AcDbEntity
  8
0
100
AcDbVertex
100
AcDb2dVertex
 10
5.242125984251968
 20
6.770669291338582
 30
0.0
  0
VERTEX
  5
3050
330
298F
100
AcDbEntity
  8
0
100
AcDbVertex
100
AcDb2dVertex
 10
5.241141732283464
 20
6.766732283464566
 30
0.0
  0
VERTEX
  5
3051
330
298F
100
AcDbEntity
  8
0
100
AcDbVertex
100
AcDb2dVertex
 10
5.241141732283464
 20
6.753937007874015
 30
0.0
  0
VERTEX
  5
3052
330
298F
100
AcDbEntity
  8
0
100
AcDbVertex
100
AcDb2dVertex
 10
5.241141732283464
 20
6.733267716535433
 30
0.0
  0
VERTEX
  5
3053
330
298F
100
AcDbEntity
  8
0
100
AcDbVertex
100
AcDb2dVertex
 10
5.241141732283464
 20
6.70767716535433
 30
0.0
  0
VERTEX
  5
3054
330
298F
100
AcDbEntity
  8
0
100
AcDbVertex
100
AcDb2dVertex
 10
5.242125984251968
 20
6.679133858267716
 30
0.0
  0
SEQEND
  5
3055
330
298F
100
AcDbEntity
  8
0
  0
POLYLINE
  5
2997
330
1E
100
AcDbEntity
  8
0
100
AcDb2dPolyline
 66
     1
 10
0.0
 20
0.0
 30
0.0
  0
VERTEX
  5
3056
330
2997
100
AcDbEntity
  8
0
100
AcDbVertex
100
AcDb2dVertex
 10
5.222440944881889
 20
3.943897637795275
 30
0.0
  0
VERTEX
  5
3057
330
2997
100
AcDbEntity
  8
0
100
AcDbVertex
100
AcDb2dVertex
 10
5.227362204724409
 20
3.93011811023622
 30
0.0
  0
VERTEX
  5
3058
330
2997
100
AcDbEntity
  8
0
100
AcDbVertex
100
AcDb2dVertex
 10
5.242125984251968
 20
3.924212598425196
 30
0.0
  0
SEQEND
  5
3059
330
2997
100
AcDbEntity
  8
0
  0
POLYLINE
  5
299C
330
1E
100
AcDbEntity
  8
0
100
AcDb2dPolyline
 66
     1
 10
0.0
 20
0.0
 30
0.0
  0
VERTEX
  5
305A
330
299C
100
AcDbEntity
  8
0
100
AcDbVertex
100
AcDb2dVertex
 10
5.222440944881889
 20
4.015748031496062
 30
0.0
  0
VERTEX
  5
305B
330
299C
100
AcDbEntity
  8
0
100
AcDbVertex
100
AcDb2dVertex
 10
5.227362204724409
 20
4.015748031496062
 30
0.0
  0
VERTEX
  5
305C
330
299C
100
AcDbEntity
  8
0
100
AcDbVertex
100
AcDb2dVertex
 10
5.242125984251968
 20
4.015748031496062
 30
0.0
  0
SEQEND
  5
305D
330
299C
100
AcDbEntity
  8
0
  0
POLYLINE
  5
29A1
330
1E
100
AcDbEntity
  8
0
100
AcDb2dPolyline
 66
     1
 10
0.0
 20
0.0
 30
0.0
  0
VERTEX
  5
305E
330
29A1
100
AcDbEntity
  8
0
100
AcDbVertex
100
AcDb2dVertex
 10
5.222440944881889
 20
6.679133858267716
 30
0.0
  0
VERTEX
  5
305F
330
29A1
100
AcDbEntity
  8
0
100
AcDbVertex
100
AcDb2dVertex
 10
5.227362204724409
 20
6.679133858267716
 30
0.0
  0
VERTEX
  5
3060
330
29A1
100
AcDbEntity
  8
0
100
AcDbVertex
100
AcDb2dVertex
 10
5.242125984251968
 20
6.679133858267716
 30
0.0
  0
SEQEND
  5
3061
330
29A1
100
AcDbEntity
  8
0
  0
POLYLINE
  5
29A6
330
1E
100
AcDbEntity
  8
0
100
AcDb2dPolyline
 66
     1
 10
0.0
 20
0.0
 30
0.0
  0
VERTEX
  5
3062
330
29A6
100
AcDbEntity
  8
0
100
AcDbVertex
100
AcDb2dVertex
 10
5.222440944881889
 20
6.750984251968503
 30
0.0
  0
VERTEX
  5
3063
330
29A6
100
AcDbEntity
  8
0
100
AcDbVertex
100
AcDb2dVertex
 10
5.227362204724409
 20
6.764763779527559
 30
0.0
  0
VERTEX
  5
3064
330
29A6
100
AcDbEntity
  8
0
100
AcDbVertex
100
AcDb2dVertex
 10
5.242125984251968
 20
6.770669291338582
 30
0.0
  0
SEQEND
  5
3065
330
29A6
100
AcDbEntity
  8
0
  0
ENDSEC
  0
SECTION
  2
OBJECTS
  0
DICTIONARY
  5
C
330
0
100
AcDbDictionary
  3
ACAD_GROUP
350
D
  3
ACAD_MLINESTYLE
350
16
  3
ACAD_PLOTSETTINGS
350
18
  3
ACAD_LAYOUT
350
19
1001
ACAD
1000
TREAT_AS_HARD
1070
     0
  0
DICTIONARY
  5
2D75
330
1E
100
AcDbDictionary
  3
ACAD_LAYOUTSELFREF
350
2D76
  0
DICTIONARY
  5
2D73
330
1A
100
AcDbDictionary
  3
ACAD_LAYOUTSELFREF
350
2D74
  0
DICTIONARY
  5
D
102
{ACAD_REACTORS
330
C
102
}
330
C
100
AcDbDictionary
1001
ACAD
1000
TREAT_AS_HARD
1070
     0
  0
DICTIONARY
  5
16
102
{ACAD_REACTORS
330
C
102
}
330
C
100
AcDbDictionary
  3
STANDARD
350
17
1001
ACAD
1000
TREAT_AS_HARD
1070
     0
  0
DICTIONARY
  5
18
102
{ACAD_REACTORS
330
C
102
}
330
C
100
AcDbDictionary
1001
ACAD
1000
TREAT_AS_HARD
1070
     0
  0
DICTIONARY
  5
19
102
{ACAD_REACTORS
330
C
102
}
330
C
100
AcDbDictionary
1001
ACAD
1000
TREAT_AS_HARD
1070
     0
  0
XRECORD
  5
2D76
102
{ACAD_REACTORS
330
2D75
102
}
330
2D75
100
AcDbXrecord
340
1E
  0
XRECORD
  5
2D74
102
{ACAD_REACTORS
330
2D73
102
}
330
2D73
100
AcDbXrecord
340
1A
  0
MLINESTYLE
  5
17
102
{ACAD_REACTORS
330
16
102
}
330
16
100
AcDbMlineStyle
  2
STANDARD
 70
     0
  3

 62
   256
 51
90.0
 52
90.0
 71
     2
 49
0.5
 62
   256
  6
BYLAYER
 49
-0.5
 62
   256
  6
BYLAYER
  0
ENDSEC
  0
EOF
