  0
SECTION
  2
HEADER
  9
$ACADVER
  1
AC1012
  9
$DWGCODEPAGE
  3
ANSI_1252
  9
$INSBASE
 10
0.0
 20
0.0
 30
0.0
  9
$EXTMIN
 10
2.502685577728186
 20
3.09512331557358
 30
-0.0015258207003583
  9
$EXTMAX
 10
4.547973652076876
 20
7.601577778115842
 30
0.0000000349246037
  9
$LIMMIN
 10
0.0
 20
0.0
  9
$LIMMAX
 10
12.0
 20
9.0
  9
$ORTHOMODE
 70
     0
  9
$REGENMODE
 70
     1
  9
$FILLMODE
 70
     1
  9
$QTEXTMODE
 70
     0
  9
$MIRRTEXT
 70
     1
  9
$DRAGMODE
 70
     2
  9
$LTSCALE
 40
1.0
  9
$OSMODE
 70
   547
  9
$ATTMODE
 70
     1
  9
$TEXTSIZE
 40
0.2
  9
$TRACEWID
 40
0.05
  9
$TEXTSTYLE
  7
STANDARD
  9
$CLAYER
  8
0
  9
$CELTYPE
  6
BYLAYER
  9
$CECOLOR
 62
   256
  9
$CELTSCALE
 40
1.0
  9
$DELOBJ
 70
     1
  9
$DISPSILH
 70
     0
  9
$DIMSCALE
 40
1.0
  9
$DIMASZ
 40
0.18
  9
$DIMEXO
 40
0.0625
  9
$DIMDLI
 40
0.38
  9
$DIMRND
 40
0.0
  9
$DIMDLE
 40
0.0
  9
$DIMEXE
 40
0.18
  9
$DIMTP
 40
0.0
  9
$DIMTM
 40
0.0
  9
$DIMTXT
 40
0.18
  9
$DIMCEN
 40
0.09
  9
$DIMTSZ
 40
0.0
  9
$DIMTOL
 70
     0
  9
$DIMLIM
 70
     0
  9
$DIMTIH
 70
     1
  9
$DIMTOH
 70
     1
  9
$DIMSE1
 70
     0
  9
$DIMSE2
 70
     0
  9
$DIMTAD
 70
     0
  9
$DIMZIN
 70
     0
  9
$DIMBLK
  1

  9
$DIMASO
 70
     1
  9
$DIMSHO
 70
     1
  9
$DIMPOST
  1

  9
$DIMAPOST
  1

  9
$DIMALT
 70
     0
  9
$DIMALTD
 70
     2
  9
$DIMALTF
 40
25.4
  9
$DIMLFAC
 40
1.0
  9
$DIMTOFL
 70
     0
  9
$DIMTVP
 40
0.0
  9
$DIMTIX
 70
     0
  9
$DIMSOXD
 70
     0
  9
$DIMSAH
 70
     0
  9
$DIMBLK1
  1

  9
$DIMBLK2
  1

  9
$DIMSTYLE
  2
STANDARD
  9
$DIMCLRD
 70
     0
  9
$DIMCLRE
 70
     0
  9
$DIMCLRT
 70
     0
  9
$DIMTFAC
 40
1.0
  9
$DIMGAP
 40
0.09
  9
$DIMJUST
 70
     0
  9
$DIMSD1
 70
     0
  9
$DIMSD2
 70
     0
  9
$DIMTOLJ
 70
     1
  9
$DIMTZIN
 70
     0
  9
$DIMALTZ
 70
     0
  9
$DIMALTTZ
 70
     0
  9
$DIMFIT
 70
     5
  9
$DIMUPT
 70
     0
  9
$DIMUNIT
 70
     2
  9
$DIMDEC
 70
     4
  9
$DIMTDEC
 70
     4
  9
$DIMALTU
 70
     2
  9
$DIMALTTD
 70
     2
  9
$DIMTXSTY
  7
STANDARD
  9
$DIMAUNIT
 70
     0
  9
$LUNITS
 70
     2
  9
$LUPREC
 70
     4
  9
$SKETCHINC
 40
0.1
  9
$FILLETRAD
 40
0.0
  9
$AUNITS
 70
     0
  9
$AUPREC
 70
     0
  9
$MENU
  1
acad
  9
$ELEVATION
 40
0.0
  9
$PELEVATION
 40
0.0
  9
$THICKNESS
 40
0.0
  9
$LIMCHECK
 70
     0
  9
$BLIPMODE
 70
     0
  9
$CHAMFERA
 40
0.0
  9
$CHAMFERB
 40
0.0
  9
$CHAMFERC
 40
0.0
  9
$CHAMFERD
 40
0.0
  9
$SKPOLY
 70
     0
  9
$TDCREATE
 40
2453528.406273147
  9
$TDUPDATE
 40
2453528.409239930
  9
$TDINDWG
 40
0.0006114005
  9
$TDUSRTIMER
 40
0.0006114005
  9
$USRTIMER
 70
     1
  9
$ANGBASE
 50
0.0
  9
$ANGDIR
 70
     0
  9
$PDMODE
 70
     0
  9
$PDSIZE
 40
0.0
  9
$PLINEWID
 40
0.0
  9
$COORDS
 70
     1
  9
$SPLFRAME
 70
     0
  9
$SPLINETYPE
 70
     6
  9
$SPLINESEGS
 70
     8
  9
$ATTDIA
 70
     0
  9
$ATTREQ
 70
     1
  9
$HANDLING
 70
  4097
  9
$HANDSEED
  5
46EB
  9
$SURFTAB1
 70
     6
  9
$SURFTAB2
 70
     6
  9
$SURFTYPE
 70
     6
  9
$SURFU
 70
     6
  9
$SURFV
 70
     6
  9
$UCSNAME
  2

  9
$UCSORG
 10
0.0
 20
0.0
 30
0.0
  9
$UCSXDIR
 10
1.0
 20
0.0
 30
0.0
  9
$UCSYDIR
 10
0.0
 20
1.0
 30
0.0
  9
$PUCSNAME
  2

  9
$PUCSORG
 10
0.0
 20
0.0
 30
0.0
  9
$PUCSXDIR
 10
1.0
 20
0.0
 30
0.0
  9
$PUCSYDIR
 10
0.0
 20
1.0
 30
0.0
  9
$USERI1
 70
     0
  9
$USERI2
 70
     0
  9
$USERI3
 70
     0
  9
$USERI4
 70
     0
  9
$USERI5
 70
     0
  9
$USERR1
 40
0.0
  9
$USERR2
 40
0.0
  9
$USERR3
 40
0.0
  9
$USERR4
 40
0.0
  9
$USERR5
 40
0.0
  9
$WORLDVIEW
 70
     1
  9
$SHADEDGE
 70
     3
  9
$SHADEDIF
 70
    70
  9
$TILEMODE
 70
     1
  9
$MAXACTVP
 70
    16
  9
$PINSBASE
 10
0.0
 20
0.0
 30
0.0
  9
$PLIMCHECK
 70
     0
  9
$PEXTMIN
 10
1.000000000000000E+20
 20
1.000000000000000E+20
 30
1.000000000000000E+20
  9
$PEXTMAX
 10
-1.000000000000000E+20
 20
-1.000000000000000E+20
 30
-1.000000000000000E+20
  9
$PLIMMIN
 10
0.0
 20
0.0
  9
$PLIMMAX
 10
12.0
 20
9.0
  9
$UNITMODE
 70
     0
  9
$VISRETAIN
 70
     0
  9
$PLINEGEN
 70
     0
  9
$PSLTSCALE
 70
     1
  9
$TREEDEPTH
 70
  3020
  9
$PICKSTYLE
 70
     1
  9
$CMLSTYLE
  2
STANDARD
  9
$CMLJUST
 70
     0
  9
$CMLSCALE
 40
1.0
  9
$SAVEIMAGES
 70
     1
  0
ENDSEC
  0
SECTION
  2
CLASSES
  0
CLASS
  1
ACDBDICTIONARYWDFLT
  2
AcDbDictionaryWithDefault
  3
AutoCAD 2000
 90
    32768
280
     0
281
     0
  0
CLASS
  1
ACDBPLACEHOLDER
  2
AcDbPlaceHolder
  3
AutoCAD 2000
 90
    32768
280
     0
281
     0
  0
CLASS
  1
LAYOUT
  2
AcDbLayout
  3
AutoCAD 2000
 90
    32768
280
     0
281
     0
  0
CLASS
  1
LONG_TRANSACTION
  2
AcDbLongTransaction
  3
AutoCAD 2000
 90
    32768
280
     0
281
     0
  0
CLASS
  1
LWPOLYLINE
  2
AcDbPolyline
  3
AutoCAD 2000
 90
    32768
280
     0
281
     1
  0
CLASS
  1
HATCH
  2
AcDbHatch
  3
AutoCAD 2000
 90
    32768
280
     0
281
     1
  0
CLASS
  1
XRECORD
  2
AcDbXrecord
  3
AutoCAD 2000
 90
    32768
280
     0
281
     0
  0
ENDSEC
  0
SECTION
  2
TABLES
  0
TABLE
  2
VPORT
  5
8
330
0
100
AcDbSymbolTable
 70
     4
  0
VPORT
  5
46E6
330
8
100
AcDbSymbolTableRecord
100
AcDbViewportTableRecord
  2
*ACTIVE
 70
     0
 10
0.0
 20
0.0
 11
1.0
 21
1.0
 12
3.525329614902532
 22
5.348350546844711
 13
0.0
 23
0.0
 14
1.0
 24
1.0
 15
0.0
 25
0.0
 16
0.0
 26
0.0
 36
1.0
 17
0.0
 27
0.0
 37
0.0
 40
4.556341412312102
 41
1.724584103512014
 42
50.0
 43
0.0
 44
0.0
 50
0.0
 51
0.0
 71
     0
 72
   100
 73
     1
 74
     1
 75
     0
 76
     0
 77
     0
 78
     0
  0
ENDTAB
  0
TABLE
  2
LTYPE
  5
5
330
0
100
AcDbSymbolTable
 70
    25
  0
LTYPE
  5
13
330
5
100
AcDbSymbolTableRecord
100
AcDbLinetypeTableRecord
  2
BYBLOCK
 70
     0
  3

 72
    65
 73
     0
 40
0.0
  0
LTYPE
  5
14
330
5
100
AcDbSymbolTableRecord
100
AcDbLinetypeTableRecord
  2
BYLAYER
 70
     0
  3

 72
    65
 73
     0
 40
0.0
  0
LTYPE
  5
15
330
5
100
AcDbSymbolTableRecord
100
AcDbLinetypeTableRecord
  2
CONTINUOUS
 70
     0
  3
Solid line
 72
    65
 73
     0
 40
0.0
  0
LTYPE
  5
22
330
5
100
AcDbSymbolTableRecord
100
AcDbLinetypeTableRecord
  2
BORDER
 70
     0
  3
__ __ . __ __ . __ __ . __ __ . __ __ . __ __ .
 72
    65
 73
     6
 40
1.75
 49
0.5
 74
     0
 49
-0.25
 74
     0
 49
0.5
 74
     0
 49
-0.25
 74
     0
 49
0.5
 74
     0
 49
-0.25
 74
     0
  0
LTYPE
  5
23
330
5
100
AcDbSymbolTableRecord
100
AcDbLinetypeTableRecord
  2
BORDER2
 70
     0
  3
__.__.__.__.__.__.__.__.__.__.__.__.__.__.__.__
 72
    65
 73
     6
 40
0.875
 49
0.25
 74
     0
 49
-0.125
 74
     0
 49
0.25
 74
     0
 49
-0.125
 74
     0
 49
0.25
 74
     0
 49
-0.125
 74
     0
  0
LTYPE
  5
24
330
5
100
AcDbSymbolTableRecord
100
AcDbLinetypeTableRecord
  2
BORDERX2
 70
     0
  3
____  ____  .  ____  ____  .  
 72
    65
 73
     6
 40
3.5
 49
1.0
 74
     0
 49
-0.5
 74
     0
 49
1.0
 74
     0
 49
-0.5
 74
     0
 49
1.0
 74
     0
 49
-0.5
 74
     0
  0
LTYPE
  5
25
330
5
100
AcDbSymbolTableRecord
100
AcDbLinetypeTableRecord
  2
CENTER
 70
     0
  3
____ _ ____ _ ____ _ ____ _ ____ _ ____ _ ____
 72
    65
 73
     4
 40
2.0
 49
1.25
 74
     0
 49
-0.25
 74
     0
 49
0.25
 74
     0
 49
-0.25
 74
     0
  0
LTYPE
  5
26
330
5
100
AcDbSymbolTableRecord
100
AcDbLinetypeTableRecord
  2
CENTER2
 70
     0
  3
____ _ ____ _ ____ _ ____ _ ____ _ ____ _ ____
 72
    65
 73
     4
 40
1.125
 49
0.75
 74
     0
 49
-0.125
 74
     0
 49
0.125
 74
     0
 49
-0.125
 74
     0
  0
LTYPE
  5
27
330
5
100
AcDbSymbolTableRecord
100
AcDbLinetypeTableRecord
  2
CENTERX2
 70
     0
  3
________  __  ________  __  ________  __  
 72
    65
 73
     4
 40
4.0
 49
2.5
 74
     0
 49
-0.5
 74
     0
 49
0.5
 74
     0
 49
-0.5
 74
     0
  0
LTYPE
  5
28
330
5
100
AcDbSymbolTableRecord
100
AcDbLinetypeTableRecord
  2
DASHDOT
 70
     0
  3
__ . __ . __ . __ . __ . __ . __ . 
 72
    65
 73
     4
 40
1.0
 49
0.5
 74
     0
 49
-0.25
 74
     0
 49
0.0
 74
     0
 49
-0.25
 74
     0
  0
LTYPE
  5
29
330
5
100
AcDbSymbolTableRecord
100
AcDbLinetypeTableRecord
  2
DASHDOT2
 70
     0
  3
_._._._._._._._._._._._._._._._.
 72
    65
 73
     4
 40
0.5
 49
0.25
 74
     0
 49
-0.125
 74
     0
 49
0.0
 74
     0
 49
-0.125
 74
     0
  0
LTYPE
  5
2A
330
5
100
AcDbSymbolTableRecord
100
AcDbLinetypeTableRecord
  2
DASHDOTX2
 70
     0
  3
____  .  ____  .  ____  .  ____  .  
 72
    65
 73
     4
 40
2.0
 49
1.0
 74
     0
 49
-0.5
 74
     0
 49
0.0
 74
     0
 49
-0.5
 74
     0
  0
LTYPE
  5
2B
330
5
100
AcDbSymbolTableRecord
100
AcDbLinetypeTableRecord
  2
DASHED
 70
     0
  3
__ __ __ __ __ __ __ __ __ __ __ __ 
 72
    65
 73
     2
 40
0.75
 49
0.5
 74
     0
 49
-0.25
 74
     0
  0
LTYPE
  5
2C
330
5
100
AcDbSymbolTableRecord
100
AcDbLinetypeTableRecord
  2
DASHED2
 70
     0
  3
_ _ _ _ _ _ _ _ _ _ _ _ _ _ _ _ _ _ 
 72
    65
 73
     2
 40
0.375
 49
0.25
 74
     0
 49
-0.125
 74
     0
  0
LTYPE
  5
2D
330
5
100
AcDbSymbolTableRecord
100
AcDbLinetypeTableRecord
  2
DASHEDX2
 70
     0
  3
____  ____  ____  ____  ____  ____  
 72
    65
 73
     2
 40
1.5
 49
1.0
 74
     0
 49
-0.5
 74
     0
  0
LTYPE
  5
2E
330
5
100
AcDbSymbolTableRecord
100
AcDbLinetypeTableRecord
  2
DIVIDE
 70
     0
  3
____ . . ____ . . ____ . . ____ . . 
 72
    65
 73
     6
 40
1.25
 49
0.5
 74
     0
 49
-0.25
 74
     0
 49
0.0
 74
     0
 49
-0.25
 74
     0
 49
0.0
 74
     0
 49
-0.25
 74
     0
  0
LTYPE
  5
2F
330
5
100
AcDbSymbolTableRecord
100
AcDbLinetypeTableRecord
  2
DIVIDE2
 70
     0
  3
__..__..__..__..__..__..__..__..__..
 72
    65
 73
     6
 40
0.625
 49
0.25
 74
     0
 49
-0.125
 74
     0
 49
0.0
 74
     0
 49
-0.125
 74
     0
 49
0.0
 74
     0
 49
-0.125
 74
     0
  0
LTYPE
  5
30
330
5
100
AcDbSymbolTableRecord
100
AcDbLinetypeTableRecord
  2
DIVIDEX2
 70
     0
  3
________  .  .  ________  .  .  ________  .  . 
 72
    65
 73
     6
 40
2.5
 49
1.0
 74
     0
 49
-0.5
 74
     0
 49
0.0
 74
     0
 49
-0.5
 74
     0
 49
0.0
 74
     0
 49
-0.5
 74
     0
  0
LTYPE
  5
31
330
5
100
AcDbSymbolTableRecord
100
AcDbLinetypeTableRecord
  2
DOT
 70
     0
  3
. . . . . . . . . . . . . . . . . . 
 72
    65
 73
     2
 40
0.25
 49
0.0
 74
     0
 49
-0.25
 74
     0
  0
LTYPE
  5
32
330
5
100
AcDbSymbolTableRecord
100
AcDbLinetypeTableRecord
  2
DOT2
 70
     0
  3
....................................
 72
    65
 73
     2
 40
0.125
 49
0.0
 74
     0
 49
-0.125
 74
     0
  0
LTYPE
  5
33
330
5
100
AcDbSymbolTableRecord
100
AcDbLinetypeTableRecord
  2
DOTX2
 70
     0
  3
.  .  .  .  .  .  .  .  .  .  .  .  .  
 72
    65
 73
     2
 40
0.5
 49
0.0
 74
     0
 49
-0.5
 74
     0
  0
LTYPE
  5
34
330
5
100
AcDbSymbolTableRecord
100
AcDbLinetypeTableRecord
  2
HIDDEN
 70
     0
  3
__ __ __ __ __ __ __ __ __ __ __ __ 
 72
    65
 73
     2
 40
0.375
 49
0.25
 74
     0
 49
-0.125
 74
     0
  0
LTYPE
  5
35
330
5
100
AcDbSymbolTableRecord
100
AcDbLinetypeTableRecord
  2
HIDDEN2
 70
     0
  3
_ _ _ _ _ _ _ _ _ _ _ _ _ _ _ _ _ _ 
 72
    65
 73
     2
 40
0.1875
 49
0.125
 74
     0
 49
-0.0625
 74
     0
  0
LTYPE
  5
36
330
5
100
AcDbSymbolTableRecord
100
AcDbLinetypeTableRecord
  2
HIDDENX2
 70
     0
  3
____ ____ ____ ____ ____ ____ ____ 
 72
    65
 73
     2
 40
0.75
 49
0.5
 74
     0
 49
-0.25
 74
     0
  0
LTYPE
  5
37
330
5
100
AcDbSymbolTableRecord
100
AcDbLinetypeTableRecord
  2
PHANTOM
 70
     0
  3
______  __  __  ______  __  __  
 72
    65
 73
     6
 40
2.5
 49
1.25
 74
     0
 49
-0.25
 74
     0
 49
0.25
 74
     0
 49
-0.25
 74
     0
 49
0.25
 74
     0
 49
-0.25
 74
     0
  0
LTYPE
  5
38
330
5
100
AcDbSymbolTableRecord
100
AcDbLinetypeTableRecord
  2
PHANTOM2
 70
     0
  3
___ _ _ ___ _ _ ___ _ _ ___ _ _ 
 72
    65
 73
     6
 40
1.25
 49
0.625
 74
     0
 49
-0.125
 74
     0
 49
0.125
 74
     0
 49
-0.125
 74
     0
 49
0.125
 74
     0
 49
-0.125
 74
     0
  0
LTYPE
  5
39
330
5
100
AcDbSymbolTableRecord
100
AcDbLinetypeTableRecord
  2
PHANTOMX2
 70
     0
  3
___ _ _ ___ _ _ ___ _ _ ___ _ _ 
 72
    65
 73
     6
 40
5.0
 49
2.5
 74
     0
 49
-0.5
 74
     0
 49
0.5
 74
     0
 49
-0.5
 74
     0
 49
0.5
 74
     0
 49
-0.5
 74
     0
  0
ENDTAB
  0
TABLE
  2
LAYER
  5
2
330
0
100
AcDbSymbolTable
 70
   256
  0
LAYER
  5
10
330
2
100
AcDbSymbolTableRecord
100
AcDbLayerTableRecord
  2
0
 70
     0
 62
     7
  6
CONTINUOUS
  0
LAYER
  5
3A
330
2
100
AcDbSymbolTableRecord
100
AcDbLayerTableRecord
  2
1
 70
     0
 62
     1
  6
CONTINUOUS
  0
LAYER
  5
3B
330
2
100
AcDbSymbolTableRecord
100
AcDbLayerTableRecord
  2
2
 70
     0
 62
     2
  6
CONTINUOUS
  0
LAYER
  5
3C
330
2
100
AcDbSymbolTableRecord
100
AcDbLayerTableRecord
  2
3
 70
     0
 62
     3
  6
CONTINUOUS
  0
LAYER
  5
3D
330
2
100
AcDbSymbolTableRecord
100
AcDbLayerTableRecord
  2
4
 70
     0
 62
     4
  6
CONTINUOUS
  0
LAYER
  5
3E
330
2
100
AcDbSymbolTableRecord
100
AcDbLayerTableRecord
  2
5
 70
     0
 62
     5
  6
CONTINUOUS
  0
LAYER
  5
3F
330
2
100
AcDbSymbolTableRecord
100
AcDbLayerTableRecord
  2
6
 70
     0
 62
     6
  6
CONTINUOUS
  0
LAYER
  5
40
330
2
100
AcDbSymbolTableRecord
100
AcDbLayerTableRecord
  2
7
 70
     0
 62
     7
  6
CONTINUOUS
  0
LAYER
  5
41
330
2
100
AcDbSymbolTableRecord
100
AcDbLayerTableRecord
  2
8
 70
     0
 62
     8
  6
CONTINUOUS
  0
LAYER
  5
42
330
2
100
AcDbSymbolTableRecord
100
AcDbLayerTableRecord
  2
9
 70
     0
 62
     9
  6
CONTINUOUS
  0
LAYER
  5
43
330
2
100
AcDbSymbolTableRecord
100
AcDbLayerTableRecord
  2
10
 70
     0
 62
    10
  6
CONTINUOUS
  0
LAYER
  5
44
330
2
100
AcDbSymbolTableRecord
100
AcDbLayerTableRecord
  2
11
 70
     0
 62
    11
  6
CONTINUOUS
  0
LAYER
  5
45
330
2
100
AcDbSymbolTableRecord
100
AcDbLayerTableRecord
  2
12
 70
     0
 62
    12
  6
CONTINUOUS
  0
LAYER
  5
46
330
2
100
AcDbSymbolTableRecord
100
AcDbLayerTableRecord
  2
13
 70
     0
 62
    13
  6
CONTINUOUS
  0
LAYER
  5
47
330
2
100
AcDbSymbolTableRecord
100
AcDbLayerTableRecord
  2
14
 70
     0
 62
    14
  6
CONTINUOUS
  0
LAYER
  5
48
330
2
100
AcDbSymbolTableRecord
100
AcDbLayerTableRecord
  2
15
 70
     0
 62
    15
  6
CONTINUOUS
  0
LAYER
  5
49
330
2
100
AcDbSymbolTableRecord
100
AcDbLayerTableRecord
  2
16
 70
     0
 62
    16
  6
CONTINUOUS
  0
LAYER
  5
4A
330
2
100
AcDbSymbolTableRecord
100
AcDbLayerTableRecord
  2
17
 70
     0
 62
    17
  6
CONTINUOUS
  0
LAYER
  5
4B
330
2
100
AcDbSymbolTableRecord
100
AcDbLayerTableRecord
  2
18
 70
     0
 62
    18
  6
CONTINUOUS
  0
LAYER
  5
4C
330
2
100
AcDbSymbolTableRecord
100
AcDbLayerTableRecord
  2
19
 70
     0
 62
    19
  6
CONTINUOUS
  0
LAYER
  5
4D
330
2
100
AcDbSymbolTableRecord
100
AcDbLayerTableRecord
  2
20
 70
     0
 62
    20
  6
CONTINUOUS
  0
LAYER
  5
4E
330
2
100
AcDbSymbolTableRecord
100
AcDbLayerTableRecord
  2
21
 70
     0
 62
    21
  6
CONTINUOUS
  0
LAYER
  5
4F
330
2
100
AcDbSymbolTableRecord
100
AcDbLayerTableRecord
  2
22
 70
     0
 62
    22
  6
CONTINUOUS
  0
LAYER
  5
50
330
2
100
AcDbSymbolTableRecord
100
AcDbLayerTableRecord
  2
23
 70
     0
 62
    23
  6
CONTINUOUS
  0
LAYER
  5
51
330
2
100
AcDbSymbolTableRecord
100
AcDbLayerTableRecord
  2
24
 70
     0
 62
    24
  6
CONTINUOUS
  0
LAYER
  5
52
330
2
100
AcDbSymbolTableRecord
100
AcDbLayerTableRecord
  2
25
 70
     0
 62
    25
  6
CONTINUOUS
  0
LAYER
  5
53
330
2
100
AcDbSymbolTableRecord
100
AcDbLayerTableRecord
  2
26
 70
     0
 62
    26
  6
CONTINUOUS
  0
LAYER
  5
54
330
2
100
AcDbSymbolTableRecord
100
AcDbLayerTableRecord
  2
27
 70
     0
 62
    27
  6
CONTINUOUS
  0
LAYER
  5
55
330
2
100
AcDbSymbolTableRecord
100
AcDbLayerTableRecord
  2
28
 70
     0
 62
    28
  6
CONTINUOUS
  0
LAYER
  5
56
330
2
100
AcDbSymbolTableRecord
100
AcDbLayerTableRecord
  2
29
 70
     0
 62
    29
  6
CONTINUOUS
  0
LAYER
  5
57
330
2
100
AcDbSymbolTableRecord
100
AcDbLayerTableRecord
  2
30
 70
     0
 62
    30
  6
CONTINUOUS
  0
LAYER
  5
58
330
2
100
AcDbSymbolTableRecord
100
AcDbLayerTableRecord
  2
31
 70
     0
 62
    31
  6
CONTINUOUS
  0
LAYER
  5
59
330
2
100
AcDbSymbolTableRecord
100
AcDbLayerTableRecord
  2
32
 70
     0
 62
    32
  6
CONTINUOUS
  0
LAYER
  5
5A
330
2
100
AcDbSymbolTableRecord
100
AcDbLayerTableRecord
  2
33
 70
     0
 62
    33
  6
CONTINUOUS
  0
LAYER
  5
5B
330
2
100
AcDbSymbolTableRecord
100
AcDbLayerTableRecord
  2
34
 70
     0
 62
    34
  6
CONTINUOUS
  0
LAYER
  5
5C
330
2
100
AcDbSymbolTableRecord
100
AcDbLayerTableRecord
  2
35
 70
     0
 62
    35
  6
CONTINUOUS
  0
LAYER
  5
5D
330
2
100
AcDbSymbolTableRecord
100
AcDbLayerTableRecord
  2
36
 70
     0
 62
    36
  6
CONTINUOUS
  0
LAYER
  5
5E
330
2
100
AcDbSymbolTableRecord
100
AcDbLayerTableRecord
  2
37
 70
     0
 62
    37
  6
CONTINUOUS
  0
LAYER
  5
5F
330
2
100
AcDbSymbolTableRecord
100
AcDbLayerTableRecord
  2
38
 70
     0
 62
    38
  6
CONTINUOUS
  0
LAYER
  5
60
330
2
100
AcDbSymbolTableRecord
100
AcDbLayerTableRecord
  2
39
 70
     0
 62
    39
  6
CONTINUOUS
  0
LAYER
  5
61
330
2
100
AcDbSymbolTableRecord
100
AcDbLayerTableRecord
  2
40
 70
     0
 62
    40
  6
CONTINUOUS
  0
LAYER
  5
62
330
2
100
AcDbSymbolTableRecord
100
AcDbLayerTableRecord
  2
41
 70
     0
 62
    41
  6
CONTINUOUS
  0
LAYER
  5
63
330
2
100
AcDbSymbolTableRecord
100
AcDbLayerTableRecord
  2
42
 70
     0
 62
    42
  6
CONTINUOUS
  0
LAYER
  5
64
330
2
100
AcDbSymbolTableRecord
100
AcDbLayerTableRecord
  2
43
 70
     0
 62
    43
  6
CONTINUOUS
  0
LAYER
  5
65
330
2
100
AcDbSymbolTableRecord
100
AcDbLayerTableRecord
  2
44
 70
     0
 62
    44
  6
CONTINUOUS
  0
LAYER
  5
66
330
2
100
AcDbSymbolTableRecord
100
AcDbLayerTableRecord
  2
45
 70
     0
 62
    45
  6
CONTINUOUS
  0
LAYER
  5
67
330
2
100
AcDbSymbolTableRecord
100
AcDbLayerTableRecord
  2
46
 70
     0
 62
    46
  6
CONTINUOUS
  0
LAYER
  5
68
330
2
100
AcDbSymbolTableRecord
100
AcDbLayerTableRecord
  2
47
 70
     0
 62
    47
  6
CONTINUOUS
  0
LAYER
  5
69
330
2
100
AcDbSymbolTableRecord
100
AcDbLayerTableRecord
  2
48
 70
     0
 62
    48
  6
CONTINUOUS
  0
LAYER
  5
6A
330
2
100
AcDbSymbolTableRecord
100
AcDbLayerTableRecord
  2
49
 70
     0
 62
    49
  6
CONTINUOUS
  0
LAYER
  5
6B
330
2
100
AcDbSymbolTableRecord
100
AcDbLayerTableRecord
  2
50
 70
     0
 62
    50
  6
CONTINUOUS
  0
LAYER
  5
6C
330
2
100
AcDbSymbolTableRecord
100
AcDbLayerTableRecord
  2
51
 70
     0
 62
    51
  6
CONTINUOUS
  0
LAYER
  5
6D
330
2
100
AcDbSymbolTableRecord
100
AcDbLayerTableRecord
  2
52
 70
     0
 62
    52
  6
CONTINUOUS
  0
LAYER
  5
6E
330
2
100
AcDbSymbolTableRecord
100
AcDbLayerTableRecord
  2
53
 70
     0
 62
    53
  6
CONTINUOUS
  0
LAYER
  5
6F
330
2
100
AcDbSymbolTableRecord
100
AcDbLayerTableRecord
  2
54
 70
     0
 62
    54
  6
CONTINUOUS
  0
LAYER
  5
70
330
2
100
AcDbSymbolTableRecord
100
AcDbLayerTableRecord
  2
55
 70
     0
 62
    55
  6
CONTINUOUS
  0
LAYER
  5
71
330
2
100
AcDbSymbolTableRecord
100
AcDbLayerTableRecord
  2
56
 70
     0
 62
    56
  6
CONTINUOUS
  0
LAYER
  5
72
330
2
100
AcDbSymbolTableRecord
100
AcDbLayerTableRecord
  2
57
 70
     0
 62
    57
  6
CONTINUOUS
  0
LAYER
  5
73
330
2
100
AcDbSymbolTableRecord
100
AcDbLayerTableRecord
  2
58
 70
     0
 62
    58
  6
CONTINUOUS
  0
LAYER
  5
74
330
2
100
AcDbSymbolTableRecord
100
AcDbLayerTableRecord
  2
59
 70
     0
 62
    59
  6
CONTINUOUS
  0
LAYER
  5
75
330
2
100
AcDbSymbolTableRecord
100
AcDbLayerTableRecord
  2
60
 70
     0
 62
    60
  6
CONTINUOUS
  0
LAYER
  5
76
330
2
100
AcDbSymbolTableRecord
100
AcDbLayerTableRecord
  2
61
 70
     0
 62
    61
  6
CONTINUOUS
  0
LAYER
  5
77
330
2
100
AcDbSymbolTableRecord
100
AcDbLayerTableRecord
  2
62
 70
     0
 62
    62
  6
CONTINUOUS
  0
LAYER
  5
78
330
2
100
AcDbSymbolTableRecord
100
AcDbLayerTableRecord
  2
63
 70
     0
 62
    63
  6
CONTINUOUS
  0
LAYER
  5
79
330
2
100
AcDbSymbolTableRecord
100
AcDbLayerTableRecord
  2
64
 70
     0
 62
    64
  6
CONTINUOUS
  0
LAYER
  5
7A
330
2
100
AcDbSymbolTableRecord
100
AcDbLayerTableRecord
  2
65
 70
     0
 62
    65
  6
CONTINUOUS
  0
LAYER
  5
7B
330
2
100
AcDbSymbolTableRecord
100
AcDbLayerTableRecord
  2
66
 70
     0
 62
    66
  6
CONTINUOUS
  0
LAYER
  5
7C
330
2
100
AcDbSymbolTableRecord
100
AcDbLayerTableRecord
  2
67
 70
     0
 62
    67
  6
CONTINUOUS
  0
LAYER
  5
7D
330
2
100
AcDbSymbolTableRecord
100
AcDbLayerTableRecord
  2
68
 70
     0
 62
    68
  6
CONTINUOUS
  0
LAYER
  5
7E
330
2
100
AcDbSymbolTableRecord
100
AcDbLayerTableRecord
  2
69
 70
     0
 62
    69
  6
CONTINUOUS
  0
LAYER
  5
7F
330
2
100
AcDbSymbolTableRecord
100
AcDbLayerTableRecord
  2
70
 70
     0
 62
    70
  6
CONTINUOUS
  0
LAYER
  5
80
330
2
100
AcDbSymbolTableRecord
100
AcDbLayerTableRecord
  2
71
 70
     0
 62
    71
  6
CONTINUOUS
  0
LAYER
  5
81
330
2
100
AcDbSymbolTableRecord
100
AcDbLayerTableRecord
  2
72
 70
     0
 62
    72
  6
CONTINUOUS
  0
LAYER
  5
82
330
2
100
AcDbSymbolTableRecord
100
AcDbLayerTableRecord
  2
73
 70
     0
 62
    73
  6
CONTINUOUS
  0
LAYER
  5
83
330
2
100
AcDbSymbolTableRecord
100
AcDbLayerTableRecord
  2
74
 70
     0
 62
    74
  6
CONTINUOUS
  0
LAYER
  5
84
330
2
100
AcDbSymbolTableRecord
100
AcDbLayerTableRecord
  2
75
 70
     0
 62
    75
  6
CONTINUOUS
  0
LAYER
  5
85
330
2
100
AcDbSymbolTableRecord
100
AcDbLayerTableRecord
  2
76
 70
     0
 62
    76
  6
CONTINUOUS
  0
LAYER
  5
86
330
2
100
AcDbSymbolTableRecord
100
AcDbLayerTableRecord
  2
77
 70
     0
 62
    77
  6
CONTINUOUS
  0
LAYER
  5
87
330
2
100
AcDbSymbolTableRecord
100
AcDbLayerTableRecord
  2
78
 70
     0
 62
    78
  6
CONTINUOUS
  0
LAYER
  5
88
330
2
100
AcDbSymbolTableRecord
100
AcDbLayerTableRecord
  2
79
 70
     0
 62
    79
  6
CONTINUOUS
  0
LAYER
  5
89
330
2
100
AcDbSymbolTableRecord
100
AcDbLayerTableRecord
  2
80
 70
     0
 62
    80
  6
CONTINUOUS
  0
LAYER
  5
8A
330
2
100
AcDbSymbolTableRecord
100
AcDbLayerTableRecord
  2
81
 70
     0
 62
    81
  6
CONTINUOUS
  0
LAYER
  5
8B
330
2
100
AcDbSymbolTableRecord
100
AcDbLayerTableRecord
  2
82
 70
     0
 62
    82
  6
CONTINUOUS
  0
LAYER
  5
8C
330
2
100
AcDbSymbolTableRecord
100
AcDbLayerTableRecord
  2
83
 70
     0
 62
    83
  6
CONTINUOUS
  0
LAYER
  5
8D
330
2
100
AcDbSymbolTableRecord
100
AcDbLayerTableRecord
  2
84
 70
     0
 62
    84
  6
CONTINUOUS
  0
LAYER
  5
8E
330
2
100
AcDbSymbolTableRecord
100
AcDbLayerTableRecord
  2
85
 70
     0
 62
    85
  6
CONTINUOUS
  0
LAYER
  5
8F
330
2
100
AcDbSymbolTableRecord
100
AcDbLayerTableRecord
  2
86
 70
     0
 62
    86
  6
CONTINUOUS
  0
LAYER
  5
90
330
2
100
AcDbSymbolTableRecord
100
AcDbLayerTableRecord
  2
87
 70
     0
 62
    87
  6
CONTINUOUS
  0
LAYER
  5
91
330
2
100
AcDbSymbolTableRecord
100
AcDbLayerTableRecord
  2
88
 70
     0
 62
    88
  6
CONTINUOUS
  0
LAYER
  5
92
330
2
100
AcDbSymbolTableRecord
100
AcDbLayerTableRecord
  2
89
 70
     0
 62
    89
  6
CONTINUOUS
  0
LAYER
  5
93
330
2
100
AcDbSymbolTableRecord
100
AcDbLayerTableRecord
  2
90
 70
     0
 62
    90
  6
CONTINUOUS
  0
LAYER
  5
94
330
2
100
AcDbSymbolTableRecord
100
AcDbLayerTableRecord
  2
91
 70
     0
 62
    91
  6
CONTINUOUS
  0
LAYER
  5
95
330
2
100
AcDbSymbolTableRecord
100
AcDbLayerTableRecord
  2
92
 70
     0
 62
    92
  6
CONTINUOUS
  0
LAYER
  5
96
330
2
100
AcDbSymbolTableRecord
100
AcDbLayerTableRecord
  2
93
 70
     0
 62
    93
  6
CONTINUOUS
  0
LAYER
  5
97
330
2
100
AcDbSymbolTableRecord
100
AcDbLayerTableRecord
  2
94
 70
     0
 62
    94
  6
CONTINUOUS
  0
LAYER
  5
98
330
2
100
AcDbSymbolTableRecord
100
AcDbLayerTableRecord
  2
95
 70
     0
 62
    95
  6
CONTINUOUS
  0
LAYER
  5
99
330
2
100
AcDbSymbolTableRecord
100
AcDbLayerTableRecord
  2
96
 70
     0
 62
    96
  6
CONTINUOUS
  0
LAYER
  5
9A
330
2
100
AcDbSymbolTableRecord
100
AcDbLayerTableRecord
  2
97
 70
     0
 62
    97
  6
CONTINUOUS
  0
LAYER
  5
9B
330
2
100
AcDbSymbolTableRecord
100
AcDbLayerTableRecord
  2
98
 70
     0
 62
    98
  6
CONTINUOUS
  0
LAYER
  5
9C
330
2
100
AcDbSymbolTableRecord
100
AcDbLayerTableRecord
  2
99
 70
     0
 62
    99
  6
CONTINUOUS
  0
LAYER
  5
9D
330
2
100
AcDbSymbolTableRecord
100
AcDbLayerTableRecord
  2
100
 70
     0
 62
   100
  6
CONTINUOUS
  0
LAYER
  5
9E
330
2
100
AcDbSymbolTableRecord
100
AcDbLayerTableRecord
  2
101
 70
     0
 62
   101
  6
CONTINUOUS
  0
LAYER
  5
9F
330
2
100
AcDbSymbolTableRecord
100
AcDbLayerTableRecord
  2
102
 70
     0
 62
   102
  6
CONTINUOUS
  0
LAYER
  5
A0
330
2
100
AcDbSymbolTableRecord
100
AcDbLayerTableRecord
  2
103
 70
     0
 62
   103
  6
CONTINUOUS
  0
LAYER
  5
A1
330
2
100
AcDbSymbolTableRecord
100
AcDbLayerTableRecord
  2
104
 70
     0
 62
   104
  6
CONTINUOUS
  0
LAYER
  5
A2
330
2
100
AcDbSymbolTableRecord
100
AcDbLayerTableRecord
  2
105
 70
     0
 62
   105
  6
CONTINUOUS
  0
LAYER
  5
A3
330
2
100
AcDbSymbolTableRecord
100
AcDbLayerTableRecord
  2
106
 70
     0
 62
   106
  6
CONTINUOUS
  0
LAYER
  5
A4
330
2
100
AcDbSymbolTableRecord
100
AcDbLayerTableRecord
  2
107
 70
     0
 62
   107
  6
CONTINUOUS
  0
LAYER
  5
A5
330
2
100
AcDbSymbolTableRecord
100
AcDbLayerTableRecord
  2
108
 70
     0
 62
   108
  6
CONTINUOUS
  0
LAYER
  5
A6
330
2
100
AcDbSymbolTableRecord
100
AcDbLayerTableRecord
  2
109
 70
     0
 62
   109
  6
CONTINUOUS
  0
LAYER
  5
A7
330
2
100
AcDbSymbolTableRecord
100
AcDbLayerTableRecord
  2
110
 70
     0
 62
   110
  6
CONTINUOUS
  0
LAYER
  5
A8
330
2
100
AcDbSymbolTableRecord
100
AcDbLayerTableRecord
  2
111
 70
     0
 62
   111
  6
CONTINUOUS
  0
LAYER
  5
A9
330
2
100
AcDbSymbolTableRecord
100
AcDbLayerTableRecord
  2
112
 70
     0
 62
   112
  6
CONTINUOUS
  0
LAYER
  5
AA
330
2
100
AcDbSymbolTableRecord
100
AcDbLayerTableRecord
  2
113
 70
     0
 62
   113
  6
CONTINUOUS
  0
LAYER
  5
AB
330
2
100
AcDbSymbolTableRecord
100
AcDbLayerTableRecord
  2
114
 70
     0
 62
   114
  6
CONTINUOUS
  0
LAYER
  5
AC
330
2
100
AcDbSymbolTableRecord
100
AcDbLayerTableRecord
  2
115
 70
     0
 62
   115
  6
CONTINUOUS
  0
LAYER
  5
AD
330
2
100
AcDbSymbolTableRecord
100
AcDbLayerTableRecord
  2
116
 70
     0
 62
   116
  6
CONTINUOUS
  0
LAYER
  5
AE
330
2
100
AcDbSymbolTableRecord
100
AcDbLayerTableRecord
  2
117
 70
     0
 62
   117
  6
CONTINUOUS
  0
LAYER
  5
AF
330
2
100
AcDbSymbolTableRecord
100
AcDbLayerTableRecord
  2
118
 70
     0
 62
   118
  6
CONTINUOUS
  0
LAYER
  5
B0
330
2
100
AcDbSymbolTableRecord
100
AcDbLayerTableRecord
  2
119
 70
     0
 62
   119
  6
CONTINUOUS
  0
LAYER
  5
B1
330
2
100
AcDbSymbolTableRecord
100
AcDbLayerTableRecord
  2
120
 70
     0
 62
   120
  6
CONTINUOUS
  0
LAYER
  5
B2
330
2
100
AcDbSymbolTableRecord
100
AcDbLayerTableRecord
  2
121
 70
     0
 62
   121
  6
CONTINUOUS
  0
LAYER
  5
B3
330
2
100
AcDbSymbolTableRecord
100
AcDbLayerTableRecord
  2
122
 70
     0
 62
   122
  6
CONTINUOUS
  0
LAYER
  5
B4
330
2
100
AcDbSymbolTableRecord
100
AcDbLayerTableRecord
  2
123
 70
     0
 62
   123
  6
CONTINUOUS
  0
LAYER
  5
B5
330
2
100
AcDbSymbolTableRecord
100
AcDbLayerTableRecord
  2
124
 70
     0
 62
   124
  6
CONTINUOUS
  0
LAYER
  5
B6
330
2
100
AcDbSymbolTableRecord
100
AcDbLayerTableRecord
  2
125
 70
     0
 62
   125
  6
CONTINUOUS
  0
LAYER
  5
B7
330
2
100
AcDbSymbolTableRecord
100
AcDbLayerTableRecord
  2
126
 70
     0
 62
   126
  6
CONTINUOUS
  0
LAYER
  5
B8
330
2
100
AcDbSymbolTableRecord
100
AcDbLayerTableRecord
  2
127
 70
     0
 62
   127
  6
CONTINUOUS
  0
LAYER
  5
B9
330
2
100
AcDbSymbolTableRecord
100
AcDbLayerTableRecord
  2
128
 70
     0
 62
   128
  6
CONTINUOUS
  0
LAYER
  5
BA
330
2
100
AcDbSymbolTableRecord
100
AcDbLayerTableRecord
  2
129
 70
     0
 62
   129
  6
CONTINUOUS
  0
LAYER
  5
BB
330
2
100
AcDbSymbolTableRecord
100
AcDbLayerTableRecord
  2
130
 70
     0
 62
   130
  6
CONTINUOUS
  0
LAYER
  5
BC
330
2
100
AcDbSymbolTableRecord
100
AcDbLayerTableRecord
  2
131
 70
     0
 62
   131
  6
CONTINUOUS
  0
LAYER
  5
BD
330
2
100
AcDbSymbolTableRecord
100
AcDbLayerTableRecord
  2
132
 70
     0
 62
   132
  6
CONTINUOUS
  0
LAYER
  5
BE
330
2
100
AcDbSymbolTableRecord
100
AcDbLayerTableRecord
  2
133
 70
     0
 62
   133
  6
CONTINUOUS
  0
LAYER
  5
BF
330
2
100
AcDbSymbolTableRecord
100
AcDbLayerTableRecord
  2
134
 70
     0
 62
   134
  6
CONTINUOUS
  0
LAYER
  5
C0
330
2
100
AcDbSymbolTableRecord
100
AcDbLayerTableRecord
  2
135
 70
     0
 62
   135
  6
CONTINUOUS
  0
LAYER
  5
C1
330
2
100
AcDbSymbolTableRecord
100
AcDbLayerTableRecord
  2
136
 70
     0
 62
   136
  6
CONTINUOUS
  0
LAYER
  5
C2
330
2
100
AcDbSymbolTableRecord
100
AcDbLayerTableRecord
  2
137
 70
     0
 62
   137
  6
CONTINUOUS
  0
LAYER
  5
C3
330
2
100
AcDbSymbolTableRecord
100
AcDbLayerTableRecord
  2
138
 70
     0
 62
   138
  6
CONTINUOUS
  0
LAYER
  5
C4
330
2
100
AcDbSymbolTableRecord
100
AcDbLayerTableRecord
  2
139
 70
     0
 62
   139
  6
CONTINUOUS
  0
LAYER
  5
C5
330
2
100
AcDbSymbolTableRecord
100
AcDbLayerTableRecord
  2
140
 70
     0
 62
   140
  6
CONTINUOUS
  0
LAYER
  5
C6
330
2
100
AcDbSymbolTableRecord
100
AcDbLayerTableRecord
  2
141
 70
     0
 62
   141
  6
CONTINUOUS
  0
LAYER
  5
C7
330
2
100
AcDbSymbolTableRecord
100
AcDbLayerTableRecord
  2
142
 70
     0
 62
   142
  6
CONTINUOUS
  0
LAYER
  5
C8
330
2
100
AcDbSymbolTableRecord
100
AcDbLayerTableRecord
  2
143
 70
     0
 62
   143
  6
CONTINUOUS
  0
LAYER
  5
C9
330
2
100
AcDbSymbolTableRecord
100
AcDbLayerTableRecord
  2
144
 70
     0
 62
   144
  6
CONTINUOUS
  0
LAYER
  5
CA
330
2
100
AcDbSymbolTableRecord
100
AcDbLayerTableRecord
  2
145
 70
     0
 62
   145
  6
CONTINUOUS
  0
LAYER
  5
CB
330
2
100
AcDbSymbolTableRecord
100
AcDbLayerTableRecord
  2
146
 70
     0
 62
   146
  6
CONTINUOUS
  0
LAYER
  5
CC
330
2
100
AcDbSymbolTableRecord
100
AcDbLayerTableRecord
  2
147
 70
     0
 62
   147
  6
CONTINUOUS
  0
LAYER
  5
CD
330
2
100
AcDbSymbolTableRecord
100
AcDbLayerTableRecord
  2
148
 70
     0
 62
   148
  6
CONTINUOUS
  0
LAYER
  5
CE
330
2
100
AcDbSymbolTableRecord
100
AcDbLayerTableRecord
  2
149
 70
     0
 62
   149
  6
CONTINUOUS
  0
LAYER
  5
CF
330
2
100
AcDbSymbolTableRecord
100
AcDbLayerTableRecord
  2
150
 70
     0
 62
   150
  6
CONTINUOUS
  0
LAYER
  5
D0
330
2
100
AcDbSymbolTableRecord
100
AcDbLayerTableRecord
  2
151
 70
     0
 62
   151
  6
CONTINUOUS
  0
LAYER
  5
D1
330
2
100
AcDbSymbolTableRecord
100
AcDbLayerTableRecord
  2
152
 70
     0
 62
   152
  6
CONTINUOUS
  0
LAYER
  5
D2
330
2
100
AcDbSymbolTableRecord
100
AcDbLayerTableRecord
  2
153
 70
     0
 62
   153
  6
CONTINUOUS
  0
LAYER
  5
D3
330
2
100
AcDbSymbolTableRecord
100
AcDbLayerTableRecord
  2
154
 70
     0
 62
   154
  6
CONTINUOUS
  0
LAYER
  5
D4
330
2
100
AcDbSymbolTableRecord
100
AcDbLayerTableRecord
  2
155
 70
     0
 62
   155
  6
CONTINUOUS
  0
LAYER
  5
D5
330
2
100
AcDbSymbolTableRecord
100
AcDbLayerTableRecord
  2
156
 70
     0
 62
   156
  6
CONTINUOUS
  0
LAYER
  5
D6
330
2
100
AcDbSymbolTableRecord
100
AcDbLayerTableRecord
  2
157
 70
     0
 62
   157
  6
CONTINUOUS
  0
LAYER
  5
D7
330
2
100
AcDbSymbolTableRecord
100
AcDbLayerTableRecord
  2
158
 70
     0
 62
   158
  6
CONTINUOUS
  0
LAYER
  5
D8
330
2
100
AcDbSymbolTableRecord
100
AcDbLayerTableRecord
  2
159
 70
     0
 62
   159
  6
CONTINUOUS
  0
LAYER
  5
D9
330
2
100
AcDbSymbolTableRecord
100
AcDbLayerTableRecord
  2
160
 70
     0
 62
   160
  6
CONTINUOUS
  0
LAYER
  5
DA
330
2
100
AcDbSymbolTableRecord
100
AcDbLayerTableRecord
  2
161
 70
     0
 62
   161
  6
CONTINUOUS
  0
LAYER
  5
DB
330
2
100
AcDbSymbolTableRecord
100
AcDbLayerTableRecord
  2
162
 70
     0
 62
   162
  6
CONTINUOUS
  0
LAYER
  5
DC
330
2
100
AcDbSymbolTableRecord
100
AcDbLayerTableRecord
  2
163
 70
     0
 62
   163
  6
CONTINUOUS
  0
LAYER
  5
DD
330
2
100
AcDbSymbolTableRecord
100
AcDbLayerTableRecord
  2
164
 70
     0
 62
   164
  6
CONTINUOUS
  0
LAYER
  5
DE
330
2
100
AcDbSymbolTableRecord
100
AcDbLayerTableRecord
  2
165
 70
     0
 62
   165
  6
CONTINUOUS
  0
LAYER
  5
DF
330
2
100
AcDbSymbolTableRecord
100
AcDbLayerTableRecord
  2
166
 70
     0
 62
   166
  6
CONTINUOUS
  0
LAYER
  5
E0
330
2
100
AcDbSymbolTableRecord
100
AcDbLayerTableRecord
  2
167
 70
     0
 62
   167
  6
CONTINUOUS
  0
LAYER
  5
E1
330
2
100
AcDbSymbolTableRecord
100
AcDbLayerTableRecord
  2
168
 70
     0
 62
   168
  6
CONTINUOUS
  0
LAYER
  5
E2
330
2
100
AcDbSymbolTableRecord
100
AcDbLayerTableRecord
  2
169
 70
     0
 62
   169
  6
CONTINUOUS
  0
LAYER
  5
E3
330
2
100
AcDbSymbolTableRecord
100
AcDbLayerTableRecord
  2
170
 70
     0
 62
   170
  6
CONTINUOUS
  0
LAYER
  5
E4
330
2
100
AcDbSymbolTableRecord
100
AcDbLayerTableRecord
  2
171
 70
     0
 62
   171
  6
CONTINUOUS
  0
LAYER
  5
E5
330
2
100
AcDbSymbolTableRecord
100
AcDbLayerTableRecord
  2
172
 70
     0
 62
   172
  6
CONTINUOUS
  0
LAYER
  5
E6
330
2
100
AcDbSymbolTableRecord
100
AcDbLayerTableRecord
  2
173
 70
     0
 62
   173
  6
CONTINUOUS
  0
LAYER
  5
E7
330
2
100
AcDbSymbolTableRecord
100
AcDbLayerTableRecord
  2
174
 70
     0
 62
   174
  6
CONTINUOUS
  0
LAYER
  5
E8
330
2
100
AcDbSymbolTableRecord
100
AcDbLayerTableRecord
  2
175
 70
     0
 62
   175
  6
CONTINUOUS
  0
LAYER
  5
E9
330
2
100
AcDbSymbolTableRecord
100
AcDbLayerTableRecord
  2
176
 70
     0
 62
   176
  6
CONTINUOUS
  0
LAYER
  5
EA
330
2
100
AcDbSymbolTableRecord
100
AcDbLayerTableRecord
  2
177
 70
     0
 62
   177
  6
CONTINUOUS
  0
LAYER
  5
EB
330
2
100
AcDbSymbolTableRecord
100
AcDbLayerTableRecord
  2
178
 70
     0
 62
   178
  6
CONTINUOUS
  0
LAYER
  5
EC
330
2
100
AcDbSymbolTableRecord
100
AcDbLayerTableRecord
  2
179
 70
     0
 62
   179
  6
CONTINUOUS
  0
LAYER
  5
ED
330
2
100
AcDbSymbolTableRecord
100
AcDbLayerTableRecord
  2
180
 70
     0
 62
   180
  6
CONTINUOUS
  0
LAYER
  5
EE
330
2
100
AcDbSymbolTableRecord
100
AcDbLayerTableRecord
  2
181
 70
     0
 62
   181
  6
CONTINUOUS
  0
LAYER
  5
EF
330
2
100
AcDbSymbolTableRecord
100
AcDbLayerTableRecord
  2
182
 70
     0
 62
   182
  6
CONTINUOUS
  0
LAYER
  5
F0
330
2
100
AcDbSymbolTableRecord
100
AcDbLayerTableRecord
  2
183
 70
     0
 62
   183
  6
CONTINUOUS
  0
LAYER
  5
F1
330
2
100
AcDbSymbolTableRecord
100
AcDbLayerTableRecord
  2
184
 70
     0
 62
   184
  6
CONTINUOUS
  0
LAYER
  5
F2
330
2
100
AcDbSymbolTableRecord
100
AcDbLayerTableRecord
  2
185
 70
     0
 62
   185
  6
CONTINUOUS
  0
LAYER
  5
F3
330
2
100
AcDbSymbolTableRecord
100
AcDbLayerTableRecord
  2
186
 70
     0
 62
   186
  6
CONTINUOUS
  0
LAYER
  5
F4
330
2
100
AcDbSymbolTableRecord
100
AcDbLayerTableRecord
  2
187
 70
     0
 62
   187
  6
CONTINUOUS
  0
LAYER
  5
F5
330
2
100
AcDbSymbolTableRecord
100
AcDbLayerTableRecord
  2
188
 70
     0
 62
   188
  6
CONTINUOUS
  0
LAYER
  5
F6
330
2
100
AcDbSymbolTableRecord
100
AcDbLayerTableRecord
  2
189
 70
     0
 62
   189
  6
CONTINUOUS
  0
LAYER
  5
F7
330
2
100
AcDbSymbolTableRecord
100
AcDbLayerTableRecord
  2
190
 70
     0
 62
   190
  6
CONTINUOUS
  0
LAYER
  5
F8
330
2
100
AcDbSymbolTableRecord
100
AcDbLayerTableRecord
  2
191
 70
     0
 62
   191
  6
CONTINUOUS
  0
LAYER
  5
F9
330
2
100
AcDbSymbolTableRecord
100
AcDbLayerTableRecord
  2
192
 70
     0
 62
   192
  6
CONTINUOUS
  0
LAYER
  5
FA
330
2
100
AcDbSymbolTableRecord
100
AcDbLayerTableRecord
  2
193
 70
     0
 62
   193
  6
CONTINUOUS
  0
LAYER
  5
FB
330
2
100
AcDbSymbolTableRecord
100
AcDbLayerTableRecord
  2
194
 70
     0
 62
   194
  6
CONTINUOUS
  0
LAYER
  5
FC
330
2
100
AcDbSymbolTableRecord
100
AcDbLayerTableRecord
  2
195
 70
     0
 62
   195
  6
CONTINUOUS
  0
LAYER
  5
FD
330
2
100
AcDbSymbolTableRecord
100
AcDbLayerTableRecord
  2
196
 70
     0
 62
   196
  6
CONTINUOUS
  0
LAYER
  5
FE
330
2
100
AcDbSymbolTableRecord
100
AcDbLayerTableRecord
  2
197
 70
     0
 62
   197
  6
CONTINUOUS
  0
LAYER
  5
FF
330
2
100
AcDbSymbolTableRecord
100
AcDbLayerTableRecord
  2
198
 70
     0
 62
   198
  6
CONTINUOUS
  0
LAYER
  5
100
330
2
100
AcDbSymbolTableRecord
100
AcDbLayerTableRecord
  2
199
 70
     0
 62
   199
  6
CONTINUOUS
  0
LAYER
  5
101
330
2
100
AcDbSymbolTableRecord
100
AcDbLayerTableRecord
  2
200
 70
     0
 62
   200
  6
CONTINUOUS
  0
LAYER
  5
102
330
2
100
AcDbSymbolTableRecord
100
AcDbLayerTableRecord
  2
201
 70
     0
 62
   201
  6
CONTINUOUS
  0
LAYER
  5
103
330
2
100
AcDbSymbolTableRecord
100
AcDbLayerTableRecord
  2
202
 70
     0
 62
   202
  6
CONTINUOUS
  0
LAYER
  5
104
330
2
100
AcDbSymbolTableRecord
100
AcDbLayerTableRecord
  2
203
 70
     0
 62
   203
  6
CONTINUOUS
  0
LAYER
  5
105
330
2
100
AcDbSymbolTableRecord
100
AcDbLayerTableRecord
  2
204
 70
     0
 62
   204
  6
CONTINUOUS
  0
LAYER
  5
106
330
2
100
AcDbSymbolTableRecord
100
AcDbLayerTableRecord
  2
205
 70
     0
 62
   205
  6
CONTINUOUS
  0
LAYER
  5
107
330
2
100
AcDbSymbolTableRecord
100
AcDbLayerTableRecord
  2
206
 70
     0
 62
   206
  6
CONTINUOUS
  0
LAYER
  5
108
330
2
100
AcDbSymbolTableRecord
100
AcDbLayerTableRecord
  2
207
 70
     0
 62
   207
  6
CONTINUOUS
  0
LAYER
  5
109
330
2
100
AcDbSymbolTableRecord
100
AcDbLayerTableRecord
  2
208
 70
     0
 62
   208
  6
CONTINUOUS
  0
LAYER
  5
10A
330
2
100
AcDbSymbolTableRecord
100
AcDbLayerTableRecord
  2
209
 70
     0
 62
   209
  6
CONTINUOUS
  0
LAYER
  5
10B
330
2
100
AcDbSymbolTableRecord
100
AcDbLayerTableRecord
  2
210
 70
     0
 62
   210
  6
CONTINUOUS
  0
LAYER
  5
10C
330
2
100
AcDbSymbolTableRecord
100
AcDbLayerTableRecord
  2
211
 70
     0
 62
   211
  6
CONTINUOUS
  0
LAYER
  5
10D
330
2
100
AcDbSymbolTableRecord
100
AcDbLayerTableRecord
  2
212
 70
     0
 62
   212
  6
CONTINUOUS
  0
LAYER
  5
10E
330
2
100
AcDbSymbolTableRecord
100
AcDbLayerTableRecord
  2
213
 70
     0
 62
   213
  6
CONTINUOUS
  0
LAYER
  5
10F
330
2
100
AcDbSymbolTableRecord
100
AcDbLayerTableRecord
  2
214
 70
     0
 62
   214
  6
CONTINUOUS
  0
LAYER
  5
110
330
2
100
AcDbSymbolTableRecord
100
AcDbLayerTableRecord
  2
215
 70
     0
 62
   215
  6
CONTINUOUS
  0
LAYER
  5
111
330
2
100
AcDbSymbolTableRecord
100
AcDbLayerTableRecord
  2
216
 70
     0
 62
   216
  6
CONTINUOUS
  0
LAYER
  5
112
330
2
100
AcDbSymbolTableRecord
100
AcDbLayerTableRecord
  2
217
 70
     0
 62
   217
  6
CONTINUOUS
  0
LAYER
  5
113
330
2
100
AcDbSymbolTableRecord
100
AcDbLayerTableRecord
  2
218
 70
     0
 62
   218
  6
CONTINUOUS
  0
LAYER
  5
114
330
2
100
AcDbSymbolTableRecord
100
AcDbLayerTableRecord
  2
219
 70
     0
 62
   219
  6
CONTINUOUS
  0
LAYER
  5
115
330
2
100
AcDbSymbolTableRecord
100
AcDbLayerTableRecord
  2
220
 70
     0
 62
   220
  6
CONTINUOUS
  0
LAYER
  5
116
330
2
100
AcDbSymbolTableRecord
100
AcDbLayerTableRecord
  2
221
 70
     0
 62
   221
  6
CONTINUOUS
  0
LAYER
  5
117
330
2
100
AcDbSymbolTableRecord
100
AcDbLayerTableRecord
  2
222
 70
     0
 62
   222
  6
CONTINUOUS
  0
LAYER
  5
118
330
2
100
AcDbSymbolTableRecord
100
AcDbLayerTableRecord
  2
223
 70
     0
 62
   223
  6
CONTINUOUS
  0
LAYER
  5
119
330
2
100
AcDbSymbolTableRecord
100
AcDbLayerTableRecord
  2
224
 70
     0
 62
   224
  6
CONTINUOUS
  0
LAYER
  5
11A
330
2
100
AcDbSymbolTableRecord
100
AcDbLayerTableRecord
  2
225
 70
     0
 62
   225
  6
CONTINUOUS
  0
LAYER
  5
11B
330
2
100
AcDbSymbolTableRecord
100
AcDbLayerTableRecord
  2
226
 70
     0
 62
   226
  6
CONTINUOUS
  0
LAYER
  5
11C
330
2
100
AcDbSymbolTableRecord
100
AcDbLayerTableRecord
  2
227
 70
     0
 62
   227
  6
CONTINUOUS
  0
LAYER
  5
11D
330
2
100
AcDbSymbolTableRecord
100
AcDbLayerTableRecord
  2
228
 70
     0
 62
   228
  6
CONTINUOUS
  0
LAYER
  5
11E
330
2
100
AcDbSymbolTableRecord
100
AcDbLayerTableRecord
  2
229
 70
     0
 62
   229
  6
CONTINUOUS
  0
LAYER
  5
11F
330
2
100
AcDbSymbolTableRecord
100
AcDbLayerTableRecord
  2
230
 70
     0
 62
   230
  6
CONTINUOUS
  0
LAYER
  5
120
330
2
100
AcDbSymbolTableRecord
100
AcDbLayerTableRecord
  2
231
 70
     0
 62
   231
  6
CONTINUOUS
  0
LAYER
  5
121
330
2
100
AcDbSymbolTableRecord
100
AcDbLayerTableRecord
  2
232
 70
     0
 62
   232
  6
CONTINUOUS
  0
LAYER
  5
122
330
2
100
AcDbSymbolTableRecord
100
AcDbLayerTableRecord
  2
233
 70
     0
 62
   233
  6
CONTINUOUS
  0
LAYER
  5
123
330
2
100
AcDbSymbolTableRecord
100
AcDbLayerTableRecord
  2
234
 70
     0
 62
   234
  6
CONTINUOUS
  0
LAYER
  5
124
330
2
100
AcDbSymbolTableRecord
100
AcDbLayerTableRecord
  2
235
 70
     0
 62
   235
  6
CONTINUOUS
  0
LAYER
  5
125
330
2
100
AcDbSymbolTableRecord
100
AcDbLayerTableRecord
  2
236
 70
     0
 62
   236
  6
CONTINUOUS
  0
LAYER
  5
126
330
2
100
AcDbSymbolTableRecord
100
AcDbLayerTableRecord
  2
237
 70
     0
 62
   237
  6
CONTINUOUS
  0
LAYER
  5
127
330
2
100
AcDbSymbolTableRecord
100
AcDbLayerTableRecord
  2
238
 70
     0
 62
   238
  6
CONTINUOUS
  0
LAYER
  5
128
330
2
100
AcDbSymbolTableRecord
100
AcDbLayerTableRecord
  2
239
 70
     0
 62
   239
  6
CONTINUOUS
  0
LAYER
  5
129
330
2
100
AcDbSymbolTableRecord
100
AcDbLayerTableRecord
  2
240
 70
     0
 62
   240
  6
CONTINUOUS
  0
LAYER
  5
12A
330
2
100
AcDbSymbolTableRecord
100
AcDbLayerTableRecord
  2
241
 70
     0
 62
   241
  6
CONTINUOUS
  0
LAYER
  5
12B
330
2
100
AcDbSymbolTableRecord
100
AcDbLayerTableRecord
  2
242
 70
     0
 62
   242
  6
CONTINUOUS
  0
LAYER
  5
12C
330
2
100
AcDbSymbolTableRecord
100
AcDbLayerTableRecord
  2
243
 70
     0
 62
   243
  6
CONTINUOUS
  0
LAYER
  5
12D
330
2
100
AcDbSymbolTableRecord
100
AcDbLayerTableRecord
  2
244
 70
     0
 62
   244
  6
CONTINUOUS
  0
LAYER
  5
12E
330
2
100
AcDbSymbolTableRecord
100
AcDbLayerTableRecord
  2
245
 70
     0
 62
   245
  6
CONTINUOUS
  0
LAYER
  5
12F
330
2
100
AcDbSymbolTableRecord
100
AcDbLayerTableRecord
  2
246
 70
     0
 62
   246
  6
CONTINUOUS
  0
LAYER
  5
130
330
2
100
AcDbSymbolTableRecord
100
AcDbLayerTableRecord
  2
247
 70
     0
 62
   247
  6
CONTINUOUS
  0
LAYER
  5
131
330
2
100
AcDbSymbolTableRecord
100
AcDbLayerTableRecord
  2
248
 70
     0
 62
   248
  6
CONTINUOUS
  0
LAYER
  5
132
330
2
100
AcDbSymbolTableRecord
100
AcDbLayerTableRecord
  2
249
 70
     0
 62
   249
  6
CONTINUOUS
  0
LAYER
  5
133
330
2
100
AcDbSymbolTableRecord
100
AcDbLayerTableRecord
  2
250
 70
     0
 62
   250
  6
CONTINUOUS
  0
LAYER
  5
134
330
2
100
AcDbSymbolTableRecord
100
AcDbLayerTableRecord
  2
251
 70
     0
 62
   251
  6
CONTINUOUS
  0
LAYER
  5
135
330
2
100
AcDbSymbolTableRecord
100
AcDbLayerTableRecord
  2
252
 70
     0
 62
   252
  6
CONTINUOUS
  0
LAYER
  5
136
330
2
100
AcDbSymbolTableRecord
100
AcDbLayerTableRecord
  2
253
 70
     0
 62
   253
  6
CONTINUOUS
  0
LAYER
  5
137
330
2
100
AcDbSymbolTableRecord
100
AcDbLayerTableRecord
  2
254
 70
     0
 62
   254
  6
CONTINUOUS
  0
LAYER
  5
138
330
2
100
AcDbSymbolTableRecord
100
AcDbLayerTableRecord
  2
255
 70
     0
 62
   255
  6
CONTINUOUS
  0
ENDTAB
  0
TABLE
  2
STYLE
  5
3
330
0
100
AcDbSymbolTable
 70
     1
  0
STYLE
  5
11
330
3
100
AcDbSymbolTableRecord
100
AcDbTextStyleTableRecord
  2
STANDARD
 70
     0
 40
0.0
 41
1.0
 50
0.0
 71
     0
 42
0.2
  3
monotxt
  4

  0
ENDTAB
  0
TABLE
  2
VIEW
  5
6
330
0
100
AcDbSymbolTable
 70
     0
  0
ENDTAB
  0
TABLE
  2
UCS
  5
7
330
0
100
AcDbSymbolTable
 70
     0
  0
ENDTAB
  0
TABLE
  2
APPID
  5
9
330
0
100
AcDbSymbolTable
 70
     1
  0
APPID
  5
12
330
9
100
AcDbSymbolTableRecord
100
AcDbRegAppTableRecord
  2
ACAD
 70
     0
  0
ENDTAB
  0
TABLE
  2
DIMSTYLE
  5
A
330
0
100
AcDbSymbolTable
 70
     1
  0
DIMSTYLE
105
31EE
330
A
100
AcDbSymbolTableRecord
100
AcDbDimStyleTableRecord
  2
STANDARD
 70
     0
  3

  4

  5

  6

  7

 40
1.0
 41
0.18
 42
0.0625
 43
0.38
 44
0.18
 45
0.0
 46
0.0
 47
0.0
 48
0.0
140
0.18
141
0.09
142
0.0
143
25.4
144
1.0
145
0.0
146
1.0
147
0.09
 71
     0
 72
     0
 73
     1
 74
     1
 75
     0
 76
     0
 77
     0
 78
     0
170
     0
171
     2
172
     0
173
     0
174
     0
175
     0
176
     0
177
     0
178
     0
270
     2
271
     4
272
     4
273
     2
274
     2
340
11
275
     0
280
     0
281
     0
282
     0
283
     1
284
     0
285
     0
286
     0
287
     3
288
     0
  0
ENDTAB
  0
TABLE
  2
BLOCK_RECORD
  5
1
330
0
100
AcDbSymbolTable
 70
     0
  0
BLOCK_RECORD
  5
1E
102
{ACAD_XDICTIONARY
360
46E9
102
}
330
1
100
AcDbSymbolTableRecord
100
AcDbBlockTableRecord
  2
*MODEL_SPACE
  0
BLOCK_RECORD
  5
1A
102
{ACAD_XDICTIONARY
360
46E7
102
}
330
1
100
AcDbSymbolTableRecord
100
AcDbBlockTableRecord
  2
*PAPER_SPACE
  0
ENDTAB
  0
ENDSEC
  0
SECTION
  2
BLOCKS
  0
BLOCK
  5
13B
330
1E
100
AcDbEntity
  8
0
100
AcDbBlockBegin
  2
*MODEL_SPACE
 70
     0
 10
0.0
 20
0.0
 30
0.0
  3
*MODEL_SPACE
  1

  0
ENDBLK
  5
13C
330
1E
100
AcDbEntity
  8
0
100
AcDbBlockEnd
  0
BLOCK
  5
139
330
1A
100
AcDbEntity
 67
     1
  8
0
100
AcDbBlockBegin
  2
*PAPER_SPACE
 70
     0
 10
0.0
 20
0.0
 30
0.0
  3
*PAPER_SPACE
  1

  0
ENDBLK
  5
13A
330
1A
100
AcDbEntity
 67
     1
  8
0
100
AcDbBlockEnd
  0
ENDSEC
  0
SECTION
  2
ENTITIES
  0
LINE
  5
2E3A
330
1E
100
AcDbEntity
  8
7
100
AcDbLine
 10
2.505905511811023
 20
6.355314960629921
 30
0.0
 11
2.505905511811023
 21
6.039370078740157
 31
0.0
  0
LINE
  5
2E3B
330
1E
100
AcDbEntity
  8
7
100
AcDbLine
 10
2.547244094488188
 20
6.077755905511811
 30
0.0
 11
2.547244094488188
 21
6.316929133858267
 31
0.0
  0
LINE
  5
2E3C
330
1E
100
AcDbEntity
  8
7
100
AcDbLine
 10
2.547244094488188
 20
6.077755905511811
 30
0.0
 11
2.553149606299212
 21
6.071850393700787
 31
0.0
  0
LINE
  5
2E3D
330
1E
100
AcDbEntity
  8
7
100
AcDbLine
 10
2.553149606299212
 20
6.321850393700787
 30
0.0
 11
2.547244094488188
 21
6.316929133858267
 31
0.0
  0
LINE
  5
2E44
330
1E
100
AcDbEntity
  8
7
100
AcDbLine
 10
2.502952755905511
 20
6.450787401574802
 30
0.0
 11
2.55511811023622
 21
6.450787401574802
 31
0.0
  0
LINE
  5
2E45
330
1E
100
AcDbEntity
  8
7
100
AcDbLine
 10
2.525590551181102
 20
6.572834645669291
 30
0.0
 11
2.607283464566929
 21
6.572834645669291
 31
0.0
  0
LINE
  5
2E46
330
1E
100
AcDbEntity
  8
7
100
AcDbLine
 10
2.526574803149606
 20
6.571850393700787
 30
0.0
 11
2.525590551181102
 21
6.572834645669291
 31
0.0
  0
LINE
  5
2E47
330
1E
100
AcDbEntity
  8
7
100
AcDbLine
 10
2.526574803149606
 20
6.571850393700787
 30
0.0
 11
2.609251968503937
 21
6.571850393700787
 31
0.0
  0
LINE
  5
2E48
330
1E
100
AcDbEntity
  8
7
100
AcDbLine
 10
2.607283464566929
 20
6.572834645669291
 30
0.0
 11
2.609251968503937
 21
6.571850393700787
 31
0.0
  0
LINE
  5
2E49
330
1E
100
AcDbEntity
  8
7
100
AcDbLine
 10
2.525590551181102
 20
6.572834645669291
 30
0.0
 11
2.525590551181102
 21
6.499015748031496
 31
0.0
  0
LINE
  5
2E4A
330
1E
100
AcDbEntity
  8
7
100
AcDbLine
 10
2.502952755905511
 20
6.450787401574802
 30
0.0
 11
2.502952755905511
 21
6.499015748031496
 31
0.0
  0
LINE
  5
2E4B
330
1E
100
AcDbEntity
  8
7
100
AcDbLine
 10
2.502952755905511
 20
5.943897637795275
 30
0.0
 11
2.502952755905511
 21
5.895669291338582
 31
0.0
  0
LINE
  5
2E4C
330
1E
100
AcDbEntity
  8
7
100
AcDbLine
 10
2.525590551181102
 20
5.821850393700787
 30
0.0
 11
2.525590551181102
 21
5.895669291338582
 31
0.0
  0
LINE
  5
2E4D
330
1E
100
AcDbEntity
  8
7
100
AcDbLine
 10
2.502952755905511
 20
5.943897637795275
 30
0.0
 11
2.504921259842519
 21
5.942913385826771
 31
0.0
  0
LINE
  5
2E4E
330
1E
100
AcDbEntity
  8
7
100
AcDbLine
 10
2.558070866141732
 20
5.940944881889763
 30
0.0
 11
2.504921259842519
 21
5.942913385826771
 31
0.0
  0
LINE
  5
2E4F
330
1E
100
AcDbEntity
  8
7
100
AcDbLine
 10
2.55511811023622
 20
5.943897637795275
 30
0.0
 11
2.558070866141732
 21
5.940944881889763
 31
0.0
  0
LINE
  5
2E50
330
1E
100
AcDbEntity
  8
7
100
AcDbLine
 10
2.502952755905511
 20
5.943897637795275
 30
0.0
 11
2.55511811023622
 21
5.943897637795275
 31
0.0
  0
LINE
  5
2E51
330
1E
100
AcDbEntity
  8
7
100
AcDbLine
 10
2.502952755905511
 20
6.450787401574802
 30
0.0
 11
2.504921259842519
 21
6.451771653543307
 31
0.0
  0
LINE
  5
2E57
330
1E
100
AcDbEntity
  8
7
100
AcDbLine
 10
2.55511811023622
 20
6.450787401574802
 30
0.0
 11
2.55511811023622
 21
6.36515748031496
 31
0.0
  0
LINE
  5
2E58
330
1E
100
AcDbEntity
  8
7
100
AcDbLine
 10
2.505905511811023
 20
6.039370078740157
 30
0.0
 11
2.544291338582677
 21
6.039370078740157
 31
0.0
  0
LINE
  5
2E59
330
1E
100
AcDbEntity
  8
7
100
AcDbLine
 10
2.55511811023622
 20
6.029527559055117
 30
0.0
 11
2.552165354330708
 21
6.036417322834645
 31
0.0
  0
LINE
  5
2E5A
330
1E
100
AcDbEntity
  8
7
100
AcDbLine
 10
2.552165354330708
 20
6.036417322834645
 30
0.0
 11
2.544291338582677
 21
6.039370078740157
 31
0.0
  0
LINE
  5
2E60
330
1E
100
AcDbEntity
  8
7
100
AcDbLine
 10
2.55511811023622
 20
6.321850393700787
 30
0.0
 11
2.553149606299212
 21
6.321850393700787
 31
0.0
  0
LINE
  5
2E61
330
1E
100
AcDbEntity
  8
7
100
AcDbLine
 10
2.55511811023622
 20
6.36515748031496
 30
0.0
 11
2.55511811023622
 21
6.321850393700787
 31
0.0
  0
LINE
  5
2E67
330
1E
100
AcDbEntity
  8
7
100
AcDbLine
 10
2.526574803149606
 20
5.822834645669291
 30
0.0
 11
2.609251968503937
 21
5.822834645669291
 31
0.0
  0
LINE
  5
2E68
330
1E
100
AcDbEntity
  8
7
100
AcDbLine
 10
2.526574803149606
 20
5.822834645669291
 30
0.0
 11
2.525590551181102
 21
5.821850393700787
 31
0.0
  0
LINE
  5
2E69
330
1E
100
AcDbEntity
  8
7
100
AcDbLine
 10
2.55511811023622
 20
5.943897637795275
 30
0.0
 11
2.55511811023622
 21
6.029527559055117
 31
0.0
  0
LINE
  5
2E6F
330
1E
100
AcDbEntity
  8
7
100
AcDbLine
 10
2.55511811023622
 20
6.321850393700787
 30
0.0
 11
2.556102362204724
 21
6.31496062992126
 31
0.0
  0
LINE
  5
2E75
330
1E
100
AcDbEntity
  8
7
100
AcDbLine
 10
2.598425196850393
 20
6.833661417322834
 30
0.0
 11
2.598425196850393
 21
6.781496062992125
 31
0.0
  0
LINE
  5
2E76
330
1E
100
AcDbEntity
  8
7
100
AcDbLine
 10
2.597440944881889
 20
6.834645669291338
 30
0.0
 11
2.598425196850393
 21
6.833661417322834
 31
0.0
  0
LINE
  5
2E77
330
1E
100
AcDbEntity
  8
7
100
AcDbLine
 10
2.608267716535432
 20
6.499015748031496
 30
0.0
 11
2.609251968503937
 21
6.571850393700787
 31
0.0
  0
LINE
  5
2E78
330
1E
100
AcDbEntity
  8
7
100
AcDbLine
 10
2.608267716535432
 20
6.499015748031496
 30
0.0
 11
2.622047244094487
 21
6.494094488188975
 31
0.0
  0
LINE
  5
2E79
330
1E
100
AcDbEntity
  8
7
100
AcDbLine
 10
2.526574803149606
 20
6.499015748031496
 30
0.0
 11
2.526574803149606
 21
6.571850393700787
 31
0.0
  0
LINE
  5
2E7A
330
1E
100
AcDbEntity
  8
7
100
AcDbLine
 10
2.608267716535432
 20
6.499015748031496
 30
0.0
 11
2.526574803149606
 21
6.499015748031496
 31
0.0
  0
LINE
  5
2E7B
330
1E
100
AcDbEntity
  8
7
100
AcDbLine
 10
2.525590551181102
 20
6.499015748031496
 30
0.0
 11
2.526574803149606
 21
6.499015748031496
 31
0.0
  0
LINE
  5
2E7C
330
1E
100
AcDbEntity
  8
7
100
AcDbLine
 10
2.502952755905511
 20
6.499015748031496
 30
0.0
 11
2.525590551181102
 21
6.499015748031496
 31
0.0
  0
LINE
  5
2E7D
330
1E
100
AcDbEntity
  8
7
100
AcDbLine
 10
2.504921259842519
 20
6.497047244094487
 30
0.0
 11
2.502952755905511
 21
6.499015748031496
 31
0.0
  0
LINE
  5
2E7E
330
1E
100
AcDbEntity
  8
7
100
AcDbLine
 10
2.504921259842519
 20
6.497047244094487
 30
0.0
 11
2.504921259842519
 21
6.451771653543307
 31
0.0
  0
LINE
  5
2E7F
330
1E
100
AcDbEntity
  8
7
100
AcDbLine
 10
2.558070866141732
 20
6.496062992125984
 30
0.0
 11
2.504921259842519
 21
6.497047244094487
 31
0.0
  0
LINE
  5
2E80
330
1E
100
AcDbEntity
  8
7
100
AcDbLine
 10
2.558070866141732
 20
6.453740157480314
 30
0.0
 11
2.558070866141732
 21
6.496062992125984
 31
0.0
  0
LINE
  5
2E81
330
1E
100
AcDbEntity
  8
7
100
AcDbLine
 10
2.558070866141732
 20
5.898622047244094
 30
0.0
 11
2.504921259842519
 21
5.89763779527559
 31
0.0
  0
LINE
  5
2E82
330
1E
100
AcDbEntity
  8
7
100
AcDbLine
 10
2.558070866141732
 20
5.940944881889763
 30
0.0
 11
2.558070866141732
 21
5.898622047244094
 31
0.0
  0
LINE
  5
2E83
330
1E
100
AcDbEntity
  8
7
100
AcDbLine
 10
2.504921259842519
 20
5.89763779527559
 30
0.0
 11
2.504921259842519
 21
5.942913385826771
 31
0.0
  0
LINE
  5
2E8B
330
1E
100
AcDbEntity
  8
7
100
AcDbLine
 10
2.608267716535432
 20
5.895669291338582
 30
0.0
 11
2.609251968503937
 21
5.822834645669291
 31
0.0
  0
LINE
  5
2E8C
330
1E
100
AcDbEntity
  8
7
100
AcDbLine
 10
2.608267716535432
 20
5.895669291338582
 30
0.0
 11
2.526574803149606
 21
5.895669291338582
 31
0.0
  0
LINE
  5
2E8D
330
1E
100
AcDbEntity
  8
7
100
AcDbLine
 10
2.563976377952756
 20
5.904527559055117
 30
0.0
 11
2.558070866141732
 21
5.898622047244094
 31
0.0
  0
LINE
  5
2E8E
330
1E
100
AcDbEntity
  8
7
100
AcDbLine
 10
2.563976377952756
 20
5.904527559055117
 30
0.0
 11
2.563976377952756
 21
5.947834645669291
 31
0.0
  0
LINE
  5
2E8F
330
1E
100
AcDbEntity
  8
7
100
AcDbLine
 10
2.563976377952756
 20
5.948818897637795
 30
0.0
 11
2.563976377952756
 21
5.947834645669291
 31
0.0
  0
LINE
  5
2E95
330
1E
100
AcDbEntity
  8
7
100
AcDbLine
 10
2.563976377952756
 20
6.220472440944881
 30
0.0
 11
2.563976377952756
 21
6.174212598425197
 31
0.0
  0
LINE
  5
2E96
330
1E
100
AcDbEntity
  8
7
100
AcDbLine
 10
2.563976377952756
 20
6.445866141732283
 30
0.0
 11
2.563976377952756
 21
6.220472440944881
 31
0.0
  0
LINE
  5
2E9D
330
1E
100
AcDbEntity
  8
7
100
AcDbLine
 10
2.608267716535432
 20
5.895669291338582
 30
0.0
 11
2.622047244094487
 21
5.900590551181101
 31
0.0
  0
LINE
  5
2EA3
330
1E
100
AcDbEntity
  8
7
100
AcDbLine
 10
2.598425196850393
 20
5.613188976377952
 30
0.0
 11
2.598425196850393
 21
5.561023622047244
 31
0.0
  0
LINE
  5
2EA4
330
1E
100
AcDbEntity
  8
7
100
AcDbLine
 10
2.597440944881889
 20
5.61515748031496
 30
0.0
 11
2.598425196850393
 21
5.613188976377952
 31
0.0
  0
LINE
  5
2EA5
330
1E
100
AcDbEntity
  8
7
100
AcDbLine
 10
2.638779527559055
 20
5.61515748031496
 30
0.0
 11
2.597440944881889
 21
5.61515748031496
 31
0.0
  0
LINE
  5
2EA6
330
1E
100
AcDbEntity
  8
7
100
AcDbLine
 10
2.8001968503937
 20
5.75
 30
0.0
 11
2.742125984251968
 21
5.75
 31
0.0
  0
LINE
  5
2EA7
330
1E
100
AcDbEntity
  8
7
100
AcDbLine
 10
2.8001968503937
 20
5.75
 30
0.0
 11
2.799212598425196
 21
5.754921259842519
 31
0.0
  0
LINE
  5
2EA8
330
1E
100
AcDbEntity
  8
7
100
AcDbLine
 10
2.739173228346456
 20
5.754921259842519
 30
0.0
 11
2.799212598425196
 21
5.754921259842519
 31
0.0
  0
LINE
  5
2EA9
330
1E
100
AcDbEntity
  8
7
100
AcDbLine
 10
2.739173228346456
 20
5.754921259842519
 30
0.0
 11
2.742125984251968
 21
5.75
 31
0.0
  0
LINE
  5
2EAF
330
1E
100
AcDbEntity
  8
7
100
AcDbLine
 10
2.8001968503937
 20
6.227362204724409
 30
0.0
 11
2.8001968503937
 21
5.75
 31
0.0
  0
LINE
  5
2EB0
330
1E
100
AcDbEntity
  8
7
100
AcDbLine
 10
2.748031496062992
 20
5.739173228346456
 30
0.0
 11
2.748031496062992
 21
5.382874015748031
 31
0.0
  0
LINE
  5
2EB1
330
1E
100
AcDbEntity
  8
7
100
AcDbLine
 10
2.739173228346456
 20
5.367125984251968
 30
0.0
 11
2.799212598425196
 21
5.367125984251968
 31
0.0
  0
LINE
  5
2EB2
330
1E
100
AcDbEntity
  8
7
100
AcDbLine
 10
2.8001968503937
 20
5.373031496062991
 30
0.0
 11
2.799212598425196
 21
5.367125984251968
 31
0.0
  0
LINE
  5
2EB3
330
1E
100
AcDbEntity
  8
7
100
AcDbLine
 10
2.8001968503937
 20
5.373031496062991
 30
0.0
 11
2.742125984251968
 21
5.373031496062991
 31
0.0
  0
LINE
  5
2EB4
330
1E
100
AcDbEntity
  8
7
100
AcDbLine
 10
2.739173228346456
 20
5.367125984251968
 30
0.0
 11
2.742125984251968
 21
5.373031496062991
 31
0.0
  0
LINE
  5
2EB5
330
1E
100
AcDbEntity
  8
7
100
AcDbLine
 10
2.638779527559055
 20
6.834645669291338
 30
0.0
 11
2.597440944881889
 21
6.834645669291338
 31
0.0
  0
LINE
  5
2EB6
330
1E
100
AcDbEntity
  8
7
100
AcDbLine
 10
2.641732283464567
 20
6.833661417322834
 30
0.0
 11
2.598425196850393
 21
6.833661417322834
 31
0.0
  0
LINE
  5
2EB7
330
1E
100
AcDbEntity
  8
7
100
AcDbLine
 10
2.638779527559055
 20
6.834645669291338
 30
0.0
 11
2.641732283464567
 21
6.833661417322834
 31
0.0
  0
LINE
  5
2EC2
330
1E
100
AcDbEntity
  8
7
100
AcDbLine
 10
2.632874015748031
 20
6.494094488188975
 30
0.0
 11
2.622047244094487
 21
6.494094488188975
 31
0.0
  0
LINE
  5
2EC3
330
1E
100
AcDbEntity
  8
7
100
AcDbLine
 10
2.632874015748031
 20
6.494094488188975
 30
0.0
 11
2.638779527559055
 21
6.497047244094487
 31
0.0
  0
LINE
  5
2EC4
330
1E
100
AcDbEntity
  8
7
100
AcDbLine
 10
2.632874015748031
 20
6.494094488188975
 30
0.0
 11
2.643700787401574
 21
6.489173228346456
 31
0.0
  0
LINE
  5
2EC5
330
1E
100
AcDbEntity
  8
7
100
AcDbLine
 10
2.563976377952756
 20
6.49015748031496
 30
0.0
 11
2.643700787401574
 21
6.489173228346456
 31
0.0
  0
LINE
  5
2EC6
330
1E
100
AcDbEntity
  8
7
100
AcDbLine
 10
2.563976377952756
 20
6.446850393700787
 30
0.0
 11
2.643700787401574
 21
6.447834645669291
 31
0.0
  0
LINE
  5
2EC7
330
1E
100
AcDbEntity
  8
7
100
AcDbLine
 10
2.643700787401574
 20
6.489173228346456
 30
0.0
 11
2.643700787401574
 21
6.447834645669291
 31
0.0
  0
LINE
  5
2EC8
330
1E
100
AcDbEntity
  8
7
100
AcDbLine
 10
2.640748031496062
 20
6.445866141732283
 30
0.0
 11
2.563976377952756
 21
6.445866141732283
 31
0.0
  0
LINE
  5
2EC9
330
1E
100
AcDbEntity
  8
7
100
AcDbLine
 10
2.643700787401574
 20
6.447834645669291
 30
0.0
 11
2.640748031496062
 21
6.445866141732283
 31
0.0
  0
LINE
  5
2ECA
330
1E
100
AcDbEntity
  8
7
100
AcDbLine
 10
2.640748031496062
 20
6.220472440944881
 30
0.0
 11
2.563976377952756
 21
6.220472440944881
 31
0.0
  0
LINE
  5
2ECB
330
1E
100
AcDbEntity
  8
7
100
AcDbLine
 10
2.640748031496062
 20
6.220472440944881
 30
0.0
 11
2.640748031496062
 21
6.445866141732283
 31
0.0
  0
LINE
  5
2ECC
330
1E
100
AcDbEntity
  8
7
100
AcDbLine
 10
2.643700787401574
 20
6.219488188976377
 30
0.0
 11
2.640748031496062
 21
6.220472440944881
 31
0.0
  0
LINE
  5
2ECD
330
1E
100
AcDbEntity
  8
7
100
AcDbLine
 10
2.563976377952756
 20
6.220472440944881
 30
0.0
 11
2.643700787401574
 21
6.219488188976377
 31
0.0
  0
LINE
  5
2ECE
330
1E
100
AcDbEntity
  8
7
100
AcDbLine
 10
2.643700787401574
 20
6.1751968503937
 30
0.0
 11
2.563976377952756
 21
6.174212598425197
 31
0.0
  0
LINE
  5
2ECF
330
1E
100
AcDbEntity
  8
7
100
AcDbLine
 10
2.643700787401574
 20
6.1751968503937
 30
0.0
 11
2.643700787401574
 21
6.219488188976377
 31
0.0
  0
LINE
  5
2ED0
330
1E
100
AcDbEntity
  8
7
100
AcDbLine
 10
2.563976377952756
 20
6.173228346456692
 30
0.0
 11
2.640748031496062
 21
6.173228346456692
 31
0.0
  0
LINE
  5
2ED1
330
1E
100
AcDbEntity
  8
7
100
AcDbLine
 10
2.643700787401574
 20
6.1751968503937
 30
0.0
 11
2.640748031496062
 21
6.173228346456692
 31
0.0
  0
LINE
  5
2ED2
330
1E
100
AcDbEntity
  8
7
100
AcDbLine
 10
2.640748031496062
 20
5.948818897637795
 30
0.0
 11
2.640748031496062
 21
6.173228346456692
 31
0.0
  0
LINE
  5
2ED3
330
1E
100
AcDbEntity
  8
7
100
AcDbLine
 10
2.640748031496062
 20
5.948818897637795
 30
0.0
 11
2.563976377952756
 21
5.948818897637795
 31
0.0
  0
LINE
  5
2ED4
330
1E
100
AcDbEntity
  8
7
100
AcDbLine
 10
2.643700787401574
 20
5.946850393700787
 30
0.0
 11
2.640748031496062
 21
5.948818897637795
 31
0.0
  0
LINE
  5
2ED5
330
1E
100
AcDbEntity
  8
7
100
AcDbLine
 10
2.643700787401574
 20
5.946850393700787
 30
0.0
 11
2.563976377952756
 21
5.947834645669291
 31
0.0
  0
LINE
  5
2ED6
330
1E
100
AcDbEntity
  8
7
100
AcDbLine
 10
2.563976377952756
 20
5.904527559055117
 30
0.0
 11
2.643700787401574
 21
5.905511811023622
 31
0.0
  0
LINE
  5
2ED7
330
1E
100
AcDbEntity
  8
7
100
AcDbLine
 10
2.643700787401574
 20
5.946850393700787
 30
0.0
 11
2.643700787401574
 21
5.905511811023622
 31
0.0
  0
LINE
  5
2ED8
330
1E
100
AcDbEntity
  8
7
100
AcDbLine
 10
2.632874015748031
 20
5.900590551181101
 30
0.0
 11
2.622047244094487
 21
5.900590551181101
 31
0.0
  0
LINE
  5
2EDE
330
1E
100
AcDbEntity
  8
7
100
AcDbLine
 10
2.641732283464567
 20
5.613188976377952
 30
0.0
 11
2.598425196850393
 21
5.613188976377952
 31
0.0
  0
LINE
  5
2EDF
330
1E
100
AcDbEntity
  8
7
100
AcDbLine
 10
2.638779527559055
 20
5.61515748031496
 30
0.0
 11
2.641732283464567
 21
5.613188976377952
 31
0.0
  0
LINE
  5
2EE0
330
1E
100
AcDbEntity
  8
7
100
AcDbLine
 10
2.598425196850393
 20
5.561023622047244
 30
0.0
 11
2.641732283464567
 21
5.561023622047244
 31
0.0
  0
LINE
  5
2EE1
330
1E
100
AcDbEntity
  8
7
100
AcDbLine
 10
2.641732283464567
 20
5.613188976377952
 30
0.0
 11
2.641732283464567
 21
5.561023622047244
 31
0.0
  0
LINE
  5
2EE7
330
1E
100
AcDbEntity
  8
7
100
AcDbLine
 10
2.799212598425196
 20
6.229330708661417
 30
0.0
 11
2.739173228346456
 21
6.229330708661417
 31
0.0
  0
LINE
  5
2EE8
330
1E
100
AcDbEntity
  8
7
100
AcDbLine
 10
2.742125984251968
 20
5.75
 30
0.0
 11
2.748031496062992
 21
5.739173228346456
 31
0.0
  0
LINE
  5
2EE9
330
1E
100
AcDbEntity
  8
7
100
AcDbLine
 10
2.638779527559055
 20
5.89763779527559
 30
0.0
 11
2.638779527559055
 21
5.61515748031496
 31
0.0
  0
LINE
  5
2EEA
330
1E
100
AcDbEntity
  8
7
100
AcDbLine
 10
2.638779527559055
 20
6.497047244094487
 30
0.0
 11
2.638779527559055
 21
6.779527559055117
 31
0.0
  0
LINE
  5
2EEB
330
1E
100
AcDbEntity
  8
7
100
AcDbLine
 10
2.739173228346456
 20
5.479330708661417
 30
0.0
 11
2.739173228346456
 21
5.643700787401574
 31
0.0
  0
LINE
  5
2EF1
330
1E
100
AcDbEntity
  8
7
100
AcDbLine
 10
2.701771653543306
 20
5.635826771653543
 30
0.0
 11
2.731299212598425
 21
5.635826771653543
 31
0.0
  0
LINE
  5
2EF7
330
1E
100
AcDbEntity
  8
7
100
AcDbLine
 10
2.693897637795275
 20
5.49507874015748
 30
0.0
 11
2.693897637795275
 21
5.626968503937007
 31
0.0
  0
LINE
  5
2EFD
330
1E
100
AcDbEntity
  8
7
100
AcDbLine
 10
2.731299212598425
 20
5.487204724409449
 30
0.0
 11
2.701771653543306
 21
5.487204724409449
 31
0.0
  0
LINE
  5
2F03
330
1E
100
AcDbEntity
  8
7
100
AcDbLine
 10
2.742125984251968
 20
5.373031496062991
 30
0.0
 11
2.748031496062992
 21
5.382874015748031
 31
0.0
  0
LINE
  5
2F04
330
1E
100
AcDbEntity
  8
7
100
AcDbLine
 10
2.739173228346456
 20
5.754921259842519
 30
0.0
 11
2.739173228346456
 21
5.643700787401574
 31
0.0
  0
LINE
  5
2F05
330
1E
100
AcDbEntity
  8
7
100
AcDbLine
 10
2.739173228346456
 20
5.479330708661417
 30
0.0
 11
2.739173228346456
 21
5.367125984251968
 31
0.0
  0
LINE
  5
2F06
330
1E
100
AcDbEntity
  8
7
100
AcDbLine
 10
2.739173228346456
 20
6.229330708661417
 30
0.0
 11
2.739173228346456
 21
5.754921259842519
 31
0.0
  0
LINE
  5
2F07
330
1E
100
AcDbEntity
  8
7
100
AcDbLine
 10
2.738188976377952
 20
6.231299212598425
 30
0.0
 11
2.739173228346456
 21
6.229330708661417
 31
0.0
  0
LINE
  5
2F08
330
1E
100
AcDbEntity
  8
7
100
AcDbLine
 10
2.739173228346456
 20
4.888779527559054
 30
0.0
 11
2.799212598425196
 21
4.888779527559054
 31
0.0
  0
LINE
  5
2F09
330
1E
100
AcDbEntity
  8
7
100
AcDbLine
 10
2.799212598425196
 20
5.367125984251968
 30
0.0
 11
2.799212598425196
 21
4.888779527559054
 31
0.0
  0
LINE
  5
2F0A
330
1E
100
AcDbEntity
  8
7
100
AcDbLine
 10
2.739173228346456
 20
5.367125984251968
 30
0.0
 11
2.739173228346456
 21
4.888779527559054
 31
0.0
  0
LINE
  5
2F0B
330
1E
100
AcDbEntity
  8
7
100
AcDbLine
 10
2.8001968503937
 20
4.889763779527559
 30
0.0
 11
2.8001968503937
 21
5.373031496062991
 31
0.0
  0
LINE
  5
2F23
330
1E
100
AcDbEntity
  8
7
100
AcDbLine
 10
2.8001968503937
 20
4.889763779527559
 30
0.0
 11
2.799212598425196
 21
4.888779527559054
 31
0.0
  0
LINE
  5
2F24
330
1E
100
AcDbEntity
  8
7
100
AcDbLine
 10
2.638779527559055
 20
7.500984251968503
 30
0.0
 11
2.650590551181102
 21
7.489173228346456
 31
0.0
  0
LINE
  5
2F25
330
1E
100
AcDbEntity
  8
7
100
AcDbLine
 10
2.638779527559055
 20
6.834645669291338
 30
0.0
 11
2.638779527559055
 21
7.500984251968503
 31
0.0
  0
LINE
  5
2F26
330
1E
100
AcDbEntity
  8
7
100
AcDbLine
 10
2.638779527559055
 20
5.560039370078739
 30
0.0
 11
2.638779527559055
 21
4.893700787401574
 31
0.0
  0
LINE
  5
2F27
330
1E
100
AcDbEntity
  8
7
100
AcDbLine
 10
2.650590551181102
 20
7.489173228346456
 30
0.0
 11
2.650590551181102
 21
4.905511811023622
 31
0.0
  0
LINE
  5
2F28
330
1E
100
AcDbEntity
  8
7
100
AcDbLine
 10
2.80511811023622
 20
7.483267716535433
 30
0.0
 11
2.80511811023622
 21
7.144685039370078
 31
0.0
  0
LINE
  5
2F2E
330
1E
100
AcDbEntity
  8
7
100
AcDbLine
 10
2.814960629921259
 20
7.134842519685038
 30
0.0
 11
2.855314960629921
 21
7.134842519685038
 31
0.0
  0
LINE
  5
2F2F
330
1E
100
AcDbEntity
  8
7
100
AcDbLine
 10
2.855314960629921
 20
7.493110236220472
 30
0.0
 11
2.814960629921259
 21
7.493110236220472
 31
0.0
  0
LINE
  5
2F35
330
1E
100
AcDbEntity
  8
7
100
AcDbLine
 10
2.741141732283464
 20
6.23523622047244
 30
0.0
 11
2.738188976377952
 21
6.231299212598425
 31
0.0
  0
LINE
  5
2F3E
330
1E
100
AcDbEntity
  8
7
100
AcDbLine
 10
2.64271653543307
 20
7.52755905511811
 30
0.0
 11
2.638779527559055
 21
7.500984251968503
 31
0.0
  0
LINE
  5
2F48
330
1E
100
AcDbEntity
  8
7
100
AcDbLine
 10
2.75
 20
7.589566929133858
 30
0.0
 11
2.739173228346456
 21
7.601377952755905
 31
0.0
  0
LINE
  5
2F49
330
1E
100
AcDbEntity
  8
7
100
AcDbLine
 10
2.73523622047244
 20
4.885826771653543
 30
0.0
 11
2.739173228346456
 21
4.888779527559054
 31
0.0
  0
LINE
  5
2F4A
330
1E
100
AcDbEntity
  8
7
100
AcDbLine
 10
2.73523622047244
 20
5.472440944881889
 30
0.0
 11
2.739173228346456
 21
5.479330708661417
 31
0.0
  0
LINE
  5
2F4B
330
1E
100
AcDbEntity
  8
7
100
AcDbLine
 10
2.73523622047244
 20
5.472440944881889
 30
0.0
 11
2.73523622047244
 21
4.885826771653543
 31
0.0
  0
LINE
  5
2F52
330
1E
100
AcDbEntity
  8
7
100
AcDbLine
 10
2.694881889763779
 20
5.480314960629921
 30
0.0
 11
2.701771653543306
 21
5.487204724409449
 31
0.0
  0
LINE
  5
2F53
330
1E
100
AcDbEntity
  8
7
100
AcDbLine
 10
2.727362204724409
 20
5.480314960629921
 30
0.0
 11
2.694881889763779
 21
5.480314960629921
 31
0.0
  0
LINE
  5
2F5A
330
1E
100
AcDbEntity
  8
7
100
AcDbLine
 10
2.687007874015748
 20
5.633858267716535
 30
0.0
 11
2.693897637795275
 21
5.626968503937007
 31
0.0
  0
LINE
  5
2F5B
330
1E
100
AcDbEntity
  8
7
100
AcDbLine
 10
2.687007874015748
 20
5.488188976377952
 30
0.0
 11
2.687007874015748
 21
5.633858267716535
 31
0.0
  0
LINE
  5
2F62
330
1E
100
AcDbEntity
  8
7
100
AcDbLine
 10
2.727362204724409
 20
5.641732283464566
 30
0.0
 11
2.731299212598425
 21
5.635826771653543
 31
0.0
  0
LINE
  5
2F63
330
1E
100
AcDbEntity
  8
7
100
AcDbLine
 10
2.694881889763779
 20
5.641732283464566
 30
0.0
 11
2.727362204724409
 21
5.641732283464566
 31
0.0
  0
LINE
  5
2F71
330
1E
100
AcDbEntity
  8
7
100
AcDbLine
 10
2.804133858267716
 20
7.484251968503937
 30
0.0
 11
2.80511811023622
 21
7.483267716535433
 31
0.0
  0
LINE
  5
2F72
330
1E
100
AcDbEntity
  8
7
100
AcDbLine
 10
2.804133858267716
 20
7.484251968503937
 30
0.0
 11
2.804133858267716
 21
7.143700787401574
 31
0.0
  0
LINE
  5
2F88
330
1E
100
AcDbEntity
  8
7
100
AcDbLine
 10
2.655511811023622
 20
4.905511811023622
 30
0.0
 11
2.655511811023622
 21
7.489173228346456
 31
0.0
  0
LINE
  5
2FA1
330
1E
100
AcDbEntity
  8
7
100
AcDbLine
 10
2.737204724409448
 20
6.23523622047244
 30
0.0
 11
2.741141732283464
 21
6.23523622047244
 31
0.0
  0
LINE
  5
2FA8
330
1E
100
AcDbEntity
  8
7
100
AcDbLine
 10
4.3001968503937
 20
7.589566929133858
 30
0.0
 11
2.75
 21
7.589566929133858
 31
0.0
  0
LINE
  5
2FA9
330
1E
100
AcDbEntity
  8
7
100
AcDbLine
 10
4.3001968503937
 20
7.589566929133858
 30
0.0
 11
4.311023622047243
 21
7.601377952755905
 31
0.0
  0
LINE
  5
2FAA
330
1E
100
AcDbEntity
  8
7
100
AcDbLine
 10
2.739173228346456
 20
7.601377952755905
 30
0.0
 11
4.311023622047243
 21
7.601377952755905
 31
0.0
  0
LINE
  5
2FAB
330
1E
100
AcDbEntity
  8
7
100
AcDbLine
 10
2.741141732283464
 20
6.23523622047244
 30
0.0
 11
4.309055118110236
 21
6.23523622047244
 31
0.0
  0
LINE
  5
2FAC
330
1E
100
AcDbEntity
  8
7
100
AcDbLine
 10
4.312992125984251
 20
6.23523622047244
 30
0.0
 11
4.309055118110236
 21
6.23523622047244
 31
0.0
  0
LINE
  5
2FAD
330
1E
100
AcDbEntity
  8
7
100
AcDbLine
 10
4.312992125984251
 20
6.23523622047244
 30
0.0
 11
4.314960629921259
 21
6.237204724409449
 31
0.0
  0
LINE
  5
2FAE
330
1E
100
AcDbEntity
  8
7
100
AcDbLine
 10
2.73523622047244
 20
6.237204724409449
 30
0.0
 11
4.314960629921259
 21
6.237204724409449
 31
0.0
  0
LINE
  5
2FCB
330
1E
100
AcDbEntity
  8
7
100
AcDbLine
 10
2.75
 20
7.584645669291338
 30
0.0
 11
4.3001968503937
 21
7.584645669291338
 31
0.0
  0
LINE
  5
2FDB
330
1E
100
AcDbEntity
  8
7
100
AcDbLine
 10
4.35531496062992
 20
5.641732283464566
 30
0.0
 11
4.32283464566929
 21
5.641732283464566
 31
0.0
  0
LINE
  5
2FE1
330
1E
100
AcDbEntity
  8
7
100
AcDbLine
 10
4.363188976377951
 20
5.488188976377952
 30
0.0
 11
4.363188976377951
 21
5.633858267716535
 31
0.0
  0
LINE
  5
2FE7
330
1E
100
AcDbEntity
  8
7
100
AcDbLine
 10
4.32283464566929
 20
5.480314960629921
 30
0.0
 11
4.35531496062992
 21
5.480314960629921
 31
0.0
  0
LINE
  5
2FEE
330
1E
100
AcDbEntity
  8
7
100
AcDbLine
 10
4.314960629921259
 20
4.885826771653543
 30
0.0
 11
2.73523622047244
 21
4.885826771653543
 31
0.0
  0
LINE
  5
2FF4
330
1E
100
AcDbEntity
  8
7
100
AcDbLine
 10
2.858267716535432
 20
7.134842519685038
 30
0.0
 11
4.191929133858267
 21
7.134842519685038
 31
0.0
  0
LINE
  5
2FFB
330
1E
100
AcDbEntity
  8
7
100
AcDbLine
 10
4.191929133858267
 20
7.493110236220472
 30
0.0
 11
2.858267716535432
 21
7.493110236220472
 31
0.0
  0
LINE
  5
3002
330
1E
100
AcDbEntity
  8
7
100
AcDbLine
 10
4.191929133858267
 20
7.134842519685038
 30
0.0
 11
4.191929133858267
 21
7.493110236220472
 31
0.0
  0
LINE
  5
300C
330
1E
100
AcDbEntity
  8
7
100
AcDbLine
 10
4.411417322834645
 20
6.834645669291338
 30
0.0
 11
4.411417322834645
 21
7.500984251968503
 31
0.0
  0
LINE
  5
3012
330
1E
100
AcDbEntity
  8
7
100
AcDbLine
 10
4.311023622047243
 20
4.793307086614173
 30
0.0
 11
2.739173228346456
 21
4.793307086614173
 31
0.0
  0
LINE
  5
3026
330
1E
100
AcDbEntity
  8
7
100
AcDbLine
 10
4.249999999999999
 20
4.889763779527559
 30
0.0
 11
4.250984251968503
 21
4.888779527559054
 31
0.0
  0
LINE
  5
3027
330
1E
100
AcDbEntity
  8
7
100
AcDbLine
 10
4.544291338582676
 20
6.355314960629921
 30
0.0
 11
4.544291338582676
 21
6.039370078740157
 31
0.0
  0
LINE
  5
3028
330
1E
100
AcDbEntity
  8
7
100
AcDbLine
 10
4.502952755905511
 20
6.077755905511811
 30
0.0
 11
4.502952755905511
 21
6.316929133858267
 31
0.0
  0
LINE
  5
3029
330
1E
100
AcDbEntity
  8
7
100
AcDbLine
 10
4.502952755905511
 20
6.077755905511811
 30
0.0
 11
4.498031496062991
 21
6.071850393700787
 31
0.0
  0
LINE
  5
302A
330
1E
100
AcDbEntity
  8
7
100
AcDbLine
 10
4.498031496062991
 20
6.321850393700787
 30
0.0
 11
4.502952755905511
 21
6.316929133858267
 31
0.0
  0
LINE
  5
3031
330
1E
100
AcDbEntity
  8
7
100
AcDbLine
 10
4.547244094488188
 20
6.450787401574802
 30
0.0
 11
4.495078740157479
 21
6.450787401574802
 31
0.0
  0
LINE
  5
3037
330
1E
100
AcDbEntity
  8
7
100
AcDbLine
 10
4.523622047244093
 20
6.571850393700787
 30
0.0
 11
4.440944881889762
 21
6.571850393700787
 31
0.0
  0
LINE
  5
303D
330
1E
100
AcDbEntity
  8
7
100
AcDbLine
 10
4.547244094488188
 20
6.450787401574802
 30
0.0
 11
4.547244094488188
 21
6.499015748031496
 31
0.0
  0
LINE
  5
303E
330
1E
100
AcDbEntity
  8
7
100
AcDbLine
 10
4.547244094488188
 20
5.943897637795275
 30
0.0
 11
4.547244094488188
 21
5.895669291338582
 31
0.0
  0
LINE
  5
303F
330
1E
100
AcDbEntity
  8
7
100
AcDbLine
 10
4.524606299212598
 20
5.821850393700787
 30
0.0
 11
4.524606299212598
 21
5.895669291338582
 31
0.0
  0
LINE
  5
3040
330
1E
100
AcDbEntity
  8
7
100
AcDbLine
 10
4.547244094488188
 20
5.943897637795275
 30
0.0
 11
4.54527559055118
 21
5.942913385826771
 31
0.0
  0
LINE
  5
3047
330
1E
100
AcDbEntity
  8
7
100
AcDbLine
 10
4.547244094488188
 20
6.450787401574802
 30
0.0
 11
4.54527559055118
 21
6.451771653543307
 31
0.0
  0
LINE
  5
3048
330
1E
100
AcDbEntity
  8
7
100
AcDbLine
 10
4.492125984251967
 20
6.453740157480314
 30
0.0
 11
4.54527559055118
 21
6.451771653543307
 31
0.0
  0
LINE
  5
3049
330
1E
100
AcDbEntity
  8
7
100
AcDbLine
 10
4.495078740157479
 20
6.450787401574802
 30
0.0
 11
4.492125984251967
 21
6.453740157480314
 31
0.0
  0
LINE
  5
3050
330
1E
100
AcDbEntity
  8
7
100
AcDbLine
 10
4.495078740157479
 20
6.071850393700787
 30
0.0
 11
4.498031496062991
 21
6.071850393700787
 31
0.0
  0
LINE
  5
3051
330
1E
100
AcDbEntity
  8
7
100
AcDbLine
 10
4.495078740157479
 20
6.029527559055117
 30
0.0
 11
4.495078740157479
 21
6.071850393700787
 31
0.0
  0
LINE
  5
3057
330
1E
100
AcDbEntity
  8
7
100
AcDbLine
 10
4.544291338582676
 20
6.039370078740157
 30
0.0
 11
4.505905511811023
 21
6.039370078740157
 31
0.0
  0
LINE
  5
3058
330
1E
100
AcDbEntity
  8
7
100
AcDbLine
 10
4.524606299212598
 20
5.821850393700787
 30
0.0
 11
4.442913385826771
 21
5.821850393700787
 31
0.0
  0
LINE
  5
3059
330
1E
100
AcDbEntity
  8
7
100
AcDbLine
 10
4.523622047244093
 20
5.822834645669291
 30
0.0
 11
4.524606299212598
 21
5.821850393700787
 31
0.0
  0
LINE
  5
305A
330
1E
100
AcDbEntity
  8
7
100
AcDbLine
 10
4.523622047244093
 20
5.822834645669291
 30
0.0
 11
4.440944881889762
 21
5.822834645669291
 31
0.0
  0
LINE
  5
305B
330
1E
100
AcDbEntity
  8
7
100
AcDbLine
 10
4.442913385826771
 20
5.821850393700787
 30
0.0
 11
4.440944881889762
 21
5.822834645669291
 31
0.0
  0
LINE
  5
305C
330
1E
100
AcDbEntity
  8
7
100
AcDbLine
 10
4.495078740157479
 20
5.943897637795275
 30
0.0
 11
4.495078740157479
 21
6.029527559055117
 31
0.0
  0
LINE
  5
3062
330
1E
100
AcDbEntity
  8
7
100
AcDbLine
 10
4.495078740157479
 20
6.321850393700787
 30
0.0
 11
4.494094488188975
 21
6.31496062992126
 31
0.0
  0
LINE
  5
3063
330
1E
100
AcDbEntity
  8
7
100
AcDbLine
 10
4.45275590551181
 20
6.834645669291338
 30
0.0
 11
4.45275590551181
 21
6.779527559055117
 31
0.0
  0
LINE
  5
3069
330
1E
100
AcDbEntity
  8
7
100
AcDbLine
 10
4.45275590551181
 20
6.779527559055117
 30
0.0
 11
4.451771653543306
 21
6.781496062992125
 31
0.0
  0
LINE
  5
306A
330
1E
100
AcDbEntity
  8
7
100
AcDbLine
 10
4.441929133858267
 20
6.499015748031496
 30
0.0
 11
4.428149606299212
 21
6.494094488188975
 31
0.0
  0
LINE
  5
306B
330
1E
100
AcDbEntity
  8
7
100
AcDbLine
 10
4.441929133858267
 20
6.499015748031496
 30
0.0
 11
4.440944881889762
 21
6.571850393700787
 31
0.0
  0
LINE
  5
306C
330
1E
100
AcDbEntity
  8
7
100
AcDbLine
 10
4.523622047244093
 20
6.499015748031496
 30
0.0
 11
4.523622047244093
 21
6.571850393700787
 31
0.0
  0
LINE
  5
306D
330
1E
100
AcDbEntity
  8
7
100
AcDbLine
 10
4.441929133858267
 20
6.499015748031496
 30
0.0
 11
4.523622047244093
 21
6.499015748031496
 31
0.0
  0
LINE
  5
306E
330
1E
100
AcDbEntity
  8
7
100
AcDbLine
 10
4.524606299212598
 20
6.499015748031496
 30
0.0
 11
4.523622047244093
 21
6.499015748031496
 31
0.0
  0
LINE
  5
306F
330
1E
100
AcDbEntity
  8
7
100
AcDbLine
 10
4.547244094488188
 20
6.499015748031496
 30
0.0
 11
4.524606299212598
 21
6.499015748031496
 31
0.0
  0
LINE
  5
3070
330
1E
100
AcDbEntity
  8
7
100
AcDbLine
 10
4.54527559055118
 20
6.497047244094487
 30
0.0
 11
4.547244094488188
 21
6.499015748031496
 31
0.0
  0
LINE
  5
3071
330
1E
100
AcDbEntity
  8
7
100
AcDbLine
 10
4.54527559055118
 20
6.497047244094487
 30
0.0
 11
4.54527559055118
 21
6.451771653543307
 31
0.0
  0
LINE
  5
3072
330
1E
100
AcDbEntity
  8
7
100
AcDbLine
 10
4.492125984251967
 20
6.496062992125984
 30
0.0
 11
4.54527559055118
 21
6.497047244094487
 31
0.0
  0
LINE
  5
3073
330
1E
100
AcDbEntity
  8
7
100
AcDbLine
 10
4.492125984251967
 20
6.453740157480314
 30
0.0
 11
4.492125984251967
 21
6.496062992125984
 31
0.0
  0
LINE
  5
3079
330
1E
100
AcDbEntity
  8
7
100
AcDbLine
 10
4.492125984251967
 20
5.940944881889763
 30
0.0
 11
4.492125984251967
 21
5.898622047244094
 31
0.0
  0
LINE
  5
3081
330
1E
100
AcDbEntity
  8
7
100
AcDbLine
 10
4.441929133858267
 20
5.895669291338582
 30
0.0
 11
4.523622047244093
 21
5.895669291338582
 31
0.0
  0
LINE
  5
3082
330
1E
100
AcDbEntity
  8
7
100
AcDbLine
 10
4.441929133858267
 20
5.895669291338582
 30
0.0
 11
4.440944881889762
 21
5.822834645669291
 31
0.0
  0
LINE
  5
3083
330
1E
100
AcDbEntity
  8
7
100
AcDbLine
 10
4.486220472440944
 20
6.49015748031496
 30
0.0
 11
4.492125984251967
 21
6.496062992125984
 31
0.0
  0
LINE
  5
3084
330
1E
100
AcDbEntity
  8
7
100
AcDbLine
 10
4.486220472440944
 20
6.446850393700787
 30
0.0
 11
4.486220472440944
 21
6.49015748031496
 31
0.0
  0
LINE
  5
3085
330
1E
100
AcDbEntity
  8
7
100
AcDbLine
 10
4.487204724409448
 20
6.445866141732283
 30
0.0
 11
4.486220472440944
 21
6.446850393700787
 31
0.0
  0
LINE
  5
308C
330
1E
100
AcDbEntity
  8
7
100
AcDbLine
 10
4.487204724409448
 20
6.173228346456692
 30
0.0
 11
4.486220472440944
 21
6.174212598425197
 31
0.0
  0
LINE
  5
308D
330
1E
100
AcDbEntity
  8
7
100
AcDbLine
 10
4.487204724409448
 20
5.948818897637795
 30
0.0
 11
4.487204724409448
 21
6.173228346456692
 31
0.0
  0
LINE
  5
308E
330
1E
100
AcDbEntity
  8
7
100
AcDbLine
 10
4.487204724409448
 20
5.948818897637795
 30
0.0
 11
4.486220472440944
 21
5.947834645669291
 31
0.0
  0
LINE
  5
308F
330
1E
100
AcDbEntity
  8
7
100
AcDbLine
 10
4.486220472440944
 20
5.904527559055117
 30
0.0
 11
4.486220472440944
 21
5.947834645669291
 31
0.0
  0
LINE
  5
3090
330
1E
100
AcDbEntity
  8
7
100
AcDbLine
 10
4.486220472440944
 20
5.904527559055117
 30
0.0
 11
4.492125984251967
 21
5.898622047244094
 31
0.0
  0
LINE
  5
3091
330
1E
100
AcDbEntity
  8
7
100
AcDbLine
 10
4.441929133858267
 20
5.895669291338582
 30
0.0
 11
4.428149606299212
 21
5.900590551181101
 31
0.0
  0
LINE
  5
3092
330
1E
100
AcDbEntity
  8
7
100
AcDbLine
 10
4.45275590551181
 20
5.61515748031496
 30
0.0
 11
4.45275590551181
 21
5.560039370078739
 31
0.0
  0
LINE
  5
3098
330
1E
100
AcDbEntity
  8
7
100
AcDbLine
 10
4.45275590551181
 20
5.560039370078739
 30
0.0
 11
4.451771653543306
 21
5.561023622047244
 31
0.0
  0
LINE
  5
3099
330
1E
100
AcDbEntity
  8
7
100
AcDbLine
 10
4.411417322834645
 20
5.61515748031496
 30
0.0
 11
4.45275590551181
 21
5.61515748031496
 31
0.0
  0
LINE
  5
309A
330
1E
100
AcDbEntity
  8
7
100
AcDbLine
 10
4.249999999999999
 20
5.75
 30
0.0
 11
4.308070866141731
 21
5.75
 31
0.0
  0
LINE
  5
309B
330
1E
100
AcDbEntity
  8
7
100
AcDbLine
 10
4.311023622047243
 20
5.754921259842519
 30
0.0
 11
4.308070866141731
 21
5.75
 31
0.0
  0
LINE
  5
309C
330
1E
100
AcDbEntity
  8
7
100
AcDbLine
 10
4.311023622047243
 20
5.754921259842519
 30
0.0
 11
4.250984251968503
 21
5.754921259842519
 31
0.0
  0
LINE
  5
309D
330
1E
100
AcDbEntity
  8
7
100
AcDbLine
 10
4.249999999999999
 20
5.75
 30
0.0
 11
4.250984251968503
 21
5.754921259842519
 31
0.0
  0
LINE
  5
309E
330
1E
100
AcDbEntity
  8
7
100
AcDbLine
 10
4.249999999999999
 20
6.227362204724409
 30
0.0
 11
4.250984251968503
 21
6.229330708661417
 31
0.0
  0
LINE
  5
309F
330
1E
100
AcDbEntity
  8
7
100
AcDbLine
 10
4.249999999999999
 20
6.227362204724409
 30
0.0
 11
4.249999999999999
 21
5.75
 31
0.0
  0
LINE
  5
30A0
330
1E
100
AcDbEntity
  8
7
100
AcDbLine
 10
4.250984251968503
 20
6.229330708661417
 30
0.0
 11
4.250984251968503
 21
5.754921259842519
 31
0.0
  0
LINE
  5
30A1
330
1E
100
AcDbEntity
  8
7
100
AcDbLine
 10
4.302165354330708
 20
5.739173228346456
 30
0.0
 11
4.302165354330708
 21
5.382874015748031
 31
0.0
  0
LINE
  5
30A2
330
1E
100
AcDbEntity
  8
7
100
AcDbLine
 10
4.311023622047243
 20
5.367125984251968
 30
0.0
 11
4.250984251968503
 21
5.367125984251968
 31
0.0
  0
LINE
  5
30A3
330
1E
100
AcDbEntity
  8
7
100
AcDbLine
 10
4.311023622047243
 20
5.367125984251968
 30
0.0
 11
4.308070866141731
 21
5.373031496062991
 31
0.0
  0
LINE
  5
30A4
330
1E
100
AcDbEntity
  8
7
100
AcDbLine
 10
4.249999999999999
 20
5.373031496062991
 30
0.0
 11
4.308070866141731
 21
5.373031496062991
 31
0.0
  0
LINE
  5
30A5
330
1E
100
AcDbEntity
  8
7
100
AcDbLine
 10
4.249999999999999
 20
5.373031496062991
 30
0.0
 11
4.250984251968503
 21
5.367125984251968
 31
0.0
  0
LINE
  5
30A6
330
1E
100
AcDbEntity
  8
7
100
AcDbLine
 10
4.411417322834645
 20
6.834645669291338
 30
0.0
 11
4.45275590551181
 21
6.834645669291338
 31
0.0
  0
LINE
  5
30AC
330
1E
100
AcDbEntity
  8
7
100
AcDbLine
 10
4.408464566929133
 20
6.781496062992125
 30
0.0
 11
4.408464566929133
 21
6.833661417322834
 31
0.0
  0
LINE
  5
30AD
330
1E
100
AcDbEntity
  8
7
100
AcDbLine
 10
4.451771653543306
 20
6.781496062992125
 30
0.0
 11
4.408464566929133
 21
6.781496062992125
 31
0.0
  0
LINE
  5
30B3
330
1E
100
AcDbEntity
  8
7
100
AcDbLine
 10
4.417322834645668
 20
6.494094488188975
 30
0.0
 11
4.428149606299212
 21
6.494094488188975
 31
0.0
  0
LINE
  5
30B4
330
1E
100
AcDbEntity
  8
7
100
AcDbLine
 10
4.417322834645668
 20
6.494094488188975
 30
0.0
 11
4.411417322834645
 21
6.497047244094487
 31
0.0
  0
LINE
  5
30B5
330
1E
100
AcDbEntity
  8
7
100
AcDbLine
 10
4.417322834645668
 20
6.494094488188975
 30
0.0
 11
4.406496062992125
 21
6.489173228346456
 31
0.0
  0
LINE
  5
30BB
330
1E
100
AcDbEntity
  8
7
100
AcDbLine
 10
4.486220472440944
 20
6.446850393700787
 30
0.0
 11
4.406496062992125
 21
6.447834645669291
 31
0.0
  0
LINE
  5
30C1
330
1E
100
AcDbEntity
  8
7
100
AcDbLine
 10
4.409448818897637
 20
6.220472440944881
 30
0.0
 11
4.409448818897637
 21
6.445866141732283
 31
0.0
  0
LINE
  5
30C2
330
1E
100
AcDbEntity
  8
7
100
AcDbLine
 10
4.409448818897637
 20
6.220472440944881
 30
0.0
 11
4.487204724409448
 21
6.220472440944881
 31
0.0
  0
LINE
  5
30C3
330
1E
100
AcDbEntity
  8
7
100
AcDbLine
 10
4.406496062992125
 20
6.219488188976377
 30
0.0
 11
4.409448818897637
 21
6.220472440944881
 31
0.0
  0
LINE
  5
30C4
330
1E
100
AcDbEntity
  8
7
100
AcDbLine
 10
4.486220472440944
 20
6.220472440944881
 30
0.0
 11
4.406496062992125
 21
6.219488188976377
 31
0.0
  0
LINE
  5
30C5
330
1E
100
AcDbEntity
  8
7
100
AcDbLine
 10
4.406496062992125
 20
6.1751968503937
 30
0.0
 11
4.406496062992125
 21
6.219488188976377
 31
0.0
  0
LINE
  5
30C6
330
1E
100
AcDbEntity
  8
7
100
AcDbLine
 10
4.406496062992125
 20
6.1751968503937
 30
0.0
 11
4.486220472440944
 21
6.174212598425197
 31
0.0
  0
LINE
  5
30C7
330
1E
100
AcDbEntity
  8
7
100
AcDbLine
 10
4.406496062992125
 20
6.1751968503937
 30
0.0
 11
4.409448818897637
 21
6.173228346456692
 31
0.0
  0
LINE
  5
30C8
330
1E
100
AcDbEntity
  8
7
100
AcDbLine
 10
4.487204724409448
 20
6.173228346456692
 30
0.0
 11
4.409448818897637
 21
6.173228346456692
 31
0.0
  0
LINE
  5
30C9
330
1E
100
AcDbEntity
  8
7
100
AcDbLine
 10
4.409448818897637
 20
5.948818897637795
 30
0.0
 11
4.409448818897637
 21
6.173228346456692
 31
0.0
  0
LINE
  5
30CA
330
1E
100
AcDbEntity
  8
7
100
AcDbLine
 10
4.409448818897637
 20
5.948818897637795
 30
0.0
 11
4.487204724409448
 21
5.948818897637795
 31
0.0
  0
LINE
  5
30CB
330
1E
100
AcDbEntity
  8
7
100
AcDbLine
 10
4.406496062992125
 20
5.946850393700787
 30
0.0
 11
4.409448818897637
 21
5.948818897637795
 31
0.0
  0
LINE
  5
30CC
330
1E
100
AcDbEntity
  8
7
100
AcDbLine
 10
4.406496062992125
 20
5.946850393700787
 30
0.0
 11
4.486220472440944
 21
5.947834645669291
 31
0.0
  0
LINE
  5
30CD
330
1E
100
AcDbEntity
  8
7
100
AcDbLine
 10
4.406496062992125
 20
5.946850393700787
 30
0.0
 11
4.406496062992125
 21
5.905511811023622
 31
0.0
  0
LINE
  5
30D4
330
1E
100
AcDbEntity
  8
7
100
AcDbLine
 10
4.417322834645668
 20
5.900590551181101
 30
0.0
 11
4.411417322834645
 21
5.89763779527559
 31
0.0
  0
LINE
  5
30DA
330
1E
100
AcDbEntity
  8
7
100
AcDbLine
 10
4.408464566929133
 20
5.613188976377952
 30
0.0
 11
4.408464566929133
 21
5.561023622047244
 31
0.0
  0
LINE
  5
30DB
330
1E
100
AcDbEntity
  8
7
100
AcDbLine
 10
4.451771653543306
 20
5.561023622047244
 30
0.0
 11
4.408464566929133
 21
5.561023622047244
 31
0.0
  0
LINE
  5
30E1
330
1E
100
AcDbEntity
  8
7
100
AcDbLine
 10
4.250984251968503
 20
6.229330708661417
 30
0.0
 11
4.311023622047243
 21
6.229330708661417
 31
0.0
  0
LINE
  5
30E2
330
1E
100
AcDbEntity
  8
7
100
AcDbLine
 10
4.308070866141731
 20
5.75
 30
0.0
 11
4.302165354330708
 21
5.739173228346456
 31
0.0
  0
LINE
  5
30E3
330
1E
100
AcDbEntity
  8
7
100
AcDbLine
 10
4.411417322834645
 20
6.497047244094487
 30
0.0
 11
4.411417322834645
 21
6.779527559055117
 31
0.0
  0
LINE
  5
30E4
330
1E
100
AcDbEntity
  8
7
100
AcDbLine
 10
4.411417322834645
 20
5.89763779527559
 30
0.0
 11
4.411417322834645
 21
5.61515748031496
 31
0.0
  0
LINE
  5
30E5
330
1E
100
AcDbEntity
  8
7
100
AcDbLine
 10
4.311023622047243
 20
5.479330708661417
 30
0.0
 11
4.311023622047243
 21
5.643700787401574
 31
0.0
  0
LINE
  5
30F7
330
1E
100
AcDbEntity
  8
7
100
AcDbLine
 10
4.308070866141731
 20
5.373031496062991
 30
0.0
 11
4.302165354330708
 21
5.382874015748031
 31
0.0
  0
LINE
  5
30F8
330
1E
100
AcDbEntity
  8
7
100
AcDbLine
 10
4.311023622047243
 20
5.479330708661417
 30
0.0
 11
4.311023622047243
 21
5.367125984251968
 31
0.0
  0
LINE
  5
30F9
330
1E
100
AcDbEntity
  8
7
100
AcDbLine
 10
4.311023622047243
 20
5.754921259842519
 30
0.0
 11
4.311023622047243
 21
5.643700787401574
 31
0.0
  0
LINE
  5
30FA
330
1E
100
AcDbEntity
  8
7
100
AcDbLine
 10
4.311023622047243
 20
6.229330708661417
 30
0.0
 11
4.311023622047243
 21
5.754921259842519
 31
0.0
  0
LINE
  5
30FB
330
1E
100
AcDbEntity
  8
7
100
AcDbLine
 10
4.312007874015747
 20
6.231299212598425
 30
0.0
 11
4.311023622047243
 21
6.229330708661417
 31
0.0
  0
LINE
  5
30FC
330
1E
100
AcDbEntity
  8
7
100
AcDbLine
 10
4.311023622047243
 20
5.367125984251968
 30
0.0
 11
4.311023622047243
 21
4.888779527559054
 31
0.0
  0
LINE
  5
30FD
330
1E
100
AcDbEntity
  8
7
100
AcDbLine
 10
4.250984251968503
 20
5.367125984251968
 30
0.0
 11
4.250984251968503
 21
4.888779527559054
 31
0.0
  0
LINE
  5
30FE
330
1E
100
AcDbEntity
  8
7
100
AcDbLine
 10
4.249999999999999
 20
4.889763779527559
 30
0.0
 11
4.249999999999999
 21
5.373031496062991
 31
0.0
  0
LINE
  5
30FF
330
1E
100
AcDbEntity
  8
7
100
AcDbLine
 10
4.399606299212598
 20
4.905511811023622
 30
0.0
 11
4.411417322834645
 21
4.893700787401574
 31
0.0
  0
LINE
  5
3100
330
1E
100
AcDbEntity
  8
7
100
AcDbLine
 10
4.399606299212598
 20
4.905511811023622
 30
0.0
 11
4.396653543307086
 21
4.878937007874015
 31
0.0
  0
LINE
  5
310E
330
1E
100
AcDbEntity
  8
7
100
AcDbLine
 10
4.246062992125983
 20
7.483267716535433
 30
0.0
 11
4.246062992125983
 21
7.144685039370078
 31
0.0
  0
LINE
  5
3119
330
1E
100
AcDbEntity
  8
7
100
AcDbLine
 10
4.309055118110236
 20
6.23523622047244
 30
0.0
 11
4.312007874015747
 21
6.231299212598425
 31
0.0
  0
LINE
  5
3126
330
1E
100
AcDbEntity
  8
7
100
AcDbLine
 10
4.314960629921259
 20
5.472440944881889
 30
0.0
 11
4.311023622047243
 21
5.479330708661417
 31
0.0
  0
LINE
  5
3127
330
1E
100
AcDbEntity
  8
7
100
AcDbLine
 10
4.318897637795275
 20
5.487204724409449
 30
0.0
 11
4.32283464566929
 21
5.480314960629921
 31
0.0
  0
LINE
  5
3128
330
1E
100
AcDbEntity
  8
7
100
AcDbLine
 10
4.35531496062992
 20
5.480314960629921
 30
0.0
 11
4.348425196850393
 21
5.487204724409449
 31
0.0
  0
LINE
  5
3129
330
1E
100
AcDbEntity
  8
7
100
AcDbLine
 10
4.356299212598425
 20
5.49507874015748
 30
0.0
 11
4.363188976377951
 21
5.488188976377952
 31
0.0
  0
LINE
  5
312A
330
1E
100
AcDbEntity
  8
7
100
AcDbLine
 10
4.363188976377951
 20
5.633858267716535
 30
0.0
 11
4.356299212598425
 21
5.626968503937007
 31
0.0
  0
LINE
  5
312B
330
1E
100
AcDbEntity
  8
7
100
AcDbLine
 10
4.348425196850393
 20
5.635826771653543
 30
0.0
 11
4.35531496062992
 21
5.641732283464566
 31
0.0
  0
LINE
  5
312C
330
1E
100
AcDbEntity
  8
7
100
AcDbLine
 10
4.32283464566929
 20
5.641732283464566
 30
0.0
 11
4.318897637795275
 21
5.635826771653543
 31
0.0
  0
LINE
  5
312D
330
1E
100
AcDbEntity
  8
7
100
AcDbLine
 10
4.311023622047243
 20
5.643700787401574
 30
0.0
 11
4.314960629921259
 21
5.649606299212598
 31
0.0
  0
LINE
  5
312E
330
1E
100
AcDbEntity
  8
7
100
AcDbLine
 10
4.246062992125983
 20
7.144685039370078
 30
0.0
 11
4.246062992125983
 21
7.143700787401574
 31
0.0
  0
LINE
  5
312F
330
1E
100
AcDbEntity
  8
7
100
AcDbLine
 10
4.246062992125983
 20
7.484251968503937
 30
0.0
 11
4.246062992125983
 21
7.483267716535433
 31
0.0
  0
LINE
  5
313A
330
1E
100
AcDbEntity
  8
7
100
AcDbLine
 10
4.312007874015747
 20
6.231299212598425
 30
0.0
 11
4.312992125984251
 21
6.23523622047244
 31
0.0
  0
LINE
  5
313B
330
1E
100
AcDbEntity
  8
7
100
AcDbLine
 10
2.502952755905511
 20
3.24507874015748
 30
0.0
 11
2.504921259842519
 21
3.125
 31
0.0
  0
LINE
  5
313C
330
1E
100
AcDbEntity
  8
7
100
AcDbLine
 10
2.525590551181102
 20
3.24507874015748
 30
0.0
 11
2.52755905511811
 21
3.125
 31
0.0
  0
LINE
  5
3142
330
1E
100
AcDbEntity
  8
7
100
AcDbLine
 10
2.526574803149606
 20
3.281496062992125
 30
0.0
 11
2.609251968503937
 21
3.281496062992125
 31
0.0
  0
LINE
  5
3143
330
1E
100
AcDbEntity
  8
7
100
AcDbLine
 10
2.526574803149606
 20
3.281496062992125
 30
0.0
 11
2.525590551181102
 21
3.24507874015748
 31
0.0
  0
LINE
  5
3144
330
1E
100
AcDbEntity
  8
7
100
AcDbLine
 10
2.599409448818897
 20
3.095472440944881
 30
0.0
 11
2.558070866141732
 21
3.095472440944881
 31
0.0
  0
LINE
  5
3145
330
1E
100
AcDbEntity
  8
7
100
AcDbLine
 10
2.607283464566929
 20
3.24507874015748
 30
0.0
 11
2.599409448818897
 21
3.095472440944881
 31
0.0
  0
LINE
  5
3152
330
1E
100
AcDbEntity
  8
7
100
AcDbLine
 10
2.700787401574803
 20
3.580708661417322
 30
0.0
 11
2.725393700787401
 21
3.672244094488188
 31
0.0
  0
LINE
  5
3158
330
1E
100
AcDbEntity
  8
7
100
AcDbLine
 10
2.534448818897637
 20
3.095472440944881
 30
0.0
 11
2.558070866141732
 21
3.095472440944881
 31
0.0
  0
LINE
  5
3159
330
1E
100
AcDbEntity
  8
7
100
AcDbLine
 10
2.502952755905511
 20
3.24507874015748
 30
0.0
 11
2.525590551181102
 21
3.24507874015748
 31
0.0
  0
LINE
  5
315A
330
1E
100
AcDbEntity
  8
7
100
AcDbLine
 10
2.563976377952756
 20
3.768700787401574
 30
0.0
 11
2.558070866141732
 21
3.432086614173228
 31
0.0
  0
LINE
  5
315B
330
1E
100
AcDbEntity
  8
7
100
AcDbLine
 10
2.609251968503937
 20
3.281496062992125
 30
0.0
 11
2.622047244094487
 21
3.535433070866141
 31
0.0
  0
LINE
  5
315C
330
1E
100
AcDbEntity
  8
7
100
AcDbLine
 10
2.599409448818897
 20
3.095472440944881
 30
0.0
 11
2.632874015748031
 21
3.095472440944881
 31
0.0
  0
LINE
  5
315D
330
1E
100
AcDbEntity
  8
7
100
AcDbLine
 10
2.597440944881889
 20
3.705708661417322
 30
0.0
 11
2.598425196850393
 21
3.78248031496063
 31
0.0
  0
LINE
  5
315E
330
1E
100
AcDbEntity
  8
7
100
AcDbLine
 10
2.714566929133858
 20
3.682086614173228
 30
0.0
 11
2.632874015748031
 21
3.095472440944881
 31
0.0
  0
LINE
  5
315F
330
1E
100
AcDbEntity
  8
7
100
AcDbLine
 10
2.725393700787401
 20
3.672244094488188
 30
0.0
 11
2.725393700787401
 21
3.682086614173228
 31
0.0
  0
LINE
  5
3160
330
1E
100
AcDbEntity
  8
7
100
AcDbLine
 10
2.697834645669291
 20
3.645669291338582
 30
0.0
 11
2.598425196850393
 21
3.645669291338582
 31
0.0
  0
LINE
  5
3161
330
1E
100
AcDbEntity
  8
7
100
AcDbLine
 10
2.697834645669291
 20
3.645669291338582
 30
0.0
 11
2.698818897637795
 21
3.681102362204724
 31
0.0
  0
LINE
  5
3162
330
1E
100
AcDbEntity
  8
7
100
AcDbLine
 10
2.598425196850393
 20
3.645669291338582
 30
0.0
 11
2.597440944881889
 21
3.705708661417322
 31
0.0
  0
LINE
  5
3163
330
1E
100
AcDbEntity
  8
7
100
AcDbLine
 10
2.748031496062992
 20
3.682086614173228
 30
0.0
 11
2.698818897637795
 21
3.682086614173228
 31
0.0
  0
LINE
  5
3164
330
1E
100
AcDbEntity
  8
7
100
AcDbLine
 10
2.563976377952756
 20
3.768700787401574
 30
0.0
 11
2.643700787401574
 21
3.848425196850393
 31
0.0
  0
LINE
  5
3165
330
1E
100
AcDbEntity
  8
7
100
AcDbLine
 10
2.632874015748031
 20
3.535433070866141
 30
0.0
 11
2.622047244094487
 21
3.535433070866141
 31
0.0
  0
LINE
  5
3166
330
1E
100
AcDbEntity
  8
7
100
AcDbLine
 10
2.632874015748031
 20
3.535433070866141
 30
0.0
 11
2.636811023622047
 21
3.645669291338582
 31
0.0
  0
LINE
  5
3167
330
1E
100
AcDbEntity
  8
7
100
AcDbLine
 10
2.598425196850393
 20
3.78248031496063
 30
0.0
 11
2.641732283464567
 21
3.78248031496063
 31
0.0
  0
LINE
  5
3168
330
1E
100
AcDbEntity
  8
7
100
AcDbLine
 10
2.597440944881889
 20
3.705708661417322
 30
0.0
 11
2.638779527559055
 21
3.705708661417322
 31
0.0
  0
LINE
  5
3169
330
1E
100
AcDbEntity
  8
7
100
AcDbLine
 10
2.730314960629921
 20
3.645669291338582
 30
0.0
 11
2.718503937007874
 21
3.645669291338582
 31
0.0
  0
LINE
  5
316A
330
1E
100
AcDbEntity
  8
7
100
AcDbLine
 10
2.730314960629921
 20
3.645669291338582
 30
0.0
 11
2.731299212598425
 21
3.682086614173228
 31
0.0
  0
LINE
  5
316B
330
1E
100
AcDbEntity
  8
7
100
AcDbLine
 10
2.747047244094487
 20
3.705708661417322
 30
0.0
 11
2.748031496062992
 21
3.682086614173228
 31
0.0
  0
LINE
  5
3183
330
1E
100
AcDbEntity
  8
7
100
AcDbLine
 10
2.698818897637795
 20
3.682086614173228
 30
0.0
 11
2.696850393700787
 21
3.705708661417322
 31
0.0
  0
LINE
  5
31A2
330
1E
100
AcDbEntity
  8
7
100
AcDbLine
 10
4.311023622047243
 20
3.705708661417322
 30
0.0
 11
2.739173228346456
 21
3.705708661417322
 31
0.0
  0
LINE
  5
31B0
330
1E
100
AcDbEntity
  8
7
100
AcDbLine
 10
4.547244094488188
 20
3.24507874015748
 30
0.0
 11
4.54527559055118
 21
3.125
 31
0.0
  0
LINE
  5
31B1
330
1E
100
AcDbEntity
  8
7
100
AcDbLine
 10
4.524606299212598
 20
3.24507874015748
 30
0.0
 11
4.522637795275589
 21
3.125
 31
0.0
  0
LINE
  5
31B2
330
1E
100
AcDbEntity
  8
7
100
AcDbLine
 10
4.524606299212598
 20
3.24507874015748
 30
0.0
 11
4.442913385826771
 21
3.24507874015748
 31
0.0
  0
LINE
  5
31B3
330
1E
100
AcDbEntity
  8
7
100
AcDbLine
 10
4.523622047244093
 20
3.281496062992125
 30
0.0
 11
4.524606299212598
 21
3.24507874015748
 31
0.0
  0
LINE
  5
31B4
330
1E
100
AcDbEntity
  8
7
100
AcDbLine
 10
4.523622047244093
 20
3.281496062992125
 30
0.0
 11
4.440944881889762
 21
3.281496062992125
 31
0.0
  0
LINE
  5
31B5
330
1E
100
AcDbEntity
  8
7
100
AcDbLine
 10
4.442913385826771
 20
3.24507874015748
 30
0.0
 11
4.440944881889762
 21
3.281496062992125
 31
0.0
  0
LINE
  5
31BD
330
1E
100
AcDbEntity
  8
7
100
AcDbLine
 10
4.442913385826771
 20
3.24507874015748
 30
0.0
 11
4.450787401574802
 21
3.095472440944881
 31
0.0
  0
LINE
  5
31C3
330
1E
100
AcDbEntity
  8
7
100
AcDbLine
 10
4.541338582677164
 20
3.11023622047244
 30
0.0
 11
4.54527559055118
 21
3.125
 31
0.0
  0
LINE
  5
31C4
330
1E
100
AcDbEntity
  8
7
100
AcDbLine
 10
4.349409448818897
 20
3.580708661417322
 30
0.0
 11
4.324803149606299
 21
3.672244094488188
 31
0.0
  0
LINE
  5
31CA
330
1E
100
AcDbEntity
  8
7
100
AcDbLine
 10
4.515748031496062
 20
3.095472440944881
 30
0.0
 11
4.492125984251967
 21
3.095472440944881
 31
0.0
  0
LINE
  5
31CB
330
1E
100
AcDbEntity
  8
7
100
AcDbLine
 10
4.547244094488188
 20
3.24507874015748
 30
0.0
 11
4.524606299212598
 21
3.24507874015748
 31
0.0
  0
LINE
  5
31CC
330
1E
100
AcDbEntity
  8
7
100
AcDbLine
 10
4.486220472440944
 20
3.768700787401574
 30
0.0
 11
4.492125984251967
 21
3.432086614173228
 31
0.0
  0
LINE
  5
31CD
330
1E
100
AcDbEntity
  8
7
100
AcDbLine
 10
4.440944881889762
 20
3.281496062992125
 30
0.0
 11
4.428149606299212
 21
3.535433070866141
 31
0.0
  0
LINE
  5
31CE
330
1E
100
AcDbEntity
  8
7
100
AcDbLine
 10
4.450787401574802
 20
3.095472440944881
 30
0.0
 11
4.417322834645668
 21
3.095472440944881
 31
0.0
  0
LINE
  5
31CF
330
1E
100
AcDbEntity
  8
7
100
AcDbLine
 10
4.45275590551181
 20
3.705708661417322
 30
0.0
 11
4.451771653543306
 21
3.78248031496063
 31
0.0
  0
LINE
  5
31D0
330
1E
100
AcDbEntity
  8
7
100
AcDbLine
 10
4.335629921259841
 20
3.682086614173228
 30
0.0
 11
4.417322834645668
 21
3.095472440944881
 31
0.0
  0
LINE
  5
31D1
330
1E
100
AcDbEntity
  8
7
100
AcDbLine
 10
4.324803149606299
 20
3.672244094488188
 30
0.0
 11
4.324803149606299
 21
3.682086614173228
 31
0.0
  0
LINE
  5
31D2
330
1E
100
AcDbEntity
  8
7
100
AcDbLine
 10
4.352362204724409
 20
3.645669291338582
 30
0.0
 11
4.451771653543306
 21
3.645669291338582
 31
0.0
  0
LINE
  5
31D3
330
1E
100
AcDbEntity
  8
7
100
AcDbLine
 10
4.352362204724409
 20
3.645669291338582
 30
0.0
 11
4.351377952755904
 21
3.681102362204724
 31
0.0
  0
LINE
  5
31D4
330
1E
100
AcDbEntity
  8
7
100
AcDbLine
 10
4.451771653543306
 20
3.645669291338582
 30
0.0
 11
4.45275590551181
 21
3.705708661417322
 31
0.0
  0
LINE
  5
31D5
330
1E
100
AcDbEntity
  8
7
100
AcDbLine
 10
4.302165354330708
 20
3.682086614173228
 30
0.0
 11
4.351377952755904
 21
3.682086614173228
 31
0.0
  0
LINE
  5
31D6
330
1E
100
AcDbEntity
  8
7
100
AcDbLine
 10
4.486220472440944
 20
3.768700787401574
 30
0.0
 11
4.406496062992125
 21
3.848425196850393
 31
0.0
  0
LINE
  5
31D7
330
1E
100
AcDbEntity
  8
7
100
AcDbLine
 10
4.417322834645668
 20
3.535433070866141
 30
0.0
 11
4.428149606299212
 21
3.535433070866141
 31
0.0
  0
LINE
  5
31D8
330
1E
100
AcDbEntity
  8
7
100
AcDbLine
 10
4.417322834645668
 20
3.535433070866141
 30
0.0
 11
4.413385826771652
 21
3.645669291338582
 31
0.0
  0
LINE
  5
31D9
330
1E
100
AcDbEntity
  8
7
100
AcDbLine
 10
4.451771653543306
 20
3.78248031496063
 30
0.0
 11
4.408464566929133
 21
3.78248031496063
 31
0.0
  0
LINE
  5
31DA
330
1E
100
AcDbEntity
  8
7
100
AcDbLine
 10
4.45275590551181
 20
3.705708661417322
 30
0.0
 11
4.411417322834645
 21
3.705708661417322
 31
0.0
  0
LINE
  5
31DB
330
1E
100
AcDbEntity
  8
7
100
AcDbLine
 10
4.319881889763778
 20
3.645669291338582
 30
0.0
 11
4.318897637795275
 21
3.682086614173228
 31
0.0
  0
LINE
  5
31DC
330
1E
100
AcDbEntity
  8
7
100
AcDbLine
 10
4.319881889763778
 20
3.645669291338582
 30
0.0
 11
4.331692913385825
 21
3.645669291338582
 31
0.0
  0
LINE
  5
31DD
330
1E
100
AcDbEntity
  8
7
100
AcDbLine
 10
4.303149606299212
 20
3.705708661417322
 30
0.0
 11
4.302165354330708
 21
3.682086614173228
 31
0.0
  0
LINE
  5
31DE
330
1E
100
AcDbEntity
  8
7
100
AcDbLine
 10
4.399606299212598
 20
4.040354330708661
 30
0.0
 11
4.411417322834645
 21
3.705708661417322
 31
0.0
  0
LINE
  5
31E8
330
1E
100
AcDbEntity
  8
7
100
AcDbLine
 10
4.351377952755904
 20
3.682086614173228
 30
0.0
 11
4.353346456692912
 21
3.705708661417322
 31
0.0
  0
LINE
  5
31F1
330
1E
100
AcDbEntity
  8
7
100
AcDbLine
 10
4.399606299212598
 20
4.040354330708661
 30
0.0
 11
4.397637795275589
 21
4.044291338582676
 31
0.0
  0
LINE
  5
31F2
330
1E
100
AcDbEntity
  8
7
100
AcDbLine
 10
4.397637795275589
 20
4.044291338582676
 30
0.0
 11
4.394685039370077
 21
4.045275590551181
 31
0.0
  0
LINE
  5
31F3
330
1E
100
AcDbEntity
  8
7
100
AcDbLine
 10
4.399606299212598
 20
4.040354330708661
 30
0.0
 11
4.396653543307086
 21
4.040354330708661
 31
0.0
  0
LINE
  5
31F4
330
1E
100
AcDbEntity
  8
7
100
AcDbLine
 10
4.396653543307086
 20
4.040354330708661
 30
0.0
 11
4.386811023622046
 21
4.040354330708661
 31
0.0
  0
LINE
  5
31F5
330
1E
100
AcDbEntity
  8
7
100
AcDbLine
 10
4.386811023622046
 20
4.040354330708661
 30
0.0
 11
4.370078740157479
 21
4.040354330708661
 31
0.0
  0
LINE
  5
31F6
330
1E
100
AcDbEntity
  8
7
100
AcDbLine
 10
4.370078740157479
 20
4.040354330708661
 30
0.0
 11
4.349409448818897
 21
4.040354330708661
 31
0.0
  0
LINE
  5
31F7
330
1E
100
AcDbEntity
  8
7
100
AcDbLine
 10
4.349409448818897
 20
4.040354330708661
 30
0.0
 11
4.325787401574802
 21
4.040354330708661
 31
0.0
  0
LINE
  5
31F8
330
1E
100
AcDbEntity
  8
7
100
AcDbLine
 10
4.325787401574802
 20
4.040354330708661
 30
0.0
 11
4.3001968503937
 21
4.040354330708661
 31
0.0
  0
LINE
  5
31F9
330
1E
100
AcDbEntity
  8
7
100
AcDbLine
 10
4.492125984251967
 20
3.432086614173228
 30
0.0
 11
4.54527559055118
 21
3.346456692913385
 31
0.0
  0
LINE
  5
31FA
330
1E
100
AcDbEntity
  8
7
100
AcDbLine
 10
4.54527559055118
 20
3.346456692913385
 30
0.0
 11
4.547244094488188
 21
3.24507874015748
 31
0.0
  0
LINE
  5
31FB
330
1E
100
AcDbEntity
  8
7
100
AcDbLine
 10
4.515748031496062
 20
3.095472440944881
 30
0.0
 11
4.530511811023621
 21
3.099409448818897
 31
0.0
  0
LINE
  5
31FC
330
1E
100
AcDbEntity
  8
7
100
AcDbLine
 10
4.530511811023621
 20
3.099409448818897
 30
0.0
 11
4.541338582677164
 21
3.11023622047244
 31
0.0
  0
LINE
  5
31FD
330
1E
100
AcDbEntity
  8
7
100
AcDbLine
 10
4.450787401574802
 20
3.095472440944881
 30
0.0
 11
4.492125984251967
 21
3.095472440944881
 31
0.0
  0
LINE
  5
31FE
330
1E
100
AcDbEntity
  8
7
100
AcDbLine
 10
4.492125984251967
 20
3.095472440944881
 30
0.0
 11
4.506889763779526
 21
3.099409448818897
 31
0.0
  0
LINE
  5
31FF
330
1E
100
AcDbEntity
  8
7
100
AcDbLine
 10
4.506889763779526
 20
3.099409448818897
 30
0.0
 11
4.51771653543307
 21
3.11023622047244
 31
0.0
  0
LINE
  5
3200
330
1E
100
AcDbEntity
  8
7
100
AcDbLine
 10
4.51771653543307
 20
3.11023622047244
 30
0.0
 11
4.522637795275589
 21
3.125
 31
0.0
  0
LINE
  5
3201
330
1E
100
AcDbEntity
  8
7
100
AcDbLine
 10
4.33759842519685
 20
3.705708661417322
 30
0.0
 11
4.311023622047243
 21
3.705708661417322
 31
0.0
  0
LINE
  5
3202
330
1E
100
AcDbEntity
  8
7
100
AcDbLine
 10
4.311023622047243
 20
3.705708661417322
 30
0.0
 11
4.3001968503937
 21
4.040354330708661
 31
0.0
  0
LINE
  5
3203
330
1E
100
AcDbEntity
  8
7
100
AcDbLine
 10
4.411417322834645
 20
3.705708661417322
 30
0.0
 11
4.408464566929133
 21
3.705708661417322
 31
0.0
  0
LINE
  5
3204
330
1E
100
AcDbEntity
  8
7
100
AcDbLine
 10
4.408464566929133
 20
3.705708661417322
 30
0.0
 11
4.397637795275589
 21
3.705708661417322
 31
0.0
  0
LINE
  5
3205
330
1E
100
AcDbEntity
  8
7
100
AcDbLine
 10
4.397637795275589
 20
3.705708661417322
 30
0.0
 11
4.381889763779526
 21
3.705708661417322
 31
0.0
  0
LINE
  5
3206
330
1E
100
AcDbEntity
  8
7
100
AcDbLine
 10
4.381889763779526
 20
3.705708661417322
 30
0.0
 11
4.361220472440944
 21
3.705708661417322
 31
0.0
  0
LINE
  5
3207
330
1E
100
AcDbEntity
  8
7
100
AcDbLine
 10
4.361220472440944
 20
3.705708661417322
 30
0.0
 11
4.33759842519685
 21
3.705708661417322
 31
0.0
  0
LINE
  5
3208
330
1E
100
AcDbEntity
  8
7
100
AcDbLine
 10
4.3001968503937
 20
4.045275590551181
 30
0.0
 11
4.328740157480314
 21
4.045275590551181
 31
0.0
  0
LINE
  5
3209
330
1E
100
AcDbEntity
  8
7
100
AcDbLine
 10
4.328740157480314
 20
4.045275590551181
 30
0.0
 11
4.35531496062992
 21
4.045275590551181
 31
0.0
  0
LINE
  5
320A
330
1E
100
AcDbEntity
  8
7
100
AcDbLine
 10
4.35531496062992
 20
4.045275590551181
 30
0.0
 11
4.376968503937007
 21
4.045275590551181
 31
0.0
  0
LINE
  5
320B
330
1E
100
AcDbEntity
  8
7
100
AcDbLine
 10
4.376968503937007
 20
4.045275590551181
 30
0.0
 11
4.389763779527558
 21
4.045275590551181
 31
0.0
  0
LINE
  5
320C
330
1E
100
AcDbEntity
  8
7
100
AcDbLine
 10
4.389763779527558
 20
4.045275590551181
 30
0.0
 11
4.394685039370077
 21
4.045275590551181
 31
0.0
  0
LINE
  5
320D
330
1E
100
AcDbEntity
  8
7
100
AcDbLine
 10
2.75
 20
4.040354330708661
 30
0.0
 11
4.3001968503937
 21
4.040354330708661
 31
0.0
  0
LINE
  5
320E
330
1E
100
AcDbEntity
  8
7
100
AcDbLine
 10
4.3001968503937
 20
4.040354330708661
 30
0.0
 11
4.3001968503937
 21
4.044291338582676
 31
0.0
  0
LINE
  5
320F
330
1E
100
AcDbEntity
  8
7
100
AcDbLine
 10
4.3001968503937
 20
4.044291338582676
 30
0.0
 11
4.3001968503937
 21
4.045275590551181
 31
0.0
  0
LINE
  5
3210
330
1E
100
AcDbEntity
  8
7
100
AcDbLine
 10
4.3001968503937
 20
4.045275590551181
 30
0.0
 11
2.75
 21
4.045275590551181
 31
0.0
  0
LINE
  5
3211
330
1E
100
AcDbEntity
  8
7
100
AcDbLine
 10
2.75
 20
4.040354330708661
 30
0.0
 11
2.75
 21
4.044291338582676
 31
0.0
  0
LINE
  5
3212
330
1E
100
AcDbEntity
  8
7
100
AcDbLine
 10
2.75
 20
4.044291338582676
 30
0.0
 11
2.75
 21
4.045275590551181
 31
0.0
  0
LINE
  5
3213
330
1E
100
AcDbEntity
  8
7
100
AcDbLine
 10
2.75
 20
4.045275590551181
 30
0.0
 11
2.721456692913385
 21
4.045275590551181
 31
0.0
  0
LINE
  5
3214
330
1E
100
AcDbEntity
  8
7
100
AcDbLine
 10
2.721456692913385
 20
4.045275590551181
 30
0.0
 11
2.694881889763779
 21
4.045275590551181
 31
0.0
  0
LINE
  5
3215
330
1E
100
AcDbEntity
  8
7
100
AcDbLine
 10
2.694881889763779
 20
4.045275590551181
 30
0.0
 11
2.673228346456693
 21
4.045275590551181
 31
0.0
  0
LINE
  5
3216
330
1E
100
AcDbEntity
  8
7
100
AcDbLine
 10
2.673228346456693
 20
4.045275590551181
 30
0.0
 11
2.660433070866141
 21
4.045275590551181
 31
0.0
  0
LINE
  5
3217
330
1E
100
AcDbEntity
  8
7
100
AcDbLine
 10
2.660433070866141
 20
4.045275590551181
 30
0.0
 11
2.655511811023622
 21
4.045275590551181
 31
0.0
  0
LINE
  5
3218
330
1E
100
AcDbEntity
  8
7
100
AcDbLine
 10
2.655511811023622
 20
4.045275590551181
 30
0.0
 11
2.65255905511811
 21
4.044291338582676
 31
0.0
  0
LINE
  5
3219
330
1E
100
AcDbEntity
  8
7
100
AcDbLine
 10
2.65255905511811
 20
4.044291338582676
 30
0.0
 11
2.650590551181102
 21
4.040354330708661
 31
0.0
  0
LINE
  5
321A
330
1E
100
AcDbEntity
  8
7
100
AcDbLine
 10
2.650590551181102
 20
4.040354330708661
 30
0.0
 11
2.653543307086614
 21
4.040354330708661
 31
0.0
  0
LINE
  5
321B
330
1E
100
AcDbEntity
  8
7
100
AcDbLine
 10
2.653543307086614
 20
4.040354330708661
 30
0.0
 11
2.664370078740157
 21
4.040354330708661
 31
0.0
  0
LINE
  5
321C
330
1E
100
AcDbEntity
  8
7
100
AcDbLine
 10
2.664370078740157
 20
4.040354330708661
 30
0.0
 11
2.68011811023622
 21
4.040354330708661
 31
0.0
  0
LINE
  5
321D
330
1E
100
AcDbEntity
  8
7
100
AcDbLine
 10
2.68011811023622
 20
4.040354330708661
 30
0.0
 11
2.700787401574803
 21
4.040354330708661
 31
0.0
  0
LINE
  5
321E
330
1E
100
AcDbEntity
  8
7
100
AcDbLine
 10
2.700787401574803
 20
4.040354330708661
 30
0.0
 11
2.724409448818897
 21
4.040354330708661
 31
0.0
  0
LINE
  5
321F
330
1E
100
AcDbEntity
  8
7
100
AcDbLine
 10
2.724409448818897
 20
4.040354330708661
 30
0.0
 11
2.75
 21
4.040354330708661
 31
0.0
  0
LINE
  5
3220
330
1E
100
AcDbEntity
  8
7
100
AcDbLine
 10
2.688976377952756
 20
3.705708661417322
 30
0.0
 11
2.71259842519685
 21
3.705708661417322
 31
0.0
  0
LINE
  5
3221
330
1E
100
AcDbEntity
  8
7
100
AcDbLine
 10
2.71259842519685
 20
3.705708661417322
 30
0.0
 11
2.739173228346456
 21
3.705708661417322
 31
0.0
  0
LINE
  5
3222
330
1E
100
AcDbEntity
  8
7
100
AcDbLine
 10
2.739173228346456
 20
3.705708661417322
 30
0.0
 11
2.75
 21
4.040354330708661
 31
0.0
  0
LINE
  5
3223
330
1E
100
AcDbEntity
  8
7
100
AcDbLine
 10
2.650590551181102
 20
4.040354330708661
 30
0.0
 11
2.638779527559055
 21
3.705708661417322
 31
0.0
  0
LINE
  5
3224
330
1E
100
AcDbEntity
  8
7
100
AcDbLine
 10
2.638779527559055
 20
3.705708661417322
 30
0.0
 11
2.64271653543307
 21
3.705708661417322
 31
0.0
  0
LINE
  5
3225
330
1E
100
AcDbEntity
  8
7
100
AcDbLine
 10
2.64271653543307
 20
3.705708661417322
 30
0.0
 11
2.65255905511811
 21
3.705708661417322
 31
0.0
  0
LINE
  5
3226
330
1E
100
AcDbEntity
  8
7
100
AcDbLine
 10
2.65255905511811
 20
3.705708661417322
 30
0.0
 11
2.668307086614173
 21
3.705708661417322
 31
0.0
  0
LINE
  5
3227
330
1E
100
AcDbEntity
  8
7
100
AcDbLine
 10
2.668307086614173
 20
3.705708661417322
 30
0.0
 11
2.688976377952756
 21
3.705708661417322
 31
0.0
  0
LINE
  5
3228
330
1E
100
AcDbEntity
  8
7
100
AcDbLine
 10
2.558070866141732
 20
3.432086614173228
 30
0.0
 11
2.504921259842519
 21
3.346456692913385
 31
0.0
  0
LINE
  5
3229
330
1E
100
AcDbEntity
  8
7
100
AcDbLine
 10
2.504921259842519
 20
3.346456692913385
 30
0.0
 11
2.502952755905511
 21
3.24507874015748
 31
0.0
  0
LINE
  5
322A
330
1E
100
AcDbEntity
  8
7
100
AcDbLine
 10
2.534448818897637
 20
3.095472440944881
 30
0.0
 11
2.519685039370078
 21
3.099409448818897
 31
0.0
  0
LINE
  5
322B
330
1E
100
AcDbEntity
  8
7
100
AcDbLine
 10
2.519685039370078
 20
3.099409448818897
 30
0.0
 11
2.508858267716535
 21
3.11023622047244
 31
0.0
  0
LINE
  5
322C
330
1E
100
AcDbEntity
  8
7
100
AcDbLine
 10
2.508858267716535
 20
3.11023622047244
 30
0.0
 11
2.504921259842519
 21
3.125
 31
0.0
  0
LINE
  5
322D
330
1E
100
AcDbEntity
  8
7
100
AcDbLine
 10
2.558070866141732
 20
3.095472440944881
 30
0.0
 11
2.543307086614173
 21
3.099409448818897
 31
0.0
  0
LINE
  5
322E
330
1E
100
AcDbEntity
  8
7
100
AcDbLine
 10
2.543307086614173
 20
3.099409448818897
 30
0.0
 11
2.53248031496063
 21
3.11023622047244
 31
0.0
  0
LINE
  5
322F
330
1E
100
AcDbEntity
  8
7
100
AcDbLine
 10
2.53248031496063
 20
3.11023622047244
 30
0.0
 11
2.52755905511811
 21
3.125
 31
0.0
  0
LINE
  5
3230
330
1E
100
AcDbEntity
  8
7
100
AcDbLine
 10
2.525590551181102
 20
3.24507874015748
 30
0.0
 11
2.607283464566929
 21
3.24507874015748
 31
0.0
  0
LINE
  5
3231
330
1E
100
AcDbEntity
  8
7
100
AcDbLine
 10
2.607283464566929
 20
3.24507874015748
 30
0.0
 11
2.609251968503937
 21
3.281496062992125
 31
0.0
  0
LINE
  5
3232
330
1E
100
AcDbEntity
  8
7
100
AcDbLine
 10
4.394685039370077
 20
4.905511811023622
 30
0.0
 11
4.398622047244093
 21
4.905511811023622
 31
0.0
  0
LINE
  5
3233
330
1E
100
AcDbEntity
  8
7
100
AcDbLine
 10
4.398622047244093
 20
4.905511811023622
 30
0.0
 11
4.399606299212598
 21
4.905511811023622
 31
0.0
  0
LINE
  5
3234
330
1E
100
AcDbEntity
  8
7
100
AcDbLine
 10
4.399606299212598
 20
7.489173228346456
 30
0.0
 11
4.398622047244093
 21
7.489173228346456
 31
0.0
  0
LINE
  5
3235
330
1E
100
AcDbEntity
  8
7
100
AcDbLine
 10
4.398622047244093
 20
7.489173228346456
 30
0.0
 11
4.394685039370077
 21
7.489173228346456
 31
0.0
  0
LINE
  5
3236
330
1E
100
AcDbEntity
  8
7
100
AcDbLine
 10
4.386811023622046
 20
7.539370078740157
 30
0.0
 11
4.396653543307086
 21
7.515748031496062
 31
0.0
  0
LINE
  5
3237
330
1E
100
AcDbEntity
  8
7
100
AcDbLine
 10
4.396653543307086
 20
7.515748031496062
 30
0.0
 11
4.399606299212598
 21
7.489173228346456
 31
0.0
  0
LINE
  5
3238
330
1E
100
AcDbEntity
  8
7
100
AcDbLine
 10
4.3001968503937
 20
7.589566929133858
 30
0.0
 11
4.325787401574802
 21
7.585629921259842
 31
0.0
  0
LINE
  5
3239
330
1E
100
AcDbEntity
  8
7
100
AcDbLine
 10
4.325787401574802
 20
7.585629921259842
 30
0.0
 11
4.349409448818897
 21
7.575787401574802
 31
0.0
  0
LINE
  5
323A
330
1E
100
AcDbEntity
  8
7
100
AcDbLine
 10
4.349409448818897
 20
7.575787401574802
 30
0.0
 11
4.370078740157479
 21
7.560039370078739
 31
0.0
  0
LINE
  5
323B
330
1E
100
AcDbEntity
  8
7
100
AcDbLine
 10
4.370078740157479
 20
7.560039370078739
 30
0.0
 11
4.386811023622046
 21
7.539370078740157
 31
0.0
  0
LINE
  5
323C
330
1E
100
AcDbEntity
  8
7
100
AcDbLine
 10
4.23523622047244
 20
7.134842519685038
 30
0.0
 11
4.243110236220472
 21
7.136811023622047
 31
0.0
  0
LINE
  5
323D
330
1E
100
AcDbEntity
  8
7
100
AcDbLine
 10
4.243110236220472
 20
7.136811023622047
 30
0.0
 11
4.246062992125983
 21
7.144685039370078
 31
0.0
  0
LINE
  5
323E
330
1E
100
AcDbEntity
  8
7
100
AcDbLine
 10
4.246062992125983
 20
7.483267716535433
 30
0.0
 11
4.243110236220472
 21
7.49015748031496
 31
0.0
  0
LINE
  5
323F
330
1E
100
AcDbEntity
  8
7
100
AcDbLine
 10
4.243110236220472
 20
7.49015748031496
 30
0.0
 11
4.23523622047244
 21
7.493110236220472
 31
0.0
  0
LINE
  5
3240
330
1E
100
AcDbEntity
  8
7
100
AcDbLine
 10
4.411417322834645
 20
7.500984251968503
 30
0.0
 11
4.399606299212598
 21
7.489173228346456
 31
0.0
  0
LINE
  5
3241
330
1E
100
AcDbEntity
  8
7
100
AcDbLine
 10
4.399606299212598
 20
7.489173228346456
 30
0.0
 11
4.399606299212598
 21
4.905511811023622
 31
0.0
  0
LINE
  5
3242
330
1E
100
AcDbEntity
  8
7
100
AcDbLine
 10
4.396653543307086
 20
4.878937007874015
 30
0.0
 11
4.386811023622046
 21
4.855314960629921
 31
0.0
  0
LINE
  5
3243
330
1E
100
AcDbEntity
  8
7
100
AcDbLine
 10
4.386811023622046
 20
4.855314960629921
 30
0.0
 11
4.370078740157479
 21
4.834645669291338
 31
0.0
  0
LINE
  5
3244
330
1E
100
AcDbEntity
  8
7
100
AcDbLine
 10
4.370078740157479
 20
4.834645669291338
 30
0.0
 11
4.349409448818897
 21
4.818897637795275
 31
0.0
  0
LINE
  5
3245
330
1E
100
AcDbEntity
  8
7
100
AcDbLine
 10
4.349409448818897
 20
4.818897637795275
 30
0.0
 11
4.325787401574802
 21
4.809055118110236
 31
0.0
  0
LINE
  5
3246
330
1E
100
AcDbEntity
  8
7
100
AcDbLine
 10
4.325787401574802
 20
4.809055118110236
 30
0.0
 11
4.3001968503937
 21
4.80511811023622
 31
0.0
  0
LINE
  5
3247
330
1E
100
AcDbEntity
  8
7
100
AcDbLine
 10
4.348425196850393
 20
5.635826771653543
 30
0.0
 11
4.318897637795275
 21
5.635826771653543
 31
0.0
  0
LINE
  5
3248
330
1E
100
AcDbEntity
  8
7
100
AcDbLine
 10
4.318897637795275
 20
5.635826771653543
 30
0.0
 11
4.313976377952755
 21
5.63779527559055
 31
0.0
  0
LINE
  5
3249
330
1E
100
AcDbEntity
  8
7
100
AcDbLine
 10
4.313976377952755
 20
5.63779527559055
 30
0.0
 11
4.311023622047243
 21
5.643700787401574
 31
0.0
  0
LINE
  5
324A
330
1E
100
AcDbEntity
  8
7
100
AcDbLine
 10
4.311023622047243
 20
5.479330708661417
 30
0.0
 11
4.313976377952755
 21
5.484251968503937
 31
0.0
  0
LINE
  5
324B
330
1E
100
AcDbEntity
  8
7
100
AcDbLine
 10
4.313976377952755
 20
5.484251968503937
 30
0.0
 11
4.318897637795275
 21
5.487204724409449
 31
0.0
  0
LINE
  5
324C
330
1E
100
AcDbEntity
  8
7
100
AcDbLine
 10
4.318897637795275
 20
5.487204724409449
 30
0.0
 11
4.348425196850393
 21
5.487204724409449
 31
0.0
  0
LINE
  5
324D
330
1E
100
AcDbEntity
  8
7
100
AcDbLine
 10
4.348425196850393
 20
5.487204724409449
 30
0.0
 11
4.354330708661416
 21
5.489173228346456
 31
0.0
  0
LINE
  5
324E
330
1E
100
AcDbEntity
  8
7
100
AcDbLine
 10
4.354330708661416
 20
5.489173228346456
 30
0.0
 11
4.356299212598425
 21
5.49507874015748
 31
0.0
  0
LINE
  5
324F
330
1E
100
AcDbEntity
  8
7
100
AcDbLine
 10
4.356299212598425
 20
5.49507874015748
 30
0.0
 11
4.356299212598425
 21
5.626968503937007
 31
0.0
  0
LINE
  5
3250
330
1E
100
AcDbEntity
  8
7
100
AcDbLine
 10
4.356299212598425
 20
5.626968503937007
 30
0.0
 11
4.354330708661416
 21
5.632874015748031
 31
0.0
  0
LINE
  5
3251
330
1E
100
AcDbEntity
  8
7
100
AcDbLine
 10
4.354330708661416
 20
5.632874015748031
 30
0.0
 11
4.348425196850393
 21
5.635826771653543
 31
0.0
  0
LINE
  5
3252
330
1E
100
AcDbEntity
  8
7
100
AcDbLine
 10
4.45275590551181
 20
5.560039370078739
 30
0.0
 11
4.411417322834645
 21
5.560039370078739
 31
0.0
  0
LINE
  5
3253
330
1E
100
AcDbEntity
  8
7
100
AcDbLine
 10
4.411417322834645
 20
5.560039370078739
 30
0.0
 11
4.408464566929133
 21
5.561023622047244
 31
0.0
  0
LINE
  5
3254
330
1E
100
AcDbEntity
  8
7
100
AcDbLine
 10
4.411417322834645
 20
5.61515748031496
 30
0.0
 11
4.408464566929133
 21
5.613188976377952
 31
0.0
  0
LINE
  5
3255
330
1E
100
AcDbEntity
  8
7
100
AcDbLine
 10
4.408464566929133
 20
5.613188976377952
 30
0.0
 11
4.451771653543306
 21
5.613188976377952
 31
0.0
  0
LINE
  5
3256
330
1E
100
AcDbEntity
  8
7
100
AcDbLine
 10
4.486220472440944
 20
5.904527559055117
 30
0.0
 11
4.406496062992125
 21
5.905511811023622
 31
0.0
  0
LINE
  5
3257
330
1E
100
AcDbEntity
  8
7
100
AcDbLine
 10
4.406496062992125
 20
5.905511811023622
 30
0.0
 11
4.417322834645668
 21
5.900590551181101
 31
0.0
  0
LINE
  5
3258
330
1E
100
AcDbEntity
  8
7
100
AcDbLine
 10
4.417322834645668
 20
5.900590551181101
 30
0.0
 11
4.428149606299212
 21
5.900590551181101
 31
0.0
  0
LINE
  5
3259
330
1E
100
AcDbEntity
  8
7
100
AcDbLine
 10
4.406496062992125
 20
6.447834645669291
 30
0.0
 11
4.409448818897637
 21
6.445866141732283
 31
0.0
  0
LINE
  5
325A
330
1E
100
AcDbEntity
  8
7
100
AcDbLine
 10
4.409448818897637
 20
6.445866141732283
 30
0.0
 11
4.487204724409448
 21
6.445866141732283
 31
0.0
  0
LINE
  5
325B
330
1E
100
AcDbEntity
  8
7
100
AcDbLine
 10
4.486220472440944
 20
6.49015748031496
 30
0.0
 11
4.406496062992125
 21
6.489173228346456
 31
0.0
  0
LINE
  5
325C
330
1E
100
AcDbEntity
  8
7
100
AcDbLine
 10
4.406496062992125
 20
6.489173228346456
 30
0.0
 11
4.406496062992125
 21
6.447834645669291
 31
0.0
  0
LINE
  5
325D
330
1E
100
AcDbEntity
  8
7
100
AcDbLine
 10
4.45275590551181
 20
6.779527559055117
 30
0.0
 11
4.411417322834645
 21
6.779527559055117
 31
0.0
  0
LINE
  5
325E
330
1E
100
AcDbEntity
  8
7
100
AcDbLine
 10
4.411417322834645
 20
6.779527559055117
 30
0.0
 11
4.408464566929133
 21
6.781496062992125
 31
0.0
  0
LINE
  5
325F
330
1E
100
AcDbEntity
  8
7
100
AcDbLine
 10
4.411417322834645
 20
6.834645669291338
 30
0.0
 11
4.408464566929133
 21
6.833661417322834
 31
0.0
  0
LINE
  5
3260
330
1E
100
AcDbEntity
  8
7
100
AcDbLine
 10
4.408464566929133
 20
6.833661417322834
 30
0.0
 11
4.451771653543306
 21
6.833661417322834
 31
0.0
  0
LINE
  5
3261
330
1E
100
AcDbEntity
  8
7
100
AcDbLine
 10
4.45275590551181
 20
5.61515748031496
 30
0.0
 11
4.451771653543306
 21
5.613188976377952
 31
0.0
  0
LINE
  5
3262
330
1E
100
AcDbEntity
  8
7
100
AcDbLine
 10
4.451771653543306
 20
5.613188976377952
 30
0.0
 11
4.451771653543306
 21
5.561023622047244
 31
0.0
  0
LINE
  5
3263
330
1E
100
AcDbEntity
  8
7
100
AcDbLine
 10
4.487204724409448
 20
6.445866141732283
 30
0.0
 11
4.487204724409448
 21
6.220472440944881
 31
0.0
  0
LINE
  5
3264
330
1E
100
AcDbEntity
  8
7
100
AcDbLine
 10
4.487204724409448
 20
6.220472440944881
 30
0.0
 11
4.486220472440944
 21
6.220472440944881
 31
0.0
  0
LINE
  5
3265
330
1E
100
AcDbEntity
  8
7
100
AcDbLine
 10
4.486220472440944
 20
6.220472440944881
 30
0.0
 11
4.486220472440944
 21
6.174212598425197
 31
0.0
  0
LINE
  5
3266
330
1E
100
AcDbEntity
  8
7
100
AcDbLine
 10
4.54527559055118
 20
5.89763779527559
 30
0.0
 11
4.547244094488188
 21
5.895669291338582
 31
0.0
  0
LINE
  5
3267
330
1E
100
AcDbEntity
  8
7
100
AcDbLine
 10
4.547244094488188
 20
5.895669291338582
 30
0.0
 11
4.524606299212598
 21
5.895669291338582
 31
0.0
  0
LINE
  5
3268
330
1E
100
AcDbEntity
  8
7
100
AcDbLine
 10
4.524606299212598
 20
5.895669291338582
 30
0.0
 11
4.523622047244093
 21
5.895669291338582
 31
0.0
  0
LINE
  5
3269
330
1E
100
AcDbEntity
  8
7
100
AcDbLine
 10
4.523622047244093
 20
5.895669291338582
 30
0.0
 11
4.523622047244093
 21
5.822834645669291
 31
0.0
  0
LINE
  5
326A
330
1E
100
AcDbEntity
  8
7
100
AcDbLine
 10
4.492125984251967
 20
5.898622047244094
 30
0.0
 11
4.54527559055118
 21
5.89763779527559
 31
0.0
  0
LINE
  5
326B
330
1E
100
AcDbEntity
  8
7
100
AcDbLine
 10
4.54527559055118
 20
5.89763779527559
 30
0.0
 11
4.54527559055118
 21
5.942913385826771
 31
0.0
  0
LINE
  5
326C
330
1E
100
AcDbEntity
  8
7
100
AcDbLine
 10
4.45275590551181
 20
6.834645669291338
 30
0.0
 11
4.451771653543306
 21
6.833661417322834
 31
0.0
  0
LINE
  5
326D
330
1E
100
AcDbEntity
  8
7
100
AcDbLine
 10
4.451771653543306
 20
6.833661417322834
 30
0.0
 11
4.451771653543306
 21
6.781496062992125
 31
0.0
  0
LINE
  5
326E
330
1E
100
AcDbEntity
  8
7
100
AcDbLine
 10
4.495078740157479
 20
6.071850393700787
 30
0.0
 11
4.494094488188975
 21
6.079724409448818
 31
0.0
  0
LINE
  5
326F
330
1E
100
AcDbEntity
  8
7
100
AcDbLine
 10
4.494094488188975
 20
6.079724409448818
 30
0.0
 11
4.494094488188975
 21
6.31496062992126
 31
0.0
  0
LINE
  5
3270
330
1E
100
AcDbEntity
  8
7
100
AcDbLine
 10
4.495078740157479
 20
6.029527559055117
 30
0.0
 11
4.498031496062991
 21
6.036417322834645
 31
0.0
  0
LINE
  5
3271
330
1E
100
AcDbEntity
  8
7
100
AcDbLine
 10
4.498031496062991
 20
6.036417322834645
 30
0.0
 11
4.505905511811023
 21
6.039370078740157
 31
0.0
  0
LINE
  5
3272
330
1E
100
AcDbEntity
  8
7
100
AcDbLine
 10
4.495078740157479
 20
6.450787401574802
 30
0.0
 11
4.495078740157479
 21
6.36515748031496
 31
0.0
  0
LINE
  5
3273
330
1E
100
AcDbEntity
  8
7
100
AcDbLine
 10
4.495078740157479
 20
6.36515748031496
 30
0.0
 11
4.495078740157479
 21
6.321850393700787
 31
0.0
  0
LINE
  5
3274
330
1E
100
AcDbEntity
  8
7
100
AcDbLine
 10
4.495078740157479
 20
6.321850393700787
 30
0.0
 11
4.498031496062991
 21
6.321850393700787
 31
0.0
  0
LINE
  5
3275
330
1E
100
AcDbEntity
  8
7
100
AcDbLine
 10
4.547244094488188
 20
5.943897637795275
 30
0.0
 11
4.495078740157479
 21
5.943897637795275
 31
0.0
  0
LINE
  5
3276
330
1E
100
AcDbEntity
  8
7
100
AcDbLine
 10
4.495078740157479
 20
5.943897637795275
 30
0.0
 11
4.492125984251967
 21
5.940944881889763
 31
0.0
  0
LINE
  5
3277
330
1E
100
AcDbEntity
  8
7
100
AcDbLine
 10
4.492125984251967
 20
5.940944881889763
 30
0.0
 11
4.54527559055118
 21
5.942913385826771
 31
0.0
  0
LINE
  5
3278
330
1E
100
AcDbEntity
  8
7
100
AcDbLine
 10
4.523622047244093
 20
6.571850393700787
 30
0.0
 11
4.524606299212598
 21
6.572834645669291
 31
0.0
  0
LINE
  5
3279
330
1E
100
AcDbEntity
  8
7
100
AcDbLine
 10
4.524606299212598
 20
6.572834645669291
 30
0.0
 11
4.524606299212598
 21
6.499015748031496
 31
0.0
  0
LINE
  5
327A
330
1E
100
AcDbEntity
  8
7
100
AcDbLine
 10
4.524606299212598
 20
6.572834645669291
 30
0.0
 11
4.442913385826771
 21
6.572834645669291
 31
0.0
  0
LINE
  5
327B
330
1E
100
AcDbEntity
  8
7
100
AcDbLine
 10
4.442913385826771
 20
6.572834645669291
 30
0.0
 11
4.440944881889762
 21
6.571850393700787
 31
0.0
  0
LINE
  5
327C
330
1E
100
AcDbEntity
  8
7
100
AcDbLine
 10
4.544291338582676
 20
6.355314960629921
 30
0.0
 11
4.505905511811023
 21
6.355314960629921
 31
0.0
  0
LINE
  5
327D
330
1E
100
AcDbEntity
  8
7
100
AcDbLine
 10
4.505905511811023
 20
6.355314960629921
 30
0.0
 11
4.498031496062991
 21
6.358267716535433
 31
0.0
  0
LINE
  5
327E
330
1E
100
AcDbEntity
  8
7
100
AcDbLine
 10
4.498031496062991
 20
6.358267716535433
 30
0.0
 11
4.495078740157479
 21
6.36515748031496
 31
0.0
  0
LINE
  5
327F
330
1E
100
AcDbEntity
  8
7
100
AcDbLine
 10
4.314960629921259
 20
4.885826771653543
 30
0.0
 11
4.311023622047243
 21
4.888779527559054
 31
0.0
  0
LINE
  5
3280
330
1E
100
AcDbEntity
  8
7
100
AcDbLine
 10
4.311023622047243
 20
4.888779527559054
 30
0.0
 11
4.250984251968503
 21
4.888779527559054
 31
0.0
  0
LINE
  5
3281
330
1E
100
AcDbEntity
  8
7
100
AcDbLine
 10
4.408464566929133
 20
4.867125984251968
 30
0.0
 11
4.397637795275589
 21
4.843503937007874
 31
0.0
  0
LINE
  5
3282
330
1E
100
AcDbEntity
  8
7
100
AcDbLine
 10
4.397637795275589
 20
4.843503937007874
 30
0.0
 11
4.381889763779526
 21
4.822834645669291
 31
0.0
  0
LINE
  5
3283
330
1E
100
AcDbEntity
  8
7
100
AcDbLine
 10
4.381889763779526
 20
4.822834645669291
 30
0.0
 11
4.361220472440944
 21
4.807086614173228
 31
0.0
  0
LINE
  5
3284
330
1E
100
AcDbEntity
  8
7
100
AcDbLine
 10
4.361220472440944
 20
4.807086614173228
 30
0.0
 11
4.33759842519685
 21
4.797244094488188
 31
0.0
  0
LINE
  5
3285
330
1E
100
AcDbEntity
  8
7
100
AcDbLine
 10
4.33759842519685
 20
4.797244094488188
 30
0.0
 11
4.311023622047243
 21
4.793307086614173
 31
0.0
  0
LINE
  5
3286
330
1E
100
AcDbEntity
  8
7
100
AcDbLine
 10
4.311023622047243
 20
4.793307086614173
 30
0.0
 11
4.3001968503937
 21
4.80511811023622
 31
0.0
  0
LINE
  5
3287
330
1E
100
AcDbEntity
  8
7
100
AcDbLine
 10
4.411417322834645
 20
5.560039370078739
 30
0.0
 11
4.411417322834645
 21
4.893700787401574
 31
0.0
  0
LINE
  5
3288
330
1E
100
AcDbEntity
  8
7
100
AcDbLine
 10
4.411417322834645
 20
4.893700787401574
 30
0.0
 11
4.408464566929133
 21
4.867125984251968
 31
0.0
  0
LINE
  5
3289
330
1E
100
AcDbEntity
  8
7
100
AcDbLine
 10
2.8001968503937
 20
4.889763779527559
 30
0.0
 11
4.249999999999999
 21
4.889763779527559
 31
0.0
  0
LINE
  5
328A
330
1E
100
AcDbEntity
  8
7
100
AcDbLine
 10
4.249999999999999
 20
4.889763779527559
 30
0.0
 11
2.8001968503937
 21
4.889763779527559
 31
0.0
  0
LINE
  5
328B
330
1E
100
AcDbEntity
  8
7
100
AcDbLine
 10
4.311023622047243
 20
7.601377952755905
 30
0.0
 11
4.33759842519685
 21
7.597440944881889
 31
0.0
  0
LINE
  5
328C
330
1E
100
AcDbEntity
  8
7
100
AcDbLine
 10
4.33759842519685
 20
7.597440944881889
 30
0.0
 11
4.361220472440944
 21
7.58759842519685
 31
0.0
  0
LINE
  5
328D
330
1E
100
AcDbEntity
  8
7
100
AcDbLine
 10
4.361220472440944
 20
7.58759842519685
 30
0.0
 11
4.381889763779526
 21
7.571850393700787
 31
0.0
  0
LINE
  5
328E
330
1E
100
AcDbEntity
  8
7
100
AcDbLine
 10
4.381889763779526
 20
7.571850393700787
 30
0.0
 11
4.397637795275589
 21
7.551181102362204
 31
0.0
  0
LINE
  5
328F
330
1E
100
AcDbEntity
  8
7
100
AcDbLine
 10
4.397637795275589
 20
7.551181102362204
 30
0.0
 11
4.408464566929133
 21
7.52755905511811
 31
0.0
  0
LINE
  5
3290
330
1E
100
AcDbEntity
  8
7
100
AcDbLine
 10
4.408464566929133
 20
7.52755905511811
 30
0.0
 11
4.411417322834645
 21
7.500984251968503
 31
0.0
  0
LINE
  5
3291
330
1E
100
AcDbEntity
  8
7
100
AcDbLine
 10
4.191929133858267
 20
7.493110236220472
 30
0.0
 11
4.194881889763778
 21
7.493110236220472
 31
0.0
  0
LINE
  5
3292
330
1E
100
AcDbEntity
  8
7
100
AcDbLine
 10
4.194881889763778
 20
7.493110236220472
 30
0.0
 11
4.23523622047244
 21
7.493110236220472
 31
0.0
  0
LINE
  5
3293
330
1E
100
AcDbEntity
  8
7
100
AcDbLine
 10
4.23523622047244
 20
7.493110236220472
 30
0.0
 11
4.236220472440944
 21
7.494094488188975
 31
0.0
  0
LINE
  5
3294
330
1E
100
AcDbEntity
  8
7
100
AcDbLine
 10
4.236220472440944
 20
7.133858267716535
 30
0.0
 11
4.23523622047244
 21
7.134842519685038
 31
0.0
  0
LINE
  5
3295
330
1E
100
AcDbEntity
  8
7
100
AcDbLine
 10
4.23523622047244
 20
7.134842519685038
 30
0.0
 11
4.194881889763778
 21
7.134842519685038
 31
0.0
  0
LINE
  5
3296
330
1E
100
AcDbEntity
  8
7
100
AcDbLine
 10
4.194881889763778
 20
7.134842519685038
 30
0.0
 11
4.191929133858267
 21
7.134842519685038
 31
0.0
  0
LINE
  5
3297
330
1E
100
AcDbEntity
  8
7
100
AcDbLine
 10
4.3001968503937
 20
7.584645669291338
 30
0.0
 11
4.3001968503937
 21
7.58759842519685
 31
0.0
  0
LINE
  5
3298
330
1E
100
AcDbEntity
  8
7
100
AcDbLine
 10
4.3001968503937
 20
7.58759842519685
 30
0.0
 11
4.3001968503937
 21
7.589566929133858
 31
0.0
  0
LINE
  5
3299
330
1E
100
AcDbEntity
  8
7
100
AcDbLine
 10
4.32283464566929
 20
5.480314960629921
 30
0.0
 11
4.316929133858267
 21
5.478346456692912
 31
0.0
  0
LINE
  5
329A
330
1E
100
AcDbEntity
  8
7
100
AcDbLine
 10
4.316929133858267
 20
5.478346456692912
 30
0.0
 11
4.314960629921259
 21
5.472440944881889
 31
0.0
  0
LINE
  5
329B
330
1E
100
AcDbEntity
  8
7
100
AcDbLine
 10
4.314960629921259
 20
5.472440944881889
 30
0.0
 11
4.314960629921259
 21
4.885826771653543
 31
0.0
  0
LINE
  5
329C
330
1E
100
AcDbEntity
  8
7
100
AcDbLine
 10
4.363188976377951
 20
5.488188976377952
 30
0.0
 11
4.36023622047244
 21
5.482283464566928
 31
0.0
  0
LINE
  5
329D
330
1E
100
AcDbEntity
  8
7
100
AcDbLine
 10
4.36023622047244
 20
5.482283464566928
 30
0.0
 11
4.35531496062992
 21
5.480314960629921
 31
0.0
  0
LINE
  5
329E
330
1E
100
AcDbEntity
  8
7
100
AcDbLine
 10
4.35531496062992
 20
5.641732283464566
 30
0.0
 11
4.36023622047244
 21
5.639763779527559
 31
0.0
  0
LINE
  5
329F
330
1E
100
AcDbEntity
  8
7
100
AcDbLine
 10
4.36023622047244
 20
5.639763779527559
 30
0.0
 11
4.363188976377951
 21
5.633858267716535
 31
0.0
  0
LINE
  5
32A0
330
1E
100
AcDbEntity
  8
7
100
AcDbLine
 10
4.314960629921259
 20
6.237204724409449
 30
0.0
 11
4.314960629921259
 21
5.649606299212598
 31
0.0
  0
LINE
  5
32A1
330
1E
100
AcDbEntity
  8
7
100
AcDbLine
 10
4.314960629921259
 20
5.649606299212598
 30
0.0
 11
4.316929133858267
 21
5.644685039370078
 31
0.0
  0
LINE
  5
32A2
330
1E
100
AcDbEntity
  8
7
100
AcDbLine
 10
4.316929133858267
 20
5.644685039370078
 30
0.0
 11
4.32283464566929
 21
5.641732283464566
 31
0.0
  0
LINE
  5
32A3
330
1E
100
AcDbEntity
  8
7
100
AcDbLine
 10
4.3001968503937
 20
4.810039370078739
 30
0.0
 11
4.328740157480314
 21
4.81496062992126
 31
0.0
  0
LINE
  5
32A4
330
1E
100
AcDbEntity
  8
7
100
AcDbLine
 10
4.328740157480314
 20
4.81496062992126
 30
0.0
 11
4.35531496062992
 21
4.828740157480314
 31
0.0
  0
LINE
  5
32A5
330
1E
100
AcDbEntity
  8
7
100
AcDbLine
 10
4.35531496062992
 20
4.828740157480314
 30
0.0
 11
4.376968503937007
 21
4.849409448818897
 31
0.0
  0
LINE
  5
32A6
330
1E
100
AcDbEntity
  8
7
100
AcDbLine
 10
4.376968503937007
 20
4.849409448818897
 30
0.0
 11
4.389763779527558
 21
4.875984251968503
 31
0.0
  0
LINE
  5
32A7
330
1E
100
AcDbEntity
  8
7
100
AcDbLine
 10
4.389763779527558
 20
4.875984251968503
 30
0.0
 11
4.394685039370077
 21
4.905511811023622
 31
0.0
  0
LINE
  5
32A8
330
1E
100
AcDbEntity
  8
7
100
AcDbLine
 10
4.394685039370077
 20
4.905511811023622
 30
0.0
 11
4.394685039370077
 21
7.489173228346456
 31
0.0
  0
LINE
  5
32A9
330
1E
100
AcDbEntity
  8
7
100
AcDbLine
 10
4.394685039370077
 20
7.489173228346456
 30
0.0
 11
4.389763779527558
 21
7.518700787401574
 31
0.0
  0
LINE
  5
32AA
330
1E
100
AcDbEntity
  8
7
100
AcDbLine
 10
4.389763779527558
 20
7.518700787401574
 30
0.0
 11
4.376968503937007
 21
7.54527559055118
 31
0.0
  0
LINE
  5
32AB
330
1E
100
AcDbEntity
  8
7
100
AcDbLine
 10
4.376968503937007
 20
7.54527559055118
 30
0.0
 11
4.35531496062992
 21
7.565944881889763
 31
0.0
  0
LINE
  5
32AC
330
1E
100
AcDbEntity
  8
7
100
AcDbLine
 10
4.35531496062992
 20
7.565944881889763
 30
0.0
 11
4.328740157480314
 21
7.579724409448818
 31
0.0
  0
LINE
  5
32AD
330
1E
100
AcDbEntity
  8
7
100
AcDbLine
 10
4.328740157480314
 20
7.579724409448818
 30
0.0
 11
4.3001968503937
 21
7.584645669291338
 31
0.0
  0
LINE
  5
32AE
330
1E
100
AcDbEntity
  8
7
100
AcDbLine
 10
2.813976377952755
 20
7.494094488188975
 30
0.0
 11
4.236220472440944
 21
7.494094488188975
 31
0.0
  0
LINE
  5
32AF
330
1E
100
AcDbEntity
  8
7
100
AcDbLine
 10
4.236220472440944
 20
7.494094488188975
 30
0.0
 11
4.243110236220472
 21
7.491141732283464
 31
0.0
  0
LINE
  5
32B0
330
1E
100
AcDbEntity
  8
7
100
AcDbLine
 10
4.243110236220472
 20
7.491141732283464
 30
0.0
 11
4.246062992125983
 21
7.484251968503937
 31
0.0
  0
LINE
  5
32B1
330
1E
100
AcDbEntity
  8
7
100
AcDbLine
 10
4.246062992125983
 20
7.484251968503937
 30
0.0
 11
4.246062992125983
 21
7.143700787401574
 31
0.0
  0
LINE
  5
32B2
330
1E
100
AcDbEntity
  8
7
100
AcDbLine
 10
4.246062992125983
 20
7.143700787401574
 30
0.0
 11
4.243110236220472
 21
7.136811023622047
 31
0.0
  0
LINE
  5
32B3
330
1E
100
AcDbEntity
  8
7
100
AcDbLine
 10
4.243110236220472
 20
7.136811023622047
 30
0.0
 11
4.236220472440944
 21
7.133858267716535
 31
0.0
  0
LINE
  5
32B4
330
1E
100
AcDbEntity
  8
7
100
AcDbLine
 10
4.236220472440944
 20
7.133858267716535
 30
0.0
 11
2.813976377952755
 21
7.133858267716535
 31
0.0
  0
LINE
  5
32B5
330
1E
100
AcDbEntity
  8
7
100
AcDbLine
 10
2.75
 20
4.80511811023622
 30
0.0
 11
4.3001968503937
 21
4.80511811023622
 31
0.0
  0
LINE
  5
32B6
330
1E
100
AcDbEntity
  8
7
100
AcDbLine
 10
4.3001968503937
 20
4.80511811023622
 30
0.0
 11
4.3001968503937
 21
4.807086614173228
 31
0.0
  0
LINE
  5
32B7
330
1E
100
AcDbEntity
  8
7
100
AcDbLine
 10
4.3001968503937
 20
4.807086614173228
 30
0.0
 11
4.3001968503937
 21
4.810039370078739
 31
0.0
  0
LINE
  5
32B8
330
1E
100
AcDbEntity
  8
7
100
AcDbLine
 10
4.3001968503937
 20
4.810039370078739
 30
0.0
 11
2.75
 21
4.810039370078739
 31
0.0
  0
LINE
  5
32B9
330
1E
100
AcDbEntity
  8
7
100
AcDbLine
 10
2.855314960629921
 20
7.134842519685038
 30
0.0
 11
2.858267716535432
 21
7.134842519685038
 31
0.0
  0
LINE
  5
32BA
330
1E
100
AcDbEntity
  8
7
100
AcDbLine
 10
2.858267716535432
 20
7.134842519685038
 30
0.0
 11
2.858267716535432
 21
7.493110236220472
 31
0.0
  0
LINE
  5
32BB
330
1E
100
AcDbEntity
  8
7
100
AcDbLine
 10
2.858267716535432
 20
7.493110236220472
 30
0.0
 11
2.855314960629921
 21
7.493110236220472
 31
0.0
  0
LINE
  5
32BC
330
1E
100
AcDbEntity
  8
7
100
AcDbLine
 10
2.738188976377952
 20
6.231299212598425
 30
0.0
 11
2.737204724409448
 21
6.23523622047244
 31
0.0
  0
LINE
  5
32BD
330
1E
100
AcDbEntity
  8
7
100
AcDbLine
 10
2.737204724409448
 20
6.23523622047244
 30
0.0
 11
2.73523622047244
 21
6.237204724409449
 31
0.0
  0
LINE
  5
32BE
330
1E
100
AcDbEntity
  8
7
100
AcDbLine
 10
2.73523622047244
 20
6.237204724409449
 30
0.0
 11
2.73523622047244
 21
5.649606299212598
 31
0.0
  0
LINE
  5
32BF
330
1E
100
AcDbEntity
  8
7
100
AcDbLine
 10
2.673228346456693
 20
4.849409448818897
 30
0.0
 11
2.660433070866141
 21
4.875984251968503
 31
0.0
  0
LINE
  5
32C0
330
1E
100
AcDbEntity
  8
7
100
AcDbLine
 10
2.660433070866141
 20
4.875984251968503
 30
0.0
 11
2.655511811023622
 21
4.905511811023622
 31
0.0
  0
LINE
  5
32C1
330
1E
100
AcDbEntity
  8
7
100
AcDbLine
 10
2.75
 20
4.80511811023622
 30
0.0
 11
2.75
 21
4.807086614173228
 31
0.0
  0
LINE
  5
32C2
330
1E
100
AcDbEntity
  8
7
100
AcDbLine
 10
2.75
 20
4.807086614173228
 30
0.0
 11
2.75
 21
4.810039370078739
 31
0.0
  0
LINE
  5
32C3
330
1E
100
AcDbEntity
  8
7
100
AcDbLine
 10
2.75
 20
4.810039370078739
 30
0.0
 11
2.721456692913385
 21
4.81496062992126
 31
0.0
  0
LINE
  5
32C4
330
1E
100
AcDbEntity
  8
7
100
AcDbLine
 10
2.721456692913385
 20
4.81496062992126
 30
0.0
 11
2.694881889763779
 21
4.828740157480314
 31
0.0
  0
LINE
  5
32C5
330
1E
100
AcDbEntity
  8
7
100
AcDbLine
 10
2.694881889763779
 20
4.828740157480314
 30
0.0
 11
2.673228346456693
 21
4.849409448818897
 31
0.0
  0
LINE
  5
32C6
330
1E
100
AcDbEntity
  8
7
100
AcDbLine
 10
2.655511811023622
 20
4.905511811023622
 30
0.0
 11
2.651574803149606
 21
4.905511811023622
 31
0.0
  0
LINE
  5
32C7
330
1E
100
AcDbEntity
  8
7
100
AcDbLine
 10
2.651574803149606
 20
4.905511811023622
 30
0.0
 11
2.650590551181102
 21
4.905511811023622
 31
0.0
  0
LINE
  5
32C8
330
1E
100
AcDbEntity
  8
7
100
AcDbLine
 10
2.650590551181102
 20
7.489173228346456
 30
0.0
 11
2.651574803149606
 21
7.489173228346456
 31
0.0
  0
LINE
  5
32C9
330
1E
100
AcDbEntity
  8
7
100
AcDbLine
 10
2.651574803149606
 20
7.489173228346456
 30
0.0
 11
2.655511811023622
 21
7.489173228346456
 31
0.0
  0
LINE
  5
32CA
330
1E
100
AcDbEntity
  8
7
100
AcDbLine
 10
2.655511811023622
 20
7.489173228346456
 30
0.0
 11
2.660433070866141
 21
7.518700787401574
 31
0.0
  0
LINE
  5
32CB
330
1E
100
AcDbEntity
  8
7
100
AcDbLine
 10
2.660433070866141
 20
7.518700787401574
 30
0.0
 11
2.673228346456693
 21
7.54527559055118
 31
0.0
  0
LINE
  5
32CC
330
1E
100
AcDbEntity
  8
7
100
AcDbLine
 10
2.673228346456693
 20
7.54527559055118
 30
0.0
 11
2.694881889763779
 21
7.565944881889763
 31
0.0
  0
LINE
  5
32CD
330
1E
100
AcDbEntity
  8
7
100
AcDbLine
 10
2.694881889763779
 20
7.565944881889763
 30
0.0
 11
2.721456692913385
 21
7.579724409448818
 31
0.0
  0
LINE
  5
32CE
330
1E
100
AcDbEntity
  8
7
100
AcDbLine
 10
2.721456692913385
 20
7.579724409448818
 30
0.0
 11
2.75
 21
7.584645669291338
 31
0.0
  0
LINE
  5
32CF
330
1E
100
AcDbEntity
  8
7
100
AcDbLine
 10
2.75
 20
7.584645669291338
 30
0.0
 11
2.75
 21
7.58759842519685
 31
0.0
  0
LINE
  5
32D0
330
1E
100
AcDbEntity
  8
7
100
AcDbLine
 10
2.75
 20
7.58759842519685
 30
0.0
 11
2.75
 21
7.589566929133858
 31
0.0
  0
LINE
  5
32D1
330
1E
100
AcDbEntity
  8
7
100
AcDbLine
 10
2.814960629921259
 20
7.493110236220472
 30
0.0
 11
2.813976377952755
 21
7.494094488188975
 31
0.0
  0
LINE
  5
32D2
330
1E
100
AcDbEntity
  8
7
100
AcDbLine
 10
2.813976377952755
 20
7.494094488188975
 30
0.0
 11
2.807086614173228
 21
7.491141732283464
 31
0.0
  0
LINE
  5
32D3
330
1E
100
AcDbEntity
  8
7
100
AcDbLine
 10
2.807086614173228
 20
7.491141732283464
 30
0.0
 11
2.804133858267716
 21
7.484251968503937
 31
0.0
  0
LINE
  5
32D4
330
1E
100
AcDbEntity
  8
7
100
AcDbLine
 10
2.80511811023622
 20
7.144685039370078
 30
0.0
 11
2.804133858267716
 21
7.143700787401574
 31
0.0
  0
LINE
  5
32D5
330
1E
100
AcDbEntity
  8
7
100
AcDbLine
 10
2.804133858267716
 20
7.143700787401574
 30
0.0
 11
2.807086614173228
 21
7.136811023622047
 31
0.0
  0
LINE
  5
32D6
330
1E
100
AcDbEntity
  8
7
100
AcDbLine
 10
2.807086614173228
 20
7.136811023622047
 30
0.0
 11
2.813976377952755
 21
7.133858267716535
 31
0.0
  0
LINE
  5
32D7
330
1E
100
AcDbEntity
  8
7
100
AcDbLine
 10
2.813976377952755
 20
7.133858267716535
 30
0.0
 11
2.814960629921259
 21
7.134842519685038
 31
0.0
  0
LINE
  5
32D8
330
1E
100
AcDbEntity
  8
7
100
AcDbLine
 10
2.739173228346456
 20
5.643700787401574
 30
0.0
 11
2.73523622047244
 21
5.649606299212598
 31
0.0
  0
LINE
  5
32D9
330
1E
100
AcDbEntity
  8
7
100
AcDbLine
 10
2.73523622047244
 20
5.649606299212598
 30
0.0
 11
2.733267716535432
 21
5.644685039370078
 31
0.0
  0
LINE
  5
32DA
330
1E
100
AcDbEntity
  8
7
100
AcDbLine
 10
2.733267716535432
 20
5.644685039370078
 30
0.0
 11
2.727362204724409
 21
5.641732283464566
 31
0.0
  0
LINE
  5
32DB
330
1E
100
AcDbEntity
  8
7
100
AcDbLine
 10
2.701771653543306
 20
5.635826771653543
 30
0.0
 11
2.694881889763779
 21
5.641732283464566
 31
0.0
  0
LINE
  5
32DC
330
1E
100
AcDbEntity
  8
7
100
AcDbLine
 10
2.694881889763779
 20
5.641732283464566
 30
0.0
 11
2.689960629921259
 21
5.639763779527559
 31
0.0
  0
LINE
  5
32DD
330
1E
100
AcDbEntity
  8
7
100
AcDbLine
 10
2.689960629921259
 20
5.639763779527559
 30
0.0
 11
2.687007874015748
 21
5.633858267716535
 31
0.0
  0
LINE
  5
32DE
330
1E
100
AcDbEntity
  8
7
100
AcDbLine
 10
2.693897637795275
 20
5.49507874015748
 30
0.0
 11
2.687007874015748
 21
5.488188976377952
 31
0.0
  0
LINE
  5
32DF
330
1E
100
AcDbEntity
  8
7
100
AcDbLine
 10
2.687007874015748
 20
5.488188976377952
 30
0.0
 11
2.689960629921259
 21
5.482283464566928
 31
0.0
  0
LINE
  5
32E0
330
1E
100
AcDbEntity
  8
7
100
AcDbLine
 10
2.689960629921259
 20
5.482283464566928
 30
0.0
 11
2.694881889763779
 21
5.480314960629921
 31
0.0
  0
LINE
  5
32E1
330
1E
100
AcDbEntity
  8
7
100
AcDbLine
 10
2.731299212598425
 20
5.487204724409449
 30
0.0
 11
2.727362204724409
 21
5.480314960629921
 31
0.0
  0
LINE
  5
32E2
330
1E
100
AcDbEntity
  8
7
100
AcDbLine
 10
2.727362204724409
 20
5.480314960629921
 30
0.0
 11
2.733267716535432
 21
5.478346456692912
 31
0.0
  0
LINE
  5
32E3
330
1E
100
AcDbEntity
  8
7
100
AcDbLine
 10
2.733267716535432
 20
5.478346456692912
 30
0.0
 11
2.73523622047244
 21
5.472440944881889
 31
0.0
  0
LINE
  5
32E4
330
1E
100
AcDbEntity
  8
7
100
AcDbLine
 10
2.75
 20
7.589566929133858
 30
0.0
 11
2.724409448818897
 21
7.585629921259842
 31
0.0
  0
LINE
  5
32E5
330
1E
100
AcDbEntity
  8
7
100
AcDbLine
 10
2.724409448818897
 20
7.585629921259842
 30
0.0
 11
2.700787401574803
 21
7.575787401574802
 31
0.0
  0
LINE
  5
32E6
330
1E
100
AcDbEntity
  8
7
100
AcDbLine
 10
2.700787401574803
 20
7.575787401574802
 30
0.0
 11
2.68011811023622
 21
7.560039370078739
 31
0.0
  0
LINE
  5
32E7
330
1E
100
AcDbEntity
  8
7
100
AcDbLine
 10
2.68011811023622
 20
7.560039370078739
 30
0.0
 11
2.664370078740157
 21
7.539370078740157
 31
0.0
  0
LINE
  5
32E8
330
1E
100
AcDbEntity
  8
7
100
AcDbLine
 10
2.664370078740157
 20
7.539370078740157
 30
0.0
 11
2.653543307086614
 21
7.515748031496062
 31
0.0
  0
LINE
  5
32E9
330
1E
100
AcDbEntity
  8
7
100
AcDbLine
 10
2.653543307086614
 20
7.515748031496062
 30
0.0
 11
2.650590551181102
 21
7.489173228346456
 31
0.0
  0
LINE
  5
32EA
330
1E
100
AcDbEntity
  8
7
100
AcDbLine
 10
2.739173228346456
 20
7.601377952755905
 30
0.0
 11
2.71259842519685
 21
7.597440944881889
 31
0.0
  0
LINE
  5
32EB
330
1E
100
AcDbEntity
  8
7
100
AcDbLine
 10
2.71259842519685
 20
7.597440944881889
 30
0.0
 11
2.688976377952756
 21
7.58759842519685
 31
0.0
  0
LINE
  5
32EC
330
1E
100
AcDbEntity
  8
7
100
AcDbLine
 10
2.688976377952756
 20
7.58759842519685
 30
0.0
 11
2.668307086614173
 21
7.571850393700787
 31
0.0
  0
LINE
  5
32ED
330
1E
100
AcDbEntity
  8
7
100
AcDbLine
 10
2.668307086614173
 20
7.571850393700787
 30
0.0
 11
2.65255905511811
 21
7.551181102362204
 31
0.0
  0
LINE
  5
32EE
330
1E
100
AcDbEntity
  8
7
100
AcDbLine
 10
2.65255905511811
 20
7.551181102362204
 30
0.0
 11
2.64271653543307
 21
7.52755905511811
 31
0.0
  0
LINE
  5
32EF
330
1E
100
AcDbEntity
  8
7
100
AcDbLine
 10
2.80511811023622
 20
7.483267716535433
 30
0.0
 11
2.808070866141732
 21
7.49015748031496
 31
0.0
  0
LINE
  5
32F0
330
1E
100
AcDbEntity
  8
7
100
AcDbLine
 10
2.808070866141732
 20
7.49015748031496
 30
0.0
 11
2.814960629921259
 21
7.493110236220472
 31
0.0
  0
LINE
  5
32F1
330
1E
100
AcDbEntity
  8
7
100
AcDbLine
 10
2.814960629921259
 20
7.134842519685038
 30
0.0
 11
2.808070866141732
 21
7.136811023622047
 31
0.0
  0
LINE
  5
32F2
330
1E
100
AcDbEntity
  8
7
100
AcDbLine
 10
2.808070866141732
 20
7.136811023622047
 30
0.0
 11
2.80511811023622
 21
7.144685039370078
 31
0.0
  0
LINE
  5
32F3
330
1E
100
AcDbEntity
  8
7
100
AcDbLine
 10
2.664370078740157
 20
4.855314960629921
 30
0.0
 11
2.68011811023622
 21
4.834645669291338
 31
0.0
  0
LINE
  5
32F4
330
1E
100
AcDbEntity
  8
7
100
AcDbLine
 10
2.68011811023622
 20
4.834645669291338
 30
0.0
 11
2.700787401574803
 21
4.818897637795275
 31
0.0
  0
LINE
  5
32F5
330
1E
100
AcDbEntity
  8
7
100
AcDbLine
 10
2.700787401574803
 20
4.818897637795275
 30
0.0
 11
2.724409448818897
 21
4.809055118110236
 31
0.0
  0
LINE
  5
32F6
330
1E
100
AcDbEntity
  8
7
100
AcDbLine
 10
2.724409448818897
 20
4.809055118110236
 30
0.0
 11
2.75
 21
4.80511811023622
 31
0.0
  0
LINE
  5
32F7
330
1E
100
AcDbEntity
  8
7
100
AcDbLine
 10
2.650590551181102
 20
4.905511811023622
 30
0.0
 11
2.653543307086614
 21
4.878937007874015
 31
0.0
  0
LINE
  5
32F8
330
1E
100
AcDbEntity
  8
7
100
AcDbLine
 10
2.653543307086614
 20
4.878937007874015
 30
0.0
 11
2.664370078740157
 21
4.855314960629921
 31
0.0
  0
LINE
  5
32F9
330
1E
100
AcDbEntity
  8
7
100
AcDbLine
 10
2.650590551181102
 20
4.905511811023622
 30
0.0
 11
2.638779527559055
 21
4.893700787401574
 31
0.0
  0
LINE
  5
32FA
330
1E
100
AcDbEntity
  8
7
100
AcDbLine
 10
2.638779527559055
 20
4.893700787401574
 30
0.0
 11
2.64271653543307
 21
4.867125984251968
 31
0.0
  0
LINE
  5
32FB
330
1E
100
AcDbEntity
  8
7
100
AcDbLine
 10
2.64271653543307
 20
4.867125984251968
 30
0.0
 11
2.65255905511811
 21
4.843503937007874
 31
0.0
  0
LINE
  5
32FC
330
1E
100
AcDbEntity
  8
7
100
AcDbLine
 10
2.65255905511811
 20
4.843503937007874
 30
0.0
 11
2.668307086614173
 21
4.822834645669291
 31
0.0
  0
LINE
  5
32FD
330
1E
100
AcDbEntity
  8
7
100
AcDbLine
 10
2.668307086614173
 20
4.822834645669291
 30
0.0
 11
2.688976377952756
 21
4.807086614173228
 31
0.0
  0
LINE
  5
32FE
330
1E
100
AcDbEntity
  8
7
100
AcDbLine
 10
2.688976377952756
 20
4.807086614173228
 30
0.0
 11
2.71259842519685
 21
4.797244094488188
 31
0.0
  0
LINE
  5
32FF
330
1E
100
AcDbEntity
  8
7
100
AcDbLine
 10
2.71259842519685
 20
4.797244094488188
 30
0.0
 11
2.739173228346456
 21
4.793307086614173
 31
0.0
  0
LINE
  5
3300
330
1E
100
AcDbEntity
  8
7
100
AcDbLine
 10
2.739173228346456
 20
4.793307086614173
 30
0.0
 11
2.75
 21
4.80511811023622
 31
0.0
  0
LINE
  5
3301
330
1E
100
AcDbEntity
  8
7
100
AcDbLine
 10
2.739173228346456
 20
5.479330708661417
 30
0.0
 11
2.736220472440944
 21
5.484251968503937
 31
0.0
  0
LINE
  5
3302
330
1E
100
AcDbEntity
  8
7
100
AcDbLine
 10
2.736220472440944
 20
5.484251968503937
 30
0.0
 11
2.731299212598425
 21
5.487204724409449
 31
0.0
  0
LINE
  5
3303
330
1E
100
AcDbEntity
  8
7
100
AcDbLine
 10
2.701771653543306
 20
5.487204724409449
 30
0.0
 11
2.695866141732283
 21
5.489173228346456
 31
0.0
  0
LINE
  5
3304
330
1E
100
AcDbEntity
  8
7
100
AcDbLine
 10
2.695866141732283
 20
5.489173228346456
 30
0.0
 11
2.693897637795275
 21
5.49507874015748
 31
0.0
  0
LINE
  5
3305
330
1E
100
AcDbEntity
  8
7
100
AcDbLine
 10
2.693897637795275
 20
5.626968503937007
 30
0.0
 11
2.695866141732283
 21
5.632874015748031
 31
0.0
  0
LINE
  5
3306
330
1E
100
AcDbEntity
  8
7
100
AcDbLine
 10
2.695866141732283
 20
5.632874015748031
 30
0.0
 11
2.701771653543306
 21
5.635826771653543
 31
0.0
  0
LINE
  5
3307
330
1E
100
AcDbEntity
  8
7
100
AcDbLine
 10
2.731299212598425
 20
5.635826771653543
 30
0.0
 11
2.736220472440944
 21
5.63779527559055
 31
0.0
  0
LINE
  5
3308
330
1E
100
AcDbEntity
  8
7
100
AcDbLine
 10
2.736220472440944
 20
5.63779527559055
 30
0.0
 11
2.739173228346456
 21
5.643700787401574
 31
0.0
  0
LINE
  5
3309
330
1E
100
AcDbEntity
  8
7
100
AcDbLine
 10
2.597440944881889
 20
5.560039370078739
 30
0.0
 11
2.638779527559055
 21
5.560039370078739
 31
0.0
  0
LINE
  5
330A
330
1E
100
AcDbEntity
  8
7
100
AcDbLine
 10
2.638779527559055
 20
5.560039370078739
 30
0.0
 11
2.641732283464567
 21
5.561023622047244
 31
0.0
  0
LINE
  5
330B
330
1E
100
AcDbEntity
  8
7
100
AcDbLine
 10
2.643700787401574
 20
5.905511811023622
 30
0.0
 11
2.632874015748031
 21
5.900590551181101
 31
0.0
  0
LINE
  5
330C
330
1E
100
AcDbEntity
  8
7
100
AcDbLine
 10
2.632874015748031
 20
5.900590551181101
 30
0.0
 11
2.638779527559055
 21
5.89763779527559
 31
0.0
  0
LINE
  5
330D
330
1E
100
AcDbEntity
  8
7
100
AcDbLine
 10
2.597440944881889
 20
6.779527559055117
 30
0.0
 11
2.638779527559055
 21
6.779527559055117
 31
0.0
  0
LINE
  5
330E
330
1E
100
AcDbEntity
  8
7
100
AcDbLine
 10
2.638779527559055
 20
6.779527559055117
 30
0.0
 11
2.641732283464567
 21
6.781496062992125
 31
0.0
  0
LINE
  5
330F
330
1E
100
AcDbEntity
  8
7
100
AcDbLine
 10
2.598425196850393
 20
6.781496062992125
 30
0.0
 11
2.641732283464567
 21
6.781496062992125
 31
0.0
  0
LINE
  5
3310
330
1E
100
AcDbEntity
  8
7
100
AcDbLine
 10
2.641732283464567
 20
6.781496062992125
 30
0.0
 11
2.641732283464567
 21
6.833661417322834
 31
0.0
  0
LINE
  5
3311
330
1E
100
AcDbEntity
  8
7
100
AcDbLine
 10
2.8001968503937
 20
6.227362204724409
 30
0.0
 11
2.799212598425196
 21
6.229330708661417
 31
0.0
  0
LINE
  5
3312
330
1E
100
AcDbEntity
  8
7
100
AcDbLine
 10
2.799212598425196
 20
6.229330708661417
 30
0.0
 11
2.799212598425196
 21
5.754921259842519
 31
0.0
  0
LINE
  5
3313
330
1E
100
AcDbEntity
  8
7
100
AcDbLine
 10
2.597440944881889
 20
5.61515748031496
 30
0.0
 11
2.597440944881889
 21
5.560039370078739
 31
0.0
  0
LINE
  5
3314
330
1E
100
AcDbEntity
  8
7
100
AcDbLine
 10
2.597440944881889
 20
5.560039370078739
 30
0.0
 11
2.598425196850393
 21
5.561023622047244
 31
0.0
  0
LINE
  5
3315
330
1E
100
AcDbEntity
  8
7
100
AcDbLine
 10
2.563976377952756
 20
6.445866141732283
 30
0.0
 11
2.563976377952756
 21
6.446850393700787
 31
0.0
  0
LINE
  5
3316
330
1E
100
AcDbEntity
  8
7
100
AcDbLine
 10
2.563976377952756
 20
6.446850393700787
 30
0.0
 11
2.563976377952756
 21
6.49015748031496
 31
0.0
  0
LINE
  5
3317
330
1E
100
AcDbEntity
  8
7
100
AcDbLine
 10
2.563976377952756
 20
6.49015748031496
 30
0.0
 11
2.558070866141732
 21
6.496062992125984
 31
0.0
  0
LINE
  5
3318
330
1E
100
AcDbEntity
  8
7
100
AcDbLine
 10
2.563976377952756
 20
5.948818897637795
 30
0.0
 11
2.563976377952756
 21
6.173228346456692
 31
0.0
  0
LINE
  5
3319
330
1E
100
AcDbEntity
  8
7
100
AcDbLine
 10
2.563976377952756
 20
6.173228346456692
 30
0.0
 11
2.563976377952756
 21
6.174212598425197
 31
0.0
  0
LINE
  5
331A
330
1E
100
AcDbEntity
  8
7
100
AcDbLine
 10
2.504921259842519
 20
5.89763779527559
 30
0.0
 11
2.502952755905511
 21
5.895669291338582
 31
0.0
  0
LINE
  5
331B
330
1E
100
AcDbEntity
  8
7
100
AcDbLine
 10
2.502952755905511
 20
5.895669291338582
 30
0.0
 11
2.525590551181102
 21
5.895669291338582
 31
0.0
  0
LINE
  5
331C
330
1E
100
AcDbEntity
  8
7
100
AcDbLine
 10
2.525590551181102
 20
5.895669291338582
 30
0.0
 11
2.526574803149606
 21
5.895669291338582
 31
0.0
  0
LINE
  5
331D
330
1E
100
AcDbEntity
  8
7
100
AcDbLine
 10
2.526574803149606
 20
5.895669291338582
 30
0.0
 11
2.526574803149606
 21
5.822834645669291
 31
0.0
  0
LINE
  5
331E
330
1E
100
AcDbEntity
  8
7
100
AcDbLine
 10
2.597440944881889
 20
6.834645669291338
 30
0.0
 11
2.597440944881889
 21
6.779527559055117
 31
0.0
  0
LINE
  5
331F
330
1E
100
AcDbEntity
  8
7
100
AcDbLine
 10
2.597440944881889
 20
6.779527559055117
 30
0.0
 11
2.598425196850393
 21
6.781496062992125
 31
0.0
  0
LINE
  5
3320
330
1E
100
AcDbEntity
  8
7
100
AcDbLine
 10
2.55511811023622
 20
6.071850393700787
 30
0.0
 11
2.556102362204724
 21
6.079724409448818
 31
0.0
  0
LINE
  5
3321
330
1E
100
AcDbEntity
  8
7
100
AcDbLine
 10
2.556102362204724
 20
6.079724409448818
 30
0.0
 11
2.556102362204724
 21
6.31496062992126
 31
0.0
  0
LINE
  5
3322
330
1E
100
AcDbEntity
  8
7
100
AcDbLine
 10
2.525590551181102
 20
5.821850393700787
 30
0.0
 11
2.607283464566929
 21
5.821850393700787
 31
0.0
  0
LINE
  5
3323
330
1E
100
AcDbEntity
  8
7
100
AcDbLine
 10
2.607283464566929
 20
5.821850393700787
 30
0.0
 11
2.609251968503937
 21
5.822834645669291
 31
0.0
  0
LINE
  5
3324
330
1E
100
AcDbEntity
  8
7
100
AcDbLine
 10
2.55511811023622
 20
6.029527559055117
 30
0.0
 11
2.55511811023622
 21
6.071850393700787
 31
0.0
  0
LINE
  5
3325
330
1E
100
AcDbEntity
  8
7
100
AcDbLine
 10
2.55511811023622
 20
6.071850393700787
 30
0.0
 11
2.553149606299212
 21
6.071850393700787
 31
0.0
  0
LINE
  5
3326
330
1E
100
AcDbEntity
  8
7
100
AcDbLine
 10
2.55511811023622
 20
6.450787401574802
 30
0.0
 11
2.558070866141732
 21
6.453740157480314
 31
0.0
  0
LINE
  5
3327
330
1E
100
AcDbEntity
  8
7
100
AcDbLine
 10
2.558070866141732
 20
6.453740157480314
 30
0.0
 11
2.504921259842519
 21
6.451771653543307
 31
0.0
  0
LINE
  5
3328
330
1E
100
AcDbEntity
  8
7
100
AcDbLine
 10
2.505905511811023
 20
6.355314960629921
 30
0.0
 11
2.544291338582677
 21
6.355314960629921
 31
0.0
  0
LINE
  5
3329
330
1E
100
AcDbEntity
  8
7
100
AcDbLine
 10
2.544291338582677
 20
6.355314960629921
 30
0.0
 11
2.552165354330708
 21
6.358267716535433
 31
0.0
  0
LINE
  5
332A
330
1E
100
AcDbEntity
  8
7
100
AcDbLine
 10
2.552165354330708
 20
6.358267716535433
 30
0.0
 11
2.55511811023622
 21
6.36515748031496
 31
0.0
  0
ENDSEC
  0
SECTION
  2
OBJECTS
  0
DICTIONARY
  5
C
330
0
100
AcDbDictionary
  3
ACAD_GROUP
350
D
  3
ACAD_MLINESTYLE
350
16
  3
ACAD_PLOTSETTINGS
350
18
  3
ACAD_LAYOUT
350
19
1001
ACAD
1000
TREAT_AS_HARD
1070
     0
  0
DICTIONARY
  5
46E9
330
1E
100
AcDbDictionary
  3
ACAD_LAYOUTSELFREF
350
46EA
  0
DICTIONARY
  5
46E7
330
1A
100
AcDbDictionary
  3
ACAD_LAYOUTSELFREF
350
46E8
  0
DICTIONARY
  5
D
102
{ACAD_REACTORS
330
C
102
}
330
C
100
AcDbDictionary
1001
ACAD
1000
TREAT_AS_HARD
1070
     0
  0
DICTIONARY
  5
16
102
{ACAD_REACTORS
330
C
102
}
330
C
100
AcDbDictionary
  3
STANDARD
350
17
1001
ACAD
1000
TREAT_AS_HARD
1070
     0
  0
DICTIONARY
  5
18
102
{ACAD_REACTORS
330
C
102
}
330
C
100
AcDbDictionary
1001
ACAD
1000
TREAT_AS_HARD
1070
     0
  0
DICTIONARY
  5
19
102
{ACAD_REACTORS
330
C
102
}
330
C
100
AcDbDictionary
1001
ACAD
1000
TREAT_AS_HARD
1070
     0
  0
XRECORD
  5
46EA
102
{ACAD_REACTORS
330
46E9
102
}
330
46E9
100
AcDbXrecord
340
1E
  0
XRECORD
  5
46E8
102
{ACAD_REACTORS
330
46E7
102
}
330
46E7
100
AcDbXrecord
340
1A
  0
MLINESTYLE
  5
17
102
{ACAD_REACTORS
330
16
102
}
330
16
100
AcDbMlineStyle
  2
STANDARD
 70
     0
  3

 62
   256
 51
90.0
 52
90.0
 71
     2
 49
0.5
 62
   256
  6
BYLAYER
 49
-0.5
 62
   256
  6
BYLAYER
  0
ENDSEC
  0
EOF
