  0
SECTION
  2
HEADER
  9
$ACADVER
  1
AC1012
  9
$DWGCODEPAGE
  3
ANSI_1252
  9
$INSBASE
 10
0.0
 20
0.0
 30
0.0
  9
$EXTMIN
 10
3.770921982767344
 20
4.766419701908606
 30
-0.0000000349181948
  9
$EXTMAX
 10
8.125226691231603
 20
8.619350174055171
 30
0.0000000814935746
  9
$LIMMIN
 10
0.0
 20
0.0
  9
$LIMMAX
 10
12.0
 20
9.0
  9
$ORTHOMODE
 70
     0
  9
$REGENMODE
 70
     1
  9
$FILLMODE
 70
     1
  9
$QTEXTMODE
 70
     0
  9
$MIRRTEXT
 70
     1
  9
$DRAGMODE
 70
     2
  9
$LTSCALE
 40
1.0
  9
$OSMODE
 70
   547
  9
$ATTMODE
 70
     1
  9
$TEXTSIZE
 40
0.2
  9
$TRACEWID
 40
0.05
  9
$TEXTSTYLE
  7
STANDARD
  9
$CLAYER
  8
0
  9
$CELTYPE
  6
BYLAYER
  9
$CECOLOR
 62
   256
  9
$CELTSCALE
 40
1.0
  9
$DELOBJ
 70
     1
  9
$DISPSILH
 70
     0
  9
$DIMSCALE
 40
1.0
  9
$DIMASZ
 40
0.18
  9
$DIMEXO
 40
0.0625
  9
$DIMDLI
 40
0.38
  9
$DIMRND
 40
0.0
  9
$DIMDLE
 40
0.0
  9
$DIMEXE
 40
0.18
  9
$DIMTP
 40
0.0
  9
$DIMTM
 40
0.0
  9
$DIMTXT
 40
0.18
  9
$DIMCEN
 40
0.09
  9
$DIMTSZ
 40
0.0
  9
$DIMTOL
 70
     0
  9
$DIMLIM
 70
     0
  9
$DIMTIH
 70
     1
  9
$DIMTOH
 70
     1
  9
$DIMSE1
 70
     0
  9
$DIMSE2
 70
     0
  9
$DIMTAD
 70
     0
  9
$DIMZIN
 70
     0
  9
$DIMBLK
  1

  9
$DIMASO
 70
     1
  9
$DIMSHO
 70
     1
  9
$DIMPOST
  1

  9
$DIMAPOST
  1

  9
$DIMALT
 70
     0
  9
$DIMALTD
 70
     2
  9
$DIMALTF
 40
25.4
  9
$DIMLFAC
 40
1.0
  9
$DIMTOFL
 70
     0
  9
$DIMTVP
 40
0.0
  9
$DIMTIX
 70
     0
  9
$DIMSOXD
 70
     0
  9
$DIMSAH
 70
     0
  9
$DIMBLK1
  1

  9
$DIMBLK2
  1

  9
$DIMSTYLE
  2
STANDARD
  9
$DIMCLRD
 70
     0
  9
$DIMCLRE
 70
     0
  9
$DIMCLRT
 70
     0
  9
$DIMTFAC
 40
1.0
  9
$DIMGAP
 40
0.09
  9
$DIMJUST
 70
     0
  9
$DIMSD1
 70
     0
  9
$DIMSD2
 70
     0
  9
$DIMTOLJ
 70
     1
  9
$DIMTZIN
 70
     0
  9
$DIMALTZ
 70
     0
  9
$DIMALTTZ
 70
     0
  9
$DIMFIT
 70
     5
  9
$DIMUPT
 70
     0
  9
$DIMUNIT
 70
     2
  9
$DIMDEC
 70
     4
  9
$DIMTDEC
 70
     4
  9
$DIMALTU
 70
     2
  9
$DIMALTTD
 70
     2
  9
$DIMTXSTY
  7
STANDARD
  9
$DIMAUNIT
 70
     0
  9
$LUNITS
 70
     2
  9
$LUPREC
 70
     4
  9
$SKETCHINC
 40
0.1
  9
$FILLETRAD
 40
0.0
  9
$AUNITS
 70
     0
  9
$AUPREC
 70
     0
  9
$MENU
  1
acad
  9
$ELEVATION
 40
0.0
  9
$PELEVATION
 40
0.0
  9
$THICKNESS
 40
0.0
  9
$LIMCHECK
 70
     0
  9
$BLIPMODE
 70
     0
  9
$CHAMFERA
 40
0.0
  9
$CHAMFERB
 40
0.0
  9
$CHAMFERC
 40
0.0
  9
$CHAMFERD
 40
0.0
  9
$SKPOLY
 70
     0
  9
$TDCREATE
 40
2451906.361053241
  9
$TDUPDATE
 40
2453987.408999965
  9
$TDINDWG
 40
0.0012507176
  9
$TDUSRTIMER
 40
0.0012507176
  9
$USRTIMER
 70
     1
  9
$ANGBASE
 50
0.0
  9
$ANGDIR
 70
     0
  9
$PDMODE
 70
     0
  9
$PDSIZE
 40
0.0
  9
$PLINEWID
 40
0.0
  9
$COORDS
 70
     1
  9
$SPLFRAME
 70
     0
  9
$SPLINETYPE
 70
     6
  9
$SPLINESEGS
 70
     8
  9
$ATTDIA
 70
     0
  9
$ATTREQ
 70
     1
  9
$HANDLING
 70
  4097
  9
$HANDSEED
  5
3168
  9
$SURFTAB1
 70
     6
  9
$SURFTAB2
 70
     6
  9
$SURFTYPE
 70
     6
  9
$SURFU
 70
     6
  9
$SURFV
 70
     6
  9
$UCSNAME
  2

  9
$UCSORG
 10
0.0
 20
0.0
 30
0.0
  9
$UCSXDIR
 10
1.0
 20
0.0
 30
0.0
  9
$UCSYDIR
 10
0.0
 20
1.0
 30
0.0
  9
$PUCSNAME
  2

  9
$PUCSORG
 10
0.0
 20
0.0
 30
0.0
  9
$PUCSXDIR
 10
1.0
 20
0.0
 30
0.0
  9
$PUCSYDIR
 10
0.0
 20
1.0
 30
0.0
  9
$USERI1
 70
     0
  9
$USERI2
 70
     0
  9
$USERI3
 70
     0
  9
$USERI4
 70
     0
  9
$USERI5
 70
     0
  9
$USERR1
 40
0.0
  9
$USERR2
 40
0.0
  9
$USERR3
 40
0.0
  9
$USERR4
 40
0.0
  9
$USERR5
 40
0.0
  9
$WORLDVIEW
 70
     1
  9
$SHADEDGE
 70
     3
  9
$SHADEDIF
 70
    70
  9
$TILEMODE
 70
     1
  9
$MAXACTVP
 70
    16
  9
$PINSBASE
 10
0.0
 20
0.0
 30
0.0
  9
$PLIMCHECK
 70
     0
  9
$PEXTMIN
 10
1.000000000000000E+20
 20
1.000000000000000E+20
 30
1.000000000000000E+20
  9
$PEXTMAX
 10
-1.000000000000000E+20
 20
-1.000000000000000E+20
 30
-1.000000000000000E+20
  9
$PLIMMIN
 10
0.0
 20
0.0
  9
$PLIMMAX
 10
12.0
 20
9.0
  9
$UNITMODE
 70
     0
  9
$VISRETAIN
 70
     0
  9
$PLINEGEN
 70
     0
  9
$PSLTSCALE
 70
     1
  9
$TREEDEPTH
 70
  3020
  9
$PICKSTYLE
 70
     1
  9
$CMLSTYLE
  2
STANDARD
  9
$CMLJUST
 70
     0
  9
$CMLSCALE
 40
1.0
  9
$SAVEIMAGES
 70
     1
  0
ENDSEC
  0
SECTION
  2
CLASSES
  0
CLASS
  1
ACDBDICTIONARYWDFLT
  2
AcDbDictionaryWithDefault
  3
AutoCAD 2000
 90
    32768
280
     0
281
     0
  0
CLASS
  1
ACDBPLACEHOLDER
  2
AcDbPlaceHolder
  3
AutoCAD 2000
 90
    32768
280
     0
281
     0
  0
CLASS
  1
LAYOUT
  2
AcDbLayout
  3
AutoCAD 2000
 90
    32768
280
     0
281
     0
  0
CLASS
  1
LONG_TRANSACTION
  2
AcDbLongTransaction
  3
AutoCAD 2000
 90
    32768
280
     0
281
     0
  0
CLASS
  1
LWPOLYLINE
  2
AcDbPolyline
  3
AutoCAD 2000
 90
    32768
280
     0
281
     1
  0
CLASS
  1
HATCH
  2
AcDbHatch
  3
AutoCAD 2000
 90
    32768
280
     0
281
     1
  0
CLASS
  1
XRECORD
  2
AcDbXrecord
  3
AutoCAD 2000
 90
    32768
280
     0
281
     0
  0
ENDSEC
  0
SECTION
  2
TABLES
  0
TABLE
  2
VPORT
  5
8
330
0
100
AcDbSymbolTable
 70
     3
  0
VPORT
  5
3163
330
8
100
AcDbSymbolTableRecord
100
AcDbViewportTableRecord
  2
*ACTIVE
 70
     0
 10
0.0
 20
0.0
 11
1.0
 21
1.0
 12
5.948074336999473
 22
6.692884937981888
 13
0.0
 23
0.0
 14
1.0
 24
1.0
 15
0.0
 25
0.0
 16
0.0
 26
0.0
 36
1.0
 17
0.0
 27
0.0
 37
0.0
 40
3.892995607038902
 41
1.647569444444444
 42
50.0
 43
0.0
 44
0.0
 50
0.0
 51
0.0
 71
     0
 72
   100
 73
     1
 74
     1
 75
     0
 76
     0
 77
     0
 78
     0
  0
ENDTAB
  0
TABLE
  2
LTYPE
  5
5
330
0
100
AcDbSymbolTable
 70
    25
  0
LTYPE
  5
13
330
5
100
AcDbSymbolTableRecord
100
AcDbLinetypeTableRecord
  2
BYBLOCK
 70
     0
  3

 72
    65
 73
     0
 40
0.0
  0
LTYPE
  5
14
330
5
100
AcDbSymbolTableRecord
100
AcDbLinetypeTableRecord
  2
BYLAYER
 70
     0
  3

 72
    65
 73
     0
 40
0.0
  0
LTYPE
  5
15
330
5
100
AcDbSymbolTableRecord
100
AcDbLinetypeTableRecord
  2
CONTINUOUS
 70
     0
  3
Solid line
 72
    65
 73
     0
 40
0.0
  0
LTYPE
  5
22
330
5
100
AcDbSymbolTableRecord
100
AcDbLinetypeTableRecord
  2
BORDER
 70
     0
  3
__ __ . __ __ . __ __ . __ __ . __ __ . __ __ .
 72
    65
 73
     6
 40
1.75
 49
0.5
 74
     0
 49
-0.25
 74
     0
 49
0.5
 74
     0
 49
-0.25
 74
     0
 49
0.5
 74
     0
 49
-0.25
 74
     0
  0
LTYPE
  5
23
330
5
100
AcDbSymbolTableRecord
100
AcDbLinetypeTableRecord
  2
BORDER2
 70
     0
  3
__.__.__.__.__.__.__.__.__.__.__.__.__.__.__.__
 72
    65
 73
     6
 40
0.875
 49
0.25
 74
     0
 49
-0.125
 74
     0
 49
0.25
 74
     0
 49
-0.125
 74
     0
 49
0.25
 74
     0
 49
-0.125
 74
     0
  0
LTYPE
  5
24
330
5
100
AcDbSymbolTableRecord
100
AcDbLinetypeTableRecord
  2
BORDERX2
 70
     0
  3
____  ____  .  ____  ____  .  
 72
    65
 73
     6
 40
3.5
 49
1.0
 74
     0
 49
-0.5
 74
     0
 49
1.0
 74
     0
 49
-0.5
 74
     0
 49
1.0
 74
     0
 49
-0.5
 74
     0
  0
LTYPE
  5
25
330
5
100
AcDbSymbolTableRecord
100
AcDbLinetypeTableRecord
  2
CENTER
 70
     0
  3
____ _ ____ _ ____ _ ____ _ ____ _ ____ _ ____
 72
    65
 73
     4
 40
2.0
 49
1.25
 74
     0
 49
-0.25
 74
     0
 49
0.25
 74
     0
 49
-0.25
 74
     0
  0
LTYPE
  5
26
330
5
100
AcDbSymbolTableRecord
100
AcDbLinetypeTableRecord
  2
CENTER2
 70
     0
  3
____ _ ____ _ ____ _ ____ _ ____ _ ____ _ ____
 72
    65
 73
     4
 40
1.125
 49
0.75
 74
     0
 49
-0.125
 74
     0
 49
0.125
 74
     0
 49
-0.125
 74
     0
  0
LTYPE
  5
27
330
5
100
AcDbSymbolTableRecord
100
AcDbLinetypeTableRecord
  2
CENTERX2
 70
     0
  3
________  __  ________  __  ________  __  
 72
    65
 73
     4
 40
4.0
 49
2.5
 74
     0
 49
-0.5
 74
     0
 49
0.5
 74
     0
 49
-0.5
 74
     0
  0
LTYPE
  5
28
330
5
100
AcDbSymbolTableRecord
100
AcDbLinetypeTableRecord
  2
DASHDOT
 70
     0
  3
__ . __ . __ . __ . __ . __ . __ . 
 72
    65
 73
     4
 40
1.0
 49
0.5
 74
     0
 49
-0.25
 74
     0
 49
0.0
 74
     0
 49
-0.25
 74
     0
  0
LTYPE
  5
29
330
5
100
AcDbSymbolTableRecord
100
AcDbLinetypeTableRecord
  2
DASHDOT2
 70
     0
  3
_._._._._._._._._._._._._._._._.
 72
    65
 73
     4
 40
0.5
 49
0.25
 74
     0
 49
-0.125
 74
     0
 49
0.0
 74
     0
 49
-0.125
 74
     0
  0
LTYPE
  5
2A
330
5
100
AcDbSymbolTableRecord
100
AcDbLinetypeTableRecord
  2
DASHDOTX2
 70
     0
  3
____  .  ____  .  ____  .  ____  .  
 72
    65
 73
     4
 40
2.0
 49
1.0
 74
     0
 49
-0.5
 74
     0
 49
0.0
 74
     0
 49
-0.5
 74
     0
  0
LTYPE
  5
2B
330
5
100
AcDbSymbolTableRecord
100
AcDbLinetypeTableRecord
  2
DASHED
 70
     0
  3
__ __ __ __ __ __ __ __ __ __ __ __ 
 72
    65
 73
     2
 40
0.75
 49
0.5
 74
     0
 49
-0.25
 74
     0
  0
LTYPE
  5
2C
330
5
100
AcDbSymbolTableRecord
100
AcDbLinetypeTableRecord
  2
DASHED2
 70
     0
  3
_ _ _ _ _ _ _ _ _ _ _ _ _ _ _ _ _ _ 
 72
    65
 73
     2
 40
0.375
 49
0.25
 74
     0
 49
-0.125
 74
     0
  0
LTYPE
  5
2D
330
5
100
AcDbSymbolTableRecord
100
AcDbLinetypeTableRecord
  2
DASHEDX2
 70
     0
  3
____  ____  ____  ____  ____  ____  
 72
    65
 73
     2
 40
1.5
 49
1.0
 74
     0
 49
-0.5
 74
     0
  0
LTYPE
  5
2E
330
5
100
AcDbSymbolTableRecord
100
AcDbLinetypeTableRecord
  2
DIVIDE
 70
     0
  3
____ . . ____ . . ____ . . ____ . . 
 72
    65
 73
     6
 40
1.25
 49
0.5
 74
     0
 49
-0.25
 74
     0
 49
0.0
 74
     0
 49
-0.25
 74
     0
 49
0.0
 74
     0
 49
-0.25
 74
     0
  0
LTYPE
  5
2F
330
5
100
AcDbSymbolTableRecord
100
AcDbLinetypeTableRecord
  2
DIVIDE2
 70
     0
  3
__..__..__..__..__..__..__..__..__..
 72
    65
 73
     6
 40
0.625
 49
0.25
 74
     0
 49
-0.125
 74
     0
 49
0.0
 74
     0
 49
-0.125
 74
     0
 49
0.0
 74
     0
 49
-0.125
 74
     0
  0
LTYPE
  5
30
330
5
100
AcDbSymbolTableRecord
100
AcDbLinetypeTableRecord
  2
DIVIDEX2
 70
     0
  3
________  .  .  ________  .  .  ________  .  . 
 72
    65
 73
     6
 40
2.5
 49
1.0
 74
     0
 49
-0.5
 74
     0
 49
0.0
 74
     0
 49
-0.5
 74
     0
 49
0.0
 74
     0
 49
-0.5
 74
     0
  0
LTYPE
  5
31
330
5
100
AcDbSymbolTableRecord
100
AcDbLinetypeTableRecord
  2
DOT
 70
     0
  3
. . . . . . . . . . . . . . . . . . 
 72
    65
 73
     2
 40
0.25
 49
0.0
 74
     0
 49
-0.25
 74
     0
  0
LTYPE
  5
32
330
5
100
AcDbSymbolTableRecord
100
AcDbLinetypeTableRecord
  2
DOT2
 70
     0
  3
....................................
 72
    65
 73
     2
 40
0.125
 49
0.0
 74
     0
 49
-0.125
 74
     0
  0
LTYPE
  5
33
330
5
100
AcDbSymbolTableRecord
100
AcDbLinetypeTableRecord
  2
DOTX2
 70
     0
  3
.  .  .  .  .  .  .  .  .  .  .  .  .  
 72
    65
 73
     2
 40
0.5
 49
0.0
 74
     0
 49
-0.5
 74
     0
  0
LTYPE
  5
34
330
5
100
AcDbSymbolTableRecord
100
AcDbLinetypeTableRecord
  2
HIDDEN
 70
     0
  3
__ __ __ __ __ __ __ __ __ __ __ __ 
 72
    65
 73
     2
 40
0.375
 49
0.25
 74
     0
 49
-0.125
 74
     0
  0
LTYPE
  5
35
330
5
100
AcDbSymbolTableRecord
100
AcDbLinetypeTableRecord
  2
HIDDEN2
 70
     0
  3
_ _ _ _ _ _ _ _ _ _ _ _ _ _ _ _ _ _ 
 72
    65
 73
     2
 40
0.1875
 49
0.125
 74
     0
 49
-0.0625
 74
     0
  0
LTYPE
  5
36
330
5
100
AcDbSymbolTableRecord
100
AcDbLinetypeTableRecord
  2
HIDDENX2
 70
     0
  3
____ ____ ____ ____ ____ ____ ____ 
 72
    65
 73
     2
 40
0.75
 49
0.5
 74
     0
 49
-0.25
 74
     0
  0
LTYPE
  5
37
330
5
100
AcDbSymbolTableRecord
100
AcDbLinetypeTableRecord
  2
PHANTOM
 70
     0
  3
______  __  __  ______  __  __  
 72
    65
 73
     6
 40
2.5
 49
1.25
 74
     0
 49
-0.25
 74
     0
 49
0.25
 74
     0
 49
-0.25
 74
     0
 49
0.25
 74
     0
 49
-0.25
 74
     0
  0
LTYPE
  5
38
330
5
100
AcDbSymbolTableRecord
100
AcDbLinetypeTableRecord
  2
PHANTOM2
 70
     0
  3
___ _ _ ___ _ _ ___ _ _ ___ _ _ 
 72
    65
 73
     6
 40
1.25
 49
0.625
 74
     0
 49
-0.125
 74
     0
 49
0.125
 74
     0
 49
-0.125
 74
     0
 49
0.125
 74
     0
 49
-0.125
 74
     0
  0
LTYPE
  5
39
330
5
100
AcDbSymbolTableRecord
100
AcDbLinetypeTableRecord
  2
PHANTOMX2
 70
     0
  3
___ _ _ ___ _ _ ___ _ _ ___ _ _ 
 72
    65
 73
     6
 40
5.0
 49
2.5
 74
     0
 49
-0.5
 74
     0
 49
0.5
 74
     0
 49
-0.5
 74
     0
 49
0.5
 74
     0
 49
-0.5
 74
     0
  0
ENDTAB
  0
TABLE
  2
LAYER
  5
2
330
0
100
AcDbSymbolTable
 70
   256
  0
LAYER
  5
10
330
2
100
AcDbSymbolTableRecord
100
AcDbLayerTableRecord
  2
0
 70
     0
 62
     7
  6
CONTINUOUS
  0
LAYER
  5
3A
330
2
100
AcDbSymbolTableRecord
100
AcDbLayerTableRecord
  2
1
 70
     0
 62
     1
  6
CONTINUOUS
  0
LAYER
  5
3B
330
2
100
AcDbSymbolTableRecord
100
AcDbLayerTableRecord
  2
2
 70
     0
 62
     2
  6
CONTINUOUS
  0
LAYER
  5
3C
330
2
100
AcDbSymbolTableRecord
100
AcDbLayerTableRecord
  2
3
 70
     0
 62
     3
  6
CONTINUOUS
  0
LAYER
  5
3D
330
2
100
AcDbSymbolTableRecord
100
AcDbLayerTableRecord
  2
4
 70
     0
 62
     4
  6
CONTINUOUS
  0
LAYER
  5
3E
330
2
100
AcDbSymbolTableRecord
100
AcDbLayerTableRecord
  2
5
 70
     0
 62
     5
  6
CONTINUOUS
  0
LAYER
  5
3F
330
2
100
AcDbSymbolTableRecord
100
AcDbLayerTableRecord
  2
6
 70
     0
 62
     6
  6
CONTINUOUS
  0
LAYER
  5
40
330
2
100
AcDbSymbolTableRecord
100
AcDbLayerTableRecord
  2
7
 70
     0
 62
     7
  6
CONTINUOUS
  0
LAYER
  5
41
330
2
100
AcDbSymbolTableRecord
100
AcDbLayerTableRecord
  2
8
 70
     0
 62
     8
  6
CONTINUOUS
  0
LAYER
  5
42
330
2
100
AcDbSymbolTableRecord
100
AcDbLayerTableRecord
  2
9
 70
     0
 62
     9
  6
CONTINUOUS
  0
LAYER
  5
43
330
2
100
AcDbSymbolTableRecord
100
AcDbLayerTableRecord
  2
10
 70
     0
 62
    10
  6
CONTINUOUS
  0
LAYER
  5
44
330
2
100
AcDbSymbolTableRecord
100
AcDbLayerTableRecord
  2
11
 70
     0
 62
    11
  6
CONTINUOUS
  0
LAYER
  5
45
330
2
100
AcDbSymbolTableRecord
100
AcDbLayerTableRecord
  2
12
 70
     0
 62
    12
  6
CONTINUOUS
  0
LAYER
  5
46
330
2
100
AcDbSymbolTableRecord
100
AcDbLayerTableRecord
  2
13
 70
     0
 62
    13
  6
CONTINUOUS
  0
LAYER
  5
47
330
2
100
AcDbSymbolTableRecord
100
AcDbLayerTableRecord
  2
14
 70
     0
 62
    14
  6
CONTINUOUS
  0
LAYER
  5
48
330
2
100
AcDbSymbolTableRecord
100
AcDbLayerTableRecord
  2
15
 70
     0
 62
    15
  6
CONTINUOUS
  0
LAYER
  5
49
330
2
100
AcDbSymbolTableRecord
100
AcDbLayerTableRecord
  2
16
 70
     0
 62
    16
  6
CONTINUOUS
  0
LAYER
  5
4A
330
2
100
AcDbSymbolTableRecord
100
AcDbLayerTableRecord
  2
17
 70
     0
 62
    17
  6
CONTINUOUS
  0
LAYER
  5
4B
330
2
100
AcDbSymbolTableRecord
100
AcDbLayerTableRecord
  2
18
 70
     0
 62
    18
  6
CONTINUOUS
  0
LAYER
  5
4C
330
2
100
AcDbSymbolTableRecord
100
AcDbLayerTableRecord
  2
19
 70
     0
 62
    19
  6
CONTINUOUS
  0
LAYER
  5
4D
330
2
100
AcDbSymbolTableRecord
100
AcDbLayerTableRecord
  2
20
 70
     0
 62
    20
  6
CONTINUOUS
  0
LAYER
  5
4E
330
2
100
AcDbSymbolTableRecord
100
AcDbLayerTableRecord
  2
21
 70
     0
 62
    21
  6
CONTINUOUS
  0
LAYER
  5
4F
330
2
100
AcDbSymbolTableRecord
100
AcDbLayerTableRecord
  2
22
 70
     0
 62
    22
  6
CONTINUOUS
  0
LAYER
  5
50
330
2
100
AcDbSymbolTableRecord
100
AcDbLayerTableRecord
  2
23
 70
     0
 62
    23
  6
CONTINUOUS
  0
LAYER
  5
51
330
2
100
AcDbSymbolTableRecord
100
AcDbLayerTableRecord
  2
24
 70
     0
 62
    24
  6
CONTINUOUS
  0
LAYER
  5
52
330
2
100
AcDbSymbolTableRecord
100
AcDbLayerTableRecord
  2
25
 70
     0
 62
    25
  6
CONTINUOUS
  0
LAYER
  5
53
330
2
100
AcDbSymbolTableRecord
100
AcDbLayerTableRecord
  2
26
 70
     0
 62
    26
  6
CONTINUOUS
  0
LAYER
  5
54
330
2
100
AcDbSymbolTableRecord
100
AcDbLayerTableRecord
  2
27
 70
     0
 62
    27
  6
CONTINUOUS
  0
LAYER
  5
55
330
2
100
AcDbSymbolTableRecord
100
AcDbLayerTableRecord
  2
28
 70
     0
 62
    28
  6
CONTINUOUS
  0
LAYER
  5
56
330
2
100
AcDbSymbolTableRecord
100
AcDbLayerTableRecord
  2
29
 70
     0
 62
    29
  6
CONTINUOUS
  0
LAYER
  5
57
330
2
100
AcDbSymbolTableRecord
100
AcDbLayerTableRecord
  2
30
 70
     0
 62
    30
  6
CONTINUOUS
  0
LAYER
  5
58
330
2
100
AcDbSymbolTableRecord
100
AcDbLayerTableRecord
  2
31
 70
     0
 62
    31
  6
CONTINUOUS
  0
LAYER
  5
59
330
2
100
AcDbSymbolTableRecord
100
AcDbLayerTableRecord
  2
32
 70
     0
 62
    32
  6
CONTINUOUS
  0
LAYER
  5
5A
330
2
100
AcDbSymbolTableRecord
100
AcDbLayerTableRecord
  2
33
 70
     0
 62
    33
  6
CONTINUOUS
  0
LAYER
  5
5B
330
2
100
AcDbSymbolTableRecord
100
AcDbLayerTableRecord
  2
34
 70
     0
 62
    34
  6
CONTINUOUS
  0
LAYER
  5
5C
330
2
100
AcDbSymbolTableRecord
100
AcDbLayerTableRecord
  2
35
 70
     0
 62
    35
  6
CONTINUOUS
  0
LAYER
  5
5D
330
2
100
AcDbSymbolTableRecord
100
AcDbLayerTableRecord
  2
36
 70
     0
 62
    36
  6
CONTINUOUS
  0
LAYER
  5
5E
330
2
100
AcDbSymbolTableRecord
100
AcDbLayerTableRecord
  2
37
 70
     0
 62
    37
  6
CONTINUOUS
  0
LAYER
  5
5F
330
2
100
AcDbSymbolTableRecord
100
AcDbLayerTableRecord
  2
38
 70
     0
 62
    38
  6
CONTINUOUS
  0
LAYER
  5
60
330
2
100
AcDbSymbolTableRecord
100
AcDbLayerTableRecord
  2
39
 70
     0
 62
    39
  6
CONTINUOUS
  0
LAYER
  5
61
330
2
100
AcDbSymbolTableRecord
100
AcDbLayerTableRecord
  2
40
 70
     0
 62
    40
  6
CONTINUOUS
  0
LAYER
  5
62
330
2
100
AcDbSymbolTableRecord
100
AcDbLayerTableRecord
  2
41
 70
     0
 62
    41
  6
CONTINUOUS
  0
LAYER
  5
63
330
2
100
AcDbSymbolTableRecord
100
AcDbLayerTableRecord
  2
42
 70
     0
 62
    42
  6
CONTINUOUS
  0
LAYER
  5
64
330
2
100
AcDbSymbolTableRecord
100
AcDbLayerTableRecord
  2
43
 70
     0
 62
    43
  6
CONTINUOUS
  0
LAYER
  5
65
330
2
100
AcDbSymbolTableRecord
100
AcDbLayerTableRecord
  2
44
 70
     0
 62
    44
  6
CONTINUOUS
  0
LAYER
  5
66
330
2
100
AcDbSymbolTableRecord
100
AcDbLayerTableRecord
  2
45
 70
     0
 62
    45
  6
CONTINUOUS
  0
LAYER
  5
67
330
2
100
AcDbSymbolTableRecord
100
AcDbLayerTableRecord
  2
46
 70
     0
 62
    46
  6
CONTINUOUS
  0
LAYER
  5
68
330
2
100
AcDbSymbolTableRecord
100
AcDbLayerTableRecord
  2
47
 70
     0
 62
    47
  6
CONTINUOUS
  0
LAYER
  5
69
330
2
100
AcDbSymbolTableRecord
100
AcDbLayerTableRecord
  2
48
 70
     0
 62
    48
  6
CONTINUOUS
  0
LAYER
  5
6A
330
2
100
AcDbSymbolTableRecord
100
AcDbLayerTableRecord
  2
49
 70
     0
 62
    49
  6
CONTINUOUS
  0
LAYER
  5
6B
330
2
100
AcDbSymbolTableRecord
100
AcDbLayerTableRecord
  2
50
 70
     0
 62
    50
  6
CONTINUOUS
  0
LAYER
  5
6C
330
2
100
AcDbSymbolTableRecord
100
AcDbLayerTableRecord
  2
51
 70
     0
 62
    51
  6
CONTINUOUS
  0
LAYER
  5
6D
330
2
100
AcDbSymbolTableRecord
100
AcDbLayerTableRecord
  2
52
 70
     0
 62
    52
  6
CONTINUOUS
  0
LAYER
  5
6E
330
2
100
AcDbSymbolTableRecord
100
AcDbLayerTableRecord
  2
53
 70
     0
 62
    53
  6
CONTINUOUS
  0
LAYER
  5
6F
330
2
100
AcDbSymbolTableRecord
100
AcDbLayerTableRecord
  2
54
 70
     0
 62
    54
  6
CONTINUOUS
  0
LAYER
  5
70
330
2
100
AcDbSymbolTableRecord
100
AcDbLayerTableRecord
  2
55
 70
     0
 62
    55
  6
CONTINUOUS
  0
LAYER
  5
71
330
2
100
AcDbSymbolTableRecord
100
AcDbLayerTableRecord
  2
56
 70
     0
 62
    56
  6
CONTINUOUS
  0
LAYER
  5
72
330
2
100
AcDbSymbolTableRecord
100
AcDbLayerTableRecord
  2
57
 70
     0
 62
    57
  6
CONTINUOUS
  0
LAYER
  5
73
330
2
100
AcDbSymbolTableRecord
100
AcDbLayerTableRecord
  2
58
 70
     0
 62
    58
  6
CONTINUOUS
  0
LAYER
  5
74
330
2
100
AcDbSymbolTableRecord
100
AcDbLayerTableRecord
  2
59
 70
     0
 62
    59
  6
CONTINUOUS
  0
LAYER
  5
75
330
2
100
AcDbSymbolTableRecord
100
AcDbLayerTableRecord
  2
60
 70
     0
 62
    60
  6
CONTINUOUS
  0
LAYER
  5
76
330
2
100
AcDbSymbolTableRecord
100
AcDbLayerTableRecord
  2
61
 70
     0
 62
    61
  6
CONTINUOUS
  0
LAYER
  5
77
330
2
100
AcDbSymbolTableRecord
100
AcDbLayerTableRecord
  2
62
 70
     0
 62
    62
  6
CONTINUOUS
  0
LAYER
  5
78
330
2
100
AcDbSymbolTableRecord
100
AcDbLayerTableRecord
  2
63
 70
     0
 62
    63
  6
CONTINUOUS
  0
LAYER
  5
79
330
2
100
AcDbSymbolTableRecord
100
AcDbLayerTableRecord
  2
64
 70
     0
 62
    64
  6
CONTINUOUS
  0
LAYER
  5
7A
330
2
100
AcDbSymbolTableRecord
100
AcDbLayerTableRecord
  2
65
 70
     0
 62
    65
  6
CONTINUOUS
  0
LAYER
  5
7B
330
2
100
AcDbSymbolTableRecord
100
AcDbLayerTableRecord
  2
66
 70
     0
 62
    66
  6
CONTINUOUS
  0
LAYER
  5
7C
330
2
100
AcDbSymbolTableRecord
100
AcDbLayerTableRecord
  2
67
 70
     0
 62
    67
  6
CONTINUOUS
  0
LAYER
  5
7D
330
2
100
AcDbSymbolTableRecord
100
AcDbLayerTableRecord
  2
68
 70
     0
 62
    68
  6
CONTINUOUS
  0
LAYER
  5
7E
330
2
100
AcDbSymbolTableRecord
100
AcDbLayerTableRecord
  2
69
 70
     0
 62
    69
  6
CONTINUOUS
  0
LAYER
  5
7F
330
2
100
AcDbSymbolTableRecord
100
AcDbLayerTableRecord
  2
70
 70
     0
 62
    70
  6
CONTINUOUS
  0
LAYER
  5
80
330
2
100
AcDbSymbolTableRecord
100
AcDbLayerTableRecord
  2
71
 70
     0
 62
    71
  6
CONTINUOUS
  0
LAYER
  5
81
330
2
100
AcDbSymbolTableRecord
100
AcDbLayerTableRecord
  2
72
 70
     0
 62
    72
  6
CONTINUOUS
  0
LAYER
  5
82
330
2
100
AcDbSymbolTableRecord
100
AcDbLayerTableRecord
  2
73
 70
     0
 62
    73
  6
CONTINUOUS
  0
LAYER
  5
83
330
2
100
AcDbSymbolTableRecord
100
AcDbLayerTableRecord
  2
74
 70
     0
 62
    74
  6
CONTINUOUS
  0
LAYER
  5
84
330
2
100
AcDbSymbolTableRecord
100
AcDbLayerTableRecord
  2
75
 70
     0
 62
    75
  6
CONTINUOUS
  0
LAYER
  5
85
330
2
100
AcDbSymbolTableRecord
100
AcDbLayerTableRecord
  2
76
 70
     0
 62
    76
  6
CONTINUOUS
  0
LAYER
  5
86
330
2
100
AcDbSymbolTableRecord
100
AcDbLayerTableRecord
  2
77
 70
     0
 62
    77
  6
CONTINUOUS
  0
LAYER
  5
87
330
2
100
AcDbSymbolTableRecord
100
AcDbLayerTableRecord
  2
78
 70
     0
 62
    78
  6
CONTINUOUS
  0
LAYER
  5
88
330
2
100
AcDbSymbolTableRecord
100
AcDbLayerTableRecord
  2
79
 70
     0
 62
    79
  6
CONTINUOUS
  0
LAYER
  5
89
330
2
100
AcDbSymbolTableRecord
100
AcDbLayerTableRecord
  2
80
 70
     0
 62
    80
  6
CONTINUOUS
  0
LAYER
  5
8A
330
2
100
AcDbSymbolTableRecord
100
AcDbLayerTableRecord
  2
81
 70
     0
 62
    81
  6
CONTINUOUS
  0
LAYER
  5
8B
330
2
100
AcDbSymbolTableRecord
100
AcDbLayerTableRecord
  2
82
 70
     0
 62
    82
  6
CONTINUOUS
  0
LAYER
  5
8C
330
2
100
AcDbSymbolTableRecord
100
AcDbLayerTableRecord
  2
83
 70
     0
 62
    83
  6
CONTINUOUS
  0
LAYER
  5
8D
330
2
100
AcDbSymbolTableRecord
100
AcDbLayerTableRecord
  2
84
 70
     0
 62
    84
  6
CONTINUOUS
  0
LAYER
  5
8E
330
2
100
AcDbSymbolTableRecord
100
AcDbLayerTableRecord
  2
85
 70
     0
 62
    85
  6
CONTINUOUS
  0
LAYER
  5
8F
330
2
100
AcDbSymbolTableRecord
100
AcDbLayerTableRecord
  2
86
 70
     0
 62
    86
  6
CONTINUOUS
  0
LAYER
  5
90
330
2
100
AcDbSymbolTableRecord
100
AcDbLayerTableRecord
  2
87
 70
     0
 62
    87
  6
CONTINUOUS
  0
LAYER
  5
91
330
2
100
AcDbSymbolTableRecord
100
AcDbLayerTableRecord
  2
88
 70
     0
 62
    88
  6
CONTINUOUS
  0
LAYER
  5
92
330
2
100
AcDbSymbolTableRecord
100
AcDbLayerTableRecord
  2
89
 70
     0
 62
    89
  6
CONTINUOUS
  0
LAYER
  5
93
330
2
100
AcDbSymbolTableRecord
100
AcDbLayerTableRecord
  2
90
 70
     0
 62
    90
  6
CONTINUOUS
  0
LAYER
  5
94
330
2
100
AcDbSymbolTableRecord
100
AcDbLayerTableRecord
  2
91
 70
     0
 62
    91
  6
CONTINUOUS
  0
LAYER
  5
95
330
2
100
AcDbSymbolTableRecord
100
AcDbLayerTableRecord
  2
92
 70
     0
 62
    92
  6
CONTINUOUS
  0
LAYER
  5
96
330
2
100
AcDbSymbolTableRecord
100
AcDbLayerTableRecord
  2
93
 70
     0
 62
    93
  6
CONTINUOUS
  0
LAYER
  5
97
330
2
100
AcDbSymbolTableRecord
100
AcDbLayerTableRecord
  2
94
 70
     0
 62
    94
  6
CONTINUOUS
  0
LAYER
  5
98
330
2
100
AcDbSymbolTableRecord
100
AcDbLayerTableRecord
  2
95
 70
     0
 62
    95
  6
CONTINUOUS
  0
LAYER
  5
99
330
2
100
AcDbSymbolTableRecord
100
AcDbLayerTableRecord
  2
96
 70
     0
 62
    96
  6
CONTINUOUS
  0
LAYER
  5
9A
330
2
100
AcDbSymbolTableRecord
100
AcDbLayerTableRecord
  2
97
 70
     0
 62
    97
  6
CONTINUOUS
  0
LAYER
  5
9B
330
2
100
AcDbSymbolTableRecord
100
AcDbLayerTableRecord
  2
98
 70
     0
 62
    98
  6
CONTINUOUS
  0
LAYER
  5
9C
330
2
100
AcDbSymbolTableRecord
100
AcDbLayerTableRecord
  2
99
 70
     0
 62
    99
  6
CONTINUOUS
  0
LAYER
  5
9D
330
2
100
AcDbSymbolTableRecord
100
AcDbLayerTableRecord
  2
100
 70
     0
 62
   100
  6
CONTINUOUS
  0
LAYER
  5
9E
330
2
100
AcDbSymbolTableRecord
100
AcDbLayerTableRecord
  2
101
 70
     0
 62
   101
  6
CONTINUOUS
  0
LAYER
  5
9F
330
2
100
AcDbSymbolTableRecord
100
AcDbLayerTableRecord
  2
102
 70
     0
 62
   102
  6
CONTINUOUS
  0
LAYER
  5
A0
330
2
100
AcDbSymbolTableRecord
100
AcDbLayerTableRecord
  2
103
 70
     0
 62
   103
  6
CONTINUOUS
  0
LAYER
  5
A1
330
2
100
AcDbSymbolTableRecord
100
AcDbLayerTableRecord
  2
104
 70
     0
 62
   104
  6
CONTINUOUS
  0
LAYER
  5
A2
330
2
100
AcDbSymbolTableRecord
100
AcDbLayerTableRecord
  2
105
 70
     0
 62
   105
  6
CONTINUOUS
  0
LAYER
  5
A3
330
2
100
AcDbSymbolTableRecord
100
AcDbLayerTableRecord
  2
106
 70
     0
 62
   106
  6
CONTINUOUS
  0
LAYER
  5
A4
330
2
100
AcDbSymbolTableRecord
100
AcDbLayerTableRecord
  2
107
 70
     0
 62
   107
  6
CONTINUOUS
  0
LAYER
  5
A5
330
2
100
AcDbSymbolTableRecord
100
AcDbLayerTableRecord
  2
108
 70
     0
 62
   108
  6
CONTINUOUS
  0
LAYER
  5
A6
330
2
100
AcDbSymbolTableRecord
100
AcDbLayerTableRecord
  2
109
 70
     0
 62
   109
  6
CONTINUOUS
  0
LAYER
  5
A7
330
2
100
AcDbSymbolTableRecord
100
AcDbLayerTableRecord
  2
110
 70
     0
 62
   110
  6
CONTINUOUS
  0
LAYER
  5
A8
330
2
100
AcDbSymbolTableRecord
100
AcDbLayerTableRecord
  2
111
 70
     0
 62
   111
  6
CONTINUOUS
  0
LAYER
  5
A9
330
2
100
AcDbSymbolTableRecord
100
AcDbLayerTableRecord
  2
112
 70
     0
 62
   112
  6
CONTINUOUS
  0
LAYER
  5
AA
330
2
100
AcDbSymbolTableRecord
100
AcDbLayerTableRecord
  2
113
 70
     0
 62
   113
  6
CONTINUOUS
  0
LAYER
  5
AB
330
2
100
AcDbSymbolTableRecord
100
AcDbLayerTableRecord
  2
114
 70
     0
 62
   114
  6
CONTINUOUS
  0
LAYER
  5
AC
330
2
100
AcDbSymbolTableRecord
100
AcDbLayerTableRecord
  2
115
 70
     0
 62
   115
  6
CONTINUOUS
  0
LAYER
  5
AD
330
2
100
AcDbSymbolTableRecord
100
AcDbLayerTableRecord
  2
116
 70
     0
 62
   116
  6
CONTINUOUS
  0
LAYER
  5
AE
330
2
100
AcDbSymbolTableRecord
100
AcDbLayerTableRecord
  2
117
 70
     0
 62
   117
  6
CONTINUOUS
  0
LAYER
  5
AF
330
2
100
AcDbSymbolTableRecord
100
AcDbLayerTableRecord
  2
118
 70
     0
 62
   118
  6
CONTINUOUS
  0
LAYER
  5
B0
330
2
100
AcDbSymbolTableRecord
100
AcDbLayerTableRecord
  2
119
 70
     0
 62
   119
  6
CONTINUOUS
  0
LAYER
  5
B1
330
2
100
AcDbSymbolTableRecord
100
AcDbLayerTableRecord
  2
120
 70
     0
 62
   120
  6
CONTINUOUS
  0
LAYER
  5
B2
330
2
100
AcDbSymbolTableRecord
100
AcDbLayerTableRecord
  2
121
 70
     0
 62
   121
  6
CONTINUOUS
  0
LAYER
  5
B3
330
2
100
AcDbSymbolTableRecord
100
AcDbLayerTableRecord
  2
122
 70
     0
 62
   122
  6
CONTINUOUS
  0
LAYER
  5
B4
330
2
100
AcDbSymbolTableRecord
100
AcDbLayerTableRecord
  2
123
 70
     0
 62
   123
  6
CONTINUOUS
  0
LAYER
  5
B5
330
2
100
AcDbSymbolTableRecord
100
AcDbLayerTableRecord
  2
124
 70
     0
 62
   124
  6
CONTINUOUS
  0
LAYER
  5
B6
330
2
100
AcDbSymbolTableRecord
100
AcDbLayerTableRecord
  2
125
 70
     0
 62
   125
  6
CONTINUOUS
  0
LAYER
  5
B7
330
2
100
AcDbSymbolTableRecord
100
AcDbLayerTableRecord
  2
126
 70
     0
 62
   126
  6
CONTINUOUS
  0
LAYER
  5
B8
330
2
100
AcDbSymbolTableRecord
100
AcDbLayerTableRecord
  2
127
 70
     0
 62
   127
  6
CONTINUOUS
  0
LAYER
  5
B9
330
2
100
AcDbSymbolTableRecord
100
AcDbLayerTableRecord
  2
128
 70
     0
 62
   128
  6
CONTINUOUS
  0
LAYER
  5
BA
330
2
100
AcDbSymbolTableRecord
100
AcDbLayerTableRecord
  2
129
 70
     0
 62
   129
  6
CONTINUOUS
  0
LAYER
  5
BB
330
2
100
AcDbSymbolTableRecord
100
AcDbLayerTableRecord
  2
130
 70
     0
 62
   130
  6
CONTINUOUS
  0
LAYER
  5
BC
330
2
100
AcDbSymbolTableRecord
100
AcDbLayerTableRecord
  2
131
 70
     0
 62
   131
  6
CONTINUOUS
  0
LAYER
  5
BD
330
2
100
AcDbSymbolTableRecord
100
AcDbLayerTableRecord
  2
132
 70
     0
 62
   132
  6
CONTINUOUS
  0
LAYER
  5
BE
330
2
100
AcDbSymbolTableRecord
100
AcDbLayerTableRecord
  2
133
 70
     0
 62
   133
  6
CONTINUOUS
  0
LAYER
  5
BF
330
2
100
AcDbSymbolTableRecord
100
AcDbLayerTableRecord
  2
134
 70
     0
 62
   134
  6
CONTINUOUS
  0
LAYER
  5
C0
330
2
100
AcDbSymbolTableRecord
100
AcDbLayerTableRecord
  2
135
 70
     0
 62
   135
  6
CONTINUOUS
  0
LAYER
  5
C1
330
2
100
AcDbSymbolTableRecord
100
AcDbLayerTableRecord
  2
136
 70
     0
 62
   136
  6
CONTINUOUS
  0
LAYER
  5
C2
330
2
100
AcDbSymbolTableRecord
100
AcDbLayerTableRecord
  2
137
 70
     0
 62
   137
  6
CONTINUOUS
  0
LAYER
  5
C3
330
2
100
AcDbSymbolTableRecord
100
AcDbLayerTableRecord
  2
138
 70
     0
 62
   138
  6
CONTINUOUS
  0
LAYER
  5
C4
330
2
100
AcDbSymbolTableRecord
100
AcDbLayerTableRecord
  2
139
 70
     0
 62
   139
  6
CONTINUOUS
  0
LAYER
  5
C5
330
2
100
AcDbSymbolTableRecord
100
AcDbLayerTableRecord
  2
140
 70
     0
 62
   140
  6
CONTINUOUS
  0
LAYER
  5
C6
330
2
100
AcDbSymbolTableRecord
100
AcDbLayerTableRecord
  2
141
 70
     0
 62
   141
  6
CONTINUOUS
  0
LAYER
  5
C7
330
2
100
AcDbSymbolTableRecord
100
AcDbLayerTableRecord
  2
142
 70
     0
 62
   142
  6
CONTINUOUS
  0
LAYER
  5
C8
330
2
100
AcDbSymbolTableRecord
100
AcDbLayerTableRecord
  2
143
 70
     0
 62
   143
  6
CONTINUOUS
  0
LAYER
  5
C9
330
2
100
AcDbSymbolTableRecord
100
AcDbLayerTableRecord
  2
144
 70
     0
 62
   144
  6
CONTINUOUS
  0
LAYER
  5
CA
330
2
100
AcDbSymbolTableRecord
100
AcDbLayerTableRecord
  2
145
 70
     0
 62
   145
  6
CONTINUOUS
  0
LAYER
  5
CB
330
2
100
AcDbSymbolTableRecord
100
AcDbLayerTableRecord
  2
146
 70
     0
 62
   146
  6
CONTINUOUS
  0
LAYER
  5
CC
330
2
100
AcDbSymbolTableRecord
100
AcDbLayerTableRecord
  2
147
 70
     0
 62
   147
  6
CONTINUOUS
  0
LAYER
  5
CD
330
2
100
AcDbSymbolTableRecord
100
AcDbLayerTableRecord
  2
148
 70
     0
 62
   148
  6
CONTINUOUS
  0
LAYER
  5
CE
330
2
100
AcDbSymbolTableRecord
100
AcDbLayerTableRecord
  2
149
 70
     0
 62
   149
  6
CONTINUOUS
  0
LAYER
  5
CF
330
2
100
AcDbSymbolTableRecord
100
AcDbLayerTableRecord
  2
150
 70
     0
 62
   150
  6
CONTINUOUS
  0
LAYER
  5
D0
330
2
100
AcDbSymbolTableRecord
100
AcDbLayerTableRecord
  2
151
 70
     0
 62
   151
  6
CONTINUOUS
  0
LAYER
  5
D1
330
2
100
AcDbSymbolTableRecord
100
AcDbLayerTableRecord
  2
152
 70
     0
 62
   152
  6
CONTINUOUS
  0
LAYER
  5
D2
330
2
100
AcDbSymbolTableRecord
100
AcDbLayerTableRecord
  2
153
 70
     0
 62
   153
  6
CONTINUOUS
  0
LAYER
  5
D3
330
2
100
AcDbSymbolTableRecord
100
AcDbLayerTableRecord
  2
154
 70
     0
 62
   154
  6
CONTINUOUS
  0
LAYER
  5
D4
330
2
100
AcDbSymbolTableRecord
100
AcDbLayerTableRecord
  2
155
 70
     0
 62
   155
  6
CONTINUOUS
  0
LAYER
  5
D5
330
2
100
AcDbSymbolTableRecord
100
AcDbLayerTableRecord
  2
156
 70
     0
 62
   156
  6
CONTINUOUS
  0
LAYER
  5
D6
330
2
100
AcDbSymbolTableRecord
100
AcDbLayerTableRecord
  2
157
 70
     0
 62
   157
  6
CONTINUOUS
  0
LAYER
  5
D7
330
2
100
AcDbSymbolTableRecord
100
AcDbLayerTableRecord
  2
158
 70
     0
 62
   158
  6
CONTINUOUS
  0
LAYER
  5
D8
330
2
100
AcDbSymbolTableRecord
100
AcDbLayerTableRecord
  2
159
 70
     0
 62
   159
  6
CONTINUOUS
  0
LAYER
  5
D9
330
2
100
AcDbSymbolTableRecord
100
AcDbLayerTableRecord
  2
160
 70
     0
 62
   160
  6
CONTINUOUS
  0
LAYER
  5
DA
330
2
100
AcDbSymbolTableRecord
100
AcDbLayerTableRecord
  2
161
 70
     0
 62
   161
  6
CONTINUOUS
  0
LAYER
  5
DB
330
2
100
AcDbSymbolTableRecord
100
AcDbLayerTableRecord
  2
162
 70
     0
 62
   162
  6
CONTINUOUS
  0
LAYER
  5
DC
330
2
100
AcDbSymbolTableRecord
100
AcDbLayerTableRecord
  2
163
 70
     0
 62
   163
  6
CONTINUOUS
  0
LAYER
  5
DD
330
2
100
AcDbSymbolTableRecord
100
AcDbLayerTableRecord
  2
164
 70
     0
 62
   164
  6
CONTINUOUS
  0
LAYER
  5
DE
330
2
100
AcDbSymbolTableRecord
100
AcDbLayerTableRecord
  2
165
 70
     0
 62
   165
  6
CONTINUOUS
  0
LAYER
  5
DF
330
2
100
AcDbSymbolTableRecord
100
AcDbLayerTableRecord
  2
166
 70
     0
 62
   166
  6
CONTINUOUS
  0
LAYER
  5
E0
330
2
100
AcDbSymbolTableRecord
100
AcDbLayerTableRecord
  2
167
 70
     0
 62
   167
  6
CONTINUOUS
  0
LAYER
  5
E1
330
2
100
AcDbSymbolTableRecord
100
AcDbLayerTableRecord
  2
168
 70
     0
 62
   168
  6
CONTINUOUS
  0
LAYER
  5
E2
330
2
100
AcDbSymbolTableRecord
100
AcDbLayerTableRecord
  2
169
 70
     0
 62
   169
  6
CONTINUOUS
  0
LAYER
  5
E3
330
2
100
AcDbSymbolTableRecord
100
AcDbLayerTableRecord
  2
170
 70
     0
 62
   170
  6
CONTINUOUS
  0
LAYER
  5
E4
330
2
100
AcDbSymbolTableRecord
100
AcDbLayerTableRecord
  2
171
 70
     0
 62
   171
  6
CONTINUOUS
  0
LAYER
  5
E5
330
2
100
AcDbSymbolTableRecord
100
AcDbLayerTableRecord
  2
172
 70
     0
 62
   172
  6
CONTINUOUS
  0
LAYER
  5
E6
330
2
100
AcDbSymbolTableRecord
100
AcDbLayerTableRecord
  2
173
 70
     0
 62
   173
  6
CONTINUOUS
  0
LAYER
  5
E7
330
2
100
AcDbSymbolTableRecord
100
AcDbLayerTableRecord
  2
174
 70
     0
 62
   174
  6
CONTINUOUS
  0
LAYER
  5
E8
330
2
100
AcDbSymbolTableRecord
100
AcDbLayerTableRecord
  2
175
 70
     0
 62
   175
  6
CONTINUOUS
  0
LAYER
  5
E9
330
2
100
AcDbSymbolTableRecord
100
AcDbLayerTableRecord
  2
176
 70
     0
 62
   176
  6
CONTINUOUS
  0
LAYER
  5
EA
330
2
100
AcDbSymbolTableRecord
100
AcDbLayerTableRecord
  2
177
 70
     0
 62
   177
  6
CONTINUOUS
  0
LAYER
  5
EB
330
2
100
AcDbSymbolTableRecord
100
AcDbLayerTableRecord
  2
178
 70
     0
 62
   178
  6
CONTINUOUS
  0
LAYER
  5
EC
330
2
100
AcDbSymbolTableRecord
100
AcDbLayerTableRecord
  2
179
 70
     0
 62
   179
  6
CONTINUOUS
  0
LAYER
  5
ED
330
2
100
AcDbSymbolTableRecord
100
AcDbLayerTableRecord
  2
180
 70
     0
 62
   180
  6
CONTINUOUS
  0
LAYER
  5
EE
330
2
100
AcDbSymbolTableRecord
100
AcDbLayerTableRecord
  2
181
 70
     0
 62
   181
  6
CONTINUOUS
  0
LAYER
  5
EF
330
2
100
AcDbSymbolTableRecord
100
AcDbLayerTableRecord
  2
182
 70
     0
 62
   182
  6
CONTINUOUS
  0
LAYER
  5
F0
330
2
100
AcDbSymbolTableRecord
100
AcDbLayerTableRecord
  2
183
 70
     0
 62
   183
  6
CONTINUOUS
  0
LAYER
  5
F1
330
2
100
AcDbSymbolTableRecord
100
AcDbLayerTableRecord
  2
184
 70
     0
 62
   184
  6
CONTINUOUS
  0
LAYER
  5
F2
330
2
100
AcDbSymbolTableRecord
100
AcDbLayerTableRecord
  2
185
 70
     0
 62
   185
  6
CONTINUOUS
  0
LAYER
  5
F3
330
2
100
AcDbSymbolTableRecord
100
AcDbLayerTableRecord
  2
186
 70
     0
 62
   186
  6
CONTINUOUS
  0
LAYER
  5
F4
330
2
100
AcDbSymbolTableRecord
100
AcDbLayerTableRecord
  2
187
 70
     0
 62
   187
  6
CONTINUOUS
  0
LAYER
  5
F5
330
2
100
AcDbSymbolTableRecord
100
AcDbLayerTableRecord
  2
188
 70
     0
 62
   188
  6
CONTINUOUS
  0
LAYER
  5
F6
330
2
100
AcDbSymbolTableRecord
100
AcDbLayerTableRecord
  2
189
 70
     0
 62
   189
  6
CONTINUOUS
  0
LAYER
  5
F7
330
2
100
AcDbSymbolTableRecord
100
AcDbLayerTableRecord
  2
190
 70
     0
 62
   190
  6
CONTINUOUS
  0
LAYER
  5
F8
330
2
100
AcDbSymbolTableRecord
100
AcDbLayerTableRecord
  2
191
 70
     0
 62
   191
  6
CONTINUOUS
  0
LAYER
  5
F9
330
2
100
AcDbSymbolTableRecord
100
AcDbLayerTableRecord
  2
192
 70
     0
 62
   192
  6
CONTINUOUS
  0
LAYER
  5
FA
330
2
100
AcDbSymbolTableRecord
100
AcDbLayerTableRecord
  2
193
 70
     0
 62
   193
  6
CONTINUOUS
  0
LAYER
  5
FB
330
2
100
AcDbSymbolTableRecord
100
AcDbLayerTableRecord
  2
194
 70
     0
 62
   194
  6
CONTINUOUS
  0
LAYER
  5
FC
330
2
100
AcDbSymbolTableRecord
100
AcDbLayerTableRecord
  2
195
 70
     0
 62
   195
  6
CONTINUOUS
  0
LAYER
  5
FD
330
2
100
AcDbSymbolTableRecord
100
AcDbLayerTableRecord
  2
196
 70
     0
 62
   196
  6
CONTINUOUS
  0
LAYER
  5
FE
330
2
100
AcDbSymbolTableRecord
100
AcDbLayerTableRecord
  2
197
 70
     0
 62
   197
  6
CONTINUOUS
  0
LAYER
  5
FF
330
2
100
AcDbSymbolTableRecord
100
AcDbLayerTableRecord
  2
198
 70
     0
 62
   198
  6
CONTINUOUS
  0
LAYER
  5
100
330
2
100
AcDbSymbolTableRecord
100
AcDbLayerTableRecord
  2
199
 70
     0
 62
   199
  6
CONTINUOUS
  0
LAYER
  5
101
330
2
100
AcDbSymbolTableRecord
100
AcDbLayerTableRecord
  2
200
 70
     0
 62
   200
  6
CONTINUOUS
  0
LAYER
  5
102
330
2
100
AcDbSymbolTableRecord
100
AcDbLayerTableRecord
  2
201
 70
     0
 62
   201
  6
CONTINUOUS
  0
LAYER
  5
103
330
2
100
AcDbSymbolTableRecord
100
AcDbLayerTableRecord
  2
202
 70
     0
 62
   202
  6
CONTINUOUS
  0
LAYER
  5
104
330
2
100
AcDbSymbolTableRecord
100
AcDbLayerTableRecord
  2
203
 70
     0
 62
   203
  6
CONTINUOUS
  0
LAYER
  5
105
330
2
100
AcDbSymbolTableRecord
100
AcDbLayerTableRecord
  2
204
 70
     0
 62
   204
  6
CONTINUOUS
  0
LAYER
  5
106
330
2
100
AcDbSymbolTableRecord
100
AcDbLayerTableRecord
  2
205
 70
     0
 62
   205
  6
CONTINUOUS
  0
LAYER
  5
107
330
2
100
AcDbSymbolTableRecord
100
AcDbLayerTableRecord
  2
206
 70
     0
 62
   206
  6
CONTINUOUS
  0
LAYER
  5
108
330
2
100
AcDbSymbolTableRecord
100
AcDbLayerTableRecord
  2
207
 70
     0
 62
   207
  6
CONTINUOUS
  0
LAYER
  5
109
330
2
100
AcDbSymbolTableRecord
100
AcDbLayerTableRecord
  2
208
 70
     0
 62
   208
  6
CONTINUOUS
  0
LAYER
  5
10A
330
2
100
AcDbSymbolTableRecord
100
AcDbLayerTableRecord
  2
209
 70
     0
 62
   209
  6
CONTINUOUS
  0
LAYER
  5
10B
330
2
100
AcDbSymbolTableRecord
100
AcDbLayerTableRecord
  2
210
 70
     0
 62
   210
  6
CONTINUOUS
  0
LAYER
  5
10C
330
2
100
AcDbSymbolTableRecord
100
AcDbLayerTableRecord
  2
211
 70
     0
 62
   211
  6
CONTINUOUS
  0
LAYER
  5
10D
330
2
100
AcDbSymbolTableRecord
100
AcDbLayerTableRecord
  2
212
 70
     0
 62
   212
  6
CONTINUOUS
  0
LAYER
  5
10E
330
2
100
AcDbSymbolTableRecord
100
AcDbLayerTableRecord
  2
213
 70
     0
 62
   213
  6
CONTINUOUS
  0
LAYER
  5
10F
330
2
100
AcDbSymbolTableRecord
100
AcDbLayerTableRecord
  2
214
 70
     0
 62
   214
  6
CONTINUOUS
  0
LAYER
  5
110
330
2
100
AcDbSymbolTableRecord
100
AcDbLayerTableRecord
  2
215
 70
     0
 62
   215
  6
CONTINUOUS
  0
LAYER
  5
111
330
2
100
AcDbSymbolTableRecord
100
AcDbLayerTableRecord
  2
216
 70
     0
 62
   216
  6
CONTINUOUS
  0
LAYER
  5
112
330
2
100
AcDbSymbolTableRecord
100
AcDbLayerTableRecord
  2
217
 70
     0
 62
   217
  6
CONTINUOUS
  0
LAYER
  5
113
330
2
100
AcDbSymbolTableRecord
100
AcDbLayerTableRecord
  2
218
 70
     0
 62
   218
  6
CONTINUOUS
  0
LAYER
  5
114
330
2
100
AcDbSymbolTableRecord
100
AcDbLayerTableRecord
  2
219
 70
     0
 62
   219
  6
CONTINUOUS
  0
LAYER
  5
115
330
2
100
AcDbSymbolTableRecord
100
AcDbLayerTableRecord
  2
220
 70
     0
 62
   220
  6
CONTINUOUS
  0
LAYER
  5
116
330
2
100
AcDbSymbolTableRecord
100
AcDbLayerTableRecord
  2
221
 70
     0
 62
   221
  6
CONTINUOUS
  0
LAYER
  5
117
330
2
100
AcDbSymbolTableRecord
100
AcDbLayerTableRecord
  2
222
 70
     0
 62
   222
  6
CONTINUOUS
  0
LAYER
  5
118
330
2
100
AcDbSymbolTableRecord
100
AcDbLayerTableRecord
  2
223
 70
     0
 62
   223
  6
CONTINUOUS
  0
LAYER
  5
119
330
2
100
AcDbSymbolTableRecord
100
AcDbLayerTableRecord
  2
224
 70
     0
 62
   224
  6
CONTINUOUS
  0
LAYER
  5
11A
330
2
100
AcDbSymbolTableRecord
100
AcDbLayerTableRecord
  2
225
 70
     0
 62
   225
  6
CONTINUOUS
  0
LAYER
  5
11B
330
2
100
AcDbSymbolTableRecord
100
AcDbLayerTableRecord
  2
226
 70
     0
 62
   226
  6
CONTINUOUS
  0
LAYER
  5
11C
330
2
100
AcDbSymbolTableRecord
100
AcDbLayerTableRecord
  2
227
 70
     0
 62
   227
  6
CONTINUOUS
  0
LAYER
  5
11D
330
2
100
AcDbSymbolTableRecord
100
AcDbLayerTableRecord
  2
228
 70
     0
 62
   228
  6
CONTINUOUS
  0
LAYER
  5
11E
330
2
100
AcDbSymbolTableRecord
100
AcDbLayerTableRecord
  2
229
 70
     0
 62
   229
  6
CONTINUOUS
  0
LAYER
  5
11F
330
2
100
AcDbSymbolTableRecord
100
AcDbLayerTableRecord
  2
230
 70
     0
 62
   230
  6
CONTINUOUS
  0
LAYER
  5
120
330
2
100
AcDbSymbolTableRecord
100
AcDbLayerTableRecord
  2
231
 70
     0
 62
   231
  6
CONTINUOUS
  0
LAYER
  5
121
330
2
100
AcDbSymbolTableRecord
100
AcDbLayerTableRecord
  2
232
 70
     0
 62
   232
  6
CONTINUOUS
  0
LAYER
  5
122
330
2
100
AcDbSymbolTableRecord
100
AcDbLayerTableRecord
  2
233
 70
     0
 62
   233
  6
CONTINUOUS
  0
LAYER
  5
123
330
2
100
AcDbSymbolTableRecord
100
AcDbLayerTableRecord
  2
234
 70
     0
 62
   234
  6
CONTINUOUS
  0
LAYER
  5
124
330
2
100
AcDbSymbolTableRecord
100
AcDbLayerTableRecord
  2
235
 70
     0
 62
   235
  6
CONTINUOUS
  0
LAYER
  5
125
330
2
100
AcDbSymbolTableRecord
100
AcDbLayerTableRecord
  2
236
 70
     0
 62
   236
  6
CONTINUOUS
  0
LAYER
  5
126
330
2
100
AcDbSymbolTableRecord
100
AcDbLayerTableRecord
  2
237
 70
     0
 62
   237
  6
CONTINUOUS
  0
LAYER
  5
127
330
2
100
AcDbSymbolTableRecord
100
AcDbLayerTableRecord
  2
238
 70
     0
 62
   238
  6
CONTINUOUS
  0
LAYER
  5
128
330
2
100
AcDbSymbolTableRecord
100
AcDbLayerTableRecord
  2
239
 70
     0
 62
   239
  6
CONTINUOUS
  0
LAYER
  5
129
330
2
100
AcDbSymbolTableRecord
100
AcDbLayerTableRecord
  2
240
 70
     0
 62
   240
  6
CONTINUOUS
  0
LAYER
  5
12A
330
2
100
AcDbSymbolTableRecord
100
AcDbLayerTableRecord
  2
241
 70
     0
 62
   241
  6
CONTINUOUS
  0
LAYER
  5
12B
330
2
100
AcDbSymbolTableRecord
100
AcDbLayerTableRecord
  2
242
 70
     0
 62
   242
  6
CONTINUOUS
  0
LAYER
  5
12C
330
2
100
AcDbSymbolTableRecord
100
AcDbLayerTableRecord
  2
243
 70
     0
 62
   243
  6
CONTINUOUS
  0
LAYER
  5
12D
330
2
100
AcDbSymbolTableRecord
100
AcDbLayerTableRecord
  2
244
 70
     0
 62
   244
  6
CONTINUOUS
  0
LAYER
  5
12E
330
2
100
AcDbSymbolTableRecord
100
AcDbLayerTableRecord
  2
245
 70
     0
 62
   245
  6
CONTINUOUS
  0
LAYER
  5
12F
330
2
100
AcDbSymbolTableRecord
100
AcDbLayerTableRecord
  2
246
 70
     0
 62
   246
  6
CONTINUOUS
  0
LAYER
  5
130
330
2
100
AcDbSymbolTableRecord
100
AcDbLayerTableRecord
  2
247
 70
     0
 62
   247
  6
CONTINUOUS
  0
LAYER
  5
131
330
2
100
AcDbSymbolTableRecord
100
AcDbLayerTableRecord
  2
248
 70
     0
 62
   248
  6
CONTINUOUS
  0
LAYER
  5
132
330
2
100
AcDbSymbolTableRecord
100
AcDbLayerTableRecord
  2
249
 70
     0
 62
   249
  6
CONTINUOUS
  0
LAYER
  5
133
330
2
100
AcDbSymbolTableRecord
100
AcDbLayerTableRecord
  2
250
 70
     0
 62
   250
  6
CONTINUOUS
  0
LAYER
  5
134
330
2
100
AcDbSymbolTableRecord
100
AcDbLayerTableRecord
  2
251
 70
     0
 62
   251
  6
CONTINUOUS
  0
LAYER
  5
135
330
2
100
AcDbSymbolTableRecord
100
AcDbLayerTableRecord
  2
252
 70
     0
 62
   252
  6
CONTINUOUS
  0
LAYER
  5
136
330
2
100
AcDbSymbolTableRecord
100
AcDbLayerTableRecord
  2
253
 70
     0
 62
   253
  6
CONTINUOUS
  0
LAYER
  5
137
330
2
100
AcDbSymbolTableRecord
100
AcDbLayerTableRecord
  2
254
 70
     0
 62
   254
  6
CONTINUOUS
  0
LAYER
  5
138
330
2
100
AcDbSymbolTableRecord
100
AcDbLayerTableRecord
  2
255
 70
     0
 62
   255
  6
CONTINUOUS
  0
ENDTAB
  0
TABLE
  2
STYLE
  5
3
330
0
100
AcDbSymbolTable
 70
     1
  0
STYLE
  5
11
330
3
100
AcDbSymbolTableRecord
100
AcDbTextStyleTableRecord
  2
STANDARD
 70
     0
 40
0.0
 41
1.0
 50
0.0
 71
     0
 42
0.2
  3
monotxt
  4

  0
ENDTAB
  0
TABLE
  2
VIEW
  5
6
330
0
100
AcDbSymbolTable
 70
     0
  0
ENDTAB
  0
TABLE
  2
UCS
  5
7
330
0
100
AcDbSymbolTable
 70
     0
  0
ENDTAB
  0
TABLE
  2
APPID
  5
9
330
0
100
AcDbSymbolTable
 70
     1
  0
APPID
  5
12
330
9
100
AcDbSymbolTableRecord
100
AcDbRegAppTableRecord
  2
ACAD
 70
     0
  0
ENDTAB
  0
TABLE
  2
DIMSTYLE
  5
A
330
0
100
AcDbSymbolTable
 70
     1
  0
DIMSTYLE
105
2BB7
330
A
100
AcDbSymbolTableRecord
100
AcDbDimStyleTableRecord
  2
STANDARD
 70
     0
  3

  4

  5

  6

  7

 40
1.0
 41
0.18
 42
0.0625
 43
0.38
 44
0.18
 45
0.0
 46
0.0
 47
0.0
 48
0.0
140
0.18
141
0.09
142
0.0
143
25.4
144
1.0
145
0.0
146
1.0
147
0.09
 71
     0
 72
     0
 73
     1
 74
     1
 75
     0
 76
     0
 77
     0
 78
     0
170
     0
171
     2
172
     0
173
     0
174
     0
175
     0
176
     0
177
     0
178
     0
270
     2
271
     4
272
     4
273
     2
274
     2
340
11
275
     0
280
     0
281
     0
282
     0
283
     1
284
     0
285
     0
286
     0
287
     3
288
     0
  0
ENDTAB
  0
TABLE
  2
BLOCK_RECORD
  5
1
330
0
100
AcDbSymbolTable
 70
     0
  0
BLOCK_RECORD
  5
1E
102
{ACAD_XDICTIONARY
360
3166
102
}
330
1
100
AcDbSymbolTableRecord
100
AcDbBlockTableRecord
  2
*MODEL_SPACE
  0
BLOCK_RECORD
  5
1A
102
{ACAD_XDICTIONARY
360
3164
102
}
330
1
100
AcDbSymbolTableRecord
100
AcDbBlockTableRecord
  2
*PAPER_SPACE
  0
ENDTAB
  0
ENDSEC
  0
SECTION
  2
BLOCKS
  0
BLOCK
  5
13B
330
1E
100
AcDbEntity
  8
0
100
AcDbBlockBegin
  2
*MODEL_SPACE
 70
     0
 10
0.0
 20
0.0
 30
0.0
  3
*MODEL_SPACE
  1

  0
ENDBLK
  5
13C
330
1E
100
AcDbEntity
  8
0
100
AcDbBlockEnd
  0
BLOCK
  5
139
330
1A
100
AcDbEntity
 67
     1
  8
0
100
AcDbBlockBegin
  2
*PAPER_SPACE
 70
     0
 10
0.0
 20
0.0
 30
0.0
  3
*PAPER_SPACE
  1

  0
ENDBLK
  5
13A
330
1A
100
AcDbEntity
 67
     1
  8
0
100
AcDbBlockEnd
  0
ENDSEC
  0
SECTION
  2
ENTITIES
  0
LINE
  5
30F
330
1E
100
AcDbEntity
  8
7
100
AcDbLine
 10
4.347440944881889
 20
4.766732283464566
 30
0.0
 11
4.530511811023621
 21
4.766732283464566
 31
0.0
  0
LINE
  5
310
330
1E
100
AcDbEntity
  8
7
100
AcDbLine
 10
4.982283464566928
 20
4.766732283464566
 30
0.0
 11
5.165354330708661
 21
4.766732283464566
 31
0.0
  0
LINE
  5
311
330
1E
100
AcDbEntity
  8
7
100
AcDbLine
 10
4.351377952755905
 20
5.58267716535433
 30
0.0
 11
4.525590551181101
 21
5.58267716535433
 31
0.0
  0
LINE
  5
312
330
1E
100
AcDbEntity
  8
7
100
AcDbLine
 10
4.986220472440944
 20
5.58267716535433
 30
0.0
 11
5.161417322834645
 21
5.58267716535433
 31
0.0
  0
LINE
  5
313
330
1E
100
AcDbEntity
  8
7
100
AcDbLine
 10
5.39271653543307
 20
5.591535433070865
 30
0.0
 11
5.161417322834645
 21
5.591535433070865
 31
0.0
  0
LINE
  5
31A
330
1E
100
AcDbEntity
  8
7
100
AcDbLine
 10
4.351377952755905
 20
5.591535433070865
 30
0.0
 11
4.120078740157479
 21
5.591535433070865
 31
0.0
  0
LINE
  5
31B
330
1E
100
AcDbEntity
  8
7
100
AcDbLine
 10
4.339566929133858
 20
5.656496062992125
 30
0.0
 11
4.351377952755905
 21
5.656496062992125
 31
0.0
  0
LINE
  5
31C
330
1E
100
AcDbEntity
  8
7
100
AcDbLine
 10
4.339566929133858
 20
5.656496062992125
 30
0.0
 11
4.331692913385826
 21
5.750984251968503
 31
0.0
  0
LINE
  5
31D
330
1E
100
AcDbEntity
  8
7
100
AcDbLine
 10
4.331692913385826
 20
5.750984251968503
 30
0.0
 11
4.125
 21
5.750984251968503
 31
0.0
  0
LINE
  5
31E
330
1E
100
AcDbEntity
  8
7
100
AcDbLine
 10
5.173228346456692
 20
5.666338582677164
 30
0.0
 11
4.973425196850393
 21
5.666338582677164
 31
0.0
  0
LINE
  5
326
330
1E
100
AcDbEntity
  8
7
100
AcDbLine
 10
4.538385826771652
 20
5.666338582677164
 30
0.0
 11
4.338582677165353
 21
5.666338582677164
 31
0.0
  0
LINE
  5
327
330
1E
100
AcDbEntity
  8
7
100
AcDbLine
 10
4.351377952755905
 20
5.641732283464566
 30
0.0
 11
4.351377952755905
 21
5.656496062992125
 31
0.0
  0
LINE
  5
328
330
1E
100
AcDbEntity
  8
7
100
AcDbLine
 10
4.525590551181101
 20
5.641732283464566
 30
0.0
 11
4.351377952755905
 21
5.641732283464566
 31
0.0
  0
LINE
  5
329
330
1E
100
AcDbEntity
  8
7
100
AcDbLine
 10
4.525590551181101
 20
5.656496062992125
 30
0.0
 11
4.525590551181101
 21
5.641732283464566
 31
0.0
  0
LINE
  5
32A
330
1E
100
AcDbEntity
  8
7
100
AcDbLine
 10
4.537401574803149
 20
5.656496062992125
 30
0.0
 11
4.525590551181101
 21
5.656496062992125
 31
0.0
  0
LINE
  5
32B
330
1E
100
AcDbEntity
  8
7
100
AcDbLine
 10
4.118110236220472
 20
5.559055118110236
 30
0.0
 11
4.114173228346456
 21
5.685039370078739
 31
0.0
  0
LINE
  5
32C
330
1E
100
AcDbEntity
  8
7
100
AcDbLine
 10
4.125
 20
5.750984251968503
 30
0.0
 11
4.123031496062991
 21
5.685039370078739
 31
0.0
  0
LINE
  5
32D
330
1E
100
AcDbEntity
  8
7
100
AcDbLine
 10
4.330708661417322
 20
5.768700787401574
 30
0.0
 11
4.331692913385826
 21
5.750984251968503
 31
0.0
  0
LINE
  5
32E
330
1E
100
AcDbEntity
  8
7
100
AcDbLine
 10
4.546259842519684
 20
5.768700787401574
 30
0.0
 11
4.330708661417322
 21
5.768700787401574
 31
0.0
  0
LINE
  5
32F
330
1E
100
AcDbEntity
  8
7
100
AcDbLine
 10
4.546259842519684
 20
5.768700787401574
 30
0.0
 11
4.54527559055118
 21
5.750984251968503
 31
0.0
  0
LINE
  5
330
330
1E
100
AcDbEntity
  8
7
100
AcDbLine
 10
4.966535433070865
 20
5.750984251968503
 30
0.0
 11
4.54527559055118
 21
5.750984251968503
 31
0.0
  0
LINE
  5
331
330
1E
100
AcDbEntity
  8
7
100
AcDbLine
 10
4.965551181102362
 20
5.768700787401574
 30
0.0
 11
4.966535433070865
 21
5.750984251968503
 31
0.0
  0
LINE
  5
332
330
1E
100
AcDbEntity
  8
7
100
AcDbLine
 10
5.182086614173227
 20
5.768700787401574
 30
0.0
 11
4.965551181102362
 21
5.768700787401574
 31
0.0
  0
LINE
  5
333
330
1E
100
AcDbEntity
  8
7
100
AcDbLine
 10
5.182086614173227
 20
5.768700787401574
 30
0.0
 11
5.18011811023622
 21
5.750984251968503
 31
0.0
  0
LINE
  5
334
330
1E
100
AcDbEntity
  8
7
100
AcDbLine
 10
5.386811023622047
 20
5.750984251968503
 30
0.0
 11
5.388779527559054
 21
5.685039370078739
 31
0.0
  0
LINE
  5
335
330
1E
100
AcDbEntity
  8
7
100
AcDbLine
 10
5.397637795275589
 20
5.685039370078739
 30
0.0
 11
5.388779527559054
 21
5.685039370078739
 31
0.0
  0
LINE
  5
336
330
1E
100
AcDbEntity
  8
7
100
AcDbLine
 10
5.397637795275589
 20
5.685039370078739
 30
0.0
 11
5.393700787401574
 21
5.559055118110236
 31
0.0
  0
LINE
  5
337
330
1E
100
AcDbEntity
  8
7
100
AcDbLine
 10
4.118110236220472
 20
5.559055118110236
 30
0.0
 11
5.393700787401574
 21
5.559055118110236
 31
0.0
  0
LINE
  5
338
330
1E
100
AcDbEntity
  8
7
100
AcDbLine
 10
4.114173228346456
 20
5.685039370078739
 30
0.0
 11
4.123031496062991
 21
5.685039370078739
 31
0.0
  0
LINE
  5
359
330
1E
100
AcDbEntity
  8
7
100
AcDbLine
 10
5.683070866141731
 20
5.796259842519684
 30
0.0
 11
3.829724409448818
 21
5.796259842519684
 31
0.0
  0
LINE
  5
37B
330
1E
100
AcDbEntity
  8
7
100
AcDbLine
 10
3.901574803149605
 20
5.30511811023622
 30
0.0
 11
5.61023622047244
 21
5.30511811023622
 31
0.0
  0
LINE
  5
38B
330
1E
100
AcDbEntity
  8
7
100
AcDbLine
 10
4.525590551181101
 20
5.636811023622047
 30
0.0
 11
4.525590551181101
 21
5.586614173228346
 31
0.0
  0
LINE
  5
38C
330
1E
100
AcDbEntity
  8
7
100
AcDbLine
 10
4.351377952755905
 20
5.636811023622047
 30
0.0
 11
4.525590551181101
 21
5.636811023622047
 31
0.0
  0
LINE
  5
38D
330
1E
100
AcDbEntity
  8
7
100
AcDbLine
 10
4.351377952755905
 20
5.586614173228346
 30
0.0
 11
4.351377952755905
 21
5.636811023622047
 31
0.0
  0
LINE
  5
38E
330
1E
100
AcDbEntity
  8
7
100
AcDbLine
 10
4.525590551181101
 20
5.586614173228346
 30
0.0
 11
4.351377952755905
 21
5.586614173228346
 31
0.0
  0
LINE
  5
38F
330
1E
100
AcDbEntity
  8
7
100
AcDbLine
 10
4.351377952755905
 20
5.636811023622047
 30
0.0
 11
4.351377952755905
 21
5.641732283464566
 31
0.0
  0
LINE
  5
390
330
1E
100
AcDbEntity
  8
7
100
AcDbLine
 10
4.525590551181101
 20
5.636811023622047
 30
0.0
 11
4.525590551181101
 21
5.641732283464566
 31
0.0
  0
LINE
  5
3A0
330
1E
100
AcDbEntity
  8
7
100
AcDbLine
 10
4.986220472440944
 20
5.591535433070865
 30
0.0
 11
4.525590551181101
 21
5.591535433070865
 31
0.0
  0
LINE
  5
3A1
330
1E
100
AcDbEntity
  8
7
100
AcDbLine
 10
4.65255905511811
 20
5.567913385826771
 30
0.0
 11
4.119094488188975
 21
5.567913385826771
 31
0.0
  0
LINE
  5
3A7
330
1E
100
AcDbEntity
  8
7
100
AcDbLine
 10
4.677165354330708
 20
5.591535433070865
 30
0.0
 11
4.677165354330708
 21
5.559055118110236
 31
0.0
  0
LINE
  5
3A8
330
1E
100
AcDbEntity
  8
7
100
AcDbLine
 10
4.65255905511811
 20
5.567913385826771
 30
0.0
 11
4.602362204724409
 21
5.559055118110236
 31
0.0
  0
LINE
  5
3A9
330
1E
100
AcDbEntity
  8
7
100
AcDbLine
 10
4.537401574803149
 20
5.656496062992125
 30
0.0
 11
4.54527559055118
 21
5.750984251968503
 31
0.0
  0
LINE
  5
3AA
330
1E
100
AcDbEntity
  8
7
100
AcDbLine
 10
4.974409448818897
 20
5.656496062992125
 30
0.0
 11
4.966535433070865
 21
5.750984251968503
 31
0.0
  0
LINE
  5
3AB
330
1E
100
AcDbEntity
  8
7
100
AcDbLine
 10
4.910433070866141
 20
5.559055118110236
 30
0.0
 11
4.859251968503937
 21
5.567913385826771
 31
0.0
  0
LINE
  5
3AC
330
1E
100
AcDbEntity
  8
7
100
AcDbLine
 10
5.39271653543307
 20
5.567913385826771
 30
0.0
 11
4.859251968503937
 21
5.567913385826771
 31
0.0
  0
LINE
  5
3B2
330
1E
100
AcDbEntity
  8
7
100
AcDbLine
 10
4.834645669291337
 20
5.591535433070865
 30
0.0
 11
4.834645669291337
 21
5.559055118110236
 31
0.0
  0
LINE
  5
3BD
330
1E
100
AcDbEntity
  8
7
100
AcDbLine
 10
5.161417322834645
 20
5.636811023622047
 30
0.0
 11
5.161417322834645
 21
5.641732283464566
 31
0.0
  0
LINE
  5
3BE
330
1E
100
AcDbEntity
  8
7
100
AcDbLine
 10
4.986220472440944
 20
5.636811023622047
 30
0.0
 11
4.986220472440944
 21
5.641732283464566
 31
0.0
  0
LINE
  5
3CE
330
1E
100
AcDbEntity
  8
7
100
AcDbLine
 10
3.829724409448818
 20
5.797244094488188
 30
0.0
 11
5.683070866141731
 21
5.797244094488188
 31
0.0
  0
LINE
  5
3CF
330
1E
100
AcDbEntity
  8
7
100
AcDbLine
 10
3.829724409448818
 20
5.797244094488188
 30
0.0
 11
3.829724409448818
 21
5.796259842519684
 31
0.0
  0
LINE
  5
3D0
330
1E
100
AcDbEntity
  8
7
100
AcDbLine
 10
5.683070866141731
 20
5.796259842519684
 30
0.0
 11
5.683070866141731
 21
5.797244094488188
 31
0.0
  0
LINE
  5
3D6
330
1E
100
AcDbEntity
  8
7
100
AcDbLine
 10
4.982283464566928
 20
4.769685039370078
 30
0.0
 11
4.982283464566928
 21
4.766732283464566
 31
0.0
  0
LINE
  5
3D7
330
1E
100
AcDbEntity
  8
7
100
AcDbLine
 10
4.971456692913385
 20
5.30511811023622
 30
0.0
 11
4.982283464566928
 21
4.776574803149605
 31
0.0
  0
LINE
  5
3D8
330
1E
100
AcDbEntity
  8
7
100
AcDbLine
 10
4.336614173228346
 20
5.30511811023622
 30
0.0
 11
4.346456692913385
 21
4.776574803149605
 31
0.0
  0
LINE
  5
3D9
330
1E
100
AcDbEntity
  8
7
100
AcDbLine
 10
4.530511811023621
 20
4.776574803149605
 30
0.0
 11
4.346456692913385
 21
4.776574803149605
 31
0.0
  0
LINE
  5
413
330
1E
100
AcDbEntity
  8
7
100
AcDbLine
 10
5.730314960629921
 20
5.445866141732283
 30
0.0
 11
5.722440944881889
 21
5.461614173228346
 31
0.0
  0
LINE
  5
414
330
1E
100
AcDbEntity
  8
7
100
AcDbLine
 10
5.722440944881889
 20
5.461614173228346
 30
0.0
 11
5.705708661417322
 21
5.468503937007874
 31
0.0
  0
LINE
  5
41F
330
1E
100
AcDbEntity
  8
7
100
AcDbLine
 10
5.388779527559054
 20
5.685039370078739
 30
0.0
 11
5.393700787401574
 21
5.559055118110236
 31
0.0
  0
LINE
  5
420
330
1E
100
AcDbEntity
  8
7
100
AcDbLine
 10
4.119094488188975
 20
5.559055118110236
 30
0.0
 11
4.123031496062991
 21
5.685039370078739
 31
0.0
  0
LINE
  5
42B
330
1E
100
AcDbEntity
  8
7
100
AcDbLine
 10
7.953740157480313
 20
7.438976377952755
 30
0.0
 11
7.58759842519685
 21
7.251968503937007
 31
0.0
  0
LINE
  5
437
330
1E
100
AcDbEntity
  8
7
100
AcDbLine
 10
7.924212598425197
 20
7.5
 30
0.0
 11
7.921259842519684
 21
7.501968503937007
 31
0.0
  0
LINE
  5
43F
330
1E
100
AcDbEntity
  8
7
100
AcDbLine
 10
7.958661417322834
 20
7.444881889763779
 30
0.0
 11
7.953740157480313
 21
7.438976377952755
 31
0.0
  0
LINE
  5
44A
330
1E
100
AcDbEntity
  8
7
100
AcDbLine
 10
7.58759842519685
 20
6.780511811023621
 30
0.0
 11
7.58759842519685
 21
8.490157480314961
 31
0.0
  0
LINE
  5
45E
330
1E
100
AcDbEntity
  8
7
100
AcDbLine
 10
7.58759842519685
 20
6.650590551181101
 30
0.0
 11
7.474409448818897
 21
6.658464566929133
 31
0.0
  0
LINE
  5
471
330
1E
100
AcDbEntity
  8
7
100
AcDbLine
 10
7.095472440944881
 20
8.013779527559055
 30
0.0
 11
7.095472440944881
 21
8.059055118110235
 31
0.0
  0
LINE
  5
497
330
1E
100
AcDbEntity
  8
7
100
AcDbLine
 10
7.118110236220472
 20
8.059055118110235
 30
0.0
 11
7.101377952755905
 21
8.059055118110235
 31
0.0
  0
LINE
  5
498
330
1E
100
AcDbEntity
  8
7
100
AcDbLine
 10
7.101377952755905
 20
8.059055118110235
 30
0.0
 11
7.095472440944881
 21
8.059055118110235
 31
0.0
  0
LINE
  5
28D8
330
1E
100
AcDbEntity
  8
7
100
AcDbLine
 10
5.386811023622047
 20
7.359251968503937
 30
0.0
 11
5.389763779527558
 21
7.367125984251968
 31
0.0
  0
LINE
  5
28D9
330
1E
100
AcDbEntity
  8
7
100
AcDbLine
 10
5.318897637795275
 20
7.302165354330707
 30
0.0
 11
5.318897637795275
 21
7.247047244094487
 31
0.0
  0
LINE
  5
28DA
330
1E
100
AcDbEntity
  8
7
100
AcDbLine
 10
5.385826771653542
 20
7.302165354330707
 30
0.0
 11
5.318897637795275
 21
7.302165354330707
 31
0.0
  0
LINE
  5
28DB
330
1E
100
AcDbEntity
  8
7
100
AcDbLine
 10
5.385826771653542
 20
7.302165354330707
 30
0.0
 11
5.386811023622047
 21
7.359251968503937
 31
0.0
  0
LINE
  5
28DC
330
1E
100
AcDbEntity
  8
7
100
AcDbLine
 10
5.1751968503937
 20
7.247047244094487
 30
0.0
 11
5.318897637795275
 21
7.247047244094487
 31
0.0
  0
LINE
  5
28DD
330
1E
100
AcDbEntity
  8
7
100
AcDbLine
 10
5.393700787401574
 20
7.581692913385825
 30
0.0
 11
5.389763779527558
 21
7.367125984251968
 31
0.0
  0
LINE
  5
28E4
330
1E
100
AcDbEntity
  8
7
100
AcDbLine
 10
4.339566929133858
 20
7.884842519685038
 30
0.0
 11
4.351377952755905
 21
7.884842519685038
 31
0.0
  0
LINE
  5
28EA
330
1E
100
AcDbEntity
  8
7
100
AcDbLine
 10
5.173228346456692
 20
7.905511811023622
 30
0.0
 11
5.173228346456692
 21
7.884842519685038
 31
0.0
  0
LINE
  5
28EB
330
1E
100
AcDbEntity
  8
7
100
AcDbLine
 10
5.173228346456692
 20
7.905511811023622
 30
0.0
 11
4.973425196850393
 21
7.905511811023622
 31
0.0
  0
LINE
  5
28EC
330
1E
100
AcDbEntity
  8
7
100
AcDbLine
 10
4.974409448818897
 20
7.884842519685038
 30
0.0
 11
4.973425196850393
 21
7.905511811023622
 31
0.0
  0
LINE
  5
28F4
330
1E
100
AcDbEntity
  8
7
100
AcDbLine
 10
4.538385826771652
 20
7.905511811023622
 30
0.0
 11
4.537401574803149
 21
7.884842519685038
 31
0.0
  0
LINE
  5
28F5
330
1E
100
AcDbEntity
  8
7
100
AcDbLine
 10
4.538385826771652
 20
7.905511811023622
 30
0.0
 11
4.338582677165353
 21
7.905511811023622
 31
0.0
  0
LINE
  5
28F6
330
1E
100
AcDbEntity
  8
7
100
AcDbLine
 10
4.339566929133858
 20
7.884842519685038
 30
0.0
 11
4.338582677165353
 21
7.905511811023622
 31
0.0
  0
LINE
  5
28F7
330
1E
100
AcDbEntity
  8
7
100
AcDbLine
 10
4.351377952755905
 20
7.853346456692912
 30
0.0
 11
4.351377952755905
 21
7.884842519685038
 31
0.0
  0
LINE
  5
28F8
330
1E
100
AcDbEntity
  8
7
100
AcDbLine
 10
4.525590551181101
 20
7.853346456692912
 30
0.0
 11
4.351377952755905
 21
7.853346456692912
 31
0.0
  0
LINE
  5
28F9
330
1E
100
AcDbEntity
  8
7
100
AcDbLine
 10
4.525590551181101
 20
7.884842519685038
 30
0.0
 11
4.525590551181101
 21
7.853346456692912
 31
0.0
  0
LINE
  5
28FA
330
1E
100
AcDbEntity
  8
7
100
AcDbLine
 10
4.537401574803149
 20
7.884842519685038
 30
0.0
 11
4.525590551181101
 21
7.884842519685038
 31
0.0
  0
LINE
  5
28FB
330
1E
100
AcDbEntity
  8
7
100
AcDbLine
 10
4.118110236220472
 20
7.581692913385825
 30
0.0
 11
4.122047244094487
 21
7.367125984251968
 31
0.0
  0
LINE
  5
28FC
330
1E
100
AcDbEntity
  8
7
100
AcDbLine
 10
4.118110236220472
 20
7.581692913385825
 30
0.0
 11
4.114173228346456
 21
7.593503937007874
 31
0.0
  0
LINE
  5
28FD
330
1E
100
AcDbEntity
  8
7
100
AcDbLine
 10
4.118110236220472
 20
7.123031496062991
 30
0.0
 11
4.114173228346456
 21
7.593503937007874
 31
0.0
  0
LINE
  5
28FE
330
1E
100
AcDbEntity
  8
7
100
AcDbLine
 10
4.118110236220472
 20
7.123031496062991
 30
0.0
 11
4.124015748031495
 21
7.205708661417322
 31
0.0
  0
LINE
  5
28FF
330
1E
100
AcDbEntity
  8
7
100
AcDbLine
 10
4.123031496062991
 20
7.26279527559055
 30
0.0
 11
4.124015748031495
 21
7.205708661417322
 31
0.0
  0
LINE
  5
2906
330
1E
100
AcDbEntity
  8
7
100
AcDbLine
 10
4.125
 20
7.840551181102361
 30
0.0
 11
4.123031496062991
 21
7.593503937007874
 31
0.0
  0
LINE
  5
2907
330
1E
100
AcDbEntity
  8
7
100
AcDbLine
 10
4.330708661417322
 20
7.907480314960629
 30
0.0
 11
4.331692913385826
 21
7.840551181102361
 31
0.0
  0
LINE
  5
2908
330
1E
100
AcDbEntity
  8
7
100
AcDbLine
 10
4.546259842519684
 20
7.907480314960629
 30
0.0
 11
4.330708661417322
 21
7.907480314960629
 31
0.0
  0
LINE
  5
2909
330
1E
100
AcDbEntity
  8
7
100
AcDbLine
 10
4.546259842519684
 20
7.907480314960629
 30
0.0
 11
4.54527559055118
 21
7.840551181102361
 31
0.0
  0
LINE
  5
290A
330
1E
100
AcDbEntity
  8
7
100
AcDbLine
 10
4.966535433070865
 20
7.840551181102361
 30
0.0
 11
4.54527559055118
 21
7.840551181102361
 31
0.0
  0
LINE
  5
290B
330
1E
100
AcDbEntity
  8
7
100
AcDbLine
 10
4.965551181102362
 20
7.907480314960629
 30
0.0
 11
4.966535433070865
 21
7.840551181102361
 31
0.0
  0
LINE
  5
290C
330
1E
100
AcDbEntity
  8
7
100
AcDbLine
 10
5.182086614173227
 20
7.907480314960629
 30
0.0
 11
4.965551181102362
 21
7.907480314960629
 31
0.0
  0
LINE
  5
290D
330
1E
100
AcDbEntity
  8
7
100
AcDbLine
 10
5.182086614173227
 20
7.907480314960629
 30
0.0
 11
5.18011811023622
 21
7.840551181102361
 31
0.0
  0
LINE
  5
290E
330
1E
100
AcDbEntity
  8
7
100
AcDbLine
 10
5.386811023622047
 20
7.840551181102361
 30
0.0
 11
5.388779527559054
 21
7.593503937007874
 31
0.0
  0
LINE
  5
290F
330
1E
100
AcDbEntity
  8
7
100
AcDbLine
 10
5.397637795275589
 20
7.593503937007874
 30
0.0
 11
5.388779527559054
 21
7.593503937007874
 31
0.0
  0
LINE
  5
2910
330
1E
100
AcDbEntity
  8
7
100
AcDbLine
 10
5.397637795275589
 20
7.593503937007874
 30
0.0
 11
5.393700787401574
 21
7.123031496062991
 31
0.0
  0
LINE
  5
2911
330
1E
100
AcDbEntity
  8
7
100
AcDbLine
 10
4.118110236220472
 20
7.123031496062991
 30
0.0
 11
5.393700787401574
 21
7.123031496062991
 31
0.0
  0
LINE
  5
2912
330
1E
100
AcDbEntity
  8
7
100
AcDbLine
 10
4.114173228346456
 20
7.593503937007874
 30
0.0
 11
4.123031496062991
 21
7.593503937007874
 31
0.0
  0
LINE
  5
2951
330
1E
100
AcDbEntity
  8
7
100
AcDbLine
 10
5.397637795275589
 20
7.593503937007874
 30
0.0
 11
5.393700787401574
 21
7.581692913385825
 31
0.0
  0
LINE
  5
2952
330
1E
100
AcDbEntity
  8
7
100
AcDbLine
 10
5.388779527559054
 20
7.26279527559055
 30
0.0
 11
5.385826771653542
 21
7.302165354330707
 31
0.0
  0
LINE
  5
2953
330
1E
100
AcDbEntity
  8
7
100
AcDbLine
 10
5.388779527559054
 20
7.26279527559055
 30
0.0
 11
5.38779527559055
 21
7.205708661417322
 31
0.0
  0
LINE
  5
2954
330
1E
100
AcDbEntity
  8
7
100
AcDbLine
 10
5.393700787401574
 20
7.123031496062991
 30
0.0
 11
5.38779527559055
 21
7.205708661417322
 31
0.0
  0
LINE
  5
2955
330
1E
100
AcDbEntity
  8
7
100
AcDbLine
 10
4.979330708661416
 20
7.438976377952755
 30
0.0
 11
4.971456692913385
 21
7.247047244094487
 31
0.0
  0
LINE
  5
295D
330
1E
100
AcDbEntity
  8
7
100
AcDbLine
 10
4.540354330708661
 20
7.247047244094487
 30
0.0
 11
4.684055118110236
 21
7.247047244094487
 31
0.0
  0
LINE
  5
295E
330
1E
100
AcDbEntity
  8
7
100
AcDbLine
 10
4.532480314960629
 20
7.438976377952755
 30
0.0
 11
4.540354330708661
 21
7.247047244094487
 31
0.0
  0
LINE
  5
296F
330
1E
100
AcDbEntity
  8
7
100
AcDbLine
 10
5.168307086614173
 20
7.438976377952755
 30
0.0
 11
5.1751968503937
 21
7.247047244094487
 31
0.0
  0
LINE
  5
2970
330
1E
100
AcDbEntity
  8
7
100
AcDbLine
 10
5.168307086614173
 20
7.438976377952755
 30
0.0
 11
4.979330708661416
 21
7.438976377952755
 31
0.0
  0
LINE
  5
2971
330
1E
100
AcDbEntity
  8
7
100
AcDbLine
 10
5.168307086614173
 20
7.510826771653542
 30
0.0
 11
5.168307086614173
 21
7.501968503937007
 31
0.0
  0
LINE
  5
2972
330
1E
100
AcDbEntity
  8
7
100
AcDbLine
 10
5.168307086614173
 20
7.5
 30
0.0
 11
5.168307086614173
 21
7.501968503937007
 31
0.0
  0
LINE
  5
297B
330
1E
100
AcDbEntity
  8
7
100
AcDbLine
 10
5.173228346456692
 20
7.905511811023622
 30
0.0
 11
5.182086614173227
 21
7.907480314960629
 31
0.0
  0
LINE
  5
297C
330
1E
100
AcDbEntity
  8
7
100
AcDbLine
 10
4.973425196850393
 20
7.905511811023622
 30
0.0
 11
4.965551181102362
 21
7.907480314960629
 31
0.0
  0
LINE
  5
297D
330
1E
100
AcDbEntity
  8
7
100
AcDbLine
 10
4.538385826771652
 20
7.905511811023622
 30
0.0
 11
4.546259842519684
 21
7.907480314960629
 31
0.0
  0
LINE
  5
297E
330
1E
100
AcDbEntity
  8
7
100
AcDbLine
 10
4.338582677165353
 20
7.905511811023622
 30
0.0
 11
4.330708661417322
 21
7.907480314960629
 31
0.0
  0
LINE
  5
2992
330
1E
100
AcDbEntity
  8
7
100
AcDbLine
 10
5.74015748031496
 20
6.780511811023621
 30
0.0
 11
5.74015748031496
 21
8.490157480314961
 31
0.0
  0
LINE
  5
299F
330
1E
100
AcDbEntity
  8
7
100
AcDbLine
 10
3.901574803149605
 20
6.650590551181101
 30
0.0
 11
5.61023622047244
 21
6.650590551181101
 31
0.0
  0
LINE
  5
29A9
330
1E
100
AcDbEntity
  8
7
100
AcDbLine
 10
3.771653543307086
 20
8.490157480314961
 30
0.0
 11
3.771653543307086
 21
6.780511811023621
 31
0.0
  0
LINE
  5
29B3
330
1E
100
AcDbEntity
  8
7
100
AcDbLine
 10
5.446850393700787
 20
8.561023622047244
 30
0.0
 11
4.065944881889763
 21
8.561023622047244
 31
0.0
  0
LINE
  5
29B4
330
1E
100
AcDbEntity
  8
7
100
AcDbLine
 10
5.478346456692912
 20
8.529527559055118
 30
0.0
 11
5.473425196850393
 21
8.545275590551181
 31
0.0
  0
LINE
  5
29BA
330
1E
100
AcDbEntity
  8
7
100
AcDbLine
 10
5.478346456692912
 20
8.284448818897637
 30
0.0
 11
5.478346456692912
 21
8.529527559055118
 31
0.0
  0
LINE
  5
29C1
330
1E
100
AcDbEntity
  8
7
100
AcDbLine
 10
4.065944881889763
 20
8.252952755905511
 30
0.0
 11
5.446850393700787
 21
8.252952755905511
 31
0.0
  0
LINE
  5
29C8
330
1E
100
AcDbEntity
  8
7
100
AcDbLine
 10
4.034448818897637
 20
8.529527559055118
 30
0.0
 11
4.034448818897637
 21
8.284448818897637
 31
0.0
  0
LINE
  5
29CF
330
1E
100
AcDbEntity
  8
7
100
AcDbLine
 10
3.913385826771652
 20
8.595472440944881
 30
0.0
 11
3.885826771653542
 21
8.591535433070866
 31
0.0
  0
LINE
  5
29EB
330
1E
100
AcDbEntity
  8
7
100
AcDbLine
 10
4.089566929133858
 20
8.252952755905511
 30
0.0
 11
4.089566929133858
 21
8.561023622047244
 31
0.0
  0
LINE
  5
29F7
330
1E
100
AcDbEntity
  8
7
100
AcDbLine
 10
5.422244094488188
 20
8.561023622047244
 30
0.0
 11
5.422244094488188
 21
8.252952755905511
 31
0.0
  0
LINE
  5
2A0C
330
1E
100
AcDbEntity
  8
7
100
AcDbLine
 10
4.834645669291337
 20
8.276574803149605
 30
0.0
 11
4.677165354330708
 21
8.276574803149605
 31
0.0
  0
LINE
  5
2A21
330
1E
100
AcDbEntity
  8
7
100
AcDbLine
 10
4.834645669291337
 20
8.534448818897637
 30
0.0
 11
4.677165354330708
 21
8.534448818897637
 31
0.0
  0
LINE
  5
2A22
330
1E
100
AcDbEntity
  8
7
100
AcDbLine
 10
4.537401574803149
 20
7.884842519685038
 30
0.0
 11
4.54527559055118
 21
7.840551181102361
 31
0.0
  0
LINE
  5
2A23
330
1E
100
AcDbEntity
  8
7
100
AcDbLine
 10
4.974409448818897
 20
7.884842519685038
 30
0.0
 11
4.966535433070865
 21
7.840551181102361
 31
0.0
  0
LINE
  5
2A24
330
1E
100
AcDbEntity
  8
7
100
AcDbLine
 10
4.677165354330708
 20
8.479330708661416
 30
0.0
 11
4.834645669291337
 21
8.479330708661416
 31
0.0
  0
LINE
  5
2A34
330
1E
100
AcDbEntity
  8
7
100
AcDbLine
 10
4.834645669291337
 20
8.333661417322835
 30
0.0
 11
4.677165354330708
 21
8.333661417322835
 31
0.0
  0
LINE
  5
2A55
330
1E
100
AcDbEntity
  8
7
100
AcDbLine
 10
4.834645669291337
 20
8.51771653543307
 30
0.0
 11
4.677165354330708
 21
8.51771653543307
 31
0.0
  0
LINE
  5
2A67
330
1E
100
AcDbEntity
  8
7
100
AcDbLine
 10
4.677165354330708
 20
8.296259842519685
 30
0.0
 11
4.834645669291337
 21
8.296259842519685
 31
0.0
  0
LINE
  5
2A77
330
1E
100
AcDbEntity
  8
7
100
AcDbLine
 10
4.834645669291337
 20
8.281496062992125
 30
0.0
 11
4.834645669291337
 21
8.276574803149605
 31
0.0
  0
LINE
  5
2A78
330
1E
100
AcDbEntity
  8
7
100
AcDbLine
 10
4.834645669291337
 20
8.532480314960629
 30
0.0
 11
4.834645669291337
 21
8.534448818897637
 31
0.0
  0
LINE
  5
2A83
330
1E
100
AcDbEntity
  8
7
100
AcDbLine
 10
4.677165354330708
 20
8.281496062992125
 30
0.0
 11
4.677165354330708
 21
8.276574803149605
 31
0.0
  0
LINE
  5
2A93
330
1E
100
AcDbEntity
  8
7
100
AcDbLine
 10
4.677165354330708
 20
8.532480314960629
 30
0.0
 11
4.677165354330708
 21
8.534448818897637
 31
0.0
  0
LINE
  5
2A94
330
1E
100
AcDbEntity
  8
7
100
AcDbLine
 10
4.622047244094487
 20
8.454724409448818
 30
0.0
 11
4.889763779527558
 21
8.454724409448818
 31
0.0
  0
LINE
  5
2A95
330
1E
100
AcDbEntity
  8
7
100
AcDbLine
 10
4.834645669291337
 20
8.281496062992125
 30
0.0
 11
4.677165354330708
 21
8.281496062992125
 31
0.0
  0
LINE
  5
2A96
330
1E
100
AcDbEntity
  8
7
100
AcDbLine
 10
4.677165354330708
 20
8.532480314960629
 30
0.0
 11
4.834645669291337
 21
8.532480314960629
 31
0.0
  0
LINE
  5
2A97
330
1E
100
AcDbEntity
  8
7
100
AcDbLine
 10
4.622047244094487
 20
8.359251968503937
 30
0.0
 11
4.889763779527558
 21
8.359251968503937
 31
0.0
  0
LINE
  5
2ACD
330
1E
100
AcDbEntity
  8
7
100
AcDbLine
 10
5.683070866141731
 20
8.059055118110235
 30
0.0
 11
3.829724409448818
 21
8.059055118110235
 31
0.0
  0
LINE
  5
2AD3
330
1E
100
AcDbEntity
  8
7
100
AcDbLine
 10
3.829724409448818
 20
8.013779527559055
 30
0.0
 11
5.683070866141731
 21
8.013779527559055
 31
0.0
  0
LINE
  5
2ADE
330
1E
100
AcDbEntity
  8
7
100
AcDbLine
 10
3.829724409448818
 20
8.059055118110235
 30
0.0
 11
3.829724409448818
 21
8.013779527559055
 31
0.0
  0
LINE
  5
2ADF
330
1E
100
AcDbEntity
  8
7
100
AcDbLine
 10
5.683070866141731
 20
8.013779527559055
 30
0.0
 11
5.683070866141731
 21
8.059055118110235
 31
0.0
  0
LINE
  5
2AE0
330
1E
100
AcDbEntity
  8
7
100
AcDbLine
 10
4.685039370078739
 20
7.26279527559055
 30
0.0
 11
4.826771653543306
 21
7.26279527559055
 31
0.0
  0
LINE
  5
2AE1
330
1E
100
AcDbEntity
  8
7
100
AcDbLine
 10
4.828740157480314
 20
7.302165354330707
 30
0.0
 11
4.826771653543306
 21
7.26279527559055
 31
0.0
  0
LINE
  5
2AE7
330
1E
100
AcDbEntity
  8
7
100
AcDbLine
 10
4.828740157480314
 20
7.247047244094487
 30
0.0
 11
4.828740157480314
 21
7.302165354330707
 31
0.0
  0
LINE
  5
2AE8
330
1E
100
AcDbEntity
  8
7
100
AcDbLine
 10
4.684055118110236
 20
7.302165354330707
 30
0.0
 11
4.684055118110236
 21
7.247047244094487
 31
0.0
  0
LINE
  5
2AEE
330
1E
100
AcDbEntity
  8
7
100
AcDbLine
 10
4.191929133858267
 20
7.205708661417322
 30
0.0
 11
4.191929133858267
 21
7.26279527559055
 31
0.0
  0
LINE
  5
2AEF
330
1E
100
AcDbEntity
  8
7
100
AcDbLine
 10
4.685039370078739
 20
7.205708661417322
 30
0.0
 11
4.685039370078739
 21
7.26279527559055
 31
0.0
  0
LINE
  5
2AF0
330
1E
100
AcDbEntity
  8
7
100
AcDbLine
 10
4.826771653543306
 20
7.26279527559055
 30
0.0
 11
4.826771653543306
 21
7.205708661417322
 31
0.0
  0
LINE
  5
2AF1
330
1E
100
AcDbEntity
  8
7
100
AcDbLine
 10
5.318897637795275
 20
7.302165354330707
 30
0.0
 11
5.319881889763779
 21
7.26279527559055
 31
0.0
  0
LINE
  5
2AFC
330
1E
100
AcDbEntity
  8
7
100
AcDbLine
 10
5.167322834645668
 20
7.452755905511811
 30
0.0
 11
4.979330708661416
 21
7.452755905511811
 31
0.0
  0
LINE
  5
2AFD
330
1E
100
AcDbEntity
  8
7
100
AcDbLine
 10
4.979330708661416
 20
7.476377952755905
 30
0.0
 11
4.979330708661416
 21
7.452755905511811
 31
0.0
  0
LINE
  5
2AFE
330
1E
100
AcDbEntity
  8
7
100
AcDbLine
 10
5.167322834645668
 20
7.476377952755905
 30
0.0
 11
4.979330708661416
 21
7.476377952755905
 31
0.0
  0
LINE
  5
2B04
330
1E
100
AcDbEntity
  8
7
100
AcDbLine
 10
5.168307086614173
 20
7.5
 30
0.0
 11
4.979330708661416
 21
7.5
 31
0.0
  0
LINE
  5
2B05
330
1E
100
AcDbEntity
  8
7
100
AcDbLine
 10
5.168307086614173
 20
7.501968503937007
 30
0.0
 11
4.979330708661416
 21
7.501968503937007
 31
0.0
  0
LINE
  5
2B06
330
1E
100
AcDbEntity
  8
7
100
AcDbLine
 10
4.979330708661416
 20
7.5
 30
0.0
 11
4.979330708661416
 21
7.501968503937007
 31
0.0
  0
LINE
  5
2B07
330
1E
100
AcDbEntity
  8
7
100
AcDbLine
 10
4.979330708661416
 20
7.510826771653542
 30
0.0
 11
4.979330708661416
 21
7.501968503937007
 31
0.0
  0
LINE
  5
2B08
330
1E
100
AcDbEntity
  8
7
100
AcDbLine
 10
4.979330708661416
 20
7.510826771653542
 30
0.0
 11
5.168307086614173
 21
7.510826771653542
 31
0.0
  0
LINE
  5
2B09
330
1E
100
AcDbEntity
  8
7
100
AcDbLine
 10
4.344488188976377
 20
7.510826771653542
 30
0.0
 11
4.533464566929133
 21
7.510826771653542
 31
0.0
  0
LINE
  5
2B0A
330
1E
100
AcDbEntity
  8
7
100
AcDbLine
 10
4.344488188976377
 20
7.510826771653542
 30
0.0
 11
4.344488188976377
 21
7.501968503937007
 31
0.0
  0
LINE
  5
2B0B
330
1E
100
AcDbEntity
  8
7
100
AcDbLine
 10
4.533464566929133
 20
7.501968503937007
 30
0.0
 11
4.344488188976377
 21
7.501968503937007
 31
0.0
  0
LINE
  5
2B0C
330
1E
100
AcDbEntity
  8
7
100
AcDbLine
 10
4.533464566929133
 20
7.510826771653542
 30
0.0
 11
4.533464566929133
 21
7.501968503937007
 31
0.0
  0
LINE
  5
2B0D
330
1E
100
AcDbEntity
  8
7
100
AcDbLine
 10
4.532480314960629
 20
7.5
 30
0.0
 11
4.344488188976377
 21
7.5
 31
0.0
  0
LINE
  5
2B0E
330
1E
100
AcDbEntity
  8
7
100
AcDbLine
 10
4.532480314960629
 20
7.5
 30
0.0
 11
4.533464566929133
 21
7.501968503937007
 31
0.0
  0
LINE
  5
2B0F
330
1E
100
AcDbEntity
  8
7
100
AcDbLine
 10
4.344488188976377
 20
7.5
 30
0.0
 11
4.344488188976377
 21
7.501968503937007
 31
0.0
  0
LINE
  5
2B15
330
1E
100
AcDbEntity
  8
7
100
AcDbLine
 10
4.532480314960629
 20
7.476377952755905
 30
0.0
 11
4.344488188976377
 21
7.476377952755905
 31
0.0
  0
LINE
  5
2B1B
330
1E
100
AcDbEntity
  8
7
100
AcDbLine
 10
4.344488188976377
 20
7.476377952755905
 30
0.0
 11
4.344488188976377
 21
7.452755905511811
 31
0.0
  0
LINE
  5
2B1C
330
1E
100
AcDbEntity
  8
7
100
AcDbLine
 10
4.532480314960629
 20
7.452755905511811
 30
0.0
 11
4.344488188976377
 21
7.452755905511811
 31
0.0
  0
LINE
  5
2B1D
330
1E
100
AcDbEntity
  8
7
100
AcDbLine
 10
4.532480314960629
 20
7.476377952755905
 30
0.0
 11
4.532480314960629
 21
7.452755905511811
 31
0.0
  0
LINE
  5
2B28
330
1E
100
AcDbEntity
  8
7
100
AcDbLine
 10
4.69783464566929
 20
6.827755905511811
 30
0.0
 11
4.814960629921259
 21
6.827755905511811
 31
0.0
  0
LINE
  5
2B29
330
1E
100
AcDbEntity
  8
7
100
AcDbLine
 10
4.69783464566929
 20
6.914370078740157
 30
0.0
 11
4.814960629921259
 21
6.914370078740157
 31
0.0
  0
LINE
  5
2B2A
330
1E
100
AcDbEntity
  8
7
100
AcDbLine
 10
4.683070866141731
 20
6.871062992125984
 30
0.0
 11
4.687007874015747
 21
6.846456692913385
 31
0.0
  0
LINE
  5
2B5D
330
1E
100
AcDbEntity
  8
7
100
AcDbLine
 10
3.785433070866141
 20
6.755905511811023
 30
0.0
 11
3.781496062992125
 21
6.790354330708661
 31
0.0
  0
LINE
  5
2B6D
330
1E
100
AcDbEntity
  8
7
100
AcDbLine
 10
3.913385826771652
 20
8.595472440944881
 30
0.0
 11
3.913385826771652
 21
8.604330708661416
 31
0.0
  0
LINE
  5
2B6E
330
1E
100
AcDbEntity
  8
7
100
AcDbLine
 10
3.913385826771652
 20
8.604330708661416
 30
0.0
 11
3.913385826771652
 21
8.608267716535433
 31
0.0
  0
LINE
  5
2BB5
330
1E
100
AcDbEntity
  8
7
100
AcDbLine
 10
5.388779527559054
 20
7.593503937007874
 30
0.0
 11
5.393700787401574
 21
7.581692913385825
 31
0.0
  0
LINE
  5
2BB6
330
1E
100
AcDbEntity
  8
7
100
AcDbLine
 10
4.118110236220472
 20
7.581692913385825
 30
0.0
 11
4.123031496062991
 21
7.593503937007874
 31
0.0
  0
LINE
  5
2BBE
330
1E
100
AcDbEntity
  8
7
100
AcDbLine
 10
5.602362204724409
 20
6.658464566929133
 30
0.0
 11
5.602362204724409
 21
6.664370078740157
 31
0.0
  0
LINE
  5
2BBF
330
1E
100
AcDbEntity
  8
7
100
AcDbLine
 10
5.602362204724409
 20
6.664370078740157
 30
0.0
 11
5.602362204724409
 21
6.677165354330708
 31
0.0
  0
LINE
  5
2BC0
330
1E
100
AcDbEntity
  8
7
100
AcDbLine
 10
3.909448818897637
 20
6.677165354330708
 30
0.0
 11
3.909448818897637
 21
6.664370078740157
 31
0.0
  0
LINE
  5
2BC1
330
1E
100
AcDbEntity
  8
7
100
AcDbLine
 10
3.909448818897637
 20
6.664370078740157
 30
0.0
 11
3.909448818897637
 21
6.658464566929133
 31
0.0
  0
LINE
  5
2BC2
330
1E
100
AcDbEntity
  8
7
100
AcDbLine
 10
5.730314960629921
 20
6.790354330708661
 30
0.0
 11
5.722440944881889
 21
6.786417322834645
 31
0.0
  0
LINE
  5
2BC3
330
1E
100
AcDbEntity
  8
7
100
AcDbLine
 10
5.722440944881889
 20
6.786417322834645
 30
0.0
 11
5.705708661417322
 21
6.784448818897637
 31
0.0
  0
LINE
  5
2BC4
330
1E
100
AcDbEntity
  8
7
100
AcDbLine
 10
3.807086614173227
 20
6.784448818897637
 30
0.0
 11
3.789370078740157
 21
6.786417322834645
 31
0.0
  0
LINE
  5
2BC5
330
1E
100
AcDbEntity
  8
7
100
AcDbLine
 10
3.789370078740157
 20
6.786417322834645
 30
0.0
 11
3.781496062992125
 21
6.790354330708661
 31
0.0
  0
LINE
  5
2BC6
330
1E
100
AcDbEntity
  8
7
100
AcDbLine
 10
5.70767716535433
 20
8.013779527559055
 30
0.0
 11
5.699803149606299
 21
8.009842519685038
 31
0.0
  0
LINE
  5
2BC7
330
1E
100
AcDbEntity
  8
7
100
AcDbLine
 10
5.699803149606299
 20
8.009842519685038
 30
0.0
 11
5.683070866141731
 21
8.006889763779527
 31
0.0
  0
LINE
  5
2BC8
330
1E
100
AcDbEntity
  8
7
100
AcDbLine
 10
3.829724409448818
 20
8.006889763779527
 30
0.0
 11
3.812007874015748
 21
8.009842519685038
 31
0.0
  0
LINE
  5
2BC9
330
1E
100
AcDbEntity
  8
7
100
AcDbLine
 10
3.812007874015748
 20
8.009842519685038
 30
0.0
 11
3.804133858267715
 21
8.013779527559055
 31
0.0
  0
LINE
  5
2BCA
330
1E
100
AcDbEntity
  8
7
100
AcDbLine
 10
5.70767716535433
 20
8.013779527559055
 30
0.0
 11
5.699803149606299
 21
8.013779527559055
 31
0.0
  0
LINE
  5
2BCB
330
1E
100
AcDbEntity
  8
7
100
AcDbLine
 10
5.699803149606299
 20
8.013779527559055
 30
0.0
 11
5.683070866141731
 21
8.013779527559055
 31
0.0
  0
LINE
  5
2BCC
330
1E
100
AcDbEntity
  8
7
100
AcDbLine
 10
3.829724409448818
 20
8.013779527559055
 30
0.0
 11
3.812007874015748
 21
8.013779527559055
 31
0.0
  0
LINE
  5
2BCD
330
1E
100
AcDbEntity
  8
7
100
AcDbLine
 10
3.812007874015748
 20
8.013779527559055
 30
0.0
 11
3.804133858267715
 21
8.013779527559055
 31
0.0
  0
LINE
  5
2BCE
330
1E
100
AcDbEntity
  8
7
100
AcDbLine
 10
5.70767716535433
 20
8.059055118110235
 30
0.0
 11
5.699803149606299
 21
8.059055118110235
 31
0.0
  0
LINE
  5
2BCF
330
1E
100
AcDbEntity
  8
7
100
AcDbLine
 10
5.699803149606299
 20
8.059055118110235
 30
0.0
 11
5.683070866141731
 21
8.059055118110235
 31
0.0
  0
LINE
  5
2BD0
330
1E
100
AcDbEntity
  8
7
100
AcDbLine
 10
3.829724409448818
 20
8.059055118110235
 30
0.0
 11
3.812007874015748
 21
8.059055118110235
 31
0.0
  0
LINE
  5
2BD1
330
1E
100
AcDbEntity
  8
7
100
AcDbLine
 10
3.812007874015748
 20
8.059055118110235
 30
0.0
 11
3.804133858267715
 21
8.059055118110235
 31
0.0
  0
LINE
  5
2BD2
330
1E
100
AcDbEntity
  8
7
100
AcDbLine
 10
5.70767716535433
 20
8.059055118110235
 30
0.0
 11
5.699803149606299
 21
8.06791338582677
 31
0.0
  0
LINE
  5
2BD3
330
1E
100
AcDbEntity
  8
7
100
AcDbLine
 10
5.699803149606299
 20
8.06791338582677
 30
0.0
 11
5.683070866141731
 21
8.071850393700787
 31
0.0
  0
LINE
  5
2BD4
330
1E
100
AcDbEntity
  8
7
100
AcDbLine
 10
3.829724409448818
 20
8.071850393700787
 30
0.0
 11
3.812007874015748
 21
8.06791338582677
 31
0.0
  0
LINE
  5
2BD5
330
1E
100
AcDbEntity
  8
7
100
AcDbLine
 10
3.812007874015748
 20
8.06791338582677
 30
0.0
 11
3.804133858267715
 21
8.059055118110235
 31
0.0
  0
LINE
  5
2BD6
330
1E
100
AcDbEntity
  8
7
100
AcDbLine
 10
5.724409448818897
 20
8.473425196850392
 30
0.0
 11
5.716535433070865
 21
8.482283464566929
 31
0.0
  0
LINE
  5
2BD7
330
1E
100
AcDbEntity
  8
7
100
AcDbLine
 10
5.716535433070865
 20
8.482283464566929
 30
0.0
 11
5.699803149606299
 21
8.486220472440944
 31
0.0
  0
LINE
  5
2BD8
330
1E
100
AcDbEntity
  8
7
100
AcDbLine
 10
3.812992125984251
 20
8.486220472440944
 30
0.0
 11
3.79527559055118
 21
8.482283464566929
 31
0.0
  0
LINE
  5
2BD9
330
1E
100
AcDbEntity
  8
7
100
AcDbLine
 10
3.79527559055118
 20
8.482283464566929
 30
0.0
 11
3.787401574803149
 21
8.473425196850392
 31
0.0
  0
LINE
  5
2BDA
330
1E
100
AcDbEntity
  8
7
100
AcDbLine
 10
5.599409448818897
 20
8.608267716535433
 30
0.0
 11
5.599409448818897
 21
8.604330708661416
 31
0.0
  0
LINE
  5
2BDB
330
1E
100
AcDbEntity
  8
7
100
AcDbLine
 10
5.599409448818897
 20
8.604330708661416
 30
0.0
 11
5.599409448818897
 21
8.595472440944881
 31
0.0
  0
LINE
  5
2BDC
330
1E
100
AcDbEntity
  8
7
100
AcDbLine
 10
3.787401574803149
 20
8.473425196850392
 30
0.0
 11
3.790354330708661
 21
8.503937007874014
 31
0.0
  0
LINE
  5
2BDD
330
1E
100
AcDbEntity
  8
7
100
AcDbLine
 10
3.790354330708661
 20
8.503937007874014
 30
0.0
 11
3.799212598425196
 21
8.531496062992125
 31
0.0
  0
LINE
  5
2BDE
330
1E
100
AcDbEntity
  8
7
100
AcDbLine
 10
3.799212598425196
 20
8.531496062992125
 30
0.0
 11
3.812992125984251
 21
8.557086614173227
 31
0.0
  0
LINE
  5
2BDF
330
1E
100
AcDbEntity
  8
7
100
AcDbLine
 10
3.812992125984251
 20
8.557086614173227
 30
0.0
 11
3.833661417322834
 21
8.578740157480314
 31
0.0
  0
LINE
  5
2BE0
330
1E
100
AcDbEntity
  8
7
100
AcDbLine
 10
3.833661417322834
 20
8.578740157480314
 30
0.0
 11
3.857283464566928
 21
8.594488188976377
 31
0.0
  0
LINE
  5
2BE1
330
1E
100
AcDbEntity
  8
7
100
AcDbLine
 10
3.857283464566928
 20
8.594488188976377
 30
0.0
 11
3.884842519685038
 21
8.604330708661416
 31
0.0
  0
LINE
  5
2BE2
330
1E
100
AcDbEntity
  8
7
100
AcDbLine
 10
3.884842519685038
 20
8.604330708661416
 30
0.0
 11
3.913385826771652
 21
8.608267716535433
 31
0.0
  0
LINE
  5
2BE3
330
1E
100
AcDbEntity
  8
7
100
AcDbLine
 10
3.909448818897637
 20
6.658464566929133
 30
0.0
 11
3.875984251968503
 21
6.663385826771652
 31
0.0
  0
LINE
  5
2BE4
330
1E
100
AcDbEntity
  8
7
100
AcDbLine
 10
3.875984251968503
 20
6.663385826771652
 30
0.0
 11
3.844488188976377
 21
6.676181102362204
 31
0.0
  0
LINE
  5
2BE5
330
1E
100
AcDbEntity
  8
7
100
AcDbLine
 10
3.844488188976377
 20
6.676181102362204
 30
0.0
 11
3.817913385826771
 21
6.69783464566929
 31
0.0
  0
LINE
  5
2BE6
330
1E
100
AcDbEntity
  8
7
100
AcDbLine
 10
3.817913385826771
 20
6.69783464566929
 30
0.0
 11
3.798228346456692
 21
6.724409448818897
 31
0.0
  0
LINE
  5
2BE7
330
1E
100
AcDbEntity
  8
7
100
AcDbLine
 10
3.798228346456692
 20
6.724409448818897
 30
0.0
 11
3.785433070866141
 21
6.755905511811023
 31
0.0
  0
LINE
  5
2BE8
330
1E
100
AcDbEntity
  8
7
100
AcDbLine
 10
5.730314960629921
 20
6.790354330708661
 30
0.0
 11
5.726377952755905
 21
6.755905511811023
 31
0.0
  0
LINE
  5
2BE9
330
1E
100
AcDbEntity
  8
7
100
AcDbLine
 10
5.726377952755905
 20
6.755905511811023
 30
0.0
 11
5.713582677165353
 21
6.724409448818897
 31
0.0
  0
LINE
  5
2BEA
330
1E
100
AcDbEntity
  8
7
100
AcDbLine
 10
5.713582677165353
 20
6.724409448818897
 30
0.0
 11
5.693897637795275
 21
6.69783464566929
 31
0.0
  0
LINE
  5
2BEB
330
1E
100
AcDbEntity
  8
7
100
AcDbLine
 10
5.693897637795275
 20
6.69783464566929
 30
0.0
 11
5.667322834645668
 21
6.676181102362204
 31
0.0
  0
LINE
  5
2BEC
330
1E
100
AcDbEntity
  8
7
100
AcDbLine
 10
5.667322834645668
 20
6.676181102362204
 30
0.0
 11
5.635826771653542
 21
6.663385826771652
 31
0.0
  0
LINE
  5
2BED
330
1E
100
AcDbEntity
  8
7
100
AcDbLine
 10
5.635826771653542
 20
6.663385826771652
 30
0.0
 11
5.602362204724409
 21
6.658464566929133
 31
0.0
  0
LINE
  5
2BEE
330
1E
100
AcDbEntity
  8
7
100
AcDbLine
 10
5.599409448818897
 20
8.608267716535433
 30
0.0
 11
5.627952755905511
 21
8.604330708661416
 31
0.0
  0
LINE
  5
2BEF
330
1E
100
AcDbEntity
  8
7
100
AcDbLine
 10
5.627952755905511
 20
8.604330708661416
 30
0.0
 11
5.654527559055117
 21
8.594488188976377
 31
0.0
  0
LINE
  5
2BF0
330
1E
100
AcDbEntity
  8
7
100
AcDbLine
 10
5.654527559055117
 20
8.594488188976377
 30
0.0
 11
5.679133858267715
 21
8.578740157480314
 31
0.0
  0
LINE
  5
2BF1
330
1E
100
AcDbEntity
  8
7
100
AcDbLine
 10
5.679133858267715
 20
8.578740157480314
 30
0.0
 11
5.698818897637795
 21
8.557086614173227
 31
0.0
  0
LINE
  5
2BF2
330
1E
100
AcDbEntity
  8
7
100
AcDbLine
 10
5.698818897637795
 20
8.557086614173227
 30
0.0
 11
5.713582677165353
 21
8.531496062992125
 31
0.0
  0
LINE
  5
2BF3
330
1E
100
AcDbEntity
  8
7
100
AcDbLine
 10
5.713582677165353
 20
8.531496062992125
 30
0.0
 11
5.722440944881889
 21
8.503937007874014
 31
0.0
  0
LINE
  5
2BF4
330
1E
100
AcDbEntity
  8
7
100
AcDbLine
 10
5.722440944881889
 20
8.503937007874014
 30
0.0
 11
5.724409448818897
 21
8.473425196850392
 31
0.0
  0
LINE
  5
2BF5
330
1E
100
AcDbEntity
  8
7
100
AcDbLine
 10
4.699803149606299
 20
6.918307086614173
 30
0.0
 11
4.687007874015747
 21
6.895669291338582
 31
0.0
  0
LINE
  5
2BF6
330
1E
100
AcDbEntity
  8
7
100
AcDbLine
 10
4.687007874015747
 20
6.895669291338582
 30
0.0
 11
4.683070866141731
 21
6.871062992125984
 31
0.0
  0
LINE
  5
2BF7
330
1E
100
AcDbEntity
  8
7
100
AcDbLine
 10
4.687007874015747
 20
6.846456692913385
 30
0.0
 11
4.699803149606299
 21
6.823818897637795
 31
0.0
  0
LINE
  5
2BF8
330
1E
100
AcDbEntity
  8
7
100
AcDbLine
 10
4.699803149606299
 20
6.823818897637795
 30
0.0
 11
4.719488188976377
 21
6.808070866141731
 31
0.0
  0
LINE
  5
2BF9
330
1E
100
AcDbEntity
  8
7
100
AcDbLine
 10
4.719488188976377
 20
6.808070866141731
 30
0.0
 11
4.743110236220472
 21
6.799212598425196
 31
0.0
  0
LINE
  5
2BFA
330
1E
100
AcDbEntity
  8
7
100
AcDbLine
 10
4.743110236220472
 20
6.799212598425196
 30
0.0
 11
4.768700787401574
 21
6.799212598425196
 31
0.0
  0
LINE
  5
2BFB
330
1E
100
AcDbEntity
  8
7
100
AcDbLine
 10
4.768700787401574
 20
6.799212598425196
 30
0.0
 11
4.792322834645668
 21
6.808070866141731
 31
0.0
  0
LINE
  5
2BFC
330
1E
100
AcDbEntity
  8
7
100
AcDbLine
 10
4.792322834645668
 20
6.808070866141731
 30
0.0
 11
4.812007874015747
 21
6.823818897637795
 31
0.0
  0
LINE
  5
2BFD
330
1E
100
AcDbEntity
  8
7
100
AcDbLine
 10
4.812007874015747
 20
6.823818897637795
 30
0.0
 11
4.824803149606299
 21
6.846456692913385
 31
0.0
  0
LINE
  5
2BFE
330
1E
100
AcDbEntity
  8
7
100
AcDbLine
 10
4.824803149606299
 20
6.846456692913385
 30
0.0
 11
4.828740157480314
 21
6.871062992125984
 31
0.0
  0
LINE
  5
2BFF
330
1E
100
AcDbEntity
  8
7
100
AcDbLine
 10
4.828740157480314
 20
6.871062992125984
 30
0.0
 11
4.824803149606299
 21
6.895669291338582
 31
0.0
  0
LINE
  5
2C00
330
1E
100
AcDbEntity
  8
7
100
AcDbLine
 10
4.824803149606299
 20
6.895669291338582
 30
0.0
 11
4.812007874015747
 21
6.918307086614173
 31
0.0
  0
LINE
  5
2C01
330
1E
100
AcDbEntity
  8
7
100
AcDbLine
 10
4.812007874015747
 20
6.918307086614173
 30
0.0
 11
4.792322834645668
 21
6.934055118110236
 31
0.0
  0
LINE
  5
2C02
330
1E
100
AcDbEntity
  8
7
100
AcDbLine
 10
4.792322834645668
 20
6.934055118110236
 30
0.0
 11
4.768700787401574
 21
6.942913385826771
 31
0.0
  0
LINE
  5
2C03
330
1E
100
AcDbEntity
  8
7
100
AcDbLine
 10
4.768700787401574
 20
6.942913385826771
 30
0.0
 11
4.743110236220472
 21
6.942913385826771
 31
0.0
  0
LINE
  5
2C04
330
1E
100
AcDbEntity
  8
7
100
AcDbLine
 10
4.743110236220472
 20
6.942913385826771
 30
0.0
 11
4.719488188976377
 21
6.934055118110236
 31
0.0
  0
LINE
  5
2C05
330
1E
100
AcDbEntity
  8
7
100
AcDbLine
 10
4.719488188976377
 20
6.934055118110236
 30
0.0
 11
4.699803149606299
 21
6.918307086614173
 31
0.0
  0
LINE
  5
2C06
330
1E
100
AcDbEntity
  8
7
100
AcDbLine
 10
4.532480314960629
 20
7.452755905511811
 30
0.0
 11
4.532480314960629
 21
7.444881889763779
 31
0.0
  0
LINE
  5
2C07
330
1E
100
AcDbEntity
  8
7
100
AcDbLine
 10
4.532480314960629
 20
7.444881889763779
 30
0.0
 11
4.532480314960629
 21
7.438976377952755
 31
0.0
  0
LINE
  5
2C08
330
1E
100
AcDbEntity
  8
7
100
AcDbLine
 10
4.344488188976377
 20
7.452755905511811
 30
0.0
 11
4.344488188976377
 21
7.444881889763779
 31
0.0
  0
LINE
  5
2C09
330
1E
100
AcDbEntity
  8
7
100
AcDbLine
 10
4.344488188976377
 20
7.444881889763779
 30
0.0
 11
4.344488188976377
 21
7.438976377952755
 31
0.0
  0
LINE
  5
2C0A
330
1E
100
AcDbEntity
  8
7
100
AcDbLine
 10
4.532480314960629
 20
7.5
 30
0.0
 11
4.532480314960629
 21
7.490157480314961
 31
0.0
  0
LINE
  5
2C0B
330
1E
100
AcDbEntity
  8
7
100
AcDbLine
 10
4.532480314960629
 20
7.490157480314961
 30
0.0
 11
4.532480314960629
 21
7.476377952755905
 31
0.0
  0
LINE
  5
2C0C
330
1E
100
AcDbEntity
  8
7
100
AcDbLine
 10
4.344488188976377
 20
7.5
 30
0.0
 11
4.344488188976377
 21
7.490157480314961
 31
0.0
  0
LINE
  5
2C0D
330
1E
100
AcDbEntity
  8
7
100
AcDbLine
 10
4.344488188976377
 20
7.490157480314961
 30
0.0
 11
4.344488188976377
 21
7.476377952755905
 31
0.0
  0
LINE
  5
2C0E
330
1E
100
AcDbEntity
  8
7
100
AcDbLine
 10
4.979330708661416
 20
7.5
 30
0.0
 11
4.979330708661416
 21
7.490157480314961
 31
0.0
  0
LINE
  5
2C0F
330
1E
100
AcDbEntity
  8
7
100
AcDbLine
 10
4.979330708661416
 20
7.490157480314961
 30
0.0
 11
4.979330708661416
 21
7.476377952755905
 31
0.0
  0
LINE
  5
2C10
330
1E
100
AcDbEntity
  8
7
100
AcDbLine
 10
4.979330708661416
 20
7.452755905511811
 30
0.0
 11
4.979330708661416
 21
7.444881889763779
 31
0.0
  0
LINE
  5
2C11
330
1E
100
AcDbEntity
  8
7
100
AcDbLine
 10
4.979330708661416
 20
7.444881889763779
 30
0.0
 11
4.979330708661416
 21
7.438976377952755
 31
0.0
  0
LINE
  5
2C12
330
1E
100
AcDbEntity
  8
7
100
AcDbLine
 10
5.319881889763779
 20
7.205708661417322
 30
0.0
 11
5.319881889763779
 21
7.26279527559055
 31
0.0
  0
LINE
  5
2C13
330
1E
100
AcDbEntity
  8
7
100
AcDbLine
 10
5.319881889763779
 20
7.26279527559055
 30
0.0
 11
5.388779527559054
 21
7.26279527559055
 31
0.0
  0
LINE
  5
2C14
330
1E
100
AcDbEntity
  8
7
100
AcDbLine
 10
4.193897637795275
 20
7.302165354330707
 30
0.0
 11
4.191929133858267
 21
7.26279527559055
 31
0.0
  0
LINE
  5
2C15
330
1E
100
AcDbEntity
  8
7
100
AcDbLine
 10
4.191929133858267
 20
7.26279527559055
 30
0.0
 11
4.123031496062991
 21
7.26279527559055
 31
0.0
  0
LINE
  5
2C16
330
1E
100
AcDbEntity
  8
7
100
AcDbLine
 10
4.828740157480314
 20
7.302165354330707
 30
0.0
 11
4.684055118110236
 21
7.302165354330707
 31
0.0
  0
LINE
  5
2C17
330
1E
100
AcDbEntity
  8
7
100
AcDbLine
 10
4.684055118110236
 20
7.302165354330707
 30
0.0
 11
4.685039370078739
 21
7.26279527559055
 31
0.0
  0
LINE
  5
2C18
330
1E
100
AcDbEntity
  8
7
100
AcDbLine
 10
5.683070866141731
 20
8.006889763779527
 30
0.0
 11
5.683070866141731
 21
8.010826771653542
 31
0.0
  0
LINE
  5
2C19
330
1E
100
AcDbEntity
  8
7
100
AcDbLine
 10
5.683070866141731
 20
8.010826771653542
 30
0.0
 11
5.683070866141731
 21
8.013779527559055
 31
0.0
  0
LINE
  5
2C1A
330
1E
100
AcDbEntity
  8
7
100
AcDbLine
 10
3.829724409448818
 20
8.013779527559055
 30
0.0
 11
3.829724409448818
 21
8.010826771653542
 31
0.0
  0
LINE
  5
2C1B
330
1E
100
AcDbEntity
  8
7
100
AcDbLine
 10
3.829724409448818
 20
8.010826771653542
 30
0.0
 11
3.829724409448818
 21
8.006889763779527
 31
0.0
  0
LINE
  5
2C1C
330
1E
100
AcDbEntity
  8
7
100
AcDbLine
 10
5.683070866141731
 20
8.059055118110235
 30
0.0
 11
5.683070866141731
 21
8.065944881889762
 31
0.0
  0
LINE
  5
2C1D
330
1E
100
AcDbEntity
  8
7
100
AcDbLine
 10
5.683070866141731
 20
8.065944881889762
 30
0.0
 11
5.683070866141731
 21
8.071850393700787
 31
0.0
  0
LINE
  5
2C1E
330
1E
100
AcDbEntity
  8
7
100
AcDbLine
 10
3.829724409448818
 20
8.071850393700787
 30
0.0
 11
3.829724409448818
 21
8.065944881889762
 31
0.0
  0
LINE
  5
2C1F
330
1E
100
AcDbEntity
  8
7
100
AcDbLine
 10
3.829724409448818
 20
8.065944881889762
 30
0.0
 11
3.829724409448818
 21
8.059055118110235
 31
0.0
  0
LINE
  5
2C20
330
1E
100
AcDbEntity
  8
7
100
AcDbLine
 10
4.630905511811023
 20
6.871062992125984
 30
0.0
 11
4.634842519685038
 21
6.838582677165353
 31
0.0
  0
LINE
  5
2C21
330
1E
100
AcDbEntity
  8
7
100
AcDbLine
 10
4.634842519685038
 20
6.838582677165353
 30
0.0
 11
4.647637795275589
 21
6.809055118110236
 31
0.0
  0
LINE
  5
2C22
330
1E
100
AcDbEntity
  8
7
100
AcDbLine
 10
4.647637795275589
 20
6.809055118110236
 30
0.0
 11
4.667322834645668
 21
6.782480314960629
 31
0.0
  0
LINE
  5
2C23
330
1E
100
AcDbEntity
  8
7
100
AcDbLine
 10
4.667322834645668
 20
6.782480314960629
 30
0.0
 11
4.692913385826771
 21
6.76279527559055
 31
0.0
  0
LINE
  5
2C24
330
1E
100
AcDbEntity
  8
7
100
AcDbLine
 10
4.692913385826771
 20
6.76279527559055
 30
0.0
 11
4.723425196850393
 21
6.75
 31
0.0
  0
LINE
  5
2C25
330
1E
100
AcDbEntity
  8
7
100
AcDbLine
 10
4.723425196850393
 20
6.75
 30
0.0
 11
4.755905511811023
 21
6.746062992125984
 31
0.0
  0
LINE
  5
2C26
330
1E
100
AcDbEntity
  8
7
100
AcDbLine
 10
4.755905511811023
 20
6.746062992125984
 30
0.0
 11
4.788385826771652
 21
6.75
 31
0.0
  0
LINE
  5
2C27
330
1E
100
AcDbEntity
  8
7
100
AcDbLine
 10
4.788385826771652
 20
6.75
 30
0.0
 11
4.817913385826771
 21
6.76279527559055
 31
0.0
  0
LINE
  5
2C28
330
1E
100
AcDbEntity
  8
7
100
AcDbLine
 10
4.817913385826771
 20
6.76279527559055
 30
0.0
 11
4.844488188976377
 21
6.782480314960629
 31
0.0
  0
LINE
  5
2C29
330
1E
100
AcDbEntity
  8
7
100
AcDbLine
 10
4.844488188976377
 20
6.782480314960629
 30
0.0
 11
4.864173228346456
 21
6.808070866141731
 31
0.0
  0
LINE
  5
2C2A
330
1E
100
AcDbEntity
  8
7
100
AcDbLine
 10
4.864173228346456
 20
6.808070866141731
 30
0.0
 11
4.876968503937007
 21
6.838582677165353
 31
0.0
  0
LINE
  5
2C2B
330
1E
100
AcDbEntity
  8
7
100
AcDbLine
 10
4.876968503937007
 20
6.838582677165353
 30
0.0
 11
4.880905511811023
 21
6.871062992125984
 31
0.0
  0
LINE
  5
2C2C
330
1E
100
AcDbEntity
  8
7
100
AcDbLine
 10
4.880905511811023
 20
6.871062992125984
 30
0.0
 11
4.876968503937007
 21
6.903543307086613
 31
0.0
  0
LINE
  5
2C2D
330
1E
100
AcDbEntity
  8
7
100
AcDbLine
 10
4.876968503937007
 20
6.903543307086613
 30
0.0
 11
4.864173228346456
 21
6.933070866141731
 31
0.0
  0
LINE
  5
2C2E
330
1E
100
AcDbEntity
  8
7
100
AcDbLine
 10
4.864173228346456
 20
6.933070866141731
 30
0.0
 11
4.844488188976377
 21
6.959645669291337
 31
0.0
  0
LINE
  5
2C2F
330
1E
100
AcDbEntity
  8
7
100
AcDbLine
 10
4.844488188976377
 20
6.959645669291337
 30
0.0
 11
4.818897637795275
 21
6.979330708661416
 31
0.0
  0
LINE
  5
2C30
330
1E
100
AcDbEntity
  8
7
100
AcDbLine
 10
4.818897637795275
 20
6.979330708661416
 30
0.0
 11
4.788385826771652
 21
6.992125984251968
 31
0.0
  0
LINE
  5
2C31
330
1E
100
AcDbEntity
  8
7
100
AcDbLine
 10
4.788385826771652
 20
6.992125984251968
 30
0.0
 11
4.755905511811023
 21
6.996062992125984
 31
0.0
  0
LINE
  5
2C32
330
1E
100
AcDbEntity
  8
7
100
AcDbLine
 10
4.755905511811023
 20
6.996062992125984
 30
0.0
 11
4.723425196850393
 21
6.992125984251968
 31
0.0
  0
LINE
  5
2C33
330
1E
100
AcDbEntity
  8
7
100
AcDbLine
 10
4.723425196850393
 20
6.992125984251968
 30
0.0
 11
4.693897637795275
 21
6.979330708661416
 31
0.0
  0
LINE
  5
2C34
330
1E
100
AcDbEntity
  8
7
100
AcDbLine
 10
4.693897637795275
 20
6.979330708661416
 30
0.0
 11
4.667322834645668
 21
6.959645669291337
 31
0.0
  0
LINE
  5
2C35
330
1E
100
AcDbEntity
  8
7
100
AcDbLine
 10
4.667322834645668
 20
6.959645669291337
 30
0.0
 11
4.647637795275589
 21
6.934055118110236
 31
0.0
  0
LINE
  5
2C36
330
1E
100
AcDbEntity
  8
7
100
AcDbLine
 10
4.647637795275589
 20
6.934055118110236
 30
0.0
 11
4.634842519685038
 21
6.903543307086613
 31
0.0
  0
LINE
  5
2C37
330
1E
100
AcDbEntity
  8
7
100
AcDbLine
 10
4.634842519685038
 20
6.903543307086613
 30
0.0
 11
4.630905511811023
 21
6.871062992125984
 31
0.0
  0
LINE
  5
2C38
330
1E
100
AcDbEntity
  8
7
100
AcDbLine
 10
5.74015748031496
 20
8.490157480314961
 30
0.0
 11
5.724409448818897
 21
8.473425196850392
 31
0.0
  0
LINE
  5
2C39
330
1E
100
AcDbEntity
  8
7
100
AcDbLine
 10
5.724409448818897
 20
8.473425196850392
 30
0.0
 11
5.70767716535433
 21
8.059055118110235
 31
0.0
  0
LINE
  5
2C3A
330
1E
100
AcDbEntity
  8
7
100
AcDbLine
 10
5.70767716535433
 20
8.059055118110235
 30
0.0
 11
5.70767716535433
 21
8.013779527559055
 31
0.0
  0
LINE
  5
2C3B
330
1E
100
AcDbEntity
  8
7
100
AcDbLine
 10
5.70767716535433
 20
8.013779527559055
 30
0.0
 11
5.730314960629921
 21
6.790354330708661
 31
0.0
  0
LINE
  5
2C3C
330
1E
100
AcDbEntity
  8
7
100
AcDbLine
 10
5.730314960629921
 20
6.790354330708661
 30
0.0
 11
5.74015748031496
 21
6.780511811023621
 31
0.0
  0
LINE
  5
2C3D
330
1E
100
AcDbEntity
  8
7
100
AcDbLine
 10
4.677165354330708
 20
8.532480314960629
 30
0.0
 11
4.677165354330708
 21
8.528543307086613
 31
0.0
  0
LINE
  5
2C3E
330
1E
100
AcDbEntity
  8
7
100
AcDbLine
 10
4.677165354330708
 20
8.528543307086613
 30
0.0
 11
4.677165354330708
 21
8.51771653543307
 31
0.0
  0
LINE
  5
2C3F
330
1E
100
AcDbEntity
  8
7
100
AcDbLine
 10
4.677165354330708
 20
8.281496062992125
 30
0.0
 11
4.677165354330708
 21
8.28543307086614
 31
0.0
  0
LINE
  5
2C40
330
1E
100
AcDbEntity
  8
7
100
AcDbLine
 10
4.677165354330708
 20
8.28543307086614
 30
0.0
 11
4.677165354330708
 21
8.296259842519685
 31
0.0
  0
LINE
  5
2C41
330
1E
100
AcDbEntity
  8
7
100
AcDbLine
 10
4.677165354330708
 20
8.531496062992125
 30
0.0
 11
4.644685039370078
 21
8.527559055118109
 31
0.0
  0
LINE
  5
2C42
330
1E
100
AcDbEntity
  8
7
100
AcDbLine
 10
4.644685039370078
 20
8.527559055118109
 30
0.0
 11
4.61515748031496
 21
8.514763779527559
 31
0.0
  0
LINE
  5
2C43
330
1E
100
AcDbEntity
  8
7
100
AcDbLine
 10
4.61515748031496
 20
8.514763779527559
 30
0.0
 11
4.588582677165353
 21
8.495078740157479
 31
0.0
  0
LINE
  5
2C44
330
1E
100
AcDbEntity
  8
7
100
AcDbLine
 10
4.588582677165353
 20
8.495078740157479
 30
0.0
 11
4.568897637795275
 21
8.469488188976377
 31
0.0
  0
LINE
  5
2C45
330
1E
100
AcDbEntity
  8
7
100
AcDbLine
 10
4.568897637795275
 20
8.469488188976377
 30
0.0
 11
4.556102362204724
 21
8.438976377952755
 31
0.0
  0
LINE
  5
2C46
330
1E
100
AcDbEntity
  8
7
100
AcDbLine
 10
4.556102362204724
 20
8.438976377952755
 30
0.0
 11
4.552165354330708
 21
8.406496062992125
 31
0.0
  0
LINE
  5
2C47
330
1E
100
AcDbEntity
  8
7
100
AcDbLine
 10
4.552165354330708
 20
8.406496062992125
 30
0.0
 11
4.556102362204724
 21
8.374015748031496
 31
0.0
  0
LINE
  5
2C48
330
1E
100
AcDbEntity
  8
7
100
AcDbLine
 10
4.556102362204724
 20
8.374015748031496
 30
0.0
 11
4.568897637795275
 21
8.344488188976377
 31
0.0
  0
LINE
  5
2C49
330
1E
100
AcDbEntity
  8
7
100
AcDbLine
 10
4.568897637795275
 20
8.344488188976377
 30
0.0
 11
4.588582677165353
 21
8.31791338582677
 31
0.0
  0
LINE
  5
2C4A
330
1E
100
AcDbEntity
  8
7
100
AcDbLine
 10
4.588582677165353
 20
8.31791338582677
 30
0.0
 11
4.614173228346456
 21
8.298228346456692
 31
0.0
  0
LINE
  5
2C4B
330
1E
100
AcDbEntity
  8
7
100
AcDbLine
 10
4.614173228346456
 20
8.298228346456692
 30
0.0
 11
4.644685039370078
 21
8.28543307086614
 31
0.0
  0
LINE
  5
2C4C
330
1E
100
AcDbEntity
  8
7
100
AcDbLine
 10
4.644685039370078
 20
8.28543307086614
 30
0.0
 11
4.677165354330708
 21
8.281496062992125
 31
0.0
  0
LINE
  5
2C4D
330
1E
100
AcDbEntity
  8
7
100
AcDbLine
 10
4.834645669291337
 20
8.296259842519685
 30
0.0
 11
4.834645669291337
 21
8.28543307086614
 31
0.0
  0
LINE
  5
2C4E
330
1E
100
AcDbEntity
  8
7
100
AcDbLine
 10
4.834645669291337
 20
8.28543307086614
 30
0.0
 11
4.834645669291337
 21
8.281496062992125
 31
0.0
  0
LINE
  5
2C4F
330
1E
100
AcDbEntity
  8
7
100
AcDbLine
 10
4.834645669291337
 20
8.51771653543307
 30
0.0
 11
4.834645669291337
 21
8.528543307086613
 31
0.0
  0
LINE
  5
2C50
330
1E
100
AcDbEntity
  8
7
100
AcDbLine
 10
4.834645669291337
 20
8.528543307086613
 30
0.0
 11
4.834645669291337
 21
8.532480314960629
 31
0.0
  0
LINE
  5
2C51
330
1E
100
AcDbEntity
  8
7
100
AcDbLine
 10
4.834645669291337
 20
8.281496062992125
 30
0.0
 11
4.867125984251968
 21
8.28543307086614
 31
0.0
  0
LINE
  5
2C52
330
1E
100
AcDbEntity
  8
7
100
AcDbLine
 10
4.867125984251968
 20
8.28543307086614
 30
0.0
 11
4.896653543307086
 21
8.298228346456692
 31
0.0
  0
LINE
  5
2C53
330
1E
100
AcDbEntity
  8
7
100
AcDbLine
 10
4.896653543307086
 20
8.298228346456692
 30
0.0
 11
4.923228346456692
 21
8.31791338582677
 31
0.0
  0
LINE
  5
2C54
330
1E
100
AcDbEntity
  8
7
100
AcDbLine
 10
4.923228346456692
 20
8.31791338582677
 30
0.0
 11
4.942913385826771
 21
8.343503937007874
 31
0.0
  0
LINE
  5
2C55
330
1E
100
AcDbEntity
  8
7
100
AcDbLine
 10
4.942913385826771
 20
8.343503937007874
 30
0.0
 11
4.955708661417322
 21
8.374015748031496
 31
0.0
  0
LINE
  5
2C56
330
1E
100
AcDbEntity
  8
7
100
AcDbLine
 10
4.955708661417322
 20
8.374015748031496
 30
0.0
 11
4.959645669291337
 21
8.406496062992125
 31
0.0
  0
LINE
  5
2C57
330
1E
100
AcDbEntity
  8
7
100
AcDbLine
 10
4.959645669291337
 20
8.406496062992125
 30
0.0
 11
4.955708661417322
 21
8.438976377952755
 31
0.0
  0
LINE
  5
2C58
330
1E
100
AcDbEntity
  8
7
100
AcDbLine
 10
4.955708661417322
 20
8.438976377952755
 30
0.0
 11
4.942913385826771
 21
8.468503937007874
 31
0.0
  0
LINE
  5
2C59
330
1E
100
AcDbEntity
  8
7
100
AcDbLine
 10
4.942913385826771
 20
8.468503937007874
 30
0.0
 11
4.923228346456692
 21
8.495078740157479
 31
0.0
  0
LINE
  5
2C5A
330
1E
100
AcDbEntity
  8
7
100
AcDbLine
 10
4.923228346456692
 20
8.495078740157479
 30
0.0
 11
4.897637795275589
 21
8.514763779527559
 31
0.0
  0
LINE
  5
2C5B
330
1E
100
AcDbEntity
  8
7
100
AcDbLine
 10
4.897637795275589
 20
8.514763779527559
 30
0.0
 11
4.867125984251968
 21
8.527559055118109
 31
0.0
  0
LINE
  5
2C5C
330
1E
100
AcDbEntity
  8
7
100
AcDbLine
 10
4.867125984251968
 20
8.527559055118109
 30
0.0
 11
4.834645669291337
 21
8.531496062992125
 31
0.0
  0
LINE
  5
2C5D
330
1E
100
AcDbEntity
  8
7
100
AcDbLine
 10
4.593503937007874
 20
8.478346456692912
 30
0.0
 11
4.576771653543306
 21
8.452755905511811
 31
0.0
  0
LINE
  5
2C5E
330
1E
100
AcDbEntity
  8
7
100
AcDbLine
 10
4.576771653543306
 20
8.452755905511811
 30
0.0
 11
4.567913385826771
 21
8.422244094488188
 31
0.0
  0
LINE
  5
2C5F
330
1E
100
AcDbEntity
  8
7
100
AcDbLine
 10
4.567913385826771
 20
8.422244094488188
 30
0.0
 11
4.567913385826771
 21
8.390748031496062
 31
0.0
  0
LINE
  5
2C60
330
1E
100
AcDbEntity
  8
7
100
AcDbLine
 10
4.567913385826771
 20
8.390748031496062
 30
0.0
 11
4.576771653543306
 21
8.36023622047244
 31
0.0
  0
LINE
  5
2C61
330
1E
100
AcDbEntity
  8
7
100
AcDbLine
 10
4.576771653543306
 20
8.36023622047244
 30
0.0
 11
4.593503937007874
 21
8.334645669291338
 31
0.0
  0
LINE
  5
2C62
330
1E
100
AcDbEntity
  8
7
100
AcDbLine
 10
4.593503937007874
 20
8.334645669291338
 30
0.0
 11
4.617125984251968
 21
8.313976377952755
 31
0.0
  0
LINE
  5
2C63
330
1E
100
AcDbEntity
  8
7
100
AcDbLine
 10
4.617125984251968
 20
8.313976377952755
 30
0.0
 11
4.645669291338582
 21
8.301181102362203
 31
0.0
  0
LINE
  5
2C64
330
1E
100
AcDbEntity
  8
7
100
AcDbLine
 10
4.645669291338582
 20
8.301181102362203
 30
0.0
 11
4.677165354330708
 21
8.296259842519685
 31
0.0
  0
LINE
  5
2C65
330
1E
100
AcDbEntity
  8
7
100
AcDbLine
 10
4.677165354330708
 20
8.516732283464566
 30
0.0
 11
4.645669291338582
 21
8.511811023622046
 31
0.0
  0
LINE
  5
2C66
330
1E
100
AcDbEntity
  8
7
100
AcDbLine
 10
4.645669291338582
 20
8.511811023622046
 30
0.0
 11
4.617125984251968
 21
8.499015748031496
 31
0.0
  0
LINE
  5
2C67
330
1E
100
AcDbEntity
  8
7
100
AcDbLine
 10
4.617125984251968
 20
8.499015748031496
 30
0.0
 11
4.593503937007874
 21
8.478346456692912
 31
0.0
  0
LINE
  5
2C68
330
1E
100
AcDbEntity
  8
7
100
AcDbLine
 10
4.935039370078739
 20
8.452755905511811
 30
0.0
 11
4.918307086614173
 21
8.478346456692912
 31
0.0
  0
LINE
  5
2C69
330
1E
100
AcDbEntity
  8
7
100
AcDbLine
 10
4.918307086614173
 20
8.478346456692912
 30
0.0
 11
4.894685039370078
 21
8.499015748031496
 31
0.0
  0
LINE
  5
2C6A
330
1E
100
AcDbEntity
  8
7
100
AcDbLine
 10
4.894685039370078
 20
8.499015748031496
 30
0.0
 11
4.866141732283463
 21
8.511811023622046
 31
0.0
  0
LINE
  5
2C6B
330
1E
100
AcDbEntity
  8
7
100
AcDbLine
 10
4.866141732283463
 20
8.511811023622046
 30
0.0
 11
4.834645669291337
 21
8.516732283464566
 31
0.0
  0
LINE
  5
2C6C
330
1E
100
AcDbEntity
  8
7
100
AcDbLine
 10
4.834645669291337
 20
8.296259842519685
 30
0.0
 11
4.866141732283463
 21
8.301181102362203
 31
0.0
  0
LINE
  5
2C6D
330
1E
100
AcDbEntity
  8
7
100
AcDbLine
 10
4.866141732283463
 20
8.301181102362203
 30
0.0
 11
4.894685039370078
 21
8.313976377952755
 31
0.0
  0
LINE
  5
2C6E
330
1E
100
AcDbEntity
  8
7
100
AcDbLine
 10
4.894685039370078
 20
8.313976377952755
 30
0.0
 11
4.918307086614173
 21
8.334645669291338
 31
0.0
  0
LINE
  5
2C6F
330
1E
100
AcDbEntity
  8
7
100
AcDbLine
 10
4.918307086614173
 20
8.334645669291338
 30
0.0
 11
4.935039370078739
 21
8.36023622047244
 31
0.0
  0
LINE
  5
2C70
330
1E
100
AcDbEntity
  8
7
100
AcDbLine
 10
4.935039370078739
 20
8.36023622047244
 30
0.0
 11
4.943897637795275
 21
8.390748031496062
 31
0.0
  0
LINE
  5
2C71
330
1E
100
AcDbEntity
  8
7
100
AcDbLine
 10
4.943897637795275
 20
8.390748031496062
 30
0.0
 11
4.943897637795275
 21
8.422244094488188
 31
0.0
  0
LINE
  5
2C72
330
1E
100
AcDbEntity
  8
7
100
AcDbLine
 10
4.943897637795275
 20
8.422244094488188
 30
0.0
 11
4.935039370078739
 21
8.452755905511811
 31
0.0
  0
LINE
  5
2C73
330
1E
100
AcDbEntity
  8
7
100
AcDbLine
 10
4.605314960629921
 20
8.419291338582675
 30
0.0
 11
4.605314960629921
 21
8.393700787401574
 31
0.0
  0
LINE
  5
2C74
330
1E
100
AcDbEntity
  8
7
100
AcDbLine
 10
4.605314960629921
 20
8.393700787401574
 30
0.0
 11
4.614173228346456
 21
8.370078740157479
 31
0.0
  0
LINE
  5
2C75
330
1E
100
AcDbEntity
  8
7
100
AcDbLine
 10
4.614173228346456
 20
8.370078740157479
 30
0.0
 11
4.629921259842519
 21
8.350393700787401
 31
0.0
  0
LINE
  5
2C76
330
1E
100
AcDbEntity
  8
7
100
AcDbLine
 10
4.629921259842519
 20
8.350393700787401
 30
0.0
 11
4.65255905511811
 21
8.33759842519685
 31
0.0
  0
LINE
  5
2C77
330
1E
100
AcDbEntity
  8
7
100
AcDbLine
 10
4.65255905511811
 20
8.33759842519685
 30
0.0
 11
4.677165354330708
 21
8.333661417322835
 31
0.0
  0
LINE
  5
2C78
330
1E
100
AcDbEntity
  8
7
100
AcDbLine
 10
4.677165354330708
 20
8.479330708661416
 30
0.0
 11
4.65255905511811
 21
8.475393700787401
 31
0.0
  0
LINE
  5
2C79
330
1E
100
AcDbEntity
  8
7
100
AcDbLine
 10
4.65255905511811
 20
8.475393700787401
 30
0.0
 11
4.629921259842519
 21
8.46259842519685
 31
0.0
  0
LINE
  5
2C7A
330
1E
100
AcDbEntity
  8
7
100
AcDbLine
 10
4.629921259842519
 20
8.46259842519685
 30
0.0
 11
4.614173228346456
 21
8.44291338582677
 31
0.0
  0
LINE
  5
2C7B
330
1E
100
AcDbEntity
  8
7
100
AcDbLine
 10
4.614173228346456
 20
8.44291338582677
 30
0.0
 11
4.605314960629921
 21
8.419291338582675
 31
0.0
  0
LINE
  5
2C7C
330
1E
100
AcDbEntity
  8
7
100
AcDbLine
 10
4.906496062992125
 20
8.419291338582675
 30
0.0
 11
4.897637795275589
 21
8.44291338582677
 31
0.0
  0
LINE
  5
2C7D
330
1E
100
AcDbEntity
  8
7
100
AcDbLine
 10
4.897637795275589
 20
8.44291338582677
 30
0.0
 11
4.881889763779526
 21
8.46259842519685
 31
0.0
  0
LINE
  5
2C7E
330
1E
100
AcDbEntity
  8
7
100
AcDbLine
 10
4.881889763779526
 20
8.46259842519685
 30
0.0
 11
4.859251968503937
 21
8.475393700787401
 31
0.0
  0
LINE
  5
2C7F
330
1E
100
AcDbEntity
  8
7
100
AcDbLine
 10
4.859251968503937
 20
8.475393700787401
 30
0.0
 11
4.834645669291337
 21
8.479330708661416
 31
0.0
  0
LINE
  5
2C80
330
1E
100
AcDbEntity
  8
7
100
AcDbLine
 10
4.834645669291337
 20
8.333661417322835
 30
0.0
 11
4.859251968503937
 21
8.33759842519685
 31
0.0
  0
LINE
  5
2C81
330
1E
100
AcDbEntity
  8
7
100
AcDbLine
 10
4.859251968503937
 20
8.33759842519685
 30
0.0
 11
4.881889763779526
 21
8.350393700787401
 31
0.0
  0
LINE
  5
2C82
330
1E
100
AcDbEntity
  8
7
100
AcDbLine
 10
4.881889763779526
 20
8.350393700787401
 30
0.0
 11
4.897637795275589
 21
8.370078740157479
 31
0.0
  0
LINE
  5
2C83
330
1E
100
AcDbEntity
  8
7
100
AcDbLine
 10
4.897637795275589
 20
8.370078740157479
 30
0.0
 11
4.906496062992125
 21
8.393700787401574
 31
0.0
  0
LINE
  5
2C84
330
1E
100
AcDbEntity
  8
7
100
AcDbLine
 10
4.906496062992125
 20
8.393700787401574
 30
0.0
 11
4.906496062992125
 21
8.419291338582675
 31
0.0
  0
LINE
  5
2C85
330
1E
100
AcDbEntity
  8
7
100
AcDbLine
 10
4.597440944881889
 20
8.505905511811024
 30
0.0
 11
4.576771653543306
 21
8.48523622047244
 31
0.0
  0
LINE
  5
2C86
330
1E
100
AcDbEntity
  8
7
100
AcDbLine
 10
4.576771653543306
 20
8.48523622047244
 30
0.0
 11
4.561023622047243
 21
8.461614173228346
 31
0.0
  0
LINE
  5
2C87
330
1E
100
AcDbEntity
  8
7
100
AcDbLine
 10
4.561023622047243
 20
8.461614173228346
 30
0.0
 11
4.552165354330708
 21
8.434055118110235
 31
0.0
  0
LINE
  5
2C88
330
1E
100
AcDbEntity
  8
7
100
AcDbLine
 10
4.552165354330708
 20
8.434055118110235
 30
0.0
 11
4.549212598425196
 21
8.405511811023622
 31
0.0
  0
LINE
  5
2C89
330
1E
100
AcDbEntity
  8
7
100
AcDbLine
 10
4.549212598425196
 20
8.405511811023622
 30
0.0
 11
4.552165354330708
 21
8.376968503937007
 31
0.0
  0
LINE
  5
2C8A
330
1E
100
AcDbEntity
  8
7
100
AcDbLine
 10
4.552165354330708
 20
8.376968503937007
 30
0.0
 11
4.561023622047243
 21
8.349409448818898
 31
0.0
  0
LINE
  5
2C8B
330
1E
100
AcDbEntity
  8
7
100
AcDbLine
 10
4.561023622047243
 20
8.349409448818898
 30
0.0
 11
4.576771653543306
 21
8.325787401574803
 31
0.0
  0
LINE
  5
2C8C
330
1E
100
AcDbEntity
  8
7
100
AcDbLine
 10
4.576771653543306
 20
8.325787401574803
 30
0.0
 11
4.597440944881889
 21
8.30511811023622
 31
0.0
  0
LINE
  5
2C8D
330
1E
100
AcDbEntity
  8
7
100
AcDbLine
 10
4.597440944881889
 20
8.30511811023622
 30
0.0
 11
4.621062992125984
 21
8.289370078740157
 31
0.0
  0
LINE
  5
2C8E
330
1E
100
AcDbEntity
  8
7
100
AcDbLine
 10
4.621062992125984
 20
8.289370078740157
 30
0.0
 11
4.648622047244094
 21
8.280511811023622
 31
0.0
  0
LINE
  5
2C8F
330
1E
100
AcDbEntity
  8
7
100
AcDbLine
 10
4.648622047244094
 20
8.280511811023622
 30
0.0
 11
4.677165354330708
 21
8.276574803149605
 31
0.0
  0
LINE
  5
2C90
330
1E
100
AcDbEntity
  8
7
100
AcDbLine
 10
4.677165354330708
 20
8.534448818897637
 30
0.0
 11
4.648622047244094
 21
8.530511811023622
 31
0.0
  0
LINE
  5
2C91
330
1E
100
AcDbEntity
  8
7
100
AcDbLine
 10
4.648622047244094
 20
8.530511811023622
 30
0.0
 11
4.621062992125984
 21
8.521653543307087
 31
0.0
  0
LINE
  5
2C92
330
1E
100
AcDbEntity
  8
7
100
AcDbLine
 10
4.621062992125984
 20
8.521653543307087
 30
0.0
 11
4.597440944881889
 21
8.505905511811024
 31
0.0
  0
LINE
  5
2C93
330
1E
100
AcDbEntity
  8
7
100
AcDbLine
 10
4.960629921259842
 20
8.434055118110235
 30
0.0
 11
4.950787401574802
 21
8.461614173228346
 31
0.0
  0
LINE
  5
2C94
330
1E
100
AcDbEntity
  8
7
100
AcDbLine
 10
4.950787401574802
 20
8.461614173228346
 30
0.0
 11
4.935039370078739
 21
8.48523622047244
 31
0.0
  0
LINE
  5
2C95
330
1E
100
AcDbEntity
  8
7
100
AcDbLine
 10
4.935039370078739
 20
8.48523622047244
 30
0.0
 11
4.915354330708661
 21
8.505905511811024
 31
0.0
  0
LINE
  5
2C96
330
1E
100
AcDbEntity
  8
7
100
AcDbLine
 10
4.915354330708661
 20
8.505905511811024
 30
0.0
 11
4.890748031496062
 21
8.521653543307087
 31
0.0
  0
LINE
  5
2C97
330
1E
100
AcDbEntity
  8
7
100
AcDbLine
 10
4.890748031496062
 20
8.521653543307087
 30
0.0
 11
4.863188976377952
 21
8.530511811023622
 31
0.0
  0
LINE
  5
2C98
330
1E
100
AcDbEntity
  8
7
100
AcDbLine
 10
4.863188976377952
 20
8.530511811023622
 30
0.0
 11
4.834645669291337
 21
8.534448818897637
 31
0.0
  0
LINE
  5
2C99
330
1E
100
AcDbEntity
  8
7
100
AcDbLine
 10
4.834645669291337
 20
8.276574803149605
 30
0.0
 11
4.863188976377952
 21
8.280511811023622
 31
0.0
  0
LINE
  5
2C9A
330
1E
100
AcDbEntity
  8
7
100
AcDbLine
 10
4.863188976377952
 20
8.280511811023622
 30
0.0
 11
4.890748031496062
 21
8.289370078740157
 31
0.0
  0
LINE
  5
2C9B
330
1E
100
AcDbEntity
  8
7
100
AcDbLine
 10
4.890748031496062
 20
8.289370078740157
 30
0.0
 11
4.915354330708661
 21
8.30511811023622
 31
0.0
  0
LINE
  5
2C9C
330
1E
100
AcDbEntity
  8
7
100
AcDbLine
 10
4.915354330708661
 20
8.30511811023622
 30
0.0
 11
4.935039370078739
 21
8.325787401574803
 31
0.0
  0
LINE
  5
2C9D
330
1E
100
AcDbEntity
  8
7
100
AcDbLine
 10
4.935039370078739
 20
8.325787401574803
 30
0.0
 11
4.950787401574802
 21
8.349409448818898
 31
0.0
  0
LINE
  5
2C9E
330
1E
100
AcDbEntity
  8
7
100
AcDbLine
 10
4.950787401574802
 20
8.349409448818898
 30
0.0
 11
4.960629921259842
 21
8.376968503937007
 31
0.0
  0
LINE
  5
2C9F
330
1E
100
AcDbEntity
  8
7
100
AcDbLine
 10
4.960629921259842
 20
8.376968503937007
 30
0.0
 11
4.963582677165353
 21
8.405511811023622
 31
0.0
  0
LINE
  5
2CA0
330
1E
100
AcDbEntity
  8
7
100
AcDbLine
 10
4.963582677165353
 20
8.405511811023622
 30
0.0
 11
4.960629921259842
 21
8.434055118110235
 31
0.0
  0
LINE
  5
2CA1
330
1E
100
AcDbEntity
  8
7
100
AcDbLine
 10
3.804133858267715
 20
8.013779527559055
 30
0.0
 11
3.804133858267715
 21
8.059055118110235
 31
0.0
  0
LINE
  5
2CA2
330
1E
100
AcDbEntity
  8
7
100
AcDbLine
 10
3.804133858267715
 20
8.059055118110235
 30
0.0
 11
3.787401574803149
 21
8.473425196850392
 31
0.0
  0
LINE
  5
2CA3
330
1E
100
AcDbEntity
  8
7
100
AcDbLine
 10
3.787401574803149
 20
8.473425196850392
 30
0.0
 11
3.771653543307086
 21
8.490157480314961
 31
0.0
  0
LINE
  5
2CA4
330
1E
100
AcDbEntity
  8
7
100
AcDbLine
 10
3.771653543307086
 20
6.780511811023621
 30
0.0
 11
3.781496062992125
 21
6.790354330708661
 31
0.0
  0
LINE
  5
2CA5
330
1E
100
AcDbEntity
  8
7
100
AcDbLine
 10
3.781496062992125
 20
6.790354330708661
 30
0.0
 11
3.804133858267715
 21
8.013779527559055
 31
0.0
  0
LINE
  5
2CA6
330
1E
100
AcDbEntity
  8
7
100
AcDbLine
 10
5.61023622047244
 20
6.650590551181101
 30
0.0
 11
5.602362204724409
 21
6.658464566929133
 31
0.0
  0
LINE
  5
2CA7
330
1E
100
AcDbEntity
  8
7
100
AcDbLine
 10
5.602362204724409
 20
6.658464566929133
 30
0.0
 11
3.909448818897637
 21
6.658464566929133
 31
0.0
  0
LINE
  5
2CA8
330
1E
100
AcDbEntity
  8
7
100
AcDbLine
 10
3.909448818897637
 20
6.658464566929133
 30
0.0
 11
3.901574803149605
 21
6.650590551181101
 31
0.0
  0
LINE
  5
2CA9
330
1E
100
AcDbEntity
  8
7
100
AcDbLine
 10
5.625984251968503
 20
8.591535433070866
 30
0.0
 11
5.599409448818897
 21
8.595472440944881
 31
0.0
  0
LINE
  5
2CAA
330
1E
100
AcDbEntity
  8
7
100
AcDbLine
 10
5.599409448818897
 20
8.595472440944881
 30
0.0
 11
3.913385826771652
 21
8.595472440944881
 31
0.0
  0
LINE
  5
2CAB
330
1E
100
AcDbEntity
  8
7
100
AcDbLine
 10
3.885826771653542
 20
8.591535433070866
 30
0.0
 11
3.861220472440944
 21
8.580708661417322
 31
0.0
  0
LINE
  5
2CAC
330
1E
100
AcDbEntity
  8
7
100
AcDbLine
 10
3.861220472440944
 20
8.580708661417322
 30
0.0
 11
3.840551181102362
 21
8.562992125984251
 31
0.0
  0
LINE
  5
2CAD
330
1E
100
AcDbEntity
  8
7
100
AcDbLine
 10
3.840551181102362
 20
8.562992125984251
 30
0.0
 11
3.824803149606299
 21
8.540354330708661
 31
0.0
  0
LINE
  5
2CAE
330
1E
100
AcDbEntity
  8
7
100
AcDbLine
 10
3.824803149606299
 20
8.540354330708661
 30
0.0
 11
3.814960629921259
 21
8.514763779527559
 31
0.0
  0
LINE
  5
2CAF
330
1E
100
AcDbEntity
  8
7
100
AcDbLine
 10
3.814960629921259
 20
8.514763779527559
 30
0.0
 11
3.812992125984251
 21
8.486220472440944
 31
0.0
  0
LINE
  5
2CB0
330
1E
100
AcDbEntity
  8
7
100
AcDbLine
 10
3.812992125984251
 20
8.486220472440944
 30
0.0
 11
3.829724409448818
 21
8.071850393700787
 31
0.0
  0
LINE
  5
2CB1
330
1E
100
AcDbEntity
  8
7
100
AcDbLine
 10
3.829724409448818
 20
8.071850393700787
 30
0.0
 11
5.683070866141731
 21
8.071850393700787
 31
0.0
  0
LINE
  5
2CB2
330
1E
100
AcDbEntity
  8
7
100
AcDbLine
 10
5.683070866141731
 20
8.071850393700787
 30
0.0
 11
5.699803149606299
 21
8.486220472440944
 31
0.0
  0
LINE
  5
2CB3
330
1E
100
AcDbEntity
  8
7
100
AcDbLine
 10
5.699803149606299
 20
8.486220472440944
 30
0.0
 11
5.696850393700787
 21
8.514763779527559
 31
0.0
  0
LINE
  5
2CB4
330
1E
100
AcDbEntity
  8
7
100
AcDbLine
 10
5.696850393700787
 20
8.514763779527559
 30
0.0
 11
5.687992125984251
 21
8.540354330708661
 31
0.0
  0
LINE
  5
2CB5
330
1E
100
AcDbEntity
  8
7
100
AcDbLine
 10
5.687992125984251
 20
8.540354330708661
 30
0.0
 11
5.672244094488188
 21
8.562992125984251
 31
0.0
  0
LINE
  5
2CB6
330
1E
100
AcDbEntity
  8
7
100
AcDbLine
 10
5.672244094488188
 20
8.562992125984251
 30
0.0
 11
5.650590551181101
 21
8.580708661417322
 31
0.0
  0
LINE
  5
2CB7
330
1E
100
AcDbEntity
  8
7
100
AcDbLine
 10
5.650590551181101
 20
8.580708661417322
 30
0.0
 11
5.625984251968503
 21
8.591535433070866
 31
0.0
  0
LINE
  5
2CB8
330
1E
100
AcDbEntity
  8
7
100
AcDbLine
 10
4.065944881889763
 20
8.561023622047244
 30
0.0
 11
4.0501968503937
 21
8.556102362204724
 31
0.0
  0
LINE
  5
2CB9
330
1E
100
AcDbEntity
  8
7
100
AcDbLine
 10
4.0501968503937
 20
8.556102362204724
 30
0.0
 11
4.038385826771652
 21
8.545275590551181
 31
0.0
  0
LINE
  5
2CBA
330
1E
100
AcDbEntity
  8
7
100
AcDbLine
 10
4.038385826771652
 20
8.545275590551181
 30
0.0
 11
4.034448818897637
 21
8.529527559055118
 31
0.0
  0
LINE
  5
2CBB
330
1E
100
AcDbEntity
  8
7
100
AcDbLine
 10
4.034448818897637
 20
8.284448818897637
 30
0.0
 11
4.038385826771652
 21
8.268700787401574
 31
0.0
  0
LINE
  5
2CBC
330
1E
100
AcDbEntity
  8
7
100
AcDbLine
 10
4.038385826771652
 20
8.268700787401574
 30
0.0
 11
4.0501968503937
 21
8.256889763779527
 31
0.0
  0
LINE
  5
2CBD
330
1E
100
AcDbEntity
  8
7
100
AcDbLine
 10
4.0501968503937
 20
8.256889763779527
 30
0.0
 11
4.065944881889763
 21
8.252952755905511
 31
0.0
  0
LINE
  5
2CBE
330
1E
100
AcDbEntity
  8
7
100
AcDbLine
 10
5.446850393700787
 20
8.252952755905511
 30
0.0
 11
5.46259842519685
 21
8.256889763779527
 31
0.0
  0
LINE
  5
2CBF
330
1E
100
AcDbEntity
  8
7
100
AcDbLine
 10
5.46259842519685
 20
8.256889763779527
 30
0.0
 11
5.473425196850393
 21
8.268700787401574
 31
0.0
  0
LINE
  5
2CC0
330
1E
100
AcDbEntity
  8
7
100
AcDbLine
 10
5.473425196850393
 20
8.268700787401574
 30
0.0
 11
5.478346456692912
 21
8.284448818897637
 31
0.0
  0
LINE
  5
2CC1
330
1E
100
AcDbEntity
  8
7
100
AcDbLine
 10
5.473425196850393
 20
8.545275590551181
 30
0.0
 11
5.46259842519685
 21
8.556102362204724
 31
0.0
  0
LINE
  5
2CC2
330
1E
100
AcDbEntity
  8
7
100
AcDbLine
 10
5.46259842519685
 20
8.556102362204724
 30
0.0
 11
5.446850393700787
 21
8.561023622047244
 31
0.0
  0
LINE
  5
2CC3
330
1E
100
AcDbEntity
  8
7
100
AcDbLine
 10
3.771653543307086
 20
8.490157480314961
 30
0.0
 11
3.776574803149605
 21
8.523622047244094
 31
0.0
  0
LINE
  5
2CC4
330
1E
100
AcDbEntity
  8
7
100
AcDbLine
 10
3.776574803149605
 20
8.523622047244094
 30
0.0
 11
3.789370078740157
 21
8.55511811023622
 31
0.0
  0
LINE
  5
2CC5
330
1E
100
AcDbEntity
  8
7
100
AcDbLine
 10
3.789370078740157
 20
8.55511811023622
 30
0.0
 11
3.810039370078739
 21
8.581692913385825
 31
0.0
  0
LINE
  5
2CC6
330
1E
100
AcDbEntity
  8
7
100
AcDbLine
 10
3.810039370078739
 20
8.581692913385825
 30
0.0
 11
3.836614173228346
 21
8.602362204724409
 31
0.0
  0
LINE
  5
2CC7
330
1E
100
AcDbEntity
  8
7
100
AcDbLine
 10
3.836614173228346
 20
8.602362204724409
 30
0.0
 11
3.868110236220472
 21
8.615157480314961
 31
0.0
  0
LINE
  5
2CC8
330
1E
100
AcDbEntity
  8
7
100
AcDbLine
 10
3.868110236220472
 20
8.615157480314961
 30
0.0
 11
3.901574803149605
 21
8.619094488188975
 31
0.0
  0
LINE
  5
2CC9
330
1E
100
AcDbEntity
  8
7
100
AcDbLine
 10
3.901574803149605
 20
6.650590551181101
 30
0.0
 11
3.868110236220472
 21
6.655511811023621
 31
0.0
  0
LINE
  5
2CCA
330
1E
100
AcDbEntity
  8
7
100
AcDbLine
 10
3.868110236220472
 20
6.655511811023621
 30
0.0
 11
3.836614173228346
 21
6.668307086614173
 31
0.0
  0
LINE
  5
2CCB
330
1E
100
AcDbEntity
  8
7
100
AcDbLine
 10
3.836614173228346
 20
6.668307086614173
 30
0.0
 11
3.810039370078739
 21
6.688976377952755
 31
0.0
  0
LINE
  5
2CCC
330
1E
100
AcDbEntity
  8
7
100
AcDbLine
 10
3.810039370078739
 20
6.688976377952755
 30
0.0
 11
3.789370078740157
 21
6.715551181102362
 31
0.0
  0
LINE
  5
2CCD
330
1E
100
AcDbEntity
  8
7
100
AcDbLine
 10
3.789370078740157
 20
6.715551181102362
 30
0.0
 11
3.776574803149605
 21
6.747047244094487
 31
0.0
  0
LINE
  5
2CCE
330
1E
100
AcDbEntity
  8
7
100
AcDbLine
 10
3.776574803149605
 20
6.747047244094487
 30
0.0
 11
3.771653543307086
 21
6.780511811023621
 31
0.0
  0
LINE
  5
2CCF
330
1E
100
AcDbEntity
  8
7
100
AcDbLine
 10
5.6751968503937
 20
6.668307086614173
 30
0.0
 11
5.644685039370078
 21
6.655511811023621
 31
0.0
  0
LINE
  5
2CD0
330
1E
100
AcDbEntity
  8
7
100
AcDbLine
 10
5.644685039370078
 20
6.655511811023621
 30
0.0
 11
5.61023622047244
 21
6.650590551181101
 31
0.0
  0
LINE
  5
2CD1
330
1E
100
AcDbEntity
  8
7
100
AcDbLine
 10
5.74015748031496
 20
6.780511811023621
 30
0.0
 11
5.736220472440944
 21
6.747047244094487
 31
0.0
  0
LINE
  5
2CD2
330
1E
100
AcDbEntity
  8
7
100
AcDbLine
 10
5.736220472440944
 20
6.747047244094487
 30
0.0
 11
5.723425196850393
 21
6.715551181102362
 31
0.0
  0
LINE
  5
2CD3
330
1E
100
AcDbEntity
  8
7
100
AcDbLine
 10
5.723425196850393
 20
6.715551181102362
 30
0.0
 11
5.702755905511811
 21
6.688976377952755
 31
0.0
  0
LINE
  5
2CD4
330
1E
100
AcDbEntity
  8
7
100
AcDbLine
 10
5.702755905511811
 20
6.688976377952755
 30
0.0
 11
5.6751968503937
 21
6.668307086614173
 31
0.0
  0
LINE
  5
2CD5
330
1E
100
AcDbEntity
  8
7
100
AcDbLine
 10
5.6751968503937
 20
8.602362204724409
 30
0.0
 11
5.702755905511811
 21
8.581692913385825
 31
0.0
  0
LINE
  5
2CD6
330
1E
100
AcDbEntity
  8
7
100
AcDbLine
 10
5.702755905511811
 20
8.581692913385825
 30
0.0
 11
5.723425196850393
 21
8.55511811023622
 31
0.0
  0
LINE
  5
2CD7
330
1E
100
AcDbEntity
  8
7
100
AcDbLine
 10
5.723425196850393
 20
8.55511811023622
 30
0.0
 11
5.736220472440944
 21
8.523622047244094
 31
0.0
  0
LINE
  5
2CD8
330
1E
100
AcDbEntity
  8
7
100
AcDbLine
 10
5.736220472440944
 20
8.523622047244094
 30
0.0
 11
5.74015748031496
 21
8.490157480314961
 31
0.0
  0
LINE
  5
2CD9
330
1E
100
AcDbEntity
  8
7
100
AcDbLine
 10
5.61023622047244
 20
8.619094488188975
 30
0.0
 11
5.644685039370078
 21
8.615157480314961
 31
0.0
  0
LINE
  5
2CDA
330
1E
100
AcDbEntity
  8
7
100
AcDbLine
 10
5.644685039370078
 20
8.615157480314961
 30
0.0
 11
5.6751968503937
 21
8.602362204724409
 31
0.0
  0
LINE
  5
2CDB
330
1E
100
AcDbEntity
  8
7
100
AcDbLine
 10
3.901574803149605
 20
8.619094488188975
 30
0.0
 11
3.913385826771652
 21
8.608267716535433
 31
0.0
  0
LINE
  5
2CDC
330
1E
100
AcDbEntity
  8
7
100
AcDbLine
 10
3.913385826771652
 20
8.608267716535433
 30
0.0
 11
5.599409448818897
 21
8.608267716535433
 31
0.0
  0
LINE
  5
2CDD
330
1E
100
AcDbEntity
  8
7
100
AcDbLine
 10
5.599409448818897
 20
8.608267716535433
 30
0.0
 11
5.61023622047244
 21
8.619094488188975
 31
0.0
  0
LINE
  5
2CDE
330
1E
100
AcDbEntity
  8
7
100
AcDbLine
 10
5.61023622047244
 20
8.619094488188975
 30
0.0
 11
3.901574803149605
 21
8.619094488188975
 31
0.0
  0
LINE
  5
2CDF
330
1E
100
AcDbEntity
  8
7
100
AcDbLine
 10
5.168307086614173
 20
7.5
 30
0.0
 11
5.168307086614173
 21
7.490157480314961
 31
0.0
  0
LINE
  5
2CE0
330
1E
100
AcDbEntity
  8
7
100
AcDbLine
 10
5.168307086614173
 20
7.490157480314961
 30
0.0
 11
5.167322834645668
 21
7.476377952755905
 31
0.0
  0
LINE
  5
2CE1
330
1E
100
AcDbEntity
  8
7
100
AcDbLine
 10
5.167322834645668
 20
7.476377952755905
 30
0.0
 11
5.167322834645668
 21
7.452755905511811
 31
0.0
  0
LINE
  5
2CE2
330
1E
100
AcDbEntity
  8
7
100
AcDbLine
 10
5.167322834645668
 20
7.452755905511811
 30
0.0
 11
5.168307086614173
 21
7.444881889763779
 31
0.0
  0
LINE
  5
2CE3
330
1E
100
AcDbEntity
  8
7
100
AcDbLine
 10
5.168307086614173
 20
7.444881889763779
 30
0.0
 11
5.168307086614173
 21
7.438976377952755
 31
0.0
  0
LINE
  5
2CE4
330
1E
100
AcDbEntity
  8
7
100
AcDbLine
 10
5.38779527559055
 20
7.205708661417322
 30
0.0
 11
5.319881889763779
 21
7.205708661417322
 31
0.0
  0
LINE
  5
2CE5
330
1E
100
AcDbEntity
  8
7
100
AcDbLine
 10
5.319881889763779
 20
7.205708661417322
 30
0.0
 11
5.318897637795275
 21
7.247047244094487
 31
0.0
  0
LINE
  5
2CE6
330
1E
100
AcDbEntity
  8
7
100
AcDbLine
 10
4.336614173228346
 20
7.247047244094487
 30
0.0
 11
4.193897637795275
 21
7.247047244094487
 31
0.0
  0
LINE
  5
2CE7
330
1E
100
AcDbEntity
  8
7
100
AcDbLine
 10
4.193897637795275
 20
7.247047244094487
 30
0.0
 11
4.191929133858267
 21
7.205708661417322
 31
0.0
  0
LINE
  5
2CE8
330
1E
100
AcDbEntity
  8
7
100
AcDbLine
 10
4.191929133858267
 20
7.205708661417322
 30
0.0
 11
4.124015748031495
 21
7.205708661417322
 31
0.0
  0
LINE
  5
2CE9
330
1E
100
AcDbEntity
  8
7
100
AcDbLine
 10
4.532480314960629
 20
7.438976377952755
 30
0.0
 11
4.344488188976377
 21
7.438976377952755
 31
0.0
  0
LINE
  5
2CEA
330
1E
100
AcDbEntity
  8
7
100
AcDbLine
 10
4.344488188976377
 20
7.438976377952755
 30
0.0
 11
4.336614173228346
 21
7.247047244094487
 31
0.0
  0
LINE
  5
2CEB
330
1E
100
AcDbEntity
  8
7
100
AcDbLine
 10
4.971456692913385
 20
7.247047244094487
 30
0.0
 11
4.828740157480314
 21
7.247047244094487
 31
0.0
  0
LINE
  5
2CEC
330
1E
100
AcDbEntity
  8
7
100
AcDbLine
 10
4.828740157480314
 20
7.247047244094487
 30
0.0
 11
4.826771653543306
 21
7.205708661417322
 31
0.0
  0
LINE
  5
2CED
330
1E
100
AcDbEntity
  8
7
100
AcDbLine
 10
4.826771653543306
 20
7.205708661417322
 30
0.0
 11
4.685039370078739
 21
7.205708661417322
 31
0.0
  0
LINE
  5
2CEE
330
1E
100
AcDbEntity
  8
7
100
AcDbLine
 10
4.685039370078739
 20
7.205708661417322
 30
0.0
 11
4.684055118110236
 21
7.247047244094487
 31
0.0
  0
LINE
  5
2CEF
330
1E
100
AcDbEntity
  8
7
100
AcDbLine
 10
4.125984251968503
 20
7.302165354330707
 30
0.0
 11
4.193897637795275
 21
7.302165354330707
 31
0.0
  0
LINE
  5
2CF0
330
1E
100
AcDbEntity
  8
7
100
AcDbLine
 10
4.193897637795275
 20
7.302165354330707
 30
0.0
 11
4.193897637795275
 21
7.247047244094487
 31
0.0
  0
LINE
  5
2CF1
330
1E
100
AcDbEntity
  8
7
100
AcDbLine
 10
3.835629921259842
 20
6.708661417322834
 30
0.0
 11
3.857283464566928
 21
6.691929133858267
 31
0.0
  0
LINE
  5
2CF2
330
1E
100
AcDbEntity
  8
7
100
AcDbLine
 10
3.857283464566928
 20
6.691929133858267
 30
0.0
 11
3.881889763779526
 21
6.681102362204724
 31
0.0
  0
LINE
  5
2CF3
330
1E
100
AcDbEntity
  8
7
100
AcDbLine
 10
3.881889763779526
 20
6.681102362204724
 30
0.0
 11
3.909448818897637
 21
6.677165354330708
 31
0.0
  0
LINE
  5
2CF4
330
1E
100
AcDbEntity
  8
7
100
AcDbLine
 10
3.909448818897637
 20
6.677165354330708
 30
0.0
 11
5.602362204724409
 21
6.677165354330708
 31
0.0
  0
LINE
  5
2CF5
330
1E
100
AcDbEntity
  8
7
100
AcDbLine
 10
5.602362204724409
 20
6.677165354330708
 30
0.0
 11
5.629921259842519
 21
6.681102362204724
 31
0.0
  0
LINE
  5
2CF6
330
1E
100
AcDbEntity
  8
7
100
AcDbLine
 10
5.629921259842519
 20
6.681102362204724
 30
0.0
 11
5.654527559055117
 21
6.691929133858267
 31
0.0
  0
LINE
  5
2CF7
330
1E
100
AcDbEntity
  8
7
100
AcDbLine
 10
5.654527559055117
 20
6.691929133858267
 30
0.0
 11
5.676181102362204
 21
6.708661417322834
 31
0.0
  0
LINE
  5
2CF8
330
1E
100
AcDbEntity
  8
7
100
AcDbLine
 10
5.676181102362204
 20
6.708661417322834
 30
0.0
 11
5.692913385826771
 21
6.730314960629921
 31
0.0
  0
LINE
  5
2CF9
330
1E
100
AcDbEntity
  8
7
100
AcDbLine
 10
5.692913385826771
 20
6.730314960629921
 30
0.0
 11
5.702755905511811
 21
6.755905511811023
 31
0.0
  0
LINE
  5
2CFA
330
1E
100
AcDbEntity
  8
7
100
AcDbLine
 10
5.702755905511811
 20
6.755905511811023
 30
0.0
 11
5.705708661417322
 21
6.784448818897637
 31
0.0
  0
LINE
  5
2CFB
330
1E
100
AcDbEntity
  8
7
100
AcDbLine
 10
5.705708661417322
 20
6.784448818897637
 30
0.0
 11
5.683070866141731
 21
8.006889763779527
 31
0.0
  0
LINE
  5
2CFC
330
1E
100
AcDbEntity
  8
7
100
AcDbLine
 10
5.683070866141731
 20
8.006889763779527
 30
0.0
 11
3.829724409448818
 21
8.006889763779527
 31
0.0
  0
LINE
  5
2CFD
330
1E
100
AcDbEntity
  8
7
100
AcDbLine
 10
3.829724409448818
 20
8.006889763779527
 30
0.0
 11
3.807086614173227
 21
6.784448818897637
 31
0.0
  0
LINE
  5
2CFE
330
1E
100
AcDbEntity
  8
7
100
AcDbLine
 10
3.807086614173227
 20
6.784448818897637
 30
0.0
 11
3.810039370078739
 21
6.755905511811023
 31
0.0
  0
LINE
  5
2CFF
330
1E
100
AcDbEntity
  8
7
100
AcDbLine
 10
3.810039370078739
 20
6.755905511811023
 30
0.0
 11
3.819881889763779
 21
6.730314960629921
 31
0.0
  0
LINE
  5
2D00
330
1E
100
AcDbEntity
  8
7
100
AcDbLine
 10
3.819881889763779
 20
6.730314960629921
 30
0.0
 11
3.835629921259842
 21
6.708661417322834
 31
0.0
  0
LINE
  5
2D01
330
1E
100
AcDbEntity
  8
7
100
AcDbLine
 10
4.882874015748031
 20
6.856299212598425
 30
0.0
 11
4.882874015748031
 21
6.88779527559055
 31
0.0
  0
LINE
  5
2D02
330
1E
100
AcDbEntity
  8
7
100
AcDbLine
 10
4.882874015748031
 20
6.88779527559055
 30
0.0
 11
4.875984251968503
 21
6.917322834645668
 31
0.0
  0
LINE
  5
2D03
330
1E
100
AcDbEntity
  8
7
100
AcDbLine
 10
4.875984251968503
 20
6.917322834645668
 30
0.0
 11
4.861220472440944
 21
6.944881889763779
 31
0.0
  0
LINE
  5
2D04
330
1E
100
AcDbEntity
  8
7
100
AcDbLine
 10
4.861220472440944
 20
6.944881889763779
 30
0.0
 11
4.840551181102362
 21
6.967519685039369
 31
0.0
  0
LINE
  5
2D05
330
1E
100
AcDbEntity
  8
7
100
AcDbLine
 10
4.840551181102362
 20
6.967519685039369
 30
0.0
 11
4.815944881889763
 21
6.98523622047244
 31
0.0
  0
LINE
  5
2D06
330
1E
100
AcDbEntity
  8
7
100
AcDbLine
 10
4.815944881889763
 20
6.98523622047244
 30
0.0
 11
4.786417322834645
 21
6.996062992125984
 31
0.0
  0
LINE
  5
2D07
330
1E
100
AcDbEntity
  8
7
100
AcDbLine
 10
4.786417322834645
 20
6.996062992125984
 30
0.0
 11
4.755905511811023
 21
7.0
 31
0.0
  0
LINE
  5
2D08
330
1E
100
AcDbEntity
  8
7
100
AcDbLine
 10
4.650590551181101
 20
6.944881889763779
 30
0.0
 11
4.636811023622047
 21
6.917322834645668
 31
0.0
  0
LINE
  5
2D09
330
1E
100
AcDbEntity
  8
7
100
AcDbLine
 10
4.636811023622047
 20
6.917322834645668
 30
0.0
 11
4.628937007874015
 21
6.88779527559055
 31
0.0
  0
LINE
  5
2D0A
330
1E
100
AcDbEntity
  8
7
100
AcDbLine
 10
4.628937007874015
 20
6.88779527559055
 30
0.0
 11
4.628937007874015
 21
6.856299212598425
 31
0.0
  0
LINE
  5
2D0B
330
1E
100
AcDbEntity
  8
7
100
AcDbLine
 10
4.628937007874015
 20
6.856299212598425
 30
0.0
 11
4.636811023622047
 21
6.826771653543306
 31
0.0
  0
LINE
  5
2D0C
330
1E
100
AcDbEntity
  8
7
100
AcDbLine
 10
4.636811023622047
 20
6.826771653543306
 30
0.0
 11
4.650590551181101
 21
6.799212598425196
 31
0.0
  0
LINE
  5
2D0D
330
1E
100
AcDbEntity
  8
7
100
AcDbLine
 10
4.650590551181101
 20
6.799212598425196
 30
0.0
 11
4.671259842519684
 21
6.776574803149605
 31
0.0
  0
LINE
  5
2D0E
330
1E
100
AcDbEntity
  8
7
100
AcDbLine
 10
4.671259842519684
 20
6.776574803149605
 30
0.0
 11
4.696850393700787
 21
6.758858267716535
 31
0.0
  0
LINE
  5
2D0F
330
1E
100
AcDbEntity
  8
7
100
AcDbLine
 10
4.696850393700787
 20
6.758858267716535
 30
0.0
 11
4.7253937007874
 21
6.748031496062991
 31
0.0
  0
LINE
  5
2D10
330
1E
100
AcDbEntity
  8
7
100
AcDbLine
 10
4.7253937007874
 20
6.748031496062991
 30
0.0
 11
4.755905511811023
 21
6.744094488188975
 31
0.0
  0
LINE
  5
2D11
330
1E
100
AcDbEntity
  8
7
100
AcDbLine
 10
4.755905511811023
 20
6.744094488188975
 30
0.0
 11
4.786417322834645
 21
6.748031496062991
 31
0.0
  0
LINE
  5
2D12
330
1E
100
AcDbEntity
  8
7
100
AcDbLine
 10
4.786417322834645
 20
6.748031496062991
 30
0.0
 11
4.815944881889763
 21
6.758858267716535
 31
0.0
  0
LINE
  5
2D13
330
1E
100
AcDbEntity
  8
7
100
AcDbLine
 10
4.815944881889763
 20
6.758858267716535
 30
0.0
 11
4.840551181102362
 21
6.776574803149605
 31
0.0
  0
LINE
  5
2D14
330
1E
100
AcDbEntity
  8
7
100
AcDbLine
 10
4.840551181102362
 20
6.776574803149605
 30
0.0
 11
4.861220472440944
 21
6.799212598425196
 31
0.0
  0
LINE
  5
2D15
330
1E
100
AcDbEntity
  8
7
100
AcDbLine
 10
4.861220472440944
 20
6.799212598425196
 30
0.0
 11
4.875984251968503
 21
6.826771653543306
 31
0.0
  0
LINE
  5
2D16
330
1E
100
AcDbEntity
  8
7
100
AcDbLine
 10
4.875984251968503
 20
6.826771653543306
 30
0.0
 11
4.882874015748031
 21
6.856299212598425
 31
0.0
  0
LINE
  5
2D17
330
1E
100
AcDbEntity
  8
7
100
AcDbLine
 10
4.755905511811023
 20
7.0
 30
0.0
 11
4.7253937007874
 21
6.996062992125984
 31
0.0
  0
LINE
  5
2D18
330
1E
100
AcDbEntity
  8
7
100
AcDbLine
 10
4.7253937007874
 20
6.996062992125984
 30
0.0
 11
4.696850393700787
 21
6.98523622047244
 31
0.0
  0
LINE
  5
2D19
330
1E
100
AcDbEntity
  8
7
100
AcDbLine
 10
4.696850393700787
 20
6.98523622047244
 30
0.0
 11
4.671259842519684
 21
6.967519685039369
 31
0.0
  0
LINE
  5
2D1A
330
1E
100
AcDbEntity
  8
7
100
AcDbLine
 10
4.671259842519684
 20
6.967519685039369
 30
0.0
 11
4.650590551181101
 21
6.944881889763779
 31
0.0
  0
LINE
  5
2D1B
330
1E
100
AcDbEntity
  8
7
100
AcDbLine
 10
4.123031496062991
 20
7.26279527559055
 30
0.0
 11
4.125984251968503
 21
7.302165354330707
 31
0.0
  0
LINE
  5
2D1C
330
1E
100
AcDbEntity
  8
7
100
AcDbLine
 10
4.125984251968503
 20
7.302165354330707
 30
0.0
 11
4.125
 21
7.359251968503937
 31
0.0
  0
LINE
  5
2D1D
330
1E
100
AcDbEntity
  8
7
100
AcDbLine
 10
4.125
 20
7.359251968503937
 30
0.0
 11
4.122047244094487
 21
7.367125984251968
 31
0.0
  0
LINE
  5
2D1E
330
1E
100
AcDbEntity
  8
7
100
AcDbLine
 10
4.974409448818897
 20
7.884842519685038
 30
0.0
 11
4.986220472440944
 21
7.884842519685038
 31
0.0
  0
LINE
  5
2D1F
330
1E
100
AcDbEntity
  8
7
100
AcDbLine
 10
4.986220472440944
 20
7.884842519685038
 30
0.0
 11
4.986220472440944
 21
7.853346456692912
 31
0.0
  0
LINE
  5
2D20
330
1E
100
AcDbEntity
  8
7
100
AcDbLine
 10
4.986220472440944
 20
7.853346456692912
 30
0.0
 11
5.161417322834645
 21
7.853346456692912
 31
0.0
  0
LINE
  5
2D21
330
1E
100
AcDbEntity
  8
7
100
AcDbLine
 10
5.161417322834645
 20
7.853346456692912
 30
0.0
 11
5.161417322834645
 21
7.884842519685038
 31
0.0
  0
LINE
  5
2D22
330
1E
100
AcDbEntity
  8
7
100
AcDbLine
 10
4.339566929133858
 20
7.884842519685038
 30
0.0
 11
4.331692913385826
 21
7.840551181102361
 31
0.0
  0
LINE
  5
2D23
330
1E
100
AcDbEntity
  8
7
100
AcDbLine
 10
4.331692913385826
 20
7.840551181102361
 30
0.0
 11
4.125
 21
7.840551181102361
 31
0.0
  0
LINE
  5
2D24
330
1E
100
AcDbEntity
  8
7
100
AcDbLine
 10
5.386811023622047
 20
7.840551181102361
 30
0.0
 11
5.18011811023622
 21
7.840551181102361
 31
0.0
  0
LINE
  5
2D25
330
1E
100
AcDbEntity
  8
7
100
AcDbLine
 10
5.18011811023622
 20
7.840551181102361
 30
0.0
 11
5.173228346456692
 21
7.884842519685038
 31
0.0
  0
LINE
  5
2D26
330
1E
100
AcDbEntity
  8
7
100
AcDbLine
 10
5.173228346456692
 20
7.884842519685038
 30
0.0
 11
5.161417322834645
 21
7.884842519685038
 31
0.0
  0
LINE
  5
2FD6
330
1E
100
AcDbEntity
  8
7
100
AcDbLine
 10
7.45275590551181
 20
6.678149606299212
 30
0.0
 11
7.460629921259841
 21
6.665354330708661
 31
0.0
  0
LINE
  5
2FD7
330
1E
100
AcDbEntity
  8
7
100
AcDbLine
 10
7.460629921259841
 20
6.665354330708661
 30
0.0
 11
7.474409448818897
 21
6.659448818897637
 31
0.0
  0
LINE
  5
2FD8
330
1E
100
AcDbEntity
  8
7
100
AcDbLine
 10
7.445866141732282
 20
6.790354330708661
 30
0.0
 11
7.430118110236219
 21
6.786417322834645
 31
0.0
  0
LINE
  5
2FD9
330
1E
100
AcDbEntity
  8
7
100
AcDbLine
 10
7.430118110236219
 20
6.786417322834645
 30
0.0
 11
7.423228346456691
 21
6.784448818897637
 31
0.0
  0
LINE
  5
2FDA
330
1E
100
AcDbEntity
  8
7
100
AcDbLine
 10
7.118110236220472
 20
8.013779527559055
 30
0.0
 11
7.102362204724409
 21
8.009842519685038
 31
0.0
  0
LINE
  5
2FDB
330
1E
100
AcDbEntity
  8
7
100
AcDbLine
 10
7.102362204724409
 20
8.009842519685038
 30
0.0
 11
7.095472440944881
 21
8.006889763779527
 31
0.0
  0
LINE
  5
2FDC
330
1E
100
AcDbEntity
  8
7
100
AcDbLine
 10
7.118110236220472
 20
8.013779527559055
 30
0.0
 11
7.101377952755905
 21
8.013779527559055
 31
0.0
  0
LINE
  5
2FDD
330
1E
100
AcDbEntity
  8
7
100
AcDbLine
 10
7.101377952755905
 20
8.013779527559055
 30
0.0
 11
7.095472440944881
 21
8.013779527559055
 31
0.0
  0
LINE
  5
2FDE
330
1E
100
AcDbEntity
  8
7
100
AcDbLine
 10
7.118110236220472
 20
8.059055118110235
 30
0.0
 11
7.104330708661416
 21
8.06791338582677
 31
0.0
  0
LINE
  5
2FDF
330
1E
100
AcDbEntity
  8
7
100
AcDbLine
 10
7.104330708661416
 20
8.06791338582677
 30
0.0
 11
7.098425196850393
 21
8.071850393700787
 31
0.0
  0
LINE
  5
2FE0
330
1E
100
AcDbEntity
  8
7
100
AcDbLine
 10
7.357283464566928
 20
8.473425196850392
 30
0.0
 11
7.343503937007874
 21
8.482283464566929
 31
0.0
  0
LINE
  5
2FE1
330
1E
100
AcDbEntity
  8
7
100
AcDbLine
 10
7.343503937007874
 20
8.482283464566929
 30
0.0
 11
7.33759842519685
 21
8.486220472440944
 31
0.0
  0
LINE
  5
2FE2
330
1E
100
AcDbEntity
  8
7
100
AcDbLine
 10
7.42027559055118
 20
8.607283464566929
 30
0.0
 11
7.409448818897637
 21
8.603346456692912
 31
0.0
  0
LINE
  5
2FE3
330
1E
100
AcDbEntity
  8
7
100
AcDbLine
 10
7.409448818897637
 20
8.603346456692912
 30
0.0
 11
7.400590551181102
 21
8.595472440944881
 31
0.0
  0
LINE
  5
2FE4
330
1E
100
AcDbEntity
  8
7
100
AcDbLine
 10
7.445866141732282
 20
6.790354330708661
 30
0.0
 11
7.45275590551181
 21
6.755905511811023
 31
0.0
  0
LINE
  5
2FE5
330
1E
100
AcDbEntity
  8
7
100
AcDbLine
 10
7.45275590551181
 20
6.755905511811023
 30
0.0
 11
7.459645669291337
 21
6.724409448818897
 31
0.0
  0
LINE
  5
2FE6
330
1E
100
AcDbEntity
  8
7
100
AcDbLine
 10
7.459645669291337
 20
6.724409448818897
 30
0.0
 11
7.465551181102362
 21
6.69783464566929
 31
0.0
  0
LINE
  5
2FE7
330
1E
100
AcDbEntity
  8
7
100
AcDbLine
 10
7.465551181102362
 20
6.69783464566929
 30
0.0
 11
7.470472440944882
 21
6.676181102362204
 31
0.0
  0
LINE
  5
2FE8
330
1E
100
AcDbEntity
  8
7
100
AcDbLine
 10
7.470472440944882
 20
6.676181102362204
 30
0.0
 11
7.473425196850393
 21
6.663385826771652
 31
0.0
  0
LINE
  5
2FE9
330
1E
100
AcDbEntity
  8
7
100
AcDbLine
 10
7.473425196850393
 20
6.663385826771652
 30
0.0
 11
7.474409448818897
 21
6.658464566929133
 31
0.0
  0
LINE
  5
2FEA
330
1E
100
AcDbEntity
  8
7
100
AcDbLine
 10
7.406496062992125
 20
8.578740157480314
 30
0.0
 11
7.396653543307086
 21
8.557086614173227
 31
0.0
  0
LINE
  5
2FEB
330
1E
100
AcDbEntity
  8
7
100
AcDbLine
 10
7.396653543307086
 20
8.557086614173227
 30
0.0
 11
7.384842519685038
 21
8.531496062992125
 31
0.0
  0
LINE
  5
2FEC
330
1E
100
AcDbEntity
  8
7
100
AcDbLine
 10
7.384842519685038
 20
8.531496062992125
 30
0.0
 11
7.371062992125984
 21
8.503937007874014
 31
0.0
  0
LINE
  5
2FED
330
1E
100
AcDbEntity
  8
7
100
AcDbLine
 10
7.371062992125984
 20
8.503937007874014
 30
0.0
 11
7.357283464566928
 21
8.473425196850392
 31
0.0
  0
LINE
  5
2FEE
330
1E
100
AcDbEntity
  8
7
100
AcDbLine
 10
7.42027559055118
 20
8.608267716535433
 30
0.0
 11
7.418307086614173
 21
8.604330708661416
 31
0.0
  0
LINE
  5
2FEF
330
1E
100
AcDbEntity
  8
7
100
AcDbLine
 10
7.418307086614173
 20
8.604330708661416
 30
0.0
 11
7.414370078740156
 21
8.594488188976377
 31
0.0
  0
LINE
  5
2FF0
330
1E
100
AcDbEntity
  8
7
100
AcDbLine
 10
7.414370078740156
 20
8.594488188976377
 30
0.0
 11
7.406496062992125
 21
8.578740157480314
 31
0.0
  0
LINE
  5
2FF1
330
1E
100
AcDbEntity
  8
7
100
AcDbLine
 10
7.095472440944881
 20
8.013779527559055
 30
0.0
 11
7.095472440944881
 21
8.010826771653542
 31
0.0
  0
LINE
  5
2FF2
330
1E
100
AcDbEntity
  8
7
100
AcDbLine
 10
7.095472440944881
 20
8.010826771653542
 30
0.0
 11
7.096456692913385
 21
8.007874015748031
 31
0.0
  0
LINE
  5
2FF3
330
1E
100
AcDbEntity
  8
7
100
AcDbLine
 10
7.098425196850393
 20
8.071850393700787
 30
0.0
 11
7.096456692913385
 21
8.064960629921259
 31
0.0
  0
LINE
  5
2FF4
330
1E
100
AcDbEntity
  8
7
100
AcDbLine
 10
7.096456692913385
 20
8.064960629921259
 30
0.0
 11
7.095472440944881
 21
8.059055118110235
 31
0.0
  0
LINE
  5
2FF5
330
1E
100
AcDbEntity
  8
7
100
AcDbLine
 10
7.58759842519685
 20
8.490157480314961
 30
0.0
 11
7.357283464566928
 21
8.473425196850392
 31
0.0
  0
LINE
  5
2FF6
330
1E
100
AcDbEntity
  8
7
100
AcDbLine
 10
7.357283464566928
 20
8.473425196850392
 30
0.0
 11
7.118110236220472
 21
8.059055118110235
 31
0.0
  0
LINE
  5
2FF7
330
1E
100
AcDbEntity
  8
7
100
AcDbLine
 10
7.118110236220472
 20
8.059055118110235
 30
0.0
 11
7.118110236220472
 21
8.013779527559055
 31
0.0
  0
LINE
  5
2FF8
330
1E
100
AcDbEntity
  8
7
100
AcDbLine
 10
7.118110236220472
 20
8.013779527559055
 30
0.0
 11
7.445866141732282
 21
6.790354330708661
 31
0.0
  0
LINE
  5
2FF9
330
1E
100
AcDbEntity
  8
7
100
AcDbLine
 10
7.445866141732282
 20
6.790354330708661
 30
0.0
 11
7.58759842519685
 21
6.780511811023621
 31
0.0
  0
LINE
  5
2FFA
330
1E
100
AcDbEntity
  8
7
100
AcDbLine
 10
7.098425196850393
 20
8.071850393700787
 30
0.0
 11
7.33759842519685
 21
8.486220472440944
 31
0.0
  0
LINE
  5
2FFB
330
1E
100
AcDbEntity
  8
7
100
AcDbLine
 10
7.33759842519685
 20
8.486220472440944
 30
0.0
 11
7.354330708661416
 21
8.514763779527559
 31
0.0
  0
LINE
  5
2FFC
330
1E
100
AcDbEntity
  8
7
100
AcDbLine
 10
7.354330708661416
 20
8.514763779527559
 30
0.0
 11
7.369094488188975
 21
8.540354330708661
 31
0.0
  0
LINE
  5
2FFD
330
1E
100
AcDbEntity
  8
7
100
AcDbLine
 10
7.369094488188975
 20
8.540354330708661
 30
0.0
 11
7.381889763779526
 21
8.562992125984251
 31
0.0
  0
LINE
  5
2FFE
330
1E
100
AcDbEntity
  8
7
100
AcDbLine
 10
7.381889763779526
 20
8.562992125984251
 30
0.0
 11
7.39271653543307
 21
8.580708661417322
 31
0.0
  0
LINE
  5
2FFF
330
1E
100
AcDbEntity
  8
7
100
AcDbLine
 10
7.39271653543307
 20
8.580708661417322
 30
0.0
 11
7.398622047244093
 21
8.591535433070866
 31
0.0
  0
LINE
  5
3000
330
1E
100
AcDbEntity
  8
7
100
AcDbLine
 10
7.398622047244093
 20
8.591535433070866
 30
0.0
 11
7.400590551181102
 21
8.595472440944881
 31
0.0
  0
LINE
  5
3001
330
1E
100
AcDbEntity
  8
7
100
AcDbLine
 10
7.58759842519685
 20
6.780511811023621
 30
0.0
 11
7.58759842519685
 21
6.747047244094487
 31
0.0
  0
LINE
  5
3002
330
1E
100
AcDbEntity
  8
7
100
AcDbLine
 10
7.58759842519685
 20
6.747047244094487
 30
0.0
 11
7.58759842519685
 21
6.715551181102362
 31
0.0
  0
LINE
  5
3003
330
1E
100
AcDbEntity
  8
7
100
AcDbLine
 10
7.58759842519685
 20
6.715551181102362
 30
0.0
 11
7.58759842519685
 21
6.688976377952755
 31
0.0
  0
LINE
  5
3004
330
1E
100
AcDbEntity
  8
7
100
AcDbLine
 10
7.58759842519685
 20
6.688976377952755
 30
0.0
 11
7.58759842519685
 21
6.668307086614173
 31
0.0
  0
LINE
  5
3005
330
1E
100
AcDbEntity
  8
7
100
AcDbLine
 10
7.58759842519685
 20
6.668307086614173
 30
0.0
 11
7.58759842519685
 21
6.655511811023621
 31
0.0
  0
LINE
  5
3006
330
1E
100
AcDbEntity
  8
7
100
AcDbLine
 10
7.58759842519685
 20
6.655511811023621
 30
0.0
 11
7.58759842519685
 21
6.650590551181101
 31
0.0
  0
LINE
  5
3007
330
1E
100
AcDbEntity
  8
7
100
AcDbLine
 10
7.42027559055118
 20
8.608267716535433
 30
0.0
 11
7.58759842519685
 21
8.619094488188975
 31
0.0
  0
LINE
  5
3008
330
1E
100
AcDbEntity
  8
7
100
AcDbLine
 10
7.58759842519685
 20
8.619094488188975
 30
0.0
 11
7.58759842519685
 21
8.615157480314961
 31
0.0
  0
LINE
  5
3009
330
1E
100
AcDbEntity
  8
7
100
AcDbLine
 10
7.58759842519685
 20
8.615157480314961
 30
0.0
 11
7.58759842519685
 21
8.602362204724409
 31
0.0
  0
LINE
  5
300A
330
1E
100
AcDbEntity
  8
7
100
AcDbLine
 10
7.58759842519685
 20
8.602362204724409
 30
0.0
 11
7.58759842519685
 21
8.581692913385825
 31
0.0
  0
LINE
  5
300B
330
1E
100
AcDbEntity
  8
7
100
AcDbLine
 10
7.58759842519685
 20
8.581692913385825
 30
0.0
 11
7.58759842519685
 21
8.55511811023622
 31
0.0
  0
LINE
  5
300C
330
1E
100
AcDbEntity
  8
7
100
AcDbLine
 10
7.58759842519685
 20
8.55511811023622
 30
0.0
 11
7.58759842519685
 21
8.523622047244094
 31
0.0
  0
LINE
  5
300D
330
1E
100
AcDbEntity
  8
7
100
AcDbLine
 10
7.58759842519685
 20
8.523622047244094
 30
0.0
 11
7.58759842519685
 21
8.490157480314961
 31
0.0
  0
LINE
  5
300E
330
1E
100
AcDbEntity
  8
7
100
AcDbLine
 10
7.924212598425197
 20
7.5
 30
0.0
 11
7.93799212598425
 21
7.490157480314961
 31
0.0
  0
LINE
  5
300F
330
1E
100
AcDbEntity
  8
7
100
AcDbLine
 10
7.93799212598425
 20
7.490157480314961
 30
0.0
 11
7.946850393700786
 21
7.476377952755905
 31
0.0
  0
LINE
  5
3010
330
1E
100
AcDbEntity
  8
7
100
AcDbLine
 10
7.946850393700786
 20
7.476377952755905
 30
0.0
 11
7.958661417322834
 21
7.452755905511811
 31
0.0
  0
LINE
  5
3011
330
1E
100
AcDbEntity
  8
7
100
AcDbLine
 10
7.958661417322834
 20
7.452755905511811
 30
0.0
 11
7.958661417322834
 21
7.444881889763779
 31
0.0
  0
LINE
  5
3012
330
1E
100
AcDbEntity
  8
7
100
AcDbLine
 10
7.58759842519685
 20
7.155511811023621
 30
0.0
 11
8.115157480314961
 21
7.44783464566929
 31
0.0
  0
LINE
  5
3013
330
1E
100
AcDbEntity
  8
7
100
AcDbLine
 10
8.115157480314961
 20
7.44783464566929
 30
0.0
 11
8.123031496062992
 21
7.455708661417322
 31
0.0
  0
LINE
  5
3014
330
1E
100
AcDbEntity
  8
7
100
AcDbLine
 10
8.123031496062992
 20
7.455708661417322
 30
0.0
 11
8.125
 21
7.46751968503937
 31
0.0
  0
LINE
  5
3015
330
1E
100
AcDbEntity
  8
7
100
AcDbLine
 10
8.125
 20
7.46751968503937
 30
0.0
 11
8.120078740157481
 21
7.478346456692912
 31
0.0
  0
LINE
  5
3016
330
1E
100
AcDbEntity
  8
7
100
AcDbLine
 10
8.120078740157481
 20
7.478346456692912
 30
0.0
 11
8.11023622047244
 21
7.484251968503937
 31
0.0
  0
LINE
  5
3017
330
1E
100
AcDbEntity
  8
7
100
AcDbLine
 10
8.11023622047244
 20
7.484251968503937
 30
0.0
 11
8.010826771653544
 21
7.510826771653542
 31
0.0
  0
LINE
  5
3018
330
1E
100
AcDbEntity
  8
7
100
AcDbLine
 10
8.010826771653544
 20
7.510826771653542
 30
0.0
 11
7.917322834645669
 21
7.510826771653542
 31
0.0
  0
LINE
  5
3019
330
1E
100
AcDbEntity
  8
7
100
AcDbLine
 10
7.917322834645669
 20
7.510826771653542
 30
0.0
 11
7.921259842519684
 21
7.501968503937007
 31
0.0
  0
LINE
  5
301A
330
1E
100
AcDbEntity
  8
7
100
AcDbLine
 10
7.451771653543306
 20
6.677165354330708
 30
0.0
 11
7.450787401574802
 21
6.681102362204724
 31
0.0
  0
LINE
  5
301B
330
1E
100
AcDbEntity
  8
7
100
AcDbLine
 10
7.450787401574802
 20
6.681102362204724
 30
0.0
 11
7.448818897637795
 21
6.691929133858267
 31
0.0
  0
LINE
  5
301C
330
1E
100
AcDbEntity
  8
7
100
AcDbLine
 10
7.448818897637795
 20
6.691929133858267
 30
0.0
 11
7.443897637795275
 21
6.708661417322834
 31
0.0
  0
LINE
  5
301D
330
1E
100
AcDbEntity
  8
7
100
AcDbLine
 10
7.443897637795275
 20
6.708661417322834
 30
0.0
 11
7.43799212598425
 21
6.730314960629921
 31
0.0
  0
LINE
  5
301E
330
1E
100
AcDbEntity
  8
7
100
AcDbLine
 10
7.43799212598425
 20
6.730314960629921
 30
0.0
 11
7.431102362204723
 21
6.755905511811023
 31
0.0
  0
LINE
  5
301F
330
1E
100
AcDbEntity
  8
7
100
AcDbLine
 10
7.431102362204723
 20
6.755905511811023
 30
0.0
 11
7.423228346456691
 21
6.784448818897637
 31
0.0
  0
LINE
  5
3020
330
1E
100
AcDbEntity
  8
7
100
AcDbLine
 10
7.423228346456691
 20
6.784448818897637
 30
0.0
 11
7.095472440944881
 21
8.006889763779527
 31
0.0
  0
LINE
  5
3021
330
1E
100
AcDbEntity
  8
7
100
AcDbLine
 10
5.602362204724409
 20
5.417322834645668
 30
0.0
 11
5.602362204724409
 21
5.431102362204724
 31
0.0
  0
LINE
  5
3022
330
1E
100
AcDbEntity
  8
7
100
AcDbLine
 10
5.602362204724409
 20
5.431102362204724
 30
0.0
 11
5.602362204724409
 21
5.439960629921259
 31
0.0
  0
LINE
  5
3023
330
1E
100
AcDbEntity
  8
7
100
AcDbLine
 10
3.909448818897637
 20
5.439960629921259
 30
0.0
 11
3.909448818897637
 21
5.431102362204724
 31
0.0
  0
LINE
  5
3024
330
1E
100
AcDbEntity
  8
7
100
AcDbLine
 10
3.909448818897637
 20
5.431102362204724
 30
0.0
 11
3.909448818897637
 21
5.417322834645668
 31
0.0
  0
LINE
  5
3025
330
1E
100
AcDbEntity
  8
7
100
AcDbLine
 10
3.807086614173227
 20
5.468503937007874
 30
0.0
 11
3.789370078740157
 21
5.461614173228346
 31
0.0
  0
LINE
  5
3026
330
1E
100
AcDbEntity
  8
7
100
AcDbLine
 10
3.789370078740157
 20
5.461614173228346
 30
0.0
 11
3.781496062992125
 21
5.445866141732283
 31
0.0
  0
LINE
  5
3027
330
1E
100
AcDbEntity
  8
7
100
AcDbLine
 10
5.70767716535433
 20
5.773622047244094
 30
0.0
 11
5.699803149606299
 21
5.789370078740157
 31
0.0
  0
LINE
  5
3028
330
1E
100
AcDbEntity
  8
7
100
AcDbLine
 10
5.699803149606299
 20
5.789370078740157
 30
0.0
 11
5.683070866141731
 21
5.796259842519684
 31
0.0
  0
LINE
  5
3029
330
1E
100
AcDbEntity
  8
7
100
AcDbLine
 10
3.829724409448818
 20
5.796259842519684
 30
0.0
 11
3.812007874015748
 21
5.789370078740157
 31
0.0
  0
LINE
  5
302A
330
1E
100
AcDbEntity
  8
7
100
AcDbLine
 10
3.812007874015748
 20
5.789370078740157
 30
0.0
 11
3.804133858267715
 21
5.773622047244094
 31
0.0
  0
LINE
  5
302B
330
1E
100
AcDbEntity
  8
7
100
AcDbLine
 10
5.70767716535433
 20
5.773622047244094
 30
0.0
 11
5.699803149606299
 21
5.789370078740157
 31
0.0
  0
LINE
  5
302C
330
1E
100
AcDbEntity
  8
7
100
AcDbLine
 10
5.699803149606299
 20
5.789370078740157
 30
0.0
 11
5.683070866141731
 21
5.796259842519684
 31
0.0
  0
LINE
  5
302D
330
1E
100
AcDbEntity
  8
7
100
AcDbLine
 10
3.829724409448818
 20
5.796259842519684
 30
0.0
 11
3.812992125984251
 21
5.789370078740157
 31
0.0
  0
LINE
  5
302E
330
1E
100
AcDbEntity
  8
7
100
AcDbLine
 10
3.812992125984251
 20
5.789370078740157
 30
0.0
 11
3.80511811023622
 21
5.773622047244094
 31
0.0
  0
LINE
  5
302F
330
1E
100
AcDbEntity
  8
7
100
AcDbLine
 10
3.844488188976377
 20
5.421259842519684
 30
0.0
 11
3.817913385826771
 21
5.426181102362204
 31
0.0
  0
LINE
  5
3030
330
1E
100
AcDbEntity
  8
7
100
AcDbLine
 10
3.817913385826771
 20
5.426181102362204
 30
0.0
 11
3.798228346456692
 21
5.432086614173227
 31
0.0
  0
LINE
  5
3031
330
1E
100
AcDbEntity
  8
7
100
AcDbLine
 10
3.798228346456692
 20
5.432086614173227
 30
0.0
 11
3.785433070866141
 21
5.438976377952755
 31
0.0
  0
LINE
  5
3032
330
1E
100
AcDbEntity
  8
7
100
AcDbLine
 10
3.785433070866141
 20
5.438976377952755
 30
0.0
 11
3.781496062992125
 21
5.445866141732283
 31
0.0
  0
LINE
  5
3033
330
1E
100
AcDbEntity
  8
7
100
AcDbLine
 10
3.909448818897637
 20
5.417322834645668
 30
0.0
 11
3.875984251968503
 21
5.418307086614173
 31
0.0
  0
LINE
  5
3034
330
1E
100
AcDbEntity
  8
7
100
AcDbLine
 10
3.875984251968503
 20
5.418307086614173
 30
0.0
 11
3.844488188976377
 21
5.421259842519684
 31
0.0
  0
LINE
  5
3035
330
1E
100
AcDbEntity
  8
7
100
AcDbLine
 10
5.730314960629921
 20
5.445866141732283
 30
0.0
 11
5.726377952755905
 21
5.438976377952755
 31
0.0
  0
LINE
  5
3036
330
1E
100
AcDbEntity
  8
7
100
AcDbLine
 10
5.726377952755905
 20
5.438976377952755
 30
0.0
 11
5.713582677165353
 21
5.432086614173227
 31
0.0
  0
LINE
  5
3037
330
1E
100
AcDbEntity
  8
7
100
AcDbLine
 10
5.713582677165353
 20
5.432086614173227
 30
0.0
 11
5.693897637795275
 21
5.426181102362204
 31
0.0
  0
LINE
  5
3038
330
1E
100
AcDbEntity
  8
7
100
AcDbLine
 10
5.693897637795275
 20
5.426181102362204
 30
0.0
 11
5.667322834645668
 21
5.421259842519684
 31
0.0
  0
LINE
  5
3039
330
1E
100
AcDbEntity
  8
7
100
AcDbLine
 10
5.667322834645668
 20
5.421259842519684
 30
0.0
 11
5.635826771653542
 21
5.418307086614173
 31
0.0
  0
LINE
  5
303A
330
1E
100
AcDbEntity
  8
7
100
AcDbLine
 10
5.635826771653542
 20
5.418307086614173
 30
0.0
 11
5.602362204724409
 21
5.417322834645668
 31
0.0
  0
LINE
  5
303B
330
1E
100
AcDbEntity
  8
7
100
AcDbLine
 10
4.346456692913385
 20
4.776574803149605
 30
0.0
 11
4.347440944881889
 21
4.769685039370078
 31
0.0
  0
LINE
  5
303C
330
1E
100
AcDbEntity
  8
7
100
AcDbLine
 10
4.347440944881889
 20
4.769685039370078
 30
0.0
 11
4.347440944881889
 21
4.766732283464566
 31
0.0
  0
LINE
  5
303D
330
1E
100
AcDbEntity
  8
7
100
AcDbLine
 10
4.540354330708661
 20
5.30511811023622
 30
0.0
 11
4.530511811023621
 21
4.776574803149605
 31
0.0
  0
LINE
  5
303E
330
1E
100
AcDbEntity
  8
7
100
AcDbLine
 10
4.530511811023621
 20
4.776574803149605
 30
0.0
 11
4.530511811023621
 21
4.769685039370078
 31
0.0
  0
LINE
  5
303F
330
1E
100
AcDbEntity
  8
7
100
AcDbLine
 10
4.530511811023621
 20
4.769685039370078
 30
0.0
 11
4.530511811023621
 21
4.766732283464566
 31
0.0
  0
LINE
  5
3040
330
1E
100
AcDbEntity
  8
7
100
AcDbLine
 10
5.165354330708661
 20
4.776574803149605
 30
0.0
 11
4.982283464566928
 21
4.776574803149605
 31
0.0
  0
LINE
  5
3041
330
1E
100
AcDbEntity
  8
7
100
AcDbLine
 10
4.982283464566928
 20
4.776574803149605
 30
0.0
 11
4.982283464566928
 21
4.769685039370078
 31
0.0
  0
LINE
  5
3042
330
1E
100
AcDbEntity
  8
7
100
AcDbLine
 10
5.70767716535433
 20
5.773622047244094
 30
0.0
 11
5.730314960629921
 21
5.445866141732283
 31
0.0
  0
LINE
  5
3043
330
1E
100
AcDbEntity
  8
7
100
AcDbLine
 10
5.730314960629921
 20
5.445866141732283
 30
0.0
 11
5.74015748031496
 21
5.30511811023622
 31
0.0
  0
LINE
  5
3044
330
1E
100
AcDbEntity
  8
7
100
AcDbLine
 10
5.161417322834645
 20
5.586614173228346
 30
0.0
 11
5.161417322834645
 21
5.583661417322834
 31
0.0
  0
LINE
  5
3045
330
1E
100
AcDbEntity
  8
7
100
AcDbLine
 10
5.161417322834645
 20
5.583661417322834
 30
0.0
 11
5.161417322834645
 21
5.58267716535433
 31
0.0
  0
LINE
  5
3046
330
1E
100
AcDbEntity
  8
7
100
AcDbLine
 10
4.986220472440944
 20
5.58267716535433
 30
0.0
 11
4.986220472440944
 21
5.583661417322834
 31
0.0
  0
LINE
  5
3047
330
1E
100
AcDbEntity
  8
7
100
AcDbLine
 10
4.986220472440944
 20
5.583661417322834
 30
0.0
 11
4.986220472440944
 21
5.586614173228346
 31
0.0
  0
LINE
  5
3048
330
1E
100
AcDbEntity
  8
7
100
AcDbLine
 10
4.986220472440944
 20
5.636811023622047
 30
0.0
 11
4.986220472440944
 21
5.586614173228346
 31
0.0
  0
LINE
  5
3049
330
1E
100
AcDbEntity
  8
7
100
AcDbLine
 10
4.986220472440944
 20
5.586614173228346
 30
0.0
 11
5.161417322834645
 21
5.586614173228346
 31
0.0
  0
LINE
  5
304A
330
1E
100
AcDbEntity
  8
7
100
AcDbLine
 10
5.161417322834645
 20
5.586614173228346
 30
0.0
 11
5.161417322834645
 21
5.636811023622047
 31
0.0
  0
LINE
  5
304B
330
1E
100
AcDbEntity
  8
7
100
AcDbLine
 10
5.161417322834645
 20
5.636811023622047
 30
0.0
 11
4.986220472440944
 21
5.636811023622047
 31
0.0
  0
LINE
  5
304C
330
1E
100
AcDbEntity
  8
7
100
AcDbLine
 10
4.862204724409448
 20
5.591535433070865
 30
0.0
 11
4.861220472440944
 21
5.585629921259842
 31
0.0
  0
LINE
  5
304D
330
1E
100
AcDbEntity
  8
7
100
AcDbLine
 10
4.861220472440944
 20
5.585629921259842
 30
0.0
 11
4.859251968503937
 21
5.567913385826771
 31
0.0
  0
LINE
  5
304E
330
1E
100
AcDbEntity
  8
7
100
AcDbLine
 10
4.65255905511811
 20
5.567913385826771
 30
0.0
 11
4.650590551181101
 21
5.585629921259842
 31
0.0
  0
LINE
  5
304F
330
1E
100
AcDbEntity
  8
7
100
AcDbLine
 10
4.650590551181101
 20
5.585629921259842
 30
0.0
 11
4.649606299212598
 21
5.591535433070865
 31
0.0
  0
LINE
  5
3050
330
1E
100
AcDbEntity
  8
7
100
AcDbLine
 10
3.771653543307086
 20
5.30511811023622
 30
0.0
 11
3.781496062992125
 21
5.445866141732283
 31
0.0
  0
LINE
  5
3051
330
1E
100
AcDbEntity
  8
7
100
AcDbLine
 10
3.781496062992125
 20
5.445866141732283
 30
0.0
 11
3.804133858267715
 21
5.773622047244094
 31
0.0
  0
LINE
  5
3052
330
1E
100
AcDbEntity
  8
7
100
AcDbLine
 10
4.525590551181101
 20
5.58267716535433
 30
0.0
 11
4.525590551181101
 21
5.583661417322834
 31
0.0
  0
LINE
  5
3053
330
1E
100
AcDbEntity
  8
7
100
AcDbLine
 10
4.525590551181101
 20
5.583661417322834
 30
0.0
 11
4.525590551181101
 21
5.586614173228346
 31
0.0
  0
LINE
  5
3054
330
1E
100
AcDbEntity
  8
7
100
AcDbLine
 10
4.351377952755905
 20
5.586614173228346
 30
0.0
 11
4.351377952755905
 21
5.583661417322834
 31
0.0
  0
LINE
  5
3055
330
1E
100
AcDbEntity
  8
7
100
AcDbLine
 10
4.351377952755905
 20
5.583661417322834
 30
0.0
 11
4.351377952755905
 21
5.58267716535433
 31
0.0
  0
LINE
  5
3056
330
1E
100
AcDbEntity
  8
7
100
AcDbLine
 10
5.61023622047244
 20
5.30511811023622
 30
0.0
 11
5.602362204724409
 21
5.417322834645668
 31
0.0
  0
LINE
  5
3057
330
1E
100
AcDbEntity
  8
7
100
AcDbLine
 10
5.602362204724409
 20
5.417322834645668
 30
0.0
 11
3.909448818897637
 21
5.417322834645668
 31
0.0
  0
LINE
  5
3058
330
1E
100
AcDbEntity
  8
7
100
AcDbLine
 10
3.909448818897637
 20
5.417322834645668
 30
0.0
 11
3.901574803149605
 21
5.30511811023622
 31
0.0
  0
LINE
  5
3059
330
1E
100
AcDbEntity
  8
7
100
AcDbLine
 10
3.901574803149605
 20
5.30511811023622
 30
0.0
 11
3.868110236220472
 21
5.30511811023622
 31
0.0
  0
LINE
  5
305A
330
1E
100
AcDbEntity
  8
7
100
AcDbLine
 10
3.868110236220472
 20
5.30511811023622
 30
0.0
 11
3.836614173228346
 21
5.30511811023622
 31
0.0
  0
LINE
  5
305B
330
1E
100
AcDbEntity
  8
7
100
AcDbLine
 10
3.836614173228346
 20
5.30511811023622
 30
0.0
 11
3.810039370078739
 21
5.30511811023622
 31
0.0
  0
LINE
  5
305C
330
1E
100
AcDbEntity
  8
7
100
AcDbLine
 10
3.810039370078739
 20
5.30511811023622
 30
0.0
 11
3.789370078740157
 21
5.30511811023622
 31
0.0
  0
LINE
  5
305D
330
1E
100
AcDbEntity
  8
7
100
AcDbLine
 10
3.789370078740157
 20
5.30511811023622
 30
0.0
 11
3.776574803149605
 21
5.30511811023622
 31
0.0
  0
LINE
  5
305E
330
1E
100
AcDbEntity
  8
7
100
AcDbLine
 10
3.776574803149605
 20
5.30511811023622
 30
0.0
 11
3.771653543307086
 21
5.30511811023622
 31
0.0
  0
LINE
  5
305F
330
1E
100
AcDbEntity
  8
7
100
AcDbLine
 10
5.74015748031496
 20
5.30511811023622
 30
0.0
 11
5.736220472440944
 21
5.30511811023622
 31
0.0
  0
LINE
  5
3060
330
1E
100
AcDbEntity
  8
7
100
AcDbLine
 10
5.736220472440944
 20
5.30511811023622
 30
0.0
 11
5.723425196850393
 21
5.30511811023622
 31
0.0
  0
LINE
  5
3061
330
1E
100
AcDbEntity
  8
7
100
AcDbLine
 10
5.723425196850393
 20
5.30511811023622
 30
0.0
 11
5.702755905511811
 21
5.30511811023622
 31
0.0
  0
LINE
  5
3062
330
1E
100
AcDbEntity
  8
7
100
AcDbLine
 10
5.702755905511811
 20
5.30511811023622
 30
0.0
 11
5.6751968503937
 21
5.30511811023622
 31
0.0
  0
LINE
  5
3063
330
1E
100
AcDbEntity
  8
7
100
AcDbLine
 10
5.6751968503937
 20
5.30511811023622
 30
0.0
 11
5.644685039370078
 21
5.30511811023622
 31
0.0
  0
LINE
  5
3064
330
1E
100
AcDbEntity
  8
7
100
AcDbLine
 10
5.644685039370078
 20
5.30511811023622
 30
0.0
 11
5.61023622047244
 21
5.30511811023622
 31
0.0
  0
LINE
  5
3065
330
1E
100
AcDbEntity
  8
7
100
AcDbLine
 10
5.176181102362204
 20
5.30511811023622
 30
0.0
 11
5.165354330708661
 21
4.776574803149605
 31
0.0
  0
LINE
  5
3066
330
1E
100
AcDbEntity
  8
7
100
AcDbLine
 10
5.165354330708661
 20
4.776574803149605
 30
0.0
 11
5.165354330708661
 21
4.769685039370078
 31
0.0
  0
LINE
  5
3067
330
1E
100
AcDbEntity
  8
7
100
AcDbLine
 10
5.165354330708661
 20
4.769685039370078
 30
0.0
 11
5.165354330708661
 21
4.766732283464566
 31
0.0
  0
LINE
  5
3068
330
1E
100
AcDbEntity
  8
7
100
AcDbLine
 10
3.829724409448818
 20
5.796259842519684
 30
0.0
 11
3.807086614173227
 21
5.468503937007874
 31
0.0
  0
LINE
  5
3069
330
1E
100
AcDbEntity
  8
7
100
AcDbLine
 10
3.807086614173227
 20
5.468503937007874
 30
0.0
 11
3.810039370078739
 21
5.460629921259842
 31
0.0
  0
LINE
  5
306A
330
1E
100
AcDbEntity
  8
7
100
AcDbLine
 10
3.810039370078739
 20
5.460629921259842
 30
0.0
 11
3.819881889763779
 21
5.453740157480314
 31
0.0
  0
LINE
  5
306B
330
1E
100
AcDbEntity
  8
7
100
AcDbLine
 10
3.819881889763779
 20
5.453740157480314
 30
0.0
 11
3.835629921259842
 21
5.44783464566929
 31
0.0
  0
LINE
  5
306C
330
1E
100
AcDbEntity
  8
7
100
AcDbLine
 10
3.835629921259842
 20
5.44783464566929
 30
0.0
 11
3.857283464566928
 21
5.443897637795275
 31
0.0
  0
LINE
  5
306D
330
1E
100
AcDbEntity
  8
7
100
AcDbLine
 10
3.857283464566928
 20
5.443897637795275
 30
0.0
 11
3.881889763779526
 21
5.440944881889763
 31
0.0
  0
LINE
  5
306E
330
1E
100
AcDbEntity
  8
7
100
AcDbLine
 10
3.881889763779526
 20
5.440944881889763
 30
0.0
 11
3.909448818897637
 21
5.439960629921259
 31
0.0
  0
LINE
  5
306F
330
1E
100
AcDbEntity
  8
7
100
AcDbLine
 10
3.909448818897637
 20
5.439960629921259
 30
0.0
 11
5.602362204724409
 21
5.439960629921259
 31
0.0
  0
LINE
  5
3070
330
1E
100
AcDbEntity
  8
7
100
AcDbLine
 10
5.602362204724409
 20
5.439960629921259
 30
0.0
 11
5.629921259842519
 21
5.440944881889763
 31
0.0
  0
LINE
  5
3071
330
1E
100
AcDbEntity
  8
7
100
AcDbLine
 10
5.629921259842519
 20
5.440944881889763
 30
0.0
 11
5.654527559055117
 21
5.443897637795275
 31
0.0
  0
LINE
  5
3072
330
1E
100
AcDbEntity
  8
7
100
AcDbLine
 10
5.654527559055117
 20
5.443897637795275
 30
0.0
 11
5.676181102362204
 21
5.44783464566929
 31
0.0
  0
LINE
  5
3073
330
1E
100
AcDbEntity
  8
7
100
AcDbLine
 10
5.676181102362204
 20
5.44783464566929
 30
0.0
 11
5.692913385826771
 21
5.453740157480314
 31
0.0
  0
LINE
  5
3074
330
1E
100
AcDbEntity
  8
7
100
AcDbLine
 10
5.692913385826771
 20
5.453740157480314
 30
0.0
 11
5.702755905511811
 21
5.460629921259842
 31
0.0
  0
LINE
  5
3075
330
1E
100
AcDbEntity
  8
7
100
AcDbLine
 10
5.702755905511811
 20
5.460629921259842
 30
0.0
 11
5.705708661417322
 21
5.468503937007874
 31
0.0
  0
LINE
  5
3076
330
1E
100
AcDbEntity
  8
7
100
AcDbLine
 10
5.705708661417322
 20
5.468503937007874
 30
0.0
 11
5.683070866141731
 21
5.796259842519684
 31
0.0
  0
LINE
  5
3077
330
1E
100
AcDbEntity
  8
7
100
AcDbLine
 10
4.755905511811023
 20
5.45767716535433
 30
0.0
 11
4.786417322834645
 21
5.458661417322834
 31
0.0
  0
LINE
  5
3078
330
1E
100
AcDbEntity
  8
7
100
AcDbLine
 10
4.786417322834645
 20
5.458661417322834
 30
0.0
 11
4.815944881889763
 21
5.461614173228346
 31
0.0
  0
LINE
  5
3079
330
1E
100
AcDbEntity
  8
7
100
AcDbLine
 10
4.815944881889763
 20
5.461614173228346
 30
0.0
 11
4.840551181102362
 21
5.466535433070865
 31
0.0
  0
LINE
  5
307A
330
1E
100
AcDbEntity
  8
7
100
AcDbLine
 10
4.840551181102362
 20
5.466535433070865
 30
0.0
 11
4.861220472440944
 21
5.472440944881889
 31
0.0
  0
LINE
  5
307B
330
1E
100
AcDbEntity
  8
7
100
AcDbLine
 10
4.861220472440944
 20
5.472440944881889
 30
0.0
 11
4.875984251968503
 21
5.479330708661416
 31
0.0
  0
LINE
  5
307C
330
1E
100
AcDbEntity
  8
7
100
AcDbLine
 10
4.875984251968503
 20
5.479330708661416
 30
0.0
 11
4.882874015748031
 21
5.488188976377952
 31
0.0
  0
LINE
  5
307D
330
1E
100
AcDbEntity
  8
7
100
AcDbLine
 10
4.882874015748031
 20
5.488188976377952
 30
0.0
 11
4.882874015748031
 21
5.496062992125984
 31
0.0
  0
LINE
  5
307E
330
1E
100
AcDbEntity
  8
7
100
AcDbLine
 10
4.882874015748031
 20
5.496062992125984
 30
0.0
 11
4.875984251968503
 21
5.503937007874015
 31
0.0
  0
LINE
  5
307F
330
1E
100
AcDbEntity
  8
7
100
AcDbLine
 10
4.875984251968503
 20
5.503937007874015
 30
0.0
 11
4.861220472440944
 21
5.510826771653542
 31
0.0
  0
LINE
  5
3080
330
1E
100
AcDbEntity
  8
7
100
AcDbLine
 10
4.861220472440944
 20
5.510826771653542
 30
0.0
 11
4.840551181102362
 21
5.51771653543307
 31
0.0
  0
LINE
  5
3081
330
1E
100
AcDbEntity
  8
7
100
AcDbLine
 10
4.840551181102362
 20
5.51771653543307
 30
0.0
 11
4.815944881889763
 21
5.522637795275589
 31
0.0
  0
LINE
  5
3082
330
1E
100
AcDbEntity
  8
7
100
AcDbLine
 10
4.815944881889763
 20
5.522637795275589
 30
0.0
 11
4.786417322834645
 21
5.525590551181101
 31
0.0
  0
LINE
  5
3083
330
1E
100
AcDbEntity
  8
7
100
AcDbLine
 10
4.786417322834645
 20
5.525590551181101
 30
0.0
 11
4.755905511811023
 21
5.526574803149605
 31
0.0
  0
LINE
  5
3084
330
1E
100
AcDbEntity
  8
7
100
AcDbLine
 10
4.755905511811023
 20
5.526574803149605
 30
0.0
 11
4.7253937007874
 21
5.525590551181101
 31
0.0
  0
LINE
  5
3085
330
1E
100
AcDbEntity
  8
7
100
AcDbLine
 10
4.7253937007874
 20
5.525590551181101
 30
0.0
 11
4.696850393700787
 21
5.522637795275589
 31
0.0
  0
LINE
  5
3086
330
1E
100
AcDbEntity
  8
7
100
AcDbLine
 10
4.696850393700787
 20
5.522637795275589
 30
0.0
 11
4.671259842519684
 21
5.51771653543307
 31
0.0
  0
LINE
  5
3087
330
1E
100
AcDbEntity
  8
7
100
AcDbLine
 10
4.671259842519684
 20
5.51771653543307
 30
0.0
 11
4.650590551181101
 21
5.510826771653542
 31
0.0
  0
LINE
  5
3088
330
1E
100
AcDbEntity
  8
7
100
AcDbLine
 10
4.650590551181101
 20
5.510826771653542
 30
0.0
 11
4.636811023622047
 21
5.503937007874015
 31
0.0
  0
LINE
  5
3089
330
1E
100
AcDbEntity
  8
7
100
AcDbLine
 10
4.636811023622047
 20
5.503937007874015
 30
0.0
 11
4.628937007874015
 21
5.496062992125984
 31
0.0
  0
LINE
  5
308A
330
1E
100
AcDbEntity
  8
7
100
AcDbLine
 10
4.628937007874015
 20
5.496062992125984
 30
0.0
 11
4.628937007874015
 21
5.488188976377952
 31
0.0
  0
LINE
  5
308B
330
1E
100
AcDbEntity
  8
7
100
AcDbLine
 10
4.628937007874015
 20
5.488188976377952
 30
0.0
 11
4.636811023622047
 21
5.479330708661416
 31
0.0
  0
LINE
  5
308C
330
1E
100
AcDbEntity
  8
7
100
AcDbLine
 10
4.636811023622047
 20
5.479330708661416
 30
0.0
 11
4.650590551181101
 21
5.472440944881889
 31
0.0
  0
LINE
  5
308D
330
1E
100
AcDbEntity
  8
7
100
AcDbLine
 10
4.650590551181101
 20
5.472440944881889
 30
0.0
 11
4.671259842519684
 21
5.466535433070865
 31
0.0
  0
LINE
  5
308E
330
1E
100
AcDbEntity
  8
7
100
AcDbLine
 10
4.671259842519684
 20
5.466535433070865
 30
0.0
 11
4.696850393700787
 21
5.461614173228346
 31
0.0
  0
LINE
  5
308F
330
1E
100
AcDbEntity
  8
7
100
AcDbLine
 10
4.696850393700787
 20
5.461614173228346
 30
0.0
 11
4.7253937007874
 21
5.458661417322834
 31
0.0
  0
LINE
  5
3090
330
1E
100
AcDbEntity
  8
7
100
AcDbLine
 10
4.7253937007874
 20
5.458661417322834
 30
0.0
 11
4.755905511811023
 21
5.45767716535433
 31
0.0
  0
LINE
  5
3091
330
1E
100
AcDbEntity
  8
7
100
AcDbLine
 10
4.974409448818897
 20
5.656496062992125
 30
0.0
 11
4.986220472440944
 21
5.656496062992125
 31
0.0
  0
LINE
  5
3092
330
1E
100
AcDbEntity
  8
7
100
AcDbLine
 10
4.986220472440944
 20
5.656496062992125
 30
0.0
 11
4.986220472440944
 21
5.641732283464566
 31
0.0
  0
LINE
  5
3093
330
1E
100
AcDbEntity
  8
7
100
AcDbLine
 10
4.986220472440944
 20
5.641732283464566
 30
0.0
 11
5.161417322834645
 21
5.641732283464566
 31
0.0
  0
LINE
  5
3094
330
1E
100
AcDbEntity
  8
7
100
AcDbLine
 10
5.161417322834645
 20
5.641732283464566
 30
0.0
 11
5.161417322834645
 21
5.656496062992125
 31
0.0
  0
LINE
  5
3095
330
1E
100
AcDbEntity
  8
7
100
AcDbLine
 10
5.386811023622047
 20
5.750984251968503
 30
0.0
 11
5.18011811023622
 21
5.750984251968503
 31
0.0
  0
LINE
  5
3096
330
1E
100
AcDbEntity
  8
7
100
AcDbLine
 10
5.18011811023622
 20
5.750984251968503
 30
0.0
 11
5.173228346456692
 21
5.656496062992125
 31
0.0
  0
LINE
  5
3097
330
1E
100
AcDbEntity
  8
7
100
AcDbLine
 10
5.173228346456692
 20
5.656496062992125
 30
0.0
 11
5.161417322834645
 21
5.656496062992125
 31
0.0
  0
ENDSEC
  0
SECTION
  2
OBJECTS
  0
DICTIONARY
  5
C
330
0
100
AcDbDictionary
  3
ACAD_GROUP
350
D
  3
ACAD_LAYOUT
350
19
  3
ACAD_MLINESTYLE
350
16
  3
ACAD_PLOTSETTINGS
350
18
1001
ACAD
1000
TREAT_AS_HARD
1070
     0
  0
DICTIONARY
  5
3166
330
1E
100
AcDbDictionary
  3
ACAD_LAYOUTSELFREF
350
3167
  0
DICTIONARY
  5
3164
330
1A
100
AcDbDictionary
  3
ACAD_LAYOUTSELFREF
350
3165
  0
DICTIONARY
  5
D
102
{ACAD_REACTORS
330
C
102
}
330
C
100
AcDbDictionary
1001
ACAD
1000
TREAT_AS_HARD
1070
     0
  0
DICTIONARY
  5
19
102
{ACAD_REACTORS
330
C
102
}
330
C
100
AcDbDictionary
1001
ACAD
1000
TREAT_AS_HARD
1070
     0
  0
DICTIONARY
  5
16
102
{ACAD_REACTORS
330
C
102
}
330
C
100
AcDbDictionary
  3
STANDARD
350
17
1001
ACAD
1000
TREAT_AS_HARD
1070
     0
  0
DICTIONARY
  5
18
102
{ACAD_REACTORS
330
C
102
}
330
C
100
AcDbDictionary
1001
ACAD
1000
TREAT_AS_HARD
1070
     0
  0
XRECORD
  5
3167
102
{ACAD_REACTORS
330
3166
102
}
330
3166
100
AcDbXrecord
340
1E
  0
XRECORD
  5
3165
102
{ACAD_REACTORS
330
3164
102
}
330
3164
100
AcDbXrecord
340
1A
  0
MLINESTYLE
  5
17
102
{ACAD_REACTORS
330
16
102
}
330
16
100
AcDbMlineStyle
  2
STANDARD
 70
     0
  3

 62
   256
 51
90.0
 52
90.0
 71
     2
 49
0.5
 62
   256
  6
BYLAYER
 49
-0.5
 62
   256
  6
BYLAYER
  0
ENDSEC
  0
EOF
