  0
SECTION
  2
HEADER
  9
$ACADVER
  1
AC1015
  9
$ACADMAINTVER
 70
     6
  9
$DWGCODEPAGE
  3
ANSI_1252
  9
$INSBASE
 10
0.0
 20
0.0
 30
0.0
  9
$EXTMIN
 10
-0.5
 20
-0.5
 30
-0.5
  9
$EXTMAX
 10
5.0
 20
5.0
 30
5.0
  9
$LIMMIN
 10
-0.5
 20
-0.5
  9
$LIMMAX
 10
5.0
 20
5.0
  9
$ORTHOMODE
 70
     0
  9
$REGENMODE
 70
     1
  9
$FILLMODE
 70
     1
  9
$QTEXTMODE
 70
     0
  9
$MIRRTEXT
 70
     1
  9
$LTSCALE
 40
1.0
  9
$ATTMODE
 70
     1
  9
$TEXTSIZE
 40
0.2
  9
$TRACEWID
 40
0.05
  9
$TEXTSTYLE
  7
Standard
  9
$CLAYER
  8
0
  9
$CELTYPE
  6
Continuous
  9
$CECOLOR
 62
   256
  9
$CELTSCALE
 40
1.0
  9
$DISPSILH
 70
     0
  9
$DIMSCALE
 40
1.0
  9
$DIMASZ
 40
0.18
  9
$DIMEXO
 40
0.0625
  9
$DIMDLI
 40
0.38
  9
$DIMRND
 40
0.0
  9
$DIMDLE
 40
0.0
  9
$DIMEXE
 40
0.18
  9
$DIMTP
 40
0.0
  9
$DIMTM
 40
0.0
  9
$DIMTXT
 40
0.18
  9
$DIMCEN
 40
0.09
  9
$DIMTSZ
 40
0.0
  9
$DIMTOL
 70
     0
  9
$DIMLIM
 70
     0
  9
$DIMTIH
 70
     1
  9
$DIMTOH
 70
     1
  9
$DIMSE1
 70
     0
  9
$DIMSE2
 70
     0
  9
$DIMTAD
 70
     0
  9
$DIMZIN
 70
     0
  9
$DIMBLK
  1

  9
$DIMASO
 70
     1
  9
$DIMSHO
 70
     1
  9
$DIMPOST
  1

  9
$DIMAPOST
  1

  9
$DIMALT
 70
     0
  9
$DIMALTD
 70
     2
  9
$DIMALTF
 40
25.4
  9
$DIMLFAC
 40
1.0
  9
$DIMTOFL
 70
     0
  9
$DIMTVP
 40
0.0
  9
$DIMTIX
 70
     0
  9
$DIMSOXD
 70
     0
  9
$DIMSAH
 70
     0
  9
$DIMBLK1
  1

  9
$DIMBLK2
  1

  9
$DIMSTYLE
  2
Standard
  9
$DIMCLRD
 70
     0
  9
$DIMCLRE
 70
     0
  9
$DIMCLRT
 70
     0
  9
$DIMTFAC
 40
1.0
  9
$DIMGAP
 40
0.09
  9
$DIMJUST
 70
     0
  9
$DIMSD1
 70
     0
  9
$DIMSD2
 70
     0
  9
$DIMTOLJ
 70
     1
  9
$DIMTZIN
 70
     0
  9
$DIMALTZ
 70
     0
  9
$DIMALTTZ
 70
     0
  9
$DIMUPT
 70
     0
  9
$DIMDEC
 70
     4
  9
$DIMTDEC
 70
     4
  9
$DIMALTU
 70
     2
  9
$DIMALTTD
 70
     2
  9
$DIMTXSTY
  7
Standard
  9
$DIMAUNIT
 70
     0
  9
$DIMADEC
 70
     0
  9
$DIMALTRND
 40
0.0
  9
$DIMAZIN
 70
     0
  9
$DIMDSEP
 70
     0
  9
$DIMATFIT
 70
     3
  9
$DIMFRAC
 70
     0
  9
$DIMLDRBLK
  1

  9
$DIMLUNIT
 70
     2
  9
$DIMLWD
 70
     0
  9
$DIMLWE
 70
     0
  9
$DIMTMOVE
 70
     0
  9
$LUNITS
 70
     2
  9
$LUPREC
 70
     4
  9
$SKETCHINC
 40
0.1
  9
$FILLETRAD
 40
0.0
  9
$AUNITS
 70
     0
  9
$AUPREC
 70
     0
  9
$MENU
  1
acad
  9
$ELEVATION
 40
0.0
  9
$PELEVATION
 40
0.0
  9
$THICKNESS
 40
0.0
  9
$LIMCHECK
 70
     0
  9
$CHAMFERA
 40
0.0
  9
$CHAMFERB
 40
0.0
  9
$CHAMFERC
 40
0.0
  9
$CHAMFERD
 40
0.0
  9
$SKPOLY
 70
     0
  9
$TDCREATE
 40
0.000000000
  9
$TDUCREATE
 40
0.000000000
  9
$TDUPDATE
 40
0.000000000
  9
$TDUUPDATE
 40
0.000000000
  9
$TDINDWG
 40
0.0000000000
  9
$TDUSRTIMER
 40
0.0000000000
  9
$USRTIMER
 70
     1
  9
$ANGBASE
 50
0.0
  9
$ANGDIR
 70
     0
  9
$PDMODE
 70
     0
  9
$PDSIZE
 40
0.0
  9
$PLINEWID
 40
0.0
  9
$SPLFRAME
 70
     0
  9
$SPLINETYPE
 70
     6
  9
$SPLINESEGS
 70
     8
  9
$HANDSEED
  5
5BD
  9
$SURFTAB1
 70
     6
  9
$SURFTAB2
 70
     6
  9
$SURFTYPE
 70
     6
  9
$SURFU
 70
     6
  9
$SURFV
 70
     6
  9
$UCSBASE
  2

  9
$UCSNAME
  2

  9
$UCSORG
 10
0.0
 20
0.0
 30
0.0
  9
$UCSXDIR
 10
1.0
 20
0.0
 30
0.0
  9
$UCSYDIR
 10
0.0
 20
1.0
 30
0.0
  9
$UCSORTHOREF
  2

  9
$UCSORTHOVIEW
 70
     0
  9
$UCSORGTOP
 10
0.0
 20
0.0
 30
0.0
  9
$UCSORGBOTTOM
 10
0.0
 20
0.0
 30
0.0
  9
$UCSORGLEFT
 10
0.0
 20
0.0
 30
0.0
  9
$UCSORGRIGHT
 10
0.0
 20
0.0
 30
0.0
  9
$UCSORGFRONT
 10
0.0
 20
0.0
 30
0.0
  9
$UCSORGBACK
 10
0.0
 20
0.0
 30
0.0
  9
$PUCSBASE
  2

  9
$PUCSNAME
  2

  9
$PUCSORG
 10
0.0
 20
0.0
 30
0.0
  9
$PUCSXDIR
 10
1.0
 20
0.0
 30
0.0
  9
$PUCSYDIR
 10
0.0
 20
1.0
 30
0.0
  9
$PUCSORTHOREF
  2

  9
$PUCSORTHOVIEW
 70
     0
  9
$PUCSORGTOP
 10
0.0
 20
0.0
 30
0.0
  9
$PUCSORGBOTTOM
 10
0.0
 20
0.0
 30
0.0
  9
$PUCSORGLEFT
 10
0.0
 20
0.0
 30
0.0
  9
$PUCSORGRIGHT
 10
0.0
 20
0.0
 30
0.0
  9
$PUCSORGFRONT
 10
0.0
 20
0.0
 30
0.0
  9
$PUCSORGBACK
 10
0.0
 20
0.0
 30
0.0
  9
$USERI1
 70
     0
  9
$USERI2
 70
     0
  9
$USERI3
 70
     0
  9
$USERI4
 70
     0
  9
$USERI5
 70
     0
  9
$USERR1
 40
0.0
  9
$USERR2
 40
0.0
  9
$USERR3
 40
0.0
  9
$USERR4
 40
0.0
  9
$USERR5
 40
0.0
  9
$WORLDVIEW
 70
     1
  9
$SHADEDGE
 70
     3
  9
$SHADEDIF
 70
    70
  9
$TILEMODE
 70
     0
  9
$MAXACTVP
 70
    64
  9
$PINSBASE
 10
0.0
 20
0.0
 30
0.0
  9
$PLIMCHECK
 70
     0
  9
$PEXTMIN
 10
-0.5
 20
-0.5
 30
-0.5
  9
$PEXTMAX
 10
11.0
 20
8.5
 30
5.0
  9
$PLIMMIN
 10
-0.5
 20
-0.5
  9
$PLIMMAX
 10
11.0
 20
8.5
  9
$UNITMODE
 70
     0
  9
$VISRETAIN
 70
     0
  9
$PLINEGEN
 70
     1
  9
$PSLTSCALE
 70
     0
  9
$TREEDEPTH
 70
  3020
  9
$CMLSTYLE
  2
Standard
  9
$CMLJUST
 70
     0
  9
$CMLSCALE
 40
1.0
  9
$PROXYGRAPHICS
 70
     0
  9
$MEASUREMENT
 70
     0
  9
$CELWEIGHT
370
     0
  9
$ENDCAPS
280
     0
  9
$JOINSTYLE
280
     0
  9
$LWDISPLAY
290
     0
  9
$INSUNITS
 70
     0
  9
$HYPERLINKBASE
  1

  9
$STYLESHEET
  1

  9
$XEDIT
290
     1
  9
$CEPSNTYPE
380
     0
  9
$PSTYLEMODE
290
     1
  9
$FINGERPRINTGUID
  2

  9
$VERSIONGUID
  2

  9
$EXTNAMES
290
     1
  9
$PSVPSCALE
 40
0.0
  0
ENDSEC
  0
SECTION
  2
CLASSES
  0
CLASS
  1
LWPOLYLINE
  2
AcDbPolyline
  3
AutoCAD 2000
 90
        0
280
     0
281
     1
  0
CLASS
  1
IMAGE
  2
AcDbRasterImage
  3
ISM
 90
      127
280
     0
281
     1
  0
CLASS
  1
OLE2FRAME
  2
AcDbOle2Frame
  3
AutoCAD 2000
 90
        0
280
     0
281
     1
  0
CLASS
  1
HATCH
  2
AcDbHatch
  3
AutoCAD 2000
 90
        0
280
     0
281
     1
  0
CLASS
  1
DICTIONARYVAR
  2
AcDbDictionaryVar
  3
AutoCAD 2000
 90
        0
280
     0
281
     0
  0
CLASS
  1
RASTERVARIABLES
  2
AcDbRasterVariables
  3
ISM
 90
        0
280
     0
281
     0
  0
CLASS
  1
IMAGEDEF
  2
AcDbRasterImageDef
  3
ISM
 90
        0
280
     0
281
     0
  0
CLASS
  1
IMAGEDEF_REACTOR
  2
AcDbRasterImageDefReactor
  3
ISM
 90
        1
280
     0
281
     0
  0
CLASS
  1
IDBUFFER
  2
AcDbIdBuffer
  3
AutoCAD 2000
 90
        0
280
     0
281
     0
  0
CLASS
  1
SPATIAL_FILTER
  2
AcDbSpatialFilter
  3
AutoCAD 2000
 90
        0
280
     0
281
     0
  0
CLASS
  1
XRECORD
  2
AcDbXrecord
  3
AutoCAD 2000
 90
        0
280
     0
281
     0
  0
CLASS
  1
SORTENTSTABLE
  2
AcDbSortentsTable
  3
AutoCAD 2000
 90
        0
280
     0
281
     0
  0
CLASS
  1
LAYER_INDEX
  2
AcDbLayerIndex
  3
AutoCAD 2000
 90
        0
280
     0
281
     0
  0
CLASS
  1
SPATIAL_INDEX
  2
AcDbSpatialIndex
  3
AutoCAD 2000
 90
        0
280
     0
281
     0
  0
CLASS
  1
OBJECT_PTR
  2
CAseDLPNTableRecord
  3
"ASE-LPNTableRecord"
 90
        1
280
     0
281
     0
  0
CLASS
  1
LAYOUT
  2
AcDbLayout
  3
AutoCAD 2000
 90
        0
280
     0
281
     0
  0
CLASS
  1
PLOTSETTINGS
  2
AcDbPlotSettings
  3
AutoCAD 2000
 90
        0
280
     0
281
     0
  0
CLASS
  1
ACDBDICTIONARYWDFLT
  2
AcDbDictionaryWithDefault
  3
AutoCAD 2000
 90
        0
280
     0
281
     0
  0
CLASS
  1
ACDBPLACEHOLDER
  2
AcDbPlaceHolder
  3
AutoCAD 2000
 90
        0
280
     0
281
     0
  0
CLASS
  1
VBA_PROJECT
  2
AcDbVbaProject
  3
acadvba
 90
        0
280
     0
281
     0
  0
CLASS
  1
WIPEOUT
  2
AcDbWipeout
  3
WipeOut|AutoCAD Express Tool|expresstools@autodesk.com
 90
      127
280
     0
281
     1
  0
CLASS
  1
WIPEOUTVARIABLES
  2
AcDbWipeoutVariables
  3
WipeOut|AutoCAD Express Tool|expresstools@autodesk.com
 90
        0
280
     0
281
     0
  0
CLASS
  1
RTEXT
  2
RText
  3
RText|AutoCAD Express Tool|expresstools@autodesk.com
 90
        0
280
     0
281
     1
  0
CLASS
  1
ARCALIGNEDTEXT
  2
AcDbArcAlignedText
  3
ATEXT|AutoCAD Express Tool|expresstools@autodesk.com
 90
        0
280
     0
281
     1
  0
ENDSEC
  0
SECTION
  2
TABLES
  0
TABLE
  2
VPORT
  5
7
100
AcDbSymbolTable
 70
    16
  0
VPORT
  5
5AD
100
AcDbSymbolTableRecord
100
AcDbViewportTableRecord
  2
*ACTIVE
 70
     0
 10
0.0
 20
0.0
 11
1.0
 21
1.0
 12
0.0
 22
0.0
 13
0.0
 23
0.0
 14
1.0
 24
1.0
 15
0.0
 25
0.0
 16
0.718873
 26
-0.585049
 36
0.375419
 17
0.0
 27
0.0
 37
0.0
 40
54.342756
 41
0.688564
 42
50.0
 43
26.946624
 44
-26.946624
 50
0.0
 51
0.0
 71
    16
 72
   100
 73
     1
 74
     1
 75
     0
 76
     0
 77
     0
 78
     0
281
     0
 65
     0
110
0.0
120
0.0
130
0.0
111
1.0
121
0.0
131
0.0
112
0.0
122
1.0
132
0.0
345
0
346
0
 79
     0
146
0.0
  0
VPORT
  5
5AE
100
AcDbSymbolTableRecord
100
AcDbViewportTableRecord
  2
L1
 70
     0
 10
0.0
 20
0.0
 11
1.0
 21
1.0
 12
0.0
 22
0.0
 13
0.0
 23
0.0
 14
1.0
 24
1.0
 15
0.0
 25
0.0
 16
0.718873
 26
-0.585049
 36
0.375419
 17
0.0
 27
0.0
 37
0.0
 40
54.342756
 41
0.688564
 42
50.0
 43
26.946624
 44
-26.946624
 50
0.0
 51
0.0
 71
    16
 72
   100
 73
     1
 74
     1
 75
     0
 76
     0
 77
     0
 78
     0
281
     0
 65
     0
110
0.0
120
0.0
130
0.0
111
1.0
121
0.0
131
0.0
112
0.0
122
1.0
132
0.0
345
0
346
0
 79
     0
146
0.0
  0
VPORT
  5
5AF
100
AcDbSymbolTableRecord
100
AcDbViewportTableRecord
  2
L2
 70
     0
 10
0.0
 20
0.0
 11
0.5
 21
1.0
 12
0.0
 22
0.0
 13
0.0
 23
0.0
 14
1.0
 24
1.0
 15
0.0
 25
0.0
 16
0.0
 26
-1.0
 36
0.0
 17
0.0
 27
0.0
 37
0.0
 40
52.578779
 41
0.688564
 42
50.0
 43
26.945315
 44
-26.945315
 50
0.0
 51
0.0
 71
    16
 72
   100
 73
     1
 74
     1
 75
     0
 76
     0
 77
     0
 78
     0
281
     0
 65
     0
110
0.0
120
0.0
130
0.0
111
1.0
121
0.0
131
0.0
112
0.0
122
1.0
132
0.0
345
0
346
0
 79
     0
146
0.0
  0
VPORT
  5
5B0
100
AcDbSymbolTableRecord
100
AcDbViewportTableRecord
  2
L2
 70
     0
 10
0.5
 20
0.0
 11
1.0
 21
1.0
 12
0.0
 22
0.0
 13
0.0
 23
0.0
 14
1.0
 24
1.0
 15
0.0
 25
0.0
 16
1.0
 26
0.0
 36
0.0
 17
0.0
 27
0.0
 37
0.0
 40
52.578779
 41
0.688564
 42
50.0
 43
26.684625
 44
-26.684625
 50
0.0
 51
0.0
 71
    16
 72
   100
 73
     1
 74
     1
 75
     0
 76
     0
 77
     0
 78
     0
281
     0
 65
     0
110
0.0
120
0.0
130
0.0
111
1.0
121
0.0
131
0.0
112
0.0
122
1.0
132
0.0
345
0
346
0
 79
     0
146
0.0
  0
VPORT
  5
5B1
100
AcDbSymbolTableRecord
100
AcDbViewportTableRecord
  2
L3
 70
     0
 10
0.0
 20
0.5
 11
1.0
 21
1.0
 12
0.0
 22
0.0
 13
0.0
 23
0.0
 14
1.0
 24
1.0
 15
0.0
 25
0.0
 16
0.0
 26
0.0
 36
1.0
 17
0.0
 27
0.0
 37
0.0
 40
9.151444
 41
0.688564
 42
50.0
 43
26.28939
 44
-26.28939
 50
0.0
 51
0.0
 71
    16
 72
   100
 73
     1
 74
     1
 75
     0
 76
     0
 77
     0
 78
     0
281
     0
 65
     0
110
0.0
120
0.0
130
0.0
111
1.0
121
0.0
131
0.0
112
0.0
122
1.0
132
0.0
345
0
346
0
 79
     0
146
0.0
  0
VPORT
  5
5B2
100
AcDbSymbolTableRecord
100
AcDbViewportTableRecord
  2
L3
 70
     0
 10
0.0
 20
0.0
 11
1.0
 21
0.5
 12
0.0
 22
0.0
 13
0.0
 23
0.0
 14
1.0
 24
1.0
 15
0.0
 25
0.0
 16
0.0
 26
-1.0
 36
0.0
 17
0.0
 27
0.0
 37
0.0
 40
52.578779
 41
0.688564
 42
50.0
 43
26.945315
 44
-26.945315
 50
0.0
 51
0.0
 71
    16
 72
   100
 73
     1
 74
     1
 75
     0
 76
     0
 77
     0
 78
     0
281
     0
 65
     0
110
0.0
120
0.0
130
0.0
111
1.0
121
0.0
131
0.0
112
0.0
122
1.0
132
0.0
345
0
346
0
 79
     0
146
0.0
  0
VPORT
  5
5B3
100
AcDbSymbolTableRecord
100
AcDbViewportTableRecord
  2
L4
 70
     0
 10
0.0
 20
0.5
 11
0.5
 21
1.0
 12
0.0
 22
0.0
 13
0.0
 23
0.0
 14
1.0
 24
1.0
 15
0.0
 25
0.0
 16
0.0
 26
0.0
 36
1.0
 17
0.0
 27
0.0
 37
0.0
 40
9.151444
 41
0.688564
 42
50.0
 43
26.28939
 44
-26.28939
 50
0.0
 51
0.0
 71
    16
 72
   100
 73
     1
 74
     1
 75
     0
 76
     0
 77
     0
 78
     0
281
     0
 65
     0
110
0.0
120
0.0
130
0.0
111
1.0
121
0.0
131
0.0
112
0.0
122
1.0
132
0.0
345
0
346
0
 79
     0
146
0.0
  0
VPORT
  5
5B4
100
AcDbSymbolTableRecord
100
AcDbViewportTableRecord
  2
L4
 70
     0
 10
0.0
 20
0.0
 11
0.5
 21
0.5
 12
0.0
 22
0.0
 13
0.0
 23
0.0
 14
1.0
 24
1.0
 15
0.0
 25
0.0
 16
0.0
 26
-1.0
 36
0.0
 17
0.0
 27
0.0
 37
0.0
 40
52.578779
 41
0.688564
 42
50.0
 43
26.945315
 44
-26.945315
 50
0.0
 51
0.0
 71
    16
 72
   100
 73
     1
 74
     1
 75
     0
 76
     0
 77
     0
 78
     0
281
     0
 65
     0
110
0.0
120
0.0
130
0.0
111
1.0
121
0.0
131
0.0
112
0.0
122
1.0
132
0.0
345
0
346
0
 79
     0
146
0.0
  0
VPORT
  5
5B5
100
AcDbSymbolTableRecord
100
AcDbViewportTableRecord
  2
L4
 70
     0
 10
0.5
 20
0.0
 11
1.0
 21
0.5
 12
0.0
 22
0.0
 13
0.0
 23
0.0
 14
1.0
 24
1.0
 15
0.0
 25
0.0
 16
1.0
 26
0.0
 36
0.0
 17
0.0
 27
0.0
 37
0.0
 40
52.578779
 41
0.688564
 42
50.0
 43
26.684625
 44
-26.684625
 50
0.0
 51
0.0
 71
    16
 72
   100
 73
     1
 74
     1
 75
     0
 76
     0
 77
     0
 78
     0
281
     0
 65
     0
110
0.0
120
0.0
130
0.0
111
1.0
121
0.0
131
0.0
112
0.0
122
1.0
132
0.0
345
0
346
0
 79
     0
146
0.0
  0
VPORT
  5
5B6
100
AcDbSymbolTableRecord
100
AcDbViewportTableRecord
  2
L4
 70
     0
 10
0.5
 20
0.5
 11
1.0
 21
1.0
 12
0.0
 22
0.0
 13
0.0
 23
0.0
 14
1.0
 24
1.0
 15
0.0
 25
0.0
 16
0.57735
 26
-0.57735
 36
0.57735
 17
0.0
 27
0.0
 37
0.0
 40
51.49125
 41
0.688564
 42
50.0
 43
26.791854
 44
-26.791854
 50
0.0
 51
0.0
 71
    16
 72
   100
 73
     1
 74
     1
 75
     0
 76
     0
 77
     0
 78
     0
281
     0
 65
     0
110
0.0
120
0.0
130
0.0
111
1.0
121
0.0
131
0.0
112
0.0
122
1.0
132
0.0
345
0
346
0
 79
     0
146
0.0
  0
VPORT
  5
5B7
100
AcDbSymbolTableRecord
100
AcDbViewportTableRecord
  2
L6
 70
     0
 10
0.0
 20
0.5
 11
0.333333
 21
1.0
 12
0.0
 22
0.0
 13
0.0
 23
0.0
 14
1.0
 24
1.0
 15
0.0
 25
0.0
 16
0.718873
 26
-0.585049
 36
0.375419
 17
0.0
 27
0.0
 37
0.0
 40
54.342756
 41
0.688564
 42
50.0
 43
26.946624
 44
-26.946624
 50
0.0
 51
0.0
 71
    16
 72
   100
 73
     1
 74
     1
 75
     0
 76
     0
 77
     0
 78
     0
281
     0
 65
     0
110
0.0
120
0.0
130
0.0
111
1.0
121
0.0
131
0.0
112
0.0
122
1.0
132
0.0
345
0
346
0
 79
     0
146
0.0
  0
VPORT
  5
5B8
100
AcDbSymbolTableRecord
100
AcDbViewportTableRecord
  2
L6
 70
     0
 10
0.0
 20
0.0
 11
0.333333
 21
0.5
 12
0.0
 22
0.0
 13
0.0
 23
0.0
 14
1.0
 24
1.0
 15
0.0
 25
0.0
 16
-1.0
 26
0.0
 36
0.0
 17
0.0
 27
0.0
 37
0.0
 40
52.578779
 41
0.688564
 42
50.0
 43
26.684625
 44
-26.684625
 50
0.0
 51
0.0
 71
    16
 72
   100
 73
     1
 74
     1
 75
     0
 76
     0
 77
     0
 78
     0
281
     0
 65
     0
110
0.0
120
0.0
130
0.0
111
1.0
121
0.0
131
0.0
112
0.0
122
1.0
132
0.0
345
0
346
0
 79
     0
146
0.0
  0
VPORT
  5
5B9
100
AcDbSymbolTableRecord
100
AcDbViewportTableRecord
  2
L6
 70
     0
 10
0.333333
 20
0.5
 11
0.666667
 21
1.0
 12
0.0
 22
0.0
 13
0.0
 23
0.0
 14
1.0
 24
1.0
 15
0.0
 25
0.0
 16
0.0
 26
0.0
 36
1.0
 17
0.0
 27
0.0
 37
0.0
 40
9.151444
 41
0.688564
 42
50.0
 43
26.28939
 44
-26.28939
 50
0.0
 51
0.0
 71
    16
 72
   100
 73
     1
 74
     1
 75
     0
 76
     0
 77
     0
 78
     0
281
     0
 65
     0
110
0.0
120
0.0
130
0.0
111
1.0
121
0.0
131
0.0
112
0.0
122
1.0
132
0.0
345
0
346
0
 79
     0
146
0.0
  0
VPORT
  5
5BA
100
AcDbSymbolTableRecord
100
AcDbViewportTableRecord
  2
L6
 70
     0
 10
0.333333
 20
0.0
 11
0.666667
 21
0.5
 12
0.0
 22
0.0
 13
0.0
 23
0.0
 14
1.0
 24
1.0
 15
0.0
 25
0.0
 16
0.0
 26
-1.0
 36
0.0
 17
0.0
 27
0.0
 37
0.0
 40
52.578779
 41
0.688564
 42
50.0
 43
26.945315
 44
-26.945315
 50
0.0
 51
0.0
 71
    16
 72
   100
 73
     1
 74
     1
 75
     0
 76
     0
 77
     0
 78
     0
281
     0
 65
     0
110
0.0
120
0.0
130
0.0
111
1.0
121
0.0
131
0.0
112
0.0
122
1.0
132
0.0
345
0
346
0
 79
     0
146
0.0
  0
VPORT
  5
5BB
100
AcDbSymbolTableRecord
100
AcDbViewportTableRecord
  2
L6
 70
     0
 10
0.666667
 20
0.5
 11
1.0
 21
1.0
 12
0.0
 22
0.0
 13
0.0
 23
0.0
 14
1.0
 24
1.0
 15
0.0
 25
0.0
 16
0.57735
 26
-0.57735
 36
0.57735
 17
0.0
 27
0.0
 37
0.0
 40
51.49125
 41
0.688564
 42
50.0
 43
26.791854
 44
-26.791854
 50
0.0
 51
0.0
 71
    16
 72
   100
 73
     1
 74
     1
 75
     0
 76
     0
 77
     0
 78
     0
281
     0
 65
     0
110
0.0
120
0.0
130
0.0
111
1.0
121
0.0
131
0.0
112
0.0
122
1.0
132
0.0
345
0
346
0
 79
     0
146
0.0
  0
VPORT
  5
5BC
100
AcDbSymbolTableRecord
100
AcDbViewportTableRecord
  2
L6
 70
     0
 10
0.666667
 20
0.0
 11
1.0
 21
0.5
 12
0.0
 22
0.0
 13
0.0
 23
0.0
 14
1.0
 24
1.0
 15
0.0
 25
0.0
 16
1.0
 26
0.0
 36
0.0
 17
0.0
 27
0.0
 37
0.0
 40
52.578779
 41
0.688564
 42
50.0
 43
26.684625
 44
-26.684625
 50
0.0
 51
0.0
 71
    16
 72
   100
 73
     1
 74
     1
 75
     0
 76
     0
 77
     0
 78
     0
281
     0
 65
     0
110
0.0
120
0.0
130
0.0
111
1.0
121
0.0
131
0.0
112
0.0
122
1.0
132
0.0
345
0
346
0
 79
     0
146
0.0
  0
ENDTAB
  0
TABLE
  2
LTYPE
  5
4
100
AcDbSymbolTable
 70
     9
  0
LTYPE
  5
11
100
AcDbSymbolTableRecord
100
AcDbLinetypeTableRecord
  2
ByBlock
 70
    64
  3

 72
    65
 73
     0
 40
0.0
  0
LTYPE
  5
12
100
AcDbSymbolTableRecord
100
AcDbLinetypeTableRecord
  2
ByLayer
 70
    64
  3

 72
    65
 73
     0
 40
0.0
  0
LTYPE
  5
13
100
AcDbSymbolTableRecord
100
AcDbLinetypeTableRecord
  2
Continuous
 70
    64
  3
Solid line
 72
    65
 73
     0
 40
0.0
  0
LTYPE
  5
24
100
AcDbSymbolTableRecord
100
AcDbLinetypeTableRecord
  2
DASHED
 70
    64
  3
__ __ __ __ __ __ __ __ __
 72
    65
 73
     2
 40
25.72
 49
12.86
 74
     0
 49
-12.86
 74
     0
  0
LTYPE
  5
25
100
AcDbSymbolTableRecord
100
AcDbLinetypeTableRecord
  2
HIDDEN
 70
    64
  3
_ _ _ _ _ _ _ _ _ _ _ _ _ _ _
 72
    65
 73
     2
 40
0.5
 49
0.25
 74
     0
 49
-0.25
 74
     0
  0
LTYPE
  5
26
100
AcDbSymbolTableRecord
100
AcDbLinetypeTableRecord
  2
PHANTOM
 70
    64
  3
____ _ _ ____ _ _ _____ _ _ ____
 72
    65
 73
     6
 40
50.5
 49
18.0
 74
     0
 49
-6.5
 74
     0
 49
6.5
 74
     0
 49
-6.5
 74
     0
 49
6.5
 74
     0
 49
-6.5
 74
     0
  0
LTYPE
  5
27
100
AcDbSymbolTableRecord
100
AcDbLinetypeTableRecord
  2
CENTER
 70
    64
  3
____ _ ____ _ ____ _ ____
 72
    65
 73
     4
 40
47.5
 49
22.0
 74
     0
 49
-8.5
 74
     0
 49
8.5
 74
     0
 49
-8.5
 74
     0
  0
LTYPE
  5
28
100
AcDbSymbolTableRecord
100
AcDbLinetypeTableRecord
  2
DOT
 70
    64
  3
.........................
 72
    65
 73
     2
 40
10.0
 49
0.0
 74
     0
 49
-10.0
 74
     0
  0
LTYPE
  5
29
100
AcDbSymbolTableRecord
100
AcDbLinetypeTableRecord
  2
DASHDOT
 70
    64
  3
_._._._._._._._._._._._._._._._.
 72
    65
 73
     4
 40
70.0
 49
31.0
 74
     0
 49
-13.0
 74
     0
 49
13.0
 74
     0
 49
-13.0
 74
     0
  0
ENDTAB
  0
TABLE
  2
LAYER
  5
2
100
AcDbSymbolTable
 70
     2
  0
LAYER
  5
14
100
AcDbSymbolTableRecord
100
AcDbLayerTableRecord
  2
0
 70
     0
 62
     7
  6
Continuous
290
     1
370
    -3
390
1D
  0
LAYER
  5
34
100
AcDbSymbolTableRecord
100
AcDbLayerTableRecord
  2
1
 70
     0
 62
     7
  6
Continuous
290
     1
370
    -3
390
1D
  0
ENDTAB
  0
TABLE
  2
STYLE
  5
3
100
AcDbSymbolTable
 70
     2
  0
STYLE
  5
17
100
AcDbSymbolTableRecord
100
AcDbTextStyleTableRecord
  2
Standard
 70
     0
 40
0.0
 41
1.0
 50
0.0
 71
     0
 42
0.0
  3
txt
  4

  0
STYLE
  5
50A
100
AcDbSymbolTableRecord
100
AcDbTextStyleTableRecord
  2
blockfont
 70
     0
 40
0.0
 41
1.0
 50
0.0
 71
     0
 42
0.2
  3
simplex.shx
  4

  0
ENDTAB
  0
TABLE
  2
VIEW
  5
5
100
AcDbSymbolTable
 70
     8
  0
VIEW
  5
2A
100
AcDbSymbolTableRecord
100
AcDbViewTableRecord
  2
TOP
 70
     0
 40
9.151444
 10
0.0
 20
0.0
 41
11.818288
 11
0.0
 21
0.0
 31
1.0
 12
0.0
 22
0.0
 32
0.0
 42
50.0
 43
26.28939
 44
-26.28939
 50
0.0
 71
    16
281
     0
 72
     0
110
0.0
120
0.0
130
0.0
111
1.0
121
0.0
131
0.0
112
0.0
122
1.0
132
0.0
  0
VIEW
  5
2B
100
AcDbSymbolTableRecord
100
AcDbViewTableRecord
  2
FRONT
 70
     0
 40
52.578779
 10
0.0
 20
0.0
 41
11.818288
 11
0.0
 21
-1.0
 31
0.0
 12
0.0
 22
0.0
 32
0.0
 42
50.0
 43
26.945315
 44
-26.945315
 50
0.0
 71
    16
281
     0
 72
     0
110
0.0
120
0.0
130
0.0
111
1.0
121
0.0
131
0.0
112
0.0
122
1.0
132
0.0
  0
VIEW
  5
2C
100
AcDbSymbolTableRecord
100
AcDbViewTableRecord
  2
RIGHT
 70
     0
 40
52.578779
 10
0.0
 20
0.0
 41
9.151444
 11
1.0
 21
0.0
 31
0.0
 12
0.0
 22
0.0
 32
0.0
 42
50.0
 43
26.684625
 44
-26.684625
 50
0.0
 71
    16
281
     0
 72
     0
110
0.0
120
0.0
130
0.0
111
1.0
121
0.0
131
0.0
112
0.0
122
1.0
132
0.0
  0
VIEW
  5
2D
100
AcDbSymbolTableRecord
100
AcDbViewTableRecord
  2
BACK
 70
     0
 40
52.578779
 10
0.0
 20
0.0
 41
11.818288
 11
0.0
 21
1.0
 31
0.0
 12
0.0
 22
0.0
 32
0.0
 42
50.0
 43
26.945315
 44
-26.945315
 50
0.0
 71
    16
281
     0
 72
     0
110
0.0
120
0.0
130
0.0
111
1.0
121
0.0
131
0.0
112
0.0
122
1.0
132
0.0
  0
VIEW
  5
2E
100
AcDbSymbolTableRecord
100
AcDbViewTableRecord
  2
BOTTOM
 70
     0
 40
9.151444
 10
0.0
 20
0.0
 41
11.818288
 11
0.0
 21
0.0
 31
-1.0
 12
0.0
 22
0.0
 32
0.0
 42
50.0
 43
26.28939
 44
-26.28939
 50
180.0
 71
    16
281
     0
 72
     0
110
0.0
120
0.0
130
0.0
111
1.0
121
0.0
131
0.0
112
0.0
122
1.0
132
0.0
  0
VIEW
  5
2F
100
AcDbSymbolTableRecord
100
AcDbViewTableRecord
  2
LEFT
 70
     0
 40
52.578779
 10
0.0
 20
0.0
 41
9.151444
 11
-1.0
 21
0.0
 31
0.0
 12
0.0
 22
0.0
 32
0.0
 42
50.0
 43
26.684625
 44
-26.684625
 50
0.0
 71
    16
281
     0
 72
     0
110
0.0
120
0.0
130
0.0
111
1.0
121
0.0
131
0.0
112
0.0
122
1.0
132
0.0
  0
VIEW
  5
30
100
AcDbSymbolTableRecord
100
AcDbViewTableRecord
  2
TFR-ISO
 70
     0
 40
51.49125
 10
0.0
 20
0.0
 41
14.82784
 11
0.57735
 21
-0.57735
 31
0.57735
 12
0.0
 22
0.0
 32
0.0
 42
50.0
 43
26.791854
 44
-26.791854
 50
0.0
 71
    16
281
     0
 72
     0
110
0.0
120
0.0
130
0.0
111
1.0
121
0.0
131
0.0
112
0.0
122
1.0
132
0.0
  0
VIEW
  5
31
100
AcDbSymbolTableRecord
100
AcDbViewTableRecord
  2
TFR-TRI
 70
     0
 40
54.342756
 10
0.0
 20
0.0
 41
14.557831
 11
0.718873
 21
-0.585049
 31
0.375419
 12
0.0
 22
0.0
 32
0.0
 42
50.0
 43
28.129458
 44
-28.129458
 50
0.0
 71
    16
281
     0
 72
     0
110
0.0
120
0.0
130
0.0
111
1.0
121
0.0
131
0.0
112
0.0
122
1.0
132
0.0
  0
ENDTAB
  0
TABLE
  2
UCS
  5
6
100
AcDbSymbolTable
 70
     0
  0
ENDTAB
  0
TABLE
  2
APPID
  5
8
100
AcDbSymbolTable
 70
     1
  0
APPID
  5
16
100
AcDbSymbolTableRecord
100
AcDbRegAppTableRecord
  2
ACAD
 70
     0
  0
ENDTAB
  0
TABLE
  2
DIMSTYLE
  5
9
100
AcDbSymbolTable
 70
     1
100
AcDbDimStyleTable
 71
     0
  0
DIMSTYLE
105
18
100
AcDbSymbolTableRecord
100
AcDbDimStyleTableRecord
  2
Standard
 70
     0
  3

  4

 40
1.0
 41
0.18
 42
0.0625
 43
0.38
 44
0.18
 45
0.0
 46
0.0
 47
0.0
 48
0.0
 71
     0
 72
     0
 73
     1
 74
     1
 75
     0
 76
     0
 77
     0
 78
     0
 79
     0
140
0.18
141
0.09
142
0.0
143
25.4
144
1.0
145
0.0
146
1.0
147
0.09
148
0.0
170
     0
171
     2
172
     0
173
     0
174
     0
175
     0
176
     0
177
     0
178
     0
179
     0
271
     4
272
     4
273
     2
274
     2
275
     0
276
     0
277
     2
278
    46
279
     0
280
     0
281
     0
282
     0
283
     1
284
     0
285
     0
286
     0
288
     0
289
     3
340
17
341
0
342
0
343
0
344
0
371
    -2
372
    -2
  0
ENDTAB
  0
TABLE
  2
BLOCK_RECORD
  5
1
100
AcDbSymbolTable
 70
     0
  0
BLOCK_RECORD
  5
A
100
AcDbSymbolTableRecord
100
AcDbBlockTableRecord
  2
*MODEL_SPACE
340
20
  0
BLOCK_RECORD
  5
B
100
AcDbSymbolTableRecord
100
AcDbBlockTableRecord
  2
*PAPER_SPACE
340
21
  0
ENDTAB
  0
ENDSEC
  0
SECTION
  2
BLOCKS
  0
BLOCK
  5
D
100
AcDbEntity
  8
0
390
0
100
AcDbBlockBegin
  2
*MODEL_SPACE
 70
     0
 10
0.0
 20
0.0
 30
0.0
  3
*MODEL_SPACE
  1

  0
ENDBLK
  5
E
100
AcDbEntity
  8
0
390
0
100
AcDbBlockEnd
  0
BLOCK
  5
F
100
AcDbEntity
 67
     1
  8
0
390
0
100
AcDbBlockBegin
  2
*PAPER_SPACE
 70
     0
 10
0.0
 20
0.0
 30
0.0
  3
*PAPER_SPACE
  1

  0
ENDBLK
  5
10
100
AcDbEntity
 67
     1
  8
0
390
0
100
AcDbBlockEnd
  0
ENDSEC
  0
SECTION
  2
ENTITIES
  0
VIEWPORT
  5
32
100
AcDbEntity
 67
     1
  8
0
390
0
100
AcDbViewport
 10
5.5
 20
4.25
 30
0.0
 40
11.0
 41
8.5
 68
     1
 69
     1
 12
5.5
 22
4.25
 13
0.0
 23
0.0
 14
0.0
 24
0.0
 15
0.0
 25
0.0
 16
0.0
 26
0.0
 36
1.0
 17
0.0
 27
0.0
 37
0.0
 42
44.345898
 43
0.0
 44
0.0
 45
8.5
 50
0.0
 51
0.0
 72
   100
 90
    32800
340
0
  1

281
     0
 71
     0
 74
     1
110
0.0
120
0.0
130
0.0
111
1.0
121
0.0
131
0.0
112
0.0
122
1.0
132
0.0
345
0
346
0
 79
     0
146
0.0
  0
LINE
  5
33
100
AcDbEntity
 67
     1
  8
1
390
0
  6
Continuous
 62
     7
100
AcDbLine
 10
10.624093
 20
3.455692
 30
0.0
 11
7.624093
 21
3.455692
 31
0.0
  0
LINE
  5
35
100
AcDbEntity
 67
     1
  8
1
390
0
  6
Continuous
 62
     7
100
AcDbLine
 10
7.624093
 20
5.705692
 30
0.0
 11
7.624093
 21
3.080692
 31
0.0
  0
LINE
  5
36
100
AcDbEntity
 67
     1
  8
1
390
0
  6
Continuous
 62
     7
100
AcDbLine
 10
9.624093
 20
5.518192
 30
0.0
 11
9.624093
 21
3.080692
 31
0.0
  0
LINE
  5
37
100
AcDbEntity
 67
     1
  8
1
390
0
  6
Continuous
 62
     7
100
AcDbLine
 10
8.874093
 20
5.705692
 30
0.0
 11
8.874093
 21
3.080692
 31
0.0
  0
LINE
  5
38
100
AcDbEntity
 67
     1
  8
1
390
0
  6
Continuous
 62
     7
100
AcDbLine
 10
10.624093
 20
3.830692
 30
0.0
 11
7.624093
 21
3.830692
 31
0.0
  0
LINE
  5
39
100
AcDbEntity
 67
     1
  8
1
390
0
  6
Continuous
 62
     7
100
AcDbLine
 10
10.624093
 20
4.205692
 30
0.0
 11
7.624093
 21
4.205692
 31
0.0
  0
LINE
  5
3A
100
AcDbEntity
 67
     1
  8
1
390
0
  6
Continuous
 62
     7
100
AcDbLine
 10
10.624093
 20
5.705692
 30
0.0
 11
10.624093
 21
3.080692
 31
0.0
  0
LINE
  5
3B
100
AcDbEntity
 67
     1
  8
1
390
0
  6
Continuous
 62
     7
100
AcDbLine
 10
10.624093
 20
4.580692
 30
0.0
 11
7.624093
 21
4.580692
 31
0.0
  0
LINE
  5
3C
100
AcDbEntity
 67
     1
  8
1
390
0
  6
Continuous
 62
     7
100
AcDbLine
 10
0.736584
 20
4.012086
 30
0.0
 11
1.315959
 21
4.012086
 31
0.0
  0
LINE
  5
3D
100
AcDbEntity
 67
     1
  8
1
390
0
  6
Continuous
 62
     7
100
AcDbLine
 10
10.624093
 20
3.080692
 30
0.0
 11
7.624093
 21
3.080692
 31
0.0
  0
LINE
  5
3E
100
AcDbEntity
 67
     1
  8
1
390
0
  6
Continuous
 62
     7
100
AcDbLine
 10
7.544321
 20
2.948482
 30
0.0
 11
7.419613
 21
3.164482
 31
0.0
  0
LINE
  5
3F
100
AcDbEntity
 67
     1
  8
1
390
0
  6
Continuous
 62
     7
100
AcDbLine
 10
7.419613
 20
3.164482
 30
0.0
 11
7.294905
 21
2.948482
 31
0.0
  0
LINE
  5
40
100
AcDbEntity
 67
     1
  8
1
390
0
  6
Continuous
 62
     7
100
AcDbLine
 10
7.294905
 20
2.948482
 30
0.0
 11
7.544321
 21
2.948482
 31
0.0
  0
LINE
  5
41
100
AcDbEntity
 67
     1
  8
1
390
0
  6
Continuous
 62
     7
100
AcDbLine
 10
10.624093
 20
4.955692
 30
0.0
 11
7.624093
 21
4.955692
 31
0.0
  0
LINE
  5
42
100
AcDbEntity
 67
     1
  8
1
390
0
  6
Continuous
 62
     7
100
AcDbLine
 10
10.624093
 20
5.518192
 30
0.0
 11
8.874093
 21
5.518192
 31
0.0
  0
LINE
  5
43
100
AcDbEntity
 67
     1
  8
1
390
0
  6
Continuous
 62
     7
100
AcDbLine
 10
10.624093
 20
5.330692
 30
0.0
 11
7.624093
 21
5.330692
 31
0.0
  0
LINE
  5
44
100
AcDbEntity
 67
     1
  8
1
390
0
  6
Continuous
 62
     7
100
AcDbLine
 10
0.669021
 20
4.008411
 30
0.0
 11
0.544314
 21
4.224411
 31
0.0
  0
LINE
  5
45
100
AcDbEntity
 67
     1
  8
1
390
0
  6
Continuous
 62
     7
100
AcDbLine
 10
0.544314
 20
4.224411
 30
0.0
 11
0.419606
 21
4.008411
 31
0.0
  0
LINE
  5
46
100
AcDbEntity
 67
     1
  8
1
390
0
  6
Continuous
 62
     7
100
AcDbLine
 10
0.419606
 20
4.008411
 30
0.0
 11
0.669021
 21
4.008411
 31
0.0
  0
LINE
  5
47
100
AcDbEntity
 67
     1
  8
1
390
0
  6
Continuous
 62
     7
100
AcDbLine
 10
10.624093
 20
5.705692
 30
0.0
 11
7.624093
 21
5.705692
 31
0.0
  0
LINE
  5
48
100
AcDbEntity
 67
     1
  8
1
390
0
  6
Continuous
 62
     7
100
AcDbLine
 10
10.043263
 20
5.070473
 30
0.0
 11
10.009513
 21
5.070473
 31
0.0
  0
LINE
  5
49
100
AcDbEntity
 67
     1
  8
1
390
0
  6
Continuous
 62
     7
100
AcDbLine
 10
10.026388
 20
5.087348
 30
0.0
 11
10.026388
 21
5.053598
 31
0.0
  0
LINE
  5
4A
100
AcDbEntity
 67
     1
  8
1
390
0
  6
Continuous
 62
     7
100
AcDbLine
 10
10.009513
 20
5.036724
 30
0.0
 11
10.043263
 21
5.036724
 31
0.0
  0
LINE
  5
4B
100
AcDbEntity
 67
     1
  8
1
390
0
  6
Continuous
 62
     7
100
AcDbLine
 10
0.3125
 20
0.3125
 30
0.0
 11
10.760845
 21
0.3125
 31
0.0
  0
LINE
  5
4C
100
AcDbEntity
 67
     1
  8
1
390
0
  6
Continuous
 62
     7
100
AcDbLine
 10
0.3125
 20
8.26636
 30
0.0
 11
10.760845
 21
8.26636
 31
0.0
  0
LINE
  5
4D
100
AcDbEntity
 67
     1
  8
1
390
0
  6
Continuous
 62
     7
100
AcDbLine
 10
0.3125
 20
8.26636
 30
0.0
 11
0.3125
 21
0.3125
 31
0.0
  0
LINE
  5
4E
100
AcDbEntity
 67
     1
  8
1
390
0
  6
Continuous
 62
     7
100
AcDbLine
 10
7.368841
 20
0.3125
 30
0.0
 11
7.368841
 21
1.100058
 31
0.0
  0
LINE
  5
4F
100
AcDbEntity
 67
     1
  8
1
390
0
  6
Continuous
 62
     7
100
AcDbLine
 10
6.596283
 20
2.866795
 30
0.0
 11
6.596283
 21
0.3125
 31
0.0
  0
LINE
  5
50
100
AcDbEntity
 67
     1
  8
1
390
0
  6
Continuous
 62
     7
100
AcDbLine
 10
6.202504
 20
0.3125
 30
0.0
 11
6.202504
 21
2.635795
 31
0.0
  0
LINE
  5
51
100
AcDbEntity
 67
     1
  8
1
390
0
  6
Continuous
 62
     7
100
AcDbLine
 10
5.838152
 20
0.3125
 30
0.0
 11
5.838152
 21
2.635795
 31
0.0
  0
LINE
  5
52
100
AcDbEntity
 67
     1
  8
1
390
0
  6
Continuous
 62
     7
100
AcDbLine
 10
5.461111
 20
0.3125
 30
0.0
 11
5.461111
 21
2.635795
 31
0.0
  0
LINE
  5
53
100
AcDbEntity
 67
     1
  8
1
390
0
  6
Continuous
 62
     7
100
AcDbLine
 10
5.136612
 20
0.3125
 30
0.0
 11
5.136612
 21
2.635795
 31
0.0
  0
LINE
  5
54
100
AcDbEntity
 67
     1
  8
1
390
0
  6
Continuous
 62
     7
100
AcDbLine
 10
0.3125
 20
0.574145
 30
0.0
 11
7.368841
 21
0.574145
 31
0.0
  0
LINE
  5
55
100
AcDbEntity
 67
     1
  8
1
390
0
  6
Continuous
 62
     7
100
AcDbLine
 10
0.3125
 20
0.847101
 30
0.0
 11
7.368841
 21
0.847101
 31
0.0
  0
LINE
  5
56
100
AcDbEntity
 67
     1
  8
1
390
0
  6
Continuous
 62
     7
100
AcDbLine
 10
0.3125
 20
1.100058
 30
0.0
 11
10.760845
 21
1.100058
 31
0.0
  0
LINE
  5
57
100
AcDbEntity
 67
     1
  8
1
390
0
  6
Continuous
 62
     7
100
AcDbLine
 10
6.596283
 20
1.354014
 30
0.0
 11
0.3125
 21
1.354014
 31
0.0
  0
LINE
  5
58
100
AcDbEntity
 67
     1
  8
1
390
0
  6
Continuous
 62
     7
100
AcDbLine
 10
10.760845
 20
1.60597
 30
0.0
 11
6.596283
 21
1.60597
 31
0.0
  0
LINE
  5
59
100
AcDbEntity
 67
     1
  8
1
390
0
  6
Continuous
 62
     7
100
AcDbLine
 10
6.596283
 20
2.119882
 30
0.0
 11
10.760845
 21
2.119882
 31
0.0
  0
LINE
  5
5A
100
AcDbEntity
 67
     1
  8
1
390
0
  6
Continuous
 62
     7
100
AcDbLine
 10
9.16729
 20
0.847101
 30
0.0
 11
10.760845
 21
0.847101
 31
0.0
  0
LINE
  5
5B
100
AcDbEntity
 67
     1
  8
1
390
0
  6
Continuous
 62
     7
100
AcDbLine
 10
10.358371
 20
0.847101
 30
0.0
 11
10.358371
 21
0.3125
 31
0.0
  0
LINE
  5
5C
100
AcDbEntity
 67
     1
  8
1
390
0
  6
Continuous
 62
     7
100
AcDbLine
 10
10.760845
 20
8.26636
 30
0.0
 11
10.760845
 21
0.3125
 31
0.0
  0
LINE
  5
5D
100
AcDbEntity
 67
     1
  8
1
390
0
  6
Continuous
 62
     7
100
AcDbLine
 10
0.657427
 20
0.3125
 30
0.0
 11
0.657427
 21
2.635795
 31
0.0
  0
LINE
  5
5E
100
AcDbEntity
 67
     1
  8
1
390
0
  6
Continuous
 62
     7
100
AcDbLine
 10
1.137175
 20
0.3125
 30
0.0
 11
1.137175
 21
2.635795
 31
0.0
  0
LINE
  5
5F
100
AcDbEntity
 67
     1
  8
1
390
0
  6
Continuous
 62
     7
100
AcDbLine
 10
1.441247
 20
0.3125
 30
0.0
 11
1.441247
 21
2.635795
 31
0.0
  0
LINE
  5
60
100
AcDbEntity
 67
     1
  8
1
390
0
  6
Continuous
 62
     7
100
AcDbLine
 10
1.74527
 20
0.3125
 30
0.0
 11
1.74527
 21
2.635795
 31
0.0
  0
LINE
  5
61
100
AcDbEntity
 67
     1
  8
1
390
0
  6
Continuous
 62
     7
100
AcDbLine
 10
4.522731
 20
0.3125
 30
0.0
 11
4.522731
 21
2.635795
 31
0.0
  0
LINE
  5
62
100
AcDbEntity
 67
     1
  8
1
390
0
  6
Continuous
 62
     7
100
AcDbLine
 10
9.16729
 20
1.57597
 30
0.0
 11
9.16729
 21
0.3125
 31
0.0
  0
LINE
  5
63
100
AcDbEntity
 67
     1
  8
1
390
0
  6
Continuous
 62
     7
100
AcDbLine
 10
0.3125
 20
1.60597
 30
0.0
 11
6.596283
 21
1.60597
 31
0.0
  0
LINE
  5
64
100
AcDbEntity
 67
     1
  8
1
390
0
  6
Continuous
 62
     7
100
AcDbLine
 10
6.596283
 20
1.861926
 30
0.0
 11
0.3125
 21
1.861926
 31
0.0
  0
LINE
  5
65
100
AcDbEntity
 67
     1
  8
1
390
0
  6
Continuous
 62
     7
100
AcDbLine
 10
6.596283
 20
2.119882
 30
0.0
 11
0.3125
 21
2.119882
 31
0.0
  0
LINE
  5
66
100
AcDbEntity
 67
     1
  8
1
390
0
  6
Continuous
 62
     7
100
AcDbLine
 10
6.596283
 20
2.372838
 30
0.0
 11
0.3125
 21
2.372838
 31
0.0
  0
LINE
  5
67
100
AcDbEntity
 67
     1
  8
1
390
0
  6
Continuous
 62
     7
100
AcDbLine
 10
10.760845
 20
2.635795
 30
0.0
 11
0.3125
 21
2.635795
 31
0.0
  0
LINE
  5
68
100
AcDbEntity
 67
     1
  8
1
390
0
  6
Continuous
 62
     7
100
AcDbLine
 10
10.760845
 20
2.866795
 30
0.0
 11
6.596283
 21
2.866795
 31
0.0
  0
LINE
  5
69
100
AcDbEntity
 67
     1
  8
1
390
0
  6
Continuous
 62
     7
100
AcDbLine
 10
8.818667
 20
1.192206
 30
0.0
 11
8.824292
 21
1.192206
 31
0.0
  0
LINE
  5
6A
100
AcDbEntity
 67
     1
  8
1
390
0
  6
Continuous
 62
     7
100
AcDbLine
 10
8.824292
 20
1.192206
 30
0.0
 11
8.830543
 21
1.198456
 31
0.0
  0
LINE
  5
6B
100
AcDbEntity
 67
     1
  8
1
390
0
  6
Continuous
 62
     7
100
AcDbLine
 10
8.830543
 20
1.198456
 30
0.0
 11
8.830543
 21
1.204081
 31
0.0
  0
LINE
  5
6C
100
AcDbEntity
 67
     1
  8
1
390
0
  6
Continuous
 62
     7
100
AcDbLine
 10
8.830543
 20
1.204081
 30
0.0
 11
8.824292
 21
1.210331
 31
0.0
  0
LINE
  5
6D
100
AcDbEntity
 67
     1
  8
1
390
0
  6
Continuous
 62
     7
100
AcDbLine
 10
8.824292
 20
1.210331
 30
0.0
 11
8.818667
 21
1.210331
 31
0.0
  0
LINE
  5
6E
100
AcDbEntity
 67
     1
  8
1
390
0
  6
Continuous
 62
     7
100
AcDbLine
 10
8.818667
 20
1.210331
 30
0.0
 11
8.812417
 21
1.204081
 31
0.0
  0
LINE
  5
6F
100
AcDbEntity
 67
     1
  8
1
390
0
  6
Continuous
 62
     7
100
AcDbLine
 10
8.812417
 20
1.204081
 30
0.0
 11
8.812417
 21
1.198456
 31
0.0
  0
LINE
  5
70
100
AcDbEntity
 67
     1
  8
1
390
0
  6
Continuous
 62
     7
100
AcDbLine
 10
8.812417
 20
1.198456
 30
0.0
 11
8.818667
 21
1.192206
 31
0.0
  0
LINE
  5
71
100
AcDbEntity
 67
     1
  8
1
390
0
  6
Continuous
 62
     7
100
AcDbLine
 10
7.2529
 20
1.27032
 30
0.0
 11
7.2229
 21
1.27032
 31
0.0
  0
LINE
  5
72
100
AcDbEntity
 67
     1
  8
1
390
0
  6
Continuous
 62
     7
100
AcDbLine
 10
7.2379
 20
1.28532
 30
0.0
 11
7.2379
 21
1.25532
 31
0.0
  0
LINE
  5
73
100
AcDbEntity
 67
     1
  8
1
390
0
  6
Continuous
 62
     7
100
AcDbLine
 10
7.2229
 20
1.240945
 30
0.0
 11
7.2529
 21
1.240945
 31
0.0
  0
LINE
  5
74
100
AcDbEntity
 67
     1
  8
1
390
0
  6
Continuous
 62
     7
100
AcDbLine
 10
7.2529
 20
1.17432
 30
0.0
 11
7.2229
 21
1.17432
 31
0.0
  0
LINE
  5
75
100
AcDbEntity
 67
     1
  8
1
390
0
  6
Continuous
 62
     7
100
AcDbLine
 10
7.2379
 20
1.18932
 30
0.0
 11
7.2379
 21
1.15932
 31
0.0
  0
LINE
  5
76
100
AcDbEntity
 67
     1
  8
1
390
0
  6
Continuous
 62
     7
100
AcDbLine
 10
7.2229
 20
1.144945
 30
0.0
 11
7.2529
 21
1.144945
 31
0.0
  0
LINE
  5
77
100
AcDbEntity
 67
     1
  8
1
390
0
  6
Continuous
 62
     7
100
AcDbLine
 10
8.4749
 20
1.27032
 30
0.0
 11
8.444901
 21
1.27032
 31
0.0
  0
LINE
  5
78
100
AcDbEntity
 67
     1
  8
1
390
0
  6
Continuous
 62
     7
100
AcDbLine
 10
8.4599
 20
1.28532
 30
0.0
 11
8.4599
 21
1.25532
 31
0.0
  0
LINE
  5
79
100
AcDbEntity
 67
     1
  8
1
390
0
  6
Continuous
 62
     7
100
AcDbLine
 10
8.444901
 20
1.240945
 30
0.0
 11
8.4749
 21
1.240945
 31
0.0
  0
LINE
  5
7A
100
AcDbEntity
 67
     1
  8
1
390
0
  6
Continuous
 62
     7
100
AcDbLine
 10
8.4749
 20
1.17432
 30
0.0
 11
8.444901
 21
1.17432
 31
0.0
  0
LINE
  5
7B
100
AcDbEntity
 67
     1
  8
1
390
0
  6
Continuous
 62
     7
100
AcDbLine
 10
8.4599
 20
1.18932
 30
0.0
 11
8.4599
 21
1.15932
 31
0.0
  0
LINE
  5
7C
100
AcDbEntity
 67
     1
  8
1
390
0
  6
Continuous
 62
     7
100
AcDbLine
 10
8.444901
 20
1.144945
 30
0.0
 11
8.4749
 21
1.144945
 31
0.0
  0
LINE
  5
7D
100
AcDbEntity
 67
     1
  8
1
390
0
  6
Continuous
 62
     7
100
AcDbLine
 10
4.630616
 20
5.01262
 30
0.0
 11
4.585616
 21
5.01262
 31
0.0
  0
LINE
  5
7E
100
AcDbEntity
 67
     1
  8
1
390
0
  6
Continuous
 62
     7
100
AcDbLine
 10
4.585616
 20
5.01262
 30
0.0
 11
4.585616
 21
4.84387
 31
0.0
  0
LINE
  5
7F
100
AcDbEntity
 67
     1
  8
1
390
0
  6
Continuous
 62
     7
100
AcDbLine
 10
4.585616
 20
4.84387
 30
0.0
 11
4.630616
 21
4.84387
 31
0.0
  0
LINE
  5
80
100
AcDbEntity
 67
     1
  8
1
390
0
  6
Continuous
 62
     7
100
AcDbLine
 10
5.100678
 20
4.84387
 30
0.0
 11
5.145678
 21
4.84387
 31
0.0
  0
LINE
  5
81
100
AcDbEntity
 67
     1
  8
1
390
0
  6
Continuous
 62
     7
100
AcDbLine
 10
5.145678
 20
4.84387
 30
0.0
 11
5.145678
 21
5.01262
 31
0.0
  0
LINE
  5
82
100
AcDbEntity
 67
     1
  8
1
390
0
  6
Continuous
 62
     7
100
AcDbLine
 10
5.145678
 20
5.01262
 30
0.0
 11
5.100678
 21
5.01262
 31
0.0
  0
LINE
  5
83
100
AcDbEntity
 67
     1
  8
1
390
0
  6
Continuous
 62
     7
100
AcDbLine
 10
3.737048
 20
6.219158
 30
0.0
 11
3.737048
 21
5.057621
 31
0.0
  0
LINE
  5
84
100
AcDbEntity
 67
     1
  8
1
390
0
  6
Continuous
 62
     7
100
AcDbLine
 10
4.183115
 20
5.940162
 30
0.0
 11
4.183115
 21
5.057621
 31
0.0
  0
LINE
  5
85
100
AcDbEntity
 67
     1
  8
1
390
0
  6
Continuous
 62
     7
100
AcDbLine
 10
4.273116
 20
5.14762
 30
0.0
 11
4.523116
 21
5.14762
 31
0.0
  0
LINE
  5
86
100
AcDbEntity
 67
     1
  8
1
390
0
  6
Continuous
 62
     7
100
AcDbLine
 10
3.737048
 20
5.14762
 30
0.0
 11
4.273116
 21
5.14762
 31
0.0
  0
LINE
  5
87
100
AcDbEntity
 67
     1
  8
1
390
0
  6
Continuous
 62
     7
100
AcDbLine
 10
3.737048
 20
5.14762
 30
0.0
 11
3.827048
 21
5.123505
 31
0.0
  0
LINE
  5
88
100
AcDbEntity
 67
     1
  8
1
390
0
  6
Continuous
 62
     7
100
AcDbLine
 10
3.827048
 20
5.123505
 30
0.0
 11
3.827048
 21
5.171736
 31
0.0
  0
LINE
  5
89
100
AcDbEntity
 67
     1
  8
1
390
0
  6
Continuous
 62
     7
100
AcDbLine
 10
3.827048
 20
5.171736
 30
0.0
 11
3.737048
 21
5.14762
 31
0.0
  0
LINE
  5
8A
100
AcDbEntity
 67
     1
  8
1
390
0
  6
Continuous
 62
     7
100
AcDbLine
 10
3.827048
 20
5.123621
 30
0.0
 11
3.826617
 21
5.123621
 31
0.0
  0
LINE
  5
8B
100
AcDbEntity
 67
     1
  8
1
390
0
  6
Continuous
 62
     7
100
AcDbLine
 10
3.827048
 20
5.123621
 30
0.0
 11
3.826617
 21
5.123621
 31
0.0
  0
LINE
  5
8C
100
AcDbEntity
 67
     1
  8
1
390
0
  6
Continuous
 62
     7
100
AcDbLine
 10
3.827048
 20
5.12562
 30
0.0
 11
3.819153
 21
5.12562
 31
0.0
  0
LINE
  5
8D
100
AcDbEntity
 67
     1
  8
1
390
0
  6
Continuous
 62
     7
100
AcDbLine
 10
3.827048
 20
5.12762
 30
0.0
 11
3.811689
 21
5.12762
 31
0.0
  0
LINE
  5
8E
100
AcDbEntity
 67
     1
  8
1
390
0
  6
Continuous
 62
     7
100
AcDbLine
 10
3.827048
 20
5.129621
 30
0.0
 11
3.804225
 21
5.129621
 31
0.0
  0
LINE
  5
8F
100
AcDbEntity
 67
     1
  8
1
390
0
  6
Continuous
 62
     7
100
AcDbLine
 10
3.827048
 20
5.13162
 30
0.0
 11
3.796761
 21
5.13162
 31
0.0
  0
LINE
  5
90
100
AcDbEntity
 67
     1
  8
1
390
0
  6
Continuous
 62
     7
100
AcDbLine
 10
3.827048
 20
5.13362
 30
0.0
 11
3.789297
 21
5.13362
 31
0.0
  0
LINE
  5
91
100
AcDbEntity
 67
     1
  8
1
390
0
  6
Continuous
 62
     7
100
AcDbLine
 10
3.827048
 20
5.135621
 30
0.0
 11
3.781832
 21
5.135621
 31
0.0
  0
LINE
  5
92
100
AcDbEntity
 67
     1
  8
1
390
0
  6
Continuous
 62
     7
100
AcDbLine
 10
3.827048
 20
5.13762
 30
0.0
 11
3.774368
 21
5.13762
 31
0.0
  0
LINE
  5
93
100
AcDbEntity
 67
     1
  8
1
390
0
  6
Continuous
 62
     7
100
AcDbLine
 10
3.827048
 20
5.13962
 30
0.0
 11
3.766904
 21
5.13962
 31
0.0
  0
LINE
  5
94
100
AcDbEntity
 67
     1
  8
1
390
0
  6
Continuous
 62
     7
100
AcDbLine
 10
3.827048
 20
5.14162
 30
0.0
 11
3.75944
 21
5.14162
 31
0.0
  0
LINE
  5
95
100
AcDbEntity
 67
     1
  8
1
390
0
  6
Continuous
 62
     7
100
AcDbLine
 10
3.827048
 20
5.14362
 30
0.0
 11
3.751976
 21
5.14362
 31
0.0
  0
LINE
  5
96
100
AcDbEntity
 67
     1
  8
1
390
0
  6
Continuous
 62
     7
100
AcDbLine
 10
3.827048
 20
5.14562
 30
0.0
 11
3.744512
 21
5.14562
 31
0.0
  0
LINE
  5
97
100
AcDbEntity
 67
     1
  8
1
390
0
  6
Continuous
 62
     7
100
AcDbLine
 10
3.827048
 20
5.14762
 30
0.0
 11
3.737048
 21
5.14762
 31
0.0
  0
LINE
  5
98
100
AcDbEntity
 67
     1
  8
1
390
0
  6
Continuous
 62
     7
100
AcDbLine
 10
3.827048
 20
5.17162
 30
0.0
 11
3.826617
 21
5.17162
 31
0.0
  0
LINE
  5
99
100
AcDbEntity
 67
     1
  8
1
390
0
  6
Continuous
 62
     7
100
AcDbLine
 10
3.827048
 20
5.17162
 30
0.0
 11
3.826617
 21
5.17162
 31
0.0
  0
LINE
  5
9A
100
AcDbEntity
 67
     1
  8
1
390
0
  6
Continuous
 62
     7
100
AcDbLine
 10
3.827048
 20
5.169621
 30
0.0
 11
3.819153
 21
5.169621
 31
0.0
  0
LINE
  5
9B
100
AcDbEntity
 67
     1
  8
1
390
0
  6
Continuous
 62
     7
100
AcDbLine
 10
3.827048
 20
5.16762
 30
0.0
 11
3.811689
 21
5.16762
 31
0.0
  0
LINE
  5
9C
100
AcDbEntity
 67
     1
  8
1
390
0
  6
Continuous
 62
     7
100
AcDbLine
 10
3.827048
 20
5.16562
 30
0.0
 11
3.804225
 21
5.16562
 31
0.0
  0
LINE
  5
9D
100
AcDbEntity
 67
     1
  8
1
390
0
  6
Continuous
 62
     7
100
AcDbLine
 10
3.827048
 20
5.16362
 30
0.0
 11
3.796761
 21
5.16362
 31
0.0
  0
LINE
  5
9E
100
AcDbEntity
 67
     1
  8
1
390
0
  6
Continuous
 62
     7
100
AcDbLine
 10
3.827048
 20
5.16162
 30
0.0
 11
3.789297
 21
5.16162
 31
0.0
  0
LINE
  5
9F
100
AcDbEntity
 67
     1
  8
1
390
0
  6
Continuous
 62
     7
100
AcDbLine
 10
3.827048
 20
5.15962
 30
0.0
 11
3.781832
 21
5.15962
 31
0.0
  0
LINE
  5
A0
100
AcDbEntity
 67
     1
  8
1
390
0
  6
Continuous
 62
     7
100
AcDbLine
 10
3.827048
 20
5.15762
 30
0.0
 11
3.774368
 21
5.15762
 31
0.0
  0
LINE
  5
A1
100
AcDbEntity
 67
     1
  8
1
390
0
  6
Continuous
 62
     7
100
AcDbLine
 10
3.827048
 20
5.155621
 30
0.0
 11
3.766904
 21
5.155621
 31
0.0
  0
LINE
  5
A2
100
AcDbEntity
 67
     1
  8
1
390
0
  6
Continuous
 62
     7
100
AcDbLine
 10
3.827048
 20
5.15362
 30
0.0
 11
3.75944
 21
5.15362
 31
0.0
  0
LINE
  5
A3
100
AcDbEntity
 67
     1
  8
1
390
0
  6
Continuous
 62
     7
100
AcDbLine
 10
3.827048
 20
5.15162
 30
0.0
 11
3.751976
 21
5.15162
 31
0.0
  0
LINE
  5
A4
100
AcDbEntity
 67
     1
  8
1
390
0
  6
Continuous
 62
     7
100
AcDbLine
 10
3.827048
 20
5.149621
 30
0.0
 11
3.744512
 21
5.149621
 31
0.0
  0
LINE
  5
A5
100
AcDbEntity
 67
     1
  8
1
390
0
  6
Continuous
 62
     7
100
AcDbLine
 10
3.827048
 20
5.14762
 30
0.0
 11
3.737048
 21
5.14762
 31
0.0
  0
LINE
  5
A6
100
AcDbEntity
 67
     1
  8
1
390
0
  6
Continuous
 62
     7
100
AcDbLine
 10
4.183115
 20
5.14762
 30
0.0
 11
4.093116
 21
5.171736
 31
0.0
  0
LINE
  5
A7
100
AcDbEntity
 67
     1
  8
1
390
0
  6
Continuous
 62
     7
100
AcDbLine
 10
4.093116
 20
5.171736
 30
0.0
 11
4.093116
 21
5.123505
 31
0.0
  0
LINE
  5
A8
100
AcDbEntity
 67
     1
  8
1
390
0
  6
Continuous
 62
     7
100
AcDbLine
 10
4.093116
 20
5.123505
 30
0.0
 11
4.183115
 21
5.14762
 31
0.0
  0
LINE
  5
A9
100
AcDbEntity
 67
     1
  8
1
390
0
  6
Continuous
 62
     7
100
AcDbLine
 10
4.093116
 20
5.17162
 30
0.0
 11
4.093546
 21
5.17162
 31
0.0
  0
LINE
  5
AA
100
AcDbEntity
 67
     1
  8
1
390
0
  6
Continuous
 62
     7
100
AcDbLine
 10
4.093116
 20
5.17162
 30
0.0
 11
4.093546
 21
5.17162
 31
0.0
  0
LINE
  5
AB
100
AcDbEntity
 67
     1
  8
1
390
0
  6
Continuous
 62
     7
100
AcDbLine
 10
4.093116
 20
5.169621
 30
0.0
 11
4.10101
 21
5.169621
 31
0.0
  0
LINE
  5
AC
100
AcDbEntity
 67
     1
  8
1
390
0
  6
Continuous
 62
     7
100
AcDbLine
 10
4.093116
 20
5.16762
 30
0.0
 11
4.108475
 21
5.16762
 31
0.0
  0
LINE
  5
AD
100
AcDbEntity
 67
     1
  8
1
390
0
  6
Continuous
 62
     7
100
AcDbLine
 10
4.093116
 20
5.16562
 30
0.0
 11
4.115939
 21
5.16562
 31
0.0
  0
LINE
  5
AE
100
AcDbEntity
 67
     1
  8
1
390
0
  6
Continuous
 62
     7
100
AcDbLine
 10
4.093116
 20
5.16362
 30
0.0
 11
4.123403
 21
5.16362
 31
0.0
  0
LINE
  5
AF
100
AcDbEntity
 67
     1
  8
1
390
0
  6
Continuous
 62
     7
100
AcDbLine
 10
4.093116
 20
5.16162
 30
0.0
 11
4.130867
 21
5.16162
 31
0.0
  0
LINE
  5
B0
100
AcDbEntity
 67
     1
  8
1
390
0
  6
Continuous
 62
     7
100
AcDbLine
 10
4.093116
 20
5.15962
 30
0.0
 11
4.138331
 21
5.15962
 31
0.0
  0
LINE
  5
B1
100
AcDbEntity
 67
     1
  8
1
390
0
  6
Continuous
 62
     7
100
AcDbLine
 10
4.093116
 20
5.15762
 30
0.0
 11
4.145795
 21
5.15762
 31
0.0
  0
LINE
  5
B2
100
AcDbEntity
 67
     1
  8
1
390
0
  6
Continuous
 62
     7
100
AcDbLine
 10
4.093116
 20
5.155621
 30
0.0
 11
4.153259
 21
5.155621
 31
0.0
  0
LINE
  5
B3
100
AcDbEntity
 67
     1
  8
1
390
0
  6
Continuous
 62
     7
100
AcDbLine
 10
4.093116
 20
5.15362
 30
0.0
 11
4.160723
 21
5.15362
 31
0.0
  0
LINE
  5
B4
100
AcDbEntity
 67
     1
  8
1
390
0
  6
Continuous
 62
     7
100
AcDbLine
 10
4.093116
 20
5.15162
 30
0.0
 11
4.168188
 21
5.15162
 31
0.0
  0
LINE
  5
B5
100
AcDbEntity
 67
     1
  8
1
390
0
  6
Continuous
 62
     7
100
AcDbLine
 10
4.093116
 20
5.149621
 30
0.0
 11
4.175652
 21
5.149621
 31
0.0
  0
LINE
  5
B6
100
AcDbEntity
 67
     1
  8
1
390
0
  6
Continuous
 62
     7
100
AcDbLine
 10
4.093116
 20
5.14762
 30
0.0
 11
4.183115
 21
5.14762
 31
0.0
  0
LINE
  5
B7
100
AcDbEntity
 67
     1
  8
1
390
0
  6
Continuous
 62
     7
100
AcDbLine
 10
4.093116
 20
5.123621
 30
0.0
 11
4.093546
 21
5.123621
 31
0.0
  0
LINE
  5
B8
100
AcDbEntity
 67
     1
  8
1
390
0
  6
Continuous
 62
     7
100
AcDbLine
 10
4.093116
 20
5.123621
 30
0.0
 11
4.093546
 21
5.123621
 31
0.0
  0
LINE
  5
B9
100
AcDbEntity
 67
     1
  8
1
390
0
  6
Continuous
 62
     7
100
AcDbLine
 10
4.093116
 20
5.12562
 30
0.0
 11
4.10101
 21
5.12562
 31
0.0
  0
LINE
  5
BA
100
AcDbEntity
 67
     1
  8
1
390
0
  6
Continuous
 62
     7
100
AcDbLine
 10
4.093116
 20
5.12762
 30
0.0
 11
4.108475
 21
5.12762
 31
0.0
  0
LINE
  5
BB
100
AcDbEntity
 67
     1
  8
1
390
0
  6
Continuous
 62
     7
100
AcDbLine
 10
4.093116
 20
5.129621
 30
0.0
 11
4.115939
 21
5.129621
 31
0.0
  0
LINE
  5
BC
100
AcDbEntity
 67
     1
  8
1
390
0
  6
Continuous
 62
     7
100
AcDbLine
 10
4.093116
 20
5.13162
 30
0.0
 11
4.123403
 21
5.13162
 31
0.0
  0
LINE
  5
BD
100
AcDbEntity
 67
     1
  8
1
390
0
  6
Continuous
 62
     7
100
AcDbLine
 10
4.093116
 20
5.13362
 30
0.0
 11
4.130867
 21
5.13362
 31
0.0
  0
LINE
  5
BE
100
AcDbEntity
 67
     1
  8
1
390
0
  6
Continuous
 62
     7
100
AcDbLine
 10
4.093116
 20
5.135621
 30
0.0
 11
4.138331
 21
5.135621
 31
0.0
  0
LINE
  5
BF
100
AcDbEntity
 67
     1
  8
1
390
0
  6
Continuous
 62
     7
100
AcDbLine
 10
4.093116
 20
5.13762
 30
0.0
 11
4.145795
 21
5.13762
 31
0.0
  0
LINE
  5
C0
100
AcDbEntity
 67
     1
  8
1
390
0
  6
Continuous
 62
     7
100
AcDbLine
 10
4.093116
 20
5.13962
 30
0.0
 11
4.153259
 21
5.13962
 31
0.0
  0
LINE
  5
C1
100
AcDbEntity
 67
     1
  8
1
390
0
  6
Continuous
 62
     7
100
AcDbLine
 10
4.093116
 20
5.14162
 30
0.0
 11
4.160723
 21
5.14162
 31
0.0
  0
LINE
  5
C2
100
AcDbEntity
 67
     1
  8
1
390
0
  6
Continuous
 62
     7
100
AcDbLine
 10
4.093116
 20
5.14362
 30
0.0
 11
4.168188
 21
5.14362
 31
0.0
  0
LINE
  5
C3
100
AcDbEntity
 67
     1
  8
1
390
0
  6
Continuous
 62
     7
100
AcDbLine
 10
4.093116
 20
5.14562
 30
0.0
 11
4.175652
 21
5.14562
 31
0.0
  0
LINE
  5
C4
100
AcDbEntity
 67
     1
  8
1
390
0
  6
Continuous
 62
     7
100
AcDbLine
 10
4.093116
 20
5.14762
 30
0.0
 11
4.183115
 21
5.14762
 31
0.0
  0
LINE
  5
C5
100
AcDbEntity
 67
     1
  8
1
390
0
  6
Continuous
 62
     7
100
AcDbLine
 10
4.637818
 20
5.84791
 30
0.0
 11
4.592818
 21
5.84791
 31
0.0
  0
LINE
  5
C6
100
AcDbEntity
 67
     1
  8
1
390
0
  6
Continuous
 62
     7
100
AcDbLine
 10
4.592818
 20
5.84791
 30
0.0
 11
4.592818
 21
5.67916
 31
0.0
  0
LINE
  5
C7
100
AcDbEntity
 67
     1
  8
1
390
0
  6
Continuous
 62
     7
100
AcDbLine
 10
4.592818
 20
5.67916
 30
0.0
 11
4.637818
 21
5.67916
 31
0.0
  0
LINE
  5
C8
100
AcDbEntity
 67
     1
  8
1
390
0
  6
Continuous
 62
     7
100
AcDbLine
 10
5.009818
 20
5.67916
 30
0.0
 11
5.054818
 21
5.67916
 31
0.0
  0
LINE
  5
C9
100
AcDbEntity
 67
     1
  8
1
390
0
  6
Continuous
 62
     7
100
AcDbLine
 10
5.054818
 20
5.67916
 30
0.0
 11
5.054818
 21
5.84791
 31
0.0
  0
LINE
  5
CA
100
AcDbEntity
 67
     1
  8
1
390
0
  6
Continuous
 62
     7
100
AcDbLine
 10
5.054818
 20
5.84791
 30
0.0
 11
5.009818
 21
5.84791
 31
0.0
  0
LINE
  5
CB
100
AcDbEntity
 67
     1
  8
1
390
0
  6
Continuous
 62
     7
100
AcDbLine
 10
3.898661
 20
6.357832
 30
0.0
 11
4.440318
 21
6.357832
 31
0.0
  0
LINE
  5
CC
100
AcDbEntity
 67
     1
  8
1
390
0
  6
Continuous
 62
     7
100
AcDbLine
 10
3.898661
 20
6.240562
 30
0.0
 11
4.440318
 21
6.240562
 31
0.0
  0
LINE
  5
CD
100
AcDbEntity
 67
     1
  8
1
390
0
  6
Continuous
 62
     7
100
AcDbLine
 10
4.350318
 20
5.98291
 30
0.0
 11
4.530318
 21
5.98291
 31
0.0
  0
LINE
  5
CE
100
AcDbEntity
 67
     1
  8
1
390
0
  6
Continuous
 62
     7
100
AcDbLine
 10
4.350318
 20
6.357832
 30
0.0
 11
4.350318
 21
6.582832
 31
0.0
  0
LINE
  5
CF
100
AcDbEntity
 67
     1
  8
1
390
0
  6
Continuous
 62
     7
100
AcDbLine
 10
4.350318
 20
6.240562
 30
0.0
 11
4.350318
 21
5.98291
 31
0.0
  0
LINE
  5
D0
100
AcDbEntity
 67
     1
  8
1
390
0
  6
Continuous
 62
     7
100
AcDbLine
 10
4.350318
 20
6.357832
 30
0.0
 11
4.374434
 21
6.447832
 31
0.0
  0
LINE
  5
D1
100
AcDbEntity
 67
     1
  8
1
390
0
  6
Continuous
 62
     7
100
AcDbLine
 10
4.374434
 20
6.447832
 30
0.0
 11
4.326203
 21
6.447832
 31
0.0
  0
LINE
  5
D2
100
AcDbEntity
 67
     1
  8
1
390
0
  6
Continuous
 62
     7
100
AcDbLine
 10
4.326203
 20
6.447832
 30
0.0
 11
4.350318
 21
6.357832
 31
0.0
  0
LINE
  5
D3
100
AcDbEntity
 67
     1
  8
1
390
0
  6
Continuous
 62
     7
100
AcDbLine
 10
4.374318
 20
6.447832
 30
0.0
 11
4.374318
 21
6.447402
 31
0.0
  0
LINE
  5
D4
100
AcDbEntity
 67
     1
  8
1
390
0
  6
Continuous
 62
     7
100
AcDbLine
 10
4.374318
 20
6.447832
 30
0.0
 11
4.374318
 21
6.447402
 31
0.0
  0
LINE
  5
D5
100
AcDbEntity
 67
     1
  8
1
390
0
  6
Continuous
 62
     7
100
AcDbLine
 10
4.372318
 20
6.447832
 30
0.0
 11
4.372318
 21
6.439938
 31
0.0
  0
LINE
  5
D6
100
AcDbEntity
 67
     1
  8
1
390
0
  6
Continuous
 62
     7
100
AcDbLine
 10
4.370318
 20
6.447832
 30
0.0
 11
4.370318
 21
6.432473
 31
0.0
  0
LINE
  5
D7
100
AcDbEntity
 67
     1
  8
1
390
0
  6
Continuous
 62
     7
100
AcDbLine
 10
4.368318
 20
6.447832
 30
0.0
 11
4.368318
 21
6.425009
 31
0.0
  0
LINE
  5
D8
100
AcDbEntity
 67
     1
  8
1
390
0
  6
Continuous
 62
     7
100
AcDbLine
 10
4.366318
 20
6.447832
 30
0.0
 11
4.366318
 21
6.417545
 31
0.0
  0
LINE
  5
D9
100
AcDbEntity
 67
     1
  8
1
390
0
  6
Continuous
 62
     7
100
AcDbLine
 10
4.364318
 20
6.447832
 30
0.0
 11
4.364318
 21
6.410081
 31
0.0
  0
LINE
  5
DA
100
AcDbEntity
 67
     1
  8
1
390
0
  6
Continuous
 62
     7
100
AcDbLine
 10
4.362318
 20
6.447832
 30
0.0
 11
4.362318
 21
6.402617
 31
0.0
  0
LINE
  5
DB
100
AcDbEntity
 67
     1
  8
1
390
0
  6
Continuous
 62
     7
100
AcDbLine
 10
4.360318
 20
6.447832
 30
0.0
 11
4.360318
 21
6.395153
 31
0.0
  0
LINE
  5
DC
100
AcDbEntity
 67
     1
  8
1
390
0
  6
Continuous
 62
     7
100
AcDbLine
 10
4.358318
 20
6.447832
 30
0.0
 11
4.358318
 21
6.387689
 31
0.0
  0
LINE
  5
DD
100
AcDbEntity
 67
     1
  8
1
390
0
  6
Continuous
 62
     7
100
AcDbLine
 10
4.356318
 20
6.447832
 30
0.0
 11
4.356318
 21
6.380225
 31
0.0
  0
LINE
  5
DE
100
AcDbEntity
 67
     1
  8
1
390
0
  6
Continuous
 62
     7
100
AcDbLine
 10
4.354318
 20
6.447832
 30
0.0
 11
4.354318
 21
6.37276
 31
0.0
  0
LINE
  5
DF
100
AcDbEntity
 67
     1
  8
1
390
0
  6
Continuous
 62
     7
100
AcDbLine
 10
4.352318
 20
6.447832
 30
0.0
 11
4.352318
 21
6.365296
 31
0.0
  0
LINE
  5
E0
100
AcDbEntity
 67
     1
  8
1
390
0
  6
Continuous
 62
     7
100
AcDbLine
 10
4.350318
 20
6.447832
 30
0.0
 11
4.350318
 21
6.357832
 31
0.0
  0
LINE
  5
E1
100
AcDbEntity
 67
     1
  8
1
390
0
  6
Continuous
 62
     7
100
AcDbLine
 10
4.326318
 20
6.447832
 30
0.0
 11
4.326318
 21
6.447402
 31
0.0
  0
LINE
  5
E2
100
AcDbEntity
 67
     1
  8
1
390
0
  6
Continuous
 62
     7
100
AcDbLine
 10
4.326318
 20
6.447832
 30
0.0
 11
4.326318
 21
6.447402
 31
0.0
  0
LINE
  5
E3
100
AcDbEntity
 67
     1
  8
1
390
0
  6
Continuous
 62
     7
100
AcDbLine
 10
4.328318
 20
6.447832
 30
0.0
 11
4.328318
 21
6.439938
 31
0.0
  0
LINE
  5
E4
100
AcDbEntity
 67
     1
  8
1
390
0
  6
Continuous
 62
     7
100
AcDbLine
 10
4.330318
 20
6.447832
 30
0.0
 11
4.330318
 21
6.432473
 31
0.0
  0
LINE
  5
E5
100
AcDbEntity
 67
     1
  8
1
390
0
  6
Continuous
 62
     7
100
AcDbLine
 10
4.332318
 20
6.447832
 30
0.0
 11
4.332318
 21
6.425009
 31
0.0
  0
LINE
  5
E6
100
AcDbEntity
 67
     1
  8
1
390
0
  6
Continuous
 62
     7
100
AcDbLine
 10
4.334318
 20
6.447832
 30
0.0
 11
4.334318
 21
6.417545
 31
0.0
  0
LINE
  5
E7
100
AcDbEntity
 67
     1
  8
1
390
0
  6
Continuous
 62
     7
100
AcDbLine
 10
4.336318
 20
6.447832
 30
0.0
 11
4.336318
 21
6.410081
 31
0.0
  0
LINE
  5
E8
100
AcDbEntity
 67
     1
  8
1
390
0
  6
Continuous
 62
     7
100
AcDbLine
 10
4.338318
 20
6.447832
 30
0.0
 11
4.338318
 21
6.402617
 31
0.0
  0
LINE
  5
E9
100
AcDbEntity
 67
     1
  8
1
390
0
  6
Continuous
 62
     7
100
AcDbLine
 10
4.340318
 20
6.447832
 30
0.0
 11
4.340318
 21
6.395153
 31
0.0
  0
LINE
  5
EA
100
AcDbEntity
 67
     1
  8
1
390
0
  6
Continuous
 62
     7
100
AcDbLine
 10
4.342318
 20
6.447832
 30
0.0
 11
4.342318
 21
6.387689
 31
0.0
  0
LINE
  5
EB
100
AcDbEntity
 67
     1
  8
1
390
0
  6
Continuous
 62
     7
100
AcDbLine
 10
4.344318
 20
6.447832
 30
0.0
 11
4.344318
 21
6.380225
 31
0.0
  0
LINE
  5
EC
100
AcDbEntity
 67
     1
  8
1
390
0
  6
Continuous
 62
     7
100
AcDbLine
 10
4.346318
 20
6.447832
 30
0.0
 11
4.346318
 21
6.37276
 31
0.0
  0
LINE
  5
ED
100
AcDbEntity
 67
     1
  8
1
390
0
  6
Continuous
 62
     7
100
AcDbLine
 10
4.348318
 20
6.447832
 30
0.0
 11
4.348318
 21
6.365296
 31
0.0
  0
LINE
  5
EE
100
AcDbEntity
 67
     1
  8
1
390
0
  6
Continuous
 62
     7
100
AcDbLine
 10
4.350318
 20
6.447832
 30
0.0
 11
4.350318
 21
6.357832
 31
0.0
  0
LINE
  5
EF
100
AcDbEntity
 67
     1
  8
1
390
0
  6
Continuous
 62
     7
100
AcDbLine
 10
4.350318
 20
6.240562
 30
0.0
 11
4.326203
 21
6.150562
 31
0.0
  0
LINE
  5
F0
100
AcDbEntity
 67
     1
  8
1
390
0
  6
Continuous
 62
     7
100
AcDbLine
 10
4.326203
 20
6.150562
 30
0.0
 11
4.374434
 21
6.150562
 31
0.0
  0
LINE
  5
F1
100
AcDbEntity
 67
     1
  8
1
390
0
  6
Continuous
 62
     7
100
AcDbLine
 10
4.374434
 20
6.150562
 30
0.0
 11
4.350318
 21
6.240562
 31
0.0
  0
LINE
  5
F2
100
AcDbEntity
 67
     1
  8
1
390
0
  6
Continuous
 62
     7
100
AcDbLine
 10
4.326318
 20
6.150562
 30
0.0
 11
4.326318
 21
6.150992
 31
0.0
  0
LINE
  5
F3
100
AcDbEntity
 67
     1
  8
1
390
0
  6
Continuous
 62
     7
100
AcDbLine
 10
4.326318
 20
6.150562
 30
0.0
 11
4.326318
 21
6.150992
 31
0.0
  0
LINE
  5
F4
100
AcDbEntity
 67
     1
  8
1
390
0
  6
Continuous
 62
     7
100
AcDbLine
 10
4.328318
 20
6.150562
 30
0.0
 11
4.328318
 21
6.158457
 31
0.0
  0
LINE
  5
F5
100
AcDbEntity
 67
     1
  8
1
390
0
  6
Continuous
 62
     7
100
AcDbLine
 10
4.330318
 20
6.150562
 30
0.0
 11
4.330318
 21
6.165921
 31
0.0
  0
LINE
  5
F6
100
AcDbEntity
 67
     1
  8
1
390
0
  6
Continuous
 62
     7
100
AcDbLine
 10
4.332318
 20
6.150562
 30
0.0
 11
4.332318
 21
6.173385
 31
0.0
  0
LINE
  5
F7
100
AcDbEntity
 67
     1
  8
1
390
0
  6
Continuous
 62
     7
100
AcDbLine
 10
4.334318
 20
6.150562
 30
0.0
 11
4.334318
 21
6.180849
 31
0.0
  0
LINE
  5
F8
100
AcDbEntity
 67
     1
  8
1
390
0
  6
Continuous
 62
     7
100
AcDbLine
 10
4.336318
 20
6.150562
 30
0.0
 11
4.336318
 21
6.188313
 31
0.0
  0
LINE
  5
F9
100
AcDbEntity
 67
     1
  8
1
390
0
  6
Continuous
 62
     7
100
AcDbLine
 10
4.338318
 20
6.150562
 30
0.0
 11
4.338318
 21
6.195777
 31
0.0
  0
LINE
  5
FA
100
AcDbEntity
 67
     1
  8
1
390
0
  6
Continuous
 62
     7
100
AcDbLine
 10
4.340318
 20
6.150562
 30
0.0
 11
4.340318
 21
6.203241
 31
0.0
  0
LINE
  5
FB
100
AcDbEntity
 67
     1
  8
1
390
0
  6
Continuous
 62
     7
100
AcDbLine
 10
4.342318
 20
6.150562
 30
0.0
 11
4.342318
 21
6.210705
 31
0.0
  0
LINE
  5
FC
100
AcDbEntity
 67
     1
  8
1
390
0
  6
Continuous
 62
     7
100
AcDbLine
 10
4.344318
 20
6.150562
 30
0.0
 11
4.344318
 21
6.218169
 31
0.0
  0
LINE
  5
FD
100
AcDbEntity
 67
     1
  8
1
390
0
  6
Continuous
 62
     7
100
AcDbLine
 10
4.346318
 20
6.150562
 30
0.0
 11
4.346318
 21
6.225634
 31
0.0
  0
LINE
  5
FE
100
AcDbEntity
 67
     1
  8
1
390
0
  6
Continuous
 62
     7
100
AcDbLine
 10
4.348318
 20
6.150562
 30
0.0
 11
4.348318
 21
6.233098
 31
0.0
  0
LINE
  5
FF
100
AcDbEntity
 67
     1
  8
1
390
0
  6
Continuous
 62
     7
100
AcDbLine
 10
4.350318
 20
6.150562
 30
0.0
 11
4.350318
 21
6.240562
 31
0.0
  0
LINE
  5
100
100
AcDbEntity
 67
     1
  8
1
390
0
  6
Continuous
 62
     7
100
AcDbLine
 10
4.374318
 20
6.150562
 30
0.0
 11
4.374318
 21
6.150992
 31
0.0
  0
LINE
  5
101
100
AcDbEntity
 67
     1
  8
1
390
0
  6
Continuous
 62
     7
100
AcDbLine
 10
4.374318
 20
6.150562
 30
0.0
 11
4.374318
 21
6.150992
 31
0.0
  0
LINE
  5
102
100
AcDbEntity
 67
     1
  8
1
390
0
  6
Continuous
 62
     7
100
AcDbLine
 10
4.372318
 20
6.150562
 30
0.0
 11
4.372318
 21
6.158457
 31
0.0
  0
LINE
  5
103
100
AcDbEntity
 67
     1
  8
1
390
0
  6
Continuous
 62
     7
100
AcDbLine
 10
4.370318
 20
6.150562
 30
0.0
 11
4.370318
 21
6.165921
 31
0.0
  0
LINE
  5
104
100
AcDbEntity
 67
     1
  8
1
390
0
  6
Continuous
 62
     7
100
AcDbLine
 10
4.368318
 20
6.150562
 30
0.0
 11
4.368318
 21
6.173385
 31
0.0
  0
LINE
  5
105
100
AcDbEntity
 67
     1
  8
1
390
0
  6
Continuous
 62
     7
100
AcDbLine
 10
4.366318
 20
6.150562
 30
0.0
 11
4.366318
 21
6.180849
 31
0.0
  0
LINE
  5
106
100
AcDbEntity
 67
     1
  8
1
390
0
  6
Continuous
 62
     7
100
AcDbLine
 10
4.364318
 20
6.150562
 30
0.0
 11
4.364318
 21
6.188313
 31
0.0
  0
LINE
  5
107
100
AcDbEntity
 67
     1
  8
1
390
0
  6
Continuous
 62
     7
100
AcDbLine
 10
4.362318
 20
6.150562
 30
0.0
 11
4.362318
 21
6.195777
 31
0.0
  0
LINE
  5
108
100
AcDbEntity
 67
     1
  8
1
390
0
  6
Continuous
 62
     7
100
AcDbLine
 10
4.360318
 20
6.150562
 30
0.0
 11
4.360318
 21
6.203241
 31
0.0
  0
LINE
  5
109
100
AcDbEntity
 67
     1
  8
1
390
0
  6
Continuous
 62
     7
100
AcDbLine
 10
4.358318
 20
6.150562
 30
0.0
 11
4.358318
 21
6.210705
 31
0.0
  0
LINE
  5
10A
100
AcDbEntity
 67
     1
  8
1
390
0
  6
Continuous
 62
     7
100
AcDbLine
 10
4.356318
 20
6.150562
 30
0.0
 11
4.356318
 21
6.218169
 31
0.0
  0
LINE
  5
10B
100
AcDbEntity
 67
     1
  8
1
390
0
  6
Continuous
 62
     7
100
AcDbLine
 10
4.354318
 20
6.150562
 30
0.0
 11
4.354318
 21
6.225634
 31
0.0
  0
LINE
  5
10C
100
AcDbEntity
 67
     1
  8
1
390
0
  6
Continuous
 62
     7
100
AcDbLine
 10
4.352318
 20
6.150562
 30
0.0
 11
4.352318
 21
6.233098
 31
0.0
  0
LINE
  5
10D
100
AcDbEntity
 67
     1
  8
1
390
0
  6
Continuous
 62
     7
100
AcDbLine
 10
4.350318
 20
6.150562
 30
0.0
 11
4.350318
 21
6.240562
 31
0.0
  0
LINE
  5
10E
100
AcDbEntity
 67
     1
  8
1
390
0
  6
Continuous
 62
     7
100
AcDbLine
 10
2.650399
 20
5.864638
 30
0.0
 11
2.6054
 21
5.864638
 31
0.0
  0
LINE
  5
10F
100
AcDbEntity
 67
     1
  8
1
390
0
  6
Continuous
 62
     7
100
AcDbLine
 10
2.6054
 20
5.864638
 30
0.0
 11
2.6054
 21
5.695889
 31
0.0
  0
LINE
  5
110
100
AcDbEntity
 67
     1
  8
1
390
0
  6
Continuous
 62
     7
100
AcDbLine
 10
2.6054
 20
5.695889
 30
0.0
 11
2.650399
 21
5.695889
 31
0.0
  0
LINE
  5
111
100
AcDbEntity
 67
     1
  8
1
390
0
  6
Continuous
 62
     7
100
AcDbLine
 10
3.022399
 20
5.695889
 30
0.0
 11
3.0674
 21
5.695889
 31
0.0
  0
LINE
  5
112
100
AcDbEntity
 67
     1
  8
1
390
0
  6
Continuous
 62
     7
100
AcDbLine
 10
3.0674
 20
5.695889
 30
0.0
 11
3.0674
 21
5.864638
 31
0.0
  0
LINE
  5
113
100
AcDbEntity
 67
     1
  8
1
390
0
  6
Continuous
 62
     7
100
AcDbLine
 10
3.0674
 20
5.864638
 30
0.0
 11
3.022399
 21
5.864638
 31
0.0
  0
LINE
  5
114
100
AcDbEntity
 67
     1
  8
1
390
0
  6
Continuous
 62
     7
100
AcDbLine
 10
2.751129
 20
6.268401
 30
0.0
 11
3.168087
 21
6.268401
 31
0.0
  0
LINE
  5
115
100
AcDbEntity
 67
     1
  8
1
390
0
  6
Continuous
 62
     7
100
AcDbLine
 10
2.751129
 20
6.329993
 30
0.0
 11
3.168087
 21
6.329993
 31
0.0
  0
LINE
  5
116
100
AcDbEntity
 67
     1
  8
1
390
0
  6
Continuous
 62
     7
100
AcDbLine
 10
3.078087
 20
5.999639
 30
0.0
 11
2.953087
 21
5.999639
 31
0.0
  0
LINE
  5
117
100
AcDbEntity
 67
     1
  8
1
390
0
  6
Continuous
 62
     7
100
AcDbLine
 10
3.078087
 20
6.268401
 30
0.0
 11
3.078087
 21
5.999639
 31
0.0
  0
LINE
  5
118
100
AcDbEntity
 67
     1
  8
1
390
0
  6
Continuous
 62
     7
100
AcDbLine
 10
3.078087
 20
6.329993
 30
0.0
 11
3.078087
 21
6.554993
 31
0.0
  0
LINE
  5
119
100
AcDbEntity
 67
     1
  8
1
390
0
  6
Continuous
 62
     7
100
AcDbLine
 10
3.078087
 20
6.268401
 30
0.0
 11
3.053972
 21
6.178401
 31
0.0
  0
LINE
  5
11A
100
AcDbEntity
 67
     1
  8
1
390
0
  6
Continuous
 62
     7
100
AcDbLine
 10
3.053972
 20
6.178401
 30
0.0
 11
3.102202
 21
6.178401
 31
0.0
  0
LINE
  5
11B
100
AcDbEntity
 67
     1
  8
1
390
0
  6
Continuous
 62
     7
100
AcDbLine
 10
3.102202
 20
6.178401
 30
0.0
 11
3.078087
 21
6.268401
 31
0.0
  0
LINE
  5
11C
100
AcDbEntity
 67
     1
  8
1
390
0
  6
Continuous
 62
     7
100
AcDbLine
 10
3.054087
 20
6.178401
 30
0.0
 11
3.054087
 21
6.178832
 31
0.0
  0
LINE
  5
11D
100
AcDbEntity
 67
     1
  8
1
390
0
  6
Continuous
 62
     7
100
AcDbLine
 10
3.054087
 20
6.178401
 30
0.0
 11
3.054087
 21
6.178832
 31
0.0
  0
LINE
  5
11E
100
AcDbEntity
 67
     1
  8
1
390
0
  6
Continuous
 62
     7
100
AcDbLine
 10
3.056087
 20
6.178401
 30
0.0
 11
3.056087
 21
6.186296
 31
0.0
  0
LINE
  5
11F
100
AcDbEntity
 67
     1
  8
1
390
0
  6
Continuous
 62
     7
100
AcDbLine
 10
3.058087
 20
6.178401
 30
0.0
 11
3.058087
 21
6.19376
 31
0.0
  0
LINE
  5
120
100
AcDbEntity
 67
     1
  8
1
390
0
  6
Continuous
 62
     7
100
AcDbLine
 10
3.060087
 20
6.178401
 30
0.0
 11
3.060087
 21
6.201224
 31
0.0
  0
LINE
  5
121
100
AcDbEntity
 67
     1
  8
1
390
0
  6
Continuous
 62
     7
100
AcDbLine
 10
3.062087
 20
6.178401
 30
0.0
 11
3.062087
 21
6.208688
 31
0.0
  0
LINE
  5
122
100
AcDbEntity
 67
     1
  8
1
390
0
  6
Continuous
 62
     7
100
AcDbLine
 10
3.064087
 20
6.178401
 30
0.0
 11
3.064087
 21
6.216152
 31
0.0
  0
LINE
  5
123
100
AcDbEntity
 67
     1
  8
1
390
0
  6
Continuous
 62
     7
100
AcDbLine
 10
3.066087
 20
6.178401
 30
0.0
 11
3.066087
 21
6.223617
 31
0.0
  0
LINE
  5
124
100
AcDbEntity
 67
     1
  8
1
390
0
  6
Continuous
 62
     7
100
AcDbLine
 10
3.068087
 20
6.178401
 30
0.0
 11
3.068087
 21
6.231081
 31
0.0
  0
LINE
  5
125
100
AcDbEntity
 67
     1
  8
1
390
0
  6
Continuous
 62
     7
100
AcDbLine
 10
3.070087
 20
6.178401
 30
0.0
 11
3.070087
 21
6.238545
 31
0.0
  0
LINE
  5
126
100
AcDbEntity
 67
     1
  8
1
390
0
  6
Continuous
 62
     7
100
AcDbLine
 10
3.072087
 20
6.178401
 30
0.0
 11
3.072087
 21
6.246009
 31
0.0
  0
LINE
  5
127
100
AcDbEntity
 67
     1
  8
1
390
0
  6
Continuous
 62
     7
100
AcDbLine
 10
3.074087
 20
6.178401
 30
0.0
 11
3.074087
 21
6.253473
 31
0.0
  0
LINE
  5
128
100
AcDbEntity
 67
     1
  8
1
390
0
  6
Continuous
 62
     7
100
AcDbLine
 10
3.076087
 20
6.178401
 30
0.0
 11
3.076087
 21
6.260937
 31
0.0
  0
LINE
  5
129
100
AcDbEntity
 67
     1
  8
1
390
0
  6
Continuous
 62
     7
100
AcDbLine
 10
3.078087
 20
6.178401
 30
0.0
 11
3.078087
 21
6.268401
 31
0.0
  0
LINE
  5
12A
100
AcDbEntity
 67
     1
  8
1
390
0
  6
Continuous
 62
     7
100
AcDbLine
 10
3.102087
 20
6.178401
 30
0.0
 11
3.102087
 21
6.178832
 31
0.0
  0
LINE
  5
12B
100
AcDbEntity
 67
     1
  8
1
390
0
  6
Continuous
 62
     7
100
AcDbLine
 10
3.102087
 20
6.178401
 30
0.0
 11
3.102087
 21
6.178832
 31
0.0
  0
LINE
  5
12C
100
AcDbEntity
 67
     1
  8
1
390
0
  6
Continuous
 62
     7
100
AcDbLine
 10
3.100087
 20
6.178401
 30
0.0
 11
3.100087
 21
6.186296
 31
0.0
  0
LINE
  5
12D
100
AcDbEntity
 67
     1
  8
1
390
0
  6
Continuous
 62
     7
100
AcDbLine
 10
3.098087
 20
6.178401
 30
0.0
 11
3.098087
 21
6.19376
 31
0.0
  0
LINE
  5
12E
100
AcDbEntity
 67
     1
  8
1
390
0
  6
Continuous
 62
     7
100
AcDbLine
 10
3.096087
 20
6.178401
 30
0.0
 11
3.096087
 21
6.201224
 31
0.0
  0
LINE
  5
12F
100
AcDbEntity
 67
     1
  8
1
390
0
  6
Continuous
 62
     7
100
AcDbLine
 10
3.094087
 20
6.178401
 30
0.0
 11
3.094087
 21
6.208688
 31
0.0
  0
LINE
  5
130
100
AcDbEntity
 67
     1
  8
1
390
0
  6
Continuous
 62
     7
100
AcDbLine
 10
3.092087
 20
6.178401
 30
0.0
 11
3.092087
 21
6.216152
 31
0.0
  0
LINE
  5
131
100
AcDbEntity
 67
     1
  8
1
390
0
  6
Continuous
 62
     7
100
AcDbLine
 10
3.090087
 20
6.178401
 30
0.0
 11
3.090087
 21
6.223617
 31
0.0
  0
LINE
  5
132
100
AcDbEntity
 67
     1
  8
1
390
0
  6
Continuous
 62
     7
100
AcDbLine
 10
3.088087
 20
6.178401
 30
0.0
 11
3.088087
 21
6.231081
 31
0.0
  0
LINE
  5
133
100
AcDbEntity
 67
     1
  8
1
390
0
  6
Continuous
 62
     7
100
AcDbLine
 10
3.086087
 20
6.178401
 30
0.0
 11
3.086087
 21
6.238545
 31
0.0
  0
LINE
  5
134
100
AcDbEntity
 67
     1
  8
1
390
0
  6
Continuous
 62
     7
100
AcDbLine
 10
3.084087
 20
6.178401
 30
0.0
 11
3.084087
 21
6.246009
 31
0.0
  0
LINE
  5
135
100
AcDbEntity
 67
     1
  8
1
390
0
  6
Continuous
 62
     7
100
AcDbLine
 10
3.082087
 20
6.178401
 30
0.0
 11
3.082087
 21
6.253473
 31
0.0
  0
LINE
  5
136
100
AcDbEntity
 67
     1
  8
1
390
0
  6
Continuous
 62
     7
100
AcDbLine
 10
3.080087
 20
6.178401
 30
0.0
 11
3.080087
 21
6.260937
 31
0.0
  0
LINE
  5
137
100
AcDbEntity
 67
     1
  8
1
390
0
  6
Continuous
 62
     7
100
AcDbLine
 10
3.078087
 20
6.178401
 30
0.0
 11
3.078087
 21
6.268401
 31
0.0
  0
LINE
  5
138
100
AcDbEntity
 67
     1
  8
1
390
0
  6
Continuous
 62
     7
100
AcDbLine
 10
3.078087
 20
6.329993
 30
0.0
 11
3.102202
 21
6.419993
 31
0.0
  0
LINE
  5
139
100
AcDbEntity
 67
     1
  8
1
390
0
  6
Continuous
 62
     7
100
AcDbLine
 10
3.102202
 20
6.419993
 30
0.0
 11
3.053972
 21
6.419993
 31
0.0
  0
LINE
  5
13A
100
AcDbEntity
 67
     1
  8
1
390
0
  6
Continuous
 62
     7
100
AcDbLine
 10
3.053972
 20
6.419993
 30
0.0
 11
3.078087
 21
6.329993
 31
0.0
  0
LINE
  5
13B
100
AcDbEntity
 67
     1
  8
1
390
0
  6
Continuous
 62
     7
100
AcDbLine
 10
3.102087
 20
6.419993
 30
0.0
 11
3.102087
 21
6.419562
 31
0.0
  0
LINE
  5
13C
100
AcDbEntity
 67
     1
  8
1
390
0
  6
Continuous
 62
     7
100
AcDbLine
 10
3.102087
 20
6.419993
 30
0.0
 11
3.102087
 21
6.419562
 31
0.0
  0
LINE
  5
13D
100
AcDbEntity
 67
     1
  8
1
390
0
  6
Continuous
 62
     7
100
AcDbLine
 10
3.100087
 20
6.419993
 30
0.0
 11
3.100087
 21
6.412098
 31
0.0
  0
LINE
  5
13E
100
AcDbEntity
 67
     1
  8
1
390
0
  6
Continuous
 62
     7
100
AcDbLine
 10
3.098087
 20
6.419993
 30
0.0
 11
3.098087
 21
6.404634
 31
0.0
  0
LINE
  5
13F
100
AcDbEntity
 67
     1
  8
1
390
0
  6
Continuous
 62
     7
100
AcDbLine
 10
3.096087
 20
6.419993
 30
0.0
 11
3.096087
 21
6.39717
 31
0.0
  0
LINE
  5
140
100
AcDbEntity
 67
     1
  8
1
390
0
  6
Continuous
 62
     7
100
AcDbLine
 10
3.094087
 20
6.419993
 30
0.0
 11
3.094087
 21
6.389706
 31
0.0
  0
LINE
  5
141
100
AcDbEntity
 67
     1
  8
1
390
0
  6
Continuous
 62
     7
100
AcDbLine
 10
3.092087
 20
6.419993
 30
0.0
 11
3.092087
 21
6.382242
 31
0.0
  0
LINE
  5
142
100
AcDbEntity
 67
     1
  8
1
390
0
  6
Continuous
 62
     7
100
AcDbLine
 10
3.090087
 20
6.419993
 30
0.0
 11
3.090087
 21
6.374777
 31
0.0
  0
LINE
  5
143
100
AcDbEntity
 67
     1
  8
1
390
0
  6
Continuous
 62
     7
100
AcDbLine
 10
3.088087
 20
6.419993
 30
0.0
 11
3.088087
 21
6.367313
 31
0.0
  0
LINE
  5
144
100
AcDbEntity
 67
     1
  8
1
390
0
  6
Continuous
 62
     7
100
AcDbLine
 10
3.086087
 20
6.419993
 30
0.0
 11
3.086087
 21
6.359849
 31
0.0
  0
LINE
  5
145
100
AcDbEntity
 67
     1
  8
1
390
0
  6
Continuous
 62
     7
100
AcDbLine
 10
3.084087
 20
6.419993
 30
0.0
 11
3.084087
 21
6.352385
 31
0.0
  0
LINE
  5
146
100
AcDbEntity
 67
     1
  8
1
390
0
  6
Continuous
 62
     7
100
AcDbLine
 10
3.082087
 20
6.419993
 30
0.0
 11
3.082087
 21
6.344921
 31
0.0
  0
LINE
  5
147
100
AcDbEntity
 67
     1
  8
1
390
0
  6
Continuous
 62
     7
100
AcDbLine
 10
3.080087
 20
6.419993
 30
0.0
 11
3.080087
 21
6.337457
 31
0.0
  0
LINE
  5
148
100
AcDbEntity
 67
     1
  8
1
390
0
  6
Continuous
 62
     7
100
AcDbLine
 10
3.078087
 20
6.419993
 30
0.0
 11
3.078087
 21
6.329993
 31
0.0
  0
LINE
  5
149
100
AcDbEntity
 67
     1
  8
1
390
0
  6
Continuous
 62
     7
100
AcDbLine
 10
3.054087
 20
6.419993
 30
0.0
 11
3.054087
 21
6.419562
 31
0.0
  0
LINE
  5
14A
100
AcDbEntity
 67
     1
  8
1
390
0
  6
Continuous
 62
     7
100
AcDbLine
 10
3.054087
 20
6.419993
 30
0.0
 11
3.054087
 21
6.419562
 31
0.0
  0
LINE
  5
14B
100
AcDbEntity
 67
     1
  8
1
390
0
  6
Continuous
 62
     7
100
AcDbLine
 10
3.056087
 20
6.419993
 30
0.0
 11
3.056087
 21
6.412098
 31
0.0
  0
LINE
  5
14C
100
AcDbEntity
 67
     1
  8
1
390
0
  6
Continuous
 62
     7
100
AcDbLine
 10
3.058087
 20
6.419993
 30
0.0
 11
3.058087
 21
6.404634
 31
0.0
  0
LINE
  5
14D
100
AcDbEntity
 67
     1
  8
1
390
0
  6
Continuous
 62
     7
100
AcDbLine
 10
3.060087
 20
6.419993
 30
0.0
 11
3.060087
 21
6.39717
 31
0.0
  0
LINE
  5
14E
100
AcDbEntity
 67
     1
  8
1
390
0
  6
Continuous
 62
     7
100
AcDbLine
 10
3.062087
 20
6.419993
 30
0.0
 11
3.062087
 21
6.389706
 31
0.0
  0
LINE
  5
14F
100
AcDbEntity
 67
     1
  8
1
390
0
  6
Continuous
 62
     7
100
AcDbLine
 10
3.064087
 20
6.419993
 30
0.0
 11
3.064087
 21
6.382242
 31
0.0
  0
LINE
  5
150
100
AcDbEntity
 67
     1
  8
1
390
0
  6
Continuous
 62
     7
100
AcDbLine
 10
3.066087
 20
6.419993
 30
0.0
 11
3.066087
 21
6.374777
 31
0.0
  0
LINE
  5
151
100
AcDbEntity
 67
     1
  8
1
390
0
  6
Continuous
 62
     7
100
AcDbLine
 10
3.068087
 20
6.419993
 30
0.0
 11
3.068087
 21
6.367313
 31
0.0
  0
LINE
  5
152
100
AcDbEntity
 67
     1
  8
1
390
0
  6
Continuous
 62
     7
100
AcDbLine
 10
3.070087
 20
6.419993
 30
0.0
 11
3.070087
 21
6.359849
 31
0.0
  0
LINE
  5
153
100
AcDbEntity
 67
     1
  8
1
390
0
  6
Continuous
 62
     7
100
AcDbLine
 10
3.072087
 20
6.419993
 30
0.0
 11
3.072087
 21
6.352385
 31
0.0
  0
LINE
  5
154
100
AcDbEntity
 67
     1
  8
1
390
0
  6
Continuous
 62
     7
100
AcDbLine
 10
3.074087
 20
6.419993
 30
0.0
 11
3.074087
 21
6.344921
 31
0.0
  0
LINE
  5
155
100
AcDbEntity
 67
     1
  8
1
390
0
  6
Continuous
 62
     7
100
AcDbLine
 10
3.076087
 20
6.419993
 30
0.0
 11
3.076087
 21
6.337457
 31
0.0
  0
LINE
  5
156
100
AcDbEntity
 67
     1
  8
1
390
0
  6
Continuous
 62
     7
100
AcDbLine
 10
3.078087
 20
6.419993
 30
0.0
 11
3.078087
 21
6.329993
 31
0.0
  0
LINE
  5
157
100
AcDbEntity
 67
     1
  8
1
390
0
  6
Continuous
 62
     7
100
AcDbLine
 10
1.92635
 20
7.271598
 30
0.0
 11
1.178952
 21
8.018997
 31
0.0
  0
LINE
  5
158
100
AcDbEntity
 67
     1
  8
1
390
0
  6
Continuous
 62
     7
100
AcDbLine
 10
1.92635
 20
5.326796
 30
0.0
 11
1.178952
 21
4.579397
 31
0.0
  0
LINE
  5
159
100
AcDbEntity
 67
     1
  8
1
390
0
  6
Continuous
 62
     7
100
AcDbLine
 10
1.242591
 20
7.955358
 30
0.0
 11
1.143741
 21
7.85022
 31
0.0
  0
LINE
  5
15A
100
AcDbEntity
 67
     1
  8
1
390
0
  6
Continuous
 62
     7
100
AcDbLine
 10
1.143741
 20
7.85022
 30
0.0
 11
1.051553
 21
7.739194
 31
0.0
  0
LINE
  5
15B
100
AcDbEntity
 67
     1
  8
1
390
0
  6
Continuous
 62
     7
100
AcDbLine
 10
1.051553
 20
7.739194
 30
0.0
 11
0.966377
 21
7.622702
 31
0.0
  0
LINE
  5
15C
100
AcDbEntity
 67
     1
  8
1
390
0
  6
Continuous
 62
     7
100
AcDbLine
 10
0.966377
 20
7.622702
 30
0.0
 11
0.888537
 21
7.501184
 31
0.0
  0
LINE
  5
15D
100
AcDbEntity
 67
     1
  8
1
390
0
  6
Continuous
 62
     7
100
AcDbLine
 10
0.888537
 20
7.501184
 30
0.0
 11
0.818329
 21
7.375104
 31
0.0
  0
LINE
  5
15E
100
AcDbEntity
 67
     1
  8
1
390
0
  6
Continuous
 62
     7
100
AcDbLine
 10
0.818329
 20
7.375104
 30
0.0
 11
0.756018
 21
7.24494
 31
0.0
  0
LINE
  5
15F
100
AcDbEntity
 67
     1
  8
1
390
0
  6
Continuous
 62
     7
100
AcDbLine
 10
0.756018
 20
7.24494
 30
0.0
 11
0.701842
 21
7.111186
 31
0.0
  0
LINE
  5
160
100
AcDbEntity
 67
     1
  8
1
390
0
  6
Continuous
 62
     7
100
AcDbLine
 10
0.701842
 20
7.111186
 30
0.0
 11
0.656006
 21
6.974348
 31
0.0
  0
LINE
  5
161
100
AcDbEntity
 67
     1
  8
1
390
0
  6
Continuous
 62
     7
100
AcDbLine
 10
0.656006
 20
6.974348
 30
0.0
 11
0.618684
 21
6.834948
 31
0.0
  0
LINE
  5
162
100
AcDbEntity
 67
     1
  8
1
390
0
  6
Continuous
 62
     7
100
AcDbLine
 10
0.618684
 20
6.834948
 30
0.0
 11
0.590018
 21
6.693513
 31
0.0
  0
LINE
  5
163
100
AcDbEntity
 67
     1
  8
1
390
0
  6
Continuous
 62
     7
100
AcDbLine
 10
0.590018
 20
6.693513
 30
0.0
 11
0.570117
 21
6.550582
 31
0.0
  0
LINE
  5
164
100
AcDbEntity
 67
     1
  8
1
390
0
  6
Continuous
 62
     7
100
AcDbLine
 10
0.570117
 20
6.550582
 30
0.0
 11
0.559055
 21
6.406697
 31
0.0
  0
LINE
  5
165
100
AcDbEntity
 67
     1
  8
1
390
0
  6
Continuous
 62
     7
100
AcDbLine
 10
0.559055
 20
6.191697
 30
0.0
 11
0.570117
 21
6.047812
 31
0.0
  0
LINE
  5
166
100
AcDbEntity
 67
     1
  8
1
390
0
  6
Continuous
 62
     7
100
AcDbLine
 10
0.570117
 20
6.047812
 30
0.0
 11
0.590018
 21
5.904881
 31
0.0
  0
LINE
  5
167
100
AcDbEntity
 67
     1
  8
1
390
0
  6
Continuous
 62
     7
100
AcDbLine
 10
0.590018
 20
5.904881
 30
0.0
 11
0.618684
 21
5.763446
 31
0.0
  0
LINE
  5
168
100
AcDbEntity
 67
     1
  8
1
390
0
  6
Continuous
 62
     7
100
AcDbLine
 10
0.618684
 20
5.763446
 30
0.0
 11
0.656006
 21
5.624046
 31
0.0
  0
LINE
  5
169
100
AcDbEntity
 67
     1
  8
1
390
0
  6
Continuous
 62
     7
100
AcDbLine
 10
0.656006
 20
5.624046
 30
0.0
 11
0.701842
 21
5.487209
 31
0.0
  0
LINE
  5
16A
100
AcDbEntity
 67
     1
  8
1
390
0
  6
Continuous
 62
     7
100
AcDbLine
 10
0.701842
 20
5.487209
 30
0.0
 11
0.756018
 21
5.353454
 31
0.0
  0
LINE
  5
16B
100
AcDbEntity
 67
     1
  8
1
390
0
  6
Continuous
 62
     7
100
AcDbLine
 10
0.756018
 20
5.353454
 30
0.0
 11
0.818329
 21
5.223289
 31
0.0
  0
LINE
  5
16C
100
AcDbEntity
 67
     1
  8
1
390
0
  6
Continuous
 62
     7
100
AcDbLine
 10
0.818329
 20
5.223289
 30
0.0
 11
0.888537
 21
5.097209
 31
0.0
  0
LINE
  5
16D
100
AcDbEntity
 67
     1
  8
1
390
0
  6
Continuous
 62
     7
100
AcDbLine
 10
0.888537
 20
5.097209
 30
0.0
 11
0.966377
 21
4.975693
 31
0.0
  0
LINE
  5
16E
100
AcDbEntity
 67
     1
  8
1
390
0
  6
Continuous
 62
     7
100
AcDbLine
 10
0.966377
 20
4.975693
 30
0.0
 11
1.051553
 21
4.8592
 31
0.0
  0
LINE
  5
16F
100
AcDbEntity
 67
     1
  8
1
390
0
  6
Continuous
 62
     7
100
AcDbLine
 10
1.051553
 20
4.8592
 30
0.0
 11
1.143741
 21
4.748174
 31
0.0
  0
LINE
  5
170
100
AcDbEntity
 67
     1
  8
1
390
0
  6
Continuous
 62
     7
100
AcDbLine
 10
1.143741
 20
4.748174
 30
0.0
 11
1.242591
 21
4.643036
 31
0.0
  0
LINE
  5
171
100
AcDbEntity
 67
     1
  8
1
390
0
  6
Continuous
 62
     7
100
AcDbLine
 10
0.627931
 20
6.317009
 30
0.0
 11
0.636368
 21
6.317009
 31
0.0
  0
LINE
  5
172
100
AcDbEntity
 67
     1
  8
1
390
0
  6
Continuous
 62
     7
100
AcDbLine
 10
0.636368
 20
6.317009
 30
0.0
 11
0.645743
 21
6.326385
 31
0.0
  0
LINE
  5
173
100
AcDbEntity
 67
     1
  8
1
390
0
  6
Continuous
 62
     7
100
AcDbLine
 10
0.645743
 20
6.326385
 30
0.0
 11
0.645743
 21
6.334822
 31
0.0
  0
LINE
  5
174
100
AcDbEntity
 67
     1
  8
1
390
0
  6
Continuous
 62
     7
100
AcDbLine
 10
0.645743
 20
6.334822
 30
0.0
 11
0.636368
 21
6.344197
 31
0.0
  0
LINE
  5
175
100
AcDbEntity
 67
     1
  8
1
390
0
  6
Continuous
 62
     7
100
AcDbLine
 10
0.636368
 20
6.344197
 30
0.0
 11
0.627931
 21
6.344197
 31
0.0
  0
LINE
  5
176
100
AcDbEntity
 67
     1
  8
1
390
0
  6
Continuous
 62
     7
100
AcDbLine
 10
0.627931
 20
6.344197
 30
0.0
 11
0.618556
 21
6.334822
 31
0.0
  0
LINE
  5
177
100
AcDbEntity
 67
     1
  8
1
390
0
  6
Continuous
 62
     7
100
AcDbLine
 10
0.618556
 20
6.334822
 30
0.0
 11
0.618556
 21
6.326385
 31
0.0
  0
LINE
  5
178
100
AcDbEntity
 67
     1
  8
1
390
0
  6
Continuous
 62
     7
100
AcDbLine
 10
0.618556
 20
6.326385
 30
0.0
 11
0.627931
 21
6.317009
 31
0.0
  0
LINE
  5
179
100
AcDbEntity
 67
     1
  8
1
390
0
  6
Continuous
 62
     7
100
AcDbLine
 10
1.242591
 20
7.955358
 30
0.0
 11
1.162351
 21
7.907997
 31
0.0
  0
LINE
  5
17A
100
AcDbEntity
 67
     1
  8
1
390
0
  6
Continuous
 62
     7
100
AcDbLine
 10
1.162351
 20
7.907997
 30
0.0
 11
1.196781
 21
7.874222
 31
0.0
  0
LINE
  5
17B
100
AcDbEntity
 67
     1
  8
1
390
0
  6
Continuous
 62
     7
100
AcDbLine
 10
1.196781
 20
7.874222
 30
0.0
 11
1.242591
 21
7.955358
 31
0.0
  0
LINE
  5
17C
100
AcDbEntity
 67
     1
  8
1
390
0
  6
Continuous
 62
     7
100
AcDbLine
 10
1.162433
 20
7.907917
 30
0.0
 11
1.162735
 21
7.908224
 31
0.0
  0
LINE
  5
17D
100
AcDbEntity
 67
     1
  8
1
390
0
  6
Continuous
 62
     7
100
AcDbLine
 10
1.162433
 20
7.907917
 30
0.0
 11
1.162735
 21
7.908224
 31
0.0
  0
LINE
  5
17E
100
AcDbEntity
 67
     1
  8
1
390
0
  6
Continuous
 62
     7
100
AcDbLine
 10
1.163861
 20
7.906516
 30
0.0
 11
1.169389
 21
7.912152
 31
0.0
  0
LINE
  5
17F
100
AcDbEntity
 67
     1
  8
1
390
0
  6
Continuous
 62
     7
100
AcDbLine
 10
1.165288
 20
7.905116
 30
0.0
 11
1.176044
 21
7.91608
 31
0.0
  0
LINE
  5
180
100
AcDbEntity
 67
     1
  8
1
390
0
  6
Continuous
 62
     7
100
AcDbLine
 10
1.166716
 20
7.903715
 30
0.0
 11
1.182699
 21
7.920007
 31
0.0
  0
LINE
  5
181
100
AcDbEntity
 67
     1
  8
1
390
0
  6
Continuous
 62
     7
100
AcDbLine
 10
1.168144
 20
7.902314
 30
0.0
 11
1.189353
 21
7.923935
 31
0.0
  0
LINE
  5
182
100
AcDbEntity
 67
     1
  8
1
390
0
  6
Continuous
 62
     7
100
AcDbLine
 10
1.169572
 20
7.900914
 30
0.0
 11
1.196008
 21
7.927863
 31
0.0
  0
LINE
  5
183
100
AcDbEntity
 67
     1
  8
1
390
0
  6
Continuous
 62
     7
100
AcDbLine
 10
1.170999
 20
7.899513
 30
0.0
 11
1.202663
 21
7.931791
 31
0.0
  0
LINE
  5
184
100
AcDbEntity
 67
     1
  8
1
390
0
  6
Continuous
 62
     7
100
AcDbLine
 10
1.172427
 20
7.898113
 30
0.0
 11
1.209318
 21
7.935719
 31
0.0
  0
LINE
  5
185
100
AcDbEntity
 67
     1
  8
1
390
0
  6
Continuous
 62
     7
100
AcDbLine
 10
1.173855
 20
7.896712
 30
0.0
 11
1.215972
 21
7.939646
 31
0.0
  0
LINE
  5
186
100
AcDbEntity
 67
     1
  8
1
390
0
  6
Continuous
 62
     7
100
AcDbLine
 10
1.175282
 20
7.895311
 30
0.0
 11
1.222627
 21
7.943574
 31
0.0
  0
LINE
  5
187
100
AcDbEntity
 67
     1
  8
1
390
0
  6
Continuous
 62
     7
100
AcDbLine
 10
1.17671
 20
7.893911
 30
0.0
 11
1.229282
 21
7.947502
 31
0.0
  0
LINE
  5
188
100
AcDbEntity
 67
     1
  8
1
390
0
  6
Continuous
 62
     7
100
AcDbLine
 10
1.178138
 20
7.89251
 30
0.0
 11
1.235936
 21
7.95143
 31
0.0
  0
LINE
  5
189
100
AcDbEntity
 67
     1
  8
1
390
0
  6
Continuous
 62
     7
100
AcDbLine
 10
1.179566
 20
7.89111
 30
0.0
 11
1.242591
 21
7.955358
 31
0.0
  0
LINE
  5
18A
100
AcDbEntity
 67
     1
  8
1
390
0
  6
Continuous
 62
     7
100
AcDbLine
 10
1.196698
 20
7.874303
 30
0.0
 11
1.197
 21
7.87461
 31
0.0
  0
LINE
  5
18B
100
AcDbEntity
 67
     1
  8
1
390
0
  6
Continuous
 62
     7
100
AcDbLine
 10
1.196698
 20
7.874303
 30
0.0
 11
1.197
 21
7.87461
 31
0.0
  0
LINE
  5
18C
100
AcDbEntity
 67
     1
  8
1
390
0
  6
Continuous
 62
     7
100
AcDbLine
 10
1.195271
 20
7.875703
 30
0.0
 11
1.200799
 21
7.88134
 31
0.0
  0
LINE
  5
18D
100
AcDbEntity
 67
     1
  8
1
390
0
  6
Continuous
 62
     7
100
AcDbLine
 10
1.193843
 20
7.877104
 30
0.0
 11
1.204599
 21
7.888068
 31
0.0
  0
LINE
  5
18E
100
AcDbEntity
 67
     1
  8
1
390
0
  6
Continuous
 62
     7
100
AcDbLine
 10
1.192415
 20
7.878505
 30
0.0
 11
1.208398
 21
7.894797
 31
0.0
  0
LINE
  5
18F
100
AcDbEntity
 67
     1
  8
1
390
0
  6
Continuous
 62
     7
100
AcDbLine
 10
1.190987
 20
7.879905
 30
0.0
 11
1.212197
 21
7.901526
 31
0.0
  0
LINE
  5
190
100
AcDbEntity
 67
     1
  8
1
390
0
  6
Continuous
 62
     7
100
AcDbLine
 10
1.18956
 20
7.881306
 30
0.0
 11
1.215996
 21
7.908255
 31
0.0
  0
LINE
  5
191
100
AcDbEntity
 67
     1
  8
1
390
0
  6
Continuous
 62
     7
100
AcDbLine
 10
1.188132
 20
7.882706
 30
0.0
 11
1.219796
 21
7.914984
 31
0.0
  0
LINE
  5
192
100
AcDbEntity
 67
     1
  8
1
390
0
  6
Continuous
 62
     7
100
AcDbLine
 10
1.186704
 20
7.884107
 30
0.0
 11
1.223595
 21
7.921713
 31
0.0
  0
LINE
  5
193
100
AcDbEntity
 67
     1
  8
1
390
0
  6
Continuous
 62
     7
100
AcDbLine
 10
1.185277
 20
7.885508
 30
0.0
 11
1.227394
 21
7.928442
 31
0.0
  0
LINE
  5
194
100
AcDbEntity
 67
     1
  8
1
390
0
  6
Continuous
 62
     7
100
AcDbLine
 10
1.183849
 20
7.886908
 30
0.0
 11
1.231193
 21
7.935171
 31
0.0
  0
LINE
  5
195
100
AcDbEntity
 67
     1
  8
1
390
0
  6
Continuous
 62
     7
100
AcDbLine
 10
1.182421
 20
7.888309
 30
0.0
 11
1.234993
 21
7.9419
 31
0.0
  0
LINE
  5
196
100
AcDbEntity
 67
     1
  8
1
390
0
  6
Continuous
 62
     7
100
AcDbLine
 10
1.180993
 20
7.889709
 30
0.0
 11
1.238792
 21
7.948629
 31
0.0
  0
LINE
  5
197
100
AcDbEntity
 67
     1
  8
1
390
0
  6
Continuous
 62
     7
100
AcDbLine
 10
1.179566
 20
7.89111
 30
0.0
 11
1.242591
 21
7.955358
 31
0.0
  0
LINE
  5
198
100
AcDbEntity
 67
     1
  8
1
390
0
  6
Continuous
 62
     7
100
AcDbLine
 10
1.242591
 20
4.643036
 30
0.0
 11
1.196781
 21
4.724172
 31
0.0
  0
LINE
  5
199
100
AcDbEntity
 67
     1
  8
1
390
0
  6
Continuous
 62
     7
100
AcDbLine
 10
1.196781
 20
4.724172
 30
0.0
 11
1.162351
 21
4.690397
 31
0.0
  0
LINE
  5
19A
100
AcDbEntity
 67
     1
  8
1
390
0
  6
Continuous
 62
     7
100
AcDbLine
 10
1.162351
 20
4.690397
 30
0.0
 11
1.242591
 21
4.643036
 31
0.0
  0
LINE
  5
19B
100
AcDbEntity
 67
     1
  8
1
390
0
  6
Continuous
 62
     7
100
AcDbLine
 10
1.196698
 20
4.724091
 30
0.0
 11
1.197
 21
4.723783
 31
0.0
  0
LINE
  5
19C
100
AcDbEntity
 67
     1
  8
1
390
0
  6
Continuous
 62
     7
100
AcDbLine
 10
1.196698
 20
4.724091
 30
0.0
 11
1.197
 21
4.723783
 31
0.0
  0
LINE
  5
19D
100
AcDbEntity
 67
     1
  8
1
390
0
  6
Continuous
 62
     7
100
AcDbLine
 10
1.195271
 20
4.722691
 30
0.0
 11
1.200799
 21
4.717055
 31
0.0
  0
LINE
  5
19E
100
AcDbEntity
 67
     1
  8
1
390
0
  6
Continuous
 62
     7
100
AcDbLine
 10
1.193843
 20
4.72129
 30
0.0
 11
1.204599
 21
4.710326
 31
0.0
  0
LINE
  5
19F
100
AcDbEntity
 67
     1
  8
1
390
0
  6
Continuous
 62
     7
100
AcDbLine
 10
1.192415
 20
4.71989
 30
0.0
 11
1.208398
 21
4.703597
 31
0.0
  0
LINE
  5
1A0
100
AcDbEntity
 67
     1
  8
1
390
0
  6
Continuous
 62
     7
100
AcDbLine
 10
1.190987
 20
4.718489
 30
0.0
 11
1.212197
 21
4.696868
 31
0.0
  0
LINE
  5
1A1
100
AcDbEntity
 67
     1
  8
1
390
0
  6
Continuous
 62
     7
100
AcDbLine
 10
1.18956
 20
4.717088
 30
0.0
 11
1.215996
 21
4.690139
 31
0.0
  0
LINE
  5
1A2
100
AcDbEntity
 67
     1
  8
1
390
0
  6
Continuous
 62
     7
100
AcDbLine
 10
1.188132
 20
4.715688
 30
0.0
 11
1.219796
 21
4.68341
 31
0.0
  0
LINE
  5
1A3
100
AcDbEntity
 67
     1
  8
1
390
0
  6
Continuous
 62
     7
100
AcDbLine
 10
1.186704
 20
4.714287
 30
0.0
 11
1.223595
 21
4.676681
 31
0.0
  0
LINE
  5
1A4
100
AcDbEntity
 67
     1
  8
1
390
0
  6
Continuous
 62
     7
100
AcDbLine
 10
1.185277
 20
4.712887
 30
0.0
 11
1.227394
 21
4.669952
 31
0.0
  0
LINE
  5
1A5
100
AcDbEntity
 67
     1
  8
1
390
0
  6
Continuous
 62
     7
100
AcDbLine
 10
1.183849
 20
4.711486
 30
0.0
 11
1.231193
 21
4.663223
 31
0.0
  0
LINE
  5
1A6
100
AcDbEntity
 67
     1
  8
1
390
0
  6
Continuous
 62
     7
100
AcDbLine
 10
1.182421
 20
4.710085
 30
0.0
 11
1.234993
 21
4.656494
 31
0.0
  0
LINE
  5
1A7
100
AcDbEntity
 67
     1
  8
1
390
0
  6
Continuous
 62
     7
100
AcDbLine
 10
1.180993
 20
4.708685
 30
0.0
 11
1.238792
 21
4.649765
 31
0.0
  0
LINE
  5
1A8
100
AcDbEntity
 67
     1
  8
1
390
0
  6
Continuous
 62
     7
100
AcDbLine
 10
1.179566
 20
4.707284
 30
0.0
 11
1.242591
 21
4.643036
 31
0.0
  0
LINE
  5
1A9
100
AcDbEntity
 67
     1
  8
1
390
0
  6
Continuous
 62
     7
100
AcDbLine
 10
1.162433
 20
4.690477
 30
0.0
 11
1.162735
 21
4.69017
 31
0.0
  0
LINE
  5
1AA
100
AcDbEntity
 67
     1
  8
1
390
0
  6
Continuous
 62
     7
100
AcDbLine
 10
1.162433
 20
4.690477
 30
0.0
 11
1.162735
 21
4.69017
 31
0.0
  0
LINE
  5
1AB
100
AcDbEntity
 67
     1
  8
1
390
0
  6
Continuous
 62
     7
100
AcDbLine
 10
1.163861
 20
4.691878
 30
0.0
 11
1.169389
 21
4.686242
 31
0.0
  0
LINE
  5
1AC
100
AcDbEntity
 67
     1
  8
1
390
0
  6
Continuous
 62
     7
100
AcDbLine
 10
1.165288
 20
4.693279
 30
0.0
 11
1.176044
 21
4.682314
 31
0.0
  0
LINE
  5
1AD
100
AcDbEntity
 67
     1
  8
1
390
0
  6
Continuous
 62
     7
100
AcDbLine
 10
1.166716
 20
4.694679
 30
0.0
 11
1.182699
 21
4.678387
 31
0.0
  0
LINE
  5
1AE
100
AcDbEntity
 67
     1
  8
1
390
0
  6
Continuous
 62
     7
100
AcDbLine
 10
1.168144
 20
4.69608
 30
0.0
 11
1.189353
 21
4.674459
 31
0.0
  0
LINE
  5
1AF
100
AcDbEntity
 67
     1
  8
1
390
0
  6
Continuous
 62
     7
100
AcDbLine
 10
1.169572
 20
4.69748
 30
0.0
 11
1.196008
 21
4.670531
 31
0.0
  0
LINE
  5
1B0
100
AcDbEntity
 67
     1
  8
1
390
0
  6
Continuous
 62
     7
100
AcDbLine
 10
1.170999
 20
4.698881
 30
0.0
 11
1.202663
 21
4.666603
 31
0.0
  0
LINE
  5
1B1
100
AcDbEntity
 67
     1
  8
1
390
0
  6
Continuous
 62
     7
100
AcDbLine
 10
1.172427
 20
4.700282
 30
0.0
 11
1.209318
 21
4.662675
 31
0.0
  0
LINE
  5
1B2
100
AcDbEntity
 67
     1
  8
1
390
0
  6
Continuous
 62
     7
100
AcDbLine
 10
1.173855
 20
4.701682
 30
0.0
 11
1.215972
 21
4.658748
 31
0.0
  0
LINE
  5
1B3
100
AcDbEntity
 67
     1
  8
1
390
0
  6
Continuous
 62
     7
100
AcDbLine
 10
1.175282
 20
4.703083
 30
0.0
 11
1.222627
 21
4.65482
 31
0.0
  0
LINE
  5
1B4
100
AcDbEntity
 67
     1
  8
1
390
0
  6
Continuous
 62
     7
100
AcDbLine
 10
1.17671
 20
4.704483
 30
0.0
 11
1.229282
 21
4.650892
 31
0.0
  0
LINE
  5
1B5
100
AcDbEntity
 67
     1
  8
1
390
0
  6
Continuous
 62
     7
100
AcDbLine
 10
1.178138
 20
4.705884
 30
0.0
 11
1.235936
 21
4.646964
 31
0.0
  0
LINE
  5
1B6
100
AcDbEntity
 67
     1
  8
1
390
0
  6
Continuous
 62
     7
100
AcDbLine
 10
1.179566
 20
4.707284
 30
0.0
 11
1.242591
 21
4.643036
 31
0.0
  0
LINE
  5
1B7
100
AcDbEntity
 67
     1
  8
1
390
0
  6
Continuous
 62
     7
100
AcDbLine
 10
4.290009
 20
7.406639
 30
0.0
 11
4.245009
 21
7.406639
 31
0.0
  0
LINE
  5
1B8
100
AcDbEntity
 67
     1
  8
1
390
0
  6
Continuous
 62
     7
100
AcDbLine
 10
4.245009
 20
7.406639
 30
0.0
 11
4.245009
 21
7.028827
 31
0.0
  0
LINE
  5
1B9
100
AcDbEntity
 67
     1
  8
1
390
0
  6
Continuous
 62
     7
100
AcDbLine
 10
4.245009
 20
7.028827
 30
0.0
 11
4.290009
 21
7.028827
 31
0.0
  0
LINE
  5
1BA
100
AcDbEntity
 67
     1
  8
1
390
0
  6
Continuous
 62
     7
100
AcDbLine
 10
5.331385
 20
7.028827
 30
0.0
 11
5.376385
 21
7.028827
 31
0.0
  0
LINE
  5
1BB
100
AcDbEntity
 67
     1
  8
1
390
0
  6
Continuous
 62
     7
100
AcDbLine
 10
5.376385
 20
7.028827
 30
0.0
 11
5.376385
 21
7.406639
 31
0.0
  0
LINE
  5
1BC
100
AcDbEntity
 67
     1
  8
1
390
0
  6
Continuous
 62
     7
100
AcDbLine
 10
5.376385
 20
7.406639
 30
0.0
 11
5.331385
 21
7.406639
 31
0.0
  0
LINE
  5
1BD
100
AcDbEntity
 67
     1
  8
1
390
0
  6
Continuous
 62
     7
100
AcDbLine
 10
3.93251
 20
7.64617
 30
0.0
 11
4.182509
 21
7.64617
 31
0.0
  0
LINE
  5
1BE
100
AcDbEntity
 67
     1
  8
1
390
0
  6
Continuous
 62
     7
100
AcDbLine
 10
3.183116
 20
6.299197
 30
0.0
 11
3.93251
 21
7.64617
 31
0.0
  0
LINE
  5
1BF
100
AcDbEntity
 67
     1
  8
1
390
0
  6
Continuous
 62
     7
100
AcDbLine
 10
3.669292
 20
7.173058
 30
0.0
 11
3.604462
 21
7.106135
 31
0.0
  0
LINE
  5
1C0
100
AcDbEntity
 67
     1
  8
1
390
0
  6
Continuous
 62
     7
100
AcDbLine
 10
3.604462
 20
7.106135
 30
0.0
 11
3.646609
 21
7.082686
 31
0.0
  0
LINE
  5
1C1
100
AcDbEntity
 67
     1
  8
1
390
0
  6
Continuous
 62
     7
100
AcDbLine
 10
3.646609
 20
7.082686
 30
0.0
 11
3.669292
 21
7.173058
 31
0.0
  0
LINE
  5
1C2
100
AcDbEntity
 67
     1
  8
1
390
0
  6
Continuous
 62
     7
100
AcDbLine
 10
3.604563
 20
7.106079
 30
0.0
 11
3.604773
 21
7.106455
 31
0.0
  0
LINE
  5
1C3
100
AcDbEntity
 67
     1
  8
1
390
0
  6
Continuous
 62
     7
100
AcDbLine
 10
3.604563
 20
7.106079
 30
0.0
 11
3.604773
 21
7.106455
 31
0.0
  0
LINE
  5
1C4
100
AcDbEntity
 67
     1
  8
1
390
0
  6
Continuous
 62
     7
100
AcDbLine
 10
3.606311
 20
7.105106
 30
0.0
 11
3.610149
 21
7.112005
 31
0.0
  0
LINE
  5
1C5
100
AcDbEntity
 67
     1
  8
1
390
0
  6
Continuous
 62
     7
100
AcDbLine
 10
3.608059
 20
7.104134
 30
0.0
 11
3.615526
 21
7.117556
 31
0.0
  0
LINE
  5
1C6
100
AcDbEntity
 67
     1
  8
1
390
0
  6
Continuous
 62
     7
100
AcDbLine
 10
3.609806
 20
7.103162
 30
0.0
 11
3.620902
 21
7.123106
 31
0.0
  0
LINE
  5
1C7
100
AcDbEntity
 67
     1
  8
1
390
0
  6
Continuous
 62
     7
100
AcDbLine
 10
3.611554
 20
7.102189
 30
0.0
 11
3.626279
 21
7.128656
 31
0.0
  0
LINE
  5
1C8
100
AcDbEntity
 67
     1
  8
1
390
0
  6
Continuous
 62
     7
100
AcDbLine
 10
3.613302
 20
7.101217
 30
0.0
 11
3.631655
 21
7.134206
 31
0.0
  0
LINE
  5
1C9
100
AcDbEntity
 67
     1
  8
1
390
0
  6
Continuous
 62
     7
100
AcDbLine
 10
3.61505
 20
7.100245
 30
0.0
 11
3.637032
 21
7.139757
 31
0.0
  0
LINE
  5
1CA
100
AcDbEntity
 67
     1
  8
1
390
0
  6
Continuous
 62
     7
100
AcDbLine
 10
3.616797
 20
7.099272
 30
0.0
 11
3.642409
 21
7.145307
 31
0.0
  0
LINE
  5
1CB
100
AcDbEntity
 67
     1
  8
1
390
0
  6
Continuous
 62
     7
100
AcDbLine
 10
3.618545
 20
7.0983
 30
0.0
 11
3.647785
 21
7.150857
 31
0.0
  0
LINE
  5
1CC
100
AcDbEntity
 67
     1
  8
1
390
0
  6
Continuous
 62
     7
100
AcDbLine
 10
3.620293
 20
7.097328
 30
0.0
 11
3.653162
 21
7.156407
 31
0.0
  0
LINE
  5
1CD
100
AcDbEntity
 67
     1
  8
1
390
0
  6
Continuous
 62
     7
100
AcDbLine
 10
3.62204
 20
7.096355
 30
0.0
 11
3.658539
 21
7.161957
 31
0.0
  0
LINE
  5
1CE
100
AcDbEntity
 67
     1
  8
1
390
0
  6
Continuous
 62
     7
100
AcDbLine
 10
3.623788
 20
7.095383
 30
0.0
 11
3.663915
 21
7.167508
 31
0.0
  0
LINE
  5
1CF
100
AcDbEntity
 67
     1
  8
1
390
0
  6
Continuous
 62
     7
100
AcDbLine
 10
3.625536
 20
7.09441
 30
0.0
 11
3.669292
 21
7.173058
 31
0.0
  0
LINE
  5
1D0
100
AcDbEntity
 67
     1
  8
1
390
0
  6
Continuous
 62
     7
100
AcDbLine
 10
3.646508
 20
7.082742
 30
0.0
 11
3.646718
 21
7.083118
 31
0.0
  0
LINE
  5
1D1
100
AcDbEntity
 67
     1
  8
1
390
0
  6
Continuous
 62
     7
100
AcDbLine
 10
3.646508
 20
7.082742
 30
0.0
 11
3.646718
 21
7.083118
 31
0.0
  0
LINE
  5
1D2
100
AcDbEntity
 67
     1
  8
1
390
0
  6
Continuous
 62
     7
100
AcDbLine
 10
3.644761
 20
7.083714
 30
0.0
 11
3.648599
 21
7.090614
 31
0.0
  0
LINE
  5
1D3
100
AcDbEntity
 67
     1
  8
1
390
0
  6
Continuous
 62
     7
100
AcDbLine
 10
3.643013
 20
7.084687
 30
0.0
 11
3.65048
 21
7.098109
 31
0.0
  0
LINE
  5
1D4
100
AcDbEntity
 67
     1
  8
1
390
0
  6
Continuous
 62
     7
100
AcDbLine
 10
3.641265
 20
7.08566
 30
0.0
 11
3.652361
 21
7.105604
 31
0.0
  0
LINE
  5
1D5
100
AcDbEntity
 67
     1
  8
1
390
0
  6
Continuous
 62
     7
100
AcDbLine
 10
3.639518
 20
7.086632
 30
0.0
 11
3.654243
 21
7.113099
 31
0.0
  0
LINE
  5
1D6
100
AcDbEntity
 67
     1
  8
1
390
0
  6
Continuous
 62
     7
100
AcDbLine
 10
3.63777
 20
7.087604
 30
0.0
 11
3.656124
 21
7.120594
 31
0.0
  0
LINE
  5
1D7
100
AcDbEntity
 67
     1
  8
1
390
0
  6
Continuous
 62
     7
100
AcDbLine
 10
3.636022
 20
7.088576
 30
0.0
 11
3.658005
 21
7.128088
 31
0.0
  0
LINE
  5
1D8
100
AcDbEntity
 67
     1
  8
1
390
0
  6
Continuous
 62
     7
100
AcDbLine
 10
3.634274
 20
7.089549
 30
0.0
 11
3.659886
 21
7.135583
 31
0.0
  0
LINE
  5
1D9
100
AcDbEntity
 67
     1
  8
1
390
0
  6
Continuous
 62
     7
100
AcDbLine
 10
3.632527
 20
7.090521
 30
0.0
 11
3.661767
 21
7.143078
 31
0.0
  0
LINE
  5
1DA
100
AcDbEntity
 67
     1
  8
1
390
0
  6
Continuous
 62
     7
100
AcDbLine
 10
3.630779
 20
7.091494
 30
0.0
 11
3.663648
 21
7.150573
 31
0.0
  0
LINE
  5
1DB
100
AcDbEntity
 67
     1
  8
1
390
0
  6
Continuous
 62
     7
100
AcDbLine
 10
3.629031
 20
7.092466
 30
0.0
 11
3.665529
 21
7.158068
 31
0.0
  0
LINE
  5
1DC
100
AcDbEntity
 67
     1
  8
1
390
0
  6
Continuous
 62
     7
100
AcDbLine
 10
3.627284
 20
7.093438
 30
0.0
 11
3.667411
 21
7.165563
 31
0.0
  0
LINE
  5
1DD
100
AcDbEntity
 67
     1
  8
1
390
0
  6
Continuous
 62
     7
100
AcDbLine
 10
3.625536
 20
7.09441
 30
0.0
 11
3.669292
 21
7.173058
 31
0.0
  0
LINE
  5
1DE
100
AcDbEntity
 67
     1
  8
1
390
0
  6
Continuous
 62
     7
100
AcDbLine
 10
3.154735
 20
7.164613
 30
0.0
 11
2.47599
 21
7.797554
 31
0.0
  0
LINE
  5
1DF
100
AcDbEntity
 67
     1
  8
1
390
0
  6
Continuous
 62
     7
100
AcDbLine
 10
3.154735
 20
5.433781
 30
0.0
 11
2.47599
 21
4.80084
 31
0.0
  0
LINE
  5
1E0
100
AcDbEntity
 67
     1
  8
1
390
0
  6
Continuous
 62
     7
100
AcDbLine
 10
2.049562
 20
6.21548
 30
0.0
 11
2.058
 21
6.21548
 31
0.0
  0
LINE
  5
1E1
100
AcDbEntity
 67
     1
  8
1
390
0
  6
Continuous
 62
     7
100
AcDbLine
 10
2.058
 20
6.21548
 30
0.0
 11
2.067375
 21
6.224855
 31
0.0
  0
LINE
  5
1E2
100
AcDbEntity
 67
     1
  8
1
390
0
  6
Continuous
 62
     7
100
AcDbLine
 10
2.067375
 20
6.224855
 30
0.0
 11
2.067375
 21
6.233293
 31
0.0
  0
LINE
  5
1E3
100
AcDbEntity
 67
     1
  8
1
390
0
  6
Continuous
 62
     7
100
AcDbLine
 10
2.067375
 20
6.233293
 30
0.0
 11
2.058
 21
6.242668
 31
0.0
  0
LINE
  5
1E4
100
AcDbEntity
 67
     1
  8
1
390
0
  6
Continuous
 62
     7
100
AcDbLine
 10
2.058
 20
6.242668
 30
0.0
 11
2.049562
 21
6.242668
 31
0.0
  0
LINE
  5
1E5
100
AcDbEntity
 67
     1
  8
1
390
0
  6
Continuous
 62
     7
100
AcDbLine
 10
2.049562
 20
6.242668
 30
0.0
 11
2.040188
 21
6.233293
 31
0.0
  0
LINE
  5
1E6
100
AcDbEntity
 67
     1
  8
1
390
0
  6
Continuous
 62
     7
100
AcDbLine
 10
2.040188
 20
6.233293
 30
0.0
 11
2.040188
 21
6.224855
 31
0.0
  0
LINE
  5
1E7
100
AcDbEntity
 67
     1
  8
1
390
0
  6
Continuous
 62
     7
100
AcDbLine
 10
2.040188
 20
6.224855
 30
0.0
 11
2.049562
 21
6.21548
 31
0.0
  0
LINE
  5
1E8
100
AcDbEntity
 67
     1
  8
1
390
0
  6
Continuous
 62
     7
100
AcDbLine
 10
2.541811
 20
7.736174
 30
0.0
 11
2.463326
 21
7.685958
 31
0.0
  0
LINE
  5
1E9
100
AcDbEntity
 67
     1
  8
1
390
0
  6
Continuous
 62
     7
100
AcDbLine
 10
2.463326
 20
7.685958
 30
0.0
 11
2.498949
 21
7.653443
 31
0.0
  0
LINE
  5
1EA
100
AcDbEntity
 67
     1
  8
1
390
0
  6
Continuous
 62
     7
100
AcDbLine
 10
2.498949
 20
7.653443
 30
0.0
 11
2.541811
 21
7.736174
 31
0.0
  0
LINE
  5
1EB
100
AcDbEntity
 67
     1
  8
1
390
0
  6
Continuous
 62
     7
100
AcDbLine
 10
2.463412
 20
7.68588
 30
0.0
 11
2.463702
 21
7.686198
 31
0.0
  0
LINE
  5
1EC
100
AcDbEntity
 67
     1
  8
1
390
0
  6
Continuous
 62
     7
100
AcDbLine
 10
2.463412
 20
7.68588
 30
0.0
 11
2.463702
 21
7.686198
 31
0.0
  0
LINE
  5
1ED
100
AcDbEntity
 67
     1
  8
1
390
0
  6
Continuous
 62
     7
100
AcDbLine
 10
2.464889
 20
7.684532
 30
0.0
 11
2.470211
 21
7.690363
 31
0.0
  0
LINE
  5
1EE
100
AcDbEntity
 67
     1
  8
1
390
0
  6
Continuous
 62
     7
100
AcDbLine
 10
2.466366
 20
7.683184
 30
0.0
 11
2.47672
 21
7.694528
 31
0.0
  0
LINE
  5
1EF
100
AcDbEntity
 67
     1
  8
1
390
0
  6
Continuous
 62
     7
100
AcDbLine
 10
2.467843
 20
7.681835
 30
0.0
 11
2.483229
 21
7.698692
 31
0.0
  0
LINE
  5
1F0
100
AcDbEntity
 67
     1
  8
1
390
0
  6
Continuous
 62
     7
100
AcDbLine
 10
2.46932
 20
7.680487
 30
0.0
 11
2.489738
 21
7.702857
 31
0.0
  0
LINE
  5
1F1
100
AcDbEntity
 67
     1
  8
1
390
0
  6
Continuous
 62
     7
100
AcDbLine
 10
2.470798
 20
7.679139
 30
0.0
 11
2.496248
 21
7.707022
 31
0.0
  0
LINE
  5
1F2
100
AcDbEntity
 67
     1
  8
1
390
0
  6
Continuous
 62
     7
100
AcDbLine
 10
2.472275
 20
7.67779
 30
0.0
 11
2.502757
 21
7.711186
 31
0.0
  0
LINE
  5
1F3
100
AcDbEntity
 67
     1
  8
1
390
0
  6
Continuous
 62
     7
100
AcDbLine
 10
2.473752
 20
7.676442
 30
0.0
 11
2.509266
 21
7.715351
 31
0.0
  0
LINE
  5
1F4
100
AcDbEntity
 67
     1
  8
1
390
0
  6
Continuous
 62
     7
100
AcDbLine
 10
2.475229
 20
7.675094
 30
0.0
 11
2.515775
 21
7.719515
 31
0.0
  0
LINE
  5
1F5
100
AcDbEntity
 67
     1
  8
1
390
0
  6
Continuous
 62
     7
100
AcDbLine
 10
2.476706
 20
7.673746
 30
0.0
 11
2.522284
 21
7.72368
 31
0.0
  0
LINE
  5
1F6
100
AcDbEntity
 67
     1
  8
1
390
0
  6
Continuous
 62
     7
100
AcDbLine
 10
2.478184
 20
7.672397
 30
0.0
 11
2.528793
 21
7.727845
 31
0.0
  0
LINE
  5
1F7
100
AcDbEntity
 67
     1
  8
1
390
0
  6
Continuous
 62
     7
100
AcDbLine
 10
2.479661
 20
7.671049
 30
0.0
 11
2.535302
 21
7.732009
 31
0.0
  0
LINE
  5
1F8
100
AcDbEntity
 67
     1
  8
1
390
0
  6
Continuous
 62
     7
100
AcDbLine
 10
2.481138
 20
7.669701
 30
0.0
 11
2.541811
 21
7.736174
 31
0.0
  0
LINE
  5
1F9
100
AcDbEntity
 67
     1
  8
1
390
0
  6
Continuous
 62
     7
100
AcDbLine
 10
2.498864
 20
7.653521
 30
0.0
 11
2.499155
 21
7.653839
 31
0.0
  0
LINE
  5
1FA
100
AcDbEntity
 67
     1
  8
1
390
0
  6
Continuous
 62
     7
100
AcDbLine
 10
2.498864
 20
7.653521
 30
0.0
 11
2.499155
 21
7.653839
 31
0.0
  0
LINE
  5
1FB
100
AcDbEntity
 67
     1
  8
1
390
0
  6
Continuous
 62
     7
100
AcDbLine
 10
2.497387
 20
7.654869
 30
0.0
 11
2.502709
 21
7.6607
 31
0.0
  0
LINE
  5
1FC
100
AcDbEntity
 67
     1
  8
1
390
0
  6
Continuous
 62
     7
100
AcDbLine
 10
2.49591
 20
7.656218
 30
0.0
 11
2.506264
 21
7.667562
 31
0.0
  0
LINE
  5
1FD
100
AcDbEntity
 67
     1
  8
1
390
0
  6
Continuous
 62
     7
100
AcDbLine
 10
2.494432
 20
7.657566
 30
0.0
 11
2.509819
 21
7.674423
 31
0.0
  0
LINE
  5
1FE
100
AcDbEntity
 67
     1
  8
1
390
0
  6
Continuous
 62
     7
100
AcDbLine
 10
2.492955
 20
7.658914
 30
0.0
 11
2.513373
 21
7.681284
 31
0.0
  0
LINE
  5
1FF
100
AcDbEntity
 67
     1
  8
1
390
0
  6
Continuous
 62
     7
100
AcDbLine
 10
2.491478
 20
7.660263
 30
0.0
 11
2.516928
 21
7.688145
 31
0.0
  0
LINE
  5
200
100
AcDbEntity
 67
     1
  8
1
390
0
  6
Continuous
 62
     7
100
AcDbLine
 10
2.490001
 20
7.661611
 30
0.0
 11
2.520483
 21
7.695006
 31
0.0
  0
LINE
  5
201
100
AcDbEntity
 67
     1
  8
1
390
0
  6
Continuous
 62
     7
100
AcDbLine
 10
2.488524
 20
7.662959
 30
0.0
 11
2.524038
 21
7.701868
 31
0.0
  0
LINE
  5
202
100
AcDbEntity
 67
     1
  8
1
390
0
  6
Continuous
 62
     7
100
AcDbLine
 10
2.487046
 20
7.664307
 30
0.0
 11
2.527592
 21
7.708729
 31
0.0
  0
LINE
  5
203
100
AcDbEntity
 67
     1
  8
1
390
0
  6
Continuous
 62
     7
100
AcDbLine
 10
2.485569
 20
7.665656
 30
0.0
 11
2.531147
 21
7.71559
 31
0.0
  0
LINE
  5
204
100
AcDbEntity
 67
     1
  8
1
390
0
  6
Continuous
 62
     7
100
AcDbLine
 10
2.484092
 20
7.667004
 30
0.0
 11
2.534702
 21
7.722452
 31
0.0
  0
LINE
  5
205
100
AcDbEntity
 67
     1
  8
1
390
0
  6
Continuous
 62
     7
100
AcDbLine
 10
2.482615
 20
7.668352
 30
0.0
 11
2.538257
 21
7.729313
 31
0.0
  0
LINE
  5
206
100
AcDbEntity
 67
     1
  8
1
390
0
  6
Continuous
 62
     7
100
AcDbLine
 10
2.481138
 20
7.669701
 30
0.0
 11
2.541811
 21
7.736174
 31
0.0
  0
LINE
  5
207
100
AcDbEntity
 67
     1
  8
1
390
0
  6
Continuous
 62
     7
100
AcDbLine
 10
2.541811
 20
4.86222
 30
0.0
 11
2.498949
 21
4.944951
 31
0.0
  0
LINE
  5
208
100
AcDbEntity
 67
     1
  8
1
390
0
  6
Continuous
 62
     7
100
AcDbLine
 10
2.498949
 20
4.944951
 30
0.0
 11
2.463326
 21
4.912436
 31
0.0
  0
LINE
  5
209
100
AcDbEntity
 67
     1
  8
1
390
0
  6
Continuous
 62
     7
100
AcDbLine
 10
2.463326
 20
4.912436
 30
0.0
 11
2.541811
 21
4.86222
 31
0.0
  0
LINE
  5
20A
100
AcDbEntity
 67
     1
  8
1
390
0
  6
Continuous
 62
     7
100
AcDbLine
 10
2.498864
 20
4.944873
 30
0.0
 11
2.499155
 21
4.944555
 31
0.0
  0
LINE
  5
20B
100
AcDbEntity
 67
     1
  8
1
390
0
  6
Continuous
 62
     7
100
AcDbLine
 10
2.498864
 20
4.944873
 30
0.0
 11
2.499155
 21
4.944555
 31
0.0
  0
LINE
  5
20C
100
AcDbEntity
 67
     1
  8
1
390
0
  6
Continuous
 62
     7
100
AcDbLine
 10
2.497387
 20
4.943525
 30
0.0
 11
2.502709
 21
4.937694
 31
0.0
  0
LINE
  5
20D
100
AcDbEntity
 67
     1
  8
1
390
0
  6
Continuous
 62
     7
100
AcDbLine
 10
2.49591
 20
4.942176
 30
0.0
 11
2.506264
 21
4.930832
 31
0.0
  0
LINE
  5
20E
100
AcDbEntity
 67
     1
  8
1
390
0
  6
Continuous
 62
     7
100
AcDbLine
 10
2.494432
 20
4.940828
 30
0.0
 11
2.509819
 21
4.923971
 31
0.0
  0
LINE
  5
20F
100
AcDbEntity
 67
     1
  8
1
390
0
  6
Continuous
 62
     7
100
AcDbLine
 10
2.492955
 20
4.93948
 30
0.0
 11
2.513373
 21
4.91711
 31
0.0
  0
LINE
  5
210
100
AcDbEntity
 67
     1
  8
1
390
0
  6
Continuous
 62
     7
100
AcDbLine
 10
2.491478
 20
4.938132
 30
0.0
 11
2.516928
 21
4.910249
 31
0.0
  0
LINE
  5
211
100
AcDbEntity
 67
     1
  8
1
390
0
  6
Continuous
 62
     7
100
AcDbLine
 10
2.490001
 20
4.936783
 30
0.0
 11
2.520483
 21
4.903388
 31
0.0
  0
LINE
  5
212
100
AcDbEntity
 67
     1
  8
1
390
0
  6
Continuous
 62
     7
100
AcDbLine
 10
2.488524
 20
4.935435
 30
0.0
 11
2.524038
 21
4.896526
 31
0.0
  0
LINE
  5
213
100
AcDbEntity
 67
     1
  8
1
390
0
  6
Continuous
 62
     7
100
AcDbLine
 10
2.487046
 20
4.934087
 30
0.0
 11
2.527592
 21
4.889665
 31
0.0
  0
LINE
  5
214
100
AcDbEntity
 67
     1
  8
1
390
0
  6
Continuous
 62
     7
100
AcDbLine
 10
2.485569
 20
4.932738
 30
0.0
 11
2.531147
 21
4.882804
 31
0.0
  0
LINE
  5
215
100
AcDbEntity
 67
     1
  8
1
390
0
  6
Continuous
 62
     7
100
AcDbLine
 10
2.484092
 20
4.93139
 30
0.0
 11
2.534702
 21
4.875943
 31
0.0
  0
LINE
  5
216
100
AcDbEntity
 67
     1
  8
1
390
0
  6
Continuous
 62
     7
100
AcDbLine
 10
2.482615
 20
4.930042
 30
0.0
 11
2.538257
 21
4.869081
 31
0.0
  0
LINE
  5
217
100
AcDbEntity
 67
     1
  8
1
390
0
  6
Continuous
 62
     7
100
AcDbLine
 10
2.481138
 20
4.928694
 30
0.0
 11
2.541811
 21
4.86222
 31
0.0
  0
LINE
  5
218
100
AcDbEntity
 67
     1
  8
1
390
0
  6
Continuous
 62
     7
100
AcDbLine
 10
2.463412
 20
4.912514
 30
0.0
 11
2.463702
 21
4.912196
 31
0.0
  0
LINE
  5
219
100
AcDbEntity
 67
     1
  8
1
390
0
  6
Continuous
 62
     7
100
AcDbLine
 10
2.463412
 20
4.912514
 30
0.0
 11
2.463702
 21
4.912196
 31
0.0
  0
LINE
  5
21A
100
AcDbEntity
 67
     1
  8
1
390
0
  6
Continuous
 62
     7
100
AcDbLine
 10
2.464889
 20
4.913862
 30
0.0
 11
2.470211
 21
4.908031
 31
0.0
  0
LINE
  5
21B
100
AcDbEntity
 67
     1
  8
1
390
0
  6
Continuous
 62
     7
100
AcDbLine
 10
2.466366
 20
4.915211
 30
0.0
 11
2.47672
 21
4.903866
 31
0.0
  0
LINE
  5
21C
100
AcDbEntity
 67
     1
  8
1
390
0
  6
Continuous
 62
     7
100
AcDbLine
 10
2.467843
 20
4.916559
 30
0.0
 11
2.483229
 21
4.899702
 31
0.0
  0
LINE
  5
21D
100
AcDbEntity
 67
     1
  8
1
390
0
  6
Continuous
 62
     7
100
AcDbLine
 10
2.46932
 20
4.917907
 30
0.0
 11
2.489738
 21
4.895537
 31
0.0
  0
LINE
  5
21E
100
AcDbEntity
 67
     1
  8
1
390
0
  6
Continuous
 62
     7
100
AcDbLine
 10
2.470798
 20
4.919255
 30
0.0
 11
2.496248
 21
4.891373
 31
0.0
  0
LINE
  5
21F
100
AcDbEntity
 67
     1
  8
1
390
0
  6
Continuous
 62
     7
100
AcDbLine
 10
2.472275
 20
4.920604
 30
0.0
 11
2.502757
 21
4.887208
 31
0.0
  0
LINE
  5
220
100
AcDbEntity
 67
     1
  8
1
390
0
  6
Continuous
 62
     7
100
AcDbLine
 10
2.473752
 20
4.921952
 30
0.0
 11
2.509266
 21
4.883043
 31
0.0
  0
LINE
  5
221
100
AcDbEntity
 67
     1
  8
1
390
0
  6
Continuous
 62
     7
100
AcDbLine
 10
2.475229
 20
4.9233
 30
0.0
 11
2.515775
 21
4.878879
 31
0.0
  0
LINE
  5
222
100
AcDbEntity
 67
     1
  8
1
390
0
  6
Continuous
 62
     7
100
AcDbLine
 10
2.476706
 20
4.924649
 30
0.0
 11
2.522284
 21
4.874714
 31
0.0
  0
LINE
  5
223
100
AcDbEntity
 67
     1
  8
1
390
0
  6
Continuous
 62
     7
100
AcDbLine
 10
2.478184
 20
4.925997
 30
0.0
 11
2.528793
 21
4.870549
 31
0.0
  0
LINE
  5
224
100
AcDbEntity
 67
     1
  8
1
390
0
  6
Continuous
 62
     7
100
AcDbLine
 10
2.479661
 20
4.927345
 30
0.0
 11
2.535302
 21
4.866385
 31
0.0
  0
LINE
  5
225
100
AcDbEntity
 67
     1
  8
1
390
0
  6
Continuous
 62
     7
100
AcDbLine
 10
2.481138
 20
4.928694
 30
0.0
 11
2.541811
 21
4.86222
 31
0.0
  0
LINE
  5
226
100
AcDbEntity
 67
     1
  8
1
390
0
  6
Continuous
 62
     7
100
AcDbLine
 10
1.314257
 20
7.096516
 30
0.0
 11
1.269257
 21
7.096516
 31
0.0
  0
LINE
  5
227
100
AcDbEntity
 67
     1
  8
1
390
0
  6
Continuous
 62
     7
100
AcDbLine
 10
1.269257
 20
7.096516
 30
0.0
 11
1.269257
 21
6.927766
 31
0.0
  0
LINE
  5
228
100
AcDbEntity
 67
     1
  8
1
390
0
  6
Continuous
 62
     7
100
AcDbLine
 10
1.269257
 20
6.927766
 30
0.0
 11
1.314257
 21
6.927766
 31
0.0
  0
LINE
  5
229
100
AcDbEntity
 67
     1
  8
1
390
0
  6
Continuous
 62
     7
100
AcDbLine
 10
1.784319
 20
6.927766
 30
0.0
 11
1.829319
 21
6.927766
 31
0.0
  0
LINE
  5
22A
100
AcDbEntity
 67
     1
  8
1
390
0
  6
Continuous
 62
     7
100
AcDbLine
 10
1.829319
 20
6.927766
 30
0.0
 11
1.829319
 21
7.096516
 31
0.0
  0
LINE
  5
22B
100
AcDbEntity
 67
     1
  8
1
390
0
  6
Continuous
 62
     7
100
AcDbLine
 10
1.829319
 20
7.096516
 30
0.0
 11
1.784319
 21
7.096516
 31
0.0
  0
LINE
  5
22C
100
AcDbEntity
 67
     1
  8
1
390
0
  6
Continuous
 62
     7
100
AcDbLine
 10
1.847244
 20
5.437721
 30
0.0
 11
0.693526
 21
6.591439
 31
0.0
  0
LINE
  5
22D
100
AcDbEntity
 67
     1
  8
1
390
0
  6
Continuous
 62
     7
100
AcDbLine
 10
1.92635
 20
7.271598
 30
0.0
 11
1.650018
 21
7.547931
 31
0.0
  0
LINE
  5
22E
100
AcDbEntity
 67
     1
  8
1
390
0
  6
Continuous
 62
     7
100
AcDbLine
 10
0.757166
 20
6.5278
 30
0.0
 11
1.206757
 21
6.977391
 31
0.0
  0
LINE
  5
22F
100
AcDbEntity
 67
     1
  8
1
390
0
  6
Continuous
 62
     7
100
AcDbLine
 10
1.713657
 20
7.484291
 30
0.0
 11
1.568382
 21
7.339015
 31
0.0
  0
LINE
  5
230
100
AcDbEntity
 67
     1
  8
1
390
0
  6
Continuous
 62
     7
100
AcDbLine
 10
0.757166
 20
6.5278
 30
0.0
 11
0.837858
 21
6.574387
 31
0.0
  0
LINE
  5
231
100
AcDbEntity
 67
     1
  8
1
390
0
  6
Continuous
 62
     7
100
AcDbLine
 10
0.837858
 20
6.574387
 30
0.0
 11
0.803753
 21
6.608491
 31
0.0
  0
LINE
  5
232
100
AcDbEntity
 67
     1
  8
1
390
0
  6
Continuous
 62
     7
100
AcDbLine
 10
0.803753
 20
6.608491
 30
0.0
 11
0.757166
 21
6.5278
 31
0.0
  0
LINE
  5
233
100
AcDbEntity
 67
     1
  8
1
390
0
  6
Continuous
 62
     7
100
AcDbLine
 10
0.837776
 20
6.574469
 30
0.0
 11
0.837471
 21
6.574164
 31
0.0
  0
LINE
  5
234
100
AcDbEntity
 67
     1
  8
1
390
0
  6
Continuous
 62
     7
100
AcDbLine
 10
0.837776
 20
6.574469
 30
0.0
 11
0.837471
 21
6.574164
 31
0.0
  0
LINE
  5
235
100
AcDbEntity
 67
     1
  8
1
390
0
  6
Continuous
 62
     7
100
AcDbLine
 10
0.836362
 20
6.575883
 30
0.0
 11
0.830779
 21
6.570301
 31
0.0
  0
LINE
  5
236
100
AcDbEntity
 67
     1
  8
1
390
0
  6
Continuous
 62
     7
100
AcDbLine
 10
0.834948
 20
6.577297
 30
0.0
 11
0.824087
 21
6.566437
 31
0.0
  0
LINE
  5
237
100
AcDbEntity
 67
     1
  8
1
390
0
  6
Continuous
 62
     7
100
AcDbLine
 10
0.833533
 20
6.578712
 30
0.0
 11
0.817395
 21
6.562573
 31
0.0
  0
LINE
  5
238
100
AcDbEntity
 67
     1
  8
1
390
0
  6
Continuous
 62
     7
100
AcDbLine
 10
0.832119
 20
6.580126
 30
0.0
 11
0.810703
 21
6.558709
 31
0.0
  0
LINE
  5
239
100
AcDbEntity
 67
     1
  8
1
390
0
  6
Continuous
 62
     7
100
AcDbLine
 10
0.830705
 20
6.58154
 30
0.0
 11
0.804011
 21
6.554846
 31
0.0
  0
LINE
  5
23A
100
AcDbEntity
 67
     1
  8
1
390
0
  6
Continuous
 62
     7
100
AcDbLine
 10
0.829291
 20
6.582954
 30
0.0
 11
0.797319
 21
6.550982
 31
0.0
  0
LINE
  5
23B
100
AcDbEntity
 67
     1
  8
1
390
0
  6
Continuous
 62
     7
100
AcDbLine
 10
0.827877
 20
6.584368
 30
0.0
 11
0.790627
 21
6.547118
 31
0.0
  0
LINE
  5
23C
100
AcDbEntity
 67
     1
  8
1
390
0
  6
Continuous
 62
     7
100
AcDbLine
 10
0.826462
 20
6.585783
 30
0.0
 11
0.783934
 21
6.543254
 31
0.0
  0
LINE
  5
23D
100
AcDbEntity
 67
     1
  8
1
390
0
  6
Continuous
 62
     7
100
AcDbLine
 10
0.825048
 20
6.587197
 30
0.0
 11
0.777242
 21
6.539391
 31
0.0
  0
LINE
  5
23E
100
AcDbEntity
 67
     1
  8
1
390
0
  6
Continuous
 62
     7
100
AcDbLine
 10
0.823634
 20
6.588611
 30
0.0
 11
0.77055
 21
6.535527
 31
0.0
  0
LINE
  5
23F
100
AcDbEntity
 67
     1
  8
1
390
0
  6
Continuous
 62
     7
100
AcDbLine
 10
0.82222
 20
6.590025
 30
0.0
 11
0.763858
 21
6.531663
 31
0.0
  0
LINE
  5
240
100
AcDbEntity
 67
     1
  8
1
390
0
  6
Continuous
 62
     7
100
AcDbLine
 10
0.820805
 20
6.591439
 30
0.0
 11
0.757166
 21
6.5278
 31
0.0
  0
LINE
  5
241
100
AcDbEntity
 67
     1
  8
1
390
0
  6
Continuous
 62
     7
100
AcDbLine
 10
0.803835
 20
6.60841
 30
0.0
 11
0.80353
 21
6.608105
 31
0.0
  0
LINE
  5
242
100
AcDbEntity
 67
     1
  8
1
390
0
  6
Continuous
 62
     7
100
AcDbLine
 10
0.803835
 20
6.60841
 30
0.0
 11
0.80353
 21
6.608105
 31
0.0
  0
LINE
  5
243
100
AcDbEntity
 67
     1
  8
1
390
0
  6
Continuous
 62
     7
100
AcDbLine
 10
0.805249
 20
6.606996
 30
0.0
 11
0.799667
 21
6.601413
 31
0.0
  0
LINE
  5
244
100
AcDbEntity
 67
     1
  8
1
390
0
  6
Continuous
 62
     7
100
AcDbLine
 10
0.806663
 20
6.605581
 30
0.0
 11
0.795803
 21
6.594721
 31
0.0
  0
LINE
  5
245
100
AcDbEntity
 67
     1
  8
1
390
0
  6
Continuous
 62
     7
100
AcDbLine
 10
0.808078
 20
6.604167
 30
0.0
 11
0.791939
 21
6.588029
 31
0.0
  0
LINE
  5
246
100
AcDbEntity
 67
     1
  8
1
390
0
  6
Continuous
 62
     7
100
AcDbLine
 10
0.809492
 20
6.602753
 30
0.0
 11
0.788076
 21
6.581337
 31
0.0
  0
LINE
  5
247
100
AcDbEntity
 67
     1
  8
1
390
0
  6
Continuous
 62
     7
100
AcDbLine
 10
0.810906
 20
6.601339
 30
0.0
 11
0.784212
 21
6.574645
 31
0.0
  0
LINE
  5
248
100
AcDbEntity
 67
     1
  8
1
390
0
  6
Continuous
 62
     7
100
AcDbLine
 10
0.81232
 20
6.599925
 30
0.0
 11
0.780348
 21
6.567953
 31
0.0
  0
LINE
  5
249
100
AcDbEntity
 67
     1
  8
1
390
0
  6
Continuous
 62
     7
100
AcDbLine
 10
0.813734
 20
6.59851
 30
0.0
 11
0.776484
 21
6.56126
 31
0.0
  0
LINE
  5
24A
100
AcDbEntity
 67
     1
  8
1
390
0
  6
Continuous
 62
     7
100
AcDbLine
 10
0.815149
 20
6.597096
 30
0.0
 11
0.772621
 21
6.554568
 31
0.0
  0
LINE
  5
24B
100
AcDbEntity
 67
     1
  8
1
390
0
  6
Continuous
 62
     7
100
AcDbLine
 10
0.816563
 20
6.595682
 30
0.0
 11
0.768757
 21
6.547876
 31
0.0
  0
LINE
  5
24C
100
AcDbEntity
 67
     1
  8
1
390
0
  6
Continuous
 62
     7
100
AcDbLine
 10
0.817977
 20
6.594268
 30
0.0
 11
0.764893
 21
6.541184
 31
0.0
  0
LINE
  5
24D
100
AcDbEntity
 67
     1
  8
1
390
0
  6
Continuous
 62
     7
100
AcDbLine
 10
0.819391
 20
6.592854
 30
0.0
 11
0.76103
 21
6.534492
 31
0.0
  0
LINE
  5
24E
100
AcDbEntity
 67
     1
  8
1
390
0
  6
Continuous
 62
     7
100
AcDbLine
 10
0.820805
 20
6.591439
 30
0.0
 11
0.757166
 21
6.5278
 31
0.0
  0
LINE
  5
24F
100
AcDbEntity
 67
     1
  8
1
390
0
  6
Continuous
 62
     7
100
AcDbLine
 10
1.713657
 20
7.484291
 30
0.0
 11
1.632966
 21
7.437704
 31
0.0
  0
LINE
  5
250
100
AcDbEntity
 67
     1
  8
1
390
0
  6
Continuous
 62
     7
100
AcDbLine
 10
1.632966
 20
7.437704
 30
0.0
 11
1.66707
 21
7.403599
 31
0.0
  0
LINE
  5
251
100
AcDbEntity
 67
     1
  8
1
390
0
  6
Continuous
 62
     7
100
AcDbLine
 10
1.66707
 20
7.403599
 30
0.0
 11
1.713657
 21
7.484291
 31
0.0
  0
LINE
  5
252
100
AcDbEntity
 67
     1
  8
1
390
0
  6
Continuous
 62
     7
100
AcDbLine
 10
1.633047
 20
7.437622
 30
0.0
 11
1.633352
 21
7.437927
 31
0.0
  0
LINE
  5
253
100
AcDbEntity
 67
     1
  8
1
390
0
  6
Continuous
 62
     7
100
AcDbLine
 10
1.633047
 20
7.437622
 30
0.0
 11
1.633352
 21
7.437927
 31
0.0
  0
LINE
  5
254
100
AcDbEntity
 67
     1
  8
1
390
0
  6
Continuous
 62
     7
100
AcDbLine
 10
1.634462
 20
7.436208
 30
0.0
 11
1.640044
 21
7.441791
 31
0.0
  0
LINE
  5
255
100
AcDbEntity
 67
     1
  8
1
390
0
  6
Continuous
 62
     7
100
AcDbLine
 10
1.635876
 20
7.434794
 30
0.0
 11
1.646736
 21
7.445654
 31
0.0
  0
LINE
  5
256
100
AcDbEntity
 67
     1
  8
1
390
0
  6
Continuous
 62
     7
100
AcDbLine
 10
1.63729
 20
7.43338
 30
0.0
 11
1.653428
 21
7.449518
 31
0.0
  0
LINE
  5
257
100
AcDbEntity
 67
     1
  8
1
390
0
  6
Continuous
 62
     7
100
AcDbLine
 10
1.638704
 20
7.431965
 30
0.0
 11
1.66012
 21
7.453382
 31
0.0
  0
LINE
  5
258
100
AcDbEntity
 67
     1
  8
1
390
0
  6
Continuous
 62
     7
100
AcDbLine
 10
1.640118
 20
7.430551
 30
0.0
 11
1.666813
 21
7.457245
 31
0.0
  0
LINE
  5
259
100
AcDbEntity
 67
     1
  8
1
390
0
  6
Continuous
 62
     7
100
AcDbLine
 10
1.641533
 20
7.429137
 30
0.0
 11
1.673505
 21
7.461109
 31
0.0
  0
LINE
  5
25A
100
AcDbEntity
 67
     1
  8
1
390
0
  6
Continuous
 62
     7
100
AcDbLine
 10
1.642947
 20
7.427723
 30
0.0
 11
1.680197
 21
7.464973
 31
0.0
  0
LINE
  5
25B
100
AcDbEntity
 67
     1
  8
1
390
0
  6
Continuous
 62
     7
100
AcDbLine
 10
1.644361
 20
7.426309
 30
0.0
 11
1.686889
 21
7.468836
 31
0.0
  0
LINE
  5
25C
100
AcDbEntity
 67
     1
  8
1
390
0
  6
Continuous
 62
     7
100
AcDbLine
 10
1.645775
 20
7.424894
 30
0.0
 11
1.693581
 21
7.4727
 31
0.0
  0
LINE
  5
25D
100
AcDbEntity
 67
     1
  8
1
390
0
  6
Continuous
 62
     7
100
AcDbLine
 10
1.647189
 20
7.42348
 30
0.0
 11
1.700273
 21
7.476564
 31
0.0
  0
LINE
  5
25E
100
AcDbEntity
 67
     1
  8
1
390
0
  6
Continuous
 62
     7
100
AcDbLine
 10
1.648604
 20
7.422066
 30
0.0
 11
1.706965
 21
7.480428
 31
0.0
  0
LINE
  5
25F
100
AcDbEntity
 67
     1
  8
1
390
0
  6
Continuous
 62
     7
100
AcDbLine
 10
1.650018
 20
7.420651
 30
0.0
 11
1.713657
 21
7.484291
 31
0.0
  0
LINE
  5
260
100
AcDbEntity
 67
     1
  8
1
390
0
  6
Continuous
 62
     7
100
AcDbLine
 10
1.666988
 20
7.403681
 30
0.0
 11
1.667293
 21
7.403986
 31
0.0
  0
LINE
  5
261
100
AcDbEntity
 67
     1
  8
1
390
0
  6
Continuous
 62
     7
100
AcDbLine
 10
1.666988
 20
7.403681
 30
0.0
 11
1.667293
 21
7.403986
 31
0.0
  0
LINE
  5
262
100
AcDbEntity
 67
     1
  8
1
390
0
  6
Continuous
 62
     7
100
AcDbLine
 10
1.665574
 20
7.405095
 30
0.0
 11
1.671157
 21
7.410678
 31
0.0
  0
LINE
  5
263
100
AcDbEntity
 67
     1
  8
1
390
0
  6
Continuous
 62
     7
100
AcDbLine
 10
1.66416
 20
7.406509
 30
0.0
 11
1.67502
 21
7.41737
 31
0.0
  0
LINE
  5
264
100
AcDbEntity
 67
     1
  8
1
390
0
  6
Continuous
 62
     7
100
AcDbLine
 10
1.662746
 20
7.407924
 30
0.0
 11
1.678884
 21
7.424062
 31
0.0
  0
LINE
  5
265
100
AcDbEntity
 67
     1
  8
1
390
0
  6
Continuous
 62
     7
100
AcDbLine
 10
1.661332
 20
7.409338
 30
0.0
 11
1.682748
 21
7.430754
 31
0.0
  0
LINE
  5
266
100
AcDbEntity
 67
     1
  8
1
390
0
  6
Continuous
 62
     7
100
AcDbLine
 10
1.659917
 20
7.410752
 30
0.0
 11
1.686612
 21
7.437447
 31
0.0
  0
LINE
  5
267
100
AcDbEntity
 67
     1
  8
1
390
0
  6
Continuous
 62
     7
100
AcDbLine
 10
1.658503
 20
7.412167
 30
0.0
 11
1.690475
 21
7.444139
 31
0.0
  0
LINE
  5
268
100
AcDbEntity
 67
     1
  8
1
390
0
  6
Continuous
 62
     7
100
AcDbLine
 10
1.657089
 20
7.41358
 30
0.0
 11
1.694339
 21
7.45083
 31
0.0
  0
LINE
  5
269
100
AcDbEntity
 67
     1
  8
1
390
0
  6
Continuous
 62
     7
100
AcDbLine
 10
1.655675
 20
7.414995
 30
0.0
 11
1.698203
 21
7.457523
 31
0.0
  0
LINE
  5
26A
100
AcDbEntity
 67
     1
  8
1
390
0
  6
Continuous
 62
     7
100
AcDbLine
 10
1.654261
 20
7.416409
 30
0.0
 11
1.702066
 21
7.464215
 31
0.0
  0
LINE
  5
26B
100
AcDbEntity
 67
     1
  8
1
390
0
  6
Continuous
 62
     7
100
AcDbLine
 10
1.652846
 20
7.417823
 30
0.0
 11
1.70593
 21
7.470907
 31
0.0
  0
LINE
  5
26C
100
AcDbEntity
 67
     1
  8
1
390
0
  6
Continuous
 62
     7
100
AcDbLine
 10
1.651432
 20
7.419238
 30
0.0
 11
1.709794
 21
7.477599
 31
0.0
  0
LINE
  5
26D
100
AcDbEntity
 67
     1
  8
1
390
0
  6
Continuous
 62
     7
100
AcDbLine
 10
1.650018
 20
7.420651
 30
0.0
 11
1.713657
 21
7.484291
 31
0.0
  0
LINE
  5
26E
100
AcDbEntity
 67
     1
  8
1
390
0
  6
Continuous
 62
     7
100
AcDbLine
 10
2.862913
 20
6.935085
 30
0.0
 11
2.817913
 21
6.935085
 31
0.0
  0
LINE
  5
26F
100
AcDbEntity
 67
     1
  8
1
390
0
  6
Continuous
 62
     7
100
AcDbLine
 10
2.817913
 20
6.935085
 30
0.0
 11
2.817913
 21
6.766335
 31
0.0
  0
LINE
  5
270
100
AcDbEntity
 67
     1
  8
1
390
0
  6
Continuous
 62
     7
100
AcDbLine
 10
2.817913
 20
6.766335
 30
0.0
 11
2.862913
 21
6.766335
 31
0.0
  0
LINE
  5
271
100
AcDbEntity
 67
     1
  8
1
390
0
  6
Continuous
 62
     7
100
AcDbLine
 10
3.234913
 20
6.766335
 30
0.0
 11
3.279913
 21
6.766335
 31
0.0
  0
LINE
  5
272
100
AcDbEntity
 67
     1
  8
1
390
0
  6
Continuous
 62
     7
100
AcDbLine
 10
3.279913
 20
6.766335
 30
0.0
 11
3.279913
 21
6.935085
 31
0.0
  0
LINE
  5
273
100
AcDbEntity
 67
     1
  8
1
390
0
  6
Continuous
 62
     7
100
AcDbLine
 10
3.279913
 20
6.935085
 30
0.0
 11
3.234913
 21
6.935085
 31
0.0
  0
LINE
  5
274
100
AcDbEntity
 67
     1
  8
1
390
0
  6
Continuous
 62
     7
100
AcDbLine
 10
2.507048
 20
6.707838
 30
0.0
 11
2.507048
 21
7.160085
 31
0.0
  0
LINE
  5
275
100
AcDbEntity
 67
     1
  8
1
390
0
  6
Continuous
 62
     7
100
AcDbLine
 10
2.777426
 20
6.468867
 30
0.0
 11
2.777426
 21
7.160085
 31
0.0
  0
LINE
  5
276
100
AcDbEntity
 67
     1
  8
1
390
0
  6
Continuous
 62
     7
100
AcDbLine
 10
2.505413
 20
7.070085
 30
0.0
 11
2.755413
 21
7.070085
 31
0.0
  0
LINE
  5
277
100
AcDbEntity
 67
     1
  8
1
390
0
  6
Continuous
 62
     7
100
AcDbLine
 10
2.777426
 20
7.070085
 30
0.0
 11
2.505413
 21
7.070085
 31
0.0
  0
LINE
  5
278
100
AcDbEntity
 67
     1
  8
1
390
0
  6
Continuous
 62
     7
100
AcDbLine
 10
2.507048
 20
7.070085
 30
0.0
 11
2.597048
 21
7.045969
 31
0.0
  0
LINE
  5
279
100
AcDbEntity
 67
     1
  8
1
390
0
  6
Continuous
 62
     7
100
AcDbLine
 10
2.597048
 20
7.045969
 30
0.0
 11
2.597048
 21
7.0942
 31
0.0
  0
LINE
  5
27A
100
AcDbEntity
 67
     1
  8
1
390
0
  6
Continuous
 62
     7
100
AcDbLine
 10
2.597048
 20
7.0942
 30
0.0
 11
2.507048
 21
7.070085
 31
0.0
  0
LINE
  5
27B
100
AcDbEntity
 67
     1
  8
1
390
0
  6
Continuous
 62
     7
100
AcDbLine
 10
2.597048
 20
7.046085
 30
0.0
 11
2.596617
 21
7.046085
 31
0.0
  0
LINE
  5
27C
100
AcDbEntity
 67
     1
  8
1
390
0
  6
Continuous
 62
     7
100
AcDbLine
 10
2.597048
 20
7.046085
 30
0.0
 11
2.596617
 21
7.046085
 31
0.0
  0
LINE
  5
27D
100
AcDbEntity
 67
     1
  8
1
390
0
  6
Continuous
 62
     7
100
AcDbLine
 10
2.597048
 20
7.048085
 30
0.0
 11
2.589153
 21
7.048085
 31
0.0
  0
LINE
  5
27E
100
AcDbEntity
 67
     1
  8
1
390
0
  6
Continuous
 62
     7
100
AcDbLine
 10
2.597048
 20
7.050085
 30
0.0
 11
2.581689
 21
7.050085
 31
0.0
  0
LINE
  5
27F
100
AcDbEntity
 67
     1
  8
1
390
0
  6
Continuous
 62
     7
100
AcDbLine
 10
2.597048
 20
7.052085
 30
0.0
 11
2.574225
 21
7.052085
 31
0.0
  0
LINE
  5
280
100
AcDbEntity
 67
     1
  8
1
390
0
  6
Continuous
 62
     7
100
AcDbLine
 10
2.597048
 20
7.054085
 30
0.0
 11
2.566761
 21
7.054085
 31
0.0
  0
LINE
  5
281
100
AcDbEntity
 67
     1
  8
1
390
0
  6
Continuous
 62
     7
100
AcDbLine
 10
2.597048
 20
7.056085
 30
0.0
 11
2.559297
 21
7.056085
 31
0.0
  0
LINE
  5
282
100
AcDbEntity
 67
     1
  8
1
390
0
  6
Continuous
 62
     7
100
AcDbLine
 10
2.597048
 20
7.058085
 30
0.0
 11
2.551832
 21
7.058085
 31
0.0
  0
LINE
  5
283
100
AcDbEntity
 67
     1
  8
1
390
0
  6
Continuous
 62
     7
100
AcDbLine
 10
2.597048
 20
7.060085
 30
0.0
 11
2.544368
 21
7.060085
 31
0.0
  0
LINE
  5
284
100
AcDbEntity
 67
     1
  8
1
390
0
  6
Continuous
 62
     7
100
AcDbLine
 10
2.597048
 20
7.062085
 30
0.0
 11
2.536904
 21
7.062085
 31
0.0
  0
LINE
  5
285
100
AcDbEntity
 67
     1
  8
1
390
0
  6
Continuous
 62
     7
100
AcDbLine
 10
2.597048
 20
7.064085
 30
0.0
 11
2.52944
 21
7.064085
 31
0.0
  0
LINE
  5
286
100
AcDbEntity
 67
     1
  8
1
390
0
  6
Continuous
 62
     7
100
AcDbLine
 10
2.597048
 20
7.066085
 30
0.0
 11
2.521976
 21
7.066085
 31
0.0
  0
LINE
  5
287
100
AcDbEntity
 67
     1
  8
1
390
0
  6
Continuous
 62
     7
100
AcDbLine
 10
2.597048
 20
7.068085
 30
0.0
 11
2.514512
 21
7.068085
 31
0.0
  0
LINE
  5
288
100
AcDbEntity
 67
     1
  8
1
390
0
  6
Continuous
 62
     7
100
AcDbLine
 10
2.597048
 20
7.070085
 30
0.0
 11
2.507048
 21
7.070085
 31
0.0
  0
LINE
  5
289
100
AcDbEntity
 67
     1
  8
1
390
0
  6
Continuous
 62
     7
100
AcDbLine
 10
2.597048
 20
7.094085
 30
0.0
 11
2.596617
 21
7.094085
 31
0.0
  0
LINE
  5
28A
100
AcDbEntity
 67
     1
  8
1
390
0
  6
Continuous
 62
     7
100
AcDbLine
 10
2.597048
 20
7.094085
 30
0.0
 11
2.596617
 21
7.094085
 31
0.0
  0
LINE
  5
28B
100
AcDbEntity
 67
     1
  8
1
390
0
  6
Continuous
 62
     7
100
AcDbLine
 10
2.597048
 20
7.092085
 30
0.0
 11
2.589153
 21
7.092085
 31
0.0
  0
LINE
  5
28C
100
AcDbEntity
 67
     1
  8
1
390
0
  6
Continuous
 62
     7
100
AcDbLine
 10
2.597048
 20
7.090085
 30
0.0
 11
2.581689
 21
7.090085
 31
0.0
  0
LINE
  5
28D
100
AcDbEntity
 67
     1
  8
1
390
0
  6
Continuous
 62
     7
100
AcDbLine
 10
2.597048
 20
7.088085
 30
0.0
 11
2.574225
 21
7.088085
 31
0.0
  0
LINE
  5
28E
100
AcDbEntity
 67
     1
  8
1
390
0
  6
Continuous
 62
     7
100
AcDbLine
 10
2.597048
 20
7.086085
 30
0.0
 11
2.566761
 21
7.086085
 31
0.0
  0
LINE
  5
28F
100
AcDbEntity
 67
     1
  8
1
390
0
  6
Continuous
 62
     7
100
AcDbLine
 10
2.597048
 20
7.084085
 30
0.0
 11
2.559297
 21
7.084085
 31
0.0
  0
LINE
  5
290
100
AcDbEntity
 67
     1
  8
1
390
0
  6
Continuous
 62
     7
100
AcDbLine
 10
2.597048
 20
7.082085
 30
0.0
 11
2.551832
 21
7.082085
 31
0.0
  0
LINE
  5
291
100
AcDbEntity
 67
     1
  8
1
390
0
  6
Continuous
 62
     7
100
AcDbLine
 10
2.597048
 20
7.080085
 30
0.0
 11
2.544368
 21
7.080085
 31
0.0
  0
LINE
  5
292
100
AcDbEntity
 67
     1
  8
1
390
0
  6
Continuous
 62
     7
100
AcDbLine
 10
2.597048
 20
7.078085
 30
0.0
 11
2.536904
 21
7.078085
 31
0.0
  0
LINE
  5
293
100
AcDbEntity
 67
     1
  8
1
390
0
  6
Continuous
 62
     7
100
AcDbLine
 10
2.597048
 20
7.076085
 30
0.0
 11
2.52944
 21
7.076085
 31
0.0
  0
LINE
  5
294
100
AcDbEntity
 67
     1
  8
1
390
0
  6
Continuous
 62
     7
100
AcDbLine
 10
2.597048
 20
7.074085
 30
0.0
 11
2.521976
 21
7.074085
 31
0.0
  0
LINE
  5
295
100
AcDbEntity
 67
     1
  8
1
390
0
  6
Continuous
 62
     7
100
AcDbLine
 10
2.597048
 20
7.072085
 30
0.0
 11
2.514512
 21
7.072085
 31
0.0
  0
LINE
  5
296
100
AcDbEntity
 67
     1
  8
1
390
0
  6
Continuous
 62
     7
100
AcDbLine
 10
2.597048
 20
7.070085
 30
0.0
 11
2.507048
 21
7.070085
 31
0.0
  0
LINE
  5
297
100
AcDbEntity
 67
     1
  8
1
390
0
  6
Continuous
 62
     7
100
AcDbLine
 10
2.777426
 20
7.070085
 30
0.0
 11
2.687426
 21
7.0942
 31
0.0
  0
LINE
  5
298
100
AcDbEntity
 67
     1
  8
1
390
0
  6
Continuous
 62
     7
100
AcDbLine
 10
2.687426
 20
7.0942
 30
0.0
 11
2.687426
 21
7.045969
 31
0.0
  0
LINE
  5
299
100
AcDbEntity
 67
     1
  8
1
390
0
  6
Continuous
 62
     7
100
AcDbLine
 10
2.687426
 20
7.045969
 30
0.0
 11
2.777426
 21
7.070085
 31
0.0
  0
LINE
  5
29A
100
AcDbEntity
 67
     1
  8
1
390
0
  6
Continuous
 62
     7
100
AcDbLine
 10
2.687426
 20
7.094085
 30
0.0
 11
2.687857
 21
7.094085
 31
0.0
  0
LINE
  5
29B
100
AcDbEntity
 67
     1
  8
1
390
0
  6
Continuous
 62
     7
100
AcDbLine
 10
2.687426
 20
7.094085
 30
0.0
 11
2.687857
 21
7.094085
 31
0.0
  0
LINE
  5
29C
100
AcDbEntity
 67
     1
  8
1
390
0
  6
Continuous
 62
     7
100
AcDbLine
 10
2.687426
 20
7.092085
 30
0.0
 11
2.695321
 21
7.092085
 31
0.0
  0
LINE
  5
29D
100
AcDbEntity
 67
     1
  8
1
390
0
  6
Continuous
 62
     7
100
AcDbLine
 10
2.687426
 20
7.090085
 30
0.0
 11
2.702785
 21
7.090085
 31
0.0
  0
LINE
  5
29E
100
AcDbEntity
 67
     1
  8
1
390
0
  6
Continuous
 62
     7
100
AcDbLine
 10
2.687426
 20
7.088085
 30
0.0
 11
2.710249
 21
7.088085
 31
0.0
  0
LINE
  5
29F
100
AcDbEntity
 67
     1
  8
1
390
0
  6
Continuous
 62
     7
100
AcDbLine
 10
2.687426
 20
7.086085
 30
0.0
 11
2.717713
 21
7.086085
 31
0.0
  0
LINE
  5
2A0
100
AcDbEntity
 67
     1
  8
1
390
0
  6
Continuous
 62
     7
100
AcDbLine
 10
2.687426
 20
7.084085
 30
0.0
 11
2.725178
 21
7.084085
 31
0.0
  0
LINE
  5
2A1
100
AcDbEntity
 67
     1
  8
1
390
0
  6
Continuous
 62
     7
100
AcDbLine
 10
2.687426
 20
7.082085
 30
0.0
 11
2.732642
 21
7.082085
 31
0.0
  0
LINE
  5
2A2
100
AcDbEntity
 67
     1
  8
1
390
0
  6
Continuous
 62
     7
100
AcDbLine
 10
2.687426
 20
7.080085
 30
0.0
 11
2.740106
 21
7.080085
 31
0.0
  0
LINE
  5
2A3
100
AcDbEntity
 67
     1
  8
1
390
0
  6
Continuous
 62
     7
100
AcDbLine
 10
2.687426
 20
7.078085
 30
0.0
 11
2.74757
 21
7.078085
 31
0.0
  0
LINE
  5
2A4
100
AcDbEntity
 67
     1
  8
1
390
0
  6
Continuous
 62
     7
100
AcDbLine
 10
2.687426
 20
7.076085
 30
0.0
 11
2.755034
 21
7.076085
 31
0.0
  0
LINE
  5
2A5
100
AcDbEntity
 67
     1
  8
1
390
0
  6
Continuous
 62
     7
100
AcDbLine
 10
2.687426
 20
7.074085
 30
0.0
 11
2.762498
 21
7.074085
 31
0.0
  0
LINE
  5
2A6
100
AcDbEntity
 67
     1
  8
1
390
0
  6
Continuous
 62
     7
100
AcDbLine
 10
2.687426
 20
7.072085
 30
0.0
 11
2.769962
 21
7.072085
 31
0.0
  0
LINE
  5
2A7
100
AcDbEntity
 67
     1
  8
1
390
0
  6
Continuous
 62
     7
100
AcDbLine
 10
2.687426
 20
7.070085
 30
0.0
 11
2.777426
 21
7.070085
 31
0.0
  0
LINE
  5
2A8
100
AcDbEntity
 67
     1
  8
1
390
0
  6
Continuous
 62
     7
100
AcDbLine
 10
2.687426
 20
7.046085
 30
0.0
 11
2.687857
 21
7.046085
 31
0.0
  0
LINE
  5
2A9
100
AcDbEntity
 67
     1
  8
1
390
0
  6
Continuous
 62
     7
100
AcDbLine
 10
2.687426
 20
7.046085
 30
0.0
 11
2.687857
 21
7.046085
 31
0.0
  0
LINE
  5
2AA
100
AcDbEntity
 67
     1
  8
1
390
0
  6
Continuous
 62
     7
100
AcDbLine
 10
2.687426
 20
7.048085
 30
0.0
 11
2.695321
 21
7.048085
 31
0.0
  0
LINE
  5
2AB
100
AcDbEntity
 67
     1
  8
1
390
0
  6
Continuous
 62
     7
100
AcDbLine
 10
2.687426
 20
7.050085
 30
0.0
 11
2.702785
 21
7.050085
 31
0.0
  0
LINE
  5
2AC
100
AcDbEntity
 67
     1
  8
1
390
0
  6
Continuous
 62
     7
100
AcDbLine
 10
2.687426
 20
7.052085
 30
0.0
 11
2.710249
 21
7.052085
 31
0.0
  0
LINE
  5
2AD
100
AcDbEntity
 67
     1
  8
1
390
0
  6
Continuous
 62
     7
100
AcDbLine
 10
2.687426
 20
7.054085
 30
0.0
 11
2.717713
 21
7.054085
 31
0.0
  0
LINE
  5
2AE
100
AcDbEntity
 67
     1
  8
1
390
0
  6
Continuous
 62
     7
100
AcDbLine
 10
2.687426
 20
7.056085
 30
0.0
 11
2.725178
 21
7.056085
 31
0.0
  0
LINE
  5
2AF
100
AcDbEntity
 67
     1
  8
1
390
0
  6
Continuous
 62
     7
100
AcDbLine
 10
2.687426
 20
7.058085
 30
0.0
 11
2.732642
 21
7.058085
 31
0.0
  0
LINE
  5
2B0
100
AcDbEntity
 67
     1
  8
1
390
0
  6
Continuous
 62
     7
100
AcDbLine
 10
2.687426
 20
7.060085
 30
0.0
 11
2.740106
 21
7.060085
 31
0.0
  0
LINE
  5
2B1
100
AcDbEntity
 67
     1
  8
1
390
0
  6
Continuous
 62
     7
100
AcDbLine
 10
2.687426
 20
7.062085
 30
0.0
 11
2.74757
 21
7.062085
 31
0.0
  0
LINE
  5
2B2
100
AcDbEntity
 67
     1
  8
1
390
0
  6
Continuous
 62
     7
100
AcDbLine
 10
2.687426
 20
7.064085
 30
0.0
 11
2.755034
 21
7.064085
 31
0.0
  0
LINE
  5
2B3
100
AcDbEntity
 67
     1
  8
1
390
0
  6
Continuous
 62
     7
100
AcDbLine
 10
2.687426
 20
7.066085
 30
0.0
 11
2.762498
 21
7.066085
 31
0.0
  0
LINE
  5
2B4
100
AcDbEntity
 67
     1
  8
1
390
0
  6
Continuous
 62
     7
100
AcDbLine
 10
2.687426
 20
7.068085
 30
0.0
 11
2.769962
 21
7.068085
 31
0.0
  0
LINE
  5
2B5
100
AcDbEntity
 67
     1
  8
1
390
0
  6
Continuous
 62
     7
100
AcDbLine
 10
2.687426
 20
7.070085
 30
0.0
 11
2.777426
 21
7.070085
 31
0.0
  0
LINE
  5
2B6
100
AcDbEntity
 67
     1
  8
1
390
0
  6
Continuous
 62
     7
100
AcDbLine
 10
5.558859
 20
5.24077
 30
0.0
 11
5.558859
 21
4.746486
 31
0.0
  0
LINE
  5
2B7
100
AcDbEntity
 67
     1
  8
1
390
0
  6
Continuous
 62
     7
100
AcDbLine
 10
7.058859
 20
5.24077
 30
0.0
 11
7.058859
 21
4.746486
 31
0.0
  0
LINE
  5
2B8
100
AcDbEntity
 67
     1
  8
1
390
0
  6
Continuous
 62
     7
100
AcDbLine
 10
5.558859
 20
4.836486
 30
0.0
 11
6.201828
 21
4.836486
 31
0.0
  0
LINE
  5
2B9
100
AcDbEntity
 67
     1
  8
1
390
0
  6
Continuous
 62
     7
100
AcDbLine
 10
7.058859
 20
4.836486
 30
0.0
 11
6.41589
 21
4.836486
 31
0.0
  0
LINE
  5
2BA
100
AcDbEntity
 67
     1
  8
1
390
0
  6
Continuous
 62
     7
100
AcDbLine
 10
5.558859
 20
4.836486
 30
0.0
 11
5.648859
 21
4.81237
 31
0.0
  0
LINE
  5
2BB
100
AcDbEntity
 67
     1
  8
1
390
0
  6
Continuous
 62
     7
100
AcDbLine
 10
5.648859
 20
4.81237
 30
0.0
 11
5.648859
 21
4.860601
 31
0.0
  0
LINE
  5
2BC
100
AcDbEntity
 67
     1
  8
1
390
0
  6
Continuous
 62
     7
100
AcDbLine
 10
5.648859
 20
4.860601
 30
0.0
 11
5.558859
 21
4.836486
 31
0.0
  0
LINE
  5
2BD
100
AcDbEntity
 67
     1
  8
1
390
0
  6
Continuous
 62
     7
100
AcDbLine
 10
5.648859
 20
4.812486
 30
0.0
 11
5.648428
 21
4.812486
 31
0.0
  0
LINE
  5
2BE
100
AcDbEntity
 67
     1
  8
1
390
0
  6
Continuous
 62
     7
100
AcDbLine
 10
5.648859
 20
4.812486
 30
0.0
 11
5.648428
 21
4.812486
 31
0.0
  0
LINE
  5
2BF
100
AcDbEntity
 67
     1
  8
1
390
0
  6
Continuous
 62
     7
100
AcDbLine
 10
5.648859
 20
4.814486
 30
0.0
 11
5.640964
 21
4.814486
 31
0.0
  0
LINE
  5
2C0
100
AcDbEntity
 67
     1
  8
1
390
0
  6
Continuous
 62
     7
100
AcDbLine
 10
5.648859
 20
4.816486
 30
0.0
 11
5.6335
 21
4.816486
 31
0.0
  0
LINE
  5
2C1
100
AcDbEntity
 67
     1
  8
1
390
0
  6
Continuous
 62
     7
100
AcDbLine
 10
5.648859
 20
4.818486
 30
0.0
 11
5.626036
 21
4.818486
 31
0.0
  0
LINE
  5
2C2
100
AcDbEntity
 67
     1
  8
1
390
0
  6
Continuous
 62
     7
100
AcDbLine
 10
5.648859
 20
4.820486
 30
0.0
 11
5.618571
 21
4.820486
 31
0.0
  0
LINE
  5
2C3
100
AcDbEntity
 67
     1
  8
1
390
0
  6
Continuous
 62
     7
100
AcDbLine
 10
5.648859
 20
4.822486
 30
0.0
 11
5.611107
 21
4.822486
 31
0.0
  0
LINE
  5
2C4
100
AcDbEntity
 67
     1
  8
1
390
0
  6
Continuous
 62
     7
100
AcDbLine
 10
5.648859
 20
4.824486
 30
0.0
 11
5.603643
 21
4.824486
 31
0.0
  0
LINE
  5
2C5
100
AcDbEntity
 67
     1
  8
1
390
0
  6
Continuous
 62
     7
100
AcDbLine
 10
5.648859
 20
4.826486
 30
0.0
 11
5.596179
 21
4.826486
 31
0.0
  0
LINE
  5
2C6
100
AcDbEntity
 67
     1
  8
1
390
0
  6
Continuous
 62
     7
100
AcDbLine
 10
5.648859
 20
4.828486
 30
0.0
 11
5.588715
 21
4.828486
 31
0.0
  0
LINE
  5
2C7
100
AcDbEntity
 67
     1
  8
1
390
0
  6
Continuous
 62
     7
100
AcDbLine
 10
5.648859
 20
4.830486
 30
0.0
 11
5.581251
 21
4.830486
 31
0.0
  0
LINE
  5
2C8
100
AcDbEntity
 67
     1
  8
1
390
0
  6
Continuous
 62
     7
100
AcDbLine
 10
5.648859
 20
4.832486
 30
0.0
 11
5.573787
 21
4.832486
 31
0.0
  0
LINE
  5
2C9
100
AcDbEntity
 67
     1
  8
1
390
0
  6
Continuous
 62
     7
100
AcDbLine
 10
5.648859
 20
4.834486
 30
0.0
 11
5.566323
 21
4.834486
 31
0.0
  0
LINE
  5
2CA
100
AcDbEntity
 67
     1
  8
1
390
0
  6
Continuous
 62
     7
100
AcDbLine
 10
5.648859
 20
4.836486
 30
0.0
 11
5.558859
 21
4.836486
 31
0.0
  0
LINE
  5
2CB
100
AcDbEntity
 67
     1
  8
1
390
0
  6
Continuous
 62
     7
100
AcDbLine
 10
5.648859
 20
4.860486
 30
0.0
 11
5.648428
 21
4.860486
 31
0.0
  0
LINE
  5
2CC
100
AcDbEntity
 67
     1
  8
1
390
0
  6
Continuous
 62
     7
100
AcDbLine
 10
5.648859
 20
4.860486
 30
0.0
 11
5.648428
 21
4.860486
 31
0.0
  0
LINE
  5
2CD
100
AcDbEntity
 67
     1
  8
1
390
0
  6
Continuous
 62
     7
100
AcDbLine
 10
5.648859
 20
4.858486
 30
0.0
 11
5.640964
 21
4.858486
 31
0.0
  0
LINE
  5
2CE
100
AcDbEntity
 67
     1
  8
1
390
0
  6
Continuous
 62
     7
100
AcDbLine
 10
5.648859
 20
4.856486
 30
0.0
 11
5.6335
 21
4.856486
 31
0.0
  0
LINE
  5
2CF
100
AcDbEntity
 67
     1
  8
1
390
0
  6
Continuous
 62
     7
100
AcDbLine
 10
5.648859
 20
4.854486
 30
0.0
 11
5.626036
 21
4.854486
 31
0.0
  0
LINE
  5
2D0
100
AcDbEntity
 67
     1
  8
1
390
0
  6
Continuous
 62
     7
100
AcDbLine
 10
5.648859
 20
4.852486
 30
0.0
 11
5.618571
 21
4.852486
 31
0.0
  0
LINE
  5
2D1
100
AcDbEntity
 67
     1
  8
1
390
0
  6
Continuous
 62
     7
100
AcDbLine
 10
5.648859
 20
4.850486
 30
0.0
 11
5.611107
 21
4.850486
 31
0.0
  0
LINE
  5
2D2
100
AcDbEntity
 67
     1
  8
1
390
0
  6
Continuous
 62
     7
100
AcDbLine
 10
5.648859
 20
4.848486
 30
0.0
 11
5.603643
 21
4.848486
 31
0.0
  0
LINE
  5
2D3
100
AcDbEntity
 67
     1
  8
1
390
0
  6
Continuous
 62
     7
100
AcDbLine
 10
5.648859
 20
4.846486
 30
0.0
 11
5.596179
 21
4.846486
 31
0.0
  0
LINE
  5
2D4
100
AcDbEntity
 67
     1
  8
1
390
0
  6
Continuous
 62
     7
100
AcDbLine
 10
5.648859
 20
4.844486
 30
0.0
 11
5.588715
 21
4.844486
 31
0.0
  0
LINE
  5
2D5
100
AcDbEntity
 67
     1
  8
1
390
0
  6
Continuous
 62
     7
100
AcDbLine
 10
5.648859
 20
4.842486
 30
0.0
 11
5.581251
 21
4.842486
 31
0.0
  0
LINE
  5
2D6
100
AcDbEntity
 67
     1
  8
1
390
0
  6
Continuous
 62
     7
100
AcDbLine
 10
5.648859
 20
4.840486
 30
0.0
 11
5.573787
 21
4.840486
 31
0.0
  0
LINE
  5
2D7
100
AcDbEntity
 67
     1
  8
1
390
0
  6
Continuous
 62
     7
100
AcDbLine
 10
5.648859
 20
4.838486
 30
0.0
 11
5.566323
 21
4.838486
 31
0.0
  0
LINE
  5
2D8
100
AcDbEntity
 67
     1
  8
1
390
0
  6
Continuous
 62
     7
100
AcDbLine
 10
5.648859
 20
4.836486
 30
0.0
 11
5.558859
 21
4.836486
 31
0.0
  0
LINE
  5
2D9
100
AcDbEntity
 67
     1
  8
1
390
0
  6
Continuous
 62
     7
100
AcDbLine
 10
7.058859
 20
4.836486
 30
0.0
 11
6.968859
 21
4.860601
 31
0.0
  0
LINE
  5
2DA
100
AcDbEntity
 67
     1
  8
1
390
0
  6
Continuous
 62
     7
100
AcDbLine
 10
6.968859
 20
4.860601
 30
0.0
 11
6.968859
 21
4.81237
 31
0.0
  0
LINE
  5
2DB
100
AcDbEntity
 67
     1
  8
1
390
0
  6
Continuous
 62
     7
100
AcDbLine
 10
6.968859
 20
4.81237
 30
0.0
 11
7.058859
 21
4.836486
 31
0.0
  0
LINE
  5
2DC
100
AcDbEntity
 67
     1
  8
1
390
0
  6
Continuous
 62
     7
100
AcDbLine
 10
6.968859
 20
4.860486
 30
0.0
 11
6.969289
 21
4.860486
 31
0.0
  0
LINE
  5
2DD
100
AcDbEntity
 67
     1
  8
1
390
0
  6
Continuous
 62
     7
100
AcDbLine
 10
6.968859
 20
4.860486
 30
0.0
 11
6.969289
 21
4.860486
 31
0.0
  0
LINE
  5
2DE
100
AcDbEntity
 67
     1
  8
1
390
0
  6
Continuous
 62
     7
100
AcDbLine
 10
6.968859
 20
4.858486
 30
0.0
 11
6.976754
 21
4.858486
 31
0.0
  0
LINE
  5
2DF
100
AcDbEntity
 67
     1
  8
1
390
0
  6
Continuous
 62
     7
100
AcDbLine
 10
6.968859
 20
4.856486
 30
0.0
 11
6.984218
 21
4.856486
 31
0.0
  0
LINE
  5
2E0
100
AcDbEntity
 67
     1
  8
1
390
0
  6
Continuous
 62
     7
100
AcDbLine
 10
6.968859
 20
4.854486
 30
0.0
 11
6.991682
 21
4.854486
 31
0.0
  0
LINE
  5
2E1
100
AcDbEntity
 67
     1
  8
1
390
0
  6
Continuous
 62
     7
100
AcDbLine
 10
6.968859
 20
4.852486
 30
0.0
 11
6.999146
 21
4.852486
 31
0.0
  0
LINE
  5
2E2
100
AcDbEntity
 67
     1
  8
1
390
0
  6
Continuous
 62
     7
100
AcDbLine
 10
6.968859
 20
4.850486
 30
0.0
 11
7.00661
 21
4.850486
 31
0.0
  0
LINE
  5
2E3
100
AcDbEntity
 67
     1
  8
1
390
0
  6
Continuous
 62
     7
100
AcDbLine
 10
6.968859
 20
4.848486
 30
0.0
 11
7.014074
 21
4.848486
 31
0.0
  0
LINE
  5
2E4
100
AcDbEntity
 67
     1
  8
1
390
0
  6
Continuous
 62
     7
100
AcDbLine
 10
6.968859
 20
4.846486
 30
0.0
 11
7.021538
 21
4.846486
 31
0.0
  0
LINE
  5
2E5
100
AcDbEntity
 67
     1
  8
1
390
0
  6
Continuous
 62
     7
100
AcDbLine
 10
6.968859
 20
4.844486
 30
0.0
 11
7.029002
 21
4.844486
 31
0.0
  0
LINE
  5
2E6
100
AcDbEntity
 67
     1
  8
1
390
0
  6
Continuous
 62
     7
100
AcDbLine
 10
6.968859
 20
4.842486
 30
0.0
 11
7.036467
 21
4.842486
 31
0.0
  0
LINE
  5
2E7
100
AcDbEntity
 67
     1
  8
1
390
0
  6
Continuous
 62
     7
100
AcDbLine
 10
6.968859
 20
4.840486
 30
0.0
 11
7.043931
 21
4.840486
 31
0.0
  0
LINE
  5
2E8
100
AcDbEntity
 67
     1
  8
1
390
0
  6
Continuous
 62
     7
100
AcDbLine
 10
6.968859
 20
4.838486
 30
0.0
 11
7.051394
 21
4.838486
 31
0.0
  0
LINE
  5
2E9
100
AcDbEntity
 67
     1
  8
1
390
0
  6
Continuous
 62
     7
100
AcDbLine
 10
6.968859
 20
4.836486
 30
0.0
 11
7.058859
 21
4.836486
 31
0.0
  0
LINE
  5
2EA
100
AcDbEntity
 67
     1
  8
1
390
0
  6
Continuous
 62
     7
100
AcDbLine
 10
6.968859
 20
4.812486
 30
0.0
 11
6.969289
 21
4.812486
 31
0.0
  0
LINE
  5
2EB
100
AcDbEntity
 67
     1
  8
1
390
0
  6
Continuous
 62
     7
100
AcDbLine
 10
6.968859
 20
4.812486
 30
0.0
 11
6.969289
 21
4.812486
 31
0.0
  0
LINE
  5
2EC
100
AcDbEntity
 67
     1
  8
1
390
0
  6
Continuous
 62
     7
100
AcDbLine
 10
6.968859
 20
4.814486
 30
0.0
 11
6.976754
 21
4.814486
 31
0.0
  0
LINE
  5
2ED
100
AcDbEntity
 67
     1
  8
1
390
0
  6
Continuous
 62
     7
100
AcDbLine
 10
6.968859
 20
4.816486
 30
0.0
 11
6.984218
 21
4.816486
 31
0.0
  0
LINE
  5
2EE
100
AcDbEntity
 67
     1
  8
1
390
0
  6
Continuous
 62
     7
100
AcDbLine
 10
6.968859
 20
4.818486
 30
0.0
 11
6.991682
 21
4.818486
 31
0.0
  0
LINE
  5
2EF
100
AcDbEntity
 67
     1
  8
1
390
0
  6
Continuous
 62
     7
100
AcDbLine
 10
6.968859
 20
4.820486
 30
0.0
 11
6.999146
 21
4.820486
 31
0.0
  0
LINE
  5
2F0
100
AcDbEntity
 67
     1
  8
1
390
0
  6
Continuous
 62
     7
100
AcDbLine
 10
6.968859
 20
4.822486
 30
0.0
 11
7.00661
 21
4.822486
 31
0.0
  0
LINE
  5
2F1
100
AcDbEntity
 67
     1
  8
1
390
0
  6
Continuous
 62
     7
100
AcDbLine
 10
6.968859
 20
4.824486
 30
0.0
 11
7.014074
 21
4.824486
 31
0.0
  0
LINE
  5
2F2
100
AcDbEntity
 67
     1
  8
1
390
0
  6
Continuous
 62
     7
100
AcDbLine
 10
6.968859
 20
4.826486
 30
0.0
 11
7.021538
 21
4.826486
 31
0.0
  0
LINE
  5
2F3
100
AcDbEntity
 67
     1
  8
1
390
0
  6
Continuous
 62
     7
100
AcDbLine
 10
6.968859
 20
4.828486
 30
0.0
 11
7.029002
 21
4.828486
 31
0.0
  0
LINE
  5
2F4
100
AcDbEntity
 67
     1
  8
1
390
0
  6
Continuous
 62
     7
100
AcDbLine
 10
6.968859
 20
4.830486
 30
0.0
 11
7.036467
 21
4.830486
 31
0.0
  0
LINE
  5
2F5
100
AcDbEntity
 67
     1
  8
1
390
0
  6
Continuous
 62
     7
100
AcDbLine
 10
6.968859
 20
4.832486
 30
0.0
 11
7.043931
 21
4.832486
 31
0.0
  0
LINE
  5
2F6
100
AcDbEntity
 67
     1
  8
1
390
0
  6
Continuous
 62
     7
100
AcDbLine
 10
6.968859
 20
4.834486
 30
0.0
 11
7.051394
 21
4.834486
 31
0.0
  0
LINE
  5
2F7
100
AcDbEntity
 67
     1
  8
1
390
0
  6
Continuous
 62
     7
100
AcDbLine
 10
6.968859
 20
4.836486
 30
0.0
 11
7.058859
 21
4.836486
 31
0.0
  0
LINE
  5
2F8
100
AcDbEntity
 67
     1
  8
1
390
0
  6
Continuous
 62
     7
100
AcDbLine
 10
5.492422
 20
6.299197
 30
0.0
 11
6.216643
 21
6.299197
 31
0.0
  0
LINE
  5
2F9
100
AcDbEntity
 67
     1
  8
1
390
0
  6
Continuous
 62
     7
100
AcDbLine
 10
6.279143
 20
6.299197
 30
0.0
 11
6.404143
 21
6.299197
 31
0.0
  0
LINE
  5
2FA
100
AcDbEntity
 67
     1
  8
1
390
0
  6
Continuous
 62
     7
100
AcDbLine
 10
6.466643
 20
6.299197
 30
0.0
 11
7.190865
 21
6.299197
 31
0.0
  0
LINE
  5
2FB
100
AcDbEntity
 67
     1
  8
1
390
0
  6
Continuous
 62
     7
100
AcDbLine
 10
5.492422
 20
6.299197
 30
0.0
 11
5.367422
 21
6.299197
 31
0.0
  0
LINE
  5
2FC
100
AcDbEntity
 67
     1
  8
1
390
0
  6
Continuous
 62
     7
100
AcDbLine
 10
7.190865
 20
6.299197
 30
0.0
 11
7.315865
 21
6.299197
 31
0.0
  0
LINE
  5
2FD
100
AcDbEntity
 67
     1
  8
1
390
0
  6
Continuous
 62
     7
100
AcDbLine
 10
5.304922
 20
6.299197
 30
0.0
 11
5.242422
 21
6.299197
 31
0.0
  0
LINE
  5
2FE
100
AcDbEntity
 67
     1
  8
1
390
0
  6
Continuous
 62
     7
100
AcDbLine
 10
7.378365
 20
6.299197
 30
0.0
 11
7.440865
 21
6.299197
 31
0.0
  0
LINE
  5
2FF
100
AcDbEntity
 67
     1
  8
1
390
0
  6
Continuous
 62
     7
100
AcDbLine
 10
7.943808
 20
6.030049
 30
0.0
 11
9.307683
 21
6.030049
 31
0.0
  0
LINE
  5
300
100
AcDbEntity
 67
     1
  8
1
390
0
  6
Continuous
 62
     7
100
AcDbLine
 10
7.545803
 20
3.192077
 30
0.0
 11
7.421095
 21
3.408077
 31
0.0
  0
LINE
  5
301
100
AcDbEntity
 67
     1
  8
1
390
0
  6
Continuous
 62
     7
100
AcDbLine
 10
7.421095
 20
3.408077
 30
0.0
 11
7.296387
 21
3.192077
 31
0.0
  0
LINE
  5
302
100
AcDbEntity
 67
     1
  8
1
390
0
  6
Continuous
 62
     7
100
AcDbLine
 10
7.296387
 20
3.192077
 30
0.0
 11
7.545803
 21
3.192077
 31
0.0
  0
LINE
  5
303
100
AcDbEntity
 67
     1
  8
1
390
0
  6
Continuous
 62
     7
100
AcDbLine
 10
10.043263
 20
4.695473
 30
0.0
 11
10.009513
 21
4.695473
 31
0.0
  0
LINE
  5
304
100
AcDbEntity
 67
     1
  8
1
390
0
  6
Continuous
 62
     7
100
AcDbLine
 10
10.026388
 20
4.712348
 30
0.0
 11
10.026388
 21
4.678598
 31
0.0
  0
LINE
  5
305
100
AcDbEntity
 67
     1
  8
1
390
0
  6
Continuous
 62
     7
100
AcDbLine
 10
10.009513
 20
4.661724
 30
0.0
 11
10.043263
 21
4.661724
 31
0.0
  0
LINE
  5
306
100
AcDbEntity
 67
     1
  8
1
390
0
  6
Continuous
 62
     7
100
AcDbLine
 10
10.043263
 20
4.320473
 30
0.0
 11
10.009513
 21
4.320473
 31
0.0
  0
LINE
  5
307
100
AcDbEntity
 67
     1
  8
1
390
0
  6
Continuous
 62
     7
100
AcDbLine
 10
10.026388
 20
4.337348
 30
0.0
 11
10.026388
 21
4.303598
 31
0.0
  0
LINE
  5
308
100
AcDbEntity
 67
     1
  8
1
390
0
  6
Continuous
 62
     7
100
AcDbLine
 10
10.009513
 20
4.286724
 30
0.0
 11
10.043263
 21
4.286724
 31
0.0
  0
LINE
  5
309
100
AcDbEntity
 67
     1
  8
1
390
0
  6
Continuous
 62
     7
100
AcDbLine
 10
10.043263
 20
3.945473
 30
0.0
 11
10.009513
 21
3.945473
 31
0.0
  0
LINE
  5
30A
100
AcDbEntity
 67
     1
  8
1
390
0
  6
Continuous
 62
     7
100
AcDbLine
 10
10.026388
 20
3.962348
 30
0.0
 11
10.026388
 21
3.928598
 31
0.0
  0
LINE
  5
30B
100
AcDbEntity
 67
     1
  8
1
390
0
  6
Continuous
 62
     7
100
AcDbLine
 10
10.009513
 20
3.911723
 30
0.0
 11
10.043263
 21
3.911723
 31
0.0
  0
LINE
  5
30C
100
AcDbEntity
 67
     1
  8
1
390
0
  6
Continuous
 62
     7
100
AcDbLine
 10
10.043263
 20
3.570473
 30
0.0
 11
10.009513
 21
3.570473
 31
0.0
  0
LINE
  5
30D
100
AcDbEntity
 67
     1
  8
1
390
0
  6
Continuous
 62
     7
100
AcDbLine
 10
10.026388
 20
3.587348
 30
0.0
 11
10.026388
 21
3.553598
 31
0.0
  0
LINE
  5
30E
100
AcDbEntity
 67
     1
  8
1
390
0
  6
Continuous
 62
     7
100
AcDbLine
 10
10.009513
 20
3.536723
 30
0.0
 11
10.043263
 21
3.536723
 31
0.0
  0
LINE
  5
30F
100
AcDbEntity
 67
     1
  8
1
390
0
  6
Continuous
 62
     7
100
AcDbLine
 10
10.043263
 20
3.195473
 30
0.0
 11
10.009513
 21
3.195473
 31
0.0
  0
LINE
  5
310
100
AcDbEntity
 67
     1
  8
1
390
0
  6
Continuous
 62
     7
100
AcDbLine
 10
10.026388
 20
3.212348
 30
0.0
 11
10.026388
 21
3.178598
 31
0.0
  0
LINE
  5
311
100
AcDbEntity
 67
     1
  8
1
390
0
  6
Continuous
 62
     7
100
AcDbLine
 10
10.009513
 20
3.161723
 30
0.0
 11
10.043263
 21
3.161723
 31
0.0
  0
LINE
  5
312
100
AcDbEntity
 67
     1
  8
1
390
0
  6
Continuous
 62
     7
100
AcDbLine
 10
9.782836
 20
5.742268
 30
0.0
 11
9.658129
 21
5.958268
 31
0.0
  0
LINE
  5
313
100
AcDbEntity
 67
     1
  8
1
390
0
  6
Continuous
 62
     7
100
AcDbLine
 10
9.658129
 20
5.958268
 30
0.0
 11
9.533422
 21
5.742268
 31
0.0
  0
LINE
  5
314
100
AcDbEntity
 67
     1
  8
1
390
0
  6
Continuous
 62
     7
100
AcDbLine
 10
9.533422
 20
5.742268
 30
0.0
 11
9.782836
 21
5.742268
 31
0.0
  0
LINE
  5
315
100
AcDbEntity
 67
     1
  8
1
390
0
  6
Continuous
 62
     7
100
AcDbLine
 10
10.082836
 20
5.742268
 30
0.0
 11
9.958129
 21
5.958268
 31
0.0
  0
LINE
  5
316
100
AcDbEntity
 67
     1
  8
1
390
0
  6
Continuous
 62
     7
100
AcDbLine
 10
9.958129
 20
5.958268
 30
0.0
 11
9.833421
 21
5.742268
 31
0.0
  0
LINE
  5
317
100
AcDbEntity
 67
     1
  8
1
390
0
  6
Continuous
 62
     7
100
AcDbLine
 10
9.833421
 20
5.742268
 30
0.0
 11
10.082836
 21
5.742268
 31
0.0
  0
LINE
  5
318
100
AcDbEntity
 67
     1
  8
1
390
0
  6
Continuous
 62
     7
100
AcDbLine
 10
3.183116
 20
6.354197
 30
0.0
 11
3.183116
 21
6.244197
 31
0.0
  0
LINE
  5
319
100
AcDbEntity
 67
     1
  8
1
390
0
  6
Continuous
 62
     7
100
AcDbLine
 10
3.128116
 20
6.299197
 30
0.0
 11
3.238116
 21
6.299197
 31
0.0
  0
LINE
  5
31A
100
AcDbEntity
 67
     1
  8
1
390
0
  6
Continuous
 62
     7
100
AcDbLine
 10
4.257048
 20
6.299197
 30
0.0
 11
4.090381
 21
6.299197
 31
0.0
  0
LINE
  5
31B
100
AcDbEntity
 67
     1
  8
1
390
0
  6
Continuous
 62
     7
100
AcDbLine
 10
4.034826
 20
6.299197
 30
0.0
 11
3.97927
 21
6.299197
 31
0.0
  0
LINE
  5
31C
100
AcDbEntity
 67
     1
  8
1
390
0
  6
Continuous
 62
     7
100
AcDbLine
 10
3.923715
 20
6.299197
 30
0.0
 11
3.590381
 21
6.299197
 31
0.0
  0
LINE
  5
31D
100
AcDbEntity
 67
     1
  8
1
390
0
  6
Continuous
 62
     7
100
AcDbLine
 10
3.534826
 20
6.299197
 30
0.0
 11
3.47927
 21
6.299197
 31
0.0
  0
LINE
  5
31E
100
AcDbEntity
 67
     1
  8
1
390
0
  6
Continuous
 62
     7
100
AcDbLine
 10
3.423715
 20
6.299197
 30
0.0
 11
3.090381
 21
6.299197
 31
0.0
  0
LINE
  5
31F
100
AcDbEntity
 67
     1
  8
1
390
0
  6
Continuous
 62
     7
100
AcDbLine
 10
3.034826
 20
6.299197
 30
0.0
 11
2.97927
 21
6.299197
 31
0.0
  0
LINE
  5
320
100
AcDbEntity
 67
     1
  8
1
390
0
  6
Continuous
 62
     7
100
AcDbLine
 10
2.923715
 20
6.299197
 30
0.0
 11
2.590381
 21
6.299197
 31
0.0
  0
LINE
  5
321
100
AcDbEntity
 67
     1
  8
1
390
0
  6
Continuous
 62
     7
100
AcDbLine
 10
2.534826
 20
6.299197
 30
0.0
 11
2.47927
 21
6.299197
 31
0.0
  0
LINE
  5
322
100
AcDbEntity
 67
     1
  8
1
390
0
  6
Continuous
 62
     7
100
AcDbLine
 10
2.423715
 20
6.299197
 30
0.0
 11
2.257048
 21
6.299197
 31
0.0
  0
LINE
  5
323
100
AcDbEntity
 67
     1
  8
1
390
0
  6
Continuous
 62
     7
100
AcDbLine
 10
3.197934
 20
5.33256
 30
0.0
 11
3.197383
 21
5.33256
 31
0.0
  0
LINE
  5
324
100
AcDbEntity
 67
     1
  8
1
390
0
  6
Continuous
 62
     7
100
AcDbLine
 10
3.147343
 20
5.33256
 30
0.0
 11
3.146242
 21
5.33256
 31
0.0
  0
LINE
  5
325
100
AcDbEntity
 67
     1
  8
1
390
0
  6
Continuous
 62
     7
100
AcDbLine
 10
3.096202
 20
5.33256
 30
0.0
 11
3.095101
 21
5.33256
 31
0.0
  0
LINE
  5
326
100
AcDbEntity
 67
     1
  8
1
390
0
  6
Continuous
 62
     7
100
AcDbLine
 10
3.045061
 20
5.33256
 30
0.0
 11
3.04396
 21
5.33256
 31
0.0
  0
LINE
  5
327
100
AcDbEntity
 67
     1
  8
1
390
0
  6
Continuous
 62
     7
100
AcDbLine
 10
2.993919
 20
5.33256
 30
0.0
 11
2.992819
 21
5.33256
 31
0.0
  0
LINE
  5
328
100
AcDbEntity
 67
     1
  8
1
390
0
  6
Continuous
 62
     7
100
AcDbLine
 10
2.942778
 20
5.33256
 30
0.0
 11
2.941677
 21
5.33256
 31
0.0
  0
LINE
  5
329
100
AcDbEntity
 67
     1
  8
1
390
0
  6
Continuous
 62
     7
100
AcDbLine
 10
2.891637
 20
5.33256
 30
0.0
 11
2.890536
 21
5.33256
 31
0.0
  0
LINE
  5
32A
100
AcDbEntity
 67
     1
  8
1
390
0
  6
Continuous
 62
     7
100
AcDbLine
 10
2.840496
 20
5.33256
 30
0.0
 11
2.839395
 21
5.33256
 31
0.0
  0
LINE
  5
32B
100
AcDbEntity
 67
     1
  8
1
390
0
  6
Continuous
 62
     7
100
AcDbLine
 10
2.789355
 20
5.33256
 30
0.0
 11
2.788254
 21
5.33256
 31
0.0
  0
LINE
  5
32C
100
AcDbEntity
 67
     1
  8
1
390
0
  6
Continuous
 62
     7
100
AcDbLine
 10
2.738213
 20
5.33256
 30
0.0
 11
2.737112
 21
5.33256
 31
0.0
  0
LINE
  5
32D
100
AcDbEntity
 67
     1
  8
1
390
0
  6
Continuous
 62
     7
100
AcDbLine
 10
2.687072
 20
5.33256
 30
0.0
 11
2.685971
 21
5.33256
 31
0.0
  0
LINE
  5
32E
100
AcDbEntity
 67
     1
  8
1
390
0
  6
Continuous
 62
     7
100
AcDbLine
 10
2.635931
 20
5.33256
 30
0.0
 11
2.63483
 21
5.33256
 31
0.0
  0
LINE
  5
32F
100
AcDbEntity
 67
     1
  8
1
390
0
  6
Continuous
 62
     7
100
AcDbLine
 10
2.58479
 20
5.33256
 30
0.0
 11
2.583689
 21
5.33256
 31
0.0
  0
LINE
  5
330
100
AcDbEntity
 67
     1
  8
1
390
0
  6
Continuous
 62
     7
100
AcDbLine
 10
2.533648
 20
5.33256
 30
0.0
 11
2.532547
 21
5.33256
 31
0.0
  0
LINE
  5
331
100
AcDbEntity
 67
     1
  8
1
390
0
  6
Continuous
 62
     7
100
AcDbLine
 10
2.482507
 20
5.33256
 30
0.0
 11
2.481406
 21
5.33256
 31
0.0
  0
LINE
  5
332
100
AcDbEntity
 67
     1
  8
1
390
0
  6
Continuous
 62
     7
100
AcDbLine
 10
2.431366
 20
5.33256
 30
0.0
 11
2.430265
 21
5.33256
 31
0.0
  0
LINE
  5
333
100
AcDbEntity
 67
     1
  8
1
390
0
  6
Continuous
 62
     7
100
AcDbLine
 10
2.380225
 20
5.33256
 30
0.0
 11
2.379124
 21
5.33256
 31
0.0
  0
LINE
  5
334
100
AcDbEntity
 67
     1
  8
1
390
0
  6
Continuous
 62
     7
100
AcDbLine
 10
2.329083
 20
5.33256
 30
0.0
 11
2.327983
 21
5.33256
 31
0.0
  0
LINE
  5
335
100
AcDbEntity
 67
     1
  8
1
390
0
  6
Continuous
 62
     7
100
AcDbLine
 10
2.277942
 20
5.33256
 30
0.0
 11
2.276841
 21
5.33256
 31
0.0
  0
LINE
  5
336
100
AcDbEntity
 67
     1
  8
1
390
0
  6
Continuous
 62
     7
100
AcDbLine
 10
2.226801
 20
5.33256
 30
0.0
 11
2.2257
 21
5.33256
 31
0.0
  0
LINE
  5
337
100
AcDbEntity
 67
     1
  8
1
390
0
  6
Continuous
 62
     7
100
AcDbLine
 10
2.17566
 20
5.33256
 30
0.0
 11
2.174559
 21
5.33256
 31
0.0
  0
LINE
  5
338
100
AcDbEntity
 67
     1
  8
1
390
0
  6
Continuous
 62
     7
100
AcDbLine
 10
2.124519
 20
5.33256
 30
0.0
 11
2.123418
 21
5.33256
 31
0.0
  0
LINE
  5
339
100
AcDbEntity
 67
     1
  8
1
390
0
  6
Continuous
 62
     7
100
AcDbLine
 10
2.073377
 20
5.33256
 30
0.0
 11
2.072276
 21
5.33256
 31
0.0
  0
LINE
  5
33A
100
AcDbEntity
 67
     1
  8
1
390
0
  6
Continuous
 62
     7
100
AcDbLine
 10
2.022236
 20
5.33256
 30
0.0
 11
2.021135
 21
5.33256
 31
0.0
  0
LINE
  5
33B
100
AcDbEntity
 67
     1
  8
1
390
0
  6
Continuous
 62
     7
100
AcDbLine
 10
3.197934
 20
7.265834
 30
0.0
 11
3.197383
 21
7.265834
 31
0.0
  0
LINE
  5
33C
100
AcDbEntity
 67
     1
  8
1
390
0
  6
Continuous
 62
     7
100
AcDbLine
 10
3.147343
 20
7.265834
 30
0.0
 11
3.146242
 21
7.265834
 31
0.0
  0
LINE
  5
33D
100
AcDbEntity
 67
     1
  8
1
390
0
  6
Continuous
 62
     7
100
AcDbLine
 10
3.096202
 20
7.265834
 30
0.0
 11
3.095101
 21
7.265834
 31
0.0
  0
LINE
  5
33E
100
AcDbEntity
 67
     1
  8
1
390
0
  6
Continuous
 62
     7
100
AcDbLine
 10
3.045061
 20
7.265834
 30
0.0
 11
3.04396
 21
7.265834
 31
0.0
  0
LINE
  5
33F
100
AcDbEntity
 67
     1
  8
1
390
0
  6
Continuous
 62
     7
100
AcDbLine
 10
2.993919
 20
7.265834
 30
0.0
 11
2.992819
 21
7.265834
 31
0.0
  0
LINE
  5
340
100
AcDbEntity
 67
     1
  8
1
390
0
  6
Continuous
 62
     7
100
AcDbLine
 10
2.942778
 20
7.265834
 30
0.0
 11
2.941677
 21
7.265834
 31
0.0
  0
LINE
  5
341
100
AcDbEntity
 67
     1
  8
1
390
0
  6
Continuous
 62
     7
100
AcDbLine
 10
2.891637
 20
7.265834
 30
0.0
 11
2.890536
 21
7.265834
 31
0.0
  0
LINE
  5
342
100
AcDbEntity
 67
     1
  8
1
390
0
  6
Continuous
 62
     7
100
AcDbLine
 10
2.840496
 20
7.265834
 30
0.0
 11
2.839395
 21
7.265834
 31
0.0
  0
LINE
  5
343
100
AcDbEntity
 67
     1
  8
1
390
0
  6
Continuous
 62
     7
100
AcDbLine
 10
2.789355
 20
7.265834
 30
0.0
 11
2.788254
 21
7.265834
 31
0.0
  0
LINE
  5
344
100
AcDbEntity
 67
     1
  8
1
390
0
  6
Continuous
 62
     7
100
AcDbLine
 10
2.738213
 20
7.265834
 30
0.0
 11
2.737112
 21
7.265834
 31
0.0
  0
LINE
  5
345
100
AcDbEntity
 67
     1
  8
1
390
0
  6
Continuous
 62
     7
100
AcDbLine
 10
2.687072
 20
7.265834
 30
0.0
 11
2.685971
 21
7.265834
 31
0.0
  0
LINE
  5
346
100
AcDbEntity
 67
     1
  8
1
390
0
  6
Continuous
 62
     7
100
AcDbLine
 10
2.635931
 20
7.265834
 30
0.0
 11
2.63483
 21
7.265834
 31
0.0
  0
LINE
  5
347
100
AcDbEntity
 67
     1
  8
1
390
0
  6
Continuous
 62
     7
100
AcDbLine
 10
2.58479
 20
7.265834
 30
0.0
 11
2.583689
 21
7.265834
 31
0.0
  0
LINE
  5
348
100
AcDbEntity
 67
     1
  8
1
390
0
  6
Continuous
 62
     7
100
AcDbLine
 10
2.533648
 20
7.265834
 30
0.0
 11
2.532547
 21
7.265834
 31
0.0
  0
LINE
  5
349
100
AcDbEntity
 67
     1
  8
1
390
0
  6
Continuous
 62
     7
100
AcDbLine
 10
2.482507
 20
7.265834
 30
0.0
 11
2.481406
 21
7.265834
 31
0.0
  0
LINE
  5
34A
100
AcDbEntity
 67
     1
  8
1
390
0
  6
Continuous
 62
     7
100
AcDbLine
 10
2.431366
 20
7.265834
 30
0.0
 11
2.430265
 21
7.265834
 31
0.0
  0
LINE
  5
34B
100
AcDbEntity
 67
     1
  8
1
390
0
  6
Continuous
 62
     7
100
AcDbLine
 10
2.380225
 20
7.265834
 30
0.0
 11
2.379124
 21
7.265834
 31
0.0
  0
LINE
  5
34C
100
AcDbEntity
 67
     1
  8
1
390
0
  6
Continuous
 62
     7
100
AcDbLine
 10
2.329083
 20
7.265834
 30
0.0
 11
2.327983
 21
7.265834
 31
0.0
  0
LINE
  5
34D
100
AcDbEntity
 67
     1
  8
1
390
0
  6
Continuous
 62
     7
100
AcDbLine
 10
2.277942
 20
7.265834
 30
0.0
 11
2.276841
 21
7.265834
 31
0.0
  0
LINE
  5
34E
100
AcDbEntity
 67
     1
  8
1
390
0
  6
Continuous
 62
     7
100
AcDbLine
 10
2.226801
 20
7.265834
 30
0.0
 11
2.2257
 21
7.265834
 31
0.0
  0
LINE
  5
34F
100
AcDbEntity
 67
     1
  8
1
390
0
  6
Continuous
 62
     7
100
AcDbLine
 10
2.17566
 20
7.265834
 30
0.0
 11
2.174559
 21
7.265834
 31
0.0
  0
LINE
  5
350
100
AcDbEntity
 67
     1
  8
1
390
0
  6
Continuous
 62
     7
100
AcDbLine
 10
2.124519
 20
7.265834
 30
0.0
 11
2.123418
 21
7.265834
 31
0.0
  0
LINE
  5
351
100
AcDbEntity
 67
     1
  8
1
390
0
  6
Continuous
 62
     7
100
AcDbLine
 10
2.073377
 20
7.265834
 30
0.0
 11
2.072276
 21
7.265834
 31
0.0
  0
LINE
  5
352
100
AcDbEntity
 67
     1
  8
1
390
0
  6
Continuous
 62
     7
100
AcDbLine
 10
2.022236
 20
7.265834
 30
0.0
 11
2.021135
 21
7.265834
 31
0.0
  0
LINE
  5
353
100
AcDbEntity
 67
     1
  8
1
390
0
  6
Continuous
 62
     7
100
AcDbLine
 10
3.847626
 20
6.269197
 30
0.0
 11
4.071091
 21
6.269197
 31
0.0
  0
LINE
  5
354
100
AcDbEntity
 67
     1
  8
1
390
0
  6
Continuous
 62
     7
100
AcDbLine
 10
3.837626
 20
6.259197
 30
0.0
 11
3.837626
 21
6.255562
 31
0.0
  0
LINE
  5
355
100
AcDbEntity
 67
     1
  8
1
390
0
  6
Continuous
 62
     7
100
AcDbLine
 10
3.747048
 20
6.281877
 30
0.0
 11
3.815126
 21
6.242571
 31
0.0
  0
LINE
  5
356
100
AcDbEntity
 67
     1
  8
1
390
0
  6
Continuous
 62
     7
100
AcDbLine
 10
3.747048
 20
6.316517
 30
0.0
 11
3.815126
 21
6.355823
 31
0.0
  0
LINE
  5
357
100
AcDbEntity
 67
     1
  8
1
390
0
  6
Continuous
 62
     7
100
AcDbLine
 10
3.837626
 20
6.339197
 30
0.0
 11
3.837626
 21
6.342832
 31
0.0
  0
LINE
  5
358
100
AcDbEntity
 67
     1
  8
1
390
0
  6
Continuous
 62
     7
100
AcDbLine
 10
3.847626
 20
6.329197
 30
0.0
 11
4.071091
 21
6.329197
 31
0.0
  0
LINE
  5
359
100
AcDbEntity
 67
     1
  8
1
390
0
  6
Continuous
 62
     7
100
AcDbLine
 10
3.712463
 20
6.75391
 30
0.0
 11
3.255005
 21
7.180497
 31
0.0
  0
LINE
  5
35A
100
AcDbEntity
 67
     1
  8
1
390
0
  6
Continuous
 62
     7
100
AcDbLine
 10
3.657903
 20
6.695402
 30
0.0
 11
3.200445
 21
7.121988
 31
0.0
  0
LINE
  5
35B
100
AcDbEntity
 67
     1
  8
1
390
0
  6
Continuous
 62
     7
100
AcDbLine
 10
3.657903
 20
5.902993
 30
0.0
 11
3.200445
 21
5.476406
 31
0.0
  0
LINE
  5
35C
100
AcDbEntity
 67
     1
  8
1
390
0
  6
Continuous
 62
     7
100
AcDbLine
 10
3.712463
 20
5.844484
 30
0.0
 11
3.255005
 21
5.417897
 31
0.0
  0
LINE
  5
35D
100
AcDbEntity
 67
     1
  8
1
390
0
  6
Continuous
 62
     7
100
AcDbLine
 10
1.913976
 20
7.170836
 30
0.0
 11
2.418261
 21
6.666551
 31
0.0
  0
LINE
  5
35E
100
AcDbEntity
 67
     1
  8
1
390
0
  6
Continuous
 62
     7
100
AcDbLine
 10
2.427048
 20
5.953057
 30
0.0
 11
2.427048
 21
6.645338
 31
0.0
  0
LINE
  5
35F
100
AcDbEntity
 67
     1
  8
1
390
0
  6
Continuous
 62
     7
100
AcDbLine
 10
1.913976
 20
5.427558
 30
0.0
 11
2.418261
 21
5.931843
 31
0.0
  0
LINE
  5
360
100
AcDbEntity
 67
     1
  8
1
390
0
  6
Continuous
 62
     7
100
AcDbLine
 10
1.970544
 20
5.37099
 30
0.0
 11
2.47483
 21
5.875275
 31
0.0
  0
LINE
  5
361
100
AcDbEntity
 67
     1
  8
1
390
0
  6
Continuous
 62
     7
100
AcDbLine
 10
2.507048
 20
6.160562
 30
0.0
 11
2.507048
 21
5.953057
 31
0.0
  0
LINE
  5
362
100
AcDbEntity
 67
     1
  8
1
390
0
  6
Continuous
 62
     7
100
AcDbLine
 10
2.762426
 20
6.190562
 30
0.0
 11
2.537048
 21
6.190562
 31
0.0
  0
LINE
  5
363
100
AcDbEntity
 67
     1
  8
1
390
0
  6
Continuous
 62
     7
100
AcDbLine
 10
2.769821
 20
6.218612
 30
0.0
 11
2.684252
 21
6.267101
 31
0.0
  0
LINE
  5
364
100
AcDbEntity
 67
     1
  8
1
390
0
  6
Continuous
 62
     7
100
AcDbLine
 10
2.669322
 20
6.258401
 30
0.0
 11
2.669322
 21
6.240562
 31
0.0
  0
LINE
  5
365
100
AcDbEntity
 67
     1
  8
1
390
0
  6
Continuous
 62
     7
100
AcDbLine
 10
2.659322
 20
6.230562
 30
0.0
 11
2.537048
 21
6.230562
 31
0.0
  0
LINE
  5
366
100
AcDbEntity
 67
     1
  8
1
390
0
  6
Continuous
 62
     7
100
AcDbLine
 10
2.507048
 20
6.337832
 30
0.0
 11
2.507048
 21
6.260562
 31
0.0
  0
LINE
  5
367
100
AcDbEntity
 67
     1
  8
1
390
0
  6
Continuous
 62
     7
100
AcDbLine
 10
2.659322
 20
6.367832
 30
0.0
 11
2.537048
 21
6.367832
 31
0.0
  0
LINE
  5
368
100
AcDbEntity
 67
     1
  8
1
390
0
  6
Continuous
 62
     7
100
AcDbLine
 10
2.669322
 20
6.339993
 30
0.0
 11
2.669322
 21
6.357832
 31
0.0
  0
LINE
  5
369
100
AcDbEntity
 67
     1
  8
1
390
0
  6
Continuous
 62
     7
100
AcDbLine
 10
2.769821
 20
6.379782
 30
0.0
 11
2.684252
 21
6.331293
 31
0.0
  0
LINE
  5
36A
100
AcDbEntity
 67
     1
  8
1
390
0
  6
Continuous
 62
     7
100
AcDbLine
 10
2.762426
 20
6.407832
 30
0.0
 11
2.537048
 21
6.407832
 31
0.0
  0
LINE
  5
36B
100
AcDbEntity
 67
     1
  8
1
390
0
  6
Continuous
 62
     7
100
AcDbLine
 10
2.507048
 20
6.437832
 30
0.0
 11
2.507048
 21
6.645338
 31
0.0
  0
LINE
  5
36C
100
AcDbEntity
 67
     1
  8
1
390
0
  6
Continuous
 62
     7
100
AcDbLine
 10
1.970544
 20
7.227404
 30
0.0
 11
2.47483
 21
6.723119
 31
0.0
  0
LINE
  5
36D
100
AcDbEntity
 67
     1
  8
1
390
0
  6
Continuous
 62
     7
100
AcDbLine
 10
7.058859
 20
6.268401
 30
0.0
 11
7.033859
 21
6.268401
 31
0.0
  0
LINE
  5
36E
100
AcDbEntity
 67
     1
  8
1
390
0
  6
Continuous
 62
     7
100
AcDbLine
 10
6.983859
 20
6.268401
 30
0.0
 11
6.933859
 21
6.268401
 31
0.0
  0
LINE
  5
36F
100
AcDbEntity
 67
     1
  8
1
390
0
  6
Continuous
 62
     7
100
AcDbLine
 10
6.883859
 20
6.268401
 30
0.0
 11
6.833858
 21
6.268401
 31
0.0
  0
LINE
  5
370
100
AcDbEntity
 67
     1
  8
1
390
0
  6
Continuous
 62
     7
100
AcDbLine
 10
6.783859
 20
6.268401
 30
0.0
 11
6.733859
 21
6.268401
 31
0.0
  0
LINE
  5
371
100
AcDbEntity
 67
     1
  8
1
390
0
  6
Continuous
 62
     7
100
AcDbLine
 10
6.683859
 20
6.268401
 30
0.0
 11
6.633859
 21
6.268401
 31
0.0
  0
LINE
  5
372
100
AcDbEntity
 67
     1
  8
1
390
0
  6
Continuous
 62
     7
100
AcDbLine
 10
6.583858
 20
6.268401
 30
0.0
 11
6.533859
 21
6.268401
 31
0.0
  0
LINE
  5
373
100
AcDbEntity
 67
     1
  8
1
390
0
  6
Continuous
 62
     7
100
AcDbLine
 10
6.483859
 20
6.268401
 30
0.0
 11
6.433859
 21
6.268401
 31
0.0
  0
LINE
  5
374
100
AcDbEntity
 67
     1
  8
1
390
0
  6
Continuous
 62
     7
100
AcDbLine
 10
6.383859
 20
6.268401
 30
0.0
 11
6.333858
 21
6.268401
 31
0.0
  0
LINE
  5
375
100
AcDbEntity
 67
     1
  8
1
390
0
  6
Continuous
 62
     7
100
AcDbLine
 10
6.283859
 20
6.268401
 30
0.0
 11
6.233859
 21
6.268401
 31
0.0
  0
LINE
  5
376
100
AcDbEntity
 67
     1
  8
1
390
0
  6
Continuous
 62
     7
100
AcDbLine
 10
6.183859
 20
6.268401
 30
0.0
 11
6.133859
 21
6.268401
 31
0.0
  0
LINE
  5
377
100
AcDbEntity
 67
     1
  8
1
390
0
  6
Continuous
 62
     7
100
AcDbLine
 10
6.083858
 20
6.268401
 30
0.0
 11
6.033859
 21
6.268401
 31
0.0
  0
LINE
  5
378
100
AcDbEntity
 67
     1
  8
1
390
0
  6
Continuous
 62
     7
100
AcDbLine
 10
5.983859
 20
6.268401
 30
0.0
 11
5.933859
 21
6.268401
 31
0.0
  0
LINE
  5
379
100
AcDbEntity
 67
     1
  8
1
390
0
  6
Continuous
 62
     7
100
AcDbLine
 10
5.883859
 20
6.268401
 30
0.0
 11
5.833858
 21
6.268401
 31
0.0
  0
LINE
  5
37A
100
AcDbEntity
 67
     1
  8
1
390
0
  6
Continuous
 62
     7
100
AcDbLine
 10
5.783859
 20
6.268401
 30
0.0
 11
5.733859
 21
6.268401
 31
0.0
  0
LINE
  5
37B
100
AcDbEntity
 67
     1
  8
1
390
0
  6
Continuous
 62
     7
100
AcDbLine
 10
5.683859
 20
6.268401
 30
0.0
 11
5.633859
 21
6.268401
 31
0.0
  0
LINE
  5
37C
100
AcDbEntity
 67
     1
  8
1
390
0
  6
Continuous
 62
     7
100
AcDbLine
 10
5.583858
 20
6.268401
 30
0.0
 11
5.558859
 21
6.268401
 31
0.0
  0
LINE
  5
37D
100
AcDbEntity
 67
     1
  8
1
390
0
  6
Continuous
 62
     7
100
AcDbLine
 10
5.558859
 20
6.684656
 30
0.0
 11
5.583858
 21
6.684656
 31
0.0
  0
LINE
  5
37E
100
AcDbEntity
 67
     1
  8
1
390
0
  6
Continuous
 62
     7
100
AcDbLine
 10
5.633859
 20
6.684656
 30
0.0
 11
5.683859
 21
6.684656
 31
0.0
  0
LINE
  5
37F
100
AcDbEntity
 67
     1
  8
1
390
0
  6
Continuous
 62
     7
100
AcDbLine
 10
5.733859
 20
6.684656
 30
0.0
 11
5.783859
 21
6.684656
 31
0.0
  0
LINE
  5
380
100
AcDbEntity
 67
     1
  8
1
390
0
  6
Continuous
 62
     7
100
AcDbLine
 10
5.833858
 20
6.684656
 30
0.0
 11
5.883859
 21
6.684656
 31
0.0
  0
LINE
  5
381
100
AcDbEntity
 67
     1
  8
1
390
0
  6
Continuous
 62
     7
100
AcDbLine
 10
5.933859
 20
6.684656
 30
0.0
 11
5.983859
 21
6.684656
 31
0.0
  0
LINE
  5
382
100
AcDbEntity
 67
     1
  8
1
390
0
  6
Continuous
 62
     7
100
AcDbLine
 10
6.033859
 20
6.684656
 30
0.0
 11
6.083858
 21
6.684656
 31
0.0
  0
LINE
  5
383
100
AcDbEntity
 67
     1
  8
1
390
0
  6
Continuous
 62
     7
100
AcDbLine
 10
6.133859
 20
6.684656
 30
0.0
 11
6.183859
 21
6.684656
 31
0.0
  0
LINE
  5
384
100
AcDbEntity
 67
     1
  8
1
390
0
  6
Continuous
 62
     7
100
AcDbLine
 10
6.233859
 20
6.684656
 30
0.0
 11
6.283859
 21
6.684656
 31
0.0
  0
LINE
  5
385
100
AcDbEntity
 67
     1
  8
1
390
0
  6
Continuous
 62
     7
100
AcDbLine
 10
6.333858
 20
6.684656
 30
0.0
 11
6.383859
 21
6.684656
 31
0.0
  0
LINE
  5
386
100
AcDbEntity
 67
     1
  8
1
390
0
  6
Continuous
 62
     7
100
AcDbLine
 10
6.433859
 20
6.684656
 30
0.0
 11
6.483859
 21
6.684656
 31
0.0
  0
LINE
  5
387
100
AcDbEntity
 67
     1
  8
1
390
0
  6
Continuous
 62
     7
100
AcDbLine
 10
6.533859
 20
6.684656
 30
0.0
 11
6.583858
 21
6.684656
 31
0.0
  0
LINE
  5
388
100
AcDbEntity
 67
     1
  8
1
390
0
  6
Continuous
 62
     7
100
AcDbLine
 10
6.633859
 20
6.684656
 30
0.0
 11
6.683859
 21
6.684656
 31
0.0
  0
LINE
  5
389
100
AcDbEntity
 67
     1
  8
1
390
0
  6
Continuous
 62
     7
100
AcDbLine
 10
6.733859
 20
6.684656
 30
0.0
 11
6.783859
 21
6.684656
 31
0.0
  0
LINE
  5
38A
100
AcDbEntity
 67
     1
  8
1
390
0
  6
Continuous
 62
     7
100
AcDbLine
 10
6.833858
 20
6.684656
 30
0.0
 11
6.883859
 21
6.684656
 31
0.0
  0
LINE
  5
38B
100
AcDbEntity
 67
     1
  8
1
390
0
  6
Continuous
 62
     7
100
AcDbLine
 10
6.933859
 20
6.684656
 30
0.0
 11
6.983859
 21
6.684656
 31
0.0
  0
LINE
  5
38C
100
AcDbEntity
 67
     1
  8
1
390
0
  6
Continuous
 62
     7
100
AcDbLine
 10
7.033859
 20
6.684656
 30
0.0
 11
7.058859
 21
6.684656
 31
0.0
  0
LINE
  5
38D
100
AcDbEntity
 67
     1
  8
1
390
0
  6
Continuous
 62
     7
100
AcDbLine
 10
7.058859
 20
5.913738
 30
0.0
 11
7.033859
 21
5.913738
 31
0.0
  0
LINE
  5
38E
100
AcDbEntity
 67
     1
  8
1
390
0
  6
Continuous
 62
     7
100
AcDbLine
 10
6.983859
 20
5.913738
 30
0.0
 11
6.933859
 21
5.913738
 31
0.0
  0
LINE
  5
38F
100
AcDbEntity
 67
     1
  8
1
390
0
  6
Continuous
 62
     7
100
AcDbLine
 10
6.883859
 20
5.913738
 30
0.0
 11
6.833858
 21
5.913738
 31
0.0
  0
LINE
  5
390
100
AcDbEntity
 67
     1
  8
1
390
0
  6
Continuous
 62
     7
100
AcDbLine
 10
6.783859
 20
5.913738
 30
0.0
 11
6.733859
 21
5.913738
 31
0.0
  0
LINE
  5
391
100
AcDbEntity
 67
     1
  8
1
390
0
  6
Continuous
 62
     7
100
AcDbLine
 10
6.683859
 20
5.913738
 30
0.0
 11
6.633859
 21
5.913738
 31
0.0
  0
LINE
  5
392
100
AcDbEntity
 67
     1
  8
1
390
0
  6
Continuous
 62
     7
100
AcDbLine
 10
6.583858
 20
5.913738
 30
0.0
 11
6.533859
 21
5.913738
 31
0.0
  0
LINE
  5
393
100
AcDbEntity
 67
     1
  8
1
390
0
  6
Continuous
 62
     7
100
AcDbLine
 10
6.483859
 20
5.913738
 30
0.0
 11
6.433859
 21
5.913738
 31
0.0
  0
LINE
  5
394
100
AcDbEntity
 67
     1
  8
1
390
0
  6
Continuous
 62
     7
100
AcDbLine
 10
6.383859
 20
5.913738
 30
0.0
 11
6.333858
 21
5.913738
 31
0.0
  0
LINE
  5
395
100
AcDbEntity
 67
     1
  8
1
390
0
  6
Continuous
 62
     7
100
AcDbLine
 10
6.283859
 20
5.913738
 30
0.0
 11
6.233859
 21
5.913738
 31
0.0
  0
LINE
  5
396
100
AcDbEntity
 67
     1
  8
1
390
0
  6
Continuous
 62
     7
100
AcDbLine
 10
6.183859
 20
5.913738
 30
0.0
 11
6.133859
 21
5.913738
 31
0.0
  0
LINE
  5
397
100
AcDbEntity
 67
     1
  8
1
390
0
  6
Continuous
 62
     7
100
AcDbLine
 10
6.083858
 20
5.913738
 30
0.0
 11
6.033859
 21
5.913738
 31
0.0
  0
LINE
  5
398
100
AcDbEntity
 67
     1
  8
1
390
0
  6
Continuous
 62
     7
100
AcDbLine
 10
5.983859
 20
5.913738
 30
0.0
 11
5.933859
 21
5.913738
 31
0.0
  0
LINE
  5
399
100
AcDbEntity
 67
     1
  8
1
390
0
  6
Continuous
 62
     7
100
AcDbLine
 10
5.883859
 20
5.913738
 30
0.0
 11
5.833858
 21
5.913738
 31
0.0
  0
LINE
  5
39A
100
AcDbEntity
 67
     1
  8
1
390
0
  6
Continuous
 62
     7
100
AcDbLine
 10
5.783859
 20
5.913738
 30
0.0
 11
5.733859
 21
5.913738
 31
0.0
  0
LINE
  5
39B
100
AcDbEntity
 67
     1
  8
1
390
0
  6
Continuous
 62
     7
100
AcDbLine
 10
5.683859
 20
5.913738
 30
0.0
 11
5.633859
 21
5.913738
 31
0.0
  0
LINE
  5
39C
100
AcDbEntity
 67
     1
  8
1
390
0
  6
Continuous
 62
     7
100
AcDbLine
 10
5.583858
 20
5.913738
 30
0.0
 11
5.558859
 21
5.913738
 31
0.0
  0
LINE
  5
39D
100
AcDbEntity
 67
     1
  8
1
390
0
  6
Continuous
 62
     7
100
AcDbLine
 10
5.558859
 20
5.30327
 30
0.0
 11
7.058859
 21
5.30327
 31
0.0
  0
LINE
  5
39E
100
AcDbEntity
 67
     1
  8
1
390
0
  6
Continuous
 62
     7
100
AcDbLine
 10
7.058859
 20
7.295124
 30
0.0
 11
5.558859
 21
7.295124
 31
0.0
  0
LINE
  5
39F
100
AcDbEntity
 67
     1
  8
1
390
0
  6
Continuous
 62
     7
100
AcDbLine
 10
5.558859
 20
7.294671
 30
0.0
 11
7.058859
 21
7.294671
 31
0.0
  0
LINE
  5
3A0
100
AcDbEntity
 67
     1
  8
1
390
0
  6
Continuous
 62
     7
100
AcDbLine
 10
7.058859
 20
7.295124
 30
0.0
 11
7.058859
 21
7.295011
 31
0.0
  0
LINE
  5
3A1
100
AcDbEntity
 67
     1
  8
1
390
0
  6
Continuous
 62
     7
100
AcDbLine
 10
7.058859
 20
7.295011
 30
0.0
 11
7.058859
 21
7.294671
 31
0.0
  0
LINE
  5
3A2
100
AcDbEntity
 67
     1
  8
1
390
0
  6
Continuous
 62
     7
100
AcDbLine
 10
5.558859
 20
7.295124
 30
0.0
 11
5.558859
 21
7.295011
 31
0.0
  0
LINE
  5
3A3
100
AcDbEntity
 67
     1
  8
1
390
0
  6
Continuous
 62
     7
100
AcDbLine
 10
5.558859
 20
7.295011
 30
0.0
 11
5.558859
 21
7.294671
 31
0.0
  0
LINE
  5
3A4
100
AcDbEntity
 67
     1
  8
1
390
0
  6
Continuous
 62
     7
100
AcDbLine
 10
5.558859
 20
5.303723
 30
0.0
 11
7.058859
 21
5.303723
 31
0.0
  0
LINE
  5
3A5
100
AcDbEntity
 67
     1
  8
1
390
0
  6
Continuous
 62
     7
100
AcDbLine
 10
7.058859
 20
7.294671
 30
0.0
 11
7.058859
 21
7.281689
 31
0.0
  0
LINE
  5
3A6
100
AcDbEntity
 67
     1
  8
1
390
0
  6
Continuous
 62
     7
100
AcDbLine
 10
7.058859
 20
7.281689
 30
0.0
 11
7.058859
 21
7.260355
 31
0.0
  0
LINE
  5
3A7
100
AcDbEntity
 67
     1
  8
1
390
0
  6
Continuous
 62
     7
100
AcDbLine
 10
7.058859
 20
7.260355
 30
0.0
 11
7.058859
 21
7.230852
 31
0.0
  0
LINE
  5
3A8
100
AcDbEntity
 67
     1
  8
1
390
0
  6
Continuous
 62
     7
100
AcDbLine
 10
7.058859
 20
7.230852
 30
0.0
 11
7.058859
 21
7.19343
 31
0.0
  0
LINE
  5
3A9
100
AcDbEntity
 67
     1
  8
1
390
0
  6
Continuous
 62
     7
100
AcDbLine
 10
7.058859
 20
7.19343
 30
0.0
 11
7.058859
 21
7.148408
 31
0.0
  0
LINE
  5
3AA
100
AcDbEntity
 67
     1
  8
1
390
0
  6
Continuous
 62
     7
100
AcDbLine
 10
7.058859
 20
7.148408
 30
0.0
 11
7.058859
 21
7.096168
 31
0.0
  0
LINE
  5
3AB
100
AcDbEntity
 67
     1
  8
1
390
0
  6
Continuous
 62
     7
100
AcDbLine
 10
7.058859
 20
7.096168
 30
0.0
 11
7.058859
 21
7.037153
 31
0.0
  0
LINE
  5
3AC
100
AcDbEntity
 67
     1
  8
1
390
0
  6
Continuous
 62
     7
100
AcDbLine
 10
7.058859
 20
7.037153
 30
0.0
 11
7.058859
 21
6.971866
 31
0.0
  0
LINE
  5
3AD
100
AcDbEntity
 67
     1
  8
1
390
0
  6
Continuous
 62
     7
100
AcDbLine
 10
7.058859
 20
6.971866
 30
0.0
 11
7.058859
 21
6.900862
 31
0.0
  0
LINE
  5
3AE
100
AcDbEntity
 67
     1
  8
1
390
0
  6
Continuous
 62
     7
100
AcDbLine
 10
7.058859
 20
6.900862
 30
0.0
 11
7.058859
 21
6.824744
 31
0.0
  0
LINE
  5
3AF
100
AcDbEntity
 67
     1
  8
1
390
0
  6
Continuous
 62
     7
100
AcDbLine
 10
7.058859
 20
6.824744
 30
0.0
 11
7.058859
 21
6.744159
 31
0.0
  0
LINE
  5
3B0
100
AcDbEntity
 67
     1
  8
1
390
0
  6
Continuous
 62
     7
100
AcDbLine
 10
7.058859
 20
6.744159
 30
0.0
 11
7.058859
 21
6.659791
 31
0.0
  0
LINE
  5
3B1
100
AcDbEntity
 67
     1
  8
1
390
0
  6
Continuous
 62
     7
100
AcDbLine
 10
7.058859
 20
6.659791
 30
0.0
 11
7.058859
 21
6.57236
 31
0.0
  0
LINE
  5
3B2
100
AcDbEntity
 67
     1
  8
1
390
0
  6
Continuous
 62
     7
100
AcDbLine
 10
7.058859
 20
6.57236
 30
0.0
 11
7.058859
 21
6.482605
 31
0.0
  0
LINE
  5
3B3
100
AcDbEntity
 67
     1
  8
1
390
0
  6
Continuous
 62
     7
100
AcDbLine
 10
7.058859
 20
6.482605
 30
0.0
 11
7.058859
 21
6.391293
 31
0.0
  0
LINE
  5
3B4
100
AcDbEntity
 67
     1
  8
1
390
0
  6
Continuous
 62
     7
100
AcDbLine
 10
7.058859
 20
6.391293
 30
0.0
 11
7.058859
 21
6.299197
 31
0.0
  0
LINE
  5
3B5
100
AcDbEntity
 67
     1
  8
1
390
0
  6
Continuous
 62
     7
100
AcDbLine
 10
7.058859
 20
6.299197
 30
0.0
 11
7.058859
 21
6.207101
 31
0.0
  0
LINE
  5
3B6
100
AcDbEntity
 67
     1
  8
1
390
0
  6
Continuous
 62
     7
100
AcDbLine
 10
7.058859
 20
6.207101
 30
0.0
 11
7.058859
 21
6.115788
 31
0.0
  0
LINE
  5
3B7
100
AcDbEntity
 67
     1
  8
1
390
0
  6
Continuous
 62
     7
100
AcDbLine
 10
7.058859
 20
6.115788
 30
0.0
 11
7.058859
 21
6.026035
 31
0.0
  0
LINE
  5
3B8
100
AcDbEntity
 67
     1
  8
1
390
0
  6
Continuous
 62
     7
100
AcDbLine
 10
7.058859
 20
6.026035
 30
0.0
 11
7.058859
 21
5.938602
 31
0.0
  0
LINE
  5
3B9
100
AcDbEntity
 67
     1
  8
1
390
0
  6
Continuous
 62
     7
100
AcDbLine
 10
7.058859
 20
5.938602
 30
0.0
 11
7.058859
 21
5.854235
 31
0.0
  0
LINE
  5
3BA
100
AcDbEntity
 67
     1
  8
1
390
0
  6
Continuous
 62
     7
100
AcDbLine
 10
7.058859
 20
5.854235
 30
0.0
 11
7.058859
 21
5.77365
 31
0.0
  0
LINE
  5
3BB
100
AcDbEntity
 67
     1
  8
1
390
0
  6
Continuous
 62
     7
100
AcDbLine
 10
7.058859
 20
5.77365
 30
0.0
 11
7.058859
 21
5.697532
 31
0.0
  0
LINE
  5
3BC
100
AcDbEntity
 67
     1
  8
1
390
0
  6
Continuous
 62
     7
100
AcDbLine
 10
7.058859
 20
5.697532
 30
0.0
 11
7.058859
 21
5.626528
 31
0.0
  0
LINE
  5
3BD
100
AcDbEntity
 67
     1
  8
1
390
0
  6
Continuous
 62
     7
100
AcDbLine
 10
7.058859
 20
5.626528
 30
0.0
 11
7.058859
 21
5.561241
 31
0.0
  0
LINE
  5
3BE
100
AcDbEntity
 67
     1
  8
1
390
0
  6
Continuous
 62
     7
100
AcDbLine
 10
7.058859
 20
5.561241
 30
0.0
 11
7.058859
 21
5.502226
 31
0.0
  0
LINE
  5
3BF
100
AcDbEntity
 67
     1
  8
1
390
0
  6
Continuous
 62
     7
100
AcDbLine
 10
7.058859
 20
5.502226
 30
0.0
 11
7.058859
 21
5.449986
 31
0.0
  0
LINE
  5
3C0
100
AcDbEntity
 67
     1
  8
1
390
0
  6
Continuous
 62
     7
100
AcDbLine
 10
7.058859
 20
5.449986
 30
0.0
 11
7.058859
 21
5.404963
 31
0.0
  0
LINE
  5
3C1
100
AcDbEntity
 67
     1
  8
1
390
0
  6
Continuous
 62
     7
100
AcDbLine
 10
7.058859
 20
5.404963
 30
0.0
 11
7.058859
 21
5.367542
 31
0.0
  0
LINE
  5
3C2
100
AcDbEntity
 67
     1
  8
1
390
0
  6
Continuous
 62
     7
100
AcDbLine
 10
7.058859
 20
5.367542
 30
0.0
 11
7.058859
 21
5.338039
 31
0.0
  0
LINE
  5
3C3
100
AcDbEntity
 67
     1
  8
1
390
0
  6
Continuous
 62
     7
100
AcDbLine
 10
7.058859
 20
5.338039
 30
0.0
 11
7.058859
 21
5.316705
 31
0.0
  0
LINE
  5
3C4
100
AcDbEntity
 67
     1
  8
1
390
0
  6
Continuous
 62
     7
100
AcDbLine
 10
7.058859
 20
5.316705
 30
0.0
 11
7.058859
 21
5.303723
 31
0.0
  0
LINE
  5
3C5
100
AcDbEntity
 67
     1
  8
1
390
0
  6
Continuous
 62
     7
100
AcDbLine
 10
5.558859
 20
7.294671
 30
0.0
 11
5.558859
 21
7.281689
 31
0.0
  0
LINE
  5
3C6
100
AcDbEntity
 67
     1
  8
1
390
0
  6
Continuous
 62
     7
100
AcDbLine
 10
5.558859
 20
7.281689
 30
0.0
 11
5.558859
 21
7.260355
 31
0.0
  0
LINE
  5
3C7
100
AcDbEntity
 67
     1
  8
1
390
0
  6
Continuous
 62
     7
100
AcDbLine
 10
5.558859
 20
7.260355
 30
0.0
 11
5.558859
 21
7.230852
 31
0.0
  0
LINE
  5
3C8
100
AcDbEntity
 67
     1
  8
1
390
0
  6
Continuous
 62
     7
100
AcDbLine
 10
5.558859
 20
7.230852
 30
0.0
 11
5.558859
 21
7.19343
 31
0.0
  0
LINE
  5
3C9
100
AcDbEntity
 67
     1
  8
1
390
0
  6
Continuous
 62
     7
100
AcDbLine
 10
5.558859
 20
7.19343
 30
0.0
 11
5.558859
 21
7.148408
 31
0.0
  0
LINE
  5
3CA
100
AcDbEntity
 67
     1
  8
1
390
0
  6
Continuous
 62
     7
100
AcDbLine
 10
5.558859
 20
7.148408
 30
0.0
 11
5.558859
 21
7.096168
 31
0.0
  0
LINE
  5
3CB
100
AcDbEntity
 67
     1
  8
1
390
0
  6
Continuous
 62
     7
100
AcDbLine
 10
5.558859
 20
7.096168
 30
0.0
 11
5.558859
 21
7.037153
 31
0.0
  0
LINE
  5
3CC
100
AcDbEntity
 67
     1
  8
1
390
0
  6
Continuous
 62
     7
100
AcDbLine
 10
5.558859
 20
7.037153
 30
0.0
 11
5.558859
 21
6.971866
 31
0.0
  0
LINE
  5
3CD
100
AcDbEntity
 67
     1
  8
1
390
0
  6
Continuous
 62
     7
100
AcDbLine
 10
5.558859
 20
6.971866
 30
0.0
 11
5.558859
 21
6.900862
 31
0.0
  0
LINE
  5
3CE
100
AcDbEntity
 67
     1
  8
1
390
0
  6
Continuous
 62
     7
100
AcDbLine
 10
5.558859
 20
6.900862
 30
0.0
 11
5.558859
 21
6.824744
 31
0.0
  0
LINE
  5
3CF
100
AcDbEntity
 67
     1
  8
1
390
0
  6
Continuous
 62
     7
100
AcDbLine
 10
5.558859
 20
6.824744
 30
0.0
 11
5.558859
 21
6.744159
 31
0.0
  0
LINE
  5
3D0
100
AcDbEntity
 67
     1
  8
1
390
0
  6
Continuous
 62
     7
100
AcDbLine
 10
5.558859
 20
6.744159
 30
0.0
 11
5.558859
 21
6.659791
 31
0.0
  0
LINE
  5
3D1
100
AcDbEntity
 67
     1
  8
1
390
0
  6
Continuous
 62
     7
100
AcDbLine
 10
5.558859
 20
6.659791
 30
0.0
 11
5.558859
 21
6.57236
 31
0.0
  0
LINE
  5
3D2
100
AcDbEntity
 67
     1
  8
1
390
0
  6
Continuous
 62
     7
100
AcDbLine
 10
5.558859
 20
6.57236
 30
0.0
 11
5.558859
 21
6.482605
 31
0.0
  0
LINE
  5
3D3
100
AcDbEntity
 67
     1
  8
1
390
0
  6
Continuous
 62
     7
100
AcDbLine
 10
5.558859
 20
6.482605
 30
0.0
 11
5.558859
 21
6.391293
 31
0.0
  0
LINE
  5
3D4
100
AcDbEntity
 67
     1
  8
1
390
0
  6
Continuous
 62
     7
100
AcDbLine
 10
5.558859
 20
6.391293
 30
0.0
 11
5.558859
 21
6.299197
 31
0.0
  0
LINE
  5
3D5
100
AcDbEntity
 67
     1
  8
1
390
0
  6
Continuous
 62
     7
100
AcDbLine
 10
5.558859
 20
6.299197
 30
0.0
 11
5.558859
 21
6.207101
 31
0.0
  0
LINE
  5
3D6
100
AcDbEntity
 67
     1
  8
1
390
0
  6
Continuous
 62
     7
100
AcDbLine
 10
5.558859
 20
6.207101
 30
0.0
 11
5.558859
 21
6.115788
 31
0.0
  0
LINE
  5
3D7
100
AcDbEntity
 67
     1
  8
1
390
0
  6
Continuous
 62
     7
100
AcDbLine
 10
5.558859
 20
6.115788
 30
0.0
 11
5.558859
 21
6.026035
 31
0.0
  0
LINE
  5
3D8
100
AcDbEntity
 67
     1
  8
1
390
0
  6
Continuous
 62
     7
100
AcDbLine
 10
5.558859
 20
6.026035
 30
0.0
 11
5.558859
 21
5.938602
 31
0.0
  0
LINE
  5
3D9
100
AcDbEntity
 67
     1
  8
1
390
0
  6
Continuous
 62
     7
100
AcDbLine
 10
5.558859
 20
5.938602
 30
0.0
 11
5.558859
 21
5.854235
 31
0.0
  0
LINE
  5
3DA
100
AcDbEntity
 67
     1
  8
1
390
0
  6
Continuous
 62
     7
100
AcDbLine
 10
5.558859
 20
5.854235
 30
0.0
 11
5.558859
 21
5.77365
 31
0.0
  0
LINE
  5
3DB
100
AcDbEntity
 67
     1
  8
1
390
0
  6
Continuous
 62
     7
100
AcDbLine
 10
5.558859
 20
5.77365
 30
0.0
 11
5.558859
 21
5.697532
 31
0.0
  0
LINE
  5
3DC
100
AcDbEntity
 67
     1
  8
1
390
0
  6
Continuous
 62
     7
100
AcDbLine
 10
5.558859
 20
5.697532
 30
0.0
 11
5.558859
 21
5.626528
 31
0.0
  0
LINE
  5
3DD
100
AcDbEntity
 67
     1
  8
1
390
0
  6
Continuous
 62
     7
100
AcDbLine
 10
5.558859
 20
5.626528
 30
0.0
 11
5.558859
 21
5.561241
 31
0.0
  0
LINE
  5
3DE
100
AcDbEntity
 67
     1
  8
1
390
0
  6
Continuous
 62
     7
100
AcDbLine
 10
5.558859
 20
5.561241
 30
0.0
 11
5.558859
 21
5.502226
 31
0.0
  0
LINE
  5
3DF
100
AcDbEntity
 67
     1
  8
1
390
0
  6
Continuous
 62
     7
100
AcDbLine
 10
5.558859
 20
5.502226
 30
0.0
 11
5.558859
 21
5.449986
 31
0.0
  0
LINE
  5
3E0
100
AcDbEntity
 67
     1
  8
1
390
0
  6
Continuous
 62
     7
100
AcDbLine
 10
5.558859
 20
5.449986
 30
0.0
 11
5.558859
 21
5.404963
 31
0.0
  0
LINE
  5
3E1
100
AcDbEntity
 67
     1
  8
1
390
0
  6
Continuous
 62
     7
100
AcDbLine
 10
5.558859
 20
5.404963
 30
0.0
 11
5.558859
 21
5.367542
 31
0.0
  0
LINE
  5
3E2
100
AcDbEntity
 67
     1
  8
1
390
0
  6
Continuous
 62
     7
100
AcDbLine
 10
5.558859
 20
5.367542
 30
0.0
 11
5.558859
 21
5.338039
 31
0.0
  0
LINE
  5
3E3
100
AcDbEntity
 67
     1
  8
1
390
0
  6
Continuous
 62
     7
100
AcDbLine
 10
5.558859
 20
5.338039
 30
0.0
 11
5.558859
 21
5.316705
 31
0.0
  0
LINE
  5
3E4
100
AcDbEntity
 67
     1
  8
1
390
0
  6
Continuous
 62
     7
100
AcDbLine
 10
5.558859
 20
5.316705
 30
0.0
 11
5.558859
 21
5.303723
 31
0.0
  0
LINE
  5
3E5
100
AcDbEntity
 67
     1
  8
1
390
0
  6
Continuous
 62
     7
100
AcDbLine
 10
7.058859
 20
5.30327
 30
0.0
 11
7.058859
 21
5.303383
 31
0.0
  0
LINE
  5
3E6
100
AcDbEntity
 67
     1
  8
1
390
0
  6
Continuous
 62
     7
100
AcDbLine
 10
7.058859
 20
5.303383
 30
0.0
 11
7.058859
 21
5.303723
 31
0.0
  0
LINE
  5
3E7
100
AcDbEntity
 67
     1
  8
1
390
0
  6
Continuous
 62
     7
100
AcDbLine
 10
5.558859
 20
5.30327
 30
0.0
 11
5.558859
 21
5.303383
 31
0.0
  0
LINE
  5
3E8
100
AcDbEntity
 67
     1
  8
1
390
0
  6
Continuous
 62
     7
100
AcDbLine
 10
5.558859
 20
5.303383
 30
0.0
 11
5.558859
 21
5.303723
 31
0.0
  0
LINE
  5
3E9
100
AcDbEntity
 67
     1
  8
1
390
0
  6
Continuous
 62
     7
100
AcDbLine
 10
5.558859
 20
6.331293
 30
0.0
 11
5.583858
 21
6.331293
 31
0.0
  0
LINE
  5
3EA
100
AcDbEntity
 67
     1
  8
1
390
0
  6
Continuous
 62
     7
100
AcDbLine
 10
5.633859
 20
6.331293
 30
0.0
 11
5.683859
 21
6.331293
 31
0.0
  0
LINE
  5
3EB
100
AcDbEntity
 67
     1
  8
1
390
0
  6
Continuous
 62
     7
100
AcDbLine
 10
5.733859
 20
6.331293
 30
0.0
 11
5.783859
 21
6.331293
 31
0.0
  0
LINE
  5
3EC
100
AcDbEntity
 67
     1
  8
1
390
0
  6
Continuous
 62
     7
100
AcDbLine
 10
5.833858
 20
6.331293
 30
0.0
 11
5.883859
 21
6.331293
 31
0.0
  0
LINE
  5
3ED
100
AcDbEntity
 67
     1
  8
1
390
0
  6
Continuous
 62
     7
100
AcDbLine
 10
5.933859
 20
6.331293
 30
0.0
 11
5.983859
 21
6.331293
 31
0.0
  0
LINE
  5
3EE
100
AcDbEntity
 67
     1
  8
1
390
0
  6
Continuous
 62
     7
100
AcDbLine
 10
6.033859
 20
6.331293
 30
0.0
 11
6.083858
 21
6.331293
 31
0.0
  0
LINE
  5
3EF
100
AcDbEntity
 67
     1
  8
1
390
0
  6
Continuous
 62
     7
100
AcDbLine
 10
6.133859
 20
6.331293
 30
0.0
 11
6.183859
 21
6.331293
 31
0.0
  0
LINE
  5
3F0
100
AcDbEntity
 67
     1
  8
1
390
0
  6
Continuous
 62
     7
100
AcDbLine
 10
6.233859
 20
6.331293
 30
0.0
 11
6.283859
 21
6.331293
 31
0.0
  0
LINE
  5
3F1
100
AcDbEntity
 67
     1
  8
1
390
0
  6
Continuous
 62
     7
100
AcDbLine
 10
6.333858
 20
6.331293
 30
0.0
 11
6.383859
 21
6.331293
 31
0.0
  0
LINE
  5
3F2
100
AcDbEntity
 67
     1
  8
1
390
0
  6
Continuous
 62
     7
100
AcDbLine
 10
6.433859
 20
6.331293
 30
0.0
 11
6.483859
 21
6.331293
 31
0.0
  0
LINE
  5
3F3
100
AcDbEntity
 67
     1
  8
1
390
0
  6
Continuous
 62
     7
100
AcDbLine
 10
6.533859
 20
6.331293
 30
0.0
 11
6.583858
 21
6.331293
 31
0.0
  0
LINE
  5
3F4
100
AcDbEntity
 67
     1
  8
1
390
0
  6
Continuous
 62
     7
100
AcDbLine
 10
6.633859
 20
6.331293
 30
0.0
 11
6.683859
 21
6.331293
 31
0.0
  0
LINE
  5
3F5
100
AcDbEntity
 67
     1
  8
1
390
0
  6
Continuous
 62
     7
100
AcDbLine
 10
6.733859
 20
6.331293
 30
0.0
 11
6.783859
 21
6.331293
 31
0.0
  0
LINE
  5
3F6
100
AcDbEntity
 67
     1
  8
1
390
0
  6
Continuous
 62
     7
100
AcDbLine
 10
6.833858
 20
6.331293
 30
0.0
 11
6.883859
 21
6.331293
 31
0.0
  0
LINE
  5
3F7
100
AcDbEntity
 67
     1
  8
1
390
0
  6
Continuous
 62
     7
100
AcDbLine
 10
6.933859
 20
6.331293
 30
0.0
 11
6.983859
 21
6.331293
 31
0.0
  0
LINE
  5
3F8
100
AcDbEntity
 67
     1
  8
1
390
0
  6
Continuous
 62
     7
100
AcDbLine
 10
7.033859
 20
6.331293
 30
0.0
 11
7.058859
 21
6.331293
 31
0.0
  0
LINE
  5
3F9
100
AcDbEntity
 67
     1
  8
1
390
0
  6
Continuous
 62
     7
100
AcDbLine
 10
8.73491
 20
7.494124
 30
0.0
 11
8.73491
 21
6.575565
 31
0.0
  0
LINE
  5
3FA
100
AcDbEntity
 67
     1
  8
1
390
0
  6
Continuous
 62
     7
100
AcDbLine
 10
9.638717
 20
7.129154
 30
0.0
 11
9.638717
 21
7.489874
 31
0.0
  0
LINE
  5
3FB
100
AcDbEntity
 67
     1
  8
1
390
0
  6
Continuous
 62
     7
100
AcDbLine
 10
9.738032
 20
7.127146
 30
0.0
 11
9.738032
 21
7.547214
 31
0.0
  0
LINE
  5
3FC
100
AcDbEntity
 67
     1
  8
1
390
0
  6
Continuous
 62
     7
100
AcDbLine
 10
9.647187
 20
7.556481
 30
0.0
 11
9.647187
 21
7.128978
 31
0.0
  0
LINE
  5
3FD
100
AcDbEntity
 67
     1
  8
1
390
0
  6
Continuous
 62
     7
100
AcDbLine
 10
10.650229
 20
6.471176
 30
0.0
 11
10.650229
 21
7.389735
 31
0.0
  0
LINE
  5
3FE
100
AcDbEntity
 67
     1
  8
1
390
0
  6
Continuous
 62
     7
100
AcDbLine
 10
9.395451
 20
7.089227
 30
0.0
 11
9.395451
 21
6.170668
 31
0.0
  0
LINE
  5
3FF
100
AcDbEntity
 67
     1
  8
1
390
0
  6
Continuous
 62
     7
100
AcDbLine
 10
9.970857
 20
6.993445
 30
0.0
 11
9.970857
 21
7.105739
 31
0.0
  0
LINE
  5
400
100
AcDbEntity
 67
     1
  8
1
390
0
  6
Continuous
 62
     7
100
AcDbLine
 10
10.273772
 20
7.192431
 30
0.0
 11
10.273772
 21
7.207286
 31
0.0
  0
LINE
  5
401
100
AcDbEntity
 67
     1
  8
1
390
0
  6
Continuous
 62
     7
100
AcDbLine
 10
10.189603
 20
7.214005
 30
0.0
 11
10.189603
 21
7.028083
 31
0.0
  0
LINE
  5
402
100
AcDbEntity
 67
     1
  8
1
390
0
  6
Continuous
 62
     7
100
AcDbLine
 10
10.422124
 20
7.129132
 30
0.0
 11
10.422124
 21
7.366278
 31
0.0
  0
LINE
  5
403
100
AcDbEntity
 67
     1
  8
1
390
0
  6
Continuous
 62
     7
100
AcDbLine
 10
10.345724
 20
7.637867
 30
0.0
 11
10.345724
 21
7.150902
 31
0.0
  0
LINE
  5
404
100
AcDbEntity
 67
     1
  8
1
390
0
  6
Continuous
 62
     7
100
AcDbLine
 10
9.470974
 20
7.097882
 30
0.0
 11
9.470974
 21
7.077831
 31
0.0
  0
LINE
  5
405
100
AcDbEntity
 67
     1
  8
1
390
0
  6
Continuous
 62
     7
100
AcDbLine
 10
9.470974
 20
7.097882
 30
0.0
 11
9.459755
 21
7.095298
 31
0.0
  0
LINE
  5
406
100
AcDbEntity
 67
     1
  8
1
390
0
  6
Continuous
 62
     7
100
AcDbLine
 10
9.459755
 20
7.095298
 30
0.0
 11
9.455471
 21
7.088778
 31
0.0
  0
LINE
  5
407
100
AcDbEntity
 67
     1
  8
1
390
0
  6
Continuous
 62
     7
100
AcDbLine
 10
9.455471
 20
7.088778
 30
0.0
 11
9.4609
 21
7.082549
 31
0.0
  0
LINE
  5
408
100
AcDbEntity
 67
     1
  8
1
390
0
  6
Continuous
 62
     7
100
AcDbLine
 10
10.354131
 20
7.089694
 30
0.0
 11
10.295288
 21
7.063122
 31
0.0
  0
LINE
  5
409
100
AcDbEntity
 67
     1
  8
1
390
0
  6
Continuous
 62
     7
100
AcDbLine
 10
10.295288
 20
7.063122
 30
0.0
 11
10.231814
 21
7.040378
 31
0.0
  0
LINE
  5
40A
100
AcDbEntity
 67
     1
  8
1
390
0
  6
Continuous
 62
     7
100
AcDbLine
 10
10.231814
 20
7.040378
 30
0.0
 11
10.164455
 21
7.021729
 31
0.0
  0
LINE
  5
40B
100
AcDbEntity
 67
     1
  8
1
390
0
  6
Continuous
 62
     7
100
AcDbLine
 10
10.164455
 20
7.021729
 30
0.0
 11
10.093998
 21
7.007394
 31
0.0
  0
LINE
  5
40C
100
AcDbEntity
 67
     1
  8
1
390
0
  6
Continuous
 62
     7
100
AcDbLine
 10
10.093998
 20
7.007394
 30
0.0
 11
10.02127
 21
6.99754
 31
0.0
  0
LINE
  5
40D
100
AcDbEntity
 67
     1
  8
1
390
0
  6
Continuous
 62
     7
100
AcDbLine
 10
10.02127
 20
6.99754
 30
0.0
 11
9.947123
 21
6.992284
 31
0.0
  0
LINE
  5
40E
100
AcDbEntity
 67
     1
  8
1
390
0
  6
Continuous
 62
     7
100
AcDbLine
 10
9.947123
 20
6.992284
 30
0.0
 11
9.872426
 21
6.991687
 31
0.0
  0
LINE
  5
40F
100
AcDbEntity
 67
     1
  8
1
390
0
  6
Continuous
 62
     7
100
AcDbLine
 10
9.872426
 20
6.991687
 30
0.0
 11
9.798055
 21
6.995755
 31
0.0
  0
LINE
  5
410
100
AcDbEntity
 67
     1
  8
1
390
0
  6
Continuous
 62
     7
100
AcDbLine
 10
9.798055
 20
6.995755
 30
0.0
 11
9.724882
 21
7.004441
 31
0.0
  0
LINE
  5
411
100
AcDbEntity
 67
     1
  8
1
390
0
  6
Continuous
 62
     7
100
AcDbLine
 10
9.724882
 20
7.004441
 30
0.0
 11
9.653764
 21
7.017644
 31
0.0
  0
LINE
  5
412
100
AcDbEntity
 67
     1
  8
1
390
0
  6
Continuous
 62
     7
100
AcDbLine
 10
9.653764
 20
7.017644
 30
0.0
 11
9.585535
 21
7.035208
 31
0.0
  0
LINE
  5
413
100
AcDbEntity
 67
     1
  8
1
390
0
  6
Continuous
 62
     7
100
AcDbLine
 10
9.585535
 20
7.035208
 30
0.0
 11
9.520995
 21
7.056928
 31
0.0
  0
LINE
  5
414
100
AcDbEntity
 67
     1
  8
1
390
0
  6
Continuous
 62
     7
100
AcDbLine
 10
9.520995
 20
7.056928
 30
0.0
 11
9.4609
 21
7.082549
 31
0.0
  0
LINE
  5
415
100
AcDbEntity
 67
     1
  8
1
390
0
  6
Continuous
 62
     7
100
AcDbLine
 10
10.355239
 20
7.108664
 30
0.0
 11
10.355239
 21
7.090278
 31
0.0
  0
LINE
  5
416
100
AcDbEntity
 67
     1
  8
1
390
0
  6
Continuous
 62
     7
100
AcDbLine
 10
10.354131
 20
7.089694
 30
0.0
 11
10.361816
 21
7.09904
 31
0.0
  0
LINE
  5
417
100
AcDbEntity
 67
     1
  8
1
390
0
  6
Continuous
 62
     7
100
AcDbLine
 10
10.361816
 20
7.09904
 30
0.0
 11
10.355239
 21
7.108664
 31
0.0
  0
LINE
  5
418
100
AcDbEntity
 67
     1
  8
1
390
0
  6
Continuous
 62
     7
100
AcDbLine
 10
10.23673
 20
7.177085
 30
0.0
 11
10.23673
 21
7.041942
 31
0.0
  0
LINE
  5
419
100
AcDbEntity
 67
     1
  8
1
390
0
  6
Continuous
 62
     7
100
AcDbLine
 10
10.23673
 20
7.177085
 30
0.0
 11
10.355239
 21
7.108664
 31
0.0
  0
LINE
  5
41A
100
AcDbEntity
 67
     1
  8
1
390
0
  6
Continuous
 62
     7
100
AcDbLine
 10
10.226123
 20
7.177085
 30
0.0
 11
10.226123
 21
7.038584
 31
0.0
  0
LINE
  5
41B
100
AcDbEntity
 67
     1
  8
1
390
0
  6
Continuous
 62
     7
100
AcDbLine
 10
10.23673
 20
7.177085
 30
0.0
 11
10.231426
 21
7.178354
 31
0.0
  0
LINE
  5
41C
100
AcDbEntity
 67
     1
  8
1
390
0
  6
Continuous
 62
     7
100
AcDbLine
 10
10.231426
 20
7.178354
 30
0.0
 11
10.226123
 21
7.177085
 31
0.0
  0
LINE
  5
41D
100
AcDbEntity
 67
     1
  8
1
390
0
  6
Continuous
 62
     7
100
AcDbLine
 10
10.224195
 20
7.175972
 30
0.0
 11
10.224195
 21
7.038002
 31
0.0
  0
LINE
  5
41E
100
AcDbEntity
 67
     1
  8
1
390
0
  6
Continuous
 62
     7
100
AcDbLine
 10
10.226123
 20
7.177085
 30
0.0
 11
10.224195
 21
7.175972
 31
0.0
  0
LINE
  5
41F
100
AcDbEntity
 67
     1
  8
1
390
0
  6
Continuous
 62
     7
100
AcDbLine
 10
10.205373
 20
7.178884
 30
0.0
 11
10.205373
 21
7.032431
 31
0.0
  0
LINE
  5
420
100
AcDbEntity
 67
     1
  8
1
390
0
  6
Continuous
 62
     7
100
AcDbLine
 10
10.205373
 20
7.178884
 30
0.0
 11
10.213328
 21
7.174291
 31
0.0
  0
LINE
  5
421
100
AcDbEntity
 67
     1
  8
1
390
0
  6
Continuous
 62
     7
100
AcDbLine
 10
10.213328
 20
7.174291
 30
0.0
 11
10.224195
 21
7.175972
 31
0.0
  0
LINE
  5
422
100
AcDbEntity
 67
     1
  8
1
390
0
  6
Continuous
 62
     7
100
AcDbLine
 10
10.190114
 20
7.211763
 30
0.0
 11
10.190114
 21
7.028224
 31
0.0
  0
LINE
  5
423
100
AcDbEntity
 67
     1
  8
1
390
0
  6
Continuous
 62
     7
100
AcDbLine
 10
10.190114
 20
7.211763
 30
0.0
 11
10.205373
 21
7.178884
 31
0.0
  0
LINE
  5
424
100
AcDbEntity
 67
     1
  8
1
390
0
  6
Continuous
 62
     7
100
AcDbLine
 10
10.190114
 20
7.211763
 30
0.0
 11
10.193995
 21
7.220129
 31
0.0
  0
LINE
  5
425
100
AcDbEntity
 67
     1
  8
1
390
0
  6
Continuous
 62
     7
100
AcDbLine
 10
10.193995
 20
7.220129
 30
0.0
 11
10.208485
 21
7.22237
 31
0.0
  0
LINE
  5
426
100
AcDbEntity
 67
     1
  8
1
390
0
  6
Continuous
 62
     7
100
AcDbLine
 10
10.208485
 20
7.22237
 30
0.0
 11
10.265433
 21
7.21356
 31
0.0
  0
LINE
  5
427
100
AcDbEntity
 67
     1
  8
1
390
0
  6
Continuous
 62
     7
100
AcDbLine
 10
10.270477
 20
7.202693
 30
0.0
 11
10.270477
 21
7.19434
 31
0.0
  0
LINE
  5
428
100
AcDbEntity
 67
     1
  8
1
390
0
  6
Continuous
 62
     7
100
AcDbLine
 10
10.265433
 20
7.21356
 30
0.0
 11
10.273389
 21
7.208967
 31
0.0
  0
LINE
  5
429
100
AcDbEntity
 67
     1
  8
1
390
0
  6
Continuous
 62
     7
100
AcDbLine
 10
10.273389
 20
7.208967
 30
0.0
 11
10.270477
 21
7.202693
 31
0.0
  0
LINE
  5
42A
100
AcDbEntity
 67
     1
  8
1
390
0
  6
Continuous
 62
     7
100
AcDbLine
 10
10.268549
 20
7.20158
 30
0.0
 11
10.268549
 21
7.195452
 31
0.0
  0
LINE
  5
42B
100
AcDbEntity
 67
     1
  8
1
390
0
  6
Continuous
 62
     7
100
AcDbLine
 10
10.268549
 20
7.20158
 30
0.0
 11
10.270477
 21
7.202693
 31
0.0
  0
LINE
  5
42C
100
AcDbEntity
 67
     1
  8
1
390
0
  6
Continuous
 62
     7
100
AcDbLine
 10
10.268549
 20
7.195457
 30
0.0
 11
10.266353
 21
7.198518
 31
0.0
  0
LINE
  5
42D
100
AcDbEntity
 67
     1
  8
1
390
0
  6
Continuous
 62
     7
100
AcDbLine
 10
10.266353
 20
7.198518
 30
0.0
 11
10.268549
 21
7.20158
 31
0.0
  0
LINE
  5
42E
100
AcDbEntity
 67
     1
  8
1
390
0
  6
Continuous
 62
     7
100
AcDbLine
 10
10.268549
 20
7.195457
 30
0.0
 11
10.387059
 21
7.127035
 31
0.0
  0
LINE
  5
42F
100
AcDbEntity
 67
     1
  8
1
390
0
  6
Continuous
 62
     7
100
AcDbLine
 10
10.419915
 20
7.127675
 30
0.0
 11
10.403728
 21
7.123237
 31
0.0
  0
LINE
  5
430
100
AcDbEntity
 67
     1
  8
1
390
0
  6
Continuous
 62
     7
100
AcDbLine
 10
10.403728
 20
7.123237
 30
0.0
 11
10.387059
 21
7.127035
 31
0.0
  0
LINE
  5
431
100
AcDbEntity
 67
     1
  8
1
390
0
  6
Continuous
 62
     7
100
AcDbLine
 10
10.432291
 20
7.643382
 30
0.0
 11
10.432291
 21
7.136093
 31
0.0
  0
LINE
  5
432
100
AcDbEntity
 67
     1
  8
1
390
0
  6
Continuous
 62
     7
100
AcDbLine
 10
10.419915
 20
7.127675
 30
0.0
 11
10.46594
 21
7.161647
 31
0.0
  0
LINE
  5
433
100
AcDbEntity
 67
     1
  8
1
390
0
  6
Continuous
 62
     7
100
AcDbLine
 10
10.46594
 20
7.161647
 30
0.0
 11
10.505333
 21
7.198294
 31
0.0
  0
LINE
  5
434
100
AcDbEntity
 67
     1
  8
1
390
0
  6
Continuous
 62
     7
100
AcDbLine
 10
10.505333
 20
7.198294
 30
0.0
 11
10.537634
 21
7.237184
 31
0.0
  0
LINE
  5
435
100
AcDbEntity
 67
     1
  8
1
390
0
  6
Continuous
 62
     7
100
AcDbLine
 10
10.537634
 20
7.237184
 30
0.0
 11
10.562463
 21
7.277863
 31
0.0
  0
LINE
  5
436
100
AcDbEntity
 67
     1
  8
1
390
0
  6
Continuous
 62
     7
100
AcDbLine
 10
10.562463
 20
7.277863
 30
0.0
 11
10.57953
 21
7.319852
 31
0.0
  0
LINE
  5
437
100
AcDbEntity
 67
     1
  8
1
390
0
  6
Continuous
 62
     7
100
AcDbLine
 10
10.57953
 20
7.319852
 30
0.0
 11
10.588634
 21
7.362661
 31
0.0
  0
LINE
  5
438
100
AcDbEntity
 67
     1
  8
1
390
0
  6
Continuous
 62
     7
100
AcDbLine
 10
10.588634
 20
7.362661
 30
0.0
 11
10.589668
 21
7.405787
 31
0.0
  0
LINE
  5
439
100
AcDbEntity
 67
     1
  8
1
390
0
  6
Continuous
 62
     7
100
AcDbLine
 10
10.589668
 20
7.405787
 30
0.0
 11
10.582623
 21
7.448725
 31
0.0
  0
LINE
  5
43A
100
AcDbEntity
 67
     1
  8
1
390
0
  6
Continuous
 62
     7
100
AcDbLine
 10
10.582623
 20
7.448725
 30
0.0
 11
10.567577
 21
7.490972
 31
0.0
  0
LINE
  5
43B
100
AcDbEntity
 67
     1
  8
1
390
0
  6
Continuous
 62
     7
100
AcDbLine
 10
10.567577
 20
7.490972
 30
0.0
 11
10.544709
 21
7.532032
 31
0.0
  0
LINE
  5
43C
100
AcDbEntity
 67
     1
  8
1
390
0
  6
Continuous
 62
     7
100
AcDbLine
 10
10.544709
 20
7.532032
 30
0.0
 11
10.514287
 21
7.571424
 31
0.0
  0
LINE
  5
43D
100
AcDbEntity
 67
     1
  8
1
390
0
  6
Continuous
 62
     7
100
AcDbLine
 10
10.514287
 20
7.571424
 30
0.0
 11
10.476667
 21
7.608686
 31
0.0
  0
LINE
  5
43E
100
AcDbEntity
 67
     1
  8
1
390
0
  6
Continuous
 62
     7
100
AcDbLine
 10
10.476667
 20
7.608686
 30
0.0
 11
10.432291
 21
7.643382
 31
0.0
  0
LINE
  5
43F
100
AcDbEntity
 67
     1
  8
1
390
0
  6
Continuous
 62
     7
100
AcDbLine
 10
10.405734
 20
7.637565
 30
0.0
 11
10.410208
 21
7.644043
 31
0.0
  0
LINE
  5
440
100
AcDbEntity
 67
     1
  8
1
390
0
  6
Continuous
 62
     7
100
AcDbLine
 10
10.410208
 20
7.644043
 30
0.0
 11
10.421501
 21
7.646516
 31
0.0
  0
LINE
  5
441
100
AcDbEntity
 67
     1
  8
1
390
0
  6
Continuous
 62
     7
100
AcDbLine
 10
10.421501
 20
7.646516
 30
0.0
 11
10.432291
 21
7.643382
 31
0.0
  0
LINE
  5
442
100
AcDbEntity
 67
     1
  8
1
390
0
  6
Continuous
 62
     7
100
AcDbLine
 10
10.422106
 20
7.366883
 30
0.0
 11
10.405734
 21
7.637565
 31
0.0
  0
LINE
  5
443
100
AcDbEntity
 67
     1
  8
1
390
0
  6
Continuous
 62
     7
100
AcDbLine
 10
10.362143
 20
7.365674
 30
0.0
 11
10.362143
 21
7.141417
 31
0.0
  0
LINE
  5
444
100
AcDbEntity
 67
     1
  8
1
390
0
  6
Continuous
 62
     7
100
AcDbLine
 10
10.422106
 20
7.366883
 30
0.0
 11
10.418612
 21
7.358147
 31
0.0
  0
LINE
  5
445
100
AcDbEntity
 67
     1
  8
1
390
0
  6
Continuous
 62
     7
100
AcDbLine
 10
10.418612
 20
7.358147
 30
0.0
 11
10.408022
 21
7.35159
 31
0.0
  0
LINE
  5
446
100
AcDbEntity
 67
     1
  8
1
390
0
  6
Continuous
 62
     7
100
AcDbLine
 10
10.408022
 20
7.35159
 30
0.0
 11
10.393171
 21
7.348969
 31
0.0
  0
LINE
  5
447
100
AcDbEntity
 67
     1
  8
1
390
0
  6
Continuous
 62
     7
100
AcDbLine
 10
10.393171
 20
7.348969
 30
0.0
 11
10.37804
 21
7.350985
 31
0.0
  0
LINE
  5
448
100
AcDbEntity
 67
     1
  8
1
390
0
  6
Continuous
 62
     7
100
AcDbLine
 10
10.37804
 20
7.350985
 30
0.0
 11
10.366683
 21
7.3571
 31
0.0
  0
LINE
  5
449
100
AcDbEntity
 67
     1
  8
1
390
0
  6
Continuous
 62
     7
100
AcDbLine
 10
10.366683
 20
7.3571
 30
0.0
 11
10.362143
 21
7.365674
 31
0.0
  0
LINE
  5
44A
100
AcDbEntity
 67
     1
  8
1
390
0
  6
Continuous
 62
     7
100
AcDbLine
 10
10.34577
 20
7.636356
 30
0.0
 11
10.34577
 21
7.150884
 31
0.0
  0
LINE
  5
44B
100
AcDbEntity
 67
     1
  8
1
390
0
  6
Continuous
 62
     7
100
AcDbLine
 10
10.362143
 20
7.365674
 30
0.0
 11
10.34577
 21
7.636356
 31
0.0
  0
LINE
  5
44C
100
AcDbEntity
 67
     1
  8
1
390
0
  6
Continuous
 62
     7
100
AcDbLine
 10
10.34577
 20
7.636356
 30
0.0
 11
10.349539
 21
7.6515
 31
0.0
  0
LINE
  5
44D
100
AcDbEntity
 67
     1
  8
1
390
0
  6
Continuous
 62
     7
100
AcDbLine
 10
10.349539
 20
7.6515
 30
0.0
 11
10.362193
 21
7.664942
 31
0.0
  0
LINE
  5
44E
100
AcDbEntity
 67
     1
  8
1
390
0
  6
Continuous
 62
     7
100
AcDbLine
 10
10.362193
 20
7.664942
 30
0.0
 11
10.382154
 21
7.675004
 31
0.0
  0
LINE
  5
44F
100
AcDbEntity
 67
     1
  8
1
390
0
  6
Continuous
 62
     7
100
AcDbLine
 10
10.382154
 20
7.675004
 30
0.0
 11
10.406931
 21
7.68043
 31
0.0
  0
LINE
  5
450
100
AcDbEntity
 67
     1
  8
1
390
0
  6
Continuous
 62
     7
100
AcDbLine
 10
10.406931
 20
7.68043
 30
0.0
 11
10.433429
 21
7.680543
 31
0.0
  0
LINE
  5
451
100
AcDbEntity
 67
     1
  8
1
390
0
  6
Continuous
 62
     7
100
AcDbLine
 10
10.433429
 20
7.680543
 30
0.0
 11
10.458341
 21
7.675329
 31
0.0
  0
LINE
  5
452
100
AcDbEntity
 67
     1
  8
1
390
0
  6
Continuous
 62
     7
100
AcDbLine
 10
10.458341
 20
7.675329
 30
0.0
 11
10.478558
 21
7.665438
 31
0.0
  0
LINE
  5
453
100
AcDbEntity
 67
     1
  8
1
390
0
  6
Continuous
 62
     7
100
AcDbLine
 10
9.422697
 20
7.055837
 30
0.0
 11
9.422697
 21
6.137278
 31
0.0
  0
LINE
  5
454
100
AcDbEntity
 67
     1
  8
1
390
0
  6
Continuous
 62
     7
100
AcDbLine
 10
10.650229
 20
6.471157
 30
0.0
 11
10.645883
 21
6.424626
 31
0.0
  0
LINE
  5
455
100
AcDbEntity
 67
     1
  8
1
390
0
  6
Continuous
 62
     7
100
AcDbLine
 10
10.645883
 20
6.424626
 30
0.0
 11
10.632901
 21
6.378635
 31
0.0
  0
LINE
  5
456
100
AcDbEntity
 67
     1
  8
1
390
0
  6
Continuous
 62
     7
100
AcDbLine
 10
10.632901
 20
6.378635
 30
0.0
 11
10.611435
 21
6.333715
 31
0.0
  0
LINE
  5
457
100
AcDbEntity
 67
     1
  8
1
390
0
  6
Continuous
 62
     7
100
AcDbLine
 10
10.611435
 20
6.333715
 30
0.0
 11
10.581732
 21
6.290388
 31
0.0
  0
LINE
  5
458
100
AcDbEntity
 67
     1
  8
1
390
0
  6
Continuous
 62
     7
100
AcDbLine
 10
10.581732
 20
6.290388
 30
0.0
 11
10.544137
 21
6.249154
 31
0.0
  0
LINE
  5
459
100
AcDbEntity
 67
     1
  8
1
390
0
  6
Continuous
 62
     7
100
AcDbLine
 10
10.544137
 20
6.249154
 30
0.0
 11
10.499085
 21
6.210491
 31
0.0
  0
LINE
  5
45A
100
AcDbEntity
 67
     1
  8
1
390
0
  6
Continuous
 62
     7
100
AcDbLine
 10
10.499085
 20
6.210491
 30
0.0
 11
10.447099
 21
6.174847
 31
0.0
  0
LINE
  5
45B
100
AcDbEntity
 67
     1
  8
1
390
0
  6
Continuous
 62
     7
100
AcDbLine
 10
10.447099
 20
6.174847
 30
0.0
 11
10.388779
 21
6.142634
 31
0.0
  0
LINE
  5
45C
100
AcDbEntity
 67
     1
  8
1
390
0
  6
Continuous
 62
     7
100
AcDbLine
 10
10.388779
 20
6.142634
 30
0.0
 11
10.324801
 21
6.114227
 31
0.0
  0
LINE
  5
45D
100
AcDbEntity
 67
     1
  8
1
390
0
  6
Continuous
 62
     7
100
AcDbLine
 10
10.324801
 20
6.114227
 30
0.0
 11
10.255907
 21
6.089953
 31
0.0
  0
LINE
  5
45E
100
AcDbEntity
 67
     1
  8
1
390
0
  6
Continuous
 62
     7
100
AcDbLine
 10
10.255907
 20
6.089953
 30
0.0
 11
10.182893
 21
6.070094
 31
0.0
  0
LINE
  5
45F
100
AcDbEntity
 67
     1
  8
1
390
0
  6
Continuous
 62
     7
100
AcDbLine
 10
10.182893
 20
6.070094
 30
0.0
 11
10.106606
 21
6.05488
 31
0.0
  0
LINE
  5
460
100
AcDbEntity
 67
     1
  8
1
390
0
  6
Continuous
 62
     7
100
AcDbLine
 10
10.106606
 20
6.05488
 30
0.0
 11
10.027929
 21
6.044487
 31
0.0
  0
LINE
  5
461
100
AcDbEntity
 67
     1
  8
1
390
0
  6
Continuous
 62
     7
100
AcDbLine
 10
10.027929
 20
6.044487
 30
0.0
 11
9.947774
 21
6.039034
 31
0.0
  0
LINE
  5
462
100
AcDbEntity
 67
     1
  8
1
390
0
  6
Continuous
 62
     7
100
AcDbLine
 10
9.947774
 20
6.039034
 30
0.0
 11
9.867067
 21
6.038587
 31
0.0
  0
LINE
  5
463
100
AcDbEntity
 67
     1
  8
1
390
0
  6
Continuous
 62
     7
100
AcDbLine
 10
9.867067
 20
6.038587
 30
0.0
 11
9.786745
 21
6.043149
 31
0.0
  0
LINE
  5
464
100
AcDbEntity
 67
     1
  8
1
390
0
  6
Continuous
 62
     7
100
AcDbLine
 10
9.786745
 20
6.043149
 30
0.0
 11
9.707737
 21
6.052668
 31
0.0
  0
LINE
  5
465
100
AcDbEntity
 67
     1
  8
1
390
0
  6
Continuous
 62
     7
100
AcDbLine
 10
9.707737
 20
6.052668
 30
0.0
 11
9.630958
 21
6.067034
 31
0.0
  0
LINE
  5
466
100
AcDbEntity
 67
     1
  8
1
390
0
  6
Continuous
 62
     7
100
AcDbLine
 10
9.630958
 20
6.067034
 30
0.0
 11
9.557298
 21
6.08608
 31
0.0
  0
LINE
  5
467
100
AcDbEntity
 67
     1
  8
1
390
0
  6
Continuous
 62
     7
100
AcDbLine
 10
9.557298
 20
6.08608
 30
0.0
 11
9.487608
 21
6.109585
 31
0.0
  0
LINE
  5
468
100
AcDbEntity
 67
     1
  8
1
390
0
  6
Continuous
 62
     7
100
AcDbLine
 10
9.487608
 20
6.109585
 30
0.0
 11
9.422697
 21
6.137278
 31
0.0
  0
LINE
  5
469
100
AcDbEntity
 67
     1
  8
1
390
0
  6
Continuous
 62
     7
100
AcDbLine
 10
10.478558
 20
7.665438
 30
0.0
 11
10.525587
 21
7.628779
 31
0.0
  0
LINE
  5
46A
100
AcDbEntity
 67
     1
  8
1
390
0
  6
Continuous
 62
     7
100
AcDbLine
 10
10.525587
 20
7.628779
 30
0.0
 11
10.565676
 21
7.589468
 31
0.0
  0
LINE
  5
46B
100
AcDbEntity
 67
     1
  8
1
390
0
  6
Continuous
 62
     7
100
AcDbLine
 10
10.565676
 20
7.589468
 30
0.0
 11
10.598379
 21
7.54794
 31
0.0
  0
LINE
  5
46C
100
AcDbEntity
 67
     1
  8
1
390
0
  6
Continuous
 62
     7
100
AcDbLine
 10
10.598379
 20
7.54794
 30
0.0
 11
10.623333
 21
7.504655
 31
0.0
  0
LINE
  5
46D
100
AcDbEntity
 67
     1
  8
1
390
0
  6
Continuous
 62
     7
100
AcDbLine
 10
10.623333
 20
7.504655
 30
0.0
 11
10.640262
 21
7.460096
 31
0.0
  0
LINE
  5
46E
100
AcDbEntity
 67
     1
  8
1
390
0
  6
Continuous
 62
     7
100
AcDbLine
 10
10.640262
 20
7.460096
 30
0.0
 11
10.648976
 21
7.414755
 31
0.0
  0
LINE
  5
46F
100
AcDbEntity
 67
     1
  8
1
390
0
  6
Continuous
 62
     7
100
AcDbLine
 10
10.648976
 20
7.414755
 30
0.0
 11
10.64938
 21
7.369136
 31
0.0
  0
LINE
  5
470
100
AcDbEntity
 67
     1
  8
1
390
0
  6
Continuous
 62
     7
100
AcDbLine
 10
10.64938
 20
7.369136
 30
0.0
 11
10.641469
 21
7.323747
 31
0.0
  0
LINE
  5
471
100
AcDbEntity
 67
     1
  8
1
390
0
  6
Continuous
 62
     7
100
AcDbLine
 10
10.641469
 20
7.323747
 30
0.0
 11
10.625331
 21
7.279089
 31
0.0
  0
LINE
  5
472
100
AcDbEntity
 67
     1
  8
1
390
0
  6
Continuous
 62
     7
100
AcDbLine
 10
10.625331
 20
7.279089
 30
0.0
 11
10.601145
 21
7.23566
 31
0.0
  0
LINE
  5
473
100
AcDbEntity
 67
     1
  8
1
390
0
  6
Continuous
 62
     7
100
AcDbLine
 10
10.601145
 20
7.23566
 30
0.0
 11
10.569179
 21
7.193941
 31
0.0
  0
LINE
  5
474
100
AcDbEntity
 67
     1
  8
1
390
0
  6
Continuous
 62
     7
100
AcDbLine
 10
10.569179
 20
7.193941
 30
0.0
 11
10.529788
 21
7.154395
 31
0.0
  0
LINE
  5
475
100
AcDbEntity
 67
     1
  8
1
390
0
  6
Continuous
 62
     7
100
AcDbLine
 10
10.529788
 20
7.154395
 30
0.0
 11
10.48341
 21
7.117461
 31
0.0
  0
LINE
  5
476
100
AcDbEntity
 67
     1
  8
1
390
0
  6
Continuous
 62
     7
100
AcDbLine
 10
10.48341
 20
7.117461
 30
0.0
 11
10.430559
 21
7.083549
 31
0.0
  0
LINE
  5
477
100
AcDbEntity
 67
     1
  8
1
390
0
  6
Continuous
 62
     7
100
AcDbLine
 10
10.430559
 20
7.083549
 30
0.0
 11
10.371821
 21
7.053035
 31
0.0
  0
LINE
  5
478
100
AcDbEntity
 67
     1
  8
1
390
0
  6
Continuous
 62
     7
100
AcDbLine
 10
10.371821
 20
7.053035
 30
0.0
 11
10.30785
 21
7.026258
 31
0.0
  0
LINE
  5
479
100
AcDbEntity
 67
     1
  8
1
390
0
  6
Continuous
 62
     7
100
AcDbLine
 10
10.30785
 20
7.026258
 30
0.0
 11
10.239354
 21
7.003517
 31
0.0
  0
LINE
  5
47A
100
AcDbEntity
 67
     1
  8
1
390
0
  6
Continuous
 62
     7
100
AcDbLine
 10
10.239354
 20
7.003517
 30
0.0
 11
10.167094
 21
6.985061
 31
0.0
  0
LINE
  5
47B
100
AcDbEntity
 67
     1
  8
1
390
0
  6
Continuous
 62
     7
100
AcDbLine
 10
10.167094
 20
6.985061
 30
0.0
 11
10.091873
 21
6.971097
 31
0.0
  0
LINE
  5
47C
100
AcDbEntity
 67
     1
  8
1
390
0
  6
Continuous
 62
     7
100
AcDbLine
 10
10.091873
 20
6.971097
 30
0.0
 11
10.014524
 21
6.96178
 31
0.0
  0
LINE
  5
47D
100
AcDbEntity
 67
     1
  8
1
390
0
  6
Continuous
 62
     7
100
AcDbLine
 10
10.014524
 20
6.96178
 30
0.0
 11
9.935906
 21
6.957212
 31
0.0
  0
LINE
  5
47E
100
AcDbEntity
 67
     1
  8
1
390
0
  6
Continuous
 62
     7
100
AcDbLine
 10
9.935906
 20
6.957212
 30
0.0
 11
9.856893
 21
6.957446
 31
0.0
  0
LINE
  5
47F
100
AcDbEntity
 67
     1
  8
1
390
0
  6
Continuous
 62
     7
100
AcDbLine
 10
9.856893
 20
6.957446
 30
0.0
 11
9.77836
 21
6.962477
 31
0.0
  0
LINE
  5
480
100
AcDbEntity
 67
     1
  8
1
390
0
  6
Continuous
 62
     7
100
AcDbLine
 10
9.77836
 20
6.962477
 30
0.0
 11
9.70118
 21
6.97225
 31
0.0
  0
LINE
  5
481
100
AcDbEntity
 67
     1
  8
1
390
0
  6
Continuous
 62
     7
100
AcDbLine
 10
9.70118
 20
6.97225
 30
0.0
 11
9.62621
 21
6.986658
 31
0.0
  0
LINE
  5
482
100
AcDbEntity
 67
     1
  8
1
390
0
  6
Continuous
 62
     7
100
AcDbLine
 10
9.62621
 20
6.986658
 30
0.0
 11
9.554281
 21
7.005539
 31
0.0
  0
LINE
  5
483
100
AcDbEntity
 67
     1
  8
1
390
0
  6
Continuous
 62
     7
100
AcDbLine
 10
9.554281
 20
7.005539
 30
0.0
 11
9.486192
 21
7.028684
 31
0.0
  0
LINE
  5
484
100
AcDbEntity
 67
     1
  8
1
390
0
  6
Continuous
 62
     7
100
AcDbLine
 10
9.486192
 20
7.028684
 30
0.0
 11
9.422697
 21
7.055837
 31
0.0
  0
LINE
  5
485
100
AcDbEntity
 67
     1
  8
1
390
0
  6
Continuous
 62
     7
100
AcDbLine
 10
9.395451
 20
6.17067
 30
0.0
 11
9.402603
 21
6.152214
 31
0.0
  0
LINE
  5
486
100
AcDbEntity
 67
     1
  8
1
390
0
  6
Continuous
 62
     7
100
AcDbLine
 10
9.402603
 20
6.152214
 30
0.0
 11
9.422697
 21
6.137278
 31
0.0
  0
LINE
  5
487
100
AcDbEntity
 67
     1
  8
1
390
0
  6
Continuous
 62
     7
100
AcDbLine
 10
9.473068
 20
7.132502
 30
0.0
 11
9.446838
 21
7.130326
 31
0.0
  0
LINE
  5
488
100
AcDbEntity
 67
     1
  8
1
390
0
  6
Continuous
 62
     7
100
AcDbLine
 10
9.446838
 20
7.130326
 30
0.0
 11
9.423556
 21
7.12302
 31
0.0
  0
LINE
  5
489
100
AcDbEntity
 67
     1
  8
1
390
0
  6
Continuous
 62
     7
100
AcDbLine
 10
9.423556
 20
7.12302
 30
0.0
 11
9.406129
 21
7.111495
 31
0.0
  0
LINE
  5
48A
100
AcDbEntity
 67
     1
  8
1
390
0
  6
Continuous
 62
     7
100
AcDbLine
 10
9.406129
 20
7.111495
 30
0.0
 11
9.39673
 21
7.097191
 31
0.0
  0
LINE
  5
48B
100
AcDbEntity
 67
     1
  8
1
390
0
  6
Continuous
 62
     7
100
AcDbLine
 10
9.39673
 20
7.097191
 30
0.0
 11
9.396534
 21
7.081892
 31
0.0
  0
LINE
  5
48C
100
AcDbEntity
 67
     1
  8
1
390
0
  6
Continuous
 62
     7
100
AcDbLine
 10
9.396534
 20
7.081892
 30
0.0
 11
9.405566
 21
7.067509
 31
0.0
  0
LINE
  5
48D
100
AcDbEntity
 67
     1
  8
1
390
0
  6
Continuous
 62
     7
100
AcDbLine
 10
9.405566
 20
7.067509
 30
0.0
 11
9.422697
 21
7.055837
 31
0.0
  0
LINE
  5
48E
100
AcDbEntity
 67
     1
  8
1
390
0
  6
Continuous
 62
     7
100
AcDbLine
 10
9.941904
 20
7.123049
 30
0.0
 11
9.473068
 21
7.132502
 31
0.0
  0
LINE
  5
48F
100
AcDbEntity
 67
     1
  8
1
390
0
  6
Continuous
 62
     7
100
AcDbLine
 10
9.93981
 20
7.088429
 30
0.0
 11
9.93981
 21
6.992009
 31
0.0
  0
LINE
  5
490
100
AcDbEntity
 67
     1
  8
1
390
0
  6
Continuous
 62
     7
100
AcDbLine
 10
9.93981
 20
7.088429
 30
0.0
 11
9.954941
 21
7.090446
 31
0.0
  0
LINE
  5
491
100
AcDbEntity
 67
     1
  8
1
390
0
  6
Continuous
 62
     7
100
AcDbLine
 10
9.954941
 20
7.090446
 30
0.0
 11
9.966298
 21
7.096561
 31
0.0
  0
LINE
  5
492
100
AcDbEntity
 67
     1
  8
1
390
0
  6
Continuous
 62
     7
100
AcDbLine
 10
9.966298
 20
7.096561
 30
0.0
 11
9.970839
 21
7.105134
 31
0.0
  0
LINE
  5
493
100
AcDbEntity
 67
     1
  8
1
390
0
  6
Continuous
 62
     7
100
AcDbLine
 10
9.970839
 20
7.105134
 30
0.0
 11
9.967345
 21
7.113871
 31
0.0
  0
LINE
  5
494
100
AcDbEntity
 67
     1
  8
1
390
0
  6
Continuous
 62
     7
100
AcDbLine
 10
9.967345
 20
7.113871
 30
0.0
 11
9.956755
 21
7.120428
 31
0.0
  0
LINE
  5
495
100
AcDbEntity
 67
     1
  8
1
390
0
  6
Continuous
 62
     7
100
AcDbLine
 10
9.956755
 20
7.120428
 30
0.0
 11
9.941904
 21
7.123049
 31
0.0
  0
LINE
  5
496
100
AcDbEntity
 67
     1
  8
1
390
0
  6
Continuous
 62
     7
100
AcDbLine
 10
9.93981
 20
7.088429
 30
0.0
 11
9.470974
 21
7.097882
 31
0.0
  0
LINE
  5
497
100
AcDbEntity
 67
     1
  8
1
390
0
  6
Continuous
 62
     7
100
AcDbLine
 10
9.749422
 20
8.045212
 30
0.0
 11
9.745403
 21
8.053872
 31
0.0
  0
LINE
  5
498
100
AcDbEntity
 67
     1
  8
1
390
0
  6
Continuous
 62
     7
100
AcDbLine
 10
9.745403
 20
8.053872
 30
0.0
 11
9.734423
 21
8.060212
 31
0.0
  0
LINE
  5
499
100
AcDbEntity
 67
     1
  8
1
390
0
  6
Continuous
 62
     7
100
AcDbLine
 10
9.734423
 20
8.060212
 30
0.0
 11
9.719422
 21
8.062532
 31
0.0
  0
LINE
  5
49A
100
AcDbEntity
 67
     1
  8
1
390
0
  6
Continuous
 62
     7
100
AcDbLine
 10
9.719422
 20
8.062532
 30
0.0
 11
9.704422
 21
8.060212
 31
0.0
  0
LINE
  5
49B
100
AcDbEntity
 67
     1
  8
1
390
0
  6
Continuous
 62
     7
100
AcDbLine
 10
9.704422
 20
8.060212
 30
0.0
 11
9.693441
 21
8.053872
 31
0.0
  0
LINE
  5
49C
100
AcDbEntity
 67
     1
  8
1
390
0
  6
Continuous
 62
     7
100
AcDbLine
 10
9.693441
 20
8.053872
 30
0.0
 11
9.689423
 21
8.045212
 31
0.0
  0
LINE
  5
49D
100
AcDbEntity
 67
     1
  8
1
390
0
  6
Continuous
 62
     7
100
AcDbLine
 10
9.689423
 20
8.045212
 30
0.0
 11
9.689423
 21
7.736402
 31
0.0
  0
LINE
  5
49E
100
AcDbEntity
 67
     1
  8
1
390
0
  6
Continuous
 62
     7
100
AcDbLine
 10
9.682832
 20
7.727216
 30
0.0
 11
9.68771
 21
7.73143
 31
0.0
  0
LINE
  5
49F
100
AcDbEntity
 67
     1
  8
1
390
0
  6
Continuous
 62
     7
100
AcDbLine
 10
9.68771
 20
7.73143
 30
0.0
 11
9.689423
 21
7.736402
 31
0.0
  0
LINE
  5
4A0
100
AcDbEntity
 67
     1
  8
1
390
0
  6
Continuous
 62
     7
100
AcDbLine
 10
9.315695
 20
7.515249
 30
0.0
 11
9.682832
 21
7.727216
 31
0.0
  0
LINE
  5
4A1
100
AcDbEntity
 67
     1
  8
1
390
0
  6
Continuous
 62
     7
100
AcDbLine
 10
9.299785
 20
7.511444
 30
0.0
 11
9.308395
 21
7.512433
 31
0.0
  0
LINE
  5
4A2
100
AcDbEntity
 67
     1
  8
1
390
0
  6
Continuous
 62
     7
100
AcDbLine
 10
9.308395
 20
7.512433
 30
0.0
 11
9.315695
 21
7.515249
 31
0.0
  0
LINE
  5
4A3
100
AcDbEntity
 67
     1
  8
1
390
0
  6
Continuous
 62
     7
100
AcDbLine
 10
8.76491
 20
7.511444
 30
0.0
 11
9.299785
 21
7.511444
 31
0.0
  0
LINE
  5
4A4
100
AcDbEntity
 67
     1
  8
1
390
0
  6
Continuous
 62
     7
100
AcDbLine
 10
8.76491
 20
7.476803
 30
0.0
 11
8.76491
 21
6.558245
 31
0.0
  0
LINE
  5
4A5
100
AcDbEntity
 67
     1
  8
1
390
0
  6
Continuous
 62
     7
100
AcDbLine
 10
8.76491
 20
7.476803
 30
0.0
 11
8.749909
 21
7.479124
 31
0.0
  0
LINE
  5
4A6
100
AcDbEntity
 67
     1
  8
1
390
0
  6
Continuous
 62
     7
100
AcDbLine
 10
8.749909
 20
7.479124
 30
0.0
 11
8.738929
 21
7.485464
 31
0.0
  0
LINE
  5
4A7
100
AcDbEntity
 67
     1
  8
1
390
0
  6
Continuous
 62
     7
100
AcDbLine
 10
8.738929
 20
7.485464
 30
0.0
 11
8.73491
 21
7.494124
 31
0.0
  0
LINE
  5
4A8
100
AcDbEntity
 67
     1
  8
1
390
0
  6
Continuous
 62
     7
100
AcDbLine
 10
8.73491
 20
7.494124
 30
0.0
 11
8.738929
 21
7.502784
 31
0.0
  0
LINE
  5
4A9
100
AcDbEntity
 67
     1
  8
1
390
0
  6
Continuous
 62
     7
100
AcDbLine
 10
8.738929
 20
7.502784
 30
0.0
 11
8.749909
 21
7.509124
 31
0.0
  0
LINE
  5
4AA
100
AcDbEntity
 67
     1
  8
1
390
0
  6
Continuous
 62
     7
100
AcDbLine
 10
8.749909
 20
7.509124
 30
0.0
 11
8.76491
 21
7.511444
 31
0.0
  0
LINE
  5
4AB
100
AcDbEntity
 67
     1
  8
1
390
0
  6
Continuous
 62
     7
100
AcDbLine
 10
8.76491
 20
6.558245
 30
0.0
 11
8.749909
 21
6.560565
 31
0.0
  0
LINE
  5
4AC
100
AcDbEntity
 67
     1
  8
1
390
0
  6
Continuous
 62
     7
100
AcDbLine
 10
8.749909
 20
6.560565
 30
0.0
 11
8.738929
 21
6.566905
 31
0.0
  0
LINE
  5
4AD
100
AcDbEntity
 67
     1
  8
1
390
0
  6
Continuous
 62
     7
100
AcDbLine
 10
8.738929
 20
6.566905
 30
0.0
 11
8.73491
 21
6.575565
 31
0.0
  0
LINE
  5
4AE
100
AcDbEntity
 67
     1
  8
1
390
0
  6
Continuous
 62
     7
100
AcDbLine
 10
9.299785
 20
7.476803
 30
0.0
 11
9.299785
 21
6.558245
 31
0.0
  0
LINE
  5
4AF
100
AcDbEntity
 67
     1
  8
1
390
0
  6
Continuous
 62
     7
100
AcDbLine
 10
8.76491
 20
7.476803
 30
0.0
 11
9.299785
 21
7.476803
 31
0.0
  0
LINE
  5
4B0
100
AcDbEntity
 67
     1
  8
1
390
0
  6
Continuous
 62
     7
100
AcDbLine
 10
8.76491
 20
6.558245
 30
0.0
 11
9.299785
 21
6.558245
 31
0.0
  0
LINE
  5
4B1
100
AcDbEntity
 67
     1
  8
1
390
0
  6
Continuous
 62
     7
100
AcDbLine
 10
9.358121
 20
7.490754
 30
0.0
 11
9.358121
 21
6.572196
 31
0.0
  0
LINE
  5
4B2
100
AcDbEntity
 67
     1
  8
1
390
0
  6
Continuous
 62
     7
100
AcDbLine
 10
9.299785
 20
7.476803
 30
0.0
 11
9.331356
 21
7.480429
 31
0.0
  0
LINE
  5
4B3
100
AcDbEntity
 67
     1
  8
1
390
0
  6
Continuous
 62
     7
100
AcDbLine
 10
9.331356
 20
7.480429
 30
0.0
 11
9.358121
 21
7.490754
 31
0.0
  0
LINE
  5
4B4
100
AcDbEntity
 67
     1
  8
1
390
0
  6
Continuous
 62
     7
100
AcDbLine
 10
9.299785
 20
6.558245
 30
0.0
 11
9.331356
 21
6.56187
 31
0.0
  0
LINE
  5
4B5
100
AcDbEntity
 67
     1
  8
1
390
0
  6
Continuous
 62
     7
100
AcDbLine
 10
9.331356
 20
6.56187
 30
0.0
 11
9.358121
 21
6.572196
 31
0.0
  0
LINE
  5
4B6
100
AcDbEntity
 67
     1
  8
1
390
0
  6
Continuous
 62
     7
100
AcDbLine
 10
9.468167
 20
7.554289
 30
0.0
 11
9.468167
 21
7.132499
 31
0.0
  0
LINE
  5
4B7
100
AcDbEntity
 67
     1
  8
1
390
0
  6
Continuous
 62
     7
100
AcDbLine
 10
9.468167
 20
7.554289
 30
0.0
 11
9.358121
 21
7.490754
 31
0.0
  0
LINE
  5
4B8
100
AcDbEntity
 67
     1
  8
1
390
0
  6
Continuous
 62
     7
100
AcDbLine
 10
9.395451
 20
6.593748
 30
0.0
 11
9.358121
 21
6.572196
 31
0.0
  0
LINE
  5
4B9
100
AcDbEntity
 67
     1
  8
1
390
0
  6
Continuous
 62
     7
100
AcDbLine
 10
9.499988
 20
7.554289
 30
0.0
 11
9.499988
 21
7.131953
 31
0.0
  0
LINE
  5
4BA
100
AcDbEntity
 67
     1
  8
1
390
0
  6
Continuous
 62
     7
100
AcDbLine
 10
9.499988
 20
7.554289
 30
0.0
 11
9.484077
 21
7.558094
 31
0.0
  0
LINE
  5
4BB
100
AcDbEntity
 67
     1
  8
1
390
0
  6
Continuous
 62
     7
100
AcDbLine
 10
9.484077
 20
7.558094
 30
0.0
 11
9.468167
 21
7.554289
 31
0.0
  0
LINE
  5
4BC
100
AcDbEntity
 67
     1
  8
1
390
0
  6
Continuous
 62
     7
100
AcDbLine
 10
9.619513
 20
7.485281
 30
0.0
 11
9.619513
 21
7.129541
 31
0.0
  0
LINE
  5
4BD
100
AcDbEntity
 67
     1
  8
1
390
0
  6
Continuous
 62
     7
100
AcDbLine
 10
9.619513
 20
7.485281
 30
0.0
 11
9.499988
 21
7.554289
 31
0.0
  0
LINE
  5
4BE
100
AcDbEntity
 67
     1
  8
1
390
0
  6
Continuous
 62
     7
100
AcDbLine
 10
9.619513
 20
7.485281
 30
0.0
 11
9.628478
 21
7.483406
 31
0.0
  0
LINE
  5
4BF
100
AcDbEntity
 67
     1
  8
1
390
0
  6
Continuous
 62
     7
100
AcDbLine
 10
9.628478
 20
7.483406
 30
0.0
 11
9.636717
 21
7.486177
 31
0.0
  0
LINE
  5
4C0
100
AcDbEntity
 67
     1
  8
1
390
0
  6
Continuous
 62
     7
100
AcDbLine
 10
9.636717
 20
7.486177
 30
0.0
 11
9.63831
 21
7.491606
 31
0.0
  0
LINE
  5
4C1
100
AcDbEntity
 67
     1
  8
1
390
0
  6
Continuous
 62
     7
100
AcDbLine
 10
9.63831
 20
7.491606
 30
0.0
 11
9.618646
 21
7.532653
 31
0.0
  0
LINE
  5
4C2
100
AcDbEntity
 67
     1
  8
1
390
0
  6
Continuous
 62
     7
100
AcDbLine
 10
9.618646
 20
7.532653
 30
0.0
 11
9.613329
 21
7.535686
 31
0.0
  0
LINE
  5
4C3
100
AcDbEntity
 67
     1
  8
1
390
0
  6
Continuous
 62
     7
100
AcDbLine
 10
9.613329
 20
7.535686
 30
0.0
 11
9.606113
 21
7.53456
 31
0.0
  0
LINE
  5
4C4
100
AcDbEntity
 67
     1
  8
1
390
0
  6
Continuous
 62
     7
100
AcDbLine
 10
9.606113
 20
7.53456
 30
0.0
 11
9.596653
 21
7.529098
 31
0.0
  0
LINE
  5
4C5
100
AcDbEntity
 67
     1
  8
1
390
0
  6
Continuous
 62
     7
100
AcDbLine
 10
9.586046
 20
7.529098
 30
0.0
 11
9.59135
 21
7.52783
 31
0.0
  0
LINE
  5
4C6
100
AcDbEntity
 67
     1
  8
1
390
0
  6
Continuous
 62
     7
100
AcDbLine
 10
9.59135
 20
7.52783
 30
0.0
 11
9.596653
 21
7.529098
 31
0.0
  0
LINE
  5
4C7
100
AcDbEntity
 67
     1
  8
1
390
0
  6
Continuous
 62
     7
100
AcDbLine
 10
9.586046
 20
7.529098
 30
0.0
 11
9.5212
 21
7.566537
 31
0.0
  0
LINE
  5
4C8
100
AcDbEntity
 67
     1
  8
1
390
0
  6
Continuous
 62
     7
100
AcDbLine
 10
9.5212
 20
7.584908
 30
0.0
 11
9.5212
 21
7.566523
 31
0.0
  0
LINE
  5
4C9
100
AcDbEntity
 67
     1
  8
1
390
0
  6
Continuous
 62
     7
100
AcDbLine
 10
9.5212
 20
7.584908
 30
0.0
 11
9.51461
 21
7.575722
 31
0.0
  0
LINE
  5
4CA
100
AcDbEntity
 67
     1
  8
1
390
0
  6
Continuous
 62
     7
100
AcDbLine
 10
9.51461
 20
7.575722
 30
0.0
 11
9.5212
 21
7.566537
 31
0.0
  0
LINE
  5
4CB
100
AcDbEntity
 67
     1
  8
1
390
0
  6
Continuous
 62
     7
100
AcDbLine
 10
9.56218
 20
7.608567
 30
0.0
 11
9.56218
 21
7.542876
 31
0.0
  0
LINE
  5
4CC
100
AcDbEntity
 67
     1
  8
1
390
0
  6
Continuous
 62
     7
100
AcDbLine
 10
9.56218
 20
7.608567
 30
0.0
 11
9.5212
 21
7.584908
 31
0.0
  0
LINE
  5
4CD
100
AcDbEntity
 67
     1
  8
1
390
0
  6
Continuous
 62
     7
100
AcDbLine
 10
9.593999
 20
7.608567
 30
0.0
 11
9.593999
 21
7.528107
 31
0.0
  0
LINE
  5
4CE
100
AcDbEntity
 67
     1
  8
1
390
0
  6
Continuous
 62
     7
100
AcDbLine
 10
9.56218
 20
7.608567
 30
0.0
 11
9.57809
 21
7.612372
 31
0.0
  0
LINE
  5
4CF
100
AcDbEntity
 67
     1
  8
1
390
0
  6
Continuous
 62
     7
100
AcDbLine
 10
9.57809
 20
7.612372
 30
0.0
 11
9.593999
 21
7.608567
 31
0.0
  0
LINE
  5
4D0
100
AcDbEntity
 67
     1
  8
1
390
0
  6
Continuous
 62
     7
100
AcDbLine
 10
9.658845
 20
7.571128
 30
0.0
 11
9.658845
 21
7.565
 31
0.0
  0
LINE
  5
4D1
100
AcDbEntity
 67
     1
  8
1
390
0
  6
Continuous
 62
     7
100
AcDbLine
 10
9.658845
 20
7.571128
 30
0.0
 11
9.593999
 21
7.608567
 31
0.0
  0
LINE
  5
4D2
100
AcDbEntity
 67
     1
  8
1
390
0
  6
Continuous
 62
     7
100
AcDbLine
 10
9.658845
 20
7.571128
 30
0.0
 11
9.661041
 21
7.568067
 31
0.0
  0
LINE
  5
4D3
100
AcDbEntity
 67
     1
  8
1
390
0
  6
Continuous
 62
     7
100
AcDbLine
 10
9.661041
 20
7.568067
 30
0.0
 11
9.658845
 21
7.565005
 31
0.0
  0
LINE
  5
4D4
100
AcDbEntity
 67
     1
  8
1
390
0
  6
Continuous
 62
     7
100
AcDbLine
 10
9.649384
 20
7.559543
 30
0.0
 11
9.658845
 21
7.565005
 31
0.0
  0
LINE
  5
4D5
100
AcDbEntity
 67
     1
  8
1
390
0
  6
Continuous
 62
     7
100
AcDbLine
 10
9.652688
 20
7.552307
 30
0.0
 11
9.652688
 21
7.128866
 31
0.0
  0
LINE
  5
4D6
100
AcDbEntity
 67
     1
  8
1
390
0
  6
Continuous
 62
     7
100
AcDbLine
 10
9.652688
 20
7.552307
 30
0.0
 11
9.647435
 21
7.555377
 31
0.0
  0
LINE
  5
4D7
100
AcDbEntity
 67
     1
  8
1
390
0
  6
Continuous
 62
     7
100
AcDbLine
 10
9.647435
 20
7.555377
 30
0.0
 11
9.649384
 21
7.559543
 31
0.0
  0
LINE
  5
4D8
100
AcDbEntity
 67
     1
  8
1
390
0
  6
Continuous
 62
     7
100
AcDbLine
 10
9.723783
 20
7.540954
 30
0.0
 11
9.723783
 21
7.127445
 31
0.0
  0
LINE
  5
4D9
100
AcDbEntity
 67
     1
  8
1
390
0
  6
Continuous
 62
     7
100
AcDbLine
 10
9.723783
 20
7.540954
 30
0.0
 11
9.652688
 21
7.552307
 31
0.0
  0
LINE
  5
4DA
100
AcDbEntity
 67
     1
  8
1
390
0
  6
Continuous
 62
     7
100
AcDbLine
 10
9.734737
 20
7.551807
 30
0.0
 11
9.737987
 21
7.54663
 31
0.0
  0
LINE
  5
4DB
100
AcDbEntity
 67
     1
  8
1
390
0
  6
Continuous
 62
     7
100
AcDbLine
 10
9.737987
 20
7.54663
 30
0.0
 11
9.733186
 21
7.541873
 31
0.0
  0
LINE
  5
4DC
100
AcDbEntity
 67
     1
  8
1
390
0
  6
Continuous
 62
     7
100
AcDbLine
 10
9.733186
 20
7.541873
 30
0.0
 11
9.723783
 21
7.540954
 31
0.0
  0
LINE
  5
4DD
100
AcDbEntity
 67
     1
  8
1
390
0
  6
Continuous
 62
     7
100
AcDbLine
 10
9.734737
 20
7.551807
 30
0.0
 11
9.615212
 21
7.620815
 31
0.0
  0
LINE
  5
4DE
100
AcDbEntity
 67
     1
  8
1
390
0
  6
Continuous
 62
     7
100
AcDbLine
 10
9.615212
 20
7.639186
 30
0.0
 11
9.615212
 21
7.620815
 31
0.0
  0
LINE
  5
4DF
100
AcDbEntity
 67
     1
  8
1
390
0
  6
Continuous
 62
     7
100
AcDbLine
 10
9.615212
 20
7.620815
 30
0.0
 11
9.608623
 21
7.63
 31
0.0
  0
LINE
  5
4E0
100
AcDbEntity
 67
     1
  8
1
390
0
  6
Continuous
 62
     7
100
AcDbLine
 10
9.608623
 20
7.63
 30
0.0
 11
9.615212
 21
7.639186
 31
0.0
  0
LINE
  5
4E1
100
AcDbEntity
 67
     1
  8
1
390
0
  6
Continuous
 62
     7
100
AcDbLine
 10
9.725259
 20
7.702721
 30
0.0
 11
9.725259
 21
7.557273
 31
0.0
  0
LINE
  5
4E2
100
AcDbEntity
 67
     1
  8
1
390
0
  6
Continuous
 62
     7
100
AcDbLine
 10
9.615212
 20
7.639186
 30
0.0
 11
9.725259
 21
7.702721
 31
0.0
  0
LINE
  5
4E3
100
AcDbEntity
 67
     1
  8
1
390
0
  6
Continuous
 62
     7
100
AcDbLine
 10
9.749422
 20
7.736402
 30
0.0
 11
9.749422
 21
7.126938
 31
0.0
  0
LINE
  5
4E4
100
AcDbEntity
 67
     1
  8
1
390
0
  6
Continuous
 62
     7
100
AcDbLine
 10
9.725259
 20
7.702721
 30
0.0
 11
9.743142
 21
7.718174
 31
0.0
  0
LINE
  5
4E5
100
AcDbEntity
 67
     1
  8
1
390
0
  6
Continuous
 62
     7
100
AcDbLine
 10
9.743142
 20
7.718174
 30
0.0
 11
9.749422
 21
7.736402
 31
0.0
  0
LINE
  5
4E6
100
AcDbEntity
 67
     1
  8
1
390
0
  6
Continuous
 62
     7
100
AcDbLine
 10
9.749422
 20
8.045212
 30
0.0
 11
9.749422
 21
7.736402
 31
0.0
  0
ARC
  5
4E7
100
AcDbEntity
 67
     1
  8
1
390
0
  6
Continuous
 62
     7
100
AcDbCircle
 10
4.08278
 20
6.299197
 30
0.0
 40
2.107009
100
AcDbArc
 50
136.999999
 51
179.837646
  0
ARC
  5
4E8
100
AcDbEntity
 67
     1
  8
1
390
0
  6
Continuous
 62
     7
100
AcDbCircle
 10
4.08278
 20
6.299197
 30
0.0
 40
2.107009
100
AcDbArc
 50
185.693494
 51
223.000001
  0
ARC
  5
4E9
100
AcDbEntity
 67
     1
  8
1
390
0
  6
Continuous
 62
     7
100
AcDbCircle
 10
3.268645
 20
5.40327
 30
0.0
 40
0.02
100
AcDbArc
 50
133.0
 51
275.453167
  0
ARC
  5
4EA
100
AcDbEntity
 67
     1
  8
1
390
0
  6
Continuous
 62
     7
100
AcDbCircle
 10
3.183116
 20
6.299197
 30
0.0
 40
0.92
100
AcDbArc
 50
275.453166
 51
356.134431
  0
ARC
  5
4EB
100
AcDbEntity
 67
     1
  8
1
390
0
  6
Continuous
 62
     7
100
AcDbCircle
 10
4.071091
 20
6.239197
 30
0.0
 40
0.03
100
AcDbArc
 50
356.134431
 51
450.0
  0
ARC
  5
4EC
100
AcDbEntity
 67
     1
  8
1
390
0
  6
Continuous
 62
     7
100
AcDbCircle
 10
3.847626
 20
6.259197
 30
0.0
 40
0.01
100
AcDbArc
 50
90.0
 51
180.0
  0
ARC
  5
4ED
100
AcDbEntity
 67
     1
  8
1
390
0
  6
Continuous
 62
     7
100
AcDbCircle
 10
3.822626
 20
6.255562
 30
0.0
 40
0.015
100
AcDbArc
 50
240.0
 51
360.0
  0
ARC
  5
4EE
100
AcDbEntity
 67
     1
  8
1
390
0
  6
Continuous
 62
     7
100
AcDbCircle
 10
3.757048
 20
6.299197
 30
0.0
 40
0.02
100
AcDbArc
 50
119.999999
 51
240.000001
  0
ARC
  5
4EF
100
AcDbEntity
 67
     1
  8
1
390
0
  6
Continuous
 62
     7
100
AcDbCircle
 10
3.822626
 20
6.342832
 30
0.0
 40
0.015
100
AcDbArc
 50
0.0
 51
120.0
  0
ARC
  5
4F0
100
AcDbEntity
 67
     1
  8
1
390
0
  6
Continuous
 62
     7
100
AcDbCircle
 10
3.847626
 20
6.339197
 30
0.0
 40
0.01
100
AcDbArc
 50
180.0
 51
270.0
  0
ARC
  5
4F1
100
AcDbEntity
 67
     1
  8
1
390
0
  6
Continuous
 62
     7
100
AcDbCircle
 10
4.071091
 20
6.359197
 30
0.0
 40
0.03
100
AcDbArc
 50
270.0
 51
363.865569
  0
ARC
  5
4F2
100
AcDbEntity
 67
     1
  8
1
390
0
  6
Continuous
 62
     7
100
AcDbCircle
 10
3.183116
 20
6.299197
 30
0.0
 40
0.92
100
AcDbArc
 50
3.865569
 51
84.546834
  0
ARC
  5
4F3
100
AcDbEntity
 67
     1
  8
1
390
0
  6
Continuous
 62
     7
100
AcDbCircle
 10
3.268645
 20
7.195124
 30
0.0
 40
0.02
100
AcDbArc
 50
84.546833
 51
227.0
  0
ARC
  5
4F4
100
AcDbEntity
 67
     1
  8
1
390
0
  6
Continuous
 62
     7
100
AcDbCircle
 10
3.685183
 20
6.724656
 30
0.0
 40
0.04
100
AcDbArc
 50
227.0
 51
407.0
  0
ARC
  5
4F5
100
AcDbEntity
 67
     1
  8
1
390
0
  6
Continuous
 62
     7
100
AcDbCircle
 10
3.268645
 20
7.195124
 30
0.0
 40
0.1
100
AcDbArc
 50
84.546834
 51
226.999999
  0
ARC
  5
4F6
100
AcDbEntity
 67
     1
  8
1
390
0
  6
Continuous
 62
     7
100
AcDbCircle
 10
3.183116
 20
6.299197
 30
0.0
 40
1.0
100
AcDbArc
 50
275.453166
 51
444.546834
  0
ARC
  5
4F7
100
AcDbEntity
 67
     1
  8
1
390
0
  6
Continuous
 62
     7
100
AcDbCircle
 10
3.268645
 20
5.40327
 30
0.0
 40
0.1
100
AcDbArc
 50
133.000001
 51
275.453166
  0
ARC
  5
4F8
100
AcDbEntity
 67
     1
  8
1
390
0
  6
Continuous
 62
     7
100
AcDbCircle
 10
3.685183
 20
5.873738
 30
0.0
 40
0.04
100
AcDbArc
 50
313.0
 51
493.0
  0
ARC
  5
4F9
100
AcDbEntity
 67
     1
  8
1
390
0
  6
Continuous
 62
     7
100
AcDbCircle
 10
1.94226
 20
7.19912
 30
0.0
 40
0.04
100
AcDbArc
 50
45.0
 51
225.0
  0
ARC
  5
4FA
100
AcDbEntity
 67
     1
  8
1
390
0
  6
Continuous
 62
     7
100
AcDbCircle
 10
2.397048
 20
6.645338
 30
0.0
 40
0.03
100
AcDbArc
 50
0.0
 51
45.0
  0
ARC
  5
4FB
100
AcDbEntity
 67
     1
  8
1
390
0
  6
Continuous
 62
     7
100
AcDbCircle
 10
2.397048
 20
5.953057
 30
0.0
 40
0.03
100
AcDbArc
 50
315.0
 51
360.0
  0
ARC
  5
4FC
100
AcDbEntity
 67
     1
  8
1
390
0
  6
Continuous
 62
     7
100
AcDbCircle
 10
1.94226
 20
5.399274
 30
0.0
 40
0.04
100
AcDbArc
 50
135.0
 51
315.0
  0
ARC
  5
4FD
100
AcDbEntity
 67
     1
  8
1
390
0
  6
Continuous
 62
     7
100
AcDbCircle
 10
2.397048
 20
5.953057
 30
0.0
 40
0.11
100
AcDbArc
 50
315.0
 51
360.0
  0
ARC
  5
4FE
100
AcDbEntity
 67
     1
  8
1
390
0
  6
Continuous
 62
     7
100
AcDbCircle
 10
2.537048
 20
6.160562
 30
0.0
 40
0.03
100
AcDbArc
 50
90.0
 51
180.0
  0
ARC
  5
4FF
100
AcDbEntity
 67
     1
  8
1
390
0
  6
Continuous
 62
     7
100
AcDbCircle
 10
2.762426
 20
6.205562
 30
0.0
 40
0.015
100
AcDbArc
 50
270.0
 51
420.461217
  0
ARC
  5
500
100
AcDbEntity
 67
     1
  8
1
390
0
  6
Continuous
 62
     7
100
AcDbCircle
 10
2.679322
 20
6.258401
 30
0.0
 40
0.01
100
AcDbArc
 50
60.461218
 51
180.0
  0
ARC
  5
501
100
AcDbEntity
 67
     1
  8
1
390
0
  6
Continuous
 62
     7
100
AcDbCircle
 10
2.659322
 20
6.240562
 30
0.0
 40
0.01
100
AcDbArc
 50
270.0
 51
360.0
  0
ARC
  5
502
100
AcDbEntity
 67
     1
  8
1
390
0
  6
Continuous
 62
     7
100
AcDbCircle
 10
2.537048
 20
6.260562
 30
0.0
 40
0.03
100
AcDbArc
 50
180.0
 51
270.0
  0
ARC
  5
503
100
AcDbEntity
 67
     1
  8
1
390
0
  6
Continuous
 62
     7
100
AcDbCircle
 10
2.537048
 20
6.337832
 30
0.0
 40
0.03
100
AcDbArc
 50
90.0
 51
180.0
  0
ARC
  5
504
100
AcDbEntity
 67
     1
  8
1
390
0
  6
Continuous
 62
     7
100
AcDbCircle
 10
2.659322
 20
6.357832
 30
0.0
 40
0.01
100
AcDbArc
 50
0.0
 51
90.0
  0
ARC
  5
505
100
AcDbEntity
 67
     1
  8
1
390
0
  6
Continuous
 62
     7
100
AcDbCircle
 10
2.679322
 20
6.339993
 30
0.0
 40
0.01
100
AcDbArc
 50
180.0
 51
299.538782
  0
ARC
  5
506
100
AcDbEntity
 67
     1
  8
1
390
0
  6
Continuous
 62
     7
100
AcDbCircle
 10
2.762426
 20
6.392832
 30
0.0
 40
0.015
100
AcDbArc
 50
299.538783
 51
450.0
  0
ARC
  5
507
100
AcDbEntity
 67
     1
  8
1
390
0
  6
Continuous
 62
     7
100
AcDbCircle
 10
2.537048
 20
6.437832
 30
0.0
 40
0.03
100
AcDbArc
 50
180.0
 51
270.0
  0
ARC
  5
508
100
AcDbEntity
 67
     1
  8
1
390
0
  6
Continuous
 62
     7
100
AcDbCircle
 10
2.397048
 20
6.645338
 30
0.0
 40
0.11
100
AcDbArc
 50
0.0
 51
45.0
  0
MTEXT
  5
509
100
AcDbEntity
 67
     1
  8
1
390
0
  6
Continuous
 62
     7
100
AcDbMText
 10
5.534912
 20
0.376388
 30
0.0
 40
0.06
 41
0.0
 71
     7
 72
     5
  1
\W01.000;\Fsimplex.shx;CUST
  7
blockfont
210
0.0
220
0.0
230
1.0
 73
     2
 44
0.903614
  0
MTEXT
  5
50B
100
AcDbEntity
 67
     1
  8
1
390
0
  6
Continuous
 62
     7
100
AcDbMText
 10
4.756186
 20
0.376184
 30
0.0
 40
0.06
 41
0.0
 71
     7
 72
     5
  1
\W01.000;\Fsimplex.shx;ECN
  7
blockfont
210
0.0
220
0.0
230
1.0
 73
     2
 44
0.903614
  0
MTEXT
  5
50C
100
AcDbEntity
 67
     1
  8
1
390
0
  6
Continuous
 62
     7
100
AcDbMText
 10
7.753737
 20
5.076264
 30
0.0
 40
0.09
 41
0.0
 71
     7
 72
     5
  1
\W01.000;\Fsimplex.shx;CSC1**6
  7
blockfont
210
0.0
220
0.0
230
1.0
 73
     2
 44
0.903614
  0
MTEXT
  5
50D
100
AcDbEntity
 67
     1
  8
1
390
0
  6
Continuous
 62
     7
100
AcDbMText
 10
7.74089
 20
4.711917
 30
0.0
 40
0.09
 41
0.0
 71
     7
 72
     5
  1
\W01.000;\Fsimplex.shx;CSPC1**-Q
  7
blockfont
210
0.0
220
0.0
230
1.0
 73
     2
 44
0.903614
  0
MTEXT
  5
50E
100
AcDbEntity
 67
     1
  8
1
390
0
  6
Continuous
 62
     7
100
AcDbMText
 10
0.750831
 20
8.07883
 30
0.0
 40
0.07
 41
0.0
 71
     7
 72
     5
  1
\W01.000;\Fsimplex.shx;THIS COPY IS PROVIDED ON A RESTRICTED BASIS AND IS NOT TO BE USED IN ANY WAY DETRIMENTAL TO THE INTERESTS OF PANDUIT CORP.
  7
blockfont
210
0.0
220
0.0
230
1.0
 73
     2
 44
0.903614
  0
MTEXT
  5
50F
100
AcDbEntity
 67
     1
  8
1
390
0
  6
Continuous
 62
     7
100
AcDbMText
 10
9.231065
 20
1.314396
 30
0.0
 40
0.0375
 41
0.0
 71
     7
 72
     5
  1
\W01.000;\Fsimplex.shx;ALL DIMENSIONS ARE GIVEN
  7
blockfont
210
0.0
220
0.0
230
1.0
 73
     2
 44
0.903614
  0
MTEXT
  5
510
100
AcDbEntity
 67
     1
  8
1
390
0
  6
Continuous
 62
     7
100
AcDbMText
 10
7.755092
 20
3.580832
 30
0.0
 40
0.09
 41
0.0
 71
     7
 72
     5
  1
\W01.000;\Fsimplex.shx;CSPC3**-Q
  7
blockfont
210
0.0
220
0.0
230
1.0
 73
     2
 44
0.903614
  0
MTEXT
  5
511
100
AcDbEntity
 67
     1
  8
1
390
0
  6
Continuous
 62
     7
100
AcDbMText
 10
2.775247
 20
0.37648
 30
0.0
 40
0.06
 41
0.0
 71
     7
 72
     5
  1
\W01.000;\Fsimplex.shx;DESCRIPTION
  7
blockfont
210
0.0
220
0.0
230
1.0
 73
     2
 44
0.903614
  0
MTEXT
  5
512
100
AcDbEntity
 67
     1
  8
1
390
0
  6
Continuous
 62
     7
100
AcDbMText
 10
5.933585
 20
0.376217
 30
0.0
 40
0.06
 41
0.0
 71
     7
 72
     5
  1
\W01.000;\Fsimplex.shx;SUP
  7
blockfont
210
0.0
220
0.0
230
1.0
 73
     2
 44
0.903614
  0
MTEXT
  5
513
100
AcDbEntity
 67
     1
  8
1
390
0
  6
Continuous
 62
     7
100
AcDbMText
 10
9.055954
 20
3.659884
 30
0.0
 40
0.09
 41
0.0
 71
     7
 72
     5
  1
\W01.000;\Fsimplex.shx;2.27"
  7
blockfont
210
0.0
220
0.0
230
1.0
 73
     2
 44
0.903614
  0
MTEXT
  5
514
100
AcDbEntity
 67
     1
  8
1
390
0
  6
Continuous
 62
     7
100
AcDbMText
 10
9.050329
 20
3.53215
 30
0.0
 40
0.0675
 41
0.0
 71
     7
 72
     5
  1
\W01.000;\Fsimplex.shx;[57.7]
  7
blockfont
210
0.0
220
0.0
230
1.0
 73
     2
 44
0.903614
  0
MTEXT
  5
515
100
AcDbEntity
 67
     1
  8
1
390
0
  6
Continuous
 62
     7
100
AcDbMText
 10
7.742245
 20
4.343419
 30
0.0
 40
0.09
 41
0.0
 71
     7
 72
     5
  1
\W01.000;\Fsimplex.shx;CSPC1.5**-Q
  7
blockfont
210
0.0
220
0.0
230
1.0
 73
     2
 44
0.903614
  0
MTEXT
  5
516
100
AcDbEntity
 67
     1
  8
1
390
0
  6
Continuous
 62
     7
100
AcDbMText
 10
0.40999
 20
0.375312
 30
0.0
 40
0.06
 41
0.0
 71
     7
 72
     5
  1
\W01.000;\Fsimplex.shx;REV
  7
blockfont
210
0.0
220
0.0
230
1.0
 73
     2
 44
0.903614
  0
MTEXT
  5
517
100
AcDbEntity
 67
     1
  8
1
390
0
  6
Continuous
 62
     7
100
AcDbMText
 10
9.162791
 20
5.346095
 30
0.0
 40
0.09
 41
0.0
 71
     7
 72
     5
  1
\W01.000;\Fsimplex.shx;"A"
  7
blockfont
210
0.0
220
0.0
230
1.0
 73
     2
 44
0.903614
  0
MTEXT
  5
518
100
AcDbEntity
 67
     1
  8
1
390
0
  6
Continuous
 62
     7
100
AcDbMText
 10
9.198395
 20
2.173521
 30
0.0
 40
0.057
 41
0.0
 71
     7
 72
     5
  1
\W01.000;\Fsimplex.shx;TINLEY PARK, ILLINOIS
  7
blockfont
210
0.0
220
0.0
230
1.0
 73
     2
 44
0.903614
  0
MTEXT
  5
519
100
AcDbEntity
 67
     1
  8
1
390
0
  6
Continuous
 62
     7
100
AcDbMText
 10
7.755092
 20
3.959567
 30
0.0
 40
0.09
 41
0.0
 71
     7
 72
     5
  1
\W01.000;\Fsimplex.shx;CSPC2**-Q
  7
blockfont
210
0.0
220
0.0
230
1.0
 73
     2
 44
0.903614
  0
MTEXT
  5
51A
100
AcDbEntity
 67
     1
  8
1
390
0
  6
Continuous
 62
     7
100
AcDbMText
 10
1.51902
 20
0.375312
 30
0.0
 40
0.06
 41
0.0
 71
     7
 72
     5
  1
\W01.000;\Fsimplex.shx;CHK
  7
blockfont
210
0.0
220
0.0
230
1.0
 73
     2
 44
0.903614
  0
MTEXT
  5
51B
100
AcDbEntity
 67
     1
  8
1
390
0
  6
Continuous
 62
     7
100
AcDbMText
 10
8.675247
 20
2.167194
 30
0.0
 40
0.075
 41
0.0
 71
     7
 72
     5
  1
\W01.000;\Fsimplex.shx;CORP.
  7
blockfont
210
0.0
220
0.0
230
1.0
 73
     2
 44
0.903614
  0
MTEXT
  5
51C
100
AcDbEntity
 67
     1
  8
1
390
0
  6
Continuous
 62
     7
100
AcDbMText
 10
1.240054
 20
0.375312
 30
0.0
 40
0.06
 41
0.0
 71
     7
 72
     5
  1
\W01.000;\Fsimplex.shx;BY
  7
blockfont
210
0.0
220
0.0
230
1.0
 73
     2
 44
0.903614
  0
MTEXT
  5
51D
100
AcDbEntity
 67
     1
  8
1
390
0
  6
Continuous
 62
     7
100
AcDbMText
 10
9.229202
 20
0.742141
 30
0.0
 40
0.0375
 41
0.0
 71
     7
 72
     5
  1
\W01.000;\Fsimplex.shx;DRAWING NO.
  7
blockfont
210
0.0
220
0.0
230
1.0
 73
     2
 44
0.903614
  0
MTEXT
  5
51E
100
AcDbEntity
 67
     1
  8
1
390
0
  6
Continuous
 62
     7
100
AcDbMText
 10
9.968564
 20
5.357031
 30
0.0
 40
0.09
 41
0.0
 71
     7
 72
     5
  1
\W01.000;\Fsimplex.shx;TOL.
  7
blockfont
210
0.0
220
0.0
230
1.0
 73
     2
 44
0.903614
  0
MTEXT
  5
51F
100
AcDbEntity
 67
     1
  8
1
390
0
  6
Continuous
 62
     7
100
AcDbMText
 10
10.476034
 20
0.368387
 30
0.0
 40
0.0375
 41
0.0
 71
     7
 72
     5
  1
\W01.000;\Fsimplex.shx;SIZE
  7
blockfont
210
0.0
220
0.0
230
1.0
 73
     2
 44
0.903614
  0
MTEXT
  5
520
100
AcDbEntity
 67
     1
  8
1
390
0
  6
Continuous
 62
     7
100
AcDbMText
 10
9.23172
 20
1.474978
 30
0.0
 40
0.0375
 41
0.0
 71
     7
 72
     5
  1
\W01.000;\Fsimplex.shx;UNLESS OTHERWISE SPECIFIED,
  7
blockfont
210
0.0
220
0.0
230
1.0
 73
     2
 44
0.903614
  0
MTEXT
  5
521
100
AcDbEntity
 67
     1
  8
1
390
0
  6
Continuous
 62
     7
100
AcDbMText
 10
6.648438
 20
0.498378
 30
0.0
 40
0.0375
 41
0.0
 71
     7
 72
     5
  1
\W01.000;\Fsimplex.shx;CHK'D
  7
blockfont
210
0.0
220
0.0
230
1.0
 73
     2
 44
0.903614
  0
MTEXT
  5
522
100
AcDbEntity
 67
     1
  8
1
390
0
  6
Continuous
 62
     7
100
AcDbMText
 10
0.759084
 20
3.992023
 30
0.0
 40
0.09
 41
0.0
 71
     7
 72
     5
  1
\W01.000;\Fsimplex.shx;NOTES:
  7
blockfont
210
0.0
220
0.0
230
1.0
 73
     2
 44
0.903614
  0
MTEXT
  5
523
100
AcDbEntity
 67
     1
  8
1
390
0
  6
Continuous
 62
     7
100
AcDbMText
 10
0.759084
 20
3.722023
 30
0.0
 40
0.09
 41
0.0
 71
     7
 72
     5
  1
\W01.000;\Fsimplex.shx;1. SEE CURRENT CATALOG FOR PART NUMBER DESIGNATIONS
  7
blockfont
210
0.0
220
0.0
230
1.0
 73
     2
 44
0.903614
  0
MTEXT
  5
524
100
AcDbEntity
 67
     1
  8
1
390
0
  6
Continuous
 62
     7
100
AcDbMText
 10
0.759084
 20
3.587023
 30
0.0
 40
0.09
 41
0.0
 71
     7
 72
     5
  1
\W01.000;\Fsimplex.shx;   FOR TYPE, COLOR, AND LENGTH.
  7
blockfont
210
0.0
220
0.0
230
1.0
 73
     2
 44
0.903614
  0
MTEXT
  5
525
100
AcDbEntity
 67
     1
  8
1
390
0
  6
Continuous
 62
     7
100
AcDbMText
 10
0.759084
 20
3.317024
 30
0.0
 40
0.09
 41
0.0
 71
     7
 72
     5
  1
\W01.000;\Fsimplex.shx;2. IDENTIFICATION: 1" BEND RADIUS CONTROL CORNER.
  7
blockfont
210
0.0
220
0.0
230
1.0
 73
     2
 44
0.903614
  0
MTEXT
  5
526
100
AcDbEntity
 67
     1
  8
1
390
0
  6
Continuous
 62
     7
100
AcDbMText
 10
0.759084
 20
3.047024
 30
0.0
 40
0.09
 41
0.0
 71
     7
 72
     5
  1
\W01.000;\Fsimplex.shx;3. 2-PART ASSEMBLY:(1)INSIDE CORNER AND (1)OUTSIDE CORNER.
  7
blockfont
210
0.0
220
0.0
230
1.0
 73
     2
 44
0.903614
  0
MTEXT
  5
527
100
AcDbEntity
 67
     1
  8
1
390
0
  6
Continuous
 62
     7
100
AcDbMText
 10
0.759084
 20
2.777024
 30
0.0
 40
0.09
 41
0.0
 71
     7
 72
     5
  1
\W01.000;\Fsimplex.shx;4. DIMENSIONS IN PARENTHESIS ARE METRIC.     
  7
blockfont
210
0.0
220
0.0
230
1.0
 73
     2
 44
0.903614
  0
MTEXT
  5
528
100
AcDbEntity
 67
     1
  8
1
390
0
  6
Continuous
 62
     7
100
AcDbMText
 10
6.81477
 20
0.332487
 30
0.0
 40
0.072
 41
0.0
 71
     7
 72
     5
  1
\W01.000;\Fsimplex.shx;JKG
  7
blockfont
210
0.0
220
0.0
230
1.0
 73
     2
 44
0.903614
  0
MTEXT
  5
529
100
AcDbEntity
 67
     1
  8
1
390
0
  6
Continuous
 62
     7
100
AcDbMText
 10
9.215106
 20
1.158449
 30
0.0
 40
0.0375
 41
0.0
 71
     7
 72
     5
  1
\W01.000;\Fsimplex.shx;IN INCHES, THIRD ANGLE PROJECTION.
  7
blockfont
210
0.0
220
0.0
230
1.0
 73
     2
 44
0.903614
  0
MTEXT
  5
52A
100
AcDbEntity
 67
     1
  8
1
390
0
  6
Continuous
 62
     7
100
AcDbMText
 10
9.045964
 20
4.022966
 30
0.0
 40
0.09
 41
0.0
 71
     7
 72
     5
  1
\W01.000;\Fsimplex.shx;1.23"
  7
blockfont
210
0.0
220
0.0
230
1.0
 73
     2
 44
0.903614
  0
MTEXT
  5
52B
100
AcDbEntity
 67
     1
  8
1
390
0
  6
Continuous
 62
     7
100
AcDbMText
 10
9.064949
 20
3.895232
 30
0.0
 40
0.0675
 41
0.0
 71
     7
 72
     5
  1
\W01.000;\Fsimplex.shx;[31.2]
  7
blockfont
210
0.0
220
0.0
230
1.0
 73
     2
 44
0.903614
  0
MTEXT
  5
52C
100
AcDbEntity
 67
     1
  8
1
390
0
  6
Continuous
 62
     7
100
AcDbMText
 10
0.778473
 20
0.375312
 30
0.0
 40
0.06
 41
0.0
 71
     7
 72
     5
  1
\W01.000;\Fsimplex.shx;DATE
  7
blockfont
210
0.0
220
0.0
230
1.0
 73
     2
 44
0.903614
  0
MTEXT
  5
52D
100
AcDbEntity
 67
     1
  8
1
390
0
  6
Continuous
 62
     7
100
AcDbMText
 10
9.035787
 20
4.39705
 30
0.0
 40
0.09
 41
0.0
 71
     7
 72
     5
  1
\W01.000;\Fsimplex.shx;1.04"
  7
blockfont
210
0.0
220
0.0
230
1.0
 73
     2
 44
0.903614
  0
MTEXT
  5
52E
100
AcDbEntity
 67
     1
  8
1
390
0
  6
Continuous
 62
     7
100
AcDbMText
 10
9.054771
 20
4.269316
 30
0.0
 40
0.0675
 41
0.0
 71
     7
 72
     5
  1
\W01.000;\Fsimplex.shx;[26.4]
  7
blockfont
210
0.0
220
0.0
230
1.0
 73
     2
 44
0.903614
  0
MTEXT
  5
52F
100
AcDbEntity
 67
     1
  8
1
390
0
  6
Continuous
 62
     7
100
AcDbMText
 10
7.397582
 20
2.946419
 30
0.0
 40
0.09
 41
0.0
 71
     7
 72
     5
  1
\W01.000;\Fsimplex.shx;A
  7
blockfont
210
0.0
220
0.0
230
1.0
 73
     2
 44
0.903614
  0
MTEXT
  5
530
100
AcDbEntity
 67
     1
  8
1
390
0
  6
Continuous
 62
     7
100
AcDbMText
 10
9.169845
 20
5.153475
 30
0.0
 40
0.09
 41
0.0
 71
     7
 72
     5
  1
\W01.000;\Fsimplex.shx;72"
  7
blockfont
210
0.0
220
0.0
230
1.0
 73
     2
 44
0.903614
  0
MTEXT
  5
531
100
AcDbEntity
 67
     1
  8
1
390
0
  6
Continuous
 62
     7
100
AcDbMText
 10
9.016564
 20
5.025741
 30
0.0
 40
0.0675
 41
0.0
 71
     7
 72
     5
  1
\W01.000;\Fsimplex.shx;[1828.8]
  7
blockfont
210
0.0
220
0.0
230
1.0
 73
     2
 44
0.903614
  0
MTEXT
  5
532
100
AcDbEntity
 67
     1
  8
1
390
0
  6
Continuous
 62
     7
100
AcDbMText
 10
7.745624
 20
3.207216
 30
0.0
 40
0.09
 41
0.0
 71
     7
 72
     5
  1
\W01.000;\Fsimplex.shx;CSPC4**-Q
  7
blockfont
210
0.0
220
0.0
230
1.0
 73
     2
 44
0.903614
  0
MTEXT
  5
533
100
AcDbEntity
 67
     1
  8
1
390
0
  6
Continuous
 62
     7
100
AcDbMText
 10
8.103206
 20
5.457999
 30
0.0
 40
0.09
 41
0.0
 71
     7
 72
     5
  1
\W01.000;\Fsimplex.shx;P/N
  7
blockfont
210
0.0
220
0.0
230
1.0
 73
     2
 44
0.903614
  0
MTEXT
  5
534
100
AcDbEntity
 67
     1
  8
1
390
0
  6
Continuous
 62
     7
100
AcDbMText
 10
10.496541
 20
0.709952
 30
0.0
 40
0.0375
 41
0.0
 71
     7
 72
     5
  1
\W01.000;\Fsimplex.shx;DWG
  7
blockfont
210
0.0
220
0.0
230
1.0
 73
     2
 44
0.903614
  0
MTEXT
  5
535
100
AcDbEntity
 67
     1
  8
1
390
0
  6
Continuous
 62
     7
100
AcDbMText
 10
10.508831
 20
0.448595
 30
0.0
 40
0.15
 41
0.0
 71
     7
 72
     5
  1
\W01.000;\Fsimplex.shx;A
  7
blockfont
210
0.0
220
0.0
230
1.0
 73
     2
 44
0.903614
  0
MTEXT
  5
536
100
AcDbEntity
 67
     1
  8
1
390
0
  6
Continuous
 62
     7
100
AcDbMText
 10
5.218711
 20
0.374162
 30
0.0
 40
0.06
 41
0.0
 71
     7
 72
     5
  1
\W01.000;\Fsimplex.shx;CHK
  7
blockfont
210
0.0
220
0.0
230
1.0
 73
     2
 44
0.903614
  0
MTEXT
  5
537
100
AcDbEntity
 67
     1
  8
1
390
0
  6
Continuous
 62
     7
100
AcDbMText
 10
0.522283
 20
4.006349
 30
0.0
 40
0.09
 41
0.0
 71
     7
 72
     5
  1
\W01.000;\Fsimplex.shx;B
  7
blockfont
210
0.0
220
0.0
230
1.0
 73
     2
 44
0.903614
  0
MTEXT
  5
538
100
AcDbEntity
 67
     1
  8
1
390
0
  6
Continuous
 62
     7
100
AcDbMText
 10
9.056142
 20
3.280298
 30
0.0
 40
0.09
 41
0.0
 71
     7
 72
     5
  1
\W01.000;\Fsimplex.shx;3.25"
  7
blockfont
210
0.0
220
0.0
230
1.0
 73
     2
 44
0.903614
  0
MTEXT
  5
539
100
AcDbEntity
 67
     1
  8
1
390
0
  6
Continuous
 62
     7
100
AcDbMText
 10
9.075126
 20
3.152564
 30
0.0
 40
0.0675
 41
0.0
 71
     7
 72
     5
  1
\W01.000;\Fsimplex.shx;[82.5]
  7
blockfont
210
0.0
220
0.0
230
1.0
 73
     2
 44
0.903614
  0
MTEXT
  5
53A
100
AcDbEntity
 67
     1
  8
1
390
0
  6
Continuous
 62
     7
100
AcDbMText
 10
6.633453
 20
2.784642
 30
0.0
 40
0.0375
 41
0.0
 71
     7
 72
     5
  1
\W01.000;\Fsimplex.shx;CAD FILENAME/LAYERS
  7
blockfont
210
0.0
220
0.0
230
1.0
 73
     2
 44
0.903614
  0
MTEXT
  5
53B
100
AcDbEntity
 67
     1
  8
1
390
0
  6
Continuous
 62
     7
100
AcDbMText
 10
5.567725
 20
0.8923
 30
0.0
 40
0.06
 41
0.0
 71
     7
 72
     5
  1
\W01.000;\Fsimplex.shx;JKG
  7
blockfont
210
0.0
220
0.0
230
1.0
 73
     2
 44
0.903614
  0
MTEXT
  5
53C
100
AcDbEntity
 67
     1
  8
1
390
0
  6
Continuous
 62
     7
100
AcDbMText
 10
9.071407
 20
4.771135
 30
0.0
 40
0.09
 41
0.0
 71
     7
 72
     5
  1
\W01.000;\Fsimplex.shx;0.47"
  7
blockfont
210
0.0
220
0.0
230
1.0
 73
     2
 44
0.903614
  0
MTEXT
  5
53D
100
AcDbEntity
 67
     1
  8
1
390
0
  6
Continuous
 62
     7
100
AcDbMText
 10
9.090392
 20
4.643401
 30
0.0
 40
0.0675
 41
0.0
 71
     7
 72
     5
  1
\W01.000;\Fsimplex.shx;[11.9]
  7
blockfont
210
0.0
220
0.0
230
1.0
 73
     2
 44
0.903614
  0
MTEXT
  5
53E
100
AcDbEntity
 67
     1
  8
1
390
0
  6
Continuous
 62
     7
100
AcDbMText
 10
9.807295
 20
5.143364
 30
0.0
 40
0.09
 41
0.0
 71
     7
 72
     5
  1
\W01.000;\Fsimplex.shx;+/-.060"
  7
blockfont
210
0.0
220
0.0
230
1.0
 73
     2
 44
0.903614
  0
MTEXT
  5
53F
100
AcDbEntity
 67
     1
  8
1
390
0
  6
Continuous
 62
     7
100
AcDbMText
 10
9.93667
 20
5.01563
 30
0.0
 40
0.0675
 41
0.0
 71
     7
 72
     5
  1
\W01.000;\Fsimplex.shx;[
  7
blockfont
210
0.0
220
0.0
230
1.0
 73
     2
 44
0.903614
  0
MTEXT
  5
540
100
AcDbEntity
 67
     1
  8
1
390
0
  6
Continuous
 62
     7
100
AcDbMText
 10
10.083764
 20
5.01563
 30
0.0
 40
0.0675
 41
0.0
 71
     7
 72
     5
  1
\W01.000;\Fsimplex.shx;1.52]
  7
blockfont
210
0.0
220
0.0
230
1.0
 73
     2
 44
0.903614
  0
MTEXT
  5
541
100
AcDbEntity
 67
     1
  8
1
390
0
  6
Continuous
 62
     7
100
AcDbMText
 10
6.768759
 20
2.088105
 30
0.0
 40
0.335
 41
0.0
 71
     7
 72
     5
  1
\W01.000;\Fsimplex.shx;P
  7
blockfont
210
0.0
220
0.0
230
1.0
 73
     2
 44
0.903614
  0
MTEXT
  5
542
100
AcDbEntity
 67
     1
  8
1
390
0
  6
Continuous
 62
     7
100
AcDbMText
 10
9.329294
 20
5.548415
 30
0.0
 40
0.09
 41
0.0
 71
     7
 72
     5
  1
\W01.000;\Fsimplex.shx;HEIGHT
  7
blockfont
210
0.0
220
0.0
230
1.0
 73
     2
 44
0.903614
  0
MTEXT
  5
543
100
AcDbEntity
 67
     1
  8
1
390
0
  6
Continuous
 62
     7
100
AcDbMText
 10
9.230059
 20
0.987138
 30
0.0
 40
0.0375
 41
0.0
 71
     7
 72
     5
  1
\W01.000;\Fsimplex.shx;SCALE
  7
blockfont
210
0.0
220
0.0
230
1.0
 73
     2
 44
0.903614
  0
MTEXT
  5
544
100
AcDbEntity
 67
     1
  8
1
390
0
  6
Continuous
 62
     7
100
AcDbMText
 10
0.689316
 20
0.662094
 30
0.0
 40
0.05
 41
0.0
 71
     7
 72
     5
  1
\W01.000;\Fsimplex.shx;10-16-00
  7
blockfont
210
0.0
220
0.0
230
1.0
 73
     2
 44
0.903614
  0
MTEXT
  5
545
100
AcDbEntity
 67
     1
  8
1
390
0
  6
Continuous
 62
     7
100
AcDbMText
 10
6.81477
 20
0.8584
 30
0.0
 40
0.072
 41
0.0
 71
     7
 72
     5
  1
\W01.000;\Fsimplex.shx;JBN
  7
blockfont
210
0.0
220
0.0
230
1.0
 73
     2
 44
0.903614
  0
MTEXT
  5
546
100
AcDbEntity
 67
     1
  8
1
390
0
  6
Continuous
 62
     7
100
AcDbMText
 10
7.615305
 20
2.654112
 30
0.0
 40
0.09
 41
0.0
 71
     7
 72
     5
  1
\W01.000;\Fsimplex.shx;D37355AC_DC_CSC1_CSPC_ASM/01B
  7
blockfont
210
0.0
220
0.0
230
1.0
 73
     2
 44
0.903614
  0
MTEXT
  5
547
100
AcDbEntity
 67
     1
  8
1
390
0
  6
Continuous
 62
     7
100
AcDbMText
 10
0.474608
 20
0.64399
 30
0.0
 40
0.072
 41
0.0
 71
     7
 72
     5
  1
\W01.000;\Fsimplex.shx;R
  7
blockfont
210
0.0
220
0.0
230
1.0
 73
     2
 44
0.903614
  0
MTEXT
  5
548
100
AcDbEntity
 67
     1
  8
1
390
0
  6
Continuous
 62
     7
100
AcDbMText
 10
8.756417
 20
1.130956
 30
0.0
 40
0.06
 41
0.0
 71
     7
 72
     5
  1
\W01.000;\Fsimplex.shx;3
  7
blockfont
210
0.0
220
0.0
230
1.0
 73
     2
 44
0.903614
  0
MTEXT
  5
549
100
AcDbEntity
 67
     1
  8
1
390
0
  6
Continuous
 62
     7
100
AcDbMText
 10
8.565472
 20
1.242522
 30
0.0
 40
0.06
 41
0.0
 71
     7
 72
     5
  1
\W01.000;\Fsimplex.shx;.010 [.3]
  7
blockfont
210
0.0
220
0.0
230
1.0
 73
     2
 44
0.903614
  0
MTEXT
  5
54A
100
AcDbEntity
 67
     1
  8
1
390
0
  6
Continuous
 62
     7
100
AcDbMText
 10
7.886365
 20
1.615169
 30
0.0
 40
0.09
 41
0.0
 71
     7
 72
     5
  1
\W01.000;\Fsimplex.shx;CUSTOMER DRAWING
  7
blockfont
210
0.0
220
0.0
230
1.0
 73
     2
 44
0.903614
  0
MTEXT
  5
54B
100
AcDbEntity
 67
     1
  8
1
390
0
  6
Continuous
 62
     7
100
AcDbMText
 10
7.215984
 20
1.913095
 30
0.0
 40
0.125
 41
0.0
 71
     7
 72
     5
  1
\W01.000;\Fsimplex.shx;1" BEND RADIUS CONTROL
  7
blockfont
210
0.0
220
0.0
230
1.0
 73
     2
 44
0.903614
  0
MTEXT
  5
54C
100
AcDbEntity
 67
     1
  8
1
390
0
  6
Continuous
 62
     7
100
AcDbMText
 10
7.760906
 20
1.725595
 30
0.0
 40
0.125
 41
0.0
 71
     7
 72
     5
  1
\W01.000;\Fsimplex.shx;(CSC*/CSPC*-Q)
  7
blockfont
210
0.0
220
0.0
230
1.0
 73
     2
 44
0.903614
  0
MTEXT
  5
54D
100
AcDbEntity
 67
     1
  8
1
390
0
  6
Continuous
 62
     7
100
AcDbMText
 10
7.816704
 20
0.665837
 30
0.0
 40
0.09
 41
0.0
 71
     7
 72
     5
  1
\W01.000;\Fsimplex.shx;RIGID PVC
  7
blockfont
210
0.0
220
0.0
230
1.0
 73
     2
 44
0.903614
  0
MTEXT
  5
54E
100
AcDbEntity
 67
     1
  8
1
390
0
  6
Continuous
 62
     7
100
AcDbMText
 10
7.379001
 20
1.122995
 30
0.0
 40
0.06
 41
0.0
 71
     7
 72
     5
  1
\W01.000;\Fsimplex.shx;.03 [.8]
  7
blockfont
210
0.0
220
0.0
230
1.0
 73
     2
 44
0.903614
  0
MTEXT
  5
54F
100
AcDbEntity
 67
     1
  8
1
390
0
  6
Continuous
 62
     7
100
AcDbMText
 10
1.875381
 20
0.642038
 30
0.0
 40
0.072
 41
0.0
 71
     7
 72
     5
  1
\W01.000;\Fsimplex.shx;DRAWING RELEASED TO PRODUCTION
  7
blockfont
210
0.0
220
0.0
230
1.0
 73
     2
 44
0.903614
  0
MTEXT
  5
550
100
AcDbEntity
 67
     1
  8
1
390
0
  6
Continuous
 62
     7
100
AcDbMText
 10
9.69647
 20
0.859785
 30
0.0
 40
0.125
 41
0.0
 71
     7
 72
     5
  1
\W01.000;\Fsimplex.shx;FULL
  7
blockfont
210
0.0
220
0.0
230
1.0
 73
     2
 44
0.903614
  0
MTEXT
  5
551
100
AcDbEntity
 67
     1
  8
1
390
0
  6
Continuous
 62
     7
100
AcDbMText
 10
6.668645
 20
0.6084
 30
0.0
 40
0.072
 41
0.0
 71
     7
 72
     5
  1
\W01.000;\Fsimplex.shx;10-16-00
  7
blockfont
210
0.0
220
0.0
230
1.0
 73
     2
 44
0.903614
  0
MTEXT
  5
552
100
AcDbEntity
 67
     1
  8
1
390
0
  6
Continuous
 62
     7
100
AcDbMText
 10
1.196158
 20
0.64399
 30
0.0
 40
0.072
 41
0.0
 71
     7
 72
     5
  1
\W01.000;\Fsimplex.shx;JBN
  7
blockfont
210
0.0
220
0.0
230
1.0
 73
     2
 44
0.903614
  0
MTEXT
  5
553
100
AcDbEntity
 67
     1
  8
1
390
0
  6
Continuous
 62
     7
100
AcDbMText
 10
9.22401
 20
0.454785
 30
0.0
 40
0.125
 41
0.0
 71
     7
 72
     5
  1
\W01.000;\Fsimplex.shx;37355-03
  7
blockfont
210
0.0
220
0.0
230
1.0
 73
     2
 44
0.903614
  0
MTEXT
  5
554
100
AcDbEntity
 67
     1
  8
1
390
0
  6
Continuous
 62
     7
100
AcDbMText
 10
6.998397
 20
2.110597
 30
0.0
 40
0.262
 41
0.0
 71
     7
 72
     5
  1
\W01.000;\Fsimplex.shx;ANDUIT
  7
blockfont
210
0.0
220
0.0
230
1.0
 73
     2
 44
0.903614
  0
MTEXT
  5
555
100
AcDbEntity
 67
     1
  8
1
390
0
  6
Continuous
 62
     7
100
AcDbMText
 10
6.821606
 20
1.455764
 30
0.0
 40
0.06
 41
0.0
 71
     7
 72
     5
  1
\W01.000;\Fsimplex.shx;UNLESS OTHERWISE SPECIFIED,
  7
blockfont
210
0.0
220
0.0
230
1.0
 73
     2
 44
0.903614
  0
MTEXT
  5
556
100
AcDbEntity
 67
     1
  8
1
390
0
  6
Continuous
 62
     7
100
AcDbMText
 10
6.821606
 20
1.350764
 30
0.0
 40
0.06
 41
0.0
 71
     7
 72
     5
  1
\W01.000;\Fsimplex.shx;DIMENSIONAL TOLERANCES ARE:
  7
blockfont
210
0.0
220
0.0
230
1.0
 73
     2
 44
0.903614
  0
MTEXT
  5
557
100
AcDbEntity
 67
     1
  8
1
390
0
  6
Continuous
 62
     7
100
AcDbMText
 10
6.834595
 20
1.225039
 30
0.0
 40
0.06
 41
0.0
 71
     7
 72
     5
  1
\W01.000;\Fsimplex.shx;(.X)
  7
blockfont
210
0.0
220
0.0
230
1.0
 73
     2
 44
0.903614
  0
MTEXT
  5
558
100
AcDbEntity
 67
     1
  8
1
390
0
  6
Continuous
 62
     7
100
AcDbMText
 10
7.98753
 20
1.1266
 30
0.0
 40
0.06
 41
0.0
 71
     7
 72
     5
  1
\W01.000;\Fsimplex.shx;ANGLES
  7
blockfont
210
0.0
220
0.0
230
1.0
 73
     2
 44
0.903614
  0
MTEXT
  5
559
100
AcDbEntity
 67
     1
  8
1
390
0
  6
Continuous
 62
     7
100
AcDbMText
 10
7.991916
 20
1.225541
 30
0.0
 40
0.06
 41
0.0
 71
     7
 72
     5
  1
\W01.000;\Fsimplex.shx;(.XXX)
  7
blockfont
210
0.0
220
0.0
230
1.0
 73
     2
 44
0.903614
  0
MTEXT
  5
55A
100
AcDbEntity
 67
     1
  8
1
390
0
  6
Continuous
 62
     7
100
AcDbMText
 10
6.83292
 20
1.124187
 30
0.0
 40
0.06
 41
0.0
 71
     7
 72
     5
  1
\W01.000;\Fsimplex.shx;(.XX)
  7
blockfont
210
0.0
220
0.0
230
1.0
 73
     2
 44
0.903614
  0
MTEXT
  5
55B
100
AcDbEntity
 67
     1
  8
1
390
0
  6
Continuous
 62
     7
100
AcDbMText
 10
7.42784
 20
0.940784
 30
0.0
 40
0.06
 41
0.0
 71
     7
 72
     5
  1
\W01.000;\Fsimplex.shx;MAT'L;
  7
blockfont
210
0.0
220
0.0
230
1.0
 73
     2
 44
0.903614
  0
MTEXT
  5
55C
100
AcDbEntity
 67
     1
  8
1
390
0
  6
Continuous
 62
     7
100
AcDbMText
 10
6.644232
 20
0.990671
 30
0.0
 40
0.0375
 41
0.0
 71
     7
 72
     5
  1
\W01.000;\Fsimplex.shx;DRAWN BY
  7
blockfont
210
0.0
220
0.0
230
1.0
 73
     2
 44
0.903614
  0
MTEXT
  5
55D
100
AcDbEntity
 67
     1
  8
1
390
0
  6
Continuous
 62
     7
100
AcDbMText
 10
6.647014
 20
0.742111
 30
0.0
 40
0.0375
 41
0.0
 71
     7
 72
     5
  1
\W01.000;\Fsimplex.shx;DATE
  7
blockfont
210
0.0
220
0.0
230
1.0
 73
     2
 44
0.903614
  0
MTEXT
  5
55E
100
AcDbEntity
 67
     1
  8
1
390
0
  6
Continuous
 62
     7
100
AcDbMText
 10
4.608116
 20
4.634808
 30
0.0
 40
0.09
 41
0.0
 71
     7
 72
     5
  1
\W01.000;\Fsimplex.shx;TANGENT
  7
blockfont
210
0.0
220
0.0
230
1.0
 73
     2
 44
0.903614
  0
MTEXT
  5
55F
100
AcDbEntity
 67
     1
  8
1
390
0
  6
Continuous
 62
     7
100
AcDbMText
 10
4.608116
 20
5.073558
 30
0.0
 40
0.09
 41
0.0
 71
     7
 72
     5
  1
\W01.000;\Fsimplex.shx;.48
  7
blockfont
210
0.0
220
0.0
230
1.0
 73
     2
 44
0.903614
  0
MTEXT
  5
560
100
AcDbEntity
 67
     1
  8
1
390
0
  6
Continuous
 62
     7
100
AcDbMText
 10
4.64749
 20
4.854183
 30
0.0
 40
0.09
 41
0.0
 71
     7
 72
     5
  1
\W01.000;\Fsimplex.shx;12.19
  7
blockfont
210
0.0
220
0.0
230
1.0
 73
     2
 44
0.903614
  0
MTEXT
  5
561
100
AcDbEntity
 67
     1
  8
1
390
0
  6
Continuous
 62
     7
100
AcDbMText
 10
4.615318
 20
5.908848
 30
0.0
 40
0.09
 41
0.0
 71
     7
 72
     5
  1
\W01.000;\Fsimplex.shx;.117
  7
blockfont
210
0.0
220
0.0
230
1.0
 73
     2
 44
0.903614
  0
MTEXT
  5
562
100
AcDbEntity
 67
     1
  8
1
390
0
  6
Continuous
 62
     7
100
AcDbMText
 10
4.654693
 20
5.689473
 30
0.0
 40
0.09
 41
0.0
 71
     7
 72
     5
  1
\W01.000;\Fsimplex.shx;2.98
  7
blockfont
210
0.0
220
0.0
230
1.0
 73
     2
 44
0.903614
  0
MTEXT
  5
563
100
AcDbEntity
 67
     1
  8
1
390
0
  6
Continuous
 62
     7
100
AcDbMText
 10
2.6279
 20
5.925576
 30
0.0
 40
0.09
 41
0.0
 71
     7
 72
     5
  1
\W01.000;\Fsimplex.shx;.07
  7
blockfont
210
0.0
220
0.0
230
1.0
 73
     2
 44
0.903614
  0
MTEXT
  5
564
100
AcDbEntity
 67
     1
  8
1
390
0
  6
Continuous
 62
     7
100
AcDbMText
 10
2.667274
 20
5.706201
 30
0.0
 40
0.09
 41
0.0
 71
     7
 72
     5
  1
\W01.000;\Fsimplex.shx;1.78
  7
blockfont
210
0.0
220
0.0
230
1.0
 73
     2
 44
0.903614
  0
MTEXT
  5
565
100
AcDbEntity
 67
     1
  8
1
390
0
  6
Continuous
 62
     7
100
AcDbMText
 10
0.436493
 20
6.225134
 30
0.0
 40
0.09
 41
0.0
 71
     7
 72
     5
  1
\W01.000;\Fsimplex.shx;94
  7
blockfont
210
0.0
220
0.0
230
1.0
 73
     2
 44
0.903614
  0
MTEXT
  5
566
100
AcDbEntity
 67
     1
  8
1
390
0
  6
Continuous
 62
     7
100
AcDbMText
 10
4.267509
 20
7.572108
 30
0.0
 40
0.09
 41
0.0
 71
     7
 72
     5
  1
\W01.000;\Fsimplex.shx;1.00
  7
blockfont
210
0.0
220
0.0
230
1.0
 73
     2
 44
0.903614
  0
MTEXT
  5
567
100
AcDbEntity
 67
     1
  8
1
390
0
  6
Continuous
 62
     7
100
AcDbMText
 10
4.74076
 20
7.676639
 30
0.0
 40
0.09
 41
0.0
 71
     7
 72
     5
  1
\W01.000;\Fsimplex.shx;+.050
  7
blockfont
210
0.0
220
0.0
230
1.0
 73
     2
 44
0.903614
  0
MTEXT
  5
568
100
AcDbEntity
 67
     1
  8
1
390
0
  6
Continuous
 62
     7
100
AcDbMText
 10
4.74076
 20
7.496639
 30
0.0
 40
0.09
 41
0.0
 71
     7
 72
     5
  1
\W01.000;\Fsimplex.shx;-.000
  7
blockfont
210
0.0
220
0.0
230
1.0
 73
     2
 44
0.903614
  0
MTEXT
  5
569
100
AcDbEntity
 67
     1
  8
1
390
0
  6
Continuous
 62
     7
100
AcDbMText
 10
4.306885
 20
7.143671
 30
0.0
 40
0.09
 41
0.0
 71
     7
 72
     5
  1
\W01.000;\Fsimplex.shx;25.40
  7
blockfont
210
0.0
220
0.0
230
1.0
 73
     2
 44
0.903614
  0
MTEXT
  5
56A
100
AcDbEntity
 67
     1
  8
1
390
0
  6
Continuous
 62
     7
100
AcDbMText
 10
4.878197
 20
7.248201
 30
0.0
 40
0.09
 41
0.0
 71
     7
 72
     5
  1
\W01.000;\Fsimplex.shx;+0.13
  7
blockfont
210
0.0
220
0.0
230
1.0
 73
     2
 44
0.903614
  0
MTEXT
  5
56B
100
AcDbEntity
 67
     1
  8
1
390
0
  6
Continuous
 62
     7
100
AcDbMText
 10
4.878197
 20
7.068202
 30
0.0
 40
0.09
 41
0.0
 71
     7
 72
     5
  1
\W01.000;\Fsimplex.shx; 0
  7
blockfont
210
0.0
220
0.0
230
1.0
 73
     2
 44
0.903614
  0
MTEXT
  5
56C
100
AcDbEntity
 67
     1
  8
1
390
0
  6
Continuous
 62
     7
100
AcDbMText
 10
5.351447
 20
7.572108
 30
0.0
 40
0.09
 41
0.0
 71
     7
 72
     5
  1
\W01.000;\Fsimplex.shx;R
  7
blockfont
210
0.0
220
0.0
230
1.0
 73
     2
 44
0.903614
  0
MTEXT
  5
56D
100
AcDbEntity
 67
     1
  8
1
390
0
  6
Continuous
 62
     7
100
AcDbMText
 10
1.858125
 20
6.123605
 30
0.0
 40
0.09
 41
0.0
 71
     7
 72
     5
  1
\W01.000;\Fsimplex.shx;88
  7
blockfont
210
0.0
220
0.0
230
1.0
 73
     2
 44
0.903614
  0
MTEXT
  5
56E
100
AcDbEntity
 67
     1
  8
1
390
0
  6
Continuous
 62
     7
100
AcDbMText
 10
1.291757
 20
6.718703
 30
0.0
 40
0.09
 41
0.0
 71
     7
 72
     5
  1
\W01.000;\Fsimplex.shx;TYP.
  7
blockfont
210
0.0
220
0.0
230
1.0
 73
     2
 44
0.903614
  0
MTEXT
  5
56F
100
AcDbEntity
 67
     1
  8
1
390
0
  6
Continuous
 62
     7
100
AcDbMText
 10
1.291757
 20
7.157453
 30
0.0
 40
0.09
 41
0.0
 71
     7
 72
     5
  1
\W01.000;\Fsimplex.shx;1.35
  7
blockfont
210
0.0
220
0.0
230
1.0
 73
     2
 44
0.903614
  0
MTEXT
  5
570
100
AcDbEntity
 67
     1
  8
1
390
0
  6
Continuous
 62
     7
100
AcDbMText
 10
1.331132
 20
6.938078
 30
0.0
 40
0.09
 41
0.0
 71
     7
 72
     5
  1
\W01.000;\Fsimplex.shx;34.36
  7
blockfont
210
0.0
220
0.0
230
1.0
 73
     2
 44
0.903614
  0
MTEXT
  5
571
100
AcDbEntity
 67
     1
  8
1
390
0
  6
Continuous
 62
     7
100
AcDbMText
 10
2.840413
 20
6.996022
 30
0.0
 40
0.09
 41
0.0
 71
     7
 72
     5
  1
\W01.000;\Fsimplex.shx;.24
  7
blockfont
210
0.0
220
0.0
230
1.0
 73
     2
 44
0.903614
  0
MTEXT
  5
572
100
AcDbEntity
 67
     1
  8
1
390
0
  6
Continuous
 62
     7
100
AcDbMText
 10
2.879788
 20
6.776647
 30
0.0
 40
0.09
 41
0.0
 71
     7
 72
     5
  1
\W01.000;\Fsimplex.shx;6.10
  7
blockfont
210
0.0
220
0.0
230
1.0
 73
     2
 44
0.903614
  0
MTEXT
  5
573
100
AcDbEntity
 67
     1
  8
1
390
0
  6
Continuous
 62
     7
100
AcDbMText
 10
6.286828
 20
4.762424
 30
0.0
 40
0.09
 41
0.0
 71
     7
 72
     5
  1
\W01.000;\Fsimplex.shx;A
  7
blockfont
210
0.0
220
0.0
230
1.0
 73
     2
 44
0.903614
  0
MTEXT
  5
574
100
AcDbEntity
 67
     1
  8
1
390
0
  6
Continuous
 62
     7
100
AcDbMText
 10
7.966308
 20
6.009987
 30
0.0
 40
0.09
 41
0.0
 71
     7
 72
     5
  1
\W01.000;\Fsimplex.shx;ISOMETRIC VIEW
  7
blockfont
210
0.0
220
0.0
230
1.0
 73
     2
 44
0.903614
  0
MTEXT
  5
575
100
AcDbEntity
 67
     1
  8
1
390
0
  6
Continuous
 62
     7
100
AcDbMText
 10
8.205371
 20
5.882252
 30
0.0
 40
0.0675
 41
0.0
 71
     7
 72
     5
  1
\W01.000;\Fsimplex.shx;SCALE:  .75X
  7
blockfont
210
0.0
220
0.0
230
1.0
 73
     2
 44
0.903614
  0
MTEXT
  5
576
100
AcDbEntity
 67
     1
  8
1
390
0
  6
Continuous
 62
     7
100
AcDbMText
 10
0.474608
 20
0.895946
 30
0.0
 40
0.072
 41
0.0
 71
     7
 72
     5
  1
\W01.000;\Fsimplex.shx;1
  7
blockfont
210
0.0
220
0.0
230
1.0
 73
     2
 44
0.903614
  0
MTEXT
  5
577
100
AcDbEntity
 67
     1
  8
1
390
0
  6
Continuous
 62
     7
100
AcDbMText
 10
0.689316
 20
0.914051
 30
0.0
 40
0.05
 41
0.0
 71
     7
 72
     5
  1
\W01.000;\Fsimplex.shx;07-23-01
  7
blockfont
210
0.0
220
0.0
230
1.0
 73
     2
 44
0.903614
  0
MTEXT
  5
578
100
AcDbEntity
 67
     1
  8
1
390
0
  6
Continuous
 62
     7
100
AcDbMText
 10
1.156933
 20
0.895946
 30
0.0
 40
0.072
 41
0.0
 71
     7
 72
     5
  1
\W01.000;\Fsimplex.shx;JCST
  7
blockfont
210
0.0
220
0.0
230
1.0
 73
     2
 44
0.903614
  0
MTEXT
  5
579
100
AcDbEntity
 67
     1
  8
1
390
0
  6
Continuous
 62
     7
100
AcDbMText
 10
1.872044
 20
0.948869
 30
0.0
 40
0.06
 41
0.0
 71
     7
 72
     5
  1
\W01.000;\Fsimplex.shx;B. CHART, NOTES, AND VIEWS CHANGED
  7
blockfont
210
0.0
220
0.0
230
1.0
 73
     2
 44
0.903614
  0
MTEXT
  5
57A
100
AcDbEntity
 67
     1
  8
1
390
0
  6
Continuous
 62
     7
100
AcDbMText
 10
1.872044
 20
0.858869
 30
0.0
 40
0.06
 41
0.0
 71
     7
 72
     5
  1
\W01.000;\Fsimplex.shx;A. DRAWING SIZE AND TITLE CHANGED
  7
blockfont
210
0.0
220
0.0
230
1.0
 73
     2
 44
0.903614
  0
MTEXT
  5
57B
100
AcDbEntity
 67
     1
  8
1
390
0
  6
Continuous
 62
     7
100
AcDbMText
 10
1.500181
 20
0.895946
 30
0.0
 40
0.072
 41
0.0
 71
     7
 72
     5
  1
\W01.000;\Fsimplex.shx;JKG
  7
blockfont
210
0.0
220
0.0
230
1.0
 73
     2
 44
0.903614
  0
MTEXT
  5
57C
100
AcDbEntity
 67
     1
  8
1
390
0
  6
Continuous
 62
     7
100
AcDbMText
 10
1.500181
 20
0.64399
 30
0.0
 40
0.072
 41
0.0
 71
     7
 72
     5
  1
\W01.000;\Fsimplex.shx;JKG
  7
blockfont
210
0.0
220
0.0
230
1.0
 73
     2
 44
0.903614
  0
MTEXT
  5
57D
100
AcDbEntity
 67
     1
  8
1
390
0
  6
Continuous
 62
     7
100
AcDbMText
 10
4.592592
 20
0.62814
 30
0.0
 40
0.06
 41
0.0
 71
     7
 72
     5
  1
\W01.000;\Fsimplex.shx;37355-03
  7
blockfont
210
0.0
220
0.0
230
1.0
 73
     2
 44
0.903614
  0
MTEXT
  5
57E
100
AcDbEntity
 67
     1
  8
1
390
0
  6
Continuous
 62
     7
100
AcDbMText
 10
4.592592
 20
0.880096
 30
0.0
 40
0.06
 41
0.0
 71
     7
 72
     5
  1
\W01.000;\Fsimplex.shx;37355-03
  7
blockfont
210
0.0
220
0.0
230
1.0
 73
     2
 44
0.903614
  0
MTEXT
  5
57F
100
AcDbEntity
 67
     1
  8
1
390
0
  6
Continuous
 62
     7
100
AcDbMText
 10
5.218711
 20
0.632118
 30
0.0
 40
0.06
 41
0.0
 71
     7
 72
     5
  1
\W01.000;\Fsimplex.shx;HIW
  7
blockfont
210
0.0
220
0.0
230
1.0
 73
     2
 44
0.903614
  0
MTEXT
  5
580
100
AcDbEntity
 67
     1
  8
1
390
0
  6
Continuous
 62
     7
100
AcDbMText
 10
5.567725
 20
0.634344
 30
0.0
 40
0.06
 41
0.0
 71
     7
 72
     5
  1
\W01.000;\Fsimplex.shx;HIW
  7
blockfont
210
0.0
220
0.0
230
1.0
 73
     2
 44
0.903614
  0
MTEXT
  5
581
100
AcDbEntity
 67
     1
  8
1
390
0
  6
Continuous
 62
     7
100
AcDbMText
 10
5.218711
 20
0.890074
 30
0.0
 40
0.06
 41
0.0
 71
     7
 72
     5
  1
\W01.000;\Fsimplex.shx;JKG
  7
blockfont
210
0.0
220
0.0
230
1.0
 73
     2
 44
0.903614
  0
MTEXT
  5
582
100
AcDbEntity
 67
     1
  8
1
390
0
  6
Continuous
 62
     7
100
AcDbMText
 10
0.474608
 20
1.148903
 30
0.0
 40
0.072
 41
0.0
 71
     7
 72
     5
  1
\W01.000;\Fsimplex.shx;2
  7
blockfont
210
0.0
220
0.0
230
1.0
 73
     2
 44
0.903614
  0
MTEXT
  5
583
100
AcDbEntity
 67
     1
  8
1
390
0
  6
Continuous
 62
     7
100
AcDbMText
 10
0.743796
 20
1.167007
 30
0.0
 40
0.05
 41
0.0
 71
     7
 72
     5
  1
\W01.000;\Fsimplex.shx;1-9-04
  7
blockfont
210
0.0
220
0.0
230
1.0
 73
     2
 44
0.903614
  0
MTEXT
  5
584
100
AcDbEntity
 67
     1
  8
1
390
0
  6
Continuous
 62
     7
100
AcDbMText
 10
1.156933
 20
1.148903
 30
0.0
 40
0.072
 41
0.0
 71
     7
 72
     5
  1
\W01.000;\Fsimplex.shx;JHNU
  7
blockfont
210
0.0
220
0.0
230
1.0
 73
     2
 44
0.903614
  0
MTEXT
  5
585
100
AcDbEntity
 67
     1
  8
1
390
0
  6
Continuous
 62
     7
100
AcDbMText
 10
1.872044
 20
1.156826
 30
0.0
 40
0.06
 41
0.0
 71
     7
 72
     5
  1
\W01.000;\Fsimplex.shx;C. DIMENSION WAS 3.44.
  7
blockfont
210
0.0
220
0.0
230
1.0
 73
     2
 44
0.903614
  0
MTEXT
  5
586
100
AcDbEntity
 67
     1
  8
1
390
0
  6
Continuous
 62
     7
100
AcDbMText
 10
4.592592
 20
1.133052
 30
0.0
 40
0.06
 41
0.0
 71
     7
 72
     5
  1
\W01.000;\Fsimplex.shx;37355-03
  7
blockfont
210
0.0
220
0.0
230
1.0
 73
     2
 44
0.903614
  0
MTEXT
  5
587
100
AcDbEntity
 67
     1
  8
1
390
0
  6
Continuous
 62
     7
100
AcDbMText
 10
7.399064
 20
3.190014
 30
0.0
 40
0.09
 41
0.0
 71
     7
 72
     5
  1
\W01.000;\Fsimplex.shx;C
  7
blockfont
210
0.0
220
0.0
230
1.0
 73
     2
 44
0.903614
  0
MTEXT
  5
588
100
AcDbEntity
 67
     1
  8
1
390
0
  6
Continuous
 62
     7
100
AcDbMText
 10
1.500181
 20
1.169903
 30
0.0
 40
0.072
 41
0.0
 71
     7
 72
     5
  1
\W01.000;\Fsimplex.shx;JKG
  7
blockfont
210
0.0
220
0.0
230
1.0
 73
     2
 44
0.903614
  0
MTEXT
  5
589
100
AcDbEntity
 67
     1
  8
1
390
0
  6
Continuous
 62
     7
100
AcDbMText
 10
5.205352
 20
1.149801
 30
0.0
 40
0.07
 41
0.0
 71
     7
 72
     5
  1
\W01.000;\Fsimplex.shx;HIW
  7
blockfont
210
0.0
220
0.0
230
1.0
 73
     2
 44
0.903614
  0
MTEXT
  5
58A
100
AcDbEntity
 67
     1
  8
1
390
0
  6
Continuous
 62
     7
100
AcDbMText
 10
5.554366
 20
1.152027
 30
0.0
 40
0.07
 41
0.0
 71
     7
 72
     5
  1
\W01.000;\Fsimplex.shx;HIW
  7
blockfont
210
0.0
220
0.0
230
1.0
 73
     2
 44
0.903614
  0
MTEXT
  5
58B
100
AcDbEntity
 67
     1
  8
1
390
0
  6
Continuous
 62
     7
100
AcDbMText
 10
5.554366
 20
1.390984
 30
0.0
 40
0.07
 41
0.0
 71
     7
 72
     5
  1
\W01.000;\Fsimplex.shx;JKG
  7
blockfont
210
0.0
220
0.0
230
1.0
 73
     2
 44
0.903614
  0
MTEXT
  5
58C
100
AcDbEntity
 67
     1
  8
1
390
0
  6
Continuous
 62
     7
100
AcDbMText
 10
0.474608
 20
1.402859
 30
0.0
 40
0.072
 41
0.0
 71
     7
 72
     5
  1
\W01.000;\Fsimplex.shx;3
  7
blockfont
210
0.0
220
0.0
230
1.0
 73
     2
 44
0.903614
  0
MTEXT
  5
58D
100
AcDbEntity
 67
     1
  8
1
390
0
  6
Continuous
 62
     7
100
AcDbMText
 10
0.716556
 20
1.420963
 30
0.0
 40
0.05
 41
0.0
 71
     7
 72
     5
  1
\W01.000;\Fsimplex.shx;4-12-06
  7
blockfont
210
0.0
220
0.0
230
1.0
 73
     2
 44
0.903614
  0
MTEXT
  5
58E
100
AcDbEntity
 67
     1
  8
1
390
0
  6
Continuous
 62
     7
100
AcDbMText
 10
1.156933
 20
1.402859
 30
0.0
 40
0.072
 41
0.0
 71
     7
 72
     5
  1
\W01.000;\Fsimplex.shx;JCST
  7
blockfont
210
0.0
220
0.0
230
1.0
 73
     2
 44
0.903614
  0
MTEXT
  5
58F
100
AcDbEntity
 67
     1
  8
1
390
0
  6
Continuous
 62
     7
100
AcDbMText
 10
1.872044
 20
1.410782
 30
0.0
 40
0.06
 41
0.0
 71
     7
 72
     5
  1
\W01.000;\Fsimplex.shx;D. REV'D LENGTHS & TOLERANCE
  7
blockfont
210
0.0
220
0.0
230
1.0
 73
     2
 44
0.903614
  0
MTEXT
  5
590
100
AcDbEntity
 67
     1
  8
1
390
0
  6
Continuous
 62
     7
100
AcDbMText
 10
1.500181
 20
1.402859
 30
0.0
 40
0.072
 41
0.0
 71
     7
 72
     5
  1
\W01.000;\Fsimplex.shx;JKG
  7
blockfont
210
0.0
220
0.0
230
1.0
 73
     2
 44
0.903614
  0
MTEXT
  5
591
100
AcDbEntity
 67
     1
  8
1
390
0
  6
Continuous
 62
     7
100
AcDbMText
 10
4.592592
 20
1.387009
 30
0.0
 40
0.06
 41
0.0
 71
     7
 72
     5
  1
\W01.000;\Fsimplex.shx;37355-03
  7
blockfont
210
0.0
220
0.0
230
1.0
 73
     2
 44
0.903614
  0
MTEXT
  5
592
100
AcDbEntity
 67
     1
  8
1
390
0
  6
Continuous
 62
     7
100
AcDbMText
 10
5.205352
 20
1.388757
 30
0.0
 40
0.07
 41
0.0
 71
     7
 72
     5
  1
\W01.000;\Fsimplex.shx;JKG
  7
blockfont
210
0.0
220
0.0
230
1.0
 73
     2
 44
0.903614
  0
MTEXT
  5
593
100
AcDbEntity
 67
     1
  8
1
390
0
  6
Continuous
 62
     7
100
AcDbMText
 10
9.807295
 20
4.768364
 30
0.0
 40
0.09
 41
0.0
 71
     7
 72
     5
  1
\W01.000;\Fsimplex.shx;+/-.060"
  7
blockfont
210
0.0
220
0.0
230
1.0
 73
     2
 44
0.903614
  0
MTEXT
  5
594
100
AcDbEntity
 67
     1
  8
1
390
0
  6
Continuous
 62
     7
100
AcDbMText
 10
9.93667
 20
4.64063
 30
0.0
 40
0.0675
 41
0.0
 71
     7
 72
     5
  1
\W01.000;\Fsimplex.shx;[
  7
blockfont
210
0.0
220
0.0
230
1.0
 73
     2
 44
0.903614
  0
MTEXT
  5
595
100
AcDbEntity
 67
     1
  8
1
390
0
  6
Continuous
 62
     7
100
AcDbMText
 10
10.083764
 20
4.64063
 30
0.0
 40
0.0675
 41
0.0
 71
     7
 72
     5
  1
\W01.000;\Fsimplex.shx;1.52]
  7
blockfont
210
0.0
220
0.0
230
1.0
 73
     2
 44
0.903614
  0
MTEXT
  5
596
100
AcDbEntity
 67
     1
  8
1
390
0
  6
Continuous
 62
     7
100
AcDbMText
 10
9.807295
 20
4.393364
 30
0.0
 40
0.09
 41
0.0
 71
     7
 72
     5
  1
\W01.000;\Fsimplex.shx;+/-.060"
  7
blockfont
210
0.0
220
0.0
230
1.0
 73
     2
 44
0.903614
  0
MTEXT
  5
597
100
AcDbEntity
 67
     1
  8
1
390
0
  6
Continuous
 62
     7
100
AcDbMText
 10
9.93667
 20
4.26563
 30
0.0
 40
0.0675
 41
0.0
 71
     7
 72
     5
  1
\W01.000;\Fsimplex.shx;[
  7
blockfont
210
0.0
220
0.0
230
1.0
 73
     2
 44
0.903614
  0
MTEXT
  5
598
100
AcDbEntity
 67
     1
  8
1
390
0
  6
Continuous
 62
     7
100
AcDbMText
 10
10.083764
 20
4.26563
 30
0.0
 40
0.0675
 41
0.0
 71
     7
 72
     5
  1
\W01.000;\Fsimplex.shx;1.52]
  7
blockfont
210
0.0
220
0.0
230
1.0
 73
     2
 44
0.903614
  0
MTEXT
  5
599
100
AcDbEntity
 67
     1
  8
1
390
0
  6
Continuous
 62
     7
100
AcDbMText
 10
9.807295
 20
4.018364
 30
0.0
 40
0.09
 41
0.0
 71
     7
 72
     5
  1
\W01.000;\Fsimplex.shx;+/-.060"
  7
blockfont
210
0.0
220
0.0
230
1.0
 73
     2
 44
0.903614
  0
MTEXT
  5
59A
100
AcDbEntity
 67
     1
  8
1
390
0
  6
Continuous
 62
     7
100
AcDbMText
 10
9.93667
 20
3.89063
 30
0.0
 40
0.0675
 41
0.0
 71
     7
 72
     5
  1
\W01.000;\Fsimplex.shx;[
  7
blockfont
210
0.0
220
0.0
230
1.0
 73
     2
 44
0.903614
  0
MTEXT
  5
59B
100
AcDbEntity
 67
     1
  8
1
390
0
  6
Continuous
 62
     7
100
AcDbMText
 10
10.083764
 20
3.89063
 30
0.0
 40
0.0675
 41
0.0
 71
     7
 72
     5
  1
\W01.000;\Fsimplex.shx;1.52]
  7
blockfont
210
0.0
220
0.0
230
1.0
 73
     2
 44
0.903614
  0
MTEXT
  5
59C
100
AcDbEntity
 67
     1
  8
1
390
0
  6
Continuous
 62
     7
100
AcDbMText
 10
9.807295
 20
3.643364
 30
0.0
 40
0.09
 41
0.0
 71
     7
 72
     5
  1
\W01.000;\Fsimplex.shx;+/-.060"
  7
blockfont
210
0.0
220
0.0
230
1.0
 73
     2
 44
0.903614
  0
MTEXT
  5
59D
100
AcDbEntity
 67
     1
  8
1
390
0
  6
Continuous
 62
     7
100
AcDbMText
 10
9.93667
 20
3.51563
 30
0.0
 40
0.0675
 41
0.0
 71
     7
 72
     5
  1
\W01.000;\Fsimplex.shx;[
  7
blockfont
210
0.0
220
0.0
230
1.0
 73
     2
 44
0.903614
  0
MTEXT
  5
59E
100
AcDbEntity
 67
     1
  8
1
390
0
  6
Continuous
 62
     7
100
AcDbMText
 10
10.083764
 20
3.51563
 30
0.0
 40
0.0675
 41
0.0
 71
     7
 72
     5
  1
\W01.000;\Fsimplex.shx;1.52]
  7
blockfont
210
0.0
220
0.0
230
1.0
 73
     2
 44
0.903614
  0
MTEXT
  5
59F
100
AcDbEntity
 67
     1
  8
1
390
0
  6
Continuous
 62
     7
100
AcDbMText
 10
9.807295
 20
3.268364
 30
0.0
 40
0.09
 41
0.0
 71
     7
 72
     5
  1
\W01.000;\Fsimplex.shx;+/-.060"
  7
blockfont
210
0.0
220
0.0
230
1.0
 73
     2
 44
0.903614
  0
MTEXT
  5
5A0
100
AcDbEntity
 67
     1
  8
1
390
0
  6
Continuous
 62
     7
100
AcDbMText
 10
9.93667
 20
3.14063
 30
0.0
 40
0.0675
 41
0.0
 71
     7
 72
     5
  1
\W01.000;\Fsimplex.shx;[
  7
blockfont
210
0.0
220
0.0
230
1.0
 73
     2
 44
0.903614
  0
MTEXT
  5
5A1
100
AcDbEntity
 67
     1
  8
1
390
0
  6
Continuous
 62
     7
100
AcDbMText
 10
10.083764
 20
3.14063
 30
0.0
 40
0.0675
 41
0.0
 71
     7
 72
     5
  1
\W01.000;\Fsimplex.shx;1.52]
  7
blockfont
210
0.0
220
0.0
230
1.0
 73
     2
 44
0.903614
  0
MTEXT
  5
5A2
100
AcDbEntity
 67
     1
  8
1
390
0
  6
Continuous
 62
     7
100
AcDbMText
 10
9.643441
 20
5.764893
 30
0.0
 40
0.06
 41
0.0
 71
     7
 72
     5
  1
\W01.000;\Fsimplex.shx;D
  7
blockfont
210
0.0
220
0.0
230
1.0
 73
     2
 44
0.903614
  0
MTEXT
  5
5A3
100
AcDbEntity
 67
     1
  8
1
390
0
  6
Continuous
 62
     7
100
AcDbMText
 10
5.567725
 20
1.684169
 30
0.0
 40
0.06
 41
0.0
 71
     7
 72
     5
  1
\W01.000;\Fsimplex.shx;HIW
  7
blockfont
210
0.0
220
0.0
230
1.0
 73
     2
 44
0.903614
  0
MTEXT
  5
5A4
100
AcDbEntity
 67
     1
  8
1
390
0
  6
Continuous
 62
     7
100
AcDbMText
 10
0.474608
 20
1.657815
 30
0.0
 40
0.072
 41
0.0
 71
     7
 72
     5
  1
\W01.000;\Fsimplex.shx;4
  7
blockfont
210
0.0
220
0.0
230
1.0
 73
     2
 44
0.903614
  0
MTEXT
  5
5A5
100
AcDbEntity
 67
     1
  8
1
390
0
  6
Continuous
 62
     7
100
AcDbMText
 10
0.689316
 20
1.675919
 30
0.0
 40
0.05
 41
0.0
 71
     7
 72
     5
  1
\W01.000;\Fsimplex.shx;11-11-09
  7
blockfont
210
0.0
220
0.0
230
1.0
 73
     2
 44
0.903614
  0
MTEXT
  5
5A6
100
AcDbEntity
 67
     1
  8
1
390
0
  6
Continuous
 62
     7
100
AcDbMText
 10
1.156933
 20
1.657815
 30
0.0
 40
0.072
 41
0.0
 71
     7
 72
     5
  1
\W01.000;\Fsimplex.shx;JCST
  7
blockfont
210
0.0
220
0.0
230
1.0
 73
     2
 44
0.903614
  0
MTEXT
  5
5A7
100
AcDbEntity
 67
     1
  8
1
390
0
  6
Continuous
 62
     7
100
AcDbMText
 10
1.872044
 20
1.665738
 30
0.0
 40
0.06
 41
0.0
 71
     7
 72
     5
  1
\W01.000;\Fsimplex.shx;E. CHANGED "LENGTH" TO "HEIGHT"
  7
blockfont
210
0.0
220
0.0
230
1.0
 73
     2
 44
0.903614
  0
MTEXT
  5
5A8
100
AcDbEntity
 67
     1
  8
1
390
0
  6
Continuous
 62
     7
100
AcDbMText
 10
1.483506
 20
1.66769
 30
0.0
 40
0.06
 41
0.0
 71
     7
 72
     5
  1
\W01.000;\Fsimplex.shx;MRJS
  7
blockfont
210
0.0
220
0.0
230
1.0
 73
     2
 44
0.903614
  0
MTEXT
  5
5A9
100
AcDbEntity
 67
     1
  8
1
390
0
  6
Continuous
 62
     7
100
AcDbMText
 10
4.592592
 20
1.671965
 30
0.0
 40
0.06
 41
0.0
 71
     7
 72
     5
  1
\W01.000;\Fsimplex.shx;37355-03
  7
blockfont
210
0.0
220
0.0
230
1.0
 73
     2
 44
0.903614
  0
MTEXT
  5
5AA
100
AcDbEntity
 67
     1
  8
1
390
0
  6
Continuous
 62
     7
100
AcDbMText
 10
5.218711
 20
1.681943
 30
0.0
 40
0.06
 41
0.0
 71
     7
 72
     5
  1
\W01.000;\Fsimplex.shx;HIW
  7
blockfont
210
0.0
220
0.0
230
1.0
 73
     2
 44
0.903614
  0
MTEXT
  5
5AB
100
AcDbEntity
 67
     1
  8
1
390
0
  6
Continuous
 62
     7
100
AcDbMText
 10
9.943441
 20
5.764893
 30
0.0
 40
0.06
 41
0.0
 71
     7
 72
     5
  1
\W01.000;\Fsimplex.shx;E
  7
blockfont
210
0.0
220
0.0
230
1.0
 73
     2
 44
0.903614
  0
ENDSEC
  0
SECTION
  2
OBJECTS
  0
DICTIONARY
  5
19
100
AcDbDictionary
280
     0
281
     1
  3
ACAD_GROUP
350
1A
  3
ACAD_MLINESTYLE
350
1B
  3
ACAD_LAYOUT
350
1E
  3
ACAD_PLOTSETTINGS
350
22
  3
ACAD_PLOTSTYLENAME
350
1F
  3
ACAD_WIPEOUT_VARS
350
23
  0
DICTIONARY
  5
1A
102
{ACAD_REACTORS
330
19
102
}
100
AcDbDictionary
280
     0
281
     1
  0
DICTIONARY
  5
1B
102
{ACAD_REACTORS
330
19
102
}
100
AcDbDictionary
280
     0
281
     1
  3
Standard
350
1C
  0
MLINESTYLE
  5
1C
102
{ACAD_REACTORS
330
1B
102
}
100
AcDbMlineStyle
  2
Standard
 70
     0
  3

 62
     0
 51
90.0
 52
90.0
 71
     2
 49
0.5
 62
   256
  6
ByLayer
 49
-0.5
 62
   256
  6
ByLayer
  0
ACDBDICTIONARYWDFLT
  5
1F
102
{ACAD_REACTORS
330
19
102
}
100
AcDbDictionary
281
     1
  3
Normal
350
1D
100
AcDbDictionaryWithDefault
340
1D
  0
ACDBPLACEHOLDER
  5
1D
102
{ACAD_REACTORS
330
1F
102
}
  0
LAYOUT
  5
20
102
{ACAD_REACTORS
330
1E
102
}
100
AcDbPlotSettings
  1

  2

  4

  6

 40
0.0
 41
0.0
 42
0.0
 43
0.0
 44
0.0
 45
0.0
 46
0.0
 47
0.0
 48
0.0
 49
0.0
140
0.0
141
0.0
142
1.0
143
1.0
 70
  1024
 72
     0
 73
     0
 74
     0
  7

 75
     0
147
1.0
148
0.0
149
0.0
100
AcDbLayout
  1
Model
 70
     0
 71
     0
 10
0.0
 20
0.0
 11
0.0
 21
0.0
 12
0.0
 22
0.0
 32
0.0
 14
0.0
 24
0.0
 34
0.0
 15
0.0
 25
0.0
 35
0.0
146
0.0
 13
0.0
 23
0.0
 33
0.0
 16
0.0
 26
0.0
 36
0.0
 17
0.0
 27
0.0
 37
0.0
 76
     0
330
A
331
0
345
0
346
0
  0
LAYOUT
  5
21
102
{ACAD_REACTORS
330
1E
102
}
100
AcDbPlotSettings
  1

  2

  4

  6

 40
0.0
 41
0.0
 42
0.0
 43
0.0
 44
0.0
 45
0.0
 46
0.0
 47
0.0
 48
0.0
 49
0.0
140
0.0
141
0.0
142
1.0
143
1.0
 70
     0
 72
     0
 73
     0
 74
     0
  7

 75
     0
147
1.0
148
0.0
149
0.0
100
AcDbLayout
  1
Layout1
 70
     0
 71
     0
 10
0.0
 20
0.0
 11
0.0
 21
0.0
 12
0.0
 22
0.0
 32
0.0
 14
0.0
 24
0.0
 34
0.0
 15
0.0
 25
0.0
 35
0.0
146
0.0
 13
0.0
 23
0.0
 33
0.0
 16
0.0
 26
0.0
 36
0.0
 17
0.0
 27
0.0
 37
0.0
 76
     0
330
B
331
0
345
0
346
0
  0
DICTIONARY
  5
1E
102
{ACAD_REACTORS
330
19
102
}
100
AcDbDictionary
280
     0
281
     1
  3
Layout1
350
21
  3
Model
350
20
  3
37355-03
350
5AC
  0
DICTIONARY
  5
22
102
{ACAD_REACTORS
330
19
102
}
100
AcDbDictionary
280
     0
281
     1
  0
WIPEOUTVARIABLES
  5
23
100
AcDbWipeoutVariables
 70
     1
  0
LAYOUT
  5
5AC
102
{ACAD_REACTORS
330
1E
102
}
100
AcDbPlotSettings
  1

  2

  4

  6

 40
20.0
 41
20.0
 42
20.0
 43
20.0
 44
319.4
 45
255.9
 46
0.0
 47
0.0
 48
0.0
 49
0.0
140
319.4
141
255.9
142
1.0
143
1.0
 70
     0
 72
     0
 73
     0
 74
     1
  7

 75
     0
147
1.0
148
0.0
149
0.0
100
AcDbLayout
  1
37355-03
 70
     0
 71
     1
 10
0.0
 20
0.0
 11
11.0
 21
8.5
 12
0.0
 22
0.0
 32
0.0
 14
0.0
 24
0.0
 34
0.0
 15
11.0
 25
8.5
 35
0.0
146
0.0
 13
0.0
 23
0.0
 33
0.0
 16
0.0
 26
0.0
 36
0.0
 17
0.0
 27
0.0
 37
0.0
 76
     0
330
B
331
32
345
0
346
0
  0
ENDSEC
  0
EOF
